  0
SECTION
  2
HEADER
  9
$ACADVER
  1
AC1012
  9
$DWGCODEPAGE
  3
ansi_932
  9
$INSBASE
 10
0.0
 20
0.0
 30
0.0
  9
$EXTMIN
 10
1936.688533938548
 20
-733.0243809216327
 30
0.0
  9
$EXTMAX
 10
2549.988642344374
 20
-314.0243809226554
 30
0.0000000002254849
  9
$LIMMIN
 10
0.0
 20
0.0
  9
$LIMMAX
 10
420.0
 20
297.0
  9
$ORTHOMODE
 70
     0
  9
$REGENMODE
 70
     1
  9
$FILLMODE
 70
     1
  9
$QTEXTMODE
 70
     0
  9
$MIRRTEXT
 70
     0
  9
$DRAGMODE
 70
     2
  9
$LTSCALE
 40
0.5
  9
$OSMODE
 70
 16383
  9
$ATTMODE
 70
     1
  9
$TEXTSIZE
 40
4.0
  9
$TRACEWID
 40
1.0
  9
$TEXTSTYLE
  7
STANDARD
  9
$CLAYER
  8
1TEXT
  9
$CELTYPE
  6
BYLAYER
  9
$CECOLOR
 62
   256
  9
$CELTSCALE
 40
1.0
  9
$DELOBJ
 70
     1
  9
$DISPSILH
 70
     0
  9
$DIMSCALE
 40
1.0
  9
$DIMASZ
 40
2.0
  9
$DIMEXO
 40
0.0
  9
$DIMDLI
 40
7.0
  9
$DIMRND
 40
0.0
  9
$DIMDLE
 40
0.0
  9
$DIMEXE
 40
1.0
  9
$DIMTP
 40
0.0
  9
$DIMTM
 40
0.0
  9
$DIMTXT
 40
3.5
  9
$DIMCEN
 40
0.0
  9
$DIMTSZ
 40
0.0
  9
$DIMTOL
 70
     0
  9
$DIMLIM
 70
     0
  9
$DIMTIH
 70
     0
  9
$DIMTOH
 70
     0
  9
$DIMSE1
 70
     0
  9
$DIMSE2
 70
     0
  9
$DIMTAD
 70
     1
  9
$DIMZIN
 70
     8
  9
$DIMBLK
  1

  9
$DIMASO
 70
     1
  9
$DIMSHO
 70
     1
  9
$DIMPOST
  1
 
  9
$DIMAPOST
  1

  9
$DIMALT
 70
     0
  9
$DIMALTD
 70
     2
  9
$DIMALTF
 40
25.4
  9
$DIMLFAC
 40
1.0
  9
$DIMTOFL
 70
     1
  9
$DIMTVP
 40
0.0
  9
$DIMTIX
 70
     0
  9
$DIMSOXD
 70
     0
  9
$DIMSAH
 70
     1
  9
$DIMBLK1
  1
OPEN30
  9
$DIMBLK2
  1
OPEN30
  9
$DIMSTYLE
  2
NEWX10
  9
$DIMCLRD
 70
   256
  9
$DIMCLRE
 70
   256
  9
$DIMCLRT
 70
   201
  9
$DIMTFAC
 40
0.7
  9
$DIMGAP
 40
0.7
  9
$DIMJUST
 70
     0
  9
$DIMSD1
 70
     0
  9
$DIMSD2
 70
     0
  9
$DIMTOLJ
 70
     1
  9
$DIMTZIN
 70
     8
  9
$DIMALTZ
 70
     0
  9
$DIMALTTZ
 70
     0
  9
$DIMFIT
 70
     2
  9
$DIMUPT
 70
     0
  9
$DIMUNIT
 70
     2
  9
$DIMDEC
 70
     2
  9
$DIMTDEC
 70
     4
  9
$DIMALTU
 70
     2
  9
$DIMALTTD
 70
     2
  9
$DIMTXSTY
  7
STANDARD
  9
$DIMAUNIT
 70
     0
  9
$LUNITS
 70
     2
  9
$LUPREC
 70
     4
  9
$SKETCHINC
 40
1.0
  9
$FILLETRAD
 40
0.0
  9
$AUNITS
 70
     0
  9
$AUPREC
 70
     2
  9
$MENU
  1
acad
  9
$ELEVATION
 40
0.0
  9
$PELEVATION
 40
0.0
  9
$THICKNESS
 40
0.0
  9
$LIMCHECK
 70
     0
  9
$CHAMFERA
 40
10.0
  9
$CHAMFERB
 40
10.0
  9
$CHAMFERC
 40
20.0
  9
$CHAMFERD
 40
0.0
  9
$SKPOLY
 70
     0
  9
$TDCREATE
 40
2451318.621352917
  9
$TDUPDATE
 40
2458808.366682512
  9
$TDINDWG
 40
1.5355835532
  9
$TDUSRTIMER
 40
1.5355835532
  9
$USRTIMER
 70
     1
  9
$ANGBASE
 50
0.0
  9
$ANGDIR
 70
     0
  9
$PDMODE
 70
     0
  9
$PDSIZE
 40
0.0
  9
$PLINEWID
 40
0.0
  9
$COORDS
 70
     2
  9
$SPLFRAME
 70
     0
  9
$SPLINETYPE
 70
     6
  9
$SPLINESEGS
 70
     8
  9
$ATTDIA
 70
     0
  9
$ATTREQ
 70
     1
  9
$HANDLING
 70
     1
  9
$HANDSEED
  5
1B601
  9
$SURFTAB1
 70
     6
  9
$SURFTAB2
 70
     6
  9
$SURFTYPE
 70
     6
  9
$SURFU
 70
     6
  9
$SURFV
 70
     6
  9
$UCSNAME
  2

  9
$UCSORG
 10
0.0
 20
0.0
 30
0.0
  9
$UCSXDIR
 10
1.0
 20
0.0
 30
0.0
  9
$UCSYDIR
 10
0.0
 20
1.0
 30
0.0
  9
$PUCSNAME
  2

  9
$PUCSORG
 10
0.0
 20
0.0
 30
0.0
  9
$PUCSXDIR
 10
1.0
 20
0.0
 30
0.0
  9
$PUCSYDIR
 10
0.0
 20
1.0
 30
0.0
  9
$USERI1
 70
     0
  9
$USERI2
 70
     0
  9
$USERI3
 70
     0
  9
$USERI4
 70
     0
  9
$USERI5
 70
     0
  9
$USERR1
 40
0.0
  9
$USERR2
 40
0.0
  9
$USERR3
 40
0.0
  9
$USERR4
 40
0.0
  9
$USERR5
 40
0.0
  9
$WORLDVIEW
 70
     1
  9
$SHADEDGE
 70
     3
  9
$SHADEDIF
 70
    70
  9
$TILEMODE
 70
     1
  9
$MAXACTVP
 70
    48
  9
$PINSBASE
 10
0.0
 20
0.0
 30
0.0
  9
$PLIMCHECK
 70
     0
  9
$PEXTMIN
 10
1.000000000000000E+20
 20
1.000000000000000E+20
 30
1.000000000000000E+20
  9
$PEXTMAX
 10
-1.000000000000000E+20
 20
-1.000000000000000E+20
 30
-1.000000000000000E+20
  9
$PLIMMIN
 10
0.0
 20
0.0
  9
$PLIMMAX
 10
420.0
 20
297.0
  9
$UNITMODE
 70
     0
  9
$VISRETAIN
 70
     1
  9
$PLINEGEN
 70
     0
  9
$PSLTSCALE
 70
     1
  9
$TREEDEPTH
 70
  3020
  9
$PICKSTYLE
 70
     1
  9
$CMLSTYLE
  2
STANDARD
  9
$CMLJUST
 70
     0
  9
$CMLSCALE
 40
20.0
  9
$SAVEIMAGES
 70
     1
  0
ENDSEC
  0
SECTION
  2
CLASSES
  0
CLASS
  1
DICTIONARYVAR
  2
AcDbDictionaryVar
  3
ObjectDBX Classes
 90
        0
280
     0
281
     0
  0
CLASS
  1
IDBUFFER
  2
AcDbIdBuffer
  3
ObjectDBX Classes
 90
    32768
280
     0
281
     0
  0
CLASS
  1
LWPOLYLINE
  2
AcDbPolyline
  3
ObjectDBX Classes
 90
    32768
280
     0
281
     1
  0
CLASS
  1
ACDBDICTIONARYWDFLT
  2
AcDbDictionaryWithDefault
  3
ObjectDBX Classes
 90
    32768
280
     0
281
     0
  0
CLASS
  1
ACDBPLACEHOLDER
  2
AcDbPlaceHolder
  3
ObjectDBX Classes
 90
        0
280
     0
281
     0
  0
CLASS
  1
LAYOUT
  2
AcDbLayout
  3
ObjectDBX Classes
 90
        0
280
     0
281
     0
  0
CLASS
  1
TABLESTYLE
  2
AcDbTableStyle
  3
ObjectDBX Classes
 90
     4095
280
     0
281
     0
  0
CLASS
  1
SORTENTSTABLE
  2
AcDbSortentsTable
  3
ObjectDBX Classes
 90
    32768
280
     0
281
     0
  0
CLASS
  1
MATERIAL
  2
AcDbMaterial
  3
ObjectDBX Classes
 90
     1153
280
     0
281
     0
  0
CLASS
  1
VISUALSTYLE
  2
AcDbVisualStyle
  3
ObjectDBX Classes
 90
     4095
280
     0
281
     0
  0
CLASS
  1
SCALE
  2
AcDbScale
  3
ObjectDBX Classes
 90
     1153
280
     0
281
     0
  0
CLASS
  1
MLEADERSTYLE
  2
AcDbMLeaderStyle
  3
ACDB_MLEADERSTYLE_CLASS
 90
     4095
280
     0
281
     0
  0
CLASS
  1
CELLSTYLEMAP
  2
AcDbCellStyleMap
  3
ObjectDBX Classes
 90
     1152
280
     0
281
     0
  0
CLASS
  1
SUN
  2
AcDbSun
  3
SCENEOE
 90
     1153
280
     0
281
     0
  0
CLASS
  1
XRECORD
  2
AcDbXrecord
  3
ObjectDBX Classes
 90
    32768
280
     0
281
     0
  0
CLASS
  1
HATCH
  2
AcDbHatch
  3
ObjectDBX Classes
 90
    32768
280
     0
281
     1
  0
ENDSEC
  0
SECTION
  2
TABLES
  0
TABLE
  2
VPORT
  5
8
330
0
100
AcDbSymbolTable
 70
     1
  0
VPORT
  5
D991
330
8
100
AcDbSymbolTableRecord
100
AcDbViewportTableRecord
  2
*ACTIVE
 70
     0
 10
0.0
 20
0.0
 11
1.0
 21
1.0
 12
2243.338588141461
 22
-523.524380922144
 13
0.0
 23
0.0
 14
10.0
 24
10.0
 15
10.0
 25
10.0
 16
0.0
 26
0.0
 36
1.0
 17
0.0
 27
0.0
 37
0.0
 40
449.8736842094282
 41
2.152122641509434
 42
50.0
 43
0.0
 44
0.0
 50
0.0
 51
0.0
 71
    16
 72
   100
 73
     1
 74
     1
 75
     0
 76
     0
 77
     0
 78
     0
1001
ACAD_NAV_VCDISPLAY
1070
     3
  0
ENDTAB
  0
TABLE
  2
LTYPE
  5
5
330
0
100
AcDbSymbolTable
 70
     3
  0
LTYPE
  5
12
330
5
100
AcDbSymbolTableRecord
100
AcDbLinetypeTableRecord
  2
BYBLOCK
 70
     0
  3

 72
    65
 73
     0
 40
0.0
  0
LTYPE
  5
13
330
5
100
AcDbSymbolTableRecord
100
AcDbLinetypeTableRecord
  2
BYLAYER
 70
     0
  3

 72
    65
 73
     0
 40
0.0
  0
LTYPE
  5
14
330
5
100
AcDbSymbolTableRecord
100
AcDbLinetypeTableRecord
  2
CONTINUOUS
 70
     0
  3
Solid line
 72
    65
 73
     0
 40
0.0
  0
LTYPE
  5
2C03
330
5
100
AcDbSymbolTableRecord
100
AcDbLinetypeTableRecord
  2
HIDDEN
 70
     0
  3
Hidden __ __ __ __ __ __ __ __ __ __ __ __ __ _
 72
    65
 73
     2
 40
9.524999999999999
 49
6.35
 74
     0
 49
-3.175
 74
     0
  0
LTYPE
  5
13839
330
5
100
AcDbSymbolTableRecord
100
AcDbLinetypeTableRecord
  2
CENTER2
 70
     0
  3
Center (.5x) ___ _ ___ _ ___ _ ___ _ ___ _ ___
 72
    65
 73
     4
 40
28.575
 49
19.05
 74
     0
 49
-3.175
 74
     0
 49
3.175
 74
     0
 49
-3.175
 74
     0
  0
ENDTAB
  0
TABLE
  2
LAYER
  5
2
102
{ACAD_XDICTIONARY
360
E6A6
102
}
330
0
100
AcDbSymbolTable
 70
     6
  0
LAYER
  5
E
102
{ACAD_XDICTIONARY
360
DA05
102
}
330
2
100
AcDbSymbolTableRecord
100
AcDbLayerTableRecord
  2
0
 70
     0
 62
     7
  6
CONTINUOUS
  0
LAYER
  5
29
102
{ACAD_XDICTIONARY
360
DA07
102
}
330
2
100
AcDbSymbolTableRecord
100
AcDbLayerTableRecord
  2
1CENTER
 70
     0
 62
     7
  6
CENTER2
  0
LAYER
  5
31
102
{ACAD_XDICTIONARY
360
DA09
102
}
330
2
100
AcDbSymbolTableRecord
100
AcDbLayerTableRecord
  2
1TEXT
 70
     0
 62
     7
  6
CONTINUOUS
  0
LAYER
  5
243
102
{ACAD_XDICTIONARY
360
DA0F
102
}
330
2
100
AcDbSymbolTableRecord
100
AcDbLayerTableRecord
  2
01
 70
     0
 62
     1
  6
CONTINUOUS
  0
LAYER
  5
24E
102
{ACAD_XDICTIONARY
360
DA15
102
}
330
2
100
AcDbSymbolTableRecord
100
AcDbLayerTableRecord
  2
1DIM
 70
     0
 62
     7
  6
CONTINUOUS
  0
LAYER
  5
2C05
102
{ACAD_XDICTIONARY
360
DA23
102
}
330
2
100
AcDbSymbolTableRecord
100
AcDbLayerTableRecord
  2
1HIDDEN
 70
     0
 62
     7
  6
HIDDEN
  0
ENDTAB
  0
TABLE
  2
STYLE
  5
3
330
0
100
AcDbSymbolTable
 70
     1
  0
STYLE
  5
F
330
3
100
AcDbSymbolTableRecord
100
AcDbTextStyleTableRecord
  2
STANDARD
 70
     0
 40
0.0
 41
1.0
 50
0.0
 71
     0
 42
4.0
  3
txt.shx
  4
extfont.shx
  0
ENDTAB
  0
TABLE
  2
VIEW
  5
6
330
0
100
AcDbSymbolTable
 70
     0
  0
ENDTAB
  0
TABLE
  2
UCS
  5
7
330
0
100
AcDbSymbolTable
 70
     0
  0
ENDTAB
  0
TABLE
  2
APPID
  5
9
330
0
100
AcDbSymbolTable
 70
    16
  0
APPID
  5
10
330
9
100
AcDbSymbolTableRecord
100
AcDbRegAppTableRecord
  2
ACAD
 70
     0
  0
APPID
  5
21
330
9
100
AcDbSymbolTableRecord
100
AcDbRegAppTableRecord
  2
DRAWINGVARIABLESXDATA
 70
     0
  0
APPID
  5
64
330
9
100
AcDbSymbolTableRecord
100
AcDbRegAppTableRecord
  2
CONTENTTABDATA
 70
     0
  0
APPID
  5
65
330
9
100
AcDbSymbolTableRecord
100
AcDbRegAppTableRecord
  2
CONTENTCURRENTTAB
 70
     0
  0
APPID
  5
66
330
9
100
AcDbSymbolTableRecord
100
AcDbRegAppTableRecord
  2
CONTENTBLOCKDESCRIPTION
 70
     0
  0
APPID
  5
67
330
9
100
AcDbSymbolTableRecord
100
AcDbRegAppTableRecord
  2
CONTENTBLOCKICON
 70
     0
  0
APPID
  5
68
330
9
100
AcDbSymbolTableRecord
100
AcDbRegAppTableRecord
  2
CONTENTLONGBLOCKNAME
 70
     0
  0
APPID
  5
2AE
330
9
100
AcDbSymbolTableRecord
100
AcDbRegAppTableRecord
  2
ACAD_PSEXT
 70
     0
  0
APPID
  5
D9E9
330
9
100
AcDbSymbolTableRecord
100
AcDbRegAppTableRecord
  2
ACAD_MLEADERVER
 70
     0
  0
APPID
  5
19D01
330
9
100
AcDbSymbolTableRecord
100
AcDbRegAppTableRecord
  2
ACADANNOTATIVE
 70
     0
  0
APPID
  5
19D02
330
9
100
AcDbSymbolTableRecord
100
AcDbRegAppTableRecord
  2
ACDBBLOCKREPETAG
 70
     0
  0
APPID
  5
1A613
330
9
100
AcDbSymbolTableRecord
100
AcDbRegAppTableRecord
  2
ACAD_OBJECT_CHANGE_GUID
 70
     0
  0
APPID
  5
1A82D
330
9
100
AcDbSymbolTableRecord
100
AcDbRegAppTableRecord
  2
ACAECLAYERSTANDARD
 70
     0
  0
APPID
  5
1AF2D
330
9
100
AcDbSymbolTableRecord
100
AcDbRegAppTableRecord
  2
ACAD_NAV_VCDISPLAY
 70
     0
  0
APPID
  5
1AF76
330
9
100
AcDbSymbolTableRecord
100
AcDbRegAppTableRecord
  2
ACLAYERTOOLS
 70
     0
  0
APPID
  5
1B1DB
330
9
100
AcDbSymbolTableRecord
100
AcDbRegAppTableRecord
  2
ACAD_EXEMPT_FROM_CAD_STAND
 70
     0
  0
ENDTAB
  0
TABLE
  2
DIMSTYLE
  5
A
330
0
100
AcDbSymbolTable
 70
     1
  0
DIMSTYLE
105
48
330
A
100
AcDbSymbolTableRecord
100
AcDbDimStyleTableRecord
  2
NEWX10
 70
     0
  3
 
  4

  5

  6
OPEN30
  7
OPEN30
 40
1.0
 41
2.0
 42
0.0
 43
7.0
 44
1.0
 45
0.0
 46
0.0
 47
0.0
 48
0.0
140
3.5
141
0.0
142
0.0
143
25.4
144
1.0
145
0.0
146
0.7
147
0.7
 71
     0
 72
     0
 73
     0
 74
     0
 75
     0
 76
     0
 77
     1
 78
     8
170
     0
171
     2
172
     1
173
     1
174
     0
175
     0
176
   256
177
   256
178
   201
179
     2
270
     2
271
     2
272
     4
273
     2
274
     2
340
F
275
     0
280
     0
281
     0
282
     0
283
     1
284
     8
285
     0
286
     0
287
     2
288
     0
  0
ENDTAB
  0
TABLE
  2
BLOCK_RECORD
  5
1
330
0
100
AcDbSymbolTable
 70
     8
  0
BLOCK_RECORD
  5
18
102
{ACAD_XDICTIONARY
360
88F
102
}
330
1
100
AcDbSymbolTableRecord
100
AcDbBlockTableRecord
  2
*MODEL_SPACE
  0
BLOCK_RECORD
  5
15
330
1
100
AcDbSymbolTableRecord
100
AcDbBlockTableRecord
  2
*PAPER_SPACE
  0
BLOCK_RECORD
  5
42
330
1
100
AcDbSymbolTableRecord
100
AcDbBlockTableRecord
  2
_OPEN30
  0
BLOCK_RECORD
  5
19D51
330
1
100
AcDbSymbolTableRecord
100
AcDbBlockTableRecord
  2
A3WAKUKAWAJUN2017_HYOUDAI_
  0
BLOCK_RECORD
  5
1B461
330
1
100
AcDbSymbolTableRecord
100
AcDbBlockTableRecord
  2
*X47
  0
BLOCK_RECORD
  5
1B4AF
330
1
100
AcDbSymbolTableRecord
100
AcDbBlockTableRecord
  2
*X48
  0
BLOCK_RECORD
  5
1B501
330
1
100
AcDbSymbolTableRecord
100
AcDbBlockTableRecord
  2
*X49
  0
BLOCK_RECORD
  5
1B552
330
1
100
AcDbSymbolTableRecord
100
AcDbBlockTableRecord
  2
*X50
  0
BLOCK_RECORD
  5
1B58F
330
1
100
AcDbSymbolTableRecord
100
AcDbBlockTableRecord
  2
*X51
  0
BLOCK_RECORD
  5
1B5CF
330
1
100
AcDbSymbolTableRecord
100
AcDbBlockTableRecord
  2
*X52
  0
ENDTAB
  0
ENDSEC
  0
SECTION
  2
BLOCKS
  0
BLOCK
  5
19
330
18
100
AcDbEntity
  8
0
100
AcDbBlockBegin
  2
*MODEL_SPACE
 70
     0
 10
0.0
 20
0.0
 30
0.0
  3
*MODEL_SPACE
  1

  0
ENDBLK
  5
1A
330
18
100
AcDbEntity
  8
0
100
AcDbBlockEnd
  0
BLOCK
  5
16
330
15
100
AcDbEntity
 67
     1
  8
0
100
AcDbBlockBegin
  2
*PAPER_SPACE
 70
     0
 10
0.0
 20
0.0
 30
0.0
  3
*PAPER_SPACE
  1

  0
ENDBLK
  5
17
330
15
100
AcDbEntity
 67
     1
  8
0
100
AcDbBlockEnd
  0
BLOCK
  5
43
330
42
100
AcDbEntity
  8
0
100
AcDbBlockBegin
  2
_OPEN30
 70
     0
 10
0.0
 20
0.0
 30
0.0
  3
_OPEN30
  1

  0
LINE
  5
44
330
42
100
AcDbEntity
  8
0
  6
BYBLOCK
 62
     0
100
AcDbLine
 10
-1.0
 20
0.26794919
 30
0.0
 11
0.0
 21
0.0
 31
0.0
  0
LINE
  5
45
330
42
100
AcDbEntity
  8
0
  6
BYBLOCK
 62
     0
100
AcDbLine
 10
0.0
 20
0.0
 30
0.0
 11
-1.0
 21
-0.26794919
 31
0.0
  0
LINE
  5
46
330
42
100
AcDbEntity
  8
0
  6
BYBLOCK
 62
     0
100
AcDbLine
 10
0.0
 20
0.0
 30
0.0
 11
-1.0
 21
0.0
 31
0.0
  0
ENDBLK
  5
47
330
42
100
AcDbEntity
  8
0
100
AcDbBlockEnd
  0
BLOCK
  5
1A474
330
19D51
100
AcDbEntity
  8
0
100
AcDbBlockBegin
  2
A3WAKUKAWAJUN2017_HYOUDAI_
 70
     0
 10
0.0
 20
0.0
 30
0.0
  3
A3WAKUKAWAJUN2017_HYOUDAI_
  1

  0
LINE
  5
19D53
330
19D51
100
AcDbEntity
  8
0
100
AcDbLine
 10
13.26299999998673
 20
-0.0001000000000317
 30
0.0
 11
9.236999999990758
 21
8.999899999990987
 31
0.0
1001
ACAD
1000
ASC_BOUNDS
1002
{
1070
    19
1005
19D94
1002
}
  0
LINE
  5
19D54
330
19D51
100
AcDbEntity
  8
0
100
AcDbLine
 10
5.657999999994331
 20
0.9999999999989768
 30
0.0
 11
9.236999999990758
 21
8.999999999991019
 31
0.0
1001
ACAD
1000
ASC_BOUNDS
1002
{
1070
    19
1005
19D94
1002
}
  0
LINE
  5
19D55
330
19D51
100
AcDbEntity
  8
0
100
AcDbLine
 10
18.59199999998134
 20
-0.2368999999997641
 30
0.0
 11
16.46099999998353
 21
5.432899999994561
 31
0.0
1001
ACAD
1000
ASC_BOUNDS
1002
{
1070
    19
1005
19D95
1002
}
  0
LINE
  5
19D56
330
19D51
100
AcDbEntity
  8
0
100
AcDbLine
 10
18.59199999998134
 20
-0.2368999999997641
 30
0.0
 11
22.38199999997767
 21
8.763099999991255
 31
0.0
1001
ACAD
1000
ASC_BOUNDS
1002
{
1070
    19
1005
19D95
1002
}
  0
LINE
  5
19D57
330
19D51
100
AcDbEntity
  8
0
100
AcDbLine
 10
14.32899999998563
 20
-0.2368999999997641
 30
0.0
 11
16.46099999998353
 21
5.432899999994561
 31
0.0
1001
ACAD
1000
ASC_BOUNDS
1002
{
1070
    19
1005
19D95
1002
}
  0
LINE
  5
19D58
330
19D51
100
AcDbEntity
  8
0
100
AcDbLine
 10
14.32899999998563
 20
-0.2368999999997641
 30
0.0
 11
10.53899999998941
 21
8.763099999991255
 31
0.0
1001
ACAD
1000
ASC_BOUNDS
1002
{
1070
    19
1005
19D95
1002
}
  0
LINE
  5
19D59
330
19D51
100
AcDbEntity
  8
0
100
AcDbLine
 10
19.53899999998043
 20
-0.0001000000000317
 30
0.0
 11
23.56599999997638
 21
8.999899999990987
 31
0.0
1001
ACAD
1000
ASC_BOUNDS
1002
{
1070
    19
1005
19D96
1002
}
  0
LINE
  5
19D5A
330
19D51
100
AcDbEntity
  8
0
100
AcDbLine
 10
26.97358892824991
 20
1.383099999991202
 30
0.0
 11
23.56599999997638
 21
8.999899999990987
 31
0.0
1001
ACAD
1000
ASC_BOUNDS
1002
{
1070
    19
1005
19D96
1002
}
  0
LINE
  5
19D5B
330
19D51
100
AcDbEntity
  8
0
100
AcDbLine
 10
5.657999999994331
 20
0.9999999999989768
 30
0.0
 11
3.181999999996833
 21
4.668599999995308
 31
0.0
1001
ACAD
1000
ASC_BOUNDS
1002
{
1070
    19
1005
19D94
1002
}
  0
LINE
  5
19D5C
330
19D51
100
AcDbEntity
  8
0
100
AcDbLine
 10
4.617999999995391
 20
-0.0001000000000317
 30
0.0
 11
1.420999999998571
 21
4.736799999995242
 31
0.0
1001
ACAD
1000
ASC_BOUNDS
1002
{
1070
    19
1005
19D94
1002
}
  0
LINE
  5
19D5D
330
19D51
100
AcDbEntity
  8
0
100
AcDbLine
 10
1.420999999998571
 20
8.763099999991255
 30
0.0
 11
1.420999999998571
 21
0.0
 31
0.0
1001
ACAD
1000
ASC_BOUNDS
1002
{
1070
    19
1005
19D99
1002
}
  0
LINE
  5
19D5E
330
19D51
100
AcDbEntity
  8
0
100
AcDbLine
 10
0.0
 20
8.763099999991255
 30
0.0
 11
0.0
 21
0.0
 31
0.0
1001
ACAD
1000
ASC_BOUNDS
1002
{
1070
    19
1005
19D99
1002
}
  0
LINE
  5
19D5F
330
19D51
100
AcDbEntity
  8
0
100
AcDbLine
 10
6.766999999993232
 20
-0.0001000000000317
 30
0.0
 11
7.826999999992154
 21
2.368399999997621
 31
0.0
1001
ACAD
1000
ASC_BOUNDS
1002
{
1070
    19
1005
19D94
1002
}
  0
LINE
  5
19D60
330
19D51
100
AcDbEntity
  8
0
100
AcDbLine
 10
0.0
 20
0.0
 30
0.0
 11
1.420999999998571
 21
0.0
 31
0.0
1001
ACAD
1000
ASC_BOUNDS
1002
{
1070
    19
1005
19D99
1002
}
  0
LINE
  5
19D61
330
19D51
100
AcDbEntity
  8
0
100
AcDbLine
 10
4.617999999995391
 20
0.0
 30
0.0
 11
6.766999999993232
 21
0.0
 31
0.0
1001
ACAD
1000
ASC_BOUNDS
1002
{
1070
    19
1005
19D94
1002
}
  0
LINE
  5
19D62
330
19D51
100
AcDbEntity
  8
0
100
AcDbLine
 10
11.70599999998831
 20
-0.0001000000000317
 30
0.0
 11
10.64699999998936
 21
2.368399999997621
 31
0.0
1001
ACAD
1000
ASC_BOUNDS
1002
{
1070
    19
1005
19D94
1002
}
  0
LINE
  5
19D63
330
19D51
100
AcDbEntity
  8
0
100
AcDbLine
 10
7.826999999992154
 20
2.368399999997621
 30
0.0
 11
10.64699999998936
 21
2.368399999997621
 31
0.0
1001
ACAD
1000
ASC_BOUNDS
1002
{
1070
    19
1005
19D94
1002
}
  0
LINE
  5
19D64
330
19D51
100
AcDbEntity
  8
0
100
AcDbLine
 10
11.70599999998831
 20
0.0
 30
0.0
 11
13.26299999998673
 21
0.0
 31
0.0
1001
ACAD
1000
ASC_BOUNDS
1002
{
1070
    19
1005
19D94
1002
}
  0
LINE
  5
19D65
330
19D51
100
AcDbEntity
  8
0
100
AcDbLine
 10
22.15599999997789
 20
2.368399999997621
 30
0.0
 11
24.97599999997499
 21
2.368399999997621
 31
0.0
1001
ACAD
1000
ASC_BOUNDS
1002
{
1070
    19
1005
19D96
1002
}
  0
LINE
  5
19D66
330
19D51
100
AcDbEntity
  8
0
100
AcDbLine
 10
19.53899999998043
 20
0.0
 30
0.0
 11
21.09599999997886
 21
0.0
 31
0.0
1001
ACAD
1000
ASC_BOUNDS
1002
{
1070
    19
1005
19D96
1002
}
  0
LINE
  5
19D67
330
19D51
100
AcDbEntity
  8
0
100
AcDbLine
 10
21.09599999997886
 20
-0.0001000000000317
 30
0.0
 11
22.15599999997789
 21
2.368399999997621
 31
0.0
1001
ACAD
1000
ASC_BOUNDS
1002
{
1070
    19
1005
19D96
1002
}
  0
LINE
  5
19D68
330
19D51
100
AcDbEntity
  8
0
100
AcDbLine
 10
26.02015566812236
 20
0.0330999999912365
 30
0.0
 11
24.97599999997499
 21
2.368399999997621
 31
0.0
1001
ACAD
1000
ASC_BOUNDS
1002
{
1070
    19
1005
19D96
1002
}
  0
LINE
  5
19D69
330
19D51
100
AcDbEntity
  8
0
100
AcDbLine
 10
14.32399999998563
 20
3.315799999996671
 30
0.0
 11
16.46099999998353
 21
8.999899999990987
 31
0.0
1001
ACAD
1000
ASC_BOUNDS
1002
{
1070
    19
1005
19D95
1002
}
  0
LINE
  5
19D6A
330
19D51
100
AcDbEntity
  8
0
100
AcDbLine
 10
6.432999999993513
 20
8.763099999991255
 30
0.0
 11
3.181999999996833
 21
4.668599999995308
 31
0.0
1001
ACAD
1000
ASC_BOUNDS
1002
{
1070
    19
1005
19D94
1002
}
  0
LINE
  5
19D6B
330
19D51
100
AcDbEntity
  8
0
100
AcDbLine
 10
4.617999999995391
 20
8.763099999991255
 30
0.0
 11
1.420999999998571
 21
4.736799999995242
 31
0.0
1001
ACAD
1000
ASC_BOUNDS
1002
{
1070
    19
1005
19D94
1002
}
  0
LINE
  5
19D6C
330
19D51
100
AcDbEntity
  8
0
100
AcDbLine
 10
0.0
 20
8.763099999991255
 30
0.0
 11
1.420999999998571
 21
8.763099999991255
 31
0.0
1001
ACAD
1000
ASC_BOUNDS
1002
{
1070
    19
1005
19D99
1002
}
  0
LINE
  5
19D6D
330
19D51
100
AcDbEntity
  8
0
100
AcDbLine
 10
4.617999999995391
 20
8.763099999991255
 30
0.0
 11
6.432999999993513
 21
8.763099999991255
 31
0.0
1001
ACAD
1000
ASC_BOUNDS
1002
{
1070
    19
1005
19D94
1002
}
  0
LINE
  5
19D6E
330
19D51
100
AcDbEntity
  8
0
100
AcDbLine
 10
14.32399999998563
 20
3.315799999996671
 30
0.0
 11
12.02999999998792
 21
8.763099999991255
 31
0.0
1001
ACAD
1000
ASC_BOUNDS
1002
{
1070
    19
1005
19D95
1002
}
  0
LINE
  5
19D6F
330
19D51
100
AcDbEntity
  8
0
100
AcDbLine
 10
10.06399999998996
 20
3.670999999996297
 30
0.0
 11
9.236999999990758
 21
5.5200999999945
 31
0.0
1001
ACAD
1000
ASC_BOUNDS
1002
{
1070
    19
1005
19D94
1002
}
  0
LINE
  5
19D70
330
19D51
100
AcDbEntity
  8
0
100
AcDbLine
 10
8.409999999991555
 20
3.670999999996297
 30
0.0
 11
9.236999999990758
 21
5.5200999999945
 31
0.0
1001
ACAD
1000
ASC_BOUNDS
1002
{
1070
    19
1005
19D94
1002
}
  0
LINE
  5
19D71
330
19D51
100
AcDbEntity
  8
0
100
AcDbLine
 10
8.409999999991555
 20
3.670999999996297
 30
0.0
 11
10.06399999998996
 21
3.670999999996297
 31
0.0
1001
ACAD
1000
ASC_BOUNDS
1002
{
1070
    19
1005
19D94
1002
}
  0
LINE
  5
19D72
330
19D51
100
AcDbEntity
  8
0
100
AcDbLine
 10
10.53899999998941
 20
8.763099999991255
 30
0.0
 11
12.02999999998792
 21
8.763099999991255
 31
0.0
1001
ACAD
1000
ASC_BOUNDS
1002
{
1070
    19
1005
19D95
1002
}
  0
LINE
  5
19D73
330
19D51
100
AcDbEntity
  8
0
100
AcDbLine
 10
22.7389999999773
 20
3.670999999996297
 30
0.0
 11
23.56599999997638
 21
5.5200999999945
 31
0.0
1001
ACAD
1000
ASC_BOUNDS
1002
{
1070
    19
1005
19D96
1002
}
  0
LINE
  5
19D74
330
19D51
100
AcDbEntity
  8
0
100
AcDbLine
 10
22.7389999999773
 20
3.670999999996297
 30
0.0
 11
24.39299999997559
 21
3.670999999996297
 31
0.0
1001
ACAD
1000
ASC_BOUNDS
1002
{
1070
    19
1005
19D96
1002
}
  0
LINE
  5
19D75
330
19D51
100
AcDbEntity
  8
0
100
AcDbLine
 10
18.59799999998143
 20
3.315799999996671
 30
0.0
 11
20.89099999997916
 21
8.763099999991255
 31
0.0
1001
ACAD
1000
ASC_BOUNDS
1002
{
1070
    19
1005
19D95
1002
}
  0
LINE
  5
19D76
330
19D51
100
AcDbEntity
  8
0
100
AcDbLine
 10
18.59799999998143
 20
3.315799999996671
 30
0.0
 11
16.46099999998353
 21
8.999899999990987
 31
0.0
1001
ACAD
1000
ASC_BOUNDS
1002
{
1070
    19
1005
19D95
1002
}
  0
LINE
  5
19D77
330
19D51
100
AcDbEntity
  8
0
100
AcDbLine
 10
20.89099999997916
 20
8.763099999991255
 30
0.0
 11
22.38199999997767
 21
8.763099999991255
 31
0.0
1001
ACAD
1000
ASC_BOUNDS
1002
{
1070
    19
1005
19D95
1002
}
  0
LINE
  5
19D78
330
19D51
100
AcDbEntity
  8
0
100
AcDbLine
 10
24.39299999997559
 20
3.670999999996297
 30
0.0
 11
23.56599999997638
 21
5.5200999999945
 31
0.0
1001
ACAD
1000
ASC_BOUNDS
1002
{
1070
    19
1005
19D96
1002
}
  0
LINE
  5
19D79
330
19D51
100
AcDbEntity
  8
0
100
AcDbLine
 10
44.99999999995498
 20
-0.2368999999997641
 30
0.0
 11
40.02599999995994
 21
5.341799999994635
 31
0.0
1001
ACAD
1000
ASC_BOUNDS
1002
{
1070
    19
1005
19D98
1002
}
  0
LINE
  5
19D7A
330
19D51
100
AcDbEntity
  8
0
100
AcDbLine
 10
40.02599999995994
 20
5.341799999994635
 30
0.0
 11
40.02599999995994
 21
0.0
 31
0.0
1001
ACAD
1000
ASC_BOUNDS
1002
{
1070
    19
1005
19D98
1002
}
  0
LINE
  5
19D7B
330
19D51
100
AcDbEntity
  8
0
100
AcDbLine
 10
38.60499999996136
 20
8.999999999991019
 30
0.0
 11
38.60499999996136
 21
0.0
 31
0.0
1001
ACAD
1000
ASC_BOUNDS
1002
{
1070
    19
1005
19D98
1002
}
  0
LINE
  5
19D7C
330
19D51
100
AcDbEntity
  8
0
100
AcDbLine
 10
44.99999999995498
 20
8.763099999991255
 30
0.0
 11
44.99999999995498
 21
-0.2368999999997641
 31
0.0
1001
ACAD
1000
ASC_BOUNDS
1002
{
1070
    19
1005
19D98
1002
}
  0
LINE
  5
19D7D
330
19D51
100
AcDbEntity
  8
0
100
AcDbLine
 10
38.60499999996136
 20
0.0
 30
0.0
 11
40.02599999995994
 21
0.0
 31
0.0
1001
ACAD
1000
ASC_BOUNDS
1002
{
1070
    19
1005
19D98
1002
}
  0
LINE
  5
19D7E
330
19D51
100
AcDbEntity
  8
0
100
AcDbLine
 10
43.57899999995641
 20
3.421199999996588
 30
0.0
 11
38.60499999996136
 21
8.999899999990987
 31
0.0
1001
ACAD
1000
ASC_BOUNDS
1002
{
1070
    19
1005
19D98
1002
}
  0
LINE
  5
19D7F
330
19D51
100
AcDbEntity
  8
0
100
AcDbLine
 10
43.57899999995641
 20
8.763099999991255
 30
0.0
 11
43.57899999995641
 21
3.421199999996588
 31
0.0
1001
ACAD
1000
ASC_BOUNDS
1002
{
1070
    19
1005
19D98
1002
}
  0
LINE
  5
19D80
330
19D51
100
AcDbEntity
  8
0
100
AcDbLine
 10
43.57899999995641
 20
8.763099999991255
 30
0.0
 11
44.99999999995498
 21
8.763099999991255
 31
0.0
1001
ACAD
1000
ASC_BOUNDS
1002
{
1070
    19
1005
19D98
1002
}
  0
LINE
  5
19D81
330
19D51
100
AcDbEntity
  8
0
100
AcDbLine
 10
37.67199999996831
 20
8.763099999991255
 30
0.0
 11
36.23199999996837
 21
8.763099999991255
 31
0.0
  0
LINE
  5
19D82
330
19D51
100
AcDbEntity
  8
0
100
AcDbLine
 10
31.64199999996833
 20
8.763099999991255
 30
0.0
 11
31.64199999996833
 21
2.481619422925121
 31
0.0
  0
LINE
  5
19D83
330
19D51
100
AcDbEntity
  8
0
100
AcDbLine
 10
37.67199999996831
 20
8.763099999991255
 30
0.0
 11
37.67199999996831
 21
2.481619422925121
 31
0.0
  0
LINE
  5
19D84
330
19D51
100
AcDbEntity
  8
0
100
AcDbLine
 10
36.23199999996837
 20
8.763099999991255
 30
0.0
 11
36.23199999996837
 21
2.481619422925064
 31
0.0
  0
LINE
  5
19D85
330
19D51
100
AcDbEntity
  8
0
100
AcDbLine
 10
33.08199999996839
 20
8.763099999991255
 30
0.0
 11
33.08199999996839
 21
2.481619422925121
 31
0.0
  0
ARC
  5
19D86
330
19D51
100
AcDbEntity
  8
0
100
AcDbCircle
 10
34.65699999996832
 20
3.183099999991214
 30
0.0
 40
3.420000000000007
100
AcDbArc
 50
240.0000000000255
 51
299.9999999999766
  0
ARC
  5
19D87
330
19D51
100
AcDbEntity
  8
0
100
AcDbCircle
 10
34.65699999996832
 20
3.183099999991214
 30
0.0
 40
1.97999999999999
100
AcDbArc
 50
240.000000000026
 51
299.9999999999703
  0
LINE
  5
19D88
330
19D51
100
AcDbEntity
  8
0
100
AcDbLine
 10
33.08199999996828
 20
8.763099999991255
 30
0.0
 11
31.64199999996833
 21
8.763099999991255
 31
0.0
  0
ARC
  5
19D89
330
19D51
100
AcDbEntity
  8
0
100
AcDbCircle
 10
35.06199999996829
 20
2.481619422925064
 30
0.0
 40
1.17
100
AcDbArc
 50
299.9999999999699
 51
0.0
  0
ARC
  5
19D8A
330
19D51
100
AcDbEntity
  8
0
100
AcDbCircle
 10
34.25199999996835
 20
2.481619422925121
 30
0.0
 40
1.17
100
AcDbArc
 50
180.0
 51
240.0000000000238
  0
ARC
  5
19D8B
330
19D51
100
AcDbEntity
  8
0
100
AcDbCircle
 10
35.06199999996841
 20
2.481619422925121
 30
0.0
 40
2.61
100
AcDbArc
 50
299.9999999999756
 51
0.0
  0
ARC
  5
19D8C
330
19D51
100
AcDbEntity
  8
0
100
AcDbCircle
 10
34.25199999996835
 20
2.481619422925121
 30
0.0
 40
2.61
100
AcDbArc
 50
180.0
 51
240.0000000000244
  0
LINE
  5
19D8D
330
19D51
100
AcDbEntity
  8
0
100
AcDbLine
 10
29.30199999996933
 20
8.763099999991255
 30
0.0
 11
30.74199999996927
 21
8.763099999991255
 31
0.0
1001
ACAD
1000
ASC_BOUNDS
1002
{
1070
    19
1005
19D96
1002
}
  0
LINE
  5
19D8E
330
19D51
100
AcDbEntity
  8
0
100
AcDbLine
 10
30.74199999996927
 20
8.763099999991255
 30
0.0
 11
30.74199999996927
 21
2.373099999991211
 31
0.0
1001
ACAD
1000
ASC_BOUNDS
1002
{
1070
    19
1005
19D96
1002
}
  0
LINE
  5
19D8F
330
19D51
100
AcDbEntity
  8
0
100
AcDbLine
 10
26.02015566812236
 20
0.0330999999912365
 30
0.0
 11
28.40199999996923
 21
0.0330999999912365
 31
0.0
1001
ACAD
1000
ASC_BOUNDS
1002
{
1070
    19
1005
19D96
1002
}
  0
LINE
  5
19D90
330
19D51
100
AcDbEntity
  8
0
100
AcDbLine
 10
29.30199999996933
 20
8.763099999991255
 30
0.0
 11
29.30199999996933
 21
2.283099999991236
 31
0.0
1001
ACAD
1000
ASC_BOUNDS
1002
{
1070
    19
1005
19D96
1002
}
  0
LINE
  5
19D91
330
19D51
100
AcDbEntity
  8
0
100
AcDbLine
 10
26.97358892824991
 20
1.383099999991202
 30
0.0
 11
28.40199999996923
 21
1.383099999991202
 31
0.0
1001
ACAD
1000
ASC_BOUNDS
1002
{
1070
    19
1005
19D96
1002
}
  0
ARC
  5
19D92
330
19D51
100
AcDbEntity
  8
0
100
AcDbCircle
 10
28.40199999996923
 20
2.283099999991236
 30
0.0
 40
0.9
100
AcDbArc
 50
270.0
 51
0.0
1001
ACAD
1000
ASC_BOUNDS
1002
{
1070
    19
1005
19D96
1002
}
  0
ARC
  5
19D93
330
19D51
100
AcDbEntity
  8
0
100
AcDbCircle
 10
28.40199999996923
 20
2.373099999991211
 30
0.0
 40
2.34
100
AcDbArc
 50
270.0
 51
0.0
1001
ACAD
1000
ASC_BOUNDS
1002
{
1070
    19
1005
19D96
1002
}
  0
INSERT
  5
19D94
330
19D51
100
AcDbEntity
  8
0
100
AcDbBlockReference
  2
*X47
 10
0.0
 20
0.0
 30
0.0
1001
ACAD
1000
HATCH
1002
{
1070
    19
1000
ANSI37
1040
0.15
1040
0.0
1000
ASC_BOUNDS
1070
     2
1070
     2
1070
    12
1005
19D53
1005
19D54
1005
19D5B
1005
19D6A
1005
19D6D
1005
19D6B
1005
19D5C
1005
19D61
1005
19D5F
1005
19D63
1005
19D62
1005
19D64
1070
     2
1070
     3
1005
19D6F
1005
19D71
1005
19D70
1000
ASC_SEEDPOINT
1011
3.614004224891801
1021
2.996669441146025
1031
0.0
1000
R14_HATCH_DATA
1000
19D94
1011
1.0
1021
0.0
1031
0.0
1011
0.0
1021
1.0
1031
0.0
1011
0.0
1021
0.0
1031
1.0
1040
0.0
1010
0.0
1020
0.0
1030
1.0
1000
ANSI37
1070
     0
1070
     1
1071
        2
1071
        7
1070
     0
1070
     1
1071
       17
1040
13.26299999998673
1040
-0.0001000000000317
1040
9.236999999990758
1040
8.999899999990987
1040
9.236999999990758
1040
8.999999999991019
1040
5.657999999994331
1040
0.9999999999989768
1040
3.181999999996833
1040
4.668599999995308
1040
6.432999999993513
1040
8.763099999991255
1040
4.617999999995391
1040
8.763099999991255
1040
1.420999999998571
1040
4.736799999995242
1040
4.617999999995391
1040
-0.0001000000000317
1040
4.617999999995391
1040
0.0
1040
6.766999999993232
1040
0.0
1040
6.766999999993232
1040
-0.0001000000000317
1040
7.826999999992154
1040
2.368399999997621
1040
10.64699999998936
1040
2.368399999997621
1040
11.70599999998831
1040
-0.0001000000000317
1040
11.70599999998831
1040
0.0
1040
13.26299999998673
1040
0.0
1071
       12
1005
19D53
1005
19D54
1005
19D5B
1005
19D6A
1005
19D6D
1005
19D6B
1005
19D5C
1005
19D61
1005
19D5F
1005
19D63
1005
19D62
1005
19D64
1071
       22
1070
     0
1070
     1
1071
        3
1040
9.236999999990758
1040
5.5200999999945
1040
10.06399999998996
1040
3.670999999996297
1040
8.409999999991555
1040
3.670999999996297
1071
        3
1005
19D6F
1005
19D71
1005
19D70
1070
     0
1070
     1
1040
0.0
1040
0.15
1070
     0
1070
     2
1040
0.7853981633974483
1040
49.29960901727088
1040
-10.17736998311392
1040
-0.3367596045400932
1040
0.3367596045400932
1070
     0
1040
2.356194490192345
1040
49.29960901727088
1040
-10.17736998311392
1040
-0.3367596045400932
1040
-0.3367596045400932
1070
     0
1040
0.0110235143455945
1071
        2
1040
3.614004224891801
1040
2.996669441146025
1040
0.0
1040
3.614004224891801
1040
2.996669441146025
1040
0.0
1002
}
  0
INSERT
  5
19D95
330
19D51
100
AcDbEntity
  8
0
100
AcDbBlockReference
  2
*X48
 10
0.0
 20
0.0
 30
0.0
1001
ACAD
1000
HATCH
1002
{
1070
    19
1000
ANSI37
1040
0.15
1040
0.0
1000
ASC_BOUNDS
1070
     1
1070
     2
1070
    10
1005
19D55
1005
19D56
1005
19D77
1005
19D75
1005
19D76
1005
19D69
1005
19D6E
1005
19D72
1005
19D58
1005
19D57
1000
ASC_SEEDPOINT
1011
14.73245321214324
1021
2.798246178283421
1031
0.0
1000
R14_HATCH_DATA
1000
19D95
1011
1.0
1021
0.0
1031
0.0
1011
0.0
1021
1.0
1031
0.0
1011
0.0
1021
0.0
1031
1.0
1040
0.0
1010
0.0
1020
0.0
1030
1.0
1000
ANSI37
1070
     0
1070
     1
1071
        1
1071
        7
1070
     0
1070
     1
1071
       10
1040
16.46099999998353
1040
5.432899999994561
1040
18.59199999998134
1040
-0.2368999999997641
1040
22.38199999997767
1040
8.763099999991255
1040
20.89099999997916
1040
8.763099999991255
1040
18.59799999998143
1040
3.315799999996671
1040
16.46099999998353
1040
8.999899999990987
1040
14.32399999998563
1040
3.315799999996671
1040
12.02999999998792
1040
8.763099999991255
1040
10.53899999998941
1040
8.763099999991255
1040
14.32899999998563
1040
-0.2368999999997641
1071
       10
1005
19D55
1005
19D56
1005
19D77
1005
19D75
1005
19D76
1005
19D69
1005
19D6E
1005
19D72
1005
19D58
1005
19D57
1070
     0
1070
     1
1040
0.0
1040
0.15
1070
     0
1070
     2
1040
0.7853981633974483
1040
49.29960901727088
1040
-10.17736998311392
1040
-0.3367596045400932
1040
0.3367596045400932
1070
     0
1040
2.356194490192345
1040
49.29960901727088
1040
-10.17736998311392
1040
-0.3367596045400932
1040
-0.3367596045400932
1070
     0
1040
0.0110235143455945
1071
        1
1040
14.73245321214324
1040
2.798246178283421
1040
0.0
1002
}
  0
INSERT
  5
19D96
330
19D51
100
AcDbEntity
  8
0
100
AcDbBlockReference
  2
*X49
 10
0.0
 20
0.0
 30
0.0
1001
ACAD
1000
HATCH
1002
{
1070
    19
1000
ANSI37
1040
0.15
1040
0.0
1000
ASC_BOUNDS
1070
     2
1070
     2
1070
    13
1005
19D59
1005
19D66
1005
19D67
1005
19D65
1005
19D68
1005
19D8F
1005
19D93
1005
19D8E
1005
19D8D
1005
19D90
1005
19D92
1005
19D91
1005
19D5A
1070
     2
1070
     3
1005
19D73
1005
19D78
1005
19D74
1000
ASC_SEEDPOINT
1011
21.97929957367762
1021
3.294304244259308
1031
0.0
1000
R14_HATCH_DATA
1000
19D96
1011
1.0
1021
0.0
1031
0.0
1011
0.0
1021
1.0
1031
0.0
1011
0.0
1021
0.0
1031
1.0
1040
0.0
1010
0.0
1020
0.0
1030
1.0
1000
ANSI37
1070
     0
1070
     1
1071
        2
1071
        7
1070
     1
1070
     1
1071
       15
1040
23.56599999997638
1040
8.999899999990987
1040
0.0
1040
19.53899999998043
1040
-0.0001000000000317
1040
0.0
1040
19.53899999998043
1040
0.0
1040
0.0
1040
21.09599999997886
1040
0.0
1040
0.0
1040
21.09599999997886
1040
-0.0001000000000317
1040
0.0
1040
22.15599999997789
1040
2.368399999997621
1040
0.0
1040
24.97599999997499
1040
2.368399999997621
1040
0.0
1040
26.02015566812236
1040
0.0330999999912365
1040
0.0
1040
28.40199999996923
1040
0.0330999999912365
1040
0.414213562373095
1040
30.74199999996923
1040
2.373099999991211
1040
0.0
1040
30.74199999996927
1040
8.763099999991255
1040
0.0
1040
29.30199999996933
1040
8.763099999991255
1040
0.0
1040
29.30199999996933
1040
2.283099999991236
1040
-0.414213562373095
1040
28.40199999996923
1040
1.383099999991237
1040
0.0
1040
26.97358892824991
1040
1.383099999991202
1040
0.0
1071
       13
1005
19D59
1005
19D66
1005
19D67
1005
19D65
1005
19D68
1005
19D8F
1005
19D93
1005
19D8E
1005
19D8D
1005
19D90
1005
19D92
1005
19D91
1005
19D5A
1071
       22
1070
     0
1070
     1
1071
        3
1040
22.7389999999773
1040
3.670999999996297
1040
23.56599999997638
1040
5.5200999999945
1040
24.39299999997559
1040
3.670999999996297
1071
        3
1005
19D73
1005
19D78
1005
19D74
1070
     0
1070
     1
1040
0.0
1040
0.15
1070
     0
1070
     2
1040
0.7853981633974483
1040
49.29960901727088
1040
-10.17736998311392
1040
-0.3367596045400932
1040
0.3367596045400932
1070
     0
1040
2.356194490192345
1040
49.29960901727088
1040
-10.17736998311392
1040
-0.3367596045400932
1040
-0.3367596045400932
1070
     0
1040
0.0110235143455945
1071
        2
1040
21.97929957367762
1040
3.294304244259308
1040
0.0
1040
21.97929957367762
1040
3.294304244259308
1040
0.0
1002
}
  0
INSERT
  5
19D97
330
19D51
100
AcDbEntity
  8
0
100
AcDbBlockReference
  2
*X50
 10
0.0
 20
0.0
 30
0.0
1001
ACAD
1000
HATCH
1002
{
1070
    19
1000
ANSI37
1040
0.15
1040
0.0
1000
R14_HATCH_DATA
1000
19D97
1011
1.0
1021
0.0
1031
0.0
1011
0.0
1021
1.0
1031
0.0
1011
0.0
1021
0.0
1031
1.0
1040
0.0
1010
0.0
1020
0.0
1030
1.0
1000
ANSI37
1070
     0
1070
     1
1071
        1
1071
        7
1070
     1
1070
     1
1071
       12
1040
31.64199999996833
1040
2.481619422925121
1040
0.2679491924310942
1040
32.94699999997067
1040
0.2212931190493919
1040
0.2679491924301353
1040
36.36699999995983
1040
0.2212931190459813
1040
0.2679491924321411
1040
37.67199999996831
1040
2.481619422928361
1040
0.0
1040
37.67199999996831
1040
8.763099999991255
1040
0.0
1040
36.23199999996837
1040
8.763099999991255
1040
0.0
1040
36.23199999996837
1040
2.481619422925064
1040
-0.2679491924310291
1040
35.64699999996708
1040
1.468369700498386
1040
-0.267949192430519
1040
33.66699999997093
1040
1.468369700497703
1040
-0.267949192431809
1040
33.08199999996839
1040
2.481619422926997
1040
0.0
1040
33.08199999996839
1040
8.763099999991255
1040
0.0
1040
31.64199999996833
1040
8.763099999991255
1040
0.0
1071
        0
1070
     0
1070
     1
1040
0.0
1040
0.15
1070
     0
1070
     2
1040
0.7853981633974483
1040
49.29960901727088
1040
-10.17736998311392
1040
-0.3367596045400932
1040
0.3367596045400932
1070
     0
1040
2.356194490192345
1040
49.29960901727088
1040
-10.17736998311392
1040
-0.3367596045400932
1040
-0.3367596045400932
1070
     0
1040
0.0110235143455945
1071
        1
1040
32.30357378967278
1040
3.988785755459219
1040
0.0
1002
}
  0
INSERT
  5
19D98
330
19D51
100
AcDbEntity
  8
0
100
AcDbBlockReference
  2
*X51
 10
0.0
 20
0.0
 30
0.0
1001
ACAD
1000
HATCH
1002
{
1070
    19
1000
ANSI37
1040
0.15
1040
0.0
1000
ASC_BOUNDS
1070
     1
1070
     2
1070
     8
1005
19D79
1005
19D7C
1005
19D80
1005
19D7F
1005
19D7E
1005
19D7B
1005
19D7D
1005
19D7A
1000
ASC_SEEDPOINT
1011
39.74896370716704
1021
4.484843821435049
1031
0.0
1000
R14_HATCH_DATA
1000
19D98
1011
1.0
1021
0.0
1031
0.0
1011
0.0
1021
1.0
1031
0.0
1011
0.0
1021
0.0
1031
1.0
1040
0.0
1010
0.0
1020
0.0
1030
1.0
1000
ANSI37
1070
     0
1070
     1
1071
        1
1071
        7
1070
     0
1070
     1
1071
        9
1040
40.02599999995994
1040
5.341799999994635
1040
44.99999999995498
1040
-0.2368999999997641
1040
44.99999999995498
1040
8.763099999991255
1040
43.57899999995641
1040
8.763099999991255
1040
43.57899999995641
1040
3.421199999996588
1040
38.60499999996136
1040
8.999899999990987
1040
38.60499999996136
1040
8.999999999991019
1040
38.60499999996136
1040
0.0
1040
40.02599999995994
1040
0.0
1071
        8
1005
19D79
1005
19D7C
1005
19D80
1005
19D7F
1005
19D7E
1005
19D7B
1005
19D7D
1005
19D7A
1070
     0
1070
     1
1040
0.0
1040
0.15
1070
     0
1070
     2
1040
0.7853981633974483
1040
49.29960901727088
1040
-10.17736998311392
1040
-0.3367596045400932
1040
0.3367596045400932
1070
     0
1040
2.356194490192345
1040
49.29960901727088
1040
-10.17736998311392
1040
-0.3367596045400932
1040
-0.3367596045400932
1070
     0
1040
0.0110235143455945
1071
        1
1040
39.74896370716704
1040
4.484843821435049
1040
0.0
1002
}
  0
INSERT
  5
19D99
330
19D51
100
AcDbEntity
  8
0
100
AcDbBlockReference
  2
*X52
 10
0.0
 20
0.0
 30
0.0
1001
ACAD
1000
HATCH
1002
{
1070
    19
1000
ANSI37
1040
0.15
1040
0.0
1000
ASC_BOUNDS
1070
     1
1070
     2
1070
     4
1005
19D5D
1005
19D6C
1005
19D5E
1005
19D60
1000
ASC_SEEDPOINT
1011
1.079051535452663
1021
4.148538732891836
1031
0.0
1000
R14_HATCH_DATA
1000
19D99
1011
1.0
1021
0.0
1031
0.0
1011
0.0
1021
1.0
1031
0.0
1011
0.0
1021
0.0
1031
1.0
1040
0.0
1010
0.0
1020
0.0
1030
1.0
1000
ANSI37
1070
     0
1070
     1
1071
        1
1071
        7
1070
     0
1070
     1
1071
        4
1040
1.420999999998571
1040
0.0
1040
1.420999999998571
1040
8.763099999991255
1040
0.0
1040
8.763099999991255
1040
0.0
1040
0.0
1071
        4
1005
19D5D
1005
19D6C
1005
19D5E
1005
19D60
1070
     0
1070
     1
1040
0.0
1040
0.15
1070
     0
1070
     2
1040
0.7853981633974483
1040
49.29960901727088
1040
-10.17736998311392
1040
-0.3367596045400932
1040
0.3367596045400932
1070
     0
1040
2.356194490192345
1040
49.29960901727088
1040
-10.17736998311392
1040
-0.3367596045400932
1040
-0.3367596045400932
1070
     0
1040
0.0053004257112761
1071
        1
1040
1.079051535452663
1040
4.148538732891836
1040
0.0
1002
}
  0
ENDBLK
  5
1A475
330
19D51
100
AcDbEntity
  8
0
100
AcDbBlockEnd
  0
BLOCK
  5
1B5EF
330
1B461
100
AcDbEntity
  8
0
100
AcDbBlockBegin
  2
*X47
 70
     1
 10
0.0
 20
0.0
 30
0.0
  3
*X47
  1

  0
LINE
  5
1B462
330
1B461
100
AcDbEntity
  8
0
  6
CONTINUOUS
100
AcDbLine
 10
3.418023043697893
 20
7.251849696850613
 30
0.0
 11
4.929273346838536
 21
8.763099999991255
 31
0.0
  0
LINE
  5
1B463
330
1B461
100
AcDbEntity
  8
0
  6
CONTINUOUS
100
AcDbLine
 10
1.483656411257782
 20
4.643963855330318
 30
0.0
 11
5.60279255591872
 21
8.763099999991255
 31
0.0
  0
LINE
  5
1B464
330
1B461
100
AcDbEntity
  8
0
  6
CONTINUOUS
100
AcDbLine
 10
1.755053947328235
 20
4.241842182320584
 30
0.0
 11
6.276311764998907
 21
8.763099999991255
 31
0.0
  0
LINE
  5
1B465
330
1B461
100
AcDbEntity
  8
0
  6
CONTINUOUS
100
AcDbLine
 10
2.026451483398688
 20
3.839720509310849
 30
0.0
 11
4.441040904851878
 21
6.254309930764039
 31
0.0
  0
LINE
  5
1B466
330
1B461
100
AcDbEntity
  8
0
  6
CONTINUOUS
100
AcDbLine
 10
2.297849019469139
 20
3.437598836301114
 30
0.0
 11
3.321765168359338
 21
4.461514985191313
 31
0.0
  0
LINE
  5
1B467
330
1B461
100
AcDbEntity
  8
0
  6
CONTINUOUS
100
AcDbLine
 10
2.569246555539591
 20
3.03547716329138
 30
0.0
 11
3.593163397972743
 21
4.059394005724531
 31
0.0
  0
LINE
  5
1B468
330
1B461
100
AcDbEntity
  8
0
  6
CONTINUOUS
100
AcDbLine
 10
2.840644091610043
 20
2.633355490281646
 30
0.0
 11
3.864561627586149
 21
3.657273026257751
 31
0.0
  0
LINE
  5
1B469
330
1B461
100
AcDbEntity
  8
0
  6
CONTINUOUS
100
AcDbLine
 10
3.112041627680496
 20
2.231233817271911
 30
0.0
 11
4.135959857199554
 21
3.25515204679097
 31
0.0
  0
LINE
  5
1B46A
330
1B461
100
AcDbEntity
  8
0
  6
CONTINUOUS
100
AcDbLine
 10
3.383439163750948
 20
1.829112144262177
 30
0.0
 11
4.40735808681296
 21
2.853031067324189
 31
0.0
  0
LINE
  5
1B46B
330
1B461
100
AcDbEntity
  8
0
  6
CONTINUOUS
100
AcDbLine
 10
3.654836699821399
 20
1.426990471252442
 30
0.0
 11
4.678756316426365
 21
2.450910087857407
 31
0.0
  0
LINE
  5
1B46C
330
1B461
100
AcDbEntity
  8
0
  6
CONTINUOUS
100
AcDbLine
 10
3.926234235891853
 20
1.024868798242709
 30
0.0
 11
4.95015454603977
 21
2.048789108390626
 31
0.0
  0
LINE
  5
1B46D
330
1B461
100
AcDbEntity
  8
0
  6
CONTINUOUS
100
AcDbLine
 10
4.197631771962304
 20
0.6227471252329737
 30
0.0
 11
5.221552775653176
 21
1.646668128923846
 31
0.0
  0
LINE
  5
1B46E
330
1B461
100
AcDbEntity
  8
0
  6
CONTINUOUS
100
AcDbLine
 10
8.715877546767851
 20
7.835069736359266
 30
0.0
 11
9.435953450375058
 21
8.555145639966472
 31
0.0
  0
LINE
  5
1B46F
330
1B461
100
AcDbEntity
  8
0
  6
CONTINUOUS
100
AcDbLine
 10
8.170620868422267
 20
6.616293848933497
 30
0.0
 11
9.644120833743461
 21
8.08979381425469
 31
0.0
  0
LINE
  5
1B470
330
1B461
100
AcDbEntity
  8
0
  6
CONTINUOUS
100
AcDbLine
 10
7.625364190076684
 20
5.397517961507727
 30
0.0
 11
9.852288217111864
 21
7.624441988542907
 31
0.0
  0
LINE
  5
1B471
330
1B461
100
AcDbEntity
  8
0
  6
CONTINUOUS
100
AcDbLine
 10
7.080107511731101
 20
4.178742074081957
 30
0.0
 11
10.06045560048027
 21
7.159090162831124
 31
0.0
  0
LINE
  5
1B472
330
1B461
100
AcDbEntity
  8
0
  6
CONTINUOUS
100
AcDbLine
 10
6.534850833385518
 20
2.959966186656187
 30
0.0
 11
10.26862298384867
 21
6.693738337119342
 31
0.0
  0
LINE
  5
1B473
330
1B461
100
AcDbEntity
  8
0
  6
CONTINUOUS
100
AcDbLine
 10
4.469029308032756
 20
0.2206254522232385
 30
0.0
 11
5.492951005266582
 21
1.244547149457064
 31
0.0
  0
LINE
  5
1B474
330
1B461
100
AcDbEntity
  8
0
  6
CONTINUOUS
100
AcDbLine
 10
5.989594155039935
 20
1.741190299230417
 30
0.0
 11
8.806950407233131
 21
4.558546551423613
 31
0.0
  0
LINE
  5
1B475
330
1B461
100
AcDbEntity
  8
0
  6
CONTINUOUS
100
AcDbLine
 10
9.401251593263643
 20
5.152847737454126
 30
0.0
 11
10.47679036721708
 21
6.228386511407559
 31
0.0
  0
LINE
  5
1B476
330
1B461
100
AcDbEntity
  8
0
  6
CONTINUOUS
100
AcDbLine
 10
4.921837203428691
 20
-0.0000858614610131
 30
0.0
 11
8.592923064886001
 21
3.670999999996297
 31
0.0
  0
LINE
  5
1B477
330
1B461
100
AcDbEntity
  8
0
  6
CONTINUOUS
100
AcDbLine
 10
9.609390446785305
 20
4.6874673818956
 30
0.0
 11
10.68495775058548
 21
5.763034685695775
 31
0.0
  0
LINE
  5
1B478
330
1B461
100
AcDbEntity
  8
0
  6
CONTINUOUS
100
AcDbLine
 10
5.595387755019432
 20
-0.0000545189504582
 30
0.0
 11
7.716137258923768
 21
2.120694984953879
 31
0.0
  0
LINE
  5
1B479
330
1B461
100
AcDbEntity
  8
0
  6
CONTINUOUS
100
AcDbLine
 10
6.268938306610172
 20
-0.000023176439905
 30
0.0
 11
7.170485805526503
 21
0.9015243224764267
 31
0.0
  0
LINE
  5
1B47A
330
1B461
100
AcDbEntity
  8
0
  6
CONTINUOUS
100
AcDbLine
 10
7.963842273967511
 20
2.368399999997621
 30
0.0
 11
9.266442273966188
 21
3.670999999996297
 31
0.0
  0
LINE
  5
1B47B
330
1B461
100
AcDbEntity
  8
0
  6
CONTINUOUS
100
AcDbLine
 10
8.637361483047696
 20
2.368399999997621
 30
0.0
 11
9.939961483046375
 21
3.670999999996297
 31
0.0
  0
LINE
  5
1B47C
330
1B461
100
AcDbEntity
  8
0
  6
CONTINUOUS
100
AcDbLine
 10
9.817529300306965
 20
4.222087026337075
 30
0.0
 11
10.89312513395388
 21
5.297682859983993
 31
0.0
  0
LINE
  5
1B47D
330
1B461
100
AcDbEntity
  8
0
  6
CONTINUOUS
100
AcDbLine
 10
10.02566815382863
 20
3.756706670778549
 30
0.0
 11
11.10129251732229
 21
4.832331034272211
 31
0.0
  0
LINE
  5
1B47E
330
1B461
100
AcDbEntity
  8
0
  6
CONTINUOUS
100
AcDbLine
 10
9.310880692127883
 20
2.368399999997621
 30
0.0
 11
11.30945990069069
 21
4.366979208560428
 31
0.0
  0
LINE
  5
1B47F
330
1B461
100
AcDbEntity
  8
0
  6
CONTINUOUS
100
AcDbLine
 10
9.98439990120807
 20
2.36839999999762
 30
0.0
 11
11.5176272840591
 21
3.901627382848645
 31
0.0
  0
LINE
  5
1B480
330
1B461
100
AcDbEntity
  8
0
  6
CONTINUOUS
100
AcDbLine
 10
10.65037369446246
 20
2.36085458417182
 30
0.0
 11
11.7257946674275
 21
3.436275557136862
 31
0.0
  0
LINE
  5
1B481
330
1B461
100
AcDbEntity
  8
0
  6
CONTINUOUS
100
AcDbLine
 10
10.85847197087848
 20
1.895433651507656
 30
0.0
 11
11.9339620507959
 21
2.97092373142508
 31
0.0
  0
LINE
  5
1B482
330
1B461
100
AcDbEntity
  8
0
  6
CONTINUOUS
100
AcDbLine
 10
11.0665702472945
 20
1.430012718843491
 30
0.0
 11
12.14212943416431
 21
2.505571905713296
 31
0.0
  0
LINE
  5
1B483
330
1B461
100
AcDbEntity
  8
0
  6
CONTINUOUS
100
AcDbLine
 10
11.27466852371052
 20
0.9645917861793256
 30
0.0
 11
12.35029681753271
 21
2.040220080001513
 31
0.0
  0
LINE
  5
1B484
330
1B461
100
AcDbEntity
  8
0
  6
CONTINUOUS
100
AcDbLine
 10
11.48276680012654
 20
0.4991708535151611
 30
0.0
 11
12.55846420090111
 21
1.57486825428973
 31
0.0
  0
LINE
  5
1B485
330
1B461
100
AcDbEntity
  8
0
  6
CONTINUOUS
100
AcDbLine
 10
11.69086507654257
 20
0.0337499208509957
 30
0.0
 11
12.76663158426952
 21
1.109516428577947
 31
0.0
  0
LINE
  5
1B486
330
1B461
100
AcDbEntity
  8
0
  6
CONTINUOUS
100
AcDbLine
 10
12.33057447873954
 20
-0.0000598860322123
 30
0.0
 11
12.97479896763792
 21
0.6441646028661663
 31
0.0
  0
LINE
  5
1B487
330
1B461
100
AcDbEntity
  8
0
  6
CONTINUOUS
100
AcDbLine
 10
13.00413694809395
 20
-0.0000166257579952
 30
0.0
 11
13.18296635100632
 21
0.1788127771543824
 31
0.0
  0
LINE
  5
1B488
330
1B461
100
AcDbEntity
  8
0
  6
CONTINUOUS
100
AcDbLine
 10
4.772852165289667
 20
-0.000092794222212
 30
0.0
 11
4.296495091028902
 21
0.4762642800385528
 31
0.0
  0
LINE
  5
1B489
330
1B461
100
AcDbEntity
  8
0
  6
CONTINUOUS
100
AcDbLine
 10
5.446340034776103
 20
-0.0000614546284616
 30
0.0
 11
2.898195908335625
 21
2.548082671812017
 31
0.0
  0
LINE
  5
1B48A
330
1B461
100
AcDbEntity
  8
0
  6
CONTINUOUS
100
AcDbLine
 10
6.119827904262539
 20
-0.0000301150347113
 30
0.0
 11
1.499896725642348
 21
4.61990106358548
 31
0.0
  0
LINE
  5
1B48B
330
1B461
100
AcDbEntity
  8
0
  6
CONTINUOUS
100
AcDbLine
 10
6.775136745476159
 20
0.0181802528318542
 30
0.0
 11
5.699826040202669
 21
1.093490958105344
 31
0.0
  0
LINE
  5
1B48C
330
1B461
100
AcDbEntity
  8
0
  6
CONTINUOUS
100
AcDbLine
 10
6.983376846288489
 20
0.4834593610997118
 30
0.0
 11
5.908008617934405
 21
1.558827589453796
 31
0.0
  0
LINE
  5
1B48D
330
1B461
100
AcDbEntity
  8
0
  6
CONTINUOUS
100
AcDbLine
 10
5.377063484962296
 20
1.416253513345719
 30
0.0
 11
1.702276957014131
 21
5.091040041293883
 31
0.0
  0
LINE
  5
1B48E
330
1B461
100
AcDbEntity
  8
0
  6
CONTINUOUS
100
AcDbLine
 10
3.978745891735324
 20
3.488090315652877
 30
0.0
 11
2.000373521109399
 21
5.466462686278803
 31
0.0
  0
LINE
  5
1B48F
330
1B461
100
AcDbEntity
  8
0
  6
CONTINUOUS
100
AcDbLine
 10
7.191616947100819
 20
0.948738469367568
 30
0.0
 11
6.11619119566614
 21
2.024164220802247
 31
0.0
  0
LINE
  5
1B490
330
1B461
100
AcDbEntity
  8
0
  6
CONTINUOUS
100
AcDbLine
 10
7.399857047913149
 20
1.414017577635424
 30
0.0
 11
6.324373773397875
 21
2.489500852150698
 31
0.0
  0
LINE
  5
1B491
330
1B461
100
AcDbEntity
  8
0
  6
CONTINUOUS
100
AcDbLine
 10
7.608097148725479
 20
1.879296685903281
 30
0.0
 11
6.53255635112961
 21
2.95483748349915
 31
0.0
  0
LINE
  5
1B492
330
1B461
100
AcDbEntity
  8
0
  6
CONTINUOUS
100
AcDbLine
 10
7.816337249537808
 20
2.344575794171138
 30
0.0
 11
6.740738928861345
 21
3.420174114847601
 31
0.0
  0
LINE
  5
1B493
330
1B461
100
AcDbEntity
  8
0
  6
CONTINUOUS
100
AcDbLine
 10
3.310241080789734
 20
4.830114335678653
 30
0.0
 11
2.298470085204666
 21
5.84188533126372
 31
0.0
  0
LINE
  5
1B494
330
1B461
100
AcDbEntity
  8
0
  6
CONTINUOUS
100
AcDbLine
 10
3.60832983563551
 20
5.205544789913063
 30
0.0
 11
2.596566649299935
 21
6.217307976248638
 31
0.0
  0
LINE
  5
1B495
330
1B461
100
AcDbEntity
  8
0
  6
CONTINUOUS
100
AcDbLine
 10
3.906418590481286
 20
5.580975244147473
 30
0.0
 11
2.894663213395203
 21
6.592730621233557
 31
0.0
  0
LINE
  5
1B496
330
1B461
100
AcDbEntity
  8
0
  6
CONTINUOUS
100
AcDbLine
 10
4.204507345327062
 20
5.956405698381884
 30
0.0
 11
3.192759777490472
 21
6.968153266218474
 31
0.0
  0
LINE
  5
1B497
330
1B461
100
AcDbEntity
  8
0
  6
CONTINUOUS
100
AcDbLine
 10
8.466032252791512
 20
2.368399999997621
 30
0.0
 11
6.948921506593081
 21
3.885510746196053
 31
0.0
  0
LINE
  5
1B498
330
1B461
100
AcDbEntity
  8
0
  6
CONTINUOUS
100
AcDbLine
 10
9.139551461871699
 20
2.36839999999762
 30
0.0
 11
7.157104084324816
 21
4.350847377544504
 31
0.0
  0
LINE
  5
1B499
330
1B461
100
AcDbEntity
  8
0
  6
CONTINUOUS
100
AcDbLine
 10
4.502596100172839
 20
6.331836152616295
 30
0.0
 11
3.49085634158574
 21
7.343575911203393
 31
0.0
  0
LINE
  5
1B49A
330
1B461
100
AcDbEntity
  8
0
  6
CONTINUOUS
100
AcDbLine
 10
4.800684855018615
 20
6.707266606850705
 30
0.0
 11
3.788952905681008
 21
7.718998556188312
 31
0.0
  0
LINE
  5
1B49B
330
1B461
100
AcDbEntity
  8
0
  6
CONTINUOUS
100
AcDbLine
 10
12.18154012887317
 20
-0.0000694579236642
 30
0.0
 11
11.32140332908496
 21
0.8600673418645499
 31
0.0
  0
LINE
  5
1B49C
330
1B461
100
AcDbEntity
  8
0
  6
CONTINUOUS
100
AcDbLine
 10
12.85501608323566
 20
-0.0000262032059659
 30
0.0
 11
10.77672456435345
 21
2.078265315676246
 31
0.0
  0
LINE
  5
1B49D
330
1B461
100
AcDbEntity
  8
0
  6
CONTINUOUS
100
AcDbLine
 10
9.813070670951886
 20
2.36839999999762
 30
0.0
 11
8.51047067095321
 21
3.670999999996297
 31
0.0
  0
LINE
  5
1B49E
330
1B461
100
AcDbEntity
  8
0
  6
CONTINUOUS
100
AcDbLine
 10
10.48658988003207
 20
2.36839999999762
 30
0.0
 11
9.183989880033396
 21
3.670999999996297
 31
0.0
  0
LINE
  5
1B49F
330
1B461
100
AcDbEntity
  8
0
  6
CONTINUOUS
100
AcDbLine
 10
8.441048632286794
 20
3.740422038662712
 30
0.0
 11
7.365286662056551
 21
4.816184008892956
 31
0.0
  0
LINE
  5
1B4A0
330
1B461
100
AcDbEntity
  8
0
  6
CONTINUOUS
100
AcDbLine
 10
8.649187485808454
 20
4.205802394221237
 30
0.0
 11
7.573469239788285
 21
5.281520640241407
 31
0.0
  0
LINE
  5
1B4A1
330
1B461
100
AcDbEntity
  8
0
  6
CONTINUOUS
100
AcDbLine
 10
5.098773609864391
 20
7.082697061085115
 30
0.0
 11
4.087049469776277
 21
8.09442120117323
 31
0.0
  0
LINE
  5
1B4A2
330
1B461
100
AcDbEntity
  8
0
  6
CONTINUOUS
100
AcDbLine
 10
5.396862364710167
 20
7.458127515319526
 30
0.0
 11
4.385146033871544
 21
8.469843846158149
 31
0.0
  0
LINE
  5
1B4A3
330
1B461
100
AcDbEntity
  8
0
  6
CONTINUOUS
100
AcDbLine
 10
13.04801363231285
 20
0.4804954567970334
 30
0.0
 11
9.85750908911358
 21
3.670999999996297
 31
0.0
  0
LINE
  5
1B4A4
330
1B461
100
AcDbEntity
  8
0
  6
CONTINUOUS
100
AcDbLine
 10
8.857326339330116
 20
4.671182749779763
 30
0.0
 11
7.781651817520021
 21
5.746857271589858
 31
0.0
  0
LINE
  5
1B4A5
330
1B461
100
AcDbEntity
  8
0
  6
CONTINUOUS
100
AcDbLine
 10
5.694951119555943
 20
7.833557969553937
 30
0.0
 11
4.765409089118624
 21
8.763099999991255
 31
0.0
  0
LINE
  5
1B4A6
330
1B461
100
AcDbEntity
  8
0
  6
CONTINUOUS
100
AcDbLine
 10
12.50286117236978
 20
1.699167125820288
 30
0.0
 11
9.68611877250287
 21
4.515909525687196
 31
0.0
  0
LINE
  5
1B4A7
330
1B461
100
AcDbEntity
  8
0
  6
CONTINUOUS
100
AcDbLine
 10
9.065465192851777
 20
5.136563105338288
 30
0.0
 11
7.989834395251757
 21
6.21219390293831
 31
0.0
  0
LINE
  5
1B4A8
330
1B461
100
AcDbEntity
  8
0
  6
CONTINUOUS
100
AcDbLine
 10
5.993039874401719
 20
8.208988423788346
 30
0.0
 11
5.43892829819881
 21
8.763099999991255
 31
0.0
  0
LINE
  5
1B4A9
330
1B461
100
AcDbEntity
  8
0
  6
CONTINUOUS
100
AcDbLine
 10
11.95770871242671
 20
2.917838794843543
 30
0.0
 11
8.19801697298349
 21
6.677530534286761
 31
0.0
  0
LINE
  5
1B4AA
330
1B461
100
AcDbEntity
  8
0
  6
CONTINUOUS
100
AcDbLine
 10
6.291128629247495
 20
8.584418878022756
 30
0.0
 11
6.112447507278997
 21
8.763099999991255
 31
0.0
  0
LINE
  5
1B4AB
330
1B461
100
AcDbEntity
  8
0
  6
CONTINUOUS
100
AcDbLine
 10
11.41255625248364
 20
4.136510463866797
 30
0.0
 11
8.406199550715227
 21
7.142867165635211
 31
0.0
  0
LINE
  5
1B4AC
330
1B461
100
AcDbEntity
  8
0
  6
CONTINUOUS
100
AcDbLine
 10
10.86740379254057
 20
5.355182132890051
 30
0.0
 11
8.614382128446962
 21
7.608203796983664
 31
0.0
  0
LINE
  5
1B4AD
330
1B461
100
AcDbEntity
  8
0
  6
CONTINUOUS
100
AcDbLine
 10
10.3222513325975
 20
6.573853801913305
 30
0.0
 11
8.822564706178696
 21
8.073540428332114
 31
0.0
  0
LINE
  5
1B4AE
330
1B461
100
AcDbEntity
  8
0
  6
CONTINUOUS
100
AcDbLine
 10
9.777098872654436
 20
7.792525470936562
 30
0.0
 11
9.030747283910433
 21
8.538877059680566
 31
0.0
  0
ENDBLK
  5
1B5F0
330
1B461
100
AcDbEntity
  8
0
100
AcDbBlockEnd
  0
BLOCK
  5
1B5F1
330
1B4AF
100
AcDbEntity
  8
0
100
AcDbBlockBegin
  2
*X48
 70
     1
 10
0.0
 20
0.0
 30
0.0
  3
*X48
  1

  0
LINE
  5
1B4B0
330
1B4AF
100
AcDbEntity
  8
0
  6
CONTINUOUS
100
AcDbLine
 10
10.67292308101235
 20
8.445076852443387
 30
0.0
 11
10.99094622856022
 21
8.763099999991255
 31
0.0
  0
LINE
  5
1B4B1
330
1B4AF
100
AcDbEntity
  8
0
  6
CONTINUOUS
100
AcDbLine
 10
10.87250383178748
 20
7.971138394138331
 30
0.0
 11
11.6644654376404
 21
8.763099999991255
 31
0.0
  0
LINE
  5
1B4B2
330
1B4AF
100
AcDbEntity
  8
0
  6
CONTINUOUS
100
AcDbLine
 10
11.07208458256261
 20
7.497199935833273
 30
0.0
 11
12.12126590876355
 21
8.546381262034211
 31
0.0
  0
LINE
  5
1B4B3
330
1B4AF
100
AcDbEntity
  8
0
  6
CONTINUOUS
100
AcDbLine
 10
11.27166533333774
 20
7.023261477528216
 30
0.0
 11
12.32085164573666
 21
8.072447789927136
 31
0.0
  0
LINE
  5
1B4B4
330
1B4AF
100
AcDbEntity
  8
0
  6
CONTINUOUS
100
AcDbLine
 10
11.47124608411287
 20
6.549323019223158
 30
0.0
 11
12.52043738270977
 21
7.59851431782006
 31
0.0
  0
LINE
  5
1B4B5
330
1B4AF
100
AcDbEntity
  8
0
  6
CONTINUOUS
100
AcDbLine
 10
11.670826834888
 20
6.075384560918101
 30
0.0
 11
12.72002311968288
 21
7.124580845712984
 31
0.0
  0
LINE
  5
1B4B6
330
1B4AF
100
AcDbEntity
  8
0
  6
CONTINUOUS
100
AcDbLine
 10
11.87040758566313
 20
5.601446102613043
 30
0.0
 11
12.91960885665599
 21
6.650647373605907
 31
0.0
  0
LINE
  5
1B4B7
330
1B4AF
100
AcDbEntity
  8
0
  6
CONTINUOUS
100
AcDbLine
 10
12.06998833643825
 20
5.127507644307986
 30
0.0
 11
13.1191945936291
 21
6.176713901498832
 31
0.0
  0
LINE
  5
1B4B8
330
1B4AF
100
AcDbEntity
  8
0
  6
CONTINUOUS
100
AcDbLine
 10
12.26956908721338
 20
4.65356918600293
 30
0.0
 11
13.31878033060221
 21
5.702780429391757
 31
0.0
  0
LINE
  5
1B4B9
330
1B4AF
100
AcDbEntity
  8
0
  6
CONTINUOUS
100
AcDbLine
 10
12.46914983798851
 20
4.179630727697873
 30
0.0
 11
13.51836606757532
 21
5.228846957284683
 31
0.0
  0
LINE
  5
1B4BA
330
1B4AF
100
AcDbEntity
  8
0
  6
CONTINUOUS
100
AcDbLine
 10
12.66873058876364
 20
3.705692269392816
 30
0.0
 11
13.71795180454843
 21
4.754913485177607
 31
0.0
  0
LINE
  5
1B4BB
330
1B4AF
100
AcDbEntity
  8
0
  6
CONTINUOUS
100
AcDbLine
 10
12.86831133953877
 20
3.231753811087759
 30
0.0
 11
13.91753754152154
 21
4.280980013070531
 31
0.0
  0
LINE
  5
1B4BC
330
1B4AF
100
AcDbEntity
  8
0
  6
CONTINUOUS
100
AcDbLine
 10
13.0678920903139
 20
2.757815352782702
 30
0.0
 11
14.11712327849465
 21
3.807046540963456
 31
0.0
  0
LINE
  5
1B4BD
330
1B4AF
100
AcDbEntity
  8
0
  6
CONTINUOUS
100
AcDbLine
 10
13.26747284108903
 20
2.283876894477644
 30
0.0
 11
14.31670901546777
 21
3.333113068856379
 31
0.0
  0
LINE
  5
1B4BE
330
1B4AF
100
AcDbEntity
  8
0
  6
CONTINUOUS
100
AcDbLine
 10
16.36767838827179
 20
8.751678487061342
 30
0.0
 11
16.50332410898388
 21
8.887324207773432
 31
0.0
  0
LINE
  5
1B4BF
330
1B4AF
100
AcDbEntity
  8
0
  6
CONTINUOUS
100
AcDbLine
 10
15.96190732182191
 20
7.67238821153127
 30
0.0
 11
16.68735328004734
 21
8.397834169756699
 31
0.0
  0
LINE
  5
1B4C0
330
1B4AF
100
AcDbEntity
  8
0
  6
CONTINUOUS
100
AcDbLine
 10
15.55613625537202
 20
6.593097936001196
 30
0.0
 11
16.87138245111079
 21
7.908344131739965
 31
0.0
  0
LINE
  5
1B4C1
330
1B4AF
100
AcDbEntity
  8
0
  6
CONTINUOUS
100
AcDbLine
 10
15.15036518892213
 20
5.513807660471122
 30
0.0
 11
17.05541162217424
 21
7.418854093723231
 31
0.0
  0
LINE
  5
1B4C2
330
1B4AF
100
AcDbEntity
  8
0
  6
CONTINUOUS
100
AcDbLine
 10
14.74459412247225
 20
4.434517384941048
 30
0.0
 11
17.2394407932377
 21
6.929364055706499
 31
0.0
  0
LINE
  5
1B4C3
330
1B4AF
100
AcDbEntity
  8
0
  6
CONTINUOUS
100
AcDbLine
 10
14.33882305602236
 20
3.355227109410975
 30
0.0
 11
17.42346996430115
 21
6.439874017689766
 31
0.0
  0
LINE
  5
1B4C4
330
1B4AF
100
AcDbEntity
  8
0
  6
CONTINUOUS
100
AcDbLine
 10
13.46705359186416
 20
1.809938436172586
 30
0.0
 11
16.0819338255367
 21
4.424818669845129
 31
0.0
  0
LINE
  5
1B4C5
330
1B4AF
100
AcDbEntity
  8
0
  6
CONTINUOUS
100
AcDbLine
 10
16.63283254238972
 20
4.975717386698149
 30
0.0
 11
17.60749913536461
 21
5.950383979673033
 31
0.0
  0
LINE
  5
1B4C6
330
1B4AF
100
AcDbEntity
  8
0
  6
CONTINUOUS
100
AcDbLine
 10
13.66663434263929
 20
1.335999977867529
 30
0.0
 11
15.67604797733754
 21
3.345413612565779
 31
0.0
  0
LINE
  5
1B4C7
330
1B4AF
100
AcDbEntity
  8
0
  6
CONTINUOUS
100
AcDbLine
 10
13.86621509341442
 20
0.8620615195624723
 30
0.0
 11
15.27016212913838
 21
2.26600855528643
 31
0.0
  0
LINE
  5
1B4C8
330
1B4AF
100
AcDbEntity
  8
0
  6
CONTINUOUS
100
AcDbLine
 10
16.81682257348267
 20
4.486188208710908
 30
0.0
 11
17.79152830642806
 21
5.460893941656299
 31
0.0
  0
LINE
  5
1B4C9
330
1B4AF
100
AcDbEntity
  8
0
  6
CONTINUOUS
100
AcDbLine
 10
17.00081260457561
 20
3.996659030723667
 30
0.0
 11
17.97555747749151
 21
4.971403903639565
 31
0.0
  0
LINE
  5
1B4CA
330
1B4AF
100
AcDbEntity
  8
0
  6
CONTINUOUS
100
AcDbLine
 10
20.74362343514722
 20
8.412989070375462
 30
0.0
 11
21.09373436476302
 21
8.763099999991256
 31
0.0
  0
LINE
  5
1B4CB
330
1B4AF
100
AcDbEntity
  8
0
  6
CONTINUOUS
100
AcDbLine
 10
20.25401257174777
 20
7.249858997895826
 30
0.0
 11
21.7672535738432
 21
8.763099999991255
 31
0.0
  0
LINE
  5
1B4CC
330
1B4AF
100
AcDbEntity
  8
0
  6
CONTINUOUS
100
AcDbLine
 10
14.06579584418955
 20
0.3881230612574149
 30
0.0
 11
14.86427628093921
 21
1.186603498007082
 31
0.0
  0
LINE
  5
1B4CD
330
1B4AF
100
AcDbEntity
  8
0
  6
CONTINUOUS
100
AcDbLine
 10
14.26537659496467
 20
-0.0858153970476412
 30
0.0
 11
14.45839043274005
 21
0.1071984407277329
 31
0.0
  0
LINE
  5
1B4CE
330
1B4AF
100
AcDbEntity
  8
0
  6
CONTINUOUS
100
AcDbLine
 10
17.18480263566856
 20
3.507129852736426
 30
0.0
 11
18.15958664855496
 21
4.481913865622833
 31
0.0
  0
LINE
  5
1B4CF
330
1B4AF
100
AcDbEntity
  8
0
  6
CONTINUOUS
100
AcDbLine
 10
17.3687926667615
 20
3.017600674749186
 30
0.0
 11
18.34361581961842
 21
3.9924238276061
 31
0.0
  0
LINE
  5
1B4D0
330
1B4AF
100
AcDbEntity
  8
0
  6
CONTINUOUS
100
AcDbLine
 10
19.76440170834832
 20
6.086728925416191
 30
0.0
 11
22.33924590259489
 21
8.661573119662755
 31
0.0
  0
LINE
  5
1B4D1
330
1B4AF
100
AcDbEntity
  8
0
  6
CONTINUOUS
100
AcDbLine
 10
19.27479084494887
 20
4.923598852936555
 30
0.0
 11
21.84929622842713
 21
7.498104236414807
 31
0.0
  0
LINE
  5
1B4D2
330
1B4AF
100
AcDbEntity
  8
0
  6
CONTINUOUS
100
AcDbLine
 10
17.55278269785445
 20
2.528071496761945
 30
0.0
 11
18.52764499068187
 21
3.502933789589366
 31
0.0
  0
LINE
  5
1B4D3
330
1B4AF
100
AcDbEntity
  8
0
  6
CONTINUOUS
100
AcDbLine
 10
18.78517998154942
 20
3.760468780456919
 30
0.0
 11
21.35934655425936
 21
6.33463535316686
 31
0.0
  0
LINE
  5
1B4D4
330
1B4AF
100
AcDbEntity
  8
0
  6
CONTINUOUS
100
AcDbLine
 10
17.73677272894739
 20
2.038542318774704
 30
0.0
 11
20.8693968800916
 21
5.171166469918914
 31
0.0
  0
LINE
  5
1B4D5
330
1B4AF
100
AcDbEntity
  8
0
  6
CONTINUOUS
100
AcDbLine
 10
17.92076276004034
 20
1.549013140787464
 30
0.0
 11
20.37944720592384
 21
4.007697586670968
 31
0.0
  0
LINE
  5
1B4D6
330
1B4AF
100
AcDbEntity
  8
0
  6
CONTINUOUS
100
AcDbLine
 10
18.10475279113329
 20
1.059483962800223
 30
0.0
 11
19.88949753175608
 21
2.84422870342302
 31
0.0
  0
LINE
  5
1B4D7
330
1B4AF
100
AcDbEntity
  8
0
  6
CONTINUOUS
100
AcDbLine
 10
18.28874282222623
 20
0.5699547848129822
 30
0.0
 11
19.39954785758832
 21
1.680759820175074
 31
0.0
  0
LINE
  5
1B4D8
330
1B4AF
100
AcDbEntity
  8
0
  6
CONTINUOUS
100
AcDbLine
 10
18.47273285331918
 20
0.0804256068257416
 30
0.0
 11
18.90959818342056
 21
0.517290936927127
 31
0.0
  0
LINE
  5
1B4D9
330
1B4AF
100
AcDbEntity
  8
0
  6
CONTINUOUS
100
AcDbLine
 10
14.3590401358224
 20
-0.1570118376323384
 30
0.0
 11
14.24903296539946
 21
-0.0470046672093929
 31
0.0
  0
LINE
  5
1B4DA
330
1B4AF
100
AcDbEntity
  8
0
  6
CONTINUOUS
100
AcDbLine
 10
14.54309291258661
 20
0.332454594683643
 30
0.0
 11
13.75908329123172
 21
1.116464216038529
 31
0.0
  0
LINE
  5
1B4DB
330
1B4AF
100
AcDbEntity
  8
0
  6
CONTINUOUS
100
AcDbLine
 10
14.72714568935081
 20
0.8219210269996244
 30
0.0
 11
13.26913361706399
 21
2.27993309928645
 31
0.0
  0
LINE
  5
1B4DC
330
1B4AF
100
AcDbEntity
  8
0
  6
CONTINUOUS
100
AcDbLine
 10
14.91119846611502
 20
1.311387459315606
 30
0.0
 11
12.77918394289625
 21
3.443401982534371
 31
0.0
  0
LINE
  5
1B4DD
330
1B4AF
100
AcDbEntity
  8
0
  6
CONTINUOUS
100
AcDbLine
 10
15.09525124287922
 20
1.800853891631587
 30
0.0
 11
12.28923426872852
 21
4.606870865782293
 31
0.0
  0
LINE
  5
1B4DE
330
1B4AF
100
AcDbEntity
  8
0
  6
CONTINUOUS
100
AcDbLine
 10
15.27930401964343
 20
2.290320323947569
 30
0.0
 11
11.79928459456078
 21
5.770339749030213
 31
0.0
  0
LINE
  5
1B4DF
330
1B4AF
100
AcDbEntity
  8
0
  6
CONTINUOUS
100
AcDbLine
 10
15.46335679640763
 20
2.77978675626355
 30
0.0
 11
14.48885470994921
 21
3.754288842721972
 31
0.0
  0
LINE
  5
1B4E0
330
1B4AF
100
AcDbEntity
  8
0
  6
CONTINUOUS
100
AcDbLine
 10
13.88507249233704
 20
4.358071060334137
 30
0.0
 11
11.30933492039305
 21
6.933808632278135
 31
0.0
  0
LINE
  5
1B4E1
330
1B4AF
100
AcDbEntity
  8
0
  6
CONTINUOUS
100
AcDbLine
 10
18.75840522805855
 20
0.1582575336928151
 30
0.0
 11
18.25383727664818
 21
0.6628254851031863
 31
0.0
  0
LINE
  5
1B4E2
330
1B4AF
100
AcDbEntity
  8
0
  6
CONTINUOUS
100
AcDbLine
 10
15.64740957317184
 20
3.269253188579531
 30
0.0
 11
14.67288388101266
 21
4.243778880738705
 31
0.0
  0
LINE
  5
1B4E3
330
1B4AF
100
AcDbEntity
  8
0
  6
CONTINUOUS
100
AcDbLine
 10
13.39509276772158
 20
5.521569994029786
 30
0.0
 11
10.81938524622531
 21
8.097277515526056
 31
0.0
  0
LINE
  5
1B4E4
330
1B4AF
100
AcDbEntity
  8
0
  6
CONTINUOUS
100
AcDbLine
 10
18.95798597883369
 20
0.6321959919978686
 30
0.0
 11
17.84825644852853
 21
1.741925522303024
 31
0.0
  0
LINE
  5
1B4E5
330
1B4AF
100
AcDbEntity
  8
0
  6
CONTINUOUS
100
AcDbLine
 10
19.15756672960882
 20
1.106134450302922
 30
0.0
 11
17.44267562040888
 21
2.821025559502861
 31
0.0
  0
LINE
  5
1B4E6
330
1B4AF
100
AcDbEntity
  8
0
  6
CONTINUOUS
100
AcDbLine
 10
15.83146234993604
 20
3.758719620895513
 30
0.0
 11
14.85691305207612
 21
4.733268918755439
 31
0.0
  0
LINE
  5
1B4E7
330
1B4AF
100
AcDbEntity
  8
0
  6
CONTINUOUS
100
AcDbLine
 10
16.01551512670025
 20
4.248186053211494
 30
0.0
 11
15.04094222313957
 21
5.222758956772172
 31
0.0
  0
LINE
  5
1B4E8
330
1B4AF
100
AcDbEntity
  8
0
  6
CONTINUOUS
100
AcDbLine
 10
12.90511304310612
 20
6.685068927725435
 30
0.0
 11
10.8270819708403
 21
8.763099999991255
 31
0.0
  0
LINE
  5
1B4E9
330
1B4AF
100
AcDbEntity
  8
0
  6
CONTINUOUS
100
AcDbLine
 10
12.41513331849066
 20
7.848567861421083
 30
0.0
 11
11.50060117992049
 21
8.763099999991255
 31
0.0
  0
LINE
  5
1B4EA
330
1B4AF
100
AcDbEntity
  8
0
  6
CONTINUOUS
100
AcDbLine
 10
19.35714748038395
 20
1.580072908607975
 30
0.0
 11
17.03709479228923
 21
3.900125596702697
 31
0.0
  0
LINE
  5
1B4EB
330
1B4AF
100
AcDbEntity
  8
0
  6
CONTINUOUS
100
AcDbLine
 10
19.55672823115909
 20
2.054011366913028
 30
0.0
 11
16.63151396416958
 21
4.979225633902534
 31
0.0
  0
LINE
  5
1B4EC
330
1B4AF
100
AcDbEntity
  8
0
  6
CONTINUOUS
100
AcDbLine
 10
16.19956790346445
 20
4.737652485527476
 30
0.0
 11
15.22497139420302
 21
5.712248994788904
 31
0.0
  0
LINE
  5
1B4ED
330
1B4AF
100
AcDbEntity
  8
0
  6
CONTINUOUS
100
AcDbLine
 10
16.38362068022866
 20
5.227118917843457
 30
0.0
 11
15.40900056526648
 21
6.201739032805637
 31
0.0
  0
LINE
  5
1B4EE
330
1B4AF
100
AcDbEntity
  8
0
  6
CONTINUOUS
100
AcDbLine
 10
19.75630898193422
 20
2.527949825218081
 30
0.0
 11
18.70774536448286
 21
3.576513442669441
 31
0.0
  0
LINE
  5
1B4EF
330
1B4AF
100
AcDbEntity
  8
0
  6
CONTINUOUS
100
AcDbLine
 10
19.95588973270936
 20
3.001888283523134
 30
0.0
 11
18.90726987211446
 21
4.050508144118028
 31
0.0
  0
LINE
  5
1B4F0
330
1B4AF
100
AcDbEntity
  8
0
  6
CONTINUOUS
100
AcDbLine
 10
20.15547048348449
 20
3.475826741828186
 30
0.0
 11
19.10679437974606
 21
4.524502845566614
 31
0.0
  0
LINE
  5
1B4F1
330
1B4AF
100
AcDbEntity
  8
0
  6
CONTINUOUS
100
AcDbLine
 10
20.35505123425962
 20
3.94976520013324
 30
0.0
 11
19.30631888737766
 21
4.998497547015201
 31
0.0
  0
LINE
  5
1B4F2
330
1B4AF
100
AcDbEntity
  8
0
  6
CONTINUOUS
100
AcDbLine
 10
20.55463198503475
 20
4.423703658438292
 30
0.0
 11
19.50584339500926
 21
5.472492248463787
 31
0.0
  0
LINE
  5
1B4F3
330
1B4AF
100
AcDbEntity
  8
0
  6
CONTINUOUS
100
AcDbLine
 10
18.37481191085755
 20
3.909446896294752
 30
0.0
 11
15.59302973632993
 21
6.691229070822371
 31
0.0
  0
LINE
  5
1B4F4
330
1B4AF
100
AcDbEntity
  8
0
  6
CONTINUOUS
100
AcDbLine
 10
17.96904084440766
 20
4.988737171824825
 30
0.0
 11
15.77705890739338
 21
7.180719108839104
 31
0.0
  0
LINE
  5
1B4F5
330
1B4AF
100
AcDbEntity
  8
0
  6
CONTINUOUS
100
AcDbLine
 10
17.56326977795777
 20
6.068027447354899
 30
0.0
 11
15.96108807845684
 21
7.670209146855838
 31
0.0
  0
LINE
  5
1B4F6
330
1B4AF
100
AcDbEntity
  8
0
  6
CONTINUOUS
100
AcDbLine
 10
17.15749871150789
 20
7.147317722884972
 30
0.0
 11
16.14511724952029
 21
8.15969918487257
 31
0.0
  0
LINE
  5
1B4F7
330
1B4AF
100
AcDbEntity
  8
0
  6
CONTINUOUS
100
AcDbLine
 10
16.751727645058
 20
8.226607998415046
 30
0.0
 11
16.32914642058374
 21
8.649189222889303
 31
0.0
  0
LINE
  5
1B4F8
330
1B4AF
100
AcDbEntity
  8
0
  6
CONTINUOUS
100
AcDbLine
 10
20.75421273580989
 20
4.897642116743345
 30
0.0
 11
19.70536790264086
 21
5.946486949912374
 31
0.0
  0
LINE
  5
1B4F9
330
1B4AF
100
AcDbEntity
  8
0
  6
CONTINUOUS
100
AcDbLine
 10
20.95379348658502
 20
5.371580575048398
 30
0.0
 11
19.90489241027246
 21
6.42048165136096
 31
0.0
  0
LINE
  5
1B4FA
330
1B4AF
100
AcDbEntity
  8
0
  6
CONTINUOUS
100
AcDbLine
 10
21.15337423736015
 20
5.845519033353452
 30
0.0
 11
20.10441691790406
 21
6.894476352809547
 31
0.0
  0
LINE
  5
1B4FB
330
1B4AF
100
AcDbEntity
  8
0
  6
CONTINUOUS
100
AcDbLine
 10
21.35295498813529
 20
6.319457491658505
 30
0.0
 11
20.30394142553566
 21
7.368471054258134
 31
0.0
  0
LINE
  5
1B4FC
330
1B4AF
100
AcDbEntity
  8
0
  6
CONTINUOUS
100
AcDbLine
 10
21.55253573891042
 20
6.793395949963558
 30
0.0
 11
20.50346593316726
 21
7.842465755706721
 31
0.0
  0
LINE
  5
1B4FD
330
1B4AF
100
AcDbEntity
  8
0
  6
CONTINUOUS
100
AcDbLine
 10
21.75211648968556
 20
7.267334408268612
 30
0.0
 11
20.70299044079886
 21
8.316460457155308
 31
0.0
  0
LINE
  5
1B4FE
330
1B4AF
100
AcDbEntity
  8
0
  6
CONTINUOUS
100
AcDbLine
 10
21.95169724046069
 20
7.741272866573663
 30
0.0
 11
20.9298701070431
 21
8.763099999991256
 31
0.0
  0
LINE
  5
1B4FF
330
1B4AF
100
AcDbEntity
  8
0
  6
CONTINUOUS
100
AcDbLine
 10
22.15127799123582
 20
8.215211324878716
 30
0.0
 11
21.60338931612328
 21
8.763099999991256
 31
0.0
  0
LINE
  5
1B500
330
1B4AF
100
AcDbEntity
  8
0
  6
CONTINUOUS
100
AcDbLine
 10
22.35085874201096
 20
8.689149783183769
 30
0.0
 11
22.27690852520347
 21
8.763099999991255
 31
0.0
  0
ENDBLK
  5
1B5F2
330
1B4AF
100
AcDbEntity
  8
0
100
AcDbBlockEnd
  0
BLOCK
  5
1B5F3
330
1B501
100
AcDbEntity
  8
0
100
AcDbBlockBegin
  2
*X49
 70
     1
 10
0.0
 20
0.0
 30
0.0
  3
*X49
  1

  0
LINE
  5
1B502
330
1B501
100
AcDbEntity
  8
0
  6
CONTINUOUS
100
AcDbLine
 10
23.19462913593892
 20
8.169917934846424
 30
0.0
 11
23.70775465517246
 21
8.683043454079957
 31
0.0
  0
LINE
  5
1B503
330
1B501
100
AcDbEntity
  8
0
  6
CONTINUOUS
100
AcDbLine
 10
22.64923161835078
 20
6.951001208178088
 30
0.0
 11
23.9159364069932
 21
8.217705996820516
 31
0.0
  0
LINE
  5
1B504
330
1B501
100
AcDbEntity
  8
0
  6
CONTINUOUS
100
AcDbLine
 10
22.10383410076263
 20
5.732084481509751
 30
0.0
 11
24.12411815881395
 21
7.752368539561078
 31
0.0
  0
LINE
  5
1B505
330
1B501
100
AcDbEntity
  8
0
  6
CONTINUOUS
100
AcDbLine
 10
21.55843658317447
 20
4.513167754841414
 30
0.0
 11
24.3322999106347
 21
7.287031082301639
 31
0.0
  0
LINE
  5
1B506
330
1B501
100
AcDbEntity
  8
0
  6
CONTINUOUS
100
AcDbLine
 10
21.01303906558632
 20
3.294251028173077
 30
0.0
 11
24.54048166245544
 21
6.821693625042199
 31
0.0
  0
LINE
  5
1B507
330
1B501
100
AcDbEntity
  8
0
  6
CONTINUOUS
100
AcDbLine
 10
20.46764154799817
 20
2.075334301504738
 30
0.0
 11
23.28571549467848
 21
4.89340824818505
 31
0.0
  0
LINE
  5
1B508
330
1B501
100
AcDbEntity
  8
0
  6
CONTINUOUS
100
AcDbLine
 10
19.92224403041002
 20
0.8564175748364002
 30
0.0
 11
22.74075865492779
 21
3.674932199354171
 31
0.0
  0
LINE
  5
1B509
330
1B501
100
AcDbEntity
  8
0
  6
CONTINUOUS
100
AcDbLine
 10
23.67305085490148
 20
5.280743608408048
 30
0.0
 11
24.74866341427619
 21
6.356356167782759
 31
0.0
  0
LINE
  5
1B50A
330
1B501
100
AcDbEntity
  8
0
  6
CONTINUOUS
100
AcDbLine
 10
23.88118970842314
 20
4.815363252849522
 30
0.0
 11
24.95684516609694
 21
5.89101871052332
 31
0.0
  0
LINE
  5
1B50B
330
1B501
100
AcDbEntity
  8
0
  6
CONTINUOUS
100
AcDbLine
 10
19.73925852647308
 20
-0.0000871381807288
 30
0.0
 11
23.4103456646501
 21
3.670999999996297
 31
0.0
  0
LINE
  5
1B50C
330
1B501
100
AcDbEntity
  8
0
  6
CONTINUOUS
100
AcDbLine
 10
24.0893285619448
 20
4.349982897290997
 30
0.0
 11
25.16502691791769
 21
5.42568125326388
 31
0.0
  0
LINE
  5
1B50D
330
1B501
100
AcDbEntity
  8
0
  6
CONTINUOUS
100
AcDbLine
 10
20.41282099582748
 20
-0.0000438779065108
 30
0.0
 11
21.64944178675636
 21
1.236576913022366
 31
0.0
  0
LINE
  5
1B50E
330
1B501
100
AcDbEntity
  8
0
  6
CONTINUOUS
100
AcDbLine
 10
22.78126487373161
 20
2.36839999999762
 30
0.0
 11
24.08386487373029
 21
3.670999999996297
 31
0.0
  0
LINE
  5
1B50F
330
1B501
100
AcDbEntity
  8
0
  6
CONTINUOUS
100
AcDbLine
 10
24.29746741546646
 20
3.884602541732471
 30
0.0
 11
25.37320866973843
 21
4.960343796004441
 31
0.0
  0
LINE
  5
1B510
330
1B501
100
AcDbEntity
  8
0
  6
CONTINUOUS
100
AcDbLine
 10
21.08638346518189
 20
-0.0000006176322938
 30
0.0
 11
21.10379033335899
 21
0.0174062505448083
 31
0.0
  0
LINE
  5
1B511
330
1B501
100
AcDbEntity
  8
0
  6
CONTINUOUS
100
AcDbLine
 10
23.4547840828118
 20
2.36839999999762
 30
0.0
 11
25.58139042155918
 21
4.495006338745002
 31
0.0
  0
LINE
  5
1B512
330
1B501
100
AcDbEntity
  8
0
  6
CONTINUOUS
100
AcDbLine
 10
29.30199999996933
 20
8.215615917155148
 30
0.0
 11
29.84948408280543
 21
8.763099999991255
 31
0.0
  0
LINE
  5
1B513
330
1B501
100
AcDbEntity
  8
0
  6
CONTINUOUS
100
AcDbLine
 10
24.12830329189199
 20
2.36839999999762
 30
0.0
 11
25.78957217337993
 21
4.029668881485562
 31
0.0
  0
LINE
  5
1B514
330
1B501
100
AcDbEntity
  8
0
  6
CONTINUOUS
100
AcDbLine
 10
29.30199999996933
 20
7.54209670807496
 30
0.0
 11
30.52300329188562
 21
8.763099999991255
 31
0.0
  0
LINE
  5
1B515
330
1B501
100
AcDbEntity
  8
0
  6
CONTINUOUS
100
AcDbLine
 10
24.80182250097217
 20
2.36839999999762
 30
0.0
 11
25.99775392520067
 21
3.564331424226122
 31
0.0
  0
LINE
  5
1B516
330
1B501
100
AcDbEntity
  8
0
  6
CONTINUOUS
100
AcDbLine
 10
29.30199999996933
 20
6.868577498994774
 30
0.0
 11
30.74199999996926
 21
8.308577498994712
 31
0.0
  0
LINE
  5
1B517
330
1B501
100
AcDbEntity
  8
0
  6
CONTINUOUS
100
AcDbLine
 10
25.13028238392013
 20
2.023340673865392
 30
0.0
 11
26.20593567702142
 21
3.098993966966683
 31
0.0
  0
LINE
  5
1B518
330
1B501
100
AcDbEntity
  8
0
  6
CONTINUOUS
100
AcDbLine
 10
25.33838066033617
 20
1.557919741201244
 30
0.0
 11
26.41411742884217
 21
2.633656509707244
 31
0.0
  0
LINE
  5
1B519
330
1B501
100
AcDbEntity
  8
0
  6
CONTINUOUS
100
AcDbLine
 10
25.54647893675221
 20
1.092498808537098
 30
0.0
 11
26.62229918066291
 21
2.168319052447804
 31
0.0
  0
LINE
  5
1B51A
330
1B501
100
AcDbEntity
  8
0
  6
CONTINUOUS
100
AcDbLine
 10
25.75457721316825
 20
0.62707787587295
 30
0.0
 11
26.83048093248366
 21
1.702981595188365
 31
0.0
  0
LINE
  5
1B51B
330
1B501
100
AcDbEntity
  8
0
  6
CONTINUOUS
100
AcDbLine
 10
29.30199999996933
 20
6.195058289914587
 30
0.0
 11
30.74199999996926
 21
7.635058289914522
 31
0.0
  0
LINE
  5
1B51C
330
1B501
100
AcDbEntity
  8
0
  6
CONTINUOUS
100
AcDbLine
 10
29.30199999996933
 20
5.521539080834401
 30
0.0
 11
30.74199999996926
 21
6.961539080834331
 31
0.0
  0
LINE
  5
1B51D
330
1B501
100
AcDbEntity
  8
0
  6
CONTINUOUS
100
AcDbLine
 10
29.30199999996933
 20
4.848019871754214
 30
0.0
 11
30.74199999996925
 21
6.288019871754143
 31
0.0
  0
LINE
  5
1B51E
330
1B501
100
AcDbEntity
  8
0
  6
CONTINUOUS
100
AcDbLine
 10
29.30199999996933
 20
4.174500662674028
 30
0.0
 11
30.74199999996925
 21
5.614500662673953
 31
0.0
  0
LINE
  5
1B51F
330
1B501
100
AcDbEntity
  8
0
  6
CONTINUOUS
100
AcDbLine
 10
25.96267548958429
 20
0.1616569432088024
 30
0.0
 11
27.18411854636669
 21
1.383099999991207
 31
0.0
  0
LINE
  5
1B520
330
1B501
100
AcDbEntity
  8
0
  6
CONTINUOUS
100
AcDbLine
 10
29.30199999996933
 20
3.500981453593841
 30
0.0
 11
30.74199999996925
 21
4.940981453593762
 31
0.0
  0
LINE
  5
1B521
330
1B501
100
AcDbEntity
  8
0
  6
CONTINUOUS
100
AcDbLine
 10
26.50763775544691
 20
0.0330999999912356
 30
0.0
 11
27.85763775544689
 21
1.383099999991223
 31
0.0
  0
LINE
  5
1B522
330
1B501
100
AcDbEntity
  8
0
  6
CONTINUOUS
100
AcDbLine
 10
29.30199999996933
 20
2.827462244513656
 30
0.0
 11
30.74199999996925
 21
4.267462244513574
 31
0.0
  0
LINE
  5
1B523
330
1B501
100
AcDbEntity
  8
0
  6
CONTINUOUS
100
AcDbLine
 10
27.18115696452709
 20
0.0330999999912356
 30
0.0
 11
28.55073879889363
 21
1.402681834357775
 31
0.0
  0
LINE
  5
1B524
330
1B501
100
AcDbEntity
  8
0
  6
CONTINUOUS
100
AcDbLine
 10
29.28241816560272
 20
2.134361201066866
 30
0.0
 11
30.74199999996924
 21
3.593943035433383
 31
0.0
  0
LINE
  5
1B525
330
1B501
100
AcDbEntity
  8
0
  6
CONTINUOUS
100
AcDbLine
 10
27.85467617360728
 20
0.0330999999912356
 30
0.0
 11
30.74199999996924
 21
2.920423826353195
 31
0.0
  0
LINE
  5
1B526
330
1B501
100
AcDbEntity
  8
0
  6
CONTINUOUS
100
AcDbLine
 10
28.53897559587887
 20
0.0438802131826428
 30
0.0
 11
30.73121978677781
 21
2.236124404081585
 31
0.0
  0
LINE
  5
1B527
330
1B501
100
AcDbEntity
  8
0
  6
CONTINUOUS
100
AcDbLine
 10
29.45140055588722
 20
0.2827859641107988
 30
0.0
 11
30.49231403584965
 21
1.323699444073236
 31
0.0
  0
LINE
  5
1B528
330
1B501
100
AcDbEntity
  8
0
  6
CONTINUOUS
100
AcDbLine
 10
19.59027867740337
 20
-0.0000967065718083
 30
0.0
 11
19.55485265190471
 21
0.035329318926844
 31
0.0
  0
LINE
  5
1B529
330
1B501
100
AcDbEntity
  8
0
  6
CONTINUOUS
100
AcDbLine
 10
20.26375463176586
 20
-0.0000534518541091
 30
0.0
 11
19.76305575737534
 21
0.5006454225364014
 31
0.0
  0
LINE
  5
1B52A
330
1B501
100
AcDbEntity
  8
0
  6
CONTINUOUS
100
AcDbLine
 10
20.93723058612834
 20
-0.0000101971364099
 30
0.0
 11
19.97125886284597
 21
0.965961526145958
 31
0.0
  0
LINE
  5
1B52B
330
1B501
100
AcDbEntity
  8
0
  6
CONTINUOUS
100
AcDbLine
 10
21.25514828313686
 20
0.355591314935257
 30
0.0
 11
20.1794619683166
 21
1.431277629755512
 31
0.0
  0
LINE
  5
1B52C
330
1B501
100
AcDbEntity
  8
0
  6
CONTINUOUS
100
AcDbLine
 10
21.46338838394921
 20
0.8208704232030986
 30
0.0
 11
20.38766507378723
 21
1.896593733365069
 31
0.0
  0
LINE
  5
1B52D
330
1B501
100
AcDbEntity
  8
0
  6
CONTINUOUS
100
AcDbLine
 10
21.67162848476155
 20
1.28614953147094
 30
0.0
 11
20.59586817925786
 21
2.361909836974626
 31
0.0
  0
LINE
  5
1B52E
330
1B501
100
AcDbEntity
  8
0
  6
CONTINUOUS
100
AcDbLine
 10
21.8798685855739
 20
1.751428639738782
 30
0.0
 11
20.80407128472849
 21
2.827225940584183
 31
0.0
  0
LINE
  5
1B52F
330
1B501
100
AcDbEntity
  8
0
  6
CONTINUOUS
100
AcDbLine
 10
22.08810868638624
 20
2.216707748006623
 30
0.0
 11
21.01227439019912
 21
3.292542044193739
 31
0.0
  0
LINE
  5
1B530
330
1B501
100
AcDbEntity
  8
0
  6
CONTINUOUS
100
AcDbLine
 10
22.60993564347543
 20
2.36839999999762
 30
0.0
 11
21.22047749566975
 21
3.757858147803296
 31
0.0
  0
LINE
  5
1B531
330
1B501
100
AcDbEntity
  8
0
  6
CONTINUOUS
100
AcDbLine
 10
23.28345485255561
 20
2.36839999999762
 30
0.0
 11
21.42868060114038
 21
4.223174251412853
 31
0.0
  0
LINE
  5
1B532
330
1B501
100
AcDbEntity
  8
0
  6
CONTINUOUS
100
AcDbLine
 10
26.29227406164219
 20
0.0330999999912356
 30
0.0
 11
25.80009199592872
 21
0.5252820657046957
 31
0.0
  0
LINE
  5
1B533
330
1B501
100
AcDbEntity
  8
0
  6
CONTINUOUS
100
AcDbLine
 10
23.9569740616358
 20
2.36839999999762
 30
0.0
 11
21.63688370661101
 21
4.688490355022409
 31
0.0
  0
LINE
  5
1B534
330
1B501
100
AcDbEntity
  8
0
  6
CONTINUOUS
100
AcDbLine
 10
26.96579327072237
 20
0.0330999999912356
 30
0.0
 11
25.2554132311971
 21
1.743480039516508
 31
0.0
  0
LINE
  5
1B535
330
1B501
100
AcDbEntity
  8
0
  6
CONTINUOUS
100
AcDbLine
 10
24.63049327071599
 20
2.36839999999762
 30
0.0
 11
23.32789327071731
 21
3.670999999996297
 31
0.0
  0
LINE
  5
1B536
330
1B501
100
AcDbEntity
  8
0
  6
CONTINUOUS
100
AcDbLine
 10
22.92098674744635
 20
4.077906523267254
 30
0.0
 11
21.84508681208164
 21
5.153806458631966
 31
0.0
  0
LINE
  5
1B537
330
1B501
100
AcDbEntity
  8
0
  6
CONTINUOUS
100
AcDbLine
 10
27.63931247980256
 20
0.0330999999912356
 30
0.0
 11
24.0014124797975
 21
3.670999999996297
 31
0.0
  0
LINE
  5
1B538
330
1B501
100
AcDbEntity
  8
0
  6
CONTINUOUS
100
AcDbLine
 10
23.129125600968
 20
4.5432868788258
 30
0.0
 11
22.05328991755227
 21
5.619122562241522
 31
0.0
  0
LINE
  5
1B539
330
1B501
100
AcDbEntity
  8
0
  6
CONTINUOUS
100
AcDbLine
 10
28.31283168888275
 20
0.0330999999912356
 30
0.0
 11
24.16488385994816
 21
4.181047828925828
 31
0.0
  0
LINE
  5
1B53A
330
1B501
100
AcDbEntity
  8
0
  6
CONTINUOUS
100
AcDbLine
 10
23.33726445448964
 20
5.008667234384345
 30
0.0
 11
22.2614930230229
 21
6.084438665851079
 31
0.0
  0
LINE
  5
1B53B
330
1B501
100
AcDbEntity
  8
0
  6
CONTINUOUS
100
AcDbLine
 10
28.92085740005492
 20
0.0985934978992438
 30
0.0
 11
27.63635089796295
 21
1.383099999991217
 31
0.0
  0
LINE
  5
1B53C
330
1B501
100
AcDbEntity
  8
0
  6
CONTINUOUS
100
AcDbLine
 10
26.43704649509776
 20
2.582404402856405
 30
0.0
 11
23.61992702019732
 21
5.399523877756844
 31
0.0
  0
LINE
  5
1B53D
330
1B501
100
AcDbEntity
  8
0
  6
CONTINUOUS
100
AcDbLine
 10
23.54540330801128
 20
5.47404758994289
 30
0.0
 11
22.46969612849353
 21
6.549754769460635
 31
0.0
  0
LINE
  5
1B53E
330
1B501
100
AcDbEntity
  8
0
  6
CONTINUOUS
100
AcDbLine
 10
29.42225615078443
 20
0.2707139562499279
 30
0.0
 11
28.30987010704312
 21
1.383099999991234
 31
0.0
  0
LINE
  5
1B53F
330
1B501
100
AcDbEntity
  8
0
  6
CONTINUOUS
100
AcDbLine
 10
25.89179548232307
 20
3.801174624711282
 30
0.0
 11
22.67789923396416
 21
7.015070873070191
 31
0.0
  0
LINE
  5
1B540
330
1B501
100
AcDbEntity
  8
0
  6
CONTINUOUS
100
AcDbLine
 10
29.83624534690007
 20
0.5302439692144705
 30
0.0
 11
28.85811781497101
 21
1.508371501143527
 31
0.0
  0
LINE
  5
1B541
330
1B501
100
AcDbEntity
  8
0
  6
CONTINUOUS
100
AcDbLine
 10
25.34654446954838
 20
5.01994484656616
 30
0.0
 11
22.88610233943479
 21
7.480386976679748
 31
0.0
  0
LINE
  5
1B542
330
1B501
100
AcDbEntity
  8
0
  6
CONTINUOUS
100
AcDbLine
 10
30.17865975401872
 20
0.8613487711760022
 30
0.0
 11
29.18888744090175
 21
1.851121084292977
 31
0.0
  0
LINE
  5
1B543
330
1B501
100
AcDbEntity
  8
0
  6
CONTINUOUS
100
AcDbLine
 10
24.80129345677369
 20
6.238715068421037
 30
0.0
 11
23.09430544490542
 21
7.945703080289305
 31
0.0
  0
LINE
  5
1B544
330
1B501
100
AcDbEntity
  8
0
  6
CONTINUOUS
100
AcDbLine
 10
30.45496647202376
 20
1.258561262251155
 30
0.0
 11
29.30199999996933
 21
2.411527734305588
 31
0.0
  0
LINE
  5
1B545
330
1B501
100
AcDbEntity
  8
0
  6
CONTINUOUS
100
AcDbLine
 10
24.256042443999
 20
7.457485290275915
 30
0.0
 11
23.30250855037605
 21
8.411019183898862
 31
0.0
  0
LINE
  5
1B546
330
1B501
100
AcDbEntity
  8
0
  6
CONTINUOUS
100
AcDbLine
 10
30.64868582078271
 20
1.738361122572387
 30
0.0
 11
29.30199999996933
 21
3.085046943385775
 31
0.0
  0
LINE
  5
1B547
330
1B501
100
AcDbEntity
  8
0
  6
CONTINUOUS
100
AcDbLine
 10
23.71079143122431
 20
8.676255512130794
 30
0.0
 11
23.51071165584668
 21
8.876335287508416
 31
0.0
  0
LINE
  5
1B548
330
1B501
100
AcDbEntity
  8
0
  6
CONTINUOUS
100
AcDbLine
 10
30.73802122914428
 20
2.322544923291007
 30
0.0
 11
29.30199999996933
 21
3.758566152465961
 31
0.0
  0
LINE
  5
1B549
330
1B501
100
AcDbEntity
  8
0
  6
CONTINUOUS
100
AcDbLine
 10
30.74199999996924
 20
2.992085361546236
 30
0.0
 11
29.30199999996933
 21
4.432085361546148
 31
0.0
  0
LINE
  5
1B54A
330
1B501
100
AcDbEntity
  8
0
  6
CONTINUOUS
100
AcDbLine
 10
30.74199999996924
 20
3.665604570626419
 30
0.0
 11
29.30199999996933
 21
5.105604570626333
 31
0.0
  0
LINE
  5
1B54B
330
1B501
100
AcDbEntity
  8
0
  6
CONTINUOUS
100
AcDbLine
 10
30.74199999996925
 20
4.339123779706602
 30
0.0
 11
29.30199999996933
 21
5.77912377970652
 31
0.0
  0
LINE
  5
1B54C
330
1B501
100
AcDbEntity
  8
0
  6
CONTINUOUS
100
AcDbLine
 10
30.74199999996925
 20
5.012642988786785
 30
0.0
 11
29.30199999996933
 21
6.452642988786707
 31
0.0
  0
LINE
  5
1B54D
330
1B501
100
AcDbEntity
  8
0
  6
CONTINUOUS
100
AcDbLine
 10
30.74199999996925
 20
5.68616219786697
 30
0.0
 11
29.30199999996933
 21
7.126162197866894
 31
0.0
  0
LINE
  5
1B54E
330
1B501
100
AcDbEntity
  8
0
  6
CONTINUOUS
100
AcDbLine
 10
30.74199999996925
 20
6.359681406947153
 30
0.0
 11
29.30199999996933
 21
7.799681406947081
 31
0.0
  0
LINE
  5
1B54F
330
1B501
100
AcDbEntity
  8
0
  6
CONTINUOUS
100
AcDbLine
 10
30.74199999996926
 20
7.033200616027337
 30
0.0
 11
29.30199999996933
 21
8.473200616027269
 31
0.0
  0
LINE
  5
1B550
330
1B501
100
AcDbEntity
  8
0
  6
CONTINUOUS
100
AcDbLine
 10
30.74199999996926
 20
7.706719825107518
 30
0.0
 11
29.68561982508552
 21
8.763099999991255
 31
0.0
  0
LINE
  5
1B551
330
1B501
100
AcDbEntity
  8
0
  6
CONTINUOUS
100
AcDbLine
 10
30.74199999996926
 20
8.380239034187703
 30
0.0
 11
30.35913903416571
 21
8.763099999991255
 31
0.0
  0
ENDBLK
  5
1B5F4
330
1B501
100
AcDbEntity
  8
0
100
AcDbBlockEnd
  0
BLOCK
  5
1B5F5
330
1B552
100
AcDbEntity
  8
0
100
AcDbBlockBegin
  2
*X50
 70
     1
 10
0.0
 20
0.0
 30
0.0
  3
*X50
  1

  0
LINE
  5
1B553
330
1B552
100
AcDbEntity
  8
0
  6
CONTINUOUS
100
AcDbLine
 10
31.64199999996833
 20
8.535058289913598
 30
0.0
 11
31.87004171004599
 21
8.763099999991255
 31
0.0
  0
LINE
  5
1B554
330
1B552
100
AcDbEntity
  8
0
  6
CONTINUOUS
100
AcDbLine
 10
31.64199999996833
 20
7.861539080833412
 30
0.0
 11
32.54356091912618
 21
8.763099999991255
 31
0.0
  0
LINE
  5
1B555
330
1B552
100
AcDbEntity
  8
0
  6
CONTINUOUS
100
AcDbLine
 10
31.64199999996833
 20
7.188019871753226
 30
0.0
 11
33.08199999996839
 21
8.628019871753281
 31
0.0
  0
LINE
  5
1B556
330
1B552
100
AcDbEntity
  8
0
  6
CONTINUOUS
100
AcDbLine
 10
31.64199999996833
 20
6.51450066267304
 30
0.0
 11
33.08199999996839
 21
7.954500662673095
 31
0.0
  0
LINE
  5
1B557
330
1B552
100
AcDbEntity
  8
0
  6
CONTINUOUS
100
AcDbLine
 10
31.64199999996833
 20
5.840981453592853
 30
0.0
 11
33.08199999996839
 21
7.280981453592908
 31
0.0
  0
LINE
  5
1B558
330
1B552
100
AcDbEntity
  8
0
  6
CONTINUOUS
100
AcDbLine
 10
31.64199999996833
 20
5.167462244512667
 30
0.0
 11
33.08199999996839
 21
6.607462244512721
 31
0.0
  0
LINE
  5
1B559
330
1B552
100
AcDbEntity
  8
0
  6
CONTINUOUS
100
AcDbLine
 10
31.64199999996833
 20
4.493943035432481
 30
0.0
 11
33.08199999996839
 21
5.933943035432535
 31
0.0
  0
LINE
  5
1B55A
330
1B552
100
AcDbEntity
  8
0
  6
CONTINUOUS
100
AcDbLine
 10
31.64199999996833
 20
3.820423826352293
 30
0.0
 11
33.08199999996839
 21
5.260423826352348
 31
0.0
  0
LINE
  5
1B55B
330
1B552
100
AcDbEntity
  8
0
  6
CONTINUOUS
100
AcDbLine
 10
31.64199999996833
 20
3.146904617272106
 30
0.0
 11
33.08199999996839
 21
4.586904617272161
 31
0.0
  0
LINE
  5
1B55C
330
1B552
100
AcDbEntity
  8
0
  6
CONTINUOUS
100
AcDbLine
 10
36.23199999996837
 20
8.410423826352325
 30
0.0
 11
36.5846761736073
 21
8.763099999991255
 31
0.0
  0
LINE
  5
1B55D
330
1B552
100
AcDbEntity
  8
0
  6
CONTINUOUS
100
AcDbLine
 10
36.23199999996837
 20
7.73690461727214
 30
0.0
 11
37.25819538268748
 21
8.763099999991255
 31
0.0
  0
LINE
  5
1B55E
330
1B552
100
AcDbEntity
  8
0
  6
CONTINUOUS
100
AcDbLine
 10
31.64257403601376
 20
2.473959444237348
 30
0.0
 11
33.08199999996839
 21
3.913385408191974
 31
0.0
  0
LINE
  5
1B55F
330
1B552
100
AcDbEntity
  8
0
  6
CONTINUOUS
100
AcDbLine
 10
36.23199999996837
 20
7.063385408191953
 30
0.0
 11
37.67199999996831
 21
8.503385408191894
 31
0.0
  0
LINE
  5
1B560
330
1B552
100
AcDbEntity
  8
0
  6
CONTINUOUS
100
AcDbLine
 10
31.72013636841932
 20
1.87800256756272
 30
0.0
 11
33.08199999996839
 21
3.239866199111788
 31
0.0
  0
LINE
  5
1B561
330
1B552
100
AcDbEntity
  8
0
  6
CONTINUOUS
100
AcDbLine
 10
36.23199999996837
 20
6.389866199111767
 30
0.0
 11
37.67199999996831
 21
7.829866199111708
 31
0.0
  0
LINE
  5
1B562
330
1B552
100
AcDbEntity
  8
0
  6
CONTINUOUS
100
AcDbLine
 10
31.89042734314753
 20
1.374774333210744
 30
0.0
 11
33.08199999996839
 21
2.566346990031601
 31
0.0
  0
LINE
  5
1B563
330
1B552
100
AcDbEntity
  8
0
  6
CONTINUOUS
100
AcDbLine
 10
36.23199999996837
 20
5.71634699003158
 30
0.0
 11
37.67199999996831
 21
7.156346990031521
 31
0.0
  0
LINE
  5
1B564
330
1B552
100
AcDbEntity
  8
0
  6
CONTINUOUS
100
AcDbLine
 10
32.14210568064475
 20
0.952933461627778
 30
0.0
 11
33.18745552475986
 21
1.998283305742888
 31
0.0
  0
LINE
  5
1B565
330
1B552
100
AcDbEntity
  8
0
  6
CONTINUOUS
100
AcDbLine
 10
36.23199999996837
 20
5.042827780951393
 30
0.0
 11
37.67199999996831
 21
6.482827780951334
 31
0.0
  0
LINE
  5
1B566
330
1B552
100
AcDbEntity
  8
0
  6
CONTINUOUS
100
AcDbLine
 10
32.45820639400955
 20
0.5955149659123915
 30
0.0
 11
33.47242681921943
 21
1.60973539112227
 31
0.0
  0
LINE
  5
1B567
330
1B552
100
AcDbEntity
  8
0
  6
CONTINUOUS
100
AcDbLine
 10
36.23199999996837
 20
4.369308571871207
 30
0.0
 11
37.67199999996831
 21
5.809308571871147
 31
0.0
  0
LINE
  5
1B568
330
1B552
100
AcDbEntity
  8
0
  6
CONTINUOUS
100
AcDbLine
 10
32.83432456621412
 20
0.2981139290367771
 30
0.0
 11
33.89722476612215
 21
1.361014128944803
 31
0.0
  0
LINE
  5
1B569
330
1B552
100
AcDbEntity
  8
0
  6
CONTINUOUS
100
AcDbLine
 10
36.23199999996837
 20
3.69578936279102
 30
0.0
 11
37.67199999996831
 21
5.135789362790962
 31
0.0
  0
LINE
  5
1B56A
330
1B552
100
AcDbEntity
  8
0
  6
CONTINUOUS
100
AcDbLine
 10
33.2711633111245
 20
0.0614334648669672
 30
0.0
 11
34.43247338014423
 21
1.222743533886696
 31
0.0
  0
LINE
  5
1B56B
330
1B552
100
AcDbEntity
  8
0
  6
CONTINUOUS
100
AcDbLine
 10
36.23199999996837
 20
3.022270153710834
 30
0.0
 11
37.67199999996831
 21
4.462270153710775
 31
0.0
  0
LINE
  5
1B56C
330
1B552
100
AcDbEntity
  8
0
  6
CONTINUOUS
100
AcDbLine
 10
33.76515245874577
 20
-0.1180965965919523
 30
0.0
 11
35.1587445516215
 21
1.27549549628378
 31
0.0
  0
LINE
  5
1B56D
330
1B552
100
AcDbEntity
  8
0
  6
CONTINUOUS
100
AcDbLine
 10
36.21639478609585
 20
2.333145730758136
 30
0.0
 11
37.67199999996831
 21
3.788750944630588
 31
0.0
  0
LINE
  5
1B56E
330
1B552
100
AcDbEntity
  8
0
  6
CONTINUOUS
100
AcDbLine
 10
34.34060583368432
 20
-0.2161624307335863
 30
0.0
 11
37.67199999996831
 21
3.115231735550401
 31
0.0
  0
LINE
  5
1B56F
330
1B552
100
AcDbEntity
  8
0
  6
CONTINUOUS
100
AcDbLine
 10
35.01698193613905
 20
-0.2133055373590427
 30
0.0
 11
37.66876712070525
 21
2.438479647207154
 31
0.0
  0
LINE
  5
1B570
330
1B552
100
AcDbEntity
  8
0
  6
CONTINUOUS
100
AcDbLine
 10
35.90743367693304
 20
0.0036269943547609
 30
0.0
 11
37.51723902192366
 21
1.613432339345381
 31
0.0
  0
LINE
  5
1B571
330
1B552
100
AcDbEntity
  8
0
  6
CONTINUOUS
100
AcDbLine
 10
32.55309425579761
 20
0.5074718966376706
 30
0.0
 11
32.27784730925847
 21
0.7827188431768102
 31
0.0
  0
LINE
  5
1B572
330
1B552
100
AcDbEntity
  8
0
  6
CONTINUOUS
100
AcDbLine
 10
33.87496468909684
 20
-0.1408793275813673
 30
0.0
 11
31.67993083278052
 21
2.054154528734943
 31
0.0
  0
LINE
  5
1B573
330
1B552
100
AcDbEntity
  8
0
  6
CONTINUOUS
100
AcDbLine
 10
34.64362813207632
 20
-0.2360235614806649
 30
0.0
 11
31.64199999996833
 21
2.765604570627322
 31
0.0
  0
LINE
  5
1B574
330
1B552
100
AcDbEntity
  8
0
  6
CONTINUOUS
100
AcDbLine
 10
35.25801106796118
 20
-0.1768872882853429
 30
0.0
 11
31.64199999996833
 21
3.439123779707508
 31
0.0
  0
LINE
  5
1B575
330
1B552
100
AcDbEntity
  8
0
  6
CONTINUOUS
100
AcDbLine
 10
35.79065650332146
 20
-0.0360135145654361
 30
0.0
 11
34.54143210838231
 21
1.213210880373721
 31
0.0
  0
LINE
  5
1B576
330
1B552
100
AcDbEntity
  8
0
  6
CONTINUOUS
100
AcDbLine
 10
33.08199999996839
 20
2.67264298878764
 30
0.0
 11
31.64199999996833
 21
4.112642988787695
 31
0.0
  0
LINE
  5
1B577
330
1B552
100
AcDbEntity
  8
0
  6
CONTINUOUS
100
AcDbLine
 10
36.25975597779143
 20
0.1684062200447833
 30
0.0
 11
35.15395110240023
 21
1.274211095435983
 31
0.0
  0
LINE
  5
1B578
330
1B552
100
AcDbEntity
  8
0
  6
CONTINUOUS
100
AcDbLine
 10
33.08199999996839
 20
3.346162197867826
 30
0.0
 11
31.64199999996833
 21
4.786162197867881
 31
0.0
  0
LINE
  5
1B579
330
1B552
100
AcDbEntity
  8
0
  6
CONTINUOUS
100
AcDbLine
 10
36.67226329638774
 20
0.4294181105286579
 30
0.0
 11
35.63766478748767
 21
1.464016619428737
 31
0.0
  0
LINE
  5
1B57A
330
1B552
100
AcDbEntity
  8
0
  6
CONTINUOUS
100
AcDbLine
 10
33.08199999996839
 20
4.019681406948012
 30
0.0
 11
31.64199999996833
 21
5.459681406948068
 31
0.0
  0
LINE
  5
1B57B
330
1B552
100
AcDbEntity
  8
0
  6
CONTINUOUS
100
AcDbLine
 10
37.01677749710036
 20
0.7584231188962329
 30
0.0
 11
35.99563422741351
 21
1.779566388583076
 31
0.0
  0
LINE
  5
1B57C
330
1B552
100
AcDbEntity
  8
0
  6
CONTINUOUS
100
AcDbLine
 10
33.08199999996839
 20
4.693200616028199
 30
0.0
 11
31.64199999996833
 21
6.133200616028255
 31
0.0
  0
LINE
  5
1B57D
330
1B552
100
AcDbEntity
  8
0
  6
CONTINUOUS
100
AcDbLine
 10
37.29859977568887
 20
1.1501200493879
 30
0.0
 11
36.20680593341555
 21
2.241913891661226
 31
0.0
  0
LINE
  5
1B57E
330
1B552
100
AcDbEntity
  8
0
  6
CONTINUOUS
100
AcDbLine
 10
33.08199999996839
 20
5.366719825108386
 30
0.0
 11
31.64199999996833
 21
6.80671982510844
 31
0.0
  0
LINE
  5
1B57F
330
1B552
100
AcDbEntity
  8
0
  6
CONTINUOUS
100
AcDbLine
 10
37.5148623517228
 20
1.607376682434161
 30
0.0
 11
36.23199999996837
 21
2.890239034188594
 31
0.0
  0
LINE
  5
1B580
330
1B552
100
AcDbEntity
  8
0
  6
CONTINUOUS
100
AcDbLine
 10
33.08199999996839
 20
6.040239034188573
 30
0.0
 11
31.64199999996833
 21
7.480239034188627
 31
0.0
  0
LINE
  5
1B581
330
1B552
100
AcDbEntity
  8
0
  6
CONTINUOUS
100
AcDbLine
 10
37.64705163358367
 20
2.148706609653477
 30
0.0
 11
36.23199999996837
 21
3.56375824326878
 31
0.0
  0
LINE
  5
1B582
330
1B552
100
AcDbEntity
  8
0
  6
CONTINUOUS
100
AcDbLine
 10
33.08199999996839
 20
6.713758243268758
 30
0.0
 11
31.64199999996833
 21
8.153758243268815
 31
0.0
  0
LINE
  5
1B583
330
1B552
100
AcDbEntity
  8
0
  6
CONTINUOUS
100
AcDbLine
 10
37.67199999996831
 20
2.797277452349026
 30
0.0
 11
36.23199999996837
 21
4.237277452348967
 31
0.0
  0
LINE
  5
1B584
330
1B552
100
AcDbEntity
  8
0
  6
CONTINUOUS
100
AcDbLine
 10
37.67199999996831
 20
3.470796661429213
 30
0.0
 11
36.23199999996837
 21
4.910796661429154
 31
0.0
  0
LINE
  5
1B585
330
1B552
100
AcDbEntity
  8
0
  6
CONTINUOUS
100
AcDbLine
 10
37.67199999996831
 20
4.144315870509399
 30
0.0
 11
36.23199999996837
 21
5.58431587050934
 31
0.0
  0
LINE
  5
1B586
330
1B552
100
AcDbEntity
  8
0
  6
CONTINUOUS
100
AcDbLine
 10
33.08199999996839
 20
7.387277452348945
 30
0.0
 11
31.70617745232608
 21
8.763099999991255
 31
0.0
  0
LINE
  5
1B587
330
1B552
100
AcDbEntity
  8
0
  6
CONTINUOUS
100
AcDbLine
 10
33.08199999996839
 20
8.060796661429132
 30
0.0
 11
32.37969666140626
 21
8.763099999991255
 31
0.0
  0
LINE
  5
1B588
330
1B552
100
AcDbEntity
  8
0
  6
CONTINUOUS
100
AcDbLine
 10
33.08199999996839
 20
8.734315870509318
 30
0.0
 11
33.05321587048645
 21
8.763099999991255
 31
0.0
  0
LINE
  5
1B589
330
1B552
100
AcDbEntity
  8
0
  6
CONTINUOUS
100
AcDbLine
 10
37.67199999996831
 20
4.817835079589585
 30
0.0
 11
36.23199999996837
 21
6.257835079589526
 31
0.0
  0
LINE
  5
1B58A
330
1B552
100
AcDbEntity
  8
0
  6
CONTINUOUS
100
AcDbLine
 10
37.67199999996831
 20
5.491354288669771
 30
0.0
 11
36.23199999996837
 21
6.931354288669713
 31
0.0
  0
LINE
  5
1B58B
330
1B552
100
AcDbEntity
  8
0
  6
CONTINUOUS
100
AcDbLine
 10
37.67199999996831
 20
6.164873497749958
 30
0.0
 11
36.23199999996837
 21
7.6048734977499
 31
0.0
  0
LINE
  5
1B58C
330
1B552
100
AcDbEntity
  8
0
  6
CONTINUOUS
100
AcDbLine
 10
37.67199999996831
 20
6.838392706830144
 30
0.0
 11
36.23199999996837
 21
8.278392706830086
 31
0.0
  0
LINE
  5
1B58D
330
1B552
100
AcDbEntity
  8
0
  6
CONTINUOUS
100
AcDbLine
 10
37.67199999996831
 20
7.511911915910332
 30
0.0
 11
36.42081191588738
 21
8.763099999991255
 31
0.0
  0
LINE
  5
1B58E
330
1B552
100
AcDbEntity
  8
0
  6
CONTINUOUS
100
AcDbLine
 10
37.67199999996831
 20
8.185431124990519
 30
0.0
 11
37.09433112496757
 21
8.763099999991255
 31
0.0
  0
ENDBLK
  5
1B5F6
330
1B552
100
AcDbEntity
  8
0
100
AcDbBlockEnd
  0
BLOCK
  5
1B5F7
330
1B58F
100
AcDbEntity
  8
0
100
AcDbBlockBegin
  2
*X51
 70
     1
 10
0.0
 20
0.0
 30
0.0
  3
*X51
  1

  0
LINE
  5
1B590
330
1B58F
100
AcDbEntity
  8
0
  6
CONTINUOUS
100
AcDbLine
 10
38.60499999996136
 20
8.762866199104765
 30
0.0
 11
38.71672554182345
 21
8.874591740966855
 31
0.0
  0
LINE
  5
1B591
330
1B58F
100
AcDbEntity
  8
0
  6
CONTINUOUS
100
AcDbLine
 10
38.60499999996136
 20
8.089346990024577
 30
0.0
 11
39.03418785440363
 21
8.518534844466847
 31
0.0
  0
LINE
  5
1B592
330
1B58F
100
AcDbEntity
  8
0
  6
CONTINUOUS
100
AcDbLine
 10
38.60499999996136
 20
7.41582778094439
 30
0.0
 11
39.35165016698382
 21
8.16247794796684
 31
0.0
  0
LINE
  5
1B593
330
1B58F
100
AcDbEntity
  8
0
  6
CONTINUOUS
100
AcDbLine
 10
38.60499999996136
 20
6.742308571864204
 30
0.0
 11
39.66911247956399
 21
7.806421051466834
 31
0.0
  0
LINE
  5
1B594
330
1B58F
100
AcDbEntity
  8
0
  6
CONTINUOUS
100
AcDbLine
 10
38.60499999996136
 20
6.068789362784018
 30
0.0
 11
39.98657479214418
 21
7.450364154966827
 31
0.0
  0
LINE
  5
1B595
330
1B58F
100
AcDbEntity
  8
0
  6
CONTINUOUS
100
AcDbLine
 10
38.60499999996136
 20
5.395270153703832
 30
0.0
 11
40.30403710472435
 21
7.09430725846682
 31
0.0
  0
LINE
  5
1B596
330
1B58F
100
AcDbEntity
  8
0
  6
CONTINUOUS
100
AcDbLine
 10
38.60499999996136
 20
4.721750944623645
 30
0.0
 11
40.62149941730453
 21
6.738250361966813
 31
0.0
  0
LINE
  5
1B597
330
1B58F
100
AcDbEntity
  8
0
  6
CONTINUOUS
100
AcDbLine
 10
38.60499999996136
 20
4.048231735543458
 30
0.0
 11
40.93896172988471
 21
6.382193465466806
 31
0.0
  0
LINE
  5
1B598
330
1B58F
100
AcDbEntity
  8
0
  6
CONTINUOUS
100
AcDbLine
 10
38.60499999996136
 20
3.374712526463272
 30
0.0
 11
40.02599999995994
 21
4.795712526461843
 31
0.0
  0
LINE
  5
1B599
330
1B58F
100
AcDbEntity
  8
0
  6
CONTINUOUS
100
AcDbLine
 10
38.60499999996136
 20
2.701193317383085
 30
0.0
 11
40.02599999995994
 21
4.122193317381657
 31
0.0
  0
LINE
  5
1B59A
330
1B58F
100
AcDbEntity
  8
0
  6
CONTINUOUS
100
AcDbLine
 10
40.28339754687704
 20
5.053110073378947
 30
0.0
 11
41.25642404246489
 21
6.026136568966799
 31
0.0
  0
LINE
  5
1B59B
330
1B58F
100
AcDbEntity
  8
0
  6
CONTINUOUS
100
AcDbLine
 10
40.60085985945722
 20
4.697053176878939
 30
0.0
 11
41.57388635504507
 21
5.670079672466793
 31
0.0
  0
LINE
  5
1B59C
330
1B58F
100
AcDbEntity
  8
0
  6
CONTINUOUS
100
AcDbLine
 10
43.57899999995641
 20
8.348712526458318
 30
0.0
 11
43.99338747348935
 21
8.763099999991255
 31
0.0
  0
LINE
  5
1B59D
330
1B58F
100
AcDbEntity
  8
0
  6
CONTINUOUS
100
AcDbLine
 10
43.57899999995641
 20
7.675193317378131
 30
0.0
 11
44.66690668256953
 21
8.763099999991255
 31
0.0
  0
LINE
  5
1B59E
330
1B58F
100
AcDbEntity
  8
0
  6
CONTINUOUS
100
AcDbLine
 10
38.60499999996136
 20
2.027674108302898
 30
0.0
 11
40.02599999995994
 21
3.44867410830147
 31
0.0
  0
LINE
  5
1B59F
330
1B58F
100
AcDbEntity
  8
0
  6
CONTINUOUS
100
AcDbLine
 10
38.60499999996136
 20
1.354154899222712
 30
0.0
 11
40.02599999995994
 21
2.775154899221284
 31
0.0
  0
LINE
  5
1B5A0
330
1B58F
100
AcDbEntity
  8
0
  6
CONTINUOUS
100
AcDbLine
 10
38.60499999996136
 20
0.6806356901425255
 30
0.0
 11
40.02599999995994
 21
2.101635690141098
 31
0.0
  0
LINE
  5
1B5A1
330
1B58F
100
AcDbEntity
  8
0
  6
CONTINUOUS
100
AcDbLine
 10
38.60499999996136
 20
0.0071164810623383
 30
0.0
 11
40.02599999995994
 21
1.428116481060911
 31
0.0
  0
LINE
  5
1B5A2
330
1B58F
100
AcDbEntity
  8
0
  6
CONTINUOUS
100
AcDbLine
 10
40.9183221720374
 20
4.340996280378933
 30
0.0
 11
41.89134866762525
 21
5.314022775966786
 31
0.0
  0
LINE
  5
1B5A3
330
1B58F
100
AcDbEntity
  8
0
  6
CONTINUOUS
100
AcDbLine
 10
41.23578448461758
 20
3.984939383878926
 30
0.0
 11
42.20881098020543
 21
4.957965879466778
 31
0.0
  0
LINE
  5
1B5A4
330
1B58F
100
AcDbEntity
  8
0
  6
CONTINUOUS
100
AcDbLine
 10
41.55324679719776
 20
3.628882487378919
 30
0.0
 11
42.52627329278561
 21
4.601908982966772
 31
0.0
  0
LINE
  5
1B5A5
330
1B58F
100
AcDbEntity
  8
0
  6
CONTINUOUS
100
AcDbLine
 10
41.87070910977793
 20
3.272825590878912
 30
0.0
 11
42.84373560536579
 21
4.245852086466765
 31
0.0
  0
LINE
  5
1B5A6
330
1B58F
100
AcDbEntity
  8
0
  6
CONTINUOUS
100
AcDbLine
 10
43.57899999995641
 20
7.001674108297943
 30
0.0
 11
44.99999999995498
 21
8.422674108296516
 31
0.0
  0
LINE
  5
1B5A7
330
1B58F
100
AcDbEntity
  8
0
  6
CONTINUOUS
100
AcDbLine
 10
43.57899999995641
 20
6.328154899217758
 30
0.0
 11
44.99999999995498
 21
7.749154899216329
 31
0.0
  0
LINE
  5
1B5A8
330
1B58F
100
AcDbEntity
  8
0
  6
CONTINUOUS
100
AcDbLine
 10
43.57899999995641
 20
5.654635690137571
 30
0.0
 11
44.99999999995498
 21
7.075635690136142
 31
0.0
  0
LINE
  5
1B5A9
330
1B58F
100
AcDbEntity
  8
0
  6
CONTINUOUS
100
AcDbLine
 10
43.57899999995641
 20
4.981116481057384
 30
0.0
 11
44.99999999995498
 21
6.402116481055955
 31
0.0
  0
LINE
  5
1B5AA
330
1B58F
100
AcDbEntity
  8
0
  6
CONTINUOUS
100
AcDbLine
 10
39.27140272797921
 20
-0.0000000000000009
 30
0.0
 11
40.02599999995994
 21
0.7545972719807246
 31
0.0
  0
LINE
  5
1B5AB
330
1B58F
100
AcDbEntity
  8
0
  6
CONTINUOUS
100
AcDbLine
 10
39.9449219370594
 20
-0.0000000000000009
 30
0.0
 11
40.02599999995994
 21
0.0810780629005379
 31
0.0
  0
LINE
  5
1B5AC
330
1B58F
100
AcDbEntity
  8
0
  6
CONTINUOUS
100
AcDbLine
 10
42.18817142235812
 20
2.916768694378905
 30
0.0
 11
43.16119791794597
 21
3.889795189966758
 31
0.0
  0
LINE
  5
1B5AD
330
1B58F
100
AcDbEntity
  8
0
  6
CONTINUOUS
100
AcDbLine
 10
42.50563373493829
 20
2.560711797878898
 30
0.0
 11
43.47866023052615
 21
3.533738293466751
 31
0.0
  0
LINE
  5
1B5AE
330
1B58F
100
AcDbEntity
  8
0
  6
CONTINUOUS
100
AcDbLine
 10
43.57899999995641
 20
4.307597271977198
 30
0.0
 11
44.99999999995498
 21
5.728597271975769
 31
0.0
  0
LINE
  5
1B5AF
330
1B58F
100
AcDbEntity
  8
0
  6
CONTINUOUS
100
AcDbLine
 10
43.57899999995641
 20
3.634078062897011
 30
0.0
 11
44.99999999995498
 21
5.055078062895582
 31
0.0
  0
LINE
  5
1B5B0
330
1B58F
100
AcDbEntity
  8
0
  6
CONTINUOUS
100
AcDbLine
 10
42.82309604751848
 20
2.204654901378891
 30
0.0
 11
44.99999999995498
 21
4.381558853815395
 31
0.0
  0
LINE
  5
1B5B1
330
1B58F
100
AcDbEntity
  8
0
  6
CONTINUOUS
100
AcDbLine
 10
43.14055836009865
 20
1.848598004878885
 30
0.0
 11
44.99999999995498
 21
3.70803964473521
 31
0.0
  0
LINE
  5
1B5B2
330
1B58F
100
AcDbEntity
  8
0
  6
CONTINUOUS
100
AcDbLine
 10
43.45802067267883
 20
1.492541108378878
 30
0.0
 11
44.99999999995498
 21
3.034520435655023
 31
0.0
  0
LINE
  5
1B5B3
330
1B58F
100
AcDbEntity
  8
0
  6
CONTINUOUS
100
AcDbLine
 10
43.77548298525902
 20
1.136484211878871
 30
0.0
 11
44.99999999995498
 21
2.361001226574837
 31
0.0
  0
LINE
  5
1B5B4
330
1B58F
100
AcDbEntity
  8
0
  6
CONTINUOUS
100
AcDbLine
 10
44.09294529783919
 20
0.7804273153788639
 30
0.0
 11
44.99999999995498
 21
1.687482017494649
 31
0.0
  0
LINE
  5
1B5B5
330
1B58F
100
AcDbEntity
  8
0
  6
CONTINUOUS
100
AcDbLine
 10
44.41040761041938
 20
0.4243704188788566
 30
0.0
 11
44.99999999995498
 21
1.013962808414463
 31
0.0
  0
LINE
  5
1B5B6
330
1B58F
100
AcDbEntity
  8
0
  6
CONTINUOUS
100
AcDbLine
 10
44.72786992299955
 20
0.0683135223788494
 30
0.0
 11
44.99999999995498
 21
0.340443599334276
 31
0.0
  0
LINE
  5
1B5B7
330
1B58F
100
AcDbEntity
  8
0
  6
CONTINUOUS
100
AcDbLine
 10
39.12223903415696
 20
-0.0000000000000009
 30
0.0
 11
38.60499999996136
 21
0.5172390341955961
 31
0.0
  0
LINE
  5
1B5B8
330
1B58F
100
AcDbEntity
  8
0
  6
CONTINUOUS
100
AcDbLine
 10
39.79575824323715
 20
-0.0000000000000009
 30
0.0
 11
38.60499999996136
 21
1.190758243275783
 31
0.0
  0
LINE
  5
1B5B9
330
1B58F
100
AcDbEntity
  8
0
  6
CONTINUOUS
100
AcDbLine
 10
40.02599999995994
 20
0.443277452357397
 30
0.0
 11
38.60499999996136
 21
1.864277452355969
 31
0.0
  0
LINE
  5
1B5BA
330
1B58F
100
AcDbEntity
  8
0
  6
CONTINUOUS
100
AcDbLine
 10
40.02599999995994
 20
1.116796661437583
 30
0.0
 11
38.60499999996136
 21
2.537796661436155
 31
0.0
  0
LINE
  5
1B5BB
330
1B58F
100
AcDbEntity
  8
0
  6
CONTINUOUS
100
AcDbLine
 10
40.02599999995994
 20
1.79031587051777
 30
0.0
 11
38.60499999996136
 21
3.211315870516341
 31
0.0
  0
LINE
  5
1B5BC
330
1B58F
100
AcDbEntity
  8
0
  6
CONTINUOUS
100
AcDbLine
 10
40.02599999995994
 20
2.463835079597956
 30
0.0
 11
38.60499999996136
 21
3.884835079596527
 31
0.0
  0
LINE
  5
1B5BD
330
1B58F
100
AcDbEntity
  8
0
  6
CONTINUOUS
100
AcDbLine
 10
40.02599999995994
 20
3.137354288678143
 30
0.0
 11
38.60499999996136
 21
4.558354288676714
 31
0.0
  0
LINE
  5
1B5BE
330
1B58F
100
AcDbEntity
  8
0
  6
CONTINUOUS
100
AcDbLine
 10
40.02599999995994
 20
3.810873497758329
 30
0.0
 11
38.60499999996136
 21
5.2318734977569
 31
0.0
  0
LINE
  5
1B5BF
330
1B58F
100
AcDbEntity
  8
0
  6
CONTINUOUS
100
AcDbLine
 10
40.02599999995994
 20
4.484392706838515
 30
0.0
 11
38.60499999996136
 21
5.905392706837086
 31
0.0
  0
LINE
  5
1B5C0
330
1B58F
100
AcDbEntity
  8
0
  6
CONTINUOUS
100
AcDbLine
 10
44.99999999995498
 20
0.183911915923658
 30
0.0
 11
41.53858364506288
 21
3.64532827081576
 31
0.0
  0
LINE
  5
1B5C1
330
1B58F
100
AcDbEntity
  8
0
  6
CONTINUOUS
100
AcDbLine
 10
40.02599999995994
 20
5.157911915918703
 30
0.0
 11
38.60499999996136
 21
6.578911915917274
 31
0.0
  0
LINE
  5
1B5C2
330
1B58F
100
AcDbEntity
  8
0
  6
CONTINUOUS
100
AcDbLine
 10
44.99999999995498
 20
0.8574311250038447
 30
0.0
 11
38.60499999996136
 21
7.25243112499746
 31
0.0
  0
LINE
  5
1B5C3
330
1B58F
100
AcDbEntity
  8
0
  6
CONTINUOUS
100
AcDbLine
 10
44.99999999995498
 20
1.530950334084031
 30
0.0
 11
38.60499999996136
 21
7.925950334077647
 31
0.0
  0
LINE
  5
1B5C4
330
1B58F
100
AcDbEntity
  8
0
  6
CONTINUOUS
100
AcDbLine
 10
44.99999999995498
 20
2.204469543164218
 30
0.0
 11
43.57899999995641
 21
3.625469543162789
 31
0.0
  0
LINE
  5
1B5C5
330
1B58F
100
AcDbEntity
  8
0
  6
CONTINUOUS
100
AcDbLine
 10
41.89876730984767
 20
5.305702233271528
 30
0.0
 11
38.60499999996136
 21
8.599469543157834
 31
0.0
  0
LINE
  5
1B5C6
330
1B58F
100
AcDbEntity
  8
0
  6
CONTINUOUS
100
AcDbLine
 10
44.99999999995498
 20
2.877988752244405
 30
0.0
 11
43.57899999995641
 21
4.298988752242975
 31
0.0
  0
LINE
  5
1B5C7
330
1B58F
100
AcDbEntity
  8
0
  6
CONTINUOUS
100
AcDbLine
 10
44.99999999995498
 20
3.551507961324591
 30
0.0
 11
43.57899999995641
 21
4.972507961323163
 31
0.0
  0
LINE
  5
1B5C8
330
1B58F
100
AcDbEntity
  8
0
  6
CONTINUOUS
100
AcDbLine
 10
44.99999999995498
 20
4.225027170404777
 30
0.0
 11
43.57899999995641
 21
5.646027170403348
 31
0.0
  0
LINE
  5
1B5C9
330
1B58F
100
AcDbEntity
  8
0
  6
CONTINUOUS
100
AcDbLine
 10
44.99999999995498
 20
4.898546379484964
 30
0.0
 11
43.57899999995641
 21
6.319546379483535
 31
0.0
  0
LINE
  5
1B5CA
330
1B58F
100
AcDbEntity
  8
0
  6
CONTINUOUS
100
AcDbLine
 10
44.99999999995498
 20
5.572065588565151
 30
0.0
 11
43.57899999995641
 21
6.993065588563722
 31
0.0
  0
LINE
  5
1B5CB
330
1B58F
100
AcDbEntity
  8
0
  6
CONTINUOUS
100
AcDbLine
 10
44.99999999995498
 20
6.245584797645336
 30
0.0
 11
43.57899999995641
 21
7.666584797643908
 31
0.0
  0
LINE
  5
1B5CC
330
1B58F
100
AcDbEntity
  8
0
  6
CONTINUOUS
100
AcDbLine
 10
44.99999999995498
 20
6.919104006725522
 30
0.0
 11
43.57899999995641
 21
8.340104006724093
 31
0.0
  0
LINE
  5
1B5CD
330
1B58F
100
AcDbEntity
  8
0
  6
CONTINUOUS
100
AcDbLine
 10
44.99999999995498
 20
7.592623215805709
 30
0.0
 11
43.82952321576943
 21
8.763099999991255
 31
0.0
  0
LINE
  5
1B5CE
330
1B58F
100
AcDbEntity
  8
0
  6
CONTINUOUS
100
AcDbLine
 10
44.99999999995498
 20
8.266142424885896
 30
0.0
 11
44.50304242484962
 21
8.763099999991255
 31
0.0
  0
ENDBLK
  5
1B5F8
330
1B58F
100
AcDbEntity
  8
0
100
AcDbBlockEnd
  0
BLOCK
  5
1B5F9
330
1B5CF
100
AcDbEntity
  8
0
100
AcDbBlockBegin
  2
*X52
 70
     1
 10
0.0
 20
0.0
 30
0.0
  3
*X52
  1

  0
LINE
  5
1B5D0
330
1B5CF
100
AcDbEntity
  8
0
  6
CONTINUOUS
100
AcDbLine
 10
0.0
 20
8.548461116714023
 30
0.0
 11
0.2146388832772324
 21
8.763099999991255
 31
0.0
  0
LINE
  5
1B5D1
330
1B5CF
100
AcDbEntity
  8
0
  6
CONTINUOUS
100
AcDbLine
 10
-0.0000000000000002
 20
7.874941907633837
 30
0.0
 11
0.8881580923574184
 21
8.763099999991255
 31
0.0
  0
LINE
  5
1B5D2
330
1B5CF
100
AcDbEntity
  8
0
  6
CONTINUOUS
100
AcDbLine
 10
0.0
 20
7.20142269855365
 30
0.0
 11
1.420999999998572
 21
8.622422698552223
 31
0.0
  0
LINE
  5
1B5D3
330
1B5CF
100
AcDbEntity
  8
0
  6
CONTINUOUS
100
AcDbLine
 10
-0.0000000000000001
 20
6.527903489473465
 30
0.0
 11
1.420999999998571
 21
7.948903489472036
 31
0.0
  0
LINE
  5
1B5D4
330
1B5CF
100
AcDbEntity
  8
0
  6
CONTINUOUS
100
AcDbLine
 10
-0.0000000000000002
 20
5.854384280393278
 30
0.0
 11
1.420999999998571
 21
7.275384280391849
 31
0.0
  0
LINE
  5
1B5D5
330
1B5CF
100
AcDbEntity
  8
0
  6
CONTINUOUS
100
AcDbLine
 10
-0.0000000000000002
 20
5.180865071313091
 30
0.0
 11
1.420999999998571
 21
6.601865071311663
 31
0.0
  0
LINE
  5
1B5D6
330
1B5CF
100
AcDbEntity
  8
0
  6
CONTINUOUS
100
AcDbLine
 10
0.0
 20
4.507345862232905
 30
0.0
 11
1.420999999998571
 21
5.928345862231477
 31
0.0
  0
LINE
  5
1B5D7
330
1B5CF
100
AcDbEntity
  8
0
  6
CONTINUOUS
100
AcDbLine
 10
-0.0000000000000003
 20
3.833826653152718
 30
0.0
 11
1.420999999998571
 21
5.25482665315129
 31
0.0
  0
LINE
  5
1B5D8
330
1B5CF
100
AcDbEntity
  8
0
  6
CONTINUOUS
100
AcDbLine
 10
-0.0000000000000002
 20
3.160307444072532
 30
0.0
 11
1.420999999998571
 21
4.581307444071103
 31
0.0
  0
LINE
  5
1B5D9
330
1B5CF
100
AcDbEntity
  8
0
  6
CONTINUOUS
100
AcDbLine
 10
-0.0000000000000001
 20
2.486788234992345
 30
0.0
 11
1.420999999998571
 21
3.907788234990917
 31
0.0
  0
LINE
  5
1B5DA
330
1B5CF
100
AcDbEntity
  8
0
  6
CONTINUOUS
100
AcDbLine
 10
-0.0000000000000006
 20
1.813269025912159
 30
0.0
 11
1.420999999998571
 21
3.234269025910731
 31
0.0
  0
LINE
  5
1B5DB
330
1B5CF
100
AcDbEntity
  8
0
  6
CONTINUOUS
100
AcDbLine
 10
0.0
 20
1.139749816831973
 30
0.0
 11
1.420999999998571
 21
2.560749816830544
 31
0.0
  0
LINE
  5
1B5DC
330
1B5CF
100
AcDbEntity
  8
0
  6
CONTINUOUS
100
AcDbLine
 10
0.0000000000000002
 20
0.466230607751787
 30
0.0
 11
1.420999999998571
 21
1.887230607750358
 31
0.0
  0
LINE
  5
1B5DD
330
1B5CF
100
AcDbEntity
  8
0
  6
CONTINUOUS
100
AcDbLine
 10
0.2072886013284003
 20
-0.0000000000000009
 30
0.0
 11
1.420999999998571
 21
1.213711398670171
 31
0.0
  0
LINE
  5
1B5DE
330
1B5CF
100
AcDbEntity
  8
0
  6
CONTINUOUS
100
AcDbLine
 10
0.8808078104085864
 20
-0.0000000000000009
 30
0.0
 11
1.420999999998571
 21
0.5401921895899839
 31
0.0
  0
LINE
  5
1B5DF
330
1B5CF
100
AcDbEntity
  8
0
  6
CONTINUOUS
100
AcDbLine
 10
0.0581249075061505
 20
-0.0000000000000009
 30
0.0
 11
-0.0000000000000002
 21
0.0581249075061496
 31
0.0
  0
LINE
  5
1B5E0
330
1B5CF
100
AcDbEntity
  8
0
  6
CONTINUOUS
100
AcDbLine
 10
0.7316441165863372
 20
-0.0000000000000009
 30
0.0
 11
-0.0000000000000002
 21
0.7316441165863363
 31
0.0
  0
LINE
  5
1B5E1
330
1B5CF
100
AcDbEntity
  8
0
  6
CONTINUOUS
100
AcDbLine
 10
1.405163325666523
 20
-0.0000000000000009
 30
0.0
 11
-0.0000000000000002
 21
1.405163325666523
 31
0.0
  0
LINE
  5
1B5E2
330
1B5CF
100
AcDbEntity
  8
0
  6
CONTINUOUS
100
AcDbLine
 10
1.420999999998572
 20
0.6576825347481381
 30
0.0
 11
-0.0000000000000001
 21
2.07868253474671
 31
0.0
  0
LINE
  5
1B5E3
330
1B5CF
100
AcDbEntity
  8
0
  6
CONTINUOUS
100
AcDbLine
 10
1.420999999998571
 20
1.331201743828324
 30
0.0
 11
-0.0000000000000001
 21
2.752201743826896
 31
0.0
  0
LINE
  5
1B5E4
330
1B5CF
100
AcDbEntity
  8
0
  6
CONTINUOUS
100
AcDbLine
 10
1.420999999998571
 20
2.004720952908511
 30
0.0
 11
-0.0000000000000002
 21
3.425720952907082
 31
0.0
  0
LINE
  5
1B5E5
330
1B5CF
100
AcDbEntity
  8
0
  6
CONTINUOUS
100
AcDbLine
 10
1.420999999998571
 20
2.678240161988697
 30
0.0
 11
-0.0000000000000001
 21
4.099240161987269
 31
0.0
  0
LINE
  5
1B5E6
330
1B5CF
100
AcDbEntity
  8
0
  6
CONTINUOUS
100
AcDbLine
 10
1.420999999998572
 20
3.351759371068884
 30
0.0
 11
0.0
 21
4.772759371067455
 31
0.0
  0
LINE
  5
1B5E7
330
1B5CF
100
AcDbEntity
  8
0
  6
CONTINUOUS
100
AcDbLine
 10
1.420999999998571
 20
4.02527858014907
 30
0.0
 11
-0.0000000000000003
 21
5.446278580147642
 31
0.0
  0
LINE
  5
1B5E8
330
1B5CF
100
AcDbEntity
  8
0
  6
CONTINUOUS
100
AcDbLine
 10
1.420999999998571
 20
4.698797789229257
 30
0.0
 11
0.0
 21
6.119797789227828
 31
0.0
  0
LINE
  5
1B5E9
330
1B5CF
100
AcDbEntity
  8
0
  6
CONTINUOUS
100
AcDbLine
 10
1.420999999998571
 20
5.372316998309444
 30
0.0
 11
-0.0000000000000001
 21
6.793316998308015
 31
0.0
  0
LINE
  5
1B5EA
330
1B5CF
100
AcDbEntity
  8
0
  6
CONTINUOUS
100
AcDbLine
 10
1.420999999998572
 20
6.045836207389629
 30
0.0
 11
-0.0000000000000004
 21
7.466836207388202
 31
0.0
  0
LINE
  5
1B5EB
330
1B5CF
100
AcDbEntity
  8
0
  6
CONTINUOUS
100
AcDbLine
 10
1.420999999998571
 20
6.719355416469816
 30
0.0
 11
0.0
 21
8.140355416468388
 31
0.0
  0
LINE
  5
1B5EC
330
1B5CF
100
AcDbEntity
  8
0
  6
CONTINUOUS
100
AcDbLine
 10
1.420999999998571
 20
7.392874625550003
 30
0.0
 11
0.0507746255573185
 21
8.763099999991255
 31
0.0
  0
LINE
  5
1B5ED
330
1B5CF
100
AcDbEntity
  8
0
  6
CONTINUOUS
100
AcDbLine
 10
1.420999999998571
 20
8.06639383463019
 30
0.0
 11
0.7242938346375052
 21
8.763099999991255
 31
0.0
  0
LINE
  5
1B5EE
330
1B5CF
100
AcDbEntity
  8
0
  6
CONTINUOUS
100
AcDbLine
 10
1.420999999998571
 20
8.739913043710375
 30
0.0
 11
1.397813043717691
 21
8.763099999991255
 31
0.0
  0
ENDBLK
  5
1B5FA
330
1B5CF
100
AcDbEntity
  8
0
100
AcDbBlockEnd
  0
ENDSEC
  0
SECTION
  2
ENTITIES
  0
CIRCLE
  5
1AB54
330
18
100
AcDbEntity
  8
01
100
AcDbCircle
 10
2402.688533938542
 20
-605.6243907175044
 30
0.0000000001127424
 40
2.5
  0
LINE
  5
1AB56
330
18
100
AcDbEntity
  8
01
100
AcDbLine
 10
2049.688638278284
 20
-613.024380921632
 30
0.0000000001127424
 11
2075.688638278284
 21
-613.024380921632
 31
0.0000000001127424
  0
LINE
  5
1AB57
330
18
100
AcDbEntity
  8
01
100
AcDbLine
 10
2085.188638278284
 20
-607.524380921632
 30
0.0000000001127424
 11
2040.188638278284
 21
-607.524380921632
 31
0.0000000001127424
  0
LINE
  5
1AB58
330
18
100
AcDbEntity
  8
01
100
AcDbLine
 10
2062.688638278284
 20
-585.024380921632
 30
0.0000000001127424
 11
2062.688638278284
 21
-630.024380921632
 31
0.0000000001127424
  0
LINE
  5
1AB59
330
18
100
AcDbEntity
  8
01
100
AcDbLine
 10
2380.188533938542
 20
-607.524380921632
 30
0.0000000001127424
 11
2425.188533938542
 21
-607.524380921632
 31
0.0000000001127424
  0
LINE
  5
1AB5A
330
18
100
AcDbEntity
  8
01
100
AcDbLine
 10
2402.688533938542
 20
-585.024380921632
 30
0.0000000001127424
 11
2402.688533938542
 21
-630.024380921632
 31
0.0000000001127424
  0
LINE
  5
1AB5B
330
18
100
AcDbEntity
  8
01
100
AcDbLine
 10
2400.18864234438
 20
-352.0704977708826
 30
0.0000000000564898
 11
2400.18864234438
 21
-364.5705207150856
 31
0.0000000000564898
  0
LINE
  5
1AB5C
330
18
100
AcDbEntity
  8
01
100
AcDbLine
 10
2405.18864234438
 20
-352.0704977708808
 30
0.0000000000564898
 11
2405.18864234438
 21
-364.5705207150875
 31
0.0000000000564898
  0
LINE
  5
1AB5D
330
18
100
AcDbEntity
  8
01
100
AcDbLine
 10
2212.688642278285
 20
-587.5243809216338
 30
0.0000000001127424
 11
2212.688642278282
 21
-627.5243809216342
 31
0.0000000001127424
  0
LINE
  5
1AB5E
330
18
100
AcDbEntity
  8
01
100
AcDbLine
 10
2212.688642278285
 20
-627.5243809216342
 30
0.0000000001127424
 11
2206.888642278286
 21
-627.5243809216338
 31
0.0000000001127424
  0
ARC
  5
1AB5F
330
18
100
AcDbEntity
  8
01
100
AcDbCircle
 10
2206.888642278286
 20
-627.0243809216338
 30
0.0000000001127424
 40
0.5
100
AcDbArc
 50
180.0
 51
270.0
  0
LINE
  5
1AB60
330
18
100
AcDbEntity
  8
01
100
AcDbLine
 10
2212.688642278285
 20
-587.5243809216338
 30
0.0000000001127424
 11
2206.888642278286
 21
-587.5243809216347
 31
0.0000000001127424
  0
ARC
  5
1AB61
330
18
100
AcDbEntity
  8
01
100
AcDbCircle
 10
2206.888642278286
 20
-588.0243809216347
 30
0.0000000001127424
 40
0.5
100
AcDbArc
 50
90.0
 51
180.0
  0
LINE
  5
1AB62
330
18
100
AcDbEntity
  8
01
100
AcDbLine
 10
2211.188642278285
 20
-627.5243809216411
 30
0.0000000001127424
 11
2212.688642278285
 21
-627.5243809216411
 31
0.0000000001127424
  0
LINE
  5
1AB64
330
18
100
AcDbEntity
  8
01
100
AcDbLine
 10
2402.688525938539
 20
-408.0243809216317
 30
0.0000000001127424
 11
2402.688525938539
 21
-434.5243809216317
 31
0.0000000001127424
  0
LINE
  5
1AB65
330
18
100
AcDbEntity
  8
01
100
AcDbLine
 10
2402.688525938539
 20
-378.024380923689
 30
0.0000000001127424
 11
2402.688525938539
 21
-348.7331078320485
 31
0.0000000001127424
  0
LINE
  5
1AB68
330
18
100
AcDbEntity
  8
01
100
AcDbLine
 10
2382.688641889722
 20
-413.0243809226606
 30
0.0000000001127424
 11
2422.688641889722
 21
-413.0243809226599
 31
0.0000000001127424
  0
LINE
  5
1AB69
330
18
100
AcDbEntity
  8
01
100
AcDbLine
 10
2422.188641889722
 20
-419.3243809226603
 30
0.0000000001127424
 11
2383.188641889722
 21
-419.3243809226608
 31
0.0000000001127424
  0
CIRCLE
  5
1AB6A
330
18
100
AcDbEntity
  8
01
100
AcDbCircle
 10
2402.68855469996
 20
-607.5244046823202
 30
0.0000000001128561
 40
19.99999999999963
  0
LINE
  5
1AB6B
330
18
100
AcDbEntity
  8
01
100
AcDbLine
 10
2382.688641889722
 20
-413.0243809226606
 30
0.0000000001127424
 11
2382.688641889722
 21
-418.8243809226608
 31
0.0000000001127424
  0
ARC
  5
1AB6C
330
18
100
AcDbEntity
  8
01
100
AcDbCircle
 10
2383.188641889722
 20
-418.8243809226603
 30
0.0000000001127424
 40
0.5
100
AcDbArc
 50
180.0
 51
270.0
  0
CIRCLE
  5
1AB6D
330
18
100
AcDbEntity
  8
01
100
AcDbCircle
 10
2402.688555022419
 20
-613.0244044781921
 30
0.0000000001128561
 40
3.75
  0
CIRCLE
  5
1AB6E
330
18
100
AcDbEntity
  8
01
100
AcDbCircle
 10
2402.688555022419
 20
-613.02440468232
 30
0.0000000001128561
 40
3.5000005
  0
LINE
  5
1AB6F
330
18
100
AcDbEntity
  8
01
100
AcDbLine
 10
2401.688555022419
 20
-616.37850748232
 30
0.0000000001128561
 11
2401.688555022419
 21
-609.67030068232
 31
0.0000000001128561
  0
LINE
  5
1AB70
330
18
100
AcDbEntity
  8
01
100
AcDbLine
 10
2403.688555022419
 20
-616.37850748232
 30
0.0000000001128561
 11
2403.688555022419
 21
-609.67030068232
 31
0.0000000001128561
  0
ARC
  5
1AB71
330
18
100
AcDbEntity
  8
01
100
AcDbCircle
 10
2402.688632347576
 20
-415.1743863005356
 30
0.0000000001126288
 40
6.0
100
AcDbArc
 50
234.314666000001
 51
256.8165179999972
  0
LINE
  5
1AB72
330
18
100
AcDbEntity
  8
01
100
AcDbLine
 10
2399.188632347576
 20
-420.0477863005358
 30
0.0000000001126288
 11
2399.188632347576
 21
-419.3243809226606
 31
0.0000000001126288
  0
LINE
  5
1AB73
330
18
100
AcDbEntity
  8
01
100
AcDbLine
 10
2406.188632347576
 20
-420.0477863005358
 30
0.0000000001126288
 11
2406.188632347576
 21
-419.3243809226606
 31
0.0000000001126288
  0
LINE
  5
1AB74
330
18
100
AcDbEntity
  8
01
100
AcDbLine
 10
2403.688632347576
 20
-420.7249347599382
 30
0.0000000001126288
 11
2403.688632347576
 21
-419.3243809226606
 31
0.0000000001126288
  0
ARC
  5
1AB75
330
18
100
AcDbEntity
  8
01
100
AcDbCircle
 10
2401.388629347576
 20
-420.7241563005357
 30
0.0000000001126288
 40
0.30000001
100
AcDbArc
 50
256.8165180001134
 51
0.0
  0
ARC
  5
1AB76
330
18
100
AcDbEntity
  8
01
100
AcDbCircle
 10
2403.988631347576
 20
-420.7241563005357
 30
0.0000000001126288
 40
0.30000001
100
AcDbArc
 50
179.999996999972
 51
283.1834799999916
  0
LINE
  5
1AB77
330
18
100
AcDbEntity
  8
01
100
AcDbLine
 10
2401.688632347576
 20
-420.7241563005357
 30
0.0000000001126288
 11
2401.688632347576
 21
-419.3243809226606
 31
0.0000000001126288
  0
ARC
  5
1AB78
330
18
100
AcDbEntity
  8
01
100
AcDbCircle
 10
2402.688632347576
 20
-415.1743863005356
 30
0.0000000001126288
 40
6.0
100
AcDbArc
 50
283.1834825033654
 51
305.6853300000017
  0
LINE
  5
1AB79
330
18
100
AcDbEntity
  8
01
100
AcDbLine
 10
2422.688641889722
 20
-413.0243809226599
 30
0.0000000001127424
 11
2422.688641889722
 21
-418.8243809226603
 31
0.0000000001127424
  0
ARC
  5
1AB7A
330
18
100
AcDbEntity
  8
01
100
AcDbCircle
 10
2422.188641889722
 20
-418.8243809226603
 30
0.0000000001127424
 40
0.5
100
AcDbArc
 50
270.0
 51
0.0
  0
LINE
  5
1AB7B
330
18
100
AcDbEntity
  8
01
100
AcDbLine
 10
2252.688642278285
 20
-587.524380921632
 30
0.0000000001127427
 11
2252.688642278281
 21
-627.524380921632
 31
0.0000000001127427
  0
LINE
  5
1AB7D
330
18
100
AcDbEntity
  8
01
100
AcDbLine
 10
2049.688638278284
 20
-613.024380921632
 30
0.0000000001127424
 11
2075.688638278284
 21
-613.024380921632
 31
0.0000000001127424
  0
LINE
  5
1AB7E
330
18
100
AcDbEntity
  8
01
100
AcDbLine
 10
2085.188638278284
 20
-607.524380921632
 30
0.0000000001127424
 11
2040.188638278284
 21
-607.524380921632
 31
0.0000000001127424
  0
LINE
  5
1AB7F
330
18
100
AcDbEntity
  8
01
100
AcDbLine
 10
2062.688638278284
 20
-585.024380921632
 30
0.0000000001127424
 11
2062.688638278284
 21
-630.024380921632
 31
0.0000000001127424
  0
LINE
  5
1AB81
330
18
100
AcDbEntity
  8
01
100
AcDbLine
 10
2402.688525938539
 20
-378.0243809236895
 30
0.0000000001127424
 11
2402.688525938539
 21
-348.3960569208316
 31
0.0000000001127424
  0
LINE
  5
1AB83
330
18
100
AcDbEntity
  8
01
100
AcDbLine
 10
2206.388642278286
 20
-627.024380921632
 30
0.0000000001127427
 11
2206.388642278286
 21
-588.0243809216324
 31
0.0000000001127427
  0
CIRCLE
  5
1AB84
330
18
100
AcDbEntity
  8
01
100
AcDbCircle
 10
2062.688638278282
 20
-607.524380921632
 30
0.0000000001127424
 40
20.00000000000007
  0
ARC
  5
1AB85
330
18
100
AcDbEntity
  8
01
100
AcDbCircle
 10
2064.688638278284
 20
-603.9931849875379
 30
0.0000000001127424
 40
0.5000000000000013
100
AcDbArc
 50
0.0
 51
77.51311018581228
  0
ARC
  5
1AB86
330
18
100
AcDbEntity
  8
01
100
AcDbCircle
 10
2060.688638278284
 20
-622.0555768557263
 30
0.0000000001127424
 40
0.5000000000000029
100
AcDbArc
 50
180.0
 51
257.5131101858123
  0
ARC
  5
1AB87
330
18
100
AcDbEntity
  8
01
100
AcDbCircle
 10
2064.688638278284
 20
-622.0555768557263
 30
0.0000000001127424
 40
0.5000000000000013
100
AcDbArc
 50
282.4868898141877
 51
0.0
  0
ARC
  5
1AB88
330
18
100
AcDbEntity
  8
01
100
AcDbCircle
 10
2062.688638278284
 20
-613.024380921632
 30
0.0000000001127424
 40
9.749999999999995
100
AcDbArc
 50
77.5131101858446
 51
102.4868898141554
  0
ARC
  5
1AB89
330
18
100
AcDbEntity
  8
01
100
AcDbCircle
 10
2060.688638278284
 20
-603.9931849875379
 30
0.0000000001127424
 40
0.5000000000000029
100
AcDbArc
 50
102.4868898141877
 51
180.0
  0
ARC
  5
1AB8A
330
18
100
AcDbEntity
  8
01
100
AcDbCircle
 10
2062.688638278284
 20
-613.024380921632
 30
0.0000000001127424
 40
9.75
100
AcDbArc
 50
257.5131101858446
 51
282.4868898141554
  0
LINE
  5
1AB8B
330
18
100
AcDbEntity
  8
01
100
AcDbLine
 10
2065.188638278284
 20
-603.9931849875379
 30
0.0000000001127424
 11
2065.188638278284
 21
-622.0555768557263
 31
0.0000000001127424
  0
LINE
  5
1AB8C
330
18
100
AcDbEntity
  8
01
100
AcDbLine
 10
2060.188638278284
 20
-622.0555768557263
 30
0.0000000001127424
 11
2060.188638278284
 21
-603.9931849875379
 31
0.0000000001127424
  0
SPLINE
  5
1AB8D
330
18
100
AcDbEntity
  8
01
100
AcDbSpline
210
0.0
220
0.0
230
1.0
 70
     8
 71
     3
 72
    18
 73
    14
 74
     0
 42
0.0000000001
 43
0.0000000001
 40
0.0
 40
0.0
 40
0.0
 40
0.0
 40
0.2500000000000002
 40
0.2500000000000002
 40
0.375
 40
0.375
 40
0.4999999999999998
 40
0.4999999999999998
 40
0.6249999999999996
 40
0.6249999999999996
 40
0.7499999999999993
 40
0.7499999999999993
 40
1.0
 40
1.0
 40
1.0
 40
1.0
 10
2066.377827467473
 20
-622.0494783242293
 30
0.0000000001127424
 10
2066.184566410197
 20
-622.128477649266
 30
0.0000000001127424
 10
2065.992244798469
 20
-622.1997451838356
 30
0.0000000001127424
 10
2065.71291934001
 20
-622.2940022950092
 30
0.0000000001127424
 10
2065.623426197501
 20
-622.3226355201969
 30
0.0000000001127424
 10
2065.45214898971
 20
-622.3749705959976
 30
0.0000000001127424
 10
2065.36949957654
 20
-622.3989027609182
 30
0.0000000001127424
 10
2065.218026437099
 20
-622.4409021772649
 30
0.0000000001127424
 10
2065.149354866143
 20
-622.4589640448244
 30
0.0000000001127424
 10
2065.026986891883
 20
-622.4900351829849
 30
0.0000000001127424
 10
2064.973146655267
 20
-622.5030667155918
 30
0.0000000001127424
 10
2064.843792368036
 20
-622.5336218203524
 30
0.0000000001127424
 10
2064.796746386392
 20
-622.5437496089205
 30
0.0000000001127424
 10
2064.796746386392
 20
-622.5437496089205
 30
0.0000000001127424
  0
SPLINE
  5
1AB8E
330
18
100
AcDbEntity
  8
01
100
AcDbSpline
210
0.0
220
0.0
230
1.0
 70
     8
 71
     3
 72
    18
 73
    14
 74
     0
 42
0.0000000001
 43
0.0000000001
 40
0.0
 40
0.0
 40
0.0
 40
0.0
 40
0.2500000000000002
 40
0.2500000000000002
 40
0.3750000000000002
 40
0.3750000000000002
 40
0.5000000000000002
 40
0.5000000000000002
 40
0.6250000000000002
 40
0.6250000000000002
 40
0.7500000000000001
 40
0.7500000000000001
 40
1.0
 40
1.0
 40
1.0
 40
1.0
 10
2058.999449089095
 20
-603.9992835190346
 30
0.0000000001127424
 10
2059.192710146371
 20
-603.920284193998
 30
0.0000000001127424
 10
2059.385031758099
 20
-603.8490166594286
 30
0.0000000001127424
 10
2059.664357216559
 20
-603.7547595482549
 30
0.0000000001127424
 10
2059.753850359067
 20
-603.7261263230671
 30
0.0000000001127424
 10
2059.925127566858
 20
-603.6737912472665
 30
0.0000000001127424
 10
2060.007776980028
 20
-603.6498590823458
 30
0.0000000001127424
 10
2060.159250119469
 20
-603.6078596659993
 30
0.0000000001127424
 10
2060.227921690425
 20
-603.5897977984398
 30
0.0000000001127424
 10
2060.350289664685
 20
-603.558726660279
 30
0.0000000001127424
 10
2060.404129901302
 20
-603.5456951276722
 30
0.0000000001127424
 10
2060.533484188532
 20
-603.5151400229117
 30
0.0000000001127424
 10
2060.580530170176
 20
-603.5050122343437
 30
0.0000000001127424
 10
2060.580530170176
 20
-603.5050122343437
 30
0.0000000001127424
  0
SPLINE
  5
1AB8F
330
18
100
AcDbEntity
  8
01
100
AcDbSpline
210
0.0
220
0.0
230
1.0
 70
     8
 71
     3
 72
    16
 73
    12
 74
     0
 42
0.0000000001
 43
0.0000000001
 40
0.0
 40
0.0
 40
0.0
 40
0.0
 40
0.1249999999999998
 40
0.1249999999999998
 40
0.2499999999999997
 40
0.2499999999999997
 40
0.4999999999999998
 40
0.4999999999999998
 40
0.7499999999999999
 40
0.7499999999999999
 40
1.0
 40
1.0
 40
1.0
 40
1.0
 10
2060.580530170176
 20
-622.5437496089205
 30
0.0000000001127424
 10
2060.580530170176
 20
-622.5437496089205
 30
0.0000000001127424
 10
2060.569114648049
 20
-622.5412416529296
 30
0.0000000001127424
 10
2060.524681591708
 20
-622.5312368717694
 30
0.0000000001127424
 10
2060.490985991155
 20
-622.5235802067198
 30
0.0000000001127424
 10
2060.361638669693
 20
-622.4930357021872
 30
0.0000000001127424
 10
2060.235182789386
 20
-622.4619355484101
 30
0.0000000001127424
 10
2059.93423658839
 20
-622.3785325400386
 30
0.0000000001127424
 10
2059.757443153624
 20
-622.3253836105159
 30
0.0000000001127424
 10
2059.38774688162
 20
-622.2006912839124
 30
0.0000000001127424
 10
2059.192675723386
 20
-622.1284635781817
 30
0.0000000001127424
 10
2058.999449089095
 20
-622.0494783242293
 30
0.0000000001127424
  0
SPLINE
  5
1AB90
330
18
100
AcDbEntity
  8
01
100
AcDbSpline
210
0.0
220
0.0
230
1.0
 70
     8
 71
     3
 72
    16
 73
    12
 74
     0
 42
0.0000000001
 43
0.0000000001
 40
0.0
 40
0.0
 40
0.0
 40
0.0
 40
0.1249999999999997
 40
0.1249999999999997
 40
0.2499999999999993
 40
0.2499999999999993
 40
0.4999999999999996
 40
0.4999999999999996
 40
0.7499999999999998
 40
0.7499999999999998
 40
1.0
 40
1.0
 40
1.0
 40
1.0
 10
2064.796746386392
 20
-603.5050122343437
 30
0.0000000001127424
 10
2064.796746386392
 20
-603.5050122343437
 30
0.0000000001127424
 10
2064.808161908519
 20
-603.5075201903346
 30
0.0000000001127424
 10
2064.85259496486
 20
-603.5175249714948
 30
0.0000000001127424
 10
2064.886290565413
 20
-603.5251816365444
 30
0.0000000001127424
 10
2065.015637886875
 20
-603.555726141077
 30
0.0000000001127424
 10
2065.142093767182
 20
-603.5868262948538
 30
0.0000000001127424
 10
2065.443039968178
 20
-603.6702293032254
 30
0.0000000001127424
 10
2065.619833402945
 20
-603.723378232748
 30
0.0000000001127424
 10
2065.989529674948
 20
-603.8480705593515
 30
0.0000000001127424
 10
2066.184600833182
 20
-603.9202982650822
 30
0.0000000001127424
 10
2066.377827467473
 20
-603.9992835190346
 30
0.0000000001127424
  0
ARC
  5
1AB91
330
18
100
AcDbEntity
  8
01
100
AcDbCircle
 10
2062.688638278284
 20
-613.024380921632
 30
0.0000000001127424
 40
9.750000000000005
100
AcDbArc
 50
112.2332717982938
 51
247.7667282017062
  0
ARC
  5
1AB92
330
18
100
AcDbEntity
  8
01
100
AcDbCircle
 10
2062.688638278284
 20
-613.024380921632
 30
0.0000000001127424
 40
9.750000000000009
100
AcDbArc
 50
292.2332717982938
 51
67.76672820170617
  0
CIRCLE
  5
1AB93
330
18
100
AcDbEntity
  8
01
100
AcDbCircle
 10
2062.688638278284
 20
-613.024380921632
 30
0.0000000001127424
 40
10.3
  0
SPLINE
  5
1AB94
330
18
100
AcDbEntity
  8
01
100
AcDbSpline
210
0.0
220
0.0
230
1.0
 70
    24
 71
     1
 72
     4
 73
     2
 74
     0
 42
0.0000000001
 43
0.0000000001
 40
0.1160848018737504
 40
0.1160848018737504
 40
1.0
 40
1.0
 10
2206.388642278286
 20
-622.7743809216392
 30
0.0000000001127427
 10
2191.688617467274
 20
-622.7743809216392
 30
0.0000000001127427
  0
SPLINE
  5
1AB95
330
18
100
AcDbEntity
  8
01
100
AcDbSpline
210
0.0
220
0.0
230
1.0
 70
    24
 71
     1
 72
     4
 73
     2
 74
     0
 42
0.0000000001
 43
0.0000000001
 40
0.0
 40
0.0
 40
0.8839151981262495
 40
0.8839151981262495
 10
2191.688617467274
 20
-603.2743809216392
 30
0.0000000001127427
 10
2206.388642278285
 20
-603.2743809216392
 30
0.0000000001127427
  0
ARC
  5
1AB96
330
18
100
AcDbEntity
  8
01
100
AcDbCircle
 10
2191.688617467274
 20
-621.7743809216392
 30
0.0000000001127427
 40
1.0
100
AcDbArc
 50
180.0
 51
270.0
  0
ARC
  5
1AB97
330
18
100
AcDbEntity
  8
01
100
AcDbCircle
 10
2191.688617467274
 20
-604.2743809216392
 30
0.0000000001127427
 40
1.0
100
AcDbArc
 50
90.0
 51
180.0
  0
LINE
  5
1AB98
330
18
100
AcDbEntity
  8
01
100
AcDbLine
 10
2205.188617467274
 20
-604.4621090268674
 30
0.0000000001127427
 11
2205.188617467274
 21
-621.5866528164111
 31
0.0000000001127427
  0
SPLINE
  5
1AB99
330
18
100
AcDbEntity
  8
01
100
AcDbSpline
210
0.0
220
0.0
230
1.0
 70
     8
 71
     3
 72
    14
 73
    10
 74
     0
 42
0.0000000001
 43
0.0000000001
 40
0.0
 40
0.0
 40
0.0
 40
0.0
 40
0.25
 40
0.25
 40
0.5
 40
0.5
 40
0.75
 40
0.75
 40
1.0
 40
1.0
 40
1.0
 40
1.0
 10
2204.188617467274
 20
-603.9931849875452
 30
0.0000000001127427
 10
2204.328585145026
 20
-603.9931849875452
 30
0.0000000001127427
 10
2204.467006419171
 20
-604.0028209428519
 30
0.0000000001127427
 10
2204.717056759127
 20
-604.0419018517935
 30
0.0000000001127427
 10
2204.829374321956
 20
-604.0717079866672
 30
0.0000000001127427
 10
2205.010421693042
 20
-604.1526277234511
 30
0.0000000001127427
 10
2205.078222329346
 20
-604.2030172596428
 30
0.0000000001127427
 10
2205.16784124589
 20
-604.3223868486575
 30
0.0000000001127427
 10
2205.188617467274
 20
-604.3891862993689
 30
0.0000000001127427
 10
2205.188617467274
 20
-604.4621090268674
 30
0.0000000001127427
  0
SPLINE
  5
1AB9A
330
18
100
AcDbEntity
  8
01
100
AcDbSpline
210
0.0
220
0.0
230
1.0
 70
     8
 71
     3
 72
    14
 73
    10
 74
     0
 42
0.0000000001
 43
0.0000000001
 40
0.0
 40
0.0
 40
0.0
 40
0.0
 40
0.25
 40
0.25
 40
0.5
 40
0.5
 40
0.75
 40
0.75
 40
1.0
 40
1.0
 40
1.0
 40
1.0
 10
2205.188617467274
 20
-621.5866528164111
 30
0.0000000001127427
 10
2205.188617467274
 20
-621.6595695035455
 30
0.0000000001127427
 10
2205.167257060012
 20
-621.7273541994064
 30
0.0000000001127427
 10
2205.078117868336
 20
-621.8456810733701
 30
0.0000000001127427
 10
2205.009185238182
 20
-621.8967939281383
 30
0.0000000001127427
 10
2204.829137797816
 20
-621.977051520292
 30
0.0000000001127427
 10
2204.716432124321
 20
-622.0070143399985
 30
0.0000000001127427
 10
2204.465861510701
 20
-622.0460627155326
 30
0.0000000001127427
 10
2204.328475361383
 20
-622.0555768557335
 30
0.0000000001127427
 10
2204.188617467274
 20
-622.0555768557335
 30
0.0000000001127427
  0
LINE
  5
1AB9B
330
18
100
AcDbEntity
  8
01
100
AcDbLine
 10
2204.188617467274
 20
-622.0555768557335
 30
0.0000000001127427
 11
2191.688617467274
 21
-622.0555768557335
 31
0.0000000001127427
  0
LINE
  5
1AB9C
330
18
100
AcDbEntity
  8
01
100
AcDbLine
 10
2191.688617467274
 20
-603.9931849875452
 30
0.0000000001127427
 11
2204.188617467274
 21
-603.9931849875452
 31
0.0000000001127427
  0
SPLINE
  5
1AB9D
330
18
100
AcDbEntity
  8
01
100
AcDbSpline
210
0.0
220
0.0
230
1.0
 70
     8
 71
     3
 72
    14
 73
    10
 74
     0
 42
0.0000000001
 43
0.0000000001
 40
0.0
 40
0.0
 40
0.0
 40
0.0
 40
0.2500000000000001
 40
0.2500000000000001
 40
0.5000000000000002
 40
0.5000000000000002
 40
0.7500000000000003
 40
0.7500000000000003
 40
1.0
 40
1.0
 40
1.0
 40
1.0
 10
2191.688617467274
 20
-603.9931849875452
 30
0.0000000001127427
 10
2191.551408552345
 20
-603.9931849875452
 30
0.0000000001127427
 10
2191.416405006834
 20
-604.0045597976402
 30
0.0000000001127427
 10
2191.169068548181
 20
-604.0475146649605
 30
0.0000000001127427
 10
2191.058567118816
 20
-604.0787589920651
 30
0.0000000001127427
 10
2190.876373445288
 20
-604.1559445094563
 30
0.0000000001127427
 10
2190.807380342902
 20
-604.2002851247157
 30
0.0000000001127427
 10
2190.712612804416
 20
-604.2982667760939
 30
0.0000000001127427
 10
2190.688617467274
 20
-604.3507601991107
 30
0.0000000001127427
 10
2190.688617467274
 20
-604.4039110968561
 30
0.0000000001127427
  0
SPLINE
  5
1AB9E
330
18
100
AcDbEntity
  8
01
100
AcDbSpline
210
0.0
220
0.0
230
1.0
 70
     8
 71
     3
 72
    14
 73
    10
 74
     0
 42
0.0000000001
 43
0.0000000001
 40
0.0
 40
0.0
 40
0.0
 40
0.0
 40
0.2500000000000001
 40
0.2500000000000001
 40
0.5000000000000002
 40
0.5000000000000002
 40
0.7500000000000003
 40
0.7500000000000003
 40
1.0
 40
1.0
 40
1.0
 40
1.0
 10
2191.688617467274
 20
-622.0555768557335
 30
0.0000000001127427
 10
2191.551408552345
 20
-622.0555768557335
 30
0.0000000001127427
 10
2191.416405006834
 20
-622.0442020456383
 30
0.0000000001127427
 10
2191.169068548181
 20
-622.001247178318
 30
0.0000000001127427
 10
2191.058567118816
 20
-621.9700028512134
 30
0.0000000001127427
 10
2190.876373445288
 20
-621.8928173338222
 30
0.0000000001127427
 10
2190.807380342902
 20
-621.8484767185628
 30
0.0000000001127427
 10
2190.712612804416
 20
-621.7504950671846
 30
0.0000000001127427
 10
2190.688617467274
 20
-621.698001644168
 30
0.0000000001127427
 10
2190.688617467274
 20
-621.6448507464227
 30
0.0000000001127427
  0
LINE
  5
1AB9F
330
18
100
AcDbEntity
  8
01
100
AcDbLine
 10
2190.688617467274
 20
-604.4039110968561
 30
0.0000000001127427
 11
2190.688617467274
 21
-621.6448507464227
 31
0.0000000001127427
  0
LINE
  5
1ABA0
330
18
100
AcDbEntity
  8
01
100
AcDbLine
 10
2190.688617467274
 20
-621.6448507464227
 30
0.0000000001127427
 11
2190.688617467274
 21
-621.7743809216392
 31
0.0000000001127427
  0
LINE
  5
1ABA1
330
18
100
AcDbEntity
  8
01
100
AcDbLine
 10
2383.188642021928
 20
-366.7243809226607
 30
0.0000000001127424
 11
2422.188642021928
 21
-366.7243809226604
 31
0.0000000001127424
  0
LINE
  5
1ABA2
330
18
100
AcDbEntity
  8
01
100
AcDbLine
 10
2422.688642021928
 20
-373.0243809226606
 30
0.0000000001127424
 11
2382.688642021928
 21
-373.0243809226611
 31
0.0000000001127424
  0
LINE
  5
1ABA3
330
18
100
AcDbEntity
  8
01
100
AcDbLine
 10
2422.688642021928
 20
-373.0243809226606
 30
0.0000000001127424
 11
2422.688642021928
 21
-367.2243809226604
 31
0.0000000001127424
  0
ARC
  5
1ABA4
330
18
100
AcDbEntity
  8
01
100
AcDbCircle
 10
2422.188642021928
 20
-367.2243809226607
 30
0.0000000001127424
 40
0.5
100
AcDbArc
 50
0.0
 51
90.0
  0
LINE
  5
1ABA5
330
18
100
AcDbEntity
  8
01
100
AcDbLine
 10
2382.688642021928
 20
-373.0243809226611
 30
0.0000000001127424
 11
2382.688642021928
 21
-367.2243809226607
 31
0.0000000001127424
  0
ARC
  5
1ABA6
330
18
100
AcDbEntity
  8
01
100
AcDbCircle
 10
2383.188642021928
 20
-367.2243809226607
 30
0.0000000001127424
 40
0.5
100
AcDbArc
 50
90.0
 51
180.0
  0
LINE
  5
1ABA7
330
18
100
AcDbEntity
  8
01
100
AcDbLine
 10
2399.188654243141
 20
-365.5243842558609
 30
0.0000000000565071
 11
2393.438654243136
 21
-365.5243842558598
 31
0.0000000000565071
  0
LINE
  5
1ABA8
330
18
100
AcDbEntity
  8
01
100
AcDbLine
 10
2400.188654243143
 20
-352.0243613116543
 30
0.0000000000565071
 11
2400.188654243141
 21
-364.5243842558609
 31
0.0000000000565071
  0
LINE
  5
1ABA9
330
18
100
AcDbEntity
  8
01
100
AcDbLine
 10
2405.188654243143
 20
-352.0243613116561
 30
0.0000000000565071
 11
2405.188654243143
 21
-364.5243842558591
 31
0.0000000000565071
  0
ARC
  5
1ABAA
330
18
100
AcDbEntity
  8
01
100
AcDbCircle
 10
2404.188654243144
 20
-352.0243613116543
 30
0.0000000000565071
 40
1.0
100
AcDbArc
 50
0.0000000000521102
 51
90.0
  0
ARC
  5
1ABAB
330
18
100
AcDbEntity
  8
01
100
AcDbCircle
 10
2401.188654243144
 20
-352.0243613116543
 30
0.0000000000565071
 40
1.0
100
AcDbArc
 50
90.0
 51
180.0
  0
LINE
  5
1ABAC
330
18
100
AcDbEntity
  8
01
100
AcDbLine
 10
2404.188654243143
 20
-351.0243613116525
 30
0.0000000000565071
 11
2401.188654243144
 21
-351.0243613116525
 31
0.0000000000565071
  0
LINE
  5
1ABAD
330
18
100
AcDbEntity
  8
01
100
AcDbLine
 10
2411.938654243135
 20
-365.5243842558591
 30
0.0000000000565071
 11
2406.188654243143
 21
-365.5243842558591
 31
0.0000000000565071
  0
ARC
  5
1ABAE
330
18
100
AcDbEntity
  8
01
100
AcDbCircle
 10
2406.188654243144
 20
-364.5243842558591
 30
0.0000000000565071
 40
1.0
100
AcDbArc
 50
180.0
 51
270.0
  0
ARC
  5
1ABAF
330
18
100
AcDbEntity
  8
01
100
AcDbCircle
 10
2399.188654243142
 20
-364.5243842558609
 30
0.0000000000565071
 40
1.0
100
AcDbArc
 50
270.0
 51
0.0
  0
LINE
  5
1ABB0
330
18
100
AcDbEntity
  8
01
100
AcDbLine
 10
2392.938654243135
 20
-366.0243842558596
 30
0.0000000001127646
 11
2392.938654243135
 21
-366.7243809226604
 31
0.0000000001127424
  0
ARC
  5
1ABB1
330
18
100
AcDbEntity
  8
01
100
AcDbCircle
 10
2393.438654243136
 20
-366.0243842558596
 30
0.0000000001127646
 40
0.5
100
AcDbArc
 50
90.0
 51
180.0
  0
LINE
  5
1ABB2
330
18
100
AcDbEntity
  8
01
100
AcDbLine
 10
2412.438654243135
 20
-366.0243842558596
 30
0.0000000001127646
 11
2412.438654243135
 21
-366.7243809226604
 31
0.0000000001127424
  0
ARC
  5
1ABB3
330
18
100
AcDbEntity
  8
01
100
AcDbCircle
 10
2411.938654243135
 20
-366.0243842558596
 30
0.0000000001127646
 40
0.5
100
AcDbArc
 50
0.0
 51
90.0
  0
LINE
  5
1ABB5
330
18
100
AcDbEntity
  8
01
100
AcDbLine
 10
2258.988642278286
 20
-627.0243760574422
 30
0.0000000000564849
 11
2258.988642278286
 21
-588.0243760574426
 31
0.0000000000564849
  0
LINE
  5
1ABB6
330
18
100
AcDbEntity
  8
01
100
AcDbLine
 10
2252.688642278281
 20
-627.5243760574424
 30
0.0000000000564849
 11
2258.488642278286
 21
-627.5243760574422
 31
0.0000000000564849
  0
ARC
  5
1ABB7
330
18
100
AcDbEntity
  8
01
100
AcDbCircle
 10
2258.488642278286
 20
-627.0243760574422
 30
0.0000000000564849
 40
0.5
100
AcDbArc
 50
270.0
 51
0.0
  0
LINE
  5
1ABB8
330
18
100
AcDbEntity
  8
01
100
AcDbLine
 10
2252.688642278285
 20
-587.5243760574422
 30
0.0000000000564849
 11
2258.488642278286
 21
-587.5243760574426
 31
0.0000000000564849
  0
ARC
  5
1ABB9
330
18
100
AcDbEntity
  8
01
100
AcDbCircle
 10
2258.488642278286
 20
-588.0243760574426
 30
0.0000000000564849
 40
0.5
100
AcDbArc
 50
0.0
 51
90.0
  0
LINE
  5
1ABBA
330
18
100
AcDbEntity
  8
01
100
AcDbLine
 10
2259.730625967246
 20
-609.5243796006937
 30
0.0000000001127388
 11
2258.988642278285
 21
-609.5243796006939
 31
0.0000000001127388
  0
LINE
  5
1ABBB
330
18
100
AcDbEntity
  8
01
100
AcDbLine
 10
2259.730625967246
 20
-616.5243796006937
 30
0.0000000001127388
 11
2258.988642278285
 21
-616.5243796006937
 31
0.0000000001127388
  0
ARC
  5
1ABBC
330
18
100
AcDbEntity
  8
01
100
AcDbCircle
 10
2254.857225967246
 20
-613.0243796006937
 30
0.0000000001127388
 40
6.0
100
AcDbArc
 50
324.314669999999
 51
35.68533471265512
  0
LINE
  5
1ABC0
330
18
100
AcDbEntity
  8
01
100
AcDbLine
 10
2346.688525938539
 20
-585.0243809216322
 30
0.0000000001127424
 11
2360.688525938539
 21
-585.0243809216322
 31
0.0000000001127424
  0
LINE
  5
1ABC1
330
18
100
AcDbEntity
  8
01
100
AcDbLine
 10
2351.689410120599
 20
-373.0243809226608
 30
0.0000000001127424
 11
2505.443790275632
 21
-373.0243809226608
 31
0.0000000001127424
  0
LINE
  5
1ABC2
330
18
100
AcDbEntity
  8
01
  6
BYBLOCK
100
AcDbLine
 10
2351.689410120599
 20
-373.0243809226608
 30
0.0000000001127424
 11
2351.689410120599
 21
-413.0243809226608
 31
0.0000000001127424
  0
LINE
  5
1ABC6
330
18
100
AcDbEntity
  8
01
  6
BYBLOCK
100
AcDbLine
 10
2353.188525938539
 20
-577.1243809216321
 30
0.0000000001127424
 11
2353.188525938539
 21
-706.9243809216321
 31
0.0000000001127424
  0
LINE
  5
1ABC7
330
18
100
AcDbEntity
  8
01
  6
BYBLOCK
100
AcDbLine
 10
2353.188525938539
 20
-706.0243809216322
 30
0.0000000001127424
 11
2355.688525938539
 21
-706.0243809216322
 31
0.0000000001127424
  0
LINE
  5
1ABC8
330
18
100
AcDbEntity
  8
01
  6
BYBLOCK
100
AcDbLine
 10
2355.688525938539
 20
-706.0243809216322
 30
0.0000000001127424
 11
2355.688525938539
 21
-689.5214371964798
 31
0.0000000001127424
  0
LINE
  5
1ABC9
330
18
100
AcDbEntity
  8
01
  6
BYBLOCK
100
AcDbLine
 10
2351.688525938539
 20
-577.1243809216321
 30
0.0000000001127424
 11
2351.688525938539
 21
-706.9243809216321
 31
0.0000000001127424
  0
LINE
  5
1ABCA
330
18
100
AcDbEntity
  8
01
  6
BYBLOCK
100
AcDbLine
 10
2351.688525938539
 20
-706.9243809216321
 30
0.0000000001127424
 11
2353.188525938539
 21
-706.9243809216321
 31
0.0000000001127424
  0
LINE
  5
1ABCB
330
18
100
AcDbEntity
  8
01
  6
BYBLOCK
100
AcDbLine
 10
2353.188525938539
 20
-578.0243809216322
 30
0.0000000001127424
 11
2355.688525938539
 21
-578.0243809216322
 31
0.0000000001127424
  0
LINE
  5
1ABCC
330
18
100
AcDbEntity
  8
01
  6
BYBLOCK
100
AcDbLine
 10
2351.688525938539
 20
-577.1243809216321
 30
0.0000000001127424
 11
2353.188525938539
 21
-577.1243809216321
 31
0.0000000001127424
  0
LINE
  5
1ABCD
330
18
100
AcDbEntity
  8
01
  6
BYBLOCK
100
AcDbLine
 10
2353.188525938539
 20
-602.0243809216322
 30
0.0000000001127424
 11
2354.388525938539
 21
-602.0243809216322
 31
0.0000000001127424
  0
LINE
  5
1ABCE
330
18
100
AcDbEntity
  8
01
  6
BYBLOCK
100
AcDbLine
 10
2354.388525938539
 20
-596.3243809216319
 30
0.0000000001127424
 11
2354.388525938539
 21
-687.724380921632
 31
0.0000000001127424
  0
LINE
  5
1ABCF
330
18
100
AcDbEntity
  8
01
  6
BYBLOCK
100
AcDbLine
 10
2354.488525938539
 20
-706.0243809216322
 30
0.0000000001127424
 11
2354.488525938539
 21
-689.4243809216321
 31
0.0000000001127424
  0
LINE
  5
1ABD0
330
18
100
AcDbEntity
  8
01
  6
BYBLOCK
100
AcDbLine
 10
2354.488525938539
 20
-689.4243809216321
 30
0.0000000001127424
 11
2353.539997801115
 21
-688.4758527842082
 31
0.0000000001127424
  0
LINE
  5
1ABD1
330
18
100
AcDbEntity
  8
01
  6
BYBLOCK
100
AcDbLine
 10
2355.337054075962
 20
-688.6729090590559
 30
0.0000000001127424
 11
2354.388525938539
 21
-687.724380921632
 31
0.0000000001127424
  0
ARC
  5
1ABD2
330
18
100
AcDbEntity
  8
01
  6
BYBLOCK
100
AcDbCircle
 10
2354.488525938539
 20
-689.5214371964798
 30
0.0000000001127424
 40
1.2
100
AcDbArc
 50
0.0
 51
45.00000000003838
  0
ARC
  5
1ABD3
330
18
100
AcDbEntity
  8
01
  6
BYBLOCK
100
AcDbCircle
 10
2354.388525938539
 20
-687.6273246467842
 30
0.0000000001127424
 40
1.2
100
AcDbArc
 50
180.0
 51
225.0000000000384
  0
LINE
  5
1ABD4
330
18
100
AcDbEntity
  8
01
  6
BYBLOCK
100
AcDbLine
 10
2355.688525938539
 20
-578.0243809216322
 30
0.0000000001127424
 11
2355.688525938539
 21
-594.5273246467843
 31
0.0000000001127424
  0
LINE
  5
1ABD5
330
18
100
AcDbEntity
  8
01
  6
BYBLOCK
100
AcDbLine
 10
2354.488525938539
 20
-578.0243809216322
 30
0.0000000001127424
 11
2354.488525938539
 21
-594.6243809216321
 31
0.0000000001127424
  0
LINE
  5
1ABD6
330
18
100
AcDbEntity
  8
01
  6
BYBLOCK
100
AcDbLine
 10
2354.488525938539
 20
-594.6243809216321
 30
0.0000000001127424
 11
2353.539997801115
 21
-595.572909059056
 31
0.0000000001127424
  0
LINE
  5
1ABD7
330
18
100
AcDbEntity
  8
01
  6
BYBLOCK
100
AcDbLine
 10
2355.337054075962
 20
-595.3758527842083
 30
0.0000000001127424
 11
2354.388525938539
 21
-596.3243809216322
 31
0.0000000001127424
  0
ARC
  5
1ABD8
330
18
100
AcDbEntity
  8
01
  6
BYBLOCK
100
AcDbCircle
 10
2354.488525938539
 20
-594.5273246467843
 30
0.0000000001127424
 40
1.2
100
AcDbArc
 50
314.9999999999616
 51
0.0
  0
ARC
  5
1ABD9
330
18
100
AcDbEntity
  8
01
  6
BYBLOCK
100
AcDbCircle
 10
2354.388525938539
 20
-596.4214371964799
 30
0.0000000001127424
 40
1.2
100
AcDbArc
 50
134.9999999999616
 51
180.0
  0
CIRCLE
  5
1ABDA
330
18
100
AcDbEntity
  8
1HIDDEN
100
AcDbCircle
 10
2402.688525938539
 20
-613.0243809216322
 30
0.0000000001127424
 40
4.75
  0
LINE
  5
1ABDB
330
18
100
AcDbEntity
  8
01
  6
BYBLOCK
100
AcDbLine
 10
2354.388525938539
 20
-679.0243809216324
 30
0.0000000001127424
 11
2385.476611460481
 21
-679.0243809216322
 31
0.0000000001127424
  0
ARC
  5
1ABDC
330
18
100
AcDbEntity
  8
01
  6
BYBLOCK
100
AcDbCircle
 10
2354.789410120599
 20
-389.4631303796609
 30
0.0000000001127424
 40
1.6
100
AcDbArc
 50
115.9444797720007
 51
180.0
  0
ARC
  5
1ABDD
330
18
100
AcDbEntity
  8
01
  6
BYBLOCK
100
AcDbCircle
 10
2354.789410120599
 20
-396.5856314656608
 30
0.0000000001127424
 40
1.6
100
AcDbArc
 50
180.0
 51
244.0555202279984
  0
ARC
  5
1ABDE
330
18
100
AcDbEntity
  8
01
  6
BYBLOCK
100
AcDbCircle
 10
2354.089410120599
 20
-397.8631303796608
 30
0.0000000001127424
 40
1.6
100
AcDbArc
 50
0.0
 51
64.05552022798469
  0
ARC
  5
1ABDF
330
18
100
AcDbEntity
  8
01
  6
BYBLOCK
100
AcDbCircle
 10
2354.089410120599
 20
-388.1856314656609
 30
0.0000000001127424
 40
1.6
100
AcDbArc
 50
295.9444797720162
 51
0.0
  0
LINE
  5
1ABE0
330
18
100
AcDbEntity
  8
01
  6
BYBLOCK
100
AcDbLine
 10
2355.689410120599
 20
-388.1856314656609
 30
0.0000000001127424
 11
2355.689410120599
 21
-380.8243809226608
 31
0.0000000001127424
  0
LINE
  5
1ABE1
330
18
100
AcDbEntity
  8
01
  6
BYBLOCK
100
AcDbLine
 10
2354.789410120599
 20
-396.4243809226609
 30
0.0000000001127424
 11
2354.789410120599
 21
-389.6243809226607
 31
0.0000000001127424
  0
LINE
  5
1ABE2
330
18
100
AcDbEntity
  8
01
  6
BYBLOCK
100
AcDbLine
 10
2355.689410120599
 20
-405.0243809226608
 30
0.0000000001127424
 11
2355.689410120599
 21
-397.8631303796608
 31
0.0000000001127424
  0
LINE
  5
1ABE3
330
18
100
AcDbEntity
  8
01
  6
BYBLOCK
100
AcDbLine
 10
2354.089410120599
 20
-388.0243809226608
 30
0.0000000001127424
 11
2354.089410120599
 21
-380.8243809226608
 31
0.0000000001127424
  0
LINE
  5
1ABE4
330
18
100
AcDbEntity
  8
01
  6
BYBLOCK
100
AcDbLine
 10
2354.089410120599
 20
-398.0243809226608
 30
0.0000000001127424
 11
2354.089410120599
 21
-405.1243809226607
 31
0.0000000001127424
  0
ARC
  5
1ABE5
330
18
100
AcDbEntity
  8
01
  6
BYBLOCK
100
AcDbCircle
 10
2419.089410120599
 20
-385.1243809226607
 30
0.0000000001127424
 40
1.6
100
AcDbArc
 50
0.0
 51
90.0
  0
LINE
  5
1ABE6
330
18
100
AcDbEntity
  8
01
  6
BYBLOCK
100
AcDbLine
 10
2353.189410120599
 20
-380.6243809226607
 30
0.0000000001127424
 11
2353.189410120599
 21
-405.4243809226607
 31
0.0000000001127424
  0
LINE
  5
1ABE7
330
18
100
AcDbEntity
  8
01
  6
BYBLOCK
100
AcDbLine
 10
2419.089410120599
 20
-383.5243809226608
 30
0.0000000001127424
 11
2355.689410120599
 21
-383.5243809226608
 31
0.0000000001127424
  0
LINE
  5
1ABE8
330
18
100
AcDbEntity
  8
01
  6
BYBLOCK
100
AcDbLine
 10
2419.089410120599
 20
-400.7243809226609
 30
0.0000000001127424
 11
2419.089410120599
 21
-383.5243809226608
 31
0.0000000001127424
  0
LINE
  5
1ABE9
330
18
100
AcDbEntity
  8
01
  6
BYBLOCK
100
AcDbLine
 10
2420.689410120599
 20
-402.3243809226608
 30
0.0000000001127424
 11
2420.689410120599
 21
-385.1243809226607
 31
0.0000000001127424
  0
LINE
  5
1ABEA
330
18
100
AcDbEntity
  8
01
  6
BYBLOCK
100
AcDbLine
 10
2353.189410120599
 20
-380.8243809226608
 30
0.0000000001127424
 11
2355.689410120599
 21
-380.8243809226608
 31
0.0000000001127424
  0
LINE
  5
1ABEB
330
18
100
AcDbEntity
  8
01
  6
BYBLOCK
100
AcDbLine
 10
2355.689410120599
 20
-405.0243809226608
 30
0.0000000001127424
 11
2354.089410120599
 21
-405.0243809226608
 31
0.0000000001127424
  0
LINE
  5
1ABEC
330
18
100
AcDbEntity
  8
01
  6
BYBLOCK
100
AcDbLine
 10
2354.089410120599
 20
-405.1243809226607
 30
0.0000000001127424
 11
2353.189410120599
 21
-405.1243809226607
 31
0.0000000001127424
  0
ARC
  5
1ABED
330
18
100
AcDbEntity
  8
01
  6
BYBLOCK
100
AcDbCircle
 10
2350.390005047998
 20
-398.7243809226602
 30
0.0000000001127424
 40
0.3000000000000051
100
AcDbArc
 50
232.8678058730022
 51
270.0
  0
LINE
  5
1ABEE
330
18
100
AcDbEntity
  8
01
  6
BYBLOCK
100
AcDbLine
 10
2351.189410120599
 20
-399.0243809226602
 30
0.0000000001127424
 11
2350.390005047998
 21
-399.0243809226602
 31
0.0000000001127424
  0
LINE
  5
1ABEF
330
18
100
AcDbEntity
  8
01
  6
BYBLOCK
100
AcDbLine
 10
2340.789410120599
 20
-389.351392056456
 30
0.0000000001127424
 11
2340.789410120599
 21
-389.5220141120051
 31
0.0000000001127424
  0
ARC
  5
1ABF0
330
18
100
AcDbEntity
  8
01
  6
BYBLOCK
100
AcDbCircle
 10
2341.089410120599
 20
-389.5220141120051
 30
0.0000000001127424
 40
0.3
100
AcDbArc
 50
180.0
 51
217.7405295629668
  0
ARC
  5
1ABF1
330
18
100
AcDbEntity
  8
01
  6
BYBLOCK
100
AcDbCircle
 10
2380.391710719883
 20
-359.1013111680643
 30
0.0000000001127424
 40
50.00000000000002
100
AcDbArc
 50
217.7405295629802
 51
232.8678058729729
  0
LINE
  5
1ABF2
330
18
100
AcDbEntity
  8
01
  6
BYBLOCK
100
AcDbLine
 10
2340.589410120599
 20
-388.2243809226607
 30
0.0000000001127424
 11
2340.589410120599
 21
-387.5243809226608
 31
0.0000000001127424
  0
ARC
  5
1ABF3
330
18
100
AcDbEntity
  8
01
  6
BYBLOCK
100
AcDbCircle
 10
2341.089410120599
 20
-387.5243809226608
 30
0.0000000001127424
 40
0.5000000000000142
100
AcDbArc
 50
90.0
 51
180.0
  0
LINE
  5
1ABF4
330
18
100
AcDbEntity
  8
01
  6
BYBLOCK
100
AcDbLine
 10
2351.189410120599
 20
-387.0243809226608
 30
0.0000000001127424
 11
2341.089410120599
 21
-387.0243809226608
 31
0.0000000001127424
  0
LINE
  5
1ABF5
330
18
100
AcDbEntity
  8
01
  6
BYBLOCK
100
AcDbLine
 10
2340.589410120599
 20
-388.6030605791011
 30
0.0000000001127424
 11
2340.589410120599
 21
-388.2243809226607
 31
0.0000000001127424
  0
SPLINE
  5
1ABF6
330
18
100
AcDbEntity
  8
01
  6
BYBLOCK
100
AcDbSpline
210
0.0
220
0.0
230
1.0
 70
     8
 71
     3
 72
     8
 73
     4
 74
     0
 42
0.0000000001
 43
0.0000000001
 40
0.0
 40
0.0
 40
0.0
 40
0.0
 40
1.0
 40
1.0
 40
1.0
 40
1.0
 10
2340.615142661864
 20
-388.8797110085502
 30
0.0000000001127424
 10
2340.597674775752
 20
-388.7866248126697
 30
0.0000000001127424
 10
2340.589410120599
 20
-388.6933588017782
 30
0.0000000001127424
 10
2340.589410120599
 20
-388.6030605791007
 30
0.0000000001127424
  0
ARC
  5
1ABF7
330
18
100
AcDbEntity
  8
01
  6
BYBLOCK
100
AcDbCircle
 10
2342.089410120599
 20
-388.6030605791011
 30
0.0000000001127424
 40
1.499999999999998
100
AcDbArc
 50
190.628112987605
 51
225.0000000000369
  0
LINE
  5
1ABF8
330
18
100
AcDbEntity
  8
01
  6
BYBLOCK
100
AcDbLine
 10
2351.689410120599
 20
-386.1743809226607
 30
0.0000000001127424
 11
2351.189410120599
 21
-386.1743809226607
 31
0.0000000001127424
  0
LINE
  5
1ABF9
330
18
100
AcDbEntity
  8
01
  6
BYBLOCK
100
AcDbLine
 10
2351.189410120599
 20
-399.8743809226607
 30
0.0000000001127424
 11
2351.689410120599
 21
-399.8743809226607
 31
0.0000000001127424
  0
LINE
  5
1ABFA
330
18
100
AcDbEntity
  8
01
  6
BYBLOCK
100
AcDbLine
 10
2351.189410120599
 20
-399.8743809226607
 30
0.0000000001127424
 11
2351.189410120599
 21
-386.1743809226607
 31
0.0000000001127424
  0
LINE
  5
1ABFB
330
18
100
AcDbEntity
  8
01
  6
BYBLOCK
100
AcDbLine
 10
2351.689410120599
 20
-380.6243809226607
 30
0.0000000001127424
 11
2353.189410120599
 21
-380.6243809226607
 31
0.0000000001127424
  0
LINE
  5
1ABFC
330
18
100
AcDbEntity
  8
01
  6
BYBLOCK
100
AcDbLine
 10
2351.689410120599
 20
-405.4243809226607
 30
0.0000000001127424
 11
2353.189410120599
 21
-405.4243809226607
 31
0.0000000001127424
  0
LINE
  5
1ABFD
330
18
100
AcDbEntity
  8
01
  6
BYBLOCK
100
AcDbLine
 10
2351.689410120599
 20
-405.4243809226607
 30
0.0000000001127424
 11
2351.689410120599
 21
-380.6243809226607
 31
0.0000000001127424
  0
LINE
  5
1ABFE
330
18
100
AcDbEntity
  8
01
  6
BYBLOCK
100
AcDbLine
 10
2420.689410120599
 20
-400.7243809226609
 30
0.0000000001127424
 11
2355.689410120599
 21
-400.7243809226609
 31
0.0000000001127424
  0
LINE
  5
1ABFF
330
18
100
AcDbEntity
  8
01
  6
BYBLOCK
100
AcDbLine
 10
2420.689410120599
 20
-402.3243809226608
 30
0.0000000001127424
 11
2370.289410120599
 21
-402.3243809226608
 31
0.0000000001127424
  0
LINE
  5
1AC00
330
18
100
AcDbEntity
  8
01
  6
BYBLOCK
100
AcDbLine
 10
2373.126668420802
 20
-402.3243809226608
 30
0.0000000001127424
 11
2355.689410120599
 21
-402.3243809226608
 31
0.0000000001127424
  0
LINE
  5
1AC01
330
18
100
AcDbEntity
  8
01
  6
BYBLOCK
100
AcDbLine
 10
2350.242963511192
 20
-398.8779343132542
 30
0.0000000001127424
 11
2341.028749948819
 21
-389.6637207508811
 31
0.0000000001127424
  0
ARC
  5
1AC02
330
18
100
AcDbEntity
  8
01
  6
BYBLOCK
100
AcDbCircle
 10
2350.596516901785
 20
-398.5243809226608
 30
0.0000000001127424
 40
0.5
100
AcDbArc
 50
225.0000000000369
 51
270.0
  0
LINE
  5
1AC03
330
18
100
AcDbEntity
  8
01
  6
BYBLOCK
100
AcDbLine
 10
2351.189410120599
 20
-399.0243809226608
 30
0.0000000001127424
 11
2350.596516901785
 21
-399.0243809226608
 31
0.0000000001127424
  0
LINE
  5
1AC05
330
18
100
AcDbEntity
  8
01
  6
BYBLOCK
100
AcDbLine
 10
2340.688525938539
 20
-631.9927106546161
 30
0.0000000001127424
 11
2340.688525938539
 21
-650.056051188622
 31
0.0000000001127424
  0
LINE
  5
1AC06
330
18
100
AcDbEntity
  8
01
  6
BYBLOCK
100
AcDbLine
 10
2344.981419157352
 20
-631.024380921619
 30
0.0000000001127424
 11
2351.688525938539
 21
-631.024380921619
 31
0.0000000001127424
  0
LINE
  5
1AC07
330
18
100
AcDbEntity
  8
01
  6
BYBLOCK
100
AcDbLine
 10
2344.981419157352
 20
-651.024380921619
 30
0.0000000001127424
 11
2351.688525938539
 21
-651.024380921619
 31
0.0000000001127424
  0
LINE
  5
1AC08
330
18
100
AcDbEntity
  8
01
  6
BYBLOCK
100
AcDbLine
 10
2350.481419157353
 20
-635.774380921619
 30
0.0000000001127424
 11
2350.481419157352
 21
-646.274380921619
 31
0.0000000001127424
  0
ARC
  5
1AC09
330
18
100
AcDbEntity
  8
01
  6
BYBLOCK
100
AcDbCircle
 10
2344.981419157352
 20
-641.024380921619
 30
0.0000000001127424
 40
10.00000000000009
100
AcDbArc
 50
53.13010235415025
 51
115.4224671781178
  0
ARC
  5
1AC0A
330
18
100
AcDbEntity
  8
01
  6
BYBLOCK
100
AcDbCircle
 10
2344.981419157352
 20
-641.0243809216188
 30
0.0000000001127424
 40
10.00000000000009
100
AcDbArc
 50
244.5775328218822
 51
306.8698976458433
  0
LINE
  5
1AC0B
330
18
100
AcDbEntity
  8
01
  6
BYBLOCK
100
AcDbLine
 10
2350.981419157353
 20
-633.024380921619
 30
0.0000000001127424
 11
2350.981419157353
 21
-649.024380921619
 31
0.0000000001127424
  0
LINE
  5
1AC0C
330
18
100
AcDbEntity
  8
01
  6
BYBLOCK
100
AcDbLine
 10
2340.688525938539
 20
-635.774380921619
 30
0.0000000001127424
 11
2350.481419157353
 21
-635.774380921619
 31
0.0000000001127424
  0
LINE
  5
1AC0D
330
18
100
AcDbEntity
  8
01
  6
BYBLOCK
100
AcDbLine
 10
2340.688525938539
 20
-646.274380921619
 30
0.0000000001127424
 11
2350.481419157353
 21
-646.274380921619
 31
0.0000000001127424
  0
LINE
  5
1AC0E
330
18
100
AcDbEntity
  8
01
  6
BYBLOCK
100
AcDbLine
 10
2226.288642278284
 20
-577.1243809216328
 30
0.0000000001127424
 11
2239.088642278283
 21
-577.1243809216328
 31
0.0000000001127424
  0
LINE
  5
1AC0F
330
18
100
AcDbEntity
  8
01
  6
BYBLOCK
100
AcDbLine
 10
2226.288642278284
 20
-706.9243809216327
 30
0.0000000001127424
 11
2239.088642278283
 21
-706.9243809216327
 31
0.0000000001127424
  0
LINE
  5
1AC10
330
18
100
AcDbEntity
  8
01
  6
BYBLOCK
100
AcDbLine
 10
2220.288642278284
 20
-583.1243809216328
 30
0.0000000001127424
 11
2220.288642278284
 21
-700.9243809216327
 31
0.0000000001127424
  0
LINE
  5
1AC11
330
18
100
AcDbEntity
  8
01
  6
BYBLOCK
100
AcDbLine
 10
2245.088642278283
 20
-583.1243809216328
 30
0.0000000001127424
 11
2245.088642278283
 21
-700.9243809216327
 31
0.0000000001127424
  0
ARC
  5
1AC12
330
18
100
AcDbEntity
  8
01
  6
BYBLOCK
100
AcDbCircle
 10
2226.288642278284
 20
-700.9243809216327
 30
0.0000000001127424
 40
6.0
100
AcDbArc
 50
180.0
 51
270.0
  0
ARC
  5
1AC13
330
18
100
AcDbEntity
  8
01
  6
BYBLOCK
100
AcDbCircle
 10
2239.088642278283
 20
-700.9243809216327
 30
0.0000000001127424
 40
6.0
100
AcDbArc
 50
270.0
 51
0.0
  0
ARC
  5
1AC14
330
18
100
AcDbEntity
  8
01
  6
BYBLOCK
100
AcDbCircle
 10
2226.288642278284
 20
-583.1243809216328
 30
0.0000000001127424
 40
6.0
100
AcDbArc
 50
90.0
 51
180.0
  0
ARC
  5
1AC15
330
18
100
AcDbEntity
  8
01
  6
BYBLOCK
100
AcDbCircle
 10
2239.088642278283
 20
-583.1243809216328
 30
0.0000000001127424
 40
6.0
100
AcDbArc
 50
0.0
 51
90.0
  0
CIRCLE
  5
1AC16
330
18
100
AcDbEntity
  8
01
  6
BYBLOCK
100
AcDbCircle
 10
2232.688642278284
 20
-699.0243809216327
 30
0.0000000001127424
 40
2.75
  0
CIRCLE
  5
1AC17
330
18
100
AcDbEntity
  8
01
  6
BYBLOCK
100
AcDbCircle
 10
2232.688642278284
 20
-699.0243809216327
 30
0.0000000001127424
 40
4.25
  0
CIRCLE
  5
1AC18
330
18
100
AcDbEntity
  8
01
  6
BYBLOCK
100
AcDbCircle
 10
2232.688642278284
 20
-585.0243809216329
 30
0.0000000001127424
 40
2.75
  0
CIRCLE
  5
1AC19
330
18
100
AcDbEntity
  8
01
  6
BYBLOCK
100
AcDbCircle
 10
2232.688642278284
 20
-585.0243809216329
 30
0.0000000001127424
 40
4.25
  0
LINE
  5
1AC1A
330
18
100
AcDbEntity
  8
1CENTER
100
AcDbLine
 10
2238.56366768619
 20
-699.0243809216329
 30
0.0000000001127424
 11
2226.813616870378
 21
-699.0243809216329
 31
0.0000000001127424
  0
LINE
  5
1AC1B
330
18
100
AcDbEntity
  8
1CENTER
100
AcDbLine
 10
2232.688642278284
 20
-693.1493555137265
 30
0.0000000001127424
 11
2232.688642278284
 21
-704.899406329539
 31
0.0000000001127424
  0
LINE
  5
1AC1C
330
18
100
AcDbEntity
  8
1CENTER
100
AcDbLine
 10
2238.56366768619
 20
-585.0243809216329
 30
0.0000000001127424
 11
2226.813616870378
 21
-585.0243809216329
 31
0.0000000001127424
  0
LINE
  5
1AC1D
330
18
100
AcDbEntity
  8
1CENTER
100
AcDbLine
 10
2232.688642278284
 20
-579.1493555137265
 30
0.0000000001127424
 11
2232.688642278284
 21
-590.899406329539
 31
0.0000000001127424
  0
ARC
  5
1AC1E
330
18
100
AcDbEntity
  8
01
  6
BYBLOCK
100
AcDbCircle
 10
2232.688642278284
 20
-641.0243809216327
 30
0.0000000001127424
 40
10.15
100
AcDbArc
 50
231.9925780701389
 51
308.0074219298631
  0
LINE
  5
1AC1F
330
18
100
AcDbEntity
  8
01
  6
BYBLOCK
100
AcDbLine
 10
2226.438642278284
 20
-633.0268813123798
 30
0.0000000001127424
 11
2226.438642278284
 21
-649.0218805308855
 31
0.0000000001127424
  0
LINE
  5
1AC20
330
18
100
AcDbEntity
  8
01
  6
BYBLOCK
100
AcDbLine
 10
2238.938642278284
 20
-633.0268813123798
 30
0.0000000001127424
 11
2238.938642278284
 21
-649.0218805308855
 31
0.0000000001127424
  0
ARC
  5
1AC21
330
18
100
AcDbEntity
  8
01
  6
BYBLOCK
100
AcDbCircle
 10
2232.688642278284
 20
-641.0243809216327
 30
0.0000000001127424
 40
10.15
100
AcDbArc
 50
51.99257807014049
 51
128.0074219298575
  0
LINE
  5
1AC22
330
18
100
AcDbEntity
  8
01
  6
BYBLOCK
100
AcDbLine
 10
2228.188642278284
 20
-635.7743809216327
 30
0.0000000001127424
 11
2228.188642278284
 21
-646.2743809216327
 31
0.0000000001127424
  0
LINE
  5
1AC23
330
18
100
AcDbEntity
  8
01
  6
BYBLOCK
100
AcDbLine
 10
2238.188642278284
 20
-635.7743809216327
 30
0.0000000001127424
 11
2238.188642278284
 21
-646.2743809216327
 31
0.0000000001127424
  0
LINE
  5
1AC24
330
18
100
AcDbEntity
  8
01
  6
BYBLOCK
100
AcDbLine
 10
2228.688642278284
 20
-631.6957958199143
 30
0.0000000001127424
 11
2228.688642278284
 21
-635.7743809216329
 31
0.0000000001127424
  0
LINE
  5
1AC25
330
18
100
AcDbEntity
  8
01
  6
BYBLOCK
100
AcDbLine
 10
2227.188642278284
 20
-635.7743809216329
 30
0.0000000001127424
 11
2227.188642278284
 21
-646.2743809216327
 31
0.0000000001127424
  0
LINE
  5
1AC26
330
18
100
AcDbEntity
  8
01
  6
BYBLOCK
100
AcDbLine
 10
2228.688642278284
 20
-646.2743809216327
 30
0.0000000001127424
 11
2228.688642278284
 21
-650.352966023351
 31
0.0000000001127424
  0
LINE
  5
1AC27
330
18
100
AcDbEntity
  8
01
  6
BYBLOCK
100
AcDbLine
 10
2227.188642278284
 20
-635.7743809216327
 30
0.0000000001127424
 11
2238.188642278284
 21
-635.7743809216327
 31
0.0000000001127424
  0
LINE
  5
1AC28
330
18
100
AcDbEntity
  8
01
  6
BYBLOCK
100
AcDbLine
 10
2227.188642278284
 20
-646.2743809216327
 30
0.0000000001127424
 11
2238.188642278284
 21
-646.2743809216327
 31
0.0000000001127424
  0
LINE
  5
1AC2A
330
18
100
AcDbEntity
  8
01
100
AcDbLine
 10
2212.688758618026
 20
-543.0243809216324
 30
0.0000000001127424
 11
2212.688758618026
 21
-733.0243809216327
 31
0.0000000001127424
  0
LINE
  5
1AC2B
330
18
100
AcDbEntity
  8
01
100
AcDbLine
 10
2346.688525938826
 20
-699.0243809213434
 30
0.0000000001127424
 11
2360.688525938826
 21
-699.0243809213434
 31
0.0000000001127424
  0
LINE
  5
1AC2C
330
18
100
AcDbEntity
  8
01
100
AcDbLine
 10
2414.00041420608
 20
-613.0243809216322
 30
0.0000000001127424
 11
2391.376637670996
 21
-613.0243809216322
 31
0.0000000001127424
  0
LINE
  5
1AC2D
330
18
100
AcDbEntity
  8
01
100
AcDbLine
 10
2402.688525938539
 20
-601.7124926540905
 30
0.0000000001127424
 11
2402.688525938539
 21
-624.3362691891739
 31
0.0000000001127424
  0
LINE
  5
1AC2E
330
18
100
AcDbEntity
  8
01
  6
BYBLOCK
100
AcDbLine
 10
2124.68875861803
 20
-631.9927106546161
 30
0.0000000001127424
 11
2124.68875861803
 21
-650.056051188622
 31
0.0000000001127424
  0
LINE
  5
1AC2F
330
18
100
AcDbEntity
  8
01
  6
BYBLOCK
100
AcDbLine
 10
2120.395865399217
 20
-631.024380921619
 30
0.0000000001127424
 11
2113.68875861803
 21
-631.024380921619
 31
0.0000000001127424
  0
LINE
  5
1AC30
330
18
100
AcDbEntity
  8
01
  6
BYBLOCK
100
AcDbLine
 10
2120.395865399217
 20
-651.024380921619
 30
0.0000000001127424
 11
2113.68875861803
 21
-651.024380921619
 31
0.0000000001127424
  0
ARC
  5
1AC31
330
18
100
AcDbEntity
  8
01
  6
BYBLOCK
100
AcDbCircle
 10
2120.395865399217
 20
-641.024380921619
 30
0.0000000001127424
 40
10.00000000000009
100
AcDbArc
 50
64.57753282188216
 51
90.0
  0
LINE
  5
1AC32
330
18
100
AcDbEntity
  8
01
  6
CONTINUOUS
100
AcDbLine
 10
2124.18875861803
 20
-649.3391751144497
 30
0.0000000001127424
 11
2113.68875861803
 21
-649.3391751144497
 31
0.0000000001127424
  0
ARC
  5
1AC33
330
18
100
AcDbEntity
  8
01
  6
CONTINUOUS
100
AcDbCircle
 10
2124.227338864944
 20
-648.877035883643
 30
0.0000000001127424
 40
0.4637468103423796
100
AcDbArc
 50
265.2279066161926
 51
354.2577450626297
  0
LINE
  5
1AC34
330
18
100
AcDbEntity
  8
01
  6
CONTINUOUS
100
AcDbLine
 10
2124.68875861803
 20
-633.541066148071
 30
0.0000000001127424
 11
2124.68875861803
 21
-648.5076956951668
 31
0.0000000001127424
  0
ARC
  5
1AC35
330
18
100
AcDbEntity
  8
01
  6
CONTINUOUS
100
AcDbCircle
 10
2124.227338864944
 20
-633.1717259595946
 30
0.0000000001127424
 40
0.4637468103423387
100
AcDbArc
 50
5.742254937370304
 51
94.77209338380747
  0
ARC
  5
1AC36
330
18
100
AcDbEntity
  8
01
  6
BYBLOCK
100
AcDbCircle
 10
2120.395865399217
 20
-641.0243809216188
 30
0.0000000001127424
 40
10.00000000000009
100
AcDbArc
 50
270.0
 51
295.4224671781178
  0
LINE
  5
1AC37
330
18
100
AcDbEntity
  8
01
  6
CONTINUOUS
100
AcDbLine
 10
2113.68875861803
 20
-632.7095867287878
 30
0.0000000001127424
 11
2124.18875861803
 21
-632.7095867287878
 31
0.0000000001127424
  0
LINE
  5
1AC38
330
18
100
AcDbEntity
  8
01
100
AcDbLine
 10
2420.688525938539
 20
-647.9164359918941
 30
0.0000000001127424
 11
2420.688525938539
 21
-677.8243809216322
 31
0.0000000001127424
  0
LINE
  5
1AC3A
330
18
100
AcDbEntity
  8
01
100
AcDbLine
 10
2385.476611460481
 20
-679.0243809216322
 30
0.0000000001127424
 11
2419.688525938539
 21
-679.024380921632
 31
0.0000000001127424
  0
LINE
  5
1AC3D
330
18
100
AcDbEntity
  8
01
  6
BYBLOCK
100
AcDbLine
 10
2420.688525938539
 20
-616.2422619540539
 30
0.0000000001128561
 11
2420.688525938539
 21
-647.9164359918941
 31
0.0000000001127338
  0
LINE
  5
1AC3E
330
18
100
AcDbEntity
  8
01
  6
BYBLOCK
100
AcDbLine
 10
2354.388525938539
 20
-605.0243809216322
 30
0.0000000001127424
 11
2382.845422860556
 21
-605.0243809216322
 31
0.0000000001128561
  0
ARC
  5
1AC3F
330
18
100
AcDbEntity
  8
1HIDDEN
100
AcDbCircle
 10
2419.688525938539
 20
-606.0243809216322
 30
0.0000000001127424
 40
1.0
100
AcDbArc
 50
0.0
 51
90.0
  0
LINE
  5
1AC40
330
18
100
AcDbEntity
  8
1HIDDEN
100
AcDbLine
 10
2382.845422860556
 20
-605.0243809216322
 30
0.0000000001128561
 11
2419.688525938539
 21
-605.0243809216322
 31
0.0000000001127424
  0
LINE
  5
1AC41
330
18
100
AcDbEntity
  8
1HIDDEN
100
AcDbLine
 10
2420.688525938539
 20
-606.0243809216322
 30
0.0000000001127424
 11
2420.688525938539
 21
-616.2422619540539
 31
0.0000000001128561
  0
LINE
  5
1AC42
330
18
100
AcDbEntity
  8
01
100
AcDbLine
 10
2118.68875861803
 20
-585.0243809216322
 30
0.0000000001127424
 11
2104.68875861803
 21
-585.0243809216322
 31
0.0000000001127424
  0
LINE
  5
1AC43
330
18
100
AcDbEntity
  8
01
  6
BYBLOCK
100
AcDbLine
 10
2112.18875861803
 20
-577.1243809216321
 30
0.0000000001127424
 11
2112.18875861803
 21
-706.9243809216321
 31
0.0000000001127424
  0
LINE
  5
1AC44
330
18
100
AcDbEntity
  8
01
  6
BYBLOCK
100
AcDbLine
 10
2112.18875861803
 20
-706.0243809216322
 30
0.0000000001127424
 11
2109.68875861803
 21
-706.0243809216322
 31
0.0000000001127424
  0
LINE
  5
1AC45
330
18
100
AcDbEntity
  8
01
  6
BYBLOCK
100
AcDbLine
 10
2109.68875861803
 20
-706.0243809216322
 30
0.0000000001127424
 11
2109.68875861803
 21
-689.5214371964798
 31
0.0000000001127424
  0
LINE
  5
1AC46
330
18
100
AcDbEntity
  8
01
  6
BYBLOCK
100
AcDbLine
 10
2113.68875861803
 20
-577.1243809216321
 30
0.0000000001127424
 11
2113.68875861803
 21
-706.9243809216321
 31
0.0000000001127424
  0
LINE
  5
1AC47
330
18
100
AcDbEntity
  8
01
  6
BYBLOCK
100
AcDbLine
 10
2113.68875861803
 20
-706.9243809216321
 30
0.0000000001127424
 11
2112.18875861803
 21
-706.9243809216321
 31
0.0000000001127424
  0
LINE
  5
1AC48
330
18
100
AcDbEntity
  8
01
  6
BYBLOCK
100
AcDbLine
 10
2112.18875861803
 20
-578.0243809216322
 30
0.0000000001127424
 11
2109.68875861803
 21
-578.0243809216322
 31
0.0000000001127424
  0
LINE
  5
1AC49
330
18
100
AcDbEntity
  8
01
  6
BYBLOCK
100
AcDbLine
 10
2113.68875861803
 20
-577.1243809216321
 30
0.0000000001127424
 11
2112.18875861803
 21
-577.1243809216321
 31
0.0000000001127424
  0
LINE
  5
1AC4A
330
18
100
AcDbEntity
  8
01
  6
BYBLOCK
100
AcDbLine
 10
2112.18875861803
 20
-602.0243809216322
 30
0.0000000001127424
 11
2110.98875861803
 21
-602.0243809216322
 31
0.0000000001127424
  0
LINE
  5
1AC4B
330
18
100
AcDbEntity
  8
01
  6
BYBLOCK
100
AcDbLine
 10
2110.98875861803
 20
-596.3243809216319
 30
0.0000000001127424
 11
2110.98875861803
 21
-687.724380921632
 31
0.0000000001127424
  0
LINE
  5
1AC4C
330
18
100
AcDbEntity
  8
01
  6
BYBLOCK
100
AcDbLine
 10
2110.88875861803
 20
-706.0243809216322
 30
0.0000000001127424
 11
2110.88875861803
 21
-689.4243809216321
 31
0.0000000001127424
  0
LINE
  5
1AC4D
330
18
100
AcDbEntity
  8
01
  6
BYBLOCK
100
AcDbLine
 10
2110.88875861803
 20
-689.4243809216321
 30
0.0000000001127424
 11
2111.837286755454
 21
-688.4758527842082
 31
0.0000000001127424
  0
LINE
  5
1AC4E
330
18
100
AcDbEntity
  8
01
  6
BYBLOCK
100
AcDbLine
 10
2110.040230480607
 20
-688.6729090590559
 30
0.0000000001127424
 11
2110.98875861803
 21
-687.724380921632
 31
0.0000000001127424
  0
ARC
  5
1AC4F
330
18
100
AcDbEntity
  8
01
  6
BYBLOCK
100
AcDbCircle
 10
2110.88875861803
 20
-689.5214371964798
 30
0.0000000001127424
 40
1.2
100
AcDbArc
 50
134.9999999999616
 51
180.0
  0
ARC
  5
1AC50
330
18
100
AcDbEntity
  8
01
  6
BYBLOCK
100
AcDbCircle
 10
2110.98875861803
 20
-687.6273246467842
 30
0.0000000001127424
 40
1.2
100
AcDbArc
 50
314.9999999999769
 51
0.0
  0
LINE
  5
1AC51
330
18
100
AcDbEntity
  8
01
  6
BYBLOCK
100
AcDbLine
 10
2109.68875861803
 20
-578.0243809216322
 30
0.0000000001127424
 11
2109.68875861803
 21
-594.5273246467843
 31
0.0000000001127424
  0
LINE
  5
1AC52
330
18
100
AcDbEntity
  8
01
  6
BYBLOCK
100
AcDbLine
 10
2110.88875861803
 20
-578.0243809216322
 30
0.0000000001127424
 11
2110.88875861803
 21
-594.6243809216321
 31
0.0000000001127424
  0
LINE
  5
1AC53
330
18
100
AcDbEntity
  8
01
  6
BYBLOCK
100
AcDbLine
 10
2110.88875861803
 20
-594.6243809216321
 30
0.0000000001127424
 11
2111.837286755454
 21
-595.572909059056
 31
0.0000000001127424
  0
LINE
  5
1AC54
330
18
100
AcDbEntity
  8
01
  6
BYBLOCK
100
AcDbLine
 10
2110.040230480607
 20
-595.3758527842083
 30
0.0000000001127424
 11
2110.98875861803
 21
-596.3243809216322
 31
0.0000000001127424
  0
ARC
  5
1AC55
330
18
100
AcDbEntity
  8
01
  6
BYBLOCK
100
AcDbCircle
 10
2110.88875861803
 20
-594.5273246467843
 30
0.0000000001127424
 40
1.2
100
AcDbArc
 50
180.0
 51
225.0000000000384
  0
ARC
  5
1AC56
330
18
100
AcDbEntity
  8
01
  6
BYBLOCK
100
AcDbCircle
 10
2110.98875861803
 20
-596.4214371964799
 30
0.0000000001127424
 40
1.2
100
AcDbArc
 50
0.0
 51
45.00000000002303
  0
LINE
  5
1AC57
330
18
100
AcDbEntity
  8
01
  6
BYBLOCK
100
AcDbLine
 10
2110.98875861803
 20
-679.0243809216324
 30
0.0000000001127424
 11
2079.900448416596
 21
-679.0243809216322
 31
0.0000000001127424
  0
LINE
  5
1AC58
330
18
100
AcDbEntity
  8
01
  6
BYBLOCK
100
AcDbLine
 10
2120.395865399217
 20
-631.024380921619
 30
0.0000000001127424
 11
2113.68875861803
 21
-631.024380921619
 31
0.0000000001127424
  0
LINE
  5
1AC59
330
18
100
AcDbEntity
  8
01
  6
BYBLOCK
100
AcDbLine
 10
2120.395865399217
 20
-651.024380921619
 30
0.0000000001127424
 11
2113.68875861803
 21
-651.024380921619
 31
0.0000000001127424
  0
LINE
  5
1AC5A
330
18
100
AcDbEntity
  8
01
100
AcDbLine
 10
2118.688758617743
 20
-699.0243809213434
 30
0.0000000001127424
 11
2104.688758617743
 21
-699.0243809213434
 31
0.0000000001127424
  0
LINE
  5
1AC5B
330
18
100
AcDbEntity
  8
01
  6
BYBLOCK
100
AcDbLine
 10
2044.68875861803
 20
-616.2422619540539
 30
0.0000000001128561
 11
2044.68875861803
 21
-647.9161683069225
 31
0.000000000112766
  0
LINE
  5
1AC5C
330
18
100
AcDbEntity
  8
01
  6
BYBLOCK
100
AcDbLine
 10
2110.98875861803
 20
-605.0243809216322
 30
0.0000000001127424
 11
2082.531861696013
 21
-605.0243809216322
 31
0.0000000001128561
  0
TEXT
  5
1AC5F
330
18
100
AcDbEntity
  8
1TEXT
100
AcDbText
 10
2047.688770618032
 20
-378.0243809216322
 30
0.0000000001127424
 40
20.0
  1
3-M9C-X-LJ
100
AcDbText
  0
LINE
  5
1AC87
330
18
100
AcDbEntity
  8
01
  6
BYBLOCK
100
AcDbLine
 10
2351.689293780856
 20
-413.0256992347349
 30
0.0000000001127424
 11
2505.443673935887
 21
-413.0256992347349
 31
0.0000000001127424
  0
LINE
  5
1AC88
330
18
100
AcDbEntity
  8
01
100
AcDbLine
 10
2252.688525938539
 20
-543.0243809216322
 30
0.0000000001127424
 11
2252.688525938539
 21
-733.0243809216322
 31
0.0000000001127424
  0
LINE
  5
1AC89
330
18
100
AcDbEntity
  8
01
100
AcDbLine
 10
2372.688525938539
 20
-663.0243809216322
 30
0.0000000001127424
 11
2432.688525938539
 21
-663.0243809216322
 31
0.0000000001127424
  0
LINE
  5
1AC8A
330
18
100
AcDbEntity
  8
01
100
AcDbLine
 10
2402.688525938539
 20
-633.0243809216322
 30
0.0000000001127424
 11
2402.688525938539
 21
-693.0243809216322
 31
0.0000000001127424
  0
LINE
  5
1B039
330
18
100
AcDbEntity
  8
1CENTER
100
AcDbLine
 10
2092.688533938538
 20
-663.0243809216322
 30
0.0000000001127424
 11
2032.688533938538
 21
-663.0243809216322
 31
0.0000000001127424
  0
LINE
  5
1B03A
330
18
100
AcDbEntity
  8
1CENTER
100
AcDbLine
 10
2062.688533938538
 20
-633.0243809216322
 30
0.0000000001127424
 11
2062.688533938538
 21
-693.0243809216322
 31
0.0000000001127424
  0
LINE
  5
1B03D
330
18
100
AcDbEntity
  8
1CENTER
100
AcDbLine
 10
2402.688642278284
 20
-343.0243809226608
 30
0.0000000001127424
 11
2402.688642278284
 21
-378.0243809226606
 31
0.0000000001127424
  0
LINE
  5
1B03E
330
18
100
AcDbEntity
  8
1CENTER
100
AcDbLine
 10
2182.688529938539
 20
-663.0243809216322
 30
0.0000000001127424
 11
2217.688529938539
 21
-663.0243809216322
 31
0.0000000001127424
  0
LINE
  5
1B03F
330
18
100
AcDbEntity
  8
1CENTER
100
AcDbLine
 10
2247.688529938539
 20
-663.0243809216322
 30
0.0000000001127424
 11
2282.688529938539
 21
-663.0243809216322
 31
0.0000000001127424
  0
LINE
  5
1B040
330
18
100
AcDbEntity
  8
1CENTER
100
AcDbLine
 10
2372.407294905057
 20
-427.5243809226586
 30
0.0000000001127424
 11
2399.673395278282
 21
-427.5244119226595
 31
0.0000000001127424
  0
LINE
  5
1B042
330
18
100
AcDbEntity
  8
1CENTER
100
AcDbLine
 10
2182.688529938539
 20
-663.0243809216322
 30
0.0000000001127424
 11
2217.688529938539
 21
-663.0243809216322
 31
0.0000000001127424
  0
LINE
  5
1B045
330
18
100
AcDbEntity
  8
1CENTER
100
AcDbLine
 10
2372.407294905057
 20
-358.5243809226631
 30
0.0000000001127424
 11
2399.673395278282
 21
-358.5243499226622
 31
0.0000000001127424
  0
ARC
  5
1B046
330
18
100
AcDbEntity
  8
01
100
AcDbCircle
 10
2376.688642278277
 20
-419.5243809226699
 30
0.0000000001127424
 40
0.5
100
AcDbArc
 50
90.0
 51
180.0
  0
ARC
  5
1B047
330
18
100
AcDbEntity
  8
01
100
AcDbCircle
 10
2376.688642278277
 20
-419.5243809226699
 30
0.0000000001127424
 40
0.5
100
AcDbArc
 50
90.0
 51
180.0
  0
ARC
  5
1B048
330
18
100
AcDbEntity
  8
01
100
AcDbCircle
 10
2378.188642278266
 20
-470.0243809226663
 30
0.0000000001127424
 40
2.0
100
AcDbArc
 50
180.0
 51
270.0
  0
LINE
  5
1B049
330
18
100
AcDbEntity
  8
01
100
AcDbLine
 10
2376.188642278277
 20
-419.5243809226698
 30
0.0000000001127424
 11
2376.188642278266
 21
-470.0243809226663
 31
0.0000000001127424
  0
LINE
  5
1B04A
330
18
100
AcDbEntity
  8
01
100
AcDbLine
 10
2412.488642278274
 20
-450.024380922659
 30
0.0000000001127424
 11
2412.488642278274
 21
-448.024380922659
 31
0.0000000001127424
  0
ARC
  5
1B04B
330
18
100
AcDbEntity
  8
01
100
AcDbCircle
 10
2417.488642278274
 20
-450.024380922659
 30
0.0000000001127424
 40
5.0
100
AcDbArc
 50
180.0
 51
270.0
  0
LINE
  5
1B04C
330
18
100
AcDbEntity
  8
01
100
AcDbLine
 10
2417.488642278277
 20
-455.024380922659
 30
0.0000000001127424
 11
2431.688642278287
 21
-455.024380922659
 31
0.0000000001127424
  0
LINE
  5
1B04D
330
18
100
AcDbEntity
  8
01
100
AcDbLine
 10
2378.188642278266
 20
-472.0243809226663
 30
0.0000000001127424
 11
2431.688642278302
 21
-472.0243809226665
 31
0.0000000001127424
  0
LINE
  5
1B04E
330
18
100
AcDbEntity
  8
01
100
AcDbLine
 10
2379.188642278284
 20
-413.024380922659
 30
0.0000000001127424
 11
2379.188642278284
 21
-418.5243809226627
 31
0.0000000001127424
  0
LINE
  5
1B04F
330
18
100
AcDbEntity
  8
01
100
AcDbLine
 10
2426.188642278284
 20
-418.5243809226627
 30
0.0000000001127424
 11
2422.688641889722
 21
-418.5243809226627
 31
0.0000000001127424
  0
LINE
  5
1B050
330
18
100
AcDbEntity
  8
01
100
AcDbLine
 10
2379.188642278284
 20
-413.024380922659
 30
0.0000000001127424
 11
2426.188642278284
 21
-413.0243809226627
 31
0.0000000001127424
  0
LINE
  5
1B051
330
18
100
AcDbEntity
  8
01
100
AcDbLine
 10
2426.188642278284
 20
-418.5243809226627
 30
0.0000000001127424
 11
2426.188642278284
 21
-413.0243809226627
 31
0.0000000001127424
  0
LINE
  5
1B052
330
18
100
AcDbEntity
  8
01
100
AcDbLine
 10
2376.688642278277
 20
-419.0243809226707
 30
0.0000000001127424
 11
2382.73038432023
 21
-419.0243809226689
 31
0.0000000001127424
  0
LINE
  5
1B053
330
18
100
AcDbEntity
  8
01
100
AcDbLine
 10
2380.388642278286
 20
-448.024380922659
 30
0.0000000001127424
 11
2425.188642278285
 21
-448.024380922659
 31
0.0000000001127424
  0
LINE
  5
1B054
330
18
100
AcDbEntity
  8
01
100
AcDbLine
 10
2426.188642278285
 20
-447.024380922659
 30
0.0000000001127424
 11
2426.188642278281
 21
-419.0243809226554
 31
0.0000000001127424
  0
ARC
  5
1B055
330
18
100
AcDbEntity
  8
01
100
AcDbCircle
 10
2425.188642278285
 20
-447.024380922659
 30
0.0000000001127424
 40
1.0
100
AcDbArc
 50
270.0
 51
0.0
  0
ARC
  5
1B056
330
18
100
AcDbEntity
  8
01
100
AcDbCircle
 10
2380.388642278286
 20
-447.024380922659
 30
0.0000000001127424
 40
1.0
100
AcDbArc
 50
180.0
 51
270.0
  0
LINE
  5
1B057
330
18
100
AcDbEntity
  8
01
100
AcDbLine
 10
2379.388642278287
 20
-447.0243809226588
 30
0.0000000001127424
 11
2379.388642278294
 21
-419.0243809226604
 31
0.0000000001127424
  0
ARC
  5
1B058
330
18
100
AcDbEntity
  8
01
100
AcDbCircle
 10
2376.688642278277
 20
-366.5243809226517
 30
0.0000000001127424
 40
0.5
100
AcDbArc
 50
180.0
 51
270.0
  0
ARC
  5
1B059
330
18
100
AcDbEntity
  8
01
100
AcDbCircle
 10
2376.688642278277
 20
-366.5243809226517
 30
0.0000000001127424
 40
0.5
100
AcDbArc
 50
180.0
 51
270.0
  0
ARC
  5
1B05A
330
18
100
AcDbEntity
  8
01
100
AcDbCircle
 10
2378.188642278266
 20
-316.0243809226554
 30
0.0000000001127424
 40
2.0
100
AcDbArc
 50
90.0
 51
180.0
  0
LINE
  5
1B05B
330
18
100
AcDbEntity
  8
01
100
AcDbLine
 10
2376.188642278277
 20
-366.5243809226519
 30
0.0000000001127424
 11
2376.188642278266
 21
-316.0243809226554
 31
0.0000000001127424
  0
LINE
  5
1B05C
330
18
100
AcDbEntity
  8
01
100
AcDbLine
 10
2412.488642278274
 20
-336.0243809226627
 30
0.0000000001127424
 11
2412.488642278274
 21
-338.0243809226627
 31
0.0000000001127424
  0
ARC
  5
1B05D
330
18
100
AcDbEntity
  8
01
100
AcDbCircle
 10
2417.488642278274
 20
-336.0243809226627
 30
0.0000000001127424
 40
5.0
100
AcDbArc
 50
90.0
 51
180.0
  0
LINE
  5
1B05E
330
18
100
AcDbEntity
  8
01
100
AcDbLine
 10
2417.488642278277
 20
-331.0243809226627
 30
0.0000000001127424
 11
2432.488642278281
 21
-331.0243809226627
 31
0.0000000001127424
  0
LINE
  5
1B05F
330
18
100
AcDbEntity
  8
01
100
AcDbLine
 10
2378.188642278266
 20
-314.0243809226554
 30
0.0000000001127424
 11
2431.688642278302
 21
-314.0243809226623
 31
0.0000000001127424
  0
LINE
  5
1B060
330
18
100
AcDbEntity
  8
01
100
AcDbLine
 10
2379.188642278284
 20
-373.0243809226627
 30
0.0000000001127424
 11
2379.188642278284
 21
-367.524380922659
 31
0.0000000001127424
  0
LINE
  5
1B061
330
18
100
AcDbEntity
  8
01
100
AcDbLine
 10
2426.188642278284
 20
-367.524380922659
 30
0.0000000001127424
 11
2422.688642021928
 21
-367.5243809226591
 31
0.0000000001127424
  0
LINE
  5
1B062
330
18
100
AcDbEntity
  8
01
100
AcDbLine
 10
2379.188642278284
 20
-373.0243809226627
 30
0.0000000001127424
 11
2426.188642278284
 21
-373.024380922659
 31
0.0000000001127424
  0
LINE
  5
1B063
330
18
100
AcDbEntity
  8
01
100
AcDbLine
 10
2426.188642278284
 20
-367.524380922659
 30
0.0000000001127424
 11
2426.188642278284
 21
-373.024380922659
 31
0.0000000001127424
  0
LINE
  5
1B064
330
18
100
AcDbEntity
  8
01
100
AcDbLine
 10
2376.688642278277
 20
-367.0243809226509
 30
0.0000000001127424
 11
2382.730384452436
 21
-367.0243809226528
 31
0.0000000001127424
  0
LINE
  5
1B065
330
18
100
AcDbEntity
  8
01
100
AcDbLine
 10
2380.388642278286
 20
-338.0243809226627
 30
0.0000000001127424
 11
2425.188642278285
 21
-338.0243809226627
 31
0.0000000001127424
  0
LINE
  5
1B066
330
18
100
AcDbEntity
  8
01
100
AcDbLine
 10
2426.188642278285
 20
-339.0243809226627
 30
0.0000000001127424
 11
2426.188642278281
 21
-367.0243809226663
 31
0.0000000001127424
  0
ARC
  5
1B067
330
18
100
AcDbEntity
  8
01
100
AcDbCircle
 10
2425.188642278285
 20
-339.0243809226627
 30
0.0000000001127424
 40
1.0
100
AcDbArc
 50
0.0
 51
90.0
  0
ARC
  5
1B068
330
18
100
AcDbEntity
  8
01
100
AcDbCircle
 10
2380.388642278286
 20
-339.0243809226627
 30
0.0000000001127424
 40
1.0
100
AcDbArc
 50
90.0
 51
180.0
  0
LINE
  5
1B069
330
18
100
AcDbEntity
  8
01
100
AcDbLine
 10
2379.388642278287
 20
-339.0243809226629
 30
0.0000000001127424
 11
2379.388642278294
 21
-367.0243809226613
 31
0.0000000001127424
  0
LINE
  5
1B06A
330
18
100
AcDbEntity
  8
01
100
AcDbLine
 10
2376.188525938532
 20
-666.0243792247625
 30
0.0000000001127424
 11
2376.188525938543
 21
-660.0243792020069
 31
0.0000000001127424
  0
ARC
  5
1B06B
330
18
100
AcDbEntity
  8
01
100
AcDbCircle
 10
2402.688525938539
 20
-663.0243809216322
 30
0.0000000001127424
 40
23.5
100
AcDbArc
 50
189.800185878519
 51
350.199810054866
  0
ARC
  5
1B06C
330
18
100
AcDbEntity
  8
01
100
AcDbCircle
 10
2402.688525938539
 20
-663.0243809216322
 30
0.0000000001127424
 40
23.5
100
AcDbArc
 50
9.800189945107237
 51
170.1998058001676
  0
LINE
  5
1B06D
330
18
100
AcDbEntity
  8
01
100
AcDbLine
 10
2377.188525938535
 20
-667.0243809216322
 30
0.0000000001127424
 11
2430.779485802361
 21
-667.0243809216408
 31
0.0000000001127424
  0
LINE
  5
1B06E
330
18
100
AcDbEntity
  8
01
100
AcDbLine
 10
2432.279485802361
 20
-667.0243809216411
 30
0.0000000001127424
 11
2527.688525938529
 21
-667.0243809216566
 31
0.0000000001127424
  0
ARC
  5
1B06F
330
18
100
AcDbEntity
  8
01
100
AcDbCircle
 10
2377.188525938524
 20
-660.0243809216358
 30
0.0000000001127424
 40
1.0
100
AcDbArc
 50
90.0
 51
180.0
  0
ARC
  5
1B070
330
18
100
AcDbEntity
  8
01
100
AcDbCircle
 10
2377.188525938535
 20
-666.0243809216322
 30
0.0000000001127424
 40
1.0
100
AcDbArc
 50
180.0
 51
270.0
  0
LINE
  5
1B071
330
18
100
AcDbEntity
  8
01
100
AcDbLine
 10
2377.188525938524
 20
-659.0243809216358
 30
0.0000000001127424
 11
2430.779485802361
 21
-659.0243809216358
 31
0.0000000001127424
  0
LINE
  5
1B072
330
18
100
AcDbEntity
  8
01
100
AcDbLine
 10
2432.279485802361
 20
-659.0243809216358
 30
0.0000000001127424
 11
2527.688525938529
 21
-659.0243809216358
 31
0.0000000001127424
  0
LINE
  5
1B073
330
18
100
AcDbEntity
  8
01
100
AcDbLine
 10
2528.688525938529
 20
-660.0243809216322
 30
0.0000000001127424
 11
2528.688525938529
 21
-666.0243809216322
 31
0.0000000001127424
  0
LINE
  5
1B074
330
18
100
AcDbEntity
  8
01
100
AcDbLine
 10
2287.688529938544
 20
-667.0243809216249
 30
0.0000000001127424
 11
2287.688529938543
 21
-685.5243809216322
 31
0.0000000001127424
  0
ARC
  5
1B075
330
18
100
AcDbEntity
  8
01
100
AcDbCircle
 10
2286.688529938543
 20
-685.5243809216322
 30
0.0000000001127424
 40
1.0
100
AcDbArc
 50
270.0
 51
0.0
  0
ARC
  5
1B076
330
18
100
AcDbEntity
  8
01
100
AcDbCircle
 10
2286.688529938543
 20
-640.5243809216322
 30
0.0000000001127424
 40
1.0
100
AcDbArc
 50
0.0
 51
90.0
  0
LINE
  5
1B077
330
18
100
AcDbEntity
  8
01
100
AcDbLine
 10
2258.688529938543
 20
-639.5243809216322
 30
0.0000000001127424
 11
2286.688529938543
 21
-639.5243809216322
 31
0.0000000001127424
  0
LINE
  5
1B078
330
18
100
AcDbEntity
  8
01
100
AcDbLine
 10
2258.688529938543
 20
-686.5243809216322
 30
0.0000000001127424
 11
2286.688529938543
 21
-686.5243809216322
 31
0.0000000001127424
  0
LINE
  5
1B079
330
18
100
AcDbEntity
  8
01
100
AcDbLine
 10
2258.188529938542
 20
-639.5243809216322
 30
0.0000000001127424
 11
2258.188529938542
 21
-686.5243809216322
 31
0.0000000001127424
  0
LINE
  5
1B07A
330
18
100
AcDbEntity
  8
01
100
AcDbLine
 10
2287.688529938543
 20
-640.5243809216322
 30
0.0000000001127424
 11
2287.688529938544
 21
-659.0243809216322
 31
0.0000000001127424
  0
LINE
  5
1B07B
330
18
100
AcDbEntity
  8
01
100
AcDbLine
 10
2252.688529938539
 20
-639.5243809216322
 30
0.0000000001127424
 11
2258.188529938542
 21
-639.5243809216322
 31
0.0000000001127424
  0
LINE
  5
1B07C
330
18
100
AcDbEntity
  8
01
100
AcDbLine
 10
2252.688529938539
 20
-686.5243809216322
 30
0.0000000001127424
 11
2258.188529938542
 21
-686.5243809216322
 31
0.0000000001127424
  0
LINE
  5
1B07D
330
18
100
AcDbEntity
  8
01
100
AcDbLine
 10
2258.688529938543
 20
-686.5243809216322
 30
0.0000000001127424
 11
2258.688529938543
 21
-639.5243809216322
 31
0.0000000001127424
  0
LINE
  5
1B07E
330
18
100
AcDbEntity
  8
01
100
AcDbLine
 10
2258.688529938543
 20
-659.0243809216322
 30
0.0000000001127424
 11
2310.688529938543
 21
-659.0243809216322
 31
0.0000000001127424
  0
LINE
  5
1B07F
330
18
100
AcDbEntity
  8
01
100
AcDbLine
 10
2258.688529938539
 20
-667.0243809216249
 30
0.0000000001127424
 11
2310.688529938536
 21
-667.0243809216249
 31
0.0000000001127424
  0
ARC
  5
1B080
330
18
100
AcDbEntity
  8
01
100
AcDbCircle
 10
2310.688529938536
 20
-666.0243809216213
 30
0.0000000001127424
 40
1.0
100
AcDbArc
 50
270.0
 51
0.0
  0
ARC
  5
1B081
330
18
100
AcDbEntity
  8
01
100
AcDbCircle
 10
2310.688529938543
 20
-660.0243809216322
 30
0.0000000001127424
 40
1.0
100
AcDbArc
 50
0.0
 51
90.0
  0
LINE
  5
1B082
330
18
100
AcDbEntity
  8
01
100
AcDbLine
 10
2311.688529938543
 20
-660.0243809216322
 30
0.0000000001127424
 11
2311.688529938543
 21
-666.0243809216213
 31
0.0000000001127424
  0
LINE
  5
1B083
330
18
100
AcDbEntity
  8
01
100
AcDbLine
 10
2252.688529938539
 20
-686.5243809216322
 30
0.0000000001127424
 11
2252.688529938539
 21
-639.5243809216322
 31
0.0000000001127424
  0
LINE
  5
1B084
330
18
100
AcDbEntity
  8
1CENTER
100
AcDbLine
 10
2092.688533938537
 20
-663.0243809216322
 30
0.0000000001127424
 11
2032.688533938537
 21
-663.0243809216322
 31
0.0000000001127424
  0
LINE
  5
1B085
330
18
100
AcDbEntity
  8
1CENTER
100
AcDbLine
 10
2062.688533938537
 20
-633.0243809216322
 30
0.0000000001127424
 11
2062.688533938537
 21
-693.0243809216322
 31
0.0000000001127424
  0
LINE
  5
1B086
330
18
100
AcDbEntity
  8
1CENTER
100
AcDbLine
 10
2217.688529938538
 20
-663.0243809216322
 30
0.0000000001127424
 11
2182.688529938538
 21
-663.0243809216322
 31
0.0000000001127424
  0
LINE
  5
1B087
330
18
100
AcDbEntity
  8
1CENTER
100
AcDbLine
 10
2092.688533938537
 20
-663.0243809216322
 30
0.0000000001127424
 11
2032.688533938537
 21
-663.0243809216322
 31
0.0000000001127424
  0
LINE
  5
1B088
330
18
100
AcDbEntity
  8
01
100
AcDbLine
 10
2089.188533938544
 20
-666.0243792247625
 30
0.0000000001127424
 11
2089.188533938534
 21
-660.0243792020069
 31
0.0000000001127424
  0
ARC
  5
1B089
330
18
100
AcDbEntity
  8
01
100
AcDbCircle
 10
2062.688533938537
 20
-663.0243809216322
 30
0.0000000001127424
 40
23.5
100
AcDbArc
 50
189.800189945134
 51
350.199814121481
  0
ARC
  5
1B08A
330
18
100
AcDbEntity
  8
01
100
AcDbCircle
 10
2062.688533938537
 20
-663.0243809216322
 30
0.0000000001127424
 40
23.5
100
AcDbArc
 50
9.800194199832461
 51
170.1998100548928
  0
LINE
  5
1B08B
330
18
100
AcDbEntity
  8
01
100
AcDbLine
 10
2088.188533938541
 20
-667.0243809216322
 30
0.0000000001127424
 11
2034.597574074716
 21
-667.0243809216408
 31
0.0000000001127424
  0
LINE
  5
1B08C
330
18
100
AcDbEntity
  8
01
100
AcDbLine
 10
2033.097574074716
 20
-667.0243809216411
 30
0.0000000001127424
 11
1936.888533938546
 21
-667.0243809216568
 31
0.0000000001127424
  0
ARC
  5
1B08D
330
18
100
AcDbEntity
  8
01
100
AcDbCircle
 10
2088.188533938552
 20
-660.0243809216358
 30
0.0000000001127424
 40
1.0
100
AcDbArc
 50
0.0
 51
90.0
  0
ARC
  5
1B08E
330
18
100
AcDbEntity
  8
01
100
AcDbCircle
 10
2088.188533938541
 20
-666.0243809216322
 30
0.0000000001127424
 40
1.0
100
AcDbArc
 50
270.0
 51
0.0
  0
LINE
  5
1B08F
330
18
100
AcDbEntity
  8
01
100
AcDbLine
 10
2088.188533938552
 20
-659.0243809216358
 30
0.0000000001127424
 11
2034.597574074716
 21
-659.0243809216358
 31
0.0000000001127424
  0
LINE
  5
1B090
330
18
100
AcDbEntity
  8
01
100
AcDbLine
 10
2033.097574074716
 20
-659.0243809216358
 30
0.0000000001127424
 11
1936.888533938546
 21
-659.0243809216358
 31
0.0000000001127424
  0
LINE
  5
1B091
330
18
100
AcDbEntity
  8
01
100
AcDbLine
 10
2177.688529938532
 20
-667.0243809216249
 30
0.0000000001127424
 11
2177.688529938533
 21
-685.5243809216322
 31
0.0000000001127424
  0
ARC
  5
1B092
330
18
100
AcDbEntity
  8
01
100
AcDbCircle
 10
2178.688529938533
 20
-685.5243809216322
 30
0.0000000001127424
 40
1.0
100
AcDbArc
 50
180.0
 51
270.0
  0
ARC
  5
1B093
330
18
100
AcDbEntity
  8
01
100
AcDbCircle
 10
2178.688529938533
 20
-640.5243809216322
 30
0.0000000001127424
 40
1.0
100
AcDbArc
 50
90.0
 51
180.0
  0
LINE
  5
1B094
330
18
100
AcDbEntity
  8
01
100
AcDbLine
 10
2206.688529938533
 20
-639.5243809216322
 30
0.0000000001127424
 11
2178.688529938533
 21
-639.5243809216322
 31
0.0000000001127424
  0
LINE
  5
1B095
330
18
100
AcDbEntity
  8
01
100
AcDbLine
 10
2206.688529938533
 20
-686.5243809216322
 30
0.0000000001127424
 11
2178.688529938533
 21
-686.5243809216322
 31
0.0000000001127424
  0
LINE
  5
1B096
330
18
100
AcDbEntity
  8
01
100
AcDbLine
 10
2207.188529938534
 20
-639.5243809216322
 30
0.0000000001127424
 11
2207.188529938534
 21
-686.5243809216322
 31
0.0000000001127424
  0
LINE
  5
1B097
330
18
100
AcDbEntity
  8
01
100
AcDbLine
 10
2177.688529938533
 20
-640.5243809216322
 30
0.0000000001127424
 11
2177.688529938532
 21
-659.0243809216322
 31
0.0000000001127424
  0
LINE
  5
1B098
330
18
100
AcDbEntity
  8
01
100
AcDbLine
 10
2212.688529938538
 20
-639.5243809216322
 30
0.0000000001127424
 11
2207.188529938534
 21
-639.5243809216322
 31
0.0000000001127424
  0
LINE
  5
1B099
330
18
100
AcDbEntity
  8
01
100
AcDbLine
 10
2212.688529938538
 20
-686.5243809216322
 30
0.0000000001127424
 11
2207.188529938534
 21
-686.5243809216322
 31
0.0000000001127424
  0
LINE
  5
1B09A
330
18
100
AcDbEntity
  8
01
100
AcDbLine
 10
2206.688529938533
 20
-686.5243809216322
 30
0.0000000001127424
 11
2206.688529938533
 21
-639.5243809216322
 31
0.0000000001127424
  0
LINE
  5
1B09B
330
18
100
AcDbEntity
  8
01
100
AcDbLine
 10
2206.688529938533
 20
-659.0243809216322
 30
0.0000000001127424
 11
2154.688529938533
 21
-659.0243809216322
 31
0.0000000001127424
  0
LINE
  5
1B09C
330
18
100
AcDbEntity
  8
01
100
AcDbLine
 10
2206.688529938537
 20
-667.0243809216249
 30
0.0000000001127424
 11
2154.68852993854
 21
-667.0243809216249
 31
0.0000000001127424
  0
ARC
  5
1B09D
330
18
100
AcDbEntity
  8
01
100
AcDbCircle
 10
2154.68852993854
 20
-666.0243809216213
 30
0.0000000001127424
 40
1.0
100
AcDbArc
 50
180.0
 51
270.0
  0
ARC
  5
1B09E
330
18
100
AcDbEntity
  8
01
100
AcDbCircle
 10
2154.688529938533
 20
-660.0243809216322
 30
0.0000000001127424
 40
1.0
100
AcDbArc
 50
90.0
 51
180.0
  0
LINE
  5
1B09F
330
18
100
AcDbEntity
  8
01
100
AcDbLine
 10
2153.688529938533
 20
-660.0243809216322
 30
0.0000000001127424
 11
2153.688529938533
 21
-666.0243809216213
 31
0.0000000001127424
  0
LINE
  5
1B0A0
330
18
100
AcDbEntity
  8
01
100
AcDbLine
 10
2212.688529938538
 20
-686.5243809216322
 30
0.0000000001127424
 11
2212.688529938538
 21
-639.5243809216322
 31
0.0000000001127424
  0
POINT
  5
1B0A5
330
18
100
AcDbEntity
  8
01
100
AcDbPoint
 10
2198.188529938538
 20
-679.6414256348552
 30
0.0000000001127424
 50
180.0
  0
LINE
  5
1B0A6
330
18
100
AcDbEntity
  8
01
100
AcDbLine
 10
2198.188529938538
 20
-680.3914256348552
 30
0.0000000001127424
 11
2199.487568044215
 21
-680.0164256348552
 31
0.0000000001127424
  0
LINE
  5
1B0A7
330
18
100
AcDbEntity
  8
01
100
AcDbLine
 10
2196.889491832861
 20
-680.0164256348552
 30
0.0000000001127424
 11
2198.188529938538
 21
-680.3914256348552
 31
0.0000000001127424
  0
LINE
  5
1B0A8
330
18
100
AcDbEntity
  8
01
100
AcDbLine
 10
2196.889491832861
 20
-679.2664256348552
 30
0.0000000001127424
 11
2196.889491832861
 21
-680.0164256348552
 31
0.0000000001127424
  0
LINE
  5
1B0A9
330
18
100
AcDbEntity
  8
01
100
AcDbLine
 10
2198.188529938538
 20
-678.8914256348552
 30
0.0000000001127424
 11
2196.889491832861
 21
-679.2664256348552
 31
0.0000000001127424
  0
LINE
  5
1B0AA
330
18
100
AcDbEntity
  8
01
100
AcDbLine
 10
2199.487568044215
 20
-679.2664256348552
 30
0.0000000001127424
 11
2198.188529938538
 21
-678.8914256348552
 31
0.0000000001127424
  0
POINT
  5
1B0AB
330
18
100
AcDbEntity
  8
01
100
AcDbPoint
 10
2267.188529938539
 20
-679.6414256348552
 30
0.0000000001127424
  0
LINE
  5
1B0AC
330
18
100
AcDbEntity
  8
01
100
AcDbLine
 10
2266.788529928539
 20
-680.8664256348552
 30
0.0000000001127424
 11
2266.788529928539
 21
-680.2714256208551
 31
0.0000000001127424
  0
LINE
  5
1B0AD
330
18
100
AcDbEntity
  8
01
100
AcDbLine
 10
2267.588529948538
 20
-680.8664256348552
 30
0.0000000001127424
 11
2267.588529948538
 21
-680.2714256208551
 31
0.0000000001127424
  0
LINE
  5
1B0AE
330
18
100
AcDbEntity
  8
01
100
AcDbLine
 10
2266.288529958539
 20
-679.9214256418552
 30
0.0000000001127424
 11
2265.438529938539
 21
-679.9214256418552
 31
0.0000000001127424
  0
LINE
  5
1B0AF
330
18
100
AcDbEntity
  8
01
100
AcDbLine
 10
2266.288529958539
 20
-679.3614256278552
 30
0.0000000001127424
 11
2265.438529938539
 21
-679.3614256278552
 31
0.0000000001127424
  0
LINE
  5
1B0B0
330
18
100
AcDbEntity
  8
01
100
AcDbLine
 10
2265.438529938539
 20
-679.9214256418552
 30
0.0000000001127424
 11
2265.438529938539
 21
-679.3614256278552
 31
0.0000000001127424
  0
LINE
  5
1B0B1
330
18
100
AcDbEntity
  8
01
100
AcDbLine
 10
2267.588529948538
 20
-680.8664256348552
 30
0.0000000001127424
 11
2266.788529928539
 21
-680.8664256348552
 31
0.0000000001127424
  0
LINE
  5
1B0B2
330
18
100
AcDbEntity
  8
01
100
AcDbLine
 10
2267.588529948538
 20
-678.4164256348552
 30
0.0000000001127424
 11
2267.588529948538
 21
-679.0114256488553
 31
0.0000000001127424
  0
LINE
  5
1B0B3
330
18
100
AcDbEntity
  8
01
100
AcDbLine
 10
2266.788529928539
 20
-678.4164256348552
 30
0.0000000001127424
 11
2266.788529928539
 21
-679.0114256488553
 31
0.0000000001127424
  0
LINE
  5
1B0B4
330
18
100
AcDbEntity
  8
01
100
AcDbLine
 10
2268.088529918538
 20
-679.3614256278552
 30
0.0000000001127424
 11
2268.938529938539
 21
-679.3614256278552
 31
0.0000000001127424
  0
LINE
  5
1B0B5
330
18
100
AcDbEntity
  8
01
100
AcDbLine
 10
2268.088529918538
 20
-679.9214256418552
 30
0.0000000001127424
 11
2268.938529938539
 21
-679.9214256418552
 31
0.0000000001127424
  0
LINE
  5
1B0B6
330
18
100
AcDbEntity
  8
01
100
AcDbLine
 10
2268.938529938539
 20
-679.3614256278552
 30
0.0000000001127424
 11
2268.938529938539
 21
-679.9214256418552
 31
0.0000000001127424
  0
LINE
  5
1B0B7
330
18
100
AcDbEntity
  8
01
100
AcDbLine
 10
2266.788529928539
 20
-678.4164256348552
 30
0.0000000001127424
 11
2267.588529948538
 21
-678.4164256348552
 31
0.0000000001127424
  0
ELLIPSE
  5
1B0B8
330
18
100
AcDbEntity
  8
01
100
AcDbEllipse
 10
2268.088529918538
 20
-679.0114256488553
 30
0.0000000001127424
 11
-0.5000000000000077
 21
7.136042516446670E-15
 31
0.0
210
0.0
220
0.0
230
1.0
 40
0.7000000000000347
 41
-0.0000001745329874
 42
1.570796326794906
  0
ELLIPSE
  5
1B0B9
330
18
100
AcDbEntity
  8
01
100
AcDbEllipse
 10
2268.088529918538
 20
-680.2714256208551
 30
0.0000000001127424
 11
0.5000000000000077
 21
2.568252007546482E-13
 31
0.0
210
0.0
220
0.0
230
1.0
 40
0.7000000000000356
 41
1.570796379154147
 42
3.141592828122067
  0
ELLIPSE
  5
1B0BA
330
18
100
AcDbEntity
  8
01
100
AcDbEllipse
 10
2266.288529958539
 20
-680.2714256208551
 30
0.0000000001127424
 11
0.5
 21
3.758411089944611E-13
 31
0.0
210
0.0
220
0.0
230
1.0
 40
0.7000000000000465
 41
-0.0000000000010738
 42
1.57079637915398
  0
ELLIPSE
  5
1B0BB
330
18
100
AcDbEntity
  8
01
100
AcDbEllipse
 10
2266.288529958539
 20
-679.0114256488553
 30
0.0000000001127424
 11
-0.5
 21
1.241535493119381E-13
 31
0.0
210
0.0
220
0.0
230
1.0
 40
0.7000000000000454
 41
1.57079632679507
 42
3.141592653590147
  0
ELLIPSE
  5
1B0BC
330
18
100
AcDbEntity
  8
01
100
AcDbEllipse
 10
2267.188529938539
 20
-679.6414256348552
 30
0.0000000001127424
 11
-3.0
 21
0.0
 31
0.0
210
0.0
220
0.0
230
1.0
 40
0.6999264741693878
 41
0.0
 42
6.283185307179586
  0
SPLINE
  5
1B0BD
330
18
100
AcDbEntity
  8
01
100
AcDbSpline
210
0.0
220
0.0
230
1.0
 70
     9
 71
     3
 72
    36
 73
    32
 74
     0
 42
0.0000000001
 43
0.0000000001
 40
0.0
 40
0.0
 40
0.0
 40
0.0
 40
0.4404128364159207
 40
0.4404128364159207
 40
0.8808256728318414
 40
0.8808256728318414
 40
1.321238509247762
 40
1.321238509247762
 40
1.761651345663683
 40
1.761651345663683
 40
2.202064182079603
 40
2.202064182079603
 40
2.642477018495524
 40
2.642477018495524
 40
3.082889854911445
 40
3.082889854911445
 40
3.523302691327366
 40
3.523302691327366
 40
3.963715527743287
 40
3.963715527743287
 40
4.404128364159207
 40
4.404128364159207
 40
4.844541200575128
 40
4.844541200575128
 40
5.284954036991048
 40
5.284954036991048
 40
5.725366873406969
 40
5.725366873406969
 40
6.16577970982289
 40
6.16577970982289
 40
6.283185307179586
 40
6.283185307179586
 40
6.283185307179586
 40
6.283185307179586
 10
2264.538529938539
 20
-679.6414256348553
 30
0.0000000001127424
 10
2264.538529938538
 20
-679.876272388481
 30
0.0000000001127424
 10
2264.611846817638
 20
-680.1134670885311
 30
0.0000000001127424
 10
2264.918400615117
 20
-680.5687439095794
 30
0.0000000001127424
 10
2265.153630991699
 20
-680.7843052154507
 30
0.0000000001127424
 10
2265.754473323987
 20
-681.1313758159971
 30
0.0000000001127424
 10
2266.118841600462
 20
-681.2619839139886
 30
0.0000000001127424
 10
2266.899298188548
 20
-681.4012102934403
 30
0.0000000001127424
 10
2267.314610902362
 20
-681.4098013560124
 30
0.0000000001127424
 10
2268.106832274503
 20
-681.3026689166632
 30
0.0000000001127424
 10
2268.48300114118
 20
-681.1869581278174
 30
0.0000000001127424
 10
2269.116208906935
 20
-680.8629538713145
 30
0.0000000001127424
 10
2269.372039359339
 20
-680.6553063618824
 30
0.0000000001127424
 10
2269.720804791994
 20
-680.2075249522042
 30
0.0000000001127424
 10
2269.814871513747
 20
-679.9701670316392
 30
0.0000000001127424
 10
2269.854307930025
 20
-679.5004981438486
 30
0.0000000001127424
 10
2269.801148695189
 20
-679.2637893628802
 30
0.0000000001127424
 10
2269.536853410399
 20
-678.8029306521994
 30
0.0000000001127424
 10
2269.322885303703
 20
-678.5807021965898
 30
0.0000000001127424
 10
2268.756557261217
 20
-678.2124095149662
 30
0.0000000001127424
 10
2268.405421852811
 20
-678.0675601703501
 30
0.0000000001127424
 10
2267.639779037849
 20
-677.8969258846726
 30
0.0000000001127424
 10
2267.226093981955
 20
-677.8711930005943
 30
0.0000000001127424
 10
2266.425205791437
 20
-677.945706906796
 30
0.0000000001127424
 10
2266.03871696705
 20
-678.0459486600637
 30
0.0000000001127424
 10
2265.375479034285
 20
-678.3451803848411
 30
0.0000000001127424
 10
2265.09987303476
 20
-678.5437226422488
 30
0.0000000001127424
 10
2264.709249776353
 20
-678.981935745363
 30
0.0000000001127424
 10
2264.59387757491
 20
-679.2188609874273
 30
0.0000000001127424
 10
2264.543769879709
 20
-679.5162097620217
 30
0.0000000001127424
 10
2264.538529938538
 20
-679.578820004145
 30
0.0000000001127424
 10
2264.538529938539
 20
-679.6414256348553
 30
0.0000000001127424
  0
ELLIPSE
  5
1B0BE
330
18
100
AcDbEntity
  8
01
100
AcDbEllipse
 10
2198.188529938539
 20
-679.6414256348552
 30
0.0000000001127424
 11
3.0
 21
0.0
 31
0.0
210
0.0
220
0.0
230
-1.0
 40
0.6999264741693878
 41
0.0
 42
6.283185307179586
  0
SPLINE
  5
1B0BF
330
18
100
AcDbEntity
  8
01
100
AcDbSpline
210
0.0
220
0.0
230
1.0
 70
     9
 71
     3
 72
    36
 73
    32
 74
     0
 42
0.0000000001
 43
0.0000000001
 40
0.0
 40
0.0
 40
0.0
 40
0.0
 40
0.4404128364159207
 40
0.4404128364159207
 40
0.8808256728318414
 40
0.8808256728318414
 40
1.321238509247762
 40
1.321238509247762
 40
1.761651345663683
 40
1.761651345663683
 40
2.202064182079603
 40
2.202064182079603
 40
2.642477018495524
 40
2.642477018495524
 40
3.082889854911445
 40
3.082889854911445
 40
3.523302691327366
 40
3.523302691327366
 40
3.963715527743287
 40
3.963715527743287
 40
4.404128364159207
 40
4.404128364159207
 40
4.844541200575128
 40
4.844541200575128
 40
5.284954036991048
 40
5.284954036991048
 40
5.725366873406969
 40
5.725366873406969
 40
6.16577970982289
 40
6.16577970982289
 40
6.283185307179586
 40
6.283185307179586
 40
6.283185307179586
 40
6.283185307179586
 10
2200.838529938538
 20
-679.6414256348553
 30
0.0000000001127424
 10
2200.838529938539
 20
-679.876272388481
 30
0.0000000001127424
 10
2200.765213059439
 20
-680.1134670885311
 30
0.0000000001127424
 10
2200.45865926196
 20
-680.5687439095794
 30
0.0000000001127424
 10
2200.223428885378
 20
-680.7843052154507
 30
0.0000000001127424
 10
2199.622586553091
 20
-681.1313758159971
 30
0.0000000001127424
 10
2199.258218276615
 20
-681.2619839139886
 30
0.0000000001127424
 10
2198.477761688529
 20
-681.4012102934403
 30
0.0000000001127424
 10
2198.062448974715
 20
-681.4098013560124
 30
0.0000000001127424
 10
2197.270227602574
 20
-681.3026689166632
 30
0.0000000001127424
 10
2196.894058735897
 20
-681.1869581278174
 30
0.0000000001127424
 10
2196.260850970142
 20
-680.8629538713145
 30
0.0000000001127424
 10
2196.005020517738
 20
-680.6553063618824
 30
0.0000000001127424
 10
2195.656255085083
 20
-680.2075249522042
 30
0.0000000001127424
 10
2195.56218836333
 20
-679.9701670316392
 30
0.0000000001127424
 10
2195.522751947052
 20
-679.5004981438486
 30
0.0000000001127424
 10
2195.575911181888
 20
-679.2637893628802
 30
0.0000000001127424
 10
2195.840206466678
 20
-678.8029306521994
 30
0.0000000001127424
 10
2196.054174573374
 20
-678.5807021965898
 30
0.0000000001127424
 10
2196.62050261586
 20
-678.2124095149662
 30
0.0000000001127424
 10
2196.971638024266
 20
-678.0675601703501
 30
0.0000000001127424
 10
2197.737280839228
 20
-677.8969258846726
 30
0.0000000001127424
 10
2198.150965895122
 20
-677.8711930005943
 30
0.0000000001127424
 10
2198.95185408564
 20
-677.945706906796
 30
0.0000000001127424
 10
2199.338342910027
 20
-678.0459486600637
 30
0.0000000001127424
 10
2200.001580842792
 20
-678.3451803848411
 30
0.0000000001127424
 10
2200.277186842317
 20
-678.5437226422488
 30
0.0000000001127424
 10
2200.667810100724
 20
-678.981935745363
 30
0.0000000001127424
 10
2200.783182302167
 20
-679.2188609874273
 30
0.0000000001127424
 10
2200.833289997368
 20
-679.5162097620217
 30
0.0000000001127424
 10
2200.838529938539
 20
-679.578820004145
 30
0.0000000001127424
 10
2200.838529938538
 20
-679.6414256348553
 30
0.0000000001127424
  0
LINE
  5
1B0C0
330
18
100
AcDbEntity
  8
01
100
AcDbLine
 10
2199.487568044215
 20
-680.0164256348552
 30
0.0000000001127424
 11
2199.487568044215
 21
-679.2664256348552
 31
0.0000000001127424
  0
LINE
  5
1B0C5
330
18
100
AcDbEntity
  8
01
100
AcDbLine
 10
2432.688642278273
 20
-449.0243809226521
 30
0.0000000001127424
 11
2432.688642278295
 21
-471.5243809226594
 31
0.0000000001127424
  0
LINE
  5
1B0C6
330
18
100
AcDbEntity
  8
01
100
AcDbLine
 10
2432.188642278287
 20
-455.5243809226521
 30
0.0000000001127424
 11
2432.188642278302
 21
-471.5243809226594
 31
0.0000000001127424
  0
ARC
  5
1B0C7
330
18
100
AcDbEntity
  8
01
100
AcDbCircle
 10
2434.688642278273
 20
-449.0243809226521
 30
0.0000000001127424
 40
2.0
100
AcDbArc
 50
90.0
 51
180.0
  0
ARC
  5
1B0C8
330
18
100
AcDbEntity
  8
01
100
AcDbCircle
 10
2431.688642278302
 20
-471.5243809226594
 30
0.0000000001127424
 40
0.5
100
AcDbArc
 50
270.0
 51
0.0
  0
LINE
  5
1B0C9
330
18
100
AcDbEntity
  8
01
100
AcDbLine
 10
2433.188642278295
 20
-472.0243809226594
 30
0.0000000001127424
 11
2527.688642278274
 21
-472.0243809219718
 31
0.0000000001127424
  0
ARC
  5
1B0CA
330
18
100
AcDbEntity
  8
01
100
AcDbCircle
 10
2527.688642278266
 20
-471.0243809219718
 30
0.0000000001127424
 40
1.0
100
AcDbArc
 50
270.0000000004169
 51
359.9999999999479
  0
ARC
  5
1B0CB
330
18
100
AcDbEntity
  8
01
100
AcDbCircle
 10
2433.188642278295
 20
-471.5243809226594
 30
0.0000000001127424
 40
0.5
100
AcDbArc
 50
180.0
 51
270.0
  0
LINE
  5
1B0CC
330
18
100
AcDbEntity
  8
01
100
AcDbLine
 10
2432.188642278302
 20
-471.5243809226594
 30
0.0000000001127424
 11
2432.688642278302
 21
-471.5243809226594
 31
0.0000000001127424
  0
ARC
  5
1B0CD
330
18
100
AcDbEntity
  8
01
100
AcDbCircle
 10
2431.688642278287
 20
-455.5243809226521
 30
0.0000000001127424
 40
0.5
100
AcDbArc
 50
0.0
 51
90.0
  0
LINE
  5
1B0CE
330
18
100
AcDbEntity
  8
01
100
AcDbLine
 10
2432.18864227828
 20
-455.5243809226521
 30
0.0000000001127424
 11
2432.68864227828
 21
-455.5243809226521
 31
0.0000000001127424
  0
LINE
  5
1B0CF
330
18
100
AcDbEntity
  8
01
100
AcDbLine
 10
2434.688642278273
 20
-447.0243809226521
 30
0.0000000001127424
 11
2526.688642278287
 21
-447.0243809226521
 31
0.0000000001127424
  0
LINE
  5
1B0D0
330
18
100
AcDbEntity
  8
01
100
AcDbLine
 10
2528.688642278266
 20
-471.0243809219728
 30
0.0000000001127424
 11
2528.688642278287
 21
-449.0243809226521
 31
0.0000000001127424
  0
ARC
  5
1B0D1
330
18
100
AcDbEntity
  8
01
100
AcDbCircle
 10
2526.688642278287
 20
-449.0243809226521
 30
0.0000000001127424
 40
2.0
100
AcDbArc
 50
0.0
 51
90.0
  0
ARC
  5
1B0D2
330
18
100
AcDbEntity
  8
01
100
AcDbCircle
 10
2430.779485802361
 20
-659.5243809216322
 30
0.0000000001127424
 40
0.5
100
AcDbArc
 50
0.0
 51
90.0
  0
ARC
  5
1B0D3
330
18
100
AcDbEntity
  8
01
100
AcDbCircle
 10
2432.279485802361
 20
-659.5243809216322
 30
0.0000000001127424
 40
0.5
100
AcDbArc
 50
90.0
 51
180.0
  0
LINE
  5
1B0D4
330
18
100
AcDbEntity
  8
01
100
AcDbLine
 10
2431.279485802361
 20
-659.5243809216322
 30
0.0000000001127424
 11
2431.779485802361
 21
-659.5243809216322
 31
0.0000000001127424
  0
ARC
  5
1B0D5
330
18
100
AcDbEntity
  8
01
100
AcDbCircle
 10
2527.688525938529
 20
-660.0243809216322
 30
0.0000000001127424
 40
1.0
100
AcDbArc
 50
0.0
 51
90.0
  0
LINE
  5
1B0D6
330
18
100
AcDbEntity
  8
01
100
AcDbLine
 10
2431.779485802361
 20
-659.5243809216322
 30
0.0000000001127424
 11
2431.779485802361
 21
-666.5243809216322
 31
0.0000000001127424
  0
LINE
  5
1B0D7
330
18
100
AcDbEntity
  8
01
100
AcDbLine
 10
2431.279485802361
 20
-659.5243809216322
 30
0.0000000001127424
 11
2431.279485802361
 21
-666.5243809216322
 31
0.0000000001127424
  0
ARC
  5
1B0D8
330
18
100
AcDbEntity
  8
01
100
AcDbCircle
 10
2430.779485802361
 20
-666.5243809216322
 30
0.0000000001127424
 40
0.5
100
AcDbArc
 50
270.0
 51
0.0
  0
ARC
  5
1B0D9
330
18
100
AcDbEntity
  8
01
100
AcDbCircle
 10
2432.279485802361
 20
-666.5243809216322
 30
0.0000000001127424
 40
0.5
100
AcDbArc
 50
180.0
 51
270.0
  0
LINE
  5
1B0DA
330
18
100
AcDbEntity
  8
01
100
AcDbLine
 10
2431.279485802361
 20
-666.5243809216322
 30
0.0000000001127424
 11
2431.779485802361
 21
-666.5243809216322
 31
0.0000000001127424
  0
ARC
  5
1B0DB
330
18
100
AcDbEntity
  8
01
100
AcDbCircle
 10
2527.688525938529
 20
-666.0243809216322
 30
0.0000000001127424
 40
1.0
100
AcDbArc
 50
270.0
 51
0.0
  0
LINE
  5
1B0DC
330
18
100
AcDbEntity
  8
01
100
AcDbLine
 10
1936.688533938548
 20
-660.0243809216412
 30
0.0000000001127424
 11
1936.688533938548
 21
-666.0243809216412
 31
0.0000000001127424
  0
ARC
  5
1B0DD
330
18
100
AcDbEntity
  8
01
100
AcDbCircle
 10
2034.597574074716
 20
-659.5243809216382
 30
0.0000000001127424
 40
0.5
100
AcDbArc
 50
90.0
 51
180.0
  0
ARC
  5
1B0DE
330
18
100
AcDbEntity
  8
01
100
AcDbCircle
 10
2033.097574074716
 20
-659.5243809216382
 30
0.0000000001127424
 40
0.5
100
AcDbArc
 50
0.0
 51
90.0
  0
LINE
  5
1B0DF
330
18
100
AcDbEntity
  8
01
100
AcDbLine
 10
2034.097574074716
 20
-659.5243809216382
 30
0.0000000001127424
 11
2033.597574074716
 21
-659.5243809216382
 31
0.0000000001127424
  0
ARC
  5
1B0E0
330
18
100
AcDbEntity
  8
01
100
AcDbCircle
 10
1937.688533938548
 20
-660.0243809216412
 30
0.0000000001127424
 40
1.0
100
AcDbArc
 50
90.0
 51
180.0
  0
LINE
  5
1B0E1
330
18
100
AcDbEntity
  8
01
100
AcDbLine
 10
2033.597574074716
 20
-659.5243809216382
 30
0.0000000001127424
 11
2033.597574074716
 21
-666.5243809216382
 31
0.0000000001127424
  0
LINE
  5
1B0E2
330
18
100
AcDbEntity
  8
01
100
AcDbLine
 10
2034.097574074716
 20
-659.5243809216382
 30
0.0000000001127424
 11
2034.097574074716
 21
-666.5243809216382
 31
0.0000000001127424
  0
ARC
  5
1B0E3
330
18
100
AcDbEntity
  8
01
100
AcDbCircle
 10
2034.597574074716
 20
-666.5243809216382
 30
0.0000000001127424
 40
0.5
100
AcDbArc
 50
180.0
 51
270.0
  0
ARC
  5
1B0E4
330
18
100
AcDbEntity
  8
01
100
AcDbCircle
 10
2033.097574074716
 20
-666.5243809216382
 30
0.0000000001127424
 40
0.5
100
AcDbArc
 50
270.0
 51
0.0
  0
LINE
  5
1B0E5
330
18
100
AcDbEntity
  8
01
100
AcDbLine
 10
2034.097574074716
 20
-666.5243809216382
 30
0.0000000001127424
 11
2033.597574074716
 21
-666.5243809216382
 31
0.0000000001127424
  0
ARC
  5
1B0E6
330
18
100
AcDbEntity
  8
01
100
AcDbCircle
 10
1937.688533938548
 20
-666.0243809216412
 30
0.0000000001127424
 40
1.0
100
AcDbArc
 50
180.0
 51
270.0
  0
LINE
  5
1B0E7
330
18
100
AcDbEntity
  8
01
100
AcDbLine
 10
2432.688642278273
 20
-337.0243809226696
 30
0.0000000001127424
 11
2432.688642278295
 21
-314.5243809226623
 31
0.0000000001127424
  0
LINE
  5
1B0E8
330
18
100
AcDbEntity
  8
01
100
AcDbLine
 10
2432.188642278287
 20
-330.5243809226696
 30
0.0000000001127424
 11
2432.188642278302
 21
-314.5243809226623
 31
0.0000000001127424
  0
ARC
  5
1B0E9
330
18
100
AcDbEntity
  8
01
100
AcDbCircle
 10
2434.688642278273
 20
-337.0243809226696
 30
0.0000000001127424
 40
2.0
100
AcDbArc
 50
180.0
 51
270.0
  0
ARC
  5
1B0EA
330
18
100
AcDbEntity
  8
01
100
AcDbCircle
 10
2431.688642278302
 20
-314.5243809226623
 30
0.0000000001127424
 40
0.5
100
AcDbArc
 50
0.0
 51
90.0
  0
LINE
  5
1B0EB
330
18
100
AcDbEntity
  8
01
100
AcDbLine
 10
2433.188642278295
 20
-314.0243809226623
 30
0.0000000001127424
 11
2527.688642278274
 21
-314.0243809233499
 31
0.0000000001127424
  0
ARC
  5
1B0EC
330
18
100
AcDbEntity
  8
01
100
AcDbCircle
 10
2433.188642278295
 20
-314.5243809226623
 30
0.0000000001127424
 40
0.5
100
AcDbArc
 50
90.0
 51
180.0
  0
LINE
  5
1B0ED
330
18
100
AcDbEntity
  8
01
100
AcDbLine
 10
2432.188642278302
 20
-314.5243809226623
 30
0.0000000001127424
 11
2432.688642278302
 21
-314.5243809226623
 31
0.0000000001127424
  0
ARC
  5
1B0EE
330
18
100
AcDbEntity
  8
01
100
AcDbCircle
 10
2431.688642278287
 20
-330.5243809226696
 30
0.0000000001127424
 40
0.5
100
AcDbArc
 50
270.0
 51
0.0
  0
LINE
  5
1B0EF
330
18
100
AcDbEntity
  8
01
100
AcDbLine
 10
2432.18864227828
 20
-330.5243809226696
 30
0.0000000001127424
 11
2432.68864227828
 21
-330.5243809226696
 31
0.0000000001127424
  0
LINE
  5
1B0F0
330
18
100
AcDbEntity
  8
01
100
AcDbLine
 10
2434.688642278273
 20
-339.0243809226696
 30
0.0000000001127424
 11
2526.688642278287
 21
-339.0243809226696
 31
0.0000000001127424
  0
LINE
  5
1B0F1
330
18
100
AcDbEntity
  8
01
100
AcDbLine
 10
2528.688642278266
 20
-315.0243809233489
 30
0.0000000001127424
 11
2528.688642278287
 21
-337.0243809226696
 31
0.0000000001127424
  0
ARC
  5
1B0F2
330
18
100
AcDbEntity
  8
01
100
AcDbCircle
 10
2527.688642278266
 20
-315.0243809233499
 30
0.0000000001127424
 40
1.0
100
AcDbArc
 50
0.0000000000521102
 51
89.99999999958311
  0
ARC
  5
1B0F3
330
18
100
AcDbEntity
  8
01
100
AcDbCircle
 10
2526.688642278287
 20
-337.0243809226696
 30
0.0000000001127424
 40
2.0
100
AcDbArc
 50
270.0
 51
0.0
  0
LINE
  5
1B1A8
330
18
100
AcDbEntity
  8
01
  6
BYBLOCK
100
AcDbLine
 10
2044.68875861803
 20
-678.1325935363419
 30
0.00000000011268
 11
2044.68875861803
 21
-679.024380921632
 31
0.0000000001126775
  0
LINE
  5
1B1A9
330
18
100
AcDbEntity
  8
01
  6
BYBLOCK
100
AcDbLine
 10
2045.476619460479
 20
-679.024380921632
 30
0.0000000001127424
 11
2044.68875861803
 21
-679.024380921632
 31
0.0000000001127424
  0
TEXT
  5
1B1C6
330
18
100
AcDbEntity
  8
1TEXT
100
AcDbText
 10
2059.746142567965
 20
-422.4193617714392
 30
0.0
 40
6.0
  1
クローム
 72
     4
 11
2073.946142567965
 21
-419.3193617714392
 31
0.0
100
AcDbText
  0
TEXT
  5
1B1C7
330
18
100
AcDbEntity
  8
1TEXT
100
AcDbText
 10
2049.646142567964
 20
-442.7009168924457
 30
0.0
 40
6.0
  1
ダークアンバー
 72
     4
 11
2073.946142567964
 21
-439.5009168924457
 31
0.0
100
AcDbText
  0
LINE
  5
1B1C8
330
18
100
AcDbEntity
  8
1DIM
100
AcDbLine
 10
2047.696142567964
 20
-402.9879307351948
 30
0.0
 11
2205.196142567965
 21
-402.9879307351948
 31
0.0
  0
LINE
  5
1B1C9
330
18
100
AcDbEntity
  8
1DIM
100
AcDbLine
 10
2205.196142567965
 20
-402.9879307351948
 30
0.0
 11
2205.196142567966
 21
-444.9879307351948
 31
0.0
  0
LINE
  5
1B1CA
330
18
100
AcDbEntity
  8
1DIM
100
AcDbLine
 10
2047.696142567964
 20
-444.9879307351948
 30
0.0
 11
2047.696142567964
 21
-402.9879307351948
 31
0.0
  0
LINE
  5
1B1CB
330
18
100
AcDbEntity
  8
1DIM
100
AcDbLine
 10
2047.696142567964
 20
-413.4879307351948
 30
0.0
 11
2205.196142567965
 21
-413.4879307351948
 31
0.0
  0
LINE
  5
1B1CC
330
18
100
AcDbEntity
  8
1DIM
100
AcDbLine
 10
2152.696142567968
 20
-444.9879307351948
 30
0.0
 11
2152.696142567969
 21
-402.9879307351948
 31
0.0
  0
LINE
  5
1B1CD
330
18
100
AcDbEntity
  8
1DIM
100
AcDbLine
 10
2100.196142567964
 20
-402.9879307351948
 30
0.0
 11
2100.196142567965
 21
-444.9879307351948
 31
0.0
  0
LINE
  5
1B1CE
330
18
100
AcDbEntity
  8
1DIM
100
AcDbLine
 10
2047.696142567964
 20
-423.9879307351949
 30
0.0
 11
2205.196142567965
 21
-423.9879307351948
 31
0.0
  0
LINE
  5
1B1CF
330
18
100
AcDbEntity
  8
1DIM
100
AcDbLine
 10
2047.696142567964
 20
-434.4879307351948
 30
0.0
 11
2205.196142567965
 21
-434.4879307351948
 31
0.0
  0
TEXT
  5
1B1D0
330
18
100
AcDbEntity
  8
1TEXT
100
AcDbText
 10
2049.096142567965
 20
-411.2379307351948
 30
0.0
 40
6.0
  1
表面処理：脚部
 72
     1
 11
2073.796142567965
 21
-411.2379307351948
 31
0.0
100
AcDbText
  0
TEXT
  5
1B1D1
330
18
100
AcDbEntity
  8
1TEXT
100
AcDbText
 10
2168.496142567965
 20
-411.2379307351948
 30
0.0
 40
6.0
  1
コード
 72
     1
 11
2178.796142567965
 21
-411.2379307351948
 31
0.0
100
AcDbText
  0
TEXT
  5
1B1D2
330
18
100
AcDbEntity
  8
1TEXT
100
AcDbText
 10
2102.396142567965
 20
-411.2379307351948
 30
0.0
 40
6.0
  1
表面処理：握り
 72
     1
 11
2126.296142567965
 21
-411.2379307351948
 31
0.0
100
AcDbText
  0
TEXT
  5
1B1D3
330
18
100
AcDbEntity
  8
1TEXT
100
AcDbText
 10
2112.096142567966
 20
-422.0594662106691
 30
0.0
 40
6.0
  1
クローム
 72
     1
 11
2126.296142567966
 21
-422.0594662106691
 31
0.0
100
AcDbText
  0
TEXT
  5
1B1D4
330
18
100
AcDbEntity
  8
1TEXT
100
AcDbText
 10
2158.495170345744
 20
-422.0594662106701
 30
0.0
 40
6.0
  1
3-M9C-C-LJ
 41
0.7
 72
     1
 11
2178.796142567966
 21
-422.0594662106701
 31
0.0
100
AcDbText
  0
TEXT
  5
1B1D5
330
18
100
AcDbEntity
  8
1TEXT
100
AcDbText
 10
2158.495170345744
 20
-432.5594662106701
 30
0.0
 40
6.0
  1
3-M9C-N-LJ
 41
0.7
 72
     1
 11
2178.796142567966
 21
-432.5594662106701
 31
0.0
100
AcDbText
  0
LINE
  5
1B1D6
330
18
100
AcDbEntity
  8
1DIM
100
AcDbLine
 10
2047.696142567964
 20
-444.9879307351948
 30
0.0
 11
2205.196142567965
 21
-444.9879307351948
 31
0.0
  0
TEXT
  5
1B1D7
330
18
100
AcDbEntity
  8
1TEXT
100
AcDbText
 10
2156.395170345743
 20
-443.0594662106701
 30
0.0
 40
6.0
  1
3-M9C-4Q-LJ
 41
0.7
 72
     1
 11
2178.796142567965
 21
-443.0594662106701
 31
0.0
100
AcDbText
  0
TEXT
  5
1B1D8
330
18
100
AcDbEntity
  8
1TEXT
100
AcDbText
 10
2049.146142567964
 20
-432.6705647379116
 30
0.0
 40
6.0
  1
サテンニッケル
 72
     4
 11
2073.946142567964
 21
-429.7705647379116
 31
0.0
100
AcDbText
  0
TEXT
  5
1B1D9
330
18
100
AcDbEntity
  8
1TEXT
100
AcDbText
 10
2102.146142567964
 20
-442.7009168924457
 30
0.0
 40
6.0
  1
ダークアンバー
 72
     4
 11
2126.446142567964
 21
-439.5009168924457
 31
0.0
100
AcDbText
  0
TEXT
  5
1B1DA
330
18
100
AcDbEntity
  8
1TEXT
100
AcDbText
 10
2101.646142567964
 20
-432.6705647379116
 30
0.0
 40
6.0
  1
サテンニッケル
 72
     4
 11
2126.446142567964
 21
-429.7705647379116
 31
0.0
100
AcDbText
  0
LINE
  5
1B1EB
330
18
100
AcDbEntity
  8
01
100
AcDbLine
 10
2422.646899591426
 20
-367.0243809226651
 30
0.0000000001127424
 11
2426.188642278282
 21
-367.0243809226663
 31
0.0000000001127424
  0
LINE
  5
1B1EC
330
18
100
AcDbEntity
  8
01
100
AcDbLine
 10
2382.688642021928
 20
-367.524380922659
 30
0.0000000001127424
 11
2379.188642278284
 21
-367.524380922659
 31
0.0000000001127424
  0
LINE
  5
1B1ED
330
18
100
AcDbEntity
  8
01
100
AcDbLine
 10
2382.688641889722
 20
-418.5243809226626
 30
0.0000000001127424
 11
2379.188642278284
 21
-418.5243809226627
 31
0.0000000001127424
  0
LINE
  5
1B1EE
330
18
100
AcDbEntity
  8
01
100
AcDbLine
 10
2422.646899459219
 20
-419.0243809226565
 30
0.0000000001127424
 11
2426.188642278282
 21
-419.0243809226554
 31
0.0000000001127424
  0
LINE
  5
1B337
330
18
100
AcDbEntity
  8
01
100
AcDbLine
 10
2042.688638278281
 20
-607.524380921632
 30
0.0000000001127424
 11
2042.688638278281
 21
-578.724380921632
 31
0.0000000001127424
1001
ACAD
1000
DSTYLE
1002
{
1070
     3
1000
φ<>
1070
    40
1040
1.3
1070
    45
1040
0.5
1070
   271
1070
     4
1070
   272
1070
     2
1002
}
  0
LINE
  5
1B338
330
18
100
AcDbEntity
  8
01
100
AcDbLine
 10
2082.68863827828
 20
-607.524380921632
 30
0.0000000001127424
 11
2082.68863827828
 21
-578.724380921632
 31
0.0000000001127424
1001
ACAD
1000
DSTYLE
1002
{
1070
     3
1000
φ<>
1070
    40
1040
1.3
1070
    45
1040
0.5
1070
   271
1070
     4
1070
   272
1070
     2
1002
}
  0
LINE
  5
1B339
330
18
100
AcDbEntity
  8
01
100
AcDbLine
 10
2045.288638278281
 20
-580.024380921632
 30
0.0000000001127424
 11
2080.088638278281
 21
-580.024380921632
 31
0.0000000001127424
1001
ACAD
1000
DSTYLE
1002
{
1070
     3
1000
φ<>
1070
    40
1040
1.3
1070
    45
1040
0.5
1070
   271
1070
     4
1070
   272
1070
     2
1002
}
  0
LINE
  5
1B33D
330
18
100
AcDbEntity
  8
01
100
AcDbLine
 10
2212.688642278285
 20
-587.524380921632
 30
0.0000000001127424
 11
2212.688642278285
 21
-555.724380921632
 31
0.0000000001127424
1001
ACAD
1000
DSTYLE
1002
{
1070
    40
1040
1.3
1070
    45
1040
0.5
1070
   341
1005
0
1002
}
  0
LINE
  5
1B33E
330
18
100
AcDbEntity
  8
01
100
AcDbLine
 10
2190.688256712566
 20
-603.0243859216309
 30
0.0000000001127424
 11
2190.688256712566
 21
-555.724380921632
 31
0.0000000001127424
1001
ACAD
1000
DSTYLE
1002
{
1070
    40
1040
1.3
1070
    45
1040
0.5
1070
   341
1005
0
1002
}
  0
LINE
  5
1B33F
330
18
100
AcDbEntity
  8
01
100
AcDbLine
 10
2210.088642278286
 20
-557.024380921632
 30
0.0000000001127424
 11
2193.288256712566
 21
-557.024380921632
 31
0.0000000001127424
1001
ACAD
1000
DSTYLE
1002
{
1070
    40
1040
1.3
1070
    45
1040
0.5
1070
   341
1005
0
1002
}
  0
LINE
  5
1B343
330
18
100
AcDbEntity
  8
01
100
AcDbLine
 10
2382.688525616079
 20
-607.524380921632
 30
0.0000000001127424
 11
2382.688525616079
 21
-578.724380921632
 31
0.0000000001127424
1001
ACAD
1000
DSTYLE
1002
{
1070
     3
1000
φ<>
1070
    40
1040
1.3
1070
    45
1040
0.5
1070
   271
1070
     4
1070
   272
1070
     2
1002
}
  0
LINE
  5
1B344
330
18
100
AcDbEntity
  8
01
100
AcDbLine
 10
2422.688525616079
 20
-607.524380921632
 30
0.0000000001127424
 11
2422.688525616079
 21
-578.724380921632
 31
0.0000000001127424
1001
ACAD
1000
DSTYLE
1002
{
1070
     3
1000
φ<>
1070
    40
1040
1.3
1070
    45
1040
0.5
1070
   271
1070
     4
1070
   272
1070
     2
1002
}
  0
LINE
  5
1B345
330
18
100
AcDbEntity
  8
01
100
AcDbLine
 10
2385.288525616079
 20
-580.024380921632
 30
0.0000000001127424
 11
2420.08852561608
 21
-580.024380921632
 31
0.0000000001127424
1001
ACAD
1000
DSTYLE
1002
{
1070
     3
1000
φ<>
1070
    40
1040
1.3
1070
    45
1040
0.5
1070
   271
1070
     4
1070
   272
1070
     2
1002
}
  0
LINE
  5
1B349
330
18
100
AcDbEntity
  8
01
100
AcDbLine
 10
2042.688638278281
 20
-607.524380921632
 30
0.0000000001127424
 11
2042.688638278281
 21
-578.724380921632
 31
0.0000000001127424
1001
ACAD
1000
DSTYLE
1002
{
1070
     3
1000
φ<>
1070
    40
1040
1.3
1070
    45
1040
0.5
1070
   271
1070
     4
1070
   272
1070
     2
1002
}
  0
LINE
  5
1B34A
330
18
100
AcDbEntity
  8
01
100
AcDbLine
 10
2082.68863827828
 20
-607.524380921632
 30
0.0000000001127424
 11
2082.68863827828
 21
-578.724380921632
 31
0.0000000001127424
1001
ACAD
1000
DSTYLE
1002
{
1070
     3
1000
φ<>
1070
    40
1040
1.3
1070
    45
1040
0.5
1070
   271
1070
     4
1070
   272
1070
     2
1002
}
  0
LINE
  5
1B34B
330
18
100
AcDbEntity
  8
01
100
AcDbLine
 10
2045.288638278281
 20
-580.024380921632
 30
0.0000000001127424
 11
2080.088638278281
 21
-580.024380921632
 31
0.0000000001127424
1001
ACAD
1000
DSTYLE
1002
{
1070
     3
1000
φ<>
1070
    40
1040
1.3
1070
    45
1040
0.5
1070
   271
1070
     4
1070
   272
1070
     2
1002
}
  0
LINE
  5
1B34F
330
18
100
AcDbEntity
  8
01
100
AcDbLine
 10
2212.688642278285
 20
-587.524380921632
 30
0.0000000001127424
 11
2212.688642278285
 21
-555.724380921632
 31
0.0000000001127424
1001
ACAD
1000
DSTYLE
1002
{
1070
    40
1040
1.3
1070
    45
1040
0.5
1070
   341
1005
0
1002
}
  0
LINE
  5
1B350
330
18
100
AcDbEntity
  8
01
100
AcDbLine
 10
2190.688617467274
 20
-604.4039110968561
 30
0.0000000001127424
 11
2190.688617467274
 21
-555.724380921632
 31
0.0000000001127424
1001
ACAD
1000
DSTYLE
1002
{
1070
    40
1040
1.3
1070
    45
1040
0.5
1070
   341
1005
0
1002
}
  0
LINE
  5
1B351
330
18
100
AcDbEntity
  8
01
100
AcDbLine
 10
2210.088642278286
 20
-557.024380921632
 30
0.0000000001127424
 11
2193.288617467274
 21
-557.024380921632
 31
0.0000000001127424
1001
ACAD
1000
DSTYLE
1002
{
1070
    40
1040
1.3
1070
    45
1040
0.5
1070
   341
1005
0
1002
}
  0
LINE
  5
1B355
330
18
100
AcDbEntity
  8
01
100
AcDbLine
 10
2252.688642278285
 20
-587.524380921632
 30
0.0
 11
2252.688642278285
 21
-555.724380921632
 31
0.0
1001
ACAD
1000
DSTYLE
1002
{
1070
    40
1040
1.3
1070
    45
1040
0.5
1070
   271
1070
     1
1070
   341
1005
0
1002
}
  0
LINE
  5
1B356
330
18
100
AcDbEntity
  8
01
100
AcDbLine
 10
2260.857225967246
 20
-613.0243793539398
 30
0.0
 11
2260.857225967246
 21
-555.724380921632
 31
0.0
1001
ACAD
1000
DSTYLE
1002
{
1070
    40
1040
1.3
1070
    45
1040
0.5
1070
   271
1070
     1
1070
   341
1005
0
1002
}
  0
LINE
  5
1B357
330
18
100
AcDbEntity
  8
01
100
AcDbLine
 10
2255.288642278284
 20
-557.024380921632
 30
0.0
 11
2258.257225967246
 21
-557.024380921632
 31
0.0
1001
ACAD
1000
DSTYLE
1002
{
1070
    40
1040
1.3
1070
    45
1040
0.5
1070
   271
1070
     1
1070
   341
1005
0
1002
}
  0
LINE
  5
1B35B
330
18
100
AcDbEntity
  8
01
100
AcDbLine
 10
2340.688525938539
 20
-635.0243816197635
 30
0.0000000001127424
 11
2340.688525938539
 21
-532.3028888369442
 31
0.0000000001127424
1001
ACAD
1000
DSTYLE
1002
{
1070
    40
1040
1.3
1070
    45
1040
0.5
1002
}
  0
LINE
  5
1B35C
330
18
100
AcDbEntity
  8
01
100
AcDbLine
 10
2351.688525938539
 20
-577.1530635704746
 30
0.0000000001127424
 11
2351.688525938539
 21
-532.3028888369442
 31
0.0000000001127424
1001
ACAD
1000
DSTYLE
1002
{
1070
    40
1040
1.3
1070
    45
1040
0.5
1002
}
  0
LINE
  5
1B35D
330
18
100
AcDbEntity
  8
01
100
AcDbLine
 10
2343.288525938539
 20
-533.6028888369442
 30
0.0000000001127424
 11
2349.088525938539
 21
-533.6028888369442
 31
0.0000000001127424
1001
ACAD
1000
DSTYLE
1002
{
1070
    40
1040
1.3
1070
    45
1040
0.5
1002
}
  0
LINE
  5
1B361
330
18
100
AcDbEntity
  8
01
100
AcDbLine
 10
2420.688525938539
 20
-605.0243809216322
 30
0.0000000001127424
 11
2448.988525938539
 21
-605.0243809216322
 31
0.0000000001127424
1001
ACAD
1000
DSTYLE
1002
{
1070
    40
1040
1.3
1070
    45
1040
0.5
1002
}
  0
LINE
  5
1B362
330
18
100
AcDbEntity
  8
01
100
AcDbLine
 10
2420.688525938539
 20
-679.0243809216327
 30
0.0000000001127424
 11
2448.988525938539
 21
-679.0243809216327
 31
0.0000000001127424
1001
ACAD
1000
DSTYLE
1002
{
1070
    40
1040
1.3
1070
    45
1040
0.5
1002
}
  0
LINE
  5
1B363
330
18
100
AcDbEntity
  8
01
100
AcDbLine
 10
2447.688525938539
 20
-607.6243809216322
 30
0.0000000001127424
 11
2447.688525938539
 21
-676.4243809216326
 31
0.0000000001127424
1001
ACAD
1000
DSTYLE
1002
{
1070
    40
1040
1.3
1070
    45
1040
0.5
1002
}
  0
LINE
  5
1B367
330
18
100
AcDbEntity
  8
01
100
AcDbLine
 10
2420.688525938539
 20
-605.0243809216322
 30
0.0000000001127424
 11
2420.688525938539
 21
-522.2230213688961
 31
0.0000000001127424
1001
ACAD
1000
DSTYLE
1002
{
1070
    40
1040
1.3
1070
    45
1040
0.5
1002
}
  0
LINE
  5
1B368
330
18
100
AcDbEntity
  8
01
100
AcDbLine
 10
2351.688525938539
 20
-577.1530635704746
 30
0.0000000001127424
 11
2351.688525938539
 21
-522.2230213688961
 31
0.0000000001127424
1001
ACAD
1000
DSTYLE
1002
{
1070
    40
1040
1.3
1070
    45
1040
0.5
1002
}
  0
LINE
  5
1B369
330
18
100
AcDbEntity
  8
01
100
AcDbLine
 10
2418.088525938539
 20
-523.523021368896
 30
0.0000000001127424
 11
2354.288525938539
 21
-523.523021368896
 31
0.0000000001127424
1001
ACAD
1000
DSTYLE
1002
{
1070
    40
1040
1.3
1070
    45
1040
0.5
1002
}
  0
LINE
  5
1B36D
330
18
100
AcDbEntity
  8
01
100
AcDbLine
 10
2351.688525938539
 20
-577.1530635704746
 30
0.0000000001127424
 11
2351.688525938539
 21
-532.3028888369442
 31
0.0000000001127424
1001
ACAD
1000
DSTYLE
1002
{
1070
    40
1040
1.3
1070
    45
1040
0.5
1002
}
  0
LINE
  5
1B36E
330
18
100
AcDbEntity
  8
01
100
AcDbLine
 10
2402.688525938539
 20
-613.0243809216322
 30
0.0000000001127424
 11
2402.688525938539
 21
-532.3028888369442
 31
0.0000000001127424
1001
ACAD
1000
DSTYLE
1002
{
1070
    40
1040
1.3
1070
    45
1040
0.5
1002
}
  0
LINE
  5
1B36F
330
18
100
AcDbEntity
  8
01
100
AcDbLine
 10
2354.288525938539
 20
-533.6028888369442
 30
0.0000000001127424
 11
2400.088525938539
 21
-533.6028888369442
 31
0.0000000001127424
1001
ACAD
1000
DSTYLE
1002
{
1070
    40
1040
1.3
1070
    45
1040
0.5
1002
}
  0
LINE
  5
1B373
330
18
100
AcDbEntity
  8
01
100
AcDbLine
 10
2220.188642278284
 20
-583.0243809216327
 30
0.0000000001127424
 11
2220.188642278284
 21
-532.3028888369445
 31
0.0000000001127424
1001
ACAD
1000
DSTYLE
1002
{
1070
    40
1040
1.3
1070
    45
1040
0.5
1002
}
  0
LINE
  5
1B374
330
18
100
AcDbEntity
  8
01
100
AcDbLine
 10
2245.188642278284
 20
-583.0243809216327
 30
0.0000000001127424
 11
2245.188642278284
 21
-532.3028888369445
 31
0.0000000001127424
1001
ACAD
1000
DSTYLE
1002
{
1070
    40
1040
1.3
1070
    45
1040
0.5
1002
}
  0
LINE
  5
1B375
330
18
100
AcDbEntity
  8
01
100
AcDbLine
 10
2222.788642278284
 20
-533.6028888369444
 30
0.0000000001127424
 11
2242.588642278284
 21
-533.6028888369444
 31
0.0000000001127424
1001
ACAD
1000
DSTYLE
1002
{
1070
    40
1040
1.3
1070
    45
1040
0.5
1002
}
  0
LINE
  5
1B379
330
18
100
AcDbEntity
  8
01
100
AcDbLine
 10
2238.49058188152
 20
-585.0239357772164
 30
0.0000000001691137
 11
2318.776713049728
 21
-585.0239357772164
 31
0.0000000001691137
1001
ACAD
1000
DSTYLE
1002
{
1070
    40
1040
1.3
1070
    45
1040
0.5
1002
}
  0
LINE
  5
1B37A
330
18
100
AcDbEntity
  8
01
100
AcDbLine
 10
2238.49058188152
 20
-699.0239357772164
 30
0.0000000001691137
 11
2318.776713049728
 21
-699.0239357772164
 31
0.0000000001691137
1001
ACAD
1000
DSTYLE
1002
{
1070
    40
1040
1.3
1070
    45
1040
0.5
1002
}
  0
LINE
  5
1B37B
330
18
100
AcDbEntity
  8
01
100
AcDbLine
 10
2317.476713049728
 20
-587.6239357772164
 30
0.0000000001691137
 11
2317.476713049728
 21
-696.4239357772163
 31
0.0000000001691137
1001
ACAD
1000
DSTYLE
1002
{
1070
    40
1040
1.3
1070
    45
1040
0.5
1002
}
  0
LINE
  5
1B37F
330
18
100
AcDbEntity
  8
01
100
AcDbLine
 10
2239.088642278283
 20
-577.1243809216328
 30
0.0000000001691137
 11
2328.141047215952
 21
-577.1243809216328
 31
0.0000000001691137
1001
ACAD
1000
DSTYLE
1002
{
1070
    40
1040
1.3
1070
    45
1040
0.5
1002
}
  0
LINE
  5
1B380
330
18
100
AcDbEntity
  8
01
100
AcDbLine
 10
2239.015556473613
 20
-706.9239357772162
 30
0.0000000001691137
 11
2328.141047215952
 21
-706.9239357772162
 31
0.0000000001691137
1001
ACAD
1000
DSTYLE
1002
{
1070
    40
1040
1.3
1070
    45
1040
0.5
1002
}
  0
LINE
  5
1B381
330
18
100
AcDbEntity
  8
01
100
AcDbLine
 10
2326.841047215952
 20
-579.7243809216328
 30
0.0000000001691137
 11
2326.841047215952
 21
-704.3239357772162
 31
0.0000000001691137
1001
ACAD
1000
DSTYLE
1002
{
1070
    40
1040
1.3
1070
    45
1040
0.5
1002
}
  0
TEXT
  5
1B385
330
18
100
AcDbEntity
  8
01
  6
CONTINUOUS
100
AcDbText
 10
2313.691687031556
 20
-443.4410475893277
 30
0.0000000001127424
 40
4.55
  1
材質：亜鉛ダイキャスト
100
AcDbText
  0
TEXT
  5
1B386
330
18
100
AcDbEntity
  8
01
  6
CONTINUOUS
100
AcDbText
 10
2324.005020364889
 20
-451.024380922661
 30
0.0000000001127424
 40
4.55
  1
仕上げ：各種メッキ
100
AcDbText
  0
TEXT
  5
1B387
330
18
100
AcDbEntity
  8
01
  6
CONTINUOUS
100
AcDbText
 10
2313.691687031556
 20
-467.4518779282929
 30
0.0000000001127424
 40
4.55
  1
材質：亜鉛ダイキャスト
100
AcDbText
  0
TEXT
  5
1B388
330
18
100
AcDbEntity
  8
01
  6
CONTINUOUS
100
AcDbText
 10
2324.005020364889
 20
-475.0352112616262
 30
0.0000000001127424
 40
4.55
  1
仕上げ：各種メッキ
100
AcDbText
  0
LINE
  5
1B389
330
18
100
AcDbEntity
  8
01
  6
BYBLOCK
100
AcDbLine
 10
2045.288638278281
 20
-580.721048815632
 30
0.0000000001127424
 11
2042.688638278281
 21
-580.024380921632
 31
0.0000000001127424
  0
LINE
  5
1B38A
330
18
100
AcDbEntity
  8
01
  6
BYBLOCK
100
AcDbLine
 10
2042.688638278281
 20
-580.024380921632
 30
0.0000000001127424
 11
2045.288638278281
 21
-579.327713027632
 31
0.0000000001127424
  0
LINE
  5
1B38B
330
18
100
AcDbEntity
  8
01
  6
BYBLOCK
100
AcDbLine
 10
2042.688638278281
 20
-580.024380921632
 30
0.0000000001127424
 11
2045.288638278281
 21
-580.024380921632
 31
0.0000000001127424
  0
LINE
  5
1B38C
330
18
100
AcDbEntity
  8
01
  6
BYBLOCK
100
AcDbLine
 10
2080.088638278281
 20
-579.327713027632
 30
0.0000000001127424
 11
2082.68863827828
 21
-580.024380921632
 31
0.0000000001127424
  0
LINE
  5
1B38D
330
18
100
AcDbEntity
  8
01
  6
BYBLOCK
100
AcDbLine
 10
2082.68863827828
 20
-580.024380921632
 30
0.0000000001127424
 11
2080.088638278281
 21
-580.721048815632
 31
0.0000000001127424
  0
LINE
  5
1B38E
330
18
100
AcDbEntity
  8
01
  6
BYBLOCK
100
AcDbLine
 10
2082.68863827828
 20
-580.024380921632
 30
0.0000000001127424
 11
2080.088638278281
 21
-580.024380921632
 31
0.0000000001127424
  0
TEXT
  5
1B38F
330
18
100
AcDbEntity
  8
01
  6
CONTINUOUS
100
AcDbText
 10
2055.844679944948
 20
-579.114380921632
 30
0.0000000001127424
 40
4.55
  1
φ40
100
AcDbText
1001
ACAD
1000
DSTYLE
1002
{
1070
     3
1000
φ<>
1070
    40
1040
1.3
1070
    45
1040
0.5
1070
   271
1070
     4
1070
   272
1070
     2
1002
}
  0
LINE
  5
1B390
330
18
100
AcDbEntity
  8
01
  6
BYBLOCK
100
AcDbLine
 10
2210.088642278286
 20
-556.327713027632
 30
0.0000000001127424
 11
2212.688642278285
 21
-557.024380921632
 31
0.0000000001127424
  0
LINE
  5
1B391
330
18
100
AcDbEntity
  8
01
  6
BYBLOCK
100
AcDbLine
 10
2212.688642278285
 20
-557.024380921632
 30
0.0000000001127424
 11
2210.088642278286
 21
-557.721048815632
 31
0.0000000001127424
  0
LINE
  5
1B392
330
18
100
AcDbEntity
  8
01
  6
BYBLOCK
100
AcDbLine
 10
2212.688642278285
 20
-557.024380921632
 30
0.0000000001127424
 11
2210.088642278286
 21
-557.024380921632
 31
0.0000000001127424
  0
LINE
  5
1B393
330
18
100
AcDbEntity
  8
01
  6
BYBLOCK
100
AcDbLine
 10
2193.288256712566
 20
-557.721048815632
 30
0.0000000001127424
 11
2190.688256712566
 21
-557.024380921632
 31
0.0000000001127424
  0
LINE
  5
1B394
330
18
100
AcDbEntity
  8
01
  6
BYBLOCK
100
AcDbLine
 10
2190.688256712566
 20
-557.024380921632
 30
0.0000000001127424
 11
2193.288256712566
 21
-556.327713027632
 31
0.0000000001127424
  0
LINE
  5
1B395
330
18
100
AcDbEntity
  8
01
  6
BYBLOCK
100
AcDbLine
 10
2190.688256712566
 20
-557.024380921632
 30
0.0000000001127424
 11
2193.288256712566
 21
-557.024380921632
 31
0.0000000001127424
  0
TEXT
  5
1B396
330
18
100
AcDbEntity
  8
01
  6
CONTINUOUS
100
AcDbText
 10
2197.896782828759
 20
-556.114380921632
 30
0.0000000001127424
 40
4.55
  1
22
100
AcDbText
1001
ACAD
1000
DSTYLE
1002
{
1070
    40
1040
1.3
1070
    45
1040
0.5
1070
   341
1005
0
1002
}
  0
LINE
  5
1B397
330
18
100
AcDbEntity
  8
01
  6
BYBLOCK
100
AcDbLine
 10
2385.288525616079
 20
-580.721048815632
 30
0.0000000001127424
 11
2382.688525616079
 21
-580.024380921632
 31
0.0000000001127424
  0
LINE
  5
1B398
330
18
100
AcDbEntity
  8
01
  6
BYBLOCK
100
AcDbLine
 10
2382.688525616079
 20
-580.024380921632
 30
0.0000000001127424
 11
2385.288525616079
 21
-579.327713027632
 31
0.0000000001127424
  0
LINE
  5
1B399
330
18
100
AcDbEntity
  8
01
  6
BYBLOCK
100
AcDbLine
 10
2382.688525616079
 20
-580.024380921632
 30
0.0000000001127424
 11
2385.288525616079
 21
-580.024380921632
 31
0.0000000001127424
  0
LINE
  5
1B39A
330
18
100
AcDbEntity
  8
01
  6
BYBLOCK
100
AcDbLine
 10
2420.08852561608
 20
-579.327713027632
 30
0.0000000001127424
 11
2422.688525616079
 21
-580.024380921632
 31
0.0000000001127424
  0
LINE
  5
1B39B
330
18
100
AcDbEntity
  8
01
  6
BYBLOCK
100
AcDbLine
 10
2422.688525616079
 20
-580.024380921632
 30
0.0000000001127424
 11
2420.08852561608
 21
-580.721048815632
 31
0.0000000001127424
  0
LINE
  5
1B39C
330
18
100
AcDbEntity
  8
01
  6
BYBLOCK
100
AcDbLine
 10
2422.688525616079
 20
-580.024380921632
 30
0.0000000001127424
 11
2420.08852561608
 21
-580.024380921632
 31
0.0000000001127424
  0
TEXT
  5
1B39D
330
18
100
AcDbEntity
  8
01
  6
CONTINUOUS
100
AcDbText
 10
2395.844567282747
 20
-579.114380921632
 30
0.0000000001127424
 40
4.55
  1
φ40
100
AcDbText
1001
ACAD
1000
DSTYLE
1002
{
1070
     3
1000
φ<>
1070
    40
1040
1.3
1070
    45
1040
0.5
1070
   271
1070
     4
1070
   272
1070
     2
1002
}
  0
LINE
  5
1B39E
330
18
100
AcDbEntity
  8
01
  6
BYBLOCK
100
AcDbLine
 10
2045.288638278281
 20
-580.721048815632
 30
0.0000000001127424
 11
2042.688638278281
 21
-580.024380921632
 31
0.0000000001127424
  0
LINE
  5
1B39F
330
18
100
AcDbEntity
  8
01
  6
BYBLOCK
100
AcDbLine
 10
2042.688638278281
 20
-580.024380921632
 30
0.0000000001127424
 11
2045.288638278281
 21
-579.327713027632
 31
0.0000000001127424
  0
LINE
  5
1B3A0
330
18
100
AcDbEntity
  8
01
  6
BYBLOCK
100
AcDbLine
 10
2042.688638278281
 20
-580.024380921632
 30
0.0000000001127424
 11
2045.288638278281
 21
-580.024380921632
 31
0.0000000001127424
  0
LINE
  5
1B3A1
330
18
100
AcDbEntity
  8
01
  6
BYBLOCK
100
AcDbLine
 10
2080.088638278281
 20
-579.327713027632
 30
0.0000000001127424
 11
2082.68863827828
 21
-580.024380921632
 31
0.0000000001127424
  0
LINE
  5
1B3A2
330
18
100
AcDbEntity
  8
01
  6
BYBLOCK
100
AcDbLine
 10
2082.68863827828
 20
-580.024380921632
 30
0.0000000001127424
 11
2080.088638278281
 21
-580.721048815632
 31
0.0000000001127424
  0
LINE
  5
1B3A3
330
18
100
AcDbEntity
  8
01
  6
BYBLOCK
100
AcDbLine
 10
2082.68863827828
 20
-580.024380921632
 30
0.0000000001127424
 11
2080.088638278281
 21
-580.024380921632
 31
0.0000000001127424
  0
TEXT
  5
1B3A4
330
18
100
AcDbEntity
  8
01
  6
CONTINUOUS
100
AcDbText
 10
2055.844679944948
 20
-579.114380921632
 30
0.0000000001127424
 40
4.55
  1
φ40
100
AcDbText
1001
ACAD
1000
DSTYLE
1002
{
1070
     3
1000
φ<>
1070
    40
1040
1.3
1070
    45
1040
0.5
1070
   271
1070
     4
1070
   272
1070
     2
1002
}
  0
LINE
  5
1B3A5
330
18
100
AcDbEntity
  8
01
  6
BYBLOCK
100
AcDbLine
 10
2210.088642278286
 20
-556.327713027632
 30
0.0000000001127424
 11
2212.688642278285
 21
-557.024380921632
 31
0.0000000001127424
  0
LINE
  5
1B3A6
330
18
100
AcDbEntity
  8
01
  6
BYBLOCK
100
AcDbLine
 10
2212.688642278285
 20
-557.024380921632
 30
0.0000000001127424
 11
2210.088642278286
 21
-557.721048815632
 31
0.0000000001127424
  0
LINE
  5
1B3A7
330
18
100
AcDbEntity
  8
01
  6
BYBLOCK
100
AcDbLine
 10
2212.688642278285
 20
-557.024380921632
 30
0.0000000001127424
 11
2210.088642278286
 21
-557.024380921632
 31
0.0000000001127424
  0
LINE
  5
1B3A8
330
18
100
AcDbEntity
  8
01
  6
BYBLOCK
100
AcDbLine
 10
2193.288617467274
 20
-557.721048815632
 30
0.0000000001127424
 11
2190.688617467274
 21
-557.024380921632
 31
0.0000000001127424
  0
LINE
  5
1B3A9
330
18
100
AcDbEntity
  8
01
  6
BYBLOCK
100
AcDbLine
 10
2190.688617467274
 20
-557.024380921632
 30
0.0000000001127424
 11
2193.288617467274
 21
-556.327713027632
 31
0.0000000001127424
  0
LINE
  5
1B3AA
330
18
100
AcDbEntity
  8
01
  6
BYBLOCK
100
AcDbLine
 10
2190.688617467274
 20
-557.024380921632
 30
0.0000000001127424
 11
2193.288617467274
 21
-557.024380921632
 31
0.0000000001127424
  0
TEXT
  5
1B3AB
330
18
100
AcDbEntity
  8
01
  6
CONTINUOUS
100
AcDbText
 10
2197.896963206113
 20
-556.114380921632
 30
0.0000000001127424
 40
4.55
  1
22
100
AcDbText
1001
ACAD
1000
DSTYLE
1002
{
1070
    40
1040
1.3
1070
    45
1040
0.5
1070
   341
1005
0
1002
}
  0
LINE
  5
1B3AC
330
18
100
AcDbEntity
  8
01
  6
BYBLOCK
100
AcDbLine
 10
2255.288642278284
 20
-557.721048815632
 30
0.0
 11
2252.688642278285
 21
-557.024380921632
 31
0.0
  0
LINE
  5
1B3AD
330
18
100
AcDbEntity
  8
01
  6
BYBLOCK
100
AcDbLine
 10
2252.688642278285
 20
-557.024380921632
 30
0.0
 11
2255.288642278284
 21
-556.327713027632
 31
0.0
  0
LINE
  5
1B3AE
330
18
100
AcDbEntity
  8
01
  6
BYBLOCK
100
AcDbLine
 10
2252.688642278285
 20
-557.024380921632
 30
0.0
 11
2255.288642278284
 21
-557.024380921632
 31
0.0
  0
LINE
  5
1B3AF
330
18
100
AcDbEntity
  8
01
  6
BYBLOCK
100
AcDbLine
 10
2258.257225967246
 20
-556.327713027632
 30
0.0
 11
2260.857225967246
 21
-557.024380921632
 31
0.0
  0
LINE
  5
1B3B0
330
18
100
AcDbEntity
  8
01
  6
BYBLOCK
100
AcDbLine
 10
2260.857225967246
 20
-557.024380921632
 30
0.0
 11
2258.257225967246
 21
-557.721048815632
 31
0.0
  0
LINE
  5
1B3B1
330
18
100
AcDbEntity
  8
01
  6
BYBLOCK
100
AcDbLine
 10
2260.857225967246
 20
-557.024380921632
 30
0.0
 11
2258.257225967246
 21
-557.024380921632
 31
0.0
  0
TEXT
  5
1B3B2
330
18
100
AcDbEntity
  8
01
  6
CONTINUOUS
100
AcDbText
 10
2255.256267456098
 20
-556.114380921632
 30
0.0
 40
4.55
  1
8
100
AcDbText
1001
ACAD
1000
DSTYLE
1002
{
1070
    40
1040
1.3
1070
    45
1040
0.5
1070
   271
1070
     1
1070
   341
1005
0
1002
}
  0
LINE
  5
1B3B3
330
18
100
AcDbEntity
  8
01
  6
BYBLOCK
100
AcDbLine
 10
2343.288525938539
 20
-534.2995567309442
 30
0.0000000001127424
 11
2340.688525938539
 21
-533.6028888369442
 31
0.0000000001127424
  0
LINE
  5
1B3B4
330
18
100
AcDbEntity
  8
01
  6
BYBLOCK
100
AcDbLine
 10
2340.688525938539
 20
-533.6028888369442
 30
0.0000000001127424
 11
2343.288525938539
 21
-532.9062209429442
 31
0.0000000001127424
  0
LINE
  5
1B3B5
330
18
100
AcDbEntity
  8
01
  6
BYBLOCK
100
AcDbLine
 10
2340.688525938539
 20
-533.6028888369442
 30
0.0000000001127424
 11
2343.288525938539
 21
-533.6028888369442
 31
0.0000000001127424
  0
LINE
  5
1B3B6
330
18
100
AcDbEntity
  8
01
  6
BYBLOCK
100
AcDbLine
 10
2349.088525938539
 20
-532.9062209429442
 30
0.0000000001127424
 11
2351.688525938539
 21
-533.6028888369442
 31
0.0000000001127424
  0
LINE
  5
1B3B7
330
18
100
AcDbEntity
  8
01
  6
BYBLOCK
100
AcDbLine
 10
2351.688525938539
 20
-533.6028888369442
 30
0.0000000001127424
 11
2349.088525938539
 21
-534.2995567309442
 31
0.0000000001127424
  0
LINE
  5
1B3B8
330
18
100
AcDbEntity
  8
01
  6
BYBLOCK
100
AcDbLine
 10
2351.688525938539
 20
-533.6028888369442
 30
0.0000000001127424
 11
2349.088525938539
 21
-533.6028888369442
 31
0.0000000001127424
  0
TEXT
  5
1B3B9
330
18
100
AcDbEntity
  8
01
  6
CONTINUOUS
100
AcDbText
 10
2343.913525938539
 20
-532.6928888369442
 30
0.0000000001127424
 40
4.55
  1
11
100
AcDbText
1001
ACAD
1000
DSTYLE
1002
{
1070
    40
1040
1.3
1070
    45
1040
0.5
1002
}
  0
LINE
  5
1B3BA
330
18
100
AcDbEntity
  8
01
  6
BYBLOCK
100
AcDbLine
 10
2446.991858044539
 20
-607.6243809216322
 30
0.0000000001127424
 11
2447.688525938539
 21
-605.0243809216322
 31
0.0000000001127424
  0
LINE
  5
1B3BB
330
18
100
AcDbEntity
  8
01
  6
BYBLOCK
100
AcDbLine
 10
2447.688525938539
 20
-605.0243809216322
 30
0.0000000001127424
 11
2448.385193832539
 21
-607.6243809216322
 31
0.0000000001127424
  0
LINE
  5
1B3BC
330
18
100
AcDbEntity
  8
01
  6
BYBLOCK
100
AcDbLine
 10
2447.688525938539
 20
-605.0243809216322
 30
0.0000000001127424
 11
2447.688525938539
 21
-607.6243809216322
 31
0.0000000001127424
  0
LINE
  5
1B3BD
330
18
100
AcDbEntity
  8
01
  6
BYBLOCK
100
AcDbLine
 10
2448.385193832539
 20
-676.4243809216326
 30
0.0000000001127424
 11
2447.688525938539
 21
-679.0243809216327
 31
0.0000000001127424
  0
LINE
  5
1B3BE
330
18
100
AcDbEntity
  8
01
  6
BYBLOCK
100
AcDbLine
 10
2447.688525938539
 20
-679.0243809216327
 30
0.0000000001127424
 11
2446.991858044539
 21
-676.4243809216326
 31
0.0000000001127424
  0
LINE
  5
1B3BF
330
18
100
AcDbEntity
  8
01
  6
BYBLOCK
100
AcDbLine
 10
2447.688525938539
 20
-679.0243809216327
 30
0.0000000001127424
 11
2447.688525938539
 21
-676.4243809216326
 31
0.0000000001127424
  0
TEXT
  5
1B3C0
330
18
100
AcDbEntity
  8
01
  6
CONTINUOUS
100
AcDbText
 10
2446.778525938539
 20
-624.0530368356135
 30
0.0000000001127424
 40
4.55
  1
74
 50
90.0
100
AcDbText
1001
ACAD
1000
DSTYLE
1002
{
1070
    40
1040
1.3
1070
    45
1040
0.5
1002
}
  0
LINE
  5
1B3C1
330
18
100
AcDbEntity
  8
01
  6
BYBLOCK
100
AcDbLine
 10
2418.088525938539
 20
-522.826353474896
 30
0.0000000001127424
 11
2420.688525938539
 21
-523.523021368896
 31
0.0000000001127424
  0
LINE
  5
1B3C2
330
18
100
AcDbEntity
  8
01
  6
BYBLOCK
100
AcDbLine
 10
2420.688525938539
 20
-523.523021368896
 30
0.0000000001127424
 11
2418.088525938539
 21
-524.219689262896
 31
0.0000000001127424
  0
LINE
  5
1B3C3
330
18
100
AcDbEntity
  8
01
  6
BYBLOCK
100
AcDbLine
 10
2420.688525938539
 20
-523.523021368896
 30
0.0000000001127424
 11
2418.088525938539
 21
-523.523021368896
 31
0.0000000001127424
  0
LINE
  5
1B3C4
330
18
100
AcDbEntity
  8
01
  6
BYBLOCK
100
AcDbLine
 10
2354.288525938539
 20
-524.219689262896
 30
0.0000000001127424
 11
2351.688525938539
 21
-523.523021368896
 31
0.0000000001127424
  0
LINE
  5
1B3C5
330
18
100
AcDbEntity
  8
01
  6
BYBLOCK
100
AcDbLine
 10
2351.688525938539
 20
-523.523021368896
 30
0.0000000001127424
 11
2354.288525938539
 21
-522.826353474896
 31
0.0000000001127424
  0
LINE
  5
1B3C6
330
18
100
AcDbEntity
  8
01
  6
BYBLOCK
100
AcDbLine
 10
2351.688525938539
 20
-523.523021368896
 30
0.0000000001127424
 11
2354.288525938539
 21
-523.523021368896
 31
0.0000000001127424
  0
TEXT
  5
1B3C7
330
18
100
AcDbEntity
  8
01
  6
CONTINUOUS
100
AcDbText
 10
2382.38000742002
 20
-522.613021368896
 30
0.0000000001127424
 40
4.55
  1
69
100
AcDbText
1001
ACAD
1000
DSTYLE
1002
{
1070
    40
1040
1.3
1070
    45
1040
0.5
1002
}
  0
LINE
  5
1B3C8
330
18
100
AcDbEntity
  8
01
  6
BYBLOCK
100
AcDbLine
 10
2354.288525938539
 20
-534.2995567309442
 30
0.0000000001127424
 11
2351.688525938539
 21
-533.6028888369442
 31
0.0000000001127424
  0
LINE
  5
1B3C9
330
18
100
AcDbEntity
  8
01
  6
BYBLOCK
100
AcDbLine
 10
2351.688525938539
 20
-533.6028888369442
 30
0.0000000001127424
 11
2354.288525938539
 21
-532.9062209429442
 31
0.0000000001127424
  0
LINE
  5
1B3CA
330
18
100
AcDbEntity
  8
01
  6
BYBLOCK
100
AcDbLine
 10
2351.688525938539
 20
-533.6028888369442
 30
0.0000000001127424
 11
2354.288525938539
 21
-533.6028888369442
 31
0.0000000001127424
  0
LINE
  5
1B3CB
330
18
100
AcDbEntity
  8
01
  6
BYBLOCK
100
AcDbLine
 10
2400.088525938539
 20
-532.9062209429442
 30
0.0000000001127424
 11
2402.688525938539
 21
-533.6028888369442
 31
0.0000000001127424
  0
LINE
  5
1B3CC
330
18
100
AcDbEntity
  8
01
  6
BYBLOCK
100
AcDbLine
 10
2402.688525938539
 20
-533.6028888369442
 30
0.0000000001127424
 11
2400.088525938539
 21
-534.2995567309442
 31
0.0000000001127424
  0
LINE
  5
1B3CD
330
18
100
AcDbEntity
  8
01
  6
BYBLOCK
100
AcDbLine
 10
2402.688525938539
 20
-533.6028888369442
 30
0.0000000001127424
 11
2400.088525938539
 21
-533.6028888369442
 31
0.0000000001127424
  0
TEXT
  5
1B3CE
330
18
100
AcDbEntity
  8
01
  6
CONTINUOUS
100
AcDbText
 10
2374.139393994094
 20
-532.6928888369442
 30
0.0000000001127424
 40
4.55
  1
51
100
AcDbText
1001
ACAD
1000
DSTYLE
1002
{
1070
    40
1040
1.3
1070
    45
1040
0.5
1002
}
  0
LINE
  5
1B3CF
330
18
100
AcDbEntity
  8
01
  6
BYBLOCK
100
AcDbLine
 10
2222.788642278284
 20
-534.2995567309445
 30
0.0000000001127424
 11
2220.188642278284
 21
-533.6028888369444
 31
0.0000000001127424
  0
LINE
  5
1B3D0
330
18
100
AcDbEntity
  8
01
  6
BYBLOCK
100
AcDbLine
 10
2220.188642278284
 20
-533.6028888369444
 30
0.0000000001127424
 11
2222.788642278284
 21
-532.9062209429444
 31
0.0000000001127424
  0
LINE
  5
1B3D1
330
18
100
AcDbEntity
  8
01
  6
BYBLOCK
100
AcDbLine
 10
2220.188642278284
 20
-533.6028888369444
 30
0.0000000001127424
 11
2222.788642278284
 21
-533.6028888369444
 31
0.0000000001127424
  0
LINE
  5
1B3D2
330
18
100
AcDbEntity
  8
01
  6
BYBLOCK
100
AcDbLine
 10
2242.588642278284
 20
-532.9062209429444
 30
0.0000000001127424
 11
2245.188642278284
 21
-533.6028888369444
 31
0.0000000001127424
  0
LINE
  5
1B3D3
330
18
100
AcDbEntity
  8
01
  6
BYBLOCK
100
AcDbLine
 10
2245.188642278284
 20
-533.6028888369444
 30
0.0000000001127424
 11
2242.588642278284
 21
-534.2995567309445
 31
0.0000000001127424
  0
LINE
  5
1B3D4
330
18
100
AcDbEntity
  8
01
  6
BYBLOCK
100
AcDbLine
 10
2245.188642278284
 20
-533.6028888369444
 30
0.0000000001127424
 11
2242.588642278284
 21
-533.6028888369444
 31
0.0000000001127424
  0
TEXT
  5
1B3D5
330
18
100
AcDbEntity
  8
01
  6
CONTINUOUS
100
AcDbText
 10
2228.896975611617
 20
-532.6928888369445
 30
0.0000000001127424
 40
4.55
  1
25
100
AcDbText
1001
ACAD
1000
DSTYLE
1002
{
1070
    40
1040
1.3
1070
    45
1040
0.5
1002
}
  0
LINE
  5
1B3D6
330
18
100
AcDbEntity
  8
01
  6
BYBLOCK
100
AcDbLine
 10
2316.780045155728
 20
-587.6239357772164
 30
0.0000000001691137
 11
2317.476713049728
 21
-585.0239357772164
 31
0.0000000001691137
  0
LINE
  5
1B3D7
330
18
100
AcDbEntity
  8
01
  6
BYBLOCK
100
AcDbLine
 10
2317.476713049728
 20
-585.0239357772164
 30
0.0000000001691137
 11
2318.173380943727
 21
-587.6239357772164
 31
0.0000000001691137
  0
LINE
  5
1B3D8
330
18
100
AcDbEntity
  8
01
  6
BYBLOCK
100
AcDbLine
 10
2317.476713049728
 20
-585.0239357772164
 30
0.0000000001691137
 11
2317.476713049728
 21
-587.6239357772164
 31
0.0000000001691137
  0
LINE
  5
1B3D9
330
18
100
AcDbEntity
  8
01
  6
BYBLOCK
100
AcDbLine
 10
2318.173380943727
 20
-696.4239357772163
 30
0.0000000001691137
 11
2317.476713049728
 21
-699.0239357772164
 31
0.0000000001691137
  0
LINE
  5
1B3DA
330
18
100
AcDbEntity
  8
01
  6
BYBLOCK
100
AcDbLine
 10
2317.476713049728
 20
-699.0239357772164
 30
0.0000000001691137
 11
2316.780045155728
 21
-696.4239357772163
 31
0.0000000001691137
  0
LINE
  5
1B3DB
330
18
100
AcDbEntity
  8
01
  6
BYBLOCK
100
AcDbLine
 10
2317.476713049728
 20
-699.0239357772164
 30
0.0000000001691137
 11
2317.476713049728
 21
-696.4239357772163
 31
0.0000000001691137
  0
TEXT
  5
1B3DC
330
18
100
AcDbEntity
  8
01
  6
CONTINUOUS
100
AcDbText
 10
2316.566713049728
 20
-617.440913429295
 30
0.0000000001691137
 40
4.55
  1
114
 50
90.0
100
AcDbText
1001
ACAD
1000
DSTYLE
1002
{
1070
    40
1040
1.3
1070
    45
1040
0.5
1002
}
  0
LINE
  5
1B3DD
330
18
100
AcDbEntity
  8
01
  6
BYBLOCK
100
AcDbLine
 10
2326.144379321952
 20
-579.7243809216328
 30
0.0000000001691137
 11
2326.841047215952
 21
-577.1243809216328
 31
0.0000000001691137
  0
LINE
  5
1B3DE
330
18
100
AcDbEntity
  8
01
  6
BYBLOCK
100
AcDbLine
 10
2326.841047215952
 20
-577.1243809216328
 30
0.0000000001691137
 11
2327.537715109952
 21
-579.7243809216328
 31
0.0000000001691137
  0
LINE
  5
1B3DF
330
18
100
AcDbEntity
  8
01
  6
BYBLOCK
100
AcDbLine
 10
2326.841047215952
 20
-577.1243809216328
 30
0.0000000001691137
 11
2326.841047215952
 21
-579.7243809216328
 31
0.0000000001691137
  0
LINE
  5
1B3E0
330
18
100
AcDbEntity
  8
01
  6
BYBLOCK
100
AcDbLine
 10
2327.537715109952
 20
-704.3239357772162
 30
0.0000000001691137
 11
2326.841047215952
 21
-706.9239357772162
 31
0.0000000001691137
  0
LINE
  5
1B3E1
330
18
100
AcDbEntity
  8
01
  6
BYBLOCK
100
AcDbLine
 10
2326.841047215952
 20
-706.9239357772162
 30
0.0000000001691137
 11
2326.144379321952
 21
-704.3239357772162
 31
0.0000000001691137
  0
LINE
  5
1B3E2
330
18
100
AcDbEntity
  8
01
  6
BYBLOCK
100
AcDbLine
 10
2326.841047215952
 20
-706.9239357772162
 30
0.0000000001691137
 11
2326.841047215952
 21
-704.3239357772162
 31
0.0000000001691137
  0
TEXT
  5
1B3E3
330
18
100
AcDbEntity
  8
01
  6
CONTINUOUS
100
AcDbText
 10
2325.931047215952
 20
-618.2254774321023
 30
0.0000000001691137
 40
4.55
  1
130
 50
90.0
100
AcDbText
1001
ACAD
1000
DSTYLE
1002
{
1070
    40
1040
1.3
1070
    45
1040
0.5
1002
}
  0
LINE
  5
1B3E4
330
18
100
AcDbEntity
  8
1DIM
100
AcDbLine
 10
2032.688646278283
 20
-663.024380921632
 30
0.0000000001127424
 11
2017.694793875995
 21
-663.024380921632
 31
0.0000000001127424
1001
ACAD
1000
DSTYLE
1002
{
1070
    40
1040
1.3
1070
    45
1040
0.5
1070
   341
1005
0
1002
}
  0
LINE
  5
1B3E5
330
18
100
AcDbEntity
  8
1DIM
100
AcDbLine
 10
2040.188638278284
 20
-607.524380921632
 30
0.0000000001127424
 11
2017.694793875995
 21
-607.524380921632
 31
0.0000000001127424
1001
ACAD
1000
DSTYLE
1002
{
1070
    40
1040
1.3
1070
    45
1040
0.5
1070
   341
1005
0
1002
}
  0
LINE
  5
1B3E6
330
18
100
AcDbEntity
  8
1DIM
100
AcDbLine
 10
2018.994793875995
 20
-660.424380921632
 30
0.0000000001127424
 11
2018.994793875995
 21
-610.124380921632
 31
0.0000000001127424
1001
ACAD
1000
DSTYLE
1002
{
1070
    40
1040
1.3
1070
    45
1040
0.5
1070
   341
1005
0
1002
}
  0
LINE
  5
1B3EA
330
18
100
AcDbEntity
  8
1DIM
100
AcDbLine
 10
2032.688646278283
 20
-663.024380921632
 30
0.0000000001127424
 11
2017.694793875995
 21
-663.024380921632
 31
0.0000000001127424
1001
ACAD
1000
DSTYLE
1002
{
1070
    40
1040
1.3
1070
    45
1040
0.5
1070
   341
1005
0
1002
}
  0
LINE
  5
1B3EB
330
18
100
AcDbEntity
  8
1DIM
100
AcDbLine
 10
2040.188638278284
 20
-607.524380921632
 30
0.0000000001127424
 11
2017.694793875995
 21
-607.524380921632
 31
0.0000000001127424
1001
ACAD
1000
DSTYLE
1002
{
1070
    40
1040
1.3
1070
    45
1040
0.5
1070
   341
1005
0
1002
}
  0
LINE
  5
1B3EC
330
18
100
AcDbEntity
  8
1DIM
100
AcDbLine
 10
2018.994793875995
 20
-660.424380921632
 30
0.0000000001127424
 11
2018.994793875995
 21
-610.124380921632
 31
0.0000000001127424
1001
ACAD
1000
DSTYLE
1002
{
1070
    40
1040
1.3
1070
    45
1040
0.5
1070
   341
1005
0
1002
}
  0
LINE
  5
1B3F0
330
18
100
AcDbEntity
  8
1DIM
100
AcDbLine
 10
2419.089410120599
 20
-383.5243809226608
 30
0.0000000001127424
 11
2439.649800880312
 21
-383.5243809226608
 31
0.0000000001127424
1001
ACAD
1000
DSTYLE
1002
{
1070
    45
1040
0.5
1070
    40
1040
1.3
1002
}
  0
LINE
  5
1B3F1
330
18
100
AcDbEntity
  8
1DIM
100
AcDbLine
 10
2420.689410120599
 20
-402.3243809226608
 30
0.0000000001127424
 11
2439.649800880312
 21
-402.3243809226608
 31
0.0000000001127424
1001
ACAD
1000
DSTYLE
1002
{
1070
    45
1040
0.5
1070
    40
1040
1.3
1002
}
  0
LINE
  5
1B3F2
330
18
100
AcDbEntity
  8
1DIM
100
AcDbLine
 10
2438.349800880312
 20
-386.1243809226609
 30
0.0000000001127424
 11
2438.349800880312
 21
-399.7243809226608
 31
0.0000000001127424
1001
ACAD
1000
DSTYLE
1002
{
1070
    45
1040
0.5
1070
    40
1040
1.3
1002
}
  0
LINE
  5
1B3F6
330
18
100
AcDbEntity
  8
1DIM
100
AcDbLine
 10
2402.688525104574
 20
-686.5243809216322
 30
0.0000000002254849
 11
2364.888525938539
 21
-686.5243809216322
 31
0.0000000002254849
1001
ACAD
1000
DSTYLE
1002
{
1070
     3
1000
φ<>
1070
    40
1040
1.3
1070
   140
1040
3.0
1002
}
  0
LINE
  5
1B3F7
330
18
100
AcDbEntity
  8
1DIM
100
AcDbLine
 10
2402.688526811083
 20
-639.5243809216322
 30
0.0000000002254849
 11
2364.888525938539
 21
-639.5243809216322
 31
0.0000000002254849
1001
ACAD
1000
DSTYLE
1002
{
1070
     3
1000
φ<>
1070
    40
1040
1.3
1070
   140
1040
3.0
1002
}
  0
LINE
  5
1B3F8
330
18
100
AcDbEntity
  8
1DIM
100
AcDbLine
 10
2366.188525938539
 20
-683.9243809216322
 30
0.0000000002254849
 11
2366.188525938539
 21
-642.1243809216322
 31
0.0000000002254849
1001
ACAD
1000
DSTYLE
1002
{
1070
     3
1000
φ<>
1070
    40
1040
1.3
1070
   140
1040
3.0
1002
}
  0
LINE
  5
1B3FC
330
18
100
AcDbEntity
  8
1DIM
100
AcDbLine
 10
2528.678590445266
 20
-659.0243809216358
 30
0.0000000002254849
 11
2544.488525938522
 21
-659.0243809216358
 31
0.0000000002254849
1001
ACAD
1000
DSTYLE
1002
{
1070
    40
1040
1.3
1070
   271
1070
     0
1002
}
  0
LINE
  5
1B3FD
330
18
100
AcDbEntity
  8
1DIM
100
AcDbLine
 10
2528.688642344382
 20
-667.0243809216568
 30
0.0000000002254849
 11
2544.488525938522
 21
-667.0243809216568
 31
0.0000000002254849
1001
ACAD
1000
DSTYLE
1002
{
1070
    40
1040
1.3
1070
   271
1070
     0
1002
}
  0
LINE
  5
1B3FE
330
18
100
AcDbEntity
  8
1DIM
100
AcDbLine
 10
2543.188525938522
 20
-661.6243809216359
 30
0.0000000002254849
 11
2543.188525938522
 21
-664.4243809216567
 31
0.0000000002254849
1001
ACAD
1000
DSTYLE
1002
{
1070
    40
1040
1.3
1070
   271
1070
     0
1002
}
  0
LINE
  5
1B402
330
18
100
AcDbEntity
  8
1DIM
100
AcDbLine
 10
2402.688642278284
 20
-443.0243809226608
 30
0.0000000002254849
 11
2402.688642278284
 21
-483.3243809226684
 31
0.0000000002254849
1001
ACAD
1000
DSTYLE
1002
{
1070
    40
1040
1.3
1002
}
  0
LINE
  5
1B403
330
18
100
AcDbEntity
  8
1DIM
100
AcDbLine
 10
2528.688642344374
 20
-472.0243809226663
 30
0.0000000002254849
 11
2528.688642344374
 21
-483.3243809226684
 31
0.0000000002254849
1001
ACAD
1000
DSTYLE
1002
{
1070
    40
1040
1.3
1002
}
  0
LINE
  5
1B404
330
18
100
AcDbEntity
  8
1DIM
100
AcDbLine
 10
2405.288642278284
 20
-482.0243809226683
 30
0.0000000002254849
 11
2526.088642344374
 21
-482.0243809226683
 31
0.0000000002254849
1001
ACAD
1000
DSTYLE
1002
{
1070
    40
1040
1.3
1002
}
  0
LINE
  5
1B408
330
18
100
AcDbEntity
  8
1DIM
100
AcDbLine
 10
2376.188684566947
 20
-470.0243809226658
 30
0.0000000002254849
 11
2376.188684566947
 21
-493.3243809226699
 31
0.0000000002254849
1001
ACAD
1000
DSTYLE
1002
{
1070
    40
1040
1.3
1002
}
  0
LINE
  5
1B409
330
18
100
AcDbEntity
  8
1DIM
100
AcDbLine
 10
2528.688642344374
 20
-472.0243809226663
 30
0.0000000002254849
 11
2528.688642344374
 21
-493.3243809226699
 31
0.0000000002254849
1001
ACAD
1000
DSTYLE
1002
{
1070
    40
1040
1.3
1002
}
  0
LINE
  5
1B40A
330
18
100
AcDbEntity
  8
1DIM
100
AcDbLine
 10
2378.788684566947
 20
-492.0243809226699
 30
0.0000000002254849
 11
2526.088642344374
 21
-492.0243809226699
 31
0.0000000002254849
1001
ACAD
1000
DSTYLE
1002
{
1070
    40
1040
1.3
1002
}
  0
LINE
  5
1B40E
330
18
100
AcDbEntity
  8
1DIM
100
AcDbLine
 10
2528.688642344374
 20
-472.0243809226663
 30
0.0000000002254849
 11
2549.988642344374
 21
-472.0243809226663
 31
0.0000000002254849
1001
ACAD
1000
DSTYLE
1002
{
1070
    40
1040
1.3
1002
}
  0
LINE
  5
1B40F
330
18
100
AcDbEntity
  8
1DIM
100
AcDbLine
 10
2505.443790275631
 20
-413.0243809226608
 30
0.0000000002254849
 11
2549.988642344374
 21
-413.0243809226608
 31
0.0000000002254849
1001
ACAD
1000
DSTYLE
1002
{
1070
    40
1040
1.3
1002
}
  0
LINE
  5
1B410
330
18
100
AcDbEntity
  8
1DIM
100
AcDbLine
 10
2548.688642344374
 20
-469.4243809226663
 30
0.0000000002254849
 11
2548.688642344374
 21
-415.6243809226609
 31
0.0000000002254849
1001
ACAD
1000
DSTYLE
1002
{
1070
    40
1040
1.3
1002
}
  0
LINE
  5
1B414
330
18
100
AcDbEntity
  8
1DIM
100
AcDbLine
 10
2527.688642344382
 20
-447.0243809226663
 30
0.0000000002254849
 11
2539.988642344374
 21
-447.0243809226663
 31
0.0000000002254849
1001
ACAD
1000
DSTYLE
1002
{
1070
    40
1040
1.3
1002
}
  0
LINE
  5
1B415
330
18
100
AcDbEntity
  8
1DIM
100
AcDbLine
 10
2505.443790275631
 20
-413.0243809226608
 30
0.0000000002254849
 11
2539.988642344374
 21
-413.0243809226608
 31
0.0000000002254849
1001
ACAD
1000
DSTYLE
1002
{
1070
    40
1040
1.3
1002
}
  0
LINE
  5
1B416
330
18
100
AcDbEntity
  8
1DIM
100
AcDbLine
 10
2538.688642344374
 20
-444.4243809226663
 30
0.0000000002254849
 11
2538.688642344374
 21
-415.6243809226609
 31
0.0000000002254849
1001
ACAD
1000
DSTYLE
1002
{
1070
    40
1040
1.3
1002
}
  0
SOLID
  5
1B41A
330
18
100
AcDbEntity
  8
1DIM
100
AcDbTrace
 10
2400.058375293286
 20
-432.0751379765762
 30
0.0000000001127424
 11
2402.429127178601
 21
-430.9230471485359
 31
0.0000000001127424
 12
2400.560175123208
 22
-432.7817553000274
 32
0.0000000001127424
 13
2400.560175123208
 23
-432.7817553000274
 33
0.0000000001127424
1001
ACAD
1000
DSTYLE
1002
{
1070
    40
1040
1.3
1002
}
  0
LINE
  5
1B41B
330
18
100
AcDbEntity
  8
1DIM
100
AcDbLine
 10
2400.309275208247
 20
-432.4284466383018
 30
0.0000000001127424
 11
2372.841687031556
 21
-451.9343809226611
 31
0.0000000001127424
1001
ACAD
1000
DSTYLE
1002
{
1070
    40
1040
1.3
1002
}
  0
SOLID
  5
1B41C
330
18
100
AcDbEntity
  8
1DIM
100
AcDbTrace
 10
2400.058375293286
 20
-456.0859683155414
 30
0.0000000001127424
 11
2402.429127178601
 21
-454.9338774875011
 31
0.0000000001127424
 12
2400.560175123208
 22
-456.7925856389926
 32
0.0000000001127424
 13
2400.560175123208
 23
-456.7925856389926
 33
0.0000000001127424
1001
ACAD
1000
DSTYLE
1002
{
1070
    40
1040
1.3
1002
}
  0
LINE
  5
1B41D
330
18
100
AcDbEntity
  8
1DIM
100
AcDbLine
 10
2400.309275208247
 20
-456.439276977267
 30
0.0000000001127424
 11
2372.841687031556
 21
-475.9452112616263
 31
0.0000000001127424
1001
ACAD
1000
DSTYLE
1002
{
1070
    40
1040
1.3
1002
}
  0
LINE
  5
1B41E
330
18
100
AcDbEntity
  8
0
  6
BYBLOCK
100
AcDbLine
 10
2019.691461769995
 20
-660.424380921632
 30
0.0000000001127424
 11
2018.994793875995
 21
-663.024380921632
 31
0.0000000001127424
  0
LINE
  5
1B41F
330
18
100
AcDbEntity
  8
0
  6
BYBLOCK
100
AcDbLine
 10
2018.994793875995
 20
-663.024380921632
 30
0.0000000001127424
 11
2018.298125981995
 21
-660.424380921632
 31
0.0000000001127424
  0
LINE
  5
1B420
330
18
100
AcDbEntity
  8
0
  6
BYBLOCK
100
AcDbLine
 10
2018.994793875995
 20
-663.024380921632
 30
0.0000000001127424
 11
2018.994793875995
 21
-660.424380921632
 31
0.0000000001127424
  0
LINE
  5
1B421
330
18
100
AcDbEntity
  8
0
  6
BYBLOCK
100
AcDbLine
 10
2018.298125981995
 20
-610.124380921632
 30
0.0000000001127424
 11
2018.994793875995
 21
-607.524380921632
 31
0.0000000001127424
  0
LINE
  5
1B422
330
18
100
AcDbEntity
  8
0
  6
BYBLOCK
100
AcDbLine
 10
2018.994793875995
 20
-607.524380921632
 30
0.0000000001127424
 11
2019.691461769995
 21
-610.124380921632
 31
0.0000000001127424
  0
LINE
  5
1B423
330
18
100
AcDbEntity
  8
0
  6
BYBLOCK
100
AcDbLine
 10
2018.994793875995
 20
-607.524380921632
 30
0.0000000001127424
 11
2018.994793875995
 21
-610.124380921632
 31
0.0000000001127424
  0
TEXT
  5
1B424
330
18
100
AcDbEntity
  8
1DIM
  6
CONTINUOUS
100
AcDbText
 10
2018.084793875995
 20
-642.1309781438542
 30
0.0000000001127424
 40
4.55
  1
55.5
 50
90.0
100
AcDbText
1001
ACAD
1000
DSTYLE
1002
{
1070
    40
1040
1.3
1070
    45
1040
0.5
1070
   341
1005
0
1002
}
  0
LINE
  5
1B425
330
18
100
AcDbEntity
  8
0
  6
BYBLOCK
100
AcDbLine
 10
2019.691461769995
 20
-660.424380921632
 30
0.0000000001127424
 11
2018.994793875995
 21
-663.024380921632
 31
0.0000000001127424
  0
LINE
  5
1B426
330
18
100
AcDbEntity
  8
0
  6
BYBLOCK
100
AcDbLine
 10
2018.994793875995
 20
-663.024380921632
 30
0.0000000001127424
 11
2018.298125981995
 21
-660.424380921632
 31
0.0000000001127424
  0
LINE
  5
1B427
330
18
100
AcDbEntity
  8
0
  6
BYBLOCK
100
AcDbLine
 10
2018.994793875995
 20
-663.024380921632
 30
0.0000000001127424
 11
2018.994793875995
 21
-660.424380921632
 31
0.0000000001127424
  0
LINE
  5
1B428
330
18
100
AcDbEntity
  8
0
  6
BYBLOCK
100
AcDbLine
 10
2018.298125981995
 20
-610.124380921632
 30
0.0000000001127424
 11
2018.994793875995
 21
-607.524380921632
 31
0.0000000001127424
  0
LINE
  5
1B429
330
18
100
AcDbEntity
  8
0
  6
BYBLOCK
100
AcDbLine
 10
2018.994793875995
 20
-607.524380921632
 30
0.0000000001127424
 11
2019.691461769995
 21
-610.124380921632
 31
0.0000000001127424
  0
LINE
  5
1B42A
330
18
100
AcDbEntity
  8
0
  6
BYBLOCK
100
AcDbLine
 10
2018.994793875995
 20
-607.524380921632
 30
0.0000000001127424
 11
2018.994793875995
 21
-610.124380921632
 31
0.0000000001127424
  0
TEXT
  5
1B42B
330
18
100
AcDbEntity
  8
1DIM
  6
CONTINUOUS
100
AcDbText
 10
2018.084793875995
 20
-642.1309781438542
 30
0.0000000001127424
 40
4.55
  1
55.5
 50
90.0
100
AcDbText
1001
ACAD
1000
DSTYLE
1002
{
1070
    40
1040
1.3
1070
    45
1040
0.5
1070
   341
1005
0
1002
}
  0
LINE
  5
1B42C
330
18
100
AcDbEntity
  8
0
  6
BYBLOCK
100
AcDbLine
 10
2437.653132986312
 20
-386.1243809226609
 30
0.0000000001127424
 11
2438.349800880312
 21
-383.5243809226608
 31
0.0000000001127424
  0
LINE
  5
1B42D
330
18
100
AcDbEntity
  8
0
  6
BYBLOCK
100
AcDbLine
 10
2438.349800880312
 20
-383.5243809226608
 30
0.0000000001127424
 11
2439.046468774312
 21
-386.1243809226609
 31
0.0000000001127424
  0
LINE
  5
1B42E
330
18
100
AcDbEntity
  8
0
  6
BYBLOCK
100
AcDbLine
 10
2438.349800880312
 20
-383.5243809226608
 30
0.0000000001127424
 11
2438.349800880312
 21
-386.1243809226609
 31
0.0000000001127424
  0
LINE
  5
1B42F
330
18
100
AcDbEntity
  8
0
  6
BYBLOCK
100
AcDbLine
 10
2439.046468774312
 20
-399.7243809226608
 30
0.0000000001127424
 11
2438.349800880312
 21
-402.3243809226608
 31
0.0000000001127424
  0
LINE
  5
1B430
330
18
100
AcDbEntity
  8
0
  6
BYBLOCK
100
AcDbLine
 10
2438.349800880312
 20
-402.3243809226608
 30
0.0000000001127424
 11
2437.653132986312
 21
-399.7243809226608
 31
0.0000000001127424
  0
LINE
  5
1B431
330
18
100
AcDbEntity
  8
0
  6
BYBLOCK
100
AcDbLine
 10
2438.349800880312
 20
-402.3243809226608
 30
0.0000000001127424
 11
2438.349800880312
 21
-399.7243809226608
 31
0.0000000001127424
  0
TEXT
  5
1B432
330
18
100
AcDbEntity
  8
1DIM
  6
CONTINUOUS
100
AcDbText
 10
2437.439800880312
 20
-395.9587674967352
 30
0.0000000001127424
 40
4.55
  1
19
 50
90.0
100
AcDbText
1001
ACAD
1000
DSTYLE
1002
{
1070
    45
1040
0.5
1070
    40
1040
1.3
1002
}
  0
LINE
  5
1B433
330
18
100
AcDbEntity
  8
0
  6
BYBLOCK
100
AcDbLine
 10
2366.885193832539
 20
-683.9243809216322
 30
0.0000000002254849
 11
2366.188525938539
 21
-686.5243809216322
 31
0.0000000002254849
  0
LINE
  5
1B434
330
18
100
AcDbEntity
  8
0
  6
BYBLOCK
100
AcDbLine
 10
2366.188525938539
 20
-686.5243809216322
 30
0.0000000002254849
 11
2365.491858044539
 21
-683.9243809216322
 31
0.0000000002254849
  0
LINE
  5
1B435
330
18
100
AcDbEntity
  8
0
  6
BYBLOCK
100
AcDbLine
 10
2366.188525938539
 20
-686.5243809216322
 30
0.0000000002254849
 11
2366.188525938539
 21
-683.9243809216322
 31
0.0000000002254849
  0
LINE
  5
1B436
330
18
100
AcDbEntity
  8
0
  6
BYBLOCK
100
AcDbLine
 10
2365.491858044539
 20
-642.1243809216322
 30
0.0000000002254849
 11
2366.188525938539
 21
-639.5243809216322
 31
0.0000000002254849
  0
LINE
  5
1B437
330
18
100
AcDbEntity
  8
0
  6
BYBLOCK
100
AcDbLine
 10
2366.188525938539
 20
-639.5243809216322
 30
0.0000000002254849
 11
2366.885193832539
 21
-642.1243809216322
 31
0.0000000002254849
  0
LINE
  5
1B438
330
18
100
AcDbEntity
  8
0
  6
BYBLOCK
100
AcDbLine
 10
2366.188525938539
 20
-639.5243809216322
 30
0.0000000002254849
 11
2366.188525938539
 21
-642.1243809216322
 31
0.0000000002254849
  0
TEXT
  5
1B439
330
18
100
AcDbEntity
  8
1DIM
  6
CONTINUOUS
100
AcDbText
 10
2365.278525938539
 20
-669.1343809216319
 30
0.0000000002254849
 40
3.9
  1
φ47
 50
90.0
100
AcDbText
1001
ACAD
1000
DSTYLE
1002
{
1070
     3
1000
φ<>
1070
    40
1040
1.3
1070
   140
1040
3.0
1002
}
  0
LINE
  5
1B43A
330
18
100
AcDbEntity
  8
0
  6
BYBLOCK
100
AcDbLine
 10
2542.491858044522
 20
-661.6243809216359
 30
0.0000000002254849
 11
2543.188525938522
 21
-659.0243809216358
 31
0.0000000002254849
  0
LINE
  5
1B43B
330
18
100
AcDbEntity
  8
0
  6
BYBLOCK
100
AcDbLine
 10
2543.188525938522
 20
-659.0243809216358
 30
0.0000000002254849
 11
2543.885193832522
 21
-661.6243809216359
 31
0.0000000002254849
  0
LINE
  5
1B43C
330
18
100
AcDbEntity
  8
0
  6
BYBLOCK
100
AcDbLine
 10
2543.188525938522
 20
-659.0243809216358
 30
0.0000000002254849
 11
2543.188525938522
 21
-661.6243809216359
 31
0.0000000002254849
  0
LINE
  5
1B43D
330
18
100
AcDbEntity
  8
0
  6
BYBLOCK
100
AcDbLine
 10
2543.885193832522
 20
-664.4243809216567
 30
0.0000000002254849
 11
2543.188525938522
 21
-667.0243809216568
 31
0.0000000002254849
  0
LINE
  5
1B43E
330
18
100
AcDbEntity
  8
0
  6
BYBLOCK
100
AcDbLine
 10
2543.188525938522
 20
-667.0243809216568
 30
0.0000000002254849
 11
2542.491858044522
 21
-664.4243809216567
 31
0.0000000002254849
  0
LINE
  5
1B43F
330
18
100
AcDbEntity
  8
0
  6
BYBLOCK
100
AcDbLine
 10
2543.188525938522
 20
-667.0243809216568
 30
0.0000000002254849
 11
2543.188525938522
 21
-664.4243809216567
 31
0.0000000002254849
  0
TEXT
  5
1B440
330
18
100
AcDbEntity
  8
1DIM
  6
CONTINUOUS
100
AcDbText
 10
2542.278525938522
 20
-664.5410475883127
 30
0.0000000002254849
 40
4.55
  1
8
 50
90.0
100
AcDbText
1001
ACAD
1000
DSTYLE
1002
{
1070
    40
1040
1.3
1070
   271
1070
     0
1002
}
  0
LINE
  5
1B441
330
18
100
AcDbEntity
  8
0
  6
BYBLOCK
100
AcDbLine
 10
2405.288642278284
 20
-482.7210488166683
 30
0.0000000002254849
 11
2402.688642278284
 21
-482.0243809226683
 31
0.0000000002254849
  0
LINE
  5
1B442
330
18
100
AcDbEntity
  8
0
  6
BYBLOCK
100
AcDbLine
 10
2402.688642278284
 20
-482.0243809226683
 30
0.0000000002254849
 11
2405.288642278284
 21
-481.3277130286684
 31
0.0000000002254849
  0
LINE
  5
1B443
330
18
100
AcDbEntity
  8
0
  6
BYBLOCK
100
AcDbLine
 10
2402.688642278284
 20
-482.0243809226683
 30
0.0000000002254849
 11
2405.288642278284
 21
-482.0243809226683
 31
0.0000000002254849
  0
LINE
  5
1B444
330
18
100
AcDbEntity
  8
0
  6
BYBLOCK
100
AcDbLine
 10
2526.088642344374
 20
-481.3277130286684
 30
0.0000000002254849
 11
2528.688642344374
 21
-482.0243809226683
 31
0.0000000002254849
  0
LINE
  5
1B445
330
18
100
AcDbEntity
  8
0
  6
BYBLOCK
100
AcDbLine
 10
2528.688642344374
 20
-482.0243809226683
 30
0.0000000002254849
 11
2526.088642344374
 21
-482.7210488166683
 31
0.0000000002254849
  0
LINE
  5
1B446
330
18
100
AcDbEntity
  8
0
  6
BYBLOCK
100
AcDbLine
 10
2528.688642344374
 20
-482.0243809226683
 30
0.0000000002254849
 11
2526.088642344374
 21
-482.0243809226683
 31
0.0000000002254849
  0
TEXT
  5
1B447
330
18
100
AcDbEntity
  8
1DIM
  6
CONTINUOUS
100
AcDbText
 10
2458.380330089286
 20
-481.1143809226684
 30
0.0000000002254849
 40
4.55
  1
126
100
AcDbText
1001
ACAD
1000
DSTYLE
1002
{
1070
    40
1040
1.3
1002
}
  0
LINE
  5
1B448
330
18
100
AcDbEntity
  8
0
  6
BYBLOCK
100
AcDbLine
 10
2378.788684566947
 20
-492.7210488166699
 30
0.0000000002254849
 11
2376.188684566947
 21
-492.0243809226699
 31
0.0000000002254849
  0
LINE
  5
1B449
330
18
100
AcDbEntity
  8
0
  6
BYBLOCK
100
AcDbLine
 10
2376.188684566947
 20
-492.0243809226699
 30
0.0000000002254849
 11
2378.788684566947
 21
-491.32771302867
 31
0.0000000002254849
  0
LINE
  5
1B44A
330
18
100
AcDbEntity
  8
0
  6
BYBLOCK
100
AcDbLine
 10
2376.188684566947
 20
-492.0243809226699
 30
0.0000000002254849
 11
2378.788684566947
 21
-492.0243809226699
 31
0.0000000002254849
  0
LINE
  5
1B44B
330
18
100
AcDbEntity
  8
0
  6
BYBLOCK
100
AcDbLine
 10
2526.088642344374
 20
-491.32771302867
 30
0.0000000002254849
 11
2528.688642344374
 21
-492.0243809226699
 31
0.0000000002254849
  0
LINE
  5
1B44C
330
18
100
AcDbEntity
  8
0
  6
BYBLOCK
100
AcDbLine
 10
2528.688642344374
 20
-492.0243809226699
 30
0.0000000002254849
 11
2526.088642344374
 21
-492.7210488166699
 31
0.0000000002254849
  0
LINE
  5
1B44D
330
18
100
AcDbEntity
  8
0
  6
BYBLOCK
100
AcDbLine
 10
2528.688642344374
 20
-492.0243809226699
 30
0.0000000002254849
 11
2526.088642344374
 21
-492.0243809226699
 31
0.0000000002254849
  0
TEXT
  5
1B44E
330
18
100
AcDbEntity
  8
1DIM
  6
CONTINUOUS
100
AcDbText
 10
2444.081198177882
 20
-491.11438092267
 30
0.0000000002254849
 40
4.55
  1
152.5
100
AcDbText
1001
ACAD
1000
DSTYLE
1002
{
1070
    40
1040
1.3
1002
}
  0
LINE
  5
1B44F
330
18
100
AcDbEntity
  8
0
  6
BYBLOCK
100
AcDbLine
 10
2549.385310238374
 20
-469.4243809226663
 30
0.0000000002254849
 11
2548.688642344374
 21
-472.0243809226663
 31
0.0000000002254849
  0
LINE
  5
1B450
330
18
100
AcDbEntity
  8
0
  6
BYBLOCK
100
AcDbLine
 10
2548.688642344374
 20
-472.0243809226663
 30
0.0000000002254849
 11
2547.991974450374
 21
-469.4243809226663
 31
0.0000000002254849
  0
LINE
  5
1B451
330
18
100
AcDbEntity
  8
0
  6
BYBLOCK
100
AcDbLine
 10
2548.688642344374
 20
-472.0243809226663
 30
0.0000000002254849
 11
2548.688642344374
 21
-469.4243809226663
 31
0.0000000002254849
  0
LINE
  5
1B452
330
18
100
AcDbEntity
  8
0
  6
BYBLOCK
100
AcDbLine
 10
2547.991974450374
 20
-415.6243809226609
 30
0.0000000002254849
 11
2548.688642344374
 21
-413.0243809226608
 31
0.0000000002254849
  0
LINE
  5
1B453
330
18
100
AcDbEntity
  8
0
  6
BYBLOCK
100
AcDbLine
 10
2548.688642344374
 20
-413.0243809226608
 30
0.0000000002254849
 11
2549.385310238374
 21
-415.6243809226609
 31
0.0000000002254849
  0
LINE
  5
1B454
330
18
100
AcDbEntity
  8
0
  6
BYBLOCK
100
AcDbLine
 10
2548.688642344374
 20
-413.0243809226608
 30
0.0000000002254849
 11
2548.688642344374
 21
-415.6243809226609
 31
0.0000000002254849
  0
TEXT
  5
1B455
330
18
100
AcDbEntity
  8
1DIM
  6
CONTINUOUS
100
AcDbText
 10
2547.778642344374
 20
-446.3328994411818
 30
0.0000000002254849
 40
4.55
  1
59
 50
90.0
100
AcDbText
1001
ACAD
1000
DSTYLE
1002
{
1070
    40
1040
1.3
1002
}
  0
LINE
  5
1B456
330
18
100
AcDbEntity
  8
0
  6
BYBLOCK
100
AcDbLine
 10
2539.385310238374
 20
-444.4243809226663
 30
0.0000000002254849
 11
2538.688642344374
 21
-447.0243809226663
 31
0.0000000002254849
  0
LINE
  5
1B457
330
18
100
AcDbEntity
  8
0
  6
BYBLOCK
100
AcDbLine
 10
2538.688642344374
 20
-447.0243809226663
 30
0.0000000002254849
 11
2537.991974450374
 21
-444.4243809226663
 31
0.0000000002254849
  0
LINE
  5
1B458
330
18
100
AcDbEntity
  8
0
  6
BYBLOCK
100
AcDbLine
 10
2538.688642344374
 20
-447.0243809226663
 30
0.0000000002254849
 11
2538.688642344374
 21
-444.4243809226663
 31
0.0000000002254849
  0
LINE
  5
1B459
330
18
100
AcDbEntity
  8
0
  6
BYBLOCK
100
AcDbLine
 10
2537.991974450374
 20
-415.6243809226609
 30
0.0000000002254849
 11
2538.688642344374
 21
-413.0243809226608
 31
0.0000000002254849
  0
LINE
  5
1B45A
330
18
100
AcDbEntity
  8
0
  6
BYBLOCK
100
AcDbLine
 10
2538.688642344374
 20
-413.0243809226608
 30
0.0000000002254849
 11
2539.385310238374
 21
-415.6243809226609
 31
0.0000000002254849
  0
LINE
  5
1B45B
330
18
100
AcDbEntity
  8
0
  6
BYBLOCK
100
AcDbLine
 10
2538.688642344374
 20
-413.0243809226608
 30
0.0000000002254849
 11
2538.688642344374
 21
-415.6243809226609
 31
0.0000000002254849
  0
TEXT
  5
1B45C
330
18
100
AcDbEntity
  8
1DIM
  6
CONTINUOUS
100
AcDbText
 10
2537.778642344374
 20
-433.8160475893296
 30
0.0000000002254849
 40
4.55
  1
34
 50
90.0
100
AcDbText
1001
ACAD
1000
DSTYLE
1002
{
1070
    40
1040
1.3
1002
}
  0
VIEWPORT
  5
57
330
15
100
AcDbEntity
 67
     1
  8
0
100
AcDbViewport
 68
     1
 10
0.0
 20
0.0
 30
0.0
 40
639.180424528302
 41
297.0000000000001
 68
     1
 69
     1
1001
ACAD
1000
MVIEW
1002
{
1070
    16
1010
0.0
1020
0.0
1030
0.0
1010
0.0
1020
0.0
1030
1.0
1040
0.0
1040
297.0000000000001
1040
1.837278951023421
1040
12.29366132359621
1040
50.0
1040
0.0
1040
0.0
1070
    16
1070
   100
1070
     0
1070
     1
1070
     0
1070
     0
1070
     0
1070
     0
1040
0.0
1040
0.0
1040
0.0
1040
10.0
1040
10.0
1040
10.0
1040
10.0
1070
     0
1002
{
1002
}
1002
}
  0
ENDSEC
  0
SECTION
  2
OBJECTS
  0
DICTIONARY
  5
C
330
0
100
AcDbDictionary
  3
ACAD_CIP_PREVIOUS_PRODUCT_INFO
350
1AF24
  3
ACAD_COLOR
350
18D
  3
ACAD_GROUP
350
D
  3
ACAD_LAYOUT
350
18E
  3
ACAD_MATERIAL
350
18C
  3
ACAD_MLEADERSTYLE
350
D9E7
  3
ACAD_MLINESTYLE
350
1B
  3
ACAD_PLOTSETTINGS
350
18F
  3
ACAD_SCALELIST
350
D9C5
  3
ACAD_VISUALSTYLE
350
D9B4
  3
ACDBHEADERROUNDTRIPXREC
350
1B45D
  3
ACDBVARIABLEDICTIONARY
350
37
  3
AEC_PROPERTY_SET_DEFS
350
1B037
  3
CONTENTDICTIONARY
350
D8
  3
DRAWINGVARIABLESDICT
350
20
  3
DWGPROPS
350
1B460
1001
ACAD
1000
TREAT_AS_HARD
1070
     0
  0
DICTIONARY
  5
E6A6
330
2
100
AcDbDictionary
  3
ACAD_LAYERSTATES
360
E6A7
1001
ACAD
1000
TREAT_AS_HARD
1070
     1
  0
DICTIONARY
  5
DA05
330
E
100
AcDbDictionary
  3
ADSK_XREC_LAYER_RECONCILED
360
DA06
1001
ACAD
1000
TREAT_AS_HARD
1070
     1
  0
DICTIONARY
  5
DA07
330
29
100
AcDbDictionary
  3
ADSK_XREC_LAYER_RECONCILED
360
DA08
1001
ACAD
1000
TREAT_AS_HARD
1070
     1
  0
DICTIONARY
  5
DA09
330
31
100
AcDbDictionary
  3
ADSK_XREC_LAYER_RECONCILED
360
DA0A
1001
ACAD
1000
TREAT_AS_HARD
1070
     1
  0
DICTIONARY
  5
DA0F
330
243
100
AcDbDictionary
  3
ADSK_XREC_LAYER_RECONCILED
360
DA10
1001
ACAD
1000
TREAT_AS_HARD
1070
     1
  0
DICTIONARY
  5
DA15
330
24E
100
AcDbDictionary
  3
ADSK_XREC_LAYER_RECONCILED
360
DA16
1001
ACAD
1000
TREAT_AS_HARD
1070
     1
  0
DICTIONARY
  5
DA23
330
2C05
100
AcDbDictionary
  3
ADSK_XREC_LAYER_RECONCILED
360
DA24
1001
ACAD
1000
TREAT_AS_HARD
1070
     1
  0
DICTIONARY
  5
88F
330
18
100
AcDbDictionary
  3
ACAD_SORTENTS
360
890
1001
ACAD
1000
TREAT_AS_HARD
1070
     1
  0
XRECORD
  5
1AF24
102
{ACAD_REACTORS
330
C
102
}
330
C
100
AcDbXrecord
300
ACDLT
300
2012
300
ACDLT_F_S
  0
DICTIONARY
  5
18D
102
{ACAD_REACTORS
330
C
102
}
330
C
100
AcDbDictionary
1001
ACAD
1000
TREAT_AS_HARD
1070
     0
  0
DICTIONARY
  5
D
102
{ACAD_REACTORS
330
C
102
}
330
C
100
AcDbDictionary
1001
ACAD
1000
TREAT_AS_HARD
1070
     0
  0
DICTIONARY
  5
18E
102
{ACAD_REACTORS
330
C
102
}
330
C
100
AcDbDictionary
1001
ACAD
1000
TREAT_AS_HARD
1070
     0
  0
DICTIONARY
  5
18C
102
{ACAD_REACTORS
330
C
102
}
330
C
100
AcDbDictionary
  3
BYBLOCK
350
D9A4
  3
BYLAYER
350
D99C
  3
GLOBAL
350
D9AC
1001
ACAD
1000
TREAT_AS_HARD
1070
     0
  0
DICTIONARY
  5
D9E7
102
{ACAD_REACTORS
330
C
102
}
330
C
100
AcDbDictionary
  3
STANDARD
350
D9E8
1001
ACAD
1000
TREAT_AS_HARD
1070
     0
  0
DICTIONARY
  5
1B
102
{ACAD_REACTORS
330
C
102
}
330
C
100
AcDbDictionary
  3
STANDARD
350
1C
1001
ACAD
1000
TREAT_AS_HARD
1070
     0
  0
DICTIONARY
  5
18F
102
{ACAD_REACTORS
330
C
102
}
330
C
100
AcDbDictionary
1001
ACAD
1000
TREAT_AS_HARD
1070
     0
  0
DICTIONARY
  5
D9C5
102
{ACAD_REACTORS
330
C
102
}
330
C
100
AcDbDictionary
  3
A0
350
D9C6
  3
A1
350
D9C7
  3
A2
350
D9C8
  3
A3
350
D9C9
  3
A4
350
D9CA
  3
A5
350
D9CB
  3
A6
350
D9CC
  3
A7
350
D9CD
  3
A8
350
D9CE
  3
A9
350
D9CF
  3
B0
350
D9D0
  3
B1
350
D9D1
  3
B2
350
D9D2
  3
B3
350
D9D3
  3
B4
350
D9D4
  3
B5
350
D9D5
  3
B6
350
D9D6
  3
B7
350
D9D7
  3
B8
350
D9D8
  3
B9
350
D9D9
  3
C0
350
D9DA
  3
C1
350
D9DB
  3
C2
350
D9DC
  3
C3
350
D9DD
  3
C4
350
D9DE
  3
C5
350
D9DF
  3
C6
350
D9E0
  3
C7
350
D9E1
  3
C8
350
D9E2
  3
C9
350
D9E3
  3
D0
350
D9E4
  3
D1
350
D9E5
  3
D2
350
D9E6
1001
ACAD
1000
TREAT_AS_HARD
1070
     0
  0
DICTIONARY
  5
D9B4
102
{ACAD_REACTORS
330
C
102
}
330
C
100
AcDbDictionary
  3
2DWIREFRAME
350
D9BA
  3
3D_HIDDEN
350
D9BC
  3
3DWIREFRAME
350
D9BB
  3
BASIC
350
D9B9
  3
BRIGHTEN
350
D9C0
  3
COLORCHANGE
350
D9C4
  3
CONCEPTUAL
350
D9BD
  3
DIM
350
D9BF
  3
EDGECOLOROFF
350
19C2F
  3
FACEPATTERN
350
D9C3
  3
FLAT
350
D9B5
  3
FLATWITHEDGES
350
D9B6
  3
GOURAUD
350
D9B7
  3
GOURAUDWITHEDGES
350
D9B8
  3
HIDDEN
350
19C7E
  3
JITTEROFF
350
19C2D
  3
LINEPATTERN
350
D9C2
  3
MODELING
350
19C84
  3
OVERHANGOFF
350
19C2E
  3
REALISTIC
350
D9BE
  3
SHADED
350
19C83
  3
SHADED_WITH_EDGES
350
19C82
  3
SHADES_OF_GRAY
350
19C7F
  3
SKETCHY
350
19C80
  3
THICKEN
350
D9C1
  3
WIREFRAME
350
19C7D
  3
X-RAY
350
19C81
1001
ACAD
1000
TREAT_AS_HARD
1070
     0
  0
DICTIONARY
  5
1B45D
102
{ACAD_REACTORS
330
C
102
}
330
C
100
AcDbDictionary
  3
COLORDICT
350
1B45E
  3
MATERIALDICT
350
1B45F
1001
ACAD
1000
TREAT_AS_HARD
1070
     0
  0
DICTIONARY
  5
37
102
{ACAD_REACTORS
330
C
102
}
330
C
100
AcDbDictionary
  3
CANNOSCALE
350
1A5BC
  3
CMLEADERSTYLE
350
DA6A
  3
CTABLESTYLE
350
29E
  3
DIMADEC
350
38
  3
DIMASSOC
350
1CE
  3
HIDETEXT
350
704E
  3
INDEXCTL
350
DA6D
  3
INTERSECTIONCOLOR
350
7052
  3
INTERSECTIONDISPLAY
350
7051
  3
MSLTSCALE
350
1A60C
  3
OBSCOLOR
350
704F
  3
OBSLTYPE
350
7050
  3
PROJECTNAME
350
1CF
  3
SORTENTS
350
DA6C
  3
XCLIPFRAME
350
1B221
1001
ACAD
1000
TREAT_AS_HARD
1070
     0
  0
DICTIONARY
  5
1B037
102
{ACAD_REACTORS
330
C
102
}
330
C
100
AcDbDictionary
1001
ACAD
1000
TREAT_AS_HARD
1070
     0
  0
DICTIONARY
  5
D8
102
{ACAD_REACTORS
330
C
102
}
330
C
100
AcDbDictionary
1001
ACAD
1000
TREAT_AS_HARD
1070
     0
  0
DICTIONARY
  5
20
102
{ACAD_REACTORS
330
C
102
}
330
C
100
AcDbDictionary
1001
DRAWINGVARIABLESXDATA
1000
POLARANG
1000
0.261799387799149410000000
1000
POLARMODE
1000
1
1000
POLARSTYLE
1000
1
1001
ACAD
1000
TREAT_AS_HARD
1070
     0
  0
XRECORD
  5
1B460
102
{ACAD_REACTORS
330
C
102
}
330
C
100
AcDbXrecord
  1
DWGPROPS COOKIE
  2

  3

  4

  6

  7

  8
3684
  9

300
=
301
=
302
=
303
=
304
=
305
=
306
=
307
=
308
=
309
=
 40
0.0
 41
2451318.246352917
 42
2458807.991682512
  1

 90
        0
  0
DICTIONARY
  5
E6A7
102
{ACAD_REACTORS
330
E6A6
102
}
330
E6A6
100
AcDbDictionary
1001
ACAD
1000
TREAT_AS_HARD
1070
     0
  0
ACAD_PROXY_OBJECT
  5
DA06
102
{ACAD_REACTORS
330
DA05
102
}
330
DA05
100
AcDbZombieObject
 90
      499
 91
      514
 93
       34
310
40C8804040
  0
ACAD_PROXY_OBJECT
  5
DA08
102
{ACAD_REACTORS
330
DA07
102
}
330
DA07
100
AcDbZombieObject
 90
      499
 91
      514
 93
       34
310
40C8804040
  0
ACAD_PROXY_OBJECT
  5
DA0A
102
{ACAD_REACTORS
330
DA09
102
}
330
DA09
100
AcDbZombieObject
 90
      499
 91
      514
 93
       34
310
40C8804040
  0
ACAD_PROXY_OBJECT
  5
DA10
102
{ACAD_REACTORS
330
DA0F
102
}
330
DA0F
100
AcDbZombieObject
 90
      499
 91
      514
 93
       34
310
40C8804040
  0
ACAD_PROXY_OBJECT
  5
DA16
102
{ACAD_REACTORS
330
DA15
102
}
330
DA15
100
AcDbZombieObject
 90
      499
 91
      514
 93
       34
310
40C8804040
  0
ACAD_PROXY_OBJECT
  5
DA24
102
{ACAD_REACTORS
330
DA23
102
}
330
DA23
100
AcDbZombieObject
 90
      499
 91
      514
 93
       34
310
40C8804040
  0
SORTENTSTABLE
  5
890
102
{ACAD_REACTORS
330
88F
102
}
330
88F
100
AcDbSortentsTable
330
18
331
0
  5
5BFF
331
1AB56
  5
1AB64
331
1AB57
  5
1AB65
331
1AB58
  5
1AB67
331
1AB59
  5
1AB68
331
1AB5A
  5
1AB69
331
1AB5B
  5
1AB6A
331
1AB5C
  5
1AB6B
331
1AB5D
  5
1AB6C
331
1AB5E
  5
1AB6D
331
1AB5F
  5
1AB71
331
1AB60
  5
1AB72
331
1AB61
  5
1AB73
331
1AB62
  5
1AB74
331
1AB64
  5
1AB84
331
1AB65
  5
1AB85
331
0
  5
1AB90
331
1AB68
  5
1ABA4
331
1AB69
  5
1ABA5
331
1AB6A
  5
1ABA6
331
1AB6B
  5
1ABA7
331
1AB6C
  5
1ABA8
331
1AB6D
  5
1ABA9
331
1AB6E
  5
1ABAA
331
1AB6F
  5
1ABAB
331
1AB70
  5
1ABAC
331
1AB71
  5
1ABAD
331
1AB72
  5
1ABAE
331
1AB73
  5
1ABAF
331
1AB74
  5
1ABB0
331
1AB75
  5
1ABB1
331
1AB76
  5
1ABB2
331
1AB77
  5
1ABB3
331
1AB78
  5
1ABB5
331
1AB79
  5
1ABB6
331
1AB7A
  5
1ABB7
331
1AB7B
  5
1ABB8
331
1AB7D
  5
1ABC9
331
1AB7E
  5
1ABCB
331
1AB7F
  5
1ABCC
331
1AB81
  5
1ABDA
331
0
  5
1ABCA
331
1AB83
  5
1ABE8
331
1AB84
  5
1ABE9
331
1AB85
  5
1ABED
331
1AB86
  5
1ABEE
331
1AB87
  5
1ABEF
331
1AB88
  5
1ABF0
331
1AB89
  5
1ABF1
331
1AB8A
  5
1ABF2
331
1AB8B
  5
1ABF6
331
1AB8C
  5
1ABF7
331
1AB8D
  5
1ABF8
331
1AB8E
  5
1ABFC
331
1AB8F
  5
1ABFD
331
1AB90
  5
1ABFE
331
1AB91
  5
1AC02
331
1AB92
  5
1AC03
331
1AB93
  5
1AC04
331
1AB94
  5
1AC05
331
1AB95
  5
1AC06
331
1AB96
  5
1AC07
331
1AB97
  5
1AC08
331
1AB98
  5
1AC09
331
1AB99
  5
1AC0A
331
1AB9A
  5
1AC0B
331
1AB9B
  5
1AC0C
331
1AB9C
  5
1AC0D
331
1AB9D
  5
1AC0E
331
1AB9E
  5
1AC0F
331
1AB9F
  5
1AC10
331
1ABA0
  5
1AC11
331
1ABA1
  5
1AC12
331
1ABA2
  5
1AC13
331
1ABA3
  5
1AC14
331
1ABA4
  5
1AC15
331
1ABA5
  5
1AC16
331
1ABA6
  5
1AC17
331
1ABA7
  5
1AC18
331
1ABA8
  5
1AC19
331
1ABA9
  5
1AC1A
331
1ABAA
  5
1AC1B
331
1ABAB
  5
1AC1C
331
1ABAC
  5
1AC1D
331
1ABAD
  5
1AC1E
331
1ABAE
  5
1AC1F
331
1ABAF
  5
1AC20
331
1ABB0
  5
1AC21
331
1ABB1
  5
1AC22
331
1ABB2
  5
1AC23
331
1ABB3
  5
1AC24
331
1ABB5
  5
1AC30
331
1ABB6
  5
1AC31
331
1ABB7
  5
1AC32
331
1ABB8
  5
1AC33
331
1ABB9
  5
1AC34
331
1ABBA
  5
1AC35
331
1ABBB
  5
1AC36
331
1ABBC
  5
1AC37
331
1ABC0
  5
1AC45
331
1ABC1
  5
1AC46
331
1ABC2
  5
1AC47
331
1ABC6
  5
1B040
331
1ABC7
  5
1B041
331
1ABC8
  5
1B042
331
1ABC9
  5
1B043
331
1ABCA
  5
1B045
331
1ABCB
  5
1B046
331
1ABCC
  5
1B04A
331
1ABCD
  5
1B04B
331
1ABCE
  5
1B04C
331
1ABCF
  5
1B04D
331
1ABD0
  5
1B04E
331
1ABD1
  5
1B04F
331
1ABD2
  5
1B050
331
1ABD3
  5
1B051
331
1ABD4
  5
1B052
331
1ABD5
  5
1B053
331
1ABD6
  5
1B054
331
1ABD7
  5
1B055
331
1ABD8
  5
1B056
331
1ABD9
  5
1B057
331
1ABDA
  5
1B058
331
1ABDB
  5
1B059
331
1ABDC
  5
1B05A
331
1ABDD
  5
1B05B
331
1ABDE
  5
1B05C
331
1ABDF
  5
1B05D
331
1ABE0
  5
1B05E
331
1ABE1
  5
1B05F
331
1ABE2
  5
1B060
331
1ABE3
  5
1B061
331
1ABE4
  5
1B062
331
1ABE5
  5
1B063
331
1ABE6
  5
1B064
331
1ABE7
  5
1B065
331
1ABE8
  5
1B066
331
1ABE9
  5
1B067
331
1ABEA
  5
1B069
331
1ABEB
  5
1B06A
331
1ABEC
  5
1B06B
331
1ABED
  5
1B06C
331
1ABEE
  5
1B06D
331
1ABEF
  5
1B06E
331
1ABF0
  5
1B06F
331
1ABF1
  5
1B070
331
1ABF2
  5
1B071
331
1ABF3
  5
1B072
331
1ABF4
  5
1B073
331
1ABF5
  5
1B074
331
1ABF6
  5
1B075
331
1ABF7
  5
1B076
331
1ABF8
  5
1B077
331
1ABF9
  5
1B07B
331
1ABFA
  5
1B07C
331
1ABFB
  5
1B07D
331
1ABFC
  5
1B07E
331
1ABFD
  5
1B082
331
1ABFE
  5
1B083
331
1ABFF
  5
1B084
331
1AC00
  5
1B088
331
1AC01
  5
1B089
331
1AC02
  5
1B08A
331
1AC03
  5
1B08B
331
0
  5
1B068
331
1AC05
  5
1B096
331
1AC06
  5
1B097
331
1AC07
  5
1B098
331
1AC08
  5
1B099
331
1AC09
  5
1B09A
331
1AC0A
  5
1B09B
331
1AC0B
  5
1B09C
331
1AC0C
  5
1B09D
331
1AC0D
  5
1B09E
331
1AC0E
  5
1B09F
331
1AC0F
  5
1B0A0
331
1AC10
  5
1B0A1
331
1AC11
  5
1B0A2
331
1AC12
  5
1B0A3
331
1AC13
  5
1B0A4
331
1AC14
  5
1B0A5
331
1AC15
  5
1B0A6
331
1AC16
  5
1B0A7
331
1AC17
  5
1B0A8
331
1AC18
  5
1B0A9
331
1AC19
  5
1B0AA
331
1AC1A
  5
1B0AB
331
1AC1B
  5
1B0AC
331
1AC1C
  5
1B0AD
331
1AC1D
  5
1B0AE
331
1AC1E
  5
1B0AF
331
1AC1F
  5
1B0B0
331
1AC20
  5
1B0B1
331
1AC21
  5
1B0B2
331
1AC22
  5
1B0B3
331
1AC23
  5
1B0B4
331
1AC24
  5
1B0B5
331
1AC25
  5
1B0B6
331
1AC26
  5
1B0B7
331
1AC27
  5
1B0B8
331
1AC28
  5
1B0B9
331
1AC2A
  5
1B0C4
331
1AC2B
  5
1B0C5
331
1AC2C
  5
1B0C6
331
1AC2D
  5
1B0C7
331
1AC2E
  5
1B0C8
331
1AC2F
  5
1B0CA
331
1AC30
  5
1B0CC
331
1AC31
  5
1B0CD
331
1AC32
  5
1B0CE
331
1AC33
  5
1B0CF
331
1AC34
  5
1B0D0
331
1AC35
  5
1B0D1
331
1AC36
  5
1B0D2
331
1AC37
  5
1B0D3
331
1AC38
  5
1B0D4
331
1AC3A
  5
1B0D5
331
1AC3D
  5
1B0D6
331
1AC3E
  5
1B0D7
331
1AC3F
  5
1B0D8
331
1AC40
  5
1B0D9
331
1AC41
  5
1B0DA
331
1AC42
  5
1B0DB
331
1AC43
  5
1B0DC
331
1AC44
  5
1B0DD
331
1AC45
  5
1B0DE
331
1AC46
  5
1B0DF
331
1AC47
  5
1B0E0
331
1AC48
  5
1B0E1
331
1AC49
  5
1B0E2
331
1AC4A
  5
1B0E3
331
1AC4B
  5
1B0E4
331
1AC4C
  5
1B0E5
331
1AC4D
  5
1B0E6
331
1AC4E
  5
1B0E7
331
1AC4F
  5
1B0E8
331
1AC50
  5
1B0E9
331
1AC51
  5
1B0EA
331
1AC52
  5
1B0EB
331
1AC53
  5
1B0EC
331
1AC54
  5
1B0ED
331
1AC55
  5
1B0EE
331
1AC56
  5
1B0EF
331
1AC57
  5
1B0F0
331
1AC58
  5
1B1A8
331
1AC59
  5
1B1A9
331
1AC5A
  5
1B1AA
331
1AC5B
  5
1B1C6
331
1AC5C
  5
1B1C8
331
0
  5
1AC60
331
0
  5
1AC61
331
1AC5F
  5
1B33B
331
1AC87
  5
1B33C
331
1AC88
  5
1B33D
331
1AC89
  5
1B33E
331
1AC8A
  5
1B33F
331
1B039
  5
1B340
331
1B03A
  5
1B341
331
1B03D
  5
1B342
331
1B03E
  5
1B343
331
1B03F
  5
1B344
331
1B040
  5
1B345
331
1B042
  5
1B346
331
0
  5
1B0F1
331
0
  5
1B0F2
331
1B045
  5
1B35B
331
1B046
  5
1B35C
331
1B047
  5
1B35D
331
1B048
  5
1B35E
331
1B049
  5
1B35F
331
1B04A
  5
1B360
331
1B04B
  5
1B361
331
1B04C
  5
1B362
331
1B04D
  5
1B363
331
1B04E
  5
1B364
331
1B04F
  5
1B365
331
1B050
  5
1B367
331
1B051
  5
1B368
331
1B052
  5
1B369
331
1B053
  5
1B36B
331
1B054
  5
1B36C
331
1B055
  5
1B36D
331
1B056
  5
1B36E
331
1B057
  5
1B36F
331
1B058
  5
1B370
331
1B059
  5
1B371
331
1B05A
  5
1B372
331
1B05B
  5
1B373
331
1B05C
  5
1B374
331
1B05D
  5
1B375
331
1B05E
  5
1B376
331
1B05F
  5
1B377
331
1B060
  5
1B378
331
1B061
  5
1B379
331
1B062
  5
1B37F
331
1B063
  5
1B380
331
1B064
  5
1B381
331
1B065
  5
1B383
331
1B066
  5
1B384
331
1B067
  5
1B385
331
1B068
  5
1B386
331
1B069
  5
1B387
331
1B06A
  5
1B388
331
1B06B
  5
1B389
331
1B06C
  5
1B38A
331
1B06D
  5
1B38B
331
1B06E
  5
1B38C
331
1B06F
  5
1B38D
331
1B070
  5
1B38E
331
1B071
  5
1B38F
331
1B072
  5
1B390
331
1B073
  5
1B391
331
1B074
  5
1B392
331
1B075
  5
1B393
331
1B076
  5
1B394
331
1B077
  5
1B395
331
1B078
  5
1B396
331
1B079
  5
1B397
331
1B07A
  5
1B398
331
1B07B
  5
1B399
331
1B07C
  5
1B39B
331
1B07D
  5
1B39C
331
1B07E
  5
1B39E
331
1B07F
  5
1B39F
331
1B080
  5
1B3A0
331
1B081
  5
1B3A4
331
1B082
  5
1B3A5
331
1B083
  5
1B3A6
331
1B084
  5
1B3AA
331
1B085
  5
1B3AB
331
1B086
  5
1B3AC
331
1B087
  5
1B3B0
331
1B088
  5
1B3B1
331
1B089
  5
1B3B2
331
1B08A
  5
1B3B6
331
1B08B
  5
1B3B7
331
1B08C
  5
1B3B8
331
1B08D
  5
1B3B9
331
1B08E
  5
1B3BA
331
1B08F
  5
1B3BB
331
1B090
  5
1B3BC
331
1B091
  5
1B3BD
331
1B092
  5
1B3BE
331
1B093
  5
1B3BF
331
1B094
  5
1B3C0
331
1B095
  5
1B3C1
331
1B096
  5
1B3C2
331
1B097
  5
1B3C3
331
1B098
  5
1B3C4
331
1B099
  5
1B3C5
331
1B09A
  5
1B3C6
331
1B09B
  5
1B3C7
331
1B09C
  5
1B3C8
331
1B09D
  5
1B3C9
331
1B09E
  5
1B3CA
331
1B09F
  5
1B3CB
331
1B0A0
  5
1B3CC
331
0
  5
1B37A
331
0
  5
1B37B
331
0
  5
1B37C
331
0
  5
1B37D
331
1B0A5
  5
1B3F5
331
1B0A6
  5
1B3F6
331
1B0A7
  5
1B3F7
331
1B0A8
  5
1B3F8
331
1B0A9
  5
1B3F9
331
1B0AA
  5
1B3FA
331
1B0AB
  5
1B3FB
331
1B0AC
  5
1B3FC
331
1B0AD
  5
1B3FD
331
1B0AE
  5
1B3FE
331
1B0AF
  5
1B3FF
331
1B0B0
  5
1B400
331
1B0B1
  5
1B401
331
1B0B2
  5
1B402
331
1B0B3
  5
1B403
331
1B0B4
  5
1B404
331
1B0B5
  5
1B405
331
1B0B6
  5
1B406
331
1B0B7
  5
1B407
331
1B0B8
  5
1B408
331
1B0B9
  5
1B409
331
1B0BA
  5
1B40A
331
1B0BB
  5
1B40B
331
1B0BC
  5
1B40C
331
1B0BD
  5
1B40D
331
1B0BE
  5
1B40E
331
1B0BF
  5
1B40F
331
1B0C0
  5
1B410
331
0
  5
1B39A
331
0
  5
1B0C9
331
0
  5
1B39D
331
0
  5
1B0CB
331
1B0C5
  5
1B419
331
1B0C6
  5
1B41A
331
1B0C7
  5
1B41B
331
1B0C8
  5
1B41C
331
1B0C9
  5
1B41D
331
1B0CA
  5
1B41E
331
1B0CB
  5
1B41F
331
1B0CC
  5
1B420
331
1B0CD
  5
1B421
331
1B0CE
  5
1B422
331
1B0CF
  5
1B423
331
1B0D0
  5
1B424
331
1B0D1
  5
1B425
331
1B0D2
  5
1B426
331
1B0D3
  5
1B427
331
1B0D4
  5
1B428
331
1B0D5
  5
1B429
331
1B0D6
  5
1B42A
331
1B0D7
  5
1B42B
331
1B0D8
  5
1B42C
331
1B0D9
  5
1B42D
331
1B0DA
  5
1B42E
331
1B0DB
  5
1B42F
331
1B0DC
  5
1B430
331
1B0DD
  5
1B431
331
1B0DE
  5
1B432
331
1B0DF
  5
1B433
331
1B0E0
  5
1B434
331
1B0E1
  5
1B435
331
1B0E2
  5
1B436
331
1B0E3
  5
1B437
331
1B0E4
  5
1B438
331
1B0E5
  5
1B439
331
1B0E6
  5
1B43A
331
1B0E7
  5
1B43B
331
1B0E8
  5
1B43C
331
1B0E9
  5
1B43D
331
1B0EA
  5
1B43E
331
1B0EB
  5
1B43F
331
1B0EC
  5
1B440
331
1B0ED
  5
1B441
331
1B0EE
  5
1B442
331
1B0EF
  5
1B443
331
1B0F0
  5
1B444
331
1B0F1
  5
1B445
331
1B0F2
  5
1B446
331
1B0F3
  5
1B447
331
1B1A8
  5
1B1C7
331
1B1A9
  5
1B0F3
331
1B1C6
  5
1B448
331
1B1C7
  5
1B449
331
1B1C8
  5
1B44A
331
1B1C9
  5
1B44B
331
1B1CA
  5
1B44C
331
1B1CB
  5
1B44D
331
1B1CC
  5
1B44E
331
1B1CD
  5
1B44F
331
1B1CE
  5
1B450
331
1B1CF
  5
1B451
331
1B1D0
  5
1B452
331
1B1D1
  5
1B453
331
1B1D2
  5
1B454
331
1B1D3
  5
1B455
331
1B1D4
  5
1B456
331
1B1D5
  5
1B457
331
1B1D6
  5
1B458
331
1B1D7
  5
1B459
331
1B1D8
  5
1B45A
331
1B1D9
  5
1B45B
331
1B1DA
  5
1B45C
331
1B1EB
  5
1B382
331
1B1EC
  5
1B37E
331
1B1ED
  5
1B366
331
1B1EE
  5
1B36A
331
1B337
  5
1AB56
331
1B338
  5
1AB57
331
1B339
  5
1AB58
331
0
  5
1AB59
331
0
  5
1AB5A
331
0
  5
1AB5B
331
1B33D
  5
1AB75
331
1B33E
  5
1AB79
331
1B33F
  5
1AB7A
331
0
  5
1AB6E
331
0
  5
1AB6F
331
0
  5
1AB70
331
1B343
  5
1AB86
331
1B344
  5
1AB87
331
1B345
  5
1AB88
331
0
  5
1AB76
331
0
  5
1AB77
331
0
  5
1AB78
331
1B349
  5
1ABB9
331
1B34A
  5
1ABBA
331
1B34B
  5
1ABBB
331
0
  5
1AB93
331
0
  5
1AB94
331
0
  5
1AB95
331
1B34F
  5
1ABCD
331
1B350
  5
1ABCE
331
1B351
  5
1ABCF
331
0
  5
1AB9C
331
0
  5
1AB9D
331
0
  5
1AB9E
331
1B355
  5
1AC25
331
1B356
  5
1AC26
331
1B357
  5
1AC27
331
0
  5
1ABDC
331
0
  5
1ABDD
331
0
  5
1ABDE
331
1B35B
  5
1AC38
331
1B35C
  5
1AC3A
331
1B35D
  5
1AC3D
331
0
  5
1ABEA
331
0
  5
1ABEB
331
0
  5
1ABEC
331
1B361
  5
1AC48
331
1B362
  5
1AC49
331
1B363
  5
1AC4A
331
0
  5
1ABF3
331
0
  5
1ABF4
331
0
  5
1ABF5
331
1B367
  5
1AC52
331
1B368
  5
1AC53
331
1B369
  5
1AC54
331
0
  5
1ABF9
331
0
  5
1ABFA
331
0
  5
1ABFB
331
1B36D
  5
1AC5C
331
1B36E
  5
1AC5E
331
1B36F
  5
1AC5F
331
0
  5
1ABFF
331
0
  5
1AC00
331
0
  5
1AC01
331
1B373
  5
1B0BA
331
1B374
  5
1B0BB
331
1B375
  5
1B0BC
331
0
  5
1B047
331
0
  5
1B048
331
0
  5
1B049
331
1B379
  5
1B1C9
331
1B37A
  5
1B1CA
331
1B37B
  5
1B1CB
331
0
  5
1B07F
331
0
  5
1B080
331
0
  5
1B081
331
1B37F
  5
1B1D3
331
1B380
  5
1B1D4
331
1B381
  5
1B1D5
331
0
  5
1B085
331
0
  5
1B086
331
0
  5
1B087
331
1B385
  5
1B413
331
1B386
  5
1B414
331
1B387
  5
1B417
331
1B388
  5
1B418
331
1B389
  5
1AB5C
331
1B38A
  5
1AB5D
331
1B38B
  5
1AB5E
331
1B38C
  5
1AB5F
331
1B38D
  5
1AB60
331
1B38E
  5
1AB61
331
1B38F
  5
1AB62
331
1B390
  5
1AB7B
331
1B391
  5
1AB7D
331
1B392
  5
1AB7E
331
1B393
  5
1AB7F
331
1B394
  5
1AB81
331
1B395
  5
1AB82
331
1B396
  5
1AB83
331
1B397
  5
1AB89
331
1B398
  5
1AB8A
331
1B399
  5
1AB8B
331
1B39A
  5
1AB8C
331
1B39B
  5
1AB8D
331
1B39C
  5
1AB8E
331
1B39D
  5
1AB8F
331
1B39E
  5
1ABBC
331
1B39F
  5
1ABC0
331
1B3A0
  5
1ABC1
331
1B3A1
  5
1ABC2
331
1B3A2
  5
1ABC6
331
1B3A3
  5
1ABC7
331
1B3A4
  5
1ABC8
331
1B3A5
  5
1ABD0
331
1B3A6
  5
1ABD1
331
1B3A7
  5
1ABD2
331
1B3A8
  5
1ABD3
331
1B3A9
  5
1ABD7
331
1B3AA
  5
1ABD8
331
1B3AB
  5
1ABD9
331
1B3AC
  5
1AC28
331
1B3AD
  5
1AC2A
331
1B3AE
  5
1AC2B
331
1B3AF
  5
1AC2C
331
1B3B0
  5
1AC2D
331
1B3B1
  5
1AC2E
331
1B3B2
  5
1AC2F
331
1B3B3
  5
1AC3E
331
1B3B4
  5
1AC3F
331
1B3B5
  5
1AC40
331
1B3B6
  5
1AC41
331
1B3B7
  5
1AC42
331
1B3B8
  5
1AC43
331
1B3B9
  5
1AC44
331
1B3BA
  5
1AC4B
331
1B3BB
  5
1AC4C
331
1B3BC
  5
1AC4D
331
1B3BD
  5
1AC4E
331
1B3BE
  5
1AC4F
331
1B3BF
  5
1AC50
331
1B3C0
  5
1AC51
331
1B3C1
  5
1AC55
331
1B3C2
  5
1AC56
331
1B3C3
  5
1AC57
331
1B3C4
  5
1AC58
331
1B3C5
  5
1AC59
331
1B3C6
  5
1AC5A
331
1B3C7
  5
1AC5B
331
1B3C8
  5
1AC62
331
1B3C9
  5
1AC8A
331
1B3CA
  5
1B039
331
1B3CB
  5
1B03A
331
1B3CC
  5
1B03B
331
1B3CD
  5
1B03C
331
1B3CE
  5
1B03D
331
1B3CF
  5
1B0BD
331
1B3D0
  5
1B0BE
331
1B3D1
  5
1B0BF
331
1B3D2
  5
1B0C0
331
1B3D3
  5
1B0C1
331
1B3D4
  5
1B0C2
331
1B3D5
  5
1B0C3
331
1B3D6
  5
1B1CC
331
1B3D7
  5
1B1CD
331
1B3D8
  5
1B1CE
331
1B3D9
  5
1B1CF
331
1B3DA
  5
1B1D0
331
1B3DB
  5
1B1D1
331
1B3DC
  5
1B1D2
331
1B3DD
  5
1B1D6
331
1B3DE
  5
1B1DA
331
1B3DF
  5
1B1EB
331
1B3E0
  5
1B1EC
331
1B3E1
  5
1B338
331
1B3E2
  5
1B339
331
1B3E3
  5
1B33A
331
1B3E4
  5
1AB91
331
1B3E5
  5
1AB92
331
1B3E6
  5
1AB96
331
0
  5
1AB97
331
0
  5
1AB98
331
0
  5
1AB99
331
1B3EA
  5
1ABDB
331
1B3EB
  5
1ABDF
331
1B3EC
  5
1ABE0
331
0
  5
1ABD4
331
0
  5
1ABD5
331
0
  5
1ABD6
331
1B3F0
  5
1B08C
331
1B3F1
  5
1B08D
331
1B3F2
  5
1B08E
331
0
  5
1B078
331
0
  5
1B079
331
0
  5
1B07A
331
1B3F6
  5
1B347
331
1B3F7
  5
1B348
331
1B3F8
  5
1B349
331
0
  5
1B1D7
331
0
  5
1B1D8
331
0
  5
1B1D9
331
1B3FC
  5
1B351
331
1B3FD
  5
1B352
331
1B3FE
  5
1B353
331
0
  5
1B1ED
331
0
  5
1B1EE
331
0
  5
1B337
331
1B402
  5
1B3CD
331
1B403
  5
1B3CE
331
1B404
  5
1B3CF
331
0
  5
1B3A1
331
0
  5
1B3A2
331
0
  5
1B3A3
331
1B408
  5
1B3D7
331
1B409
  5
1B3D8
331
1B40A
  5
1B3D9
331
0
  5
1B3A7
331
0
  5
1B3A8
331
0
  5
1B3A9
331
1B40E
  5
1B3E1
331
1B40F
  5
1B3E2
331
1B410
  5
1B3E3
331
0
  5
1B3AD
331
0
  5
1B3AE
331
0
  5
1B3AF
331
1B414
  5
1B3EB
331
1B415
  5
1B3EC
331
1B416
  5
1B3ED
331
0
  5
1B3B3
331
0
  5
1B3B4
331
0
  5
1B3B5
331
1B41A
  5
1B411
331
1B41B
  5
1B412
331
1B41C
  5
1B415
331
1B41D
  5
1B416
331
1B41E
  5
1AB9A
331
1B41F
  5
1AB9B
331
1B420
  5
1AB9F
331
1B421
  5
1ABA0
331
1B422
  5
1ABA1
331
1B423
  5
1ABA2
331
1B424
  5
1ABA3
331
1B425
  5
1ABE1
331
1B426
  5
1ABE2
331
1B427
  5
1ABE3
331
1B428
  5
1ABE4
331
1B429
  5
1ABE5
331
1B42A
  5
1ABE6
331
1B42B
  5
1ABE7
331
1B42C
  5
1B08F
331
1B42D
  5
1B090
331
1B42E
  5
1B091
331
1B42F
  5
1B092
331
1B430
  5
1B093
331
1B431
  5
1B094
331
1B432
  5
1B095
331
1B433
  5
1B34A
331
1B434
  5
1B34B
331
1B435
  5
1B34C
331
1B436
  5
1B34D
331
1B437
  5
1B34E
331
1B438
  5
1B34F
331
1B439
  5
1B350
331
1B43A
  5
1B354
331
1B43B
  5
1B355
331
1B43C
  5
1B356
331
1B43D
  5
1B357
331
1B43E
  5
1B358
331
1B43F
  5
1B359
331
1B440
  5
1B35A
331
1B441
  5
1B3D0
331
1B442
  5
1B3D1
331
1B443
  5
1B3D2
331
1B444
  5
1B3D3
331
1B445
  5
1B3D4
331
1B446
  5
1B3D5
331
1B447
  5
1B3D6
331
1B448
  5
1B3DA
331
1B449
  5
1B3DB
331
1B44A
  5
1B3DC
331
1B44B
  5
1B3DD
331
1B44C
  5
1B3DE
331
1B44D
  5
1B3DF
331
1B44E
  5
1B3E0
331
1B44F
  5
1B3E4
331
1B450
  5
1B3E5
331
1B451
  5
1B3E6
331
1B452
  5
1B3E7
331
1B453
  5
1B3E8
331
1B454
  5
1B3E9
331
1B455
  5
1B3EA
331
1B456
  5
1B3EE
331
1B457
  5
1B3EF
331
1B458
  5
1B3F0
331
1B459
  5
1B3F1
331
1B45A
  5
1B3F2
331
1B45B
  5
1B3F3
331
1B45C
  5
1B3F4
  0
MATERIAL
  5
D9A4
102
{ACAD_REACTORS
330
18C
102
}
102
{ACAD_XDICTIONARY
360
1B5FB
102
}
330
18C
100
AcDbMaterial
  1
BYBLOCK
 72
     0
 73
     2
 43
0.0208333333333333
 43
0.0
 43
0.0
 43
0.0
 43
0.0
 43
0.0208333333333333
 43
0.0
 43
0.0
 43
0.0
 43
0.0
 43
1.0
 43
0.0
 43
0.0
 43
0.0
 43
0.0
 43
1.0
 77
     0
 78
     2
 47
0.0208333333333333
 47
0.0
 47
0.0
 47
0.0
 47
0.0
 47
0.0208333333333333
 47
0.0
 47
0.0
 47
0.0
 47
0.0
 47
1.0
 47
0.0
 47
0.0
 47
0.0
 47
0.0
 47
1.0
171
     0
172
     2
 49
0.0208333333333333
 49
0.0
 49
0.0
 49
0.0
 49
0.0
 49
0.0208333333333333
 49
0.0
 49
0.0
 49
0.0
 49
0.0
 49
1.0
 49
0.0
 49
0.0
 49
0.0
 49
0.0
 49
1.0
175
     0
176
     2
142
0.0208333333333333
142
0.0
142
0.0
142
0.0
142
0.0
142
0.0208333333333333
142
0.0
142
0.0
142
0.0
142
0.0
142
1.0
142
0.0
142
0.0
142
0.0
142
0.0
142
1.0
179
     0
270
     2
144
0.0208333333333333
144
0.0
144
0.0
144
0.0
144
0.0
144
0.0208333333333333
144
0.0
144
0.0
144
0.0
144
0.0
144
1.0
144
0.0
144
0.0
144
0.0
144
0.0
144
1.0
274
     2
147
0.0208333333333333
147
0.0
147
0.0
147
0.0
147
0.0
147
0.0208333333333333
147
0.0
147
0.0
147
0.0
147
0.0
147
1.0
147
0.0
147
0.0
147
0.0
147
0.0
147
1.0
  0
MATERIAL
  5
D99C
102
{ACAD_REACTORS
330
18C
102
}
102
{ACAD_XDICTIONARY
360
1B5FD
102
}
330
18C
100
AcDbMaterial
  1
BYLAYER
 72
     0
 73
     2
 43
0.0208333333333333
 43
0.0
 43
0.0
 43
0.0
 43
0.0
 43
0.0208333333333333
 43
0.0
 43
0.0
 43
0.0
 43
0.0
 43
1.0
 43
0.0
 43
0.0
 43
0.0
 43
0.0
 43
1.0
 77
     0
 78
     2
 47
0.0208333333333333
 47
0.0
 47
0.0
 47
0.0
 47
0.0
 47
0.0208333333333333
 47
0.0
 47
0.0
 47
0.0
 47
0.0
 47
1.0
 47
0.0
 47
0.0
 47
0.0
 47
0.0
 47
1.0
171
     0
172
     2
 49
0.0208333333333333
 49
0.0
 49
0.0
 49
0.0
 49
0.0
 49
0.0208333333333333
 49
0.0
 49
0.0
 49
0.0
 49
0.0
 49
1.0
 49
0.0
 49
0.0
 49
0.0
 49
0.0
 49
1.0
175
     0
176
     2
142
0.0208333333333333
142
0.0
142
0.0
142
0.0
142
0.0
142
0.0208333333333333
142
0.0
142
0.0
142
0.0
142
0.0
142
1.0
142
0.0
142
0.0
142
0.0
142
0.0
142
1.0
179
     0
270
     2
144
0.0208333333333333
144
0.0
144
0.0
144
0.0
144
0.0
144
0.0208333333333333
144
0.0
144
0.0
144
0.0
144
0.0
144
1.0
144
0.0
144
0.0
144
0.0
144
0.0
144
1.0
274
     2
147
0.0208333333333333
147
0.0
147
0.0
147
0.0
147
0.0
147
0.0208333333333333
147
0.0
147
0.0
147
0.0
147
0.0
147
1.0
147
0.0
147
0.0
147
0.0
147
0.0
147
1.0
  0
MATERIAL
  5
D9AC
102
{ACAD_REACTORS
330
18C
102
}
102
{ACAD_XDICTIONARY
360
1B5FF
102
}
330
18C
100
AcDbMaterial
  1
GLOBAL
 72
     0
 73
     2
 43
0.0208333333333333
 43
0.0
 43
0.0
 43
0.0
 43
0.0
 43
0.0208333333333333
 43
0.0
 43
0.0
 43
0.0
 43
0.0
 43
1.0
 43
0.0
 43
0.0
 43
0.0
 43
0.0
 43
1.0
 77
     0
 78
     2
 47
0.0208333333333333
 47
0.0
 47
0.0
 47
0.0
 47
0.0
 47
0.0208333333333333
 47
0.0
 47
0.0
 47
0.0
 47
0.0
 47
1.0
 47
0.0
 47
0.0
 47
0.0
 47
0.0
 47
1.0
171
     0
172
     2
 49
0.0208333333333333
 49
0.0
 49
0.0
 49
0.0
 49
0.0
 49
0.0208333333333333
 49
0.0
 49
0.0
 49
0.0
 49
0.0
 49
1.0
 49
0.0
 49
0.0
 49
0.0
 49
0.0
 49
1.0
175
     0
176
     2
142
0.0208333333333333
142
0.0
142
0.0
142
0.0
142
0.0
142
0.0208333333333333
142
0.0
142
0.0
142
0.0
142
0.0
142
1.0
142
0.0
142
0.0
142
0.0
142
0.0
142
1.0
179
     0
270
     2
144
0.0208333333333333
144
0.0
144
0.0
144
0.0
144
0.0
144
0.0208333333333333
144
0.0
144
0.0
144
0.0
144
0.0
144
1.0
144
0.0
144
0.0
144
0.0
144
0.0
144
1.0
274
     2
147
0.0208333333333333
147
0.0
147
0.0
147
0.0
147
0.0
147
0.0208333333333333
147
0.0
147
0.0
147
0.0
147
0.0
147
1.0
147
0.0
147
0.0
147
0.0
147
0.0
147
1.0
  0
ACAD_PROXY_OBJECT
  5
D9E8
102
{ACAD_REACTORS
330
D9E7
102
}
330
D9E7
100
AcDbZombieObject
 90
      499
 91
      511
 93
      610
310
40901902A4063FBFFFFFE000000000000002040AD7A3703D0AD73F4214DD185B99185C990000000000000104090141901A00000000000004100000000000000041025764000000000000300FC0
340
12
340
0
340
F
340
0
 94
        0
1001
ACAD_MLEADERVER
1070
     2
  0
MLINESTYLE
  5
1C
102
{ACAD_REACTORS
330
1B
102
}
330
1B
100
AcDbMlineStyle
  2
STANDARD
 70
     0
  3

 62
   256
 51
90.0
 52
90.0
 71
     2
 49
0.5
 62
   256
  6
BYLAYER
 49
-0.5
 62
   256
  6
BYLAYER
  0
ACAD_PROXY_OBJECT
  5
D9C6
102
{ACAD_REACTORS
330
D9C5
102
}
330
D9C5
100
AcDbZombieObject
 90
      499
 91
      510
 93
       41
310
903313A31580
  0
ACAD_PROXY_OBJECT
  5
D9C7
102
{ACAD_REACTORS
330
D9C5
102
}
330
D9C5
100
AcDbZombieObject
 90
      499
 91
      510
 93
      105
310
903313A324000000000000004000
  0
ACAD_PROXY_OBJECT
  5
D9C8
102
{ACAD_REACTORS
330
D9C5
102
}
330
D9C5
100
AcDbZombieObject
 90
      499
 91
      510
 93
      105
310
903313A344000000000000104000
  0
ACAD_PROXY_OBJECT
  5
D9C9
102
{ACAD_REACTORS
330
D9C5
102
}
330
D9C5
100
AcDbZombieObject
 90
      499
 91
      510
 93
      105
310
903313A354000000000000144000
  0
ACAD_PROXY_OBJECT
  5
D9CA
102
{ACAD_REACTORS
330
D9C5
102
}
330
D9C5
100
AcDbZombieObject
 90
      499
 91
      510
 93
      105
310
903313A384000000000000204000
  0
ACAD_PROXY_OBJECT
  5
D9CB
102
{ACAD_REACTORS
330
D9C5
102
}
330
D9C5
100
AcDbZombieObject
 90
      499
 91
      510
 93
      113
310
904313A31304000000000000244000
  0
ACAD_PROXY_OBJECT
  5
D9CC
102
{ACAD_REACTORS
330
D9C5
102
}
330
D9C5
100
AcDbZombieObject
 90
      499
 91
      510
 93
      113
310
904313A31364000000000000304000
  0
ACAD_PROXY_OBJECT
  5
D9CD
102
{ACAD_REACTORS
330
D9C5
102
}
330
D9C5
100
AcDbZombieObject
 90
      499
 91
      510
 93
      113
310
904313A32304000000000000344000
  0
ACAD_PROXY_OBJECT
  5
D9CE
102
{ACAD_REACTORS
330
D9C5
102
}
330
D9C5
100
AcDbZombieObject
 90
      499
 91
      510
 93
      113
310
904313A333040000000000003E4000
  0
ACAD_PROXY_OBJECT
  5
D9CF
102
{ACAD_REACTORS
330
D9C5
102
}
330
D9C5
100
AcDbZombieObject
 90
      499
 91
      510
 93
      113
310
904313A34304000000000000444000
  0
ACAD_PROXY_OBJECT
  5
D9D0
102
{ACAD_REACTORS
330
D9C5
102
}
330
D9C5
100
AcDbZombieObject
 90
      499
 91
      510
 93
      113
310
904313A35304000000000000494000
  0
ACAD_PROXY_OBJECT
  5
D9D1
102
{ACAD_REACTORS
330
D9C5
102
}
330
D9C5
100
AcDbZombieObject
 90
      499
 91
      510
 93
      121
310
905313A3130304000000000000594000
  0
ACAD_PROXY_OBJECT
  5
D9D2
102
{ACAD_REACTORS
330
D9C5
102
}
330
D9C5
100
AcDbZombieObject
 90
      499
 91
      510
 93
      105
310
903323A310000000000000010100
  0
ACAD_PROXY_OBJECT
  5
D9D3
102
{ACAD_REACTORS
330
D9C5
102
}
330
D9C5
100
AcDbZombieObject
 90
      499
 91
      510
 93
      105
310
903343A310000000000000410100
  0
ACAD_PROXY_OBJECT
  5
D9D4
102
{ACAD_REACTORS
330
D9C5
102
}
330
D9C5
100
AcDbZombieObject
 90
      499
 91
      510
 93
      105
310
903383A310000000000000810100
  0
ACAD_PROXY_OBJECT
  5
D9D5
102
{ACAD_REACTORS
330
D9C5
102
}
330
D9C5
100
AcDbZombieObject
 90
      499
 91
      510
 93
      113
310
90431303A310000000000000910100
  0
ACAD_PROXY_OBJECT
  5
D9D6
102
{ACAD_REACTORS
330
D9C5
102
}
330
D9C5
100
AcDbZombieObject
 90
      499
 91
      510
 93
      121
310
9053130303A310000000000001650100
  0
ACAD_PROXY_OBJECT
  5
D9D7
102
{ACAD_REACTORS
330
D9C5
102
}
330
D9C5
100
AcDbZombieObject
 90
      499
 91
      510
 93
      257
310
90E312F31323822203D2031272D3022000000000000200FC000000000000284000
  0
ACAD_PROXY_OBJECT
  5
D9D8
102
{ACAD_REACTORS
330
D9C5
102
}
330
D9C5
100
AcDbZombieObject
 90
      499
 91
      510
 93
      249
310
90D312F363422203D2031272D3022000000000000240FC000000000000284000
  0
ACAD_PROXY_OBJECT
  5
D9D9
102
{ACAD_REACTORS
330
D9C5
102
}
330
D9C5
100
AcDbZombieObject
 90
      499
 91
      510
 93
      249
310
90D312F333222203D2031272D3022000000000000280FC000000000000284000
  0
ACAD_PROXY_OBJECT
  5
D9DA
102
{ACAD_REACTORS
330
D9C5
102
}
330
D9C5
100
AcDbZombieObject
 90
      499
 91
      510
 93
      249
310
90D312F313622203D2031272D30220000000000002C0FC000000000000284000
  0
ACAD_PROXY_OBJECT
  5
D9DB
102
{ACAD_REACTORS
330
D9C5
102
}
330
D9C5
100
AcDbZombieObject
 90
      499
 91
      510
 93
      249
310
90D332F333222203D2031272D30220000000000002E0FC000000000000284000
  0
ACAD_PROXY_OBJECT
  5
D9DC
102
{ACAD_REACTORS
330
D9C5
102
}
330
D9C5
100
AcDbZombieObject
 90
      499
 91
      510
 93
      241
310
90C312F3822203D2031272D3022000000000000300FC000000000000284000
  0
ACAD_PROXY_OBJECT
  5
D9DD
102
{ACAD_REACTORS
330
D9C5
102
}
330
D9C5
100
AcDbZombieObject
 90
      499
 91
      510
 93
      249
310
90D332F313622203D2031272D3022000000000000320FC000000000000284000
  0
ACAD_PROXY_OBJECT
  5
D9DE
102
{ACAD_REACTORS
330
D9C5
102
}
330
D9C5
100
AcDbZombieObject
 90
      499
 91
      510
 93
      241
310
90C312F3422203D2031272D3022000000000000340FC000000000000284000
  0
ACAD_PROXY_OBJECT
  5
D9DF
102
{ACAD_REACTORS
330
D9C5
102
}
330
D9C5
100
AcDbZombieObject
 90
      499
 91
      510
 93
      241
310
90C332F3822203D2031272D3022000000000000360FC000000000000284000
  0
ACAD_PROXY_OBJECT
  5
D9E0
102
{ACAD_REACTORS
330
D9C5
102
}
330
D9C5
100
AcDbZombieObject
 90
      499
 91
      510
 93
      241
310
90C312F3222203D2031272D3022000000000000380FC000000000000284000
  0
ACAD_PROXY_OBJECT
  5
D9E1
102
{ACAD_REACTORS
330
D9C5
102
}
330
D9C5
100
AcDbZombieObject
 90
      499
 91
      510
 93
      241
310
90C332F3422203D2031272D30220000000000003A0FC000000000000284000
  0
ACAD_PROXY_OBJECT
  5
D9E2
102
{ACAD_REACTORS
330
D9C5
102
}
330
D9C5
100
AcDbZombieObject
 90
      499
 91
      510
 93
      161
310
90A3122203D2031272D30224000000000000284000
  0
ACAD_PROXY_OBJECT
  5
D9E3
102
{ACAD_REACTORS
330
D9C5
102
}
330
D9C5
100
AcDbZombieObject
 90
      499
 91
      510
 93
      257
310
90E312D312F3222203D2031272D30220000000000003E0FC000000000000284000
  0
ACAD_PROXY_OBJECT
  5
D9E4
102
{ACAD_REACTORS
330
D9C5
102
}
330
D9C5
100
AcDbZombieObject
 90
      499
 91
      510
 93
      225
310
90A3322203D2031272D302200000000000002100000000000000284000
  0
ACAD_PROXY_OBJECT
  5
D9E5
102
{ACAD_REACTORS
330
D9C5
102
}
330
D9C5
100
AcDbZombieObject
 90
      499
 91
      510
 93
      225
310
90A3622203D2031272D302200000000000006100000000000000284000
  0
ACAD_PROXY_OBJECT
  5
D9E6
102
{ACAD_REACTORS
330
D9C5
102
}
330
D9C5
100
AcDbZombieObject
 90
      499
 91
      510
 93
      249
310
90D31272D3022203D2031272D30220000000000000A100000000000000284000
  0
ACAD_PROXY_OBJECT
  5
D9BA
102
{ACAD_REACTORS
330
D9B4
102
}
330
D9B4
100
AcDbZombieObject
 90
      499
 91
      509
 93
      436
310
42CC9915DA5C99599C985B595049028333333333333E3BF0000000000000FB0107901411070040501600405405064090741402480A0340
1001
ACAD
1000
AcDbSavedByObjectVersion
1070
     0
  0
ACAD_PROXY_OBJECT
  5
D9BC
102
{ACAD_REACTORS
330
D9B4
102
}
330
D9B4
100
AcDbZombieObject
 90
      499
 91
      509
 93
      500
310
424CD108121A5919195B90640502408333333333333E3BF0000000000000FB01079024090700405020000000000001110200405405064090740C02480A0340
1001
ACAD
1000
AcDbSavedByObjectVersion
1070
     0
  0
ACAD_PROXY_OBJECT
  5
D9BB
102
{ACAD_REACTORS
330
D9B4
102
}
330
D9B4
100
AcDbZombieObject
 90
      499
 91
      509
 93
      436
310
42CCD915DA5C99599C985B595059028333333333333E3BF0000000000000FB0107901411070040501600405405064090741402480A0340
1001
ACAD
1000
AcDbSavedByObjectVersion
1070
     0
  0
ACAD_PROXY_OBJECT
  5
D9B9
102
{ACAD_REACTORS
330
D9B4
102
}
330
D9B4
100
AcDbZombieObject
 90
      499
 91
      509
 93
      388
310
4150985CDA58D07406404333333333333E3BF0000000000000FB0107A41107004050150841D405064090741402480A0350
1001
ACAD
1000
AcDbSavedByObjectVersion
1070
     0
  0
ACAD_PROXY_OBJECT
  5
D9C0
102
{ACAD_REACTORS
330
D9B4
102
}
330
D9B4
100
AcDbZombieObject
 90
      499
 91
      509
 93
      428
310
42109C9A59DA1D195B90C409028333333333333E3BF0000000000000FB010790141107004050150841D405064090741402480A029950
1001
ACAD
1000
AcDbSavedByObjectVersion
1070
     0
  0
ACAD_PROXY_OBJECT
  5
D9C4
102
{ACAD_REACTORS
330
D9B4
102
}
330
D9B4
100
AcDbZombieObject
 90
      499
 91
      509
 93
      452
310
42D0DBDB1BDC90DA185B99D95104090240C333333333333E3BF0000000000000FB0108901411070040501508421405064090741402480A0350
1001
ACAD
1000
AcDbSavedByObjectVersion
1070
     0
  0
ACAD_PROXY_OBJECT
  5
D9BD
102
{ACAD_REACTORS
330
D9B4
102
}
330
D9B4
100
AcDbZombieObject
 90
      499
 91
      509
 93
      500
310
4290DBDB98D95C1D1D585B10940D028333333333333E3BF0000000000000FB0107902409070040501000000000000111010841D405064090740C02480A0340
1001
ACAD
1000
AcDbSavedByObjectVersion
1070
     0
  0
ACAD_PROXY_OBJECT
  5
D9BF
102
{ACAD_REACTORS
330
D9B4
102
}
330
D9B4
100
AcDbZombieObject
 90
      499
 91
      509
 93
      412
310
40D11A5B50B409028333333333333E3BF0000000000000FB010790141107004050150841D405064090741402480A02677FFFFFD0
1001
ACAD
1000
AcDbSavedByObjectVersion
1070
     0
  0
ACAD_PROXY_OBJECT
  5
19C2F
102
{ACAD_REACTORS
330
D9B4
102
}
330
D9B4
100
AcDbZombieObject
 90
      499
 91
      509
 93
      452
310
43115919D950DBDB1BDC93D999916409028333333333333E3BF0000000000000FB010790141107004050150841D405064090741402480A0350
1001
ACAD
1000
AcDbSavedByObjectVersion
1070
     0
  0
ACAD_PROXY_OBJECT
  5
D9C3
102
{ACAD_REACTORS
330
D9B4
102
}
330
D9B4
100
AcDbZombieObject
 90
      499
 91
      509
 93
      444
310
42D19858D95C185D1D195C9B90F409028333333333333E3BF0000000000000FB010790141107004050150841D405064090741402480A0350
1001
ACAD
1000
AcDbSavedByObjectVersion
1070
     0
  0
ACAD_PROXY_OBJECT
  5
D9B5
102
{ACAD_REACTORS
330
D9B4
102
}
330
D9B4
100
AcDbZombieObject
 90
      499
 91
      509
 93
      388
310
41119B185D240901404333333333333E3BF0000000000000F9010740A41107004050150841D405064090741402480A1B50
1001
ACAD
1000
AcDbSavedByObjectVersion
1070
     0
  0
ACAD_PROXY_OBJECT
  5
D9B6
102
{ACAD_REACTORS
330
D9B4
102
}
330
D9B4
100
AcDbZombieObject
 90
      499
 91
      509
 93
      476
310
43519B185D15DA5D1A115919D95CD0140901404333333333333E3BF0000000000000F9010740901411070040501600405405064090741402480A1B50
1001
ACAD
1000
AcDbSavedByObjectVersion
1070
     0
  0
ACAD_PROXY_OBJECT
  5
D9B7
102
{ACAD_REACTORS
330
D9B4
102
}
330
D9B4
100
AcDbZombieObject
 90
      499
 91
      509
 93
      412
310
41D1DBDD5C985D5910240902404333333333333E3BF0000000000000F9010740A411070040501641D405064090741402480A1B50
1001
ACAD
1000
AcDbSavedByObjectVersion
1070
     0
  0
ACAD_PROXY_OBJECT
  5
D9B8
102
{ACAD_REACTORS
330
D9B4
102
}
330
D9B4
100
AcDbZombieObject
 90
      499
 91
      509
 93
      500
310
4411DBDD5C985D5915DA5D1A115919D95CD0340902404333333333333E3BF0000000000000F9010740901411070040501600405405064090741402480A1B50
1001
ACAD
1000
AcDbSavedByObjectVersion
1070
     0
  0
ACAD_PROXY_OBJECT
  5
19C7E
102
{ACAD_REACTORS
330
D9B4
102
}
330
D9B4
100
AcDbZombieObject
 90
      499
 91
      509
 93
      476
310
41921A5919195B90640502408333333333333E3BF0000000000000FB01079024090700405020000000000001110200405405064090740C02480A0340
1001
ACAD
1000
AcDbSavedByObjectVersion
1070
     0
  0
ACAD_PROXY_OBJECT
  5
19C2D
102
{ACAD_REACTORS
330
D9B4
102
}
330
D9B4
100
AcDbZombieObject
 90
      499
 91
      509
 93
      428
310
42529A5D1D195C93D999914409028333333333333E3BF0000000000000FB010790141107004050150A41D405064090741402480A0350
1001
ACAD
1000
AcDbSavedByObjectVersion
1070
     0
  0
ACAD_PROXY_OBJECT
  5
D9C2
102
{ACAD_REACTORS
330
D9B4
102
}
330
D9B4
100
AcDbZombieObject
 90
      499
 91
      509
 93
      444
310
42D31A5B995C185D1D195C9B90E409028333333333333E3BF0000000000000FB010790141107004050750841D405064090741402483A0350
1001
ACAD
1000
AcDbSavedByObjectVersion
1070
     0
  0
ACAD_PROXY_OBJECT
  5
19C84
102
{ACAD_REACTORS
330
D9B4
102
}
330
D9B4
100
AcDbZombieObject
 90
      499
 91
      509
 93
      484
310
42135BD9195B1A5B99D0A409028333333333333E3BF0000000000000F901074090290700405010000000000201990108421405064090741402480A1B40
1001
ACAD
1000
AcDbSavedByObjectVersion
1070
     0
  0
ACAD_PROXY_OBJECT
  5
19C2E
102
{ACAD_REACTORS
330
D9B4
102
}
330
D9B4
100
AcDbZombieObject
 90
      499
 91
      509
 93
      444
310
42D3DD995C9A185B99D3D999915409028333333333333E3BF0000000000000FB010790141107004050150941D405064090741402480A0350
1001
ACAD
1000
AcDbSavedByObjectVersion
1070
     0
  0
ACAD_PROXY_OBJECT
  5
D9BE
102
{ACAD_REACTORS
330
D9B4
102
}
330
D9B4
100
AcDbZombieObject
 90
      499
 91
      509
 93
      420
310
425499585B1A5CDD1A58D08409028333333333333E3BF0000000000000FB01079019070040501508421405064090741402480A1B40
1001
ACAD
1000
AcDbSavedByObjectVersion
1070
     0
  0
ACAD_PROXY_OBJECT
  5
19C83
102
{ACAD_REACTORS
330
D9B4
102
}
330
D9B4
100
AcDbZombieObject
 90
      499
 91
      509
 93
      420
310
4194DA1859195911B40902404333333333333E3BF0000000000000F9010740A41107004050150800405405064090840C02480A0B40
1001
ACAD
1000
AcDbSavedByObjectVersion
1070
     0
  0
ACAD_PROXY_OBJECT
  5
19C82
102
{ACAD_REACTORS
330
D9B4
102
}
330
D9B4
100
AcDbZombieObject
 90
      499
 91
      509
 93
      516
310
4454DA18591959081DDA5D1A08195919D95CD1A40902404333333333333E3BF0000000000000F901074090142907004050250800405405064090740C02480A0B40
1001
ACAD
1000
AcDbSavedByObjectVersion
1070
     0
  0
ACAD_PROXY_OBJECT
  5
19C7F
102
{ACAD_REACTORS
330
D9B4
102
}
330
D9B4
100
AcDbZombieObject
 90
      499
 91
      509
 93
      532
310
4394DA1859195CC81BD98811DC985E5174090240C333333333333E3BF0000000000000FB01079024090741D01000000000000111010841D405064090740C02480A0340
1001
ACAD
1000
AcDbSavedByObjectVersion
1070
     0
  0
ACAD_PROXY_OBJECT
  5
19C80
102
{ACAD_REACTORS
330
D9B4
102
}
330
D9B4
100
AcDbZombieObject
 90
      499
 91
      509
 93
      476
310
41D4DAD95D18DA1E51840502408333333333333E3BF0000000000000FB01079024090741D01000000000000111010B41D405064090741802480A0340
1001
ACAD
1000
AcDbSavedByObjectVersion
1070
     0
  0
ACAD_PROXY_OBJECT
  5
D9C1
102
{ACAD_REACTORS
330
D9B4
102
}
330
D9B4
100
AcDbZombieObject
 90
      499
 91
      509
 93
      412
310
41D51A1A58DAD95B90D409028333333333333E3BF0000000000000FB010790141107004050150C41D405064090741402480A0350
1001
ACAD
1000
AcDbSavedByObjectVersion
1070
     0
  0
ACAD_PROXY_OBJECT
  5
19C7D
102
{ACAD_REACTORS
330
D9B4
102
}
330
D9B4
100
AcDbZombieObject
 90
      499
 91
      509
 93
      420
310
4255DA5C99599C985B595059028333333333333E3BF0000000000000FB0107901411070040501600405405064090740C02480A0340
1001
ACAD
1000
AcDbSavedByObjectVersion
1070
     0
  0
ACAD_PROXY_OBJECT
  5
19C81
102
{ACAD_REACTORS
330
D9B4
102
}
330
D9B4
100
AcDbZombieObject
 90
      499
 91
      509
 93
      404
310
41560B54985E51940902404000000000000E03F0000000000000FB010740501907004050150841D405064090740C02480A1B40
1001
ACAD
1000
AcDbSavedByObjectVersion
1070
     0
  0
XRECORD
  5
1B45E
102
{ACAD_REACTORS
330
1B45D
102
}
330
1B45D
100
AcDbXrecord
340
18D
  0
XRECORD
  5
1B45F
102
{ACAD_REACTORS
330
1B45D
102
}
330
1B45D
100
AcDbXrecord
340
18C
  0
DICTIONARYVAR
  5
1A5BC
102
{ACAD_REACTORS
330
37
102
}
330
37
100
DictionaryVariables
280
     0
  1
1:1
  0
DICTIONARYVAR
  5
DA6A
102
{ACAD_REACTORS
330
37
102
}
330
37
100
DictionaryVariables
280
     0
  1
Standard
  0
DICTIONARYVAR
  5
29E
102
{ACAD_REACTORS
330
37
102
}
330
37
100
DictionaryVariables
280
     0
  1
Standard
  0
DICTIONARYVAR
  5
38
102
{ACAD_REACTORS
330
37
102
}
330
37
100
DictionaryVariables
280
     0
  1
-1
  0
DICTIONARYVAR
  5
1CE
102
{ACAD_REACTORS
330
37
102
}
330
37
100
DictionaryVariables
280
     0
  1
2
  0
DICTIONARYVAR
  5
704E
102
{ACAD_REACTORS
330
37
102
}
330
37
100
DictionaryVariables
280
     0
  1
1
  0
DICTIONARYVAR
  5
DA6D
102
{ACAD_REACTORS
330
37
102
}
330
37
100
DictionaryVariables
280
     0
  1
0
  0
DICTIONARYVAR
  5
7052
102
{ACAD_REACTORS
330
37
102
}
330
37
100
DictionaryVariables
280
     0
  1
8
  0
DICTIONARYVAR
  5
7051
102
{ACAD_REACTORS
330
37
102
}
330
37
100
DictionaryVariables
280
     0
  1
1
  0
DICTIONARYVAR
  5
1A60C
102
{ACAD_REACTORS
330
37
102
}
330
37
100
DictionaryVariables
280
     0
  1
0
  0
DICTIONARYVAR
  5
704F
102
{ACAD_REACTORS
330
37
102
}
330
37
100
DictionaryVariables
280
     0
  1
8
  0
DICTIONARYVAR
  5
7050
102
{ACAD_REACTORS
330
37
102
}
330
37
100
DictionaryVariables
280
     0
  1
2
  0
DICTIONARYVAR
  5
1CF
102
{ACAD_REACTORS
330
37
102
}
330
37
100
DictionaryVariables
280
     0
  1

  0
DICTIONARYVAR
  5
DA6C
102
{ACAD_REACTORS
330
37
102
}
330
37
100
DictionaryVariables
280
     0
  1
127
  0
DICTIONARYVAR
  5
1B221
102
{ACAD_REACTORS
330
37
102
}
330
37
100
DictionaryVariables
280
     0
  1
2
  0
DICTIONARY
  5
1B5FB
330
D9A4
100
AcDbDictionary
  3
ACAD_XREC_ROUNDTRIP
360
1B5FC
1001
ACAD
1000
TREAT_AS_HARD
1070
     1
  0
DICTIONARY
  5
1B5FD
330
D99C
100
AcDbDictionary
  3
ACAD_XREC_ROUNDTRIP
360
1B5FE
1001
ACAD
1000
TREAT_AS_HARD
1070
     1
  0
DICTIONARY
  5
1B5FF
330
D9AC
100
AcDbDictionary
  3
ACAD_XREC_ROUNDTRIP
360
1B600
1001
ACAD
1000
TREAT_AS_HARD
1070
     1
  0
XRECORD
  5
1B5FC
102
{ACAD_REACTORS
330
1B5FB
102
}
330
1B5FB
100
AcDbXrecord
102
MATERIAL
148
0.0
149
0.0
149
0.0
 93
        0
 94
      127
282
     0
 72
     0
 77
     0
171
     0
175
     0
179
     0
273
     0
  0
XRECORD
  5
1B5FE
102
{ACAD_REACTORS
330
1B5FD
102
}
330
1B5FD
100
AcDbXrecord
102
MATERIAL
148
0.0
149
0.0
149
0.0
 93
        0
 94
      127
282
     0
 72
     0
 77
     0
171
     0
175
     0
179
     0
273
     0
  0
XRECORD
  5
1B600
102
{ACAD_REACTORS
330
1B5FF
102
}
330
1B5FF
100
AcDbXrecord
102
MATERIAL
148
0.0
149
0.0
149
0.0
 93
        0
 94
      127
282
     0
 72
     0
 77
     0
171
     0
175
     0
179
     0
273
     0
  0
ENDSEC
  0
EOF
