  0
SECTION
  2
HEADER
  9
$ACADVER
  1
AC1009
  9
$INSBASE
 10
0.0
 20
0.0
 30
0.0
  9
$EXTMIN
 10
604.77338643762687
 20
-2218.0700000000002
 30
0.0
  9
$EXTMAX
 10
1102.4878000000001
 20
-1825.4268932188129
 30
0.0
  9
$LIMMIN
 10
0.0
 20
0.0
  9
$LIMMAX
 10
420.0
 20
297.0
  9
$ORTHOMODE
 70
     0
  9
$REGENMODE
 70
     1
  9
$FILLMODE
 70
     1
  9
$QTEXTMODE
 70
     0
  9
$MIRRTEXT
 70
     0
  9
$DRAGMODE
 70
     2
  9
$LTSCALE
 40
0.5
  9
$OSMODE
 70
  2173
  9
$ATTMODE
 70
     1
  9
$TEXTSIZE
 40
4.0
  9
$TRACEWID
 40
1.0
  9
$TEXTSTYLE
  7
STANDARD
  9
$CLAYER
  8
1TEXT
  9
$CELTYPE
  6
BYLAYER
  9
$CECOLOR
 62
   256
  9
$DIMSCALE
 40
1.0
  9
$DIMASZ
 40
2.0
  9
$DIMEXO
 40
0.0
  9
$DIMDLI
 40
7.0
  9
$DIMRND
 40
0.0
  9
$DIMDLE
 40
0.0
  9
$DIMEXE
 40
1.0
  9
$DIMTP
 40
0.0
  9
$DIMTM
 40
0.0
  9
$DIMTXT
 40
3.5
  9
$DIMCEN
 40
0.0
  9
$DIMTSZ
 40
0.0
  9
$DIMTOL
 70
     0
  9
$DIMLIM
 70
     0
  9
$DIMTIH
 70
     0
  9
$DIMTOH
 70
     0
  9
$DIMSE1
 70
     0
  9
$DIMSE2
 70
     0
  9
$DIMTAD
 70
     1
  9
$DIMZIN
 70
     8
  9
$DIMBLK
  1

  9
$DIMASO
 70
     1
  9
$DIMSHO
 70
     1
  9
$DIMPOST
  1
 
  9
$DIMAPOST
  1

  9
$DIMALT
 70
     0
  9
$DIMALTD
 70
     2
  9
$DIMALTF
 40
25.399999999999999
  9
$DIMLFAC
 40
1.0
  9
$DIMTOFL
 70
     1
  9
$DIMTVP
 40
0.0
  9
$DIMTIX
 70
     0
  9
$DIMSOXD
 70
     0
  9
$DIMSAH
 70
     1
  9
$DIMBLK1
  1
OPEN30
  9
$DIMBLK2
  1
OPEN30
  9
$DIMSTYLE
  2
NEWX10
  9
$DIMCLRD
 70
   256
  9
$DIMCLRE
 70
   256
  9
$DIMCLRT
 70
   201
  9
$DIMTFAC
 40
0.7
  9
$DIMGAP
 40
0.7
  9
$LUNITS
 70
     2
  9
$LUPREC
 70
     4
  9
$SKETCHINC
 40
1.0
  9
$FILLETRAD
 40
0.0
  9
$AUNITS
 70
     0
  9
$AUPREC
 70
     2
  9
$MENU
  1
acad
  9
$ELEVATION
 40
0.0
  9
$PELEVATION
 40
0.0
  9
$THICKNESS
 40
0.0
  9
$LIMCHECK
 70
     0
  9
$BLIPMODE
 70
     0
  9
$CHAMFERA
 40
10.0
  9
$CHAMFERB
 40
10.0
  9
$SKPOLY
 70
     0
  9
$TDCREATE
 40
2451318.6214000001
  9
$TDUPDATE
 40
2453410.4764400581
  9
$TDINDWG
 40
0.431815544
  9
$TDUSRTIMER
 40
0.431815544
  9
$USRTIMER
 70
     1
  9
$ANGBASE
 50
0.0
  9
$ANGDIR
 70
     0
  9
$PDMODE
 70
     0
  9
$PDSIZE
 40
0.0
  9
$PLINEWID
 40
0.0
  9
$COORDS
 70
     2
  9
$SPLFRAME
 70
     0
  9
$SPLINETYPE
 70
     6
  9
$SPLINESEGS
 70
     8
  9
$ATTDIA
 70
     0
  9
$ATTREQ
 70
     1
  9
$HANDLING
 70
     1
  9
$HANDSEED
  5
FC29
  9
$SURFTAB1
 70
     6
  9
$SURFTAB2
 70
     6
  9
$SURFTYPE
 70
     6
  9
$SURFU
 70
     6
  9
$SURFV
 70
     6
  9
$UCSNAME
  2

  9
$UCSORG
 10
0.0
 20
0.0
 30
0.0
  9
$UCSXDIR
 10
1.0
 20
0.0
 30
0.0
  9
$UCSYDIR
 10
0.0
 20
1.0
 30
0.0
  9
$PUCSNAME
  2

  9
$PUCSORG
 10
0.0
 20
0.0
 30
0.0
  9
$PUCSXDIR
 10
1.0
 20
0.0
 30
0.0
  9
$PUCSYDIR
 10
0.0
 20
1.0
 30
0.0
  9
$USERI1
 70
     0
  9
$USERI2
 70
     0
  9
$USERI3
 70
     0
  9
$USERI4
 70
     0
  9
$USERI5
 70
     0
  9
$USERR1
 40
0.0
  9
$USERR2
 40
0.0
  9
$USERR3
 40
0.0
  9
$USERR4
 40
0.0
  9
$USERR5
 40
0.0
  9
$WORLDVIEW
 70
     1
  9
$SHADEDGE
 70
     3
  9
$SHADEDIF
 70
    70
  9
$TILEMODE
 70
     1
  9
$MAXACTVP
 70
    48
  9
$PLIMCHECK
 70
     0
  9
$PEXTMIN
 10
1.0000000000000000E+020
 20
1.0000000000000000E+020
 30
1.0000000000000000E+020
  9
$PEXTMAX
 10
-1.0000000000000000E+020
 20
-1.0000000000000000E+020
 30
-1.0000000000000000E+020
  9
$PLIMMIN
 10
0.0
 20
0.0
  9
$PLIMMAX
 10
420.0
 20
297.0
  9
$UNITMODE
 70
     0
  9
$VISRETAIN
 70
     1
  9
$PLINEGEN
 70
     0
  9
$PSLTSCALE
 70
     1
  0
ENDSEC
  0
SECTION
  2
TABLES
  0
TABLE
  2
VPORT
 70
     4
  0
VPORT
  2
*ACTIVE
 70
     0
 10
0.0
 20
0.0
 11
1.0
 21
1.0
 12
853.65667101291479
 22
-2021.823653054596
 13
0.0
 23
0.0
 14
10.0
 24
10.0
 15
10.0
 25
10.0
 16
0.0
 26
0.0
 36
1.0
 17
0.0
 27
0.0
 37
0.0
 40
416.6911603122025
 41
1.453246753246753
 42
50.0
 43
0.0
 44
0.0
 50
0.0
 51
0.0
 71
     0
 72
   100
 73
     1
 74
     1
 75
     0
 76
     0
 77
     0
 78
     0
  0
ENDTAB
  0
TABLE
  2
LTYPE
 70
     6
  0
LTYPE
  2
CONTINUOUS
 70
     0
  3
Solid line
 72
    65
 73
     0
 40
0.0
  0
LTYPE
  2
CENTER2
 70
     0
  3
Center (.5x) ___ _ ___ _ ___ _ ___ _ ___ _ ___
 72
    65
 73
     4
 40
28.574999999999999
 49
19.050000000000001
 49
-3.1749999999999989
 49
3.1749999999999989
 49
-3.1749999999999989
  0
LTYPE
  2
HIDDEN
 70
     0
  3
Hidden __ __ __ __ __ __ __ __ __ __ __ __ __ _
 72
    65
 73
     2
 40
9.5250000000000004
 49
6.3499999999999988
 49
-3.1749999999999989
  0
LTYPE
  2
PHANTOM2
 70
     0
  3
Phantom (.5x) ___ _ _ ___ _ _ ___ _ _ ___ _ _
 72
    65
 73
     6
 40
31.75
 49
15.875
 49
-3.1749999999999989
 49
3.1749999999999989
 49
-3.1749999999999989
 49
3.1749999999999989
 49
-3.1749999999999989
  0
ENDTAB
  0
TABLE
  2
LAYER
 70
    13
  0
LAYER
  2
0
 70
     0
 62
     7
  6
CONTINUOUS
  0
LAYER
  2
1TEXT
 70
     0
 62
     7
  6
CONTINUOUS
  0
LAYER
  2
1CENTER
 70
     0
 62
     7
  6
CENTER2
  0
LAYER
  2
01
 70
     0
 62
     1
  6
CONTINUOUS
  0
LAYER
  2
1DIM
 70
     0
 62
     7
  6
CONTINUOUS
  0
LAYER
  2
1HIDDEN
 70
     0
 62
     7
  6
HIDDEN
  0
LAYER
  2
1PHANTOM
 70
     0
 62
     7
  6
PHANTOM2
  0
ENDTAB
  0
TABLE
  2
STYLE
 70
     1
  0
STYLE
  2
STANDARD
 70
     0
 40
0.0
 41
1.0
 50
0.0
 71
     0
 42
4.0
  3
txt.shx
  4
extfont.shx
  0
ENDTAB
  0
TABLE
  2
VIEW
 70
     0
  0
ENDTAB
  0
TABLE
  2
UCS
 70
     0
  0
ENDTAB
  0
TABLE
  2
APPID
 70
     8
  0
APPID
  2
ACAD
 70
     0
  0
APPID
  2
DRAWINGVARIABLESXDATA
 70
     0
  0
APPID
  2
CONTENTTABDATA
 70
     0
  0
APPID
  2
CONTENTCURRENTTAB
 70
     0
  0
APPID
  2
CONTENTBLOCKDESCRIPTION
 70
     0
  0
APPID
  2
CONTENTBLOCKICON
 70
     0
  0
APPID
  2
CONTENTLONGBLOCKNAME
 70
     0
  0
APPID
  2
ACAD_PSEXT
 70
     0
  0
ENDTAB
  0
TABLE
  2
DIMSTYLE
 70
     1
  0
DIMSTYLE
  2
NEWX10
 70
     0
  3
 
  4

  5

  6

  7

 40
1.0
 41
2.0
 42
0.0
 43
7.0
 44
1.0
 45
0.0
 46
0.0
 47
0.0
 48
0.0
140
3.5
141
0.0
142
0.0
143
25.399999999999999
144
1.0
145
0.0
146
0.7
147
0.7
 71
     0
 72
     0
 73
     0
 74
     0
 75
     0
 76
     0
 77
     1
 78
     8
170
     0
171
     2
172
     1
173
     1
174
     0
175
     0
176
   256
177
   256
178
   201
  0
ENDTAB
  0
ENDSEC
  0
SECTION
  2
BLOCKS
  0
BLOCK
  8
0
  2
$MODEL_SPACE
 70
     0
 10
0.0
 20
0.0
 30
0.0
  3
$MODEL_SPACE
  1

  0
ENDBLK
  5
FBC3
  8
0
  0
BLOCK
 67
     1
  8
0
  2
$PAPER_SPACE
 70
     0
 10
0.0
 20
0.0
 30
0.0
  3
$PAPER_SPACE
  1

  0
ENDBLK
  5
FBBF
 67
     1
  8
0
  0
BLOCK
  8
0
  2
_OPEN30
 70
     0
 10
0.0
 20
0.0
 30
0.0
  3
_OPEN30
  1

  0
LINE
  5
44
  8
0
  6
BYBLOCK
 62
     0
 10
-1.0
 20
0.2679
 30
0.0
 11
0.0
 21
0.0
 31
0.0
  0
LINE
  5
45
  8
0
  6
BYBLOCK
 62
     0
 10
0.0
 20
0.0
 30
0.0
 11
-1.0
 21
-0.2679
 31
0.0
  0
LINE
  5
46
  8
0
  6
BYBLOCK
 62
     0
 10
0.0
 20
0.0
 30
0.0
 11
-1.0
 21
0.0
 31
0.0
  0
ENDBLK
  5
47
  8
0
  0
ENDSEC
  0
SECTION
  2
ENTITIES
  0
TEXT
  5
28A3
  8
1TEXT
 10
649.18769999999995
 20
-1878.2340999999999
 30
0.0
 40
20.0
  1
3-Q4C-X-LP
  0
TEXT
  5
4E1F
  8
1TEXT
 10
649.50469999999984
 20
-1902.585
 30
0.0
 40
6.0
  1
材質：亜鉛ダイキャスト
 72
     1
 11
687.7047
 21
-1902.585
 31
0.0
  0
LINE
  5
4E20
  8
1DIM
 10
649.18769999999995
 20
-1939.7340999999999
 30
0.0
 11
754.18769999999995
 21
-1939.7340999999999
 31
0.0
  0
TEXT
  5
4E21
  8
1TEXT
 10
650.68769999999995
 20
-1937.2004999999999
 30
0.0
 40
6.0
  1
パールクローム
 72
     1
 11
675.28769999999986
 21
-1937.2004999999999
 31
0.0
  0
TEXT
  5
4E22
  8
1TEXT
 10
659.31627142857144
 20
-1916.4840999999999
 30
0.0
 40
6.0
  1
表面処理：
 72
     1
 11
675.28769999999986
 21
-1916.4840999999999
 31
0.0
  0
TEXT
  5
4E23
  8
1TEXT
 10
661.28769999999997
 20
-1926.7370000000001
 30
0.0
 40
6.0
  1
クローム
 72
     1
 11
675.28769999999986
 21
-1926.7370000000001
 31
0.0
  0
LINE
  5
4E24
  8
1DIM
 10
649.18769999999995
 20
-1908.2340999999999
 30
0.0
 11
754.18769999999995
 21
-1908.2340999999999
 31
0.0
  0
LINE
  5
4E25
  8
1DIM
 10
649.18769999999995
 20
-1918.7340999999999
 30
0.0
 11
754.18769999999995
 21
-1918.7340999999999
 31
0.0
  0
LINE
  5
4E26
  8
1DIM
 10
649.18769999999995
 20
-1929.2340999999999
 30
0.0
 11
754.18769999999995
 21
-1929.2340999999999
 31
0.0
  0
LINE
  5
4E27
  8
1DIM
 10
649.18769999999995
 20
-1929.2340999999999
 30
0.0
 11
754.18769999999995
 21
-1929.2340999999999
 31
0.0
  0
LINE
  5
4E28
  8
1DIM
 10
701.68769999999995
 20
-1908.2340999999999
 30
0.0
 11
701.68769999999995
 21
-1950.2340999999999
 31
0.0
  0
TEXT
  5
4E29
  8
1TEXT
 10
707.48770000000002
 20
-1927.3055999999999
 30
0.0
 40
6.0
  1
3-Q4C-C-LP
 41
0.7
 72
     1
 11
727.78769999999997
 21
-1927.3055999999999
 31
0.0
  0
TEXT
  5
4E2A
  8
1TEXT
 10
717.58769999999993
 20
-1916.4840999999999
 30
0.0
 40
6.0
  1
コード
 72
     1
 11
727.78769999999997
 21
-1916.4840999999999
 31
0.0
  0
LINE
  5
4E2B
  8
1DIM
 10
649.18769999999995
 20
-1950.2340999999999
 30
0.0
 11
754.18769999999995
 21
-1950.2340999999999
 31
0.0
  0
TEXT
  5
4E2C
  8
1TEXT
 10
650.8877
 20
-1947.7004999999999
 30
0.0
 40
6.0
  1
サテンニッケル
 72
     1
 11
675.28769999999986
 21
-1947.7004999999999
 31
0.0
  0
LINE
  5
4E2D
  8
1DIM
 10
649.18769999999995
 20
-1950.2340999999999
 30
0.0
 11
649.18769999999995
 21
-1908.2340999999999
 31
0.0
  0
LINE
  5
4E2E
  8
1DIM
 10
754.18769999999995
 20
-1950.2340999999999
 30
0.0
 11
754.18769999999995
 21
-1908.2340999999999
 31
0.0
  0
TEXT
  5
4E2F
  8
1TEXT
 10
707.48770000000002
 20
-1937.8055999999999
 30
0.0
 40
6.0
  1
3-Q4C-B-LP
 41
0.7
 72
     1
 11
727.78769999999997
 21
-1937.8055999999999
 31
0.0
  0
TEXT
  5
4E30
  8
1TEXT
 10
707.48770000000002
 20
-1948.3055999999999
 30
0.0
 40
6.0
  1
3-Q4C-N-LP
 41
0.7
 72
     1
 11
727.78769999999997
 21
-1948.3055999999999
 31
0.0
  0
LINE
  5
A2AF
  8
01
 10
855.68769999999995
 20
-2070.7366999999999
 30
0.0
 11
855.68769999999995
 21
-2218.0700000000002
 31
0.0
  0
LINE
  5
A2B0
  8
01
 10
815.68769999999995
 20
-2070.7366999999999
 30
0.0
 11
815.68769999999995
 21
-2218.0700000000002
 31
0.0
  0
LINE
  5
A2B1
  8
01
 10
715.78769999999997
 20
-2077.2341000000001
 30
0.0
 11
715.78769999999997
 21
-2100.3341
 31
0.0
  0
LINE
  5
A2B2
  8
01
 10
714.18769999999995
 20
-2077.2341000000001
 30
0.0
 11
714.18769999999995
 21
-2100.2341000000001
 31
0.0
  0
LINE
  5
A2B3
  8
01
 10
716.58770000000004
 20
-2077.2341000000001
 30
0.0
 11
716.58770000000004
 21
-2207.2341000000001
 31
0.0
  0
LINE
  5
A2B4
  8
01
 10
718.18769999999995
 20
-2077.2341000000001
 30
0.0
 11
718.18769999999995
 21
-2207.2341000000001
 31
0.0
  0
LINE
  5
A2B5
  8
01
 10
715.18769999999995
 20
-2105.2341000000001
 30
0.0
 11
686.82920000000001
 21
-2105.2341000000001
 31
0.0
  0
LINE
  5
A2B6
  8
01
 10
715.18769999999995
 20
-2179.2341000000001
 30
0.0
 11
688.31230000000005
 21
-2179.2341000000001
 31
0.0
  0
LINE
  5
A2B7
  8
01
 10
649.18769999999995
 20
-2115.9828000000002
 30
0.0
 11
649.18769999999995
 21
-2134.2341000000001
 31
0.0
  0
LINE
  5
A2B8
  8
01
 10
724.18769999999995
 20
-2131.2341000000001
 30
0.0
 11
718.18769999999995
 21
-2131.2341000000001
 31
0.0
  0
LINE
  5
A2B9
  8
01
 10
729.18769999999995
 20
-2136.2341000000001
 30
0.0
 11
719.18769999999995
 21
-2136.2341000000001
 31
0.0
  0
POLYLINE
  5
A2BA
  8
01
 66
     1
 10
0.0
 20
0.0
 30
0.0
 70
     8
  0
VERTEX
  5
FA9C
  8
01
 10
729.18799999999987
 20
-2134.8000000000002
 30
0.0
 70
    32
  0
VERTEX
  5
FA9D
  8
01
 10
729.18600000000004
 20
-2134.71
 30
0.0
 70
    32
  0
VERTEX
  5
FA9E
  8
01
 10
729.18200000000002
 20
-2134.6300000000001
 30
0.0
 70
    32
  0
VERTEX
  5
FA9F
  8
01
 10
729.17399999999986
 20
-2134.54
 30
0.0
 70
    32
  0
VERTEX
  5
FAA0
  8
01
 10
729.16399999999999
 20
-2134.4499999999998
 30
0.0
 70
    32
  0
VERTEX
  5
FAA1
  8
01
 10
729.14999999999998
 20
-2134.3699999999999
 30
0.0
 70
    32
  0
VERTEX
  5
FAA2
  8
01
 10
729.1339999999999
 20
-2134.2800000000002
 30
0.0
 70
    32
  0
VERTEX
  5
FAA3
  8
01
 10
729.11399999999992
 20
-2134.1900000000001
 30
0.0
 70
    32
  0
VERTEX
  5
FAA4
  8
01
 10
729.09199999999987
 20
-2134.1100000000001
 30
0.0
 70
    32
  0
VERTEX
  5
FAA5
  8
01
 10
729.06600000000003
 20
-2134.02
 30
0.0
 70
    32
  0
VERTEX
  5
FAA6
  8
01
 10
729.0379999999999
 20
-2133.9400000000001
 30
0.0
 70
    32
  0
VERTEX
  5
FAA7
  8
01
 10
729.00699999999995
 20
-2133.8499999999999
 30
0.0
 70
    32
  0
VERTEX
  5
FAA8
  8
01
 10
728.97199999999987
 20
-2133.77
 30
0.0
 70
    32
  0
VERTEX
  5
FAA9
  8
01
 10
728.93499999999995
 20
-2133.6799999999998
 30
0.0
 70
    32
  0
VERTEX
  5
FAAA
  8
01
 10
728.89499999999987
 20
-2133.5999999999999
 30
0.0
 70
    32
  0
VERTEX
  5
FAAB
  8
01
 10
728.85299999999995
 20
-2133.52
 30
0.0
 70
    32
  0
VERTEX
  5
FAAC
  8
01
 10
728.80700000000002
 20
-2133.4400000000001
 30
0.0
 70
    32
  0
VERTEX
  5
FAAD
  8
01
 10
728.75899999999979
 20
-2133.3600000000001
 30
0.0
 70
    32
  0
VERTEX
  5
FAAE
  8
01
 10
728.70800000000008
 20
-2133.2800000000002
 30
0.0
 70
    32
  0
VERTEX
  5
FAAF
  8
01
 10
728.654
 20
-2133.1999999999998
 30
0.0
 70
    32
  0
VERTEX
  5
FAB0
  8
01
 10
728.59699999999987
 20
-2133.1199999999999
 30
0.0
 70
    32
  0
VERTEX
  5
FAB1
  8
01
 10
728.5379999999999
 20
-2133.04
 30
0.0
 70
    32
  0
VERTEX
  5
FAB2
  8
01
 10
728.47600000000011
 20
-2132.9699999999998
 30
0.0
 70
    32
  0
VERTEX
  5
FAB3
  8
01
 10
728.41199999999992
 20
-2132.8899999999999
 30
0.0
 70
    32
  0
VERTEX
  5
FAB4
  8
01
 10
728.34500000000003
 20
-2132.8200000000002
 30
0.0
 70
    32
  0
VERTEX
  5
FAB5
  8
01
 10
728.27599999999995
 20
-2132.75
 30
0.0
 70
    32
  0
VERTEX
  5
FAB6
  8
01
 10
728.20399999999995
 20
-2132.6799999999998
 30
0.0
 70
    32
  0
VERTEX
  5
FAB7
  8
01
 10
728.12899999999991
 20
-2132.6100000000001
 30
0.0
 70
    32
  0
VERTEX
  5
FAB8
  8
01
 10
728.05299999999988
 20
-2132.54
 30
0.0
 70
    32
  0
VERTEX
  5
FAB9
  8
01
 10
727.97399999999993
 20
-2132.4699999999998
 30
0.0
 70
    32
  0
VERTEX
  5
FABA
  8
01
 10
727.89199999999994
 20
-2132.4099999999999
 30
0.0
 70
    32
  0
VERTEX
  5
FABB
  8
01
 10
727.80899999999986
 20
-2132.3400000000011
 30
0.0
 70
    32
  0
VERTEX
  5
FABC
  8
01
 10
727.72300000000007
 20
-2132.2800000000002
 30
0.0
 70
    32
  0
VERTEX
  5
FABD
  8
01
 10
727.63499999999988
 20
-2132.2199999999998
 30
0.0
 70
    32
  0
VERTEX
  5
FABE
  8
01
 10
727.54499999999985
 20
-2132.1599999999999
 30
0.0
 70
    32
  0
VERTEX
  5
FABF
  8
01
 10
727.45399999999995
 20
-2132.0999999999999
 30
0.0
 70
    32
  0
VERTEX
  5
FAC0
  8
01
 10
727.36000000000001
 20
-2132.04
 30
0.0
 70
    32
  0
VERTEX
  5
FAC1
  8
01
 10
727.2639999999999
 20
-2131.9899999999998
 30
0.0
 70
    32
  0
VERTEX
  5
FAC2
  8
01
 10
727.16600000000005
 20
-2131.9400000000001
 30
0.0
 70
    32
  0
VERTEX
  5
FAC3
  8
01
 10
727.06699999999989
 20
-2131.8800000000001
 30
0.0
 70
    32
  0
VERTEX
  5
FAC4
  8
01
 10
726.96600000000001
 20
-2131.8400000000001
 30
0.0
 70
    32
  0
VERTEX
  5
FAC5
  8
01
 10
726.86300000000006
 20
-2131.79
 30
0.0
 70
    32
  0
VERTEX
  5
FAC6
  8
01
 10
726.75800000000004
 20
-2131.7399999999998
 30
0.0
 70
    32
  0
VERTEX
  5
FAC7
  8
01
 10
726.65199999999993
 20
-2131.6999999999998
 30
0.0
 70
    32
  0
VERTEX
  5
FAC8
  8
01
 10
726.54499999999985
 20
-2131.6599999999999
 30
0.0
 70
    32
  0
VERTEX
  5
FAC9
  8
01
 10
726.43600000000004
 20
-2131.6199999999999
 30
0.0
 70
    32
  0
VERTEX
  5
FACA
  8
01
 10
726.32500000000005
 20
-2131.5799999999999
 30
0.0
 70
    32
  0
VERTEX
  5
FACB
  8
01
 10
726.21399999999994
 20
-2131.54
 30
0.0
 70
    32
  0
VERTEX
  5
FACC
  8
01
 10
726.10100000000011
 20
-2131.5100000000002
 30
0.0
 70
    32
  0
VERTEX
  5
FACD
  8
01
 10
725.98699999999985
 20
-2131.4699999999998
 30
0.0
 70
    32
  0
VERTEX
  5
FACE
  8
01
 10
725.87199999999984
 20
-2131.4400000000001
 30
0.0
 70
    32
  0
VERTEX
  5
FACF
  8
01
 10
725.75599999999997
 20
-2131.4099999999999
 30
0.0
 70
    32
  0
VERTEX
  5
FAD0
  8
01
 10
725.63899999999978
 20
-2131.3899999999999
 30
0.0
 70
    32
  0
VERTEX
  5
FAD1
  8
01
 10
725.52099999999996
 20
-2131.3600000000001
 30
0.0
 70
    32
  0
VERTEX
  5
FAD2
  8
01
 10
725.40300000000002
 20
-2131.3400000000001
 30
0.0
 70
    32
  0
VERTEX
  5
FAD3
  8
01
 10
725.28300000000002
 20
-2131.3200000000002
 30
0.0
 70
    32
  0
VERTEX
  5
FAD4
  8
01
 10
725.16300000000001
 20
-2131.3000000000002
 30
0.0
 70
    32
  0
VERTEX
  5
FAD5
  8
01
 10
725.04300000000001
 20
-2131.29
 30
0.0
 70
    32
  0
VERTEX
  5
FAD6
  8
01
 10
724.92100000000005
 20
-2131.27
 30
0.0
 70
    32
  0
VERTEX
  5
FAD7
  8
01
 10
724.79999999999995
 20
-2131.2600000000011
 30
0.0
 70
    32
  0
VERTEX
  5
FAD8
  8
01
 10
724.678
 20
-2131.25
 30
0.0
 70
    32
  0
VERTEX
  5
FAD9
  8
01
 10
724.55600000000004
 20
-2131.2399999999998
 30
0.0
 70
    32
  0
VERTEX
  5
FADA
  8
01
 10
724.43299999999988
 20
-2131.2399999999998
 30
0.0
 70
    32
  0
VERTEX
  5
FADB
  8
01
 10
724.30999999999995
 20
-2131.2399999999998
 30
0.0
 70
    32
  0
VERTEX
  5
FADC
  8
01
 10
724.18799999999999
 20
-2131.23
 30
0.0
 70
    32
  0
VERTEX
  5
FADD
  8
01
 10
724.06500000000005
 20
-2131.2399999999998
 30
0.0
 70
    32
  0
VERTEX
  5
FADE
  8
01
 10
723.94199999999989
 20
-2131.2399999999998
 30
0.0
 70
    32
  0
VERTEX
  5
FADF
  8
01
 10
723.82000000000005
 20
-2131.2399999999998
 30
0.0
 70
    32
  0
VERTEX
  5
FAE0
  8
01
 10
723.69799999999987
 20
-2131.25
 30
0.0
 70
    32
  0
VERTEX
  5
FAE1
  8
01
 10
723.57599999999991
 20
-2131.2600000000011
 30
0.0
 70
    32
  0
VERTEX
  5
FAE2
  8
01
 10
723.45399999999995
 20
-2131.27
 30
0.0
 70
    32
  0
VERTEX
  5
FAE3
  8
01
 10
723.33300000000008
 20
-2131.29
 30
0.0
 70
    32
  0
VERTEX
  5
FAE4
  8
01
 10
723.21199999999999
 20
-2131.3000000000002
 30
0.0
 70
    32
  0
VERTEX
  5
FAE5
  8
01
 10
723.09199999999998
 20
-2131.3200000000002
 30
0.0
 70
    32
  0
VERTEX
  5
FAE6
  8
01
 10
722.97299999999996
 20
-2131.3400000000001
 30
0.0
 70
    32
  0
VERTEX
  5
FAE7
  8
01
 10
722.85399999999993
 20
-2131.3600000000001
 30
0.0
 70
    32
  0
VERTEX
  5
FAE8
  8
01
 10
722.73599999999999
 20
-2131.3899999999999
 30
0.0
 70
    32
  0
VERTEX
  5
FAE9
  8
01
 10
722.61899999999991
 20
-2131.4099999999999
 30
0.0
 70
    32
  0
VERTEX
  5
FAEA
  8
01
 10
722.50300000000004
 20
-2131.4400000000001
 30
0.0
 70
    32
  0
VERTEX
  5
FAEB
  8
01
 10
722.38800000000003
 20
-2131.4699999999998
 30
0.0
 70
    32
  0
VERTEX
  5
FAEC
  8
01
 10
722.27399999999989
 20
-2131.5100000000002
 30
0.0
 70
    32
  0
VERTEX
  5
FAED
  8
01
 10
722.16099999999994
 20
-2131.54
 30
0.0
 70
    32
  0
VERTEX
  5
FAEE
  8
01
 10
722.04999999999995
 20
-2131.5799999999999
 30
0.0
 70
    32
  0
VERTEX
  5
FAEF
  8
01
 10
721.94000000000005
 20
-2131.6199999999999
 30
0.0
 70
    32
  0
VERTEX
  5
FAF0
  8
01
 10
721.83100000000002
 20
-2131.6599999999999
 30
0.0
 70
    32
  0
VERTEX
  5
FAF1
  8
01
 10
721.72299999999996
 20
-2131.6999999999998
 30
0.0
 70
    32
  0
VERTEX
  5
FAF2
  8
01
 10
721.61699999999985
 20
-2131.7399999999998
 30
0.0
 70
    32
  0
VERTEX
  5
FAF3
  8
01
 10
721.51300000000003
 20
-2131.79
 30
0.0
 70
    32
  0
VERTEX
  5
FAF4
  8
01
 10
721.40999999999997
 20
-2131.8400000000001
 30
0.0
 70
    32
  0
VERTEX
  5
FAF5
  8
01
 10
721.30899999999997
 20
-2131.8800000000001
 30
0.0
 70
    32
  0
VERTEX
  5
FAF6
  8
01
 10
721.20899999999995
 20
-2131.9400000000001
 30
0.0
 70
    32
  0
VERTEX
  5
FAF7
  8
01
 10
721.11199999999997
 20
-2131.9899999999998
 30
0.0
 70
    32
  0
VERTEX
  5
FAF8
  8
01
 10
721.01600000000008
 20
-2132.04
 30
0.0
 70
    32
  0
VERTEX
  5
FAF9
  8
01
 10
720.92200000000003
 20
-2132.0999999999999
 30
0.0
 70
    32
  0
VERTEX
  5
FAFA
  8
01
 10
720.83000000000004
 20
-2132.1599999999999
 30
0.0
 70
    32
  0
VERTEX
  5
FAFB
  8
01
 10
720.7399999999999
 20
-2132.2199999999998
 30
0.0
 70
    32
  0
VERTEX
  5
FAFC
  8
01
 10
720.65199999999993
 20
-2132.2800000000002
 30
0.0
 70
    32
  0
VERTEX
  5
FAFD
  8
01
 10
720.56600000000003
 20
-2132.3400000000011
 30
0.0
 70
    32
  0
VERTEX
  5
FAFE
  8
01
 10
720.48300000000006
 20
-2132.4099999999999
 30
0.0
 70
    32
  0
VERTEX
  5
FAFF
  8
01
 10
720.40199999999993
 20
-2132.4699999999998
 30
0.0
 70
    32
  0
VERTEX
  5
FB00
  8
01
 10
720.32299999999987
 20
-2132.54
 30
0.0
 70
    32
  0
VERTEX
  5
FB01
  8
01
 10
720.24600000000009
 20
-2132.6100000000001
 30
0.0
 70
    32
  0
VERTEX
  5
FB02
  8
01
 10
720.17200000000003
 20
-2132.6799999999998
 30
0.0
 70
    32
  0
VERTEX
  5
FB03
  8
01
 10
720.10000000000002
 20
-2132.75
 30
0.0
 70
    32
  0
VERTEX
  5
FB04
  8
01
 10
720.02999999999986
 20
-2132.8200000000002
 30
0.0
 70
    32
  0
VERTEX
  5
FB05
  8
01
 10
719.96299999999997
 20
-2132.8899999999999
 30
0.0
 70
    32
  0
VERTEX
  5
FB06
  8
01
 10
719.89899999999989
 20
-2132.9699999999998
 30
0.0
 70
    32
  0
VERTEX
  5
FB07
  8
01
 10
719.83699999999988
 20
-2133.04
 30
0.0
 70
    32
  0
VERTEX
  5
FB08
  8
01
 10
719.77800000000002
 20
-2133.1199999999999
 30
0.0
 70
    32
  0
VERTEX
  5
FB09
  8
01
 10
719.72199999999987
 20
-2133.1999999999998
 30
0.0
 70
    32
  0
VERTEX
  5
FB0A
  8
01
 10
719.66800000000001
 20
-2133.2800000000002
 30
0.0
 70
    32
  0
VERTEX
  5
FB0B
  8
01
 10
719.61699999999985
 20
-2133.3600000000001
 30
0.0
 70
    32
  0
VERTEX
  5
FB0C
  8
01
 10
719.56799999999998
 20
-2133.4400000000001
 30
0.0
 70
    32
  0
VERTEX
  5
FB0D
  8
01
 10
719.52300000000002
 20
-2133.52
 30
0.0
 70
    32
  0
VERTEX
  5
FB0E
  8
01
 10
719.48000000000002
 20
-2133.5999999999999
 30
0.0
 70
    32
  0
VERTEX
  5
FB0F
  8
01
 10
719.44000000000005
 20
-2133.6799999999998
 30
0.0
 70
    32
  0
VERTEX
  5
FB10
  8
01
 10
719.40300000000002
 20
-2133.77
 30
0.0
 70
    32
  0
VERTEX
  5
FB11
  8
01
 10
719.36899999999991
 20
-2133.8499999999999
 30
0.0
 70
    32
  0
VERTEX
  5
FB12
  8
01
 10
719.33800000000008
 20
-2133.9400000000001
 30
0.0
 70
    32
  0
VERTEX
  5
FB13
  8
01
 10
719.30899999999986
 20
-2134.02
 30
0.0
 70
    32
  0
VERTEX
  5
FB14
  8
01
 10
719.28399999999999
 20
-2134.1100000000001
 30
0.0
 70
    32
  0
VERTEX
  5
FB15
  8
01
 10
719.26100000000008
 20
-2134.1900000000001
 30
0.0
 70
    32
  0
VERTEX
  5
FB16
  8
01
 10
719.24199999999985
 20
-2134.2800000000002
 30
0.0
 70
    32
  0
VERTEX
  5
FB17
  8
01
 10
719.22500000000002
 20
-2134.3699999999999
 30
0.0
 70
    32
  0
VERTEX
  5
FB18
  8
01
 10
719.21199999999999
 20
-2134.4499999999998
 30
0.0
 70
    32
  0
VERTEX
  5
FB19
  8
01
 10
719.20100000000002
 20
-2134.54
 30
0.0
 70
    32
  0
VERTEX
  5
FB1A
  8
01
 10
719.19399999999985
 20
-2134.6300000000001
 30
0.0
 70
    32
  0
VERTEX
  5
FB1B
  8
01
 10
719.18899999999985
 20
-2134.71
 30
0.0
 70
    32
  0
VERTEX
  5
FB1C
  8
01
 10
719.18799999999999
 20
-2134.8000000000002
 30
0.0
 70
    32
  0
SEQEND
  5
FB1D
  8
01
  0
LINE
  5
A2BB
  8
01
 10
724.18769999999995
 20
-2151.2341000000001
 30
0.0
 11
718.18769999999995
 21
-2151.2341000000001
 31
0.0
  0
LINE
  5
A2BC
  8
01
 10
729.18769999999995
 20
-2146.2341000000001
 30
0.0
 11
719.18769999999995
 21
-2146.2341000000001
 31
0.0
  0
POLYLINE
  5
A2BD
  8
01
 66
     1
 10
0.0
 20
0.0
 30
0.0
 70
     8
  0
VERTEX
  5
FB1E
  8
01
 10
729.18799999999987
 20
-2147.6700000000001
 30
0.0
 70
    32
  0
VERTEX
  5
FB1F
  8
01
 10
729.18600000000004
 20
-2147.75
 30
0.0
 70
    32
  0
VERTEX
  5
FB20
  8
01
 10
729.18200000000002
 20
-2147.8400000000001
 30
0.0
 70
    32
  0
VERTEX
  5
FB21
  8
01
 10
729.17399999999986
 20
-2147.9299999999998
 30
0.0
 70
    32
  0
VERTEX
  5
FB22
  8
01
 10
729.16399999999999
 20
-2148.02
 30
0.0
 70
    32
  0
VERTEX
  5
FB23
  8
01
 10
729.14999999999998
 20
-2148.0999999999999
 30
0.0
 70
    32
  0
VERTEX
  5
FB24
  8
01
 10
729.1339999999999
 20
-2148.1900000000001
 30
0.0
 70
    32
  0
VERTEX
  5
FB25
  8
01
 10
729.11399999999992
 20
-2148.2800000000002
 30
0.0
 70
    32
  0
VERTEX
  5
FB26
  8
01
 10
729.09199999999987
 20
-2148.3600000000001
 30
0.0
 70
    32
  0
VERTEX
  5
FB27
  8
01
 10
729.06600000000003
 20
-2148.4499999999998
 30
0.0
 70
    32
  0
VERTEX
  5
FB28
  8
01
 10
729.0379999999999
 20
-2148.5300000000002
 30
0.0
 70
    32
  0
VERTEX
  5
FB29
  8
01
 10
729.00699999999995
 20
-2148.6199999999999
 30
0.0
 70
    32
  0
VERTEX
  5
FB2A
  8
01
 10
728.97199999999987
 20
-2148.6999999999998
 30
0.0
 70
    32
  0
VERTEX
  5
FB2B
  8
01
 10
728.93499999999995
 20
-2148.79
 30
0.0
 70
    32
  0
VERTEX
  5
FB2C
  8
01
 10
728.89499999999987
 20
-2148.8699999999999
 30
0.0
 70
    32
  0
VERTEX
  5
FB2D
  8
01
 10
728.85299999999995
 20
-2148.9499999999998
 30
0.0
 70
    32
  0
VERTEX
  5
FB2E
  8
01
 10
728.80700000000002
 20
-2149.0300000000002
 30
0.0
 70
    32
  0
VERTEX
  5
FB2F
  8
01
 10
728.75899999999979
 20
-2149.1100000000001
 30
0.0
 70
    32
  0
VERTEX
  5
FB30
  8
01
 10
728.70800000000008
 20
-2149.1900000000001
 30
0.0
 70
    32
  0
VERTEX
  5
FB31
  8
01
 10
728.654
 20
-2149.27
 30
0.0
 70
    32
  0
VERTEX
  5
FB32
  8
01
 10
728.59699999999987
 20
-2149.3499999999999
 30
0.0
 70
    32
  0
VERTEX
  5
FB33
  8
01
 10
728.5379999999999
 20
-2149.4200000000001
 30
0.0
 70
    32
  0
VERTEX
  5
FB34
  8
01
 10
728.47600000000011
 20
-2149.5
 30
0.0
 70
    32
  0
VERTEX
  5
FB35
  8
01
 10
728.41199999999992
 20
-2149.5700000000002
 30
0.0
 70
    32
  0
VERTEX
  5
FB36
  8
01
 10
728.34500000000003
 20
-2149.6500000000001
 30
0.0
 70
    32
  0
VERTEX
  5
FB37
  8
01
 10
728.27599999999995
 20
-2149.7199999999998
 30
0.0
 70
    32
  0
VERTEX
  5
FB38
  8
01
 10
728.20399999999995
 20
-2149.79
 30
0.0
 70
    32
  0
VERTEX
  5
FB39
  8
01
 10
728.12899999999991
 20
-2149.8600000000001
 30
0.0
 70
    32
  0
VERTEX
  5
FB3A
  8
01
 10
728.05299999999988
 20
-2149.9299999999998
 30
0.0
 70
    32
  0
VERTEX
  5
FB3B
  8
01
 10
727.97399999999993
 20
-2150.0
 30
0.0
 70
    32
  0
VERTEX
  5
FB3C
  8
01
 10
727.89199999999994
 20
-2150.0599999999999
 30
0.0
 70
    32
  0
VERTEX
  5
FB3D
  8
01
 10
727.80899999999986
 20
-2150.1300000000001
 30
0.0
 70
    32
  0
VERTEX
  5
FB3E
  8
01
 10
727.72300000000007
 20
-2150.1900000000001
 30
0.0
 70
    32
  0
VERTEX
  5
FB3F
  8
01
 10
727.63499999999988
 20
-2150.25
 30
0.0
 70
    32
  0
VERTEX
  5
FB40
  8
01
 10
727.54499999999985
 20
-2150.3099999999999
 30
0.0
 70
    32
  0
VERTEX
  5
FB41
  8
01
 10
727.45399999999995
 20
-2150.3699999999999
 30
0.0
 70
    32
  0
VERTEX
  5
FB42
  8
01
 10
727.36000000000001
 20
-2150.4200000000001
 30
0.0
 70
    32
  0
VERTEX
  5
FB43
  8
01
 10
727.2639999999999
 20
-2150.48
 30
0.0
 70
    32
  0
VERTEX
  5
FB44
  8
01
 10
727.16600000000005
 20
-2150.5300000000002
 30
0.0
 70
    32
  0
VERTEX
  5
FB45
  8
01
 10
727.06699999999989
 20
-2150.5799999999999
 30
0.0
 70
    32
  0
VERTEX
  5
FB46
  8
01
 10
726.96600000000001
 20
-2150.6300000000001
 30
0.0
 70
    32
  0
VERTEX
  5
FB47
  8
01
 10
726.86300000000006
 20
-2150.6799999999998
 30
0.0
 70
    32
  0
VERTEX
  5
FB48
  8
01
 10
726.75800000000004
 20
-2150.73
 30
0.0
 70
    32
  0
VERTEX
  5
FB49
  8
01
 10
726.65199999999993
 20
-2150.77
 30
0.0
 70
    32
  0
VERTEX
  5
FB4A
  8
01
 10
726.54499999999985
 20
-2150.8099999999999
 30
0.0
 70
    32
  0
VERTEX
  5
FB4B
  8
01
 10
726.43600000000004
 20
-2150.8499999999999
 30
0.0
 70
    32
  0
VERTEX
  5
FB4C
  8
01
 10
726.32500000000005
 20
-2150.8899999999999
 30
0.0
 70
    32
  0
VERTEX
  5
FB4D
  8
01
 10
726.21399999999994
 20
-2150.9299999999998
 30
0.0
 70
    32
  0
VERTEX
  5
FB4E
  8
01
 10
726.10100000000011
 20
-2150.96
 30
0.0
 70
    32
  0
VERTEX
  5
FB4F
  8
01
 10
725.98699999999985
 20
-2151.0
 30
0.0
 70
    32
  0
VERTEX
  5
FB50
  8
01
 10
725.87199999999984
 20
-2151.0300000000002
 30
0.0
 70
    32
  0
VERTEX
  5
FB51
  8
01
 10
725.75599999999997
 20
-2151.0500000000011
 30
0.0
 70
    32
  0
VERTEX
  5
FB52
  8
01
 10
725.63899999999978
 20
-2151.0799999999999
 30
0.0
 70
    32
  0
VERTEX
  5
FB53
  8
01
 10
725.52099999999996
 20
-2151.0999999999999
 30
0.0
 70
    32
  0
VERTEX
  5
FB54
  8
01
 10
725.40300000000002
 20
-2151.1300000000001
 30
0.0
 70
    32
  0
VERTEX
  5
FB55
  8
01
 10
725.28300000000002
 20
-2151.1500000000001
 30
0.0
 70
    32
  0
VERTEX
  5
FB56
  8
01
 10
725.16300000000001
 20
-2151.1700000000001
 30
0.0
 70
    32
  0
VERTEX
  5
FB57
  8
01
 10
725.04300000000001
 20
-2151.1799999999998
 30
0.0
 70
    32
  0
VERTEX
  5
FB58
  8
01
 10
724.92100000000005
 20
-2151.1999999999998
 30
0.0
 70
    32
  0
VERTEX
  5
FB59
  8
01
 10
724.79999999999995
 20
-2151.21
 30
0.0
 70
    32
  0
VERTEX
  5
FB5A
  8
01
 10
724.678
 20
-2151.2199999999998
 30
0.0
 70
    32
  0
VERTEX
  5
FB5B
  8
01
 10
724.55600000000004
 20
-2151.2199999999998
 30
0.0
 70
    32
  0
VERTEX
  5
FB5C
  8
01
 10
724.43299999999988
 20
-2151.23
 30
0.0
 70
    32
  0
VERTEX
  5
FB5D
  8
01
 10
724.30999999999995
 20
-2151.23
 30
0.0
 70
    32
  0
VERTEX
  5
FB5E
  8
01
 10
724.18799999999999
 20
-2151.23
 30
0.0
 70
    32
  0
VERTEX
  5
FB5F
  8
01
 10
724.06500000000005
 20
-2151.23
 30
0.0
 70
    32
  0
VERTEX
  5
FB60
  8
01
 10
723.94199999999989
 20
-2151.23
 30
0.0
 70
    32
  0
VERTEX
  5
FB61
  8
01
 10
723.82000000000005
 20
-2151.2199999999998
 30
0.0
 70
    32
  0
VERTEX
  5
FB62
  8
01
 10
723.69799999999987
 20
-2151.2199999999998
 30
0.0
 70
    32
  0
VERTEX
  5
FB63
  8
01
 10
723.57599999999991
 20
-2151.21
 30
0.0
 70
    32
  0
VERTEX
  5
FB64
  8
01
 10
723.45399999999995
 20
-2151.1999999999998
 30
0.0
 70
    32
  0
VERTEX
  5
FB65
  8
01
 10
723.33300000000008
 20
-2151.1799999999998
 30
0.0
 70
    32
  0
VERTEX
  5
FB66
  8
01
 10
723.21199999999999
 20
-2151.1700000000001
 30
0.0
 70
    32
  0
VERTEX
  5
FB67
  8
01
 10
723.09199999999998
 20
-2151.1500000000001
 30
0.0
 70
    32
  0
VERTEX
  5
FB68
  8
01
 10
722.97299999999996
 20
-2151.1300000000001
 30
0.0
 70
    32
  0
VERTEX
  5
FB69
  8
01
 10
722.85399999999993
 20
-2151.0999999999999
 30
0.0
 70
    32
  0
VERTEX
  5
FB6A
  8
01
 10
722.73599999999999
 20
-2151.0799999999999
 30
0.0
 70
    32
  0
VERTEX
  5
FB6B
  8
01
 10
722.61899999999991
 20
-2151.0500000000011
 30
0.0
 70
    32
  0
VERTEX
  5
FB6C
  8
01
 10
722.50300000000004
 20
-2151.0300000000002
 30
0.0
 70
    32
  0
VERTEX
  5
FB6D
  8
01
 10
722.38800000000003
 20
-2151.0
 30
0.0
 70
    32
  0
VERTEX
  5
FB6E
  8
01
 10
722.27399999999989
 20
-2150.96
 30
0.0
 70
    32
  0
VERTEX
  5
FB6F
  8
01
 10
722.16099999999994
 20
-2150.9299999999998
 30
0.0
 70
    32
  0
VERTEX
  5
FB70
  8
01
 10
722.04999999999995
 20
-2150.8899999999999
 30
0.0
 70
    32
  0
VERTEX
  5
FB71
  8
01
 10
721.94000000000005
 20
-2150.8499999999999
 30
0.0
 70
    32
  0
VERTEX
  5
FB72
  8
01
 10
721.83100000000002
 20
-2150.8099999999999
 30
0.0
 70
    32
  0
VERTEX
  5
FB73
  8
01
 10
721.72299999999996
 20
-2150.77
 30
0.0
 70
    32
  0
VERTEX
  5
FB74
  8
01
 10
721.61699999999985
 20
-2150.73
 30
0.0
 70
    32
  0
VERTEX
  5
FB75
  8
01
 10
721.51300000000003
 20
-2150.6799999999998
 30
0.0
 70
    32
  0
VERTEX
  5
FB76
  8
01
 10
721.40999999999997
 20
-2150.6300000000001
 30
0.0
 70
    32
  0
VERTEX
  5
FB77
  8
01
 10
721.30899999999997
 20
-2150.5799999999999
 30
0.0
 70
    32
  0
VERTEX
  5
FB78
  8
01
 10
721.20899999999995
 20
-2150.5300000000002
 30
0.0
 70
    32
  0
VERTEX
  5
FB79
  8
01
 10
721.11199999999997
 20
-2150.48
 30
0.0
 70
    32
  0
VERTEX
  5
FB7A
  8
01
 10
721.01600000000008
 20
-2150.4200000000001
 30
0.0
 70
    32
  0
VERTEX
  5
FB7B
  8
01
 10
720.92200000000003
 20
-2150.3699999999999
 30
0.0
 70
    32
  0
VERTEX
  5
FB7C
  8
01
 10
720.83000000000004
 20
-2150.3099999999999
 30
0.0
 70
    32
  0
VERTEX
  5
FB7D
  8
01
 10
720.7399999999999
 20
-2150.25
 30
0.0
 70
    32
  0
VERTEX
  5
FB7E
  8
01
 10
720.65199999999993
 20
-2150.1900000000001
 30
0.0
 70
    32
  0
VERTEX
  5
FB7F
  8
01
 10
720.56600000000003
 20
-2150.1300000000001
 30
0.0
 70
    32
  0
VERTEX
  5
FB80
  8
01
 10
720.48300000000006
 20
-2150.0599999999999
 30
0.0
 70
    32
  0
VERTEX
  5
FB81
  8
01
 10
720.40199999999993
 20
-2150.0
 30
0.0
 70
    32
  0
VERTEX
  5
FB82
  8
01
 10
720.32299999999987
 20
-2149.9299999999998
 30
0.0
 70
    32
  0
VERTEX
  5
FB83
  8
01
 10
720.24600000000009
 20
-2149.8600000000001
 30
0.0
 70
    32
  0
VERTEX
  5
FB84
  8
01
 10
720.17200000000003
 20
-2149.79
 30
0.0
 70
    32
  0
VERTEX
  5
FB85
  8
01
 10
720.10000000000002
 20
-2149.7199999999998
 30
0.0
 70
    32
  0
VERTEX
  5
FB86
  8
01
 10
720.02999999999986
 20
-2149.6500000000001
 30
0.0
 70
    32
  0
VERTEX
  5
FB87
  8
01
 10
719.96299999999997
 20
-2149.5700000000002
 30
0.0
 70
    32
  0
VERTEX
  5
FB88
  8
01
 10
719.89899999999989
 20
-2149.5
 30
0.0
 70
    32
  0
VERTEX
  5
FB89
  8
01
 10
719.83699999999988
 20
-2149.4200000000001
 30
0.0
 70
    32
  0
VERTEX
  5
FB8A
  8
01
 10
719.77800000000002
 20
-2149.3499999999999
 30
0.0
 70
    32
  0
VERTEX
  5
FB8B
  8
01
 10
719.72199999999987
 20
-2149.27
 30
0.0
 70
    32
  0
VERTEX
  5
FB8C
  8
01
 10
719.66800000000001
 20
-2149.1900000000001
 30
0.0
 70
    32
  0
VERTEX
  5
FB8D
  8
01
 10
719.61699999999985
 20
-2149.1100000000001
 30
0.0
 70
    32
  0
VERTEX
  5
FB8E
  8
01
 10
719.56799999999998
 20
-2149.0300000000002
 30
0.0
 70
    32
  0
VERTEX
  5
FB8F
  8
01
 10
719.52300000000002
 20
-2148.9499999999998
 30
0.0
 70
    32
  0
VERTEX
  5
FB90
  8
01
 10
719.48000000000002
 20
-2148.8699999999999
 30
0.0
 70
    32
  0
VERTEX
  5
FB91
  8
01
 10
719.44000000000005
 20
-2148.79
 30
0.0
 70
    32
  0
VERTEX
  5
FB92
  8
01
 10
719.40300000000002
 20
-2148.6999999999998
 30
0.0
 70
    32
  0
VERTEX
  5
FB93
  8
01
 10
719.36899999999991
 20
-2148.6199999999999
 30
0.0
 70
    32
  0
VERTEX
  5
FB94
  8
01
 10
719.33800000000008
 20
-2148.5300000000002
 30
0.0
 70
    32
  0
VERTEX
  5
FB95
  8
01
 10
719.30899999999986
 20
-2148.4499999999998
 30
0.0
 70
    32
  0
VERTEX
  5
FB96
  8
01
 10
719.28399999999999
 20
-2148.3600000000001
 30
0.0
 70
    32
  0
VERTEX
  5
FB97
  8
01
 10
719.26100000000008
 20
-2148.2800000000002
 30
0.0
 70
    32
  0
VERTEX
  5
FB98
  8
01
 10
719.24199999999985
 20
-2148.1900000000001
 30
0.0
 70
    32
  0
VERTEX
  5
FB99
  8
01
 10
719.22500000000002
 20
-2148.0999999999999
 30
0.0
 70
    32
  0
VERTEX
  5
FB9A
  8
01
 10
719.21199999999999
 20
-2148.02
 30
0.0
 70
    32
  0
VERTEX
  5
FB9B
  8
01
 10
719.20100000000002
 20
-2147.9299999999998
 30
0.0
 70
    32
  0
VERTEX
  5
FB9C
  8
01
 10
719.19399999999985
 20
-2147.8400000000001
 30
0.0
 70
    32
  0
VERTEX
  5
FB9D
  8
01
 10
719.18899999999985
 20
-2147.75
 30
0.0
 70
    32
  0
VERTEX
  5
FB9E
  8
01
 10
719.18799999999999
 20
-2147.6700000000001
 30
0.0
 70
    32
  0
SEQEND
  5
FB9F
  8
01
  0
LINE
  5
A2BE
  8
01
 10
729.18769999999995
 20
-2134.8024999999998
 30
0.0
 11
729.18769999999995
 21
-2147.6657
 31
0.0
  0
LINE
  5
A2BF
  8
01
 10
719.18769999999995
 20
-2134.8024999999998
 30
0.0
 11
719.18769999999995
 21
-2147.6657
 31
0.0
  0
LINE
  5
A2C0
  8
01
 10
715.18769999999995
 20
-2101.2341000000001
 30
0.0
 11
714.18769999999995
 21
-2100.2341000000001
 31
0.0
  0
LINE
  5
A2C1
  8
01
 10
716.58770000000004
 20
-2101.1341000000002
 30
0.0
 11
715.78769999999997
 21
-2100.3341
 31
0.0
  0
LINE
  5
A2C2
  8
01
 10
716.58770000000004
 20
-2183.3341
 30
0.0
 11
715.78769999999997
 21
-2184.1341000000002
 31
0.0
  0
LINE
  5
A2C3
  8
01
 10
715.18759999999986
 20
-2183.2341000000001
 30
0.0
 11
714.18759999999986
 21
-2184.2341000000001
 31
0.0
  0
LINE
  5
A2C4
  8
01
 10
718.18769999999995
 20
-2207.2341000000001
 30
0.0
 11
714.18769999999995
 21
-2207.2341000000001
 31
0.0
  0
LINE
  5
A2C5
  8
01
 10
715.78769999999997
 20
-2207.2341000000001
 30
0.0
 11
715.78769999999997
 21
-2184.1341000000002
 31
0.0
  0
LINE
  5
A2C6
  8
01
 10
714.18769999999995
 20
-2207.2341000000001
 30
0.0
 11
714.18769999999995
 21
-2184.2341000000001
 31
0.0
  0
LINE
  5
A2C7
  8
01
 10
715.18769999999995
 20
-2101.2341000000001
 30
0.0
 11
715.18769999999995
 21
-2183.2341000000001
 31
0.0
  0
LINE
  5
A2C8
  8
01
 10
718.18769999999995
 20
-2077.2341000000001
 30
0.0
 11
714.18769999999995
 21
-2077.2341000000001
 31
0.0
  0
LINE
  5
A2C9
  8
01
 10
823.18769999999995
 20
-2083.2341000000001
 30
0.0
 11
823.18769999999995
 21
-2201.2341000000001
 31
0.0
  0
LINE
  5
A2CA
  8
01
 10
848.18769999999995
 20
-2083.2341000000001
 30
0.0
 11
848.18769999999995
 21
-2201.2341000000001
 31
0.0
  0
ARC
  5
A2CB
  8
01
 10
842.18769999999995
 20
-2201.2341000000001
 30
0.0
 40
6.0
 50
270.0
 51
0.0
  0
ARC
  5
A2CC
  8
01
 10
829.18769999999995
 20
-2201.2341000000001
 30
0.0
 40
6.0
 50
180.0
 51
270.0
  0
LINE
  5
A2CD
  8
01
 10
843.43769999999995
 20
-2134.8024999999998
 30
0.0
 11
843.43769999999995
 21
-2147.6657
 31
0.0
  0
LINE
  5
A2CE
  8
01
 10
842.43769999999995
 20
-2136.2341000000001
 30
0.0
 11
842.43769999999995
 21
-2146.2341000000001
 31
0.0
  0
LINE
  5
A2CF
  8
01
 10
828.93769999999995
 20
-2136.2341000000001
 30
0.0
 11
828.93769999999995
 21
-2146.2341000000001
 31
0.0
  0
LINE
  5
A2D0
  8
01
 10
827.93769999999995
 20
-2134.8024999999998
 30
0.0
 11
827.93769999999995
 21
-2147.6657
 31
0.0
  0
ARC
  5
A2D1
  8
01
 10
835.68769999999995
 20
-2141.0340999999999
 30
0.0
 40
10.199999999999999
 50
220.5531
 51
319.44690000000003
  0
LINE
  5
A2D2
  8
01
 10
828.93769999999995
 20
-2146.2341000000001
 30
0.0
 11
842.43769999999995
 21
-2146.2341000000001
 31
0.0
  0
LINE
  5
A2D3
  8
01
 10
828.93769999999995
 20
-2136.2341000000001
 30
0.0
 11
842.43769999999995
 21
-2136.2341000000001
 31
0.0
  0
ARC
  5
A2D4
  8
01
 10
835.68769999999995
 20
-2141.4340999999999
 30
0.0
 40
10.199999999999999
 50
40.553100000000001
 51
139.4469
  0
CIRCLE
  5
A2D5
  8
01
 10
835.68769999999995
 20
-2199.2341000000001
 30
0.0
 40
4.5
  0
CIRCLE
  5
A2D6
  8
01
 10
835.68769999999995
 20
-2199.2341000000001
 30
0.0
 40
2.75
  0
LINE
  5
A2D7
  8
01
 10
829.18769999999995
 20
-2207.2341000000001
 30
0.0
 11
842.18769999999995
 21
-2207.2341000000001
 31
0.0
  0
ARC
  5
A2D8
  8
01
 10
842.18769999999995
 20
-2083.2341000000001
 30
0.0
 40
6.0
 50
0.0
 51
90.0
  0
ARC
  5
A2DA
  8
01
 10
829.18769999999995
 20
-2083.2341000000001
 30
0.0
 40
6.0
 50
90.0
 51
180.0
  0
LINE
  5
A2DB
  8
01
 10
829.18769999999995
 20
-2077.2341000000001
 30
0.0
 11
842.18769999999995
 21
-2077.2341000000001
 31
0.0
  0
CIRCLE
  5
A2DC
  8
01
 10
835.68769999999995
 20
-2085.2341000000001
 30
0.0
 40
4.5
  0
CIRCLE
  5
A2DD
  8
01
 10
835.68769999999995
 20
-2085.2341000000001
 30
0.0
 40
2.75
  0
LINE
  5
A2E2
  8
01
 10
955.58770000000004
 20
-2077.2341000000001
 30
0.0
 11
955.58770000000004
 21
-2100.3341
 31
0.0
  0
LINE
  5
A2E3
  8
01
 10
957.18769999999984
 20
-2077.2341000000001
 30
0.0
 11
957.18769999999984
 21
-2100.2341000000001
 31
0.0
  0
LINE
  5
A2E4
  8
01
 10
954.78769999999986
 20
-2077.2341000000001
 30
0.0
 11
954.78769999999986
 21
-2207.2341000000001
 31
0.0
  0
LINE
  5
A2E5
  8
01
 10
953.18769999999995
 20
-2077.2341000000001
 30
0.0
 11
953.18769999999995
 21
-2207.2341000000001
 31
0.0
  0
LINE
  5
A2E6
  8
01
 10
956.18769999999995
 20
-2105.2341000000001
 30
0.0
 11
984.54610000000002
 21
-2105.2341000000001
 31
0.0
  0
LINE
  5
A2E7
  8
01
 10
956.18769999999995
 20
-2179.2341000000001
 30
0.0
 11
983.06299999999987
 21
-2179.2341000000001
 31
0.0
  0
LINE
  5
A2E8
  8
01
 10
956.18769999999995
 20
-2101.2341000000001
 30
0.0
 11
957.18769999999984
 21
-2100.2341000000001
 31
0.0
  0
LINE
  5
A2E9
  8
01
 10
954.78769999999986
 20
-2101.1341000000002
 30
0.0
 11
955.58770000000004
 21
-2100.3341
 31
0.0
  0
LINE
  5
A2EA
  8
01
 10
946.18769999999995
 20
-2131.2341000000001
 30
0.0
 11
953.18769999999995
 21
-2131.2341000000001
 31
0.0
  0
LINE
  5
A2EB
  8
01
 10
946.18769999999995
 20
-2151.2341000000001
 30
0.0
 11
953.18769999999995
 21
-2151.2341000000001
 31
0.0
  0
LINE
  5
A2EC
  8
01
 10
942.26980000000003
 20
-2148.0403999999999
 30
0.0
 11
953.18769999999995
 21
-2148.0403999999999
 31
0.0
  0
LINE
  5
A2ED
  8
01
 10
942.26980000000003
 20
-2134.4277999999999
 30
0.0
 11
953.18769999999995
 21
-2134.4277999999999
 31
0.0
  0
LINE
  5
A2EE
  8
01
 10
942.18769999999995
 20
-2135.2341000000001
 30
0.0
 11
942.18769999999995
 21
-2147.2341000000001
 31
0.0
  0
ARC
  5
A2EF
  8
01
 10
946.18769999999995
 20
-2147.2341000000001
 30
0.0
 40
4.0
 50
180.0
 51
270.0
  0
ARC
  5
A2F0
  8
01
 10
946.18769999999995
 20
-2135.2341000000001
 30
0.0
 40
4.0
 50
90.0
 51
180.0
  0
LINE
  5
A2F1
  8
01
 10
954.78769999999986
 20
-2183.3341
 30
0.0
 11
955.58770000000004
 21
-2184.1341000000002
 31
0.0
  0
LINE
  5
A2F2
  8
01
 10
956.18769999999995
 20
-2183.2341000000001
 30
0.0
 11
957.18769999999984
 21
-2184.2341000000001
 31
0.0
  0
LINE
  5
A2F3
  8
1CENTER
 10
948.18769999999995
 20
-2199.2341000000001
 30
0.0
 11
962.18769999999995
 21
-2199.2341000000001
 31
0.0
  0
LINE
  5
A2F4
  8
01
 10
953.18769999999995
 20
-2207.2341000000001
 30
0.0
 11
957.18769999999984
 21
-2207.2341000000001
 31
0.0
  0
LINE
  5
A2F5
  8
01
 10
955.58770000000004
 20
-2207.2341000000001
 30
0.0
 11
955.58770000000004
 21
-2184.1341000000002
 31
0.0
  0
LINE
  5
A2F6
  8
01
 10
957.18769999999984
 20
-2207.2341000000001
 30
0.0
 11
957.18769999999984
 21
-2184.2341000000001
 31
0.0
  0
LINE
  5
A2F7
  8
01
 10
956.18769999999995
 20
-2101.2341000000001
 30
0.0
 11
956.18769999999995
 21
-2183.2341000000001
 31
0.0
  0
LINE
  5
A2F8
  8
01
 10
1022.1876999999999
 20
-2115.9827
 30
0.0
 11
1022.1876999999999
 21
-2134.2341000000001
 31
0.0
  0
LINE
  5
A2FA
  8
01
 10
953.18769999999995
 20
-2077.2341000000001
 30
0.0
 11
957.18769999999984
 21
-2077.2341000000001
 31
0.0
  0
LINE
  5
A2FB
  8
1CENTER
 10
948.18769999999995
 20
-2085.2341000000001
 30
0.0
 11
962.18769999999995
 21
-2085.2341000000001
 31
0.0
  0
LINE
  5
A303
  8
01
 10
957.18849999999986
 20
-1880.2340999999999
 30
0.0
 11
1023.1885
 21
-1880.2340999999999
 31
0.0
  0
LINE
  5
A304
  8
01
 10
957.18849999999986
 20
-1881.8341
 30
0.0
 11
1023.1885
 21
-1881.8341
 31
0.0
  0
LINE
  5
A305
  8
01
 10
954.78859999999997
 20
-1899.2340999999999
 30
0.0
 11
1023.1885
 21
-1899.2340999999999
 31
0.0
  0
LINE
  5
A306
  8
01
 10
956.38850000000002
 20
-1884.7340999999999
 30
0.0
 11
957.18849999999986
 21
-1883.9340999999999
 31
0.0
  0
LINE
  5
A307
  8
01
 10
957.18849999999986
 20
-1879.2340999999999
 30
0.0
 11
957.18849999999986
 21
-1883.9340999999999
 31
0.0
  0
LINE
  5
A308
  8
01
 10
954.78859999999997
 20
-1884.7340999999999
 30
0.0
 11
955.58849999999995
 21
-1883.9340999999999
 31
0.0
  0
LINE
  5
A309
  8
01
 10
942.18849999999986
 20
-1897.484099999999
 30
0.0
 11
953.18849999999998
 21
-1897.484099999999
 31
0.0
  0
LINE
  5
A30A
  8
01
 10
942.18849999999986
 20
-1897.484099999999
 30
0.0
 11
942.18849999999986
 21
-1895.4840999999999
 31
0.0
  0
LINE
  5
A30B
  8
01
 10
953.18849999999998
 20
-1877.2340999999999
 30
0.0
 11
954.78859999999997
 21
-1877.2340999999999
 31
0.0
  0
LINE
  5
A30C
  8
01
 10
954.78859999999997
 20
-1877.2340999999999
 30
0.0
 11
954.78859999999997
 21
-1884.7340999999999
 31
0.0
  0
LINE
  5
A30D
  8
01
 10
955.58860000000004
 20
-1879.2340999999999
 30
0.0
 11
955.58860000000004
 21
-1883.9340999999999
 31
0.0
  0
LINE
  5
A30E
  8
01
 10
954.78859999999997
 20
-1879.2340999999999
 30
0.0
 11
957.18849999999986
 21
-1879.2340999999999
 31
0.0
  0
LINE
  5
A30F
  8
01
 10
957.18849999999986
 20
-1895.5341000000001
 30
0.0
 11
957.18849999999986
 21
-1899.2340999999999
 31
0.0
  0
LINE
  5
A310
  8
01
 10
956.3886
 20
-1894.7340999999999
 30
0.0
 11
957.18849999999986
 21
-1895.5341000000001
 31
0.0
  0
LINE
  5
A311
  8
01
 10
957.18849999999986
 20
-1897.6341
 30
0.0
 11
961.78859999999997
 21
-1897.6341
 31
0.0
  0
LINE
  5
A312
  8
01
 10
954.7885
 20
-1894.7340999999999
 30
0.0
 11
955.58860000000004
 21
-1895.5341000000001
 31
0.0
  0
LINE
  5
A313
  8
01
 10
954.78859999999997
 20
-1894.7340999999999
 30
0.0
 11
954.78859999999997
 21
-1902.2340999999999
 31
0.0
  0
LINE
  5
A314
  8
01
 10
953.18849999999998
 20
-1902.2340999999999
 30
0.0
 11
954.78859999999997
 21
-1902.2340999999999
 31
0.0
  0
LINE
  5
A315
  8
01
 10
955.58860000000004
 20
-1895.5341000000001
 30
0.0
 11
955.58860000000004
 21
-1899.2340999999999
 31
0.0
  0
LINE
  5
A316
  8
01
 10
953.18849999999998
 20
-1869.7340999999999
 30
0.0
 11
953.18849999999998
 21
-1909.7340999999999
 31
0.0
  0
LINE
  5
A317
  8
01
 10
961.78859999999997
 20
-1881.8341
 30
0.0
 11
961.78859999999997
 21
-1899.2340999999999
 31
0.0
  0
LINE
  5
A318
  8
01
 10
956.38850000000002
 20
-1884.7340999999999
 30
0.0
 11
956.38850000000002
 21
-1894.7340999999999
 31
0.0
  0
LINE
  5
A319
  8
01
 10
954.78859999999997
 20
-1884.7340999999999
 30
0.0
 11
954.78859999999997
 21
-1894.7340999999999
 31
0.0
  0
ARC
  5
A31A
  8
01
 10
985.85800000000006
 20
-1919.8352
 30
0.0
 40
50.0
 50
130.79769999999999
 51
150.85499999999999
  0
LINE
  5
A31B
  8
1CENTER
 10
985.54989999999998
 20
-1927.7340999999999
 30
0.0
 11
1001.1725
 21
-1927.7340999999999
 31
0.0
  0
LINE
  5
A31C
  8
01
 10
1021.5885
 20
-1881.8341
 30
0.0
 11
1021.5885
 21
-1899.2340999999999
 31
0.0
  0
LINE
  5
A31D
  8
01
 10
1023.1885
 20
-1880.2340999999999
 30
0.0
 11
1023.1885
 21
-1899.2340999999999
 31
0.0
  0
LINE
  5
A31E
  8
1CENTER
 10
985.54989999999998
 20
-1851.7340999999999
 30
0.0
 11
1001.1725
 21
-1851.7340999999999
 31
0.0
  0
LINE
  5
A321
  8
1CENTER
 10
723.18769999999995
 20
-2199.2341000000001
 30
0.0
 11
709.18769999999995
 21
-2199.2341000000001
 31
0.0
  0
LINE
  5
A322
  8
1CENTER
 10
723.18769999999995
 20
-2085.2341000000001
 30
0.0
 11
709.18769999999995
 21
-2085.2341000000001
 31
0.0
  0
LINE
  5
A323
  8
1CENTER
 10
842.18769999999995
 20
-2085.2341000000001
 30
0.0
 11
829.18769999999995
 21
-2085.2341000000001
 31
0.0
  0
LINE
  5
A324
  8
1CENTER
 10
835.68769999999995
 20
-2078.7341000000001
 30
0.0
 11
835.68769999999995
 21
-2091.7341000000001
 31
0.0
  0
LINE
  5
A325
  8
1CENTER
 10
842.18769999999995
 20
-2199.2341000000001
 30
0.0
 11
829.18769999999995
 21
-2199.2341000000001
 31
0.0
  0
LINE
  5
A326
  8
1CENTER
 10
835.68769999999995
 20
-2192.7341000000001
 30
0.0
 11
835.68769999999995
 21
-2205.7341000000001
 31
0.0
  0
LINE
  5
A327
  8
1CENTER
 10
697.18769999999995
 20
-2163.2341000000001
 30
0.0
 11
637.18769999999995
 21
-2163.2341000000001
 31
0.0
  0
LINE
  5
A328
  8
1CENTER
 10
667.18769999999995
 20
-2133.234100000001
 30
0.0
 11
667.18769999999995
 21
-2193.2341000000001
 31
0.0
  0
LINE
  5
A329
  8
1CENTER
 10
974.18769999999995
 20
-2163.2341000000001
 30
0.0
 11
1034.1876999999999
 21
-2163.2341000000001
 31
0.0
  0
LINE
  5
A32A
  8
1CENTER
 10
1004.1876999999999
 20
-2133.234100000001
 30
0.0
 11
1004.1876999999999
 21
-2193.2341000000001
 31
0.0
  0
CIRCLE
  5
A32B
  8
01
 10
667.18769999999995
 20
-2107.7341000000001
 30
0.0
 40
19.800000000000001
  0
LINE
  5
A32C
  8
01
 10
666.68769999999995
 20
-2102.2341000000001
 30
0.0
 11
667.68769999999995
 21
-2102.2341000000001
 31
0.0
  0
ARC
  5
A32D
  8
01
 10
666.68769999999995
 20
-2104.2341000000001
 30
0.0
 40
2.0
 50
90.0
 51
180.0
  0
ARC
  5
A32E
  8
01
 10
667.68769999999995
 20
-2104.2341000000001
 30
0.0
 40
2.0
 50
0.0
 51
90.0
  0
LINE
  5
A32F
  8
01
 10
666.68769999999995
 20
-2124.2341000000001
 30
0.0
 11
667.68769999999995
 21
-2124.2341000000001
 31
0.0
  0
ARC
  5
A330
  8
01
 10
666.68769999999995
 20
-2122.2341000000001
 30
0.0
 40
2.0
 50
180.0
 51
270.0
  0
ARC
  5
A331
  8
01
 10
667.68769999999995
 20
-2122.2341000000001
 30
0.0
 40
2.0
 50
270.0
 51
0.0
  0
LINE
  5
A332
  8
01
 10
669.68769999999995
 20
-2104.2341000000001
 30
0.0
 11
669.68769999999995
 21
-2122.2341000000001
 31
0.0
  0
LINE
  5
A333
  8
01
 10
664.68769999999995
 20
-2104.2341000000001
 30
0.0
 11
664.68769999999995
 21
-2122.2341000000001
 31
0.0
  0
CIRCLE
  5
A334
  8
01
 10
667.18769999999995
 20
-2113.2341000000001
 30
0.0
 40
11.0
  0
LINE
  5
A336
  8
01
 10
861.98770000000002
 20
-2090.7341000000001
 30
0.0
 11
861.98770000000002
 21
-2124.7341000000001
 31
0.0
  0
LINE
  5
A337
  8
01
 10
815.68769999999995
 20
-2087.9340999999999
 30
0.0
 11
815.68769999999995
 21
-2127.5340999999999
 31
0.0
  0
LINE
  5
A339
  8
01
 10
809.3877
 20
-2090.7341000000001
 30
0.0
 11
809.3877
 21
-2124.7341000000001
 31
0.0
  0
LINE
  5
A33C
  8
01
 10
809.3877
 20
-2102.2498000000001
 30
0.0
 11
800.62130000000002
 21
-2102.7091999999998
 31
0.0
  0
ARC
  5
A33D
  8
01
 10
812.18769999999995
 20
-2124.7341000000001
 30
0.0
 40
2.7999999999999989
 50
180.0
 51
270.0
  0
LINE
  5
A33E
  8
01
 10
809.48770000000002
 20
-2123.4340999999999
 30
0.0
 11
809.48770000000002
 21
-2123.4340999999999
 31
0.0
  0
LINE
  5
A33F
  8
01
 10
809.3877
 20
-2124.2184000000002
 30
0.0
 11
800.62130000000002
 21
-2123.759
 31
0.0
  0
LINE
  5
A340
  8
01
 10
815.68769999999995
 20
-2127.5340999999999
 30
0.0
 11
812.18769999999995
 21
-2127.5340999999999
 31
0.0
  0
LINE
  5
A341
  8
01
 10
793.98770000000002
 20
-2116.7685000000001
 30
0.0
 11
793.98770000000002
 21
-2109.6997000000001
 31
0.0
  0
ARC
  5
A342
  8
01
 10
800.9876999999999
 20
-2116.7685000000001
 30
0.0
 40
7.0
 50
180.0
 51
267.0
  0
ARC
  5
A343
  8
01
 10
800.9876999999999
 20
-2109.6997000000001
 30
0.0
 40
7.0
 50
93.0
 51
180.0
  0
LINE
  5
A344
  8
01
 10
862.86109999999985
 20
-2109.7341000000001
 30
0.0
 11
861.98770000000002
 21
-2109.7341000000001
 31
0.0
  0
LINE
  5
A345
  8
01
 10
862.86109999999985
 20
-2116.7341000000001
 30
0.0
 11
861.98770000000002
 21
-2116.7341000000001
 31
0.0
  0
ARC
  5
A346
  8
01
 10
859.18769999999995
 20
-2124.7341000000001
 30
0.0
 40
2.7999999999999989
 50
270.0
 51
0.0
  0
LINE
  5
A347
  8
01
 10
855.68769999999995
 20
-2127.5340999999999
 30
0.0
 11
859.18769999999995
 21
-2127.5340999999999
 31
0.0
  0
LINE
  5
A348
  8
01
 10
862.86109999999985
 20
-2109.7341000000001
 30
0.0
 11
862.86109999999985
 21
-2116.7341000000001
 31
0.0
  0
ARC
  5
A349
  8
01
 10
857.9876999999999
 20
-2113.2341000000001
 30
0.0
 40
6.0
 50
324.31470000000002
 51
35.685299999999998
  0
ARC
  5
A34A
  8
01
 10
812.18769999999995
 20
-2090.7341000000001
 30
0.0
 40
2.7999999999999989
 50
90.0
 51
180.0
  0
LINE
  5
A34B
  8
01
 10
815.68769999999995
 20
-2087.9340999999999
 30
0.0
 11
812.18769999999995
 21
-2087.9340999999999
 31
0.0
  0
ARC
  5
A34C
  8
01
 10
859.18769999999995
 20
-2090.7341000000001
 30
0.0
 40
2.7999999999999989
 50
0.0
 51
90.0
  0
LINE
  5
A34D
  8
01
 10
855.68769999999995
 20
-2087.9340999999999
 30
0.0
 11
859.18769999999995
 21
-2087.9340999999999
 31
0.0
  0
CIRCLE
  5
A34E
  8
01
 10
1004.1876999999999
 20
-2107.7341000000001
 30
0.0
 40
19.800000000000001
  0
LINE
  5
A34F
  8
01
 10
1005.1876999999999
 20
-2116.5882000000001
 30
0.0
 11
1005.1876999999999
 21
-2109.8800000000001
 31
0.0
  0
LINE
  5
A350
  8
01
 10
1003.1876999999999
 20
-2116.5882000000001
 30
0.0
 11
1003.1876999999999
 21
-2109.8800000000001
 31
0.0
  0
CIRCLE
  5
A351
  8
01
 10
1004.1876999999999
 20
-2113.2341000000001
 30
0.0
 40
3.5
  0
LINE
  5
A354
  8
1CENTER
 10
654.18769999999995
 20
-2113.2341000000001
 30
0.0
 11
680.18769999999995
 21
-2113.2341000000001
 31
0.0
  0
LINE
  5
A355
  8
1CENTER
 10
689.68769999999995
 20
-2107.7341000000001
 30
0.0
 11
644.68769999999995
 21
-2107.7341000000001
 31
0.0
  0
LINE
  5
A356
  8
1CENTER
 10
667.18769999999995
 20
-2085.2341000000001
 30
0.0
 11
667.18769999999995
 21
-2130.2341000000001
 31
0.0
  0
LINE
  5
A357
  8
1CENTER
 10
1017.1876999999999
 20
-2113.2341000000001
 30
0.0
 11
991.18769999999995
 21
-2113.2341000000001
 31
0.0
  0
LINE
  5
A358
  8
1CENTER
 10
981.68769999999995
 20
-2107.7341000000001
 30
0.0
 11
1026.6876999999999
 21
-2107.7341000000001
 31
0.0
  0
LINE
  5
A359
  8
1CENTER
 10
1004.1876999999999
 20
-2085.2341000000001
 30
0.0
 11
1004.1876999999999
 21
-2130.2341000000001
 31
0.0
  0
ARC
  5
A35C
  8
01
 10
995.68780000000015
 20
-1857.7340999999999
 30
0.0
 40
6.0
 50
288.19389999999999
 51
0.0
  0
ARC
  5
A35D
  8
01
 10
1012.6878
 20
-1857.7340999999999
 30
0.0
 40
6.0
 50
180.0
 51
251.80330000000001
  0
ARC
  5
A35E
  8
01
 10
1021.1878
 20
-1866.2339999999999
 30
0.0
 40
2.7999999999999989
 50
0.0004
 51
90.000399999999999
  0
ARC
  5
A35F
  8
01
 10
987.18780000000004
 20
-1866.2342000000001
 30
0.0
 40
2.7999999999999989
 50
90.000399999999999
 51
180.00040000000001
  0
ARC
  5
A360
  8
01
 10
1004.1878
 20
-1912.0341000000001
 30
0.0
 40
6.0
 50
279.59300000000002
 51
305.68490000000003
  0
LINE
  5
A361
  8
01
 10
1003.1876999999999
 20
-1916.9075
 30
0.0
 11
1000.6876999999999
 21
-1916.9075
 31
0.0
  0
LINE
  5
A362
  8
01
 10
1005.1876999999999
 20
-1917.9502
 30
0.0
 11
1005.1876999999999
 21
-1916.0341000000001
 31
0.0
  0
LINE
  5
A363
  8
01
 10
1003.1876999999999
 20
-1917.9501
 30
0.0
 11
1003.1876999999999
 21
-1916.0341000000001
 31
0.0
  0
LINE
  5
A364
  8
01
 10
1023.9878
 20
-1869.7338999999999
 30
0.0
 11
1023.9877
 21
-1866.2338999999999
 31
0.0
  0
LINE
  5
A365
  8
01
 10
984.38779999999997
 20
-1869.7342000000001
 30
0.0
 11
984.38779999999997
 21
-1866.2342000000001
 31
0.0
  0
LINE
  5
A366
  8
01
 10
1023.9878
 20
-1909.7342000000001
 30
0.0
 11
1023.9877
 21
-1913.2342000000001
 31
0.0
  0
ARC
  5
A367
  8
01
 10
1021.1878
 20
-1913.2342000000001
 30
0.0
 40
2.7999999999999989
 50
269.99959999999999
 51
359.99959999999999
  0
ARC
  5
A368
  8
01
 10
1004.1878
 20
-1912.0341000000001
 30
0.0
 40
6.0
 50
234.3143
 51
260.4049
  0
LINE
  5
A369
  8
01
 10
1007.6876999999999
 20
-1916.9075
 30
0.0
 11
1005.1876999999999
 21
-1916.9075
 31
0.0
  0
LINE
  5
A36A
  8
01
 10
984.38779999999997
 20
-1909.7338999999999
 30
0.0
 11
984.38779999999997
 21
-1913.233899999999
 31
0.0
  0
ARC
  5
A36B
  8
01
 10
987.18780000000004
 20
-1913.2339999999999
 30
0.0
 40
2.7999999999999989
 50
179.99959999999999
 51
269.99959999999999
  0
LINE
  5
A36C
  8
01
 10
1000.6876999999999
 20
-1916.9075
 30
0.0
 11
1000.6876999999999
 21
-1916.0341000000001
 31
0.0
  0
LINE
  5
A36D
  8
01
 10
1007.6876999999999
 20
-1916.9075
 30
0.0
 11
1007.6876999999999
 21
-1916.0341000000001
 31
0.0
  0
LINE
  5
A36E
  8
01
 10
1021.1876999999999
 20
-1916.0342000000001
 30
0.0
 11
987.18769999999995
 21
-1916.033999999999
 31
0.0
  0
LINE
  5
A36F
  8
01
 10
1006.6878
 20
-1850.0341000000001
 30
0.0
 11
1006.6878
 21
-1857.7340999999999
 31
0.0
  0
LINE
  5
A370
  8
01
 10
1001.6878
 20
-1850.0341000000001
 30
0.0
 11
1001.6878
 21
-1857.7340999999999
 31
0.0
  0
ARC
  5
A371
  8
01
 10
1003.6878
 20
-1850.0341000000001
 30
0.0
 40
2.0
 50
90.0
 51
180.0
  0
ARC
  5
A372
  8
01
 10
1004.6878
 20
-1850.0341000000001
 30
0.0
 40
2.0
 50
0.0
 51
90.0
  0
LINE
  5
A373
  8
01
 10
1021.1876999999999
 20
-1863.434
 30
0.0
 11
987.18769999999995
 21
-1863.4341999999999
 31
0.0
  0
LINE
  5
A37E
  8
1CENTER
 10
785.68769999999995
 20
-2163.2341000000001
 30
0.0
 11
820.68769999999995
 21
-2163.2341000000001
 31
0.0
  0
LINE
  5
A37F
  8
1CENTER
 10
850.68769999999995
 20
-2163.2341000000001
 30
0.0
 11
885.68769999999995
 21
-2163.2341000000001
 31
0.0
  0
POINT
  5
A38F
  8
01
 10
873.68769999999995
 20
-2163.2341000000001
 30
0.0
  0
LINE
  5
A390
  8
01
 10
873.28769999999997
 20
-2164.9841000000001
 30
0.0
 11
873.28769999999997
 21
-2164.1341000000002
 31
0.0
  0
LINE
  5
A391
  8
01
 10
874.08770000000015
 20
-2164.9841000000001
 30
0.0
 11
874.08770000000015
 21
-2164.1341000000002
 31
0.0
  0
LINE
  5
A392
  8
01
 10
872.78769999999986
 20
-2163.6341000000002
 30
0.0
 11
871.93769999999995
 21
-2163.6341000000002
 31
0.0
  0
LINE
  5
A393
  8
01
 10
872.78769999999986
 20
-2162.8341
 30
0.0
 11
871.93769999999995
 21
-2162.8341
 31
0.0
  0
LINE
  5
A394
  8
01
 10
871.93769999999995
 20
-2163.6341000000002
 30
0.0
 11
871.93769999999995
 21
-2162.8341
 31
0.0
  0
LINE
  5
A395
  8
01
 10
874.08770000000015
 20
-2164.9841000000001
 30
0.0
 11
873.28769999999997
 21
-2164.9841000000001
 31
0.0
  0
LINE
  5
A396
  8
01
 10
874.08770000000015
 20
-2161.4841000000001
 30
0.0
 11
874.08770000000015
 21
-2162.3341
 31
0.0
  0
LINE
  5
A397
  8
01
 10
873.28769999999997
 20
-2161.4841000000001
 30
0.0
 11
873.28769999999997
 21
-2162.3341
 31
0.0
  0
LINE
  5
A398
  8
01
 10
874.58770000000004
 20
-2162.8341
 30
0.0
 11
875.43769999999995
 21
-2162.8341
 31
0.0
  0
LINE
  5
A399
  8
01
 10
874.58770000000004
 20
-2163.6341000000002
 30
0.0
 11
875.43769999999995
 21
-2163.6341000000002
 31
0.0
  0
LINE
  5
A39A
  8
01
 10
875.43769999999995
 20
-2162.8341
 30
0.0
 11
875.43769999999995
 21
-2163.6341000000002
 31
0.0
  0
LINE
  5
A39B
  8
01
 10
873.28769999999997
 20
-2161.4841000000001
 30
0.0
 11
874.08770000000015
 21
-2161.4841000000001
 31
0.0
  0
CIRCLE
  5
A39C
  8
01
 10
873.68769999999995
 20
-2163.2341000000001
 30
0.0
 40
2.5
  0
ARC
  5
A39D
  8
01
 10
874.58770000000004
 20
-2162.3341
 30
0.0
 40
0.5
 50
180.0
 51
270.0
  0
ARC
  5
A39E
  8
01
 10
874.58770000000004
 20
-2164.1341000000002
 30
0.0
 40
0.5
 50
90.0
 51
180.0
  0
ARC
  5
A39F
  8
01
 10
872.78769999999986
 20
-2164.1341000000002
 30
0.0
 40
0.5
 50
0.0
 51
90.0
  0
ARC
  5
A3A0
  8
01
 10
872.78769999999986
 20
-2162.3341
 30
0.0
 40
0.5
 50
270.0
 51
0.0
  0
POINT
  5
A3A2
  8
01
 10
797.68769999999995
 20
-2163.2341000000001
 30
0.0
  0
LINE
  5
A3A3
  8
01
 10
798.08770000000004
 20
-2164.9841000000001
 30
0.0
 11
798.08770000000004
 21
-2164.1341000000002
 31
0.0
  0
LINE
  5
A3A4
  8
01
 10
797.28769999999986
 20
-2164.9841000000001
 30
0.0
 11
797.28769999999986
 21
-2164.1341000000002
 31
0.0
  0
LINE
  5
A3A5
  8
01
 10
798.58770000000004
 20
-2163.6341000000002
 30
0.0
 11
799.43769999999995
 21
-2163.6341000000002
 31
0.0
  0
LINE
  5
A3A6
  8
01
 10
798.58770000000004
 20
-2162.8341
 30
0.0
 11
799.43769999999995
 21
-2162.8341
 31
0.0
  0
LINE
  5
A3A7
  8
01
 10
799.43769999999995
 20
-2163.6341000000002
 30
0.0
 11
799.43769999999995
 21
-2162.8341
 31
0.0
  0
LINE
  5
A3A8
  8
01
 10
797.28769999999986
 20
-2164.9841000000001
 30
0.0
 11
798.08770000000004
 21
-2164.9841000000001
 31
0.0
  0
LINE
  5
A3A9
  8
01
 10
797.28769999999986
 20
-2161.4841000000001
 30
0.0
 11
797.28769999999986
 21
-2162.3341
 31
0.0
  0
LINE
  5
A3AA
  8
01
 10
798.08770000000004
 20
-2161.4841000000001
 30
0.0
 11
798.08770000000004
 21
-2162.3341
 31
0.0
  0
LINE
  5
A3AB
  8
01
 10
796.78769999999986
 20
-2162.8341
 30
0.0
 11
795.93769999999995
 21
-2162.8341
 31
0.0
  0
LINE
  5
A3AC
  8
01
 10
796.78769999999986
 20
-2163.6341000000002
 30
0.0
 11
795.93769999999995
 21
-2163.6341000000002
 31
0.0
  0
LINE
  5
A3AD
  8
01
 10
795.93769999999995
 20
-2162.8341
 30
0.0
 11
795.93769999999995
 21
-2163.6341000000002
 31
0.0
  0
LINE
  5
A3AE
  8
01
 10
798.08770000000004
 20
-2161.4841000000001
 30
0.0
 11
797.28769999999986
 21
-2161.4841000000001
 31
0.0
  0
CIRCLE
  5
A3AF
  8
01
 10
797.68769999999995
 20
-2163.2341000000001
 30
0.0
 40
2.5
  0
ARC
  5
A3B0
  8
01
 10
796.78769999999986
 20
-2162.3341
 30
0.0
 40
0.5
 50
270.0
 51
0.0
  0
ARC
  5
A3B1
  8
01
 10
796.78769999999986
 20
-2164.1341000000002
 30
0.0
 40
0.5
 50
0.0
 51
90.0
  0
ARC
  5
A3B2
  8
01
 10
798.58770000000004
 20
-2164.1341000000002
 30
0.0
 40
0.5
 50
90.0
 51
180.0
  0
ARC
  5
A3B3
  8
01
 10
798.58770000000004
 20
-2162.3341
 30
0.0
 40
0.5
 50
180.0
 51
270.0
  0
CIRCLE
  5
A588
  8
01
 10
1004.1876999999999
 20
-2105.8341
 30
0.0
 40
2.5
  0
LINE
  5
D1B2
  8
01
 10
984.38779999999997
 20
-1869.7342000000001
 30
0.0
 11
1023.9878
 21
-1869.7338999999999
 31
0.0
  0
LINE
  5
D1B3
  8
01
 10
1023.9878
 20
-1909.7342000000001
 30
0.0
 11
984.38779999999997
 21
-1909.7338999999999
 31
0.0
  0
LINE
  5
D1C0
  8
01
 10
855.68769999999995
 20
-2087.9340999999999
 30
0.0
 11
855.68769999999995
 21
-2127.5340999999999
 31
0.0
  0
LINE
  5
D939
  8
01
 10
953.18849999999998
 20
-1909.7340999999999
 30
0.0
 11
1059.1877999999999
 21
-1909.7340999999999
 31
0.0
  0
LINE
  5
D93A
  8
01
 10
953.18849999999998
 20
-1869.7340999999999
 30
0.0
 11
1059.1877999999999
 21
-1869.7340999999999
 31
0.0
  0
LINE
  5
D94D
  8
1CENTER
 10
1004.1878
 20
-1907.6058
 30
0.0
 11
1004.1878
 21
-1930.2340999999999
 31
0.0
  0
LINE
  5
D94E
  8
1CENTER
 10
1004.1878
 20
-1871.8624
 30
0.0
 11
1004.1878
 21
-1849.2340999999999
 31
0.0
  0
LINE
  5
E7CC
  8
01
 10
1003.6878
 20
-1848.0341000000001
 30
0.0
 11
1004.6878
 21
-1848.0341000000001
 31
0.0
  0
LINE
  5
E7D8
  8
1HIDDEN
 10
984.54610000000002
 20
-2105.2341000000001
 30
0.0
 11
1022.1876999999999
 21
-2105.2341000000001
 31
0.0
  0
LINE
  5
E7D9
  8
1HIDDEN
 10
1022.1876999999999
 20
-2115.9827
 30
0.0
 11
1022.1876999999999
 21
-2105.2341000000001
 31
0.0
  0
LINE
  5
F2F6
  8
01
 10
977.68779999999992
 20
-1909.7340999999999
 30
0.0
 11
977.68779999999992
 21
-1914.7340999999999
 31
0.0
  0
ARC
  5
F2F7
  8
01
 10
860.68769999999995
 20
-2141.7341000000001
 30
0.0
 40
5.0
 50
0.0
 51
90.0
  0
LINE
  5
F2F8
  8
01
 10
855.68769999999995
 20
-2136.7341000000001
 30
0.0
 11
855.68769999999995
 21
-2189.7341000000001
 31
0.0
  0
LINE
  5
F2F9
  8
01
 10
865.68769999999995
 20
-2184.7341000000001
 30
0.0
 11
865.68769999999995
 21
-2141.7341000000001
 31
0.0
  0
LINE
  5
F2FA
  8
01
 10
855.68769999999995
 20
-2136.7341000000001
 30
0.0
 11
860.68769999999995
 21
-2136.7341000000001
 31
0.0
  0
ARC
  5
F2FB
  8
01
 10
860.68769999999995
 20
-2184.7341000000001
 30
0.0
 40
5.0
 50
270.0
 51
0.0
  0
LINE
  5
F2FC
  8
01
 10
855.68769999999995
 20
-2189.7341000000001
 30
0.0
 11
860.68769999999995
 21
-2189.7341000000001
 31
0.0
  0
ARC
  5
F2FD
  8
01
 10
982.68780000000004
 20
-1914.7340999999999
 30
0.0
 40
5.0
 50
180.0
 51
270.0
  0
LINE
  5
F2FE
  8
01
 10
977.68779999999992
 20
-1909.7340999999999
 30
0.0
 11
1030.6877999999999
 21
-1909.7340999999999
 31
0.0
  0
LINE
  5
F2FF
  8
01
 10
1025.6877999999999
 20
-1919.7340999999999
 30
0.0
 11
982.68780000000004
 21
-1919.7340999999999
 31
0.0
  0
ARC
  5
F300
  8
01
 10
1025.6877999999999
 20
-1914.7340999999999
 30
0.0
 40
5.0
 50
270.0
 51
0.0
  0
LINE
  5
F301
  8
01
 10
1030.6877999999999
 20
-1909.7340999999999
 30
0.0
 11
1030.6877999999999
 21
-1914.7340999999999
 31
0.0
  0
ARC
  5
F302
  8
01
 10
1004.1878
 20
-2163.2341000000001
 30
0.0
 40
26.5
 50
132.78469999999999
 51
227.21530000000001
  0
ARC
  5
F303
  8
1HIDDEN
 10
1004.1878
 20
-2163.2341000000001
 30
0.0
 40
26.5
 50
227.21530000000001
 51
132.78469999999999
  0
LINE
  5
F305
  8
01
 10
867.18769999999995
 20
-2175.2341000000001
 30
0.0
 11
889.28520000000015
 21
-2175.2341000000001
 31
0.0
  0
LINE
  5
F306
  8
01
 10
867.18769999999995
 20
-2151.2341000000001
 30
0.0
 11
889.28520000000015
 21
-2151.2341000000001
 31
0.0
  0
ARC
  5
F307
  8
01
 10
858.18769999999995
 20
-2163.2341000000001
 30
0.0
 40
15.0
 50
53.130099999999992
 51
60.0
  0
ARC
  5
F308
  8
01
 10
858.18769999999995
 20
-2163.2341000000001
 30
0.0
 40
15.0
 50
300.0
 51
306.86989999999997
  0
LINE
  5
F309
  8
01
 10
867.18769999999995
 20
-2175.2341000000001
 30
0.0
 11
867.18769999999995
 21
-2151.2341000000001
 31
0.0
  0
LINE
  5
F30E
  8
01
 10
1065.1877999999999
 20
-1953.8342
 30
0.0
 11
987.18780000000004
 21
-1953.8342
 31
0.0
  0
LINE
  5
F30F
  8
01
 10
987.18780000000004
 20
-1944.8317
 30
0.0
 11
1065.1877999999999
 21
-1944.8317
 31
0.0
  0
ARC
  5
F310
  8
1PHANTOM
 10
1052.3442
 20
-1966.2369000000001
 30
0.0
 40
1.0
 50
256.0
 51
346.0
  0
LINE
  5
F311
  8
1PHANTOM
 10
978.59709999999995
 20
-1939.6022
 30
0.0
 11
1054.2800999999999
 21
-1958.4721
 31
0.0
  0
LINE
  5
F312
  8
1PHANTOM
 10
1074.6494
 20
-1937.6927000000001
 30
0.0
 11
998.96630000000005
 21
-1956.5626
 31
0.0
  0
LINE
  5
F313
  8
1PHANTOM
 10
996.78839999999991
 20
-1947.8275000000001
 30
0.0
 11
1072.4715000000001
 21
-1928.9576
 31
0.0
  0
LINE
  5
F314
  8
01
 10
988.18780000000004
 20
-2214.2341000000001
 30
0.0
 11
1064.1877999999999
 21
-2214.2341000000001
 31
0.0
  0
LINE
  5
F315
  8
01
 10
988.18780000000004
 20
-2134.2341000000001
 30
0.0
 11
1064.1877999999999
 21
-2134.2341000000001
 31
0.0
  0
LINE
  5
F316
  8
1PHANTOM
 10
1052.1022
 20
-1967.2072000000001
 30
0.0
 11
976.41920000000005
 21
-1948.3372999999999
 31
0.0
  0
LINE
  5
F317
  8
01
 10
890.78520000000003
 20
-2135.2341000000001
 30
0.0
 11
890.78520000000003
 21
-2213.2341000000001
 31
0.0
  0
LINE
  5
F318
  8
01
 10
899.78519999999992
 20
-2135.2341000000001
 30
0.0
 11
899.78519999999992
 21
-2213.2341000000001
 31
0.0
  0
LINE
  5
F319
  8
01
 10
898.78520000000003
 20
-2214.2341000000001
 30
0.0
 11
891.78519999999992
 21
-2214.2341000000001
 31
0.0
  0
ARC
  5
F31A
  8
01
 10
891.78519999999992
 20
-2213.2341000000001
 30
0.0
 40
1.0
 50
180.0
 51
270.0
  0
ARC
  5
F31B
  8
01
 10
889.28520000000015
 20
-2149.7341000000001
 30
0.0
 40
1.5
 50
270.0
 51
0.0
  0
ARC
  5
F31C
  8
01
 10
889.28520000000015
 20
-2176.7341000000001
 30
0.0
 40
1.5
 50
0.0
 51
90.0
  0
ARC
  5
F31D
  8
01
 10
898.78520000000003
 20
-2213.2341000000001
 30
0.0
 40
1.0
 50
270.0
 51
0.0
  0
LINE
  5
F31E
  8
01
 10
898.78520000000003
 20
-2134.2341000000001
 30
0.0
 11
891.78519999999992
 21
-2134.2341000000001
 31
0.0
  0
ARC
  5
F31F
  8
01
 10
891.78519999999992
 20
-2135.2341000000001
 30
0.0
 40
1.0
 50
90.0
 51
180.0
  0
ARC
  5
F320
  8
01
 10
898.78520000000003
 20
-2135.2341000000001
 30
0.0
 40
1.0
 50
0.0
 51
90.0
  0
LINE
  5
F321
  8
1PHANTOM
 10
975.69079999999985
 20
-1947.1251
 30
0.0
 11
977.38490000000002
 21
-1940.3306
 31
0.0
  0
ARC
  5
F322
  8
1PHANTOM
 10
976.66110000000015
 20
-1947.367
 30
0.0
 40
1.0
 50
166.0
 51
256.0
  0
ARC
  5
F323
  8
1PHANTOM
 10
978.35519999999997
 20
-1940.5725
 30
0.0
 40
1.0
 50
76.0
 51
166.0
  0
LINE
  5
F324
  8
01
 10
986.18780000000004
 20
-2212.2341000000001
 30
0.0
 11
986.18780000000004
 21
-2136.2341000000001
 31
0.0
  0
ARC
  5
F325
  8
01
 10
988.18780000000004
 20
-2212.2341000000001
 30
0.0
 40
2.0
 50
180.0
 51
270.0
  0
ARC
  5
F326
  8
01
 10
1017.6878
 20
-1943.3317
 30
0.0
 40
1.5
 50
180.0
 51
270.0
  0
LINE
  5
F327
  8
1PHANTOM
 10
994.93700000000001
 20
-1919.7340999999999
 30
0.0
 11
1001.277
 21
-1945.1624999999999
 31
0.0
  0
LINE
  5
F328
  8
01
 10
992.18780000000015
 20
-1921.2340999999999
 30
0.0
 11
1016.1878
 21
-1921.2340999999999
 31
0.0
  0
LINE
  5
F329
  8
01
 10
992.18780000000015
 20
-1921.2340999999999
 30
0.0
 11
992.18780000000015
 21
-1943.3317
 31
0.0
  0
LINE
  5
F32A
  8
1PHANTOM
 10
988.7038
 20
-1919.7340999999999
 30
0.0
 11
983.81140000000005
 21
-1939.3562999999999
 31
0.0
  0
ARC
  5
F32B
  8
01
 10
988.18780000000004
 20
-2136.2341000000001
 30
0.0
 40
2.0
 50
90.0
 51
180.0
  0
ARC
  5
F32C
  8
1PHANTOM
 10
982.35599999999999
 20
-1938.9935
 30
0.0
 40
1.5
 50
256.0
 51
346.0
  0
ARC
  5
F32D
  8
01
 10
987.18780000000004
 20
-1952.8342
 30
0.0
 40
1.0
 50
180.0
 51
270.0
  0
LINE
  5
F32E
  8
01
 10
986.18780000000004
 20
-1952.8342
 30
0.0
 11
986.18780000000004
 21
-1945.8317
 31
0.0
  0
ARC
  5
F32F
  8
01
 10
987.18780000000004
 20
-1945.8317
 30
0.0
 40
1.0
 50
90.0
 51
180.0
  0
ARC
  5
F330
  8
01
 10
990.68780000000004
 20
-1943.3317
 30
0.0
 40
1.5
 50
270.0
 51
0.0
  0
ARC
  5
F331
  8
1PHANTOM
 10
998.72439999999995
 20
-1955.5923
 30
0.0
 40
1.0
 50
194.0
 51
284.0
  0
LINE
  5
F332
  8
1PHANTOM
 10
997.75409999999999
 20
-1955.8342
 30
0.0
 11
996.06010000000003
 21
-1949.0397
 31
0.0
  0
ARC
  5
F333
  8
1PHANTOM
 10
997.03039999999999
 20
-1948.7978000000001
 30
0.0
 40
1.0
 50
104.0
 51
194.0
  0
ARC
  5
F334
  8
01
 10
1004.1878
 20
-1912.2340999999999
 30
0.0
 40
15.0
 50
210.0
 51
216.8699
  0
LINE
  5
F335
  8
01
 10
1016.1878
 20
-1921.2340999999999
 30
0.0
 11
1016.1878
 21
-1943.3317
 31
0.0
  0
LINE
  5
F336
  8
1PHANTOM
 10
1013.4385
 20
-1919.7340999999999
 30
0.0
 11
1007.0984999999999
 21
-1945.1624999999999
 31
0.0
  0
ARC
  5
F337
  8
1PHANTOM
 10
999.82159999999988
 20
-1945.5254
 30
0.0
 40
1.5
 50
284.0
 51
14.0
  0
ARC
  5
F338
  8
1PHANTOM
 10
1008.554
 20
-1945.5254
 30
0.0
 40
1.5
 50
166.0
 51
256.0
  0
ARC
  5
F339
  8
01
 10
1004.1878
 20
-1912.2340999999999
 30
0.0
 40
15.0
 50
323.13010000000003
 51
330.0
  0
LINE
  5
F33A
  8
1PHANTOM
 10
1019.6717
 20
-1919.7340999999999
 30
0.0
 11
1024.5641000000001
 21
-1939.3562999999999
 31
0.0
  0
ARC
  5
F33B
  8
1PHANTOM
 10
1026.0196000000001
 20
-1938.9935
 30
0.0
 40
1.5
 50
194.0
 51
284.0
  0
LINE
  5
F33C
  8
01
 10
1066.1877999999999
 20
-2212.2341000000001
 30
0.0
 11
1066.1877999999999
 21
-2136.2341000000001
 31
0.0
  0
ARC
  5
F33D
  8
01
 10
1064.1877999999999
 20
-2212.2341000000001
 30
0.0
 40
2.0
 50
270.0
 51
0.0
  0
ARC
  5
F33E
  8
1PHANTOM
 10
1054.0382
 20
-1959.4423999999999
 30
0.0
 40
1.0
 50
346.0
 51
76.0
  0
LINE
  5
F33F
  8
1PHANTOM
 10
1053.3145
 20
-1966.4788000000001
 30
0.0
 11
1055.0084999999999
 21
-1959.6842999999999
 31
0.0
  0
ARC
  5
F340
  8
01
 10
1064.1877999999999
 20
-2136.2341000000001
 30
0.0
 40
2.0
 50
0.0
 51
90.0
  0
ARC
  5
F341
  8
01
 10
1065.1877999999999
 20
-1952.8342
 30
0.0
 40
1.0
 50
270.0
 51
0.0
  0
LINE
  5
F342
  8
01
 10
1066.1877999999999
 20
-1952.8342
 30
0.0
 11
1066.1877999999999
 21
-1945.8317
 31
0.0
  0
ARC
  5
F343
  8
01
 10
1065.1877999999999
 20
-1945.8317
 30
0.0
 40
1.0
 50
0.0
 51
90.0
  0
LINE
  5
F344
  8
1PHANTOM
 10
1075.3778
 20
-1936.4804999999999
 30
0.0
 11
1073.6837
 21
-1929.6859999999999
 31
0.0
  0
ARC
  5
F345
  8
1PHANTOM
 10
1074.4075
 20
-1936.7224000000001
 30
0.0
 40
1.0
 50
284.0
 51
14.0
  0
ARC
  5
F346
  8
1PHANTOM
 10
1072.7134000000001
 20
-1929.9278999999999
 30
0.0
 40
1.0
 50
14.0
 51
104.0
  0
ARC
  5
F349
  8
01
 10
810.68769999999995
 20
-2141.7341000000001
 30
0.0
 40
5.0
 50
90.0
 51
180.0
  0
LINE
  5
F34A
  8
01
 10
815.68769999999995
 20
-2136.7341000000001
 30
0.0
 11
815.68769999999995
 21
-2189.7341000000001
 31
0.0
  0
LINE
  5
F34B
  8
01
 10
805.68769999999995
 20
-2184.7341000000001
 30
0.0
 11
805.68769999999995
 21
-2141.7341000000001
 31
0.0
  0
LINE
  5
F34C
  8
01
 10
815.68769999999995
 20
-2136.7341000000001
 30
0.0
 11
810.68769999999995
 21
-2136.7341000000001
 31
0.0
  0
ARC
  5
F34D
  8
01
 10
810.68769999999995
 20
-2184.7341000000001
 30
0.0
 40
5.0
 50
180.0
 51
270.0
  0
LINE
  5
F34E
  8
01
 10
815.68769999999995
 20
-2189.7341000000001
 30
0.0
 11
810.68769999999995
 21
-2189.7341000000001
 31
0.0
  0
LINE
  5
F34F
  8
01
 10
804.18769999999995
 20
-2175.2341000000001
 30
0.0
 11
782.09010000000001
 21
-2175.2341000000001
 31
0.0
  0
LINE
  5
F350
  8
01
 10
804.18769999999995
 20
-2151.2341000000001
 30
0.0
 11
782.09010000000001
 21
-2151.2341000000001
 31
0.0
  0
ARC
  5
F351
  8
01
 10
813.18769999999995
 20
-2163.2341000000001
 30
0.0
 40
15.0
 50
120.0
 51
126.8699
  0
ARC
  5
F352
  8
01
 10
813.18769999999995
 20
-2163.2341000000001
 30
0.0
 40
15.0
 50
233.1301
 51
240.0
  0
LINE
  5
F353
  8
01
 10
804.18769999999995
 20
-2175.2341000000001
 30
0.0
 11
804.18769999999995
 21
-2151.2341000000001
 31
0.0
  0
LINE
  5
F354
  8
01
 10
780.59010000000001
 20
-2135.2341000000001
 30
0.0
 11
780.59010000000001
 21
-2213.2341000000001
 31
0.0
  0
LINE
  5
F355
  8
01
 10
771.59010000000001
 20
-2135.2341000000001
 30
0.0
 11
771.59010000000001
 21
-2213.2341000000001
 31
0.0
  0
LINE
  5
F356
  8
01
 10
772.59010000000001
 20
-2214.2341000000001
 30
0.0
 11
779.59010000000001
 21
-2214.2341000000001
 31
0.0
  0
ARC
  5
F357
  8
01
 10
779.59010000000001
 20
-2213.2341000000001
 30
0.0
 40
1.0
 50
270.0
 51
0.0
  0
ARC
  5
F358
  8
01
 10
782.09010000000001
 20
-2149.7341000000001
 30
0.0
 40
1.5
 50
180.0
 51
270.0
  0
ARC
  5
F359
  8
01
 10
782.09010000000001
 20
-2176.7341000000001
 30
0.0
 40
1.5
 50
90.0
 51
180.0
  0
ARC
  5
F35A
  8
01
 10
772.59010000000001
 20
-2213.2341000000001
 30
0.0
 40
1.0
 50
180.0
 51
270.0
  0
LINE
  5
F35B
  8
01
 10
772.59010000000001
 20
-2134.2341000000001
 30
0.0
 11
779.59010000000001
 21
-2134.2341000000001
 31
0.0
  0
ARC
  5
F35C
  8
01
 10
779.59010000000001
 20
-2135.2341000000001
 30
0.0
 40
1.0
 50
0.0
 51
90.0
  0
ARC
  5
F35D
  8
01
 10
772.59010000000001
 20
-2135.2341000000001
 30
0.0
 40
1.0
 50
90.0
 51
180.0
  0
LINE
  5
F35E
  8
01
 10
977.68779999999992
 20
-1869.7340999999999
 30
0.0
 11
977.68779999999992
 21
-1864.7340999999999
 31
0.0
  0
ARC
  5
F35F
  8
01
 10
982.68780000000004
 20
-1864.7340999999999
 30
0.0
 40
5.0
 50
90.0
 51
180.0
  0
LINE
  5
F360
  8
01
 10
977.68779999999992
 20
-1869.7340999999999
 30
0.0
 11
1030.6877999999999
 21
-1869.7340999999999
 31
0.0
  0
LINE
  5
F361
  8
01
 10
1025.6877999999999
 20
-1859.7340999999999
 30
0.0
 11
1007.0309
 21
-1859.7340999999999
 31
0.0
  0
ARC
  5
F362
  8
01
 10
1025.6877999999999
 20
-1864.7340999999999
 30
0.0
 40
5.0
 50
0.0
 51
90.0
  0
LINE
  5
F363
  8
01
 10
1030.6877999999999
 20
-1869.7340999999999
 30
0.0
 11
1030.6877999999999
 21
-1864.7340999999999
 31
0.0
  0
LINE
  5
F364
  8
01
 10
1065.1877999999999
 20
-1825.634
 30
0.0
 11
987.18780000000004
 21
-1825.634
 31
0.0
  0
LINE
  5
F365
  8
01
 10
987.18780000000004
 20
-1834.6365000000001
 30
0.0
 11
1065.1877999999999
 21
-1834.6365000000001
 31
0.0
  0
ARC
  5
F366
  8
01
 10
1017.6878
 20
-1836.1365000000001
 30
0.0
 40
1.5
 50
90.0
 51
180.0
  0
LINE
  5
F367
  8
01
 10
992.18780000000015
 20
-1858.2340999999999
 30
0.0
 11
1001.6669000000001
 21
-1858.2340999999999
 31
0.0
  0
LINE
  5
F368
  8
01
 10
992.18780000000015
 20
-1858.2340999999999
 30
0.0
 11
992.18780000000015
 21
-1836.1365000000001
 31
0.0
  0
ARC
  5
F369
  8
01
 10
987.18780000000004
 20
-1826.634
 30
0.0
 40
1.0
 50
90.0
 51
180.0
  0
LINE
  5
F36A
  8
01
 10
986.18780000000004
 20
-1826.634
 30
0.0
 11
986.18780000000004
 21
-1833.6365000000001
 31
0.0
  0
ARC
  5
F36B
  8
01
 10
987.18780000000004
 20
-1833.6365000000001
 30
0.0
 40
1.0
 50
180.0
 51
270.0
  0
ARC
  5
F36C
  8
01
 10
990.68780000000004
 20
-1836.1365000000001
 30
0.0
 40
1.5
 50
0.0
 51
90.0
  0
ARC
  5
F36D
  8
01
 10
1004.1878
 20
-1867.2340999999999
 30
0.0
 40
15.0
 50
143.1301
 51
150.0
  0
LINE
  5
F36E
  8
01
 10
1016.1878
 20
-1858.2340999999999
 30
0.0
 11
1016.1878
 21
-1836.1365000000001
 31
0.0
  0
ARC
  5
F36F
  8
01
 10
1004.1878
 20
-1867.2340999999999
 30
0.0
 40
15.0
 50
30.0
 51
36.869900000000001
  0
ARC
  5
F370
  8
01
 10
1065.1877999999999
 20
-1826.634
 30
0.0
 40
1.0
 50
0.0
 51
90.0
  0
LINE
  5
F371
  8
01
 10
1066.1877999999999
 20
-1826.634
 30
0.0
 11
1066.1877999999999
 21
-1833.6365000000001
 31
0.0
  0
ARC
  5
F372
  8
01
 10
1065.1877999999999
 20
-1833.6365000000001
 30
0.0
 40
1.0
 50
270.0
 51
0.0
  0
ARC
  5
F373
  8
01
 10
667.18759999999997
 20
-2163.2341000000001
 30
0.0
 40
26.5
 50
312.78469999999999
 51
47.215299999999992
  0
ARC
  5
F374
  8
1HIDDEN
 10
667.18759999999997
 20
-2163.2341000000001
 30
0.0
 40
26.5
 50
47.215299999999992
 51
312.78469999999999
  0
LINE
  5
F375
  8
01
 10
683.18759999999997
 20
-2214.2341000000001
 30
0.0
 11
607.18759999999986
 21
-2214.2341000000001
 31
0.0
  0
LINE
  5
F376
  8
01
 10
683.18759999999997
 20
-2134.2341000000001
 30
0.0
 11
607.18759999999986
 21
-2134.2341000000001
 31
0.0
  0
LINE
  5
F377
  8
01
 10
685.18759999999986
 20
-2212.2341000000001
 30
0.0
 11
685.18759999999986
 21
-2136.2341000000001
 31
0.0
  0
ARC
  5
F378
  8
01
 10
683.18759999999997
 20
-2212.2341000000001
 30
0.0
 40
2.0
 50
270.0
 51
0.0
  0
ARC
  5
F379
  8
01
 10
683.18759999999997
 20
-2136.2341000000001
 30
0.0
 40
2.0
 50
0.0
 51
90.0
  0
LINE
  5
F37A
  8
01
 10
605.18759999999997
 20
-2212.2341000000001
 30
0.0
 11
605.18759999999997
 21
-2136.2341000000001
 31
0.0
  0
ARC
  5
F37B
  8
01
 10
607.18759999999986
 20
-2212.2341000000001
 30
0.0
 40
2.0
 50
180.0
 51
270.0
  0
ARC
  5
F37C
  8
01
 10
607.18759999999986
 20
-2136.2341000000001
 30
0.0
 40
2.0
 50
90.0
 51
180.0
  0
LINE
  5
F7CE
  8
01
 10
1006.7087
 20
-1858.2340999999999
 30
0.0
 11
1016.1878
 21
-1858.2340999999999
 31
0.0
  0
LINE
  5
F7CF
  8
01
 10
1001.3446
 20
-1859.7340999999999
 30
0.0
 11
982.68780000000004
 21
-1859.7340999999999
 31
0.0
  0
CIRCLE
  5
F927
  8
01
 10
797.68769999999995
 20
-2163.2341000000001
 30
0.0
 40
3.0
  0
CIRCLE
  5
F928
  8
01
 10
873.68769999999995
 20
-2163.2341000000001
 30
0.0
 40
3.0
  0
LINE
  5
F929
  8
1DIM
 10
1064.1877999999999
 20
-2134.2341000000001
 30
0.0
 11
1082.4878000000001
 21
-2134.2341000000001
 31
0.0
  0
LINE
  5
F92A
  8
1DIM
 10
1064.1877999999999
 20
-2214.2341000000001
 30
0.0
 11
1082.4878000000001
 21
-2214.2341000000001
 31
0.0
  0
LINE
  5
F92B
  8
1DIM
 10
1081.1877999999999
 20
-2136.8341
 30
0.0
 11
1081.1877999999999
 21
-2211.6341000000002
 31
0.0
  0
LINE
  5
F92F
  8
1DIM
 10
986.18780000000004
 20
-1952.8342
 30
0.0
 11
986.18780000000004
 21
-1995.1342
 31
0.0
  0
LINE
  5
F930
  8
1DIM
 10
1066.1877999999999
 20
-1952.8342
 30
0.0
 11
1066.1877999999999
 21
-1995.1342
 31
0.0
  0
LINE
  5
F931
  8
1DIM
 10
988.78779999999983
 20
-1993.8342
 30
0.0
 11
1063.5878
 21
-1993.8342
 31
0.0
  0
LINE
  5
F935
  8
1DIM
 10
1030.6877999999999
 20
-1909.7340999999999
 30
0.0
 11
1102.4878000000001
 21
-1909.7340999999999
 31
0.0
  0
LINE
  5
F936
  8
1DIM
 10
1052.3442
 20
-1967.2369000000001
 30
0.0
 11
1102.4878000000001
 21
-1967.2369000000001
 31
0.0
  0
LINE
  5
F937
  8
1DIM
 10
1101.1877999999999
 20
-1912.3341
 30
0.0
 11
1101.1877999999999
 21
-1964.6369
 31
0.0
  0
LINE
  5
F93B
  8
1DIM
 10
1004.1878
 20
-1930.2340999999999
 30
0.0
 11
1004.1878
 21
-1985.1342
 31
0.0
  0
LINE
  5
F93C
  8
1DIM
 10
1066.1877999999999
 20
-1951.7292
 30
0.0
 11
1066.1877999999999
 21
-1985.1342
 31
0.0
  0
LINE
  5
F93D
  8
1DIM
 10
1006.7877999999999
 20
-1983.8342
 30
0.0
 11
1063.5878
 21
-1983.8342
 31
0.0
  0
LINE
  5
F941
  8
1DIM
 10
1030.6877999999999
 20
-1909.7340999999999
 30
0.0
 11
1092.4878000000001
 21
-1909.7340999999999
 31
0.0
  0
LINE
  5
F942
  8
1DIM
 10
1065.1877999999999
 20
-1953.8342
 30
0.0
 11
1092.4878000000001
 21
-1953.8342
 31
0.0
  0
LINE
  5
F943
  8
1DIM
 10
1091.1877999999999
 20
-1912.3341
 30
0.0
 11
1091.1877999999999
 21
-1951.2342000000001
 31
0.0
  0
LINE
  5
F947
  8
1DIM
 10
1030.6877999999999
 20
-1909.7340999999999
 30
0.0
 11
1082.4878000000001
 21
-1909.7340999999999
 31
0.0
  0
LINE
  5
F948
  8
1DIM
 10
1072.7134000000001
 20
-1928.9278999999999
 30
0.0
 11
1082.4878000000001
 21
-1928.9278999999999
 31
0.0
  0
LINE
  5
F949
  8
1DIM
 10
1081.1877999999999
 20
-1912.3341
 30
0.0
 11
1081.1877999999999
 21
-1926.3279
 31
0.0
  0
LINE
  5
F94D
  8
1DIM
 10
1004.1878
 20
-2189.7341000000001
 30
0.0
 11
967.88779999999986
 21
-2189.7341000000001
 31
0.0
  0
LINE
  5
F94E
  8
1DIM
 10
1004.1878
 20
-2136.7341000000001
 30
0.0
 11
967.88779999999986
 21
-2136.7341000000001
 31
0.0
  0
LINE
  5
F94F
  8
1DIM
 10
969.18780000000004
 20
-2187.1341000000002
 30
0.0
 11
969.18780000000004
 21
-2139.3341
 31
0.0
  0
LINE
  5
F953
  8
1DIM
 10
1022.1876999999999
 20
-2105.2341000000001
 30
0.0
 11
1022.1876999999999
 21
-2045.9340999999999
 31
0.0
  0
LINE
  5
F954
  8
1DIM
 10
953.18769999999995
 20
-2077.2341000000001
 30
0.0
 11
953.18769999999995
 21
-2045.9340999999999
 31
0.0
  0
LINE
  5
F955
  8
1DIM
 10
1019.5877
 20
-2047.2340999999999
 30
0.0
 11
955.78769999999986
 21
-2047.2340999999999
 31
0.0
  0
LINE
  5
F959
  8
1DIM
 10
1022.1876999999999
 20
-2105.2341000000001
 30
0.0
 11
1050.4876999999999
 21
-2105.2341000000001
 31
0.0
  0
LINE
  5
F95A
  8
1DIM
 10
983.06299999999987
 20
-2179.2341000000001
 30
0.0
 11
1050.4876999999999
 21
-2179.2341000000001
 31
0.0
  0
LINE
  5
F95B
  8
1DIM
 10
1049.1876999999999
 20
-2107.8341
 30
0.0
 11
1049.1876999999999
 21
-2176.6341000000011
 31
0.0
  0
LINE
  5
F95F
  8
1DIM
 10
842.18769999999995
 20
-2077.2341000000001
 30
0.0
 11
911.49129999999991
 21
-2077.2341000000001
 31
0.0
  0
LINE
  5
F960
  8
1DIM
 10
842.18769999999995
 20
-2207.2341000000001
 30
0.0
 11
911.49129999999991
 21
-2207.2341000000001
 31
0.0
  0
LINE
  5
F961
  8
1DIM
 10
910.19129999999996
 20
-2079.8341
 30
0.0
 11
910.19129999999996
 21
-2204.6341000000002
 31
0.0
  0
LINE
  5
F965
  8
1DIM
 10
842.18769999999995
 20
-2085.2341000000001
 30
0.0
 11
881.49130000000002
 21
-2085.2341000000001
 31
0.0
  0
LINE
  5
F966
  8
1DIM
 10
842.18769999999995
 20
-2199.2341000000001
 30
0.0
 11
881.49130000000002
 21
-2199.2341000000001
 31
0.0
  0
LINE
  5
F967
  8
1DIM
 10
880.19129999999984
 20
-2087.8341
 30
0.0
 11
880.19129999999984
 21
-2196.6341000000002
 31
0.0
  0
LINE
  5
F96B
  8
1DIM
 10
637.18769999999995
 20
-2163.2341000000001
 30
0.0
 11
622.88769999999988
 21
-2163.2341000000001
 31
0.0
  0
LINE
  5
F96C
  8
1DIM
 10
644.68769999999995
 20
-2107.7341000000001
 30
0.0
 11
622.88769999999988
 21
-2107.7341000000001
 31
0.0
  0
LINE
  5
F96D
  8
1DIM
 10
624.18769999999995
 20
-2160.6341000000011
 30
0.0
 11
624.18769999999995
 21
-2110.3341
 31
0.0
  0
LINE
  5
F971
  8
1DIM
 10
637.18769999999995
 20
-2163.2341000000001
 30
0.0
 11
632.8877
 21
-2163.2341000000001
 31
0.0
  0
LINE
  5
F972
  8
1DIM
 10
654.18769999999995
 20
-2113.2341000000001
 30
0.0
 11
632.8877
 21
-2113.2341000000001
 31
0.0
  0
LINE
  5
F973
  8
1DIM
 10
634.18769999999995
 20
-2160.6341000000011
 30
0.0
 11
634.18769999999995
 21
-2115.8341
 31
0.0
  0
LINE
  5
F977
  8
1DIM
 10
647.38769999999988
 20
-2107.7341000000001
 30
0.0
 11
647.38769999999988
 21
-2078.9340999999999
 31
0.0
  0
LINE
  5
F978
  8
1DIM
 10
686.98770000000002
 20
-2107.7341000000001
 30
0.0
 11
686.98770000000002
 21
-2078.9340999999999
 31
0.0
  0
LINE
  5
F979
  8
1DIM
 10
649.98770000000002
 20
-2080.2341000000001
 30
0.0
 11
684.38769999999988
 21
-2080.2341000000001
 31
0.0
  0
LINE
  5
F97D
  8
1DIM
 10
984.3877
 20
-2107.7341000000001
 30
0.0
 11
984.3877
 21
-2078.9340999999999
 31
0.0
  0
LINE
  5
F97E
  8
1DIM
 10
1023.9877
 20
-2107.7341000000001
 30
0.0
 11
1023.9877
 21
-2078.9340999999999
 31
0.0
  0
LINE
  5
F97F
  8
1DIM
 10
986.98770000000002
 20
-2080.2341000000001
 30
0.0
 11
1021.3877
 21
-2080.2341000000001
 31
0.0
  0
LINE
  5
F983
  8
1DIM
 10
793.98770000000002
 20
-2109.6997000000001
 30
0.0
 11
793.98770000000002
 21
-2055.9340999999999
 31
0.0
  0
LINE
  5
F984
  8
1DIM
 10
815.68769999999995
 20
-2070.7366999999999
 30
0.0
 11
815.68769999999995
 21
-2055.9340999999999
 31
0.0
  0
LINE
  5
F985
  8
1DIM
 10
796.58770000000004
 20
-2057.2341000000001
 30
0.0
 11
813.08769999999993
 21
-2057.2341000000001
 31
0.0
  0
LINE
  5
F989
  8
1DIM
 10
855.68769999999995
 20
-2070.7366999999999
 30
0.0
 11
855.68769999999995
 21
-2055.9340999999999
 31
0.0
  0
LINE
  5
F98A
  8
1DIM
 10
863.98770000000002
 20
-2113.2341000000001
 30
0.0
 11
863.98770000000002
 21
-2055.9340999999999
 31
0.0
  0
LINE
  5
F98B
  8
1DIM
 10
858.28769999999986
 20
-2057.2341000000001
 30
0.0
 11
861.3877
 21
-2057.2341000000001
 31
0.0
  0
LINE
  5
F98C
  8
1DIM
 10
863.98770000000002
 20
-2057.2341000000001
 30
0.0
 11
877.94100000000003
 21
-2057.2341000000001
 31
0.0
  0
LINE
  5
F990
  8
1DIM
 10
1023.1885
 20
-1880.2340999999999
 30
0.0
 11
1050.4876999999999
 21
-1880.2340999999999
 31
0.0
  0
LINE
  5
F991
  8
1DIM
 10
1023.1885
 20
-1899.2340999999999
 30
0.0
 11
1050.4876999999999
 21
-1899.2340999999999
 31
0.0
  0
LINE
  5
F992
  8
1DIM
 10
1049.1876999999999
 20
-1882.8341
 30
0.0
 11
1049.1876999999999
 21
-1896.6341
 31
0.0
  0
LINE
  5
F996
  8
1DIM
 10
953.18769999999995
 20
-2077.2341000000001
 30
0.0
 11
953.18769999999995
 21
-2055.9340999999999
 31
0.0
  0
LINE
  5
F997
  8
1DIM
 10
1004.1876999999999
 20
-2085.2341000000001
 30
0.0
 11
1004.1876999999999
 21
-2055.9340999999999
 31
0.0
  0
LINE
  5
F998
  8
1DIM
 10
955.78769999999986
 20
-2057.2341000000001
 30
0.0
 11
1001.5877
 21
-2057.2341000000001
 31
0.0
  0
LINE
  5
F99C
  8
1DIM
 10
942.18769999999995
 20
-2135.2341000000001
 30
0.0
 11
942.18769999999995
 21
-2055.9340999999999
 31
0.0
  0
LINE
  5
F99D
  8
1DIM
 10
953.18769999999995
 20
-2077.2341000000001
 30
0.0
 11
953.18769999999995
 21
-2055.9340999999999
 31
0.0
  0
LINE
  5
F99E
  8
1DIM
 10
944.78769999999997
 20
-2057.2341000000001
 30
0.0
 11
950.58769999999993
 21
-2057.2341000000001
 31
0.0
  0
LINE
  5
F9A2
  8
1DIM
 10
823.18769999999995
 20
-2083.2341000000001
 30
0.0
 11
823.18769999999995
 21
-2055.9340999999999
 31
0.0
  0
LINE
  5
F9A3
  8
1DIM
 10
848.18769999999995
 20
-2083.2341000000001
 30
0.0
 11
848.18769999999995
 21
-2055.9340999999999
 31
0.0
  0
LINE
  5
F9A4
  8
1DIM
 10
825.78769999999997
 20
-2057.2341000000001
 30
0.0
 11
845.58770000000004
 21
-2057.2341000000001
 31
0.0
  0
TEXT
  5
F9A8
  8
1DIM
 10
831.89599999999996
 20
-2056.3240999999998
 30
0.0
 40
4.5499999999999989
  1
25 
  0
LINE
  5
F9A9
  8
0
  6
BYBLOCK
 10
845.58770000000004
 20
-2056.5374000000002
 30
0.0
 11
848.18769999999995
 21
-2057.2341000000001
 31
0.0
  0
LINE
  5
F9AA
  8
0
  6
BYBLOCK
 10
848.18769999999995
 20
-2057.2341000000001
 30
0.0
 11
845.58770000000004
 21
-2057.9306999999999
 31
0.0
  0
LINE
  5
F9AB
  8
0
  6
BYBLOCK
 10
848.18769999999995
 20
-2057.2341000000001
 30
0.0
 11
845.58770000000004
 21
-2057.2341000000001
 31
0.0
  0
LINE
  5
F9AC
  8
0
  6
BYBLOCK
 10
825.78769999999997
 20
-2057.9306999999999
 30
0.0
 11
823.18769999999995
 21
-2057.2341000000001
 31
0.0
  0
LINE
  5
F9AD
  8
0
  6
BYBLOCK
 10
823.18769999999995
 20
-2057.2341000000001
 30
0.0
 11
825.78769999999997
 21
-2056.5374000000002
 31
0.0
  0
LINE
  5
F9AE
  8
0
  6
BYBLOCK
 10
823.18769999999995
 20
-2057.2341000000001
 30
0.0
 11
825.78769999999997
 21
-2057.2341000000001
 31
0.0
  0
TEXT
  5
F9AF
  8
1DIM
 10
945.41269999999986
 20
-2056.3240999999998
 30
0.0
 40
4.5499999999999989
  1
11 
  0
LINE
  5
F9B0
  8
0
  6
BYBLOCK
 10
950.58769999999993
 20
-2056.5374000000002
 30
0.0
 11
953.18769999999995
 21
-2057.2341000000001
 31
0.0
  0
LINE
  5
F9B1
  8
0
  6
BYBLOCK
 10
953.18769999999995
 20
-2057.2341000000001
 30
0.0
 11
950.58769999999993
 21
-2057.9306999999999
 31
0.0
  0
LINE
  5
F9B2
  8
0
  6
BYBLOCK
 10
953.18769999999995
 20
-2057.2341000000001
 30
0.0
 11
950.58769999999993
 21
-2057.2341000000001
 31
0.0
  0
LINE
  5
F9B3
  8
0
  6
BYBLOCK
 10
944.78769999999997
 20
-2057.9306999999999
 30
0.0
 11
942.18769999999995
 21
-2057.2341000000001
 31
0.0
  0
LINE
  5
F9B4
  8
0
  6
BYBLOCK
 10
942.18769999999995
 20
-2057.2341000000001
 30
0.0
 11
944.78769999999997
 21
-2056.5374000000002
 31
0.0
  0
LINE
  5
F9B5
  8
0
  6
BYBLOCK
 10
942.18769999999995
 20
-2057.2341000000001
 30
0.0
 11
944.78769999999997
 21
-2057.2341000000001
 31
0.0
  0
TEXT
  5
F9B6
  8
1DIM
 10
975.65430000000003
 20
-2056.3240999999998
 30
0.0
 40
4.5499999999999989
  1
51 
  0
LINE
  5
F9B7
  8
0
  6
BYBLOCK
 10
1001.5877
 20
-2056.5374000000002
 30
0.0
 11
1004.1876999999999
 21
-2057.2341000000001
 31
0.0
  0
LINE
  5
F9B8
  8
0
  6
BYBLOCK
 10
1004.1876999999999
 20
-2057.2341000000001
 30
0.0
 11
1001.5877
 21
-2057.9306999999999
 31
0.0
  0
LINE
  5
F9B9
  8
0
  6
BYBLOCK
 10
1004.1876999999999
 20
-2057.2341000000001
 30
0.0
 11
1001.5877
 21
-2057.2341000000001
 31
0.0
  0
LINE
  5
F9BA
  8
0
  6
BYBLOCK
 10
955.78769999999986
 20
-2057.9306999999999
 30
0.0
 11
953.18769999999995
 21
-2057.2341000000001
 31
0.0
  0
LINE
  5
F9BB
  8
0
  6
BYBLOCK
 10
953.18769999999995
 20
-2057.2341000000001
 30
0.0
 11
955.78769999999986
 21
-2056.5374000000002
 31
0.0
  0
LINE
  5
F9BC
  8
0
  6
BYBLOCK
 10
953.18769999999995
 20
-2057.2341000000001
 30
0.0
 11
955.78769999999986
 21
-2057.2341000000001
 31
0.0
  0
TEXT
  5
F9BD
  8
1DIM
 10
1048.2777000000001
 20
-1892.7674
 30
0.0
 40
4.5499999999999989
  1
19 
 50
90.0
  0
LINE
  5
F9BE
  8
0
  6
BYBLOCK
 10
1049.8842999999999
 20
-1896.6341
 30
0.0
 11
1049.1876999999999
 21
-1899.2340999999999
 31
0.0
  0
LINE
  5
F9BF
  8
0
  6
BYBLOCK
 10
1049.1876999999999
 20
-1899.2340999999999
 30
0.0
 11
1048.491
 21
-1896.6341
 31
0.0
  0
LINE
  5
F9C0
  8
0
  6
BYBLOCK
 10
1049.1876999999999
 20
-1899.2340999999999
 30
0.0
 11
1049.1876999999999
 21
-1896.6341
 31
0.0
  0
LINE
  5
F9C1
  8
0
  6
BYBLOCK
 10
1048.491
 20
-1882.8341
 30
0.0
 11
1049.1876999999999
 21
-1880.2340999999999
 31
0.0
  0
LINE
  5
F9C2
  8
0
  6
BYBLOCK
 10
1049.1876999999999
 20
-1880.2340999999999
 30
0.0
 11
1049.8842999999999
 21
-1882.8341
 31
0.0
  0
LINE
  5
F9C3
  8
0
  6
BYBLOCK
 10
1049.1876999999999
 20
-1880.2340999999999
 30
0.0
 11
1049.1876999999999
 21
-1882.8341
 31
0.0
  0
TEXT
  5
F9C4
  8
1DIM
 10
867.71429999999987
 20
-2056.3240999999998
 30
0.0
 40
4.5499999999999989
  1
8.3 
  0
LINE
  5
F9C5
  8
0
  6
BYBLOCK
 10
861.3877
 20
-2056.5374000000002
 30
0.0
 11
863.98770000000002
 21
-2057.2341000000001
 31
0.0
  0
LINE
  5
F9C6
  8
0
  6
BYBLOCK
 10
863.98770000000002
 20
-2057.2341000000001
 30
0.0
 11
861.3877
 21
-2057.9306999999999
 31
0.0
  0
LINE
  5
F9C7
  8
0
  6
BYBLOCK
 10
863.98770000000002
 20
-2057.2341000000001
 30
0.0
 11
861.3877
 21
-2057.2341000000001
 31
0.0
  0
LINE
  5
F9C8
  8
0
  6
BYBLOCK
 10
858.28769999999986
 20
-2057.9306999999999
 30
0.0
 11
855.68769999999995
 21
-2057.2341000000001
 31
0.0
  0
LINE
  5
F9C9
  8
0
  6
BYBLOCK
 10
855.68769999999995
 20
-2057.2341000000001
 30
0.0
 11
858.28769999999986
 21
-2056.5374000000002
 31
0.0
  0
LINE
  5
F9CA
  8
0
  6
BYBLOCK
 10
855.68769999999995
 20
-2057.2341000000001
 30
0.0
 11
858.28769999999986
 21
-2057.2341000000001
 31
0.0
  0
TEXT
  5
F9CB
  8
1DIM
 10
798.77099999999996
 20
-2056.3240999999998
 30
0.0
 40
4.5499999999999989
  1
21.7 
  0
LINE
  5
F9CC
  8
0
  6
BYBLOCK
 10
813.08769999999993
 20
-2056.5374000000002
 30
0.0
 11
815.68769999999995
 21
-2057.2341000000001
 31
0.0
  0
LINE
  5
F9CD
  8
0
  6
BYBLOCK
 10
815.68769999999995
 20
-2057.2341000000001
 30
0.0
 11
813.08769999999993
 21
-2057.9306999999999
 31
0.0
  0
LINE
  5
F9CE
  8
0
  6
BYBLOCK
 10
815.68769999999995
 20
-2057.2341000000001
 30
0.0
 11
813.08769999999993
 21
-2057.2341000000001
 31
0.0
  0
LINE
  5
F9CF
  8
0
  6
BYBLOCK
 10
796.58770000000004
 20
-2057.9306999999999
 30
0.0
 11
793.98770000000002
 21
-2057.2341000000001
 31
0.0
  0
LINE
  5
F9D0
  8
0
  6
BYBLOCK
 10
793.98770000000002
 20
-2057.2341000000001
 30
0.0
 11
796.58770000000004
 21
-2056.5374000000002
 31
0.0
  0
LINE
  5
F9D1
  8
0
  6
BYBLOCK
 10
793.98770000000002
 20
-2057.2341000000001
 30
0.0
 11
796.58770000000004
 21
-2057.2341000000001
 31
0.0
  0
TEXT
  5
F9D2
  8
1DIM
 10
997.59019999999987
 20
-2079.3240999999998
 30
0.0
 40
4.5499999999999989
  1
φ40
  0
LINE
  5
F9D3
  8
0
  6
BYBLOCK
 10
1021.3877
 20
-2079.5374000000002
 30
0.0
 11
1023.9877
 21
-2080.2341000000001
 31
0.0
  0
LINE
  5
F9D4
  8
0
  6
BYBLOCK
 10
1023.9877
 20
-2080.2341000000001
 30
0.0
 11
1021.3877
 21
-2080.9306999999999
 31
0.0
  0
LINE
  5
F9D5
  8
0
  6
BYBLOCK
 10
1023.9877
 20
-2080.2341000000001
 30
0.0
 11
1021.3877
 21
-2080.2341000000001
 31
0.0
  0
LINE
  5
F9D6
  8
0
  6
BYBLOCK
 10
986.98770000000002
 20
-2080.9306999999999
 30
0.0
 11
984.3877
 21
-2080.2341000000001
 31
0.0
  0
LINE
  5
F9D7
  8
0
  6
BYBLOCK
 10
984.3877
 20
-2080.2341000000001
 30
0.0
 11
986.98770000000002
 21
-2079.5374000000002
 31
0.0
  0
LINE
  5
F9D8
  8
0
  6
BYBLOCK
 10
984.3877
 20
-2080.2341000000001
 30
0.0
 11
986.98770000000002
 21
-2080.2341000000001
 31
0.0
  0
TEXT
  5
F9D9
  8
1DIM
 10
660.59019999999998
 20
-2079.3240999999998
 30
0.0
 40
4.5499999999999989
  1
φ40
  0
LINE
  5
F9DA
  8
0
  6
BYBLOCK
 10
684.38769999999988
 20
-2079.5374000000002
 30
0.0
 11
686.98770000000002
 21
-2080.2341000000001
 31
0.0
  0
LINE
  5
F9DB
  8
0
  6
BYBLOCK
 10
686.98770000000002
 20
-2080.2341000000001
 30
0.0
 11
684.38769999999988
 21
-2080.9306999999999
 31
0.0
  0
LINE
  5
F9DC
  8
0
  6
BYBLOCK
 10
686.98770000000002
 20
-2080.2341000000001
 30
0.0
 11
684.38769999999988
 21
-2080.2341000000001
 31
0.0
  0
LINE
  5
F9DD
  8
0
  6
BYBLOCK
 10
649.98770000000002
 20
-2080.9306999999999
 30
0.0
 11
647.38769999999988
 21
-2080.2341000000001
 31
0.0
  0
LINE
  5
F9DE
  8
0
  6
BYBLOCK
 10
647.38769999999988
 20
-2080.2341000000001
 30
0.0
 11
649.98770000000002
 21
-2079.5374000000002
 31
0.0
  0
LINE
  5
F9DF
  8
0
  6
BYBLOCK
 10
647.38769999999988
 20
-2080.2341000000001
 30
0.0
 11
649.98770000000002
 21
-2080.2341000000001
 31
0.0
  0
TEXT
  5
F9E0
  8
1DIM
 10
633.27769999999998
 20
-2129.7600000000002
 30
0.0
 40
4.5499999999999989
  1
50 
 50
90.0
  0
LINE
  5
F9E1
  8
0
  6
BYBLOCK
 10
633.49099999999987
 20
-2115.8341
 30
0.0
 11
634.18769999999995
 21
-2113.2341000000001
 31
0.0
  0
LINE
  5
F9E2
  8
0
  6
BYBLOCK
 10
634.18769999999995
 20
-2113.2341000000001
 30
0.0
 11
634.88440000000003
 21
-2115.8341
 31
0.0
  0
LINE
  5
F9E3
  8
0
  6
BYBLOCK
 10
634.18769999999995
 20
-2113.2341000000001
 30
0.0
 11
634.18769999999995
 21
-2115.8341
 31
0.0
  0
LINE
  5
F9E4
  8
0
  6
BYBLOCK
 10
634.88440000000003
 20
-2160.6341000000011
 30
0.0
 11
634.18769999999995
 21
-2163.2341000000001
 31
0.0
  0
LINE
  5
F9E5
  8
0
  6
BYBLOCK
 10
634.18769999999995
 20
-2163.2341000000001
 30
0.0
 11
633.49099999999987
 21
-2160.6341000000011
 31
0.0
  0
LINE
  5
F9E6
  8
0
  6
BYBLOCK
 10
634.18769999999995
 20
-2163.2341000000001
 30
0.0
 11
634.18769999999995
 21
-2160.6341000000011
 31
0.0
  0
TEXT
  5
F9E7
  8
1DIM
 10
623.27769999999987
 20
-2130.4225000000001
 30
0.0
 40
4.5499999999999989
  1
55.5 
 50
90.0
  0
LINE
  5
F9E8
  8
0
  6
BYBLOCK
 10
623.49099999999999
 20
-2110.3341
 30
0.0
 11
624.18769999999995
 21
-2107.7341000000001
 31
0.0
  0
LINE
  5
F9E9
  8
0
  6
BYBLOCK
 10
624.18769999999995
 20
-2107.7341000000001
 30
0.0
 11
624.88440000000003
 21
-2110.3341
 31
0.0
  0
LINE
  5
F9EA
  8
0
  6
BYBLOCK
 10
624.18769999999995
 20
-2107.7341000000001
 30
0.0
 11
624.18769999999995
 21
-2110.3341
 31
0.0
  0
LINE
  5
F9EB
  8
0
  6
BYBLOCK
 10
624.88440000000003
 20
-2160.6341000000011
 30
0.0
 11
624.18769999999995
 21
-2163.2341000000001
 31
0.0
  0
LINE
  5
F9EC
  8
0
  6
BYBLOCK
 10
624.18769999999995
 20
-2163.2341000000001
 30
0.0
 11
623.49099999999999
 21
-2160.6341000000011
 31
0.0
  0
LINE
  5
F9ED
  8
0
  6
BYBLOCK
 10
624.18769999999995
 20
-2163.2341000000001
 30
0.0
 11
624.18769999999995
 21
-2160.6341000000011
 31
0.0
  0
TEXT
  5
F9EE
  8
1DIM
 10
879.28129999999999
 20
-2128.9704000000002
 30
0.0
 40
4.5499999999999989
  1
114 
 50
90.0
  0
LINE
  5
F9EF
  8
0
  6
BYBLOCK
 10
880.88789999999995
 20
-2196.6341000000002
 30
0.0
 11
880.19129999999984
 21
-2199.2341000000001
 31
0.0
  0
LINE
  5
F9F0
  8
0
  6
BYBLOCK
 10
880.19129999999984
 20
-2199.2341000000001
 30
0.0
 11
879.49459999999988
 21
-2196.6341000000002
 31
0.0
  0
LINE
  5
F9F1
  8
0
  6
BYBLOCK
 10
880.19129999999984
 20
-2199.2341000000001
 30
0.0
 11
880.19129999999984
 21
-2196.6341000000002
 31
0.0
  0
LINE
  5
F9F2
  8
0
  6
BYBLOCK
 10
879.49459999999988
 20
-2087.8341
 30
0.0
 11
880.19129999999984
 21
-2085.2341000000001
 31
0.0
  0
LINE
  5
F9F3
  8
0
  6
BYBLOCK
 10
880.19129999999984
 20
-2085.2341000000001
 30
0.0
 11
880.88789999999995
 21
-2087.8341
 31
0.0
  0
LINE
  5
F9F4
  8
0
  6
BYBLOCK
 10
880.19129999999984
 20
-2085.2341000000001
 30
0.0
 11
880.19129999999984
 21
-2087.8341
 31
0.0
  0
TEXT
  5
F9F5
  8
1DIM
 10
909.28129999999987
 20
-2129.3494999999998
 30
0.0
 40
4.5499999999999989
  1
130 
 50
90.0
  0
LINE
  5
F9F6
  8
0
  6
BYBLOCK
 10
910.88789999999995
 20
-2204.6341000000002
 30
0.0
 11
910.19129999999996
 21
-2207.2341000000001
 31
0.0
  0
LINE
  5
F9F7
  8
0
  6
BYBLOCK
 10
910.19129999999996
 20
-2207.2341000000001
 30
0.0
 11
909.49459999999999
 21
-2204.6341000000002
 31
0.0
  0
LINE
  5
F9F8
  8
0
  6
BYBLOCK
 10
910.19129999999996
 20
-2207.2341000000001
 30
0.0
 11
910.19129999999996
 21
-2204.6341000000002
 31
0.0
  0
LINE
  5
F9F9
  8
0
  6
BYBLOCK
 10
909.49459999999999
 20
-2079.8341
 30
0.0
 11
910.19129999999996
 21
-2077.2341000000001
 31
0.0
  0
LINE
  5
F9FA
  8
0
  6
BYBLOCK
 10
910.19129999999996
 20
-2077.2341000000001
 30
0.0
 11
910.88789999999995
 21
-2079.8341
 31
0.0
  0
LINE
  5
F9FB
  8
0
  6
BYBLOCK
 10
910.19129999999996
 20
-2077.2341000000001
 30
0.0
 11
910.19129999999996
 21
-2079.8341
 31
0.0
  0
TEXT
  5
F9FC
  8
1DIM
 10
1048.2777000000001
 20
-2129.1392000000001
 30
0.0
 40
4.5499999999999989
  1
74 
 50
90.0
  0
LINE
  5
F9FD
  8
0
  6
BYBLOCK
 10
1049.8842999999999
 20
-2176.6341000000011
 30
0.0
 11
1049.1876999999999
 21
-2179.2341000000001
 31
0.0
  0
LINE
  5
F9FE
  8
0
  6
BYBLOCK
 10
1049.1876999999999
 20
-2179.2341000000001
 30
0.0
 11
1048.491
 21
-2176.6341000000011
 31
0.0
  0
LINE
  5
F9FF
  8
0
  6
BYBLOCK
 10
1049.1876999999999
 20
-2179.2341000000001
 30
0.0
 11
1049.1876999999999
 21
-2176.6341000000011
 31
0.0
  0
LINE
  5
FA00
  8
0
  6
BYBLOCK
 10
1048.491
 20
-2107.8341
 30
0.0
 11
1049.1876999999999
 21
-2105.2341000000001
 31
0.0
  0
LINE
  5
FA01
  8
0
  6
BYBLOCK
 10
1049.1876999999999
 20
-2105.2341000000001
 30
0.0
 11
1049.8842999999999
 21
-2107.8341
 31
0.0
  0
LINE
  5
FA02
  8
0
  6
BYBLOCK
 10
1049.1876999999999
 20
-2105.2341000000001
 30
0.0
 11
1049.1876999999999
 21
-2107.8341
 31
0.0
  0
TEXT
  5
FA03
  8
1DIM
 10
983.89599999999996
 20
-2046.3241
 30
0.0
 40
4.5499999999999989
  1
69 
  0
LINE
  5
FA04
  8
0
  6
BYBLOCK
 10
955.78769999999986
 20
-2047.9306999999999
 30
0.0
 11
953.18769999999995
 21
-2047.2340999999999
 31
0.0
  0
LINE
  5
FA05
  8
0
  6
BYBLOCK
 10
953.18769999999995
 20
-2047.2340999999999
 30
0.0
 11
955.78769999999986
 21
-2046.5373999999999
 31
0.0
  0
LINE
  5
FA06
  8
0
  6
BYBLOCK
 10
953.18769999999995
 20
-2047.2340999999999
 30
0.0
 11
955.78769999999986
 21
-2047.2340999999999
 31
0.0
  0
LINE
  5
FA07
  8
0
  6
BYBLOCK
 10
1019.5877
 20
-2046.5373999999999
 30
0.0
 11
1022.1876999999999
 21
-2047.2340999999999
 31
0.0
  0
LINE
  5
FA08
  8
0
  6
BYBLOCK
 10
1022.1876999999999
 20
-2047.2340999999999
 30
0.0
 11
1019.5877
 21
-2047.9306999999999
 31
0.0
  0
LINE
  5
FA09
  8
0
  6
BYBLOCK
 10
1022.1876999999999
 20
-2047.2340999999999
 30
0.0
 11
1019.5877
 21
-2047.2340999999999
 31
0.0
  0
TEXT
  5
FA0A
  8
1DIM
 10
968.27779999999984
 20
-2170.2107000000001
 30
0.0
 40
4.5499999999999989
  1
φ53
 50
90.0
  0
LINE
  5
FA0B
  8
0
  6
BYBLOCK
 10
968.49109999999985
 20
-2139.3341
 30
0.0
 11
969.18780000000004
 21
-2136.7341000000001
 31
0.0
  0
LINE
  5
FA0C
  8
0
  6
BYBLOCK
 10
969.18780000000004
 20
-2136.7341000000001
 30
0.0
 11
969.88440000000014
 21
-2139.3341
 31
0.0
  0
LINE
  5
FA0D
  8
0
  6
BYBLOCK
 10
969.18780000000004
 20
-2136.7341000000001
 30
0.0
 11
969.18780000000004
 21
-2139.3341
 31
0.0
  0
LINE
  5
FA0E
  8
0
  6
BYBLOCK
 10
969.88440000000014
 20
-2187.1341000000002
 30
0.0
 11
969.18780000000004
 21
-2189.7341000000001
 31
0.0
  0
LINE
  5
FA0F
  8
0
  6
BYBLOCK
 10
969.18780000000004
 20
-2189.7341000000001
 30
0.0
 11
968.49109999999985
 21
-2187.1341000000002
 31
0.0
  0
LINE
  5
FA10
  8
0
  6
BYBLOCK
 10
969.18780000000004
 20
-2189.7341000000001
 30
0.0
 11
969.18780000000004
 21
-2187.1341000000002
 31
0.0
  0
TEXT
  5
FA11
  8
1DIM
 10
1080.2778000000001
 20
-1922.3643
 30
0.0
 40
4.5499999999999989
  1
19
 50
90.0
  0
LINE
  5
FA12
  8
0
  6
BYBLOCK
 10
1081.8843999999999
 20
-1926.3279
 30
0.0
 11
1081.1877999999999
 21
-1928.9278999999999
 31
0.0
  0
LINE
  5
FA13
  8
0
  6
BYBLOCK
 10
1081.1877999999999
 20
-1928.9278999999999
 30
0.0
 11
1080.4911
 21
-1926.3279
 31
0.0
  0
LINE
  5
FA14
  8
0
  6
BYBLOCK
 10
1081.1877999999999
 20
-1928.9278999999999
 30
0.0
 11
1081.1877999999999
 21
-1926.3279
 31
0.0
  0
LINE
  5
FA15
  8
0
  6
BYBLOCK
 10
1080.4911
 20
-1912.3341
 30
0.0
 11
1081.1877999999999
 21
-1909.7340999999999
 31
0.0
  0
LINE
  5
FA16
  8
0
  6
BYBLOCK
 10
1081.1877999999999
 20
-1909.7340999999999
 30
0.0
 11
1081.8843999999999
 21
-1912.3341
 31
0.0
  0
LINE
  5
FA17
  8
0
  6
BYBLOCK
 10
1081.1877999999999
 20
-1909.7340999999999
 30
0.0
 11
1081.1877999999999
 21
-1912.3341
 31
0.0
  0
TEXT
  5
FA18
  8
1DIM
 10
1090.2778000000001
 20
-1935.5758000000001
 30
0.0
 40
4.5499999999999989
  1
44
 50
90.0
  0
LINE
  5
FA19
  8
0
  6
BYBLOCK
 10
1091.8843999999999
 20
-1951.2342000000001
 30
0.0
 11
1091.1877999999999
 21
-1953.8342
 31
0.0
  0
LINE
  5
FA1A
  8
0
  6
BYBLOCK
 10
1091.1877999999999
 20
-1953.8342
 30
0.0
 11
1090.4911
 21
-1951.2342000000001
 31
0.0
  0
LINE
  5
FA1B
  8
0
  6
BYBLOCK
 10
1091.1877999999999
 20
-1953.8342
 30
0.0
 11
1091.1877999999999
 21
-1951.2342000000001
 31
0.0
  0
LINE
  5
FA1C
  8
0
  6
BYBLOCK
 10
1090.4911
 20
-1912.3341
 30
0.0
 11
1091.1877999999999
 21
-1909.7340999999999
 31
0.0
  0
LINE
  5
FA1D
  8
0
  6
BYBLOCK
 10
1091.1877999999999
 20
-1909.7340999999999
 30
0.0
 11
1091.8843999999999
 21
-1912.3341
 31
0.0
  0
LINE
  5
FA1E
  8
0
  6
BYBLOCK
 10
1091.1877999999999
 20
-1909.7340999999999
 30
0.0
 11
1091.1877999999999
 21
-1912.3341
 31
0.0
  0
TEXT
  5
FA1F
  8
1DIM
 10
1031.3960999999999
 20
-1982.9241999999999
 30
0.0
 40
4.5499999999999989
  1
62 
  0
LINE
  5
FA20
  8
0
  6
BYBLOCK
 10
1063.5878
 20
-1983.1375
 30
0.0
 11
1066.1877999999999
 21
-1983.8342
 31
0.0
  0
LINE
  5
FA21
  8
0
  6
BYBLOCK
 10
1066.1877999999999
 20
-1983.8342
 30
0.0
 11
1063.5878
 21
-1984.5308
 31
0.0
  0
LINE
  5
FA22
  8
0
  6
BYBLOCK
 10
1066.1877999999999
 20
-1983.8342
 30
0.0
 11
1063.5878
 21
-1983.8342
 31
0.0
  0
LINE
  5
FA23
  8
0
  6
BYBLOCK
 10
1006.7877999999999
 20
-1984.5308
 30
0.0
 11
1004.1878
 21
-1983.8342
 31
0.0
  0
LINE
  5
FA24
  8
0
  6
BYBLOCK
 10
1004.1878
 20
-1983.8342
 30
0.0
 11
1006.7877999999999
 21
-1983.1375
 31
0.0
  0
LINE
  5
FA25
  8
0
  6
BYBLOCK
 10
1004.1878
 20
-1983.8342
 30
0.0
 11
1006.7877999999999
 21
-1983.8342
 31
0.0
  0
TEXT
  5
FA26
  8
1DIM
 10
1100.2778000000001
 20
-1945.3105
 30
0.0
 40
4.5499999999999989
  1
57.5 
 50
90.0
  0
LINE
  5
FA27
  8
0
  6
BYBLOCK
 10
1101.8843999999999
 20
-1964.6369
 30
0.0
 11
1101.1877999999999
 21
-1967.2369000000001
 31
0.0
  0
LINE
  5
FA28
  8
0
  6
BYBLOCK
 10
1101.1877999999999
 20
-1967.2369000000001
 30
0.0
 11
1100.4911
 21
-1964.6369
 31
0.0
  0
LINE
  5
FA29
  8
0
  6
BYBLOCK
 10
1101.1877999999999
 20
-1967.2369000000001
 30
0.0
 11
1101.1877999999999
 21
-1964.6369
 31
0.0
  0
LINE
  5
FA2A
  8
0
  6
BYBLOCK
 10
1100.4911
 20
-1912.3341
 30
0.0
 11
1101.1877999999999
 21
-1909.7340999999999
 31
0.0
  0
LINE
  5
FA2B
  8
0
  6
BYBLOCK
 10
1101.1877999999999
 20
-1909.7340999999999
 30
0.0
 11
1101.8843999999999
 21
-1912.3341
 31
0.0
  0
LINE
  5
FA2C
  8
0
  6
BYBLOCK
 10
1101.1877999999999
 20
-1909.7340999999999
 30
0.0
 11
1101.1877999999999
 21
-1912.3341
 31
0.0
  0
TEXT
  5
FA2D
  8
1DIM
 10
1022.7753
 20
-1992.9241999999999
 30
0.0
 40
4.5499999999999989
  1
80 
  0
LINE
  5
FA2E
  8
0
  6
BYBLOCK
 10
1063.5878
 20
-1993.1375
 30
0.0
 11
1066.1877999999999
 21
-1993.8342
 31
0.0
  0
LINE
  5
FA2F
  8
0
  6
BYBLOCK
 10
1066.1877999999999
 20
-1993.8342
 30
0.0
 11
1063.5878
 21
-1994.5308
 31
0.0
  0
LINE
  5
FA30
  8
0
  6
BYBLOCK
 10
1066.1877999999999
 20
-1993.8342
 30
0.0
 11
1063.5878
 21
-1993.8342
 31
0.0
  0
LINE
  5
FA31
  8
0
  6
BYBLOCK
 10
988.78779999999983
 20
-1994.5308
 30
0.0
 11
986.18780000000004
 21
-1993.8342
 31
0.0
  0
LINE
  5
FA32
  8
0
  6
BYBLOCK
 10
986.18780000000004
 20
-1993.8342
 30
0.0
 11
988.78779999999983
 21
-1993.1375
 31
0.0
  0
LINE
  5
FA33
  8
0
  6
BYBLOCK
 10
986.18780000000004
 20
-1993.8342
 30
0.0
 11
988.78779999999983
 21
-1993.8342
 31
0.0
  0
TEXT
  5
FA34
  8
1DIM
 10
1080.2778000000001
 20
-2177.6466
 30
0.0
 40
4.5499999999999989
  1
80 
 50
90.0
  0
LINE
  5
FA35
  8
0
  6
BYBLOCK
 10
1081.8843999999999
 20
-2211.6341000000002
 30
0.0
 11
1081.1877999999999
 21
-2214.2341000000001
 31
0.0
  0
LINE
  5
FA36
  8
0
  6
BYBLOCK
 10
1081.1877999999999
 20
-2214.2341000000001
 30
0.0
 11
1080.4911
 21
-2211.6341000000002
 31
0.0
  0
LINE
  5
FA37
  8
0
  6
BYBLOCK
 10
1081.1877999999999
 20
-2214.2341000000001
 30
0.0
 11
1081.1877999999999
 21
-2211.6341000000002
 31
0.0
  0
LINE
  5
FA38
  8
0
  6
BYBLOCK
 10
1080.4911
 20
-2136.8341
 30
0.0
 11
1081.1877999999999
 21
-2134.2341000000001
 31
0.0
  0
LINE
  5
FA39
  8
0
  6
BYBLOCK
 10
1081.1877999999999
 20
-2134.2341000000001
 30
0.0
 11
1081.8843999999999
 21
-2136.8341
 31
0.0
  0
LINE
  5
FA3A
  8
0
  6
BYBLOCK
 10
1081.1877999999999
 20
-2134.2341000000001
 30
0.0
 11
1081.1877999999999
 21
-2136.8341
 31
0.0
  0
VIEWPORT
  5
57
 67
     1
  8
0
 10
5.7225006584107403
 20
4.0066664707003623
 30
0.0
 40
12.70516414486376
 41
8.7426062480295741
 68
     1
 69
     1
1001
ACAD
1000
MVIEW
1002
{
1070
    16
1010
0.0
1020
0.0
1030
0.0
1010
0.0
1020
0.0
1030
1.0
1040
0.0
1040
8.7426062480295741
1040
5.7225006584107403
1040
4.0066664707003623
1040
50.0
1040
0.0
1040
0.0
1070
     0
1070
   100
1070
     1
1070
     1
1070
     0
1070
     0
1070
     0
1070
     0
1040
0.0
1040
0.0
1040
0.0
1040
10.0
1040
10.0
1040
10.0
1040
10.0
1070
     0
1002
{
1002
}
1002
}
  0
ENDSEC
  0
EOF
