  0
SECTION
  2
HEADER
  9
$ACADVER
  1
AC1009
  9
$INSBASE
 10
0.0
 20
0.0
 30
0.0
  9
$EXTMIN
 10
539.18767316632375
 20
-2286.5728886528409
 30
-0.0000000000563712
  9
$EXTMAX
 10
1155.4877814399649
 20
-1895.5369486538691
 30
0.0
  9
$LIMMIN
 10
0.0
 20
0.0
  9
$LIMMAX
 10
420.0
 20
297.0
  9
$ORTHOMODE
 70
     0
  9
$REGENMODE
 70
     1
  9
$FILLMODE
 70
     1
  9
$QTEXTMODE
 70
     0
  9
$MIRRTEXT
 70
     0
  9
$DRAGMODE
 70
     2
  9
$LTSCALE
 40
0.5
  9
$OSMODE
 70
  2175
  9
$ATTMODE
 70
     1
  9
$TEXTSIZE
 40
4.0
  9
$TRACEWID
 40
1.0
  9
$TEXTSTYLE
  7
STANDARD
  9
$CLAYER
  8
1TEXT
  9
$CELTYPE
  6
BYLAYER
  9
$CECOLOR
 62
   256
  9
$DIMSCALE
 40
1.0
  9
$DIMASZ
 40
2.0
  9
$DIMEXO
 40
0.0
  9
$DIMDLI
 40
7.0
  9
$DIMRND
 40
0.0
  9
$DIMDLE
 40
0.0
  9
$DIMEXE
 40
1.0
  9
$DIMTP
 40
0.0
  9
$DIMTM
 40
0.0
  9
$DIMTXT
 40
3.5
  9
$DIMCEN
 40
0.0
  9
$DIMTSZ
 40
0.0
  9
$DIMTOL
 70
     0
  9
$DIMLIM
 70
     0
  9
$DIMTIH
 70
     0
  9
$DIMTOH
 70
     0
  9
$DIMSE1
 70
     0
  9
$DIMSE2
 70
     0
  9
$DIMTAD
 70
     1
  9
$DIMZIN
 70
     8
  9
$DIMBLK
  1

  9
$DIMASO
 70
     1
  9
$DIMSHO
 70
     1
  9
$DIMPOST
  1
 
  9
$DIMAPOST
  1

  9
$DIMALT
 70
     0
  9
$DIMALTD
 70
     2
  9
$DIMALTF
 40
25.399999999999999
  9
$DIMLFAC
 40
1.0
  9
$DIMTOFL
 70
     1
  9
$DIMTVP
 40
0.0
  9
$DIMTIX
 70
     0
  9
$DIMSOXD
 70
     0
  9
$DIMSAH
 70
     1
  9
$DIMBLK1
  1
OPEN30
  9
$DIMBLK2
  1
OPEN30
  9
$DIMSTYLE
  2
NEWX10
  9
$DIMCLRD
 70
   256
  9
$DIMCLRE
 70
   256
  9
$DIMCLRT
 70
   201
  9
$DIMTFAC
 40
0.7
  9
$DIMGAP
 40
0.7
  9
$LUNITS
 70
     2
  9
$LUPREC
 70
     4
  9
$SKETCHINC
 40
1.0
  9
$FILLETRAD
 40
0.0
  9
$AUNITS
 70
     0
  9
$AUPREC
 70
     2
  9
$MENU
  1
acad
  9
$ELEVATION
 40
0.0
  9
$PELEVATION
 40
0.0
  9
$THICKNESS
 40
0.0
  9
$LIMCHECK
 70
     0
  9
$BLIPMODE
 70
     0
  9
$CHAMFERA
 40
10.0
  9
$CHAMFERB
 40
10.0
  9
$SKPOLY
 70
     0
  9
$TDCREATE
 40
2451318.621352917
  9
$TDUPDATE
 40
2456643.4260807289
  9
$TDINDWG
 40
0.482183287
  9
$TDUSRTIMER
 40
0.482183287
  9
$USRTIMER
 70
     1
  9
$ANGBASE
 50
0.0
  9
$ANGDIR
 70
     0
  9
$PDMODE
 70
     0
  9
$PDSIZE
 40
0.0
  9
$PLINEWID
 40
0.0
  9
$COORDS
 70
     0
  9
$SPLFRAME
 70
     0
  9
$SPLINETYPE
 70
     6
  9
$SPLINESEGS
 70
     8
  9
$ATTDIA
 70
     0
  9
$ATTREQ
 70
     1
  9
$HANDLING
 70
     1
  9
$HANDSEED
  5
D3C2
  9
$SURFTAB1
 70
     6
  9
$SURFTAB2
 70
     6
  9
$SURFTYPE
 70
     6
  9
$SURFU
 70
     6
  9
$SURFV
 70
     6
  9
$UCSNAME
  2

  9
$UCSORG
 10
0.0
 20
0.0
 30
0.0
  9
$UCSXDIR
 10
1.0
 20
0.0
 30
0.0
  9
$UCSYDIR
 10
0.0
 20
1.0
 30
0.0
  9
$PUCSNAME
  2

  9
$PUCSORG
 10
0.0
 20
0.0
 30
0.0
  9
$PUCSXDIR
 10
1.0
 20
0.0
 30
0.0
  9
$PUCSYDIR
 10
0.0
 20
1.0
 30
0.0
  9
$USERI1
 70
     0
  9
$USERI2
 70
     0
  9
$USERI3
 70
     0
  9
$USERI4
 70
     0
  9
$USERI5
 70
     0
  9
$USERR1
 40
0.0
  9
$USERR2
 40
0.0
  9
$USERR3
 40
0.0
  9
$USERR4
 40
0.0
  9
$USERR5
 40
0.0
  9
$WORLDVIEW
 70
     1
  9
$SHADEDGE
 70
     3
  9
$SHADEDIF
 70
    70
  9
$TILEMODE
 70
     1
  9
$MAXACTVP
 70
    48
  9
$PLIMCHECK
 70
     0
  9
$PEXTMIN
 10
1.0000000000000000E+020
 20
1.0000000000000000E+020
 30
1.0000000000000000E+020
  9
$PEXTMAX
 10
-1.0000000000000000E+020
 20
-1.0000000000000000E+020
 30
-1.0000000000000000E+020
  9
$PLIMMIN
 10
0.0
 20
0.0
  9
$PLIMMAX
 10
420.0
 20
297.0
  9
$UNITMODE
 70
     0
  9
$VISRETAIN
 70
     1
  9
$PLINEGEN
 70
     0
  9
$PSLTSCALE
 70
     1
  0
ENDSEC
  0
SECTION
  2
TABLES
  0
TABLE
  2
VPORT
 70
     1
  0
VPORT
  2
*ACTIVE
 70
     0
 10
0.0
 20
0.0
 11
1.0
 21
1.0
 12
847.32714839665084
 22
-2091.01909188849
 13
0.0
 23
0.0
 14
10.0
 24
10.0
 15
10.0
 25
10.0
 16
0.0
 26
0.0
 36
1.0
 17
0.0
 27
0.0
 37
0.0
 40
414.89398890981983
 41
2.1771217712177111
 42
50.0
 43
0.0
 44
0.0
 50
0.0
 51
0.0
 71
     0
 72
   100
 73
     1
 74
     1
 75
     0
 76
     0
 77
     0
 78
     0
  0
ENDTAB
  0
TABLE
  2
LTYPE
 70
    12
  0
LTYPE
  2
CONTINUOUS
 70
     0
  3
Solid line
 72
    65
 73
     0
 40
0.0
  0
LTYPE
  2
XREF1|CENTER2
 70
    48
  3
Center (.5x) ___ _ ___ _ ___ _ ___ _ ___ _ ___
 72
    65
 73
     4
 40
28.574999999999999
 49
19.050000000000001
 49
-3.1749999999999989
 49
3.1749999999999989
 49
-3.1749999999999989
  0
LTYPE
  2
A3WAKUDAKE|CENTER2
 70
    48
  3
Center (.5x) ___ _ ___ _ ___ _ ___ _ ___ _ ___
 72
    65
 73
     4
 40
28.574999999999999
 49
19.050000000000001
 49
-3.1749999999999989
 49
3.1749999999999989
 49
-3.1749999999999989
  0
ENDTAB
  0
TABLE
  2
LAYER
 70
    40
  0
LAYER
  2
0
 70
     0
 62
     7
  6
CONTINUOUS
  0
LAYER
  2
1TEXT
 70
     0
 62
     7
  6
CONTINUOUS
  0
LAYER
  2
01
 70
     0
 62
     1
  6
CONTINUOUS
  0
LAYER
  2
A3WAKUDAKE|THICK
 70
    48
 62
     7
  6
CONTINUOUS
  0
LAYER
  2
A3WAKUDAKE|POINT
 70
    48
 62
     7
  6
CONTINUOUS
  0
LAYER
  2
A3WAKUDAKE|1CENTER
 70
    48
 62
     7
  6
A3WAKUDAKE|CENTER2
  0
LAYER
  2
A3WAKUDAKE|0-6
 70
    48
 62
     7
  6
CONTINUOUS
  0
LAYER
  2
A3WAKUDAKE|1DIM
 70
    48
 62
     7
  6
CONTINUOUS
  0
LAYER
  2
XREF1|1CENTER
 70
    48
 62
     7
  6
XREF1|CENTER2
  0
ENDTAB
  0
TABLE
  2
STYLE
 70
     4
  0
STYLE
  2
STANDARD
 70
     0
 40
0.0
 41
1.0
 50
0.0
 71
     0
 42
4.0
  3
romans.shx
  4
extfont2.shx
  0
ENDTAB
  0
TABLE
  2
VIEW
 70
     5
  0
ENDTAB
  0
TABLE
  2
UCS
 70
     0
  0
ENDTAB
  0
TABLE
  2
APPID
 70
    11
  0
APPID
  2
ACAD
 70
     0
  0
APPID
  2
DRAWINGVARIABLESXDATA
 70
     0
  0
APPID
  2
CONTENTTABDATA
 70
     0
  0
APPID
  2
CONTENTCURRENTTAB
 70
     0
  0
APPID
  2
CONTENTBLOCKDESCRIPTION
 70
     0
  0
APPID
  2
CONTENTBLOCKICON
 70
     0
  0
APPID
  2
CONTENTLONGBLOCKNAME
 70
     0
  0
APPID
  2
ACAD_PSEXT
 70
     0
  0
APPID
  2
ACAD_MLEADERVER
 70
     0
  0
APPID
  2
ACAECLAYERSTANDARD
 70
     0
  0
APPID
  2
ACAD_EXEMPT_FROM_CAD_STANDARDS
 70
     0
  0
ENDTAB
  0
TABLE
  2
DIMSTYLE
 70
     5
  0
DIMSTYLE
  2
NEWX10
 70
     0
  3
 
  4

  5

  6
OPEN30
  7
OPEN30
 40
1.0
 41
2.0
 42
0.0
 43
7.0
 44
1.0
 45
0.0
 46
0.0
 47
0.0
 48
0.0
140
3.5
141
0.0
142
0.0
143
25.399999999999999
144
1.0
145
0.0
146
0.7
147
0.7
 71
     0
 72
     0
 73
     0
 74
     0
 75
     0
 76
     0
 77
     1
 78
     8
170
     0
171
     2
172
     1
173
     1
174
     0
175
     0
176
   256
177
   256
178
   201
  0
ENDTAB
  0
ENDSEC
  0
SECTION
  2
BLOCKS
  0
BLOCK
  8
0
  2
$MODEL_SPACE
 70
     0
 10
0.0
 20
0.0
 30
0.0
  3
$MODEL_SPACE
  1

  0
ENDBLK
  5
1A
  8
0
  0
BLOCK
 67
     1
  8
0
  2
$PAPER_SPACE
 70
     0
 10
0.0
 20
0.0
 30
0.0
  3
$PAPER_SPACE
  1

  0
ENDBLK
  5
17
 67
     1
  8
0
  0
BLOCK
  8
0
  2
_OPEN30
 70
     0
 10
0.0
 20
0.0
 30
0.0
  3
_OPEN30
  1

  0
LINE
  5
44
  8
0
  6
BYBLOCK
 62
     0
 10
-1.0
 20
0.26794919
 30
0.0
 11
0.0
 21
0.0
 31
0.0
  0
LINE
  5
45
  8
0
  6
BYBLOCK
 62
     0
 10
0.0
 20
0.0
 30
0.0
 11
-1.0
 21
-0.26794919
 31
0.0
  0
LINE
  5
46
  8
0
  6
BYBLOCK
 62
     0
 10
0.0
 20
0.0
 30
0.0
 11
-1.0
 21
0.0
 31
0.0
  0
ENDBLK
  5
47
  8
0
  0
BLOCK
  8
0
  2
XREF1
 70
    36
 10
0.0
 20
0.0
 30
0.0
  3
XREF1
  1
D:\ACLT\FORMAT\KAWAJUN(9)図面用.dwg
  0
ENDBLK
  5
5D
  8
0
  0
BLOCK
  8
0
  2
A3WAKUDAKE
 70
    36
 10
0.0
 20
0.0
 30
0.0
  3
A3WAKUDAKE
  1
D:\ACLT\FORMAT\A3WAKUdake.dwg
  0
ENDBLK
  5
6A0
  8
0
  0
BLOCK
  8
0
  2
*U38
 70
     1
 10
0.0
 20
0.0
 30
0.0
  3
*U38
  1

  0
TEXT
  5
D285
  8
1TEXT
 62
   201
 10
968.27766516632505
 20
-2237.4100279483291
 30
0.0
 40
4.5499999999999989
  1
53
 50
90.0
  0
ENDBLK
  5
D287
  8
0
  0
BLOCK
  8
0
  2
*U39
 70
     1
 10
0.0
 20
0.0
 30
0.0
  3
*U39
  1

  0
TEXT
  5
D289
  8
1TEXT
 62
   201
 10
1013.354331832992
 20
-2272.3269486528411
 30
0.0
 40
4.5499999999999989
  1
80
  0
ENDBLK
  5
D28B
  8
0
  0
BLOCK
  8
0
  2
*U40
 70
     1
 10
0.0
 20
0.0
 30
0.0
  3
*U40
  1

  0
TEXT
  5
D293
  8
1TEXT
 62
   201
 10
852.13181084106122
 20
1925.3057174473231
 30
0.0
 40
4.5499999999999989
  1
□53
 50
90.0
  0
ENDBLK
  5
D295
  8
0
  0
BLOCK
  8
0
  2
*U41
 70
     1
 10
0.0
 20
0.0
 30
0.0
  3
*U41
  1

  0
TEXT
  5
D297
  8
1TEXT
 62
   201
 10
948.71681084106137
 20
2039.597130076145
 30
0.0
 40
4.5499999999999989
  1
135
  0
ENDBLK
  5
D299
  8
0
  0
BLOCK
  8
0
  2
*U42
 70
     1
 10
0.0
 20
0.0
 30
0.0
  3
*U42
  1

  0
TEXT
  5
D29B
  8
1TEXT
 62
   201
 10
942.71681084106126
 20
2029.597130076145
 30
0.0
 40
4.5499999999999989
  1
147
  0
ENDBLK
  5
D29D
  8
0
  0
BLOCK
  8
0
  2
*U43
 70
     1
 10
0.0
 20
0.0
 30
0.0
  3
*U43
  1

  0
TEXT
  5
D29F
  8
1TEXT
 62
   201
 10
1042.131810841061
 20
2099.353796742811
 30
0.0
 40
4.5499999999999989
  1
40
 50
90.0
  0
ENDBLK
  5
D2A1
  8
0
  0
BLOCK
  8
0
  2
*U44
 70
     1
 10
0.0
 20
0.0
 30
0.0
  3
*U44
  1

  0
TEXT
  5
D2A3
  8
1TEXT
 62
   201
 10
1052.131810841061
 20
2089.2454634094779
 30
0.0
 40
4.5499999999999989
  1
60
 50
90.0
  0
ENDBLK
  5
D2A5
  8
0
  0
BLOCK
  8
0
  2
*U45
 70
     1
 10
0.0
 20
0.0
 30
0.0
  3
*U45
  1

  0
TEXT
  5
D2A7
  8
1TEXT
 62
   201
 10
1042.131810841061
 20
1929.028796742811
 30
0.0
 40
4.5499999999999989
  1
15
 50
90.0
  0
ENDBLK
  5
D2A9
  8
0
  0
BLOCK
  8
0
  2
*U46
 70
     1
 10
0.0
 20
0.0
 30
0.0
  3
*U46
  1

  0
TEXT
  5
D2AB
  8
1TEXT
 62
   201
 10
1442.864318454557
 20
-2066.0913792967872
 30
0.0
 40
4.5499999999999989
  1
135
  0
ENDBLK
  5
D2AD
  8
0
  0
BLOCK
  8
0
  2
*U47
 70
     1
 10
0.0
 20
0.0
 30
0.0
  3
*U47
  1

  0
TEXT
  5
D2AF
  8
1TEXT
 62
   201
 10
1436.864318454557
 20
-2076.0913792967881
 30
0.0
 40
4.5499999999999989
  1
147
  0
ENDBLK
  5
D2B1
  8
0
  0
BLOCK
  8
0
  2
*U48
 70
     1
 10
0.0
 20
0.0
 30
0.0
  3
*U48
  1

  0
TEXT
  5
D2B3
  8
1TEXT
 62
   201
 10
1536.2793184545569
 20
-2006.3347126301201
 30
0.0
 40
4.5499999999999989
  1
40
 50
90.0
  0
ENDBLK
  5
D2B5
  8
0
  0
BLOCK
  8
0
  2
*U49
 70
     1
 10
0.0
 20
0.0
 30
0.0
  3
*U49
  1

  0
TEXT
  5
D2B7
  8
1TEXT
 62
   201
 10
1546.2793184545569
 20
-2016.4430459634541
 30
0.0
 40
4.5499999999999989
  1
60
 50
90.0
  0
ENDBLK
  5
D2B9
  8
0
  0
BLOCK
  8
0
  2
*U50
 70
     1
 10
0.0
 20
0.0
 30
0.0
  3
*U50
  1

  0
TEXT
  5
D2BB
  8
1TEXT
 62
   201
 10
1536.2793184545569
 20
-2176.6597126301208
 30
0.0
 40
4.5499999999999989
  1
15
 50
90.0
  0
ENDBLK
  5
D2BD
  8
0
  0
ENDSEC
  0
SECTION
  2
ENTITIES
  0
TEXT
  5
BF30
  8
01
 10
649.18768516632406
 20
-1946.7369486528401
 30
0.0
 40
20.0
  1
3-RBT-X-LW-2
  0
LINE
  5
BF32
  8
01
 10
649.18768516632406
 20
-2008.236948652841
 30
0.0
 11
764.64169479029306
 21
-2008.236948652841
 31
0.0
  0
TEXT
  5
BF33
  8
01
 10
661.6876851663236
 20
-1984.9869486528401
 30
0.0
 40
6.0
  1
表面処理
 72
     1
 11
675.28768516632363
 21
-1984.9869486528401
 31
0.0
  0
TEXT
  5
BF34
  8
01
 10
661.6876851663236
 20
-1995.2398816421271
 30
0.0
 40
6.0
  1
クローム
 72
     1
 11
675.28768516632363
 21
-1995.2398816421271
 31
0.0
  0
LINE
  5
BF35
  8
01
 10
649.18768516632406
 20
-1976.7369486528401
 30
0.0
 11
764.64169479029295
 21
-1976.7369486528401
 31
0.0
  0
LINE
  5
BF36
  8
01
 10
649.18768516632406
 20
-1987.2369486528401
 30
0.0
 11
764.64169479029295
 21
-1987.2369486528401
 31
0.0
  0
LINE
  5
BF37
  8
01
 10
649.18768516632406
 20
-1997.7369486528401
 30
0.0
 11
754.18768516632406
 21
-1997.7369486528401
 31
0.0
  0
LINE
  5
BF38
  8
01
 10
649.18768516632406
 20
-1997.7369486528401
 30
0.0
 11
764.64169479029306
 21
-1997.7369486528401
 31
0.0
  0
LINE
  5
BF39
  8
01
 10
701.68768516632417
 20
-1976.7369486528401
 30
0.0
 11
701.68768516632417
 21
-2018.736948652841
 31
0.0
  0
TEXT
  5
BF3A
  8
01
 10
706.86359358644449
 20
-1995.8084841283151
 30
0.0
 40
6.0
  1
3-RBT-C-LW-2
 41
0.7
 72
     1
 11
733.26359358644459
 21
-1995.8084841283151
 31
0.0
  0
TEXT
  5
BF3B
  8
01
 10
723.26359358644322
 20
-1984.9869486528401
 30
0.0
 40
6.0
  1
コード
 72
     1
 11
733.26359358644311
 21
-1984.9869486528401
 31
0.0
  0
LINE
  5
BF3C
  8
01
 10
649.18768516632406
 20
-2018.736948652841
 30
0.0
 11
764.64169479029306
 21
-2018.736948652841
 31
0.0
  0
LINE
  5
BF3E
  8
01
 10
649.18768516632417
 20
-2018.736948652841
 30
0.0
 11
649.18768516632406
 21
-1976.7369486528401
 31
0.0
  0
LINE
  5
BF3F
  8
01
 10
764.64169479029306
 20
-2018.7369486528401
 30
0.0
 11
764.64169479029295
 21
-1976.7369486528401
 31
0.0
  0
TEXT
  5
BF41
  8
01
 10
650.88768516632365
 20
-2005.703319070197
 30
0.0
 40
6.0
  1
サテンニッケル
 72
     1
 11
675.28768516632363
 21
-2005.703319070197
 31
0.0
  0
TEXT
  5
BF42
  8
01
 10
704.66359358644445
 20
-2006.3084841283151
 30
0.0
 40
6.0
  1
3-RBT-CN-LW-2
 41
0.7
 72
     1
 11
733.26359358644459
 21
-2006.3084841283151
 31
0.0
  0
TEXT
  5
BF44
  8
01
 10
650.88768516632365
 20
-2016.203319070197
 30
0.0
 40
6.0
  1
ダークアンバー
 72
     1
 11
675.28768516632374
 21
-2016.203319070197
 31
0.0
  0
TEXT
  5
BF45
  8
01
 10
702.66359358644468
 20
-2016.8084841283151
 30
0.0
 40
6.0
  1
3-RBT-C4Q-LW-2
 41
0.7
 72
     1
 11
733.2635935864447
 21
-2016.8084841283151
 31
0.0
  0
LINE
  5
C5FD
  8
01
 10
854.18766916632444
 20
-2139.2395686528398
 30
0.0
 11
854.18766916632444
 21
-2286.5728886528409
 31
0.0
  0
LINE
  5
C5FE
  8
01
 10
814.18766916632433
 20
-2139.2395686528398
 30
0.0
 11
814.18766916632433
 21
-2286.5728886528409
 31
0.0
  0
LINE
  5
C5FF
  8
01
 10
712.78767516632502
 20
-2145.736948652841
 30
0.0
 11
712.78767516632502
 21
-2168.8369186528398
 31
0.0
  0
LINE
  5
C600
  8
01
 10
711.18766916632444
 20
-2145.736948652841
 30
0.0
 11
711.18766916632444
 21
-2168.736948652841
 31
0.0
  0
LINE
  5
C601
  8
01
 10
713.58767816632519
 20
-2145.736948652841
 30
0.0
 11
713.58767816632519
 21
-2275.7369486528401
 31
0.0
  0
LINE
  5
C602
  8
01
 10
715.18766916632444
 20
-2145.736948652841
 30
0.0
 11
715.18766916632444
 21
-2275.7369486528401
 31
0.0
  0
LINE
  5
C604
  8
01
 10
712.18766916632444
 20
-2247.736948652841
 30
0.0
 11
690.68767316632375
 21
-2247.736948652841
 31
0.0
  0
LINE
  5
C605
  8
01
 10
646.18768516632463
 20
-2196.236948652841
 30
0.0
 11
646.18768516632463
 21
-2205.2369486528419
 31
0.0
  0
LINE
  5
C606
  8
01
 10
721.18766916632262
 20
-2199.736948652841
 30
0.0
 11
715.18766916632444
 21
-2199.736948652841
 31
0.0
  0
LINE
  5
C607
  8
01
 10
726.18766916632444
 20
-2204.736948652841
 30
0.0
 11
716.18766916632444
 21
-2204.736948652841
 31
0.0
  0
POLYLINE
  5
C608
  8
01
 10
726.18766916632444
 20
-2203.3053686528401
 30
0.0
 66
     1
 70
     8
  0
VERTEX
  8
01
  5
D2BE
 10
726.188
 20
-2203.31
 30
0.000000
  70
    32
  0
VERTEX
  8
01
  5
D2BF
 10
726.186
 20
-2203.22
 30
0.000000
  70
    32
  0
VERTEX
  8
01
  5
D2C0
 10
726.182
 20
-2203.13
 30
0.000000
  70
    32
  0
VERTEX
  8
01
  5
D2C1
 10
726.174
 20
-2203.04
 30
0.000000
  70
    32
  0
VERTEX
  8
01
  5
D2C2
 10
726.164
 20
-2202.96
 30
0.000000
  70
    32
  0
VERTEX
  8
01
  5
D2C3
 10
726.150
 20
-2202.87
 30
0.000000
  70
    32
  0
VERTEX
  8
01
  5
D2C4
 10
726.134
 20
-2202.78
 30
0.000000
  70
    32
  0
VERTEX
  8
01
  5
D2C5
 10
726.114
 20
-2202.70
 30
0.000000
  70
    32
  0
VERTEX
  8
01
  5
D2C6
 10
726.092
 20
-2202.61
 30
0.000000
  70
    32
  0
VERTEX
  8
01
  5
D2C7
 10
726.066
 20
-2202.52
 30
0.000000
  70
    32
  0
VERTEX
  8
01
  5
D2C8
 10
726.038
 20
-2202.44
 30
0.000000
  70
    32
  0
VERTEX
  8
01
  5
D2C9
 10
726.007
 20
-2202.35
 30
0.000000
  70
    32
  0
VERTEX
  8
01
  5
D2CA
 10
725.972
 20
-2202.27
 30
0.000000
  70
    32
  0
VERTEX
  8
01
  5
D2CB
 10
725.935
 20
-2202.19
 30
0.000000
  70
    32
  0
VERTEX
  8
01
  5
D2CC
 10
725.895
 20
-2202.10
 30
0.000000
  70
    32
  0
VERTEX
  8
01
  5
D2CD
 10
725.853
 20
-2202.02
 30
0.000000
  70
    32
  0
VERTEX
  8
01
  5
D2CE
 10
725.807
 20
-2201.94
 30
0.000000
  70
    32
  0
VERTEX
  8
01
  5
D2CF
 10
725.759
 20
-2201.86
 30
0.000000
  70
    32
  0
VERTEX
  8
01
  5
D2D0
 10
725.708
 20
-2201.78
 30
0.000000
  70
    32
  0
VERTEX
  8
01
  5
D2D1
 10
725.654
 20
-2201.70
 30
0.000000
  70
    32
  0
VERTEX
  8
01
  5
D2D2
 10
725.597
 20
-2201.62
 30
0.000000
  70
    32
  0
VERTEX
  8
01
  5
D2D3
 10
725.538
 20
-2201.55
 30
0.000000
  70
    32
  0
VERTEX
  8
01
  5
D2D4
 10
725.476
 20
-2201.47
 30
0.000000
  70
    32
  0
VERTEX
  8
01
  5
D2D5
 10
725.412
 20
-2201.40
 30
0.000000
  70
    32
  0
VERTEX
  8
01
  5
D2D6
 10
725.345
 20
-2201.32
 30
0.000000
  70
    32
  0
VERTEX
  8
01
  5
D2D7
 10
725.276
 20
-2201.25
 30
0.000000
  70
    32
  0
VERTEX
  8
01
  5
D2D8
 10
725.204
 20
-2201.18
 30
0.000000
  70
    32
  0
VERTEX
  8
01
  5
D2D9
 10
725.129
 20
-2201.11
 30
0.000000
  70
    32
  0
VERTEX
  8
01
  5
D2DA
 10
725.053
 20
-2201.04
 30
0.000000
  70
    32
  0
VERTEX
  8
01
  5
D2DB
 10
724.974
 20
-2200.97
 30
0.000000
  70
    32
  0
VERTEX
  8
01
  5
D2DC
 10
724.892
 20
-2200.91
 30
0.000000
  70
    32
  0
VERTEX
  8
01
  5
D2DD
 10
724.809
 20
-2200.84
 30
0.000000
  70
    32
  0
VERTEX
  8
01
  5
D2DE
 10
724.723
 20
-2200.78
 30
0.000000
  70
    32
  0
VERTEX
  8
01
  5
D2DF
 10
724.635
 20
-2200.72
 30
0.000000
  70
    32
  0
VERTEX
  8
01
  5
D2E0
 10
724.545
 20
-2200.66
 30
0.000000
  70
    32
  0
VERTEX
  8
01
  5
D2E1
 10
724.454
 20
-2200.60
 30
0.000000
  70
    32
  0
VERTEX
  8
01
  5
D2E2
 10
724.360
 20
-2200.55
 30
0.000000
  70
    32
  0
VERTEX
  8
01
  5
D2E3
 10
724.264
 20
-2200.49
 30
0.000000
  70
    32
  0
VERTEX
  8
01
  5
D2E4
 10
724.166
 20
-2200.44
 30
0.000000
  70
    32
  0
VERTEX
  8
01
  5
D2E5
 10
724.067
 20
-2200.39
 30
0.000000
  70
    32
  0
VERTEX
  8
01
  5
D2E6
 10
723.966
 20
-2200.34
 30
0.000000
  70
    32
  0
VERTEX
  8
01
  5
D2E7
 10
723.863
 20
-2200.29
 30
0.000000
  70
    32
  0
VERTEX
  8
01
  5
D2E8
 10
723.758
 20
-2200.24
 30
0.000000
  70
    32
  0
VERTEX
  8
01
  5
D2E9
 10
723.652
 20
-2200.20
 30
0.000000
  70
    32
  0
VERTEX
  8
01
  5
D2EA
 10
723.545
 20
-2200.16
 30
0.000000
  70
    32
  0
VERTEX
  8
01
  5
D2EB
 10
723.436
 20
-2200.12
 30
0.000000
  70
    32
  0
VERTEX
  8
01
  5
D2EC
 10
723.325
 20
-2200.08
 30
0.000000
  70
    32
  0
VERTEX
  8
01
  5
D2ED
 10
723.214
 20
-2200.04
 30
0.000000
  70
    32
  0
VERTEX
  8
01
  5
D2EE
 10
723.101
 20
-2200.01
 30
0.000000
  70
    32
  0
VERTEX
  8
01
  5
D2EF
 10
722.987
 20
-2199.98
 30
0.000000
  70
    32
  0
VERTEX
  8
01
  5
D2F0
 10
722.872
 20
-2199.95
 30
0.000000
  70
    32
  0
VERTEX
  8
01
  5
D2F1
 10
722.756
 20
-2199.92
 30
0.000000
  70
    32
  0
VERTEX
  8
01
  5
D2F2
 10
722.639
 20
-2199.89
 30
0.000000
  70
    32
  0
VERTEX
  8
01
  5
D2F3
 10
722.521
 20
-2199.87
 30
0.000000
  70
    32
  0
VERTEX
  8
01
  5
D2F4
 10
722.403
 20
-2199.84
 30
0.000000
  70
    32
  0
VERTEX
  8
01
  5
D2F5
 10
722.283
 20
-2199.82
 30
0.000000
  70
    32
  0
VERTEX
  8
01
  5
D2F6
 10
722.163
 20
-2199.81
 30
0.000000
  70
    32
  0
VERTEX
  8
01
  5
D2F7
 10
722.042
 20
-2199.79
 30
0.000000
  70
    32
  0
VERTEX
  8
01
  5
D2F8
 10
721.921
 20
-2199.78
 30
0.000000
  70
    32
  0
VERTEX
  8
01
  5
D2F9
 10
721.800
 20
-2199.76
 30
0.000000
  70
    32
  0
VERTEX
  8
01
  5
D2FA
 10
721.678
 20
-2199.75
 30
0.000000
  70
    32
  0
VERTEX
  8
01
  5
D2FB
 10
721.555
 20
-2199.75
 30
0.000000
  70
    32
  0
VERTEX
  8
01
  5
D2FC
 10
721.433
 20
-2199.74
 30
0.000000
  70
    32
  0
VERTEX
  8
01
  5
D2FD
 10
721.310
 20
-2199.74
 30
0.000000
  70
    32
  0
VERTEX
  8
01
  5
D2FE
 10
721.188
 20
-2199.74
 30
0.000000
  70
    32
  0
VERTEX
  8
01
  5
D2FF
 10
721.065
 20
-2199.74
 30
0.000000
  70
    32
  0
VERTEX
  8
01
  5
D300
 10
720.942
 20
-2199.74
 30
0.000000
  70
    32
  0
VERTEX
  8
01
  5
D301
 10
720.820
 20
-2199.75
 30
0.000000
  70
    32
  0
VERTEX
  8
01
  5
D302
 10
720.698
 20
-2199.75
 30
0.000000
  70
    32
  0
VERTEX
  8
01
  5
D303
 10
720.576
 20
-2199.76
 30
0.000000
  70
    32
  0
VERTEX
  8
01
  5
D304
 10
720.454
 20
-2199.78
 30
0.000000
  70
    32
  0
VERTEX
  8
01
  5
D305
 10
720.333
 20
-2199.79
 30
0.000000
  70
    32
  0
VERTEX
  8
01
  5
D306
 10
720.212
 20
-2199.81
 30
0.000000
  70
    32
  0
VERTEX
  8
01
  5
D307
 10
720.092
 20
-2199.82
 30
0.000000
  70
    32
  0
VERTEX
  8
01
  5
D308
 10
719.973
 20
-2199.84
 30
0.000000
  70
    32
  0
VERTEX
  8
01
  5
D309
 10
719.854
 20
-2199.87
 30
0.000000
  70
    32
  0
VERTEX
  8
01
  5
D30A
 10
719.736
 20
-2199.89
 30
0.000000
  70
    32
  0
VERTEX
  8
01
  5
D30B
 10
719.619
 20
-2199.92
 30
0.000000
  70
    32
  0
VERTEX
  8
01
  5
D30C
 10
719.503
 20
-2199.95
 30
0.000000
  70
    32
  0
VERTEX
  8
01
  5
D30D
 10
719.388
 20
-2199.98
 30
0.000000
  70
    32
  0
VERTEX
  8
01
  5
D30E
 10
719.274
 20
-2200.01
 30
0.000000
  70
    32
  0
VERTEX
  8
01
  5
D30F
 10
719.161
 20
-2200.04
 30
0.000000
  70
    32
  0
VERTEX
  8
01
  5
D310
 10
719.050
 20
-2200.08
 30
0.000000
  70
    32
  0
VERTEX
  8
01
  5
D311
 10
718.940
 20
-2200.12
 30
0.000000
  70
    32
  0
VERTEX
  8
01
  5
D312
 10
718.831
 20
-2200.16
 30
0.000000
  70
    32
  0
VERTEX
  8
01
  5
D313
 10
718.723
 20
-2200.20
 30
0.000000
  70
    32
  0
VERTEX
  8
01
  5
D314
 10
718.617
 20
-2200.24
 30
0.000000
  70
    32
  0
VERTEX
  8
01
  5
D315
 10
718.513
 20
-2200.29
 30
0.000000
  70
    32
  0
VERTEX
  8
01
  5
D316
 10
718.410
 20
-2200.34
 30
0.000000
  70
    32
  0
VERTEX
  8
01
  5
D317
 10
718.309
 20
-2200.39
 30
0.000000
  70
    32
  0
VERTEX
  8
01
  5
D318
 10
718.209
 20
-2200.44
 30
0.000000
  70
    32
  0
VERTEX
  8
01
  5
D319
 10
718.112
 20
-2200.49
 30
0.000000
  70
    32
  0
VERTEX
  8
01
  5
D31A
 10
718.016
 20
-2200.55
 30
0.000000
  70
    32
  0
VERTEX
  8
01
  5
D31B
 10
717.922
 20
-2200.60
 30
0.000000
  70
    32
  0
VERTEX
  8
01
  5
D31C
 10
717.830
 20
-2200.66
 30
0.000000
  70
    32
  0
VERTEX
  8
01
  5
D31D
 10
717.740
 20
-2200.72
 30
0.000000
  70
    32
  0
VERTEX
  8
01
  5
D31E
 10
717.652
 20
-2200.78
 30
0.000000
  70
    32
  0
VERTEX
  8
01
  5
D31F
 10
717.566
 20
-2200.84
 30
0.000000
  70
    32
  0
VERTEX
  8
01
  5
D320
 10
717.483
 20
-2200.91
 30
0.000000
  70
    32
  0
VERTEX
  8
01
  5
D321
 10
717.402
 20
-2200.97
 30
0.000000
  70
    32
  0
VERTEX
  8
01
  5
D322
 10
717.323
 20
-2201.04
 30
0.000000
  70
    32
  0
VERTEX
  8
01
  5
D323
 10
717.246
 20
-2201.11
 30
0.000000
  70
    32
  0
VERTEX
  8
01
  5
D324
 10
717.172
 20
-2201.18
 30
0.000000
  70
    32
  0
VERTEX
  8
01
  5
D325
 10
717.100
 20
-2201.25
 30
0.000000
  70
    32
  0
VERTEX
  8
01
  5
D326
 10
717.030
 20
-2201.32
 30
0.000000
  70
    32
  0
VERTEX
  8
01
  5
D327
 10
716.963
 20
-2201.40
 30
0.000000
  70
    32
  0
VERTEX
  8
01
  5
D328
 10
716.899
 20
-2201.47
 30
0.000000
  70
    32
  0
VERTEX
  8
01
  5
D329
 10
716.837
 20
-2201.55
 30
0.000000
  70
    32
  0
VERTEX
  8
01
  5
D32A
 10
716.778
 20
-2201.62
 30
0.000000
  70
    32
  0
VERTEX
  8
01
  5
D32B
 10
716.722
 20
-2201.70
 30
0.000000
  70
    32
  0
VERTEX
  8
01
  5
D32C
 10
716.668
 20
-2201.78
 30
0.000000
  70
    32
  0
VERTEX
  8
01
  5
D32D
 10
716.617
 20
-2201.86
 30
0.000000
  70
    32
  0
VERTEX
  8
01
  5
D32E
 10
716.568
 20
-2201.94
 30
0.000000
  70
    32
  0
VERTEX
  8
01
  5
D32F
 10
716.523
 20
-2202.02
 30
0.000000
  70
    32
  0
VERTEX
  8
01
  5
D330
 10
716.480
 20
-2202.10
 30
0.000000
  70
    32
  0
VERTEX
  8
01
  5
D331
 10
716.440
 20
-2202.19
 30
0.000000
  70
    32
  0
VERTEX
  8
01
  5
D332
 10
716.403
 20
-2202.27
 30
0.000000
  70
    32
  0
VERTEX
  8
01
  5
D333
 10
716.369
 20
-2202.35
 30
0.000000
  70
    32
  0
VERTEX
  8
01
  5
D334
 10
716.338
 20
-2202.44
 30
0.000000
  70
    32
  0
VERTEX
  8
01
  5
D335
 10
716.309
 20
-2202.52
 30
0.000000
  70
    32
  0
VERTEX
  8
01
  5
D336
 10
716.284
 20
-2202.61
 30
0.000000
  70
    32
  0
VERTEX
  8
01
  5
D337
 10
716.261
 20
-2202.70
 30
0.000000
  70
    32
  0
VERTEX
  8
01
  5
D338
 10
716.242
 20
-2202.78
 30
0.000000
  70
    32
  0
VERTEX
  8
01
  5
D339
 10
716.225
 20
-2202.87
 30
0.000000
  70
    32
  0
VERTEX
  8
01
  5
D33A
 10
716.212
 20
-2202.96
 30
0.000000
  70
    32
  0
VERTEX
  8
01
  5
D33B
 10
716.201
 20
-2203.04
 30
0.000000
  70
    32
  0
VERTEX
  8
01
  5
D33C
 10
716.194
 20
-2203.13
 30
0.000000
  70
    32
  0
VERTEX
  8
01
  5
D33D
 10
716.189
 20
-2203.22
 30
0.000000
  70
    32
  0
VERTEX
  8
01
  5
D33E
 10
716.188
 20
-2203.31
 30
0.000000
  70
    32
  0
SEQEND
  8
01
  5
D33F
  0
LINE
  5
C609
  8
01
 10
721.18766916632444
 20
-2219.7369486528401
 30
0.0
 11
715.18766916632444
 21
-2219.7369486528401
 31
0.0
  0
LINE
  5
C60A
  8
01
 10
726.18766916632444
 20
-2214.7369486528401
 30
0.0
 11
716.18766916632444
 21
-2214.7369486528401
 31
0.0
  0
POLYLINE
  5
C60B
  8
01
 10
726.18766916632444
 20
-2216.16852865284
 30
0.0
 66
     1
 70
     8
  0
VERTEX
  8
01
  5
D340
 10
726.188
 20
-2216.17
 30
0.000000
  70
    32
  0
VERTEX
  8
01
  5
D341
 10
726.186
 20
-2216.26
 30
0.000000
  70
    32
  0
VERTEX
  8
01
  5
D342
 10
726.182
 20
-2216.34
 30
0.000000
  70
    32
  0
VERTEX
  8
01
  5
D343
 10
726.174
 20
-2216.43
 30
0.000000
  70
    32
  0
VERTEX
  8
01
  5
D344
 10
726.164
 20
-2216.52
 30
0.000000
  70
    32
  0
VERTEX
  8
01
  5
D345
 10
726.150
 20
-2216.61
 30
0.000000
  70
    32
  0
VERTEX
  8
01
  5
D346
 10
726.134
 20
-2216.69
 30
0.000000
  70
    32
  0
VERTEX
  8
01
  5
D347
 10
726.114
 20
-2216.78
 30
0.000000
  70
    32
  0
VERTEX
  8
01
  5
D348
 10
726.092
 20
-2216.86
 30
0.000000
  70
    32
  0
VERTEX
  8
01
  5
D349
 10
726.066
 20
-2216.95
 30
0.000000
  70
    32
  0
VERTEX
  8
01
  5
D34A
 10
726.038
 20
-2217.04
 30
0.000000
  70
    32
  0
VERTEX
  8
01
  5
D34B
 10
726.007
 20
-2217.12
 30
0.000000
  70
    32
  0
VERTEX
  8
01
  5
D34C
 10
725.972
 20
-2217.20
 30
0.000000
  70
    32
  0
VERTEX
  8
01
  5
D34D
 10
725.935
 20
-2217.29
 30
0.000000
  70
    32
  0
VERTEX
  8
01
  5
D34E
 10
725.895
 20
-2217.37
 30
0.000000
  70
    32
  0
VERTEX
  8
01
  5
D34F
 10
725.853
 20
-2217.45
 30
0.000000
  70
    32
  0
VERTEX
  8
01
  5
D350
 10
725.807
 20
-2217.53
 30
0.000000
  70
    32
  0
VERTEX
  8
01
  5
D351
 10
725.759
 20
-2217.61
 30
0.000000
  70
    32
  0
VERTEX
  8
01
  5
D352
 10
725.708
 20
-2217.69
 30
0.000000
  70
    32
  0
VERTEX
  8
01
  5
D353
 10
725.654
 20
-2217.77
 30
0.000000
  70
    32
  0
VERTEX
  8
01
  5
D354
 10
725.597
 20
-2217.85
 30
0.000000
  70
    32
  0
VERTEX
  8
01
  5
D355
 10
725.538
 20
-2217.93
 30
0.000000
  70
    32
  0
VERTEX
  8
01
  5
D356
 10
725.476
 20
-2218.00
 30
0.000000
  70
    32
  0
VERTEX
  8
01
  5
D357
 10
725.412
 20
-2218.08
 30
0.000000
  70
    32
  0
VERTEX
  8
01
  5
D358
 10
725.345
 20
-2218.15
 30
0.000000
  70
    32
  0
VERTEX
  8
01
  5
D359
 10
725.276
 20
-2218.22
 30
0.000000
  70
    32
  0
VERTEX
  8
01
  5
D35A
 10
725.204
 20
-2218.29
 30
0.000000
  70
    32
  0
VERTEX
  8
01
  5
D35B
 10
725.129
 20
-2218.36
 30
0.000000
  70
    32
  0
VERTEX
  8
01
  5
D35C
 10
725.053
 20
-2218.43
 30
0.000000
  70
    32
  0
VERTEX
  8
01
  5
D35D
 10
724.974
 20
-2218.50
 30
0.000000
  70
    32
  0
VERTEX
  8
01
  5
D35E
 10
724.892
 20
-2218.56
 30
0.000000
  70
    32
  0
VERTEX
  8
01
  5
D35F
 10
724.809
 20
-2218.63
 30
0.000000
  70
    32
  0
VERTEX
  8
01
  5
D360
 10
724.723
 20
-2218.69
 30
0.000000
  70
    32
  0
VERTEX
  8
01
  5
D361
 10
724.635
 20
-2218.75
 30
0.000000
  70
    32
  0
VERTEX
  8
01
  5
D362
 10
724.545
 20
-2218.81
 30
0.000000
  70
    32
  0
VERTEX
  8
01
  5
D363
 10
724.454
 20
-2218.87
 30
0.000000
  70
    32
  0
VERTEX
  8
01
  5
D364
 10
724.360
 20
-2218.93
 30
0.000000
  70
    32
  0
VERTEX
  8
01
  5
D365
 10
724.264
 20
-2218.98
 30
0.000000
  70
    32
  0
VERTEX
  8
01
  5
D366
 10
724.166
 20
-2219.03
 30
0.000000
  70
    32
  0
VERTEX
  8
01
  5
D367
 10
724.067
 20
-2219.09
 30
0.000000
  70
    32
  0
VERTEX
  8
01
  5
D368
 10
723.966
 20
-2219.14
 30
0.000000
  70
    32
  0
VERTEX
  8
01
  5
D369
 10
723.863
 20
-2219.18
 30
0.000000
  70
    32
  0
VERTEX
  8
01
  5
D36A
 10
723.758
 20
-2219.23
 30
0.000000
  70
    32
  0
VERTEX
  8
01
  5
D36B
 10
723.652
 20
-2219.27
 30
0.000000
  70
    32
  0
VERTEX
  8
01
  5
D36C
 10
723.545
 20
-2219.32
 30
0.000000
  70
    32
  0
VERTEX
  8
01
  5
D36D
 10
723.436
 20
-2219.36
 30
0.000000
  70
    32
  0
VERTEX
  8
01
  5
D36E
 10
723.325
 20
-2219.39
 30
0.000000
  70
    32
  0
VERTEX
  8
01
  5
D36F
 10
723.214
 20
-2219.43
 30
0.000000
  70
    32
  0
VERTEX
  8
01
  5
D370
 10
723.101
 20
-2219.47
 30
0.000000
  70
    32
  0
VERTEX
  8
01
  5
D371
 10
722.987
 20
-2219.50
 30
0.000000
  70
    32
  0
VERTEX
  8
01
  5
D372
 10
722.872
 20
-2219.53
 30
0.000000
  70
    32
  0
VERTEX
  8
01
  5
D373
 10
722.756
 20
-2219.56
 30
0.000000
  70
    32
  0
VERTEX
  8
01
  5
D374
 10
722.639
 20
-2219.58
 30
0.000000
  70
    32
  0
VERTEX
  8
01
  5
D375
 10
722.521
 20
-2219.61
 30
0.000000
  70
    32
  0
VERTEX
  8
01
  5
D376
 10
722.403
 20
-2219.63
 30
0.000000
  70
    32
  0
VERTEX
  8
01
  5
D377
 10
722.283
 20
-2219.65
 30
0.000000
  70
    32
  0
VERTEX
  8
01
  5
D378
 10
722.163
 20
-2219.67
 30
0.000000
  70
    32
  0
VERTEX
  8
01
  5
D379
 10
722.042
 20
-2219.68
 30
0.000000
  70
    32
  0
VERTEX
  8
01
  5
D37A
 10
721.921
 20
-2219.70
 30
0.000000
  70
    32
  0
VERTEX
  8
01
  5
D37B
 10
721.800
 20
-2219.71
 30
0.000000
  70
    32
  0
VERTEX
  8
01
  5
D37C
 10
721.678
 20
-2219.72
 30
0.000000
  70
    32
  0
VERTEX
  8
01
  5
D37D
 10
721.555
 20
-2219.73
 30
0.000000
  70
    32
  0
VERTEX
  8
01
  5
D37E
 10
721.433
 20
-2219.73
 30
0.000000
  70
    32
  0
VERTEX
  8
01
  5
D37F
 10
721.310
 20
-2219.74
 30
0.000000
  70
    32
  0
VERTEX
  8
01
  5
D380
 10
721.188
 20
-2219.74
 30
0.000000
  70
    32
  0
VERTEX
  8
01
  5
D381
 10
721.065
 20
-2219.74
 30
0.000000
  70
    32
  0
VERTEX
  8
01
  5
D382
 10
720.942
 20
-2219.73
 30
0.000000
  70
    32
  0
VERTEX
  8
01
  5
D383
 10
720.820
 20
-2219.73
 30
0.000000
  70
    32
  0
VERTEX
  8
01
  5
D384
 10
720.698
 20
-2219.72
 30
0.000000
  70
    32
  0
VERTEX
  8
01
  5
D385
 10
720.576
 20
-2219.71
 30
0.000000
  70
    32
  0
VERTEX
  8
01
  5
D386
 10
720.454
 20
-2219.70
 30
0.000000
  70
    32
  0
VERTEX
  8
01
  5
D387
 10
720.333
 20
-2219.68
 30
0.000000
  70
    32
  0
VERTEX
  8
01
  5
D388
 10
720.212
 20
-2219.67
 30
0.000000
  70
    32
  0
VERTEX
  8
01
  5
D389
 10
720.092
 20
-2219.65
 30
0.000000
  70
    32
  0
VERTEX
  8
01
  5
D38A
 10
719.973
 20
-2219.63
 30
0.000000
  70
    32
  0
VERTEX
  8
01
  5
D38B
 10
719.854
 20
-2219.61
 30
0.000000
  70
    32
  0
VERTEX
  8
01
  5
D38C
 10
719.736
 20
-2219.58
 30
0.000000
  70
    32
  0
VERTEX
  8
01
  5
D38D
 10
719.619
 20
-2219.56
 30
0.000000
  70
    32
  0
VERTEX
  8
01
  5
D38E
 10
719.503
 20
-2219.53
 30
0.000000
  70
    32
  0
VERTEX
  8
01
  5
D38F
 10
719.388
 20
-2219.50
 30
0.000000
  70
    32
  0
VERTEX
  8
01
  5
D390
 10
719.274
 20
-2219.47
 30
0.000000
  70
    32
  0
VERTEX
  8
01
  5
D391
 10
719.161
 20
-2219.43
 30
0.000000
  70
    32
  0
VERTEX
  8
01
  5
D392
 10
719.050
 20
-2219.39
 30
0.000000
  70
    32
  0
VERTEX
  8
01
  5
D393
 10
718.940
 20
-2219.36
 30
0.000000
  70
    32
  0
VERTEX
  8
01
  5
D394
 10
718.831
 20
-2219.32
 30
0.000000
  70
    32
  0
VERTEX
  8
01
  5
D395
 10
718.723
 20
-2219.27
 30
0.000000
  70
    32
  0
VERTEX
  8
01
  5
D396
 10
718.617
 20
-2219.23
 30
0.000000
  70
    32
  0
VERTEX
  8
01
  5
D397
 10
718.513
 20
-2219.18
 30
0.000000
  70
    32
  0
VERTEX
  8
01
  5
D398
 10
718.410
 20
-2219.14
 30
0.000000
  70
    32
  0
VERTEX
  8
01
  5
D399
 10
718.309
 20
-2219.09
 30
0.000000
  70
    32
  0
VERTEX
  8
01
  5
D39A
 10
718.209
 20
-2219.03
 30
0.000000
  70
    32
  0
VERTEX
  8
01
  5
D39B
 10
718.112
 20
-2218.98
 30
0.000000
  70
    32
  0
VERTEX
  8
01
  5
D39C
 10
718.016
 20
-2218.93
 30
0.000000
  70
    32
  0
VERTEX
  8
01
  5
D39D
 10
717.922
 20
-2218.87
 30
0.000000
  70
    32
  0
VERTEX
  8
01
  5
D39E
 10
717.830
 20
-2218.81
 30
0.000000
  70
    32
  0
VERTEX
  8
01
  5
D39F
 10
717.740
 20
-2218.75
 30
0.000000
  70
    32
  0
VERTEX
  8
01
  5
D3A0
 10
717.652
 20
-2218.69
 30
0.000000
  70
    32
  0
VERTEX
  8
01
  5
D3A1
 10
717.566
 20
-2218.63
 30
0.000000
  70
    32
  0
VERTEX
  8
01
  5
D3A2
 10
717.483
 20
-2218.56
 30
0.000000
  70
    32
  0
VERTEX
  8
01
  5
D3A3
 10
717.402
 20
-2218.50
 30
0.000000
  70
    32
  0
VERTEX
  8
01
  5
D3A4
 10
717.323
 20
-2218.43
 30
0.000000
  70
    32
  0
VERTEX
  8
01
  5
D3A5
 10
717.246
 20
-2218.36
 30
0.000000
  70
    32
  0
VERTEX
  8
01
  5
D3A6
 10
717.172
 20
-2218.29
 30
0.000000
  70
    32
  0
VERTEX
  8
01
  5
D3A7
 10
717.100
 20
-2218.22
 30
0.000000
  70
    32
  0
VERTEX
  8
01
  5
D3A8
 10
717.030
 20
-2218.15
 30
0.000000
  70
    32
  0
VERTEX
  8
01
  5
D3A9
 10
716.963
 20
-2218.08
 30
0.000000
  70
    32
  0
VERTEX
  8
01
  5
D3AA
 10
716.899
 20
-2218.00
 30
0.000000
  70
    32
  0
VERTEX
  8
01
  5
D3AB
 10
716.837
 20
-2217.93
 30
0.000000
  70
    32
  0
VERTEX
  8
01
  5
D3AC
 10
716.778
 20
-2217.85
 30
0.000000
  70
    32
  0
VERTEX
  8
01
  5
D3AD
 10
716.722
 20
-2217.77
 30
0.000000
  70
    32
  0
VERTEX
  8
01
  5
D3AE
 10
716.668
 20
-2217.69
 30
0.000000
  70
    32
  0
VERTEX
  8
01
  5
D3AF
 10
716.617
 20
-2217.61
 30
0.000000
  70
    32
  0
VERTEX
  8
01
  5
D3B0
 10
716.568
 20
-2217.53
 30
0.000000
  70
    32
  0
VERTEX
  8
01
  5
D3B1
 10
716.523
 20
-2217.45
 30
0.000000
  70
    32
  0
VERTEX
  8
01
  5
D3B2
 10
716.480
 20
-2217.37
 30
0.000000
  70
    32
  0
VERTEX
  8
01
  5
D3B3
 10
716.440
 20
-2217.29
 30
0.000000
  70
    32
  0
VERTEX
  8
01
  5
D3B4
 10
716.403
 20
-2217.20
 30
0.000000
  70
    32
  0
VERTEX
  8
01
  5
D3B5
 10
716.369
 20
-2217.12
 30
0.000000
  70
    32
  0
VERTEX
  8
01
  5
D3B6
 10
716.338
 20
-2217.04
 30
0.000000
  70
    32
  0
VERTEX
  8
01
  5
D3B7
 10
716.309
 20
-2216.95
 30
0.000000
  70
    32
  0
VERTEX
  8
01
  5
D3B8
 10
716.284
 20
-2216.86
 30
0.000000
  70
    32
  0
VERTEX
  8
01
  5
D3B9
 10
716.261
 20
-2216.78
 30
0.000000
  70
    32
  0
VERTEX
  8
01
  5
D3BA
 10
716.242
 20
-2216.69
 30
0.000000
  70
    32
  0
VERTEX
  8
01
  5
D3BB
 10
716.225
 20
-2216.61
 30
0.000000
  70
    32
  0
VERTEX
  8
01
  5
D3BC
 10
716.212
 20
-2216.52
 30
0.000000
  70
    32
  0
VERTEX
  8
01
  5
D3BD
 10
716.201
 20
-2216.43
 30
0.000000
  70
    32
  0
VERTEX
  8
01
  5
D3BE
 10
716.194
 20
-2216.34
 30
0.000000
  70
    32
  0
VERTEX
  8
01
  5
D3BF
 10
716.189
 20
-2216.26
 30
0.000000
  70
    32
  0
VERTEX
  8
01
  5
D3C0
 10
716.188
 20
-2216.17
 30
0.000000
  70
    32
  0
SEQEND
  8
01
  5
D3C1
  0
LINE
  5
C60C
  8
01
 10
726.18766916632444
 20
-2203.3053686528401
 30
0.0
 11
726.18766916632444
 21
-2216.1685286528409
 31
0.0
  0
LINE
  5
C60D
  8
01
 10
716.18766916632444
 20
-2203.3053686528401
 30
0.0
 11
716.18766916632444
 21
-2216.1685286528382
 31
0.0
  0
LINE
  5
C60E
  8
01
 10
712.18765416632471
 20
-2169.736948652841
 30
0.0
 11
711.18765416632482
 21
-2168.736948652841
 31
0.0
  0
LINE
  5
C60F
  8
01
 10
713.58767116632475
 20
-2169.636968652841
 30
0.0
 11
712.78769016632464
 21
-2168.8369886528399
 31
0.0
  0
LINE
  5
C610
  8
01
 10
713.58767116632475
 20
-2251.8369586528402
 30
0.0
 11
712.78766816632435
 21
-2252.6369386528409
 31
0.0
  0
LINE
  5
C611
  8
01
 10
712.18761616632457
 20
-2251.7369786528402
 30
0.0
 11
711.18763116632431
 21
-2252.7369786528402
 31
0.0
  0
LINE
  5
C612
  8
01
 10
715.18766916632444
 20
-2275.7369486528401
 30
0.0
 11
711.18766916632444
 21
-2275.7369486528401
 31
0.0
  0
LINE
  5
C613
  8
01
 10
712.78767516632502
 20
-2275.7369486528401
 30
0.0
 11
712.78767516632502
 21
-2252.6369386528409
 31
0.0
  0
LINE
  5
C614
  8
01
 10
711.18766916632444
 20
-2275.7369486528401
 30
0.0
 11
711.18766916632444
 21
-2252.736948652841
 31
0.0
  0
LINE
  5
C615
  8
01
 10
712.18766916632444
 20
-2169.736948652841
 30
0.0
 11
712.18766916632444
 21
-2251.7369486528401
 31
0.0
  0
LINE
  5
C616
  8
01
 10
715.18766916632444
 20
-2145.736948652841
 30
0.0
 11
711.18766916632444
 21
-2145.736948652841
 31
0.0
  0
LINE
  5
C617
  8
01
 10
821.68766916632444
 20
-2151.736948652841
 30
0.0
 11
821.68766916632444
 21
-2269.736948652841
 31
0.0
  0
LINE
  5
C618
  8
01
 10
846.68766916632444
 20
-2151.736948652841
 30
0.0
 11
846.68766916632444
 21
-2269.736948652841
 31
0.0
  0
ARC
  5
C619
  8
01
 10
840.68766916632444
 20
-2269.736948652841
 30
0.0
 40
6.0
 50
270.0
 51
0.0
  0
ARC
  5
C61A
  8
01
 10
827.68766916632433
 20
-2269.736948652841
 30
0.0
 40
6.0
 50
180.0
 51
270.0
  0
LINE
  5
C61B
  8
01
 10
841.93766916632433
 20
-2203.3053686528401
 30
0.0
 11
841.93766916632433
 21
-2216.16852865284
 31
0.0
  0
LINE
  5
C61C
  8
01
 10
840.93766916632433
 20
-2204.736948652841
 30
0.0
 11
840.93766916632433
 21
-2214.7369486528401
 31
0.0
  0
LINE
  5
C61D
  8
01
 10
827.43766916632444
 20
-2204.736948652841
 30
0.0
 11
827.43766916632444
 21
-2214.7369486528401
 31
0.0
  0
LINE
  5
C61E
  8
01
 10
826.43766916632444
 20
-2203.3053686528401
 30
0.0
 11
826.43766916632444
 21
-2216.16852865284
 31
0.0
  0
ARC
  5
C61F
  8
01
 10
834.18766916632444
 20
-2209.53693865284
 30
0.0
 40
10.199999999999999
 50
220.55307999997049
 51
319.44692000002948
  0
LINE
  5
C620
  8
01
 10
827.43766916632444
 20
-2214.7369486528401
 30
0.0
 11
840.93766916632433
 21
-2214.7369486528401
 31
0.0
  0
LINE
  5
C621
  8
01
 10
827.43766916632444
 20
-2204.736948652841
 30
0.0
 11
840.93766916632433
 21
-2204.736948652841
 31
0.0
  0
ARC
  5
C622
  8
01
 10
834.18766916632444
 20
-2209.9369586528401
 30
0.0
 40
10.199999999999999
 50
40.553083999981077
 51
139.44692000002951
  0
CIRCLE
  5
C623
  8
01
 10
834.18766916632444
 20
-2267.7369486528401
 30
0.0
 40
4.5
  0
CIRCLE
  5
C624
  8
01
 10
834.18766916632444
 20
-2267.7369486528401
 30
0.0
 40
2.75
  0
LINE
  5
C625
  8
01
 10
827.68766916632433
 20
-2275.7369486528401
 30
0.0
 11
840.68766916632444
 21
-2275.7369486528401
 31
0.0
  0
ARC
  5
C626
  8
01
 10
840.68766916632444
 20
-2151.736948652841
 30
0.0
 40
6.0
 50
0.0
 51
90.0
  0
ARC
  5
C628
  8
01
 10
827.68766916632433
 20
-2151.736948652841
 30
0.0
 40
6.0
 50
90.0
 51
180.0
  0
LINE
  5
C629
  8
01
 10
827.68766916632433
 20
-2145.736948652841
 30
0.0
 11
840.68766916632444
 21
-2145.736948652841
 31
0.0
  0
CIRCLE
  5
C62A
  8
01
 10
834.18766916632444
 20
-2153.736948652841
 30
0.0
 40
4.5
  0
CIRCLE
  5
C62B
  8
01
 10
834.18766916632444
 20
-2153.736948652841
 30
0.0
 40
2.75
  0
LINE
  5
C62F
  8
01
 10
955.58767516632429
 20
-2145.736948652841
 30
0.0
 11
955.58767516632429
 21
-2168.8369186528398
 31
0.0
  0
LINE
  5
C630
  8
01
 10
957.1876651663249
 20
-2145.736948652841
 30
0.0
 11
957.1876651663249
 21
-2168.736948652841
 31
0.0
  0
LINE
  5
C631
  8
01
 10
954.78767516632513
 20
-2145.736948652841
 30
0.0
 11
954.78767516632513
 21
-2275.7369486528401
 31
0.0
  0
LINE
  5
C632
  8
01
 10
953.18766516632502
 20
-2145.736948652841
 30
0.0
 11
953.18766516632502
 21
-2275.7369486528401
 31
0.0
  0
LINE
  5
C634
  8
01
 10
956.1876651663249
 20
-2247.736948652841
 30
0.0
 11
977.68766516632513
 21
-2247.736948652841
 31
0.0
  0
LINE
  5
C635
  8
01
 10
956.18767516632465
 20
-2169.736948652841
 30
0.0
 11
957.18767516632465
 21
-2168.736948652841
 31
0.0
  0
LINE
  5
C636
  8
01
 10
954.78766516632527
 20
-2169.636968652841
 30
0.0
 11
955.58767516632429
 21
-2168.8369186528398
 31
0.0
  0
LINE
  5
C637
  8
01
 10
946.1876651663249
 20
-2199.736948652841
 30
0.0
 11
953.18766516632502
 21
-2199.736948652841
 31
0.0
  0
LINE
  5
C638
  8
01
 10
946.1876651663249
 20
-2219.7369486528401
 30
0.0
 11
953.18766516632502
 21
-2219.7369486528401
 31
0.0
  0
LINE
  5
C639
  8
01
 10
942.26976516632453
 20
-2216.543218652841
 30
0.0
 11
953.18766516632502
 21
-2216.543218652841
 31
0.0
  0
LINE
  5
C63A
  8
01
 10
942.26976516632453
 20
-2202.9306686528398
 30
0.0
 11
953.18766516632502
 21
-2202.9306686528398
 31
0.0
  0
LINE
  5
C63B
  8
01
 10
942.18766516632479
 20
-2203.7369486528401
 30
0.0
 11
942.18766516632479
 21
-2215.736948652841
 31
0.0
  0
ARC
  5
C63C
  8
01
 10
946.1876651663249
 20
-2215.736948652841
 30
0.0
 40
4.0
 50
179.999989999999
 51
270.0
  0
ARC
  5
C63D
  8
01
 10
946.1876651663249
 20
-2203.7369486528401
 30
0.0
 40
4.0
 50
90.000002999984659
 51
180.000010000001
  0
LINE
  5
C63E
  8
01
 10
954.78766516632527
 20
-2251.8369586528402
 30
0.0
 11
955.58767516632429
 21
-2252.6369386528409
 31
0.0
  0
LINE
  5
C63F
  8
01
 10
956.18771516632546
 20
-2251.7369786528402
 30
0.0
 11
957.18769516632415
 21
-2252.736948652841
 31
0.0
  0
LINE
  5
C640
  8
01
 10
948.1876651663249
 20
-2267.7369486528401
 30
0.0
 11
962.1876651663249
 21
-2267.7369486528401
 31
0.0
  0
LINE
  5
C641
  8
01
 10
953.18766516632502
 20
-2275.7369486528401
 30
0.0
 11
957.1876651663249
 21
-2275.7369486528401
 31
0.0
  0
LINE
  5
C642
  8
01
 10
955.58767516632429
 20
-2275.7369486528401
 30
0.0
 11
955.58767516632429
 21
-2252.6369386528409
 31
0.0
  0
LINE
  5
C643
  8
01
 10
957.1876651663249
 20
-2275.7369486528401
 30
0.0
 11
957.1876651663249
 21
-2252.736948652841
 31
0.0
  0
LINE
  5
C644
  8
01
 10
956.1876651663249
 20
-2169.736948652841
 30
0.0
 11
956.1876651663249
 21
-2251.7369486528401
 31
0.0
  0
LINE
  5
C645
  8
01
 10
1022.187665166325
 20
-2196.236948652841
 30
0.0
 11
1022.187665166325
 21
-2205.2369486528401
 31
0.0
  0
LINE
  5
C647
  8
01
 10
953.18766516632502
 20
-2145.736948652841
 30
0.0
 11
957.1876651663249
 21
-2145.736948652841
 31
0.0
  0
LINE
  5
C648
  8
01
 10
948.1876651663249
 20
-2153.736948652841
 30
0.0
 11
962.1876651663249
 21
-2153.736948652841
 31
0.0
  0
LINE
  5
C64A
  8
01
 10
957.18854934838487
 20
-1952.2369486538689
 30
0.0
 11
1023.188549348385
 21
-1952.2369486538689
 31
0.0
  0
LINE
  5
C64B
  8
01
 10
957.18854934838487
 20
-1953.836918653868
 30
0.0
 11
1023.188549348385
 21
-1953.836918653868
 31
0.0
  0
LINE
  5
C64C
  8
01
 10
954.78855934838487
 20
-1971.2369486538689
 30
0.0
 11
1023.188549348385
 21
-1971.2369486538689
 31
0.0
  0
LINE
  5
C64D
  8
01
 10
956.38853934838573
 20
-1956.7369486538689
 30
0.0
 11
957.18854934838487
 21
-1955.9369286538681
 31
0.0
  0
LINE
  5
C64E
  8
01
 10
957.18854934838487
 20
-1951.2369486538689
 30
0.0
 11
957.18854934838487
 21
-1955.9369286538681
 31
0.0
  0
LINE
  5
C64F
  8
01
 10
954.78855934838487
 20
-1956.736918653869
 30
0.0
 11
955.58854934838632
 21
-1955.936958653868
 31
0.0
  0
LINE
  5
C650
  8
01
 10
942.18854934838475
 20
-1969.4869486538689
 30
0.0
 11
953.18854934838475
 21
-1969.4869486538689
 31
0.0
  0
LINE
  5
C651
  8
01
 10
942.18854934838475
 20
-1969.4869486538689
 30
0.0
 11
942.18854934838475
 21
-1967.4869486538689
 31
0.0
  0
LINE
  5
C652
  8
01
 10
953.18854934838475
 20
-1949.2369486538689
 30
0.0
 11
954.78855934838487
 21
-1949.2369486538689
 31
0.0
  0
LINE
  5
C653
  8
01
 10
954.78855934838487
 20
-1949.2369486538689
 30
0.0
 11
954.78855934838487
 21
-1956.7369486538689
 31
0.0
  0
LINE
  5
C654
  8
01
 10
955.58855934838607
 20
-1951.2369486538689
 30
0.0
 11
955.58855934838607
 21
-1955.9369286538681
 31
0.0
  0
LINE
  5
C655
  8
01
 10
954.78855934838487
 20
-1951.2369486538689
 30
0.0
 11
957.18854934838487
 21
-1951.2369486538689
 31
0.0
  0
LINE
  5
C656
  8
01
 10
957.18854934838487
 20
-1967.5369386538689
 30
0.0
 11
957.18854934838487
 21
-1971.2369486538689
 31
0.0
  0
LINE
  5
C657
  8
01
 10
956.38855934838534
 20
-1966.736918653869
 30
0.0
 11
957.18854934838487
 21
-1967.5369386538689
 31
0.0
  0
LINE
  5
C658
  8
01
 10
957.18854934838487
 20
-1969.636938653869
 30
0.0
 11
961.78855934838487
 21
-1969.636938653869
 31
0.0
  0
LINE
  5
C659
  8
01
 10
954.78854934838512
 20
-1966.736918653869
 30
0.0
 11
955.58855934838607
 21
-1967.5369386538689
 31
0.0
  0
LINE
  5
C65A
  8
01
 10
954.78855934838487
 20
-1966.7369486538689
 30
0.0
 11
954.78855934838487
 21
-1974.2369486538689
 31
0.0
  0
LINE
  5
C65B
  8
01
 10
953.18854934838475
 20
-1974.2369486538689
 30
0.0
 11
954.78855934838487
 21
-1974.2369486538689
 31
0.0
  0
LINE
  5
C65C
  8
01
 10
955.58855934838607
 20
-1967.5369386538689
 30
0.0
 11
955.58855934838607
 21
-1971.2369486538689
 31
0.0
  0
LINE
  5
C65D
  8
01
 10
953.18854934838475
 20
-1941.7369486538689
 30
0.0
 11
953.18854934838475
 21
-1981.7369486538689
 31
0.0
  0
LINE
  5
C65E
  8
01
 10
961.78855934838487
 20
-1953.836918653868
 30
0.0
 11
961.78855934838487
 21
-1971.2369486538689
 31
0.0
  0
LINE
  5
C65F
  8
01
 10
956.38854934838548
 20
-1956.7369486538689
 30
0.0
 11
956.38854934838548
 21
-1966.7369486538689
 31
0.0
  0
LINE
  5
C660
  8
01
 10
954.78855934838487
 20
-1956.7369486538689
 30
0.0
 11
954.78855934838487
 21
-1966.7369486538689
 31
0.0
  0
ARC
  5
C661
  8
01
 10
985.85804934838507
 20
-1991.8380286538679
 30
0.0
 40
50.0
 50
130.79769000000621
 51
150.85500000003
  0
LINE
  5
C662
  8
01
 10
1021.588549348386
 20
-1953.836918653868
 30
0.0
 11
1021.588549348386
 21
-1971.2369486538689
 31
0.0
  0
LINE
  5
C663
  8
01
 10
1023.188549348385
 20
-1952.2369486538689
 30
0.0
 11
1023.188549348385
 21
-1971.2369486538689
 31
0.0
  0
LINE
  5
C664
  8
01
 10
985.54989789461706
 20
-1927.2369176538709
 30
0.0
 11
1001.172534506068
 21
-1927.2369176538709
 31
0.0
  0
POINT
  5
C665
  8
01
 10
854.18766916632444
 20
-2231.736948652841
 30
0.0
  0
LINE
  5
C666
  8
01
 10
854.18766916632444
 20
-2256.736948652841
 30
0.0
 11
854.18766916632444
 21
-2206.7370486528412
 31
0.0
  0
LINE
  5
C667
  8
01
 10
720.18767316632386
 20
-2267.7369486528401
 30
0.0
 11
706.18767316632409
 21
-2267.7369486528401
 31
0.0
  0
LINE
  5
C668
  8
01
 10
720.18767316632386
 20
-2153.736948652841
 30
0.0
 11
706.18767316632409
 21
-2153.736948652841
 31
0.0
  0
LINE
  5
C669
  8
01
 10
840.68766916632444
 20
-2153.736948652841
 30
0.0
 11
827.68766916632433
 21
-2153.736948652841
 31
0.0
  0
LINE
  5
C66A
  8
01
 10
834.18766916632444
 20
-2147.236948652841
 30
0.0
 11
834.18766916632444
 21
-2160.2369486528401
 31
0.0
  0
LINE
  5
C66B
  8
01
 10
840.68766916632444
 20
-2267.7369486528401
 30
0.0
 11
827.68766916632433
 21
-2267.7369486528401
 31
0.0
  0
LINE
  5
C66C
  8
01
 10
834.18766916632444
 20
-2261.2369486528401
 30
0.0
 11
834.18766916632444
 21
-2274.236948652841
 31
0.0
  0
LINE
  5
C66D
  8
01
 10
694.1876731663242
 20
-2231.736948652841
 30
0.0
 11
634.1876731663242
 21
-2231.736948652841
 31
0.0
  0
LINE
  5
C66E
  8
01
 10
664.18767316632409
 20
-2201.736948652841
 30
0.0
 11
664.18767316632409
 21
-2261.736948652841
 31
0.0
  0
LINE
  5
C66F
  8
01
 10
974.18766516632468
 20
-2231.736948652841
 30
0.0
 11
1034.187665166324
 21
-2231.736948652841
 31
0.0
  0
LINE
  5
C670
  8
01
 10
1004.187665166324
 20
-2201.736948652841
 30
0.0
 11
1004.187665166324
 21
-2261.736948652841
 31
0.0
  0
POINT
  5
C671
  8
01
 10
868.68766916632433
 20
-2231.736948652841
 30
0.0
  0
LINE
  5
C672
  8
01
 10
868.28766915632445
 20
-2233.4869486528401
 30
0.0
 11
868.28766915632445
 21
-2232.6369486328408
 31
0.0
  0
LINE
  5
C673
  8
01
 10
869.08766917632454
 20
-2233.4869486528401
 30
0.0
 11
869.08766917632454
 21
-2232.6369486328408
 31
0.0
  0
LINE
  5
C674
  8
01
 10
867.78766918632448
 20
-2232.136948662841
 30
0.0
 11
866.93766916632433
 21
-2232.136948662841
 31
0.0
  0
LINE
  5
C675
  8
01
 10
867.78766918632448
 20
-2231.336948642841
 30
0.0
 11
866.93766916632433
 21
-2231.336948642841
 31
0.0
  0
LINE
  5
C676
  8
01
 10
866.93766916632433
 20
-2232.136948662841
 30
0.0
 11
866.93766916632433
 21
-2231.336948642841
 31
0.0
  0
LINE
  5
C677
  8
01
 10
869.08766917632454
 20
-2233.4869486528401
 30
0.0
 11
868.28766915632445
 21
-2233.4869486528401
 31
0.0
  0
LINE
  5
C678
  8
01
 10
869.08766917632454
 20
-2229.9869486528401
 30
0.0
 11
869.08766917632454
 21
-2230.8369486728411
 31
0.0
  0
LINE
  5
C679
  8
01
 10
868.28766915632445
 20
-2229.9869486528401
 30
0.0
 11
868.28766915632445
 21
-2230.8369486728411
 31
0.0
  0
LINE
  5
C67A
  8
01
 10
869.58766914632417
 20
-2231.336948642841
 30
0.0
 11
870.43766916632433
 21
-2231.336948642841
 31
0.0
  0
LINE
  5
C67B
  8
01
 10
869.58766914632417
 20
-2232.136948662841
 30
0.0
 11
870.43766916632433
 21
-2232.136948662841
 31
0.0
  0
LINE
  5
C67C
  8
01
 10
870.43766916632433
 20
-2231.336948642841
 30
0.0
 11
870.43766916632433
 21
-2232.136948662841
 31
0.0
  0
LINE
  5
C67D
  8
01
 10
868.28766915632445
 20
-2229.9869486528401
 30
0.0
 11
869.08766917632454
 21
-2229.9869486528401
 31
0.0
  0
CIRCLE
  5
C67E
  8
01
 10
868.68766916632433
 20
-2231.736948652841
 30
0.0
 40
2.5
  0
ARC
  5
C67F
  8
01
 10
869.58766914632417
 20
-2230.8369486728411
 30
0.0
 40
0.5
 50
179.999989999999
 51
270.0
  0
ARC
  5
C680
  8
01
 10
869.58766914632417
 20
-2232.6369486328408
 30
0.0
 40
0.5
 50
90.00000299999769
 51
180.000010000001
  0
ARC
  5
C681
  8
01
 10
867.78766918632448
 20
-2232.6369486328408
 30
0.0
 40
0.5
 50
0.0
 51
90.00000299999769
  0
ARC
  5
C682
  8
01
 10
867.78766918632448
 20
-2230.8369486728411
 30
0.0
 40
0.5
 50
270.0
 51
0.0
  0
POINT
  5
C684
  8
01
 10
799.68766916632444
 20
-2231.736948652841
 30
0.0
 50
180.0
  0
CIRCLE
  5
C685
  8
01
 10
799.68766916632444
 20
-2231.736948652841
 30
0.0
 40
2.5
  0
LINE
  5
C68C
  8
01
 10
651.18766516632331
 20
-2181.736948652841
 30
0.0
 11
677.18766516632331
 21
-2181.736948652841
 31
0.0
  0
LINE
  5
C68D
  8
01
 10
686.68766516632331
 20
-2176.236948652841
 30
0.0
 11
641.6876651663232
 21
-2176.236948652841
 31
0.0
  0
LINE
  5
C68E
  8
01
 10
664.18766516632331
 20
-2153.736948652841
 30
0.0
 11
664.18766516632331
 21
-2198.7369486528401
 31
0.0
  0
LINE
  5
C68F
  8
01
 10
1017.187673166325
 20
-2181.736948652841
 30
0.0
 11
991.18767316632545
 21
-2181.736948652841
 31
0.0
  0
LINE
  5
C690
  8
01
 10
981.68767316632545
 20
-2176.236948652841
 30
0.0
 11
1026.6876731663251
 21
-2176.236948652841
 31
0.0
  0
LINE
  5
C691
  8
01
 10
1004.187673166325
 20
-2153.736948652841
 30
0.0
 11
1004.187673166325
 21
-2198.7369486528401
 31
0.0
  0
LINE
  5
C696
  8
01
 10
1004.18778150607
 20
-1911.7369486538689
 30
0.0
 11
1004.18778150607
 21
-1946.7369486538689
 31
0.0
  0
LINE
  5
C697
  8
01
 10
1004.18778150607
 20
-1976.7369486538689
 30
0.0
 11
1004.18778150607
 21
-2011.7369486538689
 31
0.0
  0
LINE
  5
C698
  8
01
 10
784.18766916632455
 20
-2231.736948652841
 30
0.0
 11
819.18766916632455
 21
-2231.736948652841
 31
0.0
  0
LINE
  5
C699
  8
01
 10
849.18766916632467
 20
-2231.736948652841
 30
0.0
 11
884.18766916632455
 21
-2231.736948652841
 31
0.0
  0
LINE
  5
C69A
  8
01
 10
953.18854934838475
 20
-1981.7369486538689
 30
0.0
 11
1106.942929503417
 21
-1981.7369486538689
 31
0.0
  0
LINE
  5
C69B
  8
01
 10
953.18854934838475
 20
-1941.7369486538689
 30
0.0
 11
1106.942929503417
 21
-1941.7369486538689
 31
0.0
  0
ARC
  5
C69C
  8
01
 10
1015.687665166324
 20
-2243.236948652841
 30
0.0
 40
0.5
 50
270.0
 51
0.0
  0
ARC
  5
C69D
  8
01
 10
992.68766516632468
 20
-2243.236948652841
 30
0.0
 40
0.5
 50
180.0
 51
270.0
  0
ARC
  5
C69E
  8
01
 10
992.68766516632468
 20
-2220.236948652841
 30
0.0
 40
0.5
 50
90.0
 51
180.0
  0
ARC
  5
C69F
  8
01
 10
1015.687665166324
 20
-2220.236948652841
 30
0.0
 40
0.5
 50
0.0
 51
90.0
  0
LINE
  5
C6A0
  8
01
 10
1015.687665166324
 20
-2243.736948652841
 30
0.0
 11
992.68766516632468
 21
-2243.736948652841
 31
0.0
  0
LINE
  5
C6A1
  8
01
 10
992.68766516632468
 20
-2219.7369486528401
 30
0.0
 11
1015.687665166324
 21
-2219.7369486528401
 31
0.0
  0
LINE
  5
C6A2
  8
01
 10
992.18766516632468
 20
-2220.236948652841
 30
0.0
 11
992.18766516632468
 21
-2243.236948652841
 31
0.0
  0
LINE
  5
C6A3
  8
01
 10
1016.187665166325
 20
-2220.236948652841
 30
0.0
 11
1016.187665166325
 21
-2243.236948652841
 31
0.0
  0
ARC
  5
C6A4
  8
01
 10
1128.687665166324
 20
-2243.236948652841
 30
0.0
 40
0.5
 50
270.0
 51
0.0
  0
ARC
  5
C6A5
  8
01
 10
1128.687665166324
 20
-2220.236948652841
 30
0.0
 40
0.5
 50
0.0
 51
90.0
  0
ARC
  5
C6A6
  8
01
 10
1016.687665166324
 20
-2220.236948652841
 30
0.0
 40
0.5
 50
90.0
 51
180.0
  0
ARC
  5
C6A7
  8
01
 10
1016.687665166324
 20
-2243.236948652841
 30
0.0
 40
0.5
 50
180.0
 51
270.0
  0
LINE
  5
C6A8
  8
01
 10
1129.187665166324
 20
-2220.236948652841
 30
0.0
 11
1129.187665166324
 21
-2243.236948652841
 31
0.0
  0
LINE
  5
C6A9
  8
01
 10
1016.187665166325
 20
-2220.236948652841
 30
0.0
 11
1016.187665166325
 21
-2243.236948652841
 31
0.0
  0
LINE
  5
C6AA
  8
01
 10
1016.687665166324
 20
-2243.736948652841
 30
0.0
 11
1128.687665166324
 21
-2243.736948652841
 31
0.0
  0
LINE
  5
C6AB
  8
01
 10
1016.687665166324
 20
-2219.7369486528401
 30
0.0
 11
1128.687665166324
 21
-2219.7369486528401
 31
0.0
  0
ARC
  5
C6B0
  8
01
 10
1015.687781439966
 20
-2027.436948653869
 30
0.0
 40
0.5
 50
270.0
 51
0.0
  0
ARC
  5
C6B1
  8
01
 10
992.68778143996485
 20
-2027.436948653869
 30
0.0
 40
0.5
 50
180.0
 51
270.0
  0
LINE
  5
C6B2
  8
01
 10
992.68778143996485
 20
-2027.936948653869
 30
0.0
 11
1015.687781439966
 21
-2027.9369486538701
 31
0.0
  0
LINE
  5
C6B5
  8
01
 10
992.18778143996587
 20
-1990.936948653869
 30
0.0
 11
992.18778143996497
 21
-2027.436948653869
 31
0.0
  0
LINE
  5
C6B6
  8
01
 10
992.18778143996587
 20
-1990.936948653869
 30
0.0
 11
1016.187781439966
 21
-1990.9369486538901
 31
0.0
  0
ARC
  5
C6B7
  8
01
 10
1016.687781439965
 20
-2027.436948653869
 30
0.0
 40
0.5
 50
180.0
 51
270.0
  0
ARC
  5
C6B8
  8
01
 10
1128.6877814399661
 20
-2010.4369486538701
 30
0.0
 40
0.5
 50
0.0
 51
90.0
  0
ARC
  5
C6B9
  8
01
 10
1120.6877814399661
 20
-2010.436948653869
 30
0.0
 40
0.5
 50
90.0
 51
180.0
  0
ARC
  5
C6BA
  8
01
 10
1116.1877814399661
 20
-2014.936948653869
 30
0.0
 40
4.0
 50
270.0
 51
0.0
  0
ARC
  5
C6BB
  8
01
 10
1029.1877814399661
 20
-2014.936948653869
 30
0.0
 40
4.0
 50
180.0
 51
270.0
  0
LINE
  5
C6BC
  8
01
 10
1024.687781439965
 20
-1990.936948653869
 30
0.0
 11
1016.187781439966
 21
-1990.936948653869
 31
0.0
  0
ARC
  5
C6BD
  8
01
 10
1024.687781439965
 20
-1991.436948653869
 30
0.0
 40
0.5
 50
0.0
 51
90.0
  0
LINE
  5
C6BE
  8
01
 10
1119.1877814399661
 20
-2027.936948653869
 30
0.0
 11
1016.687781439965
 21
-2027.936948653869
 31
0.0
  0
ARC
  5
C6BF
  8
01
 10
1119.1877814399661
 20
-2017.936948653869
 30
0.0
 40
10.0
 50
270.0
 51
0.0
  0
LINE
  5
C6C0
  8
01
 10
1129.1877814399661
 20
-2010.4369486538701
 30
0.0
 11
1129.1877814399661
 21
-2017.936948653869
 31
0.0
  0
LINE
  5
C6C1
  8
01
 10
1120.6877814399661
 20
-2009.936948653869
 30
0.0
 11
1128.6877814399661
 21
-2009.936948653869
 31
0.0
  0
LINE
  5
C6C2
  8
01
 10
1120.1877814399661
 20
-2014.936948653869
 30
0.0
 11
1120.1877814399661
 21
-2010.436948653869
 31
0.0
  0
LINE
  5
C6C3
  8
01
 10
1029.1877814399661
 20
-2018.936948653869
 30
0.0
 11
1116.1877814399661
 21
-2018.936948653869
 31
0.0
  0
LINE
  5
C6C4
  8
01
 10
1025.187781439965
 20
-1991.436948653869
 30
0.0
 11
1025.1877814399661
 21
-2014.936948653869
 31
0.0
  0
LINE
  5
C6C5
  8
01
 10
1016.187781439966
 20
-2027.436948653869
 30
0.0
 11
1016.187781439966
 21
-1990.936948653869
 31
0.0
  0
ARC
  5
C6CD
  8
01
 10
899.88766916632426
 20
-2243.236948652841
 30
0.0
 40
0.5
 50
270.0
 51
0.0
  0
ARC
  5
C6CE
  8
01
 10
899.88766916632426
 20
-2220.236948652841
 30
0.0
 40
0.5
 50
0.0
 51
90.0
  0
LINE
  5
C6CF
  8
01
 10
900.38766916632335
 20
-2220.236948652841
 30
0.0
 11
900.38766916632414
 21
-2243.236948652841
 31
0.0
  0
LINE
  5
C6D3
  8
01
 10
863.38766916632426
 20
-2243.736948652841
 30
0.0
 11
899.88766916632426
 21
-2243.736948652841
 31
0.0
  0
LINE
  5
C6D4
  8
01
 10
863.38766916632426
 20
-2219.7369486528401
 30
0.0
 11
899.88766916632426
 21
-2219.7369486528401
 31
0.0
  0
LINE
  5
C6D5
  8
01
 10
863.38766916632426
 20
-2219.7369486528401
 30
0.0
 11
863.38766916632426
 21
-2243.736948652841
 31
0.0
  0
ARC
  5
C6D7
  8
01
 10
652.68767316632375
 20
-2243.236948652841
 30
0.0
 40
0.5
 50
180.0
 51
270.0
  0
ARC
  5
C6D8
  8
01
 10
675.68767316632375
 20
-2243.236948652841
 30
0.0
 40
0.5
 50
270.0
 51
0.0
  0
ARC
  5
C6D9
  8
01
 10
675.68767316632375
 20
-2220.236948652841
 30
0.0
 40
0.5
 50
0.0
 51
90.0
  0
ARC
  5
C6DA
  8
01
 10
652.68767316632375
 20
-2220.236948652841
 30
0.0
 40
0.5
 50
90.0
 51
180.0
  0
LINE
  5
C6DB
  8
01
 10
652.68767316632375
 20
-2243.736948652841
 30
0.0
 11
675.68767316632375
 21
-2243.736948652841
 31
0.0
  0
LINE
  5
C6DC
  8
01
 10
675.68767316632375
 20
-2219.7369486528401
 30
0.0
 11
652.68767316632375
 21
-2219.7369486528401
 31
0.0
  0
LINE
  5
C6DD
  8
01
 10
676.18767316632375
 20
-2220.236948652841
 30
0.0
 11
676.18767316632375
 21
-2243.236948652841
 31
0.0
  0
LINE
  5
C6DE
  8
01
 10
652.18767316632375
 20
-2220.236948652841
 30
0.0
 11
652.18767316632375
 21
-2243.236948652841
 31
0.0
  0
ARC
  5
C6DF
  8
01
 10
539.68767316632375
 20
-2243.236948652841
 30
0.0
 40
0.5
 50
180.0
 51
270.0
  0
ARC
  5
C6E0
  8
01
 10
539.68767316632375
 20
-2220.236948652841
 30
0.0
 40
0.5
 50
90.0
 51
180.0
  0
ARC
  5
C6E1
  8
01
 10
651.68767316632375
 20
-2220.236948652841
 30
0.0
 40
0.5
 50
0.0
 51
90.0
  0
ARC
  5
C6E2
  8
01
 10
651.68767316632375
 20
-2243.236948652841
 30
0.0
 40
0.5
 50
270.0
 51
0.0
  0
LINE
  5
C6E3
  8
01
 10
539.18767316632375
 20
-2220.236948652841
 30
0.0
 11
539.18767316632375
 21
-2243.236948652841
 31
0.0
  0
LINE
  5
C6E4
  8
01
 10
652.18767316632375
 20
-2220.236948652841
 30
0.0
 11
652.18767316632375
 21
-2243.236948652841
 31
0.0
  0
LINE
  5
C6E5
  8
01
 10
651.68767316632375
 20
-2243.736948652841
 30
0.0
 11
539.68767316632375
 21
-2243.736948652841
 31
0.0
  0
LINE
  5
C6E6
  8
01
 10
651.68767316632375
 20
-2219.7369486528401
 30
0.0
 11
539.68767316632375
 21
-2219.7369486528401
 31
0.0
  0
ARC
  5
C6E9
  8
01
 10
768.48766916632417
 20
-2243.236948652841
 30
0.0
 40
0.5
 50
180.0
 51
270.0
  0
ARC
  5
C6EA
  8
01
 10
768.48766916632417
 20
-2220.236948652841
 30
0.0
 40
0.5
 50
90.0
 51
180.0
  0
LINE
  5
C6EB
  8
01
 10
767.98766916632508
 20
-2220.236948652841
 30
0.0
 11
767.98766916632405
 21
-2243.236948652841
 31
0.0
  0
LINE
  5
C6EF
  8
01
 10
804.98766916632405
 20
-2243.736948652841
 30
0.0
 11
768.48766916632417
 21
-2243.736948652841
 31
0.0
  0
LINE
  5
C6F0
  8
01
 10
804.98766916632405
 20
-2219.7369486528401
 30
0.0
 11
768.48766916632417
 21
-2219.7369486528401
 31
0.0
  0
LINE
  5
C6F1
  8
01
 10
804.98766916632405
 20
-2219.7369486528401
 30
0.0
 11
804.98766916632405
 21
-2243.736948652841
 31
0.0
  0
ARC
  5
C6F8
  8
01
 10
1015.687781439966
 20
-1896.0369486538691
 30
0.0
 40
0.5
 50
0.0
 51
90.0
  0
ARC
  5
C6F9
  8
01
 10
992.68778143996485
 20
-1896.0369486538691
 30
0.0
 40
0.5
 50
90.0
 51
180.0
  0
LINE
  5
C6FA
  8
01
 10
992.68778143996485
 20
-1895.5369486538691
 30
0.0
 11
1015.687781439966
 21
-1895.5369486538691
 31
0.0
  0
LINE
  5
C6FD
  8
01
 10
992.18778143996587
 20
-1932.5369486538691
 30
0.0
 11
992.18778143996497
 21
-1896.0369486538691
 31
0.0
  0
LINE
  5
C6FE
  8
01
 10
992.18778143996587
 20
-1932.5369486538691
 30
0.0
 11
1001.687781506062
 21
-1932.536948653865
 31
0.0
  0
ARC
  5
C6FF
  8
01
 10
1016.687781439965
 20
-1896.0369486538691
 30
0.0
 40
0.5
 50
90.0
 51
180.0
  0
ARC
  5
C700
  8
01
 10
1128.6877814399661
 20
-1913.0369486538691
 30
0.0
 40
0.5
 50
270.0
 51
0.0
  0
ARC
  5
C701
  8
01
 10
1120.6877814399661
 20
-1913.0369486538691
 30
0.0
 40
0.5
 50
180.0
 51
270.0
  0
ARC
  5
C702
  8
01
 10
1116.1877814399661
 20
-1908.5369486538691
 30
0.0
 40
4.0
 50
0.0
 51
90.0
  0
ARC
  5
C703
  8
01
 10
1029.1877814399661
 20
-1908.5369486538691
 30
0.0
 40
4.0
 50
90.0
 51
180.0
  0
LINE
  5
C704
  8
01
 10
1024.687781439965
 20
-1932.5369486538691
 30
0.0
 11
1006.687781506064
 21
-1932.53694865387
 31
0.0
  0
ARC
  5
C705
  8
01
 10
1024.687781439965
 20
-1932.0369486538691
 30
0.0
 40
0.5
 50
270.0
 51
0.0
  0
LINE
  5
C706
  8
01
 10
1119.1877814399661
 20
-1895.5369486538691
 30
0.0
 11
1016.687781439965
 21
-1895.5369486538691
 31
0.0
  0
ARC
  5
C707
  8
01
 10
1119.1877814399661
 20
-1905.5369486538691
 30
0.0
 40
10.0
 50
0.0
 51
90.0
  0
LINE
  5
C708
  8
01
 10
1129.1877814399661
 20
-1913.0369486538691
 30
0.0
 11
1129.1877814399661
 21
-1905.5369486538691
 31
0.0
  0
LINE
  5
C709
  8
01
 10
1120.6877814399661
 20
-1913.5369486538691
 30
0.0
 11
1128.6877814399661
 21
-1913.5369486538691
 31
0.0
  0
LINE
  5
C70A
  8
01
 10
1120.1877814399661
 20
-1908.5369486538691
 30
0.0
 11
1120.1877814399661
 21
-1913.0369486538691
 31
0.0
  0
LINE
  5
C70B
  8
01
 10
1029.1877814399661
 20
-1904.5369486538691
 30
0.0
 11
1116.1877814399661
 21
-1904.5369486538691
 31
0.0
  0
LINE
  5
C70C
  8
01
 10
1025.187781439965
 20
-1932.0369486538691
 30
0.0
 11
1025.1877814399661
 21
-1908.5369486538691
 31
0.0
  0
LINE
  5
C70D
  8
01
 10
1016.187781439966
 20
-1896.0369486538691
 30
0.0
 11
1016.187781439966
 21
-1932.5369486538691
 31
0.0
  0
LINE
  5
C711
  8
01
 10
985.54989789461706
 20
-1996.4369486538681
 30
0.0
 11
1001.172534506068
 21
-1996.4369486538681
 31
0.0
  0
LINE
  5
C71C
  8
01
 10
854.18766916632444
 20
-2205.2369486528401
 30
0.0
 11
854.18766916632444
 21
-2258.236948652841
 31
0.0
  0
LINE
  5
C71D
  8
01
 10
862.68766916632455
 20
-2257.736948652841
 30
0.0
 11
862.68766916632455
 21
-2205.736948652841
 31
0.0
  0
ARC
  5
C71E
  8
01
 10
862.18766916632444
 20
-2257.736948652841
 30
0.0
 40
0.5
 50
270.0
 51
0.0
  0
LINE
  5
C71F
  8
01
 10
854.18766916632444
 20
-2258.236948652841
 30
0.0
 11
862.18766916632444
 21
-2258.236948652841
 31
0.0
  0
LINE
  5
C720
  8
01
 10
854.18766916632444
 20
-2205.2369486528401
 30
0.0
 11
862.18766916632444
 21
-2205.2369486528401
 31
0.0
  0
ARC
  5
C721
  8
01
 10
862.18766916632444
 20
-2205.736948652841
 30
0.0
 40
0.5
 50
0.0
 51
90.0
  0
LINE
  5
C722
  8
01
 10
814.18766916632433
 20
-2205.2369486528401
 30
0.0
 11
814.18766916632433
 21
-2258.236948652841
 31
0.0
  0
LINE
  5
C723
  8
01
 10
805.68766916632455
 20
-2257.736948652841
 30
0.0
 11
805.68766916632444
 21
-2205.736948652841
 31
0.0
  0
ARC
  5
C724
  8
01
 10
806.18766916632433
 20
-2205.736948652841
 30
0.0
 40
0.5
 50
90.0
 51
180.0
  0
LINE
  5
C725
  8
01
 10
814.18766916632433
 20
-2258.236948652841
 30
0.0
 11
806.18766916632467
 21
-2258.236948652841
 31
0.0
  0
ARC
  5
C726
  8
01
 10
806.18766916632467
 20
-2257.736948652841
 30
0.0
 40
0.5
 50
180.0
 51
270.0
  0
LINE
  5
C727
  8
01
 10
814.18766916632433
 20
-2205.2369486528401
 30
0.0
 11
806.18766916632433
 21
-2205.2369486528401
 31
0.0
  0
LINE
  5
C73E
  8
01
 10
683.68767316632261
 20
-2156.236948652841
 30
0.0
 11
644.68767316632295
 21
-2156.236948652841
 31
0.0
  0
ARC
  5
C73F
  8
01
 10
644.68767316632295
 20
-2156.7369486528419
 30
0.0
 40
0.5
 50
90.0
 51
180.0
  0
LINE
  5
C740
  8
01
 10
683.68767316632284
 20
-2196.236948652841
 30
0.0
 11
644.68767316632284
 21
-2196.236948652841
 31
0.0
  0
ARC
  5
C741
  8
01
 10
683.68767316632284
 20
-2195.736948652841
 30
0.0
 40
0.5
 50
270.0
 51
0.0
  0
LINE
  5
C742
  8
01
 10
684.18767316632284
 20
-2195.736948652841
 30
0.0
 11
684.18767316632261
 21
-2156.736948652841
 31
0.0
  0
ARC
  5
C743
  8
01
 10
683.68767316632261
 20
-2156.736948652841
 30
0.0
 40
0.5
 50
0.0
 51
90.0
  0
LINE
  5
C744
  8
01
 10
644.18767316632284
 20
-2195.736948652841
 30
0.0
 11
644.18767316632307
 21
-2156.7369486528419
 31
0.0
  0
ARC
  5
C745
  8
01
 10
644.68767316632284
 20
-2195.736948652841
 30
0.0
 40
0.5
 50
180.0
 51
270.0
  0
LINE
  5
C746
  8
01
 10
651.78736830585672
 20
-2181.736948652841
 30
0.0
 11
676.38603224106282
 21
-2181.736948652841
 31
0.0
  0
CIRCLE
  5
C747
  8
01
 10
664.18767316632477
 20
-2181.736948652841
 30
0.0
 40
11.30000000000109
  0
ARC
  5
C748
  8
01
 10
664.18767316632477
 20
-2181.736948652841
 30
0.0
 40
10.999995000006949
 50
79.019419278571149
 51
100.98058072142879
  0
LINE
  5
C749
  8
01
 10
666.68767316632488
 20
-2171.42918968204
 30
0.0
 11
666.68767316632488
 21
-2192.0447076236419
 31
0.0
  0
LINE
  5
C74A
  8
01
 10
661.68767316632477
 20
-2171.42918968204
 30
0.0
 11
661.68767316632477
 21
-2192.0447076236419
 31
0.0
  0
ARC
  5
C74B
  8
01
 10
664.18767316632477
 20
-2181.736948652841
 30
0.0
 40
10.999995000006949
 50
100.98058072142879
 51
259.01941927857121
  0
ARC
  5
C74C
  8
01
 10
664.18767316632477
 20
-2181.736948652841
 30
0.0
 40
10.999995000006949
 50
280.98058072142891
 51
79.019419278571149
  0
ARC
  5
C74D
  8
01
 10
664.18767316632477
 20
-2181.736948652841
 30
0.0
 40
10.999995000006949
 50
259.01941927857121
 51
280.98058072142891
  0
ARC
  5
C74E
  8
01
 10
662.18767316632488
 20
-2171.42918968204
 30
0.0
 40
0.5
 50
100.98058072142879
 51
180.0
  0
ARC
  5
C74F
  8
01
 10
666.18767316632477
 20
-2171.42918968204
 30
0.0
 40
0.5
 50
0.0
 51
79.019419278571149
  0
ARC
  5
C750
  8
01
 10
662.18767316632488
 20
-2192.0447076236419
 30
0.0
 40
0.5
 50
180.0
 51
259.01941927857121
  0
ARC
  5
C751
  8
01
 10
666.18767316632477
 20
-2192.0447076236419
 30
0.0
 40
0.5
 50
280.98058072142891
 51
0.0
  0
LINE
  5
C752
  8
01
 10
860.48766916064505
 20
-2195.7369486528328
 30
0.0
 11
860.48766916064517
 21
-2156.7369486528341
 31
0.0
  0
LINE
  5
C753
  8
01
 10
854.18766916064544
 20
-2156.2369486528328
 30
0.0
 11
854.18766916064089
 21
-2196.2369486528341
 31
0.0
  0
LINE
  5
C754
  8
01
 10
854.18766916064089
 20
-2196.2369486528341
 30
0.0
 11
859.98766916064517
 21
-2196.2369486528328
 31
0.0
  0
ARC
  5
C755
  8
01
 10
859.98766916064517
 20
-2195.7369486528328
 30
0.0
 40
0.5
 50
270.0
 51
0.0
  0
LINE
  5
C756
  8
01
 10
854.18766916064544
 20
-2156.2369486528328
 30
0.0
 11
859.98766916064517
 21
-2156.2369486528341
 31
0.0
  0
ARC
  5
C757
  8
01
 10
859.98766916064517
 20
-2156.7369486528341
 30
0.0
 40
0.5
 50
0.0
 51
90.0
  0
LINE
  5
C758
  8
01
 10
866.59853894631885
 20
-2181.736948652841
 30
-0.0000000000562575
 11
850.01245532276494
 21
-2181.736948652841
 31
-0.0000000000562575
  0
LINE
  5
C759
  8
01
 10
861.21106916064559
 20
-2178.2369473319031
 30
-0.0000000000563712
 11
860.48766916064517
 21
-2178.2369473319031
 31
-0.0000000000563712
  0
LINE
  5
C75A
  8
01
 10
861.21106916064559
 20
-2185.2369473319031
 30
-0.0000000000563712
 11
860.48766916064505
 21
-2185.2369473319031
 31
-0.0000000000563712
  0
LINE
  5
C75B
  8
01
 10
807.8876691606481
 20
-2195.7369486528328
 30
0.0
 11
807.8876691606481
 21
-2156.7369486528341
 31
0.0
  0
LINE
  5
C75C
  8
01
 10
814.18766916064806
 20
-2156.2369486528328
 30
0.0
 11
814.18766916064374
 21
-2196.2369486528341
 31
0.0
  0
LINE
  5
C75D
  8
01
 10
814.18766916064374
 20
-2196.2369486528341
 30
0.0
 11
808.38766916064799
 21
-2196.2369486528328
 31
0.0
  0
ARC
  5
C75E
  8
01
 10
808.38766916064799
 20
-2195.7369486528328
 30
0.0
 40
0.5
 50
180.0
 51
270.0
  0
LINE
  5
C75F
  8
01
 10
814.18766916064806
 20
-2156.2369486528328
 30
0.0
 11
808.38766916064799
 21
-2156.2369486528341
 31
0.0
  0
ARC
  5
C760
  8
01
 10
808.38766916064799
 20
-2156.7369486528341
 30
0.0
 40
0.5
 50
90.0
 51
180.0
  0
LINE
  5
C761
  8
01
 10
790.4132169874465
 20
-2181.736948652841
 30
0.0
 11
817.09175493160558
 21
-2181.736948652841
 31
0.0
  0
LINE
  5
C762
  8
01
 10
793.18728359492661
 20
-2192.7369536528331
 30
0.0
 11
807.8876691606481
 21
-2192.7369536528331
 31
0.0
  0
LINE
  5
C763
  8
01
 10
806.68730653913815
 20
-2171.2369536528331
 30
0.0
 11
806.68730653913337
 21
-2192.2369536528331
 31
0.0
  0
LINE
  5
C764
  8
01
 10
793.18728359492854
 20
-2170.736953652834
 30
0.0
 11
807.8876691606481
 21
-2170.7369536528331
 31
0.0
  0
ARC
  5
C765
  8
01
 10
793.18728359492854
 20
-2171.7369536528322
 30
0.0
 40
1.0
 50
90.0
 51
180.0
  0
LINE
  5
C766
  8
01
 10
792.18728359492661
 20
-2171.7369536528322
 30
0.0
 11
792.18728359492661
 21
-2191.7369536528308
 31
0.0
  0
ARC
  5
C767
  8
01
 10
793.18728359492661
 20
-2191.7369536528308
 30
0.0
 40
1.0
 50
180.0
 51
270.0
  0
ARC
  5
C768
  8
01
 10
807.18730653913349
 20
-2171.2369536528331
 30
0.0
 40
0.5
 50
90.0
 51
179.99999999997391
  0
ARC
  5
C769
  8
01
 10
807.18730653913349
 20
-2192.2369536528331
 30
0.0
 40
0.5
 50
179.99999999997391
 51
270.0
  0
ARC
  5
C76C
  8
01
 10
855.42601764952144
 20
-2181.7369473319031
 30
-0.0000000000563712
 40
6.7614215211269721
 50
328.82574397864511
 51
31.174256021354928
  0
LINE
  5
C76D
  8
01
 10
984.68766484386754
 20
-2156.236948856968
 30
0.0
 11
1023.687664843867
 21
-2156.236948856968
 31
0.0
  0
ARC
  5
C76E
  8
01
 10
1023.687664843867
 20
-2156.736948856968
 30
0.0
 40
0.5
 50
0.0
 51
90.0
  0
LINE
  5
C76F
  8
01
 10
984.68766484386708
 20
-2196.236948856968
 30
0.0
 11
1023.687664843867
 21
-2196.2369488569689
 31
0.0
  0
ARC
  5
C770
  8
01
 10
984.68766484386708
 20
-2195.7369488569689
 30
0.0
 40
0.5
 50
180.0
 51
270.0
  0
LINE
  5
C771
  8
01
 10
984.1876648438672
 20
-2195.7369488569689
 30
0.0
 11
984.18766484386742
 21
-2156.736948856968
 31
0.0
  0
ARC
  5
C772
  8
01
 10
984.68766484386754
 20
-2156.736948856968
 30
0.0
 40
0.5
 50
90.0
 51
180.0
  0
LINE
  5
C773
  8
01
 10
1024.187664843867
 20
-2195.7369488569698
 30
0.0
 11
1024.187664843867
 21
-2156.736948856968
 31
0.0
  0
ARC
  5
C774
  8
01
 10
1023.687664843867
 20
-2195.7369488569698
 30
0.0
 40
0.5
 50
270.0
 51
0.0
  0
CIRCLE
  5
C775
  8
01
 10
1004.187665166325
 20
-2174.3369586528402
 30
0.0
 40
2.5
  0
CIRCLE
  5
C776
  8
01
 10
1004.187665166325
 20
-2181.736948652841
 30
0.0
 40
3.75
  0
CIRCLE
  5
C777
  8
01
 10
1004.187665166325
 20
-2181.736948856968
 30
0.0
 40
3.5000004999999992
  0
LINE
  5
C778
  8
01
 10
1005.187665166325
 20
-2185.0910516569679
 30
0.0
 11
1005.187665166325
 21
-2178.3828448569689
 31
0.0
  0
LINE
  5
C779
  8
01
 10
1003.187665166325
 20
-2185.0910516569679
 30
0.0
 11
1003.187665166325
 21
-2178.3828448569689
 31
0.0
  0
LINE
  5
C77B
  8
01
 10
984.68778118361115
 20
-1988.0369486538691
 30
0.0
 11
1023.68778118361
 21
-1988.0369486538691
 31
0.0
  0
LINE
  5
C77C
  8
01
 10
984.18778118361115
 20
-1981.7369486538689
 30
0.0
 11
984.18778118361115
 21
-1987.5369486538691
 31
0.0
  0
LINE
  5
C77D
  8
01
 10
1024.18778118361
 20
-1981.7369486538689
 30
0.0
 11
1024.18778118361
 21
-1987.5369486538691
 31
0.0
  0
LINE
  5
C77E
  8
01
 10
1004.18778150607
 20
-1976.2910648583211
 30
0.0
 11
1004.18778150607
 21
-1998.7697136416859
 31
0.0
  0
ARC
  5
C77F
  8
01
 10
984.68778118361115
 20
-1987.5369486538691
 30
0.0
 40
0.5
 50
180.0
 51
270.0
  0
ARC
  5
C780
  8
01
 10
1023.68778118361
 20
-1987.5369486538691
 30
0.0
 40
0.5
 50
270.0
 51
0.0
  0
LINE
  5
C781
  8
01
 10
1005.187782827007
 20
-1989.4367234240949
 30
-0.0000000000001137
 11
1005.187782827008
 21
-1988.0369486538691
 31
-0.0000000000001137
  0
ARC
  5
C783
  8
01
 10
1004.18778282701
 20
-1983.886948653869
 30
-0.0000000000001137
 40
6.0
 50
283.18348148613762
 51
305.68533399996068
  0
LINE
  5
C785
  8
01
 10
1007.687782827007
 20
-1988.7603486538719
 30
-0.0000000000001137
 11
1007.687782827008
 21
-1988.0369486538691
 31
-0.0000000000001137
  0
LINE
  5
C786
  8
01
 10
1000.687782827007
 20
-1988.7603486538669
 30
-0.0000000000001137
 11
1000.687782827008
 21
-1988.0369486538691
 31
-0.0000000000001137
  0
ARC
  5
C787
  8
01
 10
1004.18778282701
 20
-1983.886948653869
 30
-0.0000000000001137
 40
6.0
 50
234.3146699999696
 51
256.81651851379132
  0
LINE
  5
C788
  8
01
 10
1003.187782827007
 20
-1989.436723424094
 30
-0.0000000000001137
 11
1003.187782827008
 21
-1988.0369486538691
 31
-0.0000000000001137
  0
LINE
  5
C78A
  8
01
 10
984.68778118361115
 20
-1935.436948653869
 30
0.0
 11
1023.68778118361
 21
-1935.436948653869
 31
0.0
  0
LINE
  5
C78B
  8
01
 10
984.18778118361115
 20
-1941.7369486538689
 30
0.0
 11
984.18778118361115
 21
-1935.936948653869
 31
0.0
  0
LINE
  5
C78C
  8
01
 10
1024.18778118361
 20
-1941.7369486538689
 30
0.0
 11
1024.18778118361
 21
-1935.936948653869
 31
0.0
  0
LINE
  5
C78D
  8
01
 10
1004.18778150607
 20
-1947.182832449417
 30
0.0
 11
1004.18778150607
 21
-1916.0180354689669
 31
0.0
  0
ARC
  5
C78E
  8
01
 10
984.68778118361115
 20
-1935.936948653869
 30
0.0
 40
0.5
 50
90.0
 51
180.0
  0
ARC
  5
C78F
  8
01
 10
1023.68778118361
 20
-1935.936948653869
 30
0.0
 40
0.5
 50
0.0
 51
90.0
  0
ARC
  5
C790
  8
01
 10
1007.6877815060629
 20
-1933.2369715980769
 30
0.0
 40
1.0
 50
180.0
 51
270.00000000001302
  0
LINE
  5
C791
  8
01
 10
1007.687781506064
 20
-1934.2369715980781
 30
0.0
 11
1014.687786506062
 21
-1934.236971598076
 31
0.0
  0
ARC
  5
C792
  8
01
 10
1014.687786506062
 20
-1934.736971598076
 30
0.0
 40
0.5
 50
0.0
 51
90.000000000013017
  0
ARC
  5
C793
  8
01
 10
1000.687781506061
 20
-1933.2369715980749
 30
0.0
 40
1.0
 50
270.0
 51
0.0
  0
ARC
  5
C794
  8
01
 10
993.68778650606225
 20
-1934.7369715980749
 30
0.0
 40
0.5
 50
90.0
 51
180.0
  0
LINE
  5
C795
  8
01
 10
1001.687781506062
 20
-1920.736948653873
 30
0.0
 11
1001.687781506062
 21
-1933.2369715980749
 31
0.0
  0
ARC
  5
C796
  8
01
 10
1002.687781506061
 20
-1920.736948653871
 30
0.0
 40
1.0
 50
90.0
 51
179.9999999999479
  0
LINE
  5
C797
  8
01
 10
1002.687781506062
 20
-1919.7369486538689
 30
0.0
 11
1005.687781506061
 21
-1919.7369486538689
 31
0.0
  0
ARC
  5
C798
  8
01
 10
1005.687781506061
 20
-1920.736948653871
 30
0.0
 40
1.0
 50
0.0
 51
90.0
  0
LINE
  5
C799
  8
01
 10
1006.687781506062
 20
-1920.736948653871
 30
0.0
 11
1006.687781506064
 21
-1933.2369715980769
 31
0.0
  0
LINE
  5
C79A
  8
01
 10
993.68778650606225
 20
-1934.236971598076
 30
0.0
 11
1000.687781506062
 21
-1934.236971598076
 31
0.0
  0
LINE
  5
C79B
  8
01
 10
993.18778650606237
 20
-1934.7369715980749
 30
0.0
 11
993.18778650606237
 21
-1935.136948653869
 31
0.0
  0
LINE
  5
C79C
  8
01
 10
1015.187786506062
 20
-1934.736971598076
 30
0.0
 11
1015.187786506062
 21
-1935.436948653869
 31
0.0
  0
LINE
  5
CA17
  8
01
 10
1022.187665166325
 20
-2205.2369486528401
 30
0.0
 11
1022.187665166325
 21
-2247.736948652841
 31
0.0
  0
LINE
  5
CA21
  8
01
 10
977.68766516632513
 20
-2247.736948652841
 30
0.0
 11
1022.187665166325
 21
-2247.736948652841
 31
0.0
  0
LINE
  5
CAAF
  8
01
 10
993.18778650606237
 20
-1935.136948653869
 30
0.0
 11
993.18778650606225
 21
-1935.436948653869
 31
0.0
  0
ARC
  5
CCB7
  8
01
 10
1005.487782827007
 20
-1989.4367234240949
 30
-0.0000000000001137
 40
0.3
 50
179.99999999995649
 51
283.18348148614649
  0
ARC
  5
CCB8
  8
01
 10
1002.887782827007
 20
-1989.4367234240931
 30
-0.0000000000001137
 40
0.3
 50
256.81651851379002
 51
359.99999999995651
  0
LINE
  5
CDCC
  8
01
 10
1022.187665166325
 20
-2173.2369486528401
 30
0.0
 11
1022.187665166325
 21
-2196.2369488569689
 31
0.0
  0
LINE
  5
CDCD
  8
01
 10
1001.187665166325
 20
-2173.2369486528401
 30
0.0
 11
1007.187665166325
 21
-2173.2369486528401
 31
0.0
  0
LINE
  5
CDCE
  8
01
 10
1014.187665166325
 20
-2173.2369486528401
 30
0.0
 11
1022.187665166325
 21
-2173.2369486528401
 31
0.0
  0
LINE
  5
CDCF
  8
01
 10
1001.187665166325
 20
-2174.2369486528401
 30
0.0
 11
1001.187665166325
 21
-2173.2369486528401
 31
0.0
  0
LINE
  5
CDD0
  8
01
 10
1007.187665166325
 20
-2174.236948652841
 30
0.0
 11
1007.187665166325
 21
-2173.2369486528401
 31
0.0
  0
ARC
  5
CDD1
  8
01
 10
997.68766516632479
 20
-2174.236948652841
 30
0.0
 40
3.5
 50
179.99999999997391
 51
0.0
  0
ARC
  5
CDD2
  8
01
 10
1010.687665166325
 20
-2174.236948652841
 30
0.0
 40
3.5
 50
180.0
 51
0.0
  0
CIRCLE
  5
CDD3
  8
01
 10
1004.187665166036
 20
-2181.7369486531302
 30
0.0
 40
6.0
  0
LINE
  5
CDD4
  8
01
 10
994.18766516632479
 20
-2173.2369486528401
 30
0.0
 11
984.1876648438672
 21
-2173.236948652841
 31
0.0
  0
LINE
  5
CDD5
  8
01
  6
BYBLOCK
 10
984.1876648438672
 20
-2173.2369486528401
 30
0.0
 11
956.18766516632513
 21
-2173.2369486528401
 31
0.0
  0
LINE
  5
CDD6
  8
01
 10
994.18766516632456
 20
-2174.2369486528401
 30
0.0
 11
994.18766516632479
 21
-2173.2369486528401
 31
0.0
  0
LINE
  5
CDD7
  8
01
 10
1014.187665166325
 20
-2174.236948652841
 30
0.0
 11
1014.187665166325
 21
-2173.2369486528401
 31
0.0
  0
LINE
  5
CDD8
  8
01
  6
BYBLOCK
 10
684.18767316632284
 20
-2173.2369486528401
 30
0.0
 11
712.1876731663242
 21
-2173.2369486528401
 31
0.0
  0
LINE
  5
CDD9
  8
01
  6
BYBLOCK
 10
1010.188549348096
 20
-1951.4869486538689
 30
0.0
 11
998.18854934809622
 21
-1951.4869486538689
 31
0.0
  0
LINE
  5
CDDA
  8
01
  6
BYBLOCK
 10
998.18854934809622
 20
-1971.9869486538689
 30
0.0
 11
1010.188549348096
 21
-1971.9869486538689
 31
0.0
  0
LINE
  5
CDDB
  8
01
  6
BYBLOCK
 10
998.18854934809622
 20
-1971.9869486538689
 30
0.0
 11
998.18854934809622
 21
-1971.2369486538689
 31
0.0
  0
LINE
  5
CDDC
  8
01
  6
BYBLOCK
 10
998.18854934809622
 20
-1952.2369486538689
 30
0.0
 11
998.18854934809622
 21
-1951.4869486538689
 31
0.0
  0
LINE
  5
CDDD
  8
01
  6
BYBLOCK
 10
1010.188549348096
 20
-1971.9869486538689
 30
0.0
 11
1010.188549348096
 21
-1971.2369486538689
 31
0.0
  0
LINE
  5
CDDE
  8
01
  6
BYBLOCK
 10
1010.188549348096
 20
-1952.2369486538689
 30
0.0
 11
1010.188549348096
 21
-1951.4869486538689
 31
0.0
  0
LINE
  5
CFF2
  8
01
 10
1030.1876651663249
 20
-2205.2369486528419
 30
0.0
 11
978.18766516632832
 21
-2205.2369486528419
 31
0.0
  0
LINE
  5
CFF3
  8
01
 10
978.18766516632832
 20
-2258.2369486528428
 30
0.0
 11
1030.1876651663249
 21
-2258.2369486528428
 31
0.0
  0
LINE
  5
CFF4
  8
01
 10
977.68766516632832
 20
-2205.7369486528419
 30
0.0
 11
977.68766516632832
 21
-2257.7369486528419
 31
0.0
  0
ARC
  5
CFF5
  8
01
 10
978.18766516632832
 20
-2257.7369486528419
 30
0.0
 40
0.5
 50
180.0
 51
270.0
  0
ARC
  5
CFF6
  8
01
 10
978.18766516632832
 20
-2205.7369486528419
 30
0.0
 40
0.5
 50
90.0
 51
180.0
  0
LINE
  5
CFF7
  8
01
 10
1030.6876651663249
 20
-2205.7369486528419
 30
0.0
 11
1030.6876651663249
 21
-2219.7369486528401
 31
0.0
  0
ARC
  5
CFF8
  8
01
 10
1030.1876651663249
 20
-2257.7369486528419
 30
0.0
 40
0.5
 50
270.0
 51
0.0
  0
ARC
  5
CFF9
  8
01
 10
1030.1876651663249
 20
-2205.7369486528419
 30
0.0
 40
0.5
 50
0.0
 51
90.0
  0
LINE
  5
CFFA
  8
01
 10
977.68766516632832
 20
-1981.7369486538689
 30
0.0
 11
1030.6876651663249
 21
-1981.7369486538689
 31
0.0
  0
LINE
  5
CFFB
  8
01
 10
978.18766516632832
 20
-1990.2369486538689
 30
0.0
 11
1030.1876651663249
 21
-1990.2369486538689
 31
0.0
  0
LINE
  5
CFFC
  8
01
 10
1030.6876651663249
 20
-1981.7369486538689
 30
0.0
 11
1030.6876651663249
 21
-1989.7369486538689
 31
0.0
  0
LINE
  5
CFFD
  8
01
 10
977.68766516632832
 20
-1981.7369486538689
 30
0.0
 11
977.68766516632832
 21
-1989.7369486538689
 31
0.0
  0
ARC
  5
CFFE
  8
01
 10
978.18766516632832
 20
-1989.7369486538689
 30
0.0
 40
0.5
 50
180.0
 51
270.0
  0
ARC
  5
CFFF
  8
01
 10
1030.1876651663249
 20
-1989.7369486538689
 30
0.0
 40
0.5
 50
270.0
 51
0.0
  0
LINE
  5
D0A6
  8
01
 10
977.68766516632832
 20
-1941.7369486538689
 30
0.0
 11
1030.6876651663249
 21
-1941.7369486538689
 31
0.0
  0
LINE
  5
D0A7
  8
01
 10
978.18766516632832
 20
-1933.2369486538689
 30
0.0
 11
1001.687781506062
 21
-1933.2369486538689
 31
0.0
  0
LINE
  5
D0A8
  8
01
 10
1030.6876651663249
 20
-1941.7369486538689
 30
0.0
 11
1030.6876651663249
 21
-1933.7369486538689
 31
0.0
  0
LINE
  5
D0A9
  8
01
 10
977.68766516632832
 20
-1941.7369486538689
 30
0.0
 11
977.68766516632832
 21
-1933.7369486538689
 31
0.0
  0
ARC
  5
D0AA
  8
01
 10
978.18766516632832
 20
-1933.7369486538689
 30
0.0
 40
0.5
 50
90.000000000000028
 51
180.0
  0
ARC
  5
D0AB
  8
01
 10
1030.1876651663249
 20
-1933.7369486538689
 30
0.0
 40
0.5
 50
0.0
 51
90.000000000000028
  0
LINE
  5
D0AC
  8
01
 10
638.1876731663242
 20
-2205.2369486528419
 30
0.0
 11
690.18767316632056
 21
-2205.2369486528419
 31
0.0
  0
LINE
  5
D0AD
  8
01
 10
690.18767316632056
 20
-2258.2369486528428
 30
0.0
 11
638.1876731663242
 21
-2258.2369486528428
 31
0.0
  0
LINE
  5
D0AE
  8
01
 10
690.68767316632056
 20
-2205.7369486528419
 30
0.0
 11
690.68767316632056
 21
-2257.7369486528419
 31
0.0
  0
ARC
  5
D0AF
  8
01
 10
690.18767316632056
 20
-2257.7369486528419
 30
0.0
 40
0.5
 50
270.0
 51
0.000000000000007
  0
ARC
  5
D0B0
  8
01
 10
690.18767316632056
 20
-2205.7369486528419
 30
0.0
 40
0.5
 50
0.000000000000007
 51
90.0
  0
LINE
  5
D0B1
  8
01
 10
637.6876731663242
 20
-2205.7369486528419
 30
0.0
 11
637.68767316632432
 21
-2219.7369486528401
 31
0.0
  0
ARC
  5
D0B2
  8
01
 10
638.1876731663242
 20
-2257.7369486528419
 30
0.0
 40
0.5
 50
180.0
 51
270.0
  0
ARC
  5
D0B3
  8
01
 10
638.1876731663242
 20
-2205.7369486528419
 30
0.0
 40
0.5
 50
90.0
 51
180.0
  0
LINE
  5
D0B4
  8
01
 10
1030.6876651663249
 20
-2243.736948652841
 30
0.0
 11
1030.6876651663249
 21
-2257.7369486528419
 31
0.0
  0
LINE
  5
D0B5
  8
01
 10
637.68767316632432
 20
-2243.736948652841
 30
0.0
 11
637.6876731663242
 21
-2257.7369486528419
 31
0.0
  0
LINE
  5
D0B6
  8
01
 10
1006.687781506064
 20
-1933.2369486538689
 30
0.0
 11
1030.1876651663249
 21
-1933.2369486538689
 31
0.0
  0
LINE
  5
D120
  8
01
 10
978.18766516632832
 20
-2205.2369486528419
 30
0.0
 11
967.88766516632427
 21
-2205.2369486528419
 31
0.0
  0
LINE
  5
D121
  8
01
 10
978.18766516632832
 20
-2258.2369486528428
 30
0.0
 11
967.88766516632427
 21
-2258.2369486528428
 31
0.0
  0
LINE
  5
D122
  8
01
 10
969.18766516632434
 20
-2207.8369486528418
 30
0.0
 11
969.18766516632434
 21
-2255.636948652842
 31
0.0
  0
TEXT
  5
D126
  8
01
 10
1053.0598844115259
 20
-1998.1175179440511
 30
0.0
 40
4.5499999999999989
  1
材質：亜鉛ダイキャスト
  0
TEXT
  5
D127
  8
01
 10
1053.0598844115259
 20
-2005.700851277385
 30
0.0
 40
4.5499999999999989
  1
仕上げ：各種メッキ
  0
SOLID
  5
D128
  8
01
 10
1038.262824668238
 20
-2020.5082596547329
 30
0.0
 11
1036.245656835406
 21
-2022.2049657907401
 31
0.0
 12
1037.6035054980291
 22
-2019.945756905491
 32
0.0
 13
1037.6035054980291
 23
-2019.945756905491
 33
0.0
1001
ACAD
1000
DSTYLE
1002
{
1070
    40
1040
1.3
1002
}
  0
LINE
  5
D12A
  8
01
 10
1010.188549348096
 20
-1951.4869486538689
 30
0.0
 11
1045.3489401080981
 21
-1951.4869486538689
 31
0.0
  0
LINE
  5
D12B
  8
01
 10
1010.188549348096
 20
-1971.9869486538689
 30
0.0
 11
1045.3489401080981
 21
-1971.9869486538689
 31
0.0
  0
LINE
  5
D12C
  8
01
 10
1044.0489401080979
 20
-1954.0869486538691
 30
0.0
 11
1044.0489401080979
 21
-1969.386948653869
 31
0.0
  0
TEXT
  5
D130
  8
01
 10
914.58415959267495
 20
-2012.1536153205359
 30
0.0
 40
4.5499999999999989
  1
材質：亜鉛ダイキャスト
  0
TEXT
  5
D131
  8
01
 10
930.96415959267495
 20
-2019.7369486538689
 30
0.0
 40
4.5499999999999989
  1
仕上げ：クローム
  0
SOLID
  5
D132
  8
01
 10
1001.610520805609
 20
-2000.890936793779
 30
0.0
 11
1003.928266406386
 21
-1999.635614879744
 31
0.0
 12
1002.142935783176
 22
-2001.574782831111
 32
0.0
 13
1002.142935783176
 23
-2001.574782831111
 33
0.0
1001
ACAD
1000
DSTYLE
1002
{
1070
    40
1040
1.3
1002
}
  0
LINE
  5
D134
  8
01
 10
1022.187665166325
 20
-2173.2369486528401
 30
0.0
 11
1050.4876651663251
 21
-2173.236948652841
 31
0.0
  0
LINE
  5
D135
  8
01
 10
1022.187665166325
 20
-2247.736948652841
 30
0.0
 11
1050.4876651663251
 21
-2247.736948652841
 31
0.0
  0
LINE
  5
D136
  8
01
 10
1049.1876651663249
 20
-2175.8369486528409
 30
0.0
 11
1049.1876651663249
 21
-2245.1369486528411
 31
0.0
  0
LINE
  5
D13A
  8
01
 10
984.18767316632454
 20
-2156.7369488569689
 30
0.0
 11
984.18767316632454
 21
-2147.4369488569678
 31
0.0
  0
LINE
  5
D13B
  8
01
 10
1024.187673166324
 20
-2156.736948856968
 30
0.0
 11
1024.187673166324
 21
-2147.4369488569678
 31
0.0
  0
LINE
  5
D13C
  8
01
 10
986.78767316632457
 20
-2148.736948856968
 30
0.0
 11
1021.587673166324
 21
-2148.736948856968
 31
0.0
  0
LINE
  5
D140
  8
01
 10
644.18767316632307
 20
-2156.7369486528419
 30
0.0
 11
644.18767316632307
 21
-2147.4369486528399
 31
0.0
  0
LINE
  5
D141
  8
01
 10
684.18767316632261
 20
-2156.736948652841
 30
0.0
 11
684.18767316632261
 21
-2147.4369486528399
 31
0.0
  0
LINE
  5
D142
  8
01
 10
646.78767316632297
 20
-2148.736948652841
 30
0.0
 11
681.58767316632259
 21
-2148.736948652841
 31
0.0
  0
LINE
  5
D146
  8
01
 10
854.18766916632444
 20
-2139.2395686528398
 30
0.0
 11
854.18766916632444
 21
-2124.4369486528399
 31
0.0
  0
LINE
  5
D147
  8
01
 10
862.18743917064819
 20
-2181.7369473319031
 30
0.0
 11
862.18743917064819
 21
-2124.4369486528399
 31
0.0
  0
LINE
  5
D148
  8
01
 10
856.78766916632435
 20
-2125.736948652841
 30
0.0
 11
859.58743917064817
 21
-2125.736948652841
 31
0.0
  0
LINE
  5
D14C
  8
01
 10
814.18766916632433
 20
-2139.2395686528398
 30
0.0
 11
814.18766916632433
 21
-2124.4369486528399
 31
0.0
  0
LINE
  5
D14D
  8
01
 10
792.18728359492866
 20
-2171.7369536528322
 30
0.0
 11
792.18728359492866
 21
-2124.4369486528399
 31
0.0
  0
LINE
  5
D14E
  8
01
 10
811.58766916632442
 20
-2125.736948652841
 30
0.0
 11
794.78728359492857
 21
-2125.736948652841
 31
0.0
  0
LINE
  5
D152
  8
01
 10
1134.1877814399661
 20
-1981.7369486538689
 30
0.0
 11
1155.4877814399649
 21
-1981.7369486538689
 31
0.0
  0
LINE
  5
D153
  8
01
 10
1119.1877814399661
 20
-2027.936948653869
 30
0.0
 11
1155.4877814399649
 21
-2027.936948653869
 31
0.0
  0
LINE
  5
D154
  8
01
 10
1154.1877814399661
 20
-1984.3369486538691
 30
0.0
 11
1154.1877814399661
 21
-2025.3369486538691
 31
0.0
  0
LINE
  5
D158
  8
01
 10
1106.9429294373131
 20
-1981.7369486538689
 30
0.0
 11
1145.4877814399661
 21
-1981.7369486538689
 31
0.0
  0
LINE
  5
D159
  8
01
 10
1128.6877814399661
 20
-2009.936948653869
 30
0.0
 11
1145.4877814399661
 21
-2009.936948653869
 31
0.0
  0
LINE
  5
D15A
  8
01
 10
1144.1877814399661
 20
-1984.3369486538691
 30
0.0
 11
1144.1877814399661
 21
-2007.3369486538691
 31
0.0
  0
LINE
  5
D15E
  8
01
 10
1129.1877814399661
 20
-2037.936948653869
 30
0.0
 11
1129.1877814399661
 21
-2054.2369486538691
 31
0.0
  0
LINE
  5
D15F
  8
01
 10
992.18778143996497
 20
-2027.436948653869
 30
0.0
 11
992.18778143996497
 21
-2054.2369486538691
 31
0.0
  0
LINE
  5
D160
  8
01
 10
1126.587781439966
 20
-2052.936948653869
 30
0.0
 11
994.78778143996499
 21
-2052.936948653869
 31
0.0
  0
LINE
  5
D164
  8
01
 10
1004.187781439966
 20
-2001.528158540716
 30
0.0
 11
1004.187781439966
 21
-2044.2369486538689
 31
0.0
  0
LINE
  5
D165
  8
01
 10
1129.1877814399661
 20
-2017.936948653869
 30
0.0
 11
1129.1877814399661
 21
-2044.2369486538689
 31
0.0
  0
LINE
  5
D166
  8
01
 10
1006.787781439966
 20
-2042.936948653869
 30
0.0
 11
1126.587781439966
 21
-2042.936948653869
 31
0.0
  0
LINE
  5
D16A
  8
01
 10
1128.687665166324
 20
-2219.7369486528401
 30
0.0
 11
1145.4876651663239
 21
-2219.7369486528401
 31
0.0
  0
LINE
  5
D16B
  8
01
 10
1128.687665166324
 20
-2243.736948652841
 30
0.0
 11
1145.4876651663239
 21
-2243.736948652841
 31
0.0
  0
LINE
  5
D16C
  8
01
 10
1144.187665166324
 20
-2222.3369486528409
 30
0.0
 11
1144.187665166324
 21
-2241.1369486528411
 31
0.0
  0
LINE
  5
D170
  8
01
 10
840.68766916632444
 20
-2145.736948652841
 30
0.0
 11
895.48766916632405
 21
-2145.736948652841
 31
0.0
  0
LINE
  5
D171
  8
01
 10
840.68766916632444
 20
-2275.7369486528401
 30
0.0
 11
895.48766916632405
 21
-2275.7369486528401
 31
0.0
  0
LINE
  5
D172
  8
01
 10
894.1876691663241
 20
-2148.33694865284
 30
0.0
 11
894.1876691663241
 21
-2273.1369486528411
 31
0.0
  0
LINE
  5
D176
  8
01
 10
840.68766916632444
 20
-2153.736948652841
 30
0.0
 11
879.99126020288088
 21
-2153.736948652841
 31
0.0
  0
LINE
  5
D177
  8
01
 10
840.68766916632444
 20
-2267.7369486528401
 30
0.0
 11
879.99126020288088
 21
-2267.7369486528401
 31
0.0
  0
LINE
  5
D178
  8
01
 10
878.69126020288093
 20
-2156.3369486528409
 30
0.0
 11
878.69126020288093
 21
-2265.1369486528411
 31
0.0
  0
LINE
  5
D17C
  8
01
 10
634.18767316632398
 20
-2231.736948652841
 30
0.0
 11
596.70268516632427
 21
-2231.736948652841
 31
0.0
  0
LINE
  5
D17D
  8
01
 10
641.6876651663232
 20
-2176.236948652841
 30
0.0
 11
596.70268516632427
 21
-2176.236948652841
 31
0.0
  0
LINE
  5
D17E
  8
01
 10
598.00268516632434
 20
-2229.1369486528411
 30
0.0
 11
598.00268516632434
 21
-2178.8369486528409
 31
0.0
  0
LINE
  5
D182
  8
01
 10
634.18767316632398
 20
-2231.736948652841
 30
0.0
 11
606.70268516632439
 21
-2231.736948652841
 31
0.0
  0
LINE
  5
D183
  8
01
 10
651.18766516632331
 20
-2181.736948652841
 30
0.0
 11
606.70268516632439
 21
-2181.736948652841
 31
0.0
  0
LINE
  5
D184
  8
01
 10
608.00268516632434
 20
-2229.1369486528411
 30
0.0
 11
608.00268516632434
 21
-2184.3369486528409
 31
0.0
  0
LINE
  5
D188
  8
01
 10
800.9867072720009
 20
-2230.986948652841
 30
0.0
 11
799.68766916632444
 21
-2230.236948652841
 31
0.0
  0
LINE
  5
D189
  8
01
 10
799.68766916632444
 20
-2230.236948652841
 30
0.0
 11
798.38863106064764
 21
-2230.986948652841
 31
0.0
  0
LINE
  5
D18A
  8
01
 10
798.38863106064764
 20
-2230.986948652841
 30
0.0
 11
798.38863106064764
 21
-2232.486948652841
 31
0.0
  0
LINE
  5
D18B
  8
01
 10
798.38863106064764
 20
-2232.486948652841
 30
0.0
 11
799.68766916632444
 21
-2233.236948652841
 31
0.0
  0
LINE
  5
D18C
  8
01
 10
799.68766916632444
 20
-2233.236948652841
 30
0.0
 11
800.9867072720009
 21
-2232.486948652841
 31
0.0
  0
LINE
  5
D18D
  8
01
 10
800.9867072720009
 20
-2232.486948652841
 30
0.0
 11
800.9867072720009
 21
-2230.986948652841
 31
0.0
  0
CIRCLE
  5
D18E
  8
01
 10
799.68766916632444
 20
-2231.736948652841
 30
0.0
 40
3.0
  0
CIRCLE
  5
D18F
  8
01
 10
868.68766916632433
 20
-2231.736948652841
 30
0.0
 40
3.0
  0
LINE
  5
D190
  8
01
 10
953.18766516632502
 20
-2145.736948652841
 30
0.0
 11
953.18766516632502
 21
-2124.4369486528399
 31
0.0
  0
LINE
  5
D191
  8
01
 10
1004.187665166325
 20
-2201.2065845620041
 30
0.0
 11
1004.187665166325
 21
-2124.4369486528399
 31
0.0
  0
LINE
  5
D192
  8
01
 10
955.78766516632493
 20
-2125.736948652841
 30
0.0
 11
1001.587665166325
 21
-2125.736948652841
 31
0.0
  0
LINE
  5
D196
  8
01
 10
1022.187665166325
 20
-2173.736948652841
 30
0.0
 11
1022.187665166325
 21
-2114.4369486528408
 31
0.0
  0
LINE
  5
D197
  8
01
 10
953.18766516632502
 20
-2145.736948652841
 30
0.0
 11
953.18766516632502
 21
-2114.4369486528408
 31
0.0
  0
LINE
  5
D198
  8
01
 10
1019.587665166325
 20
-2115.736948652841
 30
0.0
 11
955.78766516632493
 21
-2115.736948652841
 31
0.0
  0
LINE
  5
D19C
  8
01
 10
942.18766516632479
 20
-2203.7369493509718
 30
0.0
 11
942.18766516632479
 21
-2124.4369486528399
 31
0.0
  0
LINE
  5
D19D
  8
01
 10
953.18766516632502
 20
-2145.736948652841
 30
0.0
 11
953.18766516632502
 21
-2124.4369486528399
 31
0.0
  0
LINE
  5
D19E
  8
01
 10
944.78766516632481
 20
-2125.736948652841
 30
0.0
 11
950.58766516632477
 21
-2125.736948652841
 31
0.0
  0
LINE
  5
D1A2
  8
01
 10
821.68766916632444
 20
-2151.736948652841
 30
0.0
 11
821.68766916632444
 21
-2124.4369486528399
 31
0.0
  0
LINE
  5
D1A3
  8
01
 10
846.68766916632444
 20
-2151.736948652841
 30
0.0
 11
846.68766916632444
 21
-2124.4369486528399
 31
0.0
  0
LINE
  5
D1A4
  8
01
 10
824.28766916632435
 20
-2125.736948652841
 30
0.0
 11
844.08766916632453
 21
-2125.736948652841
 31
0.0
  0
TEXT
  5
D1A8
  8
01
 10
829.85433583299107
 20
-2124.8269486528411
 30
0.0
 40
4.5499999999999989
  1
25
  0
LINE
  5
D1A9
  8
01
  6
BYBLOCK
 10
844.08766916632453
 20
-2125.0402807588412
 30
0.0
 11
846.68766916632444
 21
-2125.736948652841
 31
0.0
  0
LINE
  5
D1AA
  8
01
  6
BYBLOCK
 10
846.68766916632444
 20
-2125.736948652841
 30
0.0
 11
844.08766916632453
 21
-2126.4336165468399
 31
0.0
  0
LINE
  5
D1AB
  8
01
  6
BYBLOCK
 10
846.68766916632444
 20
-2125.736948652841
 30
0.0
 11
844.08766916632453
 21
-2125.736948652841
 31
0.0
  0
LINE
  5
D1AC
  8
01
  6
BYBLOCK
 10
824.28766916632435
 20
-2126.4336165468399
 30
0.0
 11
821.68766916632444
 21
-2125.736948652841
 31
0.0
  0
LINE
  5
D1AD
  8
01
  6
BYBLOCK
 10
821.68766916632444
 20
-2125.736948652841
 30
0.0
 11
824.28766916632435
 21
-2125.0402807588412
 31
0.0
  0
LINE
  5
D1AE
  8
01
  6
BYBLOCK
 10
821.68766916632444
 20
-2125.736948652841
 30
0.0
 11
824.28766916632435
 21
-2125.736948652841
 31
0.0
  0
TEXT
  5
D1AF
  8
01
 10
943.67933183299158
 20
-2124.8269486528411
 30
0.0
 40
4.5499999999999989
  1
11
  0
LINE
  5
D1B0
  8
01
  6
BYBLOCK
 10
950.58766516632477
 20
-2125.0402807588412
 30
0.0
 11
953.18766516632502
 21
-2125.736948652841
 31
0.0
  0
LINE
  5
D1B1
  8
01
  6
BYBLOCK
 10
953.18766516632502
 20
-2125.736948652841
 30
0.0
 11
950.58766516632477
 21
-2126.4336165468399
 31
0.0
  0
LINE
  5
D1B2
  8
01
  6
BYBLOCK
 10
953.18766516632502
 20
-2125.736948652841
 30
0.0
 11
950.58766516632477
 21
-2125.736948652841
 31
0.0
  0
LINE
  5
D1B3
  8
01
  6
BYBLOCK
 10
944.78766516632481
 20
-2126.4336165468399
 30
0.0
 11
942.18766516632479
 21
-2125.736948652841
 31
0.0
  0
LINE
  5
D1B4
  8
01
  6
BYBLOCK
 10
942.18766516632479
 20
-2125.736948652841
 30
0.0
 11
944.78766516632481
 21
-2125.0402807588412
 31
0.0
  0
LINE
  5
D1B5
  8
01
  6
BYBLOCK
 10
942.18766516632479
 20
-2125.736948652841
 30
0.0
 11
944.78766516632481
 21
-2125.736948652841
 31
0.0
  0
TEXT
  5
D1B6
  8
01
 10
983.35433183299153
 20
-2114.8269486528411
 30
0.0
 40
4.5499999999999989
  1
69
  0
LINE
  5
D1B7
  8
01
  6
BYBLOCK
 10
955.78766516632493
 20
-2116.4336165468399
 30
0.0
 11
953.18766516632502
 21
-2115.736948652841
 31
0.0
  0
LINE
  5
D1B8
  8
01
  6
BYBLOCK
 10
953.18766516632502
 20
-2115.736948652841
 30
0.0
 11
955.78766516632493
 21
-2115.0402807588412
 31
0.0
  0
LINE
  5
D1B9
  8
01
  6
BYBLOCK
 10
953.18766516632502
 20
-2115.736948652841
 30
0.0
 11
955.78766516632493
 21
-2115.736948652841
 31
0.0
  0
LINE
  5
D1BA
  8
01
  6
BYBLOCK
 10
1019.587665166325
 20
-2115.0402807588412
 30
0.0
 11
1022.187665166325
 21
-2115.736948652841
 31
0.0
  0
LINE
  5
D1BB
  8
01
  6
BYBLOCK
 10
1022.187665166325
 20
-2115.736948652841
 30
0.0
 11
1019.587665166325
 21
-2116.4336165468399
 31
0.0
  0
LINE
  5
D1BC
  8
01
  6
BYBLOCK
 10
1022.187665166325
 20
-2115.736948652841
 30
0.0
 11
1019.587665166325
 21
-2115.736948652841
 31
0.0
  0
TEXT
  5
D1BD
  8
01
 10
975.00433183299162
 20
-2124.8269486528411
 30
0.0
 40
4.5499999999999989
  1
51
  0
LINE
  5
D1BE
  8
01
  6
BYBLOCK
 10
1001.587665166325
 20
-2125.0402807588412
 30
0.0
 11
1004.187665166325
 21
-2125.736948652841
 31
0.0
  0
LINE
  5
D1BF
  8
01
  6
BYBLOCK
 10
1004.187665166325
 20
-2125.736948652841
 30
0.0
 11
1001.587665166325
 21
-2126.4336165468399
 31
0.0
  0
LINE
  5
D1C0
  8
01
  6
BYBLOCK
 10
1004.187665166325
 20
-2125.736948652841
 30
0.0
 11
1001.587665166325
 21
-2125.736948652841
 31
0.0
  0
LINE
  5
D1C1
  8
01
  6
BYBLOCK
 10
955.78766516632493
 20
-2126.4336165468399
 30
0.0
 11
953.18766516632502
 21
-2125.736948652841
 31
0.0
  0
LINE
  5
D1C2
  8
01
  6
BYBLOCK
 10
953.18766516632502
 20
-2125.736948652841
 30
0.0
 11
955.78766516632493
 21
-2125.0402807588412
 31
0.0
  0
LINE
  5
D1C3
  8
01
  6
BYBLOCK
 10
953.18766516632502
 20
-2125.736948652841
 30
0.0
 11
955.78766516632493
 21
-2125.736948652841
 31
0.0
  0
TEXT
  5
D1C4
  8
01
 10
607.09268516632471
 20
-2211.070281986174
 30
0.0
 40
4.5499999999999989
  1
50
 50
90.0
  0
LINE
  5
D1C5
  8
01
  6
BYBLOCK
 10
607.30601727232431
 20
-2184.3369486528409
 30
0.0
 11
608.00268516632434
 21
-2181.736948652841
 31
0.0
  0
LINE
  5
D1C6
  8
01
  6
BYBLOCK
 10
608.00268516632434
 20
-2181.736948652841
 30
0.0
 11
608.69935306032426
 21
-2184.3369486528409
 31
0.0
  0
LINE
  5
D1C7
  8
01
  6
BYBLOCK
 10
608.00268516632434
 20
-2181.736948652841
 30
0.0
 11
608.00268516632434
 21
-2184.3369486528409
 31
0.0
  0
LINE
  5
D1C8
  8
01
  6
BYBLOCK
 10
608.69935306032426
 20
-2229.1369486528411
 30
0.0
 11
608.00268516632434
 21
-2231.736948652841
 31
0.0
  0
LINE
  5
D1C9
  8
01
  6
BYBLOCK
 10
608.00268516632434
 20
-2231.736948652841
 30
0.0
 11
607.30601727232431
 21
-2229.1369486528411
 31
0.0
  0
LINE
  5
D1CA
  8
01
  6
BYBLOCK
 10
608.00268516632434
 20
-2231.736948652841
 30
0.0
 11
608.00268516632434
 21
-2229.1369486528411
 31
0.0
  0
TEXT
  5
D1CB
  8
01
 10
597.0926851663246
 20
-2211.570281986174
 30
0.0
 40
4.5499999999999989
  1
55.5
 50
90.0
  0
LINE
  5
D1CC
  8
01
  6
BYBLOCK
 10
597.30601727232431
 20
-2178.8369486528409
 30
0.0
 11
598.00268516632434
 21
-2176.236948652841
 31
0.0
  0
LINE
  5
D1CD
  8
01
  6
BYBLOCK
 10
598.00268516632434
 20
-2176.236948652841
 30
0.0
 11
598.69935306032437
 21
-2178.8369486528409
 31
0.0
  0
LINE
  5
D1CE
  8
01
  6
BYBLOCK
 10
598.00268516632434
 20
-2176.236948652841
 30
0.0
 11
598.00268516632434
 21
-2178.8369486528409
 31
0.0
  0
LINE
  5
D1CF
  8
01
  6
BYBLOCK
 10
598.69935306032437
 20
-2229.1369486528411
 30
0.0
 11
598.00268516632434
 21
-2231.736948652841
 31
0.0
  0
LINE
  5
D1D0
  8
01
  6
BYBLOCK
 10
598.00268516632434
 20
-2231.736948652841
 30
0.0
 11
597.30601727232431
 21
-2229.1369486528411
 31
0.0
  0
LINE
  5
D1D1
  8
01
  6
BYBLOCK
 10
598.00268516632434
 20
-2231.736948652841
 30
0.0
 11
598.00268516632434
 21
-2229.1369486528411
 31
0.0
  0
TEXT
  5
D1D2
  8
01
 10
877.7812602028813
 20
-2199.856561305859
 30
0.0
 40
4.5499999999999989
  1
114
 50
90.0
  0
LINE
  5
D1D3
  8
01
  6
BYBLOCK
 10
879.38792809688096
 20
-2265.1369486528411
 30
0.0
 11
878.69126020288093
 21
-2267.7369486528401
 31
0.0
  0
LINE
  5
D1D4
  8
01
  6
BYBLOCK
 10
878.69126020288093
 20
-2267.7369486528401
 30
0.0
 11
877.99459230888078
 21
-2265.1369486528411
 31
0.0
  0
LINE
  5
D1D5
  8
01
  6
BYBLOCK
 10
878.69126020288093
 20
-2267.7369486528401
 30
0.0
 11
878.69126020288093
 21
-2265.1369486528411
 31
0.0
  0
LINE
  5
D1D6
  8
01
  6
BYBLOCK
 10
877.99459230888078
 20
-2156.3369486528409
 30
0.0
 11
878.69126020288093
 21
-2153.736948652841
 31
0.0
  0
LINE
  5
D1D7
  8
01
  6
BYBLOCK
 10
878.69126020288093
 20
-2153.736948652841
 30
0.0
 11
879.38792809688096
 21
-2156.3369486528409
 31
0.0
  0
LINE
  5
D1D8
  8
01
  6
BYBLOCK
 10
878.69126020288093
 20
-2153.736948652841
 30
0.0
 11
878.69126020288093
 21
-2156.3369486528409
 31
0.0
  0
TEXT
  5
D1D9
  8
01
 10
893.27766916632436
 20
-2199.7482279725259
 30
0.0
 40
4.5499999999999989
  1
130
 50
90.0
  0
LINE
  5
D1DA
  8
01
  6
BYBLOCK
 10
894.88433706032401
 20
-2273.1369486528411
 30
0.0
 11
894.1876691663241
 21
-2275.7369486528401
 31
0.0
  0
LINE
  5
D1DB
  8
01
  6
BYBLOCK
 10
894.1876691663241
 20
-2275.7369486528401
 30
0.0
 11
893.49100127232407
 21
-2273.1369486528411
 31
0.0
  0
LINE
  5
D1DC
  8
01
  6
BYBLOCK
 10
894.1876691663241
 20
-2275.7369486528401
 30
0.0
 11
894.1876691663241
 21
-2273.1369486528411
 31
0.0
  0
LINE
  5
D1DD
  8
01
  6
BYBLOCK
 10
893.49100127232407
 20
-2148.33694865284
 30
0.0
 11
894.1876691663241
 21
-2145.736948652841
 31
0.0
  0
LINE
  5
D1DE
  8
01
  6
BYBLOCK
 10
894.1876691663241
 20
-2145.736948652841
 30
0.0
 11
894.88433706032401
 21
-2148.33694865284
 31
0.0
  0
LINE
  5
D1DF
  8
01
  6
BYBLOCK
 10
894.1876691663241
 20
-2145.736948652841
 30
0.0
 11
894.1876691663241
 21
-2148.33694865284
 31
0.0
  0
TEXT
  5
D1E0
  8
01
 10
1143.2776651663251
 20
-2236.1786153195071
 30
0.0
 40
4.5499999999999989
  1
24
 50
90.0
  0
LINE
  5
D1E1
  8
01
  6
BYBLOCK
 10
1144.8843330603249
 20
-2241.1369486528411
 30
0.0
 11
1144.187665166324
 21
-2243.736948652841
 31
0.0
  0
LINE
  5
D1E2
  8
01
  6
BYBLOCK
 10
1144.187665166324
 20
-2243.736948652841
 30
0.0
 11
1143.4909972723251
 21
-2241.1369486528411
 31
0.0
  0
LINE
  5
D1E3
  8
01
  6
BYBLOCK
 10
1144.187665166324
 20
-2243.736948652841
 30
0.0
 11
1144.187665166324
 21
-2241.1369486528411
 31
0.0
  0
LINE
  5
D1E4
  8
01
  6
BYBLOCK
 10
1143.4909972723251
 20
-2222.3369486528409
 30
0.0
 11
1144.187665166324
 21
-2219.7369486528401
 31
0.0
  0
LINE
  5
D1E5
  8
01
  6
BYBLOCK
 10
1144.187665166324
 20
-2219.7369486528401
 30
0.0
 11
1144.8843330603249
 21
-2222.3369486528409
 31
0.0
  0
LINE
  5
D1E6
  8
01
  6
BYBLOCK
 10
1144.187665166324
 20
-2219.7369486528401
 30
0.0
 11
1144.187665166324
 21
-2222.3369486528409
 31
0.0
  0
TEXT
  5
D1E7
  8
01
 10
1059.8627814399661
 20
-2042.02694865387
 30
0.0
 40
4.5499999999999989
  1
125
  0
LINE
  5
D1E8
  8
01
  6
BYBLOCK
 10
1126.587781439966
 20
-2042.2402807598701
 30
0.0
 11
1129.1877814399661
 21
-2042.936948653869
 31
0.0
  0
LINE
  5
D1E9
  8
01
  6
BYBLOCK
 10
1129.1877814399661
 20
-2042.936948653869
 30
0.0
 11
1126.587781439966
 21
-2043.633616547869
 31
0.0
  0
LINE
  5
D1EA
  8
01
  6
BYBLOCK
 10
1129.1877814399661
 20
-2042.936948653869
 30
0.0
 11
1126.587781439966
 21
-2042.936948653869
 31
0.0
  0
LINE
  5
D1EB
  8
01
  6
BYBLOCK
 10
1006.787781439966
 20
-2043.633616547869
 30
0.0
 11
1004.187781439966
 21
-2042.936948653869
 31
0.0
  0
LINE
  5
D1EC
  8
01
  6
BYBLOCK
 10
1004.187781439966
 20
-2042.936948653869
 30
0.0
 11
1006.787781439966
 21
-2042.2402807598701
 31
0.0
  0
LINE
  5
D1ED
  8
01
  6
BYBLOCK
 10
1004.187781439966
 20
-2042.936948653869
 30
0.0
 11
1006.787781439966
 21
-2042.936948653869
 31
0.0
  0
TEXT
  5
D1EE
  8
01
 10
1053.8627814399649
 20
-2052.0269486538691
 30
0.0
 40
4.5499999999999989
  1
137
  0
LINE
  5
D1EF
  8
01
  6
BYBLOCK
 10
994.78778143996499
 20
-2053.6336165478692
 30
0.0
 11
992.18778143996497
 21
-2052.936948653869
 31
0.0
  0
LINE
  5
D1F0
  8
01
  6
BYBLOCK
 10
992.18778143996497
 20
-2052.936948653869
 30
0.0
 11
994.78778143996499
 21
-2052.2402807598692
 31
0.0
  0
LINE
  5
D1F1
  8
01
  6
BYBLOCK
 10
992.18778143996497
 20
-2052.936948653869
 30
0.0
 11
994.78778143996499
 21
-2052.936948653869
 31
0.0
  0
LINE
  5
D1F2
  8
01
  6
BYBLOCK
 10
1126.587781439966
 20
-2052.2402807598692
 30
0.0
 11
1129.1877814399661
 21
-2052.936948653869
 31
0.0
  0
LINE
  5
D1F3
  8
01
  6
BYBLOCK
 10
1129.1877814399661
 20
-2052.936948653869
 30
0.0
 11
1126.587781439966
 21
-2053.6336165478692
 31
0.0
  0
LINE
  5
D1F4
  8
01
  6
BYBLOCK
 10
1129.1877814399661
 20
-2052.936948653869
 30
0.0
 11
1126.587781439966
 21
-2052.936948653869
 31
0.0
  0
TEXT
  5
D1F5
  8
01
 10
1143.277781439966
 20
-2000.170281987203
 30
0.0
 40
4.5499999999999989
  1
28
 50
90.0
  0
LINE
  5
D1F6
  8
01
  6
BYBLOCK
 10
1144.8844493339659
 20
-2007.3369486538691
 30
0.0
 11
1144.1877814399661
 21
-2009.936948653869
 31
0.0
  0
LINE
  5
D1F7
  8
01
  6
BYBLOCK
 10
1144.1877814399661
 20
-2009.936948653869
 30
0.0
 11
1143.4911135459661
 21
-2007.3369486538691
 31
0.0
  0
LINE
  5
D1F8
  8
01
  6
BYBLOCK
 10
1144.1877814399661
 20
-2009.936948653869
 30
0.0
 11
1144.1877814399661
 21
-2007.3369486538691
 31
0.0
  0
LINE
  5
D1F9
  8
01
  6
BYBLOCK
 10
1143.4911135459661
 20
-1984.3369486538691
 30
0.0
 11
1144.1877814399661
 21
-1981.7369486538689
 31
0.0
  0
LINE
  5
D1FA
  8
01
  6
BYBLOCK
 10
1144.1877814399661
 20
-1981.7369486538689
 30
0.0
 11
1144.8844493339659
 21
-1984.3369486538691
 31
0.0
  0
LINE
  5
D1FB
  8
01
  6
BYBLOCK
 10
1144.1877814399661
 20
-1981.7369486538689
 30
0.0
 11
1144.1877814399661
 21
-1984.3369486538691
 31
0.0
  0
TEXT
  5
D1FC
  8
01
 10
1153.277781439966
 20
-2009.170281987203
 30
0.0
 40
4.5499999999999989
  1
46
 50
90.0
  0
LINE
  5
D1FD
  8
01
  6
BYBLOCK
 10
1154.8844493339659
 20
-2025.3369486538691
 30
0.0
 11
1154.1877814399661
 21
-2027.936948653869
 31
0.0
  0
LINE
  5
D1FE
  8
01
  6
BYBLOCK
 10
1154.1877814399661
 20
-2027.936948653869
 30
0.0
 11
1153.4911135459661
 21
-2025.3369486538691
 31
0.0
  0
LINE
  5
D1FF
  8
01
  6
BYBLOCK
 10
1154.1877814399661
 20
-2027.936948653869
 30
0.0
 11
1154.1877814399661
 21
-2025.3369486538691
 31
0.0
  0
LINE
  5
D200
  8
01
  6
BYBLOCK
 10
1153.4911135459661
 20
-1984.3369486538691
 30
0.0
 11
1154.1877814399661
 21
-1981.7369486538689
 31
0.0
  0
LINE
  5
D201
  8
01
  6
BYBLOCK
 10
1154.1877814399661
 20
-1981.7369486538689
 30
0.0
 11
1154.8844493339659
 21
-1984.3369486538691
 31
0.0
  0
LINE
  5
D202
  8
01
  6
BYBLOCK
 10
1154.1877814399661
 20
-1981.7369486538689
 30
0.0
 11
1154.1877814399661
 21
-1984.3369486538691
 31
0.0
  0
TEXT
  5
D203
  8
01
 10
798.99930077117438
 20
-2124.8269486528411
 30
0.0
 40
4.5499999999999989
  1
22
  0
LINE
  5
D204
  8
01
  6
BYBLOCK
 10
794.78728359492857
 20
-2126.4336165468399
 30
0.0
 11
792.18728359492866
 21
-2125.736948652841
 31
0.0
  0
LINE
  5
D205
  8
01
  6
BYBLOCK
 10
792.18728359492866
 20
-2125.736948652841
 30
0.0
 11
794.78728359492857
 21
-2125.0402807588412
 31
0.0
  0
LINE
  5
D206
  8
01
  6
BYBLOCK
 10
792.18728359492866
 20
-2125.736948652841
 30
0.0
 11
794.78728359492857
 21
-2125.736948652841
 31
0.0
  0
LINE
  5
D207
  8
01
  6
BYBLOCK
 10
811.58766916632442
 20
-2125.0402807588412
 30
0.0
 11
814.18766916632433
 21
-2125.736948652841
 31
0.0
  0
LINE
  5
D208
  8
01
  6
BYBLOCK
 10
814.18766916632433
 20
-2125.736948652841
 30
0.0
 11
811.58766916632442
 21
-2126.4336165468399
 31
0.0
  0
LINE
  5
D209
  8
01
  6
BYBLOCK
 10
814.18766916632433
 20
-2125.736948652841
 30
0.0
 11
811.58766916632442
 21
-2125.736948652841
 31
0.0
  0
TEXT
  5
D20A
  8
01
 10
856.02088750181974
 20
-2124.8269486528411
 30
0.0
 40
4.5499999999999989
  1
8
  0
LINE
  5
D20B
  8
01
  6
BYBLOCK
 10
859.58743917064817
 20
-2125.0402807588412
 30
0.0
 11
862.18743917064819
 21
-2125.736948652841
 31
0.0
  0
LINE
  5
D20C
  8
01
  6
BYBLOCK
 10
862.18743917064819
 20
-2125.736948652841
 30
0.0
 11
859.58743917064817
 21
-2126.4336165468399
 31
0.0
  0
LINE
  5
D20D
  8
01
  6
BYBLOCK
 10
862.18743917064819
 20
-2125.736948652841
 30
0.0
 11
859.58743917064817
 21
-2125.736948652841
 31
0.0
  0
LINE
  5
D20E
  8
01
  6
BYBLOCK
 10
856.78766916632435
 20
-2126.4336165468399
 30
0.0
 11
854.18766916632444
 21
-2125.736948652841
 31
0.0
  0
LINE
  5
D20F
  8
01
  6
BYBLOCK
 10
854.18766916632444
 20
-2125.736948652841
 30
0.0
 11
856.78766916632435
 21
-2125.0402807588412
 31
0.0
  0
LINE
  5
D210
  8
01
  6
BYBLOCK
 10
854.18766916632444
 20
-2125.736948652841
 30
0.0
 11
856.78766916632435
 21
-2125.736948652841
 31
0.0
  0
TEXT
  5
D211
  8
01
 10
657.1460064996561
 20
-2147.8269486528411
 30
0.0
 40
4.5499999999999989
  1
□40
  0
LINE
  5
D212
  8
01
  6
BYBLOCK
 10
681.58767316632259
 20
-2148.0402807588412
 30
0.0
 11
684.18767316632261
 21
-2148.736948652841
 31
0.0
  0
LINE
  5
D213
  8
01
  6
BYBLOCK
 10
684.18767316632261
 20
-2148.736948652841
 30
0.0
 11
681.58767316632259
 21
-2149.4336165468399
 31
0.0
  0
LINE
  5
D214
  8
01
  6
BYBLOCK
 10
684.18767316632261
 20
-2148.736948652841
 30
0.0
 11
681.58767316632259
 21
-2148.736948652841
 31
0.0
  0
LINE
  5
D215
  8
01
  6
BYBLOCK
 10
646.78767316632297
 20
-2149.4336165468399
 30
0.0
 11
644.18767316632307
 21
-2148.736948652841
 31
0.0
  0
LINE
  5
D216
  8
01
  6
BYBLOCK
 10
644.18767316632307
 20
-2148.736948652841
 30
0.0
 11
646.78767316632297
 21
-2148.0402807588412
 31
0.0
  0
LINE
  5
D217
  8
01
  6
BYBLOCK
 10
644.18767316632307
 20
-2148.736948652841
 30
0.0
 11
646.78767316632297
 21
-2148.736948652841
 31
0.0
  0
TEXT
  5
D218
  8
01
 10
997.14600649965769
 20
-2147.8269488569681
 30
0.0
 40
4.5499999999999989
  1
□40
  0
LINE
  5
D219
  8
01
  6
BYBLOCK
 10
1021.587673166324
 20
-2148.0402809629682
 30
0.0
 11
1024.187673166324
 21
-2148.736948856968
 31
0.0
  0
LINE
  5
D21A
  8
01
  6
BYBLOCK
 10
1024.187673166324
 20
-2148.736948856968
 30
0.0
 11
1021.587673166324
 21
-2149.4336167509682
 31
0.0
  0
LINE
  5
D21B
  8
01
  6
BYBLOCK
 10
1024.187673166324
 20
-2148.736948856968
 30
0.0
 11
1021.587673166324
 21
-2148.736948856968
 31
0.0
  0
LINE
  5
D21C
  8
01
  6
BYBLOCK
 10
986.78767316632457
 20
-2149.4336167509682
 30
0.0
 11
984.18767316632454
 21
-2148.736948856968
 31
0.0
  0
LINE
  5
D21D
  8
01
  6
BYBLOCK
 10
984.18767316632454
 20
-2148.736948856968
 30
0.0
 11
986.78767316632457
 21
-2148.0402809629682
 31
0.0
  0
LINE
  5
D21E
  8
01
  6
BYBLOCK
 10
984.18767316632454
 20
-2148.736948856968
 30
0.0
 11
986.78767316632457
 21
-2148.736948856968
 31
0.0
  0
TEXT
  5
D21F
  8
01
 10
1048.2776651663251
 20
-2218.070281986174
 30
0.0
 40
4.5499999999999989
  1
74.5
 50
90.0
  0
LINE
  5
D220
  8
01
  6
BYBLOCK
 10
1049.8843330603249
 20
-2245.1369486528411
 30
0.0
 11
1049.1876651663249
 21
-2247.736948652841
 31
0.0
  0
LINE
  5
D221
  8
01
  6
BYBLOCK
 10
1049.1876651663249
 20
-2247.736948652841
 30
0.0
 11
1048.4909972723251
 21
-2245.1369486528411
 31
0.0
  0
LINE
  5
D222
  8
01
  6
BYBLOCK
 10
1049.1876651663249
 20
-2247.736948652841
 30
0.0
 11
1049.1876651663249
 21
-2245.1369486528411
 31
0.0
  0
LINE
  5
D223
  8
01
  6
BYBLOCK
 10
1048.4909972723251
 20
-2175.8369486528409
 30
0.0
 11
1049.1876651663249
 21
-2173.236948652841
 31
0.0
  0
LINE
  5
D224
  8
01
  6
BYBLOCK
 10
1049.1876651663249
 20
-2173.236948652841
 30
0.0
 11
1049.8843330603249
 21
-2175.8369486528409
 31
0.0
  0
LINE
  5
D225
  8
01
  6
BYBLOCK
 10
1049.1876651663249
 20
-2173.236948652841
 30
0.0
 11
1049.1876651663249
 21
-2175.8369486528409
 31
0.0
  0
LINE
  5
D226
  8
01
 10
1001.876728294393
 20
-2001.232859812445
 30
0.0
 11
976.94082625934175
 21
-2020.646948653869
 31
0.0
1001
ACAD
1000
DSTYLE
1002
{
1070
    40
1040
1.3
1002
}
  0
LINE
  5
D227
  8
01
 10
976.94082625934175
 20
-2020.646948653869
 30
0.0
 11
973.43082625934176
 21
-2020.646948653869
 31
0.0
1001
ACAD
1000
DSTYLE
1002
{
1070
    40
1040
1.3
1002
}
  0
TEXT
  5
D228
  8
01
 10
1043.138940108098
 20
-1969.320281987202
 30
0.0
 40
4.5499999999999989
  1
20.5
 50
90.0
  0
LINE
  5
D229
  8
01
  6
BYBLOCK
 10
1044.7456080020979
 20
-1969.386948653869
 30
0.0
 11
1044.0489401080979
 21
-1971.9869486538689
 31
0.0
  0
LINE
  5
D22A
  8
01
  6
BYBLOCK
 10
1044.0489401080979
 20
-1971.9869486538689
 30
0.0
 11
1043.3522722140981
 21
-1969.386948653869
 31
0.0
  0
LINE
  5
D22B
  8
01
  6
BYBLOCK
 10
1044.0489401080979
 20
-1971.9869486538689
 30
0.0
 11
1044.0489401080979
 21
-1969.386948653869
 31
0.0
  0
LINE
  5
D22C
  8
01
  6
BYBLOCK
 10
1043.3522722140981
 20
-1954.0869486538691
 30
0.0
 11
1044.0489401080979
 21
-1951.4869486538689
 31
0.0
  0
LINE
  5
D22D
  8
01
  6
BYBLOCK
 10
1044.0489401080979
 20
-1951.4869486538689
 30
0.0
 11
1044.7456080020979
 21
-1954.0869486538691
 31
0.0
  0
LINE
  5
D22E
  8
01
  6
BYBLOCK
 10
1044.0489401080979
 20
-1951.4869486538689
 30
0.0
 11
1044.0489401080979
 21
-1954.0869486538691
 31
0.0
  0
LINE
  5
D22F
  8
01
 10
1037.933165083133
 20
-2020.2270082801119
 30
0.0
 11
1049.5498844115259
 21
-2006.6108512773851
 31
0.0
1001
ACAD
1000
DSTYLE
1002
{
1070
    40
1040
1.3
1002
}
  0
LINE
  5
D230
  8
01
 10
1049.5498844115259
 20
-2006.6108512773851
 30
0.0
 11
1053.0598844115259
 21
-2006.6108512773851
 31
0.0
1001
ACAD
1000
DSTYLE
1002
{
1070
    40
1040
1.3
1002
}
  0
TEXT
  5
D231
  8
01
 10
968.2776651663246
 20
-2240.1183612816621
 30
0.0
 40
4.5499999999999989
  1
□53
 50
90.0
  0
LINE
  5
D232
  8
01
  6
BYBLOCK
 10
969.88433306032437
 20
-2255.636948652842
 30
0.0
 11
969.18766516632434
 21
-2258.2369486528428
 31
0.0
  0
LINE
  5
D233
  8
01
  6
BYBLOCK
 10
969.18766516632434
 20
-2258.2369486528428
 30
0.0
 11
968.49099727232431
 21
-2255.636948652842
 31
0.0
  0
LINE
  5
D234
  8
01
  6
BYBLOCK
 10
969.18766516632434
 20
-2258.2369486528428
 30
0.0
 11
969.18766516632434
 21
-2255.636948652842
 31
0.0
  0
LINE
  5
D235
  8
01
  6
BYBLOCK
 10
968.49099727232431
 20
-2207.8369486528418
 30
0.0
 11
969.18766516632434
 21
-2205.2369486528419
 31
0.0
  0
LINE
  5
D236
  8
01
  6
BYBLOCK
 10
969.18766516632434
 20
-2205.2369486528419
 30
0.0
 11
969.88433306032437
 21
-2207.8369486528418
 31
0.0
  0
LINE
  5
D237
  8
01
  6
BYBLOCK
 10
969.18766516632434
 20
-2205.2369486528419
 30
0.0
 11
969.18766516632434
 21
-2207.8369486528418
 31
0.0
  0
VIEWPORT
  5
57
 67
     1
  8
0
 10
100.6980855125524
 20
17.565658765306811
 30
0.0
 40
617.68101596514771
 41
283.71450055348311
 68
     1
 69
     1
1001
ACAD
1000
MVIEW
1002
{
1070
    16
1010
0.0
1020
0.0
1030
0.0
1010
0.0
1020
0.0
1030
1.0
1040
0.0
1040
283.71450055348311
1040
100.6980855125524
1040
17.565658765306811
1040
50.0
1040
0.0
1040
0.0
1070
     0
1070
   100
1070
     1
1070
     1
1070
     0
1070
     0
1070
     0
1070
     0
1040
0.0
1040
0.0
1040
0.0
1040
10.0
1040
10.0
1040
10.0
1040
10.0
1070
     0
1002
{
1002
}
1002
}
  0
ENDSEC
  0
EOF
