  0
SECTION
  2
HEADER
  9
$ACADVER
  1
AC1012
  9
$DWGCODEPAGE
  3
ansi_932
  9
$INSBASE
 10
0.0
 20
0.0
 30
0.0
  9
$EXTMIN
 10
1935.189098090814
 20
-736.4237019760807
 30
0.0
  9
$EXTMAX
 10
2542.089633185427
 20
-311.9221517990596
 30
0.0000000001127424
  9
$LIMMIN
 10
0.0
 20
0.0
  9
$LIMMAX
 10
420.0
 20
297.0
  9
$ORTHOMODE
 70
     0
  9
$REGENMODE
 70
     1
  9
$FILLMODE
 70
     1
  9
$QTEXTMODE
 70
     0
  9
$MIRRTEXT
 70
     0
  9
$DRAGMODE
 70
     2
  9
$LTSCALE
 40
0.5
  9
$OSMODE
 70
 14463
  9
$ATTMODE
 70
     1
  9
$TEXTSIZE
 40
4.0
  9
$TRACEWID
 40
1.0
  9
$TEXTSTYLE
  7
STANDARD
  9
$CLAYER
  8
1TEXT
  9
$CELTYPE
  6
BYLAYER
  9
$CECOLOR
 62
   256
  9
$CELTSCALE
 40
1.0
  9
$DELOBJ
 70
     1
  9
$DISPSILH
 70
     0
  9
$DIMSCALE
 40
1.0
  9
$DIMASZ
 40
2.0
  9
$DIMEXO
 40
0.0
  9
$DIMDLI
 40
7.0
  9
$DIMRND
 40
0.0
  9
$DIMDLE
 40
0.0
  9
$DIMEXE
 40
1.0
  9
$DIMTP
 40
0.0
  9
$DIMTM
 40
0.0
  9
$DIMTXT
 40
3.5
  9
$DIMCEN
 40
0.0
  9
$DIMTSZ
 40
0.0
  9
$DIMTOL
 70
     0
  9
$DIMLIM
 70
     0
  9
$DIMTIH
 70
     0
  9
$DIMTOH
 70
     0
  9
$DIMSE1
 70
     0
  9
$DIMSE2
 70
     0
  9
$DIMTAD
 70
     1
  9
$DIMZIN
 70
     8
  9
$DIMBLK
  1

  9
$DIMASO
 70
     1
  9
$DIMSHO
 70
     1
  9
$DIMPOST
  1
 
  9
$DIMAPOST
  1

  9
$DIMALT
 70
     0
  9
$DIMALTD
 70
     2
  9
$DIMALTF
 40
25.4
  9
$DIMLFAC
 40
1.0
  9
$DIMTOFL
 70
     1
  9
$DIMTVP
 40
0.0
  9
$DIMTIX
 70
     0
  9
$DIMSOXD
 70
     0
  9
$DIMSAH
 70
     1
  9
$DIMBLK1
  1
OPEN30
  9
$DIMBLK2
  1
OPEN30
  9
$DIMSTYLE
  2
NEWX10
  9
$DIMCLRD
 70
   256
  9
$DIMCLRE
 70
   256
  9
$DIMCLRT
 70
   201
  9
$DIMTFAC
 40
0.7
  9
$DIMGAP
 40
0.7
  9
$DIMJUST
 70
     0
  9
$DIMSD1
 70
     0
  9
$DIMSD2
 70
     0
  9
$DIMTOLJ
 70
     1
  9
$DIMTZIN
 70
     8
  9
$DIMALTZ
 70
     0
  9
$DIMALTTZ
 70
     0
  9
$DIMFIT
 70
     2
  9
$DIMUPT
 70
     0
  9
$DIMUNIT
 70
     2
  9
$DIMDEC
 70
     2
  9
$DIMTDEC
 70
     4
  9
$DIMALTU
 70
     2
  9
$DIMALTTD
 70
     2
  9
$DIMTXSTY
  7
STANDARD
  9
$DIMAUNIT
 70
     0
  9
$LUNITS
 70
     2
  9
$LUPREC
 70
     4
  9
$SKETCHINC
 40
1.0
  9
$FILLETRAD
 40
0.0
  9
$AUNITS
 70
     0
  9
$AUPREC
 70
     2
  9
$MENU
  1
acad
  9
$ELEVATION
 40
0.0
  9
$PELEVATION
 40
0.0
  9
$THICKNESS
 40
0.0
  9
$LIMCHECK
 70
     0
  9
$CHAMFERA
 40
10.0
  9
$CHAMFERB
 40
10.0
  9
$CHAMFERC
 40
20.0
  9
$CHAMFERD
 40
0.0
  9
$SKPOLY
 70
     0
  9
$TDCREATE
 40
2451318.621352917
  9
$TDUPDATE
 40
2458159.607772743
  9
$TDINDWG
 40
1.5280483218
  9
$TDUSRTIMER
 40
1.5280483218
  9
$USRTIMER
 70
     1
  9
$ANGBASE
 50
0.0
  9
$ANGDIR
 70
     0
  9
$PDMODE
 70
     0
  9
$PDSIZE
 40
0.0
  9
$PLINEWID
 40
0.0
  9
$COORDS
 70
     2
  9
$SPLFRAME
 70
     0
  9
$SPLINETYPE
 70
     6
  9
$SPLINESEGS
 70
     8
  9
$ATTDIA
 70
     0
  9
$ATTREQ
 70
     1
  9
$HANDLING
 70
     1
  9
$HANDSEED
  5
1B25F
  9
$SURFTAB1
 70
     6
  9
$SURFTAB2
 70
     6
  9
$SURFTYPE
 70
     6
  9
$SURFU
 70
     6
  9
$SURFV
 70
     6
  9
$UCSNAME
  2

  9
$UCSORG
 10
0.0
 20
0.0
 30
0.0
  9
$UCSXDIR
 10
1.0
 20
0.0
 30
0.0
  9
$UCSYDIR
 10
0.0
 20
1.0
 30
0.0
  9
$PUCSNAME
  2

  9
$PUCSORG
 10
0.0
 20
0.0
 30
0.0
  9
$PUCSXDIR
 10
1.0
 20
0.0
 30
0.0
  9
$PUCSYDIR
 10
0.0
 20
1.0
 30
0.0
  9
$USERI1
 70
     0
  9
$USERI2
 70
     0
  9
$USERI3
 70
     0
  9
$USERI4
 70
     0
  9
$USERI5
 70
     0
  9
$USERR1
 40
0.0
  9
$USERR2
 40
0.0
  9
$USERR3
 40
0.0
  9
$USERR4
 40
0.0
  9
$USERR5
 40
0.0
  9
$WORLDVIEW
 70
     1
  9
$SHADEDGE
 70
     3
  9
$SHADEDIF
 70
    70
  9
$TILEMODE
 70
     1
  9
$MAXACTVP
 70
    48
  9
$PINSBASE
 10
0.0
 20
0.0
 30
0.0
  9
$PLIMCHECK
 70
     0
  9
$PEXTMIN
 10
1.000000000000000E+20
 20
1.000000000000000E+20
 30
1.000000000000000E+20
  9
$PEXTMAX
 10
-1.000000000000000E+20
 20
-1.000000000000000E+20
 30
-1.000000000000000E+20
  9
$PLIMMIN
 10
0.0
 20
0.0
  9
$PLIMMAX
 10
420.0
 20
297.0
  9
$UNITMODE
 70
     0
  9
$VISRETAIN
 70
     1
  9
$PLINEGEN
 70
     0
  9
$PSLTSCALE
 70
     1
  9
$TREEDEPTH
 70
  3020
  9
$PICKSTYLE
 70
     1
  9
$CMLSTYLE
  2
STANDARD
  9
$CMLJUST
 70
     0
  9
$CMLSCALE
 40
20.0
  9
$SAVEIMAGES
 70
     1
  0
ENDSEC
  0
SECTION
  2
CLASSES
  0
CLASS
  1
DICTIONARYVAR
  2
AcDbDictionaryVar
  3
ObjectDBX Classes
 90
        0
280
     0
281
     0
  0
CLASS
  1
IDBUFFER
  2
AcDbIdBuffer
  3
ObjectDBX Classes
 90
    32768
280
     0
281
     0
  0
CLASS
  1
LWPOLYLINE
  2
AcDbPolyline
  3
ObjectDBX Classes
 90
    32768
280
     0
281
     1
  0
CLASS
  1
ACDBDICTIONARYWDFLT
  2
AcDbDictionaryWithDefault
  3
ObjectDBX Classes
 90
    32768
280
     0
281
     0
  0
CLASS
  1
ACDBPLACEHOLDER
  2
AcDbPlaceHolder
  3
ObjectDBX Classes
 90
        0
280
     0
281
     0
  0
CLASS
  1
LAYOUT
  2
AcDbLayout
  3
ObjectDBX Classes
 90
        0
280
     0
281
     0
  0
CLASS
  1
TABLESTYLE
  2
AcDbTableStyle
  3
ObjectDBX Classes
 90
     4095
280
     0
281
     0
  0
CLASS
  1
SORTENTSTABLE
  2
AcDbSortentsTable
  3
ObjectDBX Classes
 90
    32768
280
     0
281
     0
  0
CLASS
  1
MATERIAL
  2
AcDbMaterial
  3
ObjectDBX Classes
 90
     1153
280
     0
281
     0
  0
CLASS
  1
VISUALSTYLE
  2
AcDbVisualStyle
  3
ObjectDBX Classes
 90
     4095
280
     0
281
     0
  0
CLASS
  1
SCALE
  2
AcDbScale
  3
ObjectDBX Classes
 90
     1153
280
     0
281
     0
  0
CLASS
  1
MLEADERSTYLE
  2
AcDbMLeaderStyle
  3
ACDB_MLEADERSTYLE_CLASS
 90
     4095
280
     0
281
     0
  0
CLASS
  1
CELLSTYLEMAP
  2
AcDbCellStyleMap
  3
ObjectDBX Classes
 90
     1152
280
     0
281
     0
  0
CLASS
  1
SUN
  2
AcDbSun
  3
SCENEOE
 90
     1153
280
     0
281
     0
  0
CLASS
  1
XRECORD
  2
AcDbXrecord
  3
ObjectDBX Classes
 90
    32768
280
     0
281
     0
  0
CLASS
  1
HATCH
  2
AcDbHatch
  3
ObjectDBX Classes
 90
    32768
280
     0
281
     1
  0
ENDSEC
  0
SECTION
  2
TABLES
  0
TABLE
  2
VPORT
  5
8
330
0
100
AcDbSymbolTable
 70
     1
  0
VPORT
  5
D991
330
8
100
AcDbSymbolTableRecord
100
AcDbViewportTableRecord
  2
*ACTIVE
 70
     0
 10
0.0
 20
0.0
 11
1.0
 21
1.0
 12
2238.639365638121
 22
-524.1729268875702
 13
0.0
 23
0.0
 14
10.0
 24
10.0
 15
10.0
 25
10.0
 16
0.0
 26
0.0
 36
1.0
 17
0.0
 27
0.0
 37
0.0
 40
455.7806117690121
 41
1.871481028151775
 42
50.0
 43
0.0
 44
0.0
 50
0.0
 51
0.0
 71
    16
 72
   100
 73
     1
 74
     1
 75
     0
 76
     0
 77
     0
 78
     0
  0
ENDTAB
  0
TABLE
  2
LTYPE
  5
5
330
0
100
AcDbSymbolTable
 70
     3
  0
LTYPE
  5
12
330
5
100
AcDbSymbolTableRecord
100
AcDbLinetypeTableRecord
  2
BYBLOCK
 70
     0
  3

 72
    65
 73
     0
 40
0.0
  0
LTYPE
  5
13
330
5
100
AcDbSymbolTableRecord
100
AcDbLinetypeTableRecord
  2
BYLAYER
 70
     0
  3

 72
    65
 73
     0
 40
0.0
  0
LTYPE
  5
14
330
5
100
AcDbSymbolTableRecord
100
AcDbLinetypeTableRecord
  2
CONTINUOUS
 70
     0
  3
Solid line
 72
    65
 73
     0
 40
0.0
  0
LTYPE
  5
2C03
330
5
100
AcDbSymbolTableRecord
100
AcDbLinetypeTableRecord
  2
HIDDEN
 70
     0
  3
Hidden __ __ __ __ __ __ __ __ __ __ __ __ __ _
 72
    65
 73
     2
 40
9.524999999999999
 49
6.35
 74
     0
 49
-3.175
 74
     0
  0
LTYPE
  5
13839
330
5
100
AcDbSymbolTableRecord
100
AcDbLinetypeTableRecord
  2
CENTER2
 70
     0
  3
Center (.5x) ___ _ ___ _ ___ _ ___ _ ___ _ ___
 72
    65
 73
     4
 40
28.575
 49
19.05
 74
     0
 49
-3.175
 74
     0
 49
3.175
 74
     0
 49
-3.175
 74
     0
  0
ENDTAB
  0
TABLE
  2
LAYER
  5
2
102
{ACAD_XDICTIONARY
360
E6A6
102
}
330
0
100
AcDbSymbolTable
 70
     6
  0
LAYER
  5
E
102
{ACAD_XDICTIONARY
360
DA05
102
}
330
2
100
AcDbSymbolTableRecord
100
AcDbLayerTableRecord
  2
0
 70
     0
 62
     7
  6
CONTINUOUS
  0
LAYER
  5
29
102
{ACAD_XDICTIONARY
360
DA07
102
}
330
2
100
AcDbSymbolTableRecord
100
AcDbLayerTableRecord
  2
1CENTER
 70
     0
 62
     7
  6
CENTER2
  0
LAYER
  5
31
102
{ACAD_XDICTIONARY
360
DA09
102
}
330
2
100
AcDbSymbolTableRecord
100
AcDbLayerTableRecord
  2
1TEXT
 70
     0
 62
     7
  6
CONTINUOUS
  0
LAYER
  5
243
102
{ACAD_XDICTIONARY
360
DA0F
102
}
330
2
100
AcDbSymbolTableRecord
100
AcDbLayerTableRecord
  2
01
 70
     0
 62
     1
  6
CONTINUOUS
  0
LAYER
  5
24E
102
{ACAD_XDICTIONARY
360
DA15
102
}
330
2
100
AcDbSymbolTableRecord
100
AcDbLayerTableRecord
  2
1DIM
 70
     0
 62
     7
  6
CONTINUOUS
  0
LAYER
  5
2C05
102
{ACAD_XDICTIONARY
360
DA23
102
}
330
2
100
AcDbSymbolTableRecord
100
AcDbLayerTableRecord
  2
1HIDDEN
 70
     0
 62
     7
  6
HIDDEN
  0
ENDTAB
  0
TABLE
  2
STYLE
  5
3
330
0
100
AcDbSymbolTable
 70
     1
  0
STYLE
  5
F
330
3
100
AcDbSymbolTableRecord
100
AcDbTextStyleTableRecord
  2
STANDARD
 70
     0
 40
0.0
 41
1.0
 50
0.0
 71
     0
 42
4.0
  3
txt.shx
  4
extfont.shx
  0
ENDTAB
  0
TABLE
  2
VIEW
  5
6
330
0
100
AcDbSymbolTable
 70
     0
  0
ENDTAB
  0
TABLE
  2
UCS
  5
7
330
0
100
AcDbSymbolTable
 70
     0
  0
ENDTAB
  0
TABLE
  2
APPID
  5
9
330
0
100
AcDbSymbolTable
 70
    13
  0
APPID
  5
10
330
9
100
AcDbSymbolTableRecord
100
AcDbRegAppTableRecord
  2
ACAD
 70
     0
  0
APPID
  5
21
330
9
100
AcDbSymbolTableRecord
100
AcDbRegAppTableRecord
  2
DRAWINGVARIABLESXDATA
 70
     0
  0
APPID
  5
64
330
9
100
AcDbSymbolTableRecord
100
AcDbRegAppTableRecord
  2
CONTENTTABDATA
 70
     0
  0
APPID
  5
65
330
9
100
AcDbSymbolTableRecord
100
AcDbRegAppTableRecord
  2
CONTENTCURRENTTAB
 70
     0
  0
APPID
  5
66
330
9
100
AcDbSymbolTableRecord
100
AcDbRegAppTableRecord
  2
CONTENTBLOCKDESCRIPTION
 70
     0
  0
APPID
  5
67
330
9
100
AcDbSymbolTableRecord
100
AcDbRegAppTableRecord
  2
CONTENTBLOCKICON
 70
     0
  0
APPID
  5
68
330
9
100
AcDbSymbolTableRecord
100
AcDbRegAppTableRecord
  2
CONTENTLONGBLOCKNAME
 70
     0
  0
APPID
  5
2AE
330
9
100
AcDbSymbolTableRecord
100
AcDbRegAppTableRecord
  2
ACAD_PSEXT
 70
     0
  0
APPID
  5
D9E9
330
9
100
AcDbSymbolTableRecord
100
AcDbRegAppTableRecord
  2
ACAD_MLEADERVER
 70
     0
  0
APPID
  5
19D01
330
9
100
AcDbSymbolTableRecord
100
AcDbRegAppTableRecord
  2
ACADANNOTATIVE
 70
     0
  0
APPID
  5
19D02
330
9
100
AcDbSymbolTableRecord
100
AcDbRegAppTableRecord
  2
ACDBBLOCKREPETAG
 70
     0
  0
APPID
  5
1A613
330
9
100
AcDbSymbolTableRecord
100
AcDbRegAppTableRecord
  2
ACAD_OBJECT_CHANGE_GUID
 70
     0
  0
APPID
  5
1A82D
330
9
100
AcDbSymbolTableRecord
100
AcDbRegAppTableRecord
  2
ACAECLAYERSTANDARD
 70
     0
  0
ENDTAB
  0
TABLE
  2
DIMSTYLE
  5
A
330
0
100
AcDbSymbolTable
 70
     1
  0
DIMSTYLE
105
48
330
A
100
AcDbSymbolTableRecord
100
AcDbDimStyleTableRecord
  2
NEWX10
 70
     0
  3
 
  4

  5

  6
OPEN30
  7
OPEN30
 40
1.0
 41
2.0
 42
0.0
 43
7.0
 44
1.0
 45
0.0
 46
0.0
 47
0.0
 48
0.0
140
3.5
141
0.0
142
0.0
143
25.4
144
1.0
145
0.0
146
0.7
147
0.7
 71
     0
 72
     0
 73
     0
 74
     0
 75
     0
 76
     0
 77
     1
 78
     8
170
     0
171
     2
172
     1
173
     1
174
     0
175
     0
176
   256
177
   256
178
   201
179
     2
270
     2
271
     2
272
     4
273
     2
274
     2
340
F
275
     0
280
     0
281
     0
282
     0
283
     1
284
     8
285
     0
286
     0
287
     2
288
     0
  0
ENDTAB
  0
TABLE
  2
BLOCK_RECORD
  5
1
330
0
100
AcDbSymbolTable
 70
     8
  0
BLOCK_RECORD
  5
18
102
{ACAD_XDICTIONARY
360
88F
102
}
330
1
100
AcDbSymbolTableRecord
100
AcDbBlockTableRecord
  2
*MODEL_SPACE
  0
BLOCK_RECORD
  5
15
330
1
100
AcDbSymbolTableRecord
100
AcDbBlockTableRecord
  2
*PAPER_SPACE
  0
BLOCK_RECORD
  5
42
330
1
100
AcDbSymbolTableRecord
100
AcDbBlockTableRecord
  2
_OPEN30
  0
BLOCK_RECORD
  5
19D51
330
1
100
AcDbSymbolTableRecord
100
AcDbBlockTableRecord
  2
A3WAKUKAWAJUN2017_HYOUDAI_
  0
BLOCK_RECORD
  5
1B0BF
330
1
100
AcDbSymbolTableRecord
100
AcDbBlockTableRecord
  2
*X154
  0
BLOCK_RECORD
  5
1B10D
330
1
100
AcDbSymbolTableRecord
100
AcDbBlockTableRecord
  2
*X155
  0
BLOCK_RECORD
  5
1B15F
330
1
100
AcDbSymbolTableRecord
100
AcDbBlockTableRecord
  2
*X156
  0
BLOCK_RECORD
  5
1B1B0
330
1
100
AcDbSymbolTableRecord
100
AcDbBlockTableRecord
  2
*X157
  0
BLOCK_RECORD
  5
1B1ED
330
1
100
AcDbSymbolTableRecord
100
AcDbBlockTableRecord
  2
*X158
  0
BLOCK_RECORD
  5
1B22D
330
1
100
AcDbSymbolTableRecord
100
AcDbBlockTableRecord
  2
*X159
  0
ENDTAB
  0
ENDSEC
  0
SECTION
  2
BLOCKS
  0
BLOCK
  5
19
330
18
100
AcDbEntity
  8
0
100
AcDbBlockBegin
  2
*MODEL_SPACE
 70
     0
 10
0.0
 20
0.0
 30
0.0
  3
*MODEL_SPACE
  1

  0
ENDBLK
  5
1A
330
18
100
AcDbEntity
  8
0
100
AcDbBlockEnd
  0
BLOCK
  5
16
330
15
100
AcDbEntity
 67
     1
  8
0
100
AcDbBlockBegin
  2
*PAPER_SPACE
 70
     0
 10
0.0
 20
0.0
 30
0.0
  3
*PAPER_SPACE
  1

  0
ENDBLK
  5
17
330
15
100
AcDbEntity
 67
     1
  8
0
100
AcDbBlockEnd
  0
BLOCK
  5
43
330
42
100
AcDbEntity
  8
0
100
AcDbBlockBegin
  2
_OPEN30
 70
     0
 10
0.0
 20
0.0
 30
0.0
  3
_OPEN30
  1

  0
LINE
  5
44
330
42
100
AcDbEntity
  8
0
  6
BYBLOCK
 62
     0
100
AcDbLine
 10
-1.0
 20
0.26794919
 30
0.0
 11
0.0
 21
0.0
 31
0.0
  0
LINE
  5
45
330
42
100
AcDbEntity
  8
0
  6
BYBLOCK
 62
     0
100
AcDbLine
 10
0.0
 20
0.0
 30
0.0
 11
-1.0
 21
-0.26794919
 31
0.0
  0
LINE
  5
46
330
42
100
AcDbEntity
  8
0
  6
BYBLOCK
 62
     0
100
AcDbLine
 10
0.0
 20
0.0
 30
0.0
 11
-1.0
 21
0.0
 31
0.0
  0
ENDBLK
  5
47
330
42
100
AcDbEntity
  8
0
100
AcDbBlockEnd
  0
BLOCK
  5
1A474
330
19D51
100
AcDbEntity
  8
0
100
AcDbBlockBegin
  2
A3WAKUKAWAJUN2017_HYOUDAI_
 70
     0
 10
0.0
 20
0.0
 30
0.0
  3
A3WAKUKAWAJUN2017_HYOUDAI_
  1

  0
LINE
  5
19D53
330
19D51
100
AcDbEntity
  8
0
100
AcDbLine
 10
13.26299999998673
 20
-0.0001000000000317
 30
0.0
 11
9.236999999990758
 21
8.999899999990987
 31
0.0
1001
ACAD
1000
ASC_BOUNDS
1002
{
1070
    19
1005
19D94
1002
}
  0
LINE
  5
19D54
330
19D51
100
AcDbEntity
  8
0
100
AcDbLine
 10
5.657999999994331
 20
0.9999999999989768
 30
0.0
 11
9.236999999990758
 21
8.999999999991019
 31
0.0
1001
ACAD
1000
ASC_BOUNDS
1002
{
1070
    19
1005
19D94
1002
}
  0
LINE
  5
19D55
330
19D51
100
AcDbEntity
  8
0
100
AcDbLine
 10
18.59199999998134
 20
-0.2368999999997641
 30
0.0
 11
16.46099999998353
 21
5.432899999994561
 31
0.0
1001
ACAD
1000
ASC_BOUNDS
1002
{
1070
    19
1005
19D95
1002
}
  0
LINE
  5
19D56
330
19D51
100
AcDbEntity
  8
0
100
AcDbLine
 10
18.59199999998134
 20
-0.2368999999997641
 30
0.0
 11
22.38199999997767
 21
8.763099999991255
 31
0.0
1001
ACAD
1000
ASC_BOUNDS
1002
{
1070
    19
1005
19D95
1002
}
  0
LINE
  5
19D57
330
19D51
100
AcDbEntity
  8
0
100
AcDbLine
 10
14.32899999998563
 20
-0.2368999999997641
 30
0.0
 11
16.46099999998353
 21
5.432899999994561
 31
0.0
1001
ACAD
1000
ASC_BOUNDS
1002
{
1070
    19
1005
19D95
1002
}
  0
LINE
  5
19D58
330
19D51
100
AcDbEntity
  8
0
100
AcDbLine
 10
14.32899999998563
 20
-0.2368999999997641
 30
0.0
 11
10.53899999998941
 21
8.763099999991255
 31
0.0
1001
ACAD
1000
ASC_BOUNDS
1002
{
1070
    19
1005
19D95
1002
}
  0
LINE
  5
19D59
330
19D51
100
AcDbEntity
  8
0
100
AcDbLine
 10
19.53899999998043
 20
-0.0001000000000317
 30
0.0
 11
23.56599999997638
 21
8.999899999990987
 31
0.0
1001
ACAD
1000
ASC_BOUNDS
1002
{
1070
    19
1005
19D96
1002
}
  0
LINE
  5
19D5A
330
19D51
100
AcDbEntity
  8
0
100
AcDbLine
 10
26.97358892824991
 20
1.383099999991202
 30
0.0
 11
23.56599999997638
 21
8.999899999990987
 31
0.0
1001
ACAD
1000
ASC_BOUNDS
1002
{
1070
    19
1005
19D96
1002
}
  0
LINE
  5
19D5B
330
19D51
100
AcDbEntity
  8
0
100
AcDbLine
 10
5.657999999994331
 20
0.9999999999989768
 30
0.0
 11
3.181999999996833
 21
4.668599999995308
 31
0.0
1001
ACAD
1000
ASC_BOUNDS
1002
{
1070
    19
1005
19D94
1002
}
  0
LINE
  5
19D5C
330
19D51
100
AcDbEntity
  8
0
100
AcDbLine
 10
4.617999999995391
 20
-0.0001000000000317
 30
0.0
 11
1.420999999998571
 21
4.736799999995242
 31
0.0
1001
ACAD
1000
ASC_BOUNDS
1002
{
1070
    19
1005
19D94
1002
}
  0
LINE
  5
19D5D
330
19D51
100
AcDbEntity
  8
0
100
AcDbLine
 10
1.420999999998571
 20
8.763099999991255
 30
0.0
 11
1.420999999998571
 21
0.0
 31
0.0
1001
ACAD
1000
ASC_BOUNDS
1002
{
1070
    19
1005
19D99
1002
}
  0
LINE
  5
19D5E
330
19D51
100
AcDbEntity
  8
0
100
AcDbLine
 10
0.0
 20
8.763099999991255
 30
0.0
 11
0.0
 21
0.0
 31
0.0
1001
ACAD
1000
ASC_BOUNDS
1002
{
1070
    19
1005
19D99
1002
}
  0
LINE
  5
19D5F
330
19D51
100
AcDbEntity
  8
0
100
AcDbLine
 10
6.766999999993232
 20
-0.0001000000000317
 30
0.0
 11
7.826999999992154
 21
2.368399999997621
 31
0.0
1001
ACAD
1000
ASC_BOUNDS
1002
{
1070
    19
1005
19D94
1002
}
  0
LINE
  5
19D60
330
19D51
100
AcDbEntity
  8
0
100
AcDbLine
 10
0.0
 20
0.0
 30
0.0
 11
1.420999999998571
 21
0.0
 31
0.0
1001
ACAD
1000
ASC_BOUNDS
1002
{
1070
    19
1005
19D99
1002
}
  0
LINE
  5
19D61
330
19D51
100
AcDbEntity
  8
0
100
AcDbLine
 10
4.617999999995391
 20
0.0
 30
0.0
 11
6.766999999993232
 21
0.0
 31
0.0
1001
ACAD
1000
ASC_BOUNDS
1002
{
1070
    19
1005
19D94
1002
}
  0
LINE
  5
19D62
330
19D51
100
AcDbEntity
  8
0
100
AcDbLine
 10
11.70599999998831
 20
-0.0001000000000317
 30
0.0
 11
10.64699999998936
 21
2.368399999997621
 31
0.0
1001
ACAD
1000
ASC_BOUNDS
1002
{
1070
    19
1005
19D94
1002
}
  0
LINE
  5
19D63
330
19D51
100
AcDbEntity
  8
0
100
AcDbLine
 10
7.826999999992154
 20
2.368399999997621
 30
0.0
 11
10.64699999998936
 21
2.368399999997621
 31
0.0
1001
ACAD
1000
ASC_BOUNDS
1002
{
1070
    19
1005
19D94
1002
}
  0
LINE
  5
19D64
330
19D51
100
AcDbEntity
  8
0
100
AcDbLine
 10
11.70599999998831
 20
0.0
 30
0.0
 11
13.26299999998673
 21
0.0
 31
0.0
1001
ACAD
1000
ASC_BOUNDS
1002
{
1070
    19
1005
19D94
1002
}
  0
LINE
  5
19D65
330
19D51
100
AcDbEntity
  8
0
100
AcDbLine
 10
22.15599999997789
 20
2.368399999997621
 30
0.0
 11
24.97599999997499
 21
2.368399999997621
 31
0.0
1001
ACAD
1000
ASC_BOUNDS
1002
{
1070
    19
1005
19D96
1002
}
  0
LINE
  5
19D66
330
19D51
100
AcDbEntity
  8
0
100
AcDbLine
 10
19.53899999998043
 20
0.0
 30
0.0
 11
21.09599999997886
 21
0.0
 31
0.0
1001
ACAD
1000
ASC_BOUNDS
1002
{
1070
    19
1005
19D96
1002
}
  0
LINE
  5
19D67
330
19D51
100
AcDbEntity
  8
0
100
AcDbLine
 10
21.09599999997886
 20
-0.0001000000000317
 30
0.0
 11
22.15599999997789
 21
2.368399999997621
 31
0.0
1001
ACAD
1000
ASC_BOUNDS
1002
{
1070
    19
1005
19D96
1002
}
  0
LINE
  5
19D68
330
19D51
100
AcDbEntity
  8
0
100
AcDbLine
 10
26.02015566812236
 20
0.0330999999912365
 30
0.0
 11
24.97599999997499
 21
2.368399999997621
 31
0.0
1001
ACAD
1000
ASC_BOUNDS
1002
{
1070
    19
1005
19D96
1002
}
  0
LINE
  5
19D69
330
19D51
100
AcDbEntity
  8
0
100
AcDbLine
 10
14.32399999998563
 20
3.315799999996671
 30
0.0
 11
16.46099999998353
 21
8.999899999990987
 31
0.0
1001
ACAD
1000
ASC_BOUNDS
1002
{
1070
    19
1005
19D95
1002
}
  0
LINE
  5
19D6A
330
19D51
100
AcDbEntity
  8
0
100
AcDbLine
 10
6.432999999993513
 20
8.763099999991255
 30
0.0
 11
3.181999999996833
 21
4.668599999995308
 31
0.0
1001
ACAD
1000
ASC_BOUNDS
1002
{
1070
    19
1005
19D94
1002
}
  0
LINE
  5
19D6B
330
19D51
100
AcDbEntity
  8
0
100
AcDbLine
 10
4.617999999995391
 20
8.763099999991255
 30
0.0
 11
1.420999999998571
 21
4.736799999995242
 31
0.0
1001
ACAD
1000
ASC_BOUNDS
1002
{
1070
    19
1005
19D94
1002
}
  0
LINE
  5
19D6C
330
19D51
100
AcDbEntity
  8
0
100
AcDbLine
 10
0.0
 20
8.763099999991255
 30
0.0
 11
1.420999999998571
 21
8.763099999991255
 31
0.0
1001
ACAD
1000
ASC_BOUNDS
1002
{
1070
    19
1005
19D99
1002
}
  0
LINE
  5
19D6D
330
19D51
100
AcDbEntity
  8
0
100
AcDbLine
 10
4.617999999995391
 20
8.763099999991255
 30
0.0
 11
6.432999999993513
 21
8.763099999991255
 31
0.0
1001
ACAD
1000
ASC_BOUNDS
1002
{
1070
    19
1005
19D94
1002
}
  0
LINE
  5
19D6E
330
19D51
100
AcDbEntity
  8
0
100
AcDbLine
 10
14.32399999998563
 20
3.315799999996671
 30
0.0
 11
12.02999999998792
 21
8.763099999991255
 31
0.0
1001
ACAD
1000
ASC_BOUNDS
1002
{
1070
    19
1005
19D95
1002
}
  0
LINE
  5
19D6F
330
19D51
100
AcDbEntity
  8
0
100
AcDbLine
 10
10.06399999998996
 20
3.670999999996297
 30
0.0
 11
9.236999999990758
 21
5.5200999999945
 31
0.0
1001
ACAD
1000
ASC_BOUNDS
1002
{
1070
    19
1005
19D94
1002
}
  0
LINE
  5
19D70
330
19D51
100
AcDbEntity
  8
0
100
AcDbLine
 10
8.409999999991555
 20
3.670999999996297
 30
0.0
 11
9.236999999990758
 21
5.5200999999945
 31
0.0
1001
ACAD
1000
ASC_BOUNDS
1002
{
1070
    19
1005
19D94
1002
}
  0
LINE
  5
19D71
330
19D51
100
AcDbEntity
  8
0
100
AcDbLine
 10
8.409999999991555
 20
3.670999999996297
 30
0.0
 11
10.06399999998996
 21
3.670999999996297
 31
0.0
1001
ACAD
1000
ASC_BOUNDS
1002
{
1070
    19
1005
19D94
1002
}
  0
LINE
  5
19D72
330
19D51
100
AcDbEntity
  8
0
100
AcDbLine
 10
10.53899999998941
 20
8.763099999991255
 30
0.0
 11
12.02999999998792
 21
8.763099999991255
 31
0.0
1001
ACAD
1000
ASC_BOUNDS
1002
{
1070
    19
1005
19D95
1002
}
  0
LINE
  5
19D73
330
19D51
100
AcDbEntity
  8
0
100
AcDbLine
 10
22.7389999999773
 20
3.670999999996297
 30
0.0
 11
23.56599999997638
 21
5.5200999999945
 31
0.0
1001
ACAD
1000
ASC_BOUNDS
1002
{
1070
    19
1005
19D96
1002
}
  0
LINE
  5
19D74
330
19D51
100
AcDbEntity
  8
0
100
AcDbLine
 10
22.7389999999773
 20
3.670999999996297
 30
0.0
 11
24.39299999997559
 21
3.670999999996297
 31
0.0
1001
ACAD
1000
ASC_BOUNDS
1002
{
1070
    19
1005
19D96
1002
}
  0
LINE
  5
19D75
330
19D51
100
AcDbEntity
  8
0
100
AcDbLine
 10
18.59799999998143
 20
3.315799999996671
 30
0.0
 11
20.89099999997916
 21
8.763099999991255
 31
0.0
1001
ACAD
1000
ASC_BOUNDS
1002
{
1070
    19
1005
19D95
1002
}
  0
LINE
  5
19D76
330
19D51
100
AcDbEntity
  8
0
100
AcDbLine
 10
18.59799999998143
 20
3.315799999996671
 30
0.0
 11
16.46099999998353
 21
8.999899999990987
 31
0.0
1001
ACAD
1000
ASC_BOUNDS
1002
{
1070
    19
1005
19D95
1002
}
  0
LINE
  5
19D77
330
19D51
100
AcDbEntity
  8
0
100
AcDbLine
 10
20.89099999997916
 20
8.763099999991255
 30
0.0
 11
22.38199999997767
 21
8.763099999991255
 31
0.0
1001
ACAD
1000
ASC_BOUNDS
1002
{
1070
    19
1005
19D95
1002
}
  0
LINE
  5
19D78
330
19D51
100
AcDbEntity
  8
0
100
AcDbLine
 10
24.39299999997559
 20
3.670999999996297
 30
0.0
 11
23.56599999997638
 21
5.5200999999945
 31
0.0
1001
ACAD
1000
ASC_BOUNDS
1002
{
1070
    19
1005
19D96
1002
}
  0
LINE
  5
19D79
330
19D51
100
AcDbEntity
  8
0
100
AcDbLine
 10
44.99999999995498
 20
-0.2368999999997641
 30
0.0
 11
40.02599999995994
 21
5.341799999994635
 31
0.0
1001
ACAD
1000
ASC_BOUNDS
1002
{
1070
    19
1005
19D98
1002
}
  0
LINE
  5
19D7A
330
19D51
100
AcDbEntity
  8
0
100
AcDbLine
 10
40.02599999995994
 20
5.341799999994635
 30
0.0
 11
40.02599999995994
 21
0.0
 31
0.0
1001
ACAD
1000
ASC_BOUNDS
1002
{
1070
    19
1005
19D98
1002
}
  0
LINE
  5
19D7B
330
19D51
100
AcDbEntity
  8
0
100
AcDbLine
 10
38.60499999996136
 20
8.999999999991019
 30
0.0
 11
38.60499999996136
 21
0.0
 31
0.0
1001
ACAD
1000
ASC_BOUNDS
1002
{
1070
    19
1005
19D98
1002
}
  0
LINE
  5
19D7C
330
19D51
100
AcDbEntity
  8
0
100
AcDbLine
 10
44.99999999995498
 20
8.763099999991255
 30
0.0
 11
44.99999999995498
 21
-0.2368999999997641
 31
0.0
1001
ACAD
1000
ASC_BOUNDS
1002
{
1070
    19
1005
19D98
1002
}
  0
LINE
  5
19D7D
330
19D51
100
AcDbEntity
  8
0
100
AcDbLine
 10
38.60499999996136
 20
0.0
 30
0.0
 11
40.02599999995994
 21
0.0
 31
0.0
1001
ACAD
1000
ASC_BOUNDS
1002
{
1070
    19
1005
19D98
1002
}
  0
LINE
  5
19D7E
330
19D51
100
AcDbEntity
  8
0
100
AcDbLine
 10
43.57899999995641
 20
3.421199999996588
 30
0.0
 11
38.60499999996136
 21
8.999899999990987
 31
0.0
1001
ACAD
1000
ASC_BOUNDS
1002
{
1070
    19
1005
19D98
1002
}
  0
LINE
  5
19D7F
330
19D51
100
AcDbEntity
  8
0
100
AcDbLine
 10
43.57899999995641
 20
8.763099999991255
 30
0.0
 11
43.57899999995641
 21
3.421199999996588
 31
0.0
1001
ACAD
1000
ASC_BOUNDS
1002
{
1070
    19
1005
19D98
1002
}
  0
LINE
  5
19D80
330
19D51
100
AcDbEntity
  8
0
100
AcDbLine
 10
43.57899999995641
 20
8.763099999991255
 30
0.0
 11
44.99999999995498
 21
8.763099999991255
 31
0.0
1001
ACAD
1000
ASC_BOUNDS
1002
{
1070
    19
1005
19D98
1002
}
  0
LINE
  5
19D81
330
19D51
100
AcDbEntity
  8
0
100
AcDbLine
 10
37.67199999996831
 20
8.763099999991255
 30
0.0
 11
36.23199999996837
 21
8.763099999991255
 31
0.0
  0
LINE
  5
19D82
330
19D51
100
AcDbEntity
  8
0
100
AcDbLine
 10
31.64199999996833
 20
8.763099999991255
 30
0.0
 11
31.64199999996833
 21
2.481619422925121
 31
0.0
  0
LINE
  5
19D83
330
19D51
100
AcDbEntity
  8
0
100
AcDbLine
 10
37.67199999996831
 20
8.763099999991255
 30
0.0
 11
37.67199999996831
 21
2.481619422925121
 31
0.0
  0
LINE
  5
19D84
330
19D51
100
AcDbEntity
  8
0
100
AcDbLine
 10
36.23199999996837
 20
8.763099999991255
 30
0.0
 11
36.23199999996837
 21
2.481619422925064
 31
0.0
  0
LINE
  5
19D85
330
19D51
100
AcDbEntity
  8
0
100
AcDbLine
 10
33.08199999996839
 20
8.763099999991255
 30
0.0
 11
33.08199999996839
 21
2.481619422925121
 31
0.0
  0
ARC
  5
19D86
330
19D51
100
AcDbEntity
  8
0
100
AcDbCircle
 10
34.65699999996832
 20
3.183099999991214
 30
0.0
 40
3.420000000000007
100
AcDbArc
 50
240.0000000000255
 51
299.9999999999766
  0
ARC
  5
19D87
330
19D51
100
AcDbEntity
  8
0
100
AcDbCircle
 10
34.65699999996832
 20
3.183099999991214
 30
0.0
 40
1.97999999999999
100
AcDbArc
 50
240.000000000026
 51
299.9999999999703
  0
LINE
  5
19D88
330
19D51
100
AcDbEntity
  8
0
100
AcDbLine
 10
33.08199999996828
 20
8.763099999991255
 30
0.0
 11
31.64199999996833
 21
8.763099999991255
 31
0.0
  0
ARC
  5
19D89
330
19D51
100
AcDbEntity
  8
0
100
AcDbCircle
 10
35.06199999996829
 20
2.481619422925064
 30
0.0
 40
1.17
100
AcDbArc
 50
299.9999999999699
 51
0.0
  0
ARC
  5
19D8A
330
19D51
100
AcDbEntity
  8
0
100
AcDbCircle
 10
34.25199999996835
 20
2.481619422925121
 30
0.0
 40
1.17
100
AcDbArc
 50
180.0
 51
240.0000000000238
  0
ARC
  5
19D8B
330
19D51
100
AcDbEntity
  8
0
100
AcDbCircle
 10
35.06199999996841
 20
2.481619422925121
 30
0.0
 40
2.61
100
AcDbArc
 50
299.9999999999756
 51
0.0
  0
ARC
  5
19D8C
330
19D51
100
AcDbEntity
  8
0
100
AcDbCircle
 10
34.25199999996835
 20
2.481619422925121
 30
0.0
 40
2.61
100
AcDbArc
 50
180.0
 51
240.0000000000244
  0
LINE
  5
19D8D
330
19D51
100
AcDbEntity
  8
0
100
AcDbLine
 10
29.30199999996933
 20
8.763099999991255
 30
0.0
 11
30.74199999996927
 21
8.763099999991255
 31
0.0
1001
ACAD
1000
ASC_BOUNDS
1002
{
1070
    19
1005
19D96
1002
}
  0
LINE
  5
19D8E
330
19D51
100
AcDbEntity
  8
0
100
AcDbLine
 10
30.74199999996927
 20
8.763099999991255
 30
0.0
 11
30.74199999996927
 21
2.373099999991211
 31
0.0
1001
ACAD
1000
ASC_BOUNDS
1002
{
1070
    19
1005
19D96
1002
}
  0
LINE
  5
19D8F
330
19D51
100
AcDbEntity
  8
0
100
AcDbLine
 10
26.02015566812236
 20
0.0330999999912365
 30
0.0
 11
28.40199999996923
 21
0.0330999999912365
 31
0.0
1001
ACAD
1000
ASC_BOUNDS
1002
{
1070
    19
1005
19D96
1002
}
  0
LINE
  5
19D90
330
19D51
100
AcDbEntity
  8
0
100
AcDbLine
 10
29.30199999996933
 20
8.763099999991255
 30
0.0
 11
29.30199999996933
 21
2.283099999991236
 31
0.0
1001
ACAD
1000
ASC_BOUNDS
1002
{
1070
    19
1005
19D96
1002
}
  0
LINE
  5
19D91
330
19D51
100
AcDbEntity
  8
0
100
AcDbLine
 10
26.97358892824991
 20
1.383099999991202
 30
0.0
 11
28.40199999996923
 21
1.383099999991202
 31
0.0
1001
ACAD
1000
ASC_BOUNDS
1002
{
1070
    19
1005
19D96
1002
}
  0
ARC
  5
19D92
330
19D51
100
AcDbEntity
  8
0
100
AcDbCircle
 10
28.40199999996923
 20
2.283099999991236
 30
0.0
 40
0.9
100
AcDbArc
 50
270.0
 51
0.0
1001
ACAD
1000
ASC_BOUNDS
1002
{
1070
    19
1005
19D96
1002
}
  0
ARC
  5
19D93
330
19D51
100
AcDbEntity
  8
0
100
AcDbCircle
 10
28.40199999996923
 20
2.373099999991211
 30
0.0
 40
2.34
100
AcDbArc
 50
270.0
 51
0.0
1001
ACAD
1000
ASC_BOUNDS
1002
{
1070
    19
1005
19D96
1002
}
  0
INSERT
  5
19D94
330
19D51
100
AcDbEntity
  8
0
100
AcDbBlockReference
  2
*X154
 10
0.0
 20
0.0
 30
0.0
1001
ACAD
1000
HATCH
1002
{
1070
    19
1000
ANSI37
1040
0.15
1040
0.0
1000
ASC_BOUNDS
1070
     2
1070
     2
1070
    12
1005
19D53
1005
19D54
1005
19D5B
1005
19D6A
1005
19D6D
1005
19D6B
1005
19D5C
1005
19D61
1005
19D5F
1005
19D63
1005
19D62
1005
19D64
1070
     2
1070
     3
1005
19D6F
1005
19D71
1005
19D70
1000
ASC_SEEDPOINT
1011
3.614004224891801
1021
2.996669441146025
1031
0.0
1000
R14_HATCH_DATA
1000
19D94
1011
1.0
1021
0.0
1031
0.0
1011
0.0
1021
1.0
1031
0.0
1011
0.0
1021
0.0
1031
1.0
1040
0.0
1010
0.0
1020
0.0
1030
1.0
1000
ANSI37
1070
     0
1070
     1
1071
        2
1071
        7
1070
     0
1070
     1
1071
       17
1040
13.26299999998673
1040
-0.0001000000000317
1040
9.236999999990758
1040
8.999899999990987
1040
9.236999999990758
1040
8.999999999991019
1040
5.657999999994331
1040
0.9999999999989768
1040
3.181999999996833
1040
4.668599999995308
1040
6.432999999993513
1040
8.763099999991255
1040
4.617999999995391
1040
8.763099999991255
1040
1.420999999998571
1040
4.736799999995242
1040
4.617999999995391
1040
-0.0001000000000317
1040
4.617999999995391
1040
0.0
1040
6.766999999993232
1040
0.0
1040
6.766999999993232
1040
-0.0001000000000317
1040
7.826999999992154
1040
2.368399999997621
1040
10.64699999998936
1040
2.368399999997621
1040
11.70599999998831
1040
-0.0001000000000317
1040
11.70599999998831
1040
0.0
1040
13.26299999998673
1040
0.0
1071
       12
1005
19D53
1005
19D54
1005
19D5B
1005
19D6A
1005
19D6D
1005
19D6B
1005
19D5C
1005
19D61
1005
19D5F
1005
19D63
1005
19D62
1005
19D64
1071
       22
1070
     0
1070
     1
1071
        3
1040
9.236999999990758
1040
5.5200999999945
1040
10.06399999998996
1040
3.670999999996297
1040
8.409999999991555
1040
3.670999999996297
1071
        3
1005
19D6F
1005
19D71
1005
19D70
1070
     0
1070
     1
1040
0.0
1040
0.15
1070
     0
1070
     2
1040
0.7853981633974483
1040
49.29960901727088
1040
-10.17736998311392
1040
-0.3367596045400932
1040
0.3367596045400932
1070
     0
1040
2.356194490192345
1040
49.29960901727088
1040
-10.17736998311392
1040
-0.3367596045400932
1040
-0.3367596045400932
1070
     0
1040
0.0110235143455945
1071
        2
1040
3.614004224891801
1040
2.996669441146025
1040
0.0
1040
3.614004224891801
1040
2.996669441146025
1040
0.0
1002
}
  0
INSERT
  5
19D95
330
19D51
100
AcDbEntity
  8
0
100
AcDbBlockReference
  2
*X155
 10
0.0
 20
0.0
 30
0.0
1001
ACAD
1000
HATCH
1002
{
1070
    19
1000
ANSI37
1040
0.15
1040
0.0
1000
ASC_BOUNDS
1070
     1
1070
     2
1070
    10
1005
19D55
1005
19D56
1005
19D77
1005
19D75
1005
19D76
1005
19D69
1005
19D6E
1005
19D72
1005
19D58
1005
19D57
1000
ASC_SEEDPOINT
1011
14.73245321214324
1021
2.798246178283421
1031
0.0
1000
R14_HATCH_DATA
1000
19D95
1011
1.0
1021
0.0
1031
0.0
1011
0.0
1021
1.0
1031
0.0
1011
0.0
1021
0.0
1031
1.0
1040
0.0
1010
0.0
1020
0.0
1030
1.0
1000
ANSI37
1070
     0
1070
     1
1071
        1
1071
        7
1070
     0
1070
     1
1071
       10
1040
16.46099999998353
1040
5.432899999994561
1040
18.59199999998134
1040
-0.2368999999997641
1040
22.38199999997767
1040
8.763099999991255
1040
20.89099999997916
1040
8.763099999991255
1040
18.59799999998143
1040
3.315799999996671
1040
16.46099999998353
1040
8.999899999990987
1040
14.32399999998563
1040
3.315799999996671
1040
12.02999999998792
1040
8.763099999991255
1040
10.53899999998941
1040
8.763099999991255
1040
14.32899999998563
1040
-0.2368999999997641
1071
       10
1005
19D55
1005
19D56
1005
19D77
1005
19D75
1005
19D76
1005
19D69
1005
19D6E
1005
19D72
1005
19D58
1005
19D57
1070
     0
1070
     1
1040
0.0
1040
0.15
1070
     0
1070
     2
1040
0.7853981633974483
1040
49.29960901727088
1040
-10.17736998311392
1040
-0.3367596045400932
1040
0.3367596045400932
1070
     0
1040
2.356194490192345
1040
49.29960901727088
1040
-10.17736998311392
1040
-0.3367596045400932
1040
-0.3367596045400932
1070
     0
1040
0.0110235143455945
1071
        1
1040
14.73245321214324
1040
2.798246178283421
1040
0.0
1002
}
  0
INSERT
  5
19D96
330
19D51
100
AcDbEntity
  8
0
100
AcDbBlockReference
  2
*X156
 10
0.0
 20
0.0
 30
0.0
1001
ACAD
1000
HATCH
1002
{
1070
    19
1000
ANSI37
1040
0.15
1040
0.0
1000
ASC_BOUNDS
1070
     2
1070
     2
1070
    13
1005
19D59
1005
19D66
1005
19D67
1005
19D65
1005
19D68
1005
19D8F
1005
19D93
1005
19D8E
1005
19D8D
1005
19D90
1005
19D92
1005
19D91
1005
19D5A
1070
     2
1070
     3
1005
19D73
1005
19D78
1005
19D74
1000
ASC_SEEDPOINT
1011
21.97929957367762
1021
3.294304244259308
1031
0.0
1000
R14_HATCH_DATA
1000
19D96
1011
1.0
1021
0.0
1031
0.0
1011
0.0
1021
1.0
1031
0.0
1011
0.0
1021
0.0
1031
1.0
1040
0.0
1010
0.0
1020
0.0
1030
1.0
1000
ANSI37
1070
     0
1070
     1
1071
        2
1071
        7
1070
     1
1070
     1
1071
       15
1040
23.56599999997638
1040
8.999899999990987
1040
0.0
1040
19.53899999998043
1040
-0.0001000000000317
1040
0.0
1040
19.53899999998043
1040
0.0
1040
0.0
1040
21.09599999997886
1040
0.0
1040
0.0
1040
21.09599999997886
1040
-0.0001000000000317
1040
0.0
1040
22.15599999997789
1040
2.368399999997621
1040
0.0
1040
24.97599999997499
1040
2.368399999997621
1040
0.0
1040
26.02015566812236
1040
0.0330999999912365
1040
0.0
1040
28.40199999996923
1040
0.0330999999912365
1040
0.414213562373095
1040
30.74199999996923
1040
2.373099999991211
1040
0.0
1040
30.74199999996927
1040
8.763099999991255
1040
0.0
1040
29.30199999996933
1040
8.763099999991255
1040
0.0
1040
29.30199999996933
1040
2.283099999991236
1040
-0.414213562373095
1040
28.40199999996923
1040
1.383099999991237
1040
0.0
1040
26.97358892824991
1040
1.383099999991202
1040
0.0
1071
       13
1005
19D59
1005
19D66
1005
19D67
1005
19D65
1005
19D68
1005
19D8F
1005
19D93
1005
19D8E
1005
19D8D
1005
19D90
1005
19D92
1005
19D91
1005
19D5A
1071
       22
1070
     0
1070
     1
1071
        3
1040
22.7389999999773
1040
3.670999999996297
1040
23.56599999997638
1040
5.5200999999945
1040
24.39299999997559
1040
3.670999999996297
1071
        3
1005
19D73
1005
19D78
1005
19D74
1070
     0
1070
     1
1040
0.0
1040
0.15
1070
     0
1070
     2
1040
0.7853981633974483
1040
49.29960901727088
1040
-10.17736998311392
1040
-0.3367596045400932
1040
0.3367596045400932
1070
     0
1040
2.356194490192345
1040
49.29960901727088
1040
-10.17736998311392
1040
-0.3367596045400932
1040
-0.3367596045400932
1070
     0
1040
0.0110235143455945
1071
        2
1040
21.97929957367762
1040
3.294304244259308
1040
0.0
1040
21.97929957367762
1040
3.294304244259308
1040
0.0
1002
}
  0
INSERT
  5
19D97
330
19D51
100
AcDbEntity
  8
0
100
AcDbBlockReference
  2
*X157
 10
0.0
 20
0.0
 30
0.0
1001
ACAD
1000
HATCH
1002
{
1070
    19
1000
ANSI37
1040
0.15
1040
0.0
1000
R14_HATCH_DATA
1000
19D97
1011
1.0
1021
0.0
1031
0.0
1011
0.0
1021
1.0
1031
0.0
1011
0.0
1021
0.0
1031
1.0
1040
0.0
1010
0.0
1020
0.0
1030
1.0
1000
ANSI37
1070
     0
1070
     1
1071
        1
1071
        7
1070
     1
1070
     1
1071
       12
1040
31.64199999996833
1040
2.481619422925121
1040
0.2679491924310942
1040
32.94699999997067
1040
0.2212931190493919
1040
0.2679491924301353
1040
36.36699999995983
1040
0.2212931190459813
1040
0.2679491924321411
1040
37.67199999996831
1040
2.481619422928361
1040
0.0
1040
37.67199999996831
1040
8.763099999991255
1040
0.0
1040
36.23199999996837
1040
8.763099999991255
1040
0.0
1040
36.23199999996837
1040
2.481619422925064
1040
-0.2679491924310291
1040
35.64699999996708
1040
1.468369700498386
1040
-0.267949192430519
1040
33.66699999997093
1040
1.468369700497703
1040
-0.267949192431809
1040
33.08199999996839
1040
2.481619422926997
1040
0.0
1040
33.08199999996839
1040
8.763099999991255
1040
0.0
1040
31.64199999996833
1040
8.763099999991255
1040
0.0
1071
        0
1070
     0
1070
     1
1040
0.0
1040
0.15
1070
     0
1070
     2
1040
0.7853981633974483
1040
49.29960901727088
1040
-10.17736998311392
1040
-0.3367596045400932
1040
0.3367596045400932
1070
     0
1040
2.356194490192345
1040
49.29960901727088
1040
-10.17736998311392
1040
-0.3367596045400932
1040
-0.3367596045400932
1070
     0
1040
0.0110235143455945
1071
        1
1040
32.30357378967278
1040
3.988785755459219
1040
0.0
1002
}
  0
INSERT
  5
19D98
330
19D51
100
AcDbEntity
  8
0
100
AcDbBlockReference
  2
*X158
 10
0.0
 20
0.0
 30
0.0
1001
ACAD
1000
HATCH
1002
{
1070
    19
1000
ANSI37
1040
0.15
1040
0.0
1000
ASC_BOUNDS
1070
     1
1070
     2
1070
     8
1005
19D79
1005
19D7C
1005
19D80
1005
19D7F
1005
19D7E
1005
19D7B
1005
19D7D
1005
19D7A
1000
ASC_SEEDPOINT
1011
39.74896370716704
1021
4.484843821435049
1031
0.0
1000
R14_HATCH_DATA
1000
19D98
1011
1.0
1021
0.0
1031
0.0
1011
0.0
1021
1.0
1031
0.0
1011
0.0
1021
0.0
1031
1.0
1040
0.0
1010
0.0
1020
0.0
1030
1.0
1000
ANSI37
1070
     0
1070
     1
1071
        1
1071
        7
1070
     0
1070
     1
1071
        9
1040
40.02599999995994
1040
5.341799999994635
1040
44.99999999995498
1040
-0.2368999999997641
1040
44.99999999995498
1040
8.763099999991255
1040
43.57899999995641
1040
8.763099999991255
1040
43.57899999995641
1040
3.421199999996588
1040
38.60499999996136
1040
8.999899999990987
1040
38.60499999996136
1040
8.999999999991019
1040
38.60499999996136
1040
0.0
1040
40.02599999995994
1040
0.0
1071
        8
1005
19D79
1005
19D7C
1005
19D80
1005
19D7F
1005
19D7E
1005
19D7B
1005
19D7D
1005
19D7A
1070
     0
1070
     1
1040
0.0
1040
0.15
1070
     0
1070
     2
1040
0.7853981633974483
1040
49.29960901727088
1040
-10.17736998311392
1040
-0.3367596045400932
1040
0.3367596045400932
1070
     0
1040
2.356194490192345
1040
49.29960901727088
1040
-10.17736998311392
1040
-0.3367596045400932
1040
-0.3367596045400932
1070
     0
1040
0.0110235143455945
1071
        1
1040
39.74896370716704
1040
4.484843821435049
1040
0.0
1002
}
  0
INSERT
  5
19D99
330
19D51
100
AcDbEntity
  8
0
100
AcDbBlockReference
  2
*X159
 10
0.0
 20
0.0
 30
0.0
1001
ACAD
1000
HATCH
1002
{
1070
    19
1000
ANSI37
1040
0.15
1040
0.0
1000
ASC_BOUNDS
1070
     1
1070
     2
1070
     4
1005
19D5D
1005
19D6C
1005
19D5E
1005
19D60
1000
ASC_SEEDPOINT
1011
1.079051535452663
1021
4.148538732891836
1031
0.0
1000
R14_HATCH_DATA
1000
19D99
1011
1.0
1021
0.0
1031
0.0
1011
0.0
1021
1.0
1031
0.0
1011
0.0
1021
0.0
1031
1.0
1040
0.0
1010
0.0
1020
0.0
1030
1.0
1000
ANSI37
1070
     0
1070
     1
1071
        1
1071
        7
1070
     0
1070
     1
1071
        4
1040
1.420999999998571
1040
0.0
1040
1.420999999998571
1040
8.763099999991255
1040
0.0
1040
8.763099999991255
1040
0.0
1040
0.0
1071
        4
1005
19D5D
1005
19D6C
1005
19D5E
1005
19D60
1070
     0
1070
     1
1040
0.0
1040
0.15
1070
     0
1070
     2
1040
0.7853981633974483
1040
49.29960901727088
1040
-10.17736998311392
1040
-0.3367596045400932
1040
0.3367596045400932
1070
     0
1040
2.356194490192345
1040
49.29960901727088
1040
-10.17736998311392
1040
-0.3367596045400932
1040
-0.3367596045400932
1070
     0
1040
0.0053004257112761
1071
        1
1040
1.079051535452663
1040
4.148538732891836
1040
0.0
1002
}
  0
ENDBLK
  5
1A475
330
19D51
100
AcDbEntity
  8
0
100
AcDbBlockEnd
  0
BLOCK
  5
1B24D
330
1B0BF
100
AcDbEntity
  8
0
100
AcDbBlockBegin
  2
*X154
 70
     1
 10
0.0
 20
0.0
 30
0.0
  3
*X154
  1

  0
LINE
  5
1B0C0
330
1B0BF
100
AcDbEntity
  8
0
  6
CONTINUOUS
100
AcDbLine
 10
3.418023043697893
 20
7.251849696850613
 30
0.0
 11
4.929273346838536
 21
8.763099999991255
 31
0.0
  0
LINE
  5
1B0C1
330
1B0BF
100
AcDbEntity
  8
0
  6
CONTINUOUS
100
AcDbLine
 10
1.483656411257782
 20
4.643963855330318
 30
0.0
 11
5.60279255591872
 21
8.763099999991255
 31
0.0
  0
LINE
  5
1B0C2
330
1B0BF
100
AcDbEntity
  8
0
  6
CONTINUOUS
100
AcDbLine
 10
1.755053947328235
 20
4.241842182320584
 30
0.0
 11
6.276311764998907
 21
8.763099999991255
 31
0.0
  0
LINE
  5
1B0C3
330
1B0BF
100
AcDbEntity
  8
0
  6
CONTINUOUS
100
AcDbLine
 10
2.026451483398688
 20
3.839720509310849
 30
0.0
 11
4.441040904851878
 21
6.254309930764039
 31
0.0
  0
LINE
  5
1B0C4
330
1B0BF
100
AcDbEntity
  8
0
  6
CONTINUOUS
100
AcDbLine
 10
2.297849019469139
 20
3.437598836301114
 30
0.0
 11
3.321765168359338
 21
4.461514985191313
 31
0.0
  0
LINE
  5
1B0C5
330
1B0BF
100
AcDbEntity
  8
0
  6
CONTINUOUS
100
AcDbLine
 10
2.569246555539591
 20
3.03547716329138
 30
0.0
 11
3.593163397972743
 21
4.059394005724531
 31
0.0
  0
LINE
  5
1B0C6
330
1B0BF
100
AcDbEntity
  8
0
  6
CONTINUOUS
100
AcDbLine
 10
2.840644091610043
 20
2.633355490281646
 30
0.0
 11
3.864561627586149
 21
3.657273026257751
 31
0.0
  0
LINE
  5
1B0C7
330
1B0BF
100
AcDbEntity
  8
0
  6
CONTINUOUS
100
AcDbLine
 10
3.112041627680496
 20
2.231233817271911
 30
0.0
 11
4.135959857199554
 21
3.25515204679097
 31
0.0
  0
LINE
  5
1B0C8
330
1B0BF
100
AcDbEntity
  8
0
  6
CONTINUOUS
100
AcDbLine
 10
3.383439163750948
 20
1.829112144262177
 30
0.0
 11
4.40735808681296
 21
2.853031067324189
 31
0.0
  0
LINE
  5
1B0C9
330
1B0BF
100
AcDbEntity
  8
0
  6
CONTINUOUS
100
AcDbLine
 10
3.654836699821399
 20
1.426990471252442
 30
0.0
 11
4.678756316426365
 21
2.450910087857407
 31
0.0
  0
LINE
  5
1B0CA
330
1B0BF
100
AcDbEntity
  8
0
  6
CONTINUOUS
100
AcDbLine
 10
3.926234235891853
 20
1.024868798242709
 30
0.0
 11
4.95015454603977
 21
2.048789108390626
 31
0.0
  0
LINE
  5
1B0CB
330
1B0BF
100
AcDbEntity
  8
0
  6
CONTINUOUS
100
AcDbLine
 10
4.197631771962304
 20
0.6227471252329737
 30
0.0
 11
5.221552775653176
 21
1.646668128923846
 31
0.0
  0
LINE
  5
1B0CC
330
1B0BF
100
AcDbEntity
  8
0
  6
CONTINUOUS
100
AcDbLine
 10
8.715877546767851
 20
7.835069736359266
 30
0.0
 11
9.435953450375058
 21
8.555145639966472
 31
0.0
  0
LINE
  5
1B0CD
330
1B0BF
100
AcDbEntity
  8
0
  6
CONTINUOUS
100
AcDbLine
 10
8.170620868422267
 20
6.616293848933497
 30
0.0
 11
9.644120833743461
 21
8.08979381425469
 31
0.0
  0
LINE
  5
1B0CE
330
1B0BF
100
AcDbEntity
  8
0
  6
CONTINUOUS
100
AcDbLine
 10
7.625364190076684
 20
5.397517961507727
 30
0.0
 11
9.852288217111864
 21
7.624441988542907
 31
0.0
  0
LINE
  5
1B0CF
330
1B0BF
100
AcDbEntity
  8
0
  6
CONTINUOUS
100
AcDbLine
 10
7.080107511731101
 20
4.178742074081957
 30
0.0
 11
10.06045560048027
 21
7.159090162831124
 31
0.0
  0
LINE
  5
1B0D0
330
1B0BF
100
AcDbEntity
  8
0
  6
CONTINUOUS
100
AcDbLine
 10
6.534850833385518
 20
2.959966186656187
 30
0.0
 11
10.26862298384867
 21
6.693738337119342
 31
0.0
  0
LINE
  5
1B0D1
330
1B0BF
100
AcDbEntity
  8
0
  6
CONTINUOUS
100
AcDbLine
 10
4.469029308032756
 20
0.2206254522232385
 30
0.0
 11
5.492951005266582
 21
1.244547149457064
 31
0.0
  0
LINE
  5
1B0D2
330
1B0BF
100
AcDbEntity
  8
0
  6
CONTINUOUS
100
AcDbLine
 10
5.989594155039935
 20
1.741190299230417
 30
0.0
 11
8.806950407233131
 21
4.558546551423613
 31
0.0
  0
LINE
  5
1B0D3
330
1B0BF
100
AcDbEntity
  8
0
  6
CONTINUOUS
100
AcDbLine
 10
9.401251593263643
 20
5.152847737454126
 30
0.0
 11
10.47679036721708
 21
6.228386511407559
 31
0.0
  0
LINE
  5
1B0D4
330
1B0BF
100
AcDbEntity
  8
0
  6
CONTINUOUS
100
AcDbLine
 10
4.921837203428691
 20
-0.0000858614610131
 30
0.0
 11
8.592923064886001
 21
3.670999999996297
 31
0.0
  0
LINE
  5
1B0D5
330
1B0BF
100
AcDbEntity
  8
0
  6
CONTINUOUS
100
AcDbLine
 10
9.609390446785305
 20
4.6874673818956
 30
0.0
 11
10.68495775058548
 21
5.763034685695775
 31
0.0
  0
LINE
  5
1B0D6
330
1B0BF
100
AcDbEntity
  8
0
  6
CONTINUOUS
100
AcDbLine
 10
5.595387755019432
 20
-0.0000545189504582
 30
0.0
 11
7.716137258923768
 21
2.120694984953879
 31
0.0
  0
LINE
  5
1B0D7
330
1B0BF
100
AcDbEntity
  8
0
  6
CONTINUOUS
100
AcDbLine
 10
6.268938306610172
 20
-0.000023176439905
 30
0.0
 11
7.170485805526503
 21
0.9015243224764267
 31
0.0
  0
LINE
  5
1B0D8
330
1B0BF
100
AcDbEntity
  8
0
  6
CONTINUOUS
100
AcDbLine
 10
7.963842273967511
 20
2.368399999997621
 30
0.0
 11
9.266442273966188
 21
3.670999999996297
 31
0.0
  0
LINE
  5
1B0D9
330
1B0BF
100
AcDbEntity
  8
0
  6
CONTINUOUS
100
AcDbLine
 10
8.637361483047696
 20
2.368399999997621
 30
0.0
 11
9.939961483046375
 21
3.670999999996297
 31
0.0
  0
LINE
  5
1B0DA
330
1B0BF
100
AcDbEntity
  8
0
  6
CONTINUOUS
100
AcDbLine
 10
9.817529300306965
 20
4.222087026337075
 30
0.0
 11
10.89312513395388
 21
5.297682859983993
 31
0.0
  0
LINE
  5
1B0DB
330
1B0BF
100
AcDbEntity
  8
0
  6
CONTINUOUS
100
AcDbLine
 10
10.02566815382863
 20
3.756706670778549
 30
0.0
 11
11.10129251732229
 21
4.832331034272211
 31
0.0
  0
LINE
  5
1B0DC
330
1B0BF
100
AcDbEntity
  8
0
  6
CONTINUOUS
100
AcDbLine
 10
9.310880692127883
 20
2.368399999997621
 30
0.0
 11
11.30945990069069
 21
4.366979208560428
 31
0.0
  0
LINE
  5
1B0DD
330
1B0BF
100
AcDbEntity
  8
0
  6
CONTINUOUS
100
AcDbLine
 10
9.98439990120807
 20
2.36839999999762
 30
0.0
 11
11.5176272840591
 21
3.901627382848645
 31
0.0
  0
LINE
  5
1B0DE
330
1B0BF
100
AcDbEntity
  8
0
  6
CONTINUOUS
100
AcDbLine
 10
10.65037369446246
 20
2.36085458417182
 30
0.0
 11
11.7257946674275
 21
3.436275557136862
 31
0.0
  0
LINE
  5
1B0DF
330
1B0BF
100
AcDbEntity
  8
0
  6
CONTINUOUS
100
AcDbLine
 10
10.85847197087848
 20
1.895433651507656
 30
0.0
 11
11.9339620507959
 21
2.97092373142508
 31
0.0
  0
LINE
  5
1B0E0
330
1B0BF
100
AcDbEntity
  8
0
  6
CONTINUOUS
100
AcDbLine
 10
11.0665702472945
 20
1.430012718843491
 30
0.0
 11
12.14212943416431
 21
2.505571905713296
 31
0.0
  0
LINE
  5
1B0E1
330
1B0BF
100
AcDbEntity
  8
0
  6
CONTINUOUS
100
AcDbLine
 10
11.27466852371052
 20
0.9645917861793256
 30
0.0
 11
12.35029681753271
 21
2.040220080001513
 31
0.0
  0
LINE
  5
1B0E2
330
1B0BF
100
AcDbEntity
  8
0
  6
CONTINUOUS
100
AcDbLine
 10
11.48276680012654
 20
0.4991708535151611
 30
0.0
 11
12.55846420090111
 21
1.57486825428973
 31
0.0
  0
LINE
  5
1B0E3
330
1B0BF
100
AcDbEntity
  8
0
  6
CONTINUOUS
100
AcDbLine
 10
11.69086507654257
 20
0.0337499208509957
 30
0.0
 11
12.76663158426952
 21
1.109516428577947
 31
0.0
  0
LINE
  5
1B0E4
330
1B0BF
100
AcDbEntity
  8
0
  6
CONTINUOUS
100
AcDbLine
 10
12.33057447873954
 20
-0.0000598860322123
 30
0.0
 11
12.97479896763792
 21
0.6441646028661663
 31
0.0
  0
LINE
  5
1B0E5
330
1B0BF
100
AcDbEntity
  8
0
  6
CONTINUOUS
100
AcDbLine
 10
13.00413694809395
 20
-0.0000166257579952
 30
0.0
 11
13.18296635100632
 21
0.1788127771543824
 31
0.0
  0
LINE
  5
1B0E6
330
1B0BF
100
AcDbEntity
  8
0
  6
CONTINUOUS
100
AcDbLine
 10
4.772852165289667
 20
-0.000092794222212
 30
0.0
 11
4.296495091028902
 21
0.4762642800385528
 31
0.0
  0
LINE
  5
1B0E7
330
1B0BF
100
AcDbEntity
  8
0
  6
CONTINUOUS
100
AcDbLine
 10
5.446340034776103
 20
-0.0000614546284616
 30
0.0
 11
2.898195908335625
 21
2.548082671812017
 31
0.0
  0
LINE
  5
1B0E8
330
1B0BF
100
AcDbEntity
  8
0
  6
CONTINUOUS
100
AcDbLine
 10
6.119827904262539
 20
-0.0000301150347113
 30
0.0
 11
1.499896725642348
 21
4.61990106358548
 31
0.0
  0
LINE
  5
1B0E9
330
1B0BF
100
AcDbEntity
  8
0
  6
CONTINUOUS
100
AcDbLine
 10
6.775136745476159
 20
0.0181802528318542
 30
0.0
 11
5.699826040202669
 21
1.093490958105344
 31
0.0
  0
LINE
  5
1B0EA
330
1B0BF
100
AcDbEntity
  8
0
  6
CONTINUOUS
100
AcDbLine
 10
6.983376846288489
 20
0.4834593610997118
 30
0.0
 11
5.908008617934405
 21
1.558827589453796
 31
0.0
  0
LINE
  5
1B0EB
330
1B0BF
100
AcDbEntity
  8
0
  6
CONTINUOUS
100
AcDbLine
 10
5.377063484962296
 20
1.416253513345719
 30
0.0
 11
1.702276957014131
 21
5.091040041293883
 31
0.0
  0
LINE
  5
1B0EC
330
1B0BF
100
AcDbEntity
  8
0
  6
CONTINUOUS
100
AcDbLine
 10
3.978745891735324
 20
3.488090315652877
 30
0.0
 11
2.000373521109399
 21
5.466462686278803
 31
0.0
  0
LINE
  5
1B0ED
330
1B0BF
100
AcDbEntity
  8
0
  6
CONTINUOUS
100
AcDbLine
 10
7.191616947100819
 20
0.948738469367568
 30
0.0
 11
6.11619119566614
 21
2.024164220802247
 31
0.0
  0
LINE
  5
1B0EE
330
1B0BF
100
AcDbEntity
  8
0
  6
CONTINUOUS
100
AcDbLine
 10
7.399857047913149
 20
1.414017577635424
 30
0.0
 11
6.324373773397875
 21
2.489500852150698
 31
0.0
  0
LINE
  5
1B0EF
330
1B0BF
100
AcDbEntity
  8
0
  6
CONTINUOUS
100
AcDbLine
 10
7.608097148725479
 20
1.879296685903281
 30
0.0
 11
6.53255635112961
 21
2.95483748349915
 31
0.0
  0
LINE
  5
1B0F0
330
1B0BF
100
AcDbEntity
  8
0
  6
CONTINUOUS
100
AcDbLine
 10
7.816337249537808
 20
2.344575794171138
 30
0.0
 11
6.740738928861345
 21
3.420174114847601
 31
0.0
  0
LINE
  5
1B0F1
330
1B0BF
100
AcDbEntity
  8
0
  6
CONTINUOUS
100
AcDbLine
 10
3.310241080789734
 20
4.830114335678653
 30
0.0
 11
2.298470085204666
 21
5.84188533126372
 31
0.0
  0
LINE
  5
1B0F2
330
1B0BF
100
AcDbEntity
  8
0
  6
CONTINUOUS
100
AcDbLine
 10
3.60832983563551
 20
5.205544789913063
 30
0.0
 11
2.596566649299935
 21
6.217307976248638
 31
0.0
  0
LINE
  5
1B0F3
330
1B0BF
100
AcDbEntity
  8
0
  6
CONTINUOUS
100
AcDbLine
 10
3.906418590481286
 20
5.580975244147473
 30
0.0
 11
2.894663213395203
 21
6.592730621233557
 31
0.0
  0
LINE
  5
1B0F4
330
1B0BF
100
AcDbEntity
  8
0
  6
CONTINUOUS
100
AcDbLine
 10
4.204507345327062
 20
5.956405698381884
 30
0.0
 11
3.192759777490472
 21
6.968153266218474
 31
0.0
  0
LINE
  5
1B0F5
330
1B0BF
100
AcDbEntity
  8
0
  6
CONTINUOUS
100
AcDbLine
 10
8.466032252791512
 20
2.368399999997621
 30
0.0
 11
6.948921506593081
 21
3.885510746196053
 31
0.0
  0
LINE
  5
1B0F6
330
1B0BF
100
AcDbEntity
  8
0
  6
CONTINUOUS
100
AcDbLine
 10
9.139551461871699
 20
2.36839999999762
 30
0.0
 11
7.157104084324816
 21
4.350847377544504
 31
0.0
  0
LINE
  5
1B0F7
330
1B0BF
100
AcDbEntity
  8
0
  6
CONTINUOUS
100
AcDbLine
 10
4.502596100172839
 20
6.331836152616295
 30
0.0
 11
3.49085634158574
 21
7.343575911203393
 31
0.0
  0
LINE
  5
1B0F8
330
1B0BF
100
AcDbEntity
  8
0
  6
CONTINUOUS
100
AcDbLine
 10
4.800684855018615
 20
6.707266606850705
 30
0.0
 11
3.788952905681008
 21
7.718998556188312
 31
0.0
  0
LINE
  5
1B0F9
330
1B0BF
100
AcDbEntity
  8
0
  6
CONTINUOUS
100
AcDbLine
 10
12.18154012887317
 20
-0.0000694579236642
 30
0.0
 11
11.32140332908496
 21
0.8600673418645499
 31
0.0
  0
LINE
  5
1B0FA
330
1B0BF
100
AcDbEntity
  8
0
  6
CONTINUOUS
100
AcDbLine
 10
12.85501608323566
 20
-0.0000262032059659
 30
0.0
 11
10.77672456435345
 21
2.078265315676246
 31
0.0
  0
LINE
  5
1B0FB
330
1B0BF
100
AcDbEntity
  8
0
  6
CONTINUOUS
100
AcDbLine
 10
9.813070670951886
 20
2.36839999999762
 30
0.0
 11
8.51047067095321
 21
3.670999999996297
 31
0.0
  0
LINE
  5
1B0FC
330
1B0BF
100
AcDbEntity
  8
0
  6
CONTINUOUS
100
AcDbLine
 10
10.48658988003207
 20
2.36839999999762
 30
0.0
 11
9.183989880033396
 21
3.670999999996297
 31
0.0
  0
LINE
  5
1B0FD
330
1B0BF
100
AcDbEntity
  8
0
  6
CONTINUOUS
100
AcDbLine
 10
8.441048632286794
 20
3.740422038662712
 30
0.0
 11
7.365286662056551
 21
4.816184008892956
 31
0.0
  0
LINE
  5
1B0FE
330
1B0BF
100
AcDbEntity
  8
0
  6
CONTINUOUS
100
AcDbLine
 10
8.649187485808454
 20
4.205802394221237
 30
0.0
 11
7.573469239788285
 21
5.281520640241407
 31
0.0
  0
LINE
  5
1B0FF
330
1B0BF
100
AcDbEntity
  8
0
  6
CONTINUOUS
100
AcDbLine
 10
5.098773609864391
 20
7.082697061085115
 30
0.0
 11
4.087049469776277
 21
8.09442120117323
 31
0.0
  0
LINE
  5
1B100
330
1B0BF
100
AcDbEntity
  8
0
  6
CONTINUOUS
100
AcDbLine
 10
5.396862364710167
 20
7.458127515319526
 30
0.0
 11
4.385146033871544
 21
8.469843846158149
 31
0.0
  0
LINE
  5
1B101
330
1B0BF
100
AcDbEntity
  8
0
  6
CONTINUOUS
100
AcDbLine
 10
13.04801363231285
 20
0.4804954567970334
 30
0.0
 11
9.85750908911358
 21
3.670999999996297
 31
0.0
  0
LINE
  5
1B102
330
1B0BF
100
AcDbEntity
  8
0
  6
CONTINUOUS
100
AcDbLine
 10
8.857326339330116
 20
4.671182749779763
 30
0.0
 11
7.781651817520021
 21
5.746857271589858
 31
0.0
  0
LINE
  5
1B103
330
1B0BF
100
AcDbEntity
  8
0
  6
CONTINUOUS
100
AcDbLine
 10
5.694951119555943
 20
7.833557969553937
 30
0.0
 11
4.765409089118624
 21
8.763099999991255
 31
0.0
  0
LINE
  5
1B104
330
1B0BF
100
AcDbEntity
  8
0
  6
CONTINUOUS
100
AcDbLine
 10
12.50286117236978
 20
1.699167125820288
 30
0.0
 11
9.68611877250287
 21
4.515909525687196
 31
0.0
  0
LINE
  5
1B105
330
1B0BF
100
AcDbEntity
  8
0
  6
CONTINUOUS
100
AcDbLine
 10
9.065465192851777
 20
5.136563105338288
 30
0.0
 11
7.989834395251757
 21
6.21219390293831
 31
0.0
  0
LINE
  5
1B106
330
1B0BF
100
AcDbEntity
  8
0
  6
CONTINUOUS
100
AcDbLine
 10
5.993039874401719
 20
8.208988423788346
 30
0.0
 11
5.43892829819881
 21
8.763099999991255
 31
0.0
  0
LINE
  5
1B107
330
1B0BF
100
AcDbEntity
  8
0
  6
CONTINUOUS
100
AcDbLine
 10
11.95770871242671
 20
2.917838794843543
 30
0.0
 11
8.19801697298349
 21
6.677530534286761
 31
0.0
  0
LINE
  5
1B108
330
1B0BF
100
AcDbEntity
  8
0
  6
CONTINUOUS
100
AcDbLine
 10
6.291128629247495
 20
8.584418878022756
 30
0.0
 11
6.112447507278997
 21
8.763099999991255
 31
0.0
  0
LINE
  5
1B109
330
1B0BF
100
AcDbEntity
  8
0
  6
CONTINUOUS
100
AcDbLine
 10
11.41255625248364
 20
4.136510463866797
 30
0.0
 11
8.406199550715227
 21
7.142867165635211
 31
0.0
  0
LINE
  5
1B10A
330
1B0BF
100
AcDbEntity
  8
0
  6
CONTINUOUS
100
AcDbLine
 10
10.86740379254057
 20
5.355182132890051
 30
0.0
 11
8.614382128446962
 21
7.608203796983664
 31
0.0
  0
LINE
  5
1B10B
330
1B0BF
100
AcDbEntity
  8
0
  6
CONTINUOUS
100
AcDbLine
 10
10.3222513325975
 20
6.573853801913305
 30
0.0
 11
8.822564706178696
 21
8.073540428332114
 31
0.0
  0
LINE
  5
1B10C
330
1B0BF
100
AcDbEntity
  8
0
  6
CONTINUOUS
100
AcDbLine
 10
9.777098872654436
 20
7.792525470936562
 30
0.0
 11
9.030747283910433
 21
8.538877059680566
 31
0.0
  0
ENDBLK
  5
1B24E
330
1B0BF
100
AcDbEntity
  8
0
100
AcDbBlockEnd
  0
BLOCK
  5
1B24F
330
1B10D
100
AcDbEntity
  8
0
100
AcDbBlockBegin
  2
*X155
 70
     1
 10
0.0
 20
0.0
 30
0.0
  3
*X155
  1

  0
LINE
  5
1B10E
330
1B10D
100
AcDbEntity
  8
0
  6
CONTINUOUS
100
AcDbLine
 10
10.67292308101235
 20
8.445076852443387
 30
0.0
 11
10.99094622856022
 21
8.763099999991255
 31
0.0
  0
LINE
  5
1B10F
330
1B10D
100
AcDbEntity
  8
0
  6
CONTINUOUS
100
AcDbLine
 10
10.87250383178748
 20
7.971138394138331
 30
0.0
 11
11.6644654376404
 21
8.763099999991255
 31
0.0
  0
LINE
  5
1B110
330
1B10D
100
AcDbEntity
  8
0
  6
CONTINUOUS
100
AcDbLine
 10
11.07208458256261
 20
7.497199935833273
 30
0.0
 11
12.12126590876355
 21
8.546381262034211
 31
0.0
  0
LINE
  5
1B111
330
1B10D
100
AcDbEntity
  8
0
  6
CONTINUOUS
100
AcDbLine
 10
11.27166533333774
 20
7.023261477528216
 30
0.0
 11
12.32085164573666
 21
8.072447789927136
 31
0.0
  0
LINE
  5
1B112
330
1B10D
100
AcDbEntity
  8
0
  6
CONTINUOUS
100
AcDbLine
 10
11.47124608411287
 20
6.549323019223158
 30
0.0
 11
12.52043738270977
 21
7.59851431782006
 31
0.0
  0
LINE
  5
1B113
330
1B10D
100
AcDbEntity
  8
0
  6
CONTINUOUS
100
AcDbLine
 10
11.670826834888
 20
6.075384560918101
 30
0.0
 11
12.72002311968288
 21
7.124580845712984
 31
0.0
  0
LINE
  5
1B114
330
1B10D
100
AcDbEntity
  8
0
  6
CONTINUOUS
100
AcDbLine
 10
11.87040758566313
 20
5.601446102613043
 30
0.0
 11
12.91960885665599
 21
6.650647373605907
 31
0.0
  0
LINE
  5
1B115
330
1B10D
100
AcDbEntity
  8
0
  6
CONTINUOUS
100
AcDbLine
 10
12.06998833643825
 20
5.127507644307986
 30
0.0
 11
13.1191945936291
 21
6.176713901498832
 31
0.0
  0
LINE
  5
1B116
330
1B10D
100
AcDbEntity
  8
0
  6
CONTINUOUS
100
AcDbLine
 10
12.26956908721338
 20
4.65356918600293
 30
0.0
 11
13.31878033060221
 21
5.702780429391757
 31
0.0
  0
LINE
  5
1B117
330
1B10D
100
AcDbEntity
  8
0
  6
CONTINUOUS
100
AcDbLine
 10
12.46914983798851
 20
4.179630727697873
 30
0.0
 11
13.51836606757532
 21
5.228846957284683
 31
0.0
  0
LINE
  5
1B118
330
1B10D
100
AcDbEntity
  8
0
  6
CONTINUOUS
100
AcDbLine
 10
12.66873058876364
 20
3.705692269392816
 30
0.0
 11
13.71795180454843
 21
4.754913485177607
 31
0.0
  0
LINE
  5
1B119
330
1B10D
100
AcDbEntity
  8
0
  6
CONTINUOUS
100
AcDbLine
 10
12.86831133953877
 20
3.231753811087759
 30
0.0
 11
13.91753754152154
 21
4.280980013070531
 31
0.0
  0
LINE
  5
1B11A
330
1B10D
100
AcDbEntity
  8
0
  6
CONTINUOUS
100
AcDbLine
 10
13.0678920903139
 20
2.757815352782702
 30
0.0
 11
14.11712327849465
 21
3.807046540963456
 31
0.0
  0
LINE
  5
1B11B
330
1B10D
100
AcDbEntity
  8
0
  6
CONTINUOUS
100
AcDbLine
 10
13.26747284108903
 20
2.283876894477644
 30
0.0
 11
14.31670901546777
 21
3.333113068856379
 31
0.0
  0
LINE
  5
1B11C
330
1B10D
100
AcDbEntity
  8
0
  6
CONTINUOUS
100
AcDbLine
 10
16.36767838827179
 20
8.751678487061342
 30
0.0
 11
16.50332410898388
 21
8.887324207773432
 31
0.0
  0
LINE
  5
1B11D
330
1B10D
100
AcDbEntity
  8
0
  6
CONTINUOUS
100
AcDbLine
 10
15.96190732182191
 20
7.67238821153127
 30
0.0
 11
16.68735328004734
 21
8.397834169756699
 31
0.0
  0
LINE
  5
1B11E
330
1B10D
100
AcDbEntity
  8
0
  6
CONTINUOUS
100
AcDbLine
 10
15.55613625537202
 20
6.593097936001196
 30
0.0
 11
16.87138245111079
 21
7.908344131739965
 31
0.0
  0
LINE
  5
1B11F
330
1B10D
100
AcDbEntity
  8
0
  6
CONTINUOUS
100
AcDbLine
 10
15.15036518892213
 20
5.513807660471122
 30
0.0
 11
17.05541162217424
 21
7.418854093723231
 31
0.0
  0
LINE
  5
1B120
330
1B10D
100
AcDbEntity
  8
0
  6
CONTINUOUS
100
AcDbLine
 10
14.74459412247225
 20
4.434517384941048
 30
0.0
 11
17.2394407932377
 21
6.929364055706499
 31
0.0
  0
LINE
  5
1B121
330
1B10D
100
AcDbEntity
  8
0
  6
CONTINUOUS
100
AcDbLine
 10
14.33882305602236
 20
3.355227109410975
 30
0.0
 11
17.42346996430115
 21
6.439874017689766
 31
0.0
  0
LINE
  5
1B122
330
1B10D
100
AcDbEntity
  8
0
  6
CONTINUOUS
100
AcDbLine
 10
13.46705359186416
 20
1.809938436172586
 30
0.0
 11
16.0819338255367
 21
4.424818669845129
 31
0.0
  0
LINE
  5
1B123
330
1B10D
100
AcDbEntity
  8
0
  6
CONTINUOUS
100
AcDbLine
 10
16.63283254238972
 20
4.975717386698149
 30
0.0
 11
17.60749913536461
 21
5.950383979673033
 31
0.0
  0
LINE
  5
1B124
330
1B10D
100
AcDbEntity
  8
0
  6
CONTINUOUS
100
AcDbLine
 10
13.66663434263929
 20
1.335999977867529
 30
0.0
 11
15.67604797733754
 21
3.345413612565779
 31
0.0
  0
LINE
  5
1B125
330
1B10D
100
AcDbEntity
  8
0
  6
CONTINUOUS
100
AcDbLine
 10
13.86621509341442
 20
0.8620615195624723
 30
0.0
 11
15.27016212913838
 21
2.26600855528643
 31
0.0
  0
LINE
  5
1B126
330
1B10D
100
AcDbEntity
  8
0
  6
CONTINUOUS
100
AcDbLine
 10
16.81682257348267
 20
4.486188208710908
 30
0.0
 11
17.79152830642806
 21
5.460893941656299
 31
0.0
  0
LINE
  5
1B127
330
1B10D
100
AcDbEntity
  8
0
  6
CONTINUOUS
100
AcDbLine
 10
17.00081260457561
 20
3.996659030723667
 30
0.0
 11
17.97555747749151
 21
4.971403903639565
 31
0.0
  0
LINE
  5
1B128
330
1B10D
100
AcDbEntity
  8
0
  6
CONTINUOUS
100
AcDbLine
 10
20.74362343514722
 20
8.412989070375462
 30
0.0
 11
21.09373436476302
 21
8.763099999991256
 31
0.0
  0
LINE
  5
1B129
330
1B10D
100
AcDbEntity
  8
0
  6
CONTINUOUS
100
AcDbLine
 10
20.25401257174777
 20
7.249858997895826
 30
0.0
 11
21.7672535738432
 21
8.763099999991255
 31
0.0
  0
LINE
  5
1B12A
330
1B10D
100
AcDbEntity
  8
0
  6
CONTINUOUS
100
AcDbLine
 10
14.06579584418955
 20
0.3881230612574149
 30
0.0
 11
14.86427628093921
 21
1.186603498007082
 31
0.0
  0
LINE
  5
1B12B
330
1B10D
100
AcDbEntity
  8
0
  6
CONTINUOUS
100
AcDbLine
 10
14.26537659496467
 20
-0.0858153970476412
 30
0.0
 11
14.45839043274005
 21
0.1071984407277329
 31
0.0
  0
LINE
  5
1B12C
330
1B10D
100
AcDbEntity
  8
0
  6
CONTINUOUS
100
AcDbLine
 10
17.18480263566856
 20
3.507129852736426
 30
0.0
 11
18.15958664855496
 21
4.481913865622833
 31
0.0
  0
LINE
  5
1B12D
330
1B10D
100
AcDbEntity
  8
0
  6
CONTINUOUS
100
AcDbLine
 10
17.3687926667615
 20
3.017600674749186
 30
0.0
 11
18.34361581961842
 21
3.9924238276061
 31
0.0
  0
LINE
  5
1B12E
330
1B10D
100
AcDbEntity
  8
0
  6
CONTINUOUS
100
AcDbLine
 10
19.76440170834832
 20
6.086728925416191
 30
0.0
 11
22.33924590259489
 21
8.661573119662755
 31
0.0
  0
LINE
  5
1B12F
330
1B10D
100
AcDbEntity
  8
0
  6
CONTINUOUS
100
AcDbLine
 10
19.27479084494887
 20
4.923598852936555
 30
0.0
 11
21.84929622842713
 21
7.498104236414807
 31
0.0
  0
LINE
  5
1B130
330
1B10D
100
AcDbEntity
  8
0
  6
CONTINUOUS
100
AcDbLine
 10
17.55278269785445
 20
2.528071496761945
 30
0.0
 11
18.52764499068187
 21
3.502933789589366
 31
0.0
  0
LINE
  5
1B131
330
1B10D
100
AcDbEntity
  8
0
  6
CONTINUOUS
100
AcDbLine
 10
18.78517998154942
 20
3.760468780456919
 30
0.0
 11
21.35934655425936
 21
6.33463535316686
 31
0.0
  0
LINE
  5
1B132
330
1B10D
100
AcDbEntity
  8
0
  6
CONTINUOUS
100
AcDbLine
 10
17.73677272894739
 20
2.038542318774704
 30
0.0
 11
20.8693968800916
 21
5.171166469918914
 31
0.0
  0
LINE
  5
1B133
330
1B10D
100
AcDbEntity
  8
0
  6
CONTINUOUS
100
AcDbLine
 10
17.92076276004034
 20
1.549013140787464
 30
0.0
 11
20.37944720592384
 21
4.007697586670968
 31
0.0
  0
LINE
  5
1B134
330
1B10D
100
AcDbEntity
  8
0
  6
CONTINUOUS
100
AcDbLine
 10
18.10475279113329
 20
1.059483962800223
 30
0.0
 11
19.88949753175608
 21
2.84422870342302
 31
0.0
  0
LINE
  5
1B135
330
1B10D
100
AcDbEntity
  8
0
  6
CONTINUOUS
100
AcDbLine
 10
18.28874282222623
 20
0.5699547848129822
 30
0.0
 11
19.39954785758832
 21
1.680759820175074
 31
0.0
  0
LINE
  5
1B136
330
1B10D
100
AcDbEntity
  8
0
  6
CONTINUOUS
100
AcDbLine
 10
18.47273285331918
 20
0.0804256068257416
 30
0.0
 11
18.90959818342056
 21
0.517290936927127
 31
0.0
  0
LINE
  5
1B137
330
1B10D
100
AcDbEntity
  8
0
  6
CONTINUOUS
100
AcDbLine
 10
14.3590401358224
 20
-0.1570118376323384
 30
0.0
 11
14.24903296539946
 21
-0.0470046672093929
 31
0.0
  0
LINE
  5
1B138
330
1B10D
100
AcDbEntity
  8
0
  6
CONTINUOUS
100
AcDbLine
 10
14.54309291258661
 20
0.332454594683643
 30
0.0
 11
13.75908329123172
 21
1.116464216038529
 31
0.0
  0
LINE
  5
1B139
330
1B10D
100
AcDbEntity
  8
0
  6
CONTINUOUS
100
AcDbLine
 10
14.72714568935081
 20
0.8219210269996244
 30
0.0
 11
13.26913361706399
 21
2.27993309928645
 31
0.0
  0
LINE
  5
1B13A
330
1B10D
100
AcDbEntity
  8
0
  6
CONTINUOUS
100
AcDbLine
 10
14.91119846611502
 20
1.311387459315606
 30
0.0
 11
12.77918394289625
 21
3.443401982534371
 31
0.0
  0
LINE
  5
1B13B
330
1B10D
100
AcDbEntity
  8
0
  6
CONTINUOUS
100
AcDbLine
 10
15.09525124287922
 20
1.800853891631587
 30
0.0
 11
12.28923426872852
 21
4.606870865782293
 31
0.0
  0
LINE
  5
1B13C
330
1B10D
100
AcDbEntity
  8
0
  6
CONTINUOUS
100
AcDbLine
 10
15.27930401964343
 20
2.290320323947569
 30
0.0
 11
11.79928459456078
 21
5.770339749030213
 31
0.0
  0
LINE
  5
1B13D
330
1B10D
100
AcDbEntity
  8
0
  6
CONTINUOUS
100
AcDbLine
 10
15.46335679640763
 20
2.77978675626355
 30
0.0
 11
14.48885470994921
 21
3.754288842721972
 31
0.0
  0
LINE
  5
1B13E
330
1B10D
100
AcDbEntity
  8
0
  6
CONTINUOUS
100
AcDbLine
 10
13.88507249233704
 20
4.358071060334137
 30
0.0
 11
11.30933492039305
 21
6.933808632278135
 31
0.0
  0
LINE
  5
1B13F
330
1B10D
100
AcDbEntity
  8
0
  6
CONTINUOUS
100
AcDbLine
 10
18.75840522805855
 20
0.1582575336928151
 30
0.0
 11
18.25383727664818
 21
0.6628254851031863
 31
0.0
  0
LINE
  5
1B140
330
1B10D
100
AcDbEntity
  8
0
  6
CONTINUOUS
100
AcDbLine
 10
15.64740957317184
 20
3.269253188579531
 30
0.0
 11
14.67288388101266
 21
4.243778880738705
 31
0.0
  0
LINE
  5
1B141
330
1B10D
100
AcDbEntity
  8
0
  6
CONTINUOUS
100
AcDbLine
 10
13.39509276772158
 20
5.521569994029786
 30
0.0
 11
10.81938524622531
 21
8.097277515526056
 31
0.0
  0
LINE
  5
1B142
330
1B10D
100
AcDbEntity
  8
0
  6
CONTINUOUS
100
AcDbLine
 10
18.95798597883369
 20
0.6321959919978686
 30
0.0
 11
17.84825644852853
 21
1.741925522303024
 31
0.0
  0
LINE
  5
1B143
330
1B10D
100
AcDbEntity
  8
0
  6
CONTINUOUS
100
AcDbLine
 10
19.15756672960882
 20
1.106134450302922
 30
0.0
 11
17.44267562040888
 21
2.821025559502861
 31
0.0
  0
LINE
  5
1B144
330
1B10D
100
AcDbEntity
  8
0
  6
CONTINUOUS
100
AcDbLine
 10
15.83146234993604
 20
3.758719620895513
 30
0.0
 11
14.85691305207612
 21
4.733268918755439
 31
0.0
  0
LINE
  5
1B145
330
1B10D
100
AcDbEntity
  8
0
  6
CONTINUOUS
100
AcDbLine
 10
16.01551512670025
 20
4.248186053211494
 30
0.0
 11
15.04094222313957
 21
5.222758956772172
 31
0.0
  0
LINE
  5
1B146
330
1B10D
100
AcDbEntity
  8
0
  6
CONTINUOUS
100
AcDbLine
 10
12.90511304310612
 20
6.685068927725435
 30
0.0
 11
10.8270819708403
 21
8.763099999991255
 31
0.0
  0
LINE
  5
1B147
330
1B10D
100
AcDbEntity
  8
0
  6
CONTINUOUS
100
AcDbLine
 10
12.41513331849066
 20
7.848567861421083
 30
0.0
 11
11.50060117992049
 21
8.763099999991255
 31
0.0
  0
LINE
  5
1B148
330
1B10D
100
AcDbEntity
  8
0
  6
CONTINUOUS
100
AcDbLine
 10
19.35714748038395
 20
1.580072908607975
 30
0.0
 11
17.03709479228923
 21
3.900125596702697
 31
0.0
  0
LINE
  5
1B149
330
1B10D
100
AcDbEntity
  8
0
  6
CONTINUOUS
100
AcDbLine
 10
19.55672823115909
 20
2.054011366913028
 30
0.0
 11
16.63151396416958
 21
4.979225633902534
 31
0.0
  0
LINE
  5
1B14A
330
1B10D
100
AcDbEntity
  8
0
  6
CONTINUOUS
100
AcDbLine
 10
16.19956790346445
 20
4.737652485527476
 30
0.0
 11
15.22497139420302
 21
5.712248994788904
 31
0.0
  0
LINE
  5
1B14B
330
1B10D
100
AcDbEntity
  8
0
  6
CONTINUOUS
100
AcDbLine
 10
16.38362068022866
 20
5.227118917843457
 30
0.0
 11
15.40900056526648
 21
6.201739032805637
 31
0.0
  0
LINE
  5
1B14C
330
1B10D
100
AcDbEntity
  8
0
  6
CONTINUOUS
100
AcDbLine
 10
19.75630898193422
 20
2.527949825218081
 30
0.0
 11
18.70774536448286
 21
3.576513442669441
 31
0.0
  0
LINE
  5
1B14D
330
1B10D
100
AcDbEntity
  8
0
  6
CONTINUOUS
100
AcDbLine
 10
19.95588973270936
 20
3.001888283523134
 30
0.0
 11
18.90726987211446
 21
4.050508144118028
 31
0.0
  0
LINE
  5
1B14E
330
1B10D
100
AcDbEntity
  8
0
  6
CONTINUOUS
100
AcDbLine
 10
20.15547048348449
 20
3.475826741828186
 30
0.0
 11
19.10679437974606
 21
4.524502845566614
 31
0.0
  0
LINE
  5
1B14F
330
1B10D
100
AcDbEntity
  8
0
  6
CONTINUOUS
100
AcDbLine
 10
20.35505123425962
 20
3.94976520013324
 30
0.0
 11
19.30631888737766
 21
4.998497547015201
 31
0.0
  0
LINE
  5
1B150
330
1B10D
100
AcDbEntity
  8
0
  6
CONTINUOUS
100
AcDbLine
 10
20.55463198503475
 20
4.423703658438292
 30
0.0
 11
19.50584339500926
 21
5.472492248463787
 31
0.0
  0
LINE
  5
1B151
330
1B10D
100
AcDbEntity
  8
0
  6
CONTINUOUS
100
AcDbLine
 10
18.37481191085755
 20
3.909446896294752
 30
0.0
 11
15.59302973632993
 21
6.691229070822371
 31
0.0
  0
LINE
  5
1B152
330
1B10D
100
AcDbEntity
  8
0
  6
CONTINUOUS
100
AcDbLine
 10
17.96904084440766
 20
4.988737171824825
 30
0.0
 11
15.77705890739338
 21
7.180719108839104
 31
0.0
  0
LINE
  5
1B153
330
1B10D
100
AcDbEntity
  8
0
  6
CONTINUOUS
100
AcDbLine
 10
17.56326977795777
 20
6.068027447354899
 30
0.0
 11
15.96108807845684
 21
7.670209146855838
 31
0.0
  0
LINE
  5
1B154
330
1B10D
100
AcDbEntity
  8
0
  6
CONTINUOUS
100
AcDbLine
 10
17.15749871150789
 20
7.147317722884972
 30
0.0
 11
16.14511724952029
 21
8.15969918487257
 31
0.0
  0
LINE
  5
1B155
330
1B10D
100
AcDbEntity
  8
0
  6
CONTINUOUS
100
AcDbLine
 10
16.751727645058
 20
8.226607998415046
 30
0.0
 11
16.32914642058374
 21
8.649189222889303
 31
0.0
  0
LINE
  5
1B156
330
1B10D
100
AcDbEntity
  8
0
  6
CONTINUOUS
100
AcDbLine
 10
20.75421273580989
 20
4.897642116743345
 30
0.0
 11
19.70536790264086
 21
5.946486949912374
 31
0.0
  0
LINE
  5
1B157
330
1B10D
100
AcDbEntity
  8
0
  6
CONTINUOUS
100
AcDbLine
 10
20.95379348658502
 20
5.371580575048398
 30
0.0
 11
19.90489241027246
 21
6.42048165136096
 31
0.0
  0
LINE
  5
1B158
330
1B10D
100
AcDbEntity
  8
0
  6
CONTINUOUS
100
AcDbLine
 10
21.15337423736015
 20
5.845519033353452
 30
0.0
 11
20.10441691790406
 21
6.894476352809547
 31
0.0
  0
LINE
  5
1B159
330
1B10D
100
AcDbEntity
  8
0
  6
CONTINUOUS
100
AcDbLine
 10
21.35295498813529
 20
6.319457491658505
 30
0.0
 11
20.30394142553566
 21
7.368471054258134
 31
0.0
  0
LINE
  5
1B15A
330
1B10D
100
AcDbEntity
  8
0
  6
CONTINUOUS
100
AcDbLine
 10
21.55253573891042
 20
6.793395949963558
 30
0.0
 11
20.50346593316726
 21
7.842465755706721
 31
0.0
  0
LINE
  5
1B15B
330
1B10D
100
AcDbEntity
  8
0
  6
CONTINUOUS
100
AcDbLine
 10
21.75211648968556
 20
7.267334408268612
 30
0.0
 11
20.70299044079886
 21
8.316460457155308
 31
0.0
  0
LINE
  5
1B15C
330
1B10D
100
AcDbEntity
  8
0
  6
CONTINUOUS
100
AcDbLine
 10
21.95169724046069
 20
7.741272866573663
 30
0.0
 11
20.9298701070431
 21
8.763099999991256
 31
0.0
  0
LINE
  5
1B15D
330
1B10D
100
AcDbEntity
  8
0
  6
CONTINUOUS
100
AcDbLine
 10
22.15127799123582
 20
8.215211324878716
 30
0.0
 11
21.60338931612328
 21
8.763099999991256
 31
0.0
  0
LINE
  5
1B15E
330
1B10D
100
AcDbEntity
  8
0
  6
CONTINUOUS
100
AcDbLine
 10
22.35085874201096
 20
8.689149783183769
 30
0.0
 11
22.27690852520347
 21
8.763099999991255
 31
0.0
  0
ENDBLK
  5
1B250
330
1B10D
100
AcDbEntity
  8
0
100
AcDbBlockEnd
  0
BLOCK
  5
1B251
330
1B15F
100
AcDbEntity
  8
0
100
AcDbBlockBegin
  2
*X156
 70
     1
 10
0.0
 20
0.0
 30
0.0
  3
*X156
  1

  0
LINE
  5
1B160
330
1B15F
100
AcDbEntity
  8
0
  6
CONTINUOUS
100
AcDbLine
 10
23.19462913593892
 20
8.169917934846424
 30
0.0
 11
23.70775465517246
 21
8.683043454079957
 31
0.0
  0
LINE
  5
1B161
330
1B15F
100
AcDbEntity
  8
0
  6
CONTINUOUS
100
AcDbLine
 10
22.64923161835078
 20
6.951001208178088
 30
0.0
 11
23.9159364069932
 21
8.217705996820516
 31
0.0
  0
LINE
  5
1B162
330
1B15F
100
AcDbEntity
  8
0
  6
CONTINUOUS
100
AcDbLine
 10
22.10383410076263
 20
5.732084481509751
 30
0.0
 11
24.12411815881395
 21
7.752368539561078
 31
0.0
  0
LINE
  5
1B163
330
1B15F
100
AcDbEntity
  8
0
  6
CONTINUOUS
100
AcDbLine
 10
21.55843658317447
 20
4.513167754841414
 30
0.0
 11
24.3322999106347
 21
7.287031082301639
 31
0.0
  0
LINE
  5
1B164
330
1B15F
100
AcDbEntity
  8
0
  6
CONTINUOUS
100
AcDbLine
 10
21.01303906558632
 20
3.294251028173077
 30
0.0
 11
24.54048166245544
 21
6.821693625042199
 31
0.0
  0
LINE
  5
1B165
330
1B15F
100
AcDbEntity
  8
0
  6
CONTINUOUS
100
AcDbLine
 10
20.46764154799817
 20
2.075334301504738
 30
0.0
 11
23.28571549467848
 21
4.89340824818505
 31
0.0
  0
LINE
  5
1B166
330
1B15F
100
AcDbEntity
  8
0
  6
CONTINUOUS
100
AcDbLine
 10
19.92224403041002
 20
0.8564175748364002
 30
0.0
 11
22.74075865492779
 21
3.674932199354171
 31
0.0
  0
LINE
  5
1B167
330
1B15F
100
AcDbEntity
  8
0
  6
CONTINUOUS
100
AcDbLine
 10
23.67305085490148
 20
5.280743608408048
 30
0.0
 11
24.74866341427619
 21
6.356356167782759
 31
0.0
  0
LINE
  5
1B168
330
1B15F
100
AcDbEntity
  8
0
  6
CONTINUOUS
100
AcDbLine
 10
23.88118970842314
 20
4.815363252849522
 30
0.0
 11
24.95684516609694
 21
5.89101871052332
 31
0.0
  0
LINE
  5
1B169
330
1B15F
100
AcDbEntity
  8
0
  6
CONTINUOUS
100
AcDbLine
 10
19.73925852647308
 20
-0.0000871381807288
 30
0.0
 11
23.4103456646501
 21
3.670999999996297
 31
0.0
  0
LINE
  5
1B16A
330
1B15F
100
AcDbEntity
  8
0
  6
CONTINUOUS
100
AcDbLine
 10
24.0893285619448
 20
4.349982897290997
 30
0.0
 11
25.16502691791769
 21
5.42568125326388
 31
0.0
  0
LINE
  5
1B16B
330
1B15F
100
AcDbEntity
  8
0
  6
CONTINUOUS
100
AcDbLine
 10
20.41282099582748
 20
-0.0000438779065108
 30
0.0
 11
21.64944178675636
 21
1.236576913022366
 31
0.0
  0
LINE
  5
1B16C
330
1B15F
100
AcDbEntity
  8
0
  6
CONTINUOUS
100
AcDbLine
 10
22.78126487373161
 20
2.36839999999762
 30
0.0
 11
24.08386487373029
 21
3.670999999996297
 31
0.0
  0
LINE
  5
1B16D
330
1B15F
100
AcDbEntity
  8
0
  6
CONTINUOUS
100
AcDbLine
 10
24.29746741546646
 20
3.884602541732471
 30
0.0
 11
25.37320866973843
 21
4.960343796004441
 31
0.0
  0
LINE
  5
1B16E
330
1B15F
100
AcDbEntity
  8
0
  6
CONTINUOUS
100
AcDbLine
 10
21.08638346518189
 20
-0.0000006176322938
 30
0.0
 11
21.10379033335899
 21
0.0174062505448083
 31
0.0
  0
LINE
  5
1B16F
330
1B15F
100
AcDbEntity
  8
0
  6
CONTINUOUS
100
AcDbLine
 10
23.4547840828118
 20
2.36839999999762
 30
0.0
 11
25.58139042155918
 21
4.495006338745002
 31
0.0
  0
LINE
  5
1B170
330
1B15F
100
AcDbEntity
  8
0
  6
CONTINUOUS
100
AcDbLine
 10
29.30199999996933
 20
8.215615917155148
 30
0.0
 11
29.84948408280543
 21
8.763099999991255
 31
0.0
  0
LINE
  5
1B171
330
1B15F
100
AcDbEntity
  8
0
  6
CONTINUOUS
100
AcDbLine
 10
24.12830329189199
 20
2.36839999999762
 30
0.0
 11
25.78957217337993
 21
4.029668881485562
 31
0.0
  0
LINE
  5
1B172
330
1B15F
100
AcDbEntity
  8
0
  6
CONTINUOUS
100
AcDbLine
 10
29.30199999996933
 20
7.54209670807496
 30
0.0
 11
30.52300329188562
 21
8.763099999991255
 31
0.0
  0
LINE
  5
1B173
330
1B15F
100
AcDbEntity
  8
0
  6
CONTINUOUS
100
AcDbLine
 10
24.80182250097217
 20
2.36839999999762
 30
0.0
 11
25.99775392520067
 21
3.564331424226122
 31
0.0
  0
LINE
  5
1B174
330
1B15F
100
AcDbEntity
  8
0
  6
CONTINUOUS
100
AcDbLine
 10
29.30199999996933
 20
6.868577498994774
 30
0.0
 11
30.74199999996926
 21
8.308577498994712
 31
0.0
  0
LINE
  5
1B175
330
1B15F
100
AcDbEntity
  8
0
  6
CONTINUOUS
100
AcDbLine
 10
25.13028238392013
 20
2.023340673865392
 30
0.0
 11
26.20593567702142
 21
3.098993966966683
 31
0.0
  0
LINE
  5
1B176
330
1B15F
100
AcDbEntity
  8
0
  6
CONTINUOUS
100
AcDbLine
 10
25.33838066033617
 20
1.557919741201244
 30
0.0
 11
26.41411742884217
 21
2.633656509707244
 31
0.0
  0
LINE
  5
1B177
330
1B15F
100
AcDbEntity
  8
0
  6
CONTINUOUS
100
AcDbLine
 10
25.54647893675221
 20
1.092498808537098
 30
0.0
 11
26.62229918066291
 21
2.168319052447804
 31
0.0
  0
LINE
  5
1B178
330
1B15F
100
AcDbEntity
  8
0
  6
CONTINUOUS
100
AcDbLine
 10
25.75457721316825
 20
0.62707787587295
 30
0.0
 11
26.83048093248366
 21
1.702981595188365
 31
0.0
  0
LINE
  5
1B179
330
1B15F
100
AcDbEntity
  8
0
  6
CONTINUOUS
100
AcDbLine
 10
29.30199999996933
 20
6.195058289914587
 30
0.0
 11
30.74199999996926
 21
7.635058289914522
 31
0.0
  0
LINE
  5
1B17A
330
1B15F
100
AcDbEntity
  8
0
  6
CONTINUOUS
100
AcDbLine
 10
29.30199999996933
 20
5.521539080834401
 30
0.0
 11
30.74199999996926
 21
6.961539080834331
 31
0.0
  0
LINE
  5
1B17B
330
1B15F
100
AcDbEntity
  8
0
  6
CONTINUOUS
100
AcDbLine
 10
29.30199999996933
 20
4.848019871754214
 30
0.0
 11
30.74199999996925
 21
6.288019871754143
 31
0.0
  0
LINE
  5
1B17C
330
1B15F
100
AcDbEntity
  8
0
  6
CONTINUOUS
100
AcDbLine
 10
29.30199999996933
 20
4.174500662674028
 30
0.0
 11
30.74199999996925
 21
5.614500662673953
 31
0.0
  0
LINE
  5
1B17D
330
1B15F
100
AcDbEntity
  8
0
  6
CONTINUOUS
100
AcDbLine
 10
25.96267548958429
 20
0.1616569432088024
 30
0.0
 11
27.18411854636669
 21
1.383099999991207
 31
0.0
  0
LINE
  5
1B17E
330
1B15F
100
AcDbEntity
  8
0
  6
CONTINUOUS
100
AcDbLine
 10
29.30199999996933
 20
3.500981453593841
 30
0.0
 11
30.74199999996925
 21
4.940981453593762
 31
0.0
  0
LINE
  5
1B17F
330
1B15F
100
AcDbEntity
  8
0
  6
CONTINUOUS
100
AcDbLine
 10
26.50763775544691
 20
0.0330999999912356
 30
0.0
 11
27.85763775544689
 21
1.383099999991223
 31
0.0
  0
LINE
  5
1B180
330
1B15F
100
AcDbEntity
  8
0
  6
CONTINUOUS
100
AcDbLine
 10
29.30199999996933
 20
2.827462244513656
 30
0.0
 11
30.74199999996925
 21
4.267462244513574
 31
0.0
  0
LINE
  5
1B181
330
1B15F
100
AcDbEntity
  8
0
  6
CONTINUOUS
100
AcDbLine
 10
27.18115696452709
 20
0.0330999999912356
 30
0.0
 11
28.55073879889363
 21
1.402681834357775
 31
0.0
  0
LINE
  5
1B182
330
1B15F
100
AcDbEntity
  8
0
  6
CONTINUOUS
100
AcDbLine
 10
29.28241816560272
 20
2.134361201066866
 30
0.0
 11
30.74199999996924
 21
3.593943035433383
 31
0.0
  0
LINE
  5
1B183
330
1B15F
100
AcDbEntity
  8
0
  6
CONTINUOUS
100
AcDbLine
 10
27.85467617360728
 20
0.0330999999912356
 30
0.0
 11
30.74199999996924
 21
2.920423826353195
 31
0.0
  0
LINE
  5
1B184
330
1B15F
100
AcDbEntity
  8
0
  6
CONTINUOUS
100
AcDbLine
 10
28.53897559587887
 20
0.0438802131826428
 30
0.0
 11
30.73121978677781
 21
2.236124404081585
 31
0.0
  0
LINE
  5
1B185
330
1B15F
100
AcDbEntity
  8
0
  6
CONTINUOUS
100
AcDbLine
 10
29.45140055588722
 20
0.2827859641107988
 30
0.0
 11
30.49231403584965
 21
1.323699444073236
 31
0.0
  0
LINE
  5
1B186
330
1B15F
100
AcDbEntity
  8
0
  6
CONTINUOUS
100
AcDbLine
 10
19.59027867740337
 20
-0.0000967065718083
 30
0.0
 11
19.55485265190471
 21
0.035329318926844
 31
0.0
  0
LINE
  5
1B187
330
1B15F
100
AcDbEntity
  8
0
  6
CONTINUOUS
100
AcDbLine
 10
20.26375463176586
 20
-0.0000534518541091
 30
0.0
 11
19.76305575737534
 21
0.5006454225364014
 31
0.0
  0
LINE
  5
1B188
330
1B15F
100
AcDbEntity
  8
0
  6
CONTINUOUS
100
AcDbLine
 10
20.93723058612834
 20
-0.0000101971364099
 30
0.0
 11
19.97125886284597
 21
0.965961526145958
 31
0.0
  0
LINE
  5
1B189
330
1B15F
100
AcDbEntity
  8
0
  6
CONTINUOUS
100
AcDbLine
 10
21.25514828313686
 20
0.355591314935257
 30
0.0
 11
20.1794619683166
 21
1.431277629755512
 31
0.0
  0
LINE
  5
1B18A
330
1B15F
100
AcDbEntity
  8
0
  6
CONTINUOUS
100
AcDbLine
 10
21.46338838394921
 20
0.8208704232030986
 30
0.0
 11
20.38766507378723
 21
1.896593733365069
 31
0.0
  0
LINE
  5
1B18B
330
1B15F
100
AcDbEntity
  8
0
  6
CONTINUOUS
100
AcDbLine
 10
21.67162848476155
 20
1.28614953147094
 30
0.0
 11
20.59586817925786
 21
2.361909836974626
 31
0.0
  0
LINE
  5
1B18C
330
1B15F
100
AcDbEntity
  8
0
  6
CONTINUOUS
100
AcDbLine
 10
21.8798685855739
 20
1.751428639738782
 30
0.0
 11
20.80407128472849
 21
2.827225940584183
 31
0.0
  0
LINE
  5
1B18D
330
1B15F
100
AcDbEntity
  8
0
  6
CONTINUOUS
100
AcDbLine
 10
22.08810868638624
 20
2.216707748006623
 30
0.0
 11
21.01227439019912
 21
3.292542044193739
 31
0.0
  0
LINE
  5
1B18E
330
1B15F
100
AcDbEntity
  8
0
  6
CONTINUOUS
100
AcDbLine
 10
22.60993564347543
 20
2.36839999999762
 30
0.0
 11
21.22047749566975
 21
3.757858147803296
 31
0.0
  0
LINE
  5
1B18F
330
1B15F
100
AcDbEntity
  8
0
  6
CONTINUOUS
100
AcDbLine
 10
23.28345485255561
 20
2.36839999999762
 30
0.0
 11
21.42868060114038
 21
4.223174251412853
 31
0.0
  0
LINE
  5
1B190
330
1B15F
100
AcDbEntity
  8
0
  6
CONTINUOUS
100
AcDbLine
 10
26.29227406164219
 20
0.0330999999912356
 30
0.0
 11
25.80009199592872
 21
0.5252820657046957
 31
0.0
  0
LINE
  5
1B191
330
1B15F
100
AcDbEntity
  8
0
  6
CONTINUOUS
100
AcDbLine
 10
23.9569740616358
 20
2.36839999999762
 30
0.0
 11
21.63688370661101
 21
4.688490355022409
 31
0.0
  0
LINE
  5
1B192
330
1B15F
100
AcDbEntity
  8
0
  6
CONTINUOUS
100
AcDbLine
 10
26.96579327072237
 20
0.0330999999912356
 30
0.0
 11
25.2554132311971
 21
1.743480039516508
 31
0.0
  0
LINE
  5
1B193
330
1B15F
100
AcDbEntity
  8
0
  6
CONTINUOUS
100
AcDbLine
 10
24.63049327071599
 20
2.36839999999762
 30
0.0
 11
23.32789327071731
 21
3.670999999996297
 31
0.0
  0
LINE
  5
1B194
330
1B15F
100
AcDbEntity
  8
0
  6
CONTINUOUS
100
AcDbLine
 10
22.92098674744635
 20
4.077906523267254
 30
0.0
 11
21.84508681208164
 21
5.153806458631966
 31
0.0
  0
LINE
  5
1B195
330
1B15F
100
AcDbEntity
  8
0
  6
CONTINUOUS
100
AcDbLine
 10
27.63931247980256
 20
0.0330999999912356
 30
0.0
 11
24.0014124797975
 21
3.670999999996297
 31
0.0
  0
LINE
  5
1B196
330
1B15F
100
AcDbEntity
  8
0
  6
CONTINUOUS
100
AcDbLine
 10
23.129125600968
 20
4.5432868788258
 30
0.0
 11
22.05328991755227
 21
5.619122562241522
 31
0.0
  0
LINE
  5
1B197
330
1B15F
100
AcDbEntity
  8
0
  6
CONTINUOUS
100
AcDbLine
 10
28.31283168888275
 20
0.0330999999912356
 30
0.0
 11
24.16488385994816
 21
4.181047828925828
 31
0.0
  0
LINE
  5
1B198
330
1B15F
100
AcDbEntity
  8
0
  6
CONTINUOUS
100
AcDbLine
 10
23.33726445448964
 20
5.008667234384345
 30
0.0
 11
22.2614930230229
 21
6.084438665851079
 31
0.0
  0
LINE
  5
1B199
330
1B15F
100
AcDbEntity
  8
0
  6
CONTINUOUS
100
AcDbLine
 10
28.92085740005492
 20
0.0985934978992438
 30
0.0
 11
27.63635089796295
 21
1.383099999991217
 31
0.0
  0
LINE
  5
1B19A
330
1B15F
100
AcDbEntity
  8
0
  6
CONTINUOUS
100
AcDbLine
 10
26.43704649509776
 20
2.582404402856405
 30
0.0
 11
23.61992702019732
 21
5.399523877756844
 31
0.0
  0
LINE
  5
1B19B
330
1B15F
100
AcDbEntity
  8
0
  6
CONTINUOUS
100
AcDbLine
 10
23.54540330801128
 20
5.47404758994289
 30
0.0
 11
22.46969612849353
 21
6.549754769460635
 31
0.0
  0
LINE
  5
1B19C
330
1B15F
100
AcDbEntity
  8
0
  6
CONTINUOUS
100
AcDbLine
 10
29.42225615078443
 20
0.2707139562499279
 30
0.0
 11
28.30987010704312
 21
1.383099999991234
 31
0.0
  0
LINE
  5
1B19D
330
1B15F
100
AcDbEntity
  8
0
  6
CONTINUOUS
100
AcDbLine
 10
25.89179548232307
 20
3.801174624711282
 30
0.0
 11
22.67789923396416
 21
7.015070873070191
 31
0.0
  0
LINE
  5
1B19E
330
1B15F
100
AcDbEntity
  8
0
  6
CONTINUOUS
100
AcDbLine
 10
29.83624534690007
 20
0.5302439692144705
 30
0.0
 11
28.85811781497101
 21
1.508371501143527
 31
0.0
  0
LINE
  5
1B19F
330
1B15F
100
AcDbEntity
  8
0
  6
CONTINUOUS
100
AcDbLine
 10
25.34654446954838
 20
5.01994484656616
 30
0.0
 11
22.88610233943479
 21
7.480386976679748
 31
0.0
  0
LINE
  5
1B1A0
330
1B15F
100
AcDbEntity
  8
0
  6
CONTINUOUS
100
AcDbLine
 10
30.17865975401872
 20
0.8613487711760022
 30
0.0
 11
29.18888744090175
 21
1.851121084292977
 31
0.0
  0
LINE
  5
1B1A1
330
1B15F
100
AcDbEntity
  8
0
  6
CONTINUOUS
100
AcDbLine
 10
24.80129345677369
 20
6.238715068421037
 30
0.0
 11
23.09430544490542
 21
7.945703080289305
 31
0.0
  0
LINE
  5
1B1A2
330
1B15F
100
AcDbEntity
  8
0
  6
CONTINUOUS
100
AcDbLine
 10
30.45496647202376
 20
1.258561262251155
 30
0.0
 11
29.30199999996933
 21
2.411527734305588
 31
0.0
  0
LINE
  5
1B1A3
330
1B15F
100
AcDbEntity
  8
0
  6
CONTINUOUS
100
AcDbLine
 10
24.256042443999
 20
7.457485290275915
 30
0.0
 11
23.30250855037605
 21
8.411019183898862
 31
0.0
  0
LINE
  5
1B1A4
330
1B15F
100
AcDbEntity
  8
0
  6
CONTINUOUS
100
AcDbLine
 10
30.64868582078271
 20
1.738361122572387
 30
0.0
 11
29.30199999996933
 21
3.085046943385775
 31
0.0
  0
LINE
  5
1B1A5
330
1B15F
100
AcDbEntity
  8
0
  6
CONTINUOUS
100
AcDbLine
 10
23.71079143122431
 20
8.676255512130794
 30
0.0
 11
23.51071165584668
 21
8.876335287508416
 31
0.0
  0
LINE
  5
1B1A6
330
1B15F
100
AcDbEntity
  8
0
  6
CONTINUOUS
100
AcDbLine
 10
30.73802122914428
 20
2.322544923291007
 30
0.0
 11
29.30199999996933
 21
3.758566152465961
 31
0.0
  0
LINE
  5
1B1A7
330
1B15F
100
AcDbEntity
  8
0
  6
CONTINUOUS
100
AcDbLine
 10
30.74199999996924
 20
2.992085361546236
 30
0.0
 11
29.30199999996933
 21
4.432085361546148
 31
0.0
  0
LINE
  5
1B1A8
330
1B15F
100
AcDbEntity
  8
0
  6
CONTINUOUS
100
AcDbLine
 10
30.74199999996924
 20
3.665604570626419
 30
0.0
 11
29.30199999996933
 21
5.105604570626333
 31
0.0
  0
LINE
  5
1B1A9
330
1B15F
100
AcDbEntity
  8
0
  6
CONTINUOUS
100
AcDbLine
 10
30.74199999996925
 20
4.339123779706602
 30
0.0
 11
29.30199999996933
 21
5.77912377970652
 31
0.0
  0
LINE
  5
1B1AA
330
1B15F
100
AcDbEntity
  8
0
  6
CONTINUOUS
100
AcDbLine
 10
30.74199999996925
 20
5.012642988786785
 30
0.0
 11
29.30199999996933
 21
6.452642988786707
 31
0.0
  0
LINE
  5
1B1AB
330
1B15F
100
AcDbEntity
  8
0
  6
CONTINUOUS
100
AcDbLine
 10
30.74199999996925
 20
5.68616219786697
 30
0.0
 11
29.30199999996933
 21
7.126162197866894
 31
0.0
  0
LINE
  5
1B1AC
330
1B15F
100
AcDbEntity
  8
0
  6
CONTINUOUS
100
AcDbLine
 10
30.74199999996925
 20
6.359681406947153
 30
0.0
 11
29.30199999996933
 21
7.799681406947081
 31
0.0
  0
LINE
  5
1B1AD
330
1B15F
100
AcDbEntity
  8
0
  6
CONTINUOUS
100
AcDbLine
 10
30.74199999996926
 20
7.033200616027337
 30
0.0
 11
29.30199999996933
 21
8.473200616027269
 31
0.0
  0
LINE
  5
1B1AE
330
1B15F
100
AcDbEntity
  8
0
  6
CONTINUOUS
100
AcDbLine
 10
30.74199999996926
 20
7.706719825107518
 30
0.0
 11
29.68561982508552
 21
8.763099999991255
 31
0.0
  0
LINE
  5
1B1AF
330
1B15F
100
AcDbEntity
  8
0
  6
CONTINUOUS
100
AcDbLine
 10
30.74199999996926
 20
8.380239034187703
 30
0.0
 11
30.35913903416571
 21
8.763099999991255
 31
0.0
  0
ENDBLK
  5
1B252
330
1B15F
100
AcDbEntity
  8
0
100
AcDbBlockEnd
  0
BLOCK
  5
1B253
330
1B1B0
100
AcDbEntity
  8
0
100
AcDbBlockBegin
  2
*X157
 70
     1
 10
0.0
 20
0.0
 30
0.0
  3
*X157
  1

  0
LINE
  5
1B1B1
330
1B1B0
100
AcDbEntity
  8
0
  6
CONTINUOUS
100
AcDbLine
 10
31.64199999996833
 20
8.535058289913598
 30
0.0
 11
31.87004171004599
 21
8.763099999991255
 31
0.0
  0
LINE
  5
1B1B2
330
1B1B0
100
AcDbEntity
  8
0
  6
CONTINUOUS
100
AcDbLine
 10
31.64199999996833
 20
7.861539080833412
 30
0.0
 11
32.54356091912618
 21
8.763099999991255
 31
0.0
  0
LINE
  5
1B1B3
330
1B1B0
100
AcDbEntity
  8
0
  6
CONTINUOUS
100
AcDbLine
 10
31.64199999996833
 20
7.188019871753226
 30
0.0
 11
33.08199999996839
 21
8.628019871753281
 31
0.0
  0
LINE
  5
1B1B4
330
1B1B0
100
AcDbEntity
  8
0
  6
CONTINUOUS
100
AcDbLine
 10
31.64199999996833
 20
6.51450066267304
 30
0.0
 11
33.08199999996839
 21
7.954500662673095
 31
0.0
  0
LINE
  5
1B1B5
330
1B1B0
100
AcDbEntity
  8
0
  6
CONTINUOUS
100
AcDbLine
 10
31.64199999996833
 20
5.840981453592853
 30
0.0
 11
33.08199999996839
 21
7.280981453592908
 31
0.0
  0
LINE
  5
1B1B6
330
1B1B0
100
AcDbEntity
  8
0
  6
CONTINUOUS
100
AcDbLine
 10
31.64199999996833
 20
5.167462244512667
 30
0.0
 11
33.08199999996839
 21
6.607462244512721
 31
0.0
  0
LINE
  5
1B1B7
330
1B1B0
100
AcDbEntity
  8
0
  6
CONTINUOUS
100
AcDbLine
 10
31.64199999996833
 20
4.493943035432481
 30
0.0
 11
33.08199999996839
 21
5.933943035432535
 31
0.0
  0
LINE
  5
1B1B8
330
1B1B0
100
AcDbEntity
  8
0
  6
CONTINUOUS
100
AcDbLine
 10
31.64199999996833
 20
3.820423826352293
 30
0.0
 11
33.08199999996839
 21
5.260423826352348
 31
0.0
  0
LINE
  5
1B1B9
330
1B1B0
100
AcDbEntity
  8
0
  6
CONTINUOUS
100
AcDbLine
 10
31.64199999996833
 20
3.146904617272106
 30
0.0
 11
33.08199999996839
 21
4.586904617272161
 31
0.0
  0
LINE
  5
1B1BA
330
1B1B0
100
AcDbEntity
  8
0
  6
CONTINUOUS
100
AcDbLine
 10
36.23199999996837
 20
8.410423826352325
 30
0.0
 11
36.5846761736073
 21
8.763099999991255
 31
0.0
  0
LINE
  5
1B1BB
330
1B1B0
100
AcDbEntity
  8
0
  6
CONTINUOUS
100
AcDbLine
 10
36.23199999996837
 20
7.73690461727214
 30
0.0
 11
37.25819538268748
 21
8.763099999991255
 31
0.0
  0
LINE
  5
1B1BC
330
1B1B0
100
AcDbEntity
  8
0
  6
CONTINUOUS
100
AcDbLine
 10
31.64257403601376
 20
2.473959444237348
 30
0.0
 11
33.08199999996839
 21
3.913385408191974
 31
0.0
  0
LINE
  5
1B1BD
330
1B1B0
100
AcDbEntity
  8
0
  6
CONTINUOUS
100
AcDbLine
 10
36.23199999996837
 20
7.063385408191953
 30
0.0
 11
37.67199999996831
 21
8.503385408191894
 31
0.0
  0
LINE
  5
1B1BE
330
1B1B0
100
AcDbEntity
  8
0
  6
CONTINUOUS
100
AcDbLine
 10
31.72013636841932
 20
1.87800256756272
 30
0.0
 11
33.08199999996839
 21
3.239866199111788
 31
0.0
  0
LINE
  5
1B1BF
330
1B1B0
100
AcDbEntity
  8
0
  6
CONTINUOUS
100
AcDbLine
 10
36.23199999996837
 20
6.389866199111767
 30
0.0
 11
37.67199999996831
 21
7.829866199111708
 31
0.0
  0
LINE
  5
1B1C0
330
1B1B0
100
AcDbEntity
  8
0
  6
CONTINUOUS
100
AcDbLine
 10
31.89042734314753
 20
1.374774333210744
 30
0.0
 11
33.08199999996839
 21
2.566346990031601
 31
0.0
  0
LINE
  5
1B1C1
330
1B1B0
100
AcDbEntity
  8
0
  6
CONTINUOUS
100
AcDbLine
 10
36.23199999996837
 20
5.71634699003158
 30
0.0
 11
37.67199999996831
 21
7.156346990031521
 31
0.0
  0
LINE
  5
1B1C2
330
1B1B0
100
AcDbEntity
  8
0
  6
CONTINUOUS
100
AcDbLine
 10
32.14210568064475
 20
0.952933461627778
 30
0.0
 11
33.18745552475986
 21
1.998283305742888
 31
0.0
  0
LINE
  5
1B1C3
330
1B1B0
100
AcDbEntity
  8
0
  6
CONTINUOUS
100
AcDbLine
 10
36.23199999996837
 20
5.042827780951393
 30
0.0
 11
37.67199999996831
 21
6.482827780951334
 31
0.0
  0
LINE
  5
1B1C4
330
1B1B0
100
AcDbEntity
  8
0
  6
CONTINUOUS
100
AcDbLine
 10
32.45820639400955
 20
0.5955149659123915
 30
0.0
 11
33.47242681921943
 21
1.60973539112227
 31
0.0
  0
LINE
  5
1B1C5
330
1B1B0
100
AcDbEntity
  8
0
  6
CONTINUOUS
100
AcDbLine
 10
36.23199999996837
 20
4.369308571871207
 30
0.0
 11
37.67199999996831
 21
5.809308571871147
 31
0.0
  0
LINE
  5
1B1C6
330
1B1B0
100
AcDbEntity
  8
0
  6
CONTINUOUS
100
AcDbLine
 10
32.83432456621412
 20
0.2981139290367771
 30
0.0
 11
33.89722476612215
 21
1.361014128944803
 31
0.0
  0
LINE
  5
1B1C7
330
1B1B0
100
AcDbEntity
  8
0
  6
CONTINUOUS
100
AcDbLine
 10
36.23199999996837
 20
3.69578936279102
 30
0.0
 11
37.67199999996831
 21
5.135789362790962
 31
0.0
  0
LINE
  5
1B1C8
330
1B1B0
100
AcDbEntity
  8
0
  6
CONTINUOUS
100
AcDbLine
 10
33.2711633111245
 20
0.0614334648669672
 30
0.0
 11
34.43247338014423
 21
1.222743533886696
 31
0.0
  0
LINE
  5
1B1C9
330
1B1B0
100
AcDbEntity
  8
0
  6
CONTINUOUS
100
AcDbLine
 10
36.23199999996837
 20
3.022270153710834
 30
0.0
 11
37.67199999996831
 21
4.462270153710775
 31
0.0
  0
LINE
  5
1B1CA
330
1B1B0
100
AcDbEntity
  8
0
  6
CONTINUOUS
100
AcDbLine
 10
33.76515245874577
 20
-0.1180965965919523
 30
0.0
 11
35.1587445516215
 21
1.27549549628378
 31
0.0
  0
LINE
  5
1B1CB
330
1B1B0
100
AcDbEntity
  8
0
  6
CONTINUOUS
100
AcDbLine
 10
36.21639478609585
 20
2.333145730758136
 30
0.0
 11
37.67199999996831
 21
3.788750944630588
 31
0.0
  0
LINE
  5
1B1CC
330
1B1B0
100
AcDbEntity
  8
0
  6
CONTINUOUS
100
AcDbLine
 10
34.34060583368432
 20
-0.2161624307335863
 30
0.0
 11
37.67199999996831
 21
3.115231735550401
 31
0.0
  0
LINE
  5
1B1CD
330
1B1B0
100
AcDbEntity
  8
0
  6
CONTINUOUS
100
AcDbLine
 10
35.01698193613905
 20
-0.2133055373590427
 30
0.0
 11
37.66876712070525
 21
2.438479647207154
 31
0.0
  0
LINE
  5
1B1CE
330
1B1B0
100
AcDbEntity
  8
0
  6
CONTINUOUS
100
AcDbLine
 10
35.90743367693304
 20
0.0036269943547609
 30
0.0
 11
37.51723902192366
 21
1.613432339345381
 31
0.0
  0
LINE
  5
1B1CF
330
1B1B0
100
AcDbEntity
  8
0
  6
CONTINUOUS
100
AcDbLine
 10
32.55309425579761
 20
0.5074718966376706
 30
0.0
 11
32.27784730925847
 21
0.7827188431768102
 31
0.0
  0
LINE
  5
1B1D0
330
1B1B0
100
AcDbEntity
  8
0
  6
CONTINUOUS
100
AcDbLine
 10
33.87496468909684
 20
-0.1408793275813673
 30
0.0
 11
31.67993083278052
 21
2.054154528734943
 31
0.0
  0
LINE
  5
1B1D1
330
1B1B0
100
AcDbEntity
  8
0
  6
CONTINUOUS
100
AcDbLine
 10
34.64362813207632
 20
-0.2360235614806649
 30
0.0
 11
31.64199999996833
 21
2.765604570627322
 31
0.0
  0
LINE
  5
1B1D2
330
1B1B0
100
AcDbEntity
  8
0
  6
CONTINUOUS
100
AcDbLine
 10
35.25801106796118
 20
-0.1768872882853429
 30
0.0
 11
31.64199999996833
 21
3.439123779707508
 31
0.0
  0
LINE
  5
1B1D3
330
1B1B0
100
AcDbEntity
  8
0
  6
CONTINUOUS
100
AcDbLine
 10
35.79065650332146
 20
-0.0360135145654361
 30
0.0
 11
34.54143210838231
 21
1.213210880373721
 31
0.0
  0
LINE
  5
1B1D4
330
1B1B0
100
AcDbEntity
  8
0
  6
CONTINUOUS
100
AcDbLine
 10
33.08199999996839
 20
2.67264298878764
 30
0.0
 11
31.64199999996833
 21
4.112642988787695
 31
0.0
  0
LINE
  5
1B1D5
330
1B1B0
100
AcDbEntity
  8
0
  6
CONTINUOUS
100
AcDbLine
 10
36.25975597779143
 20
0.1684062200447833
 30
0.0
 11
35.15395110240023
 21
1.274211095435983
 31
0.0
  0
LINE
  5
1B1D6
330
1B1B0
100
AcDbEntity
  8
0
  6
CONTINUOUS
100
AcDbLine
 10
33.08199999996839
 20
3.346162197867826
 30
0.0
 11
31.64199999996833
 21
4.786162197867881
 31
0.0
  0
LINE
  5
1B1D7
330
1B1B0
100
AcDbEntity
  8
0
  6
CONTINUOUS
100
AcDbLine
 10
36.67226329638774
 20
0.4294181105286579
 30
0.0
 11
35.63766478748767
 21
1.464016619428737
 31
0.0
  0
LINE
  5
1B1D8
330
1B1B0
100
AcDbEntity
  8
0
  6
CONTINUOUS
100
AcDbLine
 10
33.08199999996839
 20
4.019681406948012
 30
0.0
 11
31.64199999996833
 21
5.459681406948068
 31
0.0
  0
LINE
  5
1B1D9
330
1B1B0
100
AcDbEntity
  8
0
  6
CONTINUOUS
100
AcDbLine
 10
37.01677749710036
 20
0.7584231188962329
 30
0.0
 11
35.99563422741351
 21
1.779566388583076
 31
0.0
  0
LINE
  5
1B1DA
330
1B1B0
100
AcDbEntity
  8
0
  6
CONTINUOUS
100
AcDbLine
 10
33.08199999996839
 20
4.693200616028199
 30
0.0
 11
31.64199999996833
 21
6.133200616028255
 31
0.0
  0
LINE
  5
1B1DB
330
1B1B0
100
AcDbEntity
  8
0
  6
CONTINUOUS
100
AcDbLine
 10
37.29859977568887
 20
1.1501200493879
 30
0.0
 11
36.20680593341555
 21
2.241913891661226
 31
0.0
  0
LINE
  5
1B1DC
330
1B1B0
100
AcDbEntity
  8
0
  6
CONTINUOUS
100
AcDbLine
 10
33.08199999996839
 20
5.366719825108386
 30
0.0
 11
31.64199999996833
 21
6.80671982510844
 31
0.0
  0
LINE
  5
1B1DD
330
1B1B0
100
AcDbEntity
  8
0
  6
CONTINUOUS
100
AcDbLine
 10
37.5148623517228
 20
1.607376682434161
 30
0.0
 11
36.23199999996837
 21
2.890239034188594
 31
0.0
  0
LINE
  5
1B1DE
330
1B1B0
100
AcDbEntity
  8
0
  6
CONTINUOUS
100
AcDbLine
 10
33.08199999996839
 20
6.040239034188573
 30
0.0
 11
31.64199999996833
 21
7.480239034188627
 31
0.0
  0
LINE
  5
1B1DF
330
1B1B0
100
AcDbEntity
  8
0
  6
CONTINUOUS
100
AcDbLine
 10
37.64705163358367
 20
2.148706609653477
 30
0.0
 11
36.23199999996837
 21
3.56375824326878
 31
0.0
  0
LINE
  5
1B1E0
330
1B1B0
100
AcDbEntity
  8
0
  6
CONTINUOUS
100
AcDbLine
 10
33.08199999996839
 20
6.713758243268758
 30
0.0
 11
31.64199999996833
 21
8.153758243268815
 31
0.0
  0
LINE
  5
1B1E1
330
1B1B0
100
AcDbEntity
  8
0
  6
CONTINUOUS
100
AcDbLine
 10
37.67199999996831
 20
2.797277452349026
 30
0.0
 11
36.23199999996837
 21
4.237277452348967
 31
0.0
  0
LINE
  5
1B1E2
330
1B1B0
100
AcDbEntity
  8
0
  6
CONTINUOUS
100
AcDbLine
 10
37.67199999996831
 20
3.470796661429213
 30
0.0
 11
36.23199999996837
 21
4.910796661429154
 31
0.0
  0
LINE
  5
1B1E3
330
1B1B0
100
AcDbEntity
  8
0
  6
CONTINUOUS
100
AcDbLine
 10
37.67199999996831
 20
4.144315870509399
 30
0.0
 11
36.23199999996837
 21
5.58431587050934
 31
0.0
  0
LINE
  5
1B1E4
330
1B1B0
100
AcDbEntity
  8
0
  6
CONTINUOUS
100
AcDbLine
 10
33.08199999996839
 20
7.387277452348945
 30
0.0
 11
31.70617745232608
 21
8.763099999991255
 31
0.0
  0
LINE
  5
1B1E5
330
1B1B0
100
AcDbEntity
  8
0
  6
CONTINUOUS
100
AcDbLine
 10
33.08199999996839
 20
8.060796661429132
 30
0.0
 11
32.37969666140626
 21
8.763099999991255
 31
0.0
  0
LINE
  5
1B1E6
330
1B1B0
100
AcDbEntity
  8
0
  6
CONTINUOUS
100
AcDbLine
 10
33.08199999996839
 20
8.734315870509318
 30
0.0
 11
33.05321587048645
 21
8.763099999991255
 31
0.0
  0
LINE
  5
1B1E7
330
1B1B0
100
AcDbEntity
  8
0
  6
CONTINUOUS
100
AcDbLine
 10
37.67199999996831
 20
4.817835079589585
 30
0.0
 11
36.23199999996837
 21
6.257835079589526
 31
0.0
  0
LINE
  5
1B1E8
330
1B1B0
100
AcDbEntity
  8
0
  6
CONTINUOUS
100
AcDbLine
 10
37.67199999996831
 20
5.491354288669771
 30
0.0
 11
36.23199999996837
 21
6.931354288669713
 31
0.0
  0
LINE
  5
1B1E9
330
1B1B0
100
AcDbEntity
  8
0
  6
CONTINUOUS
100
AcDbLine
 10
37.67199999996831
 20
6.164873497749958
 30
0.0
 11
36.23199999996837
 21
7.6048734977499
 31
0.0
  0
LINE
  5
1B1EA
330
1B1B0
100
AcDbEntity
  8
0
  6
CONTINUOUS
100
AcDbLine
 10
37.67199999996831
 20
6.838392706830144
 30
0.0
 11
36.23199999996837
 21
8.278392706830086
 31
0.0
  0
LINE
  5
1B1EB
330
1B1B0
100
AcDbEntity
  8
0
  6
CONTINUOUS
100
AcDbLine
 10
37.67199999996831
 20
7.511911915910332
 30
0.0
 11
36.42081191588738
 21
8.763099999991255
 31
0.0
  0
LINE
  5
1B1EC
330
1B1B0
100
AcDbEntity
  8
0
  6
CONTINUOUS
100
AcDbLine
 10
37.67199999996831
 20
8.185431124990519
 30
0.0
 11
37.09433112496757
 21
8.763099999991255
 31
0.0
  0
ENDBLK
  5
1B254
330
1B1B0
100
AcDbEntity
  8
0
100
AcDbBlockEnd
  0
BLOCK
  5
1B255
330
1B1ED
100
AcDbEntity
  8
0
100
AcDbBlockBegin
  2
*X158
 70
     1
 10
0.0
 20
0.0
 30
0.0
  3
*X158
  1

  0
LINE
  5
1B1EE
330
1B1ED
100
AcDbEntity
  8
0
  6
CONTINUOUS
100
AcDbLine
 10
38.60499999996136
 20
8.762866199104765
 30
0.0
 11
38.71672554182345
 21
8.874591740966855
 31
0.0
  0
LINE
  5
1B1EF
330
1B1ED
100
AcDbEntity
  8
0
  6
CONTINUOUS
100
AcDbLine
 10
38.60499999996136
 20
8.089346990024577
 30
0.0
 11
39.03418785440363
 21
8.518534844466847
 31
0.0
  0
LINE
  5
1B1F0
330
1B1ED
100
AcDbEntity
  8
0
  6
CONTINUOUS
100
AcDbLine
 10
38.60499999996136
 20
7.41582778094439
 30
0.0
 11
39.35165016698382
 21
8.16247794796684
 31
0.0
  0
LINE
  5
1B1F1
330
1B1ED
100
AcDbEntity
  8
0
  6
CONTINUOUS
100
AcDbLine
 10
38.60499999996136
 20
6.742308571864204
 30
0.0
 11
39.66911247956399
 21
7.806421051466834
 31
0.0
  0
LINE
  5
1B1F2
330
1B1ED
100
AcDbEntity
  8
0
  6
CONTINUOUS
100
AcDbLine
 10
38.60499999996136
 20
6.068789362784018
 30
0.0
 11
39.98657479214418
 21
7.450364154966827
 31
0.0
  0
LINE
  5
1B1F3
330
1B1ED
100
AcDbEntity
  8
0
  6
CONTINUOUS
100
AcDbLine
 10
38.60499999996136
 20
5.395270153703832
 30
0.0
 11
40.30403710472435
 21
7.09430725846682
 31
0.0
  0
LINE
  5
1B1F4
330
1B1ED
100
AcDbEntity
  8
0
  6
CONTINUOUS
100
AcDbLine
 10
38.60499999996136
 20
4.721750944623645
 30
0.0
 11
40.62149941730453
 21
6.738250361966813
 31
0.0
  0
LINE
  5
1B1F5
330
1B1ED
100
AcDbEntity
  8
0
  6
CONTINUOUS
100
AcDbLine
 10
38.60499999996136
 20
4.048231735543458
 30
0.0
 11
40.93896172988471
 21
6.382193465466806
 31
0.0
  0
LINE
  5
1B1F6
330
1B1ED
100
AcDbEntity
  8
0
  6
CONTINUOUS
100
AcDbLine
 10
38.60499999996136
 20
3.374712526463272
 30
0.0
 11
40.02599999995994
 21
4.795712526461843
 31
0.0
  0
LINE
  5
1B1F7
330
1B1ED
100
AcDbEntity
  8
0
  6
CONTINUOUS
100
AcDbLine
 10
38.60499999996136
 20
2.701193317383085
 30
0.0
 11
40.02599999995994
 21
4.122193317381657
 31
0.0
  0
LINE
  5
1B1F8
330
1B1ED
100
AcDbEntity
  8
0
  6
CONTINUOUS
100
AcDbLine
 10
40.28339754687704
 20
5.053110073378947
 30
0.0
 11
41.25642404246489
 21
6.026136568966799
 31
0.0
  0
LINE
  5
1B1F9
330
1B1ED
100
AcDbEntity
  8
0
  6
CONTINUOUS
100
AcDbLine
 10
40.60085985945722
 20
4.697053176878939
 30
0.0
 11
41.57388635504507
 21
5.670079672466793
 31
0.0
  0
LINE
  5
1B1FA
330
1B1ED
100
AcDbEntity
  8
0
  6
CONTINUOUS
100
AcDbLine
 10
43.57899999995641
 20
8.348712526458318
 30
0.0
 11
43.99338747348935
 21
8.763099999991255
 31
0.0
  0
LINE
  5
1B1FB
330
1B1ED
100
AcDbEntity
  8
0
  6
CONTINUOUS
100
AcDbLine
 10
43.57899999995641
 20
7.675193317378131
 30
0.0
 11
44.66690668256953
 21
8.763099999991255
 31
0.0
  0
LINE
  5
1B1FC
330
1B1ED
100
AcDbEntity
  8
0
  6
CONTINUOUS
100
AcDbLine
 10
38.60499999996136
 20
2.027674108302898
 30
0.0
 11
40.02599999995994
 21
3.44867410830147
 31
0.0
  0
LINE
  5
1B1FD
330
1B1ED
100
AcDbEntity
  8
0
  6
CONTINUOUS
100
AcDbLine
 10
38.60499999996136
 20
1.354154899222712
 30
0.0
 11
40.02599999995994
 21
2.775154899221284
 31
0.0
  0
LINE
  5
1B1FE
330
1B1ED
100
AcDbEntity
  8
0
  6
CONTINUOUS
100
AcDbLine
 10
38.60499999996136
 20
0.6806356901425255
 30
0.0
 11
40.02599999995994
 21
2.101635690141098
 31
0.0
  0
LINE
  5
1B1FF
330
1B1ED
100
AcDbEntity
  8
0
  6
CONTINUOUS
100
AcDbLine
 10
38.60499999996136
 20
0.0071164810623383
 30
0.0
 11
40.02599999995994
 21
1.428116481060911
 31
0.0
  0
LINE
  5
1B200
330
1B1ED
100
AcDbEntity
  8
0
  6
CONTINUOUS
100
AcDbLine
 10
40.9183221720374
 20
4.340996280378933
 30
0.0
 11
41.89134866762525
 21
5.314022775966786
 31
0.0
  0
LINE
  5
1B201
330
1B1ED
100
AcDbEntity
  8
0
  6
CONTINUOUS
100
AcDbLine
 10
41.23578448461758
 20
3.984939383878926
 30
0.0
 11
42.20881098020543
 21
4.957965879466778
 31
0.0
  0
LINE
  5
1B202
330
1B1ED
100
AcDbEntity
  8
0
  6
CONTINUOUS
100
AcDbLine
 10
41.55324679719776
 20
3.628882487378919
 30
0.0
 11
42.52627329278561
 21
4.601908982966772
 31
0.0
  0
LINE
  5
1B203
330
1B1ED
100
AcDbEntity
  8
0
  6
CONTINUOUS
100
AcDbLine
 10
41.87070910977793
 20
3.272825590878912
 30
0.0
 11
42.84373560536579
 21
4.245852086466765
 31
0.0
  0
LINE
  5
1B204
330
1B1ED
100
AcDbEntity
  8
0
  6
CONTINUOUS
100
AcDbLine
 10
43.57899999995641
 20
7.001674108297943
 30
0.0
 11
44.99999999995498
 21
8.422674108296516
 31
0.0
  0
LINE
  5
1B205
330
1B1ED
100
AcDbEntity
  8
0
  6
CONTINUOUS
100
AcDbLine
 10
43.57899999995641
 20
6.328154899217758
 30
0.0
 11
44.99999999995498
 21
7.749154899216329
 31
0.0
  0
LINE
  5
1B206
330
1B1ED
100
AcDbEntity
  8
0
  6
CONTINUOUS
100
AcDbLine
 10
43.57899999995641
 20
5.654635690137571
 30
0.0
 11
44.99999999995498
 21
7.075635690136142
 31
0.0
  0
LINE
  5
1B207
330
1B1ED
100
AcDbEntity
  8
0
  6
CONTINUOUS
100
AcDbLine
 10
43.57899999995641
 20
4.981116481057384
 30
0.0
 11
44.99999999995498
 21
6.402116481055955
 31
0.0
  0
LINE
  5
1B208
330
1B1ED
100
AcDbEntity
  8
0
  6
CONTINUOUS
100
AcDbLine
 10
39.27140272797921
 20
-0.0000000000000009
 30
0.0
 11
40.02599999995994
 21
0.7545972719807246
 31
0.0
  0
LINE
  5
1B209
330
1B1ED
100
AcDbEntity
  8
0
  6
CONTINUOUS
100
AcDbLine
 10
39.9449219370594
 20
-0.0000000000000009
 30
0.0
 11
40.02599999995994
 21
0.0810780629005379
 31
0.0
  0
LINE
  5
1B20A
330
1B1ED
100
AcDbEntity
  8
0
  6
CONTINUOUS
100
AcDbLine
 10
42.18817142235812
 20
2.916768694378905
 30
0.0
 11
43.16119791794597
 21
3.889795189966758
 31
0.0
  0
LINE
  5
1B20B
330
1B1ED
100
AcDbEntity
  8
0
  6
CONTINUOUS
100
AcDbLine
 10
42.50563373493829
 20
2.560711797878898
 30
0.0
 11
43.47866023052615
 21
3.533738293466751
 31
0.0
  0
LINE
  5
1B20C
330
1B1ED
100
AcDbEntity
  8
0
  6
CONTINUOUS
100
AcDbLine
 10
43.57899999995641
 20
4.307597271977198
 30
0.0
 11
44.99999999995498
 21
5.728597271975769
 31
0.0
  0
LINE
  5
1B20D
330
1B1ED
100
AcDbEntity
  8
0
  6
CONTINUOUS
100
AcDbLine
 10
43.57899999995641
 20
3.634078062897011
 30
0.0
 11
44.99999999995498
 21
5.055078062895582
 31
0.0
  0
LINE
  5
1B20E
330
1B1ED
100
AcDbEntity
  8
0
  6
CONTINUOUS
100
AcDbLine
 10
42.82309604751848
 20
2.204654901378891
 30
0.0
 11
44.99999999995498
 21
4.381558853815395
 31
0.0
  0
LINE
  5
1B20F
330
1B1ED
100
AcDbEntity
  8
0
  6
CONTINUOUS
100
AcDbLine
 10
43.14055836009865
 20
1.848598004878885
 30
0.0
 11
44.99999999995498
 21
3.70803964473521
 31
0.0
  0
LINE
  5
1B210
330
1B1ED
100
AcDbEntity
  8
0
  6
CONTINUOUS
100
AcDbLine
 10
43.45802067267883
 20
1.492541108378878
 30
0.0
 11
44.99999999995498
 21
3.034520435655023
 31
0.0
  0
LINE
  5
1B211
330
1B1ED
100
AcDbEntity
  8
0
  6
CONTINUOUS
100
AcDbLine
 10
43.77548298525902
 20
1.136484211878871
 30
0.0
 11
44.99999999995498
 21
2.361001226574837
 31
0.0
  0
LINE
  5
1B212
330
1B1ED
100
AcDbEntity
  8
0
  6
CONTINUOUS
100
AcDbLine
 10
44.09294529783919
 20
0.7804273153788639
 30
0.0
 11
44.99999999995498
 21
1.687482017494649
 31
0.0
  0
LINE
  5
1B213
330
1B1ED
100
AcDbEntity
  8
0
  6
CONTINUOUS
100
AcDbLine
 10
44.41040761041938
 20
0.4243704188788566
 30
0.0
 11
44.99999999995498
 21
1.013962808414463
 31
0.0
  0
LINE
  5
1B214
330
1B1ED
100
AcDbEntity
  8
0
  6
CONTINUOUS
100
AcDbLine
 10
44.72786992299955
 20
0.0683135223788494
 30
0.0
 11
44.99999999995498
 21
0.340443599334276
 31
0.0
  0
LINE
  5
1B215
330
1B1ED
100
AcDbEntity
  8
0
  6
CONTINUOUS
100
AcDbLine
 10
39.12223903415696
 20
-0.0000000000000009
 30
0.0
 11
38.60499999996136
 21
0.5172390341955961
 31
0.0
  0
LINE
  5
1B216
330
1B1ED
100
AcDbEntity
  8
0
  6
CONTINUOUS
100
AcDbLine
 10
39.79575824323715
 20
-0.0000000000000009
 30
0.0
 11
38.60499999996136
 21
1.190758243275783
 31
0.0
  0
LINE
  5
1B217
330
1B1ED
100
AcDbEntity
  8
0
  6
CONTINUOUS
100
AcDbLine
 10
40.02599999995994
 20
0.443277452357397
 30
0.0
 11
38.60499999996136
 21
1.864277452355969
 31
0.0
  0
LINE
  5
1B218
330
1B1ED
100
AcDbEntity
  8
0
  6
CONTINUOUS
100
AcDbLine
 10
40.02599999995994
 20
1.116796661437583
 30
0.0
 11
38.60499999996136
 21
2.537796661436155
 31
0.0
  0
LINE
  5
1B219
330
1B1ED
100
AcDbEntity
  8
0
  6
CONTINUOUS
100
AcDbLine
 10
40.02599999995994
 20
1.79031587051777
 30
0.0
 11
38.60499999996136
 21
3.211315870516341
 31
0.0
  0
LINE
  5
1B21A
330
1B1ED
100
AcDbEntity
  8
0
  6
CONTINUOUS
100
AcDbLine
 10
40.02599999995994
 20
2.463835079597956
 30
0.0
 11
38.60499999996136
 21
3.884835079596527
 31
0.0
  0
LINE
  5
1B21B
330
1B1ED
100
AcDbEntity
  8
0
  6
CONTINUOUS
100
AcDbLine
 10
40.02599999995994
 20
3.137354288678143
 30
0.0
 11
38.60499999996136
 21
4.558354288676714
 31
0.0
  0
LINE
  5
1B21C
330
1B1ED
100
AcDbEntity
  8
0
  6
CONTINUOUS
100
AcDbLine
 10
40.02599999995994
 20
3.810873497758329
 30
0.0
 11
38.60499999996136
 21
5.2318734977569
 31
0.0
  0
LINE
  5
1B21D
330
1B1ED
100
AcDbEntity
  8
0
  6
CONTINUOUS
100
AcDbLine
 10
40.02599999995994
 20
4.484392706838515
 30
0.0
 11
38.60499999996136
 21
5.905392706837086
 31
0.0
  0
LINE
  5
1B21E
330
1B1ED
100
AcDbEntity
  8
0
  6
CONTINUOUS
100
AcDbLine
 10
44.99999999995498
 20
0.183911915923658
 30
0.0
 11
41.53858364506288
 21
3.64532827081576
 31
0.0
  0
LINE
  5
1B21F
330
1B1ED
100
AcDbEntity
  8
0
  6
CONTINUOUS
100
AcDbLine
 10
40.02599999995994
 20
5.157911915918703
 30
0.0
 11
38.60499999996136
 21
6.578911915917274
 31
0.0
  0
LINE
  5
1B220
330
1B1ED
100
AcDbEntity
  8
0
  6
CONTINUOUS
100
AcDbLine
 10
44.99999999995498
 20
0.8574311250038447
 30
0.0
 11
38.60499999996136
 21
7.25243112499746
 31
0.0
  0
LINE
  5
1B221
330
1B1ED
100
AcDbEntity
  8
0
  6
CONTINUOUS
100
AcDbLine
 10
44.99999999995498
 20
1.530950334084031
 30
0.0
 11
38.60499999996136
 21
7.925950334077647
 31
0.0
  0
LINE
  5
1B222
330
1B1ED
100
AcDbEntity
  8
0
  6
CONTINUOUS
100
AcDbLine
 10
44.99999999995498
 20
2.204469543164218
 30
0.0
 11
43.57899999995641
 21
3.625469543162789
 31
0.0
  0
LINE
  5
1B223
330
1B1ED
100
AcDbEntity
  8
0
  6
CONTINUOUS
100
AcDbLine
 10
41.89876730984767
 20
5.305702233271528
 30
0.0
 11
38.60499999996136
 21
8.599469543157834
 31
0.0
  0
LINE
  5
1B224
330
1B1ED
100
AcDbEntity
  8
0
  6
CONTINUOUS
100
AcDbLine
 10
44.99999999995498
 20
2.877988752244405
 30
0.0
 11
43.57899999995641
 21
4.298988752242975
 31
0.0
  0
LINE
  5
1B225
330
1B1ED
100
AcDbEntity
  8
0
  6
CONTINUOUS
100
AcDbLine
 10
44.99999999995498
 20
3.551507961324591
 30
0.0
 11
43.57899999995641
 21
4.972507961323163
 31
0.0
  0
LINE
  5
1B226
330
1B1ED
100
AcDbEntity
  8
0
  6
CONTINUOUS
100
AcDbLine
 10
44.99999999995498
 20
4.225027170404777
 30
0.0
 11
43.57899999995641
 21
5.646027170403348
 31
0.0
  0
LINE
  5
1B227
330
1B1ED
100
AcDbEntity
  8
0
  6
CONTINUOUS
100
AcDbLine
 10
44.99999999995498
 20
4.898546379484964
 30
0.0
 11
43.57899999995641
 21
6.319546379483535
 31
0.0
  0
LINE
  5
1B228
330
1B1ED
100
AcDbEntity
  8
0
  6
CONTINUOUS
100
AcDbLine
 10
44.99999999995498
 20
5.572065588565151
 30
0.0
 11
43.57899999995641
 21
6.993065588563722
 31
0.0
  0
LINE
  5
1B229
330
1B1ED
100
AcDbEntity
  8
0
  6
CONTINUOUS
100
AcDbLine
 10
44.99999999995498
 20
6.245584797645336
 30
0.0
 11
43.57899999995641
 21
7.666584797643908
 31
0.0
  0
LINE
  5
1B22A
330
1B1ED
100
AcDbEntity
  8
0
  6
CONTINUOUS
100
AcDbLine
 10
44.99999999995498
 20
6.919104006725522
 30
0.0
 11
43.57899999995641
 21
8.340104006724093
 31
0.0
  0
LINE
  5
1B22B
330
1B1ED
100
AcDbEntity
  8
0
  6
CONTINUOUS
100
AcDbLine
 10
44.99999999995498
 20
7.592623215805709
 30
0.0
 11
43.82952321576943
 21
8.763099999991255
 31
0.0
  0
LINE
  5
1B22C
330
1B1ED
100
AcDbEntity
  8
0
  6
CONTINUOUS
100
AcDbLine
 10
44.99999999995498
 20
8.266142424885896
 30
0.0
 11
44.50304242484962
 21
8.763099999991255
 31
0.0
  0
ENDBLK
  5
1B256
330
1B1ED
100
AcDbEntity
  8
0
100
AcDbBlockEnd
  0
BLOCK
  5
1B257
330
1B22D
100
AcDbEntity
  8
0
100
AcDbBlockBegin
  2
*X159
 70
     1
 10
0.0
 20
0.0
 30
0.0
  3
*X159
  1

  0
LINE
  5
1B22E
330
1B22D
100
AcDbEntity
  8
0
  6
CONTINUOUS
100
AcDbLine
 10
0.0
 20
8.548461116714023
 30
0.0
 11
0.2146388832772324
 21
8.763099999991255
 31
0.0
  0
LINE
  5
1B22F
330
1B22D
100
AcDbEntity
  8
0
  6
CONTINUOUS
100
AcDbLine
 10
-0.0000000000000002
 20
7.874941907633837
 30
0.0
 11
0.8881580923574184
 21
8.763099999991255
 31
0.0
  0
LINE
  5
1B230
330
1B22D
100
AcDbEntity
  8
0
  6
CONTINUOUS
100
AcDbLine
 10
0.0
 20
7.20142269855365
 30
0.0
 11
1.420999999998572
 21
8.622422698552223
 31
0.0
  0
LINE
  5
1B231
330
1B22D
100
AcDbEntity
  8
0
  6
CONTINUOUS
100
AcDbLine
 10
-0.0000000000000001
 20
6.527903489473465
 30
0.0
 11
1.420999999998571
 21
7.948903489472036
 31
0.0
  0
LINE
  5
1B232
330
1B22D
100
AcDbEntity
  8
0
  6
CONTINUOUS
100
AcDbLine
 10
-0.0000000000000002
 20
5.854384280393278
 30
0.0
 11
1.420999999998571
 21
7.275384280391849
 31
0.0
  0
LINE
  5
1B233
330
1B22D
100
AcDbEntity
  8
0
  6
CONTINUOUS
100
AcDbLine
 10
-0.0000000000000002
 20
5.180865071313091
 30
0.0
 11
1.420999999998571
 21
6.601865071311663
 31
0.0
  0
LINE
  5
1B234
330
1B22D
100
AcDbEntity
  8
0
  6
CONTINUOUS
100
AcDbLine
 10
0.0
 20
4.507345862232905
 30
0.0
 11
1.420999999998571
 21
5.928345862231477
 31
0.0
  0
LINE
  5
1B235
330
1B22D
100
AcDbEntity
  8
0
  6
CONTINUOUS
100
AcDbLine
 10
-0.0000000000000003
 20
3.833826653152718
 30
0.0
 11
1.420999999998571
 21
5.25482665315129
 31
0.0
  0
LINE
  5
1B236
330
1B22D
100
AcDbEntity
  8
0
  6
CONTINUOUS
100
AcDbLine
 10
-0.0000000000000002
 20
3.160307444072532
 30
0.0
 11
1.420999999998571
 21
4.581307444071103
 31
0.0
  0
LINE
  5
1B237
330
1B22D
100
AcDbEntity
  8
0
  6
CONTINUOUS
100
AcDbLine
 10
-0.0000000000000001
 20
2.486788234992345
 30
0.0
 11
1.420999999998571
 21
3.907788234990917
 31
0.0
  0
LINE
  5
1B238
330
1B22D
100
AcDbEntity
  8
0
  6
CONTINUOUS
100
AcDbLine
 10
-0.0000000000000006
 20
1.813269025912159
 30
0.0
 11
1.420999999998571
 21
3.234269025910731
 31
0.0
  0
LINE
  5
1B239
330
1B22D
100
AcDbEntity
  8
0
  6
CONTINUOUS
100
AcDbLine
 10
0.0
 20
1.139749816831973
 30
0.0
 11
1.420999999998571
 21
2.560749816830544
 31
0.0
  0
LINE
  5
1B23A
330
1B22D
100
AcDbEntity
  8
0
  6
CONTINUOUS
100
AcDbLine
 10
0.0000000000000002
 20
0.466230607751787
 30
0.0
 11
1.420999999998571
 21
1.887230607750358
 31
0.0
  0
LINE
  5
1B23B
330
1B22D
100
AcDbEntity
  8
0
  6
CONTINUOUS
100
AcDbLine
 10
0.2072886013284003
 20
-0.0000000000000009
 30
0.0
 11
1.420999999998571
 21
1.213711398670171
 31
0.0
  0
LINE
  5
1B23C
330
1B22D
100
AcDbEntity
  8
0
  6
CONTINUOUS
100
AcDbLine
 10
0.8808078104085864
 20
-0.0000000000000009
 30
0.0
 11
1.420999999998571
 21
0.5401921895899839
 31
0.0
  0
LINE
  5
1B23D
330
1B22D
100
AcDbEntity
  8
0
  6
CONTINUOUS
100
AcDbLine
 10
0.0581249075061505
 20
-0.0000000000000009
 30
0.0
 11
-0.0000000000000002
 21
0.0581249075061496
 31
0.0
  0
LINE
  5
1B23E
330
1B22D
100
AcDbEntity
  8
0
  6
CONTINUOUS
100
AcDbLine
 10
0.7316441165863372
 20
-0.0000000000000009
 30
0.0
 11
-0.0000000000000002
 21
0.7316441165863363
 31
0.0
  0
LINE
  5
1B23F
330
1B22D
100
AcDbEntity
  8
0
  6
CONTINUOUS
100
AcDbLine
 10
1.405163325666523
 20
-0.0000000000000009
 30
0.0
 11
-0.0000000000000002
 21
1.405163325666523
 31
0.0
  0
LINE
  5
1B240
330
1B22D
100
AcDbEntity
  8
0
  6
CONTINUOUS
100
AcDbLine
 10
1.420999999998572
 20
0.6576825347481381
 30
0.0
 11
-0.0000000000000001
 21
2.07868253474671
 31
0.0
  0
LINE
  5
1B241
330
1B22D
100
AcDbEntity
  8
0
  6
CONTINUOUS
100
AcDbLine
 10
1.420999999998571
 20
1.331201743828324
 30
0.0
 11
-0.0000000000000001
 21
2.752201743826896
 31
0.0
  0
LINE
  5
1B242
330
1B22D
100
AcDbEntity
  8
0
  6
CONTINUOUS
100
AcDbLine
 10
1.420999999998571
 20
2.004720952908511
 30
0.0
 11
-0.0000000000000002
 21
3.425720952907082
 31
0.0
  0
LINE
  5
1B243
330
1B22D
100
AcDbEntity
  8
0
  6
CONTINUOUS
100
AcDbLine
 10
1.420999999998571
 20
2.678240161988697
 30
0.0
 11
-0.0000000000000001
 21
4.099240161987269
 31
0.0
  0
LINE
  5
1B244
330
1B22D
100
AcDbEntity
  8
0
  6
CONTINUOUS
100
AcDbLine
 10
1.420999999998572
 20
3.351759371068884
 30
0.0
 11
0.0
 21
4.772759371067455
 31
0.0
  0
LINE
  5
1B245
330
1B22D
100
AcDbEntity
  8
0
  6
CONTINUOUS
100
AcDbLine
 10
1.420999999998571
 20
4.02527858014907
 30
0.0
 11
-0.0000000000000003
 21
5.446278580147642
 31
0.0
  0
LINE
  5
1B246
330
1B22D
100
AcDbEntity
  8
0
  6
CONTINUOUS
100
AcDbLine
 10
1.420999999998571
 20
4.698797789229257
 30
0.0
 11
0.0
 21
6.119797789227828
 31
0.0
  0
LINE
  5
1B247
330
1B22D
100
AcDbEntity
  8
0
  6
CONTINUOUS
100
AcDbLine
 10
1.420999999998571
 20
5.372316998309444
 30
0.0
 11
-0.0000000000000001
 21
6.793316998308015
 31
0.0
  0
LINE
  5
1B248
330
1B22D
100
AcDbEntity
  8
0
  6
CONTINUOUS
100
AcDbLine
 10
1.420999999998572
 20
6.045836207389629
 30
0.0
 11
-0.0000000000000004
 21
7.466836207388202
 31
0.0
  0
LINE
  5
1B249
330
1B22D
100
AcDbEntity
  8
0
  6
CONTINUOUS
100
AcDbLine
 10
1.420999999998571
 20
6.719355416469816
 30
0.0
 11
0.0
 21
8.140355416468388
 31
0.0
  0
LINE
  5
1B24A
330
1B22D
100
AcDbEntity
  8
0
  6
CONTINUOUS
100
AcDbLine
 10
1.420999999998571
 20
7.392874625550003
 30
0.0
 11
0.0507746255573185
 21
8.763099999991255
 31
0.0
  0
LINE
  5
1B24B
330
1B22D
100
AcDbEntity
  8
0
  6
CONTINUOUS
100
AcDbLine
 10
1.420999999998571
 20
8.06639383463019
 30
0.0
 11
0.7242938346375052
 21
8.763099999991255
 31
0.0
  0
LINE
  5
1B24C
330
1B22D
100
AcDbEntity
  8
0
  6
CONTINUOUS
100
AcDbLine
 10
1.420999999998571
 20
8.739913043710375
 30
0.0
 11
1.397813043717691
 21
8.763099999991255
 31
0.0
  0
ENDBLK
  5
1B258
330
1B22D
100
AcDbEntity
  8
0
100
AcDbBlockEnd
  0
ENDSEC
  0
SECTION
  2
ENTITIES
  0
CIRCLE
  5
1AB8C
330
18
100
AcDbEntity
  8
01
100
AcDbCircle
 10
2395.488873411327
 20
-609.0237117719524
 30
0.0000000000563712
 40
2.5
  0
LINE
  5
1AB8D
330
18
100
AcDbEntity
  8
01
100
AcDbLine
 10
2042.488977751069
 20
-616.4237019760798
 30
0.0000000000563712
 11
2068.488977751069
 21
-616.4237019760798
 31
0.0000000000563712
  0
LINE
  5
1AB8E
330
18
100
AcDbEntity
  8
01
100
AcDbLine
 10
2077.988977751069
 20
-610.9237019760798
 30
0.0000000000563712
 11
2032.988977751069
 21
-610.9237019760798
 31
0.0000000000563712
  0
LINE
  5
1AB8F
330
18
100
AcDbEntity
  8
01
100
AcDbLine
 10
2055.488977751069
 20
-588.4237019760798
 30
0.0000000000563712
 11
2055.488977751069
 21
-633.4237019760798
 31
0.0000000000563712
  0
LINE
  5
1AB94
330
18
100
AcDbEntity
  8
1CENTER
100
AcDbLine
 10
2395.48899371592
 20
-351.0870713144747
 30
0.0000000000563712
 11
2395.48899371592
 21
-395.3738150285959
 31
0.0000000000563712
  0
LINE
  5
1AB95
330
18
100
AcDbEntity
  8
01
100
AcDbLine
 10
2375.988981494713
 20
-370.1237019771082
 30
0.0000000000563712
 11
2414.988981494713
 21
-370.123701977108
 31
0.0000000000563712
  0
LINE
  5
1AB96
330
18
100
AcDbEntity
  8
01
100
AcDbLine
 10
2415.488981494713
 20
-376.4237019771082
 30
0.0000000000563712
 11
2375.488981494713
 21
-376.4237019771086
 31
0.0000000000563712
  0
LINE
  5
1AB97
330
18
100
AcDbEntity
  8
01
100
AcDbLine
 10
2415.488981494713
 20
-376.4237019771082
 30
0.0000000000563712
 11
2415.488981494713
 21
-370.623701977108
 31
0.0000000000563712
  0
ARC
  5
1AB98
330
18
100
AcDbEntity
  8
01
100
AcDbCircle
 10
2414.988981494713
 20
-370.6237019771082
 30
0.0000000000563712
 40
0.5
100
AcDbArc
 50
0.0
 51
90.0
  0
LINE
  5
1AB99
330
18
100
AcDbEntity
  8
01
100
AcDbLine
 10
2375.488981494713
 20
-376.4237019771086
 30
0.0000000000563712
 11
2375.488981494713
 21
-370.6237019771082
 31
0.0000000000563712
  0
ARC
  5
1AB9A
330
18
100
AcDbEntity
  8
01
100
AcDbCircle
 10
2375.988981494713
 20
-370.6237019771082
 30
0.0000000000563712
 40
0.5
100
AcDbArc
 50
90.0
 51
180.0
  0
LINE
  5
1AB9B
330
18
100
AcDbEntity
  8
01
100
AcDbLine
 10
2391.988993715926
 20
-368.9237053103085
 30
0.0000000000563885
 11
2386.238993715921
 21
-368.9237053103076
 31
0.0000000000563885
  0
LINE
  5
1AB9C
330
18
100
AcDbEntity
  8
01
100
AcDbLine
 10
2392.988993715928
 20
-355.4236823661018
 30
0.0000000000563885
 11
2392.988993715926
 21
-367.9237053103085
 31
0.0000000000563885
  0
LINE
  5
1AB9D
330
18
100
AcDbEntity
  8
01
100
AcDbLine
 10
2397.988993715928
 20
-355.4236823661037
 30
0.0000000000563885
 11
2397.988993715928
 21
-367.9237053103067
 31
0.0000000000563885
  0
ARC
  5
1AB9E
330
18
100
AcDbEntity
  8
01
100
AcDbCircle
 10
2396.988993715929
 20
-355.4236823661018
 30
0.0000000000563885
 40
1.0
100
AcDbArc
 50
0.0000000000521102
 51
90.0
  0
ARC
  5
1AB9F
330
18
100
AcDbEntity
  8
01
100
AcDbCircle
 10
2393.988993715929
 20
-355.4236823661018
 30
0.0000000000563885
 40
1.0
100
AcDbArc
 50
90.0
 51
180.0
  0
LINE
  5
1ABA0
330
18
100
AcDbEntity
  8
01
100
AcDbLine
 10
2396.988993715928
 20
-354.4236823661
 30
0.0000000000563885
 11
2393.988993715929
 21
-354.4236823661
 31
0.0000000000563885
  0
LINE
  5
1ABA1
330
18
100
AcDbEntity
  8
01
100
AcDbLine
 10
2404.73899371592
 20
-368.9237053103067
 30
0.0000000000563885
 11
2398.988993715928
 21
-368.9237053103067
 31
0.0000000000563885
  0
ARC
  5
1ABA2
330
18
100
AcDbEntity
  8
01
100
AcDbCircle
 10
2398.988993715929
 20
-367.9237053103067
 30
0.0000000000563885
 40
1.0
100
AcDbArc
 50
180.0
 51
270.0
  0
ARC
  5
1ABA3
330
18
100
AcDbEntity
  8
01
100
AcDbCircle
 10
2391.988993715927
 20
-367.9237053103085
 30
0.0000000000563885
 40
1.0
100
AcDbArc
 50
270.0
 51
0.0
  0
LINE
  5
1ABA4
330
18
100
AcDbEntity
  8
01
100
AcDbLine
 10
2385.738993715921
 20
-369.4237053103071
 30
0.000000000112646
 11
2385.738993715921
 21
-370.123701977108
 31
0.0000000001126239
  0
ARC
  5
1ABA5
330
18
100
AcDbEntity
  8
01
100
AcDbCircle
 10
2386.238993715921
 20
-369.4237053103071
 30
0.000000000112646
 40
0.5
100
AcDbArc
 50
90.0
 51
180.0
  0
LINE
  5
1ABA6
330
18
100
AcDbEntity
  8
01
100
AcDbLine
 10
2405.23899371592
 20
-369.4237053103071
 30
0.000000000112646
 11
2405.23899371592
 21
-370.123701977108
 31
0.0000000001126239
  0
ARC
  5
1ABA7
330
18
100
AcDbEntity
  8
01
100
AcDbCircle
 10
2404.73899371592
 20
-369.4237053103071
 30
0.000000000112646
 40
0.5
100
AcDbArc
 50
0.0
 51
90.0
  0
LINE
  5
1ABA8
330
18
100
AcDbEntity
  8
1CENTER
100
AcDbLine
 10
2395.4889691413
 20
-425.2483183651624
 30
0.0000000000563712
 11
2395.4889691413
 21
-413.2483183651624
 31
0.0000000000563712
  0
LINE
  5
1ABA9
330
18
100
AcDbEntity
  8
01
100
AcDbLine
 10
2414.988981362507
 20
-422.7237019771113
 30
0.0000000000563712
 11
2375.988981362507
 21
-422.7237019771061
 31
0.0000000000563712
  0
LINE
  5
1ABAA
330
18
100
AcDbEntity
  8
01
100
AcDbLine
 10
2375.488981362507
 20
-416.4237019771057
 30
0.0000000000563712
 11
2415.488981362507
 21
-416.4237019771111
 31
0.0000000000563712
  0
LINE
  5
1ABAB
330
18
100
AcDbEntity
  8
01
100
AcDbLine
 10
2375.488981362507
 20
-416.4237019771057
 30
0.0000000000563712
 11
2375.488981362507
 21
-422.2237019771059
 31
0.0000000000563712
  0
ARC
  5
1ABAC
330
18
100
AcDbEntity
  8
01
100
AcDbCircle
 10
2375.988981362507
 20
-422.2237019771056
 30
0.0000000000563712
 40
0.5
100
AcDbArc
 50
179.9999999999739
 51
270.0
  0
LINE
  5
1ABAD
330
18
100
AcDbEntity
  8
01
100
AcDbLine
 10
2415.488981362507
 20
-416.4237019771111
 30
0.0000000000563712
 11
2415.488981362507
 21
-422.2237019771113
 31
0.0000000000563712
  0
ARC
  5
1ABAE
330
18
100
AcDbEntity
  8
01
100
AcDbCircle
 10
2414.988981362507
 20
-422.2237019771113
 30
0.0000000000563712
 40
0.5
100
AcDbArc
 50
270.0
 51
0.0
  0
ARC
  5
1ABAF
330
18
100
AcDbEntity
  8
01
100
AcDbCircle
 10
2395.488971820362
 20
-418.5737073549836
 30
0.0000000000562575
 40
6.0
100
AcDbArc
 50
234.3146660000064
 51
256.8165180000061
  0
LINE
  5
1ABB0
330
18
100
AcDbEntity
  8
01
100
AcDbLine
 10
2391.988971820362
 20
-423.4471073549838
 30
0.0000000000562575
 11
2391.988971820361
 21
-422.7237019771084
 31
0.0000000000562575
  0
LINE
  5
1ABB1
330
18
100
AcDbEntity
  8
01
100
AcDbLine
 10
2398.988971820362
 20
-423.4471073549838
 30
0.0000000000562575
 11
2398.988971820362
 21
-422.7237019771093
 31
0.0000000000562575
  0
LINE
  5
1ABB2
330
18
100
AcDbEntity
  8
01
100
AcDbLine
 10
2396.488971820362
 20
-424.1242558143862
 30
0.0000000000562575
 11
2396.488971820362
 21
-422.7237019771088
 31
0.0000000000562575
  0
ARC
  5
1ABB3
330
18
100
AcDbEntity
  8
01
100
AcDbCircle
 10
2394.188968820362
 20
-424.1234773549837
 30
0.0000000000562575
 40
0.30000001
100
AcDbArc
 50
256.8165179999368
 51
0.0
  0
ARC
  5
1ABB4
330
18
100
AcDbEntity
  8
01
100
AcDbCircle
 10
2396.788970820362
 20
-424.1234773549837
 30
0.0000000000562575
 40
0.30000001
100
AcDbArc
 50
179.999996999972
 51
283.1834799999916
  0
LINE
  5
1ABB5
330
18
100
AcDbEntity
  8
01
100
AcDbLine
 10
2394.488971820362
 20
-424.1234773549837
 30
0.0000000000562575
 11
2394.488971820362
 21
-422.7237019771086
 31
0.0000000000562575
  0
ARC
  5
1ABB6
330
18
100
AcDbEntity
  8
01
100
AcDbCircle
 10
2395.488971820362
 20
-418.5737073549836
 30
0.0000000000562575
 40
6.0
100
AcDbArc
 50
283.1834825033611
 51
305.6853300000033
  0
LINE
  5
1ABB7
330
18
100
AcDbEntity
  8
1CENTER
100
AcDbLine
 10
2055.488977751069
 20
-622.4237019760798
 30
0.0000000000563712
 11
2055.488977751069
 21
-610.4237019760798
 31
0.0000000000563712
  0
LINE
  5
1ABB8
330
18
100
AcDbEntity
  8
1CENTER
100
AcDbLine
 10
2049.488977751069
 20
-616.4237019760798
 30
0.0000000000563712
 11
2061.488977751069
 21
-616.4237019760798
 31
0.0000000000563712
  0
LINE
  5
1ABB9
330
18
100
AcDbEntity
  8
01
100
AcDbLine
 10
2074.988977751068
 20
-590.9237019760798
 30
0.0000000000563712
 11
2035.988977751068
 21
-590.92370197608
 31
0.0000000000563712
  0
ARC
  5
1ABBA
330
18
100
AcDbEntity
  8
01
100
AcDbCircle
 10
2035.988977751068
 20
-591.42370197608
 30
0.0000000000563712
 40
0.5
100
AcDbArc
 50
90.0
 51
180.0
  0
LINE
  5
1ABBB
330
18
100
AcDbEntity
  8
01
100
AcDbLine
 10
2074.988977751068
 20
-630.9237019760798
 30
0.0000000000563712
 11
2035.988977751068
 21
-630.9237019760802
 31
0.0000000000563712
  0
ARC
  5
1ABBC
330
18
100
AcDbEntity
  8
01
100
AcDbCircle
 10
2074.988977751068
 20
-630.4237019760798
 30
0.0000000000563712
 40
0.5
100
AcDbArc
 50
270.0
 51
0.0
  0
LINE
  5
1ABBD
330
18
100
AcDbEntity
  8
01
100
AcDbLine
 10
2075.488977751068
 20
-630.4237019760798
 30
0.0000000000563712
 11
2075.488977751068
 21
-591.4237019760798
 31
0.0000000000563712
  0
ARC
  5
1ABBE
330
18
100
AcDbEntity
  8
01
100
AcDbCircle
 10
2074.988977751068
 20
-591.4237019760798
 30
0.0000000000563712
 40
0.5
100
AcDbArc
 50
0.0
 51
90.0
  0
LINE
  5
1ABBF
330
18
100
AcDbEntity
  8
01
100
AcDbLine
 10
2035.488977751068
 20
-630.4237019760802
 30
0.0000000000563712
 11
2035.488977751068
 21
-591.42370197608
 31
0.0000000000563712
  0
ARC
  5
1ABC0
330
18
100
AcDbEntity
  8
01
100
AcDbCircle
 10
2035.988977751068
 20
-630.4237019760802
 30
0.0000000000563712
 40
0.5
100
AcDbArc
 50
180.0
 51
270.0
  0
ARC
  5
1ABC1
330
18
100
AcDbEntity
  8
01
100
AcDbCircle
 10
2057.488977751069
 20
-607.3925060419855
 30
0.0000000000563712
 40
0.5000000000000013
100
AcDbArc
 50
0.0
 51
77.51311018581228
  0
ARC
  5
1ABC2
330
18
100
AcDbEntity
  8
01
100
AcDbCircle
 10
2053.488977751069
 20
-625.454897910174
 30
0.0000000000563712
 40
0.5000000000000029
100
AcDbArc
 50
180.0
 51
257.513110185866
  0
ARC
  5
1ABC3
330
18
100
AcDbEntity
  8
01
100
AcDbCircle
 10
2057.488977751069
 20
-625.454897910174
 30
0.0000000000563712
 40
0.5000000000000013
100
AcDbArc
 50
282.4868898141877
 51
0.0
  0
ARC
  5
1ABC4
330
18
100
AcDbEntity
  8
01
100
AcDbCircle
 10
2055.488977751069
 20
-616.4237019760798
 30
0.0000000000563712
 40
9.749999999999995
100
AcDbArc
 50
77.5131101858446
 51
102.4868898141526
  0
ARC
  5
1ABC5
330
18
100
AcDbEntity
  8
01
100
AcDbCircle
 10
2053.488977751069
 20
-607.3925060419855
 30
0.0000000000563712
 40
0.5000000000000029
100
AcDbArc
 50
102.486889814134
 51
180.0
  0
ARC
  5
1ABC6
330
18
100
AcDbEntity
  8
01
100
AcDbCircle
 10
2055.488977751069
 20
-616.4237019760798
 30
0.0000000000563712
 40
9.75
100
AcDbArc
 50
257.5131101858473
 51
282.4868898141554
  0
LINE
  5
1ABC7
330
18
100
AcDbEntity
  8
01
100
AcDbLine
 10
2057.988977751069
 20
-607.3925060419855
 30
0.0000000000563712
 11
2057.988977751069
 21
-625.454897910174
 31
0.0000000000563712
  0
LINE
  5
1ABC8
330
18
100
AcDbEntity
  8
01
100
AcDbLine
 10
2052.988977751069
 20
-625.454897910174
 30
0.0000000000563712
 11
2052.988977751069
 21
-607.3925060419855
 31
0.0000000000563712
  0
SPLINE
  5
1ABC9
330
18
100
AcDbEntity
  8
01
100
AcDbSpline
210
0.0
220
0.0
230
1.0
 70
     8
 71
     3
 72
    18
 73
    14
 74
     0
 42
0.0000000001
 43
0.0000000001
 40
0.0
 40
0.0
 40
0.0
 40
0.0
 40
0.2500000000000002
 40
0.2500000000000002
 40
0.375
 40
0.375
 40
0.4999999999999998
 40
0.4999999999999998
 40
0.6249999999999996
 40
0.6249999999999996
 40
0.7499999999999993
 40
0.7499999999999993
 40
1.0
 40
1.0
 40
1.0
 40
1.0
 10
2059.178166940259
 20
-625.4487993786771
 30
0.0000000000563712
 10
2058.984905882983
 20
-625.5277987037138
 30
0.0000000000563712
 10
2058.792584271255
 20
-625.5990662382834
 30
0.0000000000563712
 10
2058.513258812795
 20
-625.6933233494568
 30
0.0000000000563712
 10
2058.423765670287
 20
-625.7219565746447
 30
0.0000000000563712
 10
2058.252488462495
 20
-625.7742916504452
 30
0.0000000000563712
 10
2058.169839049325
 20
-625.798223815366
 30
0.0000000000563712
 10
2058.018365909885
 20
-625.8402232317127
 30
0.0000000000563712
 10
2057.949694338929
 20
-625.8582850992719
 30
0.0000000000563712
 10
2057.827326364668
 20
-625.8893562374327
 30
0.0000000000563712
 10
2057.773486128052
 20
-625.9023877700396
 30
0.0000000000563712
 10
2057.644131840821
 20
-625.9329428748
 30
0.0000000000563712
 10
2057.597085859178
 20
-625.9430706633683
 30
0.0000000000563712
 10
2057.597085859178
 20
-625.9430706633683
 30
0.0000000000563712
  0
SPLINE
  5
1ABCA
330
18
100
AcDbEntity
  8
01
100
AcDbSpline
210
0.0
220
0.0
230
1.0
 70
     8
 71
     3
 72
    18
 73
    14
 74
     0
 42
0.0000000001
 43
0.0000000001
 40
0.0
 40
0.0
 40
0.0
 40
0.0
 40
0.2500000000000002
 40
0.2500000000000002
 40
0.3750000000000002
 40
0.3750000000000002
 40
0.5000000000000002
 40
0.5000000000000002
 40
0.6250000000000002
 40
0.6250000000000002
 40
0.7500000000000001
 40
0.7500000000000001
 40
1.0
 40
1.0
 40
1.0
 40
1.0
 10
2051.79978856188
 20
-607.3986045734824
 30
0.0000000000563712
 10
2051.993049619157
 20
-607.3196052484458
 30
0.0000000000563712
 10
2052.185371230884
 20
-607.2483377138764
 30
0.0000000000563712
 10
2052.464696689344
 20
-607.1540806027027
 30
0.0000000000563712
 10
2052.554189831852
 20
-607.1254473775149
 30
0.0000000000563712
 10
2052.725467039644
 20
-607.0731123017143
 30
0.0000000000563712
 10
2052.808116452813
 20
-607.0491801367936
 30
0.0000000000563712
 10
2052.959589592254
 20
-607.0071807204471
 30
0.0000000000563712
 10
2053.028261163211
 20
-606.9891188528876
 30
0.0000000000563712
 10
2053.150629137471
 20
-606.9580477147268
 30
0.0000000000563712
 10
2053.204469374088
 20
-606.94501618212
 30
0.0000000000563712
 10
2053.333823661318
 20
-606.9144610773595
 30
0.0000000000563712
 10
2053.380869642961
 20
-606.9043332887912
 30
0.0000000000563712
 10
2053.380869642961
 20
-606.9043332887912
 30
0.0000000000563712
  0
SPLINE
  5
1ABCB
330
18
100
AcDbEntity
  8
01
100
AcDbSpline
210
0.0
220
0.0
230
1.0
 70
     8
 71
     3
 72
    16
 73
    12
 74
     0
 42
0.0000000001
 43
0.0000000001
 40
0.0
 40
0.0
 40
0.0
 40
0.0
 40
0.1249999999999998
 40
0.1249999999999998
 40
0.2499999999999997
 40
0.2499999999999997
 40
0.4999999999999998
 40
0.4999999999999998
 40
0.7499999999999999
 40
0.7499999999999999
 40
1.0
 40
1.0
 40
1.0
 40
1.0
 10
2053.380869642961
 20
-625.9430706633683
 30
0.0000000000563712
 10
2053.380869642961
 20
-625.9430706633683
 30
0.0000000000563712
 10
2053.369454120835
 20
-625.9405627073774
 30
0.0000000000563712
 10
2053.325021064494
 20
-625.9305579262171
 30
0.0000000000563712
 10
2053.29132546394
 20
-625.9229012611676
 30
0.0000000000563712
 10
2053.161978142479
 20
-625.892356756635
 30
0.0000000000563712
 10
2053.035522262172
 20
-625.8612566028579
 30
0.0000000000563712
 10
2052.734576061177
 20
-625.7778535944864
 30
0.0000000000563712
 10
2052.557782626409
 20
-625.7247046649637
 30
0.0000000000563712
 10
2052.188086354406
 20
-625.6000123383602
 30
0.0000000000563712
 10
2051.993015196171
 20
-625.5277846326295
 30
0.0000000000563712
 10
2051.79978856188
 20
-625.4487993786771
 30
0.0000000000563712
  0
SPLINE
  5
1ABCC
330
18
100
AcDbEntity
  8
01
100
AcDbSpline
210
0.0
220
0.0
230
1.0
 70
     8
 71
     3
 72
    16
 73
    12
 74
     0
 42
0.0000000001
 43
0.0000000001
 40
0.0
 40
0.0
 40
0.0
 40
0.0
 40
0.1249999999999997
 40
0.1249999999999997
 40
0.2499999999999993
 40
0.2499999999999993
 40
0.4999999999999996
 40
0.4999999999999996
 40
0.7499999999999998
 40
0.7499999999999998
 40
1.0
 40
1.0
 40
1.0
 40
1.0
 10
2057.597085859178
 20
-606.9043332887912
 30
0.0000000000563712
 10
2057.597085859178
 20
-606.9043332887912
 30
0.0000000000563712
 10
2057.608501381304
 20
-606.9068412447824
 30
0.0000000000563712
 10
2057.652934437645
 20
-606.9168460259426
 30
0.0000000000563712
 10
2057.686630038198
 20
-606.9245026909922
 30
0.0000000000563712
 10
2057.81597735966
 20
-606.9550471955248
 30
0.0000000000563712
 10
2057.942433239967
 20
-606.9861473493016
 30
0.0000000000563712
 10
2058.243379440963
 20
-607.0695503576732
 30
0.0000000000563712
 10
2058.42017287573
 20
-607.1226992871958
 30
0.0000000000563712
 10
2058.789869147733
 20
-607.2473916137993
 30
0.0000000000563712
 10
2058.984940305968
 20
-607.31961931953
 30
0.0000000000563712
 10
2059.178166940259
 20
-607.3986045734824
 30
0.0000000000563712
  0
ARC
  5
1ABCD
330
18
100
AcDbEntity
  8
01
100
AcDbCircle
 10
2055.488977751069
 20
-616.4237019760798
 30
0.0000000000563712
 40
9.750000000000005
100
AcDbArc
 50
112.2332717982941
 51
247.7667282017062
  0
ARC
  5
1ABCE
330
18
100
AcDbEntity
  8
01
100
AcDbCircle
 10
2055.488977751069
 20
-616.4237019760798
 30
0.0000000000563712
 40
9.750000000000009
100
AcDbArc
 50
292.2332717982968
 51
67.76672820170319
  0
CIRCLE
  5
1ABCF
330
18
100
AcDbEntity
  8
01
100
AcDbCircle
 10
2055.488977751069
 20
-616.4237019760798
 30
0.0000000000563712
 40
10.3
  0
LINE
  5
1ABD0
330
18
100
AcDbEntity
  8
01
100
AcDbLine
 10
2251.788981751071
 20
-630.42369711189
 30
0.0000000000563712
 11
2251.788981751071
 21
-591.4236971118904
 31
0.0000000000563712
  0
LINE
  5
1ABD1
330
18
100
AcDbEntity
  8
01
100
AcDbLine
 10
2245.488981751071
 20
-590.92369711189
 30
0.0000000000563712
 11
2245.488981751067
 21
-630.9236971118902
 31
0.0000000000563712
  0
LINE
  5
1ABD2
330
18
100
AcDbEntity
  8
01
100
AcDbLine
 10
2245.488981751067
 20
-630.9236971118902
 30
0.0000000000563712
 11
2251.288981751071
 21
-630.92369711189
 31
0.0000000000563712
  0
ARC
  5
1ABD3
330
18
100
AcDbEntity
  8
01
100
AcDbCircle
 10
2251.288981751071
 20
-630.42369711189
 30
0.0000000000563712
 40
0.5
100
AcDbArc
 50
270.0
 51
0.0
  0
LINE
  5
1ABD4
330
18
100
AcDbEntity
  8
01
100
AcDbLine
 10
2245.488981751071
 20
-590.92369711189
 30
0.0000000000563712
 11
2251.288981751071
 21
-590.9236971118904
 31
0.0000000000563712
  0
ARC
  5
1ABD5
330
18
100
AcDbEntity
  8
01
100
AcDbCircle
 10
2251.288981751071
 20
-591.4236971118904
 30
0.0000000000563712
 40
0.5
100
AcDbArc
 50
0.0
 51
90.0
  0
LINE
  5
1ABD6
330
18
100
AcDbEntity
  8
01
100
AcDbLine
 10
2199.188981751071
 20
-630.4237019760798
 30
0.0000000000563712
 11
2199.188981751071
 21
-591.4237019760802
 31
0.0000000000563712
  0
LINE
  5
1ABD7
330
18
100
AcDbEntity
  8
01
100
AcDbLine
 10
2205.488981751071
 20
-590.9237019760798
 30
0.0000000000563712
 11
2205.488981751067
 21
-630.92370197608
 31
0.0000000000563712
  0
LINE
  5
1ABD8
330
18
100
AcDbEntity
  8
01
100
AcDbLine
 10
2205.488981751067
 20
-630.92370197608
 30
0.0000000000563712
 11
2199.688981751071
 21
-630.9237019760798
 31
0.0000000000563712
  0
ARC
  5
1ABD9
330
18
100
AcDbEntity
  8
01
100
AcDbCircle
 10
2199.688981751071
 20
-630.4237019760798
 30
0.0000000000563712
 40
0.5
100
AcDbArc
 50
180.0
 51
270.0
  0
LINE
  5
1ABDA
330
18
100
AcDbEntity
  8
01
100
AcDbLine
 10
2205.488981751071
 20
-590.9237019760798
 30
0.0000000000563712
 11
2199.688981751071
 21
-590.9237019760802
 31
0.0000000000563712
  0
ARC
  5
1ABDB
330
18
100
AcDbEntity
  8
01
100
AcDbCircle
 10
2199.688981751071
 20
-591.4237019760802
 30
0.0000000000563712
 40
0.5
100
AcDbArc
 50
90.0
 51
180.0
  0
SPLINE
  5
1ABDC
330
18
100
AcDbEntity
  8
01
100
AcDbSpline
210
0.0
220
0.0
230
1.0
 70
    24
 71
     1
 72
     4
 73
     2
 74
     0
 42
0.0000000001
 43
0.0000000001
 40
0.1160848018737504
 40
0.1160848018737504
 40
1.0
 40
1.0
 10
2199.188981751071
 20
-626.173701976087
 30
0.0000000000563712
 10
2184.488956940059
 20
-626.173701976087
 30
0.0000000000563712
  0
SPLINE
  5
1ABDD
330
18
100
AcDbEntity
  8
01
100
AcDbSpline
210
0.0
220
0.0
230
1.0
 70
    24
 71
     1
 72
     4
 73
     2
 74
     0
 42
0.0000000001
 43
0.0000000001
 40
0.0
 40
0.0
 40
0.8839151981262495
 40
0.8839151981262495
 10
2184.488956940059
 20
-606.673701976087
 30
0.0000000000563712
 10
2199.188981751071
 20
-606.673701976087
 30
0.0000000000563712
  0
ARC
  5
1ABDE
330
18
100
AcDbEntity
  8
01
100
AcDbCircle
 10
2184.488956940059
 20
-625.173701976087
 30
0.0000000000563712
 40
1.0
100
AcDbArc
 50
180.0
 51
270.0
  0
ARC
  5
1ABDF
330
18
100
AcDbEntity
  8
01
100
AcDbCircle
 10
2184.488956940059
 20
-607.673701976087
 30
0.0000000000563712
 40
1.0
100
AcDbArc
 50
90.0
 51
180.0
  0
LINE
  5
1ABE0
330
18
100
AcDbEntity
  8
01
100
AcDbLine
 10
2197.988956940059
 20
-607.8614300813152
 30
0.0000000000563712
 11
2197.988956940059
 21
-624.9859738708589
 31
0.0000000000563712
  0
SPLINE
  5
1ABE1
330
18
100
AcDbEntity
  8
01
100
AcDbSpline
210
0.0
220
0.0
230
1.0
 70
     8
 71
     3
 72
    14
 73
    10
 74
     0
 42
0.0000000001
 43
0.0000000001
 40
0.0
 40
0.0
 40
0.0
 40
0.0
 40
0.25
 40
0.25
 40
0.5
 40
0.5
 40
0.75
 40
0.75
 40
1.0
 40
1.0
 40
1.0
 40
1.0
 10
2196.988956940059
 20
-607.3925060419928
 30
0.0000000000563712
 10
2197.128924617812
 20
-607.3925060419928
 30
0.0000000000563712
 10
2197.267345891958
 20
-607.4021419972995
 30
0.0000000000563712
 10
2197.517396231912
 20
-607.4412229062413
 30
0.0000000000563712
 10
2197.629713794741
 20
-607.471029041115
 30
0.0000000000563712
 10
2197.810761165828
 20
-607.5519487778989
 30
0.0000000000563712
 10
2197.878561802132
 20
-607.6023383140904
 30
0.0000000000563712
 10
2197.968180718675
 20
-607.7217079031053
 30
0.0000000000563712
 10
2197.988956940059
 20
-607.7885073538167
 30
0.0000000000563712
 10
2197.988956940059
 20
-607.8614300813152
 30
0.0000000000563712
  0
SPLINE
  5
1ABE2
330
18
100
AcDbEntity
  8
01
100
AcDbSpline
210
0.0
220
0.0
230
1.0
 70
     8
 71
     3
 72
    14
 73
    10
 74
     0
 42
0.0000000001
 43
0.0000000001
 40
0.0
 40
0.0
 40
0.0
 40
0.0
 40
0.25
 40
0.25
 40
0.5
 40
0.5
 40
0.75
 40
0.75
 40
1.0
 40
1.0
 40
1.0
 40
1.0
 10
2197.988956940059
 20
-624.9859738708589
 30
0.0000000000563712
 10
2197.988956940059
 20
-625.0588905579933
 30
0.0000000000563712
 10
2197.967596532798
 20
-625.1266752538542
 30
0.0000000000563712
 10
2197.878457341123
 20
-625.2450021278179
 30
0.0000000000563712
 10
2197.809524710968
 20
-625.2961149825859
 30
0.0000000000563712
 10
2197.629477270601
 20
-625.3763725747398
 30
0.0000000000563712
 10
2197.516771597106
 20
-625.4063353944463
 30
0.0000000000563712
 10
2197.266200983487
 20
-625.4453837699804
 30
0.0000000000563712
 10
2197.128814834169
 20
-625.4548979101813
 30
0.0000000000563712
 10
2196.988956940059
 20
-625.4548979101813
 30
0.0000000000563712
  0
LINE
  5
1ABE3
330
18
100
AcDbEntity
  8
01
100
AcDbLine
 10
2196.988956940059
 20
-625.4548979101813
 30
0.0000000000563712
 11
2184.488956940059
 21
-625.4548979101813
 31
0.0000000000563712
  0
LINE
  5
1ABE4
330
18
100
AcDbEntity
  8
01
100
AcDbLine
 10
2184.488956940059
 20
-607.3925060419928
 30
0.0000000000563712
 11
2196.988956940059
 21
-607.3925060419928
 31
0.0000000000563712
  0
SPLINE
  5
1ABE5
330
18
100
AcDbEntity
  8
01
100
AcDbSpline
210
0.0
220
0.0
230
1.0
 70
     8
 71
     3
 72
    14
 73
    10
 74
     0
 42
0.0000000001
 43
0.0000000001
 40
0.0
 40
0.0
 40
0.0
 40
0.0
 40
0.2500000000000001
 40
0.2500000000000001
 40
0.5000000000000002
 40
0.5000000000000002
 40
0.7500000000000003
 40
0.7500000000000003
 40
1.0
 40
1.0
 40
1.0
 40
1.0
 10
2184.488956940059
 20
-607.3925060419928
 30
0.0000000000563712
 10
2184.351748025132
 20
-607.3925060419928
 30
0.0000000000563712
 10
2184.21674447962
 20
-607.403880852088
 30
0.0000000000563712
 10
2183.969408020967
 20
-607.4468357194083
 30
0.0000000000563712
 10
2183.858906591602
 20
-607.4780800465129
 30
0.0000000000563712
 10
2183.676712918073
 20
-607.5552655639038
 30
0.0000000000563712
 10
2183.607719815689
 20
-607.5996061791635
 30
0.0000000000563712
 10
2183.512952277202
 20
-607.6975878305417
 30
0.0000000000563712
 10
2183.488956940059
 20
-607.7500812535585
 30
0.0000000000563712
 10
2183.488956940059
 20
-607.8032321513036
 30
0.0000000000563712
  0
SPLINE
  5
1ABE6
330
18
100
AcDbEntity
  8
01
100
AcDbSpline
210
0.0
220
0.0
230
1.0
 70
     8
 71
     3
 72
    14
 73
    10
 74
     0
 42
0.0000000001
 43
0.0000000001
 40
0.0
 40
0.0
 40
0.0
 40
0.0
 40
0.2500000000000001
 40
0.2500000000000001
 40
0.5000000000000002
 40
0.5000000000000002
 40
0.7500000000000003
 40
0.7500000000000003
 40
1.0
 40
1.0
 40
1.0
 40
1.0
 10
2184.488956940059
 20
-625.4548979101813
 30
0.0000000000563712
 10
2184.351748025132
 20
-625.4548979101813
 30
0.0000000000563712
 10
2184.21674447962
 20
-625.443523100086
 30
0.0000000000563712
 10
2183.969408020967
 20
-625.4005682327657
 30
0.0000000000563712
 10
2183.858906591602
 20
-625.3693239056612
 30
0.0000000000563712
 10
2183.676712918073
 20
-625.29213838827
 30
0.0000000000563712
 10
2183.607719815689
 20
-625.2477977730106
 30
0.0000000000563712
 10
2183.512952277202
 20
-625.1498161216322
 30
0.0000000000563712
 10
2183.488956940059
 20
-625.0973226986156
 30
0.0000000000563712
 10
2183.488956940059
 20
-625.0441718008705
 30
0.0000000000563712
  0
LINE
  5
1ABE7
330
18
100
AcDbEntity
  8
01
100
AcDbLine
 10
2183.488956940059
 20
-607.8032321513036
 30
0.0000000000563712
 11
2183.488956940059
 21
-625.0441718008705
 31
0.0000000000563712
  0
LINE
  5
1ABE8
330
18
100
AcDbEntity
  8
01
100
AcDbLine
 10
2183.488956940059
 20
-625.0441718008705
 30
0.0000000000563712
 11
2183.488956940059
 21
-625.173701976087
 31
0.0000000000563712
  0
LINE
  5
1ABE9
330
18
100
AcDbEntity
  8
01
100
AcDbLine
 10
2252.530965440032
 20
-612.9237006551415
 30
0.0000000001126251
 11
2251.78898175107
 21
-612.9237006551417
 31
0.0000000001126251
  0
LINE
  5
1ABEA
330
18
100
AcDbEntity
  8
01
100
AcDbLine
 10
2252.530965440032
 20
-619.9237006551415
 30
0.0000000001126251
 11
2251.78898175107
 21
-619.9237006551415
 31
0.0000000001126251
  0
ARC
  5
1ABEB
330
18
100
AcDbEntity
  8
01
100
AcDbCircle
 10
2247.657565440031
 20
-616.4237006551415
 30
0.0000000001126251
 40
6.0
100
AcDbArc
 50
324.3146700000034
 51
35.6853347126507
  0
LINE
  5
1ABEC
330
18
100
AcDbEntity
  8
1CENTER
100
AcDbLine
 10
2395.488873411327
 20
-622.4237013760797
 30
0.0000000000563712
 11
2395.488873411327
 21
-610.4237013760797
 31
0.0000000000563712
  0
LINE
  5
1ABED
330
18
100
AcDbEntity
  8
1CENTER
100
AcDbLine
 10
2389.488873411327
 20
-616.4237013760797
 30
0.0000000000563712
 11
2401.488873411327
 21
-616.4237013760797
 31
0.0000000000563712
  0
LINE
  5
1ABEE
330
18
100
AcDbEntity
  8
01
100
AcDbLine
 10
2375.988873411329
 20
-590.9237011719518
 30
0.0000000000563712
 11
2414.988873411328
 21
-590.9237011719521
 31
0.0000000000563712
  0
ARC
  5
1ABEF
330
18
100
AcDbEntity
  8
01
100
AcDbCircle
 10
2414.988873411328
 20
-591.4237011719521
 30
0.0000000000563712
 40
0.5
100
AcDbArc
 50
0.0
 51
90.0
  0
LINE
  5
1ABF0
330
18
100
AcDbEntity
  8
01
100
AcDbLine
 10
2375.988873411328
 20
-630.9237011719518
 30
0.0000000000563712
 11
2414.988873411328
 21
-630.9237011719523
 31
0.0000000000563712
  0
ARC
  5
1ABF1
330
18
100
AcDbEntity
  8
01
100
AcDbCircle
 10
2375.988873411328
 20
-630.4237011719518
 30
0.0000000000563712
 40
0.5
100
AcDbArc
 50
180.0
 51
270.0
  0
LINE
  5
1ABF2
330
18
100
AcDbEntity
  8
01
100
AcDbLine
 10
2375.488873411328
 20
-630.4237011719518
 30
0.0000000000563712
 11
2375.488873411329
 21
-591.4237011719518
 31
0.0000000000563712
  0
ARC
  5
1ABF3
330
18
100
AcDbEntity
  8
01
100
AcDbCircle
 10
2375.988873411329
 20
-591.4237011719518
 30
0.0000000000563712
 40
0.5
100
AcDbArc
 50
90.0
 51
180.0
  0
LINE
  5
1ABF4
330
18
100
AcDbEntity
  8
01
100
AcDbLine
 10
2415.488873411328
 20
-630.4237011719523
 30
0.0000000000563712
 11
2415.488873411328
 21
-591.4237011719521
 31
0.0000000000563712
  0
ARC
  5
1ABF5
330
18
100
AcDbEntity
  8
01
100
AcDbCircle
 10
2414.988873411328
 20
-630.4237011719523
 30
0.0000000000563712
 40
0.5
100
AcDbArc
 50
270.0
 51
0.0
  0
CIRCLE
  5
1ABF6
330
18
100
AcDbEntity
  8
01
100
AcDbCircle
 10
2395.488873733786
 20
-616.423700967824
 30
0.0000000000563712
 40
3.75
  0
CIRCLE
  5
1ABF7
330
18
100
AcDbEntity
  8
01
100
AcDbCircle
 10
2395.488873733786
 20
-616.4237011719518
 30
0.0000000000563712
 40
3.5000005
  0
LINE
  5
1ABF8
330
18
100
AcDbEntity
  8
01
100
AcDbLine
 10
2396.488873733786
 20
-619.7778039719518
 30
0.0000000000563712
 11
2396.488873733786
 21
-613.0695971719518
 31
0.0000000000563712
  0
LINE
  5
1ABF9
330
18
100
AcDbEntity
  8
01
100
AcDbLine
 10
2394.488873733786
 20
-619.7778039719518
 30
0.0000000000563712
 11
2394.488873733786
 21
-613.0695971719518
 31
0.0000000000563712
  0
LINE
  5
1ABFA
330
18
100
AcDbEntity
  8
01
100
AcDbLine
 10
2372.988873411327
 20
-610.9237019760798
 30
0.0000000000563712
 11
2417.988873411327
 21
-610.9237019760798
 31
0.0000000000563712
  0
LINE
  5
1ABFB
330
18
100
AcDbEntity
  8
01
100
AcDbLine
 10
2395.488873411327
 20
-588.4237019760798
 30
0.0000000000563712
 11
2395.488873411327
 21
-633.4237019760798
 31
0.0000000000563712
  0
LINE
  5
1AC00
330
18
100
AcDbEntity
  8
01
100
AcDbLine
 10
2339.488865411324
 20
-588.4237019760802
 30
0.0000000000563712
 11
2353.488865411324
 21
-588.4237019760802
 31
0.0000000000563712
  0
LINE
  5
1AC01
330
18
100
AcDbEntity
  8
01
100
AcDbLine
 10
2344.489749593384
 20
-376.4237019771089
 30
0.0000000000563712
 11
2498.244129748417
 21
-376.4237019771089
 31
0.0000000000563712
  0
LINE
  5
1AC02
330
18
100
AcDbEntity
  8
01
  6
BYBLOCK
100
AcDbLine
 10
2344.489749593384
 20
-376.4237019771089
 30
0.0000000000563712
 11
2344.489749593384
 21
-416.4237019771089
 31
0.0000000000563712
  0
LINE
  5
1AC06
330
18
100
AcDbEntity
  8
01
100
AcDbLine
 10
2395.488981751069
 20
-381.4237019781375
 30
0.0000000000563712
 11
2395.488981751069
 21
-350.5056217888886
 31
0.0000000000563712
  0
LINE
  5
1AC07
330
18
100
AcDbEntity
  8
01
  6
BYBLOCK
100
AcDbLine
 10
2345.988865411324
 20
-580.5237019760801
 30
0.0000000000563712
 11
2345.988865411324
 21
-710.3237019760801
 31
0.0000000000563712
  0
LINE
  5
1AC08
330
18
100
AcDbEntity
  8
01
  6
BYBLOCK
100
AcDbLine
 10
2345.988865411324
 20
-709.4237019760802
 30
0.0000000000563712
 11
2348.488865411324
 21
-709.4237019760802
 31
0.0000000000563712
  0
LINE
  5
1AC09
330
18
100
AcDbEntity
  8
01
  6
BYBLOCK
100
AcDbLine
 10
2348.488865411324
 20
-709.4237019760802
 30
0.0000000000563712
 11
2348.488865411324
 21
-692.9207582509279
 31
0.0000000000563712
  0
LINE
  5
1AC0A
330
18
100
AcDbEntity
  8
01
  6
BYBLOCK
100
AcDbLine
 10
2344.488865411324
 20
-580.5237019760801
 30
0.0000000000563712
 11
2344.488865411324
 21
-710.3237019760801
 31
0.0000000000563712
  0
LINE
  5
1AC0B
330
18
100
AcDbEntity
  8
01
  6
BYBLOCK
100
AcDbLine
 10
2344.488865411324
 20
-710.3237019760801
 30
0.0000000000563712
 11
2345.988865411324
 21
-710.3237019760801
 31
0.0000000000563712
  0
LINE
  5
1AC0C
330
18
100
AcDbEntity
  8
01
  6
BYBLOCK
100
AcDbLine
 10
2345.988865411324
 20
-581.4237019760802
 30
0.0000000000563712
 11
2348.488865411324
 21
-581.4237019760802
 31
0.0000000000563712
  0
LINE
  5
1AC0D
330
18
100
AcDbEntity
  8
01
  6
BYBLOCK
100
AcDbLine
 10
2344.488865411324
 20
-580.5237019760801
 30
0.0000000000563712
 11
2345.988865411324
 21
-580.5237019760801
 31
0.0000000000563712
  0
LINE
  5
1AC0E
330
18
100
AcDbEntity
  8
01
  6
BYBLOCK
100
AcDbLine
 10
2345.988865411324
 20
-605.4237019760802
 30
0.0000000000563712
 11
2347.188865411324
 21
-605.4237019760802
 31
0.0000000000563712
  0
ARC
  5
1AC0F
330
18
100
AcDbEntity
  8
1HIDDEN
100
AcDbCircle
 10
2412.488865411324
 20
-609.4237019760802
 30
0.0000000000563712
 40
1.0
100
AcDbArc
 50
0.0
 51
90.0
  0
LINE
  5
1AC10
330
18
100
AcDbEntity
  8
01
  6
BYBLOCK
100
AcDbLine
 10
2347.188865411324
 20
-599.72370197608
 30
0.0000000000563712
 11
2347.188865411324
 21
-691.12370197608
 31
0.0000000000563712
  0
LINE
  5
1AC11
330
18
100
AcDbEntity
  8
01
  6
BYBLOCK
100
AcDbLine
 10
2347.288865411324
 20
-709.4237019760802
 30
0.0000000000563712
 11
2347.288865411324
 21
-692.8237019760801
 31
0.0000000000563712
  0
LINE
  5
1AC12
330
18
100
AcDbEntity
  8
01
  6
BYBLOCK
100
AcDbLine
 10
2347.288865411324
 20
-692.8237019760801
 30
0.0000000000563712
 11
2346.3403372739
 21
-691.8751738386562
 31
0.0000000000563712
  0
LINE
  5
1AC13
330
18
100
AcDbEntity
  8
01
  6
BYBLOCK
100
AcDbLine
 10
2348.137393548748
 20
-692.0722301135039
 30
0.0000000000563712
 11
2347.188865411324
 21
-691.12370197608
 31
0.0000000000563712
  0
ARC
  5
1AC14
330
18
100
AcDbEntity
  8
01
  6
BYBLOCK
100
AcDbCircle
 10
2347.288865411324
 20
-692.9207582509279
 30
0.0000000000563712
 40
1.2
100
AcDbArc
 50
0.0
 51
45.00000000003838
  0
ARC
  5
1AC15
330
18
100
AcDbEntity
  8
01
  6
BYBLOCK
100
AcDbCircle
 10
2347.188865411324
 20
-691.0266457012323
 30
0.0000000000563712
 40
1.2
100
AcDbArc
 50
180.0
 51
225.0000000000384
  0
LINE
  5
1AC16
330
18
100
AcDbEntity
  8
01
  6
BYBLOCK
100
AcDbLine
 10
2348.488865411324
 20
-581.4237019760802
 30
0.0000000000563712
 11
2348.488865411324
 21
-597.9266457012324
 31
0.0000000000563712
  0
LINE
  5
1AC17
330
18
100
AcDbEntity
  8
01
  6
BYBLOCK
100
AcDbLine
 10
2347.288865411324
 20
-581.4237019760802
 30
0.0000000000563712
 11
2347.288865411324
 21
-598.0237019760801
 31
0.0000000000563712
  0
LINE
  5
1AC18
330
18
100
AcDbEntity
  8
01
  6
BYBLOCK
100
AcDbLine
 10
2347.288865411324
 20
-598.0237019760801
 30
0.0000000000563712
 11
2346.3403372739
 21
-598.972230113504
 31
0.0000000000563712
  0
LINE
  5
1AC19
330
18
100
AcDbEntity
  8
01
  6
BYBLOCK
100
AcDbLine
 10
2348.137393548748
 20
-598.7751738386563
 30
0.0000000000563712
 11
2347.188865411324
 21
-599.7237019760802
 31
0.0000000000563712
  0
ARC
  5
1AC1A
330
18
100
AcDbEntity
  8
01
  6
BYBLOCK
100
AcDbCircle
 10
2347.288865411324
 20
-597.9266457012324
 30
0.0000000000563712
 40
1.2
100
AcDbArc
 50
314.9999999999616
 51
0.0
  0
ARC
  5
1AC1B
330
18
100
AcDbEntity
  8
01
  6
BYBLOCK
100
AcDbCircle
 10
2347.188865411324
 20
-599.820758250928
 30
0.0000000000563712
 40
1.2
100
AcDbArc
 50
134.9999999999616
 51
180.0
  0
CIRCLE
  5
1AC1C
330
18
100
AcDbEntity
  8
1HIDDEN
100
AcDbCircle
 10
2395.488865411324
 20
-616.4237019760802
 30
0.0000000000563712
 40
4.75
  0
LINE
  5
1AC1D
330
18
100
AcDbEntity
  8
01
  6
BYBLOCK
100
AcDbLine
 10
2347.188865411324
 20
-682.4237019760805
 30
0.0000000000563712
 11
2368.988865411328
 21
-682.4237019760802
 31
0.0000000000563712
  0
ARC
  5
1AC1E
330
18
100
AcDbEntity
  8
01
  6
BYBLOCK
100
AcDbCircle
 10
2347.589749593385
 20
-392.8624514341089
 30
0.0000000000563712
 40
1.6
100
AcDbArc
 50
115.9444797720007
 51
180.0
  0
ARC
  5
1AC1F
330
18
100
AcDbEntity
  8
01
  6
BYBLOCK
100
AcDbCircle
 10
2347.589749593385
 20
-399.9849525201088
 30
0.0000000000563712
 40
1.6
100
AcDbArc
 50
180.0
 51
244.0555202279993
  0
ARC
  5
1AC20
330
18
100
AcDbEntity
  8
01
  6
BYBLOCK
100
AcDbCircle
 10
2346.889749593384
 20
-401.2624514341088
 30
0.0000000000563712
 40
1.6
100
AcDbArc
 50
0.0
 51
64.05552022799934
  0
ARC
  5
1AC21
330
18
100
AcDbEntity
  8
01
  6
BYBLOCK
100
AcDbCircle
 10
2346.889749593384
 20
-391.5849525201089
 30
0.0000000000563712
 40
1.6
100
AcDbArc
 50
295.9444797720006
 51
0.0
  0
LINE
  5
1AC22
330
18
100
AcDbEntity
  8
01
  6
BYBLOCK
100
AcDbLine
 10
2348.489749593384
 20
-391.5849525201089
 30
0.0000000000563712
 11
2348.489749593384
 21
-384.2237019771088
 31
0.0000000000563712
  0
LINE
  5
1AC23
330
18
100
AcDbEntity
  8
01
  6
BYBLOCK
100
AcDbLine
 10
2347.589749593385
 20
-399.823701977109
 30
0.0000000000563712
 11
2347.589749593385
 21
-393.0237019771088
 31
0.0000000000563712
  0
LINE
  5
1AC24
330
18
100
AcDbEntity
  8
01
  6
BYBLOCK
100
AcDbLine
 10
2348.489749593384
 20
-408.4237019771089
 30
0.0000000000563712
 11
2348.489749593384
 21
-401.2624514341088
 31
0.0000000000563712
  0
LINE
  5
1AC25
330
18
100
AcDbEntity
  8
01
  6
BYBLOCK
100
AcDbLine
 10
2346.889749593384
 20
-391.4237019771089
 30
0.0000000000563712
 11
2346.889749593385
 21
-384.2237019771088
 31
0.0000000000563712
  0
LINE
  5
1AC26
330
18
100
AcDbEntity
  8
01
  6
BYBLOCK
100
AcDbLine
 10
2346.889749593384
 20
-401.4237019771089
 30
0.0000000000563712
 11
2346.889749593384
 21
-408.5237019771088
 31
0.0000000000563712
  0
ARC
  5
1AC27
330
18
100
AcDbEntity
  8
01
  6
BYBLOCK
100
AcDbCircle
 10
2411.889749593384
 20
-388.5237019771088
 30
0.0000000000563712
 40
1.6
100
AcDbArc
 50
0.0
 51
90.0
  0
LINE
  5
1AC28
330
18
100
AcDbEntity
  8
01
  6
BYBLOCK
100
AcDbLine
 10
2345.989749593384
 20
-384.0237019771088
 30
0.0000000000563712
 11
2345.989749593384
 21
-408.8237019771087
 31
0.0000000000563712
  0
LINE
  5
1AC29
330
18
100
AcDbEntity
  8
01
  6
BYBLOCK
100
AcDbLine
 10
2411.889749593384
 20
-386.9237019771089
 30
0.0000000000563712
 11
2348.489749593384
 21
-386.9237019771089
 31
0.0000000000563712
  0
LINE
  5
1AC2A
330
18
100
AcDbEntity
  8
01
  6
BYBLOCK
100
AcDbLine
 10
2411.889749593384
 20
-404.1237019771089
 30
0.0000000000563712
 11
2411.889749593384
 21
-386.9237019771089
 31
0.0000000000563712
  0
LINE
  5
1AC2B
330
18
100
AcDbEntity
  8
01
  6
BYBLOCK
100
AcDbLine
 10
2413.489749593384
 20
-405.7237019771088
 30
0.0000000000563712
 11
2413.489749593384
 21
-388.5237019771088
 31
0.0000000000563712
  0
LINE
  5
1AC2C
330
18
100
AcDbEntity
  8
01
  6
BYBLOCK
100
AcDbLine
 10
2345.989749593384
 20
-384.2237019771088
 30
0.0000000000563712
 11
2348.489749593384
 21
-384.2237019771088
 31
0.0000000000563712
  0
LINE
  5
1AC2D
330
18
100
AcDbEntity
  8
01
  6
BYBLOCK
100
AcDbLine
 10
2348.489749593384
 20
-408.4237019771089
 30
0.0000000000563712
 11
2346.889749593384
 21
-408.4237019771089
 31
0.0000000000563712
  0
LINE
  5
1AC2E
330
18
100
AcDbEntity
  8
01
  6
BYBLOCK
100
AcDbLine
 10
2346.889749593384
 20
-408.5237019771088
 30
0.0000000000563712
 11
2345.989749593384
 21
-408.5237019771088
 31
0.0000000000563712
  0
ARC
  5
1AC2F
330
18
100
AcDbEntity
  8
01
  6
BYBLOCK
100
AcDbCircle
 10
2343.190344520783
 20
-402.1237019771082
 30
0.0000000000563712
 40
0.3000000000000051
100
AcDbArc
 50
232.8678058729198
 51
270.0
  0
LINE
  5
1AC30
330
18
100
AcDbEntity
  8
01
  6
BYBLOCK
100
AcDbLine
 10
2343.989749593384
 20
-402.4237019771082
 30
0.0000000000563712
 11
2343.190344520783
 21
-402.4237019771082
 31
0.0000000000563712
  0
LINE
  5
1AC31
330
18
100
AcDbEntity
  8
01
  6
BYBLOCK
100
AcDbLine
 10
2333.589749593385
 20
-392.750713110904
 30
0.0000000000563712
 11
2333.589749593385
 21
-392.9213351664531
 31
0.0000000000563712
  0
ARC
  5
1AC32
330
18
100
AcDbEntity
  8
01
  6
BYBLOCK
100
AcDbCircle
 10
2333.889749593384
 20
-392.9213351664531
 30
0.0000000000563712
 40
0.3
100
AcDbArc
 50
180.0
 51
217.7405295629754
  0
ARC
  5
1AC33
330
18
100
AcDbEntity
  8
01
  6
BYBLOCK
100
AcDbCircle
 10
2373.192050192668
 20
-362.5006322225123
 30
0.0000000000563712
 40
50.00000000000002
100
AcDbArc
 50
217.7405295629802
 51
232.8678058729729
  0
LINE
  5
1AC34
330
18
100
AcDbEntity
  8
01
  6
BYBLOCK
100
AcDbLine
 10
2333.389749593384
 20
-391.6237019771087
 30
0.0000000000563712
 11
2333.389749593384
 21
-390.9237019771089
 31
0.0000000000563712
  0
ARC
  5
1AC35
330
18
100
AcDbEntity
  8
01
  6
BYBLOCK
100
AcDbCircle
 10
2333.889749593384
 20
-390.9237019771089
 30
0.0000000000563712
 40
0.5000000000000142
100
AcDbArc
 50
90.0
 51
180.0
  0
LINE
  5
1AC36
330
18
100
AcDbEntity
  8
01
  6
BYBLOCK
100
AcDbLine
 10
2343.989749593384
 20
-390.4237019771089
 30
0.0000000000563712
 11
2333.889749593384
 21
-390.4237019771089
 31
0.0000000000563712
  0
LINE
  5
1AC37
330
18
100
AcDbEntity
  8
01
  6
BYBLOCK
100
AcDbLine
 10
2333.389749593384
 20
-392.0023816335491
 30
0.0000000000563712
 11
2333.389749593384
 21
-391.6237019771087
 31
0.0000000000563712
  0
SPLINE
  5
1AC38
330
18
100
AcDbEntity
  8
01
  6
BYBLOCK
100
AcDbSpline
210
0.0
220
0.0
230
1.0
 70
     8
 71
     3
 72
     8
 73
     4
 74
     0
 42
0.0000000001
 43
0.0000000001
 40
0.0
 40
0.0
 40
0.0
 40
0.0
 40
1.0
 40
1.0
 40
1.0
 40
1.0
 10
2333.415482134649
 20
-392.2790320629982
 30
0.0000000000563712
 10
2333.398014248537
 20
-392.1859458671178
 30
0.0000000000563712
 10
2333.389749593384
 20
-392.0926798562263
 30
0.0000000000563712
 10
2333.389749593384
 20
-392.0023816335487
 30
0.0000000000563712
  0
ARC
  5
1AC39
330
18
100
AcDbEntity
  8
01
  6
BYBLOCK
100
AcDbCircle
 10
2334.889749593384
 20
-392.0023816335491
 30
0.0000000000563712
 40
1.499999999999998
100
AcDbArc
 50
190.628112987605
 51
225.0000000000384
  0
LINE
  5
1AC3A
330
18
100
AcDbEntity
  8
01
  6
BYBLOCK
100
AcDbLine
 10
2344.489749593384
 20
-389.5737019771087
 30
0.0000000000563712
 11
2343.989749593384
 21
-389.5737019771087
 31
0.0000000000563712
  0
LINE
  5
1AC3B
330
18
100
AcDbEntity
  8
01
  6
BYBLOCK
100
AcDbLine
 10
2343.989749593384
 20
-403.2737019771088
 30
0.0000000000563712
 11
2344.489749593384
 21
-403.2737019771088
 31
0.0000000000563712
  0
LINE
  5
1AC3C
330
18
100
AcDbEntity
  8
01
  6
BYBLOCK
100
AcDbLine
 10
2343.989749593384
 20
-403.2737019771088
 30
0.0000000000563712
 11
2343.989749593384
 21
-389.5737019771087
 31
0.0000000000563712
  0
LINE
  5
1AC3D
330
18
100
AcDbEntity
  8
01
  6
BYBLOCK
100
AcDbLine
 10
2344.489749593384
 20
-384.0237019771088
 30
0.0000000000563712
 11
2345.989749593384
 21
-384.0237019771088
 31
0.0000000000563712
  0
LINE
  5
1AC3E
330
18
100
AcDbEntity
  8
01
  6
BYBLOCK
100
AcDbLine
 10
2344.489749593384
 20
-408.8237019771087
 30
0.0000000000563712
 11
2345.989749593384
 21
-408.8237019771087
 31
0.0000000000563712
  0
LINE
  5
1AC3F
330
18
100
AcDbEntity
  8
01
  6
BYBLOCK
100
AcDbLine
 10
2344.489749593384
 20
-408.8237019771087
 30
0.0000000000563712
 11
2344.489749593384
 21
-384.0237019771088
 31
0.0000000000563712
  0
LINE
  5
1AC40
330
18
100
AcDbEntity
  8
01
  6
BYBLOCK
100
AcDbLine
 10
2413.489749593384
 20
-404.1237019771089
 30
0.0000000000563712
 11
2348.489749593384
 21
-404.1237019771089
 31
0.0000000000563712
  0
LINE
  5
1AC41
330
18
100
AcDbEntity
  8
01
  6
BYBLOCK
100
AcDbLine
 10
2413.489749593384
 20
-405.7237019771088
 30
0.0000000000563712
 11
2363.089749593385
 21
-405.7237019771088
 31
0.0000000000563712
  0
LINE
  5
1AC42
330
18
100
AcDbEntity
  8
01
  6
BYBLOCK
100
AcDbLine
 10
2365.927007893587
 20
-405.7237019771088
 30
0.0000000000563712
 11
2348.489749593384
 21
-405.7237019771088
 31
0.0000000000563712
  0
LINE
  5
1AC43
330
18
100
AcDbEntity
  8
01
  6
BYBLOCK
100
AcDbLine
 10
2343.043302983977
 20
-402.2772553677022
 30
0.0000000000563712
 11
2333.829089421604
 21
-393.0630418053291
 31
0.0000000000563712
  0
ARC
  5
1AC44
330
18
100
AcDbEntity
  8
01
  6
BYBLOCK
100
AcDbCircle
 10
2343.396856374571
 20
-401.9237019771089
 30
0.0000000000563712
 40
0.5
100
AcDbArc
 50
224.9999999999908
 51
270.0
  0
LINE
  5
1AC45
330
18
100
AcDbEntity
  8
01
  6
BYBLOCK
100
AcDbLine
 10
2343.989749593384
 20
-402.4237019771089
 30
0.0000000000563712
 11
2343.396856374571
 21
-402.4237019771089
 31
0.0000000000563712
  0
LINE
  5
1AC47
330
18
100
AcDbEntity
  8
01
  6
BYBLOCK
100
AcDbLine
 10
2333.488865411324
 20
-635.3920317090641
 30
0.0000000000563712
 11
2333.488865411324
 21
-653.45537224307
 31
0.0000000000563712
  0
LINE
  5
1AC48
330
18
100
AcDbEntity
  8
01
  6
BYBLOCK
100
AcDbLine
 10
2337.781758630138
 20
-634.423701976067
 30
0.0000000000563712
 11
2344.488865411324
 21
-634.423701976067
 31
0.0000000000563712
  0
LINE
  5
1AC49
330
18
100
AcDbEntity
  8
01
  6
BYBLOCK
100
AcDbLine
 10
2337.781758630138
 20
-654.423701976067
 30
0.0000000000563712
 11
2344.488865411324
 21
-654.423701976067
 31
0.0000000000563712
  0
LINE
  5
1AC4A
330
18
100
AcDbEntity
  8
01
  6
BYBLOCK
100
AcDbLine
 10
2343.281758630138
 20
-639.173701976067
 30
0.0000000000563712
 11
2343.281758630138
 21
-649.673701976067
 31
0.0000000000563712
  0
ARC
  5
1AC4B
330
18
100
AcDbEntity
  8
01
  6
BYBLOCK
100
AcDbCircle
 10
2337.781758630138
 20
-644.423701976067
 30
0.0000000000563712
 40
10.00000000000009
100
AcDbArc
 50
53.13010235414986
 51
115.4224671781178
  0
ARC
  5
1AC4C
330
18
100
AcDbEntity
  8
01
  6
BYBLOCK
100
AcDbCircle
 10
2337.781758630138
 20
-644.4237019760668
 30
0.0000000000563712
 40
10.00000000000009
100
AcDbArc
 50
244.5775328218822
 51
306.8698976458437
  0
LINE
  5
1AC4D
330
18
100
AcDbEntity
  8
01
  6
BYBLOCK
100
AcDbLine
 10
2343.781758630138
 20
-636.423701976067
 30
0.0000000000563712
 11
2343.781758630138
 21
-652.423701976067
 31
0.0000000000563712
  0
LINE
  5
1AC4E
330
18
100
AcDbEntity
  8
01
  6
BYBLOCK
100
AcDbLine
 10
2333.488865411324
 20
-639.173701976067
 30
0.0000000000563712
 11
2343.281758630138
 21
-639.173701976067
 31
0.0000000000563712
  0
LINE
  5
1AC4F
330
18
100
AcDbEntity
  8
01
  6
BYBLOCK
100
AcDbLine
 10
2333.488865411324
 20
-649.673701976067
 30
0.0000000000563712
 11
2343.281758630138
 21
-649.673701976067
 31
0.0000000000563712
  0
LINE
  5
1AC50
330
18
100
AcDbEntity
  8
01
  6
BYBLOCK
100
AcDbLine
 10
2219.088981751069
 20
-580.5237019760808
 30
0.0000000000563712
 11
2231.888981751069
 21
-580.5237019760808
 31
0.0000000000563712
  0
LINE
  5
1AC51
330
18
100
AcDbEntity
  8
01
  6
BYBLOCK
100
AcDbLine
 10
2219.088981751069
 20
-710.3237019760808
 30
0.0000000000563712
 11
2231.888981751069
 21
-710.3237019760808
 31
0.0000000000563712
  0
LINE
  5
1AC52
330
18
100
AcDbEntity
  8
01
  6
BYBLOCK
100
AcDbLine
 10
2213.088981751069
 20
-586.5237019760808
 30
0.0000000000563712
 11
2213.088981751069
 21
-704.3237019760808
 31
0.0000000000563712
  0
LINE
  5
1AC53
330
18
100
AcDbEntity
  8
01
  6
BYBLOCK
100
AcDbLine
 10
2237.888981751069
 20
-586.5237019760808
 30
0.0000000000563712
 11
2237.888981751069
 21
-704.3237019760808
 31
0.0000000000563712
  0
ARC
  5
1AC54
330
18
100
AcDbEntity
  8
01
  6
BYBLOCK
100
AcDbCircle
 10
2219.088981751069
 20
-704.3237019760808
 30
0.0000000000563712
 40
6.0
100
AcDbArc
 50
180.0
 51
270.0
  0
ARC
  5
1AC55
330
18
100
AcDbEntity
  8
01
  6
BYBLOCK
100
AcDbCircle
 10
2231.888981751069
 20
-704.3237019760808
 30
0.0000000000563712
 40
6.0
100
AcDbArc
 50
270.0
 51
0.0
  0
ARC
  5
1AC56
330
18
100
AcDbEntity
  8
01
  6
BYBLOCK
100
AcDbCircle
 10
2219.088981751069
 20
-586.5237019760808
 30
0.0000000000563712
 40
6.0
100
AcDbArc
 50
90.0
 51
180.0
  0
ARC
  5
1AC57
330
18
100
AcDbEntity
  8
01
  6
BYBLOCK
100
AcDbCircle
 10
2231.888981751069
 20
-586.5237019760808
 30
0.0000000000563712
 40
6.0
100
AcDbArc
 50
0.0
 51
90.0
  0
CIRCLE
  5
1AC58
330
18
100
AcDbEntity
  8
01
  6
BYBLOCK
100
AcDbCircle
 10
2225.488981751069
 20
-702.4237019760807
 30
0.0000000000563712
 40
2.75
  0
CIRCLE
  5
1AC59
330
18
100
AcDbEntity
  8
01
  6
BYBLOCK
100
AcDbCircle
 10
2225.488981751069
 20
-702.4237019760807
 30
0.0000000000563712
 40
4.25
  0
CIRCLE
  5
1AC5A
330
18
100
AcDbEntity
  8
01
  6
BYBLOCK
100
AcDbCircle
 10
2225.488981751069
 20
-588.4237019760809
 30
0.0000000000563712
 40
2.75
  0
CIRCLE
  5
1AC5B
330
18
100
AcDbEntity
  8
01
  6
BYBLOCK
100
AcDbCircle
 10
2225.488981751069
 20
-588.4237019760809
 30
0.0000000000563712
 40
4.25
  0
LINE
  5
1AC5C
330
18
100
AcDbEntity
  8
1CENTER
100
AcDbLine
 10
2231.364007158975
 20
-702.4237019760809
 30
0.0000000000563712
 11
2219.613956343163
 21
-702.4237019760809
 31
0.0000000000563712
  0
LINE
  5
1AC5D
330
18
100
AcDbEntity
  8
1CENTER
100
AcDbLine
 10
2225.488981751069
 20
-696.5486765681745
 30
0.0000000000563712
 11
2225.488981751069
 21
-708.298727383987
 31
0.0000000000563712
  0
LINE
  5
1AC5E
330
18
100
AcDbEntity
  8
1CENTER
100
AcDbLine
 10
2231.364007158975
 20
-588.4237019760809
 30
0.0000000000563712
 11
2219.613956343163
 21
-588.4237019760809
 31
0.0000000000563712
  0
LINE
  5
1AC5F
330
18
100
AcDbEntity
  8
1CENTER
100
AcDbLine
 10
2225.488981751069
 20
-582.5486765681745
 30
0.0000000000563712
 11
2225.488981751069
 21
-594.298727383987
 31
0.0000000000563712
  0
ARC
  5
1AC60
330
18
100
AcDbEntity
  8
01
  6
BYBLOCK
100
AcDbCircle
 10
2225.488981751069
 20
-644.4237019760807
 30
0.0000000000563712
 40
10.15
100
AcDbArc
 50
231.9925780701365
 51
308.0074219298635
  0
LINE
  5
1AC61
330
18
100
AcDbEntity
  8
01
  6
BYBLOCK
100
AcDbLine
 10
2219.238981751069
 20
-636.4262023668279
 30
0.0000000000563712
 11
2219.238981751069
 21
-652.4212015853335
 31
0.0000000000563712
  0
LINE
  5
1AC62
330
18
100
AcDbEntity
  8
01
  6
BYBLOCK
100
AcDbLine
 10
2231.738981751069
 20
-636.4262023668279
 30
0.0000000000563712
 11
2231.738981751069
 21
-652.4212015853335
 31
0.0000000000563712
  0
ARC
  5
1AC63
330
18
100
AcDbEntity
  8
01
  6
BYBLOCK
100
AcDbCircle
 10
2225.488981751069
 20
-644.4237019760807
 30
0.0000000000563712
 40
10.15
100
AcDbArc
 50
51.9925780701429
 51
128.0074219298571
  0
LINE
  5
1AC64
330
18
100
AcDbEntity
  8
01
  6
BYBLOCK
100
AcDbLine
 10
2220.988981751069
 20
-639.1737019760807
 30
0.0000000000563712
 11
2220.988981751069
 21
-649.6737019760807
 31
0.0000000000563712
  0
LINE
  5
1AC65
330
18
100
AcDbEntity
  8
01
  6
BYBLOCK
100
AcDbLine
 10
2230.988981751069
 20
-639.1737019760807
 30
0.0000000000563712
 11
2230.988981751069
 21
-649.6737019760807
 31
0.0000000000563712
  0
LINE
  5
1AC66
330
18
100
AcDbEntity
  8
01
  6
BYBLOCK
100
AcDbLine
 10
2221.488981751069
 20
-635.0951168743624
 30
0.0000000000563712
 11
2221.488981751069
 21
-639.1737019760809
 31
0.0000000000563712
  0
LINE
  5
1AC67
330
18
100
AcDbEntity
  8
01
  6
BYBLOCK
100
AcDbLine
 10
2219.988981751069
 20
-639.1737019760809
 30
0.0000000000563712
 11
2219.988981751069
 21
-649.6737019760807
 31
0.0000000000563712
  0
LINE
  5
1AC68
330
18
100
AcDbEntity
  8
01
  6
BYBLOCK
100
AcDbLine
 10
2221.488981751069
 20
-649.6737019760807
 30
0.0000000000563712
 11
2221.488981751069
 21
-653.752287077799
 31
0.0000000000563712
  0
LINE
  5
1AC69
330
18
100
AcDbEntity
  8
01
  6
BYBLOCK
100
AcDbLine
 10
2219.988981751069
 20
-639.1737019760807
 30
0.0000000000563712
 11
2230.988981751069
 21
-639.1737019760807
 31
0.0000000000563712
  0
LINE
  5
1AC6A
330
18
100
AcDbEntity
  8
01
  6
BYBLOCK
100
AcDbLine
 10
2219.988981751069
 20
-649.6737019760807
 30
0.0000000000563712
 11
2230.988981751069
 21
-649.6737019760807
 31
0.0000000000563712
  0
LINE
  5
1AC6E
330
18
100
AcDbEntity
  8
01
100
AcDbLine
 10
2205.489098090812
 20
-546.4237019760805
 30
0.0000000000563712
 11
2205.489098090812
 21
-736.4237019760807
 31
0.0000000000563712
  0
LINE
  5
1AC6F
330
18
100
AcDbEntity
  8
01
100
AcDbLine
 10
2205.489098090812
 20
-641.4237019760807
 30
0.0000000000563712
 11
2205.489098090812
 21
-691.4237019760807
 31
0.0000000000563712
  0
LINE
  5
1AC70
330
18
100
AcDbEntity
  8
01
100
AcDbLine
 10
2196.989098090812
 20
-690.4237019760807
 30
0.0000000000563712
 11
2196.989098090812
 21
-642.4237019760807
 31
0.0000000000563712
  0
LINE
  5
1AC71
330
18
100
AcDbEntity
  8
01
100
AcDbLine
 10
2205.489098090812
 20
-691.4237019760807
 30
0.0000000000563712
 11
2197.989098090812
 21
-691.4237019760807
 31
0.0000000000563712
  0
ARC
  5
1AC72
330
18
100
AcDbEntity
  8
01
100
AcDbCircle
 10
2197.989098090812
 20
-690.4237019760807
 30
0.0000000000563712
 40
1.0
100
AcDbArc
 50
180.0
 51
270.0
  0
LINE
  5
1AC73
330
18
100
AcDbEntity
  8
01
100
AcDbLine
 10
2205.489098090812
 20
-641.4237019760807
 30
0.0000000000563712
 11
2197.989098090812
 21
-641.4237019760807
 31
0.0000000000563712
  0
ARC
  5
1AC74
330
18
100
AcDbEntity
  8
01
100
AcDbCircle
 10
2197.989098090812
 20
-642.4237019760807
 30
0.0000000000563712
 40
1.0
100
AcDbArc
 50
90.0
 51
180.0
  0
LINE
  5
1AC75
330
18
100
AcDbEntity
  8
01
100
AcDbLine
 10
2207.617383473244
 20
-666.4237019760807
 30
0.0000000000563712
 11
2184.989098090812
 21
-666.4237019760807
 31
0.0000000000563712
  0
POINT
  5
1AC76
330
18
100
AcDbEntity
  8
1HIDDEN
100
AcDbPoint
 10
2190.988981751069
 20
-666.4237019760807
 30
0.0000000000563712
 50
180.0
  0
CIRCLE
  5
1AC77
330
18
100
AcDbEntity
  8
1HIDDEN
100
AcDbCircle
 10
2190.988981751069
 20
-666.4237019760807
 30
0.0000000000563712
 40
2.5
  0
CIRCLE
  5
1AC78
330
18
100
AcDbEntity
  8
1HIDDEN
100
AcDbCircle
 10
2190.988981751069
 20
-666.4237019760807
 30
0.0000000000563712
 40
3.0
  0
LINE
  5
1AC7A
330
18
100
AcDbEntity
  8
1HIDDEN
100
AcDbLine
 10
2190.988981751069
 20
-672.4237019760807
 30
0.0000000000563712
 11
2190.988981751069
 21
-660.4237019760807
 31
0.0000000000563712
  0
LINE
  5
1AC7B
330
18
100
AcDbEntity
  8
01
100
AcDbLine
 10
2339.488865411612
 20
-702.4237019757915
 30
0.0000000000563712
 11
2353.488865411612
 21
-702.4237019757915
 31
0.0000000000563712
  0
LINE
  5
1AC7C
330
18
100
AcDbEntity
  8
01
100
AcDbLine
 10
2406.800753678865
 20
-616.4237019760802
 30
0.0000000000563712
 11
2384.176977143782
 21
-616.4237019760802
 31
0.0000000000563712
  0
LINE
  5
1AC7D
330
18
100
AcDbEntity
  8
01
100
AcDbLine
 10
2395.488865411324
 20
-605.1118137085385
 30
0.0000000000563712
 11
2395.488865411324
 21
-627.7355902436219
 31
0.0000000000563712
  0
LINE
  5
1AC7E
330
18
100
AcDbEntity
  8
01
  6
BYBLOCK
100
AcDbLine
 10
2117.489098090814
 20
-635.3920317090641
 30
0.0000000000563712
 11
2117.489098090814
 21
-653.45537224307
 31
0.0000000000563712
  0
LINE
  5
1AC7F
330
18
100
AcDbEntity
  8
01
  6
BYBLOCK
100
AcDbLine
 10
2113.196204872
 20
-634.423701976067
 30
0.0000000000563712
 11
2106.489098090814
 21
-634.423701976067
 31
0.0000000000563712
  0
LINE
  5
1AC80
330
18
100
AcDbEntity
  8
01
  6
BYBLOCK
100
AcDbLine
 10
2113.196204872
 20
-654.423701976067
 30
0.0000000000563712
 11
2106.489098090814
 21
-654.423701976067
 31
0.0000000000563712
  0
ARC
  5
1AC81
330
18
100
AcDbEntity
  8
01
  6
BYBLOCK
100
AcDbCircle
 10
2113.196204872
 20
-644.423701976067
 30
0.0000000000563712
 40
10.00000000000009
100
AcDbArc
 50
64.57753282188216
 51
90.0
  0
LINE
  5
1AC82
330
18
100
AcDbEntity
  8
01
  6
CONTINUOUS
100
AcDbLine
 10
2116.989098090814
 20
-652.7384961688978
 30
0.0000000000563712
 11
2106.489098090814
 21
-652.7384961688978
 31
0.0000000000563712
  0
ARC
  5
1AC83
330
18
100
AcDbEntity
  8
01
  6
CONTINUOUS
100
AcDbCircle
 10
2117.027678337727
 20
-652.276356938091
 30
0.0000000000563712
 40
0.4637468103423796
100
AcDbArc
 50
265.2279066161926
 51
354.2577450626241
  0
LINE
  5
1AC84
330
18
100
AcDbEntity
  8
01
  6
CONTINUOUS
100
AcDbLine
 10
2117.489098090814
 20
-636.940387202519
 30
0.0000000000563712
 11
2117.489098090814
 21
-651.9070167496149
 31
0.0000000000563712
  0
ARC
  5
1AC85
330
18
100
AcDbEntity
  8
01
  6
CONTINUOUS
100
AcDbCircle
 10
2117.027678337727
 20
-636.5710470140426
 30
0.0000000000563712
 40
0.4637468103423387
100
AcDbArc
 50
5.742254937375924
 51
94.77209338380747
  0
ARC
  5
1AC86
330
18
100
AcDbEntity
  8
01
  6
BYBLOCK
100
AcDbCircle
 10
2113.196204872
 20
-644.4237019760668
 30
0.0000000000563712
 40
10.00000000000009
100
AcDbArc
 50
270.0
 51
295.4224671781178
  0
LINE
  5
1AC87
330
18
100
AcDbEntity
  8
01
  6
CONTINUOUS
100
AcDbLine
 10
2106.489098090814
 20
-636.1089077832358
 30
0.0000000000563712
 11
2116.989098090814
 21
-636.1089077832358
 31
0.0000000000563712
  0
LINE
  5
1AC88
330
18
100
AcDbEntity
  8
01
100
AcDbLine
 10
2413.488865411324
 20
-639.923701976082
 30
0.0000000000563712
 11
2413.488865411324
 21
-681.4237019760802
 31
0.0000000000563712
  0
ARC
  5
1AC89
330
18
100
AcDbEntity
  8
01
100
AcDbCircle
 10
2412.488865411324
 20
-681.4237019760802
 30
0.0000000000563712
 40
1.0
100
AcDbArc
 50
270.0
 51
0.0
  0
LINE
  5
1AC8A
330
18
100
AcDbEntity
  8
01
100
AcDbLine
 10
2368.988865411328
 20
-682.4237019760802
 30
0.0000000000563712
 11
2412.488865411324
 21
-682.42370197608
 31
0.0000000000563712
  0
LINE
  5
1AC8B
330
18
100
AcDbEntity
  8
01
100
AcDbLine
 10
2085.489098090814
 20
-666.4237019760802
 30
0.0000000000563712
 11
2025.489098090814
 21
-666.4237019760802
 31
0.0000000000563712
  0
LINE
  5
1AC8C
330
18
100
AcDbEntity
  8
01
100
AcDbLine
 10
2055.489098090814
 20
-636.4237019760802
 30
0.0000000000563712
 11
2055.489098090814
 21
-696.4237019760802
 31
0.0000000000563712
  0
LINE
  5
1AC8D
330
18
100
AcDbEntity
  8
01
100
AcDbLine
 10
2368.988981751071
 20
-376.4237019771089
 30
0.0000000000563712
 11
2421.988981751067
 21
-376.4237019771089
 31
0.0000000000563712
  0
LINE
  5
1AC8E
330
18
100
AcDbEntity
  8
01
100
AcDbLine
 10
2369.488981751071
 20
-367.9237019771089
 30
0.0000000000563712
 11
2392.988993715926
 21
-367.9237019771089
 31
0.0000000000563712
  0
LINE
  5
1AC8F
330
18
100
AcDbEntity
  8
01
100
AcDbLine
 10
2421.988981751067
 20
-376.4237019771089
 30
0.0000000000563712
 11
2421.988981751067
 21
-368.4237019771089
 31
0.0000000000563712
  0
LINE
  5
1AC90
330
18
100
AcDbEntity
  8
01
100
AcDbLine
 10
2368.988981751071
 20
-376.4237019771089
 30
0.0000000000563712
 11
2368.988981751071
 21
-368.4237019771089
 31
0.0000000000563712
  0
ARC
  5
1AC91
330
18
100
AcDbEntity
  8
01
100
AcDbCircle
 10
2369.488981751071
 20
-368.4237019771089
 30
0.0000000000563712
 40
0.5
100
AcDbArc
 50
90.0
 51
180.0
  0
ARC
  5
1AC92
330
18
100
AcDbEntity
  8
01
100
AcDbCircle
 10
2421.488981751067
 20
-368.4237019771089
 30
0.0000000000563712
 40
0.5
100
AcDbArc
 50
0.0
 51
90.0
  0
LINE
  5
1AC93
330
18
100
AcDbEntity
  8
1HIDDEN
100
AcDbLine
 10
2413.488865411324
 20
-609.4237019760802
 30
0.0000000000563712
 11
2413.488865411324
 21
-630.923701771953
 31
0.0000000000563712
  0
LINE
  5
1AC94
330
18
100
AcDbEntity
  8
01
  6
BYBLOCK
100
AcDbLine
 10
2347.188865411324
 20
-608.4237019760802
 30
0.0000000000563712
 11
2375.488865411326
 21
-608.4237019760802
 31
0.0000000000563712
  0
LINE
  5
1AC95
330
18
100
AcDbEntity
  8
1HIDDEN
100
AcDbLine
 10
2375.488865411326
 20
-608.4237019760802
 30
0.0000000000563712
 11
2412.488865411324
 21
-608.4237019760802
 31
0.0000000000563712
  0
LINE
  5
1AC96
330
18
100
AcDbEntity
  8
01
  6
BYBLOCK
100
AcDbLine
 10
2413.488865411327
 20
-630.923701771953
 30
0.0000000000563712
 11
2413.488865411327
 21
-639.923701976082
 31
0.0000000000563712
  0
LINE
  5
1AC97
330
18
100
AcDbEntity
  8
01
100
AcDbLine
 10
2111.489098090814
 20
-588.4237019760802
 30
0.0000000000563712
 11
2097.489098090814
 21
-588.4237019760802
 31
0.0000000000563712
  0
LINE
  5
1AC98
330
18
100
AcDbEntity
  8
01
  6
BYBLOCK
100
AcDbLine
 10
2104.989098090814
 20
-580.5237019760801
 30
0.0000000000563712
 11
2104.989098090814
 21
-710.3237019760801
 31
0.0000000000563712
  0
LINE
  5
1AC99
330
18
100
AcDbEntity
  8
01
  6
BYBLOCK
100
AcDbLine
 10
2104.989098090814
 20
-709.4237019760802
 30
0.0000000000563712
 11
2102.489098090814
 21
-709.4237019760802
 31
0.0000000000563712
  0
LINE
  5
1AC9A
330
18
100
AcDbEntity
  8
01
  6
BYBLOCK
100
AcDbLine
 10
2102.489098090814
 20
-709.4237019760802
 30
0.0000000000563712
 11
2102.489098090814
 21
-692.9207582509279
 31
0.0000000000563712
  0
LINE
  5
1AC9B
330
18
100
AcDbEntity
  8
01
  6
BYBLOCK
100
AcDbLine
 10
2106.489098090814
 20
-580.5237019760801
 30
0.0000000000563712
 11
2106.489098090814
 21
-710.3237019760801
 31
0.0000000000563712
  0
LINE
  5
1AC9C
330
18
100
AcDbEntity
  8
01
  6
BYBLOCK
100
AcDbLine
 10
2106.489098090814
 20
-710.3237019760801
 30
0.0000000000563712
 11
2104.989098090814
 21
-710.3237019760801
 31
0.0000000000563712
  0
LINE
  5
1AC9D
330
18
100
AcDbEntity
  8
01
  6
BYBLOCK
100
AcDbLine
 10
2104.989098090814
 20
-581.4237019760802
 30
0.0000000000563712
 11
2102.489098090814
 21
-581.4237019760802
 31
0.0000000000563712
  0
LINE
  5
1AC9E
330
18
100
AcDbEntity
  8
01
  6
BYBLOCK
100
AcDbLine
 10
2106.489098090814
 20
-580.5237019760801
 30
0.0000000000563712
 11
2104.989098090814
 21
-580.5237019760801
 31
0.0000000000563712
  0
LINE
  5
1AC9F
330
18
100
AcDbEntity
  8
01
  6
BYBLOCK
100
AcDbLine
 10
2104.989098090814
 20
-605.4237019760802
 30
0.0000000000563712
 11
2103.789098090814
 21
-605.4237019760802
 31
0.0000000000563712
  0
LINE
  5
1ACA0
330
18
100
AcDbEntity
  8
01
  6
BYBLOCK
100
AcDbLine
 10
2103.789098090814
 20
-599.72370197608
 30
0.0000000000563712
 11
2103.789098090814
 21
-691.12370197608
 31
0.0000000000563712
  0
LINE
  5
1ACA1
330
18
100
AcDbEntity
  8
01
  6
BYBLOCK
100
AcDbLine
 10
2103.689098090813
 20
-709.4237019760802
 30
0.0000000000563712
 11
2103.689098090813
 21
-692.8237019760801
 31
0.0000000000563712
  0
LINE
  5
1ACA2
330
18
100
AcDbEntity
  8
01
  6
BYBLOCK
100
AcDbLine
 10
2103.689098090813
 20
-692.8237019760801
 30
0.0000000000563712
 11
2104.637626228238
 21
-691.8751738386562
 31
0.0000000000563712
  0
LINE
  5
1ACA3
330
18
100
AcDbEntity
  8
01
  6
BYBLOCK
100
AcDbLine
 10
2102.84056995339
 20
-692.0722301135039
 30
0.0000000000563712
 11
2103.789098090814
 21
-691.12370197608
 31
0.0000000000563712
  0
ARC
  5
1ACA4
330
18
100
AcDbEntity
  8
01
  6
BYBLOCK
100
AcDbCircle
 10
2103.689098090813
 20
-692.9207582509279
 30
0.0000000000563712
 40
1.2
100
AcDbArc
 50
134.9999999999616
 51
180.0
  0
ARC
  5
1ACA5
330
18
100
AcDbEntity
  8
01
  6
BYBLOCK
100
AcDbCircle
 10
2103.789098090814
 20
-691.0266457012323
 30
0.0000000000563712
 40
1.2
100
AcDbArc
 50
314.9999999999616
 51
0.0
  0
LINE
  5
1ACA6
330
18
100
AcDbEntity
  8
01
  6
BYBLOCK
100
AcDbLine
 10
2102.489098090814
 20
-581.4237019760802
 30
0.0000000000563712
 11
2102.489098090814
 21
-597.9266457012324
 31
0.0000000000563712
  0
LINE
  5
1ACA7
330
18
100
AcDbEntity
  8
01
  6
BYBLOCK
100
AcDbLine
 10
2103.689098090813
 20
-581.4237019760802
 30
0.0000000000563712
 11
2103.689098090813
 21
-598.0237019760801
 31
0.0000000000563712
  0
LINE
  5
1ACA8
330
18
100
AcDbEntity
  8
01
  6
BYBLOCK
100
AcDbLine
 10
2103.689098090813
 20
-598.0237019760801
 30
0.0000000000563712
 11
2104.637626228238
 21
-598.972230113504
 31
0.0000000000563712
  0
LINE
  5
1ACA9
330
18
100
AcDbEntity
  8
01
  6
BYBLOCK
100
AcDbLine
 10
2102.84056995339
 20
-598.7751738386563
 30
0.0000000000563712
 11
2103.789098090814
 21
-599.7237019760802
 31
0.0000000000563712
  0
ARC
  5
1ACAA
330
18
100
AcDbEntity
  8
01
  6
BYBLOCK
100
AcDbCircle
 10
2103.689098090813
 20
-597.9266457012324
 30
0.0000000000563712
 40
1.2
100
AcDbArc
 50
180.0
 51
225.0000000000384
  0
ARC
  5
1ACAB
330
18
100
AcDbEntity
  8
01
  6
BYBLOCK
100
AcDbCircle
 10
2103.789098090814
 20
-599.820758250928
 30
0.0000000000563712
 40
1.2
100
AcDbArc
 50
0.0
 51
45.00000000003838
  0
LINE
  5
1ACAC
330
18
100
AcDbEntity
  8
01
  6
BYBLOCK
100
AcDbLine
 10
2103.789098090814
 20
-682.4237019760805
 30
0.0000000000563712
 11
2081.98909809081
 21
-682.4237019760802
 31
0.0000000000563712
  0
LINE
  5
1ACAD
330
18
100
AcDbEntity
  8
01
  6
BYBLOCK
100
AcDbLine
 10
2117.489098090814
 20
-635.3920317090641
 30
0.0000000000563712
 11
2117.489098090814
 21
-653.45537224307
 31
0.0000000000563712
  0
LINE
  5
1ACAE
330
18
100
AcDbEntity
  8
01
  6
BYBLOCK
100
AcDbLine
 10
2113.196204872
 20
-634.423701976067
 30
0.0000000000563712
 11
2106.489098090814
 21
-634.423701976067
 31
0.0000000000563712
  0
LINE
  5
1ACAF
330
18
100
AcDbEntity
  8
01
  6
BYBLOCK
100
AcDbLine
 10
2113.196204872
 20
-654.423701976067
 30
0.0000000000563712
 11
2106.489098090814
 21
-654.423701976067
 31
0.0000000000563712
  0
LINE
  5
1ACB0
330
18
100
AcDbEntity
  8
01
100
AcDbLine
 10
2111.489098090526
 20
-702.4237019757915
 30
0.0000000000563712
 11
2097.489098090526
 21
-702.4237019757915
 31
0.0000000000563712
  0
LINE
  5
1ACB1
330
18
100
AcDbEntity
  8
01
100
AcDbLine
 10
2085.489098090814
 20
-666.4237019760802
 30
0.0000000000563712
 11
2025.489098090814
 21
-666.4237019760802
 31
0.0000000000563712
  0
LINE
  5
1ACB2
330
18
100
AcDbEntity
  8
01
100
AcDbLine
 10
2055.489098090814
 20
-636.4237019760802
 30
0.0000000000563712
 11
2055.489098090814
 21
-696.4237019760802
 31
0.0000000000563712
  0
LINE
  5
1ACB3
330
18
100
AcDbEntity
  8
01
  6
BYBLOCK
100
AcDbLine
 10
2103.789098090814
 20
-608.4237019760802
 30
0.0000000000563712
 11
2075.489098090812
 21
-608.4237019760802
 31
0.0000000000563712
  0
LINE
  5
1ACB4
330
18
100
AcDbEntity
  8
01
  6
BYBLOCK
100
AcDbLine
 10
2037.489098090811
 20
-630.923701771953
 30
0.0000000000563712
 11
2037.489098090811
 21
-639.923701976082
 31
0.0000000000563712
  0
LINE
  5
1ACB5
330
18
100
AcDbEntity
  8
01
100
AcDbLine
 10
2243.360580028894
 20
-666.4237019760802
 30
0.0000000000563712
 11
2265.988865411324
 21
-666.4237019760802
 31
0.0000000000563712
  0
LINE
  5
1ACB6
330
18
100
AcDbEntity
  8
01
  6
BYBLOCK
100
AcDbLine
 10
2344.489633253641
 20
-416.425020289183
 30
0.0000000001127424
 11
2498.244013408672
 21
-416.425020289183
 31
0.0000000001127424
  0
LINE
  5
1ACB7
330
18
100
AcDbEntity
  8
1CENTER
100
AcDbLine
 10
2374.589039127748
 20
-430.92501225593
 30
0.0000000001127424
 11
2382.722711489596
 21
-430.9250202891802
 31
0.0000000001127424
  0
LINE
  5
1ACB8
330
18
100
AcDbEntity
  8
01
100
AcDbLine
 10
2395.488865411324
 20
-411.425020289183
 30
0.0000000001127424
 11
2395.488865411324
 21
-437.925020289183
 31
0.0000000001127424
  0
LINE
  5
1ACB9
330
18
100
AcDbEntity
  8
01
100
AcDbLine
 10
2245.488865411324
 20
-546.4237019760802
 30
0.0000000000563712
 11
2245.488865411324
 21
-736.4237019760802
 31
0.0000000000563712
  0
LINE
  5
1ACBA
330
18
100
AcDbEntity
  8
01
100
AcDbLine
 10
2365.488865411324
 20
-666.4237019760802
 30
0.0000000000563712
 11
2425.488865411324
 21
-666.4237019760802
 31
0.0000000000563712
  0
LINE
  5
1ACBB
330
18
100
AcDbEntity
  8
01
100
AcDbLine
 10
2395.488865411324
 20
-636.4237019760802
 30
0.0000000000563712
 11
2395.488865411324
 21
-696.4237019760802
 31
0.0000000000563712
  0
LINE
  5
1ACBD
330
18
100
AcDbEntity
  8
01
100
AcDbLine
 10
2421.488865411324
 20
-639.923701976082
 30
0.0000000000563712
 11
2369.488865411328
 21
-639.923701976082
 31
0.0000000000563712
  0
LINE
  5
1ACBE
330
18
100
AcDbEntity
  8
01
100
AcDbLine
 10
2369.488865411328
 20
-692.923701976082
 30
0.0000000000563712
 11
2421.488865411324
 21
-692.923701976082
 31
0.0000000000563712
  0
LINE
  5
1ACBF
330
18
100
AcDbEntity
  8
01
100
AcDbLine
 10
2368.988865411328
 20
-640.423701976082
 30
0.0000000000563712
 11
2368.988865411328
 21
-692.423701976082
 31
0.0000000000563712
  0
ARC
  5
1ACC0
330
18
100
AcDbEntity
  8
01
100
AcDbCircle
 10
2369.488865411328
 20
-692.423701976082
 30
0.0000000000563712
 40
0.5
100
AcDbArc
 50
180.0
 51
270.0
  0
ARC
  5
1ACC1
330
18
100
AcDbEntity
  8
01
100
AcDbCircle
 10
2369.488865411328
 20
-640.423701976082
 30
0.0000000000563712
 40
0.5
100
AcDbArc
 50
90.0
 51
180.0
  0
LINE
  5
1ACC2
330
18
100
AcDbEntity
  8
01
100
AcDbLine
 10
2421.988865411324
 20
-640.423701976082
 30
0.0000000000563712
 11
2421.988865411324
 21
-657.0617509039779
 31
0.0000000000563712
  0
ARC
  5
1ACC3
330
18
100
AcDbEntity
  8
01
100
AcDbCircle
 10
2421.488865411324
 20
-692.423701976082
 30
0.0000000000563712
 40
0.5
100
AcDbArc
 50
270.0
 51
0.0
  0
ARC
  5
1ACC4
330
18
100
AcDbEntity
  8
01
100
AcDbCircle
 10
2421.488865411324
 20
-640.423701976082
 30
0.0000000000563712
 40
0.5
100
AcDbArc
 50
0.0
 51
90.0
  0
LINE
  5
1ACC5
330
18
100
AcDbEntity
  8
01
100
AcDbLine
 10
2368.988865411328
 20
-416.425020289183
 30
0.0000000001127424
 11
2421.988865411324
 21
-416.425020289183
 31
0.0000000001127424
  0
LINE
  5
1ACC6
330
18
100
AcDbEntity
  8
01
100
AcDbLine
 10
2369.488865411328
 20
-424.925020289183
 30
0.0000000001127424
 11
2421.488865411324
 21
-424.925020289183
 31
0.0000000001127424
  0
LINE
  5
1ACC7
330
18
100
AcDbEntity
  8
01
100
AcDbLine
 10
2421.988865411324
 20
-416.425020289183
 30
0.0000000001127424
 11
2421.988865411324
 21
-424.425020289183
 31
0.0000000001127424
  0
LINE
  5
1ACC8
330
18
100
AcDbEntity
  8
01
100
AcDbLine
 10
2368.988865411328
 20
-416.425020289183
 30
0.0000000001127424
 11
2368.988865411328
 21
-424.425020289183
 31
0.0000000001127424
  0
ARC
  5
1ACC9
330
18
100
AcDbEntity
  8
01
100
AcDbCircle
 10
2369.488865411328
 20
-424.425020289183
 30
0.0000000001127424
 40
0.5
100
AcDbArc
 50
180.0
 51
270.0
  0
ARC
  5
1ACCA
330
18
100
AcDbEntity
  8
01
100
AcDbCircle
 10
2421.488865411324
 20
-424.425020289183
 30
0.0000000001127424
 40
0.5
100
AcDbArc
 50
270.0
 51
0.0
  0
LINE
  5
1ACCB
330
18
100
AcDbEntity
  8
01
100
AcDbLine
 10
2245.488865411324
 20
-692.9237019760793
 30
0.0000000000563712
 11
2245.488865411324
 21
-639.923701976082
 31
0.0000000000563712
  0
LINE
  5
1ACCC
330
18
100
AcDbEntity
  8
01
100
AcDbLine
 10
2253.988865411324
 20
-692.4237019760793
 30
0.0000000000563712
 11
2253.988865411324
 21
-640.423701976082
 31
0.0000000000563712
  0
LINE
  5
1ACCD
330
18
100
AcDbEntity
  8
01
100
AcDbLine
 10
2245.488865411324
 20
-639.923701976082
 30
0.0000000000563712
 11
2253.488865411324
 21
-639.923701976082
 31
0.0000000000563712
  0
LINE
  5
1ACCE
330
18
100
AcDbEntity
  8
01
100
AcDbLine
 10
2245.488865411324
 20
-692.9237019760793
 30
0.0000000000563712
 11
2253.488865411324
 21
-692.9237019760793
 31
0.0000000000563712
  0
ARC
  5
1ACCF
330
18
100
AcDbEntity
  8
01
100
AcDbCircle
 10
2253.488865411324
 20
-692.4237019760793
 30
0.0000000000563712
 40
0.5
100
AcDbArc
 50
270.0
 51
0.0
  0
ARC
  5
1ACD0
330
18
100
AcDbEntity
  8
01
100
AcDbCircle
 10
2253.488865411324
 20
-640.423701976082
 30
0.0000000000563712
 40
0.5
100
AcDbArc
 50
0.0
 51
90.0
  0
ARC
  5
1ACD2
330
18
100
AcDbEntity
  8
01
100
AcDbCircle
 10
2514.988865411323
 20
-674.1737019760802
 30
0.0000000000563712
 40
0.5
100
AcDbArc
 50
270.0
 51
0.0000000000260551
  0
LINE
  5
1ACD3
330
18
100
AcDbEntity
  8
01
100
AcDbLine
 10
2377.988865411323
 20
-655.9237019760807
 30
0.0000000000563712
 11
2410.988865411324
 21
-655.9237019760798
 31
0.0000000000563712
  0
LINE
  5
1ACD4
330
18
100
AcDbEntity
  8
01
100
AcDbLine
 10
2377.488865411323
 20
-656.4237019760807
 30
0.0000000000563712
 11
2377.488865411323
 21
-661.3737019760787
 31
0.0000000000563712
  0
ARC
  5
1ACD5
330
18
100
AcDbEntity
  8
01
100
AcDbCircle
 10
2377.988865411323
 20
-656.4237019760807
 30
0.0000000000563712
 40
0.5
100
AcDbArc
 50
90.0
 51
180.0
  0
ARC
  5
1ACD6
330
18
100
AcDbEntity
  8
01
100
AcDbCircle
 10
2378.488865411325
 20
-658.67370197608
 30
0.0000000000563712
 40
0.5
100
AcDbArc
 50
90.0
 51
180.0
  0
LINE
  5
1ACD7
330
18
100
AcDbEntity
  8
01
100
AcDbLine
 10
2377.488865411326
 20
-671.473701976084
 30
0.0000000000563712
 11
2377.488865411326
 21
-676.4237019760798
 31
0.0000000000563712
  0
ARC
  5
1ACD8
330
18
100
AcDbEntity
  8
01
100
AcDbCircle
 10
2377.788865411326
 20
-671.473701976084
 30
0.0000000000563712
 40
0.3
100
AcDbArc
 50
90.0
 51
179.9999999999566
  0
LINE
  5
1ACD9
330
18
100
AcDbEntity
  8
01
100
AcDbLine
 10
2377.788865411324
 20
-661.6737019760786
 30
0.0000000000563712
 11
2515.488865411322
 21
-661.6737019760802
 31
0.0000000000563712
  0
ARC
  5
1ACDA
330
18
100
AcDbEntity
  8
01
100
AcDbCircle
 10
2515.188865411322
 20
-661.3737019760803
 30
0.0000000000563712
 40
0.3
100
AcDbArc
 50
270.0
 51
0.0
  0
ARC
  5
1ACDB
330
18
100
AcDbEntity
  8
01
100
AcDbCircle
 10
2377.788865411324
 20
-661.3737019760787
 30
0.0000000000563712
 40
0.3
100
AcDbArc
 50
179.9999999999566
 51
270.0
  0
LINE
  5
1ACDC
330
18
100
AcDbEntity
  8
01
100
AcDbLine
 10
2377.788865411326
 20
-671.1737019760841
 30
0.0000000000563712
 11
2515.488865411322
 21
-671.1737019760805
 31
0.0000000000563712
  0
LINE
  5
1ACDD
330
18
100
AcDbEntity
  8
01
100
AcDbLine
 10
2515.488865411322
 20
-658.6737019760802
 30
0.0000000000563712
 11
2515.488865411322
 21
-661.3737019760803
 31
0.0000000000563712
  0
ARC
  5
1ACDE
330
18
100
AcDbEntity
  8
01
100
AcDbCircle
 10
2514.988865411323
 20
-658.6737019760802
 30
0.0000000000563712
 40
0.5
100
AcDbArc
 50
0.0000000000260551
 51
90.0
  0
LINE
  5
1ACDF
330
18
100
AcDbEntity
  8
01
100
AcDbLine
 10
2514.988865411323
 20
-658.1737019760802
 30
0.0000000000563712
 11
2378.488865411325
 21
-658.1737019760802
 31
0.0000000000563712
  0
LINE
  5
1ACE0
330
18
100
AcDbEntity
  8
01
100
AcDbLine
 10
2378.488865411325
 20
-674.6737019760802
 30
0.0000000000563712
 11
2514.988865411323
 21
-674.6737019760802
 31
0.0000000000563712
  0
LINE
  5
1ACE1
330
18
100
AcDbEntity
  8
01
100
AcDbLine
 10
2379.488833102226
 20
-661.9237019760798
 30
0.0000000000563712
 11
2513.78886541132
 21
-661.9237019760798
 31
0.0000000000563712
  0
LINE
  5
1ACE2
330
18
100
AcDbEntity
  8
01
100
AcDbLine
 10
2379.488833102225
 20
-670.9237019760791
 30
0.0000000000563712
 11
2513.78886541132
 21
-670.9237019760802
 31
0.0000000000563712
  0
ARC
  5
1ACE3
330
18
100
AcDbEntity
  8
01
100
AcDbCircle
 10
2480.688833102141
 20
-666.4237019760802
 30
0.0000000000563712
 40
101.299999999919
100
AcDbArc
 50
177.4539399598852
 51
182.5460600401148
  0
ARC
  5
1ACE4
330
18
100
AcDbEntity
  8
01
100
AcDbCircle
 10
2412.588865411406
 20
-666.4237019760802
 30
0.0000000000563712
 40
101.299999999919
100
AcDbArc
 50
357.4539399598851
 51
2.546060040114818
  0
LINE
  5
1ACE5
330
18
100
AcDbEntity
  8
01
100
AcDbLine
 10
2377.988865411326
 20
-658.67370197608
 30
0.0000000000563712
 11
2377.988865411326
 21
-661.3737019760787
 31
0.0000000000563712
  0
ARC
  5
1ACE6
330
18
100
AcDbEntity
  8
01
100
AcDbCircle
 10
2378.488865411325
 20
-674.1737019760802
 30
0.0000000000563712
 40
0.5
100
AcDbArc
 50
179.9999999999739
 51
270.0
  0
LINE
  5
1ACE7
330
18
100
AcDbEntity
  8
01
100
AcDbLine
 10
2377.988865411326
 20
-674.1737019760802
 30
0.0000000000563712
 11
2377.988865411326
 21
-671.4737019760831
 31
0.0000000000563712
  0
ARC
  5
1ACE8
330
18
100
AcDbEntity
  8
01
100
AcDbCircle
 10
2378.288865411326
 20
-661.3737019760787
 30
0.0000000000563712
 40
0.3
100
AcDbArc
 50
179.9999999999566
 51
270.0
  0
ARC
  5
1ACE9
330
18
100
AcDbEntity
  8
01
100
AcDbCircle
 10
2378.288865411326
 20
-671.4737019760831
 30
0.0000000000563712
 40
0.3
100
AcDbArc
 50
90.0
 51
180.0
  0
LINE
  5
1ACEA
330
18
100
AcDbEntity
  8
01
100
AcDbLine
 10
2378.135312020732
 20
-658.3201485854869
 30
0.0000000000563712
 11
2377.63531202073
 21
-656.0701485854873
 31
0.0000000000563712
  0
LINE
  5
1ACEB
330
18
100
AcDbEntity
  8
01
100
AcDbLine
 10
2377.988865411323
 20
-676.9237019760798
 30
0.0000000000563712
 11
2410.988865411324
 21
-676.9237019760805
 31
0.0000000000563712
  0
ARC
  5
1ACEC
330
18
100
AcDbEntity
  8
01
100
AcDbCircle
 10
2377.988865411323
 20
-676.4237019760798
 30
0.0000000000563712
 40
0.5
100
AcDbArc
 50
180.0
 51
270.0
  0
LINE
  5
1ACED
330
18
100
AcDbEntity
  8
01
100
AcDbLine
 10
2378.135312020732
 20
-674.5272553666736
 30
0.0000000000563712
 11
2377.63531202073
 21
-676.7772553666729
 31
0.0000000000563712
  0
ARC
  5
1ACEE
330
18
100
AcDbEntity
  8
01
100
AcDbCircle
 10
2515.488865411322
 20
-661.3737019760803
 30
0.0000000000563712
 40
0.3
100
AcDbArc
 50
270.0
 51
0.0
  0
LINE
  5
1ACEF
330
18
100
AcDbEntity
  8
01
100
AcDbLine
 10
2515.788865411323
 20
-657.5617509039781
 30
0.0000000000563712
 11
2515.788865411322
 21
-661.3737019760803
 31
0.0000000000563712
  0
LINE
  5
1ACF0
330
18
100
AcDbEntity
  8
01
100
AcDbLine
 10
2515.342418801917
 20
-658.3201485854871
 30
0.0000000000563712
 11
2515.642418801915
 21
-657.2081975133855
 31
0.0000000000563712
  0
ARC
  5
1ACF1
330
18
100
AcDbEntity
  8
01
100
AcDbCircle
 10
2515.188865411322
 20
-671.4737019760802
 30
0.0000000000563712
 40
0.3
100
AcDbArc
 50
0.0
 51
90.0
  0
LINE
  5
1ACF2
330
18
100
AcDbEntity
  8
01
100
AcDbLine
 10
2515.488865411322
 20
-674.17370197608
 30
0.0000000000563712
 11
2515.488865411322
 21
-671.4737019760802
 31
0.0000000000563712
  0
ARC
  5
1ACF3
330
18
100
AcDbEntity
  8
01
100
AcDbCircle
 10
2515.488865411322
 20
-671.4737019760802
 30
0.0000000000563712
 40
0.3
100
AcDbArc
 50
0.0
 51
90.0
  0
LINE
  5
1ACF4
330
18
100
AcDbEntity
  8
01
100
AcDbLine
 10
2515.788865411324
 20
-675.2856530481823
 30
0.0000000000563712
 11
2515.788865411322
 21
-671.4737019760802
 31
0.0000000000563712
  0
LINE
  5
1ACF5
330
18
100
AcDbEntity
  8
01
100
AcDbLine
 10
2416.756199754709
 20
-657.0617509039779
 30
0.0000000000563712
 11
2515.288865411323
 21
-657.0617509039779
 31
0.0000000000563712
  0
ELLIPSE
  5
1ACF6
330
18
100
AcDbEntity
  8
01
100
AcDbEllipse
 10
2416.756199754709
 20
-656.9696626204599
 30
0.0000000000563712
 11
3.467334343385119
 21
0.0
 31
0.0
210
0.0
220
0.0
230
1.0
 40
0.0265588127356991
 41
3.141592653589793
 42
4.71238898038469
  0
ARC
  5
1ACF7
330
18
100
AcDbEntity
  8
01
100
AcDbCircle
 10
2515.288865411322
 20
-657.5617509039786
 30
0.0000000000563712
 40
0.5
100
AcDbArc
 50
0.0000000000521102
 51
89.99999999989578
  0
LINE
  5
1ACF8
330
18
100
AcDbEntity
  8
01
100
AcDbLine
 10
2377.576733376968
 20
-661.5858340104347
 30
0.0000000000563712
 11
2378.07673337697
 21
-661.5858340104347
 31
0.0000000000563712
  0
LINE
  5
1ACF9
330
18
100
AcDbEntity
  8
01
100
AcDbLine
 10
2515.400997445678
 20
-661.5858340104361
 30
0.0000000000563712
 11
2515.700997445677
 21
-661.5858340104361
 31
0.0000000000563712
  0
LINE
  5
1ACFA
330
18
100
AcDbEntity
  8
01
100
AcDbLine
 10
2514.988865411323
 20
-674.6737019760802
 30
0.0000000000563712
 11
2378.488865411325
 21
-674.6737019760802
 31
0.0000000000563712
  0
LINE
  5
1ACFB
330
18
100
AcDbEntity
  8
01
100
AcDbLine
 10
2515.342418801917
 20
-674.5272553666733
 30
0.0000000000563712
 11
2515.642418801917
 21
-675.6392064387757
 31
0.0000000000563712
  0
LINE
  5
1ACFC
330
18
100
AcDbEntity
  8
01
100
AcDbLine
 10
2416.756199754709
 20
-675.7856530481826
 30
0.0000000000563712
 11
2515.288865411324
 21
-675.7856530481826
 31
0.0000000000563712
  0
ARC
  5
1ACFD
330
18
100
AcDbEntity
  8
01
100
AcDbCircle
 10
2515.288865411324
 20
-675.2856530481826
 30
0.0000000000563712
 40
0.5
100
AcDbArc
 50
270.0
 51
0.0000000000260551
  0
ELLIPSE
  5
1ACFE
330
18
100
AcDbEntity
  8
01
100
AcDbEllipse
 10
2416.756199754709
 20
-675.8777413317006
 30
0.0000000000563712
 11
3.467334343385119
 21
0.0
 31
0.0
210
0.0
220
0.0
230
-1.0
 40
0.0265588127356991
 41
3.141592653589793
 42
4.71238898038469
  0
ARC
  5
1ACFF
330
18
100
AcDbEntity
  8
01
100
AcDbCircle
 10
2410.988865411325
 20
-674.9237019760802
 30
0.0000000000563712
 40
2.0
100
AcDbArc
 50
270.0
 51
300.9087840785273
  0
LINE
  5
1AD00
330
18
100
AcDbEntity
  8
01
100
AcDbLine
 10
2413.288865411281
 20
-656.9696626205488
 30
0.0000000000563712
 11
2412.016211005282
 21
-656.2077296480458
 31
0.0000000000563712
  0
ARC
  5
1AD01
330
18
100
AcDbEntity
  8
01
100
AcDbCircle
 10
2410.988865411325
 20
-657.9237019760802
 30
0.0000000000563712
 40
2.0
100
AcDbArc
 50
59.09121591564146
 51
90.0
  0
LINE
  5
1AD02
330
18
100
AcDbEntity
  8
01
100
AcDbLine
 10
2413.288865411281
 20
-675.8777413317895
 30
0.0000000000563712
 11
2412.016211005105
 21
-676.6396743042202
 31
0.0000000000563712
  0
POINT
  5
1AD03
330
18
100
AcDbEntity
  8
1HIDDEN
 48
0.2
100
AcDbPoint
 10
2259.988865411322
 20
-666.4237019760802
 30
0.0000000000563712
  0
LINE
  5
1AD04
330
18
100
AcDbEntity
  8
1HIDDEN
 48
0.2
100
AcDbLine
 10
2259.588865401323
 20
-668.1737019760802
 30
0.0000000000563712
 11
2259.588865401323
 21
-667.3237019560801
 31
0.0000000000563712
  0
LINE
  5
1AD05
330
18
100
AcDbEntity
  8
1HIDDEN
 48
0.2
100
AcDbLine
 10
2260.388865421322
 20
-668.1737019760802
 30
0.0000000000563712
 11
2260.388865421322
 21
-667.3237019560801
 31
0.0000000000563712
  0
LINE
  5
1AD06
330
18
100
AcDbEntity
  8
1HIDDEN
 48
0.2
100
AcDbLine
 10
2259.088865431323
 20
-666.8237019860802
 30
0.0000000000563712
 11
2258.238865411322
 21
-666.8237019860802
 31
0.0000000000563712
  0
LINE
  5
1AD07
330
18
100
AcDbEntity
  8
1HIDDEN
 48
0.2
100
AcDbLine
 10
2259.088865431323
 20
-666.0237019660802
 30
0.0000000000563712
 11
2258.238865411322
 21
-666.0237019660802
 31
0.0000000000563712
  0
LINE
  5
1AD08
330
18
100
AcDbEntity
  8
1HIDDEN
 48
0.2
100
AcDbLine
 10
2258.238865411322
 20
-666.8237019860802
 30
0.0000000000563712
 11
2258.238865411322
 21
-666.0237019660802
 31
0.0000000000563712
  0
LINE
  5
1AD09
330
18
100
AcDbEntity
  8
1HIDDEN
 48
0.2
100
AcDbLine
 10
2260.388865421322
 20
-668.1737019760802
 30
0.0000000000563712
 11
2259.588865401323
 21
-668.1737019760802
 31
0.0000000000563712
  0
LINE
  5
1AD0A
330
18
100
AcDbEntity
  8
1HIDDEN
 48
0.2
100
AcDbLine
 10
2260.388865421322
 20
-664.6737019760802
 30
0.0000000000563712
 11
2260.388865421322
 21
-665.5237019960804
 31
0.0000000000563712
  0
LINE
  5
1AD0B
330
18
100
AcDbEntity
  8
1HIDDEN
 48
0.2
100
AcDbLine
 10
2259.588865401323
 20
-664.6737019760802
 30
0.0000000000563712
 11
2259.588865401323
 21
-665.5237019960804
 31
0.0000000000563712
  0
LINE
  5
1AD0C
330
18
100
AcDbEntity
  8
1HIDDEN
 48
0.2
100
AcDbLine
 10
2260.888865391322
 20
-666.0237019660802
 30
0.0000000000563712
 11
2261.738865411322
 21
-666.0237019660802
 31
0.0000000000563712
  0
LINE
  5
1AD0D
330
18
100
AcDbEntity
  8
1HIDDEN
 48
0.2
100
AcDbLine
 10
2260.888865391322
 20
-666.8237019860802
 30
0.0000000000563712
 11
2261.738865411322
 21
-666.8237019860802
 31
0.0000000000563712
  0
LINE
  5
1AD0E
330
18
100
AcDbEntity
  8
1HIDDEN
 48
0.2
100
AcDbLine
 10
2261.738865411322
 20
-666.0237019660802
 30
0.0000000000563712
 11
2261.738865411322
 21
-666.8237019860802
 31
0.0000000000563712
  0
LINE
  5
1AD0F
330
18
100
AcDbEntity
  8
1HIDDEN
 48
0.2
100
AcDbLine
 10
2259.588865401323
 20
-664.6737019760802
 30
0.0000000000563712
 11
2260.388865421322
 21
-664.6737019760802
 31
0.0000000000563712
  0
CIRCLE
  5
1AD10
330
18
100
AcDbEntity
  8
1HIDDEN
 48
0.3
100
AcDbCircle
 10
2259.988865411322
 20
-666.4237019760802
 30
0.0000000000563712
 40
2.5
  0
ARC
  5
1AD11
330
18
100
AcDbEntity
  8
1HIDDEN
 48
0.2
100
AcDbCircle
 10
2260.888865391322
 20
-665.5237019960804
 30
0.0000000000563712
 40
0.5
100
AcDbArc
 50
179.999989999999
 51
270.0
  0
ARC
  5
1AD12
330
18
100
AcDbEntity
  8
1HIDDEN
 48
0.2
100
AcDbCircle
 10
2260.888865391322
 20
-667.3237019560801
 30
0.0000000000563712
 40
0.5
100
AcDbArc
 50
90.00000299998466
 51
180.000010000001
  0
ARC
  5
1AD13
330
18
100
AcDbEntity
  8
1HIDDEN
 48
0.2
100
AcDbCircle
 10
2259.088865431323
 20
-667.3237019560801
 30
0.0000000000563712
 40
0.5
100
AcDbArc
 50
0.0
 51
90.00000299998466
  0
ARC
  5
1AD14
330
18
100
AcDbEntity
  8
1HIDDEN
 48
0.2
100
AcDbCircle
 10
2259.088865431323
 20
-665.5237019960804
 30
0.0000000000563712
 40
0.5
100
AcDbArc
 50
270.0
 51
0.0
  0
LINE
  5
1AD15
330
18
100
AcDbEntity
  8
1CENTER
100
AcDbLine
 10
2259.988865411322
 20
-672.4237019760802
 30
0.0000000000563712
 11
2259.988865411322
 21
-660.4237019760802
 31
0.0000000000563712
  0
LINE
  5
1AD19
330
18
100
AcDbEntity
  8
01
100
AcDbLine
 10
2309.988812156466
 20
-661.3737019760782
 30
0.0000000000563712
 11
2309.988812156465
 21
-658.6450970632194
 31
0.0000000000563712
  0
LINE
  5
1AD1A
330
18
100
AcDbEntity
  8
01
100
AcDbLine
 10
2377.488865411322
 20
-425.4250202891825
 30
0.0000000000563712
 11
2412.988865411324
 21
-425.4250202891834
 31
0.0000000000563712
  0
LINE
  5
1AD1B
330
18
100
AcDbEntity
  8
01
100
AcDbLine
 10
2515.302602148935
 20
-457.4252465250778
 30
0.0000000000563712
 11
2416.756199754709
 21
-457.4250480690133
 31
0.0000000000563712
  0
ARC
  5
1AD1C
330
18
100
AcDbEntity
  8
01
100
AcDbCircle
 10
2416.756206803126
 20
-453.9250480690206
 30
0.0000000000563712
 40
3.5
100
AcDbArc
 50
180.5371318479374
 51
269.9998846158059
  0
LINE
  5
1AD1D
330
18
100
AcDbEntity
  8
01
100
AcDbLine
 10
2412.988865411324
 20
-425.4250202891834
 30
0.0000000000563712
 11
2413.256360601381
 21
-453.9578591058374
 31
0.0000000000563712
  0
LINE
  5
1AD1E
330
18
100
AcDbEntity
  8
01
100
AcDbLine
 10
2377.975473651575
 20
-479.438483128485
 30
0.0000000000563712
 11
2377.488865411322
 21
-425.4250202891825
 31
0.0000000000563712
  0
LINE
  5
1AD1F
330
18
100
AcDbEntity
  8
01
100
AcDbLine
 10
2379.475409639235
 20
-480.924970150363
 30
0.0000000000563712
 11
2514.009186776029
 21
-480.9252521551581
 31
0.0000000000563712
  0
ARC
  5
1AD20
330
18
100
AcDbEntity
  8
01
100
AcDbCircle
 10
2514.008305806424
 20
-479.4252521533082
 30
0.0000000000563712
 40
1.5
100
AcDbArc
 50
269.9998798986857
 51
359.252600444409
  0
ARC
  5
1AD21
330
18
100
AcDbEntity
  8
01
100
AcDbCircle
 10
2379.47541278348
 20
-479.4249701503664
 30
0.0000000000563712
 40
1.5
100
AcDbArc
 50
180.5161647250196
 51
269.9998798986857
  0
LINE
  5
1AD22
330
18
100
AcDbEntity
  8
01
100
AcDbLine
 10
2308.388820180898
 20
-670.9237019760811
 30
0.0000000000563712
 11
2254.988865411325
 21
-670.9237019760802
 31
0.0000000000563712
  0
LINE
  5
1AD23
330
18
100
AcDbEntity
  8
01
100
AcDbLine
 10
2255.488865411324
 20
-669.7237019760802
 30
0.0000000000563712
 11
2254.988865411323
 21
-669.7237019760802
 31
0.0000000000563712
  0
LINE
  5
1AD24
330
18
100
AcDbEntity
  8
01
100
AcDbLine
 10
2308.388820180898
 20
-661.9237019760775
 30
0.0000000000563712
 11
2254.988865411323
 21
-661.9237019760793
 31
0.0000000000563712
  0
LINE
  5
1AD25
330
18
100
AcDbEntity
  8
01
100
AcDbLine
 10
2255.488865411324
 20
-663.1237019760794
 30
0.0000000000563712
 11
2254.988865411324
 21
-663.1237019760794
 31
0.0000000000563712
  0
ARC
  5
1AD26
330
18
100
AcDbEntity
  8
01
100
AcDbCircle
 10
2207.188820180984
 20
-666.4237019760805
 30
0.0000000000563712
 40
101.299999999919
100
AcDbArc
 50
357.4539399598851
 51
2.546060040114818
  0
ARC
  5
1AD27
330
18
100
AcDbEntity
  8
01
100
AcDbCircle
 10
2515.288865411323
 20
-457.9252465250769
 30
0.0000000000563712
 40
0.5
100
AcDbArc
 50
359.2526004444001
 51
89.99988461580593
  0
LINE
  5
1AD28
330
18
100
AcDbEntity
  8
01
100
AcDbLine
 10
2254.488865411326
 20
-655.9237019760802
 30
0.0000000000563712
 11
2254.488865411322
 21
-676.9237019760802
 31
0.0000000000563712
  0
LINE
  5
1AD29
330
18
100
AcDbEntity
  8
01
100
AcDbLine
 10
2309.688812156464
 20
-661.6737019760802
 30
0.0000000000563712
 11
2254.488865411323
 21
-661.6737019760802
 31
0.0000000000563712
  0
LINE
  5
1AD2A
330
18
100
AcDbEntity
  8
01
100
AcDbLine
 10
2309.688812156464
 20
-671.1737019760802
 30
0.0000000000563712
 11
2254.488865411322
 21
-671.1737019760802
 31
0.0000000000563712
  0
ARC
  5
1AD2B
330
18
100
AcDbEntity
  8
01
100
AcDbCircle
 10
2309.688812156464
 20
-661.3737019760785
 30
0.0000000000563712
 40
0.3
100
AcDbArc
 50
269.988580210273
 51
0.0000000002171259
  0
LINE
  5
1AD2C
330
18
100
AcDbEntity
  8
01
100
AcDbLine
 10
2309.988812156465
 20
-671.4737019760804
 30
0.0000000000563712
 11
2309.988812156467
 21
-674.2023068889401
 31
0.0000000000563712
  0
ARC
  5
1AD2D
330
18
100
AcDbEntity
  8
01
100
AcDbCircle
 10
2309.688812156464
 20
-671.4737019760806
 30
0.0000000000563712
 40
0.3
100
AcDbArc
 50
359.9885810817294
 51
90.01142121181459
  0
ARC
  5
1AD2E
330
18
100
AcDbEntity
  8
01
100
AcDbCircle
 10
2309.488812156467
 20
-674.2023068889404
 30
0.0000000000563712
 40
0.5
100
AcDbArc
 50
273.3644260659559
 51
0.0000000000260551
  0
ARC
  5
1AD2F
330
18
100
AcDbEntity
  8
01
100
AcDbCircle
 10
2221.488296293216
 20
822.7132415665502
 30
0.0000000000563712
 40
1500.0
100
AcDbArc
 50
271.2606305963205
 51
273.364426065904
  0
ARC
  5
1AD30
330
18
100
AcDbEntity
  8
01
100
AcDbCircle
 10
2221.488296293216
 20
-2155.56064551871
 30
0.0000000000563712
 40
1500.0
100
AcDbArc
 50
86.635573934096
 51
88.73936940367943
  0
ARC
  5
1AD31
330
18
100
AcDbEntity
  8
01
100
AcDbCircle
 10
2309.488812156467
 20
-658.6450970632196
 30
0.0000000000563712
 40
0.5
100
AcDbArc
 50
0.0000000000260551
 51
86.63557393404416
  0
LINE
  5
1AD32
330
18
100
AcDbEntity
  8
01
100
AcDbLine
 10
2515.508178187375
 20
-479.4448184730021
 30
0.0000000000563712
 11
2515.78882287164
 21
-457.9317686316416
 31
0.0000000000563712
  0
LINE
  5
1AD33
330
18
100
AcDbEntity
  8
01
100
AcDbLine
 10
2255.488865411324
 20
-663.1237019760794
 30
0.0000000000563712
 11
2255.488865411324
 21
-669.7237019760802
 31
0.0000000000563712
  0
LINE
  5
1AD34
330
18
100
AcDbEntity
  8
01
100
AcDbLine
 10
2254.988865411323
 20
-661.9237019760793
 30
0.0000000000563712
 11
2254.988865411324
 21
-663.1237019760794
 31
0.0000000000563712
  0
LINE
  5
1AD35
330
18
100
AcDbEntity
  8
01
100
AcDbLine
 10
2254.988865411323
 20
-669.7237019760802
 30
0.0000000000563712
 11
2254.988865411325
 21
-670.9237019760802
 31
0.0000000000563712
  0
LINE
  5
1AD36
330
18
100
AcDbEntity
  8
01
100
AcDbLine
 10
2421.988865411324
 20
-675.7856530481826
 30
0.0000000000563712
 11
2421.988865411324
 21
-692.423701976082
 31
0.0000000000563712
  0
LINE
  5
1AD37
330
18
100
AcDbEntity
  8
1DIM
100
AcDbLine
 10
2514.009070436282
 20
-480.9252521551574
 30
0.0000000001127424
 11
2542.088749071577
 21
-480.9252521551574
 31
0.0000000001127424
  0
TEXT
  5
1AD38
330
18
100
AcDbEntity
  8
1DIM
100
AcDbText
 10
2539.878749071577
 20
-456.3168025172885
 30
0.0000000001127424
 40
4.55
  1
64.5
 50
90.0
100
AcDbText
  0
LINE
  5
1AD39
330
18
100
AcDbEntity
  8
1DIM
100
AcDbLine
 10
2498.244781182776
 20
-416.3250195479408
 30
0.0000000001127424
 11
2542.089633185427
 21
-416.3250195479408
 31
0.0000000001127424
  0
LINE
  5
1AD3A
330
18
100
AcDbEntity
  8
1DIM
100
AcDbLine
 10
2540.789633185427
 20
-418.9250195479407
 30
0.0000000001127424
 11
2540.789633185427
 21
-478.3252521570106
 31
0.0000000001127424
  0
TEXT
  5
1AD3D
330
18
100
AcDbEntity
  8
1DIM
100
AcDbText
 10
2539.879633185427
 20
-456.3168025191416
 30
0.0000000001127424
 40
4.55
  1
64.5
 50
90.0
100
AcDbText
  0
TEXT
  5
1AD3E
330
18
100
AcDbEntity
  8
1TEXT
100
AcDbText
 10
2040.489110090814
 20
-381.4237019760802
 30
0.0
 40
20.0
  1
3-RVT-X-LJ-2
100
AcDbText
  0
LINE
  5
1AD3F
330
18
100
AcDbEntity
  8
1DIM
100
AcDbLine
 10
2051.854007494434
 20
-422.5793636662496
 30
0.0000000000563712
 11
2209.354007494436
 21
-422.5793636662501
 31
0.0000000000563712
  0
TEXT
  5
1AD40
330
18
100
AcDbEntity
  8
1TEXT
100
AcDbText
 10
2053.254007494437
 20
-420.3293636662496
 30
0.0
 40
6.0
  1
表面処理：本体
 72
     1
 11
2077.954007494437
 21
-420.3293636662496
 31
0.0
100
AcDbText
  0
LINE
  5
1AD41
330
18
100
AcDbEntity
  8
1DIM
100
AcDbLine
 10
2051.854007494434
 20
-412.0793636662496
 30
0.0000000000563712
 11
2209.354007494436
 21
-412.0793636662496
 31
0.0000000000563712
  0
TEXT
  5
1AD42
330
18
100
AcDbEntity
  8
1TEXT
100
AcDbText
 10
2172.654007494436
 20
-420.3293636662496
 30
0.0
 40
6.0
  1
コード
 72
     1
 11
2182.954007494437
 21
-420.3293636662496
 31
0.0
100
AcDbText
  0
TEXT
  5
1AD43
330
18
100
AcDbEntity
  8
1TEXT
100
AcDbText
 10
2109.134007494436
 20
-420.3293636662496
 30
0.0
 40
6.0
  1
表面処理：カバー
 41
0.8000000000000002
 72
     1
 11
2131.454007494437
 21
-420.3293636662496
 31
0.0
100
AcDbText
  0
TEXT
  5
1AD44
330
18
100
AcDbEntity
  8
1TEXT
100
AcDbText
 10
2119.654007494437
 20
-441.6508991417235
 30
0.0
 40
6.0
  1
ブラック
 41
0.8000000000000002
 72
     1
 11
2130.454007494438
 21
-441.6508991417235
 31
0.0
100
AcDbText
  0
LINE
  5
1AD45
330
18
100
AcDbEntity
  8
1DIM
100
AcDbLine
 10
2104.354007494436
 20
-412.0793636662496
 30
0.0000000000563712
 11
2104.354007494435
 21
-485.5793636662496
 31
0.0000000000563712
  0
LINE
  5
1AD46
330
18
100
AcDbEntity
  8
1DIM
100
AcDbLine
 10
2156.854007494435
 20
-412.0793636662496
 30
0.0000000000563712
 11
2156.854007494441
 21
-485.5793636662501
 31
0.0000000000563712
  0
LINE
  5
1AD47
330
18
100
AcDbEntity
  8
1DIM
100
AcDbLine
 10
2209.354007494436
 20
-412.0793636662496
 30
0.0000000000563712
 11
2209.354007494435
 21
-485.5793636662505
 31
0.0000000000563712
  0
LINE
  5
1AD48
330
18
100
AcDbEntity
  8
1DIM
100
AcDbLine
 10
2051.854007494435
 20
-485.5793636662492
 30
0.0000000000563712
 11
2051.854007494435
 21
-412.0793636662496
 31
0.0000000000563712
  0
LINE
  5
1AD49
330
18
100
AcDbEntity
  8
1DIM
100
AcDbLine
 10
2104.354007494435
 20
-433.0793636662487
 30
0.0000000000563712
 11
2209.354007494436
 21
-433.0793636662501
 31
0.0000000000563712
  0
LINE
  5
1AD4A
330
18
100
AcDbEntity
  8
1DIM
100
AcDbLine
 10
2051.854007494435
 20
-454.0793636662487
 30
0.0000000000563712
 11
2209.354007494436
 21
-454.0793636662501
 31
0.0000000000563712
  0
TEXT
  5
1AD4B
330
18
100
AcDbEntity
  8
1TEXT
100
AcDbText
 10
2063.754007494437
 20
-441.0462061962265
 30
0.0
 40
6.0
  1
クローム
 72
     1
 11
2077.954007494437
 21
-441.0462061962265
 31
0.0
100
AcDbText
  0
TEXT
  5
1AD4C
330
18
100
AcDbEntity
  8
1TEXT
100
AcDbText
 10
2159.554007494437
 20
-441.6508991417244
 30
0.0
 40
6.0
  1
3-RVT-CK-LJ-2
 41
0.6
 72
     1
 11
2182.954007494438
 21
-441.6508991417244
 31
0.0
100
AcDbText
  0
TEXT
  5
1AD4D
330
18
100
AcDbEntity
  8
1TEXT
100
AcDbText
 10
2159.554007494437
 20
-431.1508991417244
 30
0.0
 40
6.0
  1
3-RVT-CS-LJ-2
 41
0.6
 72
     1
 11
2182.954007494438
 21
-431.1508991417244
 31
0.0
100
AcDbText
  0
TEXT
  5
1AD4E
330
18
100
AcDbEntity
  8
1TEXT
100
AcDbText
 10
2119.734007494435
 20
-430.545734083605
 30
0.0
 40
6.0
  1
ホワイト
 41
0.8000000000000002
 72
     1
 11
2130.454007494435
 21
-430.545734083605
 31
0.0
100
AcDbText
  0
LINE
  5
1AD4F
330
18
100
AcDbEntity
  8
1DIM
100
AcDbLine
 10
2104.354007494435
 20
-464.5793636662487
 30
0.0000000000563712
 11
2209.354007494435
 21
-464.5793636662501
 31
0.0000000000563712
  0
LINE
  5
1AD50
330
18
100
AcDbEntity
  8
1DIM
100
AcDbLine
 10
2051.854007494434
 20
-485.5793636662494
 30
0.0000000000563712
 11
2209.354007494435
 21
-485.5793636662505
 31
0.0000000000563712
  0
TEXT
  5
1AD51
330
18
100
AcDbEntity
  8
1TEXT
100
AcDbText
 10
2053.154007494436
 20
-472.5462061962265
 30
0.0
 40
6.0
  1
サテンニッケル
 72
     1
 11
2077.954007494436
 21
-472.5462061962265
 31
0.0
100
AcDbText
  0
TEXT
  5
1AD52
330
18
100
AcDbEntity
  8
1TEXT
100
AcDbText
 10
2159.554007494437
 20
-473.1508991417244
 30
0.0
 40
6.0
  1
3-RVT-NK-LJ-2
 41
0.6
 72
     1
 11
2182.954007494438
 21
-473.1508991417244
 31
0.0
100
AcDbText
  0
TEXT
  5
1AD53
330
18
100
AcDbEntity
  8
1TEXT
100
AcDbText
 10
2159.554007494437
 20
-462.6508991417244
 30
0.0
 40
6.0
  1
3-RVT-NS-LJ-2
 41
0.6
 72
     1
 11
2182.954007494438
 21
-462.6508991417244
 31
0.0
100
AcDbText
  0
TEXT
  5
1AD54
330
18
100
AcDbEntity
  8
1TEXT
100
AcDbText
 10
2110.774007494438
 20
-452.1508991417235
 30
0.0
 40
6.0
  1
ダークブラウン
 41
0.8000000000000002
 72
     1
 11
2130.454007494438
 21
-452.1508991417235
 31
0.0
100
AcDbText
  0
LINE
  5
1AD55
330
18
100
AcDbEntity
  8
1DIM
100
AcDbLine
 10
2104.354007494435
 20
-443.5793636662487
 30
0.0000000000563712
 11
2209.354007494436
 21
-443.5793636662501
 31
0.0000000000563712
  0
TEXT
  5
1AD56
330
18
100
AcDbEntity
  8
1TEXT
100
AcDbText
 10
2159.554007494437
 20
-452.1508991417244
 30
0.0
 40
6.0
  1
3-RVT-CZ-LJ-2
 41
0.6
 72
     1
 11
2182.954007494438
 21
-452.1508991417244
 31
0.0
100
AcDbText
  0
LINE
  5
1AD57
330
18
100
AcDbEntity
  8
1DIM
100
AcDbLine
 10
2104.354007494434
 20
-475.0793636662487
 30
0.0000000000563712
 11
2209.354007494435
 21
-475.0793636662501
 31
0.0000000000563712
  0
TEXT
  5
1AD58
330
18
100
AcDbEntity
  8
1TEXT
100
AcDbText
 10
2159.554007494437
 20
-483.6508991417242
 30
0.0
 40
6.0
  1
3-RVT-NZ-LJ-2
 41
0.6
 72
     1
 11
2182.954007494438
 21
-483.6508991417242
 31
0.0
100
AcDbText
  0
TEXT
  5
1AD59
330
18
100
AcDbEntity
  8
1TEXT
100
AcDbText
 10
2119.654007494437
 20
-473.1508991417239
 30
0.0
 40
6.0
  1
ブラック
 41
0.8000000000000002
 72
     1
 11
2130.454007494438
 21
-473.1508991417239
 31
0.0
100
AcDbText
  0
TEXT
  5
1AD5A
330
18
100
AcDbEntity
  8
1TEXT
100
AcDbText
 10
2119.734007494435
 20
-462.0457340836055
 30
0.0
 40
6.0
  1
ホワイト
 41
0.8000000000000002
 72
     1
 11
2130.454007494435
 21
-462.0457340836055
 31
0.0
100
AcDbText
  0
TEXT
  5
1AD5B
330
18
100
AcDbEntity
  8
1TEXT
100
AcDbText
 10
2110.774007494438
 20
-483.6508991417239
 30
0.0
 40
6.0
  1
ダークブラウン
 41
0.8000000000000002
 72
     1
 11
2130.454007494438
 21
-483.6508991417239
 31
0.0
100
AcDbText
  0
LINE
  5
1AD5E
330
18
100
AcDbEntity
  8
01
100
AcDbLine
 10
2029.489098090814
 20
-639.923701976082
 30
0.0000000000563712
 11
2081.48909809081
 21
-639.923701976082
 31
0.0000000000563712
  0
LINE
  5
1AD5F
330
18
100
AcDbEntity
  8
01
100
AcDbLine
 10
2081.48909809081
 20
-692.923701976082
 30
0.0000000000563712
 11
2029.489098090814
 21
-692.923701976082
 31
0.0000000000563712
  0
LINE
  5
1AD60
330
18
100
AcDbEntity
  8
01
100
AcDbLine
 10
2081.98909809081
 20
-640.423701976082
 30
0.0000000000563712
 11
2081.98909809081
 21
-692.423701976082
 31
0.0000000000563712
  0
ARC
  5
1AD61
330
18
100
AcDbEntity
  8
01
100
AcDbCircle
 10
2081.48909809081
 20
-692.423701976082
 30
0.0000000000563712
 40
0.5
100
AcDbArc
 50
270.0
 51
0.0
  0
ARC
  5
1AD62
330
18
100
AcDbEntity
  8
01
100
AcDbCircle
 10
2081.48909809081
 20
-640.423701976082
 30
0.0000000000563712
 40
0.5
100
AcDbArc
 50
0.0
 51
90.0
  0
LINE
  5
1AD63
330
18
100
AcDbEntity
  8
01
100
AcDbLine
 10
2028.989098090814
 20
-640.423701976082
 30
0.0000000000563712
 11
2028.989098090814
 21
-657.0617509039779
 31
0.0000000000563712
  0
ARC
  5
1AD64
330
18
100
AcDbEntity
  8
01
100
AcDbCircle
 10
2029.489098090814
 20
-692.423701976082
 30
0.0000000000563712
 40
0.5
100
AcDbArc
 50
180.0
 51
270.0
  0
ARC
  5
1AD65
330
18
100
AcDbEntity
  8
01
100
AcDbCircle
 10
2029.489098090814
 20
-640.423701976082
 30
0.0000000000563712
 40
0.5
100
AcDbArc
 50
90.0
 51
180.0
  0
ARC
  5
1AD66
330
18
100
AcDbEntity
  8
01
100
AcDbCircle
 10
1935.989098090814
 20
-674.1737019760802
 30
0.0000000000563712
 40
0.5
100
AcDbArc
 50
179.9999999999739
 51
270.0
  0
LINE
  5
1AD67
330
18
100
AcDbEntity
  8
01
100
AcDbLine
 10
2072.989098090814
 20
-655.9237019760807
 30
0.0000000000563712
 11
2039.989098090814
 21
-655.9237019760798
 31
0.0000000000563712
  0
LINE
  5
1AD68
330
18
100
AcDbEntity
  8
01
100
AcDbLine
 10
2073.489098090814
 20
-656.4237019760807
 30
0.0000000000563712
 11
2073.489098090814
 21
-661.3737019760787
 31
0.0000000000563712
  0
ARC
  5
1AD69
330
18
100
AcDbEntity
  8
01
100
AcDbCircle
 10
2072.989098090814
 20
-656.4237019760807
 30
0.0000000000563712
 40
0.5
100
AcDbArc
 50
0.0
 51
90.0
  0
ARC
  5
1AD6A
330
18
100
AcDbEntity
  8
01
100
AcDbCircle
 10
2072.489098090813
 20
-658.67370197608
 30
0.0000000000563712
 40
0.5
100
AcDbArc
 50
0.0
 51
90.0
  0
LINE
  5
1AD6B
330
18
100
AcDbEntity
  8
01
100
AcDbLine
 10
2073.489098090812
 20
-671.473701976084
 30
0.0000000000563712
 11
2073.489098090812
 21
-676.4237019760798
 31
0.0000000000563712
  0
ARC
  5
1AD6C
330
18
100
AcDbEntity
  8
01
100
AcDbCircle
 10
2073.189098090812
 20
-671.473701976084
 30
0.0000000000563712
 40
0.3
100
AcDbArc
 50
0.0000000000434252
 51
90.0
  0
LINE
  5
1AD6D
330
18
100
AcDbEntity
  8
01
100
AcDbLine
 10
2073.189098090814
 20
-661.6737019760786
 30
0.0000000000563712
 11
1935.489098090816
 21
-661.6737019760802
 31
0.0000000000563712
  0
ARC
  5
1AD6E
330
18
100
AcDbEntity
  8
01
100
AcDbCircle
 10
1935.789098090816
 20
-661.3737019760803
 30
0.0000000000563712
 40
0.3
100
AcDbArc
 50
180.0
 51
270.0
  0
ARC
  5
1AD6F
330
18
100
AcDbEntity
  8
01
100
AcDbCircle
 10
2073.189098090814
 20
-661.3737019760787
 30
0.0000000000563712
 40
0.3
100
AcDbArc
 50
270.0
 51
0.0000000000434252
  0
LINE
  5
1AD70
330
18
100
AcDbEntity
  8
01
100
AcDbLine
 10
2073.189098090812
 20
-671.1737019760841
 30
0.0000000000563712
 11
1935.489098090816
 21
-671.1737019760805
 31
0.0000000000563712
  0
LINE
  5
1AD71
330
18
100
AcDbEntity
  8
01
100
AcDbLine
 10
1935.489098090815
 20
-658.6737019760802
 30
0.0000000000563712
 11
1935.489098090815
 21
-661.3737019760803
 31
0.0000000000563712
  0
ARC
  5
1AD72
330
18
100
AcDbEntity
  8
01
100
AcDbCircle
 10
1935.989098090814
 20
-658.6737019760802
 30
0.0000000000563712
 40
0.5
100
AcDbArc
 50
90.0
 51
179.9999999999739
  0
LINE
  5
1AD73
330
18
100
AcDbEntity
  8
01
100
AcDbLine
 10
1935.989098090814
 20
-658.1737019760802
 30
0.0000000000563712
 11
2072.489098090813
 21
-658.1737019760802
 31
0.0000000000563712
  0
LINE
  5
1AD74
330
18
100
AcDbEntity
  8
01
100
AcDbLine
 10
2072.489098090813
 20
-674.6737019760802
 30
0.0000000000563712
 11
1935.989098090814
 21
-674.6737019760802
 31
0.0000000000563712
  0
LINE
  5
1AD75
330
18
100
AcDbEntity
  8
01
100
AcDbLine
 10
2071.489130399912
 20
-661.9237019760798
 30
0.0000000000563712
 11
1937.189098090818
 21
-661.9237019760798
 31
0.0000000000563712
  0
LINE
  5
1AD76
330
18
100
AcDbEntity
  8
01
100
AcDbLine
 10
2071.489130399912
 20
-670.9237019760791
 30
0.0000000000563712
 11
1937.189098090818
 21
-670.9237019760802
 31
0.0000000000563712
  0
ARC
  5
1AD77
330
18
100
AcDbEntity
  8
01
100
AcDbCircle
 10
1970.289130399997
 20
-666.4237019760802
 30
0.0000000000563712
 40
101.299999999919
100
AcDbArc
 50
357.4539399598851
 51
2.546060040114818
  0
ARC
  5
1AD78
330
18
100
AcDbEntity
  8
01
100
AcDbCircle
 10
2038.389098090732
 20
-666.4237019760802
 30
0.0000000000563712
 40
101.299999999919
100
AcDbArc
 50
177.4539399598852
 51
182.5460600401149
  0
LINE
  5
1AD79
330
18
100
AcDbEntity
  8
01
100
AcDbLine
 10
2072.989098090812
 20
-658.67370197608
 30
0.0000000000563712
 11
2072.989098090812
 21
-661.3737019760787
 31
0.0000000000563712
  0
ARC
  5
1AD7A
330
18
100
AcDbEntity
  8
01
100
AcDbCircle
 10
2072.489098090813
 20
-674.1737019760802
 30
0.0000000000563712
 40
0.5
100
AcDbArc
 50
270.0
 51
0.0000000000260551
  0
LINE
  5
1AD7B
330
18
100
AcDbEntity
  8
01
100
AcDbLine
 10
2072.989098090812
 20
-674.1737019760802
 30
0.0000000000563712
 11
2072.989098090812
 21
-671.4737019760831
 31
0.0000000000563712
  0
ARC
  5
1AD7C
330
18
100
AcDbEntity
  8
01
100
AcDbCircle
 10
2072.689098090812
 20
-661.3737019760787
 30
0.0000000000563712
 40
0.3
100
AcDbArc
 50
270.0
 51
0.0000000000434252
  0
ARC
  5
1AD7D
330
18
100
AcDbEntity
  8
01
100
AcDbCircle
 10
2072.689098090812
 20
-671.4737019760831
 30
0.0000000000563712
 40
0.3
100
AcDbArc
 50
0.0
 51
90.0
  0
LINE
  5
1AD7E
330
18
100
AcDbEntity
  8
01
100
AcDbLine
 10
2072.842651481406
 20
-658.3201485854869
 30
0.0000000000563712
 11
2073.342651481408
 21
-656.0701485854873
 31
0.0000000000563712
  0
LINE
  5
1AD7F
330
18
100
AcDbEntity
  8
01
100
AcDbLine
 10
2072.989098090814
 20
-676.9237019760798
 30
0.0000000000563712
 11
2039.989098090814
 21
-676.9237019760805
 31
0.0000000000563712
  0
ARC
  5
1AD80
330
18
100
AcDbEntity
  8
01
100
AcDbCircle
 10
2072.989098090814
 20
-676.4237019760798
 30
0.0000000000563712
 40
0.5
100
AcDbArc
 50
270.0
 51
0.0
  0
LINE
  5
1AD81
330
18
100
AcDbEntity
  8
01
100
AcDbLine
 10
2072.842651481406
 20
-674.5272553666736
 30
0.0000000000563712
 11
2073.342651481408
 21
-676.7772553666729
 31
0.0000000000563712
  0
ARC
  5
1AD82
330
18
100
AcDbEntity
  8
01
100
AcDbCircle
 10
1935.489098090816
 20
-661.3737019760803
 30
0.0000000000563712
 40
0.3
100
AcDbArc
 50
180.0
 51
270.0
  0
LINE
  5
1AD83
330
18
100
AcDbEntity
  8
01
100
AcDbLine
 10
1935.189098090815
 20
-657.5617509039781
 30
0.0000000000563712
 11
1935.189098090816
 21
-661.3737019760803
 31
0.0000000000563712
  0
LINE
  5
1AD84
330
18
100
AcDbEntity
  8
01
100
AcDbLine
 10
1935.635544700221
 20
-658.3201485854871
 30
0.0000000000563712
 11
1935.335544700223
 21
-657.2081975133855
 31
0.0000000000563712
  0
ARC
  5
1AD85
330
18
100
AcDbEntity
  8
01
100
AcDbCircle
 10
1935.789098090816
 20
-671.4737019760802
 30
0.0000000000563712
 40
0.3
100
AcDbArc
 50
90.0
 51
180.0
  0
LINE
  5
1AD86
330
18
100
AcDbEntity
  8
01
100
AcDbLine
 10
1935.489098090815
 20
-674.17370197608
 30
0.0000000000563712
 11
1935.489098090815
 21
-671.4737019760802
 31
0.0000000000563712
  0
ARC
  5
1AD87
330
18
100
AcDbEntity
  8
01
100
AcDbCircle
 10
1935.489098090816
 20
-671.4737019760802
 30
0.0000000000563712
 40
0.3
100
AcDbArc
 50
90.0
 51
180.0
  0
LINE
  5
1AD88
330
18
100
AcDbEntity
  8
01
100
AcDbLine
 10
1935.189098090814
 20
-675.2856530481823
 30
0.0000000000563712
 11
1935.189098090816
 21
-671.4737019760802
 31
0.0000000000563712
  0
LINE
  5
1AD89
330
18
100
AcDbEntity
  8
01
100
AcDbLine
 10
2034.221763747429
 20
-657.0617509039779
 30
0.0000000000563712
 11
1935.689098090815
 21
-657.0617509039779
 31
0.0000000000563712
  0
ELLIPSE
  5
1AD8A
330
18
100
AcDbEntity
  8
01
100
AcDbEllipse
 10
2034.221763747429
 20
-656.9696626204599
 30
0.0000000000563712
 11
-3.467334343385119
 21
0.0
 31
0.0
210
0.0
220
0.0
230
-1.0
 40
0.0265588127356991
 41
3.141592653589793
 42
4.71238898038469
  0
ARC
  5
1AD8B
330
18
100
AcDbEntity
  8
01
100
AcDbCircle
 10
1935.689098090816
 20
-657.5617509039786
 30
0.0000000000563712
 40
0.5
100
AcDbArc
 50
90.00000000010422
 51
179.9999999999479
  0
LINE
  5
1AD8C
330
18
100
AcDbEntity
  8
01
100
AcDbLine
 10
2073.40123012517
 20
-661.5858340104347
 30
0.0000000000563712
 11
2072.901230125167
 21
-661.5858340104347
 31
0.0000000000563712
  0
LINE
  5
1AD8D
330
18
100
AcDbEntity
  8
01
100
AcDbLine
 10
1935.57696605646
 20
-661.5858340104361
 30
0.0000000000563712
 11
1935.27696605646
 21
-661.5858340104361
 31
0.0000000000563712
  0
LINE
  5
1AD8E
330
18
100
AcDbEntity
  8
01
100
AcDbLine
 10
1935.989098090814
 20
-674.6737019760802
 30
0.0000000000563712
 11
2072.489098090813
 21
-674.6737019760802
 31
0.0000000000563712
  0
LINE
  5
1AD8F
330
18
100
AcDbEntity
  8
01
100
AcDbLine
 10
1935.635544700221
 20
-674.5272553666733
 30
0.0000000000563712
 11
1935.335544700221
 21
-675.6392064387757
 31
0.0000000000563712
  0
LINE
  5
1AD90
330
18
100
AcDbEntity
  8
01
100
AcDbLine
 10
2034.221763747429
 20
-675.7856530481826
 30
0.0000000000563712
 11
1935.689098090814
 21
-675.7856530481826
 31
0.0000000000563712
  0
ARC
  5
1AD91
330
18
100
AcDbEntity
  8
01
100
AcDbCircle
 10
1935.689098090814
 20
-675.2856530481826
 30
0.0000000000563712
 40
0.5
100
AcDbArc
 50
179.9999999999739
 51
270.0
  0
ELLIPSE
  5
1AD92
330
18
100
AcDbEntity
  8
01
100
AcDbEllipse
 10
2034.221763747429
 20
-675.8777413317006
 30
0.0000000000563712
 11
-3.467334343385119
 21
0.0
 31
0.0
210
0.0
220
0.0
230
1.0
 40
0.0265588127356991
 41
3.141592653589793
 42
4.71238898038469
  0
ARC
  5
1AD93
330
18
100
AcDbEntity
  8
01
100
AcDbCircle
 10
2039.989098090813
 20
-674.9237019760802
 30
0.0000000000563712
 40
2.0
100
AcDbArc
 50
239.0912159214727
 51
270.0
  0
LINE
  5
1AD94
330
18
100
AcDbEntity
  8
01
100
AcDbLine
 10
2037.689098090857
 20
-656.9696626205488
 30
0.0000000000563712
 11
2038.961752496856
 21
-656.2077296480458
 31
0.0000000000563712
  0
ARC
  5
1AD95
330
18
100
AcDbEntity
  8
01
100
AcDbCircle
 10
2039.989098090813
 20
-657.9237019760802
 30
0.0000000000563712
 40
2.0
100
AcDbArc
 50
90.0
 51
120.9087840843585
  0
LINE
  5
1AD96
330
18
100
AcDbEntity
  8
01
100
AcDbLine
 10
2037.689098090857
 20
-675.8777413317895
 30
0.0000000000563712
 11
2038.961752497033
 21
-676.6396743042202
 31
0.0000000000563712
  0
LINE
  5
1AD97
330
18
100
AcDbEntity
  8
01
100
AcDbLine
 10
2140.989151345672
 20
-661.3737019760782
 30
0.0000000000563712
 11
2140.989151345673
 21
-658.6450970632194
 31
0.0000000000563712
  0
LINE
  5
1AD98
330
18
100
AcDbEntity
  8
01
100
AcDbLine
 10
2142.58914332124
 20
-670.9237019760811
 30
0.0000000000563712
 11
2195.989098090813
 21
-670.9237019760802
 31
0.0000000000563712
  0
LINE
  5
1AD99
330
18
100
AcDbEntity
  8
01
100
AcDbLine
 10
2195.489098090814
 20
-669.7237019760802
 30
0.0000000000563712
 11
2195.989098090814
 21
-669.7237019760802
 31
0.0000000000563712
  0
LINE
  5
1AD9A
330
18
100
AcDbEntity
  8
01
100
AcDbLine
 10
2142.58914332124
 20
-661.9237019760775
 30
0.0000000000563712
 11
2195.989098090814
 21
-661.9237019760793
 31
0.0000000000563712
  0
LINE
  5
1AD9B
330
18
100
AcDbEntity
  8
01
100
AcDbLine
 10
2195.489098090814
 20
-663.1237019760794
 30
0.0000000000563712
 11
2195.989098090814
 21
-663.1237019760794
 31
0.0000000000563712
  0
ARC
  5
1AD9C
330
18
100
AcDbEntity
  8
01
100
AcDbCircle
 10
2243.789143321154
 20
-666.4237019760805
 30
0.0000000000563712
 40
101.299999999919
100
AcDbArc
 50
177.4539399598852
 51
182.5460600401149
  0
LINE
  5
1AD9D
330
18
100
AcDbEntity
  8
01
100
AcDbLine
 10
2196.489098090812
 20
-655.9237019760802
 30
0.0000000000563712
 11
2196.489098090815
 21
-676.9237019760802
 31
0.0000000000563712
  0
LINE
  5
1AD9E
330
18
100
AcDbEntity
  8
01
100
AcDbLine
 10
2141.289151345674
 20
-661.6737019760802
 30
0.0000000000563712
 11
2196.489098090814
 21
-661.6737019760802
 31
0.0000000000563712
  0
LINE
  5
1AD9F
330
18
100
AcDbEntity
  8
01
100
AcDbLine
 10
2141.289151345674
 20
-671.1737019760802
 30
0.0000000000563712
 11
2196.489098090815
 21
-671.1737019760802
 31
0.0000000000563712
  0
ARC
  5
1ADA0
330
18
100
AcDbEntity
  8
01
100
AcDbCircle
 10
2141.289151345674
 20
-661.3737019760785
 30
0.0000000000563712
 40
0.3
100
AcDbArc
 50
179.9999999997829
 51
270.011419789727
  0
LINE
  5
1ADA1
330
18
100
AcDbEntity
  8
01
100
AcDbLine
 10
2140.989151345673
 20
-671.4737019760804
 30
0.0000000000563712
 11
2140.989151345671
 21
-674.2023068889401
 31
0.0000000000563712
  0
ARC
  5
1ADA2
330
18
100
AcDbEntity
  8
01
100
AcDbCircle
 10
2141.289151345674
 20
-671.4737019760806
 30
0.0000000000563712
 40
0.3
100
AcDbArc
 50
89.98857878818542
 51
180.0114189182706
  0
ARC
  5
1ADA3
330
18
100
AcDbEntity
  8
01
100
AcDbCircle
 10
2141.489151345671
 20
-674.2023068889404
 30
0.0000000000563712
 40
0.5
100
AcDbArc
 50
179.9999999999739
 51
266.6355739340441
  0
ARC
  5
1ADA4
330
18
100
AcDbEntity
  8
01
100
AcDbCircle
 10
2229.489667208922
 20
822.7132415665502
 30
0.0000000000563712
 40
1500.0
100
AcDbArc
 50
266.635573934096
 51
268.7393694036795
  0
ARC
  5
1ADA5
330
18
100
AcDbEntity
  8
01
100
AcDbCircle
 10
2229.489667208922
 20
-2155.56064551871
 30
0.0000000000563712
 40
1500.0
100
AcDbArc
 50
91.26063059632057
 51
93.36442606590401
  0
ARC
  5
1ADA6
330
18
100
AcDbEntity
  8
01
100
AcDbCircle
 10
2141.489151345671
 20
-658.6450970632196
 30
0.0000000000563712
 40
0.5
100
AcDbArc
 50
93.36442606595585
 51
179.9999999999739
  0
LINE
  5
1ADA7
330
18
100
AcDbEntity
  8
01
100
AcDbLine
 10
2195.489098090814
 20
-663.1237019760794
 30
0.0000000000563712
 11
2195.489098090814
 21
-669.7237019760802
 31
0.0000000000563712
  0
LINE
  5
1ADA8
330
18
100
AcDbEntity
  8
01
100
AcDbLine
 10
2195.989098090814
 20
-661.9237019760793
 30
0.0000000000563712
 11
2195.989098090814
 21
-663.1237019760794
 31
0.0000000000563712
  0
LINE
  5
1ADA9
330
18
100
AcDbEntity
  8
01
100
AcDbLine
 10
2195.989098090814
 20
-669.7237019760802
 30
0.0000000000563712
 11
2195.989098090813
 21
-670.9237019760802
 31
0.0000000000563712
  0
LINE
  5
1ADAA
330
18
100
AcDbEntity
  8
01
100
AcDbLine
 10
2028.989098090814
 20
-675.7856530481826
 30
0.0000000000563712
 11
2028.989098090814
 21
-692.423701976082
 31
0.0000000000563712
  0
LINE
  5
1ADAB
330
18
100
AcDbEntity
  8
1CENTER
100
AcDbLine
 10
2374.589039127748
 20
-361.9223916982877
 30
0.0000000001127424
 11
2382.722711489596
 21
-361.9223836650375
 31
0.0000000001127424
  0
LINE
  5
1ADAC
330
18
100
AcDbEntity
  8
01
100
AcDbLine
 10
2377.488865411322
 20
-367.4223836650352
 30
0.0000000000563712
 11
2392.988993715926
 21
-367.4223836650348
 31
0.0000000000563712
  0
LINE
  5
1ADAD
330
18
100
AcDbEntity
  8
01
100
AcDbLine
 10
2515.302602148935
 20
-335.4221574291399
 30
0.0000000000563712
 11
2416.756199754709
 21
-335.4223558852044
 31
0.0000000000563712
  0
ARC
  5
1ADAE
330
18
100
AcDbEntity
  8
01
100
AcDbCircle
 10
2416.756206803126
 20
-338.9223558851971
 30
0.0000000000563712
 40
3.5
100
AcDbArc
 50
90.00011538419407
 51
179.4628681520626
  0
LINE
  5
1ADAF
330
18
100
AcDbEntity
  8
01
100
AcDbLine
 10
2412.988865411324
 20
-367.4223836650343
 30
0.0000000000563712
 11
2413.256360601381
 21
-338.8895448483803
 31
0.0000000000563712
  0
LINE
  5
1ADB0
330
18
100
AcDbEntity
  8
01
100
AcDbLine
 10
2377.975473651575
 20
-313.4089208257327
 30
0.0000000000563712
 11
2377.488865411322
 21
-367.4223836650352
 31
0.0000000000563712
  0
LINE
  5
1ADB1
330
18
100
AcDbEntity
  8
01
100
AcDbLine
 10
2379.475409639235
 20
-311.9224338038547
 30
0.0000000000563712
 11
2514.009186776029
 21
-311.9221517990596
 31
0.0000000000563712
  0
ARC
  5
1ADB2
330
18
100
AcDbEntity
  8
01
100
AcDbCircle
 10
2514.008305806424
 20
-313.4221518009095
 30
0.0000000000563712
 40
1.5
100
AcDbArc
 50
0.7473995555909698
 51
90.00012010131431
  0
ARC
  5
1ADB3
330
18
100
AcDbEntity
  8
01
100
AcDbCircle
 10
2379.47541278348
 20
-313.4224338038513
 30
0.0000000000563712
 40
1.5
100
AcDbArc
 50
90.00012010131431
 51
179.4838352749804
  0
ARC
  5
1ADB4
330
18
100
AcDbEntity
  8
01
100
AcDbCircle
 10
2515.288865411323
 20
-334.9221574291408
 30
0.0000000000563712
 40
0.5
100
AcDbArc
 50
270.0001153841941
 51
0.7473995555998808
  0
LINE
  5
1ADB5
330
18
100
AcDbEntity
  8
01
100
AcDbLine
 10
2515.508178187375
 20
-313.4025854812156
 30
0.0000000000563712
 11
2515.78882287164
 21
-334.9156353225761
 31
0.0000000000563712
  0
LINE
  5
1ADB6
330
18
100
AcDbEntity
  8
01
100
AcDbLine
 10
2395.488981751069
 20
-367.4223836650348
 30
0.0000000000563712
 11
2395.48899371592
 21
-367.4223836650348
 31
0.0000000000563712
  0
LINE
  5
1ADB7
330
18
100
AcDbEntity
  8
01
100
AcDbLine
 10
2395.488981751069
 20
-367.9237019771089
 30
0.0000000000563712
 11
2395.48899371592
 21
-367.9237019771089
 31
0.0000000000563712
  0
LINE
  5
1ADB8
330
18
100
AcDbEntity
  8
01
100
AcDbLine
 10
2397.988993715928
 20
-367.9237019771089
 30
0.0000000000563712
 11
2421.488981751067
 21
-367.9237019771089
 31
0.0000000000563712
  0
LINE
  5
1ADB9
330
18
100
AcDbEntity
  8
01
100
AcDbLine
 10
2397.988993715928
 20
-367.4223836650348
 30
0.0000000000563712
 11
2412.988865411324
 21
-367.4223836650343
 31
0.0000000000563712
  0
LINE
  5
1AFBC
330
18
100
AcDbEntity
  8
01
100
AcDbLine
 10
2205.488981751071
 20
-590.9237019760798
 30
0.0
 11
2205.488981751071
 21
-559.1237019760798
 31
0.0
1001
ACAD
1000
DSTYLE
1002
{
1070
    40
1040
1.3
1070
    45
1040
0.5
1070
   341
1005
0
1002
}
  0
LINE
  5
1AFBD
330
18
100
AcDbEntity
  8
01
100
AcDbLine
 10
2183.488596185351
 20
-606.4237069760787
 30
0.0
 11
2183.488596185351
 21
-559.1237019760798
 31
0.0
1001
ACAD
1000
DSTYLE
1002
{
1070
    40
1040
1.3
1070
    45
1040
0.5
1070
   341
1005
0
1002
}
  0
LINE
  5
1AFBE
330
18
100
AcDbEntity
  8
01
100
AcDbLine
 10
2202.888981751071
 20
-560.4237019760798
 30
0.0
 11
2186.088596185351
 21
-560.4237019760798
 31
0.0
1001
ACAD
1000
DSTYLE
1002
{
1070
    40
1040
1.3
1070
    45
1040
0.5
1070
   341
1005
0
1002
}
  0
LINE
  5
1AFC2
330
18
100
AcDbEntity
  8
01
100
AcDbLine
 10
2245.488981751071
 20
-590.9237019760798
 30
0.0
 11
2245.488981751071
 21
-559.1237019760798
 31
0.0
1001
ACAD
1000
DSTYLE
1002
{
1070
    40
1040
1.3
1070
    45
1040
0.5
1070
   271
1070
     1
1070
   341
1005
0
1002
}
  0
LINE
  5
1AFC3
330
18
100
AcDbEntity
  8
01
100
AcDbLine
 10
2253.657565440031
 20
-616.4237004083876
 30
0.0
 11
2253.657565440031
 21
-559.1237019760798
 31
0.0
1001
ACAD
1000
DSTYLE
1002
{
1070
    40
1040
1.3
1070
    45
1040
0.5
1070
   271
1070
     1
1070
   341
1005
0
1002
}
  0
LINE
  5
1AFC4
330
18
100
AcDbEntity
  8
01
100
AcDbLine
 10
2248.088981751071
 20
-560.4237019760798
 30
0.0
 11
2251.057565440031
 21
-560.4237019760798
 31
0.0
1001
ACAD
1000
DSTYLE
1002
{
1070
    40
1040
1.3
1070
    45
1040
0.5
1070
   271
1070
     1
1070
   341
1005
0
1002
}
  0
LINE
  5
1AFC8
330
18
100
AcDbEntity
  8
01
100
AcDbLine
 10
2035.488993106154
 20
-591.4237019760798
 30
0.0
 11
2035.488993106154
 21
-582.1237019760798
 31
0.0
1001
ACAD
1000
DSTYLE
1002
{
1070
     3
1000
□<>
1070
    40
1040
1.3
1070
    45
1040
0.5
1070
   271
1070
     1
1070
   272
1070
     2
1002
}
  0
LINE
  5
1AFC9
330
18
100
AcDbEntity
  8
01
100
AcDbLine
 10
2075.488993106154
 20
-591.4237019760802
 30
0.0
 11
2075.488993106154
 21
-582.1237019760798
 31
0.0
1001
ACAD
1000
DSTYLE
1002
{
1070
     3
1000
□<>
1070
    40
1040
1.3
1070
    45
1040
0.5
1070
   271
1070
     1
1070
   272
1070
     2
1002
}
  0
LINE
  5
1AFCA
330
18
100
AcDbEntity
  8
01
100
AcDbLine
 10
2038.088993106154
 20
-583.4237019760798
 30
0.0
 11
2072.888993106154
 21
-583.4237019760798
 31
0.0
1001
ACAD
1000
DSTYLE
1002
{
1070
     3
1000
□<>
1070
    40
1040
1.3
1070
    45
1040
0.5
1070
   271
1070
     1
1070
   272
1070
     2
1002
}
  0
LINE
  5
1AFCE
330
18
100
AcDbEntity
  8
01
100
AcDbLine
 10
2375.488873088867
 20
-591.4237019760798
 30
0.0
 11
2375.488873088867
 21
-582.1237019760798
 31
0.0
1001
ACAD
1000
DSTYLE
1002
{
1070
     3
1000
□<>
1070
    40
1040
1.3
1070
    45
1040
0.5
1070
   271
1070
     1
1070
   272
1070
     2
1002
}
  0
LINE
  5
1AFCF
330
18
100
AcDbEntity
  8
01
100
AcDbLine
 10
2415.488873088867
 20
-591.4237019760802
 30
0.0
 11
2415.488873088867
 21
-582.1237019760798
 31
0.0
1001
ACAD
1000
DSTYLE
1002
{
1070
     3
1000
□<>
1070
    40
1040
1.3
1070
    45
1040
0.5
1070
   271
1070
     1
1070
   272
1070
     2
1002
}
  0
LINE
  5
1AFD0
330
18
100
AcDbEntity
  8
01
100
AcDbLine
 10
2378.088873088867
 20
-583.4237019760798
 30
0.0
 11
2412.888873088868
 21
-583.4237019760798
 31
0.0
1001
ACAD
1000
DSTYLE
1002
{
1070
     3
1000
□<>
1070
    40
1040
1.3
1070
    45
1040
0.5
1070
   271
1070
     1
1070
   272
1070
     2
1002
}
  0
TEXT
  5
1AFD4
330
18
100
AcDbEntity
  8
01
  6
CONTINUOUS
100
AcDbText
 10
2306.492026504342
 20
-453.8403686437755
 30
0.0000000000563712
 40
4.55
  1
材質：亜鉛ダイキャスト
100
AcDbText
  0
TEXT
  5
1AFD5
330
18
100
AcDbEntity
  8
01
  6
CONTINUOUS
100
AcDbText
 10
2316.805359837675
 20
-461.4237019771088
 30
0.0000000000563712
 40
4.55
  1
仕上げ：各種メッキ
100
AcDbText
  0
LINE
  5
1AFD6
330
18
100
AcDbEntity
  8
01
100
AcDbLine
 10
2333.488865411324
 20
-638.4237026742115
 30
0.0
 11
2333.488865411324
 21
-535.7022098913923
 31
0.0
1001
ACAD
1000
DSTYLE
1002
{
1070
    40
1040
1.3
1070
    45
1040
0.5
1002
}
  0
LINE
  5
1AFD7
330
18
100
AcDbEntity
  8
01
100
AcDbLine
 10
2344.488865411324
 20
-580.5523846249226
 30
0.0
 11
2344.488865411324
 21
-535.7022098913923
 31
0.0
1001
ACAD
1000
DSTYLE
1002
{
1070
    40
1040
1.3
1070
    45
1040
0.5
1002
}
  0
LINE
  5
1AFD8
330
18
100
AcDbEntity
  8
01
100
AcDbLine
 10
2336.088865411324
 20
-537.0022098913922
 30
0.0
 11
2341.888865411324
 21
-537.0022098913922
 31
0.0
1001
ACAD
1000
DSTYLE
1002
{
1070
    40
1040
1.3
1070
    45
1040
0.5
1002
}
  0
LINE
  5
1AFDC
330
18
100
AcDbEntity
  8
01
100
AcDbLine
 10
2413.488865411324
 20
-608.4310744836883
 30
0.0
 11
2441.788865411324
 21
-608.4310744836883
 31
0.0
1001
ACAD
1000
DSTYLE
1002
{
1070
    40
1040
1.3
1070
    45
1040
0.5
1002
}
  0
LINE
  5
1AFDD
330
18
100
AcDbEntity
  8
01
100
AcDbLine
 10
2413.488865411324
 20
-682.4237019760807
 30
0.0
 11
2441.788865411324
 21
-682.4237019760807
 31
0.0
1001
ACAD
1000
DSTYLE
1002
{
1070
    40
1040
1.3
1070
    45
1040
0.5
1002
}
  0
LINE
  5
1AFDE
330
18
100
AcDbEntity
  8
01
100
AcDbLine
 10
2440.488865411324
 20
-611.0310744836884
 30
0.0
 11
2440.488865411324
 21
-679.8237019760807
 31
0.0
1001
ACAD
1000
DSTYLE
1002
{
1070
    40
1040
1.3
1070
    45
1040
0.5
1002
}
  0
LINE
  5
1AFE2
330
18
100
AcDbEntity
  8
01
100
AcDbLine
 10
2413.488865411324
 20
-608.4310744836883
 30
0.0
 11
2413.488865411324
 21
-525.6223424233441
 31
0.0
1001
ACAD
1000
DSTYLE
1002
{
1070
    40
1040
1.3
1070
    45
1040
0.5
1002
}
  0
LINE
  5
1AFE3
330
18
100
AcDbEntity
  8
01
100
AcDbLine
 10
2344.488865411324
 20
-580.5523846249226
 30
0.0
 11
2344.488865411324
 21
-525.6223424233441
 31
0.0
1001
ACAD
1000
DSTYLE
1002
{
1070
    40
1040
1.3
1070
    45
1040
0.5
1002
}
  0
LINE
  5
1AFE4
330
18
100
AcDbEntity
  8
01
100
AcDbLine
 10
2410.888865411324
 20
-526.922342423344
 30
0.0
 11
2347.088865411324
 21
-526.922342423344
 31
0.0
1001
ACAD
1000
DSTYLE
1002
{
1070
    40
1040
1.3
1070
    45
1040
0.5
1002
}
  0
LINE
  5
1AFE8
330
18
100
AcDbEntity
  8
01
100
AcDbLine
 10
2344.488865411324
 20
-580.5523846249226
 30
0.0
 11
2344.488865411324
 21
-535.7022098913923
 31
0.0
1001
ACAD
1000
DSTYLE
1002
{
1070
    40
1040
1.3
1070
    45
1040
0.5
1002
}
  0
LINE
  5
1AFE9
330
18
100
AcDbEntity
  8
01
100
AcDbLine
 10
2395.488865411324
 20
-616.4237019760802
 30
0.0
 11
2395.488865411324
 21
-535.7022098913923
 31
0.0
1001
ACAD
1000
DSTYLE
1002
{
1070
    40
1040
1.3
1070
    45
1040
0.5
1002
}
  0
LINE
  5
1AFEA
330
18
100
AcDbEntity
  8
01
100
AcDbLine
 10
2347.088865411324
 20
-537.0022098913922
 30
0.0
 11
2392.888865411324
 21
-537.0022098913922
 31
0.0
1001
ACAD
1000
DSTYLE
1002
{
1070
    40
1040
1.3
1070
    45
1040
0.5
1002
}
  0
LINE
  5
1AFEE
330
18
100
AcDbEntity
  8
01
100
AcDbLine
 10
2231.364007158975
 20
-588.4237019760809
 30
0.0
 11
2311.650138327183
 21
-588.4237019760809
 31
0.0
1001
ACAD
1000
DSTYLE
1002
{
1070
    40
1040
1.3
1070
    45
1040
0.5
1002
}
  0
LINE
  5
1AFEF
330
18
100
AcDbEntity
  8
01
100
AcDbLine
 10
2231.364007158975
 20
-702.4237019760809
 30
0.0
 11
2311.650138327183
 21
-702.4237019760809
 31
0.0
1001
ACAD
1000
DSTYLE
1002
{
1070
    40
1040
1.3
1070
    45
1040
0.5
1002
}
  0
LINE
  5
1AFF0
330
18
100
AcDbEntity
  8
01
100
AcDbLine
 10
2310.350138327183
 20
-591.0237019760809
 30
0.0
 11
2310.350138327183
 21
-699.8237019760809
 31
0.0
1001
ACAD
1000
DSTYLE
1002
{
1070
    40
1040
1.3
1070
    45
1040
0.5
1002
}
  0
LINE
  5
1AFF4
330
18
100
AcDbEntity
  8
01
100
AcDbLine
 10
2231.962067555738
 20
-580.5241471204973
 30
0.0
 11
2321.014472493408
 21
-580.5241471204973
 31
0.0
1001
ACAD
1000
DSTYLE
1002
{
1070
    40
1040
1.3
1070
    45
1040
0.5
1002
}
  0
LINE
  5
1AFF5
330
18
100
AcDbEntity
  8
01
100
AcDbLine
 10
2231.888981751069
 20
-710.3237019760808
 30
0.0
 11
2321.014472493408
 21
-710.3237019760808
 31
0.0
1001
ACAD
1000
DSTYLE
1002
{
1070
    40
1040
1.3
1070
    45
1040
0.5
1002
}
  0
LINE
  5
1AFF6
330
18
100
AcDbEntity
  8
01
100
AcDbLine
 10
2319.714472493407
 20
-583.1241471204974
 30
0.0
 11
2319.714472493407
 21
-707.7237019760807
 31
0.0
1001
ACAD
1000
DSTYLE
1002
{
1070
    40
1040
1.3
1070
    45
1040
0.5
1002
}
  0
LINE
  5
1AFFA
330
18
100
AcDbEntity
  8
01
100
AcDbLine
 10
2212.988981751069
 20
-586.4237019760807
 30
0.0
 11
2212.988981751069
 21
-535.7022098913925
 31
0.0
1001
ACAD
1000
DSTYLE
1002
{
1070
    40
1040
1.3
1070
    45
1040
0.5
1002
}
  0
LINE
  5
1AFFB
330
18
100
AcDbEntity
  8
01
100
AcDbLine
 10
2237.988981751069
 20
-586.4237019760807
 30
0.0
 11
2237.988981751069
 21
-535.7022098913925
 31
0.0
1001
ACAD
1000
DSTYLE
1002
{
1070
    40
1040
1.3
1070
    45
1040
0.5
1002
}
  0
LINE
  5
1AFFC
330
18
100
AcDbEntity
  8
01
100
AcDbLine
 10
2215.588981751069
 20
-537.0022098913925
 30
0.0
 11
2235.388981751069
 21
-537.0022098913925
 31
0.0
1001
ACAD
1000
DSTYLE
1002
{
1070
    40
1040
1.3
1070
    45
1040
0.5
1002
}
  0
LINE
  5
1B000
330
18
100
AcDbEntity
  8
01
100
AcDbLine
 10
2369.488865411328
 20
-639.923701976082
 30
0.0
 11
2359.188865411324
 21
-639.923701976082
 31
0.0
1001
ACAD
1000
DSTYLE
1002
{
1070
     3
1000
□<>
1070
    40
1040
1.3
1070
    45
1040
0.5
1002
}
  0
LINE
  5
1B001
330
18
100
AcDbEntity
  8
01
100
AcDbLine
 10
2369.488865411328
 20
-692.923701976082
 30
0.0
 11
2359.188865411324
 21
-692.923701976082
 31
0.0
1001
ACAD
1000
DSTYLE
1002
{
1070
     3
1000
□<>
1070
    40
1040
1.3
1070
    45
1040
0.5
1002
}
  0
LINE
  5
1B002
330
18
100
AcDbEntity
  8
01
100
AcDbLine
 10
2360.488865411324
 20
-642.5237019760821
 30
0.0
 11
2360.488865411324
 21
-690.323701976082
 31
0.0
1001
ACAD
1000
DSTYLE
1002
{
1070
     3
1000
□<>
1070
    40
1040
1.3
1070
    45
1040
0.5
1002
}
  0
LINE
  5
1B006
330
18
100
AcDbEntity
  8
01
  6
BYBLOCK
100
AcDbLine
 10
2202.888981751071
 20
-559.7270340820797
 30
0.0
 11
2205.488981751071
 21
-560.4237019760798
 31
0.0
  0
LINE
  5
1B007
330
18
100
AcDbEntity
  8
01
  6
BYBLOCK
100
AcDbLine
 10
2205.488981751071
 20
-560.4237019760798
 30
0.0
 11
2202.888981751071
 21
-561.1203698700798
 31
0.0
  0
LINE
  5
1B008
330
18
100
AcDbEntity
  8
01
  6
BYBLOCK
100
AcDbLine
 10
2205.488981751071
 20
-560.4237019760798
 30
0.0
 11
2202.888981751071
 21
-560.4237019760798
 31
0.0
  0
LINE
  5
1B009
330
18
100
AcDbEntity
  8
01
  6
BYBLOCK
100
AcDbLine
 10
2186.088596185351
 20
-561.1203698700798
 30
0.0
 11
2183.488596185351
 21
-560.4237019760798
 31
0.0
  0
LINE
  5
1B00A
330
18
100
AcDbEntity
  8
01
  6
BYBLOCK
100
AcDbLine
 10
2183.488596185351
 20
-560.4237019760798
 30
0.0
 11
2186.088596185351
 21
-559.7270340820797
 31
0.0
  0
LINE
  5
1B00B
330
18
100
AcDbEntity
  8
01
  6
BYBLOCK
100
AcDbLine
 10
2183.488596185351
 20
-560.4237019760798
 30
0.0
 11
2186.088596185351
 21
-560.4237019760798
 31
0.0
  0
TEXT
  5
1B00C
330
18
100
AcDbEntity
  8
01
  6
CONTINUOUS
100
AcDbText
 10
2190.697122301544
 20
-559.5137019760798
 30
0.0
 40
4.55
  1
22
100
AcDbText
1001
ACAD
1000
DSTYLE
1002
{
1070
    40
1040
1.3
1070
    45
1040
0.5
1070
   341
1005
0
1002
}
  0
LINE
  5
1B00D
330
18
100
AcDbEntity
  8
01
  6
BYBLOCK
100
AcDbLine
 10
2248.088981751071
 20
-561.1203698700798
 30
0.0
 11
2245.488981751071
 21
-560.4237019760798
 31
0.0
  0
LINE
  5
1B00E
330
18
100
AcDbEntity
  8
01
  6
BYBLOCK
100
AcDbLine
 10
2245.488981751071
 20
-560.4237019760798
 30
0.0
 11
2248.088981751071
 21
-559.7270340820797
 31
0.0
  0
LINE
  5
1B00F
330
18
100
AcDbEntity
  8
01
  6
BYBLOCK
100
AcDbLine
 10
2245.488981751071
 20
-560.4237019760798
 30
0.0
 11
2248.088981751071
 21
-560.4237019760798
 31
0.0
  0
LINE
  5
1B010
330
18
100
AcDbEntity
  8
01
  6
BYBLOCK
100
AcDbLine
 10
2251.057565440031
 20
-559.7270340820797
 30
0.0
 11
2253.657565440031
 21
-560.4237019760798
 31
0.0
  0
LINE
  5
1B011
330
18
100
AcDbEntity
  8
01
  6
BYBLOCK
100
AcDbLine
 10
2253.657565440031
 20
-560.4237019760798
 30
0.0
 11
2251.057565440031
 21
-561.1203698700798
 31
0.0
  0
LINE
  5
1B012
330
18
100
AcDbEntity
  8
01
  6
BYBLOCK
100
AcDbLine
 10
2253.657565440031
 20
-560.4237019760798
 30
0.0
 11
2251.057565440031
 21
-560.4237019760798
 31
0.0
  0
TEXT
  5
1B013
330
18
100
AcDbEntity
  8
01
  6
CONTINUOUS
100
AcDbText
 10
2248.056606928884
 20
-559.5137019760798
 30
0.0
 40
4.55
  1
8
100
AcDbText
1001
ACAD
1000
DSTYLE
1002
{
1070
    40
1040
1.3
1070
    45
1040
0.5
1070
   271
1070
     1
1070
   341
1005
0
1002
}
  0
LINE
  5
1B014
330
18
100
AcDbEntity
  8
01
  6
BYBLOCK
100
AcDbLine
 10
2038.088993106154
 20
-584.1203698700798
 30
0.0
 11
2035.488993106154
 21
-583.4237019760798
 31
0.0
  0
LINE
  5
1B015
330
18
100
AcDbEntity
  8
01
  6
BYBLOCK
100
AcDbLine
 10
2035.488993106154
 20
-583.4237019760798
 30
0.0
 11
2038.088993106154
 21
-582.7270340820797
 31
0.0
  0
LINE
  5
1B016
330
18
100
AcDbEntity
  8
01
  6
BYBLOCK
100
AcDbLine
 10
2035.488993106154
 20
-583.4237019760798
 30
0.0
 11
2038.088993106154
 21
-583.4237019760798
 31
0.0
  0
LINE
  5
1B017
330
18
100
AcDbEntity
  8
01
  6
BYBLOCK
100
AcDbLine
 10
2072.888993106154
 20
-582.7270340820797
 30
0.0
 11
2075.488993106154
 21
-583.4237019760798
 31
0.0
  0
LINE
  5
1B018
330
18
100
AcDbEntity
  8
01
  6
BYBLOCK
100
AcDbLine
 10
2075.488993106154
 20
-583.4237019760798
 30
0.0
 11
2072.888993106154
 21
-584.1203698700798
 31
0.0
  0
LINE
  5
1B019
330
18
100
AcDbEntity
  8
01
  6
BYBLOCK
100
AcDbLine
 10
2075.488993106154
 20
-583.4237019760798
 30
0.0
 11
2072.888993106154
 21
-583.4237019760798
 31
0.0
  0
TEXT
  5
1B01A
330
18
100
AcDbEntity
  8
01
  6
CONTINUOUS
100
AcDbText
 10
2049.10003477282
 20
-582.5137019760798
 30
0.0
 40
4.55
  1
□40
100
AcDbText
1001
ACAD
1000
DSTYLE
1002
{
1070
     3
1000
□<>
1070
    40
1040
1.3
1070
    45
1040
0.5
1070
   271
1070
     1
1070
   272
1070
     2
1002
}
  0
LINE
  5
1B01B
330
18
100
AcDbEntity
  8
01
  6
BYBLOCK
100
AcDbLine
 10
2378.088873088867
 20
-584.1203698700798
 30
0.0
 11
2375.488873088867
 21
-583.4237019760798
 31
0.0
  0
LINE
  5
1B01C
330
18
100
AcDbEntity
  8
01
  6
BYBLOCK
100
AcDbLine
 10
2375.488873088867
 20
-583.4237019760798
 30
0.0
 11
2378.088873088867
 21
-582.7270340820797
 31
0.0
  0
LINE
  5
1B01D
330
18
100
AcDbEntity
  8
01
  6
BYBLOCK
100
AcDbLine
 10
2375.488873088867
 20
-583.4237019760798
 30
0.0
 11
2378.088873088867
 21
-583.4237019760798
 31
0.0
  0
LINE
  5
1B01E
330
18
100
AcDbEntity
  8
01
  6
BYBLOCK
100
AcDbLine
 10
2412.888873088868
 20
-582.7270340820797
 30
0.0
 11
2415.488873088867
 21
-583.4237019760798
 31
0.0
  0
LINE
  5
1B01F
330
18
100
AcDbEntity
  8
01
  6
BYBLOCK
100
AcDbLine
 10
2415.488873088867
 20
-583.4237019760798
 30
0.0
 11
2412.888873088868
 21
-584.1203698700798
 31
0.0
  0
LINE
  5
1B020
330
18
100
AcDbEntity
  8
01
  6
BYBLOCK
100
AcDbLine
 10
2415.488873088867
 20
-583.4237019760798
 30
0.0
 11
2412.888873088868
 21
-583.4237019760798
 31
0.0
  0
TEXT
  5
1B021
330
18
100
AcDbEntity
  8
01
  6
CONTINUOUS
100
AcDbText
 10
2389.099914755534
 20
-582.5137019760798
 30
0.0
 40
4.55
  1
□40
100
AcDbText
1001
ACAD
1000
DSTYLE
1002
{
1070
     3
1000
□<>
1070
    40
1040
1.3
1070
    45
1040
0.5
1070
   271
1070
     1
1070
   272
1070
     2
1002
}
  0
LINE
  5
1B022
330
18
100
AcDbEntity
  8
01
  6
BYBLOCK
100
AcDbLine
 10
2336.088865411324
 20
-537.6988777853923
 30
0.0
 11
2333.488865411324
 21
-537.0022098913922
 31
0.0
  0
LINE
  5
1B023
330
18
100
AcDbEntity
  8
01
  6
BYBLOCK
100
AcDbLine
 10
2333.488865411324
 20
-537.0022098913922
 30
0.0
 11
2336.088865411324
 21
-536.3055419973922
 31
0.0
  0
LINE
  5
1B024
330
18
100
AcDbEntity
  8
01
  6
BYBLOCK
100
AcDbLine
 10
2333.488865411324
 20
-537.0022098913922
 30
0.0
 11
2336.088865411324
 21
-537.0022098913922
 31
0.0
  0
LINE
  5
1B025
330
18
100
AcDbEntity
  8
01
  6
BYBLOCK
100
AcDbLine
 10
2341.888865411324
 20
-536.3055419973922
 30
0.0
 11
2344.488865411324
 21
-537.0022098913922
 31
0.0
  0
LINE
  5
1B026
330
18
100
AcDbEntity
  8
01
  6
BYBLOCK
100
AcDbLine
 10
2344.488865411324
 20
-537.0022098913922
 30
0.0
 11
2341.888865411324
 21
-537.6988777853923
 31
0.0
  0
LINE
  5
1B027
330
18
100
AcDbEntity
  8
01
  6
BYBLOCK
100
AcDbLine
 10
2344.488865411324
 20
-537.0022098913922
 30
0.0
 11
2341.888865411324
 21
-537.0022098913922
 31
0.0
  0
TEXT
  5
1B028
330
18
100
AcDbEntity
  8
01
  6
CONTINUOUS
100
AcDbText
 10
2336.713865411324
 20
-536.0922098913923
 30
0.0
 40
4.55
  1
11
100
AcDbText
1001
ACAD
1000
DSTYLE
1002
{
1070
    40
1040
1.3
1070
    45
1040
0.5
1002
}
  0
LINE
  5
1B029
330
18
100
AcDbEntity
  8
01
  6
BYBLOCK
100
AcDbLine
 10
2439.792197517324
 20
-611.0310744836884
 30
0.0
 11
2440.488865411324
 21
-608.4310744836883
 31
0.0
  0
LINE
  5
1B02A
330
18
100
AcDbEntity
  8
01
  6
BYBLOCK
100
AcDbLine
 10
2440.488865411324
 20
-608.4310744836883
 30
0.0
 11
2441.185533305324
 21
-611.0310744836884
 31
0.0
  0
LINE
  5
1B02B
330
18
100
AcDbEntity
  8
01
  6
BYBLOCK
100
AcDbLine
 10
2440.488865411324
 20
-608.4310744836883
 30
0.0
 11
2440.488865411324
 21
-611.0310744836884
 31
0.0
  0
LINE
  5
1B02C
330
18
100
AcDbEntity
  8
01
  6
BYBLOCK
100
AcDbLine
 10
2441.185533305324
 20
-679.8237019760807
 30
0.0
 11
2440.488865411324
 21
-682.4237019760807
 31
0.0
  0
LINE
  5
1B02D
330
18
100
AcDbEntity
  8
01
  6
BYBLOCK
100
AcDbLine
 10
2440.488865411324
 20
-682.4237019760807
 30
0.0
 11
2439.792197517324
 21
-679.8237019760807
 31
0.0
  0
LINE
  5
1B02E
330
18
100
AcDbEntity
  8
01
  6
BYBLOCK
100
AcDbLine
 10
2440.488865411324
 20
-682.4237019760807
 30
0.0
 11
2440.488865411324
 21
-679.8237019760807
 31
0.0
  0
TEXT
  5
1B02F
330
18
100
AcDbEntity
  8
01
  6
CONTINUOUS
100
AcDbText
 10
2439.578865411324
 20
-627.4523578900616
 30
0.0
 40
4.55
  1
74
 50
90.0
100
AcDbText
1001
ACAD
1000
DSTYLE
1002
{
1070
    40
1040
1.3
1070
    45
1040
0.5
1002
}
  0
LINE
  5
1B030
330
18
100
AcDbEntity
  8
01
  6
BYBLOCK
100
AcDbLine
 10
2410.888865411324
 20
-526.225674529344
 30
0.0
 11
2413.488865411324
 21
-526.922342423344
 31
0.0
  0
LINE
  5
1B031
330
18
100
AcDbEntity
  8
01
  6
BYBLOCK
100
AcDbLine
 10
2413.488865411324
 20
-526.922342423344
 30
0.0
 11
2410.888865411324
 21
-527.6190103173441
 31
0.0
  0
LINE
  5
1B032
330
18
100
AcDbEntity
  8
01
  6
BYBLOCK
100
AcDbLine
 10
2413.488865411324
 20
-526.922342423344
 30
0.0
 11
2410.888865411324
 21
-526.922342423344
 31
0.0
  0
LINE
  5
1B033
330
18
100
AcDbEntity
  8
01
  6
BYBLOCK
100
AcDbLine
 10
2347.088865411324
 20
-527.6190103173441
 30
0.0
 11
2344.488865411324
 21
-526.922342423344
 31
0.0
  0
LINE
  5
1B034
330
18
100
AcDbEntity
  8
01
  6
BYBLOCK
100
AcDbLine
 10
2344.488865411324
 20
-526.922342423344
 30
0.0
 11
2347.088865411324
 21
-526.225674529344
 31
0.0
  0
LINE
  5
1B035
330
18
100
AcDbEntity
  8
01
  6
BYBLOCK
100
AcDbLine
 10
2344.488865411324
 20
-526.922342423344
 30
0.0
 11
2347.088865411324
 21
-526.922342423344
 31
0.0
  0
TEXT
  5
1B036
330
18
100
AcDbEntity
  8
01
  6
CONTINUOUS
100
AcDbText
 10
2375.180346892806
 20
-526.0123424233441
 30
0.0
 40
4.55
  1
69
100
AcDbText
1001
ACAD
1000
DSTYLE
1002
{
1070
    40
1040
1.3
1070
    45
1040
0.5
1002
}
  0
LINE
  5
1B037
330
18
100
AcDbEntity
  8
01
  6
BYBLOCK
100
AcDbLine
 10
2347.088865411324
 20
-537.6988777853923
 30
0.0
 11
2344.488865411324
 21
-537.0022098913922
 31
0.0
  0
LINE
  5
1B038
330
18
100
AcDbEntity
  8
01
  6
BYBLOCK
100
AcDbLine
 10
2344.488865411324
 20
-537.0022098913922
 30
0.0
 11
2347.088865411324
 21
-536.3055419973922
 31
0.0
  0
LINE
  5
1B039
330
18
100
AcDbEntity
  8
01
  6
BYBLOCK
100
AcDbLine
 10
2344.488865411324
 20
-537.0022098913922
 30
0.0
 11
2347.088865411324
 21
-537.0022098913922
 31
0.0
  0
LINE
  5
1B03A
330
18
100
AcDbEntity
  8
01
  6
BYBLOCK
100
AcDbLine
 10
2392.888865411324
 20
-536.3055419973922
 30
0.0
 11
2395.488865411324
 21
-537.0022098913922
 31
0.0
  0
LINE
  5
1B03B
330
18
100
AcDbEntity
  8
01
  6
BYBLOCK
100
AcDbLine
 10
2395.488865411324
 20
-537.0022098913922
 30
0.0
 11
2392.888865411324
 21
-537.6988777853923
 31
0.0
  0
LINE
  5
1B03C
330
18
100
AcDbEntity
  8
01
  6
BYBLOCK
100
AcDbLine
 10
2395.488865411324
 20
-537.0022098913922
 30
0.0
 11
2392.888865411324
 21
-537.0022098913922
 31
0.0
  0
TEXT
  5
1B03D
330
18
100
AcDbEntity
  8
01
  6
CONTINUOUS
100
AcDbText
 10
2366.93973346688
 20
-536.0922098913923
 30
0.0
 40
4.55
  1
51
100
AcDbText
1001
ACAD
1000
DSTYLE
1002
{
1070
    40
1040
1.3
1070
    45
1040
0.5
1002
}
  0
LINE
  5
1B03E
330
18
100
AcDbEntity
  8
01
  6
BYBLOCK
100
AcDbLine
 10
2309.653470433183
 20
-591.0237019760809
 30
0.0
 11
2310.350138327183
 21
-588.4237019760809
 31
0.0
  0
LINE
  5
1B03F
330
18
100
AcDbEntity
  8
01
  6
BYBLOCK
100
AcDbLine
 10
2310.350138327183
 20
-588.4237019760809
 30
0.0
 11
2311.046806221183
 21
-591.0237019760809
 31
0.0
  0
LINE
  5
1B040
330
18
100
AcDbEntity
  8
01
  6
BYBLOCK
100
AcDbLine
 10
2310.350138327183
 20
-588.4237019760809
 30
0.0
 11
2310.350138327183
 21
-591.0237019760809
 31
0.0
  0
LINE
  5
1B041
330
18
100
AcDbEntity
  8
01
  6
BYBLOCK
100
AcDbLine
 10
2311.046806221183
 20
-699.8237019760809
 30
0.0
 11
2310.350138327183
 21
-702.4237019760809
 31
0.0
  0
LINE
  5
1B042
330
18
100
AcDbEntity
  8
01
  6
BYBLOCK
100
AcDbLine
 10
2310.350138327183
 20
-702.4237019760809
 30
0.0
 11
2309.653470433183
 21
-699.8237019760809
 31
0.0
  0
LINE
  5
1B043
330
18
100
AcDbEntity
  8
01
  6
BYBLOCK
100
AcDbLine
 10
2310.350138327183
 20
-702.4237019760809
 30
0.0
 11
2310.350138327183
 21
-699.8237019760809
 31
0.0
  0
TEXT
  5
1B044
330
18
100
AcDbEntity
  8
01
  6
CONTINUOUS
100
AcDbText
 10
2309.440138327183
 20
-620.8406796281593
 30
0.0
 40
4.55
  1
114
 50
90.0
100
AcDbText
1001
ACAD
1000
DSTYLE
1002
{
1070
    40
1040
1.3
1070
    45
1040
0.5
1002
}
  0
LINE
  5
1B045
330
18
100
AcDbEntity
  8
01
  6
BYBLOCK
100
AcDbLine
 10
2319.017804599408
 20
-583.1241471204974
 30
0.0
 11
2319.714472493407
 21
-580.5241471204973
 31
0.0
  0
LINE
  5
1B046
330
18
100
AcDbEntity
  8
01
  6
BYBLOCK
100
AcDbLine
 10
2319.714472493407
 20
-580.5241471204973
 30
0.0
 11
2320.411140387407
 21
-583.1241471204974
 31
0.0
  0
LINE
  5
1B047
330
18
100
AcDbEntity
  8
01
  6
BYBLOCK
100
AcDbLine
 10
2319.714472493407
 20
-580.5241471204973
 30
0.0
 11
2319.714472493407
 21
-583.1241471204974
 31
0.0
  0
LINE
  5
1B048
330
18
100
AcDbEntity
  8
01
  6
BYBLOCK
100
AcDbLine
 10
2320.411140387407
 20
-707.7237019760807
 30
0.0
 11
2319.714472493407
 21
-710.3237019760808
 31
0.0
  0
LINE
  5
1B049
330
18
100
AcDbEntity
  8
01
  6
BYBLOCK
100
AcDbLine
 10
2319.714472493407
 20
-710.3237019760808
 30
0.0
 11
2319.017804599408
 21
-707.7237019760807
 31
0.0
  0
LINE
  5
1B04A
330
18
100
AcDbEntity
  8
01
  6
BYBLOCK
100
AcDbLine
 10
2319.714472493407
 20
-710.3237019760808
 30
0.0
 11
2319.714472493407
 21
-707.7237019760807
 31
0.0
  0
TEXT
  5
1B04B
330
18
100
AcDbEntity
  8
01
  6
CONTINUOUS
100
AcDbText
 10
2318.804472493408
 20
-621.6252436309669
 30
0.0
 40
4.55
  1
130
 50
90.0
100
AcDbText
1001
ACAD
1000
DSTYLE
1002
{
1070
    40
1040
1.3
1070
    45
1040
0.5
1002
}
  0
LINE
  5
1B04C
330
18
100
AcDbEntity
  8
01
  6
BYBLOCK
100
AcDbLine
 10
2215.588981751069
 20
-537.6988777853925
 30
0.0
 11
2212.988981751069
 21
-537.0022098913925
 31
0.0
  0
LINE
  5
1B04D
330
18
100
AcDbEntity
  8
01
  6
BYBLOCK
100
AcDbLine
 10
2212.988981751069
 20
-537.0022098913925
 30
0.0
 11
2215.588981751069
 21
-536.3055419973924
 31
0.0
  0
LINE
  5
1B04E
330
18
100
AcDbEntity
  8
01
  6
BYBLOCK
100
AcDbLine
 10
2212.988981751069
 20
-537.0022098913925
 30
0.0
 11
2215.588981751069
 21
-537.0022098913925
 31
0.0
  0
LINE
  5
1B04F
330
18
100
AcDbEntity
  8
01
  6
BYBLOCK
100
AcDbLine
 10
2235.388981751069
 20
-536.3055419973924
 30
0.0
 11
2237.988981751069
 21
-537.0022098913925
 31
0.0
  0
LINE
  5
1B050
330
18
100
AcDbEntity
  8
01
  6
BYBLOCK
100
AcDbLine
 10
2237.988981751069
 20
-537.0022098913925
 30
0.0
 11
2235.388981751069
 21
-537.6988777853925
 31
0.0
  0
LINE
  5
1B051
330
18
100
AcDbEntity
  8
01
  6
BYBLOCK
100
AcDbLine
 10
2237.988981751069
 20
-537.0022098913925
 30
0.0
 11
2235.388981751069
 21
-537.0022098913925
 31
0.0
  0
TEXT
  5
1B052
330
18
100
AcDbEntity
  8
01
  6
CONTINUOUS
100
AcDbText
 10
2221.697315084402
 20
-536.0922098913925
 30
0.0
 40
4.55
  1
25
100
AcDbText
1001
ACAD
1000
DSTYLE
1002
{
1070
    40
1040
1.3
1070
    45
1040
0.5
1002
}
  0
LINE
  5
1B053
330
18
100
AcDbEntity
  8
01
  6
BYBLOCK
100
AcDbLine
 10
2359.792197517324
 20
-642.5237019760821
 30
0.0
 11
2360.488865411324
 21
-639.923701976082
 31
0.0
  0
LINE
  5
1B054
330
18
100
AcDbEntity
  8
01
  6
BYBLOCK
100
AcDbLine
 10
2360.488865411324
 20
-639.923701976082
 30
0.0
 11
2361.185533305324
 21
-642.5237019760821
 31
0.0
  0
LINE
  5
1B055
330
18
100
AcDbEntity
  8
01
  6
BYBLOCK
100
AcDbLine
 10
2360.488865411324
 20
-639.923701976082
 30
0.0
 11
2360.488865411324
 21
-642.5237019760821
 31
0.0
  0
LINE
  5
1B056
330
18
100
AcDbEntity
  8
01
  6
BYBLOCK
100
AcDbLine
 10
2361.185533305324
 20
-690.323701976082
 30
0.0
 11
2360.488865411324
 21
-692.923701976082
 31
0.0
  0
LINE
  5
1B057
330
18
100
AcDbEntity
  8
01
  6
BYBLOCK
100
AcDbLine
 10
2360.488865411324
 20
-692.923701976082
 30
0.0
 11
2359.792197517324
 21
-690.323701976082
 31
0.0
  0
LINE
  5
1B058
330
18
100
AcDbEntity
  8
01
  6
BYBLOCK
100
AcDbLine
 10
2360.488865411324
 20
-692.923701976082
 30
0.0
 11
2360.488865411324
 21
-690.323701976082
 31
0.0
  0
TEXT
  5
1B059
330
18
100
AcDbEntity
  8
01
  6
CONTINUOUS
100
AcDbText
 10
2359.578865411324
 20
-674.4525798826794
 30
0.0
 40
4.55
  1
□53
 50
90.0
100
AcDbText
1001
ACAD
1000
DSTYLE
1002
{
1070
     3
1000
□<>
1070
    40
1040
1.3
1070
    45
1040
0.5
1002
}
  0
LINE
  5
1B05A
330
18
100
AcDbEntity
  8
1DIM
100
AcDbLine
 10
2025.488985751068
 20
-666.42370197608
 30
0.0
 11
2010.49513334878
 21
-666.42370197608
 31
0.0
1001
ACAD
1000
DSTYLE
1002
{
1070
    40
1040
1.3
1070
    45
1040
0.5
1070
   341
1005
0
1002
}
  0
LINE
  5
1B05B
330
18
100
AcDbEntity
  8
1DIM
100
AcDbLine
 10
2032.988977751069
 20
-610.9237019760798
 30
0.0
 11
2010.49513334878
 21
-610.9237019760798
 31
0.0
1001
ACAD
1000
DSTYLE
1002
{
1070
    40
1040
1.3
1070
    45
1040
0.5
1070
   341
1005
0
1002
}
  0
LINE
  5
1B05C
330
18
100
AcDbEntity
  8
1DIM
100
AcDbLine
 10
2011.79513334878
 20
-663.82370197608
 30
0.0
 11
2011.79513334878
 21
-613.5237019760798
 31
0.0
1001
ACAD
1000
DSTYLE
1002
{
1070
    40
1040
1.3
1070
    45
1040
0.5
1070
   341
1005
0
1002
}
  0
SOLID
  5
1B060
330
18
100
AcDbEntity
  8
1DIM
100
AcDbTrace
 10
2392.85871476607
 20
-442.4744590310241
 30
0.0000000000563712
 11
2395.229466651385
 21
-441.3223682029837
 31
0.0000000000563712
 12
2393.360514595992
 22
-443.1810763544753
 32
0.0000000000563712
 13
2393.360514595992
 23
-443.1810763544753
 33
0.0000000000563712
1001
ACAD
1000
DSTYLE
1002
{
1070
    40
1040
1.3
1070
    45
1040
0.5
1002
}
  0
LINE
  5
1B061
330
18
100
AcDbEntity
  8
1DIM
100
AcDbLine
 10
2393.109614681031
 20
-442.8277676927497
 30
0.0000000000563712
 11
2365.642026504342
 21
-462.3337019771089
 31
0.0000000000563712
1001
ACAD
1000
DSTYLE
1002
{
1070
    40
1040
1.3
1070
    45
1040
0.5
1002
}
  0
LINE
  5
1B062
330
18
100
AcDbEntity
  8
1DIM
100
AcDbLine
 10
2411.889749593384
 20
-386.9237019771089
 30
0.0
 11
2432.450140353097
 21
-386.9237019771089
 31
0.0
1001
ACAD
1000
DSTYLE
1002
{
1070
    45
1040
0.5
1070
    40
1040
1.3
1002
}
  0
LINE
  5
1B063
330
18
100
AcDbEntity
  8
1DIM
100
AcDbLine
 10
2413.489749593384
 20
-405.7237019771088
 30
0.0
 11
2432.450140353097
 21
-405.7237019771088
 31
0.0
1001
ACAD
1000
DSTYLE
1002
{
1070
    45
1040
0.5
1070
    40
1040
1.3
1002
}
  0
LINE
  5
1B064
330
18
100
AcDbEntity
  8
1DIM
100
AcDbLine
 10
2431.150140353097
 20
-389.5237019771089
 30
0.0
 11
2431.150140353097
 21
-403.1237019771088
 31
0.0
1001
ACAD
1000
DSTYLE
1002
{
1070
    45
1040
0.5
1070
    40
1040
1.3
1002
}
  0
LINE
  5
1B068
330
18
100
AcDbEntity
  8
1HIDDEN
100
AcDbLine
 10
2192.288019856746
 20
-665.6737019760807
 30
0.0
 11
2190.988981751069
 21
-664.9237019760807
 31
0.0
  0
LINE
  5
1B069
330
18
100
AcDbEntity
  8
1HIDDEN
100
AcDbLine
 10
2190.988981751069
 20
-664.9237019760807
 30
0.0
 11
2189.689943645392
 21
-665.6737019760807
 31
0.0
  0
LINE
  5
1B06A
330
18
100
AcDbEntity
  8
1HIDDEN
100
AcDbLine
 10
2189.689943645392
 20
-665.6737019760807
 30
0.0
 11
2189.689943645392
 21
-667.1737019760807
 31
0.0
  0
LINE
  5
1B06B
330
18
100
AcDbEntity
  8
1HIDDEN
100
AcDbLine
 10
2189.689943645392
 20
-667.1737019760807
 30
0.0
 11
2190.988981751069
 21
-667.9237019760807
 31
0.0
  0
LINE
  5
1B06C
330
18
100
AcDbEntity
  8
1HIDDEN
100
AcDbLine
 10
2190.988981751069
 20
-667.9237019760807
 30
0.0
 11
2192.288019856746
 21
-667.1737019760807
 31
0.0
  0
LINE
  5
1B06D
330
18
100
AcDbEntity
  8
1HIDDEN
100
AcDbLine
 10
2192.288019856746
 20
-667.1737019760807
 30
0.0
 11
2192.288019856746
 21
-665.6737019760807
 31
0.0
  0
LINE
  5
1B06E
330
18
100
AcDbEntity
  8
1DIM
100
AcDbLine
 10
2515.288865411323
 20
-657.0617509039786
 30
0.0
 11
2532.088865411322
 21
-657.0617509039786
 31
0.0
1001
ACAD
1000
DSTYLE
1002
{
1070
    40
1040
1.3
1070
   271
1070
     1
1002
}
  0
LINE
  5
1B06F
330
18
100
AcDbEntity
  8
1DIM
100
AcDbLine
 10
2515.288865411324
 20
-675.7856530481826
 30
0.0
 11
2532.088865411322
 21
-675.7856530481826
 31
0.0
1001
ACAD
1000
DSTYLE
1002
{
1070
    40
1040
1.3
1070
   271
1070
     1
1002
}
  0
LINE
  5
1B070
330
18
100
AcDbEntity
  8
1DIM
100
AcDbLine
 10
2530.788865411322
 20
-659.6617509039786
 30
0.0
 11
2530.788865411322
 21
-673.1856530481825
 31
0.0
1001
ACAD
1000
DSTYLE
1002
{
1070
    40
1040
1.3
1070
   271
1070
     1
1002
}
  0
LINE
  5
1B074
330
18
100
AcDbEntity
  8
1DIM
100
AcDbLine
 10
2395.488865411324
 20
-436.2162301760299
 30
0.0
 11
2395.488865411324
 21
-497.2250037171847
 31
0.0
1001
ACAD
1000
DSTYLE
1002
{
1070
    40
1040
1.3
1002
}
  0
LINE
  5
1B075
330
18
100
AcDbEntity
  8
1DIM
100
AcDbLine
 10
2515.78882287164
 20
-457.9317686316416
 30
0.0
 11
2515.78882287164
 21
-497.2250037171847
 31
0.0
1001
ACAD
1000
DSTYLE
1002
{
1070
    40
1040
1.3
1002
}
  0
LINE
  5
1B076
330
18
100
AcDbEntity
  8
1DIM
100
AcDbLine
 10
2398.088865411324
 20
-495.9250037171847
 30
0.0
 11
2513.18882287164
 21
-495.9250037171847
 31
0.0
1001
ACAD
1000
DSTYLE
1002
{
1070
    40
1040
1.3
1002
}
  0
LINE
  5
1B07A
330
18
100
AcDbEntity
  8
1DIM
100
AcDbLine
 10
2377.488865411322
 20
-425.4250202891825
 30
0.0
 11
2377.488865411322
 21
-507.2250037171847
 31
0.0
1001
ACAD
1000
DSTYLE
1002
{
1070
    40
1040
1.3
1070
   271
1070
     0
1002
}
  0
LINE
  5
1B07B
330
18
100
AcDbEntity
  8
1DIM
100
AcDbLine
 10
2515.78882287164
 20
-457.9317686316416
 30
0.0
 11
2515.78882287164
 21
-507.2250037171847
 31
0.0
1001
ACAD
1000
DSTYLE
1002
{
1070
    40
1040
1.3
1070
   271
1070
     0
1002
}
  0
LINE
  5
1B07C
330
18
100
AcDbEntity
  8
1DIM
100
AcDbLine
 10
2380.088865411322
 20
-505.9250037171847
 30
0.0
 11
2513.18882287164
 21
-505.9250037171847
 31
0.0
1001
ACAD
1000
DSTYLE
1002
{
1070
    40
1040
1.3
1070
   271
1070
     0
1002
}
  0
LINE
  5
1B080
330
18
100
AcDbEntity
  8
1DIM
100
AcDbLine
 10
2498.217218290316
 20
-416.3250195460868
 30
0.0
 11
2532.088865411322
 21
-416.3250195460868
 31
0.0
1001
ACAD
1000
DSTYLE
1002
{
1070
    40
1040
1.3
1070
    75
1070
     0
1070
    76
1070
     0
1070
   271
1070
     0
1070
   281
1070
     0
1070
   282
1070
     0
1002
}
  0
LINE
  5
1B081
330
18
100
AcDbEntity
  8
1DIM
100
AcDbLine
 10
2515.28886641824
 20
-457.4252465250778
 30
0.0
 11
2532.088865411322
 21
-457.4252465250778
 31
0.0
1001
ACAD
1000
DSTYLE
1002
{
1070
    40
1040
1.3
1070
    75
1070
     0
1070
    76
1070
     0
1070
   271
1070
     0
1070
   281
1070
     0
1070
   282
1070
     0
1002
}
  0
LINE
  5
1B082
330
18
100
AcDbEntity
  8
1DIM
100
AcDbLine
 10
2530.788865411322
 20
-418.9250195460868
 30
0.0
 11
2530.788865411322
 21
-454.8252465250778
 31
0.0
1001
ACAD
1000
DSTYLE
1002
{
1070
    40
1040
1.3
1070
    75
1070
     0
1070
    76
1070
     0
1070
   271
1070
     0
1070
   281
1070
     0
1070
   282
1070
     0
1002
}
  0
LINE
  5
1B086
330
18
100
AcDbEntity
  8
0
  6
BYBLOCK
100
AcDbLine
 10
2540.092965291427
 20
-418.9250195479408
 30
0.0000000001127424
 11
2540.789633185427
 21
-416.3250195479408
 31
0.0000000001127424
  0
LINE
  5
1B087
330
18
100
AcDbEntity
  8
0
  6
BYBLOCK
100
AcDbLine
 10
2540.789633185427
 20
-416.3250195479408
 30
0.0000000001127424
 11
2541.486301079427
 21
-418.9250195479408
 31
0.0000000001127424
  0
LINE
  5
1B088
330
18
100
AcDbEntity
  8
0
  6
BYBLOCK
100
AcDbLine
 10
2540.789633185427
 20
-416.3250195479408
 30
0.0000000001127424
 11
2540.789633185427
 21
-418.9250195479408
 31
0.0000000001127424
  0
LINE
  5
1B089
330
18
100
AcDbEntity
  8
0
  6
BYBLOCK
100
AcDbLine
 10
2541.486301079427
 20
-478.3252521570105
 30
0.0000000001127424
 11
2540.789633185427
 21
-480.9252521570105
 31
0.0000000001127424
  0
LINE
  5
1B08A
330
18
100
AcDbEntity
  8
0
  6
BYBLOCK
100
AcDbLine
 10
2540.789633185427
 20
-480.9252521570105
 30
0.0000000001127424
 11
2540.092965291427
 21
-478.3252521570105
 31
0.0000000001127424
  0
LINE
  5
1B08B
330
18
100
AcDbEntity
  8
0
  6
BYBLOCK
100
AcDbLine
 10
2540.789633185427
 20
-480.9252521570105
 30
0.0000000001127424
 11
2540.789633185427
 21
-478.3252521570105
 31
0.0000000001127424
  0
TEXT
  5
1B08C
330
18
100
AcDbEntity
  8
1DIM
  6
CONTINUOUS
100
AcDbText
 10
2466.216479525124
 20
-642.3490920052323
 30
0.0
 40
4.55
  1
材質：ABS樹脂
100
AcDbText
  0
TEXT
  5
1B08D
330
18
100
AcDbEntity
  8
1DIM
  6
CONTINUOUS
100
AcDbText
 10
2466.36814619179
 20
-649.9324253385656
 30
0.0
 40
4.55
  1
仕上げ：各種仕上げ
100
AcDbText
  0
SOLID
  5
1B08E
330
18
100
AcDbEntity
  8
1DIM
100
AcDbTrace
 10
2451.722753115169
 20
-664.739833715914
 30
0.0
 11
2449.705585282337
 21
-666.4365398519211
 31
0.0
 12
2451.06343394496
 22
-664.1773309666714
 32
0.0
 13
2451.06343394496
 23
-664.1773309666714
 33
0.0
1001
ACAD
1000
DSTYLE
1002
{
1070
    40
1040
1.3
1002
}
  0
LINE
  5
1B08F
330
18
100
AcDbEntity
  8
1DIM
100
AcDbLine
 10
2451.393093530065
 20
-664.4585823412928
 30
0.0
 11
2463.009812858457
 21
-650.8424253385656
 31
0.0
1001
ACAD
1000
DSTYLE
1002
{
1070
    40
1040
1.3
1002
}
  0
LINE
  5
1B090
330
18
100
AcDbEntity
  8
1DIM
100
AcDbLine
 10
2463.009812858457
 20
-650.8424253385656
 30
0.0
 11
2514.59814619179
 21
-650.8424253385656
 31
0.0
1001
ACAD
1000
DSTYLE
1002
{
1070
    40
1040
1.3
1002
}
  0
LINE
  5
1B091
330
18
100
AcDbEntity
  8
0
  6
BYBLOCK
100
AcDbLine
 10
2012.49180124278
 20
-663.82370197608
 30
0.0
 11
2011.79513334878
 21
-666.42370197608
 31
0.0
  0
LINE
  5
1B092
330
18
100
AcDbEntity
  8
0
  6
BYBLOCK
100
AcDbLine
 10
2011.79513334878
 20
-666.42370197608
 30
0.0
 11
2011.09846545478
 21
-663.82370197608
 31
0.0
  0
LINE
  5
1B093
330
18
100
AcDbEntity
  8
0
  6
BYBLOCK
100
AcDbLine
 10
2011.79513334878
 20
-666.42370197608
 30
0.0
 11
2011.79513334878
 21
-663.82370197608
 31
0.0
  0
LINE
  5
1B094
330
18
100
AcDbEntity
  8
0
  6
BYBLOCK
100
AcDbLine
 10
2011.09846545478
 20
-613.5237019760798
 30
0.0
 11
2011.79513334878
 21
-610.9237019760798
 31
0.0
  0
LINE
  5
1B095
330
18
100
AcDbEntity
  8
0
  6
BYBLOCK
100
AcDbLine
 10
2011.79513334878
 20
-610.9237019760798
 30
0.0
 11
2012.49180124278
 21
-613.5237019760798
 31
0.0
  0
LINE
  5
1B096
330
18
100
AcDbEntity
  8
0
  6
BYBLOCK
100
AcDbLine
 10
2011.79513334878
 20
-610.9237019760798
 30
0.0
 11
2011.79513334878
 21
-613.5237019760798
 31
0.0
  0
TEXT
  5
1B097
330
18
100
AcDbEntity
  8
1DIM
  6
CONTINUOUS
100
AcDbText
 10
2010.885133348781
 20
-645.5302991983021
 30
0.0
 40
4.55
  1
55.5
 50
90.0
100
AcDbText
1001
ACAD
1000
DSTYLE
1002
{
1070
    40
1040
1.3
1070
    45
1040
0.5
1070
   341
1005
0
1002
}
  0
LINE
  5
1B098
330
18
100
AcDbEntity
  8
0
  6
BYBLOCK
100
AcDbLine
 10
2430.453472459097
 20
-389.5237019771089
 30
0.0
 11
2431.150140353097
 21
-386.9237019771089
 31
0.0
  0
LINE
  5
1B099
330
18
100
AcDbEntity
  8
0
  6
BYBLOCK
100
AcDbLine
 10
2431.150140353097
 20
-386.9237019771089
 30
0.0
 11
2431.846808247097
 21
-389.5237019771089
 31
0.0
  0
LINE
  5
1B09A
330
18
100
AcDbEntity
  8
0
  6
BYBLOCK
100
AcDbLine
 10
2431.150140353097
 20
-386.9237019771089
 30
0.0
 11
2431.150140353097
 21
-389.5237019771089
 31
0.0
  0
LINE
  5
1B09B
330
18
100
AcDbEntity
  8
0
  6
BYBLOCK
100
AcDbLine
 10
2431.846808247097
 20
-403.1237019771088
 30
0.0
 11
2431.150140353097
 21
-405.7237019771088
 31
0.0
  0
LINE
  5
1B09C
330
18
100
AcDbEntity
  8
0
  6
BYBLOCK
100
AcDbLine
 10
2431.150140353097
 20
-405.7237019771088
 30
0.0
 11
2430.453472459097
 21
-403.1237019771088
 31
0.0
  0
LINE
  5
1B09D
330
18
100
AcDbEntity
  8
0
  6
BYBLOCK
100
AcDbLine
 10
2431.150140353097
 20
-405.7237019771088
 30
0.0
 11
2431.150140353097
 21
-403.1237019771088
 31
0.0
  0
TEXT
  5
1B09E
330
18
100
AcDbEntity
  8
1DIM
  6
CONTINUOUS
100
AcDbText
 10
2430.240140353097
 20
-399.3580885511833
 30
0.0
 40
4.55
  1
19
 50
90.0
100
AcDbText
1001
ACAD
1000
DSTYLE
1002
{
1070
    45
1040
0.5
1070
    40
1040
1.3
1002
}
  0
LINE
  5
1B09F
330
18
100
AcDbEntity
  8
0
  6
BYBLOCK
100
AcDbLine
 10
2530.092197517322
 20
-659.6617509039786
 30
0.0
 11
2530.788865411322
 21
-657.0617509039786
 31
0.0
  0
LINE
  5
1B0A0
330
18
100
AcDbEntity
  8
0
  6
BYBLOCK
100
AcDbLine
 10
2530.788865411322
 20
-657.0617509039786
 30
0.0
 11
2531.485533305321
 21
-659.6617509039786
 31
0.0
  0
LINE
  5
1B0A1
330
18
100
AcDbEntity
  8
0
  6
BYBLOCK
100
AcDbLine
 10
2530.788865411322
 20
-657.0617509039786
 30
0.0
 11
2530.788865411322
 21
-659.6617509039786
 31
0.0
  0
LINE
  5
1B0A2
330
18
100
AcDbEntity
  8
0
  6
BYBLOCK
100
AcDbLine
 10
2531.485533305321
 20
-673.1856530481825
 30
0.0
 11
2530.788865411322
 21
-675.7856530481826
 31
0.0
  0
LINE
  5
1B0A3
330
18
100
AcDbEntity
  8
0
  6
BYBLOCK
100
AcDbLine
 10
2530.788865411322
 20
-675.7856530481826
 30
0.0
 11
2530.092197517322
 21
-673.1856530481825
 31
0.0
  0
LINE
  5
1B0A4
330
18
100
AcDbEntity
  8
0
  6
BYBLOCK
100
AcDbLine
 10
2530.788865411322
 20
-675.7856530481826
 30
0.0
 11
2530.788865411322
 21
-673.1856530481825
 31
0.0
  0
TEXT
  5
1B0A5
330
18
100
AcDbEntity
  8
1DIM
  6
CONTINUOUS
100
AcDbText
 10
2529.878865411322
 20
-672.490368642747
 30
0.0
 40
4.55
  1
18.5
 50
90.0
100
AcDbText
1001
ACAD
1000
DSTYLE
1002
{
1070
    40
1040
1.3
1070
   271
1070
     1
1002
}
  0
LINE
  5
1B0A6
330
18
100
AcDbEntity
  8
0
  6
BYBLOCK
100
AcDbLine
 10
2398.088865411324
 20
-496.6216716111847
 30
0.0
 11
2395.488865411324
 21
-495.9250037171847
 31
0.0
  0
LINE
  5
1B0A7
330
18
100
AcDbEntity
  8
0
  6
BYBLOCK
100
AcDbLine
 10
2395.488865411324
 20
-495.9250037171847
 30
0.0
 11
2398.088865411324
 21
-495.2283358231848
 31
0.0
  0
LINE
  5
1B0A8
330
18
100
AcDbEntity
  8
0
  6
BYBLOCK
100
AcDbLine
 10
2395.488865411324
 20
-495.9250037171847
 30
0.0
 11
2398.088865411324
 21
-495.9250037171847
 31
0.0
  0
LINE
  5
1B0A9
330
18
100
AcDbEntity
  8
0
  6
BYBLOCK
100
AcDbLine
 10
2513.18882287164
 20
-495.2283358231848
 30
0.0
 11
2515.78882287164
 21
-495.9250037171847
 31
0.0
  0
LINE
  5
1B0AA
330
18
100
AcDbEntity
  8
0
  6
BYBLOCK
100
AcDbLine
 10
2515.78882287164
 20
-495.9250037171847
 30
0.0
 11
2513.18882287164
 21
-496.6216716111847
 31
0.0
  0
LINE
  5
1B0AB
330
18
100
AcDbEntity
  8
0
  6
BYBLOCK
100
AcDbLine
 10
2515.78882287164
 20
-495.9250037171847
 30
0.0
 11
2513.18882287164
 21
-495.9250037171847
 31
0.0
  0
TEXT
  5
1B0AC
330
18
100
AcDbEntity
  8
1DIM
  6
CONTINUOUS
100
AcDbText
 10
2447.676344141482
 20
-495.0150037171848
 30
0.0
 40
4.55
  1
120.5
100
AcDbText
1001
ACAD
1000
DSTYLE
1002
{
1070
    40
1040
1.3
1002
}
  0
LINE
  5
1B0AD
330
18
100
AcDbEntity
  8
0
  6
BYBLOCK
100
AcDbLine
 10
2380.088865411322
 20
-506.6216716111847
 30
0.0
 11
2377.488865411322
 21
-505.9250037171847
 31
0.0
  0
LINE
  5
1B0AE
330
18
100
AcDbEntity
  8
0
  6
BYBLOCK
100
AcDbLine
 10
2377.488865411322
 20
-505.9250037171847
 30
0.0
 11
2380.088865411322
 21
-505.2283358231848
 31
0.0
  0
LINE
  5
1B0AF
330
18
100
AcDbEntity
  8
0
  6
BYBLOCK
100
AcDbLine
 10
2377.488865411322
 20
-505.9250037171847
 30
0.0
 11
2380.088865411322
 21
-505.9250037171847
 31
0.0
  0
LINE
  5
1B0B0
330
18
100
AcDbEntity
  8
0
  6
BYBLOCK
100
AcDbLine
 10
2513.18882287164
 20
-505.2283358231848
 30
0.0
 11
2515.78882287164
 21
-505.9250037171847
 31
0.0
  0
LINE
  5
1B0B1
330
18
100
AcDbEntity
  8
0
  6
BYBLOCK
100
AcDbLine
 10
2515.78882287164
 20
-505.9250037171847
 30
0.0
 11
2513.18882287164
 21
-506.6216716111847
 31
0.0
  0
LINE
  5
1B0B2
330
18
100
AcDbEntity
  8
0
  6
BYBLOCK
100
AcDbLine
 10
2515.78882287164
 20
-505.9250037171847
 30
0.0
 11
2513.18882287164
 21
-505.9250037171847
 31
0.0
  0
TEXT
  5
1B0B3
330
18
100
AcDbEntity
  8
1DIM
  6
CONTINUOUS
100
AcDbText
 10
2438.297177474814
 20
-505.0150037171848
 30
0.0
 40
4.55
  1
138.5
100
AcDbText
1001
ACAD
1000
DSTYLE
1002
{
1070
    40
1040
1.3
1070
   271
1070
     0
1002
}
  0
LINE
  5
1B0B4
330
18
100
AcDbEntity
  8
0
  6
BYBLOCK
100
AcDbLine
 10
2530.092197517322
 20
-418.9250195460868
 30
0.0
 11
2530.788865411322
 21
-416.3250195460868
 31
0.0
  0
LINE
  5
1B0B5
330
18
100
AcDbEntity
  8
0
  6
BYBLOCK
100
AcDbLine
 10
2530.788865411322
 20
-416.3250195460868
 30
0.0
 11
2531.485533305321
 21
-418.9250195460868
 31
0.0
  0
LINE
  5
1B0B6
330
18
100
AcDbEntity
  8
0
  6
BYBLOCK
100
AcDbLine
 10
2530.788865411322
 20
-416.3250195460868
 30
0.0
 11
2530.788865411322
 21
-418.9250195460868
 31
0.0
  0
LINE
  5
1B0B7
330
18
100
AcDbEntity
  8
0
  6
BYBLOCK
100
AcDbLine
 10
2531.485533305321
 20
-454.8252465250778
 30
0.0
 11
2530.788865411322
 21
-457.4252465250778
 31
0.0
  0
LINE
  5
1B0B8
330
18
100
AcDbEntity
  8
0
  6
BYBLOCK
100
AcDbLine
 10
2530.788865411322
 20
-457.4252465250778
 30
0.0
 11
2530.092197517322
 21
-454.8252465250778
 31
0.0
  0
LINE
  5
1B0B9
330
18
100
AcDbEntity
  8
0
  6
BYBLOCK
100
AcDbLine
 10
2530.788865411322
 20
-457.4252465250778
 30
0.0
 11
2530.788865411322
 21
-454.8252465250778
 31
0.0
  0
TEXT
  5
1B0BA
330
18
100
AcDbEntity
  8
1DIM
  6
CONTINUOUS
100
AcDbText
 10
2529.878865411322
 20
-439.9084663689155
 30
0.0
 40
4.55
  1
41
 50
90.0
100
AcDbText
1001
ACAD
1000
DSTYLE
1002
{
1070
    40
1040
1.3
1070
    75
1070
     0
1070
    76
1070
     0
1070
   271
1070
     0
1070
   281
1070
     0
1070
   282
1070
     0
1002
}
  0
VIEWPORT
  5
57
330
15
100
AcDbEntity
 67
     1
  8
0
100
AcDbViewport
 68
     1
 10
0.0
 20
0.0
 30
0.0
 40
555.8298653610772
 41
297.0
 68
     1
 69
     1
1001
ACAD
1000
MVIEW
1002
{
1070
    16
1010
0.0
1020
0.0
1030
0.0
1010
0.0
1020
0.0
1030
1.0
1040
0.0
1040
297.0
1040
1.837278951023421
1040
12.29366132359621
1040
50.0
1040
0.0
1040
0.0
1070
    16
1070
   100
1070
     0
1070
     1
1070
     0
1070
     0
1070
     0
1070
     0
1040
0.0
1040
0.0
1040
0.0
1040
10.0
1040
10.0
1040
10.0
1040
10.0
1070
     0
1002
{
1002
}
1002
}
  0
ENDSEC
  0
SECTION
  2
OBJECTS
  0
DICTIONARY
  5
C
330
0
100
AcDbDictionary
  3
ACAD_COLOR
350
18D
  3
ACAD_GROUP
350
D
  3
ACAD_LAYOUT
350
18E
  3
ACAD_MATERIAL
350
18C
  3
ACAD_MLEADERSTYLE
350
D9E7
  3
ACAD_MLINESTYLE
350
1B
  3
ACAD_PLOTSETTINGS
350
18F
  3
ACAD_SCALELIST
350
D9C5
  3
ACAD_VISUALSTYLE
350
D9B4
  3
ACDBHEADERROUNDTRIPXREC
350
1B0BB
  3
ACDBVARIABLEDICTIONARY
350
37
  3
CONTENTDICTIONARY
350
D8
  3
DRAWINGVARIABLESDICT
350
20
  3
DWGPROPS
350
1B0BE
1001
ACAD
1000
TREAT_AS_HARD
1070
     0
  0
DICTIONARY
  5
E6A6
330
2
100
AcDbDictionary
  3
ACAD_LAYERSTATES
360
E6A7
1001
ACAD
1000
TREAT_AS_HARD
1070
     1
  0
DICTIONARY
  5
DA05
330
E
100
AcDbDictionary
  3
ADSK_XREC_LAYER_RECONCILED
360
DA06
1001
ACAD
1000
TREAT_AS_HARD
1070
     1
  0
DICTIONARY
  5
DA07
330
29
100
AcDbDictionary
  3
ADSK_XREC_LAYER_RECONCILED
360
DA08
1001
ACAD
1000
TREAT_AS_HARD
1070
     1
  0
DICTIONARY
  5
DA09
330
31
100
AcDbDictionary
  3
ADSK_XREC_LAYER_RECONCILED
360
DA0A
1001
ACAD
1000
TREAT_AS_HARD
1070
     1
  0
DICTIONARY
  5
DA0F
330
243
100
AcDbDictionary
  3
ADSK_XREC_LAYER_RECONCILED
360
DA10
1001
ACAD
1000
TREAT_AS_HARD
1070
     1
  0
DICTIONARY
  5
DA15
330
24E
100
AcDbDictionary
  3
ADSK_XREC_LAYER_RECONCILED
360
DA16
1001
ACAD
1000
TREAT_AS_HARD
1070
     1
  0
DICTIONARY
  5
DA23
330
2C05
100
AcDbDictionary
  3
ADSK_XREC_LAYER_RECONCILED
360
DA24
1001
ACAD
1000
TREAT_AS_HARD
1070
     1
  0
DICTIONARY
  5
88F
330
18
100
AcDbDictionary
  3
ACAD_SORTENTS
360
890
1001
ACAD
1000
TREAT_AS_HARD
1070
     1
  0
DICTIONARY
  5
18D
102
{ACAD_REACTORS
330
C
102
}
330
C
100
AcDbDictionary
1001
ACAD
1000
TREAT_AS_HARD
1070
     0
  0
DICTIONARY
  5
D
102
{ACAD_REACTORS
330
C
102
}
330
C
100
AcDbDictionary
1001
ACAD
1000
TREAT_AS_HARD
1070
     0
  0
DICTIONARY
  5
18E
102
{ACAD_REACTORS
330
C
102
}
330
C
100
AcDbDictionary
1001
ACAD
1000
TREAT_AS_HARD
1070
     0
  0
DICTIONARY
  5
18C
102
{ACAD_REACTORS
330
C
102
}
330
C
100
AcDbDictionary
  3
BYBLOCK
350
D9A4
  3
BYLAYER
350
D99C
  3
GLOBAL
350
D9AC
1001
ACAD
1000
TREAT_AS_HARD
1070
     0
  0
DICTIONARY
  5
D9E7
102
{ACAD_REACTORS
330
C
102
}
330
C
100
AcDbDictionary
  3
STANDARD
350
D9E8
1001
ACAD
1000
TREAT_AS_HARD
1070
     0
  0
DICTIONARY
  5
1B
102
{ACAD_REACTORS
330
C
102
}
330
C
100
AcDbDictionary
  3
STANDARD
350
1C
1001
ACAD
1000
TREAT_AS_HARD
1070
     0
  0
DICTIONARY
  5
18F
102
{ACAD_REACTORS
330
C
102
}
330
C
100
AcDbDictionary
1001
ACAD
1000
TREAT_AS_HARD
1070
     0
  0
DICTIONARY
  5
D9C5
102
{ACAD_REACTORS
330
C
102
}
330
C
100
AcDbDictionary
  3
A0
350
D9C6
  3
A1
350
D9C7
  3
A2
350
D9C8
  3
A3
350
D9C9
  3
A4
350
D9CA
  3
A5
350
D9CB
  3
A6
350
D9CC
  3
A7
350
D9CD
  3
A8
350
D9CE
  3
A9
350
D9CF
  3
B0
350
D9D0
  3
B1
350
D9D1
  3
B2
350
D9D2
  3
B3
350
D9D3
  3
B4
350
D9D4
  3
B5
350
D9D5
  3
B6
350
D9D6
  3
B7
350
D9D7
  3
B8
350
D9D8
  3
B9
350
D9D9
  3
C0
350
D9DA
  3
C1
350
D9DB
  3
C2
350
D9DC
  3
C3
350
D9DD
  3
C4
350
D9DE
  3
C5
350
D9DF
  3
C6
350
D9E0
  3
C7
350
D9E1
  3
C8
350
D9E2
  3
C9
350
D9E3
  3
D0
350
D9E4
  3
D1
350
D9E5
  3
D2
350
D9E6
1001
ACAD
1000
TREAT_AS_HARD
1070
     0
  0
DICTIONARY
  5
D9B4
102
{ACAD_REACTORS
330
C
102
}
330
C
100
AcDbDictionary
  3
2DWIREFRAME
350
D9BA
  3
3D_HIDDEN
350
D9BC
  3
3DWIREFRAME
350
D9BB
  3
BASIC
350
D9B9
  3
BRIGHTEN
350
D9C0
  3
COLORCHANGE
350
D9C4
  3
CONCEPTUAL
350
D9BD
  3
DIM
350
D9BF
  3
EDGECOLOROFF
350
19C2F
  3
FACEPATTERN
350
D9C3
  3
FLAT
350
D9B5
  3
FLATWITHEDGES
350
D9B6
  3
GOURAUD
350
D9B7
  3
GOURAUDWITHEDGES
350
D9B8
  3
HIDDEN
350
19C7E
  3
JITTEROFF
350
19C2D
  3
LINEPATTERN
350
D9C2
  3
MODELING
350
19C84
  3
OVERHANGOFF
350
19C2E
  3
REALISTIC
350
D9BE
  3
SHADED
350
19C83
  3
SHADED_WITH_EDGES
350
19C82
  3
SHADES_OF_GRAY
350
19C7F
  3
SKETCHY
350
19C80
  3
THICKEN
350
D9C1
  3
WIREFRAME
350
19C7D
  3
X-RAY
350
19C81
1001
ACAD
1000
TREAT_AS_HARD
1070
     0
  0
DICTIONARY
  5
1B0BB
102
{ACAD_REACTORS
330
C
102
}
330
C
100
AcDbDictionary
  3
COLORDICT
350
1B0BC
  3
MATERIALDICT
350
1B0BD
1001
ACAD
1000
TREAT_AS_HARD
1070
     0
  0
DICTIONARY
  5
37
102
{ACAD_REACTORS
330
C
102
}
330
C
100
AcDbDictionary
  3
CANNOSCALE
350
1A5BC
  3
CMLEADERSTYLE
350
DA6A
  3
CTABLESTYLE
350
29E
  3
DIMADEC
350
38
  3
DIMASSOC
350
1CE
  3
HIDETEXT
350
704E
  3
INDEXCTL
350
DA6D
  3
INTERSECTIONCOLOR
350
7052
  3
INTERSECTIONDISPLAY
350
7051
  3
MSLTSCALE
350
1A60C
  3
OBSCOLOR
350
704F
  3
OBSLTYPE
350
7050
  3
PROJECTNAME
350
1CF
  3
SORTENTS
350
DA6C
  3
XCLIPFRAME
350
19C7C
1001
ACAD
1000
TREAT_AS_HARD
1070
     0
  0
DICTIONARY
  5
D8
102
{ACAD_REACTORS
330
C
102
}
330
C
100
AcDbDictionary
1001
ACAD
1000
TREAT_AS_HARD
1070
     0
  0
DICTIONARY
  5
20
102
{ACAD_REACTORS
330
C
102
}
330
C
100
AcDbDictionary
1001
DRAWINGVARIABLESXDATA
1000
POLARANG
1000
0.261799387799149410000000
1000
POLARMODE
1000
1
1000
POLARSTYLE
1000
1
1001
ACAD
1000
TREAT_AS_HARD
1070
     0
  0
XRECORD
  5
1B0BE
102
{ACAD_REACTORS
330
C
102
}
330
C
100
AcDbXrecord
  1
DWGPROPS COOKIE
  2

  3

  4

  6

  7

  8
3684
  9

300
=
301
=
302
=
303
=
304
=
305
=
306
=
307
=
308
=
309
=
 40
0.0
 41
2451318.246352917
 42
2458159.232772743
  1

 90
        0
  0
DICTIONARY
  5
E6A7
102
{ACAD_REACTORS
330
E6A6
102
}
330
E6A6
100
AcDbDictionary
1001
ACAD
1000
TREAT_AS_HARD
1070
     0
  0
ACAD_PROXY_OBJECT
  5
DA06
102
{ACAD_REACTORS
330
DA05
102
}
330
DA05
100
AcDbZombieObject
 90
      499
 91
      514
 93
       34
310
40C8804040
  0
ACAD_PROXY_OBJECT
  5
DA08
102
{ACAD_REACTORS
330
DA07
102
}
330
DA07
100
AcDbZombieObject
 90
      499
 91
      514
 93
       34
310
40C8804040
  0
ACAD_PROXY_OBJECT
  5
DA0A
102
{ACAD_REACTORS
330
DA09
102
}
330
DA09
100
AcDbZombieObject
 90
      499
 91
      514
 93
       34
310
40C8804040
  0
ACAD_PROXY_OBJECT
  5
DA10
102
{ACAD_REACTORS
330
DA0F
102
}
330
DA0F
100
AcDbZombieObject
 90
      499
 91
      514
 93
       34
310
40C8804040
  0
ACAD_PROXY_OBJECT
  5
DA16
102
{ACAD_REACTORS
330
DA15
102
}
330
DA15
100
AcDbZombieObject
 90
      499
 91
      514
 93
       34
310
40C8804040
  0
ACAD_PROXY_OBJECT
  5
DA24
102
{ACAD_REACTORS
330
DA23
102
}
330
DA23
100
AcDbZombieObject
 90
      499
 91
      514
 93
       34
310
40C8804040
  0
SORTENTSTABLE
  5
890
102
{ACAD_REACTORS
330
88F
102
}
330
88F
100
AcDbSortentsTable
330
18
331
0
  5
5BFF
331
0
  5
1ABBA
331
1AB94
  5
1ABC8
331
1AB95
  5
1ABC9
331
1AB96
  5
1ABCA
331
1AB97
  5
1ABCB
331
1AB98
  5
1ABCC
331
1AB99
  5
1ABCD
331
1AB9A
  5
1ABCE
331
1AB9B
  5
1ABCF
331
1AB9C
  5
1ABD0
331
1AB9D
  5
1ABD1
331
1AB9E
  5
1ABD2
331
1AB9F
  5
1ABD3
331
1ABA0
  5
1ABD4
331
1ABA1
  5
1ABD5
331
1ABA2
  5
1ABD6
331
1ABA3
  5
1ABD7
331
1ABA4
  5
1ABD8
331
1ABA5
  5
1ABD9
331
1ABA6
  5
1ABDA
331
1ABA7
  5
1ABDB
331
1ABA8
  5
1ABDC
331
1ABA9
  5
1ABDD
331
1ABAA
  5
1ABDE
331
1ABAB
  5
1ABDF
331
1ABAC
  5
1ABE0
331
1ABAD
  5
1ABE1
331
1ABAE
  5
1ABE2
331
1ABAF
  5
1ABE3
331
1ABB0
  5
1ABE4
331
1ABB1
  5
1ABE5
331
1ABB2
  5
1ABE6
331
1ABB3
  5
1ABE7
331
1ABB4
  5
1ABE8
331
1ABB5
  5
1ABE9
331
1ABB6
  5
1ABEA
331
1ABB7
  5
1ABEB
331
1ABB8
  5
1ABEC
331
1ABB9
  5
1ABED
331
1ABBA
  5
1ABEE
331
1ABBB
  5
1ABEF
331
1ABBC
  5
1ABF0
331
1ABBD
  5
1ABF1
331
1ABBE
  5
1ABF2
331
1ABBF
  5
1ABF3
331
1ABC0
  5
1ABF4
331
1ABC1
  5
1ABF5
331
1ABC2
  5
1ABF6
331
1ABC3
  5
1ABF7
331
1ABC4
  5
1ABF8
331
1ABC5
  5
1ABF9
331
1ABC6
  5
1ABFA
331
1ABC7
  5
1ABFB
331
1ABC8
  5
1ABFE
331
1ABC9
  5
1AC00
331
1ABCA
  5
1AC01
331
1ABCB
  5
1AC02
331
1ABCC
  5
1AC06
331
1ABCD
  5
1AC07
331
1ABCE
  5
1AC08
331
1ABCF
  5
1AC09
331
1ABD0
  5
1AC0A
331
1ABD1
  5
1AC0B
331
1ABD2
  5
1AC0C
331
1ABD3
  5
1AC0D
331
1ABD4
  5
1AC0E
331
1ABD5
  5
1AC0F
331
1ABD6
  5
1AC10
331
1ABD7
  5
1AC11
331
1ABD8
  5
1AC12
331
1ABD9
  5
1AC13
331
1ABDA
  5
1AC14
331
1ABDB
  5
1AC15
331
1ABDC
  5
1AC16
331
1ABDD
  5
1AC1A
331
1ABDE
  5
1AC1B
331
1ABDF
  5
1AC1C
331
1ABE0
  5
1AC1D
331
1ABE1
  5
1AC1E
331
1ABE2
  5
1AC1F
331
1ABE3
  5
1AC23
331
1ABE4
  5
1AC24
331
1ABE5
  5
1AC25
331
1ABE6
  5
1AC26
331
1ABE7
  5
1AC27
331
1ABE8
  5
1AC28
331
1ABE9
  5
1AC2C
331
1ABEA
  5
1AC2D
331
1ABEB
  5
1AC2E
331
1ABEC
  5
1AC32
331
1ABED
  5
1AC33
331
1ABEE
  5
1AC34
331
1ABEF
  5
1AC38
331
1ABF0
  5
1AC39
331
1ABF1
  5
1AC3A
331
1ABF2
  5
1AC3B
331
1ABF3
  5
1AC3C
331
1ABF4
  5
1AC3D
331
1ABF5
  5
1AC3E
331
1ABF6
  5
1AC3F
331
1ABF7
  5
1AC40
331
1ABF8
  5
1AC41
331
1ABF9
  5
1AC42
331
1ABFA
  5
1AC43
331
1ABFB
  5
1AC45
331
0
  5
1AC44
331
1AC00
  5
1AC5E
331
1AC01
  5
1AC5F
331
1AC02
  5
1AC60
331
1AC06
  5
1AC82
331
1AC07
  5
1AC83
331
1AC08
  5
1AC84
331
1AC09
  5
1AC85
331
1AC0A
  5
1AC86
331
1AC0B
  5
1AC87
331
1AC0C
  5
1AC88
331
1AC0D
  5
1AC89
331
1AC0E
  5
1AC8A
331
1AC0F
  5
1AC8B
331
1AC10
  5
1AC8C
331
1AC11
  5
1AC8D
331
1AC12
  5
1AC8E
331
1AC13
  5
1AC8F
331
1AC14
  5
1AC90
331
1AC15
  5
1AC91
331
1AC16
  5
1AC92
331
1AC17
  5
1AC93
331
1AC18
  5
1AC94
331
1AC19
  5
1AC95
331
1AC1A
  5
1AC96
331
1AC1B
  5
1AC97
331
1AC1C
  5
1AC98
331
1AC1D
  5
1AC99
331
1AC1E
  5
1AC9A
331
1AC1F
  5
1AC9B
331
1AC20
  5
1AC9C
331
1AC21
  5
1AC9D
331
1AC22
  5
1AC9E
331
1AC23
  5
1AC9F
331
1AC24
  5
1ACA0
331
1AC25
  5
1ACA1
331
1AC26
  5
1ACA2
331
1AC27
  5
1ACA6
331
1AC28
  5
1ACA7
331
1AC29
  5
1ACA8
331
1AC2A
  5
1ACAC
331
1AC2B
  5
1ACAD
331
1AC2C
  5
1ACAE
331
1AC2D
  5
1ACB2
331
1AC2E
  5
1ACB3
331
1AC2F
  5
1ACB4
331
1AC30
  5
1ACB5
331
1AC31
  5
1ACB6
331
1AC32
  5
1ACB7
331
1AC33
  5
1ACB8
331
1AC34
  5
1ACB9
331
1AC35
  5
1ACBA
331
1AC36
  5
1ACBB
331
1AC37
  5
1ACBE
331
1AC38
  5
1ACBF
331
1AC39
  5
1ACC0
331
1AC3A
  5
1ACC1
331
1AC3B
  5
1ACC2
331
1AC3C
  5
1ACC3
331
1AC3D
  5
1ACC4
331
1AC3E
  5
1ACC5
331
1AC3F
  5
1ACC6
331
1AC40
  5
1ACC7
331
1AC41
  5
1ACC8
331
1AC42
  5
1ACCC
331
1AC43
  5
1ACCD
331
1AC44
  5
1ACCE
331
1AC45
  5
1ACCF
331
0
  5
1ACBD
331
1AC47
  5
1ACDA
331
1AC48
  5
1ACDB
331
1AC49
  5
1ACDC
331
1AC4A
  5
1ACDD
331
1AC4B
  5
1ACDE
331
1AC4C
  5
1ACDF
331
1AC4D
  5
1ACE0
331
1AC4E
  5
1ACE1
331
1AC4F
  5
1ACE2
331
1AC50
  5
1ACE3
331
1AC51
  5
1ACE4
331
1AC52
  5
1ACE5
331
1AC53
  5
1ACE6
331
1AC54
  5
1ACE7
331
1AC55
  5
1ACE8
331
1AC56
  5
1ACE9
331
1AC57
  5
1ACEA
331
1AC58
  5
1ACEB
331
1AC59
  5
1ACEC
331
1AC5A
  5
1ACED
331
1AC5B
  5
1ACEE
331
1AC5C
  5
1ACEF
331
1AC5D
  5
1ACF0
331
1AC5E
  5
1ACF1
331
1AC5F
  5
1ACF2
331
1AC60
  5
1ACF3
331
1AC61
  5
1ACF4
331
1AC62
  5
1ACF5
331
1AC63
  5
1ACF6
331
1AC64
  5
1ACF7
331
1AC65
  5
1ACF8
331
1AC66
  5
1ACF9
331
1AC67
  5
1ACFA
331
1AC68
  5
1ACFB
331
1AC69
  5
1ACFC
331
1AC6A
  5
1ACFD
331
1AC6E
  5
1AD20
331
1AC6F
  5
1AD21
331
1AC70
  5
1AD22
331
1AC71
  5
1AD23
331
1AC72
  5
1AD24
331
1AC73
  5
1AD25
331
1AC74
  5
1AD26
331
1AC75
  5
1AD27
331
1AC76
  5
1AD28
331
1AC77
  5
1AD29
331
1AC78
  5
1AD2A
331
0
  5
1AD0E
331
1AC7A
  5
1AD31
331
1AC7B
  5
1AD32
331
1AC7C
  5
1AD33
331
1AC7D
  5
1AD34
331
1AC7E
  5
1AD35
331
1AC7F
  5
1AD36
331
1AC80
  5
1AD37
331
1AC81
  5
1AD38
331
1AC82
  5
1AD39
331
1AC83
  5
1AD3A
331
1AC84
  5
1AD3B
331
1AC85
  5
1AD3C
331
1AC86
  5
1AD3D
331
1AC87
  5
1AD3E
331
1AC88
  5
1AD3F
331
1AC89
  5
1AD40
331
1AC8A
  5
1AD41
331
1AC8B
  5
1AD42
331
1AC8C
  5
1AD43
331
1AC8D
  5
1AD44
331
1AC8E
  5
1AD45
331
1AC8F
  5
1AD46
331
1AC90
  5
1AD47
331
1AC91
  5
1AD48
331
1AC92
  5
1AD49
331
1AC93
  5
1AD4A
331
1AC94
  5
1AD4B
331
1AC95
  5
1AD4C
331
1AC96
  5
1AD4D
331
1AC97
  5
1AD4E
331
1AC98
  5
1AD4F
331
1AC99
  5
1AD50
331
1AC9A
  5
1AD51
331
1AC9B
  5
1AD52
331
1AC9C
  5
1AD53
331
1AC9D
  5
1AD54
331
1AC9E
  5
1AD55
331
1AC9F
  5
1AD56
331
1ACA0
  5
1AD57
331
1ACA1
  5
1AD58
331
1ACA2
  5
1AD59
331
1ACA3
  5
1AD5A
331
1ACA4
  5
1AD5B
331
1ACA5
  5
1AD5C
331
1ACA6
  5
1AD5D
331
1ACA7
  5
1AD5E
331
1ACA8
  5
1AD5F
331
1ACA9
  5
1AD60
331
1ACAA
  5
1AD61
331
1ACAB
  5
1AD62
331
1ACAC
  5
1AD63
331
1ACAD
  5
1AD64
331
1ACAE
  5
1AD65
331
1ACAF
  5
1AD66
331
1ACB0
  5
1AD67
331
1ACB1
  5
1AD68
331
1ACB2
  5
1AD69
331
1ACB3
  5
1AD6A
331
1ACB4
  5
1AD6B
331
1ACB5
  5
1AD6C
331
1ACB6
  5
1AD6D
331
1ACB7
  5
1AD6E
331
1ACB8
  5
1AD70
331
1ACB9
  5
1AD71
331
1ACBA
  5
1AD72
331
1ACBB
  5
1AD73
331
1ACBD
  5
1AD7E
331
1ACBE
  5
1AD7F
331
1ACBF
  5
1AD80
331
1ACC0
  5
1AD81
331
1ACC1
  5
1AD82
331
1ACC2
  5
1AD83
331
1ACC3
  5
1AD84
331
1ACC4
  5
1AD85
331
1ACC5
  5
1AD86
331
1ACC6
  5
1AD8A
331
1ACC7
  5
1AD8B
331
1ACC8
  5
1AD8C
331
1ACC9
  5
1AD8D
331
1ACCA
  5
1AD8E
331
1ACCB
  5
1AD8F
331
1ACCC
  5
1AD90
331
1ACCD
  5
1AD91
331
1ACCE
  5
1AD92
331
1ACCF
  5
1AD93
331
1ACD0
  5
1AD94
331
0
  5
1AD6F
331
1ACD2
  5
1AD9F
331
1ACD3
  5
1ADA0
331
1ACD4
  5
1ADA1
331
1ACD5
  5
1ADA2
331
1ACD6
  5
1ADA3
331
1ACD7
  5
1ADA4
331
1ACD8
  5
1ADA5
331
1ACD9
  5
1ADA6
331
1ACDA
  5
1ADA7
331
1ACDB
  5
1ADA8
331
1ACDC
  5
1ADA9
331
1ACDD
  5
1ADAA
331
1ACDE
  5
1ADAB
331
1ACDF
  5
1ADAC
331
1ACE0
  5
1ADAD
331
1ACE1
  5
1ADAE
331
1ACE2
  5
1ADAF
331
1ACE3
  5
1ADB0
331
1ACE4
  5
1ADB1
331
1ACE5
  5
1ADB2
331
1ACE6
  5
1ADB3
331
1ACE7
  5
1ADB7
331
1ACE8
  5
1ADB8
331
1ACE9
  5
1ADB9
331
1ACEA
  5
1AFBC
331
1ACEB
  5
1AFBD
331
1ACEC
  5
1AFBE
331
1ACED
  5
1AFBF
331
1ACEE
  5
1AFC0
331
1ACEF
  5
1AFC1
331
1ACF0
  5
1AFC2
331
1ACF1
  5
1AFC3
331
1ACF2
  5
1AFC4
331
1ACF3
  5
1AFC5
331
1ACF4
  5
1AFC6
331
1ACF5
  5
1AFC7
331
1ACF6
  5
1AFC8
331
1ACF7
  5
1AFC9
331
1ACF8
  5
1AFCA
331
1ACF9
  5
1AFCB
331
1ACFA
  5
1AFCC
331
1ACFB
  5
1AFCD
331
1ACFC
  5
1AFCE
331
1ACFD
  5
1AFCF
331
1ACFE
  5
1AFD0
331
1ACFF
  5
1AFD1
331
1AD00
  5
1AFD2
331
1AD01
  5
1AFD3
331
1AD02
  5
1AFD4
331
1AD03
  5
1AFD5
331
1AD04
  5
1AFD9
331
1AD05
  5
1AFDA
331
1AD06
  5
1AFDD
331
1AD07
  5
1AFE1
331
1AD08
  5
1AFE2
331
1AD09
  5
1AFE3
331
1AD0A
  5
1AFE7
331
1AD0B
  5
1AFE8
331
1AD0C
  5
1AFE9
331
1AD0D
  5
1AFEA
331
1AD0E
  5
1AFEB
331
1AD0F
  5
1AFEC
331
1AD10
  5
1AFED
331
1AD11
  5
1AFEE
331
1AD12
  5
1AFEF
331
1AD13
  5
1AFF0
331
1AD14
  5
1AFF1
331
1AD15
  5
1AFF2
331
0
  5
1ADB4
331
0
  5
1ADB5
331
0
  5
1ADB6
331
1AD19
  5
1B013
331
1AD1A
  5
1B014
331
1AD1B
  5
1B015
331
1AD1C
  5
1B016
331
1AD1D
  5
1B017
331
1AD1E
  5
1B018
331
1AD1F
  5
1B019
331
1AD20
  5
1B01A
331
1AD21
  5
1B01B
331
1AD22
  5
1B01C
331
1AD23
  5
1B01D
331
1AD24
  5
1B01E
331
1AD25
  5
1B01F
331
1AD26
  5
1B020
331
1AD27
  5
1B021
331
1AD28
  5
1B022
331
1AD29
  5
1B023
331
1AD2A
  5
1B024
331
1AD2B
  5
1B025
331
1AD2C
  5
1B026
331
1AD2D
  5
1B027
331
1AD2E
  5
1B028
331
1AD2F
  5
1B029
331
1AD30
  5
1B02A
331
1AD31
  5
1B02B
331
1AD32
  5
1B02C
331
1AD33
  5
1B02D
331
1AD34
  5
1B02E
331
1AD35
  5
1B02F
331
1AD36
  5
1B030
331
1AD37
  5
1B031
331
1AD38
  5
1B032
331
1AD39
  5
1B033
331
1AD3A
  5
1B034
331
0
  5
1AFDB
331
0
  5
1AFDC
331
1AD3D
  5
1B03B
331
1AD3E
  5
1B03C
331
1AD3F
  5
1B03D
331
1AD40
  5
1B03E
331
1AD41
  5
1B03F
331
1AD42
  5
1B040
331
1AD43
  5
1B041
331
1AD44
  5
1B042
331
1AD45
  5
1B043
331
1AD46
  5
1B044
331
1AD47
  5
1B045
331
1AD48
  5
1B046
331
1AD49
  5
1B047
331
1AD4A
  5
1B048
331
1AD4B
  5
1B049
331
1AD4C
  5
1B04A
331
1AD4D
  5
1B04B
331
1AD4E
  5
1B04C
331
1AD4F
  5
1B04D
331
1AD50
  5
1B04E
331
1AD51
  5
1B04F
331
1AD52
  5
1B050
331
1AD53
  5
1B051
331
1AD54
  5
1B052
331
1AD55
  5
1B053
331
1AD56
  5
1B054
331
1AD57
  5
1B055
331
1AD58
  5
1B056
331
1AD59
  5
1B057
331
1AD5A
  5
1B058
331
1AD5B
  5
1B059
331
0
  5
1AFFC
331
0
  5
1AFFD
331
1AD5E
  5
1B05F
331
1AD5F
  5
1B060
331
1AD60
  5
1B061
331
1AD61
  5
1B062
331
1AD62
  5
1B063
331
1AD63
  5
1B064
331
1AD64
  5
1B065
331
1AD65
  5
1B066
331
1AD66
  5
1B067
331
1AD67
  5
1B068
331
1AD68
  5
1B069
331
1AD69
  5
1B06A
331
1AD6A
  5
1B06B
331
1AD6B
  5
1B06C
331
1AD6C
  5
1B06D
331
1AD6D
  5
1B06E
331
1AD6E
  5
1B06F
331
1AD6F
  5
1B070
331
1AD70
  5
1B071
331
1AD71
  5
1B072
331
1AD72
  5
1B073
331
1AD73
  5
1B074
331
1AD74
  5
1B075
331
1AD75
  5
1B076
331
1AD76
  5
1B077
331
1AD77
  5
1B078
331
1AD78
  5
1B079
331
1AD79
  5
1B07A
331
1AD7A
  5
1B07B
331
1AD7B
  5
1B07C
331
1AD7C
  5
1B07D
331
1AD7D
  5
1B07E
331
1AD7E
  5
1B07F
331
1AD7F
  5
1B080
331
1AD80
  5
1B081
331
1AD81
  5
1B082
331
1AD82
  5
1B083
331
1AD83
  5
1B084
331
1AD84
  5
1B085
331
1AD85
  5
1B086
331
1AD86
  5
1B087
331
1AD87
  5
1B088
331
1AD88
  5
1B089
331
1AD89
  5
1B08A
331
1AD8A
  5
1B08B
331
1AD8B
  5
1B08C
331
1AD8C
  5
1B08D
331
1AD8D
  5
1B08E
331
1AD8E
  5
1B08F
331
1AD8F
  5
1B090
331
1AD90
  5
1B091
331
1AD91
  5
1B092
331
1AD92
  5
1B093
331
1AD93
  5
1B094
331
1AD94
  5
1B095
331
1AD95
  5
1B096
331
1AD96
  5
1B097
331
1AD97
  5
1B098
331
1AD98
  5
1B099
331
1AD99
  5
1B09A
331
1AD9A
  5
1B09B
331
1AD9B
  5
1B09C
331
1AD9C
  5
1B09D
331
1AD9D
  5
1B09E
331
1AD9E
  5
1B09F
331
1AD9F
  5
1B0A0
331
1ADA0
  5
1B0A1
331
1ADA1
  5
1B0A2
331
1ADA2
  5
1B0A3
331
1ADA3
  5
1B0A4
331
1ADA4
  5
1B0A5
331
1ADA5
  5
1B0A6
331
1ADA6
  5
1B0A7
331
1ADA7
  5
1B0A8
331
1ADA8
  5
1B0A9
331
1ADA9
  5
1B0AA
331
1ADAA
  5
1B0AB
331
1ADAB
  5
1B0AC
331
1ADAC
  5
1B0AD
331
1ADAD
  5
1B0AE
331
1ADAE
  5
1B0AF
331
1ADAF
  5
1B0B0
331
1ADB0
  5
1B0B1
331
1ADB1
  5
1B0B2
331
1ADB2
  5
1B0B3
331
1ADB3
  5
1B0B4
331
1ADB4
  5
1B0B5
331
1ADB5
  5
1B0B6
331
1ADB6
  5
1B0B7
331
1ADB7
  5
1B0B8
331
1ADB8
  5
1B0B9
331
1ADB9
  5
1B0BA
331
1AFBC
  5
1AB93
331
1AFBD
  5
1AB94
331
1AFBE
  5
1AB95
331
0
  5
1AB96
331
0
  5
1AB97
331
0
  5
1AB98
331
1AFC2
  5
1ABA6
331
1AFC3
  5
1ABA7
331
1AFC4
  5
1ABA8
331
0
  5
1AB9C
331
0
  5
1AB9D
331
0
  5
1AB9E
331
1AFC8
  5
1ABB0
331
1AFC9
  5
1ABB1
331
1AFCA
  5
1ABB2
331
0
  5
1ABA2
331
0
  5
1ABA3
331
0
  5
1ABA4
331
1AFCE
  5
1AC46
331
1AFCF
  5
1AC47
331
1AFD0
  5
1AC48
331
0
  5
1AC17
331
0
  5
1AC18
331
0
  5
1AC19
331
1AFD4
  5
1AC50
331
1AFD5
  5
1AC51
331
1AFD6
  5
1AC54
331
1AFD7
  5
1AC55
331
1AFD8
  5
1AC56
331
0
  5
1AC20
331
0
  5
1AC21
331
0
  5
1AC22
331
1AFDC
  5
1AC61
331
1AFDD
  5
1AC62
331
1AFDE
  5
1AC63
331
0
  5
1AC29
331
0
  5
1AC2A
331
0
  5
1AC2B
331
1AFE2
  5
1AC6E
331
1AFE3
  5
1AC6F
331
1AFE4
  5
1AC70
331
0
  5
1AC2F
331
0
  5
1AC30
331
0
  5
1AC31
331
1AFE8
  5
1AC78
331
1AFE9
  5
1AC79
331
1AFEA
  5
1AC7A
331
0
  5
1AC35
331
0
  5
1AC36
331
0
  5
1AC37
331
1AFEE
  5
1ACFE
331
1AFEF
  5
1ACFF
331
1AFF0
  5
1AD00
331
0
  5
1ACA3
331
0
  5
1ACA4
331
0
  5
1ACA5
331
1AFF4
  5
1AD0B
331
1AFF5
  5
1AD0C
331
1AFF6
  5
1AD0D
331
0
  5
1ACA9
331
0
  5
1ACAA
331
0
  5
1ACAB
331
1AFFA
  5
1AD16
331
1AFFB
  5
1AD17
331
1AFFC
  5
1AD18
331
0
  5
1ACAF
331
0
  5
1ACB0
331
0
  5
1ACB1
331
1B000
  5
1AD74
331
1B001
  5
1AD75
331
1B002
  5
1AD76
331
0
  5
1AD04
331
0
  5
1AD05
331
0
  5
1AD06
331
1B006
  5
1AB99
331
1B007
  5
1AB9A
331
1B008
  5
1AB9B
331
1B009
  5
1AB9F
331
1B00A
  5
1ABA0
331
1B00B
  5
1ABA1
331
1B00C
  5
1ABA5
331
1B00D
  5
1ABA9
331
1B00E
  5
1ABAA
331
1B00F
  5
1ABAB
331
1B010
  5
1ABAC
331
1B011
  5
1ABAD
331
1B012
  5
1ABAE
331
1B013
  5
1ABAF
331
1B014
  5
1ABB3
331
1B015
  5
1ABB4
331
1B016
  5
1ABB5
331
1B017
  5
1ABB6
331
1B018
  5
1ABB7
331
1B019
  5
1ABB8
331
1B01A
  5
1ABB9
331
1B01B
  5
1AC49
331
1B01C
  5
1AC4A
331
1B01D
  5
1AC4B
331
1B01E
  5
1AC4C
331
1B01F
  5
1AC4D
331
1B020
  5
1AC4E
331
1B021
  5
1AC4F
331
1B022
  5
1AC57
331
1B023
  5
1AC58
331
1B024
  5
1AC59
331
1B025
  5
1AC5A
331
1B026
  5
1AC5B
331
1B027
  5
1AC5C
331
1B028
  5
1AC5D
331
1B029
  5
1AC64
331
1B02A
  5
1AC65
331
1B02B
  5
1AC66
331
1B02C
  5
1AC67
331
1B02D
  5
1AC68
331
1B02E
  5
1AC69
331
1B02F
  5
1AC6A
331
1B030
  5
1AC71
331
1B031
  5
1AC72
331
1B032
  5
1AC73
331
1B033
  5
1AC74
331
1B034
  5
1AC75
331
1B035
  5
1AC76
331
1B036
  5
1AC77
331
1B037
  5
1AC7B
331
1B038
  5
1AC7C
331
1B039
  5
1AC7D
331
1B03A
  5
1AC7E
331
1B03B
  5
1AC7F
331
1B03C
  5
1AC80
331
1B03D
  5
1AC81
331
1B03E
  5
1AD01
331
1B03F
  5
1AD02
331
1B040
  5
1AD03
331
1B041
  5
1AD07
331
1B042
  5
1AD08
331
1B043
  5
1AD09
331
1B044
  5
1AD0A
331
1B045
  5
1AD0F
331
1B046
  5
1AD10
331
1B047
  5
1AD11
331
1B048
  5
1AD12
331
1B049
  5
1AD13
331
1B04A
  5
1AD14
331
1B04B
  5
1AD15
331
1B04C
  5
1AD19
331
1B04D
  5
1AD1A
331
1B04E
  5
1AD1B
331
1B04F
  5
1AD1C
331
1B050
  5
1AD1D
331
1B051
  5
1AD1E
331
1B052
  5
1AD1F
331
1B053
  5
1AD77
331
1B054
  5
1AD78
331
1B055
  5
1AD79
331
1B056
  5
1AD7A
331
1B057
  5
1AD7B
331
1B058
  5
1AD7C
331
1B059
  5
1AD7D
331
1B05A
  5
1ABBB
331
1B05B
  5
1ABBC
331
1B05C
  5
1ABBD
331
0
  5
1ABBE
331
0
  5
1ABBF
331
0
  5
1ABC0
331
1B060
  5
1AC52
331
1B061
  5
1AC53
331
1B062
  5
1ACD0
331
1B063
  5
1ACD1
331
1B064
  5
1ACD2
331
0
  5
1ACC9
331
0
  5
1ACCA
331
0
  5
1ACCB
331
1B068
  5
1AD2B
331
1B069
  5
1AD2C
331
1B06A
  5
1AD2D
331
1B06B
  5
1AD2E
331
1B06C
  5
1AD2F
331
1B06D
  5
1AD30
331
1B06E
  5
1AD95
331
1B06F
  5
1AD96
331
1B070
  5
1AD97
331
0
  5
1AD87
331
0
  5
1AD88
331
0
  5
1AD89
331
1B074
  5
1AFF3
331
1B075
  5
1AFF4
331
1B076
  5
1AFF5
331
0
  5
1AFD6
331
0
  5
1AFD7
331
0
  5
1AFD8
331
1B07A
  5
1AFFF
331
1B07B
  5
1B000
331
1B07C
  5
1B001
331
0
  5
1AFDE
331
0
  5
1AFDF
331
0
  5
1AFE0
331
1B080
  5
1B009
331
1B081
  5
1B00A
331
1B082
  5
1B00B
331
0
  5
1AFE4
331
0
  5
1AFE5
331
0
  5
1AFE6
331
1B086
  5
1B035
331
1B087
  5
1B036
331
1B088
  5
1B037
331
1B089
  5
1B038
331
1B08A
  5
1B039
331
1B08B
  5
1B03A
331
1B08C
  5
1B05A
331
1B08D
  5
1B05B
331
1B08E
  5
1B05C
331
1B08F
  5
1B05D
331
1B090
  5
1B05E
331
1B091
  5
1ABC1
331
1B092
  5
1ABC2
331
1B093
  5
1ABC3
331
1B094
  5
1ABC4
331
1B095
  5
1ABC5
331
1B096
  5
1ABC6
331
1B097
  5
1ABC7
331
1B098
  5
1ACD3
331
1B099
  5
1ACD4
331
1B09A
  5
1ACD5
331
1B09B
  5
1ACD6
331
1B09C
  5
1ACD7
331
1B09D
  5
1ACD8
331
1B09E
  5
1ACD9
331
1B09F
  5
1AD98
331
1B0A0
  5
1AD99
331
1B0A1
  5
1AD9A
331
1B0A2
  5
1AD9B
331
1B0A3
  5
1AD9C
331
1B0A4
  5
1AD9D
331
1B0A5
  5
1AD9E
331
1B0A6
  5
1AFF6
331
1B0A7
  5
1AFF7
331
1B0A8
  5
1AFF8
331
1B0A9
  5
1AFF9
331
1B0AA
  5
1AFFA
331
1B0AB
  5
1AFFB
331
1B0AC
  5
1AFFE
331
1B0AD
  5
1B002
331
1B0AE
  5
1B003
331
1B0AF
  5
1B004
331
1B0B0
  5
1B005
331
1B0B1
  5
1B006
331
1B0B2
  5
1B007
331
1B0B3
  5
1B008
331
1B0B4
  5
1B00C
331
1B0B5
  5
1B00D
331
1B0B6
  5
1B00E
331
1B0B7
  5
1B00F
331
1B0B8
  5
1B010
331
1B0B9
  5
1B011
331
1B0BA
  5
1B012
  0
MATERIAL
  5
D9A4
102
{ACAD_REACTORS
330
18C
102
}
102
{ACAD_XDICTIONARY
360
1B259
102
}
330
18C
100
AcDbMaterial
  1
BYBLOCK
 72
     0
 73
     2
 43
0.0208333333333333
 43
0.0
 43
0.0
 43
0.0
 43
0.0
 43
0.0208333333333333
 43
0.0
 43
0.0
 43
0.0
 43
0.0
 43
1.0
 43
0.0
 43
0.0
 43
0.0
 43
0.0
 43
1.0
 77
     0
 78
     2
 47
0.0208333333333333
 47
0.0
 47
0.0
 47
0.0
 47
0.0
 47
0.0208333333333333
 47
0.0
 47
0.0
 47
0.0
 47
0.0
 47
1.0
 47
0.0
 47
0.0
 47
0.0
 47
0.0
 47
1.0
171
     0
172
     2
 49
0.0208333333333333
 49
0.0
 49
0.0
 49
0.0
 49
0.0
 49
0.0208333333333333
 49
0.0
 49
0.0
 49
0.0
 49
0.0
 49
1.0
 49
0.0
 49
0.0
 49
0.0
 49
0.0
 49
1.0
175
     0
176
     2
142
0.0208333333333333
142
0.0
142
0.0
142
0.0
142
0.0
142
0.0208333333333333
142
0.0
142
0.0
142
0.0
142
0.0
142
1.0
142
0.0
142
0.0
142
0.0
142
0.0
142
1.0
179
     0
270
     2
144
0.0208333333333333
144
0.0
144
0.0
144
0.0
144
0.0
144
0.0208333333333333
144
0.0
144
0.0
144
0.0
144
0.0
144
1.0
144
0.0
144
0.0
144
0.0
144
0.0
144
1.0
274
     2
147
0.0208333333333333
147
0.0
147
0.0
147
0.0
147
0.0
147
0.0208333333333333
147
0.0
147
0.0
147
0.0
147
0.0
147
1.0
147
0.0
147
0.0
147
0.0
147
0.0
147
1.0
  0
MATERIAL
  5
D99C
102
{ACAD_REACTORS
330
18C
102
}
102
{ACAD_XDICTIONARY
360
1B25B
102
}
330
18C
100
AcDbMaterial
  1
BYLAYER
 72
     0
 73
     2
 43
0.0208333333333333
 43
0.0
 43
0.0
 43
0.0
 43
0.0
 43
0.0208333333333333
 43
0.0
 43
0.0
 43
0.0
 43
0.0
 43
1.0
 43
0.0
 43
0.0
 43
0.0
 43
0.0
 43
1.0
 77
     0
 78
     2
 47
0.0208333333333333
 47
0.0
 47
0.0
 47
0.0
 47
0.0
 47
0.0208333333333333
 47
0.0
 47
0.0
 47
0.0
 47
0.0
 47
1.0
 47
0.0
 47
0.0
 47
0.0
 47
0.0
 47
1.0
171
     0
172
     2
 49
0.0208333333333333
 49
0.0
 49
0.0
 49
0.0
 49
0.0
 49
0.0208333333333333
 49
0.0
 49
0.0
 49
0.0
 49
0.0
 49
1.0
 49
0.0
 49
0.0
 49
0.0
 49
0.0
 49
1.0
175
     0
176
     2
142
0.0208333333333333
142
0.0
142
0.0
142
0.0
142
0.0
142
0.0208333333333333
142
0.0
142
0.0
142
0.0
142
0.0
142
1.0
142
0.0
142
0.0
142
0.0
142
0.0
142
1.0
179
     0
270
     2
144
0.0208333333333333
144
0.0
144
0.0
144
0.0
144
0.0
144
0.0208333333333333
144
0.0
144
0.0
144
0.0
144
0.0
144
1.0
144
0.0
144
0.0
144
0.0
144
0.0
144
1.0
274
     2
147
0.0208333333333333
147
0.0
147
0.0
147
0.0
147
0.0
147
0.0208333333333333
147
0.0
147
0.0
147
0.0
147
0.0
147
1.0
147
0.0
147
0.0
147
0.0
147
0.0
147
1.0
  0
MATERIAL
  5
D9AC
102
{ACAD_REACTORS
330
18C
102
}
102
{ACAD_XDICTIONARY
360
1B25D
102
}
330
18C
100
AcDbMaterial
  1
GLOBAL
 72
     0
 73
     2
 43
0.0208333333333333
 43
0.0
 43
0.0
 43
0.0
 43
0.0
 43
0.0208333333333333
 43
0.0
 43
0.0
 43
0.0
 43
0.0
 43
1.0
 43
0.0
 43
0.0
 43
0.0
 43
0.0
 43
1.0
 77
     0
 78
     2
 47
0.0208333333333333
 47
0.0
 47
0.0
 47
0.0
 47
0.0
 47
0.0208333333333333
 47
0.0
 47
0.0
 47
0.0
 47
0.0
 47
1.0
 47
0.0
 47
0.0
 47
0.0
 47
0.0
 47
1.0
171
     0
172
     2
 49
0.0208333333333333
 49
0.0
 49
0.0
 49
0.0
 49
0.0
 49
0.0208333333333333
 49
0.0
 49
0.0
 49
0.0
 49
0.0
 49
1.0
 49
0.0
 49
0.0
 49
0.0
 49
0.0
 49
1.0
175
     0
176
     2
142
0.0208333333333333
142
0.0
142
0.0
142
0.0
142
0.0
142
0.0208333333333333
142
0.0
142
0.0
142
0.0
142
0.0
142
1.0
142
0.0
142
0.0
142
0.0
142
0.0
142
1.0
179
     0
270
     2
144
0.0208333333333333
144
0.0
144
0.0
144
0.0
144
0.0
144
0.0208333333333333
144
0.0
144
0.0
144
0.0
144
0.0
144
1.0
144
0.0
144
0.0
144
0.0
144
0.0
144
1.0
274
     2
147
0.0208333333333333
147
0.0
147
0.0
147
0.0
147
0.0
147
0.0208333333333333
147
0.0
147
0.0
147
0.0
147
0.0
147
1.0
147
0.0
147
0.0
147
0.0
147
0.0
147
1.0
  0
ACAD_PROXY_OBJECT
  5
D9E8
102
{ACAD_REACTORS
330
D9E7
102
}
330
D9E7
100
AcDbZombieObject
 90
      499
 91
      511
 93
      610
310
40901902A4063FBFFFFFE000000000000002040AD7A3703D0AD73F4214DD185B99185C990000000000000104090141901A00000000000004100000000000000041025764000000000000300FC0
340
12
340
0
340
F
340
0
 94
        0
1001
ACAD_MLEADERVER
1070
     2
  0
MLINESTYLE
  5
1C
102
{ACAD_REACTORS
330
1B
102
}
330
1B
100
AcDbMlineStyle
  2
STANDARD
 70
     0
  3

 62
   256
 51
90.0
 52
90.0
 71
     2
 49
0.5
 62
   256
  6
BYLAYER
 49
-0.5
 62
   256
  6
BYLAYER
  0
ACAD_PROXY_OBJECT
  5
D9C6
102
{ACAD_REACTORS
330
D9C5
102
}
330
D9C5
100
AcDbZombieObject
 90
      499
 91
      510
 93
       41
310
903313A31580
  0
ACAD_PROXY_OBJECT
  5
D9C7
102
{ACAD_REACTORS
330
D9C5
102
}
330
D9C5
100
AcDbZombieObject
 90
      499
 91
      510
 93
      105
310
903313A324000000000000004000
  0
ACAD_PROXY_OBJECT
  5
D9C8
102
{ACAD_REACTORS
330
D9C5
102
}
330
D9C5
100
AcDbZombieObject
 90
      499
 91
      510
 93
      105
310
903313A344000000000000104000
  0
ACAD_PROXY_OBJECT
  5
D9C9
102
{ACAD_REACTORS
330
D9C5
102
}
330
D9C5
100
AcDbZombieObject
 90
      499
 91
      510
 93
      105
310
903313A354000000000000144000
  0
ACAD_PROXY_OBJECT
  5
D9CA
102
{ACAD_REACTORS
330
D9C5
102
}
330
D9C5
100
AcDbZombieObject
 90
      499
 91
      510
 93
      105
310
903313A384000000000000204000
  0
ACAD_PROXY_OBJECT
  5
D9CB
102
{ACAD_REACTORS
330
D9C5
102
}
330
D9C5
100
AcDbZombieObject
 90
      499
 91
      510
 93
      113
310
904313A31304000000000000244000
  0
ACAD_PROXY_OBJECT
  5
D9CC
102
{ACAD_REACTORS
330
D9C5
102
}
330
D9C5
100
AcDbZombieObject
 90
      499
 91
      510
 93
      113
310
904313A31364000000000000304000
  0
ACAD_PROXY_OBJECT
  5
D9CD
102
{ACAD_REACTORS
330
D9C5
102
}
330
D9C5
100
AcDbZombieObject
 90
      499
 91
      510
 93
      113
310
904313A32304000000000000344000
  0
ACAD_PROXY_OBJECT
  5
D9CE
102
{ACAD_REACTORS
330
D9C5
102
}
330
D9C5
100
AcDbZombieObject
 90
      499
 91
      510
 93
      113
310
904313A333040000000000003E4000
  0
ACAD_PROXY_OBJECT
  5
D9CF
102
{ACAD_REACTORS
330
D9C5
102
}
330
D9C5
100
AcDbZombieObject
 90
      499
 91
      510
 93
      113
310
904313A34304000000000000444000
  0
ACAD_PROXY_OBJECT
  5
D9D0
102
{ACAD_REACTORS
330
D9C5
102
}
330
D9C5
100
AcDbZombieObject
 90
      499
 91
      510
 93
      113
310
904313A35304000000000000494000
  0
ACAD_PROXY_OBJECT
  5
D9D1
102
{ACAD_REACTORS
330
D9C5
102
}
330
D9C5
100
AcDbZombieObject
 90
      499
 91
      510
 93
      121
310
905313A3130304000000000000594000
  0
ACAD_PROXY_OBJECT
  5
D9D2
102
{ACAD_REACTORS
330
D9C5
102
}
330
D9C5
100
AcDbZombieObject
 90
      499
 91
      510
 93
      105
310
903323A310000000000000010100
  0
ACAD_PROXY_OBJECT
  5
D9D3
102
{ACAD_REACTORS
330
D9C5
102
}
330
D9C5
100
AcDbZombieObject
 90
      499
 91
      510
 93
      105
310
903343A310000000000000410100
  0
ACAD_PROXY_OBJECT
  5
D9D4
102
{ACAD_REACTORS
330
D9C5
102
}
330
D9C5
100
AcDbZombieObject
 90
      499
 91
      510
 93
      105
310
903383A310000000000000810100
  0
ACAD_PROXY_OBJECT
  5
D9D5
102
{ACAD_REACTORS
330
D9C5
102
}
330
D9C5
100
AcDbZombieObject
 90
      499
 91
      510
 93
      113
310
90431303A310000000000000910100
  0
ACAD_PROXY_OBJECT
  5
D9D6
102
{ACAD_REACTORS
330
D9C5
102
}
330
D9C5
100
AcDbZombieObject
 90
      499
 91
      510
 93
      121
310
9053130303A310000000000001650100
  0
ACAD_PROXY_OBJECT
  5
D9D7
102
{ACAD_REACTORS
330
D9C5
102
}
330
D9C5
100
AcDbZombieObject
 90
      499
 91
      510
 93
      257
310
90E312F31323822203D2031272D3022000000000000200FC000000000000284000
  0
ACAD_PROXY_OBJECT
  5
D9D8
102
{ACAD_REACTORS
330
D9C5
102
}
330
D9C5
100
AcDbZombieObject
 90
      499
 91
      510
 93
      249
310
90D312F363422203D2031272D3022000000000000240FC000000000000284000
  0
ACAD_PROXY_OBJECT
  5
D9D9
102
{ACAD_REACTORS
330
D9C5
102
}
330
D9C5
100
AcDbZombieObject
 90
      499
 91
      510
 93
      249
310
90D312F333222203D2031272D3022000000000000280FC000000000000284000
  0
ACAD_PROXY_OBJECT
  5
D9DA
102
{ACAD_REACTORS
330
D9C5
102
}
330
D9C5
100
AcDbZombieObject
 90
      499
 91
      510
 93
      249
310
90D312F313622203D2031272D30220000000000002C0FC000000000000284000
  0
ACAD_PROXY_OBJECT
  5
D9DB
102
{ACAD_REACTORS
330
D9C5
102
}
330
D9C5
100
AcDbZombieObject
 90
      499
 91
      510
 93
      249
310
90D332F333222203D2031272D30220000000000002E0FC000000000000284000
  0
ACAD_PROXY_OBJECT
  5
D9DC
102
{ACAD_REACTORS
330
D9C5
102
}
330
D9C5
100
AcDbZombieObject
 90
      499
 91
      510
 93
      241
310
90C312F3822203D2031272D3022000000000000300FC000000000000284000
  0
ACAD_PROXY_OBJECT
  5
D9DD
102
{ACAD_REACTORS
330
D9C5
102
}
330
D9C5
100
AcDbZombieObject
 90
      499
 91
      510
 93
      249
310
90D332F313622203D2031272D3022000000000000320FC000000000000284000
  0
ACAD_PROXY_OBJECT
  5
D9DE
102
{ACAD_REACTORS
330
D9C5
102
}
330
D9C5
100
AcDbZombieObject
 90
      499
 91
      510
 93
      241
310
90C312F3422203D2031272D3022000000000000340FC000000000000284000
  0
ACAD_PROXY_OBJECT
  5
D9DF
102
{ACAD_REACTORS
330
D9C5
102
}
330
D9C5
100
AcDbZombieObject
 90
      499
 91
      510
 93
      241
310
90C332F3822203D2031272D3022000000000000360FC000000000000284000
  0
ACAD_PROXY_OBJECT
  5
D9E0
102
{ACAD_REACTORS
330
D9C5
102
}
330
D9C5
100
AcDbZombieObject
 90
      499
 91
      510
 93
      241
310
90C312F3222203D2031272D3022000000000000380FC000000000000284000
  0
ACAD_PROXY_OBJECT
  5
D9E1
102
{ACAD_REACTORS
330
D9C5
102
}
330
D9C5
100
AcDbZombieObject
 90
      499
 91
      510
 93
      241
310
90C332F3422203D2031272D30220000000000003A0FC000000000000284000
  0
ACAD_PROXY_OBJECT
  5
D9E2
102
{ACAD_REACTORS
330
D9C5
102
}
330
D9C5
100
AcDbZombieObject
 90
      499
 91
      510
 93
      161
310
90A3122203D2031272D30224000000000000284000
  0
ACAD_PROXY_OBJECT
  5
D9E3
102
{ACAD_REACTORS
330
D9C5
102
}
330
D9C5
100
AcDbZombieObject
 90
      499
 91
      510
 93
      257
310
90E312D312F3222203D2031272D30220000000000003E0FC000000000000284000
  0
ACAD_PROXY_OBJECT
  5
D9E4
102
{ACAD_REACTORS
330
D9C5
102
}
330
D9C5
100
AcDbZombieObject
 90
      499
 91
      510
 93
      225
310
90A3322203D2031272D302200000000000002100000000000000284000
  0
ACAD_PROXY_OBJECT
  5
D9E5
102
{ACAD_REACTORS
330
D9C5
102
}
330
D9C5
100
AcDbZombieObject
 90
      499
 91
      510
 93
      225
310
90A3622203D2031272D302200000000000006100000000000000284000
  0
ACAD_PROXY_OBJECT
  5
D9E6
102
{ACAD_REACTORS
330
D9C5
102
}
330
D9C5
100
AcDbZombieObject
 90
      499
 91
      510
 93
      249
310
90D31272D3022203D2031272D30220000000000000A100000000000000284000
  0
ACAD_PROXY_OBJECT
  5
D9BA
102
{ACAD_REACTORS
330
D9B4
102
}
330
D9B4
100
AcDbZombieObject
 90
      499
 91
      509
 93
      436
310
42CC9915DA5C99599C985B595049028333333333333E3BF0000000000000FB0107901411070040501600405405064090741402480A0340
1001
ACAD
1000
AcDbSavedByObjectVersion
1070
     0
  0
ACAD_PROXY_OBJECT
  5
D9BC
102
{ACAD_REACTORS
330
D9B4
102
}
330
D9B4
100
AcDbZombieObject
 90
      499
 91
      509
 93
      500
310
424CD108121A5919195B90640502408333333333333E3BF0000000000000FB01079024090700405020000000000001110200405405064090740C02480A0340
1001
ACAD
1000
AcDbSavedByObjectVersion
1070
     0
  0
ACAD_PROXY_OBJECT
  5
D9BB
102
{ACAD_REACTORS
330
D9B4
102
}
330
D9B4
100
AcDbZombieObject
 90
      499
 91
      509
 93
      436
310
42CCD915DA5C99599C985B595059028333333333333E3BF0000000000000FB0107901411070040501600405405064090741402480A0340
1001
ACAD
1000
AcDbSavedByObjectVersion
1070
     0
  0
ACAD_PROXY_OBJECT
  5
D9B9
102
{ACAD_REACTORS
330
D9B4
102
}
330
D9B4
100
AcDbZombieObject
 90
      499
 91
      509
 93
      388
310
4150985CDA58D07406404333333333333E3BF0000000000000FB0107A41107004050150841D405064090741402480A0350
1001
ACAD
1000
AcDbSavedByObjectVersion
1070
     0
  0
ACAD_PROXY_OBJECT
  5
D9C0
102
{ACAD_REACTORS
330
D9B4
102
}
330
D9B4
100
AcDbZombieObject
 90
      499
 91
      509
 93
      428
310
42109C9A59DA1D195B90C409028333333333333E3BF0000000000000FB010790141107004050150841D405064090741402480A029950
1001
ACAD
1000
AcDbSavedByObjectVersion
1070
     0
  0
ACAD_PROXY_OBJECT
  5
D9C4
102
{ACAD_REACTORS
330
D9B4
102
}
330
D9B4
100
AcDbZombieObject
 90
      499
 91
      509
 93
      452
310
42D0DBDB1BDC90DA185B99D95104090240C333333333333E3BF0000000000000FB0108901411070040501508421405064090741402480A0350
1001
ACAD
1000
AcDbSavedByObjectVersion
1070
     0
  0
ACAD_PROXY_OBJECT
  5
D9BD
102
{ACAD_REACTORS
330
D9B4
102
}
330
D9B4
100
AcDbZombieObject
 90
      499
 91
      509
 93
      500
310
4290DBDB98D95C1D1D585B10940D028333333333333E3BF0000000000000FB0107902409070040501000000000000111010841D405064090740C02480A0340
1001
ACAD
1000
AcDbSavedByObjectVersion
1070
     0
  0
ACAD_PROXY_OBJECT
  5
D9BF
102
{ACAD_REACTORS
330
D9B4
102
}
330
D9B4
100
AcDbZombieObject
 90
      499
 91
      509
 93
      412
310
40D11A5B50B409028333333333333E3BF0000000000000FB010790141107004050150841D405064090741402480A02677FFFFFD0
1001
ACAD
1000
AcDbSavedByObjectVersion
1070
     0
  0
ACAD_PROXY_OBJECT
  5
19C2F
102
{ACAD_REACTORS
330
D9B4
102
}
330
D9B4
100
AcDbZombieObject
 90
      499
 91
      509
 93
      452
310
43115919D950DBDB1BDC93D999916409028333333333333E3BF0000000000000FB010790141107004050150841D405064090741402480A0350
1001
ACAD
1000
AcDbSavedByObjectVersion
1070
     0
  0
ACAD_PROXY_OBJECT
  5
D9C3
102
{ACAD_REACTORS
330
D9B4
102
}
330
D9B4
100
AcDbZombieObject
 90
      499
 91
      509
 93
      444
310
42D19858D95C185D1D195C9B90F409028333333333333E3BF0000000000000FB010790141107004050150841D405064090741402480A0350
1001
ACAD
1000
AcDbSavedByObjectVersion
1070
     0
  0
ACAD_PROXY_OBJECT
  5
D9B5
102
{ACAD_REACTORS
330
D9B4
102
}
330
D9B4
100
AcDbZombieObject
 90
      499
 91
      509
 93
      388
310
41119B185D240901404333333333333E3BF0000000000000F9010740A41107004050150841D405064090741402480A1B50
1001
ACAD
1000
AcDbSavedByObjectVersion
1070
     0
  0
ACAD_PROXY_OBJECT
  5
D9B6
102
{ACAD_REACTORS
330
D9B4
102
}
330
D9B4
100
AcDbZombieObject
 90
      499
 91
      509
 93
      476
310
43519B185D15DA5D1A115919D95CD0140901404333333333333E3BF0000000000000F9010740901411070040501600405405064090741402480A1B50
1001
ACAD
1000
AcDbSavedByObjectVersion
1070
     0
  0
ACAD_PROXY_OBJECT
  5
D9B7
102
{ACAD_REACTORS
330
D9B4
102
}
330
D9B4
100
AcDbZombieObject
 90
      499
 91
      509
 93
      412
310
41D1DBDD5C985D5910240902404333333333333E3BF0000000000000F9010740A411070040501641D405064090741402480A1B50
1001
ACAD
1000
AcDbSavedByObjectVersion
1070
     0
  0
ACAD_PROXY_OBJECT
  5
D9B8
102
{ACAD_REACTORS
330
D9B4
102
}
330
D9B4
100
AcDbZombieObject
 90
      499
 91
      509
 93
      500
310
4411DBDD5C985D5915DA5D1A115919D95CD0340902404333333333333E3BF0000000000000F9010740901411070040501600405405064090741402480A1B50
1001
ACAD
1000
AcDbSavedByObjectVersion
1070
     0
  0
ACAD_PROXY_OBJECT
  5
19C7E
102
{ACAD_REACTORS
330
D9B4
102
}
330
D9B4
100
AcDbZombieObject
 90
      499
 91
      509
 93
      476
310
41921A5919195B90640502408333333333333E33F0000000000000F901079024090700405020000000000001110200405405064090740C02480A0340
1001
ACAD
1000
AcDbSavedByObjectVersion
1070
     0
  0
ACAD_PROXY_OBJECT
  5
19C2D
102
{ACAD_REACTORS
330
D9B4
102
}
330
D9B4
100
AcDbZombieObject
 90
      499
 91
      509
 93
      428
310
42529A5D1D195C93D999914409028333333333333E3BF0000000000000FB010790141107004050150A41D405064090741402480A0350
1001
ACAD
1000
AcDbSavedByObjectVersion
1070
     0
  0
ACAD_PROXY_OBJECT
  5
D9C2
102
{ACAD_REACTORS
330
D9B4
102
}
330
D9B4
100
AcDbZombieObject
 90
      499
 91
      509
 93
      444
310
42D31A5B995C185D1D195C9B90E409028333333333333E3BF0000000000000FB010790141107004050750841D405064090741402483A0350
1001
ACAD
1000
AcDbSavedByObjectVersion
1070
     0
  0
ACAD_PROXY_OBJECT
  5
19C84
102
{ACAD_REACTORS
330
D9B4
102
}
330
D9B4
100
AcDbZombieObject
 90
      499
 91
      509
 93
      484
310
42135BD9195B1A5B99D0A409038333333333333E33F0000000000000F901074090290700405010000000000201990108421405064090741402480A1B40
1001
ACAD
1000
AcDbSavedByObjectVersion
1070
     0
  0
ACAD_PROXY_OBJECT
  5
19C2E
102
{ACAD_REACTORS
330
D9B4
102
}
330
D9B4
100
AcDbZombieObject
 90
      499
 91
      509
 93
      444
310
42D3DD995C9A185B99D3D999915409028333333333333E3BF0000000000000FB010790141107004050150941D405064090741402480A0350
1001
ACAD
1000
AcDbSavedByObjectVersion
1070
     0
  0
ACAD_PROXY_OBJECT
  5
D9BE
102
{ACAD_REACTORS
330
D9B4
102
}
330
D9B4
100
AcDbZombieObject
 90
      499
 91
      509
 93
      420
310
425499585B1A5CDD1A58D08409028333333333333E3BF0000000000000FB01079019070040501508421405064090741402480A1B40
1001
ACAD
1000
AcDbSavedByObjectVersion
1070
     0
  0
ACAD_PROXY_OBJECT
  5
19C83
102
{ACAD_REACTORS
330
D9B4
102
}
330
D9B4
100
AcDbZombieObject
 90
      499
 91
      509
 93
      420
310
4194DA1859195911B40902404333333333333E33F0000000000000F9010740A41107004050150800405405064090840C02480A0B40
1001
ACAD
1000
AcDbSavedByObjectVersion
1070
     0
  0
ACAD_PROXY_OBJECT
  5
19C82
102
{ACAD_REACTORS
330
D9B4
102
}
330
D9B4
100
AcDbZombieObject
 90
      499
 91
      509
 93
      516
310
4454DA18591959081DDA5D1A08195919D95CD1A40902404333333333333E33F0000000000000F901074090142907004050250800405405064090740C02480A0B40
1001
ACAD
1000
AcDbSavedByObjectVersion
1070
     0
  0
ACAD_PROXY_OBJECT
  5
19C7F
102
{ACAD_REACTORS
330
D9B4
102
}
330
D9B4
100
AcDbZombieObject
 90
      499
 91
      509
 93
      532
310
4394DA1859195CC81BD98811DC985E5174090240C333333333333E33F0000000000000F901079024090741D01000000000000111010841D405064090740C02480A0340
1001
ACAD
1000
AcDbSavedByObjectVersion
1070
     0
  0
ACAD_PROXY_OBJECT
  5
19C80
102
{ACAD_REACTORS
330
D9B4
102
}
330
D9B4
100
AcDbZombieObject
 90
      499
 91
      509
 93
      476
310
41D4DAD95D18DA1E51840502408333333333333E33F0000000000000F901079024090741D01000000000000111010B41D405064090741802480A0340
1001
ACAD
1000
AcDbSavedByObjectVersion
1070
     0
  0
ACAD_PROXY_OBJECT
  5
D9C1
102
{ACAD_REACTORS
330
D9B4
102
}
330
D9B4
100
AcDbZombieObject
 90
      499
 91
      509
 93
      412
310
41D51A1A58DAD95B90D409028333333333333E3BF0000000000000FB010790141107004050150C41D405064090741402480A0350
1001
ACAD
1000
AcDbSavedByObjectVersion
1070
     0
  0
ACAD_PROXY_OBJECT
  5
19C7D
102
{ACAD_REACTORS
330
D9B4
102
}
330
D9B4
100
AcDbZombieObject
 90
      499
 91
      509
 93
      420
310
4255DA5C99599C985B595059028333333333333E33F0000000000000F90107901411070040501600405405064090740C02480A0340
1001
ACAD
1000
AcDbSavedByObjectVersion
1070
     0
  0
ACAD_PROXY_OBJECT
  5
19C81
102
{ACAD_REACTORS
330
D9B4
102
}
330
D9B4
100
AcDbZombieObject
 90
      499
 91
      509
 93
      404
310
41560B54985E51940902404000000000000E03F0000000000000F9010740501907004050150841D405064090740C02480A1B40
1001
ACAD
1000
AcDbSavedByObjectVersion
1070
     0
  0
XRECORD
  5
1B0BC
102
{ACAD_REACTORS
330
1B0BB
102
}
330
1B0BB
100
AcDbXrecord
340
18D
  0
XRECORD
  5
1B0BD
102
{ACAD_REACTORS
330
1B0BB
102
}
330
1B0BB
100
AcDbXrecord
340
18C
  0
DICTIONARYVAR
  5
1A5BC
102
{ACAD_REACTORS
330
37
102
}
330
37
100
DictionaryVariables
280
     0
  1
1:1
  0
DICTIONARYVAR
  5
DA6A
102
{ACAD_REACTORS
330
37
102
}
330
37
100
DictionaryVariables
280
     0
  1
Standard
  0
DICTIONARYVAR
  5
29E
102
{ACAD_REACTORS
330
37
102
}
330
37
100
DictionaryVariables
280
     0
  1
Standard
  0
DICTIONARYVAR
  5
38
102
{ACAD_REACTORS
330
37
102
}
330
37
100
DictionaryVariables
280
     0
  1
-1
  0
DICTIONARYVAR
  5
1CE
102
{ACAD_REACTORS
330
37
102
}
330
37
100
DictionaryVariables
280
     0
  1
2
  0
DICTIONARYVAR
  5
704E
102
{ACAD_REACTORS
330
37
102
}
330
37
100
DictionaryVariables
280
     0
  1
1
  0
DICTIONARYVAR
  5
DA6D
102
{ACAD_REACTORS
330
37
102
}
330
37
100
DictionaryVariables
280
     0
  1
0
  0
DICTIONARYVAR
  5
7052
102
{ACAD_REACTORS
330
37
102
}
330
37
100
DictionaryVariables
280
     0
  1
8
  0
DICTIONARYVAR
  5
7051
102
{ACAD_REACTORS
330
37
102
}
330
37
100
DictionaryVariables
280
     0
  1
1
  0
DICTIONARYVAR
  5
1A60C
102
{ACAD_REACTORS
330
37
102
}
330
37
100
DictionaryVariables
280
     0
  1
0
  0
DICTIONARYVAR
  5
704F
102
{ACAD_REACTORS
330
37
102
}
330
37
100
DictionaryVariables
280
     0
  1
8
  0
DICTIONARYVAR
  5
7050
102
{ACAD_REACTORS
330
37
102
}
330
37
100
DictionaryVariables
280
     0
  1
2
  0
DICTIONARYVAR
  5
1CF
102
{ACAD_REACTORS
330
37
102
}
330
37
100
DictionaryVariables
280
     0
  1

  0
DICTIONARYVAR
  5
DA6C
102
{ACAD_REACTORS
330
37
102
}
330
37
100
DictionaryVariables
280
     0
  1
127
  0
DICTIONARYVAR
  5
19C7C
102
{ACAD_REACTORS
330
37
102
}
330
37
100
DictionaryVariables
280
     0
  1
2
  0
DICTIONARY
  5
1B259
330
D9A4
100
AcDbDictionary
  3
ACAD_XREC_ROUNDTRIP
360
1B25A
1001
ACAD
1000
TREAT_AS_HARD
1070
     1
  0
DICTIONARY
  5
1B25B
330
D99C
100
AcDbDictionary
  3
ACAD_XREC_ROUNDTRIP
360
1B25C
1001
ACAD
1000
TREAT_AS_HARD
1070
     1
  0
DICTIONARY
  5
1B25D
330
D9AC
100
AcDbDictionary
  3
ACAD_XREC_ROUNDTRIP
360
1B25E
1001
ACAD
1000
TREAT_AS_HARD
1070
     1
  0
XRECORD
  5
1B25A
102
{ACAD_REACTORS
330
1B259
102
}
330
1B259
100
AcDbXrecord
102
MATERIAL
148
0.0
149
0.0
149
0.0
 93
        0
 94
      127
282
     0
 72
     0
 77
     0
171
     0
175
     0
179
     0
273
     0
  0
XRECORD
  5
1B25C
102
{ACAD_REACTORS
330
1B25B
102
}
330
1B25B
100
AcDbXrecord
102
MATERIAL
148
0.0
149
0.0
149
0.0
 93
        0
 94
      127
282
     0
 72
     0
 77
     0
171
     0
175
     0
179
     0
273
     0
  0
XRECORD
  5
1B25E
102
{ACAD_REACTORS
330
1B25D
102
}
330
1B25D
100
AcDbXrecord
102
MATERIAL
148
0.0
149
0.0
149
0.0
 93
        0
 94
      127
282
     0
 72
     0
 77
     0
171
     0
175
     0
179
     0
273
     0
  0
ENDSEC
  0
EOF
