  0
SECTION
  2
HEADER
  9
$ACADVER
  1
AC1009
  9
$INSBASE
 10
0.0
 20
0.0
 30
0.0
  9
$EXTMIN
 10
550.13637309049125
 20
-2218.0700215977431
 30
0.0
  9
$EXTMAX
 10
1139.5390403683241
 20
-1799.6840815987709
 30
0.0
  9
$LIMMIN
 10
0.0
 20
0.0
  9
$LIMMAX
 10
420.0
 20
297.0
  9
$ORTHOMODE
 70
     0
  9
$REGENMODE
 70
     1
  9
$FILLMODE
 70
     1
  9
$QTEXTMODE
 70
     0
  9
$MIRRTEXT
 70
     0
  9
$DRAGMODE
 70
     2
  9
$LTSCALE
 40
0.5
  9
$OSMODE
 70
  2175
  9
$ATTMODE
 70
     1
  9
$TEXTSIZE
 40
4.0
  9
$TRACEWID
 40
1.0
  9
$TEXTSTYLE
  7
STANDARD
  9
$CLAYER
  8
1TEXT
  9
$CELTYPE
  6
BYLAYER
  9
$CECOLOR
 62
   256
  9
$DIMSCALE
 40
1.0
  9
$DIMASZ
 40
2.0
  9
$DIMEXO
 40
0.0
  9
$DIMDLI
 40
7.0
  9
$DIMRND
 40
0.0
  9
$DIMDLE
 40
0.0
  9
$DIMEXE
 40
1.0
  9
$DIMTP
 40
0.0
  9
$DIMTM
 40
0.0
  9
$DIMTXT
 40
3.5
  9
$DIMCEN
 40
0.0
  9
$DIMTSZ
 40
0.0
  9
$DIMTOL
 70
     0
  9
$DIMLIM
 70
     0
  9
$DIMTIH
 70
     0
  9
$DIMTOH
 70
     0
  9
$DIMSE1
 70
     0
  9
$DIMSE2
 70
     0
  9
$DIMTAD
 70
     1
  9
$DIMZIN
 70
     8
  9
$DIMBLK
  1

  9
$DIMASO
 70
     1
  9
$DIMSHO
 70
     1
  9
$DIMPOST
  1
 
  9
$DIMAPOST
  1

  9
$DIMALT
 70
     0
  9
$DIMALTD
 70
     2
  9
$DIMALTF
 40
25.399999999999999
  9
$DIMLFAC
 40
1.0
  9
$DIMTOFL
 70
     1
  9
$DIMTVP
 40
0.0
  9
$DIMTIX
 70
     0
  9
$DIMSOXD
 70
     0
  9
$DIMSAH
 70
     1
  9
$DIMBLK1
  1
OPEN30
  9
$DIMBLK2
  1
OPEN30
  9
$DIMSTYLE
  2
NEWX10
  9
$DIMCLRD
 70
   256
  9
$DIMCLRE
 70
   256
  9
$DIMCLRT
 70
   201
  9
$DIMTFAC
 40
0.7
  9
$DIMGAP
 40
0.7
  9
$LUNITS
 70
     2
  9
$LUPREC
 70
     4
  9
$SKETCHINC
 40
1.0
  9
$FILLETRAD
 40
0.0
  9
$AUNITS
 70
     0
  9
$AUPREC
 70
     2
  9
$MENU
  1
acad
  9
$ELEVATION
 40
0.0
  9
$PELEVATION
 40
0.0
  9
$THICKNESS
 40
0.0
  9
$LIMCHECK
 70
     0
  9
$BLIPMODE
 70
     0
  9
$CHAMFERA
 40
10.0
  9
$CHAMFERB
 40
10.0
  9
$SKPOLY
 70
     0
  9
$TDCREATE
 40
2451318.621352917
  9
$TDUPDATE
 40
2456016.827448993
  9
$TDINDWG
 40
0.4686862616
  9
$TDUSRTIMER
 40
0.4686862616
  9
$USRTIMER
 70
     1
  9
$ANGBASE
 50
0.0
  9
$ANGDIR
 70
     0
  9
$PDMODE
 70
     0
  9
$PDSIZE
 40
0.0
  9
$PLINEWID
 40
0.0
  9
$COORDS
 70
     2
  9
$SPLFRAME
 70
     0
  9
$SPLINETYPE
 70
     6
  9
$SPLINESEGS
 70
     8
  9
$ATTDIA
 70
     0
  9
$ATTREQ
 70
     1
  9
$HANDLING
 70
     1
  9
$HANDSEED
  5
C5F3
  9
$SURFTAB1
 70
     6
  9
$SURFTAB2
 70
     6
  9
$SURFTYPE
 70
     6
  9
$SURFU
 70
     6
  9
$SURFV
 70
     6
  9
$UCSNAME
  2

  9
$UCSORG
 10
0.0
 20
0.0
 30
0.0
  9
$UCSXDIR
 10
1.0
 20
0.0
 30
0.0
  9
$UCSYDIR
 10
0.0
 20
1.0
 30
0.0
  9
$PUCSNAME
  2

  9
$PUCSORG
 10
0.0
 20
0.0
 30
0.0
  9
$PUCSXDIR
 10
1.0
 20
0.0
 30
0.0
  9
$PUCSYDIR
 10
0.0
 20
1.0
 30
0.0
  9
$USERI1
 70
     0
  9
$USERI2
 70
     0
  9
$USERI3
 70
     0
  9
$USERI4
 70
     0
  9
$USERI5
 70
     0
  9
$USERR1
 40
0.0
  9
$USERR2
 40
0.0
  9
$USERR3
 40
0.0
  9
$USERR4
 40
0.0
  9
$USERR5
 40
0.0
  9
$WORLDVIEW
 70
     1
  9
$SHADEDGE
 70
     3
  9
$SHADEDIF
 70
    70
  9
$TILEMODE
 70
     1
  9
$MAXACTVP
 70
    48
  9
$PLIMCHECK
 70
     0
  9
$PEXTMIN
 10
1.0000000000000000E+020
 20
1.0000000000000000E+020
 30
1.0000000000000000E+020
  9
$PEXTMAX
 10
-1.0000000000000000E+020
 20
-1.0000000000000000E+020
 30
-1.0000000000000000E+020
  9
$PLIMMIN
 10
0.0
 20
0.0
  9
$PLIMMAX
 10
420.0
 20
297.0
  9
$UNITMODE
 70
     0
  9
$VISRETAIN
 70
     1
  9
$PLINEGEN
 70
     0
  9
$PSLTSCALE
 70
     1
  0
ENDSEC
  0
SECTION
  2
TABLES
  0
TABLE
  2
VPORT
 70
     1
  0
VPORT
  2
*ACTIVE
 70
     0
 10
0.0
 20
0.0
 11
1.0
 21
1.0
 12
844.84745923283037
 22
-2008.896598494347
 13
0.0
 23
0.0
 14
10.0
 24
10.0
 15
10.0
 25
10.0
 16
0.0
 26
0.0
 36
1.0
 17
0.0
 27
0.0
 37
0.0
 40
444.12281211682659
 41
1.5395095367847409
 42
50.0
 43
0.0
 44
0.0
 50
0.0
 51
0.0
 71
     0
 72
   100
 73
     1
 74
     1
 75
     0
 76
     0
 77
     0
 78
     0
  0
ENDTAB
  0
TABLE
  2
LTYPE
 70
    12
  0
LTYPE
  2
CONTINUOUS
 70
     0
  3
Solid line
 72
    65
 73
     0
 40
0.0
  0
LTYPE
  2
XREF1|CENTER2
 70
    48
  3
Center (.5x) ___ _ ___ _ ___ _ ___ _ ___ _ ___
 72
    65
 73
     4
 40
28.574999999999999
 49
19.050000000000001
 49
-3.1749999999999989
 49
3.1749999999999989
 49
-3.1749999999999989
  0
LTYPE
  2
A3WAKUDAKE|CENTER2
 70
    48
  3
Center (.5x) ___ _ ___ _ ___ _ ___ _ ___ _ ___
 72
    65
 73
     4
 40
28.574999999999999
 49
19.050000000000001
 49
-3.1749999999999989
 49
3.1749999999999989
 49
-3.1749999999999989
  0
ENDTAB
  0
TABLE
  2
LAYER
 70
    36
  0
LAYER
  2
0
 70
     0
 62
     7
  6
CONTINUOUS
  0
LAYER
  2
1TEXT
 70
     0
 62
     7
  6
CONTINUOUS
  0
LAYER
  2
01
 70
     0
 62
     1
  6
CONTINUOUS
  0
LAYER
  2
A3WAKUDAKE|THICK
 70
    48
 62
     7
  6
CONTINUOUS
  0
LAYER
  2
A3WAKUDAKE|POINT
 70
    48
 62
     7
  6
CONTINUOUS
  0
LAYER
  2
A3WAKUDAKE|1CENTER
 70
    48
 62
     7
  6
A3WAKUDAKE|CENTER2
  0
LAYER
  2
A3WAKUDAKE|0-6
 70
    48
 62
     7
  6
CONTINUOUS
  0
LAYER
  2
A3WAKUDAKE|1DIM
 70
    48
 62
     7
  6
CONTINUOUS
  0
LAYER
  2
XREF1|1CENTER
 70
    48
 62
     7
  6
XREF1|CENTER2
  0
ENDTAB
  0
TABLE
  2
STYLE
 70
     4
  0
STYLE
  2
STANDARD
 70
     0
 40
0.0
 41
1.0
 50
0.0
 71
     0
 42
4.0
  3
romans.shx
  4
extfont.shx
  0
ENDTAB
  0
TABLE
  2
VIEW
 70
     5
  0
ENDTAB
  0
TABLE
  2
UCS
 70
     0
  0
ENDTAB
  0
TABLE
  2
APPID
 70
     9
  0
APPID
  2
ACAD
 70
     0
  0
APPID
  2
DRAWINGVARIABLESXDATA
 70
     0
  0
APPID
  2
CONTENTTABDATA
 70
     0
  0
APPID
  2
CONTENTCURRENTTAB
 70
     0
  0
APPID
  2
CONTENTBLOCKDESCRIPTION
 70
     0
  0
APPID
  2
CONTENTBLOCKICON
 70
     0
  0
APPID
  2
CONTENTLONGBLOCKNAME
 70
     0
  0
APPID
  2
ACAD_PSEXT
 70
     0
  0
APPID
  2
ACAD_MLEADERVER
 70
     0
  0
ENDTAB
  0
TABLE
  2
DIMSTYLE
 70
     5
  0
DIMSTYLE
  2
NEWX10
 70
     0
  3
 
  4

  5

  6
OPEN30
  7
OPEN30
 40
1.0
 41
2.0
 42
0.0
 43
7.0
 44
1.0
 45
0.0
 46
0.0
 47
0.0
 48
0.0
140
3.5
141
0.0
142
0.0
143
25.399999999999999
144
1.0
145
0.0
146
0.7
147
0.7
 71
     0
 72
     0
 73
     0
 74
     0
 75
     0
 76
     0
 77
     1
 78
     8
170
     0
171
     2
172
     1
173
     1
174
     0
175
     0
176
   256
177
   256
178
   201
  0
ENDTAB
  0
ENDSEC
  0
SECTION
  2
BLOCKS
  0
BLOCK
  8
0
  2
$MODEL_SPACE
 70
     0
 10
0.0
 20
0.0
 30
0.0
  3
$MODEL_SPACE
  1

  0
ENDBLK
  5
1A
  8
0
  0
BLOCK
 67
     1
  8
0
  2
$PAPER_SPACE
 70
     0
 10
0.0
 20
0.0
 30
0.0
  3
$PAPER_SPACE
  1

  0
ENDBLK
  5
17
 67
     1
  8
0
  0
BLOCK
  8
0
  2
_OPEN30
 70
     0
 10
0.0
 20
0.0
 30
0.0
  3
_OPEN30
  1

  0
LINE
  5
44
  8
0
  6
BYBLOCK
 62
     0
 10
-1.0
 20
0.26794919
 30
0.0
 11
0.0
 21
0.0
 31
0.0
  0
LINE
  5
45
  8
0
  6
BYBLOCK
 62
     0
 10
0.0
 20
0.0
 30
0.0
 11
-1.0
 21
-0.26794919
 31
0.0
  0
LINE
  5
46
  8
0
  6
BYBLOCK
 62
     0
 10
0.0
 20
0.0
 30
0.0
 11
-1.0
 21
0.0
 31
0.0
  0
ENDBLK
  5
47
  8
0
  0
BLOCK
  8
0
  2
XREF1
 70
    36
 10
0.0
 20
0.0
 30
0.0
  3
XREF1
  1
D:\ACLT\FORMAT\KAWAJUN(9)図面用.dwg
  0
ENDBLK
  5
5D
  8
0
  0
BLOCK
  8
0
  2
A3WAKUDAKE
 70
    36
 10
0.0
 20
0.0
 30
0.0
  3
A3WAKUDAKE
  1
D:\ACLT\FORMAT\A3WAKUdake.dwg
  0
ENDBLK
  5
6A0
  8
0
  0
BLOCK
  8
0
  2
*U27
 70
     1
 10
0.0
 20
0.0
 30
0.0
  3
*U27
  1

  0
TEXT
  5
C0D2
  8
1TEXT
 62
   201
 10
1043.348932108097
 20
-1895.5674149321039
 30
0.0
 40
3.5
  1
20.5
 50
90.0
  0
ENDBLK
  5
C0D4
  8
0
  0
BLOCK
  8
0
  2
*U28
 70
     1
 10
0.0
 20
0.0
 30
0.0
  3
*U28
  1

  0
TEXT
  5
C0D6
  8
1TEXT
 62
   201
 10
1043.1389401080969
 20
-397.31741493210592
 30
0.0
 40
4.5499999999999989
  1
20.5
 50
90.0
  0
ENDBLK
  5
C0D8
  8
0
  0
ENDSEC
  0
SECTION
  2
ENTITIES
  0
CIRCLE
  5
2931
  8
01
 10
1004.187665166324
 20
-2107.7340815977441
 30
0.0
 40
19.799999
  0
TEXT
  5
B5E5
  8
01
 10
656.00427030689082
 20
-1873.808422393867
 30
0.0
 40
20.0
  1
3-S1C-X-LW
  0
LINE
  5
B5E7
  8
01
 10
656.00427030689082
 20
-1935.308422393867
 30
0.0
 11
761.0042703068907
 21
-1935.308422393867
 31
0.0
  0
TEXT
  5
B5E9
  8
01
 10
668.50427030689025
 20
-1912.058422393867
 30
0.0
 40
6.0
  1
表面処理
 72
     1
 11
682.10427030689016
 21
-1912.058422393867
 31
0.0
  0
LINE
  5
B5EB
  8
01
 10
656.00427030689082
 20
-1903.808422393867
 30
0.0
 11
761.0042703068907
 21
-1903.808422393867
 31
0.0
  0
LINE
  5
B5EC
  8
01
 10
656.00427030689082
 20
-1914.308422393867
 30
0.0
 11
761.0042703068907
 21
-1914.308422393867
 31
0.0
  0
LINE
  5
B5ED
  8
01
 10
656.00427030689082
 20
-1924.808422393867
 30
0.0
 11
761.0042703068907
 21
-1924.808422393867
 31
0.0
  0
LINE
  5
B5EE
  8
01
 10
656.00427030689082
 20
-1924.808422393867
 30
0.0
 11
761.0042703068907
 21
-1924.808422393867
 31
0.0
  0
LINE
  5
B5EF
  8
01
 10
708.50427030689082
 20
-1903.808422393867
 30
0.0
 11
708.50427030689082
 21
-1945.808422393867
 31
0.0
  0
TEXT
  5
B5F0
  8
01
 10
712.40427030689159
 20
-1922.879957869342
 30
0.0
 40
6.0
  1
3-S1C-P-LW
 41
0.7
 72
     1
 11
734.60427030689164
 21
-1922.879957869342
 31
0.0
  0
TEXT
  5
B5F1
  8
01
 10
724.40427030689023
 20
-1912.058422393867
 30
0.0
 40
6.0
  1
コード
 72
     1
 11
734.60427030689027
 21
-1912.058422393867
 31
0.0
  0
LINE
  5
B5F2
  8
01
 10
656.00427030689082
 20
-1945.808422393867
 30
0.0
 11
761.0042703068907
 21
-1945.808422393867
 31
0.0
  0
LINE
  5
B5F4
  8
01
 10
656.00427030689082
 20
-1945.808422393867
 30
0.0
 11
656.00427030689082
 21
-1903.808422393867
 31
0.0
  0
LINE
  5
B5F5
  8
01
 10
761.0042703068907
 20
-1945.808422393867
 30
0.0
 11
761.0042703068907
 21
-1903.808422393867
 31
0.0
  0
TEXT
  5
B5F6
  8
01
 10
712.90427030689159
 20
-1933.379957869342
 30
0.0
 40
6.0
  1
3-S1C-T-LW
 41
0.7
 72
     1
 11
734.60427030689164
 21
-1933.379957869342
 31
0.0
  0
TEXT
  5
B5F7
  8
01
 10
710.80427030689168
 20
-1943.8799578693411
 30
0.0
 40
6.0
  1
3-S1C-PT-LW
 41
0.7
 72
     1
 11
734.60427030689164
 21
-1943.8799578693411
 31
0.0
  0
LINE
  5
B83F
  8
01
 10
854.18766116632366
 20
-2070.736701597742
 30
0.0
 11
854.18766116632366
 21
-2218.0700215977431
 31
0.0
  0
LINE
  5
B840
  8
01
 10
814.18766116632366
 20
-2070.736701597742
 30
0.0
 11
814.18766116632366
 21
-2218.0700215977431
 31
0.0
  0
LINE
  5
B841
  8
01
 10
712.78766716632435
 20
-2077.2340815977432
 30
0.0
 11
712.78766716632435
 21
-2100.334051597742
 31
0.0
  0
LINE
  5
B842
  8
01
 10
711.18766116632366
 20
-2077.2340815977432
 30
0.0
 11
711.18766116632366
 21
-2100.2340815977432
 31
0.0
  0
LINE
  5
B843
  8
01
 10
713.58767016632464
 20
-2077.2340815977432
 30
0.0
 11
713.58767016632464
 21
-2207.2340815977432
 31
0.0
  0
LINE
  5
B844
  8
01
 10
715.18766116632366
 20
-2077.2340815977432
 30
0.0
 11
715.18766116632366
 21
-2207.2340815977432
 31
0.0
  0
LINE
  5
B846
  8
01
 10
712.18766116632366
 20
-2179.2340815977432
 30
0.0
 11
683.39703787862288
 21
-2179.2340815977432
 31
0.0
  0
LINE
  5
B847
  8
01
 10
646.18767716632374
 20
-2115.9827590917198
 30
0.0
 11
646.18767716632374
 21
-2145.884717574821
 31
0.0
  0
LINE
  5
B848
  8
01
 10
721.18766116632185
 20
-2131.2340815977432
 30
0.0
 11
715.18766116632366
 21
-2131.2340815977432
 31
0.0
  0
LINE
  5
B849
  8
01
 10
726.18766116632378
 20
-2136.2340815977432
 30
0.0
 11
716.18766116632366
 21
-2136.2340815977432
 31
0.0
  0
POLYLINE
  5
B84A
  8
01
 10
726.18766116632366
 20
-2134.8025015977419
 30
0.0
 66
     1
 70
     8
  0
VERTEX
  8
01
  5
C0DF
 10
726.188
 20
-2134.80
 30
0.000000
  70
    32
  0
VERTEX
  8
01
  5
C0E0
 10
726.186
 20
-2134.71
 30
0.000000
  70
    32
  0
VERTEX
  8
01
  5
C0E1
 10
726.182
 20
-2134.63
 30
0.000000
  70
    32
  0
VERTEX
  8
01
  5
C0E2
 10
726.174
 20
-2134.54
 30
0.000000
  70
    32
  0
VERTEX
  8
01
  5
C0E3
 10
726.164
 20
-2134.45
 30
0.000000
  70
    32
  0
VERTEX
  8
01
  5
C0E4
 10
726.150
 20
-2134.37
 30
0.000000
  70
    32
  0
VERTEX
  8
01
  5
C0E5
 10
726.134
 20
-2134.28
 30
0.000000
  70
    32
  0
VERTEX
  8
01
  5
C0E6
 10
726.114
 20
-2134.19
 30
0.000000
  70
    32
  0
VERTEX
  8
01
  5
C0E7
 10
726.092
 20
-2134.11
 30
0.000000
  70
    32
  0
VERTEX
  8
01
  5
C0E8
 10
726.066
 20
-2134.02
 30
0.000000
  70
    32
  0
VERTEX
  8
01
  5
C0E9
 10
726.038
 20
-2133.94
 30
0.000000
  70
    32
  0
VERTEX
  8
01
  5
C0EA
 10
726.007
 20
-2133.85
 30
0.000000
  70
    32
  0
VERTEX
  8
01
  5
C0EB
 10
725.972
 20
-2133.77
 30
0.000000
  70
    32
  0
VERTEX
  8
01
  5
C0EC
 10
725.935
 20
-2133.68
 30
0.000000
  70
    32
  0
VERTEX
  8
01
  5
C0ED
 10
725.895
 20
-2133.60
 30
0.000000
  70
    32
  0
VERTEX
  8
01
  5
C0EE
 10
725.853
 20
-2133.52
 30
0.000000
  70
    32
  0
VERTEX
  8
01
  5
C0EF
 10
725.807
 20
-2133.44
 30
0.000000
  70
    32
  0
VERTEX
  8
01
  5
C0F0
 10
725.759
 20
-2133.36
 30
0.000000
  70
    32
  0
VERTEX
  8
01
  5
C0F1
 10
725.708
 20
-2133.28
 30
0.000000
  70
    32
  0
VERTEX
  8
01
  5
C0F2
 10
725.654
 20
-2133.20
 30
0.000000
  70
    32
  0
VERTEX
  8
01
  5
C0F3
 10
725.597
 20
-2133.12
 30
0.000000
  70
    32
  0
VERTEX
  8
01
  5
C0F4
 10
725.538
 20
-2133.04
 30
0.000000
  70
    32
  0
VERTEX
  8
01
  5
C0F5
 10
725.476
 20
-2132.97
 30
0.000000
  70
    32
  0
VERTEX
  8
01
  5
C0F6
 10
725.412
 20
-2132.89
 30
0.000000
  70
    32
  0
VERTEX
  8
01
  5
C0F7
 10
725.345
 20
-2132.82
 30
0.000000
  70
    32
  0
VERTEX
  8
01
  5
C0F8
 10
725.276
 20
-2132.75
 30
0.000000
  70
    32
  0
VERTEX
  8
01
  5
C0F9
 10
725.204
 20
-2132.68
 30
0.000000
  70
    32
  0
VERTEX
  8
01
  5
C0FA
 10
725.129
 20
-2132.61
 30
0.000000
  70
    32
  0
VERTEX
  8
01
  5
C0FB
 10
725.053
 20
-2132.54
 30
0.000000
  70
    32
  0
VERTEX
  8
01
  5
C0FC
 10
724.974
 20
-2132.47
 30
0.000000
  70
    32
  0
VERTEX
  8
01
  5
C0FD
 10
724.892
 20
-2132.41
 30
0.000000
  70
    32
  0
VERTEX
  8
01
  5
C0FE
 10
724.809
 20
-2132.34
 30
0.000000
  70
    32
  0
VERTEX
  8
01
  5
C0FF
 10
724.723
 20
-2132.28
 30
0.000000
  70
    32
  0
VERTEX
  8
01
  5
C100
 10
724.635
 20
-2132.22
 30
0.000000
  70
    32
  0
VERTEX
  8
01
  5
C101
 10
724.545
 20
-2132.16
 30
0.000000
  70
    32
  0
VERTEX
  8
01
  5
C102
 10
724.454
 20
-2132.10
 30
0.000000
  70
    32
  0
VERTEX
  8
01
  5
C103
 10
724.360
 20
-2132.04
 30
0.000000
  70
    32
  0
VERTEX
  8
01
  5
C104
 10
724.264
 20
-2131.99
 30
0.000000
  70
    32
  0
VERTEX
  8
01
  5
C105
 10
724.166
 20
-2131.94
 30
0.000000
  70
    32
  0
VERTEX
  8
01
  5
C106
 10
724.067
 20
-2131.89
 30
0.000000
  70
    32
  0
VERTEX
  8
01
  5
C107
 10
723.966
 20
-2131.84
 30
0.000000
  70
    32
  0
VERTEX
  8
01
  5
C108
 10
723.863
 20
-2131.79
 30
0.000000
  70
    32
  0
VERTEX
  8
01
  5
C109
 10
723.758
 20
-2131.74
 30
0.000000
  70
    32
  0
VERTEX
  8
01
  5
C10A
 10
723.652
 20
-2131.70
 30
0.000000
  70
    32
  0
VERTEX
  8
01
  5
C10B
 10
723.545
 20
-2131.66
 30
0.000000
  70
    32
  0
VERTEX
  8
01
  5
C10C
 10
723.436
 20
-2131.62
 30
0.000000
  70
    32
  0
VERTEX
  8
01
  5
C10D
 10
723.325
 20
-2131.58
 30
0.000000
  70
    32
  0
VERTEX
  8
01
  5
C10E
 10
723.214
 20
-2131.54
 30
0.000000
  70
    32
  0
VERTEX
  8
01
  5
C10F
 10
723.101
 20
-2131.51
 30
0.000000
  70
    32
  0
VERTEX
  8
01
  5
C110
 10
722.987
 20
-2131.47
 30
0.000000
  70
    32
  0
VERTEX
  8
01
  5
C111
 10
722.872
 20
-2131.44
 30
0.000000
  70
    32
  0
VERTEX
  8
01
  5
C112
 10
722.756
 20
-2131.41
 30
0.000000
  70
    32
  0
VERTEX
  8
01
  5
C113
 10
722.639
 20
-2131.39
 30
0.000000
  70
    32
  0
VERTEX
  8
01
  5
C114
 10
722.521
 20
-2131.36
 30
0.000000
  70
    32
  0
VERTEX
  8
01
  5
C115
 10
722.403
 20
-2131.34
 30
0.000000
  70
    32
  0
VERTEX
  8
01
  5
C116
 10
722.283
 20
-2131.32
 30
0.000000
  70
    32
  0
VERTEX
  8
01
  5
C117
 10
722.163
 20
-2131.30
 30
0.000000
  70
    32
  0
VERTEX
  8
01
  5
C118
 10
722.042
 20
-2131.29
 30
0.000000
  70
    32
  0
VERTEX
  8
01
  5
C119
 10
721.921
 20
-2131.27
 30
0.000000
  70
    32
  0
VERTEX
  8
01
  5
C11A
 10
721.800
 20
-2131.26
 30
0.000000
  70
    32
  0
VERTEX
  8
01
  5
C11B
 10
721.678
 20
-2131.25
 30
0.000000
  70
    32
  0
VERTEX
  8
01
  5
C11C
 10
721.555
 20
-2131.24
 30
0.000000
  70
    32
  0
VERTEX
  8
01
  5
C11D
 10
721.433
 20
-2131.24
 30
0.000000
  70
    32
  0
VERTEX
  8
01
  5
C11E
 10
721.310
 20
-2131.24
 30
0.000000
  70
    32
  0
VERTEX
  8
01
  5
C11F
 10
721.188
 20
-2131.23
 30
0.000000
  70
    32
  0
VERTEX
  8
01
  5
C120
 10
721.065
 20
-2131.24
 30
0.000000
  70
    32
  0
VERTEX
  8
01
  5
C121
 10
720.942
 20
-2131.24
 30
0.000000
  70
    32
  0
VERTEX
  8
01
  5
C122
 10
720.820
 20
-2131.24
 30
0.000000
  70
    32
  0
VERTEX
  8
01
  5
C123
 10
720.698
 20
-2131.25
 30
0.000000
  70
    32
  0
VERTEX
  8
01
  5
C124
 10
720.576
 20
-2131.26
 30
0.000000
  70
    32
  0
VERTEX
  8
01
  5
C125
 10
720.454
 20
-2131.27
 30
0.000000
  70
    32
  0
VERTEX
  8
01
  5
C126
 10
720.333
 20
-2131.29
 30
0.000000
  70
    32
  0
VERTEX
  8
01
  5
C127
 10
720.212
 20
-2131.30
 30
0.000000
  70
    32
  0
VERTEX
  8
01
  5
C128
 10
720.092
 20
-2131.32
 30
0.000000
  70
    32
  0
VERTEX
  8
01
  5
C129
 10
719.973
 20
-2131.34
 30
0.000000
  70
    32
  0
VERTEX
  8
01
  5
C12A
 10
719.854
 20
-2131.36
 30
0.000000
  70
    32
  0
VERTEX
  8
01
  5
C12B
 10
719.736
 20
-2131.39
 30
0.000000
  70
    32
  0
VERTEX
  8
01
  5
C12C
 10
719.619
 20
-2131.41
 30
0.000000
  70
    32
  0
VERTEX
  8
01
  5
C12D
 10
719.503
 20
-2131.44
 30
0.000000
  70
    32
  0
VERTEX
  8
01
  5
C12E
 10
719.388
 20
-2131.47
 30
0.000000
  70
    32
  0
VERTEX
  8
01
  5
C12F
 10
719.274
 20
-2131.51
 30
0.000000
  70
    32
  0
VERTEX
  8
01
  5
C130
 10
719.161
 20
-2131.54
 30
0.000000
  70
    32
  0
VERTEX
  8
01
  5
C131
 10
719.050
 20
-2131.58
 30
0.000000
  70
    32
  0
VERTEX
  8
01
  5
C132
 10
718.940
 20
-2131.62
 30
0.000000
  70
    32
  0
VERTEX
  8
01
  5
C133
 10
718.831
 20
-2131.66
 30
0.000000
  70
    32
  0
VERTEX
  8
01
  5
C134
 10
718.723
 20
-2131.70
 30
0.000000
  70
    32
  0
VERTEX
  8
01
  5
C135
 10
718.617
 20
-2131.74
 30
0.000000
  70
    32
  0
VERTEX
  8
01
  5
C136
 10
718.513
 20
-2131.79
 30
0.000000
  70
    32
  0
VERTEX
  8
01
  5
C137
 10
718.410
 20
-2131.84
 30
0.000000
  70
    32
  0
VERTEX
  8
01
  5
C138
 10
718.309
 20
-2131.89
 30
0.000000
  70
    32
  0
VERTEX
  8
01
  5
C139
 10
718.209
 20
-2131.94
 30
0.000000
  70
    32
  0
VERTEX
  8
01
  5
C13A
 10
718.112
 20
-2131.99
 30
0.000000
  70
    32
  0
VERTEX
  8
01
  5
C13B
 10
718.016
 20
-2132.04
 30
0.000000
  70
    32
  0
VERTEX
  8
01
  5
C13C
 10
717.922
 20
-2132.10
 30
0.000000
  70
    32
  0
VERTEX
  8
01
  5
C13D
 10
717.830
 20
-2132.16
 30
0.000000
  70
    32
  0
VERTEX
  8
01
  5
C13E
 10
717.740
 20
-2132.22
 30
0.000000
  70
    32
  0
VERTEX
  8
01
  5
C13F
 10
717.652
 20
-2132.28
 30
0.000000
  70
    32
  0
VERTEX
  8
01
  5
C140
 10
717.566
 20
-2132.34
 30
0.000000
  70
    32
  0
VERTEX
  8
01
  5
C141
 10
717.483
 20
-2132.41
 30
0.000000
  70
    32
  0
VERTEX
  8
01
  5
C142
 10
717.402
 20
-2132.47
 30
0.000000
  70
    32
  0
VERTEX
  8
01
  5
C143
 10
717.323
 20
-2132.54
 30
0.000000
  70
    32
  0
VERTEX
  8
01
  5
C144
 10
717.246
 20
-2132.61
 30
0.000000
  70
    32
  0
VERTEX
  8
01
  5
C145
 10
717.172
 20
-2132.68
 30
0.000000
  70
    32
  0
VERTEX
  8
01
  5
C146
 10
717.100
 20
-2132.75
 30
0.000000
  70
    32
  0
VERTEX
  8
01
  5
C147
 10
717.030
 20
-2132.82
 30
0.000000
  70
    32
  0
VERTEX
  8
01
  5
C148
 10
716.963
 20
-2132.89
 30
0.000000
  70
    32
  0
VERTEX
  8
01
  5
C149
 10
716.899
 20
-2132.97
 30
0.000000
  70
    32
  0
VERTEX
  8
01
  5
C14A
 10
716.837
 20
-2133.04
 30
0.000000
  70
    32
  0
VERTEX
  8
01
  5
C14B
 10
716.778
 20
-2133.12
 30
0.000000
  70
    32
  0
VERTEX
  8
01
  5
C14C
 10
716.722
 20
-2133.20
 30
0.000000
  70
    32
  0
VERTEX
  8
01
  5
C14D
 10
716.668
 20
-2133.28
 30
0.000000
  70
    32
  0
VERTEX
  8
01
  5
C14E
 10
716.617
 20
-2133.36
 30
0.000000
  70
    32
  0
VERTEX
  8
01
  5
C14F
 10
716.568
 20
-2133.44
 30
0.000000
  70
    32
  0
VERTEX
  8
01
  5
C150
 10
716.523
 20
-2133.52
 30
0.000000
  70
    32
  0
VERTEX
  8
01
  5
C151
 10
716.480
 20
-2133.60
 30
0.000000
  70
    32
  0
VERTEX
  8
01
  5
C152
 10
716.440
 20
-2133.68
 30
0.000000
  70
    32
  0
VERTEX
  8
01
  5
C153
 10
716.403
 20
-2133.77
 30
0.000000
  70
    32
  0
VERTEX
  8
01
  5
C154
 10
716.369
 20
-2133.85
 30
0.000000
  70
    32
  0
VERTEX
  8
01
  5
C155
 10
716.338
 20
-2133.94
 30
0.000000
  70
    32
  0
VERTEX
  8
01
  5
C156
 10
716.309
 20
-2134.02
 30
0.000000
  70
    32
  0
VERTEX
  8
01
  5
C157
 10
716.284
 20
-2134.11
 30
0.000000
  70
    32
  0
VERTEX
  8
01
  5
C158
 10
716.261
 20
-2134.19
 30
0.000000
  70
    32
  0
VERTEX
  8
01
  5
C159
 10
716.242
 20
-2134.28
 30
0.000000
  70
    32
  0
VERTEX
  8
01
  5
C15A
 10
716.225
 20
-2134.37
 30
0.000000
  70
    32
  0
VERTEX
  8
01
  5
C15B
 10
716.212
 20
-2134.45
 30
0.000000
  70
    32
  0
VERTEX
  8
01
  5
C15C
 10
716.201
 20
-2134.54
 30
0.000000
  70
    32
  0
VERTEX
  8
01
  5
C15D
 10
716.194
 20
-2134.63
 30
0.000000
  70
    32
  0
VERTEX
  8
01
  5
C15E
 10
716.189
 20
-2134.71
 30
0.000000
  70
    32
  0
VERTEX
  8
01
  5
C15F
 10
716.188
 20
-2134.80
 30
0.000000
  70
    32
  0
SEQEND
  8
01
  5
C160
  0
LINE
  5
B84B
  8
01
 10
721.18766116632366
 20
-2151.2340815977432
 30
0.0
 11
715.18766116632366
 21
-2151.2340815977432
 31
0.0
  0
LINE
  5
B84C
  8
01
 10
726.18766116632378
 20
-2146.2340815977432
 30
0.0
 11
716.18766116632366
 21
-2146.2340815977432
 31
0.0
  0
POLYLINE
  5
B84D
  8
01
 10
726.18766116632366
 20
-2147.6656615977422
 30
0.0
 66
     1
 70
     8
  0
VERTEX
  8
01
  5
C161
 10
726.188
 20
-2147.67
 30
0.000000
  70
    32
  0
VERTEX
  8
01
  5
C162
 10
726.186
 20
-2147.75
 30
0.000000
  70
    32
  0
VERTEX
  8
01
  5
C163
 10
726.182
 20
-2147.84
 30
0.000000
  70
    32
  0
VERTEX
  8
01
  5
C164
 10
726.174
 20
-2147.93
 30
0.000000
  70
    32
  0
VERTEX
  8
01
  5
C165
 10
726.164
 20
-2148.02
 30
0.000000
  70
    32
  0
VERTEX
  8
01
  5
C166
 10
726.150
 20
-2148.10
 30
0.000000
  70
    32
  0
VERTEX
  8
01
  5
C167
 10
726.134
 20
-2148.19
 30
0.000000
  70
    32
  0
VERTEX
  8
01
  5
C168
 10
726.114
 20
-2148.28
 30
0.000000
  70
    32
  0
VERTEX
  8
01
  5
C169
 10
726.092
 20
-2148.36
 30
0.000000
  70
    32
  0
VERTEX
  8
01
  5
C16A
 10
726.066
 20
-2148.45
 30
0.000000
  70
    32
  0
VERTEX
  8
01
  5
C16B
 10
726.038
 20
-2148.53
 30
0.000000
  70
    32
  0
VERTEX
  8
01
  5
C16C
 10
726.007
 20
-2148.62
 30
0.000000
  70
    32
  0
VERTEX
  8
01
  5
C16D
 10
725.972
 20
-2148.70
 30
0.000000
  70
    32
  0
VERTEX
  8
01
  5
C16E
 10
725.935
 20
-2148.79
 30
0.000000
  70
    32
  0
VERTEX
  8
01
  5
C16F
 10
725.895
 20
-2148.87
 30
0.000000
  70
    32
  0
VERTEX
  8
01
  5
C170
 10
725.853
 20
-2148.95
 30
0.000000
  70
    32
  0
VERTEX
  8
01
  5
C171
 10
725.807
 20
-2149.03
 30
0.000000
  70
    32
  0
VERTEX
  8
01
  5
C172
 10
725.759
 20
-2149.11
 30
0.000000
  70
    32
  0
VERTEX
  8
01
  5
C173
 10
725.708
 20
-2149.19
 30
0.000000
  70
    32
  0
VERTEX
  8
01
  5
C174
 10
725.654
 20
-2149.27
 30
0.000000
  70
    32
  0
VERTEX
  8
01
  5
C175
 10
725.597
 20
-2149.35
 30
0.000000
  70
    32
  0
VERTEX
  8
01
  5
C176
 10
725.538
 20
-2149.42
 30
0.000000
  70
    32
  0
VERTEX
  8
01
  5
C177
 10
725.476
 20
-2149.50
 30
0.000000
  70
    32
  0
VERTEX
  8
01
  5
C178
 10
725.412
 20
-2149.57
 30
0.000000
  70
    32
  0
VERTEX
  8
01
  5
C179
 10
725.345
 20
-2149.65
 30
0.000000
  70
    32
  0
VERTEX
  8
01
  5
C17A
 10
725.276
 20
-2149.72
 30
0.000000
  70
    32
  0
VERTEX
  8
01
  5
C17B
 10
725.204
 20
-2149.79
 30
0.000000
  70
    32
  0
VERTEX
  8
01
  5
C17C
 10
725.129
 20
-2149.86
 30
0.000000
  70
    32
  0
VERTEX
  8
01
  5
C17D
 10
725.053
 20
-2149.93
 30
0.000000
  70
    32
  0
VERTEX
  8
01
  5
C17E
 10
724.974
 20
-2150.00
 30
0.000000
  70
    32
  0
VERTEX
  8
01
  5
C17F
 10
724.892
 20
-2150.06
 30
0.000000
  70
    32
  0
VERTEX
  8
01
  5
C180
 10
724.809
 20
-2150.13
 30
0.000000
  70
    32
  0
VERTEX
  8
01
  5
C181
 10
724.723
 20
-2150.19
 30
0.000000
  70
    32
  0
VERTEX
  8
01
  5
C182
 10
724.635
 20
-2150.25
 30
0.000000
  70
    32
  0
VERTEX
  8
01
  5
C183
 10
724.545
 20
-2150.31
 30
0.000000
  70
    32
  0
VERTEX
  8
01
  5
C184
 10
724.454
 20
-2150.37
 30
0.000000
  70
    32
  0
VERTEX
  8
01
  5
C185
 10
724.360
 20
-2150.42
 30
0.000000
  70
    32
  0
VERTEX
  8
01
  5
C186
 10
724.264
 20
-2150.48
 30
0.000000
  70
    32
  0
VERTEX
  8
01
  5
C187
 10
724.166
 20
-2150.53
 30
0.000000
  70
    32
  0
VERTEX
  8
01
  5
C188
 10
724.067
 20
-2150.58
 30
0.000000
  70
    32
  0
VERTEX
  8
01
  5
C189
 10
723.966
 20
-2150.63
 30
0.000000
  70
    32
  0
VERTEX
  8
01
  5
C18A
 10
723.863
 20
-2150.68
 30
0.000000
  70
    32
  0
VERTEX
  8
01
  5
C18B
 10
723.758
 20
-2150.73
 30
0.000000
  70
    32
  0
VERTEX
  8
01
  5
C18C
 10
723.652
 20
-2150.77
 30
0.000000
  70
    32
  0
VERTEX
  8
01
  5
C18D
 10
723.545
 20
-2150.81
 30
0.000000
  70
    32
  0
VERTEX
  8
01
  5
C18E
 10
723.436
 20
-2150.85
 30
0.000000
  70
    32
  0
VERTEX
  8
01
  5
C18F
 10
723.325
 20
-2150.89
 30
0.000000
  70
    32
  0
VERTEX
  8
01
  5
C190
 10
723.214
 20
-2150.93
 30
0.000000
  70
    32
  0
VERTEX
  8
01
  5
C191
 10
723.101
 20
-2150.96
 30
0.000000
  70
    32
  0
VERTEX
  8
01
  5
C192
 10
722.987
 20
-2150.99
 30
0.000000
  70
    32
  0
VERTEX
  8
01
  5
C193
 10
722.872
 20
-2151.03
 30
0.000000
  70
    32
  0
VERTEX
  8
01
  5
C194
 10
722.756
 20
-2151.05
 30
0.000000
  70
    32
  0
VERTEX
  8
01
  5
C195
 10
722.639
 20
-2151.08
 30
0.000000
  70
    32
  0
VERTEX
  8
01
  5
C196
 10
722.521
 20
-2151.10
 30
0.000000
  70
    32
  0
VERTEX
  8
01
  5
C197
 10
722.403
 20
-2151.13
 30
0.000000
  70
    32
  0
VERTEX
  8
01
  5
C198
 10
722.283
 20
-2151.15
 30
0.000000
  70
    32
  0
VERTEX
  8
01
  5
C199
 10
722.163
 20
-2151.17
 30
0.000000
  70
    32
  0
VERTEX
  8
01
  5
C19A
 10
722.042
 20
-2151.18
 30
0.000000
  70
    32
  0
VERTEX
  8
01
  5
C19B
 10
721.921
 20
-2151.20
 30
0.000000
  70
    32
  0
VERTEX
  8
01
  5
C19C
 10
721.800
 20
-2151.21
 30
0.000000
  70
    32
  0
VERTEX
  8
01
  5
C19D
 10
721.678
 20
-2151.22
 30
0.000000
  70
    32
  0
VERTEX
  8
01
  5
C19E
 10
721.555
 20
-2151.22
 30
0.000000
  70
    32
  0
VERTEX
  8
01
  5
C19F
 10
721.433
 20
-2151.23
 30
0.000000
  70
    32
  0
VERTEX
  8
01
  5
C1A0
 10
721.310
 20
-2151.23
 30
0.000000
  70
    32
  0
VERTEX
  8
01
  5
C1A1
 10
721.188
 20
-2151.23
 30
0.000000
  70
    32
  0
VERTEX
  8
01
  5
C1A2
 10
721.065
 20
-2151.23
 30
0.000000
  70
    32
  0
VERTEX
  8
01
  5
C1A3
 10
720.942
 20
-2151.23
 30
0.000000
  70
    32
  0
VERTEX
  8
01
  5
C1A4
 10
720.820
 20
-2151.22
 30
0.000000
  70
    32
  0
VERTEX
  8
01
  5
C1A5
 10
720.698
 20
-2151.22
 30
0.000000
  70
    32
  0
VERTEX
  8
01
  5
C1A6
 10
720.576
 20
-2151.21
 30
0.000000
  70
    32
  0
VERTEX
  8
01
  5
C1A7
 10
720.454
 20
-2151.20
 30
0.000000
  70
    32
  0
VERTEX
  8
01
  5
C1A8
 10
720.333
 20
-2151.18
 30
0.000000
  70
    32
  0
VERTEX
  8
01
  5
C1A9
 10
720.212
 20
-2151.17
 30
0.000000
  70
    32
  0
VERTEX
  8
01
  5
C1AA
 10
720.092
 20
-2151.15
 30
0.000000
  70
    32
  0
VERTEX
  8
01
  5
C1AB
 10
719.973
 20
-2151.13
 30
0.000000
  70
    32
  0
VERTEX
  8
01
  5
C1AC
 10
719.854
 20
-2151.10
 30
0.000000
  70
    32
  0
VERTEX
  8
01
  5
C1AD
 10
719.736
 20
-2151.08
 30
0.000000
  70
    32
  0
VERTEX
  8
01
  5
C1AE
 10
719.619
 20
-2151.05
 30
0.000000
  70
    32
  0
VERTEX
  8
01
  5
C1AF
 10
719.503
 20
-2151.03
 30
0.000000
  70
    32
  0
VERTEX
  8
01
  5
C1B0
 10
719.388
 20
-2150.99
 30
0.000000
  70
    32
  0
VERTEX
  8
01
  5
C1B1
 10
719.274
 20
-2150.96
 30
0.000000
  70
    32
  0
VERTEX
  8
01
  5
C1B2
 10
719.161
 20
-2150.93
 30
0.000000
  70
    32
  0
VERTEX
  8
01
  5
C1B3
 10
719.050
 20
-2150.89
 30
0.000000
  70
    32
  0
VERTEX
  8
01
  5
C1B4
 10
718.940
 20
-2150.85
 30
0.000000
  70
    32
  0
VERTEX
  8
01
  5
C1B5
 10
718.831
 20
-2150.81
 30
0.000000
  70
    32
  0
VERTEX
  8
01
  5
C1B6
 10
718.723
 20
-2150.77
 30
0.000000
  70
    32
  0
VERTEX
  8
01
  5
C1B7
 10
718.617
 20
-2150.73
 30
0.000000
  70
    32
  0
VERTEX
  8
01
  5
C1B8
 10
718.513
 20
-2150.68
 30
0.000000
  70
    32
  0
VERTEX
  8
01
  5
C1B9
 10
718.410
 20
-2150.63
 30
0.000000
  70
    32
  0
VERTEX
  8
01
  5
C1BA
 10
718.309
 20
-2150.58
 30
0.000000
  70
    32
  0
VERTEX
  8
01
  5
C1BB
 10
718.209
 20
-2150.53
 30
0.000000
  70
    32
  0
VERTEX
  8
01
  5
C1BC
 10
718.112
 20
-2150.48
 30
0.000000
  70
    32
  0
VERTEX
  8
01
  5
C1BD
 10
718.016
 20
-2150.42
 30
0.000000
  70
    32
  0
VERTEX
  8
01
  5
C1BE
 10
717.922
 20
-2150.37
 30
0.000000
  70
    32
  0
VERTEX
  8
01
  5
C1BF
 10
717.830
 20
-2150.31
 30
0.000000
  70
    32
  0
VERTEX
  8
01
  5
C1C0
 10
717.740
 20
-2150.25
 30
0.000000
  70
    32
  0
VERTEX
  8
01
  5
C1C1
 10
717.652
 20
-2150.19
 30
0.000000
  70
    32
  0
VERTEX
  8
01
  5
C1C2
 10
717.566
 20
-2150.13
 30
0.000000
  70
    32
  0
VERTEX
  8
01
  5
C1C3
 10
717.483
 20
-2150.06
 30
0.000000
  70
    32
  0
VERTEX
  8
01
  5
C1C4
 10
717.402
 20
-2150.00
 30
0.000000
  70
    32
  0
VERTEX
  8
01
  5
C1C5
 10
717.323
 20
-2149.93
 30
0.000000
  70
    32
  0
VERTEX
  8
01
  5
C1C6
 10
717.246
 20
-2149.86
 30
0.000000
  70
    32
  0
VERTEX
  8
01
  5
C1C7
 10
717.172
 20
-2149.79
 30
0.000000
  70
    32
  0
VERTEX
  8
01
  5
C1C8
 10
717.100
 20
-2149.72
 30
0.000000
  70
    32
  0
VERTEX
  8
01
  5
C1C9
 10
717.030
 20
-2149.65
 30
0.000000
  70
    32
  0
VERTEX
  8
01
  5
C1CA
 10
716.963
 20
-2149.57
 30
0.000000
  70
    32
  0
VERTEX
  8
01
  5
C1CB
 10
716.899
 20
-2149.50
 30
0.000000
  70
    32
  0
VERTEX
  8
01
  5
C1CC
 10
716.837
 20
-2149.42
 30
0.000000
  70
    32
  0
VERTEX
  8
01
  5
C1CD
 10
716.778
 20
-2149.35
 30
0.000000
  70
    32
  0
VERTEX
  8
01
  5
C1CE
 10
716.722
 20
-2149.27
 30
0.000000
  70
    32
  0
VERTEX
  8
01
  5
C1CF
 10
716.668
 20
-2149.19
 30
0.000000
  70
    32
  0
VERTEX
  8
01
  5
C1D0
 10
716.617
 20
-2149.11
 30
0.000000
  70
    32
  0
VERTEX
  8
01
  5
C1D1
 10
716.568
 20
-2149.03
 30
0.000000
  70
    32
  0
VERTEX
  8
01
  5
C1D2
 10
716.523
 20
-2148.95
 30
0.000000
  70
    32
  0
VERTEX
  8
01
  5
C1D3
 10
716.480
 20
-2148.87
 30
0.000000
  70
    32
  0
VERTEX
  8
01
  5
C1D4
 10
716.440
 20
-2148.79
 30
0.000000
  70
    32
  0
VERTEX
  8
01
  5
C1D5
 10
716.403
 20
-2148.70
 30
0.000000
  70
    32
  0
VERTEX
  8
01
  5
C1D6
 10
716.369
 20
-2148.62
 30
0.000000
  70
    32
  0
VERTEX
  8
01
  5
C1D7
 10
716.338
 20
-2148.53
 30
0.000000
  70
    32
  0
VERTEX
  8
01
  5
C1D8
 10
716.309
 20
-2148.45
 30
0.000000
  70
    32
  0
VERTEX
  8
01
  5
C1D9
 10
716.284
 20
-2148.36
 30
0.000000
  70
    32
  0
VERTEX
  8
01
  5
C1DA
 10
716.261
 20
-2148.28
 30
0.000000
  70
    32
  0
VERTEX
  8
01
  5
C1DB
 10
716.242
 20
-2148.19
 30
0.000000
  70
    32
  0
VERTEX
  8
01
  5
C1DC
 10
716.225
 20
-2148.10
 30
0.000000
  70
    32
  0
VERTEX
  8
01
  5
C1DD
 10
716.212
 20
-2148.02
 30
0.000000
  70
    32
  0
VERTEX
  8
01
  5
C1DE
 10
716.201
 20
-2147.93
 30
0.000000
  70
    32
  0
VERTEX
  8
01
  5
C1DF
 10
716.194
 20
-2147.84
 30
0.000000
  70
    32
  0
VERTEX
  8
01
  5
C1E0
 10
716.189
 20
-2147.75
 30
0.000000
  70
    32
  0
VERTEX
  8
01
  5
C1E1
 10
716.188
 20
-2147.67
 30
0.000000
  70
    32
  0
SEQEND
  8
01
  5
C1E2
  0
LINE
  5
B84E
  8
01
 10
726.18766116632378
 20
-2134.8025015977419
 30
0.0
 11
726.18766116632378
 21
-2147.6656615977431
 31
0.0
  0
LINE
  5
B84F
  8
01
 10
716.18766116632366
 20
-2134.8025015977419
 30
0.0
 11
716.18766116632366
 21
-2147.6656615977399
 31
0.0
  0
LINE
  5
B850
  8
01
 10
712.18764616632404
 20
-2101.2340815977432
 30
0.0
 11
711.18764616632404
 21
-2100.2340815977432
 31
0.0
  0
LINE
  5
B851
  8
01
 10
713.58766316632409
 20
-2101.1341015977432
 30
0.0
 11
712.78768216632398
 21
-2100.3341215977421
 31
0.0
  0
LINE
  5
B852
  8
01
 10
713.58766316632409
 20
-2183.3340915977419
 30
0.0
 11
712.78766016632369
 21
-2184.1340715977431
 31
0.0
  0
LINE
  5
B853
  8
01
 10
712.18760816632403
 20
-2183.234111597742
 30
0.0
 11
711.18762316632365
 21
-2184.234111597742
 31
0.0
  0
LINE
  5
B854
  8
01
 10
715.18766116632366
 20
-2207.2340815977432
 30
0.0
 11
711.18766116632366
 21
-2207.2340815977432
 31
0.0
  0
LINE
  5
B855
  8
01
 10
712.78766716632435
 20
-2207.2340815977432
 30
0.0
 11
712.78766716632435
 21
-2184.1340715977431
 31
0.0
  0
LINE
  5
B856
  8
01
 10
711.18766116632366
 20
-2207.2340815977432
 30
0.0
 11
711.18766116632366
 21
-2184.2340815977432
 31
0.0
  0
LINE
  5
B857
  8
01
 10
712.18766116632366
 20
-2101.2340815977432
 30
0.0
 11
712.18766116632366
 21
-2183.2340815977432
 31
0.0
  0
LINE
  5
B858
  8
01
 10
715.18766116632366
 20
-2077.2340815977432
 30
0.0
 11
711.18766116632366
 21
-2077.2340815977432
 31
0.0
  0
LINE
  5
B859
  8
01
 10
821.68766116632378
 20
-2083.2340815977432
 30
0.0
 11
821.68766116632378
 21
-2201.2340815977432
 31
0.0
  0
LINE
  5
B85A
  8
01
 10
846.68766116632378
 20
-2083.2340815977432
 30
0.0
 11
846.68766116632378
 21
-2201.2340815977432
 31
0.0
  0
ARC
  5
B85B
  8
01
 10
840.68766116632366
 20
-2201.2340815977432
 30
0.0
 40
6.0
 50
270.0
 51
0.0
  0
ARC
  5
B85C
  8
01
 10
827.68766116632366
 20
-2201.2340815977432
 30
0.0
 40
6.0
 50
180.0
 51
270.0
  0
LINE
  5
B85D
  8
01
 10
841.93766116632366
 20
-2134.8025015977419
 30
0.0
 11
841.93766116632366
 21
-2147.6656615977422
 31
0.0
  0
LINE
  5
B85E
  8
01
 10
840.93766116632366
 20
-2136.2340815977432
 30
0.0
 11
840.93766116632366
 21
-2146.2340815977432
 31
0.0
  0
LINE
  5
B85F
  8
01
 10
827.43766116632366
 20
-2136.2340815977432
 30
0.0
 11
827.43766116632366
 21
-2146.2340815977432
 31
0.0
  0
LINE
  5
B860
  8
01
 10
826.43766116632366
 20
-2134.8025015977419
 30
0.0
 11
826.43766116632366
 21
-2147.6656615977422
 31
0.0
  0
ARC
  5
B861
  8
01
 10
834.18766116632378
 20
-2141.0340715977418
 30
0.0
 40
10.199999999999999
 50
220.55307999996799
 51
319.44692000003198
  0
LINE
  5
B862
  8
01
 10
827.43766116632366
 20
-2146.2340815977432
 30
0.0
 11
840.93766116632366
 21
-2146.2340815977432
 31
0.0
  0
LINE
  5
B863
  8
01
 10
827.43766116632366
 20
-2136.2340815977432
 30
0.0
 11
840.93766116632366
 21
-2136.2340815977432
 31
0.0
  0
ARC
  5
B864
  8
01
 10
834.18766116632378
 20
-2141.4340915977432
 30
0.0
 40
10.199999999999999
 50
40.553083999974533
 51
139.44692000003201
  0
CIRCLE
  5
B865
  8
01
 10
834.18766116632378
 20
-2199.2340815977432
 30
0.0
 40
4.5
  0
CIRCLE
  5
B866
  8
01
 10
834.18766116632378
 20
-2199.2340815977432
 30
0.0
 40
2.75
  0
LINE
  5
B867
  8
01
 10
827.68766116632366
 20
-2207.2340815977432
 30
0.0
 11
840.68766116632366
 21
-2207.2340815977432
 31
0.0
  0
ARC
  5
B868
  8
01
 10
840.68766116632366
 20
-2083.2340815977432
 30
0.0
 40
6.0
 50
0.0
 51
90.0
  0
ARC
  5
B86A
  8
01
 10
827.68766116632366
 20
-2083.2340815977432
 30
0.0
 40
6.0
 50
90.0
 51
180.0
  0
LINE
  5
B86B
  8
01
 10
827.68766116632366
 20
-2077.2340815977432
 30
0.0
 11
840.68766116632366
 21
-2077.2340815977432
 31
0.0
  0
CIRCLE
  5
B86C
  8
01
 10
834.18766116632378
 20
-2085.2340815977432
 30
0.0
 40
4.5
  0
CIRCLE
  5
B86D
  8
01
 10
834.18766116632378
 20
-2085.2340815977432
 30
0.0
 40
2.75
  0
LINE
  5
B871
  8
01
 10
955.58766716632363
 20
-2077.2340815977432
 30
0.0
 11
955.58766716632363
 21
-2100.334051597742
 31
0.0
  0
LINE
  5
B872
  8
01
 10
957.18765716632424
 20
-2077.2340815977432
 30
0.0
 11
957.18765716632424
 21
-2100.2340815977432
 31
0.0
  0
LINE
  5
B873
  8
01
 10
954.78766716632435
 20
-2077.2340815977432
 30
0.0
 11
954.78766716632435
 21
-2207.2340815977432
 31
0.0
  0
LINE
  5
B874
  8
01
 10
953.18765716632436
 20
-2077.2340815977432
 30
0.0
 11
953.18765716632436
 21
-2207.2340815977432
 31
0.0
  0
LINE
  5
B876
  8
01
 10
956.18765716632424
 20
-2179.2340815977432
 30
0.0
 11
984.97828445402683
 21
-2179.2340815977432
 31
0.0
  0
LINE
  5
B877
  8
01
 10
956.18766716632399
 20
-2101.2340815977432
 30
0.0
 11
957.18766716632399
 21
-2100.2340815977432
 31
0.0
  0
LINE
  5
B878
  8
01
 10
954.78765716632461
 20
-2101.1341015977432
 30
0.0
 11
955.58766716632363
 21
-2100.334051597742
 31
0.0
  0
LINE
  5
B879
  8
01
 10
946.18765716632436
 20
-2131.2340815977432
 30
0.0
 11
953.18765716632436
 21
-2131.2340815977432
 31
0.0
  0
LINE
  5
B87A
  8
01
 10
946.18765716632436
 20
-2151.2340815977432
 30
0.0
 11
953.18765716632436
 21
-2151.2340815977432
 31
0.0
  0
LINE
  5
B87B
  8
01
 10
942.26975716632376
 20
-2148.0403515977432
 30
0.0
 11
953.18765716632436
 21
-2148.0403515977432
 31
0.0
  0
LINE
  5
B87C
  8
01
 10
942.26975716632376
 20
-2134.427801597742
 30
0.0
 11
953.18765716632436
 21
-2134.427801597742
 31
0.0
  0
LINE
  5
B87D
  8
01
 10
942.18765716632424
 20
-2135.2340815977432
 30
0.0
 11
942.18765716632424
 21
-2147.2340815977432
 31
0.0
  0
ARC
  5
B87E
  8
01
 10
946.18765716632436
 20
-2147.2340815977432
 30
0.0
 40
4.0
 50
179.999989999999
 51
270.0
  0
ARC
  5
B87F
  8
01
 10
946.18765716632436
 20
-2135.2340815977432
 30
0.0
 40
4.0
 50
90.000002999984659
 51
180.000010000001
  0
LINE
  5
B880
  8
01
 10
954.78765716632461
 20
-2183.3340915977419
 30
0.0
 11
955.58766716632363
 21
-2184.1340715977431
 31
0.0
  0
LINE
  5
B881
  8
01
 10
956.1877071663248
 20
-2183.234111597742
 30
0.0
 11
957.18768716632349
 21
-2184.2340815977432
 31
0.0
  0
LINE
  5
B882
  8
01
 10
948.18765716632424
 20
-2199.2340815977432
 30
0.0
 11
962.18765716632436
 21
-2199.2340815977432
 31
0.0
  0
LINE
  5
B883
  8
01
 10
953.18765716632436
 20
-2207.2340815977432
 30
0.0
 11
957.18765716632424
 21
-2207.2340815977432
 31
0.0
  0
LINE
  5
B884
  8
01
 10
955.58766716632363
 20
-2207.2340815977432
 30
0.0
 11
955.58766716632363
 21
-2184.1340715977431
 31
0.0
  0
LINE
  5
B885
  8
01
 10
957.18765716632424
 20
-2207.2340815977432
 30
0.0
 11
957.18765716632424
 21
-2184.2340815977432
 31
0.0
  0
LINE
  5
B886
  8
01
 10
956.18765716632424
 20
-2101.2340815977432
 30
0.0
 11
956.18765716632424
 21
-2183.2340815977432
 31
0.0
  0
LINE
  5
B887
  8
01
 10
1022.187657166324
 20
-2115.9827154482659
 30
0.0
 11
1022.187657166324
 21
-2145.884730024844
 31
0.0
  0
LINE
  5
B889
  8
01
 10
953.18765716632436
 20
-2077.2340815977432
 30
0.0
 11
957.18765716632424
 21
-2077.2340815977432
 31
0.0
  0
LINE
  5
B88A
  8
01
 10
948.18765716632424
 20
-2085.2340815977432
 30
0.0
 11
962.18765716632436
 21
-2085.2340815977432
 31
0.0
  0
LINE
  5
B88C
  8
01
 10
957.18854134838421
 20
-1883.7340815987709
 30
0.0
 11
1023.188541348384
 21
-1883.7340815987709
 31
0.0
  0
LINE
  5
B88D
  8
01
 10
957.18854134838421
 20
-1885.3340515987711
 30
0.0
 11
1023.188541348384
 21
-1885.3340515987711
 31
0.0
  0
LINE
  5
B88E
  8
01
 10
954.7885513483842
 20
-1902.7340815987709
 30
0.0
 11
1023.188541348384
 21
-1902.7340815987709
 31
0.0
  0
LINE
  5
B88F
  8
01
 10
956.38853134838507
 20
-1888.2340815987709
 30
0.0
 11
957.18854134838421
 21
-1887.434061598771
 31
0.0
  0
LINE
  5
B890
  8
01
 10
957.18854134838421
 20
-1882.7340815987709
 30
0.0
 11
957.18854134838421
 21
-1887.434061598771
 31
0.0
  0
LINE
  5
B891
  8
01
 10
954.7885513483842
 20
-1888.234051598771
 30
0.0
 11
955.58854134838555
 21
-1887.4340915987709
 31
0.0
  0
LINE
  5
B892
  8
01
 10
942.18854134838421
 20
-1900.9840815987709
 30
0.0
 11
953.18854134838409
 21
-1900.9840815987709
 31
0.0
  0
LINE
  5
B893
  8
01
 10
942.18854134838421
 20
-1900.9840815987709
 30
0.0
 11
942.18854134838421
 21
-1898.9840815987709
 31
0.0
  0
LINE
  5
B894
  8
01
 10
953.18854134838409
 20
-1880.7340815987709
 30
0.0
 11
954.7885513483842
 21
-1880.7340815987709
 31
0.0
  0
LINE
  5
B895
  8
01
 10
954.7885513483842
 20
-1880.7340815987709
 30
0.0
 11
954.7885513483842
 21
-1888.2340815987709
 31
0.0
  0
LINE
  5
B896
  8
01
 10
955.58855134838541
 20
-1882.7340815987709
 30
0.0
 11
955.58855134838541
 21
-1887.434061598771
 31
0.0
  0
LINE
  5
B897
  8
01
 10
954.7885513483842
 20
-1882.7340815987709
 30
0.0
 11
957.18854134838421
 21
-1882.7340815987709
 31
0.0
  0
LINE
  5
B898
  8
01
 10
957.18854134838421
 20
-1899.0340715987711
 30
0.0
 11
957.18854134838421
 21
-1902.7340815987709
 31
0.0
  0
LINE
  5
B899
  8
01
 10
956.38855134838457
 20
-1898.234051598771
 30
0.0
 11
957.18854134838421
 21
-1899.0340715987711
 31
0.0
  0
LINE
  5
B89A
  8
01
 10
957.18854134838421
 20
-1901.134071598771
 30
0.0
 11
961.78855134838432
 21
-1901.134071598771
 31
0.0
  0
LINE
  5
B89B
  8
01
 10
954.78854134838446
 20
-1898.234051598771
 30
0.0
 11
955.58855134838541
 21
-1899.0340715987711
 31
0.0
  0
LINE
  5
B89C
  8
01
 10
954.7885513483842
 20
-1898.2340815987709
 30
0.0
 11
954.7885513483842
 21
-1905.7340815987709
 31
0.0
  0
LINE
  5
B89D
  8
01
 10
953.18854134838409
 20
-1905.7340815987709
 30
0.0
 11
954.7885513483842
 21
-1905.7340815987709
 31
0.0
  0
LINE
  5
B89E
  8
01
 10
955.58855134838541
 20
-1899.0340715987711
 30
0.0
 11
955.58855134838541
 21
-1902.7340815987709
 31
0.0
  0
LINE
  5
B89F
  8
01
 10
953.18854134838409
 20
-1873.2340815987709
 30
0.0
 11
953.18854134838409
 21
-1913.2340815987709
 31
0.0
  0
LINE
  5
B8A0
  8
01
 10
961.78855134838432
 20
-1885.3340515987711
 30
0.0
 11
961.78855134838432
 21
-1902.7340815987709
 31
0.0
  0
LINE
  5
B8A1
  8
01
 10
956.38854134838482
 20
-1888.2340815987709
 30
0.0
 11
956.38854134838482
 21
-1898.2340815987709
 31
0.0
  0
LINE
  5
B8A2
  8
01
 10
954.7885513483842
 20
-1888.2340815987709
 30
0.0
 11
954.7885513483842
 21
-1898.2340815987709
 31
0.0
  0
ARC
  5
B8A3
  8
01
 10
985.85804134838418
 20
-1923.335161598771
 30
0.0
 40
50.0
 50
130.79769000000621
 51
150.8550000000302
  0
LINE
  5
B8A4
  8
01
 10
985.54988989461617
 20
-1927.73411259877
 30
0.0
 11
1001.172526506068
 21
-1927.73411259877
 31
0.0
  0
LINE
  5
B8A5
  8
01
 10
1021.588541348386
 20
-1885.3340515987711
 30
0.0
 11
1021.588541348386
 21
-1902.7340815987709
 31
0.0
  0
LINE
  5
B8A6
  8
01
 10
1023.188541348384
 20
-1883.7340815987709
 30
0.0
 11
1023.188541348384
 21
-1902.7340815987709
 31
0.0
  0
LINE
  5
B8A7
  8
01
 10
985.54988989461617
 20
-1858.734050598772
 30
0.0
 11
1001.172526506068
 21
-1858.734050598772
 31
0.0
  0
LINE
  5
B8A8
  8
01
 10
720.18766516632331
 20
-2199.2340815977432
 30
0.0
 11
706.18766516632331
 21
-2199.2340815977432
 31
0.0
  0
LINE
  5
B8A9
  8
01
 10
720.18766516632331
 20
-2085.2340815977432
 30
0.0
 11
706.18766516632331
 21
-2085.2340815977432
 31
0.0
  0
LINE
  5
B8AA
  8
01
 10
840.68766116632366
 20
-2085.2340815977432
 30
0.0
 11
827.68766116632366
 21
-2085.2340815977432
 31
0.0
  0
LINE
  5
B8AB
  8
01
 10
834.18766116632378
 20
-2078.7340815977432
 30
0.0
 11
834.18766116632378
 21
-2091.7340815977432
 31
0.0
  0
LINE
  5
B8AC
  8
01
 10
840.68766116632366
 20
-2199.2340815977432
 30
0.0
 11
827.68766116632366
 21
-2199.2340815977432
 31
0.0
  0
LINE
  5
B8AD
  8
01
 10
834.18766116632378
 20
-2192.7340815977432
 30
0.0
 11
834.18766116632378
 21
-2205.7340815977432
 31
0.0
  0
LINE
  5
B8AE
  8
01
 10
694.18766516632331
 20
-2163.2340815977432
 30
0.0
 11
634.18766516632331
 21
-2163.2340815977432
 31
0.0
  0
LINE
  5
B8AF
  8
01
 10
664.18766516632331
 20
-2133.2340815977432
 30
0.0
 11
664.18766516632331
 21
-2193.2340815977432
 31
0.0
  0
LINE
  5
B8B0
  8
01
 10
974.18765716632379
 20
-2163.2340815977432
 30
0.0
 11
1034.187657166324
 21
-2163.2340815977432
 31
0.0
  0
LINE
  5
B8B1
  8
01
 10
1004.187657166323
 20
-2133.2340815977432
 30
0.0
 11
1004.187657166323
 21
-2193.2340815977432
 31
0.0
  0
POINT
  5
B8B2
  8
01
 10
868.68766116632366
 20
-2163.2340815977432
 30
0.0
  0
LINE
  5
B8B3
  8
01
 10
868.28766115632368
 20
-2164.9840815977432
 30
0.0
 11
868.28766115632368
 21
-2164.134081577743
 31
0.0
  0
LINE
  5
B8B4
  8
01
 10
869.08766117632376
 20
-2164.9840815977432
 30
0.0
 11
869.08766117632376
 21
-2164.134081577743
 31
0.0
  0
LINE
  5
B8B5
  8
01
 10
867.78766118632382
 20
-2163.6340816077432
 30
0.0
 11
866.93766116632366
 21
-2163.6340816077432
 31
0.0
  0
LINE
  5
B8B6
  8
01
 10
867.78766118632382
 20
-2162.8340815877432
 30
0.0
 11
866.93766116632366
 21
-2162.8340815877432
 31
0.0
  0
LINE
  5
B8B7
  8
01
 10
866.93766116632366
 20
-2163.6340816077432
 30
0.0
 11
866.93766116632366
 21
-2162.8340815877432
 31
0.0
  0
LINE
  5
B8B8
  8
01
 10
869.08766117632376
 20
-2164.9840815977432
 30
0.0
 11
868.28766115632368
 21
-2164.9840815977432
 31
0.0
  0
LINE
  5
B8B9
  8
01
 10
869.08766117632376
 20
-2161.4840815977432
 30
0.0
 11
869.08766117632376
 21
-2162.3340816177429
 31
0.0
  0
LINE
  5
B8BA
  8
01
 10
868.28766115632368
 20
-2161.4840815977432
 30
0.0
 11
868.28766115632368
 21
-2162.3340816177429
 31
0.0
  0
LINE
  5
B8BB
  8
01
 10
869.58766114632351
 20
-2162.8340815877432
 30
0.0
 11
870.43766116632366
 21
-2162.8340815877432
 31
0.0
  0
LINE
  5
B8BC
  8
01
 10
869.58766114632351
 20
-2163.6340816077432
 30
0.0
 11
870.43766116632366
 21
-2163.6340816077432
 31
0.0
  0
LINE
  5
B8BD
  8
01
 10
870.43766116632366
 20
-2162.8340815877432
 30
0.0
 11
870.43766116632366
 21
-2163.6340816077432
 31
0.0
  0
LINE
  5
B8BE
  8
01
 10
868.28766115632368
 20
-2161.4840815977432
 30
0.0
 11
869.08766117632376
 21
-2161.4840815977432
 31
0.0
  0
CIRCLE
  5
B8BF
  8
01
 10
868.68766116632366
 20
-2163.2340815977432
 30
0.0
 40
2.5
  0
ARC
  5
B8C0
  8
01
 10
869.58766114632351
 20
-2162.3340816177429
 30
0.0
 40
0.5
 50
179.999989999999
 51
270.0
  0
ARC
  5
B8C1
  8
01
 10
869.58766114632351
 20
-2164.134081577743
 30
0.0
 40
0.5
 50
90.00000299999769
 51
180.000010000001
  0
ARC
  5
B8C2
  8
01
 10
867.78766118632382
 20
-2164.134081577743
 30
0.0
 40
0.5
 50
0.0
 51
90.00000299999769
  0
ARC
  5
B8C3
  8
01
 10
867.78766118632382
 20
-2162.3340816177429
 30
0.0
 40
0.5
 50
270.0
 51
0.0
  0
POINT
  5
B8C5
  8
01
 10
799.68766116632366
 20
-2163.2340815977432
 30
0.0
 50
180.0
  0
CIRCLE
  5
B8C6
  8
01
 10
799.68766116632366
 20
-2163.2340815977432
 30
0.0
 40
2.5
  0
CIRCLE
  5
B8C9
  8
01
 10
664.18765716632242
 20
-2107.7340815977432
 30
0.0
 40
19.799999
  0
LINE
  5
B8CA
  8
01
 10
666.68765716632242
 20
-2102.9263175336978
 30
0.0
 11
666.68765716632242
 21
-2123.5418456617872
 31
0.0
  0
LINE
  5
B8CB
  8
01
 10
661.68765716632265
 20
-2102.9263175336978
 30
0.0
 11
661.68765716632242
 21
-2123.5418456617872
 31
0.0
  0
CIRCLE
  5
B8CC
  8
01
 10
664.18765716632242
 20
-2113.2340815977432
 30
0.0
 40
11.0
  0
ARC
  5
B8CD
  8
01
 10
666.18765716632242
 20
-2123.5418456617872
 30
0.0
 40
0.5
 50
280.98057542761609
 51
0.0
  0
ARC
  5
B8CE
  8
01
 10
662.18765716632242
 20
-2123.5418456617872
 30
0.0
 40
0.5
 50
180.00000000002601
 51
259.0194245723838
  0
ARC
  5
B8CF
  8
01
 10
662.18765716632242
 20
-2102.9263175336978
 30
0.0
 40
0.5
 50
100.9805754276161
 51
180.0
  0
ARC
  5
B8D0
  8
01
 10
666.18765716632242
 20
-2102.9263175336978
 30
0.0
 40
0.5
 50
0.0
 51
79.019424572383826
  0
LINE
  5
B8D2
  8
01
 10
860.68766416632195
 20
-2088.9340915977432
 30
0.0
 11
860.68766416632195
 21
-2126.5340715977432
 31
0.0
  0
ARC
  5
B8D3
  8
01
 10
859.68766416632195
 20
-2088.9340915977432
 30
0.0
 40
1.0
 50
0.0
 51
90.0
  0
LINE
  5
B8DA
  8
01
 10
861.36106216632345
 20
-2109.7340815977432
 30
0.0
 11
860.68766416632195
 21
-2109.7340815977432
 31
0.0
  0
LINE
  5
B8DB
  8
01
 10
861.36106216632345
 20
-2116.7340815977432
 30
0.0
 11
860.68766416632195
 21
-2116.7340815977432
 31
0.0
  0
LINE
  5
B8DC
  8
01
 10
854.18766116632366
 20
-2127.5340715977432
 30
0.0
 11
859.68766416632195
 21
-2127.5340715977432
 31
0.0
  0
ARC
  5
B8DD
  8
01
 10
859.68766416632195
 20
-2126.5340715977432
 30
0.0
 40
1.0
 50
270.0
 51
0.0
  0
LINE
  5
B8DE
  8
01
 10
861.36106216632345
 20
-2109.7340815977432
 30
0.0
 11
861.36106216632345
 21
-2116.7340815977432
 31
0.0
  0
ARC
  5
B8DF
  8
01
 10
856.48766416632179
 20
-2113.2340815977432
 30
0.0
 40
6.0
 50
324.31468000001439
 51
35.685330999978902
  0
LINE
  5
B8E2
  8
01
 10
854.18766116632366
 20
-2087.9340915977432
 30
0.0
 11
859.68766416632195
 21
-2087.9340915977432
 31
0.0
  0
LINE
  5
B8E4
  8
01
 10
1005.187657166324
 20
-2116.5882015977431
 30
0.0
 11
1005.187657166324
 21
-2109.879951597743
 31
0.0
  0
LINE
  5
B8E5
  8
01
 10
1003.187657166324
 20
-2116.5882015977431
 30
0.0
 11
1003.187657166324
 21
-2109.879951597743
 31
0.0
  0
CIRCLE
  5
B8E6
  8
01
 10
1004.187657166323
 20
-2113.2340815977432
 30
0.0
 40
3.5000004999999992
  0
LINE
  5
B8E9
  8
01
 10
651.18765716632242
 20
-2113.2340815977432
 30
0.0
 11
677.18765716632242
 21
-2113.2340815977432
 31
0.0
  0
LINE
  5
B8EA
  8
01
 10
686.68765716632242
 20
-2107.7340815977432
 30
0.0
 11
641.68765716632242
 21
-2107.7340815977432
 31
0.0
  0
LINE
  5
B8EB
  8
01
 10
664.18765716632242
 20
-2085.2340815977432
 30
0.0
 11
664.18765716632242
 21
-2130.2340815977432
 31
0.0
  0
LINE
  5
B8EC
  8
01
 10
1017.187665166324
 20
-2113.2340815977432
 30
0.0
 11
991.18766516632468
 21
-2113.2340815977432
 31
0.0
  0
LINE
  5
B8ED
  8
01
 10
981.68766516632456
 20
-2107.7340815977432
 30
0.0
 11
1026.6876651663249
 21
-2107.7340815977432
 31
0.0
  0
LINE
  5
B8EE
  8
01
 10
1004.187665166324
 20
-2085.2340815977432
 30
0.0
 11
1004.187665166324
 21
-2130.2340815977432
 31
0.0
  0
ARC
  5
B8F1
  8
01
 10
1004.187766182397
 20
-1915.534082598776
 30
0.0
 40
6.0
 50
279.59301243461459
 51
305.684931053394
  0
LINE
  5
B8F2
  8
01
 10
1003.187657166324
 20
-1920.407473617749
 30
0.0
 11
1000.68773216429
 21
-1920.4074561673119
 31
0.0
  0
LINE
  5
B8F3
  8
01
 10
1005.187657166324
 20
-1921.4501808079231
 30
0.0
 11
1005.187657166324
 21
-1919.7340895784971
 31
0.0
  0
LINE
  5
B8F4
  8
01
 10
1003.187657166324
 20
-1921.450143953763
 30
0.0
 11
1003.187657166324
 21
-1919.734075617728
 31
0.0
  0
LINE
  5
B8F5
  8
01
 10
1023.987764902627
 20
-1873.2340815987709
 30
0.0
 11
1023.98772650954
 21
-1867.7339423873541
 31
0.0
  0
ARC
  5
B8F6
  8
01
 10
1022.987726509564
 20
-1867.7339493677389
 30
0.0
 40
1.0
 50
0.0003999465751871
 51
90.000399946581695
  0
LINE
  5
B8F7
  8
01
 10
984.38778490166305
 20
-1873.2340815987709
 30
0.0
 11
984.38774651050426
 21
-1867.7342188104481
 31
0.0
  0
LINE
  5
B8F8
  8
01
 10
1023.987764902627
 20
-1913.234081598772
 30
0.0
 11
1023.98772650954
 21
-1918.7342208101891
 31
0.0
  0
ARC
  5
B8F9
  8
01
 10
1004.187766182397
 20
-1915.534082598776
 30
0.0
 40
6.0
 50
234.31428005342181
 51
260.40487597756987
  0
LINE
  5
B8FA
  8
01
 10
1007.687732164119
 20
-1920.4075050300039
 30
0.0
 11
1005.187657166324
 21
-1920.4074875785191
 31
0.0
  0
LINE
  5
B8FB
  8
01
 10
984.38778490166305
 20
-1913.234081598772
 30
0.0
 11
984.38774651050426
 21
-1918.7339443870951
 31
0.0
  0
ARC
  5
B8FC
  8
01
 10
985.38774651047993
 20
-1918.7339513674799
 30
0.0
 40
1.0
 50
179.99960005339869
 51
269.99960005341831
  0
LINE
  5
B8FD
  8
01
 10
1000.68773216429
 20
-1920.4074561673119
 30
0.0
 11
1000.687736864866
 21
-1919.734058167322
 31
0.0
  0
LINE
  5
B8FE
  8
01
 10
1007.687732164119
 20
-1920.4075050300039
 30
0.0
 11
1007.6877368646969
 21
-1919.7341070300149
 31
0.0
  0
LINE
  5
B8FF
  8
01
 10
1022.987719529179
 20
-1919.7342138297799
 30
0.0
 11
985.38773953009513
 21
-1919.7339513674549
 31
0.0
  0
ARC
  5
B900
  8
01
 10
1022.987726509564
 20
-1918.734213829805
 30
0.0
 40
1.0
 50
269.99960005341831
 51
359.9996000534249
  0
LINE
  5
B901
  8
01
 10
1022.987719529179
 20
-1866.733949367763
 30
0.0
 11
985.38773953009513
 21
-1866.7342118300869
 31
0.0
  0
ARC
  5
B902
  8
01
 10
985.38774651047993
 20
-1867.734211830063
 30
0.0
 40
1.0
 50
90.000399946581695
 51
180.00039994657519
  0
LINE
  5
B905
  8
01
 10
1004.187773506069
 20
-1843.2340815987709
 30
0.0
 11
1004.187773506069
 21
-1878.2340815987709
 31
0.0
  0
LINE
  5
B906
  8
01
 10
1004.187773506069
 20
-1908.2340815987709
 30
0.0
 11
1004.187773506069
 21
-1943.2340815987709
 31
0.0
  0
LINE
  5
B907
  8
01
 10
784.18766116632378
 20
-2163.2340815977432
 30
0.0
 11
819.18766116632366
 21
-2163.2340815977432
 31
0.0
  0
LINE
  5
B908
  8
01
 10
849.18766116632378
 20
-2163.2340815977432
 30
0.0
 11
884.18766116632378
 21
-2163.2340815977432
 31
0.0
  0
LINE
  5
B909
  8
01
 10
854.18766116632355
 20
-2087.9340915977432
 30
0.0
 11
854.18766516632274
 21
-2127.5340715977432
 31
0.0
  0
LINE
  5
B90A
  8
01
 10
984.38778350653683
 20
-1873.2342178103179
 30
0.0
 11
1023.987763505599
 21
-1873.233945387225
 31
0.0
  0
LINE
  5
B90B
  8
01
 10
984.38778350653683
 20
-1913.233945387225
 30
0.0
 11
1023.987763505599
 21
-1913.234217810319
 31
0.0
  0
LINE
  5
B90C
  8
01
 10
953.18854134838409
 20
-1913.2340815987709
 30
0.0
 11
1106.9429215034161
 21
-1913.2340815987709
 31
0.0
  0
LINE
  5
B90D
  8
01
 10
953.18854134838409
 20
-1873.2340815987709
 30
0.0
 11
1106.9429215034161
 21
-1873.2340815987709
 31
0.0
  0
ARC
  5
B915
  8
01
 10
1007.6877735060619
 20
-1865.73408059862
 30
0.0
 40
1.0
 50
180.0
 51
270.00000000001302
  0
ARC
  5
B916
  8
01
 10
1000.687773506061
 20
-1865.734080598618
 30
0.0
 40
1.0
 50
270.0
 51
0.0
  0
LINE
  5
B917
  8
01
 10
1001.687773506061
 20
-1853.234057654415
 30
0.0
 11
1001.687773506061
 21
-1865.734080598618
 31
0.0
  0
ARC
  5
B918
  8
01
 10
1002.68777350606
 20
-1853.2340576544141
 30
0.0
 40
1.0
 50
90.0
 51
179.9999999999479
  0
LINE
  5
B919
  8
01
 10
1002.687773506061
 20
-1852.234057654412
 30
0.0
 11
1005.68777350606
 21
-1852.234057654412
 31
0.0
  0
ARC
  5
B91A
  8
01
 10
1005.68777350606
 20
-1853.2340576544141
 30
0.0
 40
1.0
 50
0.0
 51
90.0
  0
LINE
  5
B91B
  8
01
 10
1006.687773506061
 20
-1853.2340576544141
 30
0.0
 11
1006.687773506063
 21
-1865.73408059862
 31
0.0
  0
ARC
  5
B91E
  8
01
 10
1004.187657166323
 20
-2163.2340815977432
 30
0.0
 40
25.0
 50
34.650118644344289
 51
348.15784985497999
  0
LINE
  5
B91F
  8
01
 10
854.18766116632366
 20
-2138.2340815977432
 30
0.0
 11
854.18766116632366
 21
-2188.2340815977432
 31
0.0
  0
LINE
  5
B920
  8
01
 10
862.68766116632378
 20
-2187.2340815977432
 30
0.0
 11
862.68766116632378
 21
-2139.2340815977432
 31
0.0
  0
LINE
  5
B921
  8
01
 10
854.18766116632366
 20
-2188.2340815977432
 30
0.0
 11
861.68766116632378
 21
-2188.2340815977432
 31
0.0
  0
ARC
  5
B922
  8
01
 10
861.68766116632378
 20
-2187.2340815977432
 30
0.0
 40
1.0
 50
270.0
 51
0.0
  0
LINE
  5
B923
  8
01
 10
854.18766116632366
 20
-2138.2340815977432
 30
0.0
 11
861.68766116632378
 21
-2138.2340815977432
 31
0.0
  0
ARC
  5
B924
  8
01
 10
861.68766116632378
 20
-2139.2340815977432
 30
0.0
 40
1.0
 50
0.0
 51
90.0
  0
ARC
  5
B925
  8
01
 10
1106.120222635971
 20
-2164.8857659833229
 30
0.0
 40
12.11544485022983
 50
0.2636358195341804
 51
28.194824646080061
  0
ARC
  5
B926
  8
01
 10
1104.188924028578
 20
-2165.0153991428429
 30
0.0
 40
14.050000000000001
 50
329.99999999997073
 51
0.0074422741556958
  0
LINE
  5
B927
  8
01
 10
1118.235562977294
 20
-2164.8320857258732
 30
0.0
 11
1118.238949242156
 21
-2165.0163113689719
 31
0.0
  0
ARC
  5
B928
  8
01
 10
1114.58938014304
 20
-2161.6522444582661
 30
0.0
 40
3.0499999999999989
 50
20.896839700469609
 51
72.227359201002002
  0
ARC
  5
B929
  8
01
 10
1046.5576421891769
 20
-2373.8944439481929
 30
0.0
 40
225.92904480535049
 50
71.886752201448573
 51
101.3721380535424
  0
ARC
  5
B92A
  8
01
 10
1004.187657166323
 20
-2163.2340815977432
 30
0.0
 40
11.050000000000001
 50
101.3721380535424
 51
285.75219845624753
  0
ARC
  5
B92B
  8
01
 10
1132.932746958737
 20
-2619.6626986920069
 30
0.0
 40
463.18873802994909
 50
97.702016983007496
 51
105.7521984562475
  0
ARC
  5
B92C
  8
01
 10
1073.529416618934
 20
-2180.4226467444159
 30
0.0
 40
19.949999999999999
 50
72.361209948446586
 51
97.702016983007496
  0
ARC
  5
B92D
  8
01
 10
1034.137447776277
 20
-2304.310793032505
 30
0.0
 40
149.94999999999999
 50
66.629605050666697
 51
78.833073984427799
  0
ARC
  5
B92E
  8
01
 10
1133.3058549455441
 20
-2074.820865106441
 30
0.0
 40
100.05
 50
246.6296050506667
 51
258.98490457804598
  0
ARC
  5
B92F
  8
01
 10
1114.581228873991
 20
-2171.0153991428429
 30
0.0
 40
2.0499999999999989
 50
212.71138168057621
 51
329.99999999997073
  0
ARC
  5
B930
  8
01
 10
1115.485054352798
 20
-2161.1334187816492
 30
0.0
 40
2.0344389403939038
 50
43.604736863924089
 51
143.9149460994843
  0
ARC
  5
B931
  8
01
 10
1112.54800777998
 20
-2166.605917978372
 30
0.0
 40
1.8
 50
163.9016694906598
 51
191.00088535755069
  0
ARC
  5
B932
  8
01
 10
1129.8421779951191
 20
-2171.597077820516
 30
0.0
 40
19.800000000000001
 50
143.9149460994843
 51
163.9016694906598
  0
ARC
  5
B933
  8
01
 10
1125.3091228333269
 20
-2164.1252038482771
 30
0.0
 40
14.800000000000001
 50
191.00088535755069
 51
212.71138168057621
  0
LINE
  5
B934
  8
01
 10
863.18766116632366
 20
-2152.184081597743
 30
0.0
 11
898.03986990468366
 21
-2152.184081597743
 31
0.0
  0
LINE
  5
B935
  8
01
 10
863.18766116632366
 20
-2174.284081597742
 30
0.0
 11
909.94433177346025
 21
-2174.284081597742
 31
0.0
  0
LINE
  5
B936
  8
01
 10
863.18766116632366
 20
-2152.184081597743
 30
0.0
 11
863.18766116632366
 21
-2174.284081597742
 31
0.0
  0
LINE
  5
B937
  8
01
 10
863.18766116632366
 20
-2155.284081597742
 30
0.0
 11
862.68766116632378
 21
-2155.284081597742
 31
0.0
  0
LINE
  5
B938
  8
01
 10
863.18766116632366
 20
-2171.184081597743
 30
0.0
 11
862.68766116632378
 21
-2171.184081597743
 31
0.0
  0
POLYLINE
  5
B939
  8
01
 10
927.9529418807532
 20
-2166.605917978372
 30
0.0
 66
     1
 70
     8
  0
VERTEX
  8
01
  5
C1E3
 10
927.953
 20
-2166.61
 30
0.000000
  70
    32
  0
VERTEX
  8
01
  5
C1E4
 10
927.952
 20
-2166.38
 30
0.000000
  70
    32
  0
VERTEX
  8
01
  5
C1E5
 10
927.950
 20
-2166.15
 30
0.000000
  70
    32
  0
VERTEX
  8
01
  5
C1E6
 10
927.946
 20
-2165.92
 30
0.000000
  70
    32
  0
VERTEX
  8
01
  5
C1E7
 10
927.940
 20
-2165.69
 30
0.000000
  70
    32
  0
VERTEX
  8
01
  5
C1E8
 10
927.933
 20
-2165.46
 30
0.000000
  70
    32
  0
VERTEX
  8
01
  5
C1E9
 10
927.924
 20
-2165.23
 30
0.000000
  70
    32
  0
VERTEX
  8
01
  5
C1EA
 10
927.913
 20
-2165.01
 30
0.000000
  70
    32
  0
VERTEX
  8
01
  5
C1EB
 10
927.901
 20
-2164.78
 30
0.000000
  70
    32
  0
VERTEX
  8
01
  5
C1EC
 10
927.887
 20
-2164.55
 30
0.000000
  70
    32
  0
VERTEX
  8
01
  5
C1ED
 10
927.872
 20
-2164.32
 30
0.000000
  70
    32
  0
VERTEX
  8
01
  5
C1EE
 10
927.854
 20
-2164.10
 30
0.000000
  70
    32
  0
VERTEX
  8
01
  5
C1EF
 10
927.836
 20
-2163.87
 30
0.000000
  70
    32
  0
VERTEX
  8
01
  5
C1F0
 10
927.815
 20
-2163.64
 30
0.000000
  70
    32
  0
VERTEX
  8
01
  5
C1F1
 10
927.794
 20
-2163.42
 30
0.000000
  70
    32
  0
VERTEX
  8
01
  5
C1F2
 10
927.770
 20
-2163.19
 30
0.000000
  70
    32
  0
VERTEX
  8
01
  5
C1F3
 10
927.745
 20
-2162.97
 30
0.000000
  70
    32
  0
VERTEX
  8
01
  5
C1F4
 10
927.718
 20
-2162.75
 30
0.000000
  70
    32
  0
VERTEX
  8
01
  5
C1F5
 10
927.690
 20
-2162.52
 30
0.000000
  70
    32
  0
VERTEX
  8
01
  5
C1F6
 10
927.660
 20
-2162.30
 30
0.000000
  70
    32
  0
VERTEX
  8
01
  5
C1F7
 10
927.628
 20
-2162.08
 30
0.000000
  70
    32
  0
VERTEX
  8
01
  5
C1F8
 10
927.595
 20
-2161.86
 30
0.000000
  70
    32
  0
VERTEX
  8
01
  5
C1F9
 10
927.561
 20
-2161.63
 30
0.000000
  70
    32
  0
VERTEX
  8
01
  5
C1FA
 10
927.525
 20
-2161.41
 30
0.000000
  70
    32
  0
VERTEX
  8
01
  5
C1FB
 10
927.487
 20
-2161.19
 30
0.000000
  70
    32
  0
VERTEX
  8
01
  5
C1FC
 10
927.447
 20
-2160.98
 30
0.000000
  70
    32
  0
VERTEX
  8
01
  5
C1FD
 10
927.407
 20
-2160.76
 30
0.000000
  70
    32
  0
VERTEX
  8
01
  5
C1FE
 10
927.364
 20
-2160.54
 30
0.000000
  70
    32
  0
VERTEX
  8
01
  5
C1FF
 10
927.320
 20
-2160.33
 30
0.000000
  70
    32
  0
VERTEX
  8
01
  5
C200
 10
927.275
 20
-2160.11
 30
0.000000
  70
    32
  0
VERTEX
  8
01
  5
C201
 10
927.228
 20
-2159.90
 30
0.000000
  70
    32
  0
VERTEX
  8
01
  5
C202
 10
927.179
 20
-2159.68
 30
0.000000
  70
    32
  0
VERTEX
  8
01
  5
C203
 10
927.129
 20
-2159.47
 30
0.000000
  70
    32
  0
VERTEX
  8
01
  5
C204
 10
927.077
 20
-2159.26
 30
0.000000
  70
    32
  0
VERTEX
  8
01
  5
C205
 10
927.024
 20
-2159.05
 30
0.000000
  70
    32
  0
VERTEX
  8
01
  5
C206
 10
926.970
 20
-2158.84
 30
0.000000
  70
    32
  0
VERTEX
  8
01
  5
C207
 10
926.913
 20
-2158.64
 30
0.000000
  70
    32
  0
VERTEX
  8
01
  5
C208
 10
926.856
 20
-2158.43
 30
0.000000
  70
    32
  0
VERTEX
  8
01
  5
C209
 10
926.797
 20
-2158.22
 30
0.000000
  70
    32
  0
VERTEX
  8
01
  5
C20A
 10
926.736
 20
-2158.02
 30
0.000000
  70
    32
  0
VERTEX
  8
01
  5
C20B
 10
926.675
 20
-2157.82
 30
0.000000
  70
    32
  0
VERTEX
  8
01
  5
C20C
 10
926.611
 20
-2157.62
 30
0.000000
  70
    32
  0
VERTEX
  8
01
  5
C20D
 10
926.546
 20
-2157.42
 30
0.000000
  70
    32
  0
VERTEX
  8
01
  5
C20E
 10
926.480
 20
-2157.22
 30
0.000000
  70
    32
  0
VERTEX
  8
01
  5
C20F
 10
926.413
 20
-2157.02
 30
0.000000
  70
    32
  0
VERTEX
  8
01
  5
C210
 10
926.344
 20
-2156.83
 30
0.000000
  70
    32
  0
VERTEX
  8
01
  5
C211
 10
926.273
 20
-2156.63
 30
0.000000
  70
    32
  0
VERTEX
  8
01
  5
C212
 10
926.202
 20
-2156.44
 30
0.000000
  70
    32
  0
VERTEX
  8
01
  5
C213
 10
926.128
 20
-2156.25
 30
0.000000
  70
    32
  0
VERTEX
  8
01
  5
C214
 10
926.054
 20
-2156.06
 30
0.000000
  70
    32
  0
VERTEX
  8
01
  5
C215
 10
925.978
 20
-2155.87
 30
0.000000
  70
    32
  0
VERTEX
  8
01
  5
C216
 10
925.901
 20
-2155.69
 30
0.000000
  70
    32
  0
VERTEX
  8
01
  5
C217
 10
925.822
 20
-2155.50
 30
0.000000
  70
    32
  0
VERTEX
  8
01
  5
C218
 10
925.743
 20
-2155.32
 30
0.000000
  70
    32
  0
VERTEX
  8
01
  5
C219
 10
925.662
 20
-2155.14
 30
0.000000
  70
    32
  0
VERTEX
  8
01
  5
C21A
 10
925.579
 20
-2154.96
 30
0.000000
  70
    32
  0
VERTEX
  8
01
  5
C21B
 10
925.495
 20
-2154.78
 30
0.000000
  70
    32
  0
VERTEX
  8
01
  5
C21C
 10
925.411
 20
-2154.60
 30
0.000000
  70
    32
  0
VERTEX
  8
01
  5
C21D
 10
925.324
 20
-2154.43
 30
0.000000
  70
    32
  0
VERTEX
  8
01
  5
C21E
 10
925.237
 20
-2154.26
 30
0.000000
  70
    32
  0
VERTEX
  8
01
  5
C21F
 10
925.148
 20
-2154.09
 30
0.000000
  70
    32
  0
VERTEX
  8
01
  5
C220
 10
925.059
 20
-2153.92
 30
0.000000
  70
    32
  0
VERTEX
  8
01
  5
C221
 10
924.968
 20
-2153.75
 30
0.000000
  70
    32
  0
VERTEX
  8
01
  5
C222
 10
924.875
 20
-2153.59
 30
0.000000
  70
    32
  0
VERTEX
  8
01
  5
C223
 10
924.782
 20
-2153.43
 30
0.000000
  70
    32
  0
VERTEX
  8
01
  5
C224
 10
924.687
 20
-2153.26
 30
0.000000
  70
    32
  0
VERTEX
  8
01
  5
C225
 10
924.592
 20
-2153.11
 30
0.000000
  70
    32
  0
VERTEX
  8
01
  5
C226
 10
924.495
 20
-2152.95
 30
0.000000
  70
    32
  0
VERTEX
  8
01
  5
C227
 10
924.397
 20
-2152.79
 30
0.000000
  70
    32
  0
VERTEX
  8
01
  5
C228
 10
924.298
 20
-2152.64
 30
0.000000
  70
    32
  0
VERTEX
  8
01
  5
C229
 10
924.198
 20
-2152.49
 30
0.000000
  70
    32
  0
VERTEX
  8
01
  5
C22A
 10
924.097
 20
-2152.34
 30
0.000000
  70
    32
  0
VERTEX
  8
01
  5
C22B
 10
923.995
 20
-2152.20
 30
0.000000
  70
    32
  0
VERTEX
  8
01
  5
C22C
 10
923.892
 20
-2152.05
 30
0.000000
  70
    32
  0
VERTEX
  8
01
  5
C22D
 10
923.787
 20
-2151.91
 30
0.000000
  70
    32
  0
VERTEX
  8
01
  5
C22E
 10
923.682
 20
-2151.77
 30
0.000000
  70
    32
  0
VERTEX
  8
01
  5
C22F
 10
923.576
 20
-2151.63
 30
0.000000
  70
    32
  0
VERTEX
  8
01
  5
C230
 10
923.469
 20
-2151.50
 30
0.000000
  70
    32
  0
VERTEX
  8
01
  5
C231
 10
923.361
 20
-2151.37
 30
0.000000
  70
    32
  0
VERTEX
  8
01
  5
C232
 10
923.251
 20
-2151.24
 30
0.000000
  70
    32
  0
VERTEX
  8
01
  5
C233
 10
923.141
 20
-2151.11
 30
0.000000
  70
    32
  0
VERTEX
  8
01
  5
C234
 10
923.030
 20
-2150.98
 30
0.000000
  70
    32
  0
VERTEX
  8
01
  5
C235
 10
922.919
 20
-2150.86
 30
0.000000
  70
    32
  0
VERTEX
  8
01
  5
C236
 10
922.806
 20
-2150.74
 30
0.000000
  70
    32
  0
VERTEX
  8
01
  5
C237
 10
922.692
 20
-2150.62
 30
0.000000
  70
    32
  0
VERTEX
  8
01
  5
C238
 10
922.578
 20
-2150.50
 30
0.000000
  70
    32
  0
VERTEX
  8
01
  5
C239
 10
922.463
 20
-2150.39
 30
0.000000
  70
    32
  0
VERTEX
  8
01
  5
C23A
 10
922.347
 20
-2150.28
 30
0.000000
  70
    32
  0
VERTEX
  8
01
  5
C23B
 10
922.230
 20
-2150.17
 30
0.000000
  70
    32
  0
VERTEX
  8
01
  5
C23C
 10
922.113
 20
-2150.06
 30
0.000000
  70
    32
  0
VERTEX
  8
01
  5
C23D
 10
921.994
 20
-2149.96
 30
0.000000
  70
    32
  0
VERTEX
  8
01
  5
C23E
 10
921.875
 20
-2149.85
 30
0.000000
  70
    32
  0
VERTEX
  8
01
  5
C23F
 10
921.755
 20
-2149.76
 30
0.000000
  70
    32
  0
VERTEX
  8
01
  5
C240
 10
921.635
 20
-2149.66
 30
0.000000
  70
    32
  0
VERTEX
  8
01
  5
C241
 10
921.514
 20
-2149.56
 30
0.000000
  70
    32
  0
VERTEX
  8
01
  5
C242
 10
921.392
 20
-2149.47
 30
0.000000
  70
    32
  0
VERTEX
  8
01
  5
C243
 10
921.270
 20
-2149.38
 30
0.000000
  70
    32
  0
VERTEX
  8
01
  5
C244
 10
921.147
 20
-2149.30
 30
0.000000
  70
    32
  0
VERTEX
  8
01
  5
C245
 10
921.023
 20
-2149.21
 30
0.000000
  70
    32
  0
VERTEX
  8
01
  5
C246
 10
920.899
 20
-2149.13
 30
0.000000
  70
    32
  0
VERTEX
  8
01
  5
C247
 10
920.774
 20
-2149.06
 30
0.000000
  70
    32
  0
VERTEX
  8
01
  5
C248
 10
920.649
 20
-2148.98
 30
0.000000
  70
    32
  0
VERTEX
  8
01
  5
C249
 10
920.523
 20
-2148.91
 30
0.000000
  70
    32
  0
VERTEX
  8
01
  5
C24A
 10
920.396
 20
-2148.84
 30
0.000000
  70
    32
  0
VERTEX
  8
01
  5
C24B
 10
920.269
 20
-2148.77
 30
0.000000
  70
    32
  0
VERTEX
  8
01
  5
C24C
 10
920.142
 20
-2148.70
 30
0.000000
  70
    32
  0
VERTEX
  8
01
  5
C24D
 10
920.014
 20
-2148.64
 30
0.000000
  70
    32
  0
VERTEX
  8
01
  5
C24E
 10
919.886
 20
-2148.58
 30
0.000000
  70
    32
  0
VERTEX
  8
01
  5
C24F
 10
919.757
 20
-2148.52
 30
0.000000
  70
    32
  0
VERTEX
  8
01
  5
C250
 10
919.628
 20
-2148.47
 30
0.000000
  70
    32
  0
VERTEX
  8
01
  5
C251
 10
919.499
 20
-2148.42
 30
0.000000
  70
    32
  0
VERTEX
  8
01
  5
C252
 10
919.369
 20
-2148.37
 30
0.000000
  70
    32
  0
VERTEX
  8
01
  5
C253
 10
919.239
 20
-2148.32
 30
0.000000
  70
    32
  0
VERTEX
  8
01
  5
C254
 10
919.108
 20
-2148.28
 30
0.000000
  70
    32
  0
VERTEX
  8
01
  5
C255
 10
918.978
 20
-2148.24
 30
0.000000
  70
    32
  0
VERTEX
  8
01
  5
C256
 10
918.846
 20
-2148.20
 30
0.000000
  70
    32
  0
VERTEX
  8
01
  5
C257
 10
918.715
 20
-2148.17
 30
0.000000
  70
    32
  0
VERTEX
  8
01
  5
C258
 10
918.584
 20
-2148.13
 30
0.000000
  70
    32
  0
VERTEX
  8
01
  5
C259
 10
918.452
 20
-2148.11
 30
0.000000
  70
    32
  0
VERTEX
  8
01
  5
C25A
 10
918.320
 20
-2148.08
 30
0.000000
  70
    32
  0
VERTEX
  8
01
  5
C25B
 10
918.188
 20
-2148.06
 30
0.000000
  70
    32
  0
VERTEX
  8
01
  5
C25C
 10
918.055
 20
-2148.03
 30
0.000000
  70
    32
  0
VERTEX
  8
01
  5
C25D
 10
917.923
 20
-2148.02
 30
0.000000
  70
    32
  0
VERTEX
  8
01
  5
C25E
 10
917.791
 20
-2148.00
 30
0.000000
  70
    32
  0
VERTEX
  8
01
  5
C25F
 10
917.658
 20
-2147.99
 30
0.000000
  70
    32
  0
VERTEX
  8
01
  5
C260
 10
917.525
 20
-2147.98
 30
0.000000
  70
    32
  0
VERTEX
  8
01
  5
C261
 10
917.392
 20
-2147.97
 30
0.000000
  70
    32
  0
VERTEX
  8
01
  5
C262
 10
917.259
 20
-2147.97
 30
0.000000
  70
    32
  0
VERTEX
  8
01
  5
C263
 10
917.127
 20
-2147.97
 30
0.000000
  70
    32
  0
SEQEND
  8
01
  5
C264
  0
POLYLINE
  5
B93A
  8
01
 10
908.07120599311918
 20
-2163.2340815977432
 30
0.0
 66
     1
 70
     8
  0
VERTEX
  8
01
  5
C265
 10
908.071
 20
-2163.23
 30
0.000000
  70
    32
  0
VERTEX
  8
01
  5
C266
 10
908.072
 20
-2163.51
 30
0.000000
  70
    32
  0
VERTEX
  8
01
  5
C267
 10
908.073
 20
-2163.78
 30
0.000000
  70
    32
  0
VERTEX
  8
01
  5
C268
 10
908.076
 20
-2164.05
 30
0.000000
  70
    32
  0
VERTEX
  8
01
  5
C269
 10
908.080
 20
-2164.32
 30
0.000000
  70
    32
  0
VERTEX
  8
01
  5
C26A
 10
908.085
 20
-2164.59
 30
0.000000
  70
    32
  0
VERTEX
  8
01
  5
C26B
 10
908.091
 20
-2164.86
 30
0.000000
  70
    32
  0
VERTEX
  8
01
  5
C26C
 10
908.099
 20
-2165.12
 30
0.000000
  70
    32
  0
VERTEX
  8
01
  5
C26D
 10
908.107
 20
-2165.39
 30
0.000000
  70
    32
  0
VERTEX
  8
01
  5
C26E
 10
908.117
 20
-2165.66
 30
0.000000
  70
    32
  0
VERTEX
  8
01
  5
C26F
 10
908.127
 20
-2165.92
 30
0.000000
  70
    32
  0
VERTEX
  8
01
  5
C270
 10
908.139
 20
-2166.18
 30
0.000000
  70
    32
  0
VERTEX
  8
01
  5
C271
 10
908.152
 20
-2166.44
 30
0.000000
  70
    32
  0
VERTEX
  8
01
  5
C272
 10
908.166
 20
-2166.70
 30
0.000000
  70
    32
  0
VERTEX
  8
01
  5
C273
 10
908.181
 20
-2166.96
 30
0.000000
  70
    32
  0
VERTEX
  8
01
  5
C274
 10
908.197
 20
-2167.21
 30
0.000000
  70
    32
  0
VERTEX
  8
01
  5
C275
 10
908.214
 20
-2167.46
 30
0.000000
  70
    32
  0
VERTEX
  8
01
  5
C276
 10
908.232
 20
-2167.71
 30
0.000000
  70
    32
  0
VERTEX
  8
01
  5
C277
 10
908.251
 20
-2167.96
 30
0.000000
  70
    32
  0
VERTEX
  8
01
  5
C278
 10
908.271
 20
-2168.20
 30
0.000000
  70
    32
  0
VERTEX
  8
01
  5
C279
 10
908.292
 20
-2168.44
 30
0.000000
  70
    32
  0
VERTEX
  8
01
  5
C27A
 10
908.315
 20
-2168.68
 30
0.000000
  70
    32
  0
VERTEX
  8
01
  5
C27B
 10
908.338
 20
-2168.91
 30
0.000000
  70
    32
  0
VERTEX
  8
01
  5
C27C
 10
908.362
 20
-2169.15
 30
0.000000
  70
    32
  0
VERTEX
  8
01
  5
C27D
 10
908.387
 20
-2169.37
 30
0.000000
  70
    32
  0
VERTEX
  8
01
  5
C27E
 10
908.413
 20
-2169.60
 30
0.000000
  70
    32
  0
VERTEX
  8
01
  5
C27F
 10
908.440
 20
-2169.82
 30
0.000000
  70
    32
  0
VERTEX
  8
01
  5
C280
 10
908.468
 20
-2170.03
 30
0.000000
  70
    32
  0
VERTEX
  8
01
  5
C281
 10
908.496
 20
-2170.24
 30
0.000000
  70
    32
  0
VERTEX
  8
01
  5
C282
 10
908.526
 20
-2170.45
 30
0.000000
  70
    32
  0
VERTEX
  8
01
  5
C283
 10
908.556
 20
-2170.65
 30
0.000000
  70
    32
  0
VERTEX
  8
01
  5
C284
 10
908.588
 20
-2170.85
 30
0.000000
  70
    32
  0
VERTEX
  8
01
  5
C285
 10
908.620
 20
-2171.05
 30
0.000000
  70
    32
  0
VERTEX
  8
01
  5
C286
 10
908.653
 20
-2171.24
 30
0.000000
  70
    32
  0
VERTEX
  8
01
  5
C287
 10
908.686
 20
-2171.42
 30
0.000000
  70
    32
  0
VERTEX
  8
01
  5
C288
 10
908.721
 20
-2171.60
 30
0.000000
  70
    32
  0
VERTEX
  8
01
  5
C289
 10
908.756
 20
-2171.78
 30
0.000000
  70
    32
  0
VERTEX
  8
01
  5
C28A
 10
908.792
 20
-2171.95
 30
0.000000
  70
    32
  0
VERTEX
  8
01
  5
C28B
 10
908.829
 20
-2172.11
 30
0.000000
  70
    32
  0
VERTEX
  8
01
  5
C28C
 10
908.866
 20
-2172.27
 30
0.000000
  70
    32
  0
VERTEX
  8
01
  5
C28D
 10
908.904
 20
-2172.42
 30
0.000000
  70
    32
  0
VERTEX
  8
01
  5
C28E
 10
908.942
 20
-2172.57
 30
0.000000
  70
    32
  0
VERTEX
  8
01
  5
C28F
 10
908.981
 20
-2172.71
 30
0.000000
  70
    32
  0
VERTEX
  8
01
  5
C290
 10
909.021
 20
-2172.85
 30
0.000000
  70
    32
  0
VERTEX
  8
01
  5
C291
 10
909.061
 20
-2172.98
 30
0.000000
  70
    32
  0
VERTEX
  8
01
  5
C292
 10
909.102
 20
-2173.10
 30
0.000000
  70
    32
  0
VERTEX
  8
01
  5
C293
 10
909.143
 20
-2173.22
 30
0.000000
  70
    32
  0
VERTEX
  8
01
  5
C294
 10
909.185
 20
-2173.34
 30
0.000000
  70
    32
  0
VERTEX
  8
01
  5
C295
 10
909.228
 20
-2173.44
 30
0.000000
  70
    32
  0
VERTEX
  8
01
  5
C296
 10
909.270
 20
-2173.54
 30
0.000000
  70
    32
  0
VERTEX
  8
01
  5
C297
 10
909.313
 20
-2173.64
 30
0.000000
  70
    32
  0
VERTEX
  8
01
  5
C298
 10
909.357
 20
-2173.73
 30
0.000000
  70
    32
  0
VERTEX
  8
01
  5
C299
 10
909.401
 20
-2173.81
 30
0.000000
  70
    32
  0
VERTEX
  8
01
  5
C29A
 10
909.445
 20
-2173.88
 30
0.000000
  70
    32
  0
VERTEX
  8
01
  5
C29B
 10
909.489
 20
-2173.95
 30
0.000000
  70
    32
  0
VERTEX
  8
01
  5
C29C
 10
909.534
 20
-2174.02
 30
0.000000
  70
    32
  0
VERTEX
  8
01
  5
C29D
 10
909.579
 20
-2174.07
 30
0.000000
  70
    32
  0
VERTEX
  8
01
  5
C29E
 10
909.624
 20
-2174.12
 30
0.000000
  70
    32
  0
VERTEX
  8
01
  5
C29F
 10
909.669
 20
-2174.16
 30
0.000000
  70
    32
  0
VERTEX
  8
01
  5
C2A0
 10
909.715
 20
-2174.20
 30
0.000000
  70
    32
  0
VERTEX
  8
01
  5
C2A1
 10
909.761
 20
-2174.23
 30
0.000000
  70
    32
  0
VERTEX
  8
01
  5
C2A2
 10
909.807
 20
-2174.25
 30
0.000000
  70
    32
  0
VERTEX
  8
01
  5
C2A3
 10
909.852
 20
-2174.27
 30
0.000000
  70
    32
  0
VERTEX
  8
01
  5
C2A4
 10
909.898
 20
-2174.28
 30
0.000000
  70
    32
  0
VERTEX
  8
01
  5
C2A5
 10
909.944
 20
-2174.28
 30
0.000000
  70
    32
  0
VERTEX
  8
01
  5
C2A6
 10
909.990
 20
-2174.28
 30
0.000000
  70
    32
  0
VERTEX
  8
01
  5
C2A7
 10
910.036
 20
-2174.27
 30
0.000000
  70
    32
  0
VERTEX
  8
01
  5
C2A8
 10
910.082
 20
-2174.25
 30
0.000000
  70
    32
  0
VERTEX
  8
01
  5
C2A9
 10
910.128
 20
-2174.23
 30
0.000000
  70
    32
  0
VERTEX
  8
01
  5
C2AA
 10
910.174
 20
-2174.20
 30
0.000000
  70
    32
  0
VERTEX
  8
01
  5
C2AB
 10
910.219
 20
-2174.16
 30
0.000000
  70
    32
  0
VERTEX
  8
01
  5
C2AC
 10
910.265
 20
-2174.12
 30
0.000000
  70
    32
  0
VERTEX
  8
01
  5
C2AD
 10
910.310
 20
-2174.07
 30
0.000000
  70
    32
  0
VERTEX
  8
01
  5
C2AE
 10
910.355
 20
-2174.02
 30
0.000000
  70
    32
  0
VERTEX
  8
01
  5
C2AF
 10
910.399
 20
-2173.95
 30
0.000000
  70
    32
  0
VERTEX
  8
01
  5
C2B0
 10
910.444
 20
-2173.88
 30
0.000000
  70
    32
  0
VERTEX
  8
01
  5
C2B1
 10
910.488
 20
-2173.81
 30
0.000000
  70
    32
  0
VERTEX
  8
01
  5
C2B2
 10
910.532
 20
-2173.73
 30
0.000000
  70
    32
  0
VERTEX
  8
01
  5
C2B3
 10
910.575
 20
-2173.64
 30
0.000000
  70
    32
  0
VERTEX
  8
01
  5
C2B4
 10
910.618
 20
-2173.54
 30
0.000000
  70
    32
  0
VERTEX
  8
01
  5
C2B5
 10
910.661
 20
-2173.44
 30
0.000000
  70
    32
  0
VERTEX
  8
01
  5
C2B6
 10
910.703
 20
-2173.34
 30
0.000000
  70
    32
  0
VERTEX
  8
01
  5
C2B7
 10
910.745
 20
-2173.22
 30
0.000000
  70
    32
  0
VERTEX
  8
01
  5
C2B8
 10
910.787
 20
-2173.10
 30
0.000000
  70
    32
  0
VERTEX
  8
01
  5
C2B9
 10
910.827
 20
-2172.98
 30
0.000000
  70
    32
  0
VERTEX
  8
01
  5
C2BA
 10
910.868
 20
-2172.85
 30
0.000000
  70
    32
  0
VERTEX
  8
01
  5
C2BB
 10
910.907
 20
-2172.71
 30
0.000000
  70
    32
  0
VERTEX
  8
01
  5
C2BC
 10
910.946
 20
-2172.57
 30
0.000000
  70
    32
  0
VERTEX
  8
01
  5
C2BD
 10
910.985
 20
-2172.42
 30
0.000000
  70
    32
  0
VERTEX
  8
01
  5
C2BE
 10
911.023
 20
-2172.27
 30
0.000000
  70
    32
  0
VERTEX
  8
01
  5
C2BF
 10
911.060
 20
-2172.11
 30
0.000000
  70
    32
  0
VERTEX
  8
01
  5
C2C0
 10
911.097
 20
-2171.95
 30
0.000000
  70
    32
  0
VERTEX
  8
01
  5
C2C1
 10
911.133
 20
-2171.78
 30
0.000000
  70
    32
  0
VERTEX
  8
01
  5
C2C2
 10
911.168
 20
-2171.60
 30
0.000000
  70
    32
  0
VERTEX
  8
01
  5
C2C3
 10
911.202
 20
-2171.42
 30
0.000000
  70
    32
  0
VERTEX
  8
01
  5
C2C4
 10
911.236
 20
-2171.24
 30
0.000000
  70
    32
  0
VERTEX
  8
01
  5
C2C5
 10
911.269
 20
-2171.05
 30
0.000000
  70
    32
  0
VERTEX
  8
01
  5
C2C6
 10
911.301
 20
-2170.85
 30
0.000000
  70
    32
  0
VERTEX
  8
01
  5
C2C7
 10
911.332
 20
-2170.65
 30
0.000000
  70
    32
  0
VERTEX
  8
01
  5
C2C8
 10
911.363
 20
-2170.45
 30
0.000000
  70
    32
  0
VERTEX
  8
01
  5
C2C9
 10
911.392
 20
-2170.24
 30
0.000000
  70
    32
  0
VERTEX
  8
01
  5
C2CA
 10
911.421
 20
-2170.03
 30
0.000000
  70
    32
  0
VERTEX
  8
01
  5
C2CB
 10
911.449
 20
-2169.82
 30
0.000000
  70
    32
  0
VERTEX
  8
01
  5
C2CC
 10
911.476
 20
-2169.60
 30
0.000000
  70
    32
  0
VERTEX
  8
01
  5
C2CD
 10
911.502
 20
-2169.37
 30
0.000000
  70
    32
  0
VERTEX
  8
01
  5
C2CE
 10
911.527
 20
-2169.15
 30
0.000000
  70
    32
  0
VERTEX
  8
01
  5
C2CF
 10
911.551
 20
-2168.91
 30
0.000000
  70
    32
  0
VERTEX
  8
01
  5
C2D0
 10
911.574
 20
-2168.68
 30
0.000000
  70
    32
  0
VERTEX
  8
01
  5
C2D1
 10
911.596
 20
-2168.44
 30
0.000000
  70
    32
  0
VERTEX
  8
01
  5
C2D2
 10
911.617
 20
-2168.20
 30
0.000000
  70
    32
  0
VERTEX
  8
01
  5
C2D3
 10
911.638
 20
-2167.96
 30
0.000000
  70
    32
  0
VERTEX
  8
01
  5
C2D4
 10
911.657
 20
-2167.71
 30
0.000000
  70
    32
  0
VERTEX
  8
01
  5
C2D5
 10
911.675
 20
-2167.46
 30
0.000000
  70
    32
  0
VERTEX
  8
01
  5
C2D6
 10
911.692
 20
-2167.21
 30
0.000000
  70
    32
  0
VERTEX
  8
01
  5
C2D7
 10
911.708
 20
-2166.96
 30
0.000000
  70
    32
  0
VERTEX
  8
01
  5
C2D8
 10
911.723
 20
-2166.70
 30
0.000000
  70
    32
  0
VERTEX
  8
01
  5
C2D9
 10
911.737
 20
-2166.44
 30
0.000000
  70
    32
  0
VERTEX
  8
01
  5
C2DA
 10
911.750
 20
-2166.18
 30
0.000000
  70
    32
  0
VERTEX
  8
01
  5
C2DB
 10
911.761
 20
-2165.92
 30
0.000000
  70
    32
  0
VERTEX
  8
01
  5
C2DC
 10
911.772
 20
-2165.66
 30
0.000000
  70
    32
  0
VERTEX
  8
01
  5
C2DD
 10
911.781
 20
-2165.39
 30
0.000000
  70
    32
  0
VERTEX
  8
01
  5
C2DE
 10
911.790
 20
-2165.12
 30
0.000000
  70
    32
  0
VERTEX
  8
01
  5
C2DF
 10
911.797
 20
-2164.86
 30
0.000000
  70
    32
  0
VERTEX
  8
01
  5
C2E0
 10
911.803
 20
-2164.59
 30
0.000000
  70
    32
  0
VERTEX
  8
01
  5
C2E1
 10
911.808
 20
-2164.32
 30
0.000000
  70
    32
  0
VERTEX
  8
01
  5
C2E2
 10
911.812
 20
-2164.05
 30
0.000000
  70
    32
  0
VERTEX
  8
01
  5
C2E3
 10
911.815
 20
-2163.78
 30
0.000000
  70
    32
  0
VERTEX
  8
01
  5
C2E4
 10
911.817
 20
-2163.51
 30
0.000000
  70
    32
  0
VERTEX
  8
01
  5
C2E5
 10
911.817
 20
-2163.23
 30
0.000000
  70
    32
  0
SEQEND
  8
01
  5
C2E6
  0
POLYLINE
  5
B93B
  8
01
 10
917.12662238513428
 20
-2147.9653991428436
 30
0.0
 66
     1
 70
     8
  0
VERTEX
  8
01
  5
C2E7
 10
917.127
 20
-2147.97
 30
0.000000
  70
    32
  0
VERTEX
  8
01
  5
C2E8
 10
917.015
 20
-2147.97
 30
0.000000
  70
    32
  0
VERTEX
  8
01
  5
C2E9
 10
916.904
 20
-2147.97
 30
0.000000
  70
    32
  0
VERTEX
  8
01
  5
C2EA
 10
916.793
 20
-2147.98
 30
0.000000
  70
    32
  0
VERTEX
  8
01
  5
C2EB
 10
916.682
 20
-2147.98
 30
0.000000
  70
    32
  0
VERTEX
  8
01
  5
C2EC
 10
916.571
 20
-2147.99
 30
0.000000
  70
    32
  0
VERTEX
  8
01
  5
C2ED
 10
916.460
 20
-2148.01
 30
0.000000
  70
    32
  0
VERTEX
  8
01
  5
C2EE
 10
916.350
 20
-2148.02
 30
0.000000
  70
    32
  0
VERTEX
  8
01
  5
C2EF
 10
916.239
 20
-2148.04
 30
0.000000
  70
    32
  0
VERTEX
  8
01
  5
C2F0
 10
916.129
 20
-2148.06
 30
0.000000
  70
    32
  0
VERTEX
  8
01
  5
C2F1
 10
916.018
 20
-2148.08
 30
0.000000
  70
    32
  0
VERTEX
  8
01
  5
C2F2
 10
915.908
 20
-2148.10
 30
0.000000
  70
    32
  0
VERTEX
  8
01
  5
C2F3
 10
915.798
 20
-2148.13
 30
0.000000
  70
    32
  0
VERTEX
  8
01
  5
C2F4
 10
915.688
 20
-2148.16
 30
0.000000
  70
    32
  0
VERTEX
  8
01
  5
C2F5
 10
915.578
 20
-2148.19
 30
0.000000
  70
    32
  0
VERTEX
  8
01
  5
C2F6
 10
915.469
 20
-2148.22
 30
0.000000
  70
    32
  0
VERTEX
  8
01
  5
C2F7
 10
915.360
 20
-2148.26
 30
0.000000
  70
    32
  0
VERTEX
  8
01
  5
C2F8
 10
915.251
 20
-2148.30
 30
0.000000
  70
    32
  0
VERTEX
  8
01
  5
C2F9
 10
915.143
 20
-2148.34
 30
0.000000
  70
    32
  0
VERTEX
  8
01
  5
C2FA
 10
915.034
 20
-2148.38
 30
0.000000
  70
    32
  0
VERTEX
  8
01
  5
C2FB
 10
914.926
 20
-2148.42
 30
0.000000
  70
    32
  0
VERTEX
  8
01
  5
C2FC
 10
914.819
 20
-2148.47
 30
0.000000
  70
    32
  0
VERTEX
  8
01
  5
C2FD
 10
914.711
 20
-2148.52
 30
0.000000
  70
    32
  0
VERTEX
  8
01
  5
C2FE
 10
914.605
 20
-2148.57
 30
0.000000
  70
    32
  0
VERTEX
  8
01
  5
C2FF
 10
914.498
 20
-2148.62
 30
0.000000
  70
    32
  0
VERTEX
  8
01
  5
C300
 10
914.392
 20
-2148.68
 30
0.000000
  70
    32
  0
VERTEX
  8
01
  5
C301
 10
914.286
 20
-2148.74
 30
0.000000
  70
    32
  0
VERTEX
  8
01
  5
C302
 10
914.181
 20
-2148.80
 30
0.000000
  70
    32
  0
VERTEX
  8
01
  5
C303
 10
914.076
 20
-2148.86
 30
0.000000
  70
    32
  0
VERTEX
  8
01
  5
C304
 10
913.972
 20
-2148.92
 30
0.000000
  70
    32
  0
VERTEX
  8
01
  5
C305
 10
913.868
 20
-2148.99
 30
0.000000
  70
    32
  0
VERTEX
  8
01
  5
C306
 10
913.764
 20
-2149.06
 30
0.000000
  70
    32
  0
VERTEX
  8
01
  5
C307
 10
913.661
 20
-2149.13
 30
0.000000
  70
    32
  0
VERTEX
  8
01
  5
C308
 10
913.559
 20
-2149.20
 30
0.000000
  70
    32
  0
VERTEX
  8
01
  5
C309
 10
913.457
 20
-2149.28
 30
0.000000
  70
    32
  0
VERTEX
  8
01
  5
C30A
 10
913.356
 20
-2149.35
 30
0.000000
  70
    32
  0
VERTEX
  8
01
  5
C30B
 10
913.255
 20
-2149.43
 30
0.000000
  70
    32
  0
VERTEX
  8
01
  5
C30C
 10
913.155
 20
-2149.51
 30
0.000000
  70
    32
  0
VERTEX
  8
01
  5
C30D
 10
913.055
 20
-2149.60
 30
0.000000
  70
    32
  0
VERTEX
  8
01
  5
C30E
 10
912.956
 20
-2149.68
 30
0.000000
  70
    32
  0
VERTEX
  8
01
  5
C30F
 10
912.858
 20
-2149.77
 30
0.000000
  70
    32
  0
VERTEX
  8
01
  5
C310
 10
912.760
 20
-2149.86
 30
0.000000
  70
    32
  0
VERTEX
  8
01
  5
C311
 10
912.663
 20
-2149.95
 30
0.000000
  70
    32
  0
VERTEX
  8
01
  5
C312
 10
912.567
 20
-2150.04
 30
0.000000
  70
    32
  0
VERTEX
  8
01
  5
C313
 10
912.471
 20
-2150.14
 30
0.000000
  70
    32
  0
VERTEX
  8
01
  5
C314
 10
912.376
 20
-2150.24
 30
0.000000
  70
    32
  0
VERTEX
  8
01
  5
C315
 10
912.282
 20
-2150.33
 30
0.000000
  70
    32
  0
VERTEX
  8
01
  5
C316
 10
912.188
 20
-2150.44
 30
0.000000
  70
    32
  0
VERTEX
  8
01
  5
C317
 10
912.096
 20
-2150.54
 30
0.000000
  70
    32
  0
VERTEX
  8
01
  5
C318
 10
912.004
 20
-2150.64
 30
0.000000
  70
    32
  0
VERTEX
  8
01
  5
C319
 10
911.912
 20
-2150.75
 30
0.000000
  70
    32
  0
VERTEX
  8
01
  5
C31A
 10
911.822
 20
-2150.86
 30
0.000000
  70
    32
  0
VERTEX
  8
01
  5
C31B
 10
911.732
 20
-2150.97
 30
0.000000
  70
    32
  0
VERTEX
  8
01
  5
C31C
 10
911.643
 20
-2151.08
 30
0.000000
  70
    32
  0
VERTEX
  8
01
  5
C31D
 10
911.555
 20
-2151.20
 30
0.000000
  70
    32
  0
VERTEX
  8
01
  5
C31E
 10
911.468
 20
-2151.31
 30
0.000000
  70
    32
  0
VERTEX
  8
01
  5
C31F
 10
911.382
 20
-2151.43
 30
0.000000
  70
    32
  0
VERTEX
  8
01
  5
C320
 10
911.296
 20
-2151.55
 30
0.000000
  70
    32
  0
VERTEX
  8
01
  5
C321
 10
911.212
 20
-2151.67
 30
0.000000
  70
    32
  0
VERTEX
  8
01
  5
C322
 10
911.128
 20
-2151.80
 30
0.000000
  70
    32
  0
VERTEX
  8
01
  5
C323
 10
911.045
 20
-2151.92
 30
0.000000
  70
    32
  0
VERTEX
  8
01
  5
C324
 10
910.963
 20
-2152.05
 30
0.000000
  70
    32
  0
VERTEX
  8
01
  5
C325
 10
910.883
 20
-2152.18
 30
0.000000
  70
    32
  0
VERTEX
  8
01
  5
C326
 10
910.803
 20
-2152.31
 30
0.000000
  70
    32
  0
VERTEX
  8
01
  5
C327
 10
910.723
 20
-2152.44
 30
0.000000
  70
    32
  0
VERTEX
  8
01
  5
C328
 10
910.645
 20
-2152.57
 30
0.000000
  70
    32
  0
VERTEX
  8
01
  5
C329
 10
910.568
 20
-2152.71
 30
0.000000
  70
    32
  0
VERTEX
  8
01
  5
C32A
 10
910.492
 20
-2152.84
 30
0.000000
  70
    32
  0
VERTEX
  8
01
  5
C32B
 10
910.417
 20
-2152.98
 30
0.000000
  70
    32
  0
VERTEX
  8
01
  5
C32C
 10
910.343
 20
-2153.12
 30
0.000000
  70
    32
  0
VERTEX
  8
01
  5
C32D
 10
910.270
 20
-2153.26
 30
0.000000
  70
    32
  0
VERTEX
  8
01
  5
C32E
 10
910.198
 20
-2153.40
 30
0.000000
  70
    32
  0
VERTEX
  8
01
  5
C32F
 10
910.127
 20
-2153.55
 30
0.000000
  70
    32
  0
VERTEX
  8
01
  5
C330
 10
910.057
 20
-2153.69
 30
0.000000
  70
    32
  0
VERTEX
  8
01
  5
C331
 10
909.988
 20
-2153.84
 30
0.000000
  70
    32
  0
VERTEX
  8
01
  5
C332
 10
909.920
 20
-2153.99
 30
0.000000
  70
    32
  0
VERTEX
  8
01
  5
C333
 10
909.853
 20
-2154.14
 30
0.000000
  70
    32
  0
VERTEX
  8
01
  5
C334
 10
909.788
 20
-2154.29
 30
0.000000
  70
    32
  0
VERTEX
  8
01
  5
C335
 10
909.723
 20
-2154.44
 30
0.000000
  70
    32
  0
VERTEX
  8
01
  5
C336
 10
909.660
 20
-2154.60
 30
0.000000
  70
    32
  0
VERTEX
  8
01
  5
C337
 10
909.597
 20
-2154.75
 30
0.000000
  70
    32
  0
VERTEX
  8
01
  5
C338
 10
909.536
 20
-2154.91
 30
0.000000
  70
    32
  0
VERTEX
  8
01
  5
C339
 10
909.476
 20
-2155.07
 30
0.000000
  70
    32
  0
VERTEX
  8
01
  5
C33A
 10
909.417
 20
-2155.22
 30
0.000000
  70
    32
  0
VERTEX
  8
01
  5
C33B
 10
909.360
 20
-2155.38
 30
0.000000
  70
    32
  0
VERTEX
  8
01
  5
C33C
 10
909.303
 20
-2155.55
 30
0.000000
  70
    32
  0
VERTEX
  8
01
  5
C33D
 10
909.248
 20
-2155.71
 30
0.000000
  70
    32
  0
VERTEX
  8
01
  5
C33E
 10
909.193
 20
-2155.87
 30
0.000000
  70
    32
  0
VERTEX
  8
01
  5
C33F
 10
909.140
 20
-2156.04
 30
0.000000
  70
    32
  0
VERTEX
  8
01
  5
C340
 10
909.089
 20
-2156.20
 30
0.000000
  70
    32
  0
VERTEX
  8
01
  5
C341
 10
909.038
 20
-2156.37
 30
0.000000
  70
    32
  0
VERTEX
  8
01
  5
C342
 10
908.989
 20
-2156.54
 30
0.000000
  70
    32
  0
VERTEX
  8
01
  5
C343
 10
908.941
 20
-2156.71
 30
0.000000
  70
    32
  0
VERTEX
  8
01
  5
C344
 10
908.894
 20
-2156.88
 30
0.000000
  70
    32
  0
VERTEX
  8
01
  5
C345
 10
908.848
 20
-2157.05
 30
0.000000
  70
    32
  0
VERTEX
  8
01
  5
C346
 10
908.804
 20
-2157.22
 30
0.000000
  70
    32
  0
VERTEX
  8
01
  5
C347
 10
908.761
 20
-2157.39
 30
0.000000
  70
    32
  0
VERTEX
  8
01
  5
C348
 10
908.719
 20
-2157.56
 30
0.000000
  70
    32
  0
VERTEX
  8
01
  5
C349
 10
908.678
 20
-2157.74
 30
0.000000
  70
    32
  0
VERTEX
  8
01
  5
C34A
 10
908.639
 20
-2157.91
 30
0.000000
  70
    32
  0
VERTEX
  8
01
  5
C34B
 10
908.601
 20
-2158.09
 30
0.000000
  70
    32
  0
VERTEX
  8
01
  5
C34C
 10
908.564
 20
-2158.27
 30
0.000000
  70
    32
  0
VERTEX
  8
01
  5
C34D
 10
908.528
 20
-2158.44
 30
0.000000
  70
    32
  0
VERTEX
  8
01
  5
C34E
 10
908.494
 20
-2158.62
 30
0.000000
  70
    32
  0
VERTEX
  8
01
  5
C34F
 10
908.461
 20
-2158.80
 30
0.000000
  70
    32
  0
VERTEX
  8
01
  5
C350
 10
908.430
 20
-2158.98
 30
0.000000
  70
    32
  0
VERTEX
  8
01
  5
C351
 10
908.399
 20
-2159.16
 30
0.000000
  70
    32
  0
VERTEX
  8
01
  5
C352
 10
908.370
 20
-2159.34
 30
0.000000
  70
    32
  0
VERTEX
  8
01
  5
C353
 10
908.343
 20
-2159.52
 30
0.000000
  70
    32
  0
VERTEX
  8
01
  5
C354
 10
908.316
 20
-2159.71
 30
0.000000
  70
    32
  0
VERTEX
  8
01
  5
C355
 10
908.291
 20
-2159.89
 30
0.000000
  70
    32
  0
VERTEX
  8
01
  5
C356
 10
908.268
 20
-2160.07
 30
0.000000
  70
    32
  0
VERTEX
  8
01
  5
C357
 10
908.245
 20
-2160.26
 30
0.000000
  70
    32
  0
VERTEX
  8
01
  5
C358
 10
908.224
 20
-2160.44
 30
0.000000
  70
    32
  0
VERTEX
  8
01
  5
C359
 10
908.205
 20
-2160.62
 30
0.000000
  70
    32
  0
VERTEX
  8
01
  5
C35A
 10
908.186
 20
-2160.81
 30
0.000000
  70
    32
  0
VERTEX
  8
01
  5
C35B
 10
908.169
 20
-2160.99
 30
0.000000
  70
    32
  0
VERTEX
  8
01
  5
C35C
 10
908.154
 20
-2161.18
 30
0.000000
  70
    32
  0
VERTEX
  8
01
  5
C35D
 10
908.139
 20
-2161.37
 30
0.000000
  70
    32
  0
VERTEX
  8
01
  5
C35E
 10
908.126
 20
-2161.55
 30
0.000000
  70
    32
  0
VERTEX
  8
01
  5
C35F
 10
908.115
 20
-2161.74
 30
0.000000
  70
    32
  0
VERTEX
  8
01
  5
C360
 10
908.105
 20
-2161.92
 30
0.000000
  70
    32
  0
VERTEX
  8
01
  5
C361
 10
908.096
 20
-2162.11
 30
0.000000
  70
    32
  0
VERTEX
  8
01
  5
C362
 10
908.088
 20
-2162.30
 30
0.000000
  70
    32
  0
VERTEX
  8
01
  5
C363
 10
908.082
 20
-2162.48
 30
0.000000
  70
    32
  0
VERTEX
  8
01
  5
C364
 10
908.077
 20
-2162.67
 30
0.000000
  70
    32
  0
VERTEX
  8
01
  5
C365
 10
908.074
 20
-2162.86
 30
0.000000
  70
    32
  0
VERTEX
  8
01
  5
C366
 10
908.072
 20
-2163.05
 30
0.000000
  70
    32
  0
VERTEX
  8
01
  5
C367
 10
908.071
 20
-2163.23
 30
0.000000
  70
    32
  0
SEQEND
  8
01
  5
C368
  0
ARC
  5
B93C
  8
01
 10
916.59323730298547
 20
-2159.8793793901482
 30
0.0
 40
13.20186386360011
 50
245.45475410764229
 51
329.3685162532276
  0
POLYLINE
  5
B93D
  8
01
 10
917.12662238513428
 20
-2149.8621086707521
 30
0.0
 66
     1
 70
     8
  0
VERTEX
  8
01
  5
C369
 10
917.127
 20
-2149.86
 30
0.000000
  70
    32
  0
VERTEX
  8
01
  5
C36A
 10
917.061
 20
-2149.86
 30
0.000000
  70
    32
  0
VERTEX
  8
01
  5
C36B
 10
916.996
 20
-2149.87
 30
0.000000
  70
    32
  0
VERTEX
  8
01
  5
C36C
 10
916.931
 20
-2149.87
 30
0.000000
  70
    32
  0
VERTEX
  8
01
  5
C36D
 10
916.866
 20
-2149.88
 30
0.000000
  70
    32
  0
VERTEX
  8
01
  5
C36E
 10
916.801
 20
-2149.89
 30
0.000000
  70
    32
  0
VERTEX
  8
01
  5
C36F
 10
916.736
 20
-2149.90
 30
0.000000
  70
    32
  0
VERTEX
  8
01
  5
C370
 10
916.671
 20
-2149.91
 30
0.000000
  70
    32
  0
VERTEX
  8
01
  5
C371
 10
916.606
 20
-2149.93
 30
0.000000
  70
    32
  0
VERTEX
  8
01
  5
C372
 10
916.541
 20
-2149.94
 30
0.000000
  70
    32
  0
VERTEX
  8
01
  5
C373
 10
916.477
 20
-2149.96
 30
0.000000
  70
    32
  0
VERTEX
  8
01
  5
C374
 10
916.412
 20
-2149.98
 30
0.000000
  70
    32
  0
VERTEX
  8
01
  5
C375
 10
916.348
 20
-2150.01
 30
0.000000
  70
    32
  0
VERTEX
  8
01
  5
C376
 10
916.283
 20
-2150.03
 30
0.000000
  70
    32
  0
VERTEX
  8
01
  5
C377
 10
916.219
 20
-2150.06
 30
0.000000
  70
    32
  0
VERTEX
  8
01
  5
C378
 10
916.155
 20
-2150.09
 30
0.000000
  70
    32
  0
VERTEX
  8
01
  5
C379
 10
916.091
 20
-2150.12
 30
0.000000
  70
    32
  0
VERTEX
  8
01
  5
C37A
 10
916.027
 20
-2150.15
 30
0.000000
  70
    32
  0
VERTEX
  8
01
  5
C37B
 10
915.963
 20
-2150.19
 30
0.000000
  70
    32
  0
VERTEX
  8
01
  5
C37C
 10
915.900
 20
-2150.22
 30
0.000000
  70
    32
  0
VERTEX
  8
01
  5
C37D
 10
915.837
 20
-2150.26
 30
0.000000
  70
    32
  0
VERTEX
  8
01
  5
C37E
 10
915.773
 20
-2150.30
 30
0.000000
  70
    32
  0
VERTEX
  8
01
  5
C37F
 10
915.711
 20
-2150.35
 30
0.000000
  70
    32
  0
VERTEX
  8
01
  5
C380
 10
915.648
 20
-2150.39
 30
0.000000
  70
    32
  0
VERTEX
  8
01
  5
C381
 10
915.585
 20
-2150.44
 30
0.000000
  70
    32
  0
VERTEX
  8
01
  5
C382
 10
915.523
 20
-2150.49
 30
0.000000
  70
    32
  0
VERTEX
  8
01
  5
C383
 10
915.461
 20
-2150.54
 30
0.000000
  70
    32
  0
VERTEX
  8
01
  5
C384
 10
915.399
 20
-2150.59
 30
0.000000
  70
    32
  0
VERTEX
  8
01
  5
C385
 10
915.338
 20
-2150.64
 30
0.000000
  70
    32
  0
VERTEX
  8
01
  5
C386
 10
915.277
 20
-2150.70
 30
0.000000
  70
    32
  0
VERTEX
  8
01
  5
C387
 10
915.216
 20
-2150.76
 30
0.000000
  70
    32
  0
VERTEX
  8
01
  5
C388
 10
915.155
 20
-2150.82
 30
0.000000
  70
    32
  0
VERTEX
  8
01
  5
C389
 10
915.095
 20
-2150.88
 30
0.000000
  70
    32
  0
VERTEX
  8
01
  5
C38A
 10
915.035
 20
-2150.94
 30
0.000000
  70
    32
  0
VERTEX
  8
01
  5
C38B
 10
914.975
 20
-2151.01
 30
0.000000
  70
    32
  0
VERTEX
  8
01
  5
C38C
 10
914.916
 20
-2151.08
 30
0.000000
  70
    32
  0
VERTEX
  8
01
  5
C38D
 10
914.857
 20
-2151.15
 30
0.000000
  70
    32
  0
VERTEX
  8
01
  5
C38E
 10
914.798
 20
-2151.22
 30
0.000000
  70
    32
  0
VERTEX
  8
01
  5
C38F
 10
914.740
 20
-2151.29
 30
0.000000
  70
    32
  0
VERTEX
  8
01
  5
C390
 10
914.682
 20
-2151.36
 30
0.000000
  70
    32
  0
VERTEX
  8
01
  5
C391
 10
914.624
 20
-2151.44
 30
0.000000
  70
    32
  0
VERTEX
  8
01
  5
C392
 10
914.567
 20
-2151.52
 30
0.000000
  70
    32
  0
VERTEX
  8
01
  5
C393
 10
914.510
 20
-2151.60
 30
0.000000
  70
    32
  0
VERTEX
  8
01
  5
C394
 10
914.453
 20
-2151.68
 30
0.000000
  70
    32
  0
VERTEX
  8
01
  5
C395
 10
914.397
 20
-2151.76
 30
0.000000
  70
    32
  0
VERTEX
  8
01
  5
C396
 10
914.341
 20
-2151.85
 30
0.000000
  70
    32
  0
VERTEX
  8
01
  5
C397
 10
914.286
 20
-2151.94
 30
0.000000
  70
    32
  0
VERTEX
  8
01
  5
C398
 10
914.231
 20
-2152.03
 30
0.000000
  70
    32
  0
VERTEX
  8
01
  5
C399
 10
914.177
 20
-2152.12
 30
0.000000
  70
    32
  0
VERTEX
  8
01
  5
C39A
 10
914.123
 20
-2152.21
 30
0.000000
  70
    32
  0
VERTEX
  8
01
  5
C39B
 10
914.070
 20
-2152.30
 30
0.000000
  70
    32
  0
VERTEX
  8
01
  5
C39C
 10
914.017
 20
-2152.40
 30
0.000000
  70
    32
  0
VERTEX
  8
01
  5
C39D
 10
913.964
 20
-2152.49
 30
0.000000
  70
    32
  0
VERTEX
  8
01
  5
C39E
 10
913.912
 20
-2152.59
 30
0.000000
  70
    32
  0
VERTEX
  8
01
  5
C39F
 10
913.860
 20
-2152.69
 30
0.000000
  70
    32
  0
VERTEX
  8
01
  5
C3A0
 10
913.809
 20
-2152.79
 30
0.000000
  70
    32
  0
VERTEX
  8
01
  5
C3A1
 10
913.759
 20
-2152.90
 30
0.000000
  70
    32
  0
VERTEX
  8
01
  5
C3A2
 10
913.708
 20
-2153.00
 30
0.000000
  70
    32
  0
VERTEX
  8
01
  5
C3A3
 10
913.659
 20
-2153.11
 30
0.000000
  70
    32
  0
VERTEX
  8
01
  5
C3A4
 10
913.610
 20
-2153.22
 30
0.000000
  70
    32
  0
VERTEX
  8
01
  5
C3A5
 10
913.561
 20
-2153.33
 30
0.000000
  70
    32
  0
VERTEX
  8
01
  5
C3A6
 10
913.513
 20
-2153.44
 30
0.000000
  70
    32
  0
VERTEX
  8
01
  5
C3A7
 10
913.466
 20
-2153.55
 30
0.000000
  70
    32
  0
VERTEX
  8
01
  5
C3A8
 10
913.419
 20
-2153.66
 30
0.000000
  70
    32
  0
VERTEX
  8
01
  5
C3A9
 10
913.372
 20
-2153.78
 30
0.000000
  70
    32
  0
VERTEX
  8
01
  5
C3AA
 10
913.327
 20
-2153.90
 30
0.000000
  70
    32
  0
VERTEX
  8
01
  5
C3AB
 10
913.281
 20
-2154.01
 30
0.000000
  70
    32
  0
VERTEX
  8
01
  5
C3AC
 10
913.237
 20
-2154.13
 30
0.000000
  70
    32
  0
VERTEX
  8
01
  5
C3AD
 10
913.193
 20
-2154.25
 30
0.000000
  70
    32
  0
VERTEX
  8
01
  5
C3AE
 10
913.149
 20
-2154.38
 30
0.000000
  70
    32
  0
VERTEX
  8
01
  5
C3AF
 10
913.106
 20
-2154.50
 30
0.000000
  70
    32
  0
VERTEX
  8
01
  5
C3B0
 10
913.064
 20
-2154.62
 30
0.000000
  70
    32
  0
VERTEX
  8
01
  5
C3B1
 10
913.023
 20
-2154.75
 30
0.000000
  70
    32
  0
VERTEX
  8
01
  5
C3B2
 10
912.982
 20
-2154.88
 30
0.000000
  70
    32
  0
VERTEX
  8
01
  5
C3B3
 10
912.941
 20
-2155.01
 30
0.000000
  70
    32
  0
VERTEX
  8
01
  5
C3B4
 10
912.901
 20
-2155.14
 30
0.000000
  70
    32
  0
VERTEX
  8
01
  5
C3B5
 10
912.862
 20
-2155.27
 30
0.000000
  70
    32
  0
VERTEX
  8
01
  5
C3B6
 10
912.824
 20
-2155.40
 30
0.000000
  70
    32
  0
VERTEX
  8
01
  5
C3B7
 10
912.786
 20
-2155.53
 30
0.000000
  70
    32
  0
VERTEX
  8
01
  5
C3B8
 10
912.749
 20
-2155.67
 30
0.000000
  70
    32
  0
VERTEX
  8
01
  5
C3B9
 10
912.712
 20
-2155.81
 30
0.000000
  70
    32
  0
VERTEX
  8
01
  5
C3BA
 10
912.676
 20
-2155.94
 30
0.000000
  70
    32
  0
VERTEX
  8
01
  5
C3BB
 10
912.641
 20
-2156.08
 30
0.000000
  70
    32
  0
VERTEX
  8
01
  5
C3BC
 10
912.607
 20
-2156.22
 30
0.000000
  70
    32
  0
VERTEX
  8
01
  5
C3BD
 10
912.573
 20
-2156.36
 30
0.000000
  70
    32
  0
VERTEX
  8
01
  5
C3BE
 10
912.540
 20
-2156.50
 30
0.000000
  70
    32
  0
VERTEX
  8
01
  5
C3BF
 10
912.507
 20
-2156.64
 30
0.000000
  70
    32
  0
VERTEX
  8
01
  5
C3C0
 10
912.475
 20
-2156.79
 30
0.000000
  70
    32
  0
VERTEX
  8
01
  5
C3C1
 10
912.444
 20
-2156.93
 30
0.000000
  70
    32
  0
VERTEX
  8
01
  5
C3C2
 10
912.414
 20
-2157.08
 30
0.000000
  70
    32
  0
VERTEX
  8
01
  5
C3C3
 10
912.384
 20
-2157.22
 30
0.000000
  70
    32
  0
VERTEX
  8
01
  5
C3C4
 10
912.355
 20
-2157.37
 30
0.000000
  70
    32
  0
VERTEX
  8
01
  5
C3C5
 10
912.327
 20
-2157.52
 30
0.000000
  70
    32
  0
VERTEX
  8
01
  5
C3C6
 10
912.300
 20
-2157.67
 30
0.000000
  70
    32
  0
VERTEX
  8
01
  5
C3C7
 10
912.273
 20
-2157.82
 30
0.000000
  70
    32
  0
VERTEX
  8
01
  5
C3C8
 10
912.247
 20
-2157.97
 30
0.000000
  70
    32
  0
VERTEX
  8
01
  5
C3C9
 10
912.222
 20
-2158.12
 30
0.000000
  70
    32
  0
VERTEX
  8
01
  5
C3CA
 10
912.197
 20
-2158.27
 30
0.000000
  70
    32
  0
VERTEX
  8
01
  5
C3CB
 10
912.173
 20
-2158.42
 30
0.000000
  70
    32
  0
VERTEX
  8
01
  5
C3CC
 10
912.150
 20
-2158.58
 30
0.000000
  70
    32
  0
VERTEX
  8
01
  5
C3CD
 10
912.128
 20
-2158.73
 30
0.000000
  70
    32
  0
VERTEX
  8
01
  5
C3CE
 10
912.106
 20
-2158.88
 30
0.000000
  70
    32
  0
VERTEX
  8
01
  5
C3CF
 10
912.085
 20
-2159.04
 30
0.000000
  70
    32
  0
VERTEX
  8
01
  5
C3D0
 10
912.065
 20
-2159.20
 30
0.000000
  70
    32
  0
VERTEX
  8
01
  5
C3D1
 10
912.046
 20
-2159.35
 30
0.000000
  70
    32
  0
VERTEX
  8
01
  5
C3D2
 10
912.028
 20
-2159.51
 30
0.000000
  70
    32
  0
VERTEX
  8
01
  5
C3D3
 10
912.010
 20
-2159.67
 30
0.000000
  70
    32
  0
VERTEX
  8
01
  5
C3D4
 10
911.993
 20
-2159.83
 30
0.000000
  70
    32
  0
VERTEX
  8
01
  5
C3D5
 10
911.977
 20
-2159.98
 30
0.000000
  70
    32
  0
VERTEX
  8
01
  5
C3D6
 10
911.961
 20
-2160.14
 30
0.000000
  70
    32
  0
VERTEX
  8
01
  5
C3D7
 10
911.946
 20
-2160.30
 30
0.000000
  70
    32
  0
VERTEX
  8
01
  5
C3D8
 10
911.933
 20
-2160.46
 30
0.000000
  70
    32
  0
VERTEX
  8
01
  5
C3D9
 10
911.919
 20
-2160.63
 30
0.000000
  70
    32
  0
VERTEX
  8
01
  5
C3DA
 10
911.907
 20
-2160.79
 30
0.000000
  70
    32
  0
VERTEX
  8
01
  5
C3DB
 10
911.896
 20
-2160.95
 30
0.000000
  70
    32
  0
VERTEX
  8
01
  5
C3DC
 10
911.885
 20
-2161.11
 30
0.000000
  70
    32
  0
VERTEX
  8
01
  5
C3DD
 10
911.875
 20
-2161.27
 30
0.000000
  70
    32
  0
VERTEX
  8
01
  5
C3DE
 10
911.866
 20
-2161.43
 30
0.000000
  70
    32
  0
VERTEX
  8
01
  5
C3DF
 10
911.857
 20
-2161.60
 30
0.000000
  70
    32
  0
VERTEX
  8
01
  5
C3E0
 10
911.850
 20
-2161.76
 30
0.000000
  70
    32
  0
VERTEX
  8
01
  5
C3E1
 10
911.843
 20
-2161.92
 30
0.000000
  70
    32
  0
VERTEX
  8
01
  5
C3E2
 10
911.837
 20
-2162.09
 30
0.000000
  70
    32
  0
VERTEX
  8
01
  5
C3E3
 10
911.832
 20
-2162.25
 30
0.000000
  70
    32
  0
VERTEX
  8
01
  5
C3E4
 10
911.827
 20
-2162.41
 30
0.000000
  70
    32
  0
VERTEX
  8
01
  5
C3E5
 10
911.824
 20
-2162.58
 30
0.000000
  70
    32
  0
VERTEX
  8
01
  5
C3E6
 10
911.821
 20
-2162.74
 30
0.000000
  70
    32
  0
VERTEX
  8
01
  5
C3E7
 10
911.819
 20
-2162.91
 30
0.000000
  70
    32
  0
VERTEX
  8
01
  5
C3E8
 10
911.818
 20
-2163.07
 30
0.000000
  70
    32
  0
VERTEX
  8
01
  5
C3E9
 10
911.817
 20
-2163.23
 30
0.000000
  70
    32
  0
SEQEND
  8
01
  5
C3EA
  0
ARC
  5
B93E
  8
01
 10
913.34190427591329
 20
-2176.128865927516
 30
0.0
 40
28.416631617726772
 50
77.912010037182711
 51
122.5808157056655
  0
LINE
  5
B93F
  8
01
 10
814.18766116632366
 20
-2138.2340815977432
 30
0.0
 11
814.18766116632366
 21
-2188.2340815977432
 31
0.0
  0
LINE
  5
B940
  8
01
 10
805.68766116632378
 20
-2187.2340815977432
 30
0.0
 11
805.68766116632378
 21
-2139.2340815977432
 31
0.0
  0
LINE
  5
B941
  8
01
 10
814.18766116632366
 20
-2188.2340815977432
 30
0.0
 11
806.68766116632366
 21
-2188.2340815977432
 31
0.0
  0
ARC
  5
B942
  8
01
 10
806.68766116632366
 20
-2187.2340815977432
 30
0.0
 40
1.0
 50
180.0
 51
270.0
  0
LINE
  5
B943
  8
01
 10
814.18766116632366
 20
-2138.2340815977432
 30
0.0
 11
806.68766116632366
 21
-2138.2340815977432
 31
0.0
  0
ARC
  5
B944
  8
01
 10
806.68766116632366
 20
-2139.2340815977432
 30
0.0
 40
1.0
 50
90.0
 51
180.0
  0
LINE
  5
B945
  8
01
 10
805.18766116632366
 20
-2152.184081597743
 30
0.0
 11
770.3354524279639
 21
-2152.184081597743
 31
0.0
  0
LINE
  5
B946
  8
01
 10
805.18766116632366
 20
-2174.284081597742
 30
0.0
 11
758.43099055918708
 21
-2174.284081597742
 31
0.0
  0
LINE
  5
B947
  8
01
 10
805.18766116632366
 20
-2152.184081597743
 30
0.0
 11
805.18766116632366
 21
-2174.284081597742
 31
0.0
  0
LINE
  5
B948
  8
01
 10
805.18766116632366
 20
-2155.284081597742
 30
0.0
 11
805.68766116632378
 21
-2155.284081597742
 31
0.0
  0
LINE
  5
B949
  8
01
 10
805.18766116632366
 20
-2171.184081597743
 30
0.0
 11
805.68766116632378
 21
-2171.184081597743
 31
0.0
  0
POLYLINE
  5
B94A
  8
01
 10
740.42238045189413
 20
-2166.605917978372
 30
0.0
 66
     1
 70
     8
  0
VERTEX
  8
01
  5
C3EB
 10
740.422
 20
-2166.61
 30
0.000000
  70
    32
  0
VERTEX
  8
01
  5
C3EC
 10
740.423
 20
-2166.38
 30
0.000000
  70
    32
  0
VERTEX
  8
01
  5
C3ED
 10
740.426
 20
-2166.15
 30
0.000000
  70
    32
  0
VERTEX
  8
01
  5
C3EE
 10
740.430
 20
-2165.92
 30
0.000000
  70
    32
  0
VERTEX
  8
01
  5
C3EF
 10
740.435
 20
-2165.69
 30
0.000000
  70
    32
  0
VERTEX
  8
01
  5
C3F0
 10
740.443
 20
-2165.46
 30
0.000000
  70
    32
  0
VERTEX
  8
01
  5
C3F1
 10
740.452
 20
-2165.23
 30
0.000000
  70
    32
  0
VERTEX
  8
01
  5
C3F2
 10
740.462
 20
-2165.01
 30
0.000000
  70
    32
  0
VERTEX
  8
01
  5
C3F3
 10
740.475
 20
-2164.78
 30
0.000000
  70
    32
  0
VERTEX
  8
01
  5
C3F4
 10
740.488
 20
-2164.55
 30
0.000000
  70
    32
  0
VERTEX
  8
01
  5
C3F5
 10
740.504
 20
-2164.32
 30
0.000000
  70
    32
  0
VERTEX
  8
01
  5
C3F6
 10
740.521
 20
-2164.10
 30
0.000000
  70
    32
  0
VERTEX
  8
01
  5
C3F7
 10
740.540
 20
-2163.87
 30
0.000000
  70
    32
  0
VERTEX
  8
01
  5
C3F8
 10
740.560
 20
-2163.64
 30
0.000000
  70
    32
  0
VERTEX
  8
01
  5
C3F9
 10
740.582
 20
-2163.42
 30
0.000000
  70
    32
  0
VERTEX
  8
01
  5
C3FA
 10
740.605
 20
-2163.19
 30
0.000000
  70
    32
  0
VERTEX
  8
01
  5
C3FB
 10
740.630
 20
-2162.97
 30
0.000000
  70
    32
  0
VERTEX
  8
01
  5
C3FC
 10
740.657
 20
-2162.75
 30
0.000000
  70
    32
  0
VERTEX
  8
01
  5
C3FD
 10
740.685
 20
-2162.52
 30
0.000000
  70
    32
  0
VERTEX
  8
01
  5
C3FE
 10
740.715
 20
-2162.30
 30
0.000000
  70
    32
  0
VERTEX
  8
01
  5
C3FF
 10
740.747
 20
-2162.08
 30
0.000000
  70
    32
  0
VERTEX
  8
01
  5
C400
 10
740.780
 20
-2161.86
 30
0.000000
  70
    32
  0
VERTEX
  8
01
  5
C401
 10
740.815
 20
-2161.63
 30
0.000000
  70
    32
  0
VERTEX
  8
01
  5
C402
 10
740.851
 20
-2161.41
 30
0.000000
  70
    32
  0
VERTEX
  8
01
  5
C403
 10
740.889
 20
-2161.19
 30
0.000000
  70
    32
  0
VERTEX
  8
01
  5
C404
 10
740.928
 20
-2160.98
 30
0.000000
  70
    32
  0
VERTEX
  8
01
  5
C405
 10
740.969
 20
-2160.76
 30
0.000000
  70
    32
  0
VERTEX
  8
01
  5
C406
 10
741.011
 20
-2160.54
 30
0.000000
  70
    32
  0
VERTEX
  8
01
  5
C407
 10
741.055
 20
-2160.33
 30
0.000000
  70
    32
  0
VERTEX
  8
01
  5
C408
 10
741.101
 20
-2160.11
 30
0.000000
  70
    32
  0
VERTEX
  8
01
  5
C409
 10
741.148
 20
-2159.90
 30
0.000000
  70
    32
  0
VERTEX
  8
01
  5
C40A
 10
741.196
 20
-2159.68
 30
0.000000
  70
    32
  0
VERTEX
  8
01
  5
C40B
 10
741.246
 20
-2159.47
 30
0.000000
  70
    32
  0
VERTEX
  8
01
  5
C40C
 10
741.298
 20
-2159.26
 30
0.000000
  70
    32
  0
VERTEX
  8
01
  5
C40D
 10
741.351
 20
-2159.05
 30
0.000000
  70
    32
  0
VERTEX
  8
01
  5
C40E
 10
741.406
 20
-2158.84
 30
0.000000
  70
    32
  0
VERTEX
  8
01
  5
C40F
 10
741.462
 20
-2158.64
 30
0.000000
  70
    32
  0
VERTEX
  8
01
  5
C410
 10
741.519
 20
-2158.43
 30
0.000000
  70
    32
  0
VERTEX
  8
01
  5
C411
 10
741.578
 20
-2158.22
 30
0.000000
  70
    32
  0
VERTEX
  8
01
  5
C412
 10
741.639
 20
-2158.02
 30
0.000000
  70
    32
  0
VERTEX
  8
01
  5
C413
 10
741.701
 20
-2157.82
 30
0.000000
  70
    32
  0
VERTEX
  8
01
  5
C414
 10
741.764
 20
-2157.62
 30
0.000000
  70
    32
  0
VERTEX
  8
01
  5
C415
 10
741.829
 20
-2157.42
 30
0.000000
  70
    32
  0
VERTEX
  8
01
  5
C416
 10
741.895
 20
-2157.22
 30
0.000000
  70
    32
  0
VERTEX
  8
01
  5
C417
 10
741.963
 20
-2157.02
 30
0.000000
  70
    32
  0
VERTEX
  8
01
  5
C418
 10
742.032
 20
-2156.83
 30
0.000000
  70
    32
  0
VERTEX
  8
01
  5
C419
 10
742.102
 20
-2156.63
 30
0.000000
  70
    32
  0
VERTEX
  8
01
  5
C41A
 10
742.174
 20
-2156.44
 30
0.000000
  70
    32
  0
VERTEX
  8
01
  5
C41B
 10
742.247
 20
-2156.25
 30
0.000000
  70
    32
  0
VERTEX
  8
01
  5
C41C
 10
742.321
 20
-2156.06
 30
0.000000
  70
    32
  0
VERTEX
  8
01
  5
C41D
 10
742.397
 20
-2155.87
 30
0.000000
  70
    32
  0
VERTEX
  8
01
  5
C41E
 10
742.474
 20
-2155.69
 30
0.000000
  70
    32
  0
VERTEX
  8
01
  5
C41F
 10
742.553
 20
-2155.50
 30
0.000000
  70
    32
  0
VERTEX
  8
01
  5
C420
 10
742.633
 20
-2155.32
 30
0.000000
  70
    32
  0
VERTEX
  8
01
  5
C421
 10
742.714
 20
-2155.14
 30
0.000000
  70
    32
  0
VERTEX
  8
01
  5
C422
 10
742.796
 20
-2154.96
 30
0.000000
  70
    32
  0
VERTEX
  8
01
  5
C423
 10
742.880
 20
-2154.78
 30
0.000000
  70
    32
  0
VERTEX
  8
01
  5
C424
 10
742.965
 20
-2154.60
 30
0.000000
  70
    32
  0
VERTEX
  8
01
  5
C425
 10
743.051
 20
-2154.43
 30
0.000000
  70
    32
  0
VERTEX
  8
01
  5
C426
 10
743.138
 20
-2154.26
 30
0.000000
  70
    32
  0
VERTEX
  8
01
  5
C427
 10
743.227
 20
-2154.09
 30
0.000000
  70
    32
  0
VERTEX
  8
01
  5
C428
 10
743.317
 20
-2153.92
 30
0.000000
  70
    32
  0
VERTEX
  8
01
  5
C429
 10
743.408
 20
-2153.75
 30
0.000000
  70
    32
  0
VERTEX
  8
01
  5
C42A
 10
743.500
 20
-2153.59
 30
0.000000
  70
    32
  0
VERTEX
  8
01
  5
C42B
 10
743.593
 20
-2153.43
 30
0.000000
  70
    32
  0
VERTEX
  8
01
  5
C42C
 10
743.688
 20
-2153.26
 30
0.000000
  70
    32
  0
VERTEX
  8
01
  5
C42D
 10
743.784
 20
-2153.11
 30
0.000000
  70
    32
  0
VERTEX
  8
01
  5
C42E
 10
743.880
 20
-2152.95
 30
0.000000
  70
    32
  0
VERTEX
  8
01
  5
C42F
 10
743.978
 20
-2152.79
 30
0.000000
  70
    32
  0
VERTEX
  8
01
  5
C430
 10
744.077
 20
-2152.64
 30
0.000000
  70
    32
  0
VERTEX
  8
01
  5
C431
 10
744.177
 20
-2152.49
 30
0.000000
  70
    32
  0
VERTEX
  8
01
  5
C432
 10
744.278
 20
-2152.34
 30
0.000000
  70
    32
  0
VERTEX
  8
01
  5
C433
 10
744.381
 20
-2152.20
 30
0.000000
  70
    32
  0
VERTEX
  8
01
  5
C434
 10
744.484
 20
-2152.05
 30
0.000000
  70
    32
  0
VERTEX
  8
01
  5
C435
 10
744.588
 20
-2151.91
 30
0.000000
  70
    32
  0
VERTEX
  8
01
  5
C436
 10
744.693
 20
-2151.77
 30
0.000000
  70
    32
  0
VERTEX
  8
01
  5
C437
 10
744.799
 20
-2151.63
 30
0.000000
  70
    32
  0
VERTEX
  8
01
  5
C438
 10
744.907
 20
-2151.50
 30
0.000000
  70
    32
  0
VERTEX
  8
01
  5
C439
 10
745.015
 20
-2151.37
 30
0.000000
  70
    32
  0
VERTEX
  8
01
  5
C43A
 10
745.124
 20
-2151.24
 30
0.000000
  70
    32
  0
VERTEX
  8
01
  5
C43B
 10
745.234
 20
-2151.11
 30
0.000000
  70
    32
  0
VERTEX
  8
01
  5
C43C
 10
745.345
 20
-2150.98
 30
0.000000
  70
    32
  0
VERTEX
  8
01
  5
C43D
 10
745.457
 20
-2150.86
 30
0.000000
  70
    32
  0
VERTEX
  8
01
  5
C43E
 10
745.569
 20
-2150.74
 30
0.000000
  70
    32
  0
VERTEX
  8
01
  5
C43F
 10
745.683
 20
-2150.62
 30
0.000000
  70
    32
  0
VERTEX
  8
01
  5
C440
 10
745.797
 20
-2150.50
 30
0.000000
  70
    32
  0
VERTEX
  8
01
  5
C441
 10
745.912
 20
-2150.39
 30
0.000000
  70
    32
  0
VERTEX
  8
01
  5
C442
 10
746.028
 20
-2150.28
 30
0.000000
  70
    32
  0
VERTEX
  8
01
  5
C443
 10
746.145
 20
-2150.17
 30
0.000000
  70
    32
  0
VERTEX
  8
01
  5
C444
 10
746.263
 20
-2150.06
 30
0.000000
  70
    32
  0
VERTEX
  8
01
  5
C445
 10
746.381
 20
-2149.96
 30
0.000000
  70
    32
  0
VERTEX
  8
01
  5
C446
 10
746.500
 20
-2149.85
 30
0.000000
  70
    32
  0
VERTEX
  8
01
  5
C447
 10
746.620
 20
-2149.76
 30
0.000000
  70
    32
  0
VERTEX
  8
01
  5
C448
 10
746.740
 20
-2149.66
 30
0.000000
  70
    32
  0
VERTEX
  8
01
  5
C449
 10
746.861
 20
-2149.56
 30
0.000000
  70
    32
  0
VERTEX
  8
01
  5
C44A
 10
746.983
 20
-2149.47
 30
0.000000
  70
    32
  0
VERTEX
  8
01
  5
C44B
 10
747.106
 20
-2149.38
 30
0.000000
  70
    32
  0
VERTEX
  8
01
  5
C44C
 10
747.229
 20
-2149.30
 30
0.000000
  70
    32
  0
VERTEX
  8
01
  5
C44D
 10
747.352
 20
-2149.21
 30
0.000000
  70
    32
  0
VERTEX
  8
01
  5
C44E
 10
747.477
 20
-2149.13
 30
0.000000
  70
    32
  0
VERTEX
  8
01
  5
C44F
 10
747.601
 20
-2149.06
 30
0.000000
  70
    32
  0
VERTEX
  8
01
  5
C450
 10
747.727
 20
-2148.98
 30
0.000000
  70
    32
  0
VERTEX
  8
01
  5
C451
 10
747.853
 20
-2148.91
 30
0.000000
  70
    32
  0
VERTEX
  8
01
  5
C452
 10
747.979
 20
-2148.84
 30
0.000000
  70
    32
  0
VERTEX
  8
01
  5
C453
 10
748.106
 20
-2148.77
 30
0.000000
  70
    32
  0
VERTEX
  8
01
  5
C454
 10
748.233
 20
-2148.70
 30
0.000000
  70
    32
  0
VERTEX
  8
01
  5
C455
 10
748.361
 20
-2148.64
 30
0.000000
  70
    32
  0
VERTEX
  8
01
  5
C456
 10
748.489
 20
-2148.58
 30
0.000000
  70
    32
  0
VERTEX
  8
01
  5
C457
 10
748.618
 20
-2148.52
 30
0.000000
  70
    32
  0
VERTEX
  8
01
  5
C458
 10
748.747
 20
-2148.47
 30
0.000000
  70
    32
  0
VERTEX
  8
01
  5
C459
 10
748.877
 20
-2148.42
 30
0.000000
  70
    32
  0
VERTEX
  8
01
  5
C45A
 10
749.006
 20
-2148.37
 30
0.000000
  70
    32
  0
VERTEX
  8
01
  5
C45B
 10
749.137
 20
-2148.32
 30
0.000000
  70
    32
  0
VERTEX
  8
01
  5
C45C
 10
749.267
 20
-2148.28
 30
0.000000
  70
    32
  0
VERTEX
  8
01
  5
C45D
 10
749.398
 20
-2148.24
 30
0.000000
  70
    32
  0
VERTEX
  8
01
  5
C45E
 10
749.529
 20
-2148.20
 30
0.000000
  70
    32
  0
VERTEX
  8
01
  5
C45F
 10
749.660
 20
-2148.17
 30
0.000000
  70
    32
  0
VERTEX
  8
01
  5
C460
 10
749.792
 20
-2148.13
 30
0.000000
  70
    32
  0
VERTEX
  8
01
  5
C461
 10
749.923
 20
-2148.11
 30
0.000000
  70
    32
  0
VERTEX
  8
01
  5
C462
 10
750.055
 20
-2148.08
 30
0.000000
  70
    32
  0
VERTEX
  8
01
  5
C463
 10
750.188
 20
-2148.06
 30
0.000000
  70
    32
  0
VERTEX
  8
01
  5
C464
 10
750.320
 20
-2148.03
 30
0.000000
  70
    32
  0
VERTEX
  8
01
  5
C465
 10
750.452
 20
-2148.02
 30
0.000000
  70
    32
  0
VERTEX
  8
01
  5
C466
 10
750.585
 20
-2148.00
 30
0.000000
  70
    32
  0
VERTEX
  8
01
  5
C467
 10
750.717
 20
-2147.99
 30
0.000000
  70
    32
  0
VERTEX
  8
01
  5
C468
 10
750.850
 20
-2147.98
 30
0.000000
  70
    32
  0
VERTEX
  8
01
  5
C469
 10
750.983
 20
-2147.97
 30
0.000000
  70
    32
  0
VERTEX
  8
01
  5
C46A
 10
751.116
 20
-2147.97
 30
0.000000
  70
    32
  0
VERTEX
  8
01
  5
C46B
 10
751.249
 20
-2147.97
 30
0.000000
  70
    32
  0
SEQEND
  8
01
  5
C46C
  0
POLYLINE
  5
B94B
  8
01
 10
760.30411633952815
 20
-2163.2340815977432
 30
0.0
 66
     1
 70
     8
  0
VERTEX
  8
01
  5
C46D
 10
760.304
 20
-2163.23
 30
0.000000
  70
    32
  0
VERTEX
  8
01
  5
C46E
 10
760.304
 20
-2163.51
 30
0.000000
  70
    32
  0
VERTEX
  8
01
  5
C46F
 10
760.302
 20
-2163.78
 30
0.000000
  70
    32
  0
VERTEX
  8
01
  5
C470
 10
760.299
 20
-2164.05
 30
0.000000
  70
    32
  0
VERTEX
  8
01
  5
C471
 10
760.295
 20
-2164.32
 30
0.000000
  70
    32
  0
VERTEX
  8
01
  5
C472
 10
760.290
 20
-2164.59
 30
0.000000
  70
    32
  0
VERTEX
  8
01
  5
C473
 10
760.284
 20
-2164.86
 30
0.000000
  70
    32
  0
VERTEX
  8
01
  5
C474
 10
760.277
 20
-2165.12
 30
0.000000
  70
    32
  0
VERTEX
  8
01
  5
C475
 10
760.268
 20
-2165.39
 30
0.000000
  70
    32
  0
VERTEX
  8
01
  5
C476
 10
760.259
 20
-2165.66
 30
0.000000
  70
    32
  0
VERTEX
  8
01
  5
C477
 10
760.248
 20
-2165.92
 30
0.000000
  70
    32
  0
VERTEX
  8
01
  5
C478
 10
760.236
 20
-2166.18
 30
0.000000
  70
    32
  0
VERTEX
  8
01
  5
C479
 10
760.223
 20
-2166.44
 30
0.000000
  70
    32
  0
VERTEX
  8
01
  5
C47A
 10
760.210
 20
-2166.70
 30
0.000000
  70
    32
  0
VERTEX
  8
01
  5
C47B
 10
760.195
 20
-2166.96
 30
0.000000
  70
    32
  0
VERTEX
  8
01
  5
C47C
 10
760.179
 20
-2167.21
 30
0.000000
  70
    32
  0
VERTEX
  8
01
  5
C47D
 10
760.162
 20
-2167.46
 30
0.000000
  70
    32
  0
VERTEX
  8
01
  5
C47E
 10
760.143
 20
-2167.71
 30
0.000000
  70
    32
  0
VERTEX
  8
01
  5
C47F
 10
760.124
 20
-2167.96
 30
0.000000
  70
    32
  0
VERTEX
  8
01
  5
C480
 10
760.104
 20
-2168.20
 30
0.000000
  70
    32
  0
VERTEX
  8
01
  5
C481
 10
760.083
 20
-2168.44
 30
0.000000
  70
    32
  0
VERTEX
  8
01
  5
C482
 10
760.061
 20
-2168.68
 30
0.000000
  70
    32
  0
VERTEX
  8
01
  5
C483
 10
760.038
 20
-2168.91
 30
0.000000
  70
    32
  0
VERTEX
  8
01
  5
C484
 10
760.014
 20
-2169.15
 30
0.000000
  70
    32
  0
VERTEX
  8
01
  5
C485
 10
759.988
 20
-2169.37
 30
0.000000
  70
    32
  0
VERTEX
  8
01
  5
C486
 10
759.962
 20
-2169.60
 30
0.000000
  70
    32
  0
VERTEX
  8
01
  5
C487
 10
759.935
 20
-2169.82
 30
0.000000
  70
    32
  0
VERTEX
  8
01
  5
C488
 10
759.908
 20
-2170.03
 30
0.000000
  70
    32
  0
VERTEX
  8
01
  5
C489
 10
759.879
 20
-2170.24
 30
0.000000
  70
    32
  0
VERTEX
  8
01
  5
C48A
 10
759.849
 20
-2170.45
 30
0.000000
  70
    32
  0
VERTEX
  8
01
  5
C48B
 10
759.819
 20
-2170.65
 30
0.000000
  70
    32
  0
VERTEX
  8
01
  5
C48C
 10
759.788
 20
-2170.85
 30
0.000000
  70
    32
  0
VERTEX
  8
01
  5
C48D
 10
759.755
 20
-2171.05
 30
0.000000
  70
    32
  0
VERTEX
  8
01
  5
C48E
 10
759.723
 20
-2171.24
 30
0.000000
  70
    32
  0
VERTEX
  8
01
  5
C48F
 10
759.689
 20
-2171.42
 30
0.000000
  70
    32
  0
VERTEX
  8
01
  5
C490
 10
759.654
 20
-2171.60
 30
0.000000
  70
    32
  0
VERTEX
  8
01
  5
C491
 10
759.619
 20
-2171.78
 30
0.000000
  70
    32
  0
VERTEX
  8
01
  5
C492
 10
759.583
 20
-2171.95
 30
0.000000
  70
    32
  0
VERTEX
  8
01
  5
C493
 10
759.547
 20
-2172.11
 30
0.000000
  70
    32
  0
VERTEX
  8
01
  5
C494
 10
759.510
 20
-2172.27
 30
0.000000
  70
    32
  0
VERTEX
  8
01
  5
C495
 10
759.472
 20
-2172.42
 30
0.000000
  70
    32
  0
VERTEX
  8
01
  5
C496
 10
759.433
 20
-2172.57
 30
0.000000
  70
    32
  0
VERTEX
  8
01
  5
C497
 10
759.394
 20
-2172.71
 30
0.000000
  70
    32
  0
VERTEX
  8
01
  5
C498
 10
759.354
 20
-2172.85
 30
0.000000
  70
    32
  0
VERTEX
  8
01
  5
C499
 10
759.314
 20
-2172.98
 30
0.000000
  70
    32
  0
VERTEX
  8
01
  5
C49A
 10
759.273
 20
-2173.10
 30
0.000000
  70
    32
  0
VERTEX
  8
01
  5
C49B
 10
759.232
 20
-2173.22
 30
0.000000
  70
    32
  0
VERTEX
  8
01
  5
C49C
 10
759.190
 20
-2173.34
 30
0.000000
  70
    32
  0
VERTEX
  8
01
  5
C49D
 10
759.148
 20
-2173.44
 30
0.000000
  70
    32
  0
VERTEX
  8
01
  5
C49E
 10
759.105
 20
-2173.54
 30
0.000000
  70
    32
  0
VERTEX
  8
01
  5
C49F
 10
759.062
 20
-2173.64
 30
0.000000
  70
    32
  0
VERTEX
  8
01
  5
C4A0
 10
759.019
 20
-2173.73
 30
0.000000
  70
    32
  0
VERTEX
  8
01
  5
C4A1
 10
758.975
 20
-2173.81
 30
0.000000
  70
    32
  0
VERTEX
  8
01
  5
C4A2
 10
758.931
 20
-2173.88
 30
0.000000
  70
    32
  0
VERTEX
  8
01
  5
C4A3
 10
758.886
 20
-2173.95
 30
0.000000
  70
    32
  0
VERTEX
  8
01
  5
C4A4
 10
758.841
 20
-2174.02
 30
0.000000
  70
    32
  0
VERTEX
  8
01
  5
C4A5
 10
758.796
 20
-2174.07
 30
0.000000
  70
    32
  0
VERTEX
  8
01
  5
C4A6
 10
758.751
 20
-2174.12
 30
0.000000
  70
    32
  0
VERTEX
  8
01
  5
C4A7
 10
758.706
 20
-2174.16
 30
0.000000
  70
    32
  0
VERTEX
  8
01
  5
C4A8
 10
758.660
 20
-2174.20
 30
0.000000
  70
    32
  0
VERTEX
  8
01
  5
C4A9
 10
758.615
 20
-2174.23
 30
0.000000
  70
    32
  0
VERTEX
  8
01
  5
C4AA
 10
758.569
 20
-2174.25
 30
0.000000
  70
    32
  0
VERTEX
  8
01
  5
C4AB
 10
758.523
 20
-2174.27
 30
0.000000
  70
    32
  0
VERTEX
  8
01
  5
C4AC
 10
758.477
 20
-2174.28
 30
0.000000
  70
    32
  0
VERTEX
  8
01
  5
C4AD
 10
758.431
 20
-2174.28
 30
0.000000
  70
    32
  0
VERTEX
  8
01
  5
C4AE
 10
758.385
 20
-2174.28
 30
0.000000
  70
    32
  0
VERTEX
  8
01
  5
C4AF
 10
758.339
 20
-2174.27
 30
0.000000
  70
    32
  0
VERTEX
  8
01
  5
C4B0
 10
758.293
 20
-2174.25
 30
0.000000
  70
    32
  0
VERTEX
  8
01
  5
C4B1
 10
758.247
 20
-2174.23
 30
0.000000
  70
    32
  0
VERTEX
  8
01
  5
C4B2
 10
758.202
 20
-2174.20
 30
0.000000
  70
    32
  0
VERTEX
  8
01
  5
C4B3
 10
758.156
 20
-2174.16
 30
0.000000
  70
    32
  0
VERTEX
  8
01
  5
C4B4
 10
758.111
 20
-2174.12
 30
0.000000
  70
    32
  0
VERTEX
  8
01
  5
C4B5
 10
758.066
 20
-2174.07
 30
0.000000
  70
    32
  0
VERTEX
  8
01
  5
C4B6
 10
758.021
 20
-2174.02
 30
0.000000
  70
    32
  0
VERTEX
  8
01
  5
C4B7
 10
757.976
 20
-2173.95
 30
0.000000
  70
    32
  0
VERTEX
  8
01
  5
C4B8
 10
757.931
 20
-2173.88
 30
0.000000
  70
    32
  0
VERTEX
  8
01
  5
C4B9
 10
757.887
 20
-2173.81
 30
0.000000
  70
    32
  0
VERTEX
  8
01
  5
C4BA
 10
757.843
 20
-2173.73
 30
0.000000
  70
    32
  0
VERTEX
  8
01
  5
C4BB
 10
757.800
 20
-2173.64
 30
0.000000
  70
    32
  0
VERTEX
  8
01
  5
C4BC
 10
757.757
 20
-2173.54
 30
0.000000
  70
    32
  0
VERTEX
  8
01
  5
C4BD
 10
757.714
 20
-2173.44
 30
0.000000
  70
    32
  0
VERTEX
  8
01
  5
C4BE
 10
757.672
 20
-2173.34
 30
0.000000
  70
    32
  0
VERTEX
  8
01
  5
C4BF
 10
757.630
 20
-2173.22
 30
0.000000
  70
    32
  0
VERTEX
  8
01
  5
C4C0
 10
757.589
 20
-2173.10
 30
0.000000
  70
    32
  0
VERTEX
  8
01
  5
C4C1
 10
757.548
 20
-2172.98
 30
0.000000
  70
    32
  0
VERTEX
  8
01
  5
C4C2
 10
757.508
 20
-2172.85
 30
0.000000
  70
    32
  0
VERTEX
  8
01
  5
C4C3
 10
757.468
 20
-2172.71
 30
0.000000
  70
    32
  0
VERTEX
  8
01
  5
C4C4
 10
757.429
 20
-2172.57
 30
0.000000
  70
    32
  0
VERTEX
  8
01
  5
C4C5
 10
757.390
 20
-2172.42
 30
0.000000
  70
    32
  0
VERTEX
  8
01
  5
C4C6
 10
757.352
 20
-2172.27
 30
0.000000
  70
    32
  0
VERTEX
  8
01
  5
C4C7
 10
757.315
 20
-2172.11
 30
0.000000
  70
    32
  0
VERTEX
  8
01
  5
C4C8
 10
757.279
 20
-2171.95
 30
0.000000
  70
    32
  0
VERTEX
  8
01
  5
C4C9
 10
757.243
 20
-2171.78
 30
0.000000
  70
    32
  0
VERTEX
  8
01
  5
C4CA
 10
757.208
 20
-2171.60
 30
0.000000
  70
    32
  0
VERTEX
  8
01
  5
C4CB
 10
757.173
 20
-2171.42
 30
0.000000
  70
    32
  0
VERTEX
  8
01
  5
C4CC
 10
757.139
 20
-2171.24
 30
0.000000
  70
    32
  0
VERTEX
  8
01
  5
C4CD
 10
757.106
 20
-2171.05
 30
0.000000
  70
    32
  0
VERTEX
  8
01
  5
C4CE
 10
757.074
 20
-2170.85
 30
0.000000
  70
    32
  0
VERTEX
  8
01
  5
C4CF
 10
757.043
 20
-2170.65
 30
0.000000
  70
    32
  0
VERTEX
  8
01
  5
C4D0
 10
757.013
 20
-2170.45
 30
0.000000
  70
    32
  0
VERTEX
  8
01
  5
C4D1
 10
756.983
 20
-2170.24
 30
0.000000
  70
    32
  0
VERTEX
  8
01
  5
C4D2
 10
756.954
 20
-2170.03
 30
0.000000
  70
    32
  0
VERTEX
  8
01
  5
C4D3
 10
756.926
 20
-2169.82
 30
0.000000
  70
    32
  0
VERTEX
  8
01
  5
C4D4
 10
756.900
 20
-2169.60
 30
0.000000
  70
    32
  0
VERTEX
  8
01
  5
C4D5
 10
756.874
 20
-2169.37
 30
0.000000
  70
    32
  0
VERTEX
  8
01
  5
C4D6
 10
756.848
 20
-2169.15
 30
0.000000
  70
    32
  0
VERTEX
  8
01
  5
C4D7
 10
756.824
 20
-2168.91
 30
0.000000
  70
    32
  0
VERTEX
  8
01
  5
C4D8
 10
756.801
 20
-2168.68
 30
0.000000
  70
    32
  0
VERTEX
  8
01
  5
C4D9
 10
756.779
 20
-2168.44
 30
0.000000
  70
    32
  0
VERTEX
  8
01
  5
C4DA
 10
756.758
 20
-2168.20
 30
0.000000
  70
    32
  0
VERTEX
  8
01
  5
C4DB
 10
756.738
 20
-2167.96
 30
0.000000
  70
    32
  0
VERTEX
  8
01
  5
C4DC
 10
756.719
 20
-2167.71
 30
0.000000
  70
    32
  0
VERTEX
  8
01
  5
C4DD
 10
756.700
 20
-2167.46
 30
0.000000
  70
    32
  0
VERTEX
  8
01
  5
C4DE
 10
756.683
 20
-2167.21
 30
0.000000
  70
    32
  0
VERTEX
  8
01
  5
C4DF
 10
756.667
 20
-2166.96
 30
0.000000
  70
    32
  0
VERTEX
  8
01
  5
C4E0
 10
756.652
 20
-2166.70
 30
0.000000
  70
    32
  0
VERTEX
  8
01
  5
C4E1
 10
756.639
 20
-2166.44
 30
0.000000
  70
    32
  0
VERTEX
  8
01
  5
C4E2
 10
756.626
 20
-2166.18
 30
0.000000
  70
    32
  0
VERTEX
  8
01
  5
C4E3
 10
756.614
 20
-2165.92
 30
0.000000
  70
    32
  0
VERTEX
  8
01
  5
C4E4
 10
756.603
 20
-2165.66
 30
0.000000
  70
    32
  0
VERTEX
  8
01
  5
C4E5
 10
756.594
 20
-2165.39
 30
0.000000
  70
    32
  0
VERTEX
  8
01
  5
C4E6
 10
756.585
 20
-2165.12
 30
0.000000
  70
    32
  0
VERTEX
  8
01
  5
C4E7
 10
756.578
 20
-2164.86
 30
0.000000
  70
    32
  0
VERTEX
  8
01
  5
C4E8
 10
756.572
 20
-2164.59
 30
0.000000
  70
    32
  0
VERTEX
  8
01
  5
C4E9
 10
756.567
 20
-2164.32
 30
0.000000
  70
    32
  0
VERTEX
  8
01
  5
C4EA
 10
756.563
 20
-2164.05
 30
0.000000
  70
    32
  0
VERTEX
  8
01
  5
C4EB
 10
756.560
 20
-2163.78
 30
0.000000
  70
    32
  0
VERTEX
  8
01
  5
C4EC
 10
756.558
 20
-2163.51
 30
0.000000
  70
    32
  0
VERTEX
  8
01
  5
C4ED
 10
756.558
 20
-2163.23
 30
0.000000
  70
    32
  0
SEQEND
  8
01
  5
C4EE
  0
POLYLINE
  5
B94C
  8
01
 10
751.24869994751305
 20
-2147.9653991428436
 30
0.0
 66
     1
 70
     8
  0
VERTEX
  8
01
  5
C4EF
 10
751.249
 20
-2147.97
 30
0.000000
  70
    32
  0
VERTEX
  8
01
  5
C4F0
 10
751.360
 20
-2147.97
 30
0.000000
  70
    32
  0
VERTEX
  8
01
  5
C4F1
 10
751.471
 20
-2147.97
 30
0.000000
  70
    32
  0
VERTEX
  8
01
  5
C4F2
 10
751.582
 20
-2147.98
 30
0.000000
  70
    32
  0
VERTEX
  8
01
  5
C4F3
 10
751.693
 20
-2147.98
 30
0.000000
  70
    32
  0
VERTEX
  8
01
  5
C4F4
 10
751.804
 20
-2147.99
 30
0.000000
  70
    32
  0
VERTEX
  8
01
  5
C4F5
 10
751.915
 20
-2148.01
 30
0.000000
  70
    32
  0
VERTEX
  8
01
  5
C4F6
 10
752.026
 20
-2148.02
 30
0.000000
  70
    32
  0
VERTEX
  8
01
  5
C4F7
 10
752.136
 20
-2148.04
 30
0.000000
  70
    32
  0
VERTEX
  8
01
  5
C4F8
 10
752.247
 20
-2148.06
 30
0.000000
  70
    32
  0
VERTEX
  8
01
  5
C4F9
 10
752.357
 20
-2148.08
 30
0.000000
  70
    32
  0
VERTEX
  8
01
  5
C4FA
 10
752.467
 20
-2148.10
 30
0.000000
  70
    32
  0
VERTEX
  8
01
  5
C4FB
 10
752.577
 20
-2148.13
 30
0.000000
  70
    32
  0
VERTEX
  8
01
  5
C4FC
 10
752.687
 20
-2148.16
 30
0.000000
  70
    32
  0
VERTEX
  8
01
  5
C4FD
 10
752.797
 20
-2148.19
 30
0.000000
  70
    32
  0
VERTEX
  8
01
  5
C4FE
 10
752.906
 20
-2148.22
 30
0.000000
  70
    32
  0
VERTEX
  8
01
  5
C4FF
 10
753.015
 20
-2148.26
 30
0.000000
  70
    32
  0
VERTEX
  8
01
  5
C500
 10
753.124
 20
-2148.30
 30
0.000000
  70
    32
  0
VERTEX
  8
01
  5
C501
 10
753.233
 20
-2148.34
 30
0.000000
  70
    32
  0
VERTEX
  8
01
  5
C502
 10
753.341
 20
-2148.38
 30
0.000000
  70
    32
  0
VERTEX
  8
01
  5
C503
 10
753.449
 20
-2148.42
 30
0.000000
  70
    32
  0
VERTEX
  8
01
  5
C504
 10
753.557
 20
-2148.47
 30
0.000000
  70
    32
  0
VERTEX
  8
01
  5
C505
 10
753.664
 20
-2148.52
 30
0.000000
  70
    32
  0
VERTEX
  8
01
  5
C506
 10
753.771
 20
-2148.57
 30
0.000000
  70
    32
  0
VERTEX
  8
01
  5
C507
 10
753.877
 20
-2148.62
 30
0.000000
  70
    32
  0
VERTEX
  8
01
  5
C508
 10
753.983
 20
-2148.68
 30
0.000000
  70
    32
  0
VERTEX
  8
01
  5
C509
 10
754.089
 20
-2148.74
 30
0.000000
  70
    32
  0
VERTEX
  8
01
  5
C50A
 10
754.195
 20
-2148.80
 30
0.000000
  70
    32
  0
VERTEX
  8
01
  5
C50B
 10
754.299
 20
-2148.86
 30
0.000000
  70
    32
  0
VERTEX
  8
01
  5
C50C
 10
754.404
 20
-2148.92
 30
0.000000
  70
    32
  0
VERTEX
  8
01
  5
C50D
 10
754.508
 20
-2148.99
 30
0.000000
  70
    32
  0
VERTEX
  8
01
  5
C50E
 10
754.611
 20
-2149.06
 30
0.000000
  70
    32
  0
VERTEX
  8
01
  5
C50F
 10
754.714
 20
-2149.13
 30
0.000000
  70
    32
  0
VERTEX
  8
01
  5
C510
 10
754.816
 20
-2149.20
 30
0.000000
  70
    32
  0
VERTEX
  8
01
  5
C511
 10
754.918
 20
-2149.28
 30
0.000000
  70
    32
  0
VERTEX
  8
01
  5
C512
 10
755.020
 20
-2149.35
 30
0.000000
  70
    32
  0
VERTEX
  8
01
  5
C513
 10
755.120
 20
-2149.43
 30
0.000000
  70
    32
  0
VERTEX
  8
01
  5
C514
 10
755.221
 20
-2149.51
 30
0.000000
  70
    32
  0
VERTEX
  8
01
  5
C515
 10
755.320
 20
-2149.60
 30
0.000000
  70
    32
  0
VERTEX
  8
01
  5
C516
 10
755.419
 20
-2149.68
 30
0.000000
  70
    32
  0
VERTEX
  8
01
  5
C517
 10
755.517
 20
-2149.77
 30
0.000000
  70
    32
  0
VERTEX
  8
01
  5
C518
 10
755.615
 20
-2149.86
 30
0.000000
  70
    32
  0
VERTEX
  8
01
  5
C519
 10
755.712
 20
-2149.95
 30
0.000000
  70
    32
  0
VERTEX
  8
01
  5
C51A
 10
755.808
 20
-2150.04
 30
0.000000
  70
    32
  0
VERTEX
  8
01
  5
C51B
 10
755.904
 20
-2150.14
 30
0.000000
  70
    32
  0
VERTEX
  8
01
  5
C51C
 10
755.999
 20
-2150.24
 30
0.000000
  70
    32
  0
VERTEX
  8
01
  5
C51D
 10
756.093
 20
-2150.33
 30
0.000000
  70
    32
  0
VERTEX
  8
01
  5
C51E
 10
756.187
 20
-2150.44
 30
0.000000
  70
    32
  0
VERTEX
  8
01
  5
C51F
 10
756.280
 20
-2150.54
 30
0.000000
  70
    32
  0
VERTEX
  8
01
  5
C520
 10
756.372
 20
-2150.64
 30
0.000000
  70
    32
  0
VERTEX
  8
01
  5
C521
 10
756.463
 20
-2150.75
 30
0.000000
  70
    32
  0
VERTEX
  8
01
  5
C522
 10
756.553
 20
-2150.86
 30
0.000000
  70
    32
  0
VERTEX
  8
01
  5
C523
 10
756.643
 20
-2150.97
 30
0.000000
  70
    32
  0
VERTEX
  8
01
  5
C524
 10
756.732
 20
-2151.08
 30
0.000000
  70
    32
  0
VERTEX
  8
01
  5
C525
 10
756.820
 20
-2151.20
 30
0.000000
  70
    32
  0
VERTEX
  8
01
  5
C526
 10
756.907
 20
-2151.31
 30
0.000000
  70
    32
  0
VERTEX
  8
01
  5
C527
 10
756.993
 20
-2151.43
 30
0.000000
  70
    32
  0
VERTEX
  8
01
  5
C528
 10
757.079
 20
-2151.55
 30
0.000000
  70
    32
  0
VERTEX
  8
01
  5
C529
 10
757.163
 20
-2151.67
 30
0.000000
  70
    32
  0
VERTEX
  8
01
  5
C52A
 10
757.247
 20
-2151.80
 30
0.000000
  70
    32
  0
VERTEX
  8
01
  5
C52B
 10
757.330
 20
-2151.92
 30
0.000000
  70
    32
  0
VERTEX
  8
01
  5
C52C
 10
757.412
 20
-2152.05
 30
0.000000
  70
    32
  0
VERTEX
  8
01
  5
C52D
 10
757.493
 20
-2152.18
 30
0.000000
  70
    32
  0
VERTEX
  8
01
  5
C52E
 10
757.573
 20
-2152.31
 30
0.000000
  70
    32
  0
VERTEX
  8
01
  5
C52F
 10
757.652
 20
-2152.44
 30
0.000000
  70
    32
  0
VERTEX
  8
01
  5
C530
 10
757.730
 20
-2152.57
 30
0.000000
  70
    32
  0
VERTEX
  8
01
  5
C531
 10
757.807
 20
-2152.71
 30
0.000000
  70
    32
  0
VERTEX
  8
01
  5
C532
 10
757.883
 20
-2152.84
 30
0.000000
  70
    32
  0
VERTEX
  8
01
  5
C533
 10
757.958
 20
-2152.98
 30
0.000000
  70
    32
  0
VERTEX
  8
01
  5
C534
 10
758.032
 20
-2153.12
 30
0.000000
  70
    32
  0
VERTEX
  8
01
  5
C535
 10
758.106
 20
-2153.26
 30
0.000000
  70
    32
  0
VERTEX
  8
01
  5
C536
 10
758.178
 20
-2153.40
 30
0.000000
  70
    32
  0
VERTEX
  8
01
  5
C537
 10
758.249
 20
-2153.55
 30
0.000000
  70
    32
  0
VERTEX
  8
01
  5
C538
 10
758.319
 20
-2153.69
 30
0.000000
  70
    32
  0
VERTEX
  8
01
  5
C539
 10
758.388
 20
-2153.84
 30
0.000000
  70
    32
  0
VERTEX
  8
01
  5
C53A
 10
758.455
 20
-2153.99
 30
0.000000
  70
    32
  0
VERTEX
  8
01
  5
C53B
 10
758.522
 20
-2154.14
 30
0.000000
  70
    32
  0
VERTEX
  8
01
  5
C53C
 10
758.588
 20
-2154.29
 30
0.000000
  70
    32
  0
VERTEX
  8
01
  5
C53D
 10
758.652
 20
-2154.44
 30
0.000000
  70
    32
  0
VERTEX
  8
01
  5
C53E
 10
758.716
 20
-2154.60
 30
0.000000
  70
    32
  0
VERTEX
  8
01
  5
C53F
 10
758.778
 20
-2154.75
 30
0.000000
  70
    32
  0
VERTEX
  8
01
  5
C540
 10
758.839
 20
-2154.91
 30
0.000000
  70
    32
  0
VERTEX
  8
01
  5
C541
 10
758.899
 20
-2155.07
 30
0.000000
  70
    32
  0
VERTEX
  8
01
  5
C542
 10
758.958
 20
-2155.22
 30
0.000000
  70
    32
  0
VERTEX
  8
01
  5
C543
 10
759.016
 20
-2155.38
 30
0.000000
  70
    32
  0
VERTEX
  8
01
  5
C544
 10
759.072
 20
-2155.55
 30
0.000000
  70
    32
  0
VERTEX
  8
01
  5
C545
 10
759.128
 20
-2155.71
 30
0.000000
  70
    32
  0
VERTEX
  8
01
  5
C546
 10
759.182
 20
-2155.87
 30
0.000000
  70
    32
  0
VERTEX
  8
01
  5
C547
 10
759.235
 20
-2156.04
 30
0.000000
  70
    32
  0
VERTEX
  8
01
  5
C548
 10
759.287
 20
-2156.20
 30
0.000000
  70
    32
  0
VERTEX
  8
01
  5
C549
 10
759.337
 20
-2156.37
 30
0.000000
  70
    32
  0
VERTEX
  8
01
  5
C54A
 10
759.387
 20
-2156.54
 30
0.000000
  70
    32
  0
VERTEX
  8
01
  5
C54B
 10
759.435
 20
-2156.71
 30
0.000000
  70
    32
  0
VERTEX
  8
01
  5
C54C
 10
759.482
 20
-2156.88
 30
0.000000
  70
    32
  0
VERTEX
  8
01
  5
C54D
 10
759.527
 20
-2157.05
 30
0.000000
  70
    32
  0
VERTEX
  8
01
  5
C54E
 10
759.572
 20
-2157.22
 30
0.000000
  70
    32
  0
VERTEX
  8
01
  5
C54F
 10
759.615
 20
-2157.39
 30
0.000000
  70
    32
  0
VERTEX
  8
01
  5
C550
 10
759.657
 20
-2157.56
 30
0.000000
  70
    32
  0
VERTEX
  8
01
  5
C551
 10
759.697
 20
-2157.74
 30
0.000000
  70
    32
  0
VERTEX
  8
01
  5
C552
 10
759.737
 20
-2157.91
 30
0.000000
  70
    32
  0
VERTEX
  8
01
  5
C553
 10
759.775
 20
-2158.09
 30
0.000000
  70
    32
  0
VERTEX
  8
01
  5
C554
 10
759.812
 20
-2158.27
 30
0.000000
  70
    32
  0
VERTEX
  8
01
  5
C555
 10
759.847
 20
-2158.44
 30
0.000000
  70
    32
  0
VERTEX
  8
01
  5
C556
 10
759.881
 20
-2158.62
 30
0.000000
  70
    32
  0
VERTEX
  8
01
  5
C557
 10
759.914
 20
-2158.80
 30
0.000000
  70
    32
  0
VERTEX
  8
01
  5
C558
 10
759.946
 20
-2158.98
 30
0.000000
  70
    32
  0
VERTEX
  8
01
  5
C559
 10
759.976
 20
-2159.16
 30
0.000000
  70
    32
  0
VERTEX
  8
01
  5
C55A
 10
760.005
 20
-2159.34
 30
0.000000
  70
    32
  0
VERTEX
  8
01
  5
C55B
 10
760.033
 20
-2159.52
 30
0.000000
  70
    32
  0
VERTEX
  8
01
  5
C55C
 10
760.059
 20
-2159.71
 30
0.000000
  70
    32
  0
VERTEX
  8
01
  5
C55D
 10
760.084
 20
-2159.89
 30
0.000000
  70
    32
  0
VERTEX
  8
01
  5
C55E
 10
760.108
 20
-2160.07
 30
0.000000
  70
    32
  0
VERTEX
  8
01
  5
C55F
 10
760.130
 20
-2160.26
 30
0.000000
  70
    32
  0
VERTEX
  8
01
  5
C560
 10
760.151
 20
-2160.44
 30
0.000000
  70
    32
  0
VERTEX
  8
01
  5
C561
 10
760.171
 20
-2160.62
 30
0.000000
  70
    32
  0
VERTEX
  8
01
  5
C562
 10
760.189
 20
-2160.81
 30
0.000000
  70
    32
  0
VERTEX
  8
01
  5
C563
 10
760.206
 20
-2160.99
 30
0.000000
  70
    32
  0
VERTEX
  8
01
  5
C564
 10
760.222
 20
-2161.18
 30
0.000000
  70
    32
  0
VERTEX
  8
01
  5
C565
 10
760.236
 20
-2161.37
 30
0.000000
  70
    32
  0
VERTEX
  8
01
  5
C566
 10
760.249
 20
-2161.55
 30
0.000000
  70
    32
  0
VERTEX
  8
01
  5
C567
 10
760.261
 20
-2161.74
 30
0.000000
  70
    32
  0
VERTEX
  8
01
  5
C568
 10
760.271
 20
-2161.92
 30
0.000000
  70
    32
  0
VERTEX
  8
01
  5
C569
 10
760.280
 20
-2162.11
 30
0.000000
  70
    32
  0
VERTEX
  8
01
  5
C56A
 10
760.287
 20
-2162.30
 30
0.000000
  70
    32
  0
VERTEX
  8
01
  5
C56B
 10
760.293
 20
-2162.48
 30
0.000000
  70
    32
  0
VERTEX
  8
01
  5
C56C
 10
760.298
 20
-2162.67
 30
0.000000
  70
    32
  0
VERTEX
  8
01
  5
C56D
 10
760.301
 20
-2162.86
 30
0.000000
  70
    32
  0
VERTEX
  8
01
  5
C56E
 10
760.303
 20
-2163.05
 30
0.000000
  70
    32
  0
VERTEX
  8
01
  5
C56F
 10
760.304
 20
-2163.23
 30
0.000000
  70
    32
  0
SEQEND
  8
01
  5
C570
  0
ARC
  5
B94D
  8
01
 10
751.78208502966208
 20
-2159.8793793901482
 30
0.0
 40
13.20186386360011
 50
210.63148374677229
 51
294.54524589235768
  0
POLYLINE
  5
B94E
  8
01
 10
751.24869994751305
 20
-2149.8621086707521
 30
0.0
 66
     1
 70
     8
  0
VERTEX
  8
01
  5
C571
 10
751.249
 20
-2149.86
 30
0.000000
  70
    32
  0
VERTEX
  8
01
  5
C572
 10
751.314
 20
-2149.86
 30
0.000000
  70
    32
  0
VERTEX
  8
01
  5
C573
 10
751.379
 20
-2149.87
 30
0.000000
  70
    32
  0
VERTEX
  8
01
  5
C574
 10
751.444
 20
-2149.87
 30
0.000000
  70
    32
  0
VERTEX
  8
01
  5
C575
 10
751.509
 20
-2149.88
 30
0.000000
  70
    32
  0
VERTEX
  8
01
  5
C576
 10
751.574
 20
-2149.89
 30
0.000000
  70
    32
  0
VERTEX
  8
01
  5
C577
 10
751.639
 20
-2149.90
 30
0.000000
  70
    32
  0
VERTEX
  8
01
  5
C578
 10
751.704
 20
-2149.91
 30
0.000000
  70
    32
  0
VERTEX
  8
01
  5
C579
 10
751.769
 20
-2149.93
 30
0.000000
  70
    32
  0
VERTEX
  8
01
  5
C57A
 10
751.834
 20
-2149.94
 30
0.000000
  70
    32
  0
VERTEX
  8
01
  5
C57B
 10
751.899
 20
-2149.96
 30
0.000000
  70
    32
  0
VERTEX
  8
01
  5
C57C
 10
751.963
 20
-2149.98
 30
0.000000
  70
    32
  0
VERTEX
  8
01
  5
C57D
 10
752.028
 20
-2150.01
 30
0.000000
  70
    32
  0
VERTEX
  8
01
  5
C57E
 10
752.092
 20
-2150.03
 30
0.000000
  70
    32
  0
VERTEX
  8
01
  5
C57F
 10
752.156
 20
-2150.06
 30
0.000000
  70
    32
  0
VERTEX
  8
01
  5
C580
 10
752.220
 20
-2150.09
 30
0.000000
  70
    32
  0
VERTEX
  8
01
  5
C581
 10
752.284
 20
-2150.12
 30
0.000000
  70
    32
  0
VERTEX
  8
01
  5
C582
 10
752.348
 20
-2150.15
 30
0.000000
  70
    32
  0
VERTEX
  8
01
  5
C583
 10
752.412
 20
-2150.19
 30
0.000000
  70
    32
  0
VERTEX
  8
01
  5
C584
 10
752.475
 20
-2150.22
 30
0.000000
  70
    32
  0
VERTEX
  8
01
  5
C585
 10
752.539
 20
-2150.26
 30
0.000000
  70
    32
  0
VERTEX
  8
01
  5
C586
 10
752.602
 20
-2150.30
 30
0.000000
  70
    32
  0
VERTEX
  8
01
  5
C587
 10
752.665
 20
-2150.35
 30
0.000000
  70
    32
  0
VERTEX
  8
01
  5
C588
 10
752.727
 20
-2150.39
 30
0.000000
  70
    32
  0
VERTEX
  8
01
  5
C589
 10
752.790
 20
-2150.44
 30
0.000000
  70
    32
  0
VERTEX
  8
01
  5
C58A
 10
752.852
 20
-2150.49
 30
0.000000
  70
    32
  0
VERTEX
  8
01
  5
C58B
 10
752.914
 20
-2150.54
 30
0.000000
  70
    32
  0
VERTEX
  8
01
  5
C58C
 10
752.976
 20
-2150.59
 30
0.000000
  70
    32
  0
VERTEX
  8
01
  5
C58D
 10
753.037
 20
-2150.64
 30
0.000000
  70
    32
  0
VERTEX
  8
01
  5
C58E
 10
753.099
 20
-2150.70
 30
0.000000
  70
    32
  0
VERTEX
  8
01
  5
C58F
 10
753.159
 20
-2150.76
 30
0.000000
  70
    32
  0
VERTEX
  8
01
  5
C590
 10
753.220
 20
-2150.82
 30
0.000000
  70
    32
  0
VERTEX
  8
01
  5
C591
 10
753.280
 20
-2150.88
 30
0.000000
  70
    32
  0
VERTEX
  8
01
  5
C592
 10
753.340
 20
-2150.94
 30
0.000000
  70
    32
  0
VERTEX
  8
01
  5
C593
 10
753.400
 20
-2151.01
 30
0.000000
  70
    32
  0
VERTEX
  8
01
  5
C594
 10
753.460
 20
-2151.08
 30
0.000000
  70
    32
  0
VERTEX
  8
01
  5
C595
 10
753.519
 20
-2151.15
 30
0.000000
  70
    32
  0
VERTEX
  8
01
  5
C596
 10
753.577
 20
-2151.22
 30
0.000000
  70
    32
  0
VERTEX
  8
01
  5
C597
 10
753.636
 20
-2151.29
 30
0.000000
  70
    32
  0
VERTEX
  8
01
  5
C598
 10
753.694
 20
-2151.36
 30
0.000000
  70
    32
  0
VERTEX
  8
01
  5
C599
 10
753.751
 20
-2151.44
 30
0.000000
  70
    32
  0
VERTEX
  8
01
  5
C59A
 10
753.809
 20
-2151.52
 30
0.000000
  70
    32
  0
VERTEX
  8
01
  5
C59B
 10
753.866
 20
-2151.60
 30
0.000000
  70
    32
  0
VERTEX
  8
01
  5
C59C
 10
753.922
 20
-2151.68
 30
0.000000
  70
    32
  0
VERTEX
  8
01
  5
C59D
 10
753.978
 20
-2151.76
 30
0.000000
  70
    32
  0
VERTEX
  8
01
  5
C59E
 10
754.034
 20
-2151.85
 30
0.000000
  70
    32
  0
VERTEX
  8
01
  5
C59F
 10
754.089
 20
-2151.94
 30
0.000000
  70
    32
  0
VERTEX
  8
01
  5
C5A0
 10
754.144
 20
-2152.03
 30
0.000000
  70
    32
  0
VERTEX
  8
01
  5
C5A1
 10
754.198
 20
-2152.12
 30
0.000000
  70
    32
  0
VERTEX
  8
01
  5
C5A2
 10
754.252
 20
-2152.21
 30
0.000000
  70
    32
  0
VERTEX
  8
01
  5
C5A3
 10
754.306
 20
-2152.30
 30
0.000000
  70
    32
  0
VERTEX
  8
01
  5
C5A4
 10
754.359
 20
-2152.40
 30
0.000000
  70
    32
  0
VERTEX
  8
01
  5
C5A5
 10
754.411
 20
-2152.49
 30
0.000000
  70
    32
  0
VERTEX
  8
01
  5
C5A6
 10
754.463
 20
-2152.59
 30
0.000000
  70
    32
  0
VERTEX
  8
01
  5
C5A7
 10
754.515
 20
-2152.69
 30
0.000000
  70
    32
  0
VERTEX
  8
01
  5
C5A8
 10
754.566
 20
-2152.79
 30
0.000000
  70
    32
  0
VERTEX
  8
01
  5
C5A9
 10
754.617
 20
-2152.90
 30
0.000000
  70
    32
  0
VERTEX
  8
01
  5
C5AA
 10
754.667
 20
-2153.00
 30
0.000000
  70
    32
  0
VERTEX
  8
01
  5
C5AB
 10
754.717
 20
-2153.11
 30
0.000000
  70
    32
  0
VERTEX
  8
01
  5
C5AC
 10
754.766
 20
-2153.22
 30
0.000000
  70
    32
  0
VERTEX
  8
01
  5
C5AD
 10
754.814
 20
-2153.33
 30
0.000000
  70
    32
  0
VERTEX
  8
01
  5
C5AE
 10
754.862
 20
-2153.44
 30
0.000000
  70
    32
  0
VERTEX
  8
01
  5
C5AF
 10
754.910
 20
-2153.55
 30
0.000000
  70
    32
  0
VERTEX
  8
01
  5
C5B0
 10
754.956
 20
-2153.66
 30
0.000000
  70
    32
  0
VERTEX
  8
01
  5
C5B1
 10
755.003
 20
-2153.78
 30
0.000000
  70
    32
  0
VERTEX
  8
01
  5
C5B2
 10
755.049
 20
-2153.90
 30
0.000000
  70
    32
  0
VERTEX
  8
01
  5
C5B3
 10
755.094
 20
-2154.01
 30
0.000000
  70
    32
  0
VERTEX
  8
01
  5
C5B4
 10
755.138
 20
-2154.13
 30
0.000000
  70
    32
  0
VERTEX
  8
01
  5
C5B5
 10
755.183
 20
-2154.25
 30
0.000000
  70
    32
  0
VERTEX
  8
01
  5
C5B6
 10
755.226
 20
-2154.38
 30
0.000000
  70
    32
  0
VERTEX
  8
01
  5
C5B7
 10
755.269
 20
-2154.50
 30
0.000000
  70
    32
  0
VERTEX
  8
01
  5
C5B8
 10
755.311
 20
-2154.62
 30
0.000000
  70
    32
  0
VERTEX
  8
01
  5
C5B9
 10
755.353
 20
-2154.75
 30
0.000000
  70
    32
  0
VERTEX
  8
01
  5
C5BA
 10
755.394
 20
-2154.88
 30
0.000000
  70
    32
  0
VERTEX
  8
01
  5
C5BB
 10
755.434
 20
-2155.01
 30
0.000000
  70
    32
  0
VERTEX
  8
01
  5
C5BC
 10
755.474
 20
-2155.14
 30
0.000000
  70
    32
  0
VERTEX
  8
01
  5
C5BD
 10
755.513
 20
-2155.27
 30
0.000000
  70
    32
  0
VERTEX
  8
01
  5
C5BE
 10
755.552
 20
-2155.40
 30
0.000000
  70
    32
  0
VERTEX
  8
01
  5
C5BF
 10
755.589
 20
-2155.53
 30
0.000000
  70
    32
  0
VERTEX
  8
01
  5
C5C0
 10
755.627
 20
-2155.67
 30
0.000000
  70
    32
  0
VERTEX
  8
01
  5
C5C1
 10
755.663
 20
-2155.81
 30
0.000000
  70
    32
  0
VERTEX
  8
01
  5
C5C2
 10
755.699
 20
-2155.94
 30
0.000000
  70
    32
  0
VERTEX
  8
01
  5
C5C3
 10
755.734
 20
-2156.08
 30
0.000000
  70
    32
  0
VERTEX
  8
01
  5
C5C4
 10
755.769
 20
-2156.22
 30
0.000000
  70
    32
  0
VERTEX
  8
01
  5
C5C5
 10
755.803
 20
-2156.36
 30
0.000000
  70
    32
  0
VERTEX
  8
01
  5
C5C6
 10
755.836
 20
-2156.50
 30
0.000000
  70
    32
  0
VERTEX
  8
01
  5
C5C7
 10
755.868
 20
-2156.64
 30
0.000000
  70
    32
  0
VERTEX
  8
01
  5
C5C8
 10
755.900
 20
-2156.79
 30
0.000000
  70
    32
  0
VERTEX
  8
01
  5
C5C9
 10
755.931
 20
-2156.93
 30
0.000000
  70
    32
  0
VERTEX
  8
01
  5
C5CA
 10
755.961
 20
-2157.08
 30
0.000000
  70
    32
  0
VERTEX
  8
01
  5
C5CB
 10
755.991
 20
-2157.22
 30
0.000000
  70
    32
  0
VERTEX
  8
01
  5
C5CC
 10
756.020
 20
-2157.37
 30
0.000000
  70
    32
  0
VERTEX
  8
01
  5
C5CD
 10
756.048
 20
-2157.52
 30
0.000000
  70
    32
  0
VERTEX
  8
01
  5
C5CE
 10
756.076
 20
-2157.67
 30
0.000000
  70
    32
  0
VERTEX
  8
01
  5
C5CF
 10
756.102
 20
-2157.82
 30
0.000000
  70
    32
  0
VERTEX
  8
01
  5
C5D0
 10
756.128
 20
-2157.97
 30
0.000000
  70
    32
  0
VERTEX
  8
01
  5
C5D1
 10
756.154
 20
-2158.12
 30
0.000000
  70
    32
  0
VERTEX
  8
01
  5
C5D2
 10
756.178
 20
-2158.27
 30
0.000000
  70
    32
  0
VERTEX
  8
01
  5
C5D3
 10
756.202
 20
-2158.42
 30
0.000000
  70
    32
  0
VERTEX
  8
01
  5
C5D4
 10
756.225
 20
-2158.58
 30
0.000000
  70
    32
  0
VERTEX
  8
01
  5
C5D5
 10
756.248
 20
-2158.73
 30
0.000000
  70
    32
  0
VERTEX
  8
01
  5
C5D6
 10
756.269
 20
-2158.88
 30
0.000000
  70
    32
  0
VERTEX
  8
01
  5
C5D7
 10
756.290
 20
-2159.04
 30
0.000000
  70
    32
  0
VERTEX
  8
01
  5
C5D8
 10
756.310
 20
-2159.20
 30
0.000000
  70
    32
  0
VERTEX
  8
01
  5
C5D9
 10
756.329
 20
-2159.35
 30
0.000000
  70
    32
  0
VERTEX
  8
01
  5
C5DA
 10
756.348
 20
-2159.51
 30
0.000000
  70
    32
  0
VERTEX
  8
01
  5
C5DB
 10
756.366
 20
-2159.67
 30
0.000000
  70
    32
  0
VERTEX
  8
01
  5
C5DC
 10
756.383
 20
-2159.83
 30
0.000000
  70
    32
  0
VERTEX
  8
01
  5
C5DD
 10
756.399
 20
-2159.98
 30
0.000000
  70
    32
  0
VERTEX
  8
01
  5
C5DE
 10
756.414
 20
-2160.14
 30
0.000000
  70
    32
  0
VERTEX
  8
01
  5
C5DF
 10
756.429
 20
-2160.30
 30
0.000000
  70
    32
  0
VERTEX
  8
01
  5
C5E0
 10
756.443
 20
-2160.46
 30
0.000000
  70
    32
  0
VERTEX
  8
01
  5
C5E1
 10
756.456
 20
-2160.63
 30
0.000000
  70
    32
  0
VERTEX
  8
01
  5
C5E2
 10
756.468
 20
-2160.79
 30
0.000000
  70
    32
  0
VERTEX
  8
01
  5
C5E3
 10
756.480
 20
-2160.95
 30
0.000000
  70
    32
  0
VERTEX
  8
01
  5
C5E4
 10
756.490
 20
-2161.11
 30
0.000000
  70
    32
  0
VERTEX
  8
01
  5
C5E5
 10
756.500
 20
-2161.27
 30
0.000000
  70
    32
  0
VERTEX
  8
01
  5
C5E6
 10
756.510
 20
-2161.43
 30
0.000000
  70
    32
  0
VERTEX
  8
01
  5
C5E7
 10
756.518
 20
-2161.60
 30
0.000000
  70
    32
  0
VERTEX
  8
01
  5
C5E8
 10
756.526
 20
-2161.76
 30
0.000000
  70
    32
  0
VERTEX
  8
01
  5
C5E9
 10
756.532
 20
-2161.92
 30
0.000000
  70
    32
  0
VERTEX
  8
01
  5
C5EA
 10
756.538
 20
-2162.09
 30
0.000000
  70
    32
  0
VERTEX
  8
01
  5
C5EB
 10
756.543
 20
-2162.25
 30
0.000000
  70
    32
  0
VERTEX
  8
01
  5
C5EC
 10
756.548
 20
-2162.41
 30
0.000000
  70
    32
  0
VERTEX
  8
01
  5
C5ED
 10
756.551
 20
-2162.58
 30
0.000000
  70
    32
  0
VERTEX
  8
01
  5
C5EE
 10
756.554
 20
-2162.74
 30
0.000000
  70
    32
  0
VERTEX
  8
01
  5
C5EF
 10
756.556
 20
-2162.91
 30
0.000000
  70
    32
  0
VERTEX
  8
01
  5
C5F0
 10
756.557
 20
-2163.07
 30
0.000000
  70
    32
  0
VERTEX
  8
01
  5
C5F1
 10
756.558
 20
-2163.23
 30
0.000000
  70
    32
  0
SEQEND
  8
01
  5
C5F2
  0
ARC
  5
B94F
  8
01
 10
755.03341805673415
 20
-2176.128865927516
 30
0.0
 40
28.416631617726772
 50
57.419184294334492
 51
102.0879899628173
  0
ARC
  5
B950
  8
01
 10
664.18766516632331
 20
-2163.2340815977432
 30
0.0
 40
25.0
 50
191.84215014502001
 51
145.3498813556557
  0
ARC
  5
B951
  8
01
 10
562.25509969667564
 20
-2164.8857659833229
 30
0.0
 40
12.11544485022983
 50
151.80517535391991
 51
179.73636418046581
  0
ARC
  5
B952
  8
01
 10
564.18639830406846
 20
-2165.0153991428429
 30
0.0
 40
14.050000000000001
 50
179.99255772587031
 51
210.0000000000293
  0
LINE
  5
B953
  8
01
 10
550.13975935535279
 20
-2164.8320857258732
 30
0.0
 11
550.13637309049125
 21
-2165.0163113689719
 31
0.0
  0
ARC
  5
B954
  8
01
 10
553.78594218960734
 20
-2161.6522444582661
 30
0.0
 40
3.0499999999999989
 50
107.7726407989979
 51
159.1031602995304
  0
ARC
  5
B955
  8
01
 10
621.81768014347006
 20
-2373.8944439481929
 30
0.0
 40
225.92904480535049
 50
78.627861946457571
 51
108.11324779854461
  0
ARC
  5
B956
  8
01
 10
664.18766516632331
 20
-2163.2340815977432
 30
0.0
 40
11.050000000000001
 50
254.2478015437525
 51
78.627861946457571
  0
ARC
  5
B957
  8
01
 10
535.44257537390956
 20
-2619.6626986920069
 30
0.0
 40
463.18873802994909
 50
74.247801543752502
 51
82.297983016992504
  0
ARC
  5
B958
  8
01
 10
594.84590571371245
 20
-2180.4226467444159
 30
0.0
 40
19.949999999999999
 50
82.297983016992504
 51
107.63879005156009
  0
ARC
  5
B959
  8
01
 10
634.23787455637012
 20
-2304.310793032505
 30
0.0
 40
149.94999999999999
 50
101.1669260155721
 51
113.3703949493333
  0
ARC
  5
B95A
  8
01
 10
535.06946738710303
 20
-2074.820865106441
 30
0.0
 40
100.05
 50
281.0150954219539
 51
293.37039494933327
  0
ARC
  5
B95B
  8
01
 10
553.79409345865588
 20
-2171.0153991428429
 30
0.0
 40
2.0499999999999989
 50
210.0000000000293
 51
327.28861831942379
  0
ARC
  5
B95C
  8
01
 10
552.89026797984934
 20
-2161.1334187816492
 30
0.0
 40
2.0344389403939038
 50
36.085053900515661
 51
136.39526313607351
  0
ARC
  5
B95D
  8
01
 10
555.82731455266639
 20
-2166.605917978372
 30
0.0
 40
1.8
 50
348.99911464244917
 51
16.098330509340141
  0
ARC
  5
B95E
  8
01
 10
538.53314433752803
 20
-2171.597077820516
 30
0.0
 40
19.800000000000001
 50
16.098330509340141
 51
36.085053900515661
  0
ARC
  5
B95F
  8
01
 10
543.06619949931974
 20
-2164.1252038482771
 30
0.0
 40
14.800000000000001
 50
327.28861831942379
 51
348.99911464244917
  0
LINE
  5
B960
  8
01
 10
980.18777350606877
 20
-1921.734081598772
 30
0.0
 11
1028.1877735060691
 21
-1921.734081598772
 31
0.0
  0
LINE
  5
B961
  8
01
 10
979.18777350606888
 20
-1913.234081598772
 30
0.0
 11
979.18777350606888
 21
-1920.7340815987709
 31
0.0
  0
ARC
  5
B962
  8
01
 10
980.18777350606877
 20
-1920.7340815987709
 30
0.0
 40
1.0
 50
180.0
 51
270.0
  0
LINE
  5
B963
  8
01
 10
1029.1877735060691
 20
-1913.234081598772
 30
0.0
 11
1029.1877735060691
 21
-1920.7340815987709
 31
0.0
  0
ARC
  5
B964
  8
01
 10
1028.1877735060691
 20
-1920.7340815987709
 30
0.0
 40
1.0
 50
270.0
 51
0.0
  0
LINE
  5
B965
  8
01
 10
979.18777350606888
 20
-1913.234081598772
 30
0.0
 11
1029.1877735060691
 21
-1913.234081598772
 31
0.0
  0
LINE
  5
B966
  8
01
 10
996.23777650606542
 20
-1921.7340815987709
 30
0.0
 11
1012.137770506065
 21
-1921.734081598772
 31
0.0
  0
LINE
  5
B967
  8
01
 10
1015.237773506068
 20
-1922.2340815987709
 30
0.0
 11
1015.237773506068
 21
-1951.5079110872639
 31
0.0
  0
ARC
  5
B968
  8
01
 10
1023.307407082101
 20
-1945.398270906426
 30
0.0
 40
11.949999999999999
 50
244.84105075448949
 51
268.09360906930431
  0
LINE
  5
B969
  8
01
 10
1022.909870499398
 20
-1957.341656718892
 30
0.0
 11
1116.498920355677
 21
-1960.4567759692
 31
0.0
  0
ARC
  5
B96A
  8
01
 10
994.93777350606888
 20
-1965.5970727574711
 30
0.0
 40
1.8
 50
180.0
 51
260.37904022203458
  0
ARC
  5
B96B
  8
01
 10
1116.439040368323
 20
-1962.255779689905
 30
0.0
 40
1.8
 50
347.19253780604902
 51
88.093609069304293
  0
ARC
  5
B96C
  8
01
 10
1109.3061997723009
 20
-1984.9840815987709
 30
0.0
 40
1.8
 50
260.37904022203458
 51
337.96053727539328
  0
ARC
  5
B96D
  8
01
 10
972.12120761283131
 20
-1929.447805830526
 30
0.0
 40
149.80000000000001
 50
337.96053727539328
 51
347.19253780604902
  0
ARC
  5
B96E
  8
01
 10
1020.437773506069
 20
-1951.5079110872639
 30
0.0
 40
5.2000000000000002
 50
180.0
 51
244.84105075436719
  0
LINE
  5
B96F
  8
01
 10
1015.237773506068
 20
-1922.2340815987709
 30
0.0
 11
993.13777350606961
 21
-1922.2340815987709
 31
0.0
  0
LINE
  5
B970
  8
01
 10
1012.137773506069
 20
-1922.2340815987709
 30
0.0
 11
1012.137773506069
 21
-1921.734081598772
 31
0.0
  0
LINE
  5
B971
  8
01
 10
996.23777350606906
 20
-1922.2340815987709
 30
0.0
 11
996.23777350606815
 21
-1921.734081598772
 31
0.0
  0
LINE
  5
B972
  8
01
 10
993.13777350606961
 20
-1922.2340815987709
 30
0.0
 11
993.13777350607052
 21
-1965.5970727574711
 31
0.0
  0
LINE
  5
B973
  8
01
 10
994.6369405324366
 20
-1967.3717556930901
 30
0.0
 11
1109.005366798667
 21
-1986.7587645343899
 31
0.0
  0
LINE
  5
B978
  8
01
 10
980.18777350606877
 20
-1864.73408159877
 30
0.0
 11
1001.687773506061
 21
-1864.73408159877
 31
0.0
  0
LINE
  5
B979
  8
01
 10
1006.687773506063
 20
-1864.73408159877
 30
0.0
 11
1028.1877735060691
 21
-1864.73408159877
 31
0.0
  0
LINE
  5
B97A
  8
01
 10
979.18777350606888
 20
-1873.23408159877
 30
0.0
 11
979.18777350606888
 21
-1865.73408159877
 31
0.0
  0
ARC
  5
B97B
  8
01
 10
980.18777350606877
 20
-1865.73408159877
 30
0.0
 40
1.0
 50
90.0
 51
180.0
  0
LINE
  5
B97C
  8
01
 10
1029.1877735060691
 20
-1873.23408159877
 30
0.0
 11
1029.1877735060691
 21
-1865.73408159877
 31
0.0
  0
ARC
  5
B97D
  8
01
 10
1028.1877735060691
 20
-1865.73408159877
 30
0.0
 40
1.0
 50
0.0
 51
90.0
  0
LINE
  5
B97E
  8
01
 10
979.18777350606888
 20
-1873.23408159877
 30
0.0
 11
1029.1877735060691
 21
-1873.23408159877
 31
0.0
  0
LINE
  5
B97F
  8
01
 10
996.23777650606542
 20
-1864.73408159877
 30
0.0
 11
1001.687773506061
 21
-1864.73408159877
 31
0.0
  0
LINE
  5
B980
  8
01
 10
1006.687773506063
 20
-1864.73408159877
 30
0.0
 11
1012.137770506065
 21
-1864.73408159877
 31
0.0
  0
LINE
  5
B981
  8
01
 10
1015.237773506068
 20
-1864.23408159877
 30
0.0
 11
1015.237773506068
 21
-1834.9602521102779
 31
0.0
  0
ARC
  5
B982
  8
01
 10
1023.307407082101
 20
-1841.069892291116
 30
0.0
 40
11.949999999999999
 50
91.906390930695679
 51
115.1589492455105
  0
LINE
  5
B983
  8
01
 10
1022.909870499398
 20
-1829.1265064786501
 30
0.0
 11
1116.498920355677
 21
-1826.0113872283421
 31
0.0
  0
ARC
  5
B984
  8
01
 10
994.93777350606888
 20
-1820.8710904400709
 30
0.0
 40
1.8
 50
99.620959777965354
 51
180.0
  0
ARC
  5
B985
  8
01
 10
1116.439040368323
 20
-1824.212383507637
 30
0.0
 40
1.8
 50
271.90639093069569
 51
12.807462193951061
  0
ARC
  5
B986
  8
01
 10
1109.3061997723009
 20
-1801.4840815987709
 30
0.0
 40
1.8
 50
22.039462724604579
 51
99.620959777965354
  0
ARC
  5
B987
  8
01
 10
972.12120761283131
 20
-1857.0203573670151
 30
0.0
 40
149.80000000000001
 50
12.807462193951061
 51
22.039462724604579
  0
ARC
  5
B988
  8
01
 10
1020.437773506069
 20
-1834.9602521102779
 30
0.0
 40
5.2000000000000002
 50
115.1589492456317
 51
180.0
  0
LINE
  5
B989
  8
01
 10
1015.237773506068
 20
-1864.23408159877
 30
0.0
 11
1006.687773506063
 21
-1864.23408159877
 31
0.0
  0
LINE
  5
B98A
  8
01
 10
1001.687773506061
 20
-1864.23408159877
 30
0.0
 11
993.13777350606961
 21
-1864.2340815987709
 31
0.0
  0
LINE
  5
B98B
  8
01
 10
1012.137773506069
 20
-1864.23408159877
 30
0.0
 11
1012.137773506069
 21
-1864.73408159877
 31
0.0
  0
LINE
  5
B98C
  8
01
 10
996.23777350606906
 20
-1864.23408159877
 30
0.0
 11
996.23777350606815
 21
-1864.73408159877
 31
0.0
  0
LINE
  5
B98D
  8
01
 10
993.13777350606961
 20
-1864.23408159877
 30
0.0
 11
993.13777350607052
 21
-1820.8710904400709
 31
0.0
  0
LINE
  5
B98E
  8
01
 10
994.6369405324366
 20
-1819.0964075044519
 30
0.0
 11
1109.005366798667
 21
-1799.7093986631519
 31
0.0
  0
CIRCLE
  5
BC52
  8
01
 10
1004.187657166324
 20
-2105.8341215977462
 30
0.0
 40
2.5
  0
LINE
  5
BC95
  8
01
 10
814.18766116632366
 20
-2087.9340915977432
 30
0.0
 11
814.18766116632366
 21
-2127.5340715977432
 31
0.0
  0
LINE
  5
BC97
  8
01
 10
814.18766116632366
 20
-2087.5340715977432
 30
0.0
 11
814.18766116632366
 21
-2126.5340715977432
 31
0.0
  0
LINE
  5
BC98
  8
01
 10
807.8876611663236
 20
-2127.0340715977432
 30
0.0
 11
807.8876611663236
 21
-2088.0340715977441
 31
0.0
  0
LINE
  5
BC99
  8
01
 10
814.18766116632366
 20
-2127.5340715977432
 30
0.0
 11
808.38766116632371
 21
-2127.5340715977432
 31
0.0
  0
ARC
  5
BC9A
  8
01
 10
808.38766116632371
 20
-2127.0340715977432
 30
0.0
 40
0.5
 50
180.0
 51
270.0
  0
LINE
  5
BC9B
  8
01
 10
814.18766116632366
 20
-2087.5340715977432
 30
0.0
 11
808.38766116632371
 21
-2087.5340715977441
 31
0.0
  0
ARC
  5
BC9C
  8
01
 10
808.38766116632371
 20
-2088.0340715977441
 30
0.0
 40
0.5
 50
90.0
 51
180.0
  0
LINE
  5
BC9D
  8
01
 10
789.85964412662145
 20
-2113.03407159775
 30
0.0
 11
816.77158852112495
 21
-2113.03407159775
 31
0.0
  0
LINE
  5
BC9E
  8
01
 10
793.18727560060211
 20
-2124.034076597743
 30
0.0
 11
807.8876611663236
 21
-2124.034076597743
 31
0.0
  0
LINE
  5
BC9F
  8
01
 10
806.68729854481364
 20
-2102.534076597743
 30
0.0
 11
806.68729854480887
 21
-2123.534076597743
 31
0.0
  0
LINE
  5
BCA0
  8
01
 10
793.18727560060415
 20
-2102.034076597743
 30
0.0
 11
807.8876611663236
 21
-2102.034076597743
 31
0.0
  0
ARC
  5
BCA1
  8
01
 10
793.18727560060415
 20
-2103.0340765977421
 30
0.0
 40
1.0
 50
90.0
 51
180.0
  0
LINE
  5
BCA2
  8
01
 10
792.18727560060199
 20
-2103.0340765977421
 30
0.0
 11
792.18727560060199
 21
-2123.0340765977398
 31
0.0
  0
ARC
  5
BCA3
  8
01
 10
793.18727560060211
 20
-2123.0340765977398
 30
0.0
 40
1.0
 50
180.0
 51
270.0
  0
ARC
  5
BCA4
  8
01
 10
807.18729854480898
 20
-2102.534076597743
 30
0.0
 40
0.5
 50
90.0
 51
179.99999999997391
  0
ARC
  5
BCA5
  8
01
 10
807.18729854480898
 20
-2123.534076597743
 30
0.0
 40
0.5
 50
179.99999999997391
 51
270.0
  0
TEXT
  5
BD3D
  8
01
 10
664.90427030689023
 20
-1932.774792811224
 30
0.0
 40
6.0
  1
ヘアライン
 72
     1
 11
682.10427030689016
 21
-1932.774792811224
 31
0.0
  0
TEXT
  5
BD3F
  8
01
 10
675.70427030689018
 20
-1922.311355383154
 30
0.0
 40
6.0
  1
鏡面
 72
     1
 11
682.10427030689016
 21
-1922.311355383154
 31
0.0
  0
TEXT
  5
BD48
  8
01
 10
659.93284173546169
 20
-1943.274792811224
 30
0.0
 40
6.0
  1
鏡面+ヘアライン
 41
0.8
 72
     1
 11
682.10427030689016
 21
-1943.274792811224
 31
0.0
  0
LINE
  5
BDD7
  8
01
 10
1022.187657166324
 20
-2145.8847300248458
 30
0.0
 11
1022.187657166324
 21
-2179.2340815977432
 31
0.0
  0
LINE
  5
BDD8
  8
01
 10
1022.187657166324
 20
-2179.2340815977432
 30
0.0
 11
984.97828445402524
 21
-2179.2340815977432
 31
0.0
  0
LINE
  5
BDDA
  8
01
 10
1022.187657166324
 20
-2104.7340815977432
 30
0.0
 11
1022.187657166324
 21
-2116.4518788190289
 31
0.0
  0
LINE
  5
BDDB
  8
01
 10
1001.187657166324
 20
-2104.7340815977432
 30
0.0
 11
1007.187657166324
 21
-2104.7340815977432
 31
0.0
  0
LINE
  5
BDDC
  8
01
 10
1014.187657166324
 20
-2104.7340815977432
 30
0.0
 11
1022.187657166324
 21
-2104.7340815977432
 31
0.0
  0
LINE
  5
BDDD
  8
01
 10
1001.187657166324
 20
-2105.7340815977418
 30
0.0
 11
1001.187657166324
 21
-2104.7340815977432
 31
0.0
  0
LINE
  5
BDDE
  8
01
 10
1007.187657166324
 20
-2105.7340815977432
 30
0.0
 11
1007.187657166324
 21
-2104.7340815977432
 31
0.0
  0
ARC
  5
BDDF
  8
01
 10
997.68765716632402
 20
-2105.7340815977432
 30
0.0
 40
3.5
 50
179.99999999997391
 51
0.0000000000260551
  0
ARC
  5
BDE0
  8
01
 10
1010.687657166324
 20
-2105.7340815977432
 30
0.0
 40
3.5
 50
180.0
 51
0.0
  0
CIRCLE
  5
BDE1
  8
01
 10
1004.187657166035
 20
-2113.234081598031
 30
0.0
 40
6.0
  0
LINE
  5
BDE2
  8
01
 10
994.18765716632402
 20
-2104.7340815977432
 30
0.0
 11
984.41393691058033
 21
-2104.7340815977432
 31
0.0
  0
LINE
  5
BDE3
  8
01
  6
BYBLOCK
 10
984.41393691058033
 20
-2104.7340815977432
 30
0.0
 11
956.18765716632424
 21
-2104.7340815977432
 31
0.0
  0
LINE
  5
BDE4
  8
01
 10
994.18765716632379
 20
-2105.7340815977418
 30
0.0
 11
994.18765716632402
 21
-2104.7340815977432
 31
0.0
  0
LINE
  5
BDE5
  8
01
 10
1014.187657166324
 20
-2105.7340815977432
 30
0.0
 11
1014.187657166324
 21
-2104.7340815977432
 31
0.0
  0
LINE
  5
BDE6
  8
01
  6
BYBLOCK
 10
683.96137709960612
 20
-2104.7340815977432
 30
0.0
 11
712.18766516632331
 21
-2104.7340815977432
 31
0.0
  0
LINE
  5
BDE7
  8
01
  6
BYBLOCK
 10
1010.188541348095
 20
-1882.9840815987709
 30
0.0
 11
998.18854134809544
 21
-1882.9840815987709
 31
0.0
  0
LINE
  5
BDE8
  8
01
  6
BYBLOCK
 10
998.18854134809544
 20
-1903.4840815987709
 30
0.0
 11
1010.188541348095
 21
-1903.4840815987709
 31
0.0
  0
LINE
  5
BDE9
  8
01
  6
BYBLOCK
 10
998.18854134809544
 20
-1903.4840815987709
 30
0.0
 11
998.18854134809544
 21
-1902.7340815987709
 31
0.0
  0
LINE
  5
BDEA
  8
01
  6
BYBLOCK
 10
998.18854134809544
 20
-1883.7340815987709
 30
0.0
 11
998.18854134809544
 21
-1882.9840815987709
 31
0.0
  0
LINE
  5
BDEB
  8
01
  6
BYBLOCK
 10
1010.188541348095
 20
-1903.4840815987709
 30
0.0
 11
1010.188541348095
 21
-1902.7340815987709
 31
0.0
  0
LINE
  5
BDEC
  8
01
  6
BYBLOCK
 10
1010.188541348095
 20
-1883.7340815987709
 30
0.0
 11
1010.188541348095
 21
-1882.9840815987709
 31
0.0
  0
TEXT
  5
BF71
  8
01
 10
931.57081825934085
 20
-1943.6507482654381
 30
0.0
 40
4.5499999999999989
  1
材質：ステンレス
  0
TEXT
  5
BF72
  8
01
 10
925.50415159267425
 20
-1951.2340815987709
 30
0.0
 40
4.5499999999999989
  1
仕上げ：各種仕上げ
  0
SOLID
  5
BF73
  8
01
 10
1001.610512805608
 20
-1932.388069738681
 30
0.0
 11
1003.928258406385
 21
-1931.132747824646
 31
0.0
 12
1002.142927783175
 22
-1933.0719157760129
 32
0.0
 13
1002.142927783175
 23
-1933.0719157760129
 33
0.0
1001
ACAD
1000
DSTYLE
1002
{
1070
    40
1040
1.3
1002
}
  0
LINE
  5
BF75
  8
01
 10
1010.188541348095
 20
-1882.9840815987709
 30
0.0
 11
1045.348932108097
 21
-1882.9840815987709
 31
0.0
  0
LINE
  5
BF76
  8
01
 10
1010.188541348095
 20
-1903.4840815987709
 30
0.0
 11
1045.348932108097
 21
-1903.4840815987709
 31
0.0
  0
LINE
  5
BF77
  8
01
 10
1044.048932108097
 20
-1885.584081598771
 30
0.0
 11
1044.048932108097
 21
-1900.884081598771
 31
0.0
  0
LINE
  5
BF7B
  8
01
 10
1022.187657166324
 20
-2104.7340815977432
 30
0.0
 11
1050.487657166324
 21
-2104.7340815977432
 31
0.0
  0
LINE
  5
BF7C
  8
01
 10
1022.187657166324
 20
-2179.2340815977432
 30
0.0
 11
1050.487657166324
 21
-2179.2340815977432
 31
0.0
  0
LINE
  5
BF7D
  8
01
 10
1049.187657166324
 20
-2107.3340815977431
 30
0.0
 11
1049.187657166324
 21
-2176.6340815977428
 31
0.0
  0
LINE
  5
BF81
  8
01
 10
1106.9429215034161
 20
-1913.234081598772
 30
0.0
 11
1139.5390403683241
 21
-1913.234081598772
 31
0.0
  0
LINE
  5
BF82
  8
01
 10
1109.3061997723009
 20
-1986.7840815987711
 30
0.0
 11
1139.5390403683241
 21
-1986.7840815987711
 31
0.0
  0
LINE
  5
BF83
  8
01
 10
1138.2390403683239
 20
-1915.8340815987719
 30
0.0
 11
1138.2390403683239
 21
-1984.1840815987709
 31
0.0
  0
LINE
  5
BF87
  8
01
 10
1106.9429215034161
 20
-1913.234081598772
 30
0.0
 11
1129.5390403683241
 21
-1913.234081598772
 31
0.0
  0
LINE
  5
BF88
  8
01
 10
1116.4989203556761
 20
-1960.456775969199
 30
0.0
 11
1129.5390403683241
 21
-1960.456775969199
 31
0.0
  0
LINE
  5
BF89
  8
01
 10
1128.2390403683239
 20
-1915.8340815987719
 30
0.0
 11
1128.2390403683239
 21
-1957.8567759691989
 31
0.0
  0
LINE
  5
BF8D
  8
01
 10
993.13777350607052
 20
-1965.5970727574711
 30
0.0
 11
993.13777350607052
 21
-2008.084081598771
 31
0.0
  0
LINE
  5
BF8E
  8
01
 10
1118.2390403683239
 20
-1962.255779689905
 30
0.0
 11
1118.2390403683239
 21
-2008.084081598771
 31
0.0
  0
LINE
  5
BF8F
  8
01
 10
995.73777350607043
 20
-2006.7840815987711
 30
0.0
 11
1115.639040368324
 21
-2006.7840815987711
 31
0.0
  0
LINE
  5
BF93
  8
01
 10
1004.187773506069
 20
-1933.0252914856189
 30
0.0
 11
1004.187773506069
 21
-1998.084081598771
 31
0.0
  0
LINE
  5
BF94
  8
01
 10
1118.2390403683239
 20
-1962.255779689905
 30
0.0
 11
1118.2390403683239
 21
-1998.084081598771
 31
0.0
  0
LINE
  5
BF95
  8
01
 10
1006.787773506069
 20
-1996.7840815987711
 30
0.0
 11
1115.639040368324
 21
-1996.7840815987711
 31
0.0
  0
LINE
  5
BF99
  8
01
 10
814.18766116632366
 20
-2070.736701597742
 30
0.0
 11
814.18766116632366
 21
-2056.2340815977432
 31
0.0
  0
LINE
  5
BF9A
  8
01
 10
792.18727560060415
 20
-2103.0340765977421
 30
0.0
 11
792.18727560060415
 21
-2056.2340815977432
 31
0.0
  0
LINE
  5
BF9B
  8
01
 10
812.18766116632366
 20
-2057.2340815977432
 30
0.0
 11
794.18727560060415
 21
-2057.2340815977432
 31
0.0
  0
LINE
  5
BF9F
  8
01
 10
1004.187657166325
 20
-2138.2340815977432
 30
0.0
 11
967.88765716632474
 21
-2138.2340815977432
 31
0.0
  0
LINE
  5
BFA0
  8
01
 10
1004.187657166325
 20
-2188.2340815977418
 30
0.0
 11
967.88765716632474
 21
-2188.2340815977418
 31
0.0
  0
LINE
  5
BFA1
  8
01
 10
969.18765716632481
 20
-2140.8340815977431
 30
0.0
 11
969.18765716632481
 21
-2185.6340815977419
 31
0.0
  0
LINE
  5
BFA5
  8
01
 10
1022.187657166325
 20
-2105.2340815977432
 30
0.0
 11
1022.187657166325
 21
-2045.934081597743
 31
0.0
  0
LINE
  5
BFA6
  8
01
 10
953.18765716632515
 20
-2077.2340815977432
 30
0.0
 11
953.18765716632515
 21
-2045.934081597743
 31
0.0
  0
LINE
  5
BFA7
  8
01
 10
1019.587657166325
 20
-2047.2340815977429
 30
0.0
 11
955.78765716632518
 21
-2047.2340815977429
 31
0.0
  0
LINE
  5
BFAB
  8
01
 10
840.68766116632366
 20
-2077.2340815977432
 30
0.0
 11
895.48766116632339
 21
-2077.2340815977432
 31
0.0
  0
LINE
  5
BFAC
  8
01
 10
840.68766116632366
 20
-2207.2340815977432
 30
0.0
 11
895.48766116632339
 21
-2207.2340815977432
 31
0.0
  0
LINE
  5
BFAD
  8
01
 10
894.18766116632344
 20
-2079.8340815977431
 30
0.0
 11
894.18766116632344
 21
-2204.6340815977428
 31
0.0
  0
LINE
  5
BFB1
  8
01
 10
840.68766116632366
 20
-2085.2340815977432
 30
0.0
 11
879.99125220288033
 21
-2085.2340815977432
 31
0.0
  0
LINE
  5
BFB2
  8
01
 10
840.68766116632366
 20
-2199.2340815977432
 30
0.0
 11
879.99125220288033
 21
-2199.2340815977432
 31
0.0
  0
LINE
  5
BFB3
  8
01
 10
878.69125220288026
 20
-2087.8340815977431
 30
0.0
 11
878.69125220288026
 21
-2196.6340815977428
 31
0.0
  0
LINE
  5
BFB7
  8
01
 10
634.18766516632331
 20
-2163.2340815977432
 30
0.0
 11
619.88767716632367
 21
-2163.2340815977432
 31
0.0
  0
LINE
  5
BFB8
  8
01
 10
641.68765716632242
 20
-2107.7340815977432
 30
0.0
 11
619.88767716632367
 21
-2107.7340815977432
 31
0.0
  0
LINE
  5
BFB9
  8
01
 10
621.18767716632374
 20
-2160.6340815977428
 30
0.0
 11
621.18767716632374
 21
-2110.3340815977431
 31
0.0
  0
LINE
  5
BFBD
  8
01
 10
634.18766516632331
 20
-2163.2340815977432
 30
0.0
 11
629.88767716632378
 21
-2163.2340815977432
 31
0.0
  0
LINE
  5
BFBE
  8
01
 10
651.18765716632242
 20
-2113.2340815977432
 30
0.0
 11
629.88767716632378
 21
-2113.2340815977432
 31
0.0
  0
LINE
  5
BFBF
  8
01
 10
631.18767716632374
 20
-2160.6340815977428
 30
0.0
 11
631.18767716632374
 21
-2115.8340815977431
 31
0.0
  0
LINE
  5
BFC3
  8
01
 10
644.38765816632213
 20
-2107.7340815977432
 30
0.0
 11
644.38765816632213
 21
-2078.934081597743
 31
0.0
  0
LINE
  5
BFC4
  8
01
 10
683.98765616632215
 20
-2107.7340815977432
 30
0.0
 11
683.98765616632215
 21
-2078.934081597743
 31
0.0
  0
LINE
  5
BFC5
  8
01
 10
646.98765816632215
 20
-2080.2340815977432
 30
0.0
 11
681.38765616632224
 21
-2080.2340815977432
 31
0.0
  0
LINE
  5
BFC9
  8
01
 10
984.38765816632394
 20
-2107.7340815977432
 30
0.0
 11
984.38765816632394
 21
-2078.934081597743
 31
0.0
  0
LINE
  5
BFCA
  8
01
 10
1023.987656166324
 20
-2107.7340815977432
 30
0.0
 11
1023.987656166324
 21
-2078.934081597743
 31
0.0
  0
LINE
  5
BFCB
  8
01
 10
986.98765816632385
 20
-2080.2340815977432
 30
0.0
 11
1021.3876561663239
 21
-2080.2340815977432
 31
0.0
  0
LINE
  5
BFCF
  8
01
 10
854.18766116632366
 20
-2070.736701597742
 30
0.0
 11
854.18766116632366
 21
-2055.9340815977421
 31
0.0
  0
LINE
  5
BFD0
  8
01
 10
862.48766416632202
 20
-2113.2340815977432
 30
0.0
 11
862.48766416632202
 21
-2055.9340815977421
 31
0.0
  0
LINE
  5
BFD1
  8
01
 10
856.78766116632369
 20
-2057.2340815977432
 30
0.0
 11
859.887664166322
 21
-2057.2340815977432
 31
0.0
  0
LINE
  5
BFD5
  8
01
 10
800.98669927200024
 20
-2162.4840815977432
 30
0.0
 11
799.68766116632366
 21
-2161.7340815977432
 31
0.0
  0
LINE
  5
BFD6
  8
01
 10
799.68766116632366
 20
-2161.7340815977432
 30
0.0
 11
798.38862306064686
 21
-2162.4840815977432
 31
0.0
  0
LINE
  5
BFD7
  8
01
 10
798.38862306064686
 20
-2162.4840815977432
 30
0.0
 11
798.38862306064686
 21
-2163.9840815977432
 31
0.0
  0
LINE
  5
BFD8
  8
01
 10
798.38862306064686
 20
-2163.9840815977432
 30
0.0
 11
799.68766116632366
 21
-2164.7340815977418
 31
0.0
  0
LINE
  5
BFD9
  8
01
 10
799.68766116632366
 20
-2164.7340815977418
 30
0.0
 11
800.98669927200024
 21
-2163.9840815977432
 31
0.0
  0
LINE
  5
BFDA
  8
01
 10
800.98669927200024
 20
-2163.9840815977432
 30
0.0
 11
800.98669927200024
 21
-2162.4840815977432
 31
0.0
  0
CIRCLE
  5
BFDB
  8
01
 10
799.68766116632366
 20
-2163.2340815977432
 30
0.0
 40
3.0
  0
CIRCLE
  5
BFDC
  8
01
 10
868.68766116632366
 20
-2163.2340815977432
 30
0.0
 40
3.0
  0
LINE
  5
BFDD
  8
01
 10
953.18765716632436
 20
-2077.2340815977432
 30
0.0
 11
953.18765716632436
 21
-2055.9340815977421
 31
0.0
  0
LINE
  5
BFDE
  8
01
 10
1004.187657166324
 20
-2132.7037175069058
 30
0.0
 11
1004.187657166324
 21
-2055.9340815977421
 31
0.0
  0
LINE
  5
BFDF
  8
01
 10
955.78765716632427
 20
-2057.2340815977432
 30
0.0
 11
1001.587657166324
 21
-2057.2340815977432
 31
0.0
  0
LINE
  5
BFE3
  8
01
 10
1022.187657166324
 20
-2115.9827154482659
 30
0.0
 11
1022.187657166324
 21
-2045.934081597743
 31
0.0
  0
LINE
  5
BFE4
  8
01
 10
953.18765716632436
 20
-2077.2340815977432
 30
0.0
 11
953.18765716632436
 21
-2045.934081597743
 31
0.0
  0
LINE
  5
BFE5
  8
01
 10
1019.587657166324
 20
-2047.2340815977429
 30
0.0
 11
955.78765716632427
 21
-2047.2340815977429
 31
0.0
  0
LINE
  5
BFE9
  8
01
 10
942.18765716632424
 20
-2135.234082295874
 30
0.0
 11
942.18765716632424
 21
-2055.9340815977421
 31
0.0
  0
LINE
  5
BFEA
  8
01
 10
953.18765716632436
 20
-2077.2340815977432
 30
0.0
 11
953.18765716632436
 21
-2055.9340815977421
 31
0.0
  0
LINE
  5
BFEB
  8
01
 10
944.78765716632415
 20
-2057.2340815977432
 30
0.0
 11
950.58765716632411
 21
-2057.2340815977432
 31
0.0
  0
LINE
  5
BFEF
  8
01
 10
821.68766116632378
 20
-2083.2340815977432
 30
0.0
 11
821.68766116632378
 21
-2055.9340815977421
 31
0.0
  0
LINE
  5
BFF0
  8
01
 10
846.68766116632378
 20
-2083.2340815977432
 30
0.0
 11
846.68766116632378
 21
-2055.9340815977421
 31
0.0
  0
LINE
  5
BFF1
  8
01
 10
824.2876611663238
 20
-2057.2340815977432
 30
0.0
 11
844.08766116632376
 21
-2057.2340815977432
 31
0.0
  0
TEXT
  5
BFF5
  8
01
 10
829.85432783299052
 20
-2056.3240815977429
 30
0.0
 40
4.5499999999999989
  1
25
  0
LINE
  5
BFF6
  8
01
  6
BYBLOCK
 10
844.08766116632376
 20
-2056.5374137037429
 30
0.0
 11
846.68766116632378
 21
-2057.2340815977432
 31
0.0
  0
LINE
  5
BFF7
  8
01
  6
BYBLOCK
 10
846.68766116632378
 20
-2057.2340815977432
 30
0.0
 11
844.08766116632376
 21
-2057.930749491743
 31
0.0
  0
LINE
  5
BFF8
  8
01
  6
BYBLOCK
 10
846.68766116632378
 20
-2057.2340815977432
 30
0.0
 11
844.08766116632376
 21
-2057.2340815977432
 31
0.0
  0
LINE
  5
BFF9
  8
01
  6
BYBLOCK
 10
824.2876611663238
 20
-2057.930749491743
 30
0.0
 11
821.68766116632378
 21
-2057.2340815977432
 31
0.0
  0
LINE
  5
BFFA
  8
01
  6
BYBLOCK
 10
821.68766116632378
 20
-2057.2340815977432
 30
0.0
 11
824.2876611663238
 21
-2056.5374137037429
 31
0.0
  0
LINE
  5
BFFB
  8
01
  6
BYBLOCK
 10
821.68766116632378
 20
-2057.2340815977432
 30
0.0
 11
824.2876611663238
 21
-2057.2340815977432
 31
0.0
  0
TEXT
  5
BFFC
  8
01
 10
943.67932383299103
 20
-2056.3240815977429
 30
0.0
 40
4.5499999999999989
  1
11
  0
LINE
  5
BFFD
  8
01
  6
BYBLOCK
 10
950.58765716632411
 20
-2056.5374137037429
 30
0.0
 11
953.18765716632436
 21
-2057.2340815977432
 31
0.0
  0
LINE
  5
BFFE
  8
01
  6
BYBLOCK
 10
953.18765716632436
 20
-2057.2340815977432
 30
0.0
 11
950.58765716632411
 21
-2057.930749491743
 31
0.0
  0
LINE
  5
BFFF
  8
01
  6
BYBLOCK
 10
953.18765716632436
 20
-2057.2340815977432
 30
0.0
 11
950.58765716632411
 21
-2057.2340815977432
 31
0.0
  0
LINE
  5
C000
  8
01
  6
BYBLOCK
 10
944.78765716632415
 20
-2057.930749491743
 30
0.0
 11
942.18765716632424
 21
-2057.2340815977432
 31
0.0
  0
LINE
  5
C001
  8
01
  6
BYBLOCK
 10
942.18765716632424
 20
-2057.2340815977432
 30
0.0
 11
944.78765716632415
 21
-2056.5374137037429
 31
0.0
  0
LINE
  5
C002
  8
01
  6
BYBLOCK
 10
942.18765716632424
 20
-2057.2340815977432
 30
0.0
 11
944.78765716632415
 21
-2057.2340815977432
 31
0.0
  0
TEXT
  5
C003
  8
01
 10
983.35432383299087
 20
-2046.3240815977431
 30
0.0
 40
4.5499999999999989
  1
69
  0
LINE
  5
C004
  8
01
  6
BYBLOCK
 10
955.78765716632427
 20
-2047.930749491743
 30
0.0
 11
953.18765716632436
 21
-2047.2340815977429
 31
0.0
  0
LINE
  5
C005
  8
01
  6
BYBLOCK
 10
953.18765716632436
 20
-2047.2340815977429
 30
0.0
 11
955.78765716632427
 21
-2046.5374137037429
 31
0.0
  0
LINE
  5
C006
  8
01
  6
BYBLOCK
 10
953.18765716632436
 20
-2047.2340815977429
 30
0.0
 11
955.78765716632427
 21
-2047.2340815977429
 31
0.0
  0
LINE
  5
C007
  8
01
  6
BYBLOCK
 10
1019.587657166324
 20
-2046.5374137037429
 30
0.0
 11
1022.187657166324
 21
-2047.2340815977429
 31
0.0
  0
LINE
  5
C008
  8
01
  6
BYBLOCK
 10
1022.187657166324
 20
-2047.2340815977429
 30
0.0
 11
1019.587657166324
 21
-2047.930749491743
 31
0.0
  0
LINE
  5
C009
  8
01
  6
BYBLOCK
 10
1022.187657166324
 20
-2047.2340815977429
 30
0.0
 11
1019.587657166324
 21
-2047.2340815977429
 31
0.0
  0
TEXT
  5
C00A
  8
01
 10
975.00432383299096
 20
-2056.3240815977429
 30
0.0
 40
4.5499999999999989
  1
51
  0
LINE
  5
C00B
  8
01
  6
BYBLOCK
 10
1001.587657166324
 20
-2056.5374137037429
 30
0.0
 11
1004.187657166324
 21
-2057.2340815977432
 31
0.0
  0
LINE
  5
C00C
  8
01
  6
BYBLOCK
 10
1004.187657166324
 20
-2057.2340815977432
 30
0.0
 11
1001.587657166324
 21
-2057.930749491743
 31
0.0
  0
LINE
  5
C00D
  8
01
  6
BYBLOCK
 10
1004.187657166324
 20
-2057.2340815977432
 30
0.0
 11
1001.587657166324
 21
-2057.2340815977432
 31
0.0
  0
LINE
  5
C00E
  8
01
  6
BYBLOCK
 10
955.78765716632427
 20
-2057.930749491743
 30
0.0
 11
953.18765716632436
 21
-2057.2340815977432
 31
0.0
  0
LINE
  5
C00F
  8
01
  6
BYBLOCK
 10
953.18765716632436
 20
-2057.2340815977432
 30
0.0
 11
955.78765716632427
 21
-2056.5374137037429
 31
0.0
  0
LINE
  5
C010
  8
01
  6
BYBLOCK
 10
953.18765716632436
 20
-2057.2340815977432
 30
0.0
 11
955.78765716632427
 21
-2057.2340815977432
 31
0.0
  0
TEXT
  5
C011
  8
01
 10
856.17099599965616
 20
-2056.3240815977429
 30
0.0
 40
4.5499999999999989
  1
8
  0
LINE
  5
C012
  8
01
  6
BYBLOCK
 10
859.887664166322
 20
-2056.5374137037429
 30
0.0
 11
862.48766416632202
 21
-2057.2340815977432
 31
0.0
  0
LINE
  5
C013
  8
01
  6
BYBLOCK
 10
862.48766416632202
 20
-2057.2340815977432
 30
0.0
 11
859.887664166322
 21
-2057.930749491743
 31
0.0
  0
LINE
  5
C014
  8
01
  6
BYBLOCK
 10
862.48766416632202
 20
-2057.2340815977432
 30
0.0
 11
859.887664166322
 21
-2057.2340815977432
 31
0.0
  0
LINE
  5
C015
  8
01
  6
BYBLOCK
 10
856.78766116632369
 20
-2057.930749491743
 30
0.0
 11
854.18766116632366
 21
-2057.2340815977432
 31
0.0
  0
LINE
  5
C016
  8
01
  6
BYBLOCK
 10
854.18766116632366
 20
-2057.2340815977432
 30
0.0
 11
856.78766116632369
 21
-2056.5374137037429
 31
0.0
  0
LINE
  5
C017
  8
01
  6
BYBLOCK
 10
854.18766116632366
 20
-2057.2340815977432
 30
0.0
 11
856.78766116632369
 21
-2057.2340815977432
 31
0.0
  0
TEXT
  5
C018
  8
01
 10
996.99432383299074
 20
-2079.3240815977429
 30
0.0
 40
4.5499999999999989
  1
\U+03C640
  0
LINE
  5
C019
  8
01
  6
BYBLOCK
 10
1021.3876561663239
 20
-2079.5374137037429
 30
0.0
 11
1023.987656166324
 21
-2080.2340815977432
 31
0.0
  0
LINE
  5
C01A
  8
01
  6
BYBLOCK
 10
1023.987656166324
 20
-2080.2340815977432
 30
0.0
 11
1021.3876561663239
 21
-2080.930749491743
 31
0.0
  0
LINE
  5
C01B
  8
01
  6
BYBLOCK
 10
1023.987656166324
 20
-2080.2340815977432
 30
0.0
 11
1021.3876561663239
 21
-2080.2340815977432
 31
0.0
  0
LINE
  5
C01C
  8
01
  6
BYBLOCK
 10
986.98765816632385
 20
-2080.930749491743
 30
0.0
 11
984.38765816632394
 21
-2080.2340815977432
 31
0.0
  0
LINE
  5
C01D
  8
01
  6
BYBLOCK
 10
984.38765816632394
 20
-2080.2340815977432
 30
0.0
 11
986.98765816632385
 21
-2079.5374137037429
 31
0.0
  0
LINE
  5
C01E
  8
01
  6
BYBLOCK
 10
984.38765816632394
 20
-2080.2340815977432
 30
0.0
 11
986.98765816632385
 21
-2080.2340815977432
 31
0.0
  0
TEXT
  5
C01F
  8
01
 10
656.99432383298893
 20
-2079.3240815977429
 30
0.0
 40
4.5499999999999989
  1
\U+03C640
  0
LINE
  5
C020
  8
01
  6
BYBLOCK
 10
681.38765616632224
 20
-2079.5374137037429
 30
0.0
 11
683.98765616632215
 21
-2080.2340815977432
 31
0.0
  0
LINE
  5
C021
  8
01
  6
BYBLOCK
 10
683.98765616632215
 20
-2080.2340815977432
 30
0.0
 11
681.38765616632224
 21
-2080.930749491743
 31
0.0
  0
LINE
  5
C022
  8
01
  6
BYBLOCK
 10
683.98765616632215
 20
-2080.2340815977432
 30
0.0
 11
681.38765616632224
 21
-2080.2340815977432
 31
0.0
  0
LINE
  5
C023
  8
01
  6
BYBLOCK
 10
646.98765816632215
 20
-2080.930749491743
 30
0.0
 11
644.38765816632213
 21
-2080.2340815977432
 31
0.0
  0
LINE
  5
C024
  8
01
  6
BYBLOCK
 10
644.38765816632213
 20
-2080.2340815977432
 30
0.0
 11
646.98765816632215
 21
-2079.5374137037429
 31
0.0
  0
LINE
  5
C025
  8
01
  6
BYBLOCK
 10
644.38765816632213
 20
-2080.2340815977432
 30
0.0
 11
646.98765816632215
 21
-2080.2340815977432
 31
0.0
  0
TEXT
  5
C026
  8
01
 10
630.27767716632411
 20
-2142.5674149310762
 30
0.0
 40
4.5499999999999989
  1
50
 50
90.0
  0
LINE
  5
C027
  8
01
  6
BYBLOCK
 10
630.49100927232371
 20
-2115.8340815977431
 30
0.0
 11
631.18767716632374
 21
-2113.2340815977432
 31
0.0
  0
LINE
  5
C028
  8
01
  6
BYBLOCK
 10
631.18767716632374
 20
-2113.2340815977432
 30
0.0
 11
631.88434506032365
 21
-2115.8340815977431
 31
0.0
  0
LINE
  5
C029
  8
01
  6
BYBLOCK
 10
631.18767716632374
 20
-2113.2340815977432
 30
0.0
 11
631.18767716632374
 21
-2115.8340815977431
 31
0.0
  0
LINE
  5
C02A
  8
01
  6
BYBLOCK
 10
631.88434506032365
 20
-2160.6340815977428
 30
0.0
 11
631.18767716632374
 21
-2163.2340815977432
 31
0.0
  0
LINE
  5
C02B
  8
01
  6
BYBLOCK
 10
631.18767716632374
 20
-2163.2340815977432
 30
0.0
 11
630.49100927232371
 21
-2160.6340815977428
 31
0.0
  0
LINE
  5
C02C
  8
01
  6
BYBLOCK
 10
631.18767716632374
 20
-2163.2340815977432
 30
0.0
 11
631.18767716632374
 21
-2160.6340815977428
 31
0.0
  0
TEXT
  5
C02D
  8
01
 10
620.277677166324
 20
-2143.0674149310762
 30
0.0
 40
4.5499999999999989
  1
55.5
 50
90.0
  0
LINE
  5
C02E
  8
01
  6
BYBLOCK
 10
620.49100927232371
 20
-2110.3340815977431
 30
0.0
 11
621.18767716632374
 21
-2107.7340815977432
 31
0.0
  0
LINE
  5
C02F
  8
01
  6
BYBLOCK
 10
621.18767716632374
 20
-2107.7340815977432
 30
0.0
 11
621.88434506032365
 21
-2110.3340815977431
 31
0.0
  0
LINE
  5
C030
  8
01
  6
BYBLOCK
 10
621.18767716632374
 20
-2107.7340815977432
 30
0.0
 11
621.18767716632374
 21
-2110.3340815977431
 31
0.0
  0
LINE
  5
C031
  8
01
  6
BYBLOCK
 10
621.88434506032365
 20
-2160.6340815977428
 30
0.0
 11
621.18767716632374
 21
-2163.2340815977432
 31
0.0
  0
LINE
  5
C032
  8
01
  6
BYBLOCK
 10
621.18767716632374
 20
-2163.2340815977432
 30
0.0
 11
620.49100927232371
 21
-2160.6340815977428
 31
0.0
  0
LINE
  5
C033
  8
01
  6
BYBLOCK
 10
621.18767716632374
 20
-2163.2340815977432
 30
0.0
 11
621.18767716632374
 21
-2160.6340815977428
 31
0.0
  0
TEXT
  5
C034
  8
01
 10
877.78125220288064
 20
-2131.3536942507621
 30
0.0
 40
4.5499999999999989
  1
114
 50
90.0
  0
LINE
  5
C035
  8
01
  6
BYBLOCK
 10
879.38792009688018
 20
-2196.6340815977428
 30
0.0
 11
878.69125220288026
 21
-2199.2340815977432
 31
0.0
  0
LINE
  5
C036
  8
01
  6
BYBLOCK
 10
878.69125220288026
 20
-2199.2340815977432
 30
0.0
 11
877.99458430888012
 21
-2196.6340815977428
 31
0.0
  0
LINE
  5
C037
  8
01
  6
BYBLOCK
 10
878.69125220288026
 20
-2199.2340815977432
 30
0.0
 11
878.69125220288026
 21
-2196.6340815977428
 31
0.0
  0
LINE
  5
C038
  8
01
  6
BYBLOCK
 10
877.99458430888012
 20
-2087.8340815977431
 30
0.0
 11
878.69125220288026
 21
-2085.2340815977432
 31
0.0
  0
LINE
  5
C039
  8
01
  6
BYBLOCK
 10
878.69125220288026
 20
-2085.2340815977432
 30
0.0
 11
879.38792009688018
 21
-2087.8340815977431
 31
0.0
  0
LINE
  5
C03A
  8
01
  6
BYBLOCK
 10
878.69125220288026
 20
-2085.2340815977432
 30
0.0
 11
878.69125220288026
 21
-2087.8340815977431
 31
0.0
  0
TEXT
  5
C03B
  8
01
 10
893.2776611663237
 20
-2131.2453609174281
 30
0.0
 40
4.5499999999999989
  1
130
 50
90.0
  0
LINE
  5
C03C
  8
01
  6
BYBLOCK
 10
894.88432906032335
 20
-2204.6340815977428
 30
0.0
 11
894.18766116632344
 21
-2207.2340815977432
 31
0.0
  0
LINE
  5
C03D
  8
01
  6
BYBLOCK
 10
894.18766116632344
 20
-2207.2340815977432
 30
0.0
 11
893.49099327232341
 21
-2204.6340815977428
 31
0.0
  0
LINE
  5
C03E
  8
01
  6
BYBLOCK
 10
894.18766116632344
 20
-2207.2340815977432
 30
0.0
 11
894.18766116632344
 21
-2204.6340815977428
 31
0.0
  0
LINE
  5
C03F
  8
01
  6
BYBLOCK
 10
893.49099327232341
 20
-2079.8340815977431
 30
0.0
 11
894.18766116632344
 21
-2077.2340815977432
 31
0.0
  0
LINE
  5
C040
  8
01
  6
BYBLOCK
 10
894.18766116632344
 20
-2077.2340815977432
 30
0.0
 11
894.88432906032335
 21
-2079.8340815977431
 31
0.0
  0
LINE
  5
C041
  8
01
  6
BYBLOCK
 10
894.18766116632344
 20
-2077.2340815977432
 30
0.0
 11
894.18766116632344
 21
-2079.8340815977431
 31
0.0
  0
TEXT
  5
C042
  8
01
 10
983.35432383299178
 20
-2046.3240815977431
 30
0.0
 40
4.5499999999999989
  1
69
  0
LINE
  5
C043
  8
01
  6
BYBLOCK
 10
955.78765716632518
 20
-2047.930749491743
 30
0.0
 11
953.18765716632515
 21
-2047.2340815977429
 31
0.0
  0
LINE
  5
C044
  8
01
  6
BYBLOCK
 10
953.18765716632515
 20
-2047.2340815977429
 30
0.0
 11
955.78765716632518
 21
-2046.5374137037429
 31
0.0
  0
LINE
  5
C045
  8
01
  6
BYBLOCK
 10
953.18765716632515
 20
-2047.2340815977429
 30
0.0
 11
955.78765716632518
 21
-2047.2340815977429
 31
0.0
  0
LINE
  5
C046
  8
01
  6
BYBLOCK
 10
1019.587657166325
 20
-2046.5374137037429
 30
0.0
 11
1022.187657166325
 21
-2047.2340815977429
 31
0.0
  0
LINE
  5
C047
  8
01
  6
BYBLOCK
 10
1022.187657166325
 20
-2047.2340815977429
 30
0.0
 11
1019.587657166325
 21
-2047.930749491743
 31
0.0
  0
LINE
  5
C048
  8
01
  6
BYBLOCK
 10
1022.187657166325
 20
-2047.2340815977429
 30
0.0
 11
1019.587657166325
 21
-2047.2340815977429
 31
0.0
  0
TEXT
  5
C049
  8
01
 10
968.27765716632518
 20
-2171.767160893231
 30
0.0
 40
4.5499999999999989
  1
\U+03C650
 50
90.0
  0
LINE
  5
C04A
  8
01
  6
BYBLOCK
 10
969.88432506032484
 20
-2185.6340815977419
 30
0.0
 11
969.18765716632481
 21
-2188.2340815977418
 31
0.0
  0
LINE
  5
C04B
  8
01
  6
BYBLOCK
 10
969.18765716632481
 20
-2188.2340815977418
 30
0.0
 11
968.49098927232467
 21
-2185.6340815977419
 31
0.0
  0
LINE
  5
C04C
  8
01
  6
BYBLOCK
 10
969.18765716632481
 20
-2188.2340815977418
 30
0.0
 11
969.18765716632481
 21
-2185.6340815977419
 31
0.0
  0
LINE
  5
C04D
  8
01
  6
BYBLOCK
 10
968.49098927232467
 20
-2140.8340815977431
 30
0.0
 11
969.18765716632481
 21
-2138.2340815977432
 31
0.0
  0
LINE
  5
C04E
  8
01
  6
BYBLOCK
 10
969.18765716632481
 20
-2138.2340815977432
 30
0.0
 11
969.88432506032484
 21
-2140.8340815977431
 31
0.0
  0
LINE
  5
C04F
  8
01
  6
BYBLOCK
 10
969.18765716632481
 20
-2138.2340815977432
 30
0.0
 11
969.18765716632481
 21
-2140.8340815977431
 31
0.0
  0
TEXT
  5
C050
  8
01
 10
799.85413505013059
 20
-2056.5340815977429
 30
0.0
 40
3.5
  1
22
  0
LINE
  5
C051
  8
01
  6
BYBLOCK
 10
794.18727560060415
 20
-2057.7699799777429
 30
0.0
 11
792.18727560060415
 21
-2057.2340815977432
 31
0.0
  0
LINE
  5
C052
  8
01
  6
BYBLOCK
 10
792.18727560060415
 20
-2057.2340815977432
 30
0.0
 11
794.18727560060415
 21
-2056.698183217743
 31
0.0
  0
LINE
  5
C053
  8
01
  6
BYBLOCK
 10
792.18727560060415
 20
-2057.2340815977432
 30
0.0
 11
794.18727560060415
 21
-2057.2340815977432
 31
0.0
  0
LINE
  5
C054
  8
01
  6
BYBLOCK
 10
812.18766116632366
 20
-2056.698183217743
 30
0.0
 11
814.18766116632366
 21
-2057.2340815977432
 31
0.0
  0
LINE
  5
C055
  8
01
  6
BYBLOCK
 10
814.18766116632366
 20
-2057.2340815977432
 30
0.0
 11
812.18766116632366
 21
-2057.7699799777429
 31
0.0
  0
LINE
  5
C056
  8
01
  6
BYBLOCK
 10
814.18766116632366
 20
-2057.2340815977432
 30
0.0
 11
812.18766116632366
 21
-2057.2340815977432
 31
0.0
  0
TEXT
  5
C057
  8
01
 10
1054.280073603863
 20
-1995.874081598771
 30
0.0
 40
4.5499999999999989
  1
114
  0
LINE
  5
C058
  8
01
  6
BYBLOCK
 10
1115.639040368324
 20
-1996.0874137047711
 30
0.0
 11
1118.2390403683239
 21
-1996.7840815987711
 31
0.0
  0
LINE
  5
C059
  8
01
  6
BYBLOCK
 10
1118.2390403683239
 20
-1996.7840815987711
 30
0.0
 11
1115.639040368324
 21
-1997.4807494927711
 31
0.0
  0
LINE
  5
C05A
  8
01
  6
BYBLOCK
 10
1118.2390403683239
 20
-1996.7840815987711
 30
0.0
 11
1115.639040368324
 21
-1996.7840815987711
 31
0.0
  0
LINE
  5
C05B
  8
01
  6
BYBLOCK
 10
1006.787773506069
 20
-1997.4807494927711
 30
0.0
 11
1004.187773506069
 21
-1996.7840815987711
 31
0.0
  0
LINE
  5
C05C
  8
01
  6
BYBLOCK
 10
1004.187773506069
 20
-1996.7840815987711
 30
0.0
 11
1006.787773506069
 21
-1996.0874137047711
 31
0.0
  0
LINE
  5
C05D
  8
01
  6
BYBLOCK
 10
1004.187773506069
 20
-1996.7840815987711
 30
0.0
 11
1006.787773506069
 21
-1996.7840815987711
 31
0.0
  0
TEXT
  5
C05E
  8
01
 10
1048.8634069371969
 20
-2005.874081598771
 30
0.0
 40
4.5499999999999989
  1
125
  0
LINE
  5
C05F
  8
01
  6
BYBLOCK
 10
1115.639040368324
 20
-2006.0874137047711
 30
0.0
 11
1118.2390403683239
 21
-2006.7840815987711
 31
0.0
  0
LINE
  5
C060
  8
01
  6
BYBLOCK
 10
1118.2390403683239
 20
-2006.7840815987711
 30
0.0
 11
1115.639040368324
 21
-2007.4807494927711
 31
0.0
  0
LINE
  5
C061
  8
01
  6
BYBLOCK
 10
1118.2390403683239
 20
-2006.7840815987711
 30
0.0
 11
1115.639040368324
 21
-2006.7840815987711
 31
0.0
  0
LINE
  5
C062
  8
01
  6
BYBLOCK
 10
995.73777350607043
 20
-2007.4807494927711
 30
0.0
 11
993.13777350607052
 21
-2006.7840815987711
 31
0.0
  0
LINE
  5
C063
  8
01
  6
BYBLOCK
 10
993.13777350607052
 20
-2006.7840815987711
 30
0.0
 11
995.73777350607043
 21
-2006.0874137047711
 31
0.0
  0
LINE
  5
C064
  8
01
  6
BYBLOCK
 10
993.13777350607052
 20
-2006.7840815987711
 30
0.0
 11
995.73777350607043
 21
-2006.7840815987711
 31
0.0
  0
TEXT
  5
C065
  8
01
 10
1127.3290403683241
 20
-1941.1787621173189
 30
0.0
 40
4.5499999999999989
  1
47
 50
90.0
  0
LINE
  5
C066
  8
01
  6
BYBLOCK
 10
1128.9357082623239
 20
-1957.8567759691989
 30
0.0
 11
1128.2390403683239
 21
-1960.456775969199
 31
0.0
  0
LINE
  5
C067
  8
01
  6
BYBLOCK
 10
1128.2390403683239
 20
-1960.456775969199
 30
0.0
 11
1127.5423724743241
 21
-1957.8567759691989
 31
0.0
  0
LINE
  5
C068
  8
01
  6
BYBLOCK
 10
1128.2390403683239
 20
-1960.456775969199
 30
0.0
 11
1128.2390403683239
 21
-1957.8567759691989
 31
0.0
  0
LINE
  5
C069
  8
01
  6
BYBLOCK
 10
1127.5423724743241
 20
-1915.8340815987719
 30
0.0
 11
1128.2390403683239
 21
-1913.234081598772
 31
0.0
  0
LINE
  5
C06A
  8
01
  6
BYBLOCK
 10
1128.2390403683239
 20
-1913.234081598772
 30
0.0
 11
1128.9357082623239
 21
-1915.8340815987719
 31
0.0
  0
LINE
  5
C06B
  8
01
  6
BYBLOCK
 10
1128.2390403683239
 20
-1913.234081598772
 30
0.0
 11
1128.2390403683239
 21
-1915.8340815987719
 31
0.0
  0
TEXT
  5
C06C
  8
01
 10
1137.3290403683241
 20
-1954.4507482654381
 30
0.0
 40
4.5499999999999989
  1
74
 50
90.0
  0
LINE
  5
C06D
  8
01
  6
BYBLOCK
 10
1138.9357082623239
 20
-1984.1840815987709
 30
0.0
 11
1138.2390403683239
 21
-1986.7840815987711
 31
0.0
  0
LINE
  5
C06E
  8
01
  6
BYBLOCK
 10
1138.2390403683239
 20
-1986.7840815987711
 30
0.0
 11
1137.5423724743241
 21
-1984.1840815987709
 31
0.0
  0
LINE
  5
C06F
  8
01
  6
BYBLOCK
 10
1138.2390403683239
 20
-1986.7840815987711
 30
0.0
 11
1138.2390403683239
 21
-1984.1840815987709
 31
0.0
  0
LINE
  5
C070
  8
01
  6
BYBLOCK
 10
1137.5423724743241
 20
-1915.8340815987719
 30
0.0
 11
1138.2390403683239
 21
-1913.234081598772
 31
0.0
  0
LINE
  5
C071
  8
01
  6
BYBLOCK
 10
1138.2390403683239
 20
-1913.234081598772
 30
0.0
 11
1138.9357082623239
 21
-1915.8340815987719
 31
0.0
  0
LINE
  5
C072
  8
01
  6
BYBLOCK
 10
1138.2390403683239
 20
-1913.234081598772
 30
0.0
 11
1138.2390403683239
 21
-1915.8340815987719
 31
0.0
  0
TEXT
  5
C073
  8
01
 10
1048.2776571663239
 20
-2149.5674149310762
 30
0.0
 40
4.5499999999999989
  1
74.5
 50
90.0
  0
LINE
  5
C074
  8
01
  6
BYBLOCK
 10
1049.884325060324
 20
-2176.6340815977428
 30
0.0
 11
1049.187657166324
 21
-2179.2340815977432
 31
0.0
  0
LINE
  5
C075
  8
01
  6
BYBLOCK
 10
1049.187657166324
 20
-2179.2340815977432
 30
0.0
 11
1048.490989272324
 21
-2176.6340815977428
 31
0.0
  0
LINE
  5
C076
  8
01
  6
BYBLOCK
 10
1049.187657166324
 20
-2179.2340815977432
 30
0.0
 11
1049.187657166324
 21
-2176.6340815977428
 31
0.0
  0
LINE
  5
C077
  8
01
  6
BYBLOCK
 10
1048.490989272324
 20
-2107.3340815977431
 30
0.0
 11
1049.187657166324
 21
-2104.7340815977432
 31
0.0
  0
LINE
  5
C078
  8
01
  6
BYBLOCK
 10
1049.187657166324
 20
-2104.7340815977432
 30
0.0
 11
1049.884325060324
 21
-2107.3340815977431
 31
0.0
  0
LINE
  5
C079
  8
01
  6
BYBLOCK
 10
1049.187657166324
 20
-2104.7340815977432
 30
0.0
 11
1049.187657166324
 21
-2107.3340815977431
 31
0.0
  0
TEXT
  5
C07A
  8
01
 10
1043.1389321080969
 20
-1900.8174149321039
 30
0.0
 40
4.5499999999999989
  1
20.5
 50
90.0
  0
LINE
  5
C07B
  8
01
  6
BYBLOCK
 10
1044.745600002097
 20
-1900.884081598771
 30
0.0
 11
1044.048932108097
 21
-1903.4840815987709
 31
0.0
  0
LINE
  5
C07C
  8
01
  6
BYBLOCK
 10
1044.048932108097
 20
-1903.4840815987709
 30
0.0
 11
1043.352264214097
 21
-1900.884081598771
 31
0.0
  0
LINE
  5
C07D
  8
01
  6
BYBLOCK
 10
1044.048932108097
 20
-1903.4840815987709
 30
0.0
 11
1044.048932108097
 21
-1900.884081598771
 31
0.0
  0
LINE
  5
C07E
  8
01
  6
BYBLOCK
 10
1043.352264214097
 20
-1885.584081598771
 30
0.0
 11
1044.048932108097
 21
-1882.9840815987709
 31
0.0
  0
LINE
  5
C07F
  8
01
  6
BYBLOCK
 10
1044.048932108097
 20
-1882.9840815987709
 30
0.0
 11
1044.745600002097
 21
-1885.584081598771
 31
0.0
  0
LINE
  5
C080
  8
01
  6
BYBLOCK
 10
1044.048932108097
 20
-1882.9840815987709
 30
0.0
 11
1044.048932108097
 21
-1885.584081598771
 31
0.0
  0
LINE
  5
C081
  8
01
 10
1001.876720294392
 20
-1932.729992757347
 30
0.0
 11
976.94081825934086
 21
-1952.144081598771
 31
0.0
1001
ACAD
1000
DSTYLE
1002
{
1070
    40
1040
1.3
1002
}
  0
LINE
  5
C082
  8
01
 10
976.94081825934086
 20
-1952.144081598771
 30
0.0
 11
973.43081825934087
 21
-1952.144081598771
 31
0.0
1001
ACAD
1000
DSTYLE
1002
{
1070
    40
1040
1.3
1002
}
  0
VIEWPORT
  5
57
 67
     1
  8
0
 10
10.29901980911961
 20
17.565658765306811
 30
0.0
 40
436.72180420489588
 41
283.67593299680851
 68
     1
 69
     1
1001
ACAD
1000
MVIEW
1002
{
1070
    16
1010
0.0
1020
0.0
1030
0.0
1010
0.0
1020
0.0
1030
1.0
1040
0.0
1040
283.67593299680851
1040
10.29901980911961
1040
17.565658765306811
1040
50.0
1040
0.0
1040
0.0
1070
     0
1070
   100
1070
     1
1070
     1
1070
     0
1070
     0
1070
     0
1070
     0
1040
0.0
1040
0.0
1040
0.0
1040
10.0
1040
10.0
1040
10.0
1040
10.0
1070
     0
1002
{
1002
}
1002
}
  0
ENDSEC
  0
EOF
