  0
SECTION
  2
HEADER
  9
$ACADVER
  1
AC1009
  9
$INSBASE
 10
0.0
 20
0.0
 30
0.0
  9
$EXTMIN
 10
548.73766516632213
 20
-2218.0700215977431
 30
0.0
  9
$EXTMAX
 10
1139.5390403683241
 20
-1806.4570144031391
 30
0.0
  9
$LIMMIN
 10
0.0
 20
0.0
  9
$LIMMAX
 10
420.0
 20
297.0
  9
$ORTHOMODE
 70
     0
  9
$REGENMODE
 70
     1
  9
$FILLMODE
 70
     1
  9
$QTEXTMODE
 70
     0
  9
$MIRRTEXT
 70
     0
  9
$DRAGMODE
 70
     2
  9
$LTSCALE
 40
0.5
  9
$OSMODE
 70
  2175
  9
$ATTMODE
 70
     1
  9
$TEXTSIZE
 40
4.0
  9
$TRACEWID
 40
1.0
  9
$TEXTSTYLE
  7
STANDARD
  9
$CLAYER
  8
1TEXT
  9
$CELTYPE
  6
BYLAYER
  9
$CECOLOR
 62
   256
  9
$DIMSCALE
 40
1.0
  9
$DIMASZ
 40
2.0
  9
$DIMEXO
 40
0.0
  9
$DIMDLI
 40
7.0
  9
$DIMRND
 40
0.0
  9
$DIMDLE
 40
0.0
  9
$DIMEXE
 40
1.0
  9
$DIMTP
 40
0.0
  9
$DIMTM
 40
0.0
  9
$DIMTXT
 40
3.5
  9
$DIMCEN
 40
0.0
  9
$DIMTSZ
 40
0.0
  9
$DIMTOL
 70
     0
  9
$DIMLIM
 70
     0
  9
$DIMTIH
 70
     0
  9
$DIMTOH
 70
     0
  9
$DIMSE1
 70
     0
  9
$DIMSE2
 70
     0
  9
$DIMTAD
 70
     1
  9
$DIMZIN
 70
     8
  9
$DIMBLK
  1

  9
$DIMASO
 70
     1
  9
$DIMSHO
 70
     1
  9
$DIMPOST
  1
 
  9
$DIMAPOST
  1

  9
$DIMALT
 70
     0
  9
$DIMALTD
 70
     2
  9
$DIMALTF
 40
25.399999999999999
  9
$DIMLFAC
 40
1.0
  9
$DIMTOFL
 70
     1
  9
$DIMTVP
 40
0.0
  9
$DIMTIX
 70
     0
  9
$DIMSOXD
 70
     0
  9
$DIMSAH
 70
     1
  9
$DIMBLK1
  1
OPEN30
  9
$DIMBLK2
  1
OPEN30
  9
$DIMSTYLE
  2
NEWX10
  9
$DIMCLRD
 70
   256
  9
$DIMCLRE
 70
   256
  9
$DIMCLRT
 70
   201
  9
$DIMTFAC
 40
0.7
  9
$DIMGAP
 40
0.7
  9
$LUNITS
 70
     2
  9
$LUPREC
 70
     4
  9
$SKETCHINC
 40
1.0
  9
$FILLETRAD
 40
0.0
  9
$AUNITS
 70
     0
  9
$AUPREC
 70
     2
  9
$MENU
  1
acad
  9
$ELEVATION
 40
0.0
  9
$PELEVATION
 40
0.0
  9
$THICKNESS
 40
0.0
  9
$LIMCHECK
 70
     0
  9
$BLIPMODE
 70
     0
  9
$CHAMFERA
 40
10.0
  9
$CHAMFERB
 40
10.0
  9
$SKPOLY
 70
     0
  9
$TDCREATE
 40
2451318.621352917
  9
$TDUPDATE
 40
2456016.8272818979
  9
$TDINDWG
 40
0.4739730903
  9
$TDUSRTIMER
 40
0.4739730903
  9
$USRTIMER
 70
     1
  9
$ANGBASE
 50
0.0
  9
$ANGDIR
 70
     0
  9
$PDMODE
 70
     0
  9
$PDSIZE
 40
0.0
  9
$PLINEWID
 40
0.0
  9
$COORDS
 70
     2
  9
$SPLFRAME
 70
     0
  9
$SPLINETYPE
 70
     6
  9
$SPLINESEGS
 70
     8
  9
$ATTDIA
 70
     0
  9
$ATTREQ
 70
     1
  9
$HANDLING
 70
     1
  9
$HANDSEED
  5
C790
  9
$SURFTAB1
 70
     6
  9
$SURFTAB2
 70
     6
  9
$SURFTYPE
 70
     6
  9
$SURFU
 70
     6
  9
$SURFV
 70
     6
  9
$UCSNAME
  2

  9
$UCSORG
 10
0.0
 20
0.0
 30
0.0
  9
$UCSXDIR
 10
1.0
 20
0.0
 30
0.0
  9
$UCSYDIR
 10
0.0
 20
1.0
 30
0.0
  9
$PUCSNAME
  2

  9
$PUCSORG
 10
0.0
 20
0.0
 30
0.0
  9
$PUCSXDIR
 10
1.0
 20
0.0
 30
0.0
  9
$PUCSYDIR
 10
0.0
 20
1.0
 30
0.0
  9
$USERI1
 70
     0
  9
$USERI2
 70
     0
  9
$USERI3
 70
     0
  9
$USERI4
 70
     0
  9
$USERI5
 70
     0
  9
$USERR1
 40
0.0
  9
$USERR2
 40
0.0
  9
$USERR3
 40
0.0
  9
$USERR4
 40
0.0
  9
$USERR5
 40
0.0
  9
$WORLDVIEW
 70
     1
  9
$SHADEDGE
 70
     3
  9
$SHADEDIF
 70
    70
  9
$TILEMODE
 70
     1
  9
$MAXACTVP
 70
    48
  9
$PLIMCHECK
 70
     0
  9
$PEXTMIN
 10
1.0000000000000000E+020
 20
1.0000000000000000E+020
 30
1.0000000000000000E+020
  9
$PEXTMAX
 10
-1.0000000000000000E+020
 20
-1.0000000000000000E+020
 30
-1.0000000000000000E+020
  9
$PLIMMIN
 10
0.0
 20
0.0
  9
$PLIMMAX
 10
420.0
 20
297.0
  9
$UNITMODE
 70
     0
  9
$VISRETAIN
 70
     1
  9
$PLINEGEN
 70
     0
  9
$PSLTSCALE
 70
     1
  0
ENDSEC
  0
SECTION
  2
TABLES
  0
TABLE
  2
VPORT
 70
     1
  0
VPORT
  2
*ACTIVE
 70
     0
 10
0.0
 20
0.0
 11
1.0
 21
1.0
 12
844.15193979820197
 22
-2012.2545792552421
 13
0.0
 23
0.0
 14
10.0
 24
10.0
 15
10.0
 25
10.0
 16
0.0
 26
0.0
 36
1.0
 17
0.0
 27
0.0
 37
0.0
 40
436.99566927737618
 41
1.5395095367847409
 42
50.0
 43
0.0
 44
0.0
 50
0.0
 51
0.0
 71
     0
 72
   100
 73
     1
 74
     1
 75
     0
 76
     0
 77
     0
 78
     0
  0
ENDTAB
  0
TABLE
  2
LTYPE
 70
    12
  0
LTYPE
  2
CONTINUOUS
 70
     0
  3
Solid line
 72
    65
 73
     0
 40
0.0
  0
LTYPE
  2
XREF1|CENTER2
 70
    48
  3
Center (.5x) ___ _ ___ _ ___ _ ___ _ ___ _ ___
 72
    65
 73
     4
 40
28.574999999999999
 49
19.050000000000001
 49
-3.1749999999999989
 49
3.1749999999999989
 49
-3.1749999999999989
  0
LTYPE
  2
A3WAKUDAKE|CENTER2
 70
    48
  3
Center (.5x) ___ _ ___ _ ___ _ ___ _ ___ _ ___
 72
    65
 73
     4
 40
28.574999999999999
 49
19.050000000000001
 49
-3.1749999999999989
 49
3.1749999999999989
 49
-3.1749999999999989
  0
ENDTAB
  0
TABLE
  2
LAYER
 70
    37
  0
LAYER
  2
0
 70
     0
 62
     7
  6
CONTINUOUS
  0
LAYER
  2
1TEXT
 70
     0
 62
     7
  6
CONTINUOUS
  0
LAYER
  2
01
 70
     0
 62
     1
  6
CONTINUOUS
  0
LAYER
  2
A3WAKUDAKE|THICK
 70
    48
 62
     7
  6
CONTINUOUS
  0
LAYER
  2
A3WAKUDAKE|POINT
 70
    48
 62
     7
  6
CONTINUOUS
  0
LAYER
  2
A3WAKUDAKE|1CENTER
 70
    48
 62
     7
  6
A3WAKUDAKE|CENTER2
  0
LAYER
  2
A3WAKUDAKE|0-6
 70
    48
 62
     7
  6
CONTINUOUS
  0
LAYER
  2
A3WAKUDAKE|1DIM
 70
    48
 62
     7
  6
CONTINUOUS
  0
LAYER
  2
XREF1|1CENTER
 70
    48
 62
     7
  6
XREF1|CENTER2
  0
ENDTAB
  0
TABLE
  2
STYLE
 70
     4
  0
STYLE
  2
STANDARD
 70
     0
 40
0.0
 41
1.0
 50
0.0
 71
     0
 42
4.0
  3
romans.shx
  4
extfont.shx
  0
ENDTAB
  0
TABLE
  2
VIEW
 70
     5
  0
ENDTAB
  0
TABLE
  2
UCS
 70
     0
  0
ENDTAB
  0
TABLE
  2
APPID
 70
     9
  0
APPID
  2
ACAD
 70
     0
  0
APPID
  2
DRAWINGVARIABLESXDATA
 70
     0
  0
APPID
  2
CONTENTTABDATA
 70
     0
  0
APPID
  2
CONTENTCURRENTTAB
 70
     0
  0
APPID
  2
CONTENTBLOCKDESCRIPTION
 70
     0
  0
APPID
  2
CONTENTBLOCKICON
 70
     0
  0
APPID
  2
CONTENTLONGBLOCKNAME
 70
     0
  0
APPID
  2
ACAD_PSEXT
 70
     0
  0
APPID
  2
ACAD_MLEADERVER
 70
     0
  0
ENDTAB
  0
TABLE
  2
DIMSTYLE
 70
     5
  0
DIMSTYLE
  2
NEWX10
 70
     0
  3
 
  4

  5

  6
OPEN30
  7
OPEN30
 40
1.0
 41
2.0
 42
0.0
 43
7.0
 44
1.0
 45
0.0
 46
0.0
 47
0.0
 48
0.0
140
3.5
141
0.0
142
0.0
143
25.399999999999999
144
1.0
145
0.0
146
0.7
147
0.7
 71
     0
 72
     0
 73
     0
 74
     0
 75
     0
 76
     0
 77
     1
 78
     8
170
     0
171
     2
172
     1
173
     1
174
     0
175
     0
176
   256
177
   256
178
   201
  0
ENDTAB
  0
ENDSEC
  0
SECTION
  2
BLOCKS
  0
BLOCK
  8
0
  2
$MODEL_SPACE
 70
     0
 10
0.0
 20
0.0
 30
0.0
  3
$MODEL_SPACE
  1

  0
ENDBLK
  5
1A
  8
0
  0
BLOCK
 67
     1
  8
0
  2
$PAPER_SPACE
 70
     0
 10
0.0
 20
0.0
 30
0.0
  3
$PAPER_SPACE
  1

  0
ENDBLK
  5
17
 67
     1
  8
0
  0
BLOCK
  8
0
  2
_OPEN30
 70
     0
 10
0.0
 20
0.0
 30
0.0
  3
_OPEN30
  1

  0
LINE
  5
44
  8
0
  6
BYBLOCK
 62
     0
 10
-1.0
 20
0.26794919
 30
0.0
 11
0.0
 21
0.0
 31
0.0
  0
LINE
  5
45
  8
0
  6
BYBLOCK
 62
     0
 10
0.0
 20
0.0
 30
0.0
 11
-1.0
 21
-0.26794919
 31
0.0
  0
LINE
  5
46
  8
0
  6
BYBLOCK
 62
     0
 10
0.0
 20
0.0
 30
0.0
 11
-1.0
 21
0.0
 31
0.0
  0
ENDBLK
  5
47
  8
0
  0
BLOCK
  8
0
  2
XREF1
 70
    36
 10
0.0
 20
0.0
 30
0.0
  3
XREF1
  1
D:\ACLT\FORMAT\KAWAJUN(9)図面用.dwg
  0
ENDBLK
  5
5D
  8
0
  0
BLOCK
  8
0
  2
A3WAKUDAKE
 70
    36
 10
0.0
 20
0.0
 30
0.0
  3
A3WAKUDAKE
  1
D:\ACLT\FORMAT\A3WAKUdake.dwg
  0
ENDBLK
  5
6A0
  8
0
  0
BLOCK
  8
0
  2
*U27
 70
     1
 10
0.0
 20
0.0
 30
0.0
  3
*U27
  1

  0
TEXT
  5
C67F
  8
1TEXT
 62
   201
 10
1043.348932108097
 20
-1895.5674149321039
 30
0.0
 40
3.5
  1
20.5
 50
90.0
  0
ENDBLK
  5
C681
  8
0
  0
BLOCK
  8
0
  2
*U28
 70
     1
 10
0.0
 20
0.0
 30
0.0
  3
*U28
  1

  0
TEXT
  5
C683
  8
1TEXT
 62
   201
 10
1043.1389401080969
 20
-397.31741493210592
 30
0.0
 40
4.5499999999999989
  1
20.5
 50
90.0
  0
ENDBLK
  5
C685
  8
0
  0
ENDSEC
  0
SECTION
  2
ENTITIES
  0
CIRCLE
  5
2931
  8
01
 10
1004.187665166324
 20
-2107.7340815977441
 30
0.0
 40
19.799999
  0
TEXT
  5
B5E5
  8
01
 10
656.00427030689082
 20
-1873.808422393867
 30
0.0
 40
20.0
  1
3-S2C-X-LW
  0
LINE
  5
B5E7
  8
01
 10
656.00427030689082
 20
-1935.308422393867
 30
0.0
 11
761.0042703068907
 21
-1935.308422393867
 31
0.0
  0
TEXT
  5
B5E9
  8
01
 10
668.50427030689025
 20
-1912.058422393867
 30
0.0
 40
6.0
  1
表面処理
 72
     1
 11
682.10427030689016
 21
-1912.058422393867
 31
0.0
  0
LINE
  5
B5EB
  8
01
 10
656.00427030689082
 20
-1903.808422393867
 30
0.0
 11
761.0042703068907
 21
-1903.808422393867
 31
0.0
  0
LINE
  5
B5EC
  8
01
 10
656.00427030689082
 20
-1914.308422393867
 30
0.0
 11
761.0042703068907
 21
-1914.308422393867
 31
0.0
  0
LINE
  5
B5ED
  8
01
 10
656.00427030689082
 20
-1924.808422393867
 30
0.0
 11
761.0042703068907
 21
-1924.808422393867
 31
0.0
  0
LINE
  5
B5EE
  8
01
 10
656.00427030689082
 20
-1924.808422393867
 30
0.0
 11
761.0042703068907
 21
-1924.808422393867
 31
0.0
  0
LINE
  5
B5EF
  8
01
 10
708.50427030689082
 20
-1903.808422393867
 30
0.0
 11
708.50427030689082
 21
-1945.808422393867
 31
0.0
  0
TEXT
  5
B5F0
  8
01
 10
712.40427030689159
 20
-1922.879957869342
 30
0.0
 40
6.0
  1
3-S2C-P-LW
 41
0.7
 72
     1
 11
734.60427030689164
 21
-1922.879957869342
 31
0.0
  0
TEXT
  5
B5F1
  8
01
 10
724.40427030689023
 20
-1912.058422393867
 30
0.0
 40
6.0
  1
コード
 72
     1
 11
734.60427030689027
 21
-1912.058422393867
 31
0.0
  0
LINE
  5
B5F2
  8
01
 10
656.00427030689082
 20
-1945.808422393867
 30
0.0
 11
761.0042703068907
 21
-1945.808422393867
 31
0.0
  0
LINE
  5
B5F4
  8
01
 10
656.00427030689082
 20
-1945.808422393867
 30
0.0
 11
656.00427030689082
 21
-1903.808422393867
 31
0.0
  0
LINE
  5
B5F5
  8
01
 10
761.0042703068907
 20
-1945.808422393867
 30
0.0
 11
761.0042703068907
 21
-1903.808422393867
 31
0.0
  0
TEXT
  5
B5F6
  8
01
 10
712.90427030689159
 20
-1933.379957869342
 30
0.0
 40
6.0
  1
3-S2C-T-LW
 41
0.7
 72
     1
 11
734.60427030689164
 21
-1933.379957869342
 31
0.0
  0
TEXT
  5
B5F7
  8
01
 10
710.80427030689168
 20
-1943.8799578693411
 30
0.0
 40
6.0
  1
3-S2C-PT-LW
 41
0.7
 72
     1
 11
734.60427030689164
 21
-1943.8799578693411
 31
0.0
  0
LINE
  5
B83F
  8
01
 10
854.18766116632366
 20
-2070.736701597742
 30
0.0
 11
854.18766116632366
 21
-2218.0700215977431
 31
0.0
  0
LINE
  5
B840
  8
01
 10
814.18766116632366
 20
-2070.736701597742
 30
0.0
 11
814.18766116632366
 21
-2218.0700215977431
 31
0.0
  0
LINE
  5
B841
  8
01
 10
712.78766716632435
 20
-2077.2340815977432
 30
0.0
 11
712.78766716632435
 21
-2100.334051597742
 31
0.0
  0
LINE
  5
B842
  8
01
 10
711.18766116632366
 20
-2077.2340815977432
 30
0.0
 11
711.18766116632366
 21
-2100.2340815977432
 31
0.0
  0
LINE
  5
B843
  8
01
 10
713.58767016632464
 20
-2077.2340815977432
 30
0.0
 11
713.58767016632464
 21
-2207.2340815977432
 31
0.0
  0
LINE
  5
B844
  8
01
 10
715.18766116632366
 20
-2077.2340815977432
 30
0.0
 11
715.18766116632366
 21
-2207.2340815977432
 31
0.0
  0
LINE
  5
B846
  8
01
 10
712.18766116632366
 20
-2179.2340815977432
 30
0.0
 11
683.39703787862288
 21
-2179.2340815977432
 31
0.0
  0
LINE
  5
B847
  8
01
 10
646.18767716632374
 20
-2115.9827590917198
 30
0.0
 11
646.18767716632374
 21
-2145.884717574821
 31
0.0
  0
LINE
  5
B848
  8
01
 10
721.18766116632185
 20
-2131.2340815977432
 30
0.0
 11
715.18766116632366
 21
-2131.2340815977432
 31
0.0
  0
LINE
  5
B849
  8
01
 10
726.18766116632378
 20
-2136.2340815977432
 30
0.0
 11
716.18766116632366
 21
-2136.2340815977432
 31
0.0
  0
POLYLINE
  5
B84A
  8
01
 10
726.18766116632366
 20
-2134.8025015977419
 30
0.0
 66
     1
 70
     8
  0
VERTEX
  8
01
  5
C68C
 10
726.188
 20
-2134.80
 30
0.000000
  70
    32
  0
VERTEX
  8
01
  5
C68D
 10
726.186
 20
-2134.71
 30
0.000000
  70
    32
  0
VERTEX
  8
01
  5
C68E
 10
726.182
 20
-2134.63
 30
0.000000
  70
    32
  0
VERTEX
  8
01
  5
C68F
 10
726.174
 20
-2134.54
 30
0.000000
  70
    32
  0
VERTEX
  8
01
  5
C690
 10
726.164
 20
-2134.45
 30
0.000000
  70
    32
  0
VERTEX
  8
01
  5
C691
 10
726.150
 20
-2134.37
 30
0.000000
  70
    32
  0
VERTEX
  8
01
  5
C692
 10
726.134
 20
-2134.28
 30
0.000000
  70
    32
  0
VERTEX
  8
01
  5
C693
 10
726.114
 20
-2134.19
 30
0.000000
  70
    32
  0
VERTEX
  8
01
  5
C694
 10
726.092
 20
-2134.11
 30
0.000000
  70
    32
  0
VERTEX
  8
01
  5
C695
 10
726.066
 20
-2134.02
 30
0.000000
  70
    32
  0
VERTEX
  8
01
  5
C696
 10
726.038
 20
-2133.94
 30
0.000000
  70
    32
  0
VERTEX
  8
01
  5
C697
 10
726.007
 20
-2133.85
 30
0.000000
  70
    32
  0
VERTEX
  8
01
  5
C698
 10
725.972
 20
-2133.77
 30
0.000000
  70
    32
  0
VERTEX
  8
01
  5
C699
 10
725.935
 20
-2133.68
 30
0.000000
  70
    32
  0
VERTEX
  8
01
  5
C69A
 10
725.895
 20
-2133.60
 30
0.000000
  70
    32
  0
VERTEX
  8
01
  5
C69B
 10
725.853
 20
-2133.52
 30
0.000000
  70
    32
  0
VERTEX
  8
01
  5
C69C
 10
725.807
 20
-2133.44
 30
0.000000
  70
    32
  0
VERTEX
  8
01
  5
C69D
 10
725.759
 20
-2133.36
 30
0.000000
  70
    32
  0
VERTEX
  8
01
  5
C69E
 10
725.708
 20
-2133.28
 30
0.000000
  70
    32
  0
VERTEX
  8
01
  5
C69F
 10
725.654
 20
-2133.20
 30
0.000000
  70
    32
  0
VERTEX
  8
01
  5
C6A0
 10
725.597
 20
-2133.12
 30
0.000000
  70
    32
  0
VERTEX
  8
01
  5
C6A1
 10
725.538
 20
-2133.04
 30
0.000000
  70
    32
  0
VERTEX
  8
01
  5
C6A2
 10
725.476
 20
-2132.97
 30
0.000000
  70
    32
  0
VERTEX
  8
01
  5
C6A3
 10
725.412
 20
-2132.89
 30
0.000000
  70
    32
  0
VERTEX
  8
01
  5
C6A4
 10
725.345
 20
-2132.82
 30
0.000000
  70
    32
  0
VERTEX
  8
01
  5
C6A5
 10
725.276
 20
-2132.75
 30
0.000000
  70
    32
  0
VERTEX
  8
01
  5
C6A6
 10
725.204
 20
-2132.68
 30
0.000000
  70
    32
  0
VERTEX
  8
01
  5
C6A7
 10
725.129
 20
-2132.61
 30
0.000000
  70
    32
  0
VERTEX
  8
01
  5
C6A8
 10
725.053
 20
-2132.54
 30
0.000000
  70
    32
  0
VERTEX
  8
01
  5
C6A9
 10
724.974
 20
-2132.47
 30
0.000000
  70
    32
  0
VERTEX
  8
01
  5
C6AA
 10
724.892
 20
-2132.41
 30
0.000000
  70
    32
  0
VERTEX
  8
01
  5
C6AB
 10
724.809
 20
-2132.34
 30
0.000000
  70
    32
  0
VERTEX
  8
01
  5
C6AC
 10
724.723
 20
-2132.28
 30
0.000000
  70
    32
  0
VERTEX
  8
01
  5
C6AD
 10
724.635
 20
-2132.22
 30
0.000000
  70
    32
  0
VERTEX
  8
01
  5
C6AE
 10
724.545
 20
-2132.16
 30
0.000000
  70
    32
  0
VERTEX
  8
01
  5
C6AF
 10
724.454
 20
-2132.10
 30
0.000000
  70
    32
  0
VERTEX
  8
01
  5
C6B0
 10
724.360
 20
-2132.04
 30
0.000000
  70
    32
  0
VERTEX
  8
01
  5
C6B1
 10
724.264
 20
-2131.99
 30
0.000000
  70
    32
  0
VERTEX
  8
01
  5
C6B2
 10
724.166
 20
-2131.94
 30
0.000000
  70
    32
  0
VERTEX
  8
01
  5
C6B3
 10
724.067
 20
-2131.89
 30
0.000000
  70
    32
  0
VERTEX
  8
01
  5
C6B4
 10
723.966
 20
-2131.84
 30
0.000000
  70
    32
  0
VERTEX
  8
01
  5
C6B5
 10
723.863
 20
-2131.79
 30
0.000000
  70
    32
  0
VERTEX
  8
01
  5
C6B6
 10
723.758
 20
-2131.74
 30
0.000000
  70
    32
  0
VERTEX
  8
01
  5
C6B7
 10
723.652
 20
-2131.70
 30
0.000000
  70
    32
  0
VERTEX
  8
01
  5
C6B8
 10
723.545
 20
-2131.66
 30
0.000000
  70
    32
  0
VERTEX
  8
01
  5
C6B9
 10
723.436
 20
-2131.62
 30
0.000000
  70
    32
  0
VERTEX
  8
01
  5
C6BA
 10
723.325
 20
-2131.58
 30
0.000000
  70
    32
  0
VERTEX
  8
01
  5
C6BB
 10
723.214
 20
-2131.54
 30
0.000000
  70
    32
  0
VERTEX
  8
01
  5
C6BC
 10
723.101
 20
-2131.51
 30
0.000000
  70
    32
  0
VERTEX
  8
01
  5
C6BD
 10
722.987
 20
-2131.47
 30
0.000000
  70
    32
  0
VERTEX
  8
01
  5
C6BE
 10
722.872
 20
-2131.44
 30
0.000000
  70
    32
  0
VERTEX
  8
01
  5
C6BF
 10
722.756
 20
-2131.41
 30
0.000000
  70
    32
  0
VERTEX
  8
01
  5
C6C0
 10
722.639
 20
-2131.39
 30
0.000000
  70
    32
  0
VERTEX
  8
01
  5
C6C1
 10
722.521
 20
-2131.36
 30
0.000000
  70
    32
  0
VERTEX
  8
01
  5
C6C2
 10
722.403
 20
-2131.34
 30
0.000000
  70
    32
  0
VERTEX
  8
01
  5
C6C3
 10
722.283
 20
-2131.32
 30
0.000000
  70
    32
  0
VERTEX
  8
01
  5
C6C4
 10
722.163
 20
-2131.30
 30
0.000000
  70
    32
  0
VERTEX
  8
01
  5
C6C5
 10
722.042
 20
-2131.29
 30
0.000000
  70
    32
  0
VERTEX
  8
01
  5
C6C6
 10
721.921
 20
-2131.27
 30
0.000000
  70
    32
  0
VERTEX
  8
01
  5
C6C7
 10
721.800
 20
-2131.26
 30
0.000000
  70
    32
  0
VERTEX
  8
01
  5
C6C8
 10
721.678
 20
-2131.25
 30
0.000000
  70
    32
  0
VERTEX
  8
01
  5
C6C9
 10
721.555
 20
-2131.24
 30
0.000000
  70
    32
  0
VERTEX
  8
01
  5
C6CA
 10
721.433
 20
-2131.24
 30
0.000000
  70
    32
  0
VERTEX
  8
01
  5
C6CB
 10
721.310
 20
-2131.24
 30
0.000000
  70
    32
  0
VERTEX
  8
01
  5
C6CC
 10
721.188
 20
-2131.23
 30
0.000000
  70
    32
  0
VERTEX
  8
01
  5
C6CD
 10
721.065
 20
-2131.24
 30
0.000000
  70
    32
  0
VERTEX
  8
01
  5
C6CE
 10
720.942
 20
-2131.24
 30
0.000000
  70
    32
  0
VERTEX
  8
01
  5
C6CF
 10
720.820
 20
-2131.24
 30
0.000000
  70
    32
  0
VERTEX
  8
01
  5
C6D0
 10
720.698
 20
-2131.25
 30
0.000000
  70
    32
  0
VERTEX
  8
01
  5
C6D1
 10
720.576
 20
-2131.26
 30
0.000000
  70
    32
  0
VERTEX
  8
01
  5
C6D2
 10
720.454
 20
-2131.27
 30
0.000000
  70
    32
  0
VERTEX
  8
01
  5
C6D3
 10
720.333
 20
-2131.29
 30
0.000000
  70
    32
  0
VERTEX
  8
01
  5
C6D4
 10
720.212
 20
-2131.30
 30
0.000000
  70
    32
  0
VERTEX
  8
01
  5
C6D5
 10
720.092
 20
-2131.32
 30
0.000000
  70
    32
  0
VERTEX
  8
01
  5
C6D6
 10
719.973
 20
-2131.34
 30
0.000000
  70
    32
  0
VERTEX
  8
01
  5
C6D7
 10
719.854
 20
-2131.36
 30
0.000000
  70
    32
  0
VERTEX
  8
01
  5
C6D8
 10
719.736
 20
-2131.39
 30
0.000000
  70
    32
  0
VERTEX
  8
01
  5
C6D9
 10
719.619
 20
-2131.41
 30
0.000000
  70
    32
  0
VERTEX
  8
01
  5
C6DA
 10
719.503
 20
-2131.44
 30
0.000000
  70
    32
  0
VERTEX
  8
01
  5
C6DB
 10
719.388
 20
-2131.47
 30
0.000000
  70
    32
  0
VERTEX
  8
01
  5
C6DC
 10
719.274
 20
-2131.51
 30
0.000000
  70
    32
  0
VERTEX
  8
01
  5
C6DD
 10
719.161
 20
-2131.54
 30
0.000000
  70
    32
  0
VERTEX
  8
01
  5
C6DE
 10
719.050
 20
-2131.58
 30
0.000000
  70
    32
  0
VERTEX
  8
01
  5
C6DF
 10
718.940
 20
-2131.62
 30
0.000000
  70
    32
  0
VERTEX
  8
01
  5
C6E0
 10
718.831
 20
-2131.66
 30
0.000000
  70
    32
  0
VERTEX
  8
01
  5
C6E1
 10
718.723
 20
-2131.70
 30
0.000000
  70
    32
  0
VERTEX
  8
01
  5
C6E2
 10
718.617
 20
-2131.74
 30
0.000000
  70
    32
  0
VERTEX
  8
01
  5
C6E3
 10
718.513
 20
-2131.79
 30
0.000000
  70
    32
  0
VERTEX
  8
01
  5
C6E4
 10
718.410
 20
-2131.84
 30
0.000000
  70
    32
  0
VERTEX
  8
01
  5
C6E5
 10
718.309
 20
-2131.89
 30
0.000000
  70
    32
  0
VERTEX
  8
01
  5
C6E6
 10
718.209
 20
-2131.94
 30
0.000000
  70
    32
  0
VERTEX
  8
01
  5
C6E7
 10
718.112
 20
-2131.99
 30
0.000000
  70
    32
  0
VERTEX
  8
01
  5
C6E8
 10
718.016
 20
-2132.04
 30
0.000000
  70
    32
  0
VERTEX
  8
01
  5
C6E9
 10
717.922
 20
-2132.10
 30
0.000000
  70
    32
  0
VERTEX
  8
01
  5
C6EA
 10
717.830
 20
-2132.16
 30
0.000000
  70
    32
  0
VERTEX
  8
01
  5
C6EB
 10
717.740
 20
-2132.22
 30
0.000000
  70
    32
  0
VERTEX
  8
01
  5
C6EC
 10
717.652
 20
-2132.28
 30
0.000000
  70
    32
  0
VERTEX
  8
01
  5
C6ED
 10
717.566
 20
-2132.34
 30
0.000000
  70
    32
  0
VERTEX
  8
01
  5
C6EE
 10
717.483
 20
-2132.41
 30
0.000000
  70
    32
  0
VERTEX
  8
01
  5
C6EF
 10
717.402
 20
-2132.47
 30
0.000000
  70
    32
  0
VERTEX
  8
01
  5
C6F0
 10
717.323
 20
-2132.54
 30
0.000000
  70
    32
  0
VERTEX
  8
01
  5
C6F1
 10
717.246
 20
-2132.61
 30
0.000000
  70
    32
  0
VERTEX
  8
01
  5
C6F2
 10
717.172
 20
-2132.68
 30
0.000000
  70
    32
  0
VERTEX
  8
01
  5
C6F3
 10
717.100
 20
-2132.75
 30
0.000000
  70
    32
  0
VERTEX
  8
01
  5
C6F4
 10
717.030
 20
-2132.82
 30
0.000000
  70
    32
  0
VERTEX
  8
01
  5
C6F5
 10
716.963
 20
-2132.89
 30
0.000000
  70
    32
  0
VERTEX
  8
01
  5
C6F6
 10
716.899
 20
-2132.97
 30
0.000000
  70
    32
  0
VERTEX
  8
01
  5
C6F7
 10
716.837
 20
-2133.04
 30
0.000000
  70
    32
  0
VERTEX
  8
01
  5
C6F8
 10
716.778
 20
-2133.12
 30
0.000000
  70
    32
  0
VERTEX
  8
01
  5
C6F9
 10
716.722
 20
-2133.20
 30
0.000000
  70
    32
  0
VERTEX
  8
01
  5
C6FA
 10
716.668
 20
-2133.28
 30
0.000000
  70
    32
  0
VERTEX
  8
01
  5
C6FB
 10
716.617
 20
-2133.36
 30
0.000000
  70
    32
  0
VERTEX
  8
01
  5
C6FC
 10
716.568
 20
-2133.44
 30
0.000000
  70
    32
  0
VERTEX
  8
01
  5
C6FD
 10
716.523
 20
-2133.52
 30
0.000000
  70
    32
  0
VERTEX
  8
01
  5
C6FE
 10
716.480
 20
-2133.60
 30
0.000000
  70
    32
  0
VERTEX
  8
01
  5
C6FF
 10
716.440
 20
-2133.68
 30
0.000000
  70
    32
  0
VERTEX
  8
01
  5
C700
 10
716.403
 20
-2133.77
 30
0.000000
  70
    32
  0
VERTEX
  8
01
  5
C701
 10
716.369
 20
-2133.85
 30
0.000000
  70
    32
  0
VERTEX
  8
01
  5
C702
 10
716.338
 20
-2133.94
 30
0.000000
  70
    32
  0
VERTEX
  8
01
  5
C703
 10
716.309
 20
-2134.02
 30
0.000000
  70
    32
  0
VERTEX
  8
01
  5
C704
 10
716.284
 20
-2134.11
 30
0.000000
  70
    32
  0
VERTEX
  8
01
  5
C705
 10
716.261
 20
-2134.19
 30
0.000000
  70
    32
  0
VERTEX
  8
01
  5
C706
 10
716.242
 20
-2134.28
 30
0.000000
  70
    32
  0
VERTEX
  8
01
  5
C707
 10
716.225
 20
-2134.37
 30
0.000000
  70
    32
  0
VERTEX
  8
01
  5
C708
 10
716.212
 20
-2134.45
 30
0.000000
  70
    32
  0
VERTEX
  8
01
  5
C709
 10
716.201
 20
-2134.54
 30
0.000000
  70
    32
  0
VERTEX
  8
01
  5
C70A
 10
716.194
 20
-2134.63
 30
0.000000
  70
    32
  0
VERTEX
  8
01
  5
C70B
 10
716.189
 20
-2134.71
 30
0.000000
  70
    32
  0
VERTEX
  8
01
  5
C70C
 10
716.188
 20
-2134.80
 30
0.000000
  70
    32
  0
SEQEND
  8
01
  5
C70D
  0
LINE
  5
B84B
  8
01
 10
721.18766116632366
 20
-2151.2340815977432
 30
0.0
 11
715.18766116632366
 21
-2151.2340815977432
 31
0.0
  0
LINE
  5
B84C
  8
01
 10
726.18766116632378
 20
-2146.2340815977432
 30
0.0
 11
716.18766116632366
 21
-2146.2340815977432
 31
0.0
  0
POLYLINE
  5
B84D
  8
01
 10
726.18766116632366
 20
-2147.6656615977422
 30
0.0
 66
     1
 70
     8
  0
VERTEX
  8
01
  5
C70E
 10
726.188
 20
-2147.67
 30
0.000000
  70
    32
  0
VERTEX
  8
01
  5
C70F
 10
726.186
 20
-2147.75
 30
0.000000
  70
    32
  0
VERTEX
  8
01
  5
C710
 10
726.182
 20
-2147.84
 30
0.000000
  70
    32
  0
VERTEX
  8
01
  5
C711
 10
726.174
 20
-2147.93
 30
0.000000
  70
    32
  0
VERTEX
  8
01
  5
C712
 10
726.164
 20
-2148.02
 30
0.000000
  70
    32
  0
VERTEX
  8
01
  5
C713
 10
726.150
 20
-2148.10
 30
0.000000
  70
    32
  0
VERTEX
  8
01
  5
C714
 10
726.134
 20
-2148.19
 30
0.000000
  70
    32
  0
VERTEX
  8
01
  5
C715
 10
726.114
 20
-2148.28
 30
0.000000
  70
    32
  0
VERTEX
  8
01
  5
C716
 10
726.092
 20
-2148.36
 30
0.000000
  70
    32
  0
VERTEX
  8
01
  5
C717
 10
726.066
 20
-2148.45
 30
0.000000
  70
    32
  0
VERTEX
  8
01
  5
C718
 10
726.038
 20
-2148.53
 30
0.000000
  70
    32
  0
VERTEX
  8
01
  5
C719
 10
726.007
 20
-2148.62
 30
0.000000
  70
    32
  0
VERTEX
  8
01
  5
C71A
 10
725.972
 20
-2148.70
 30
0.000000
  70
    32
  0
VERTEX
  8
01
  5
C71B
 10
725.935
 20
-2148.79
 30
0.000000
  70
    32
  0
VERTEX
  8
01
  5
C71C
 10
725.895
 20
-2148.87
 30
0.000000
  70
    32
  0
VERTEX
  8
01
  5
C71D
 10
725.853
 20
-2148.95
 30
0.000000
  70
    32
  0
VERTEX
  8
01
  5
C71E
 10
725.807
 20
-2149.03
 30
0.000000
  70
    32
  0
VERTEX
  8
01
  5
C71F
 10
725.759
 20
-2149.11
 30
0.000000
  70
    32
  0
VERTEX
  8
01
  5
C720
 10
725.708
 20
-2149.19
 30
0.000000
  70
    32
  0
VERTEX
  8
01
  5
C721
 10
725.654
 20
-2149.27
 30
0.000000
  70
    32
  0
VERTEX
  8
01
  5
C722
 10
725.597
 20
-2149.35
 30
0.000000
  70
    32
  0
VERTEX
  8
01
  5
C723
 10
725.538
 20
-2149.42
 30
0.000000
  70
    32
  0
VERTEX
  8
01
  5
C724
 10
725.476
 20
-2149.50
 30
0.000000
  70
    32
  0
VERTEX
  8
01
  5
C725
 10
725.412
 20
-2149.57
 30
0.000000
  70
    32
  0
VERTEX
  8
01
  5
C726
 10
725.345
 20
-2149.65
 30
0.000000
  70
    32
  0
VERTEX
  8
01
  5
C727
 10
725.276
 20
-2149.72
 30
0.000000
  70
    32
  0
VERTEX
  8
01
  5
C728
 10
725.204
 20
-2149.79
 30
0.000000
  70
    32
  0
VERTEX
  8
01
  5
C729
 10
725.129
 20
-2149.86
 30
0.000000
  70
    32
  0
VERTEX
  8
01
  5
C72A
 10
725.053
 20
-2149.93
 30
0.000000
  70
    32
  0
VERTEX
  8
01
  5
C72B
 10
724.974
 20
-2150.00
 30
0.000000
  70
    32
  0
VERTEX
  8
01
  5
C72C
 10
724.892
 20
-2150.06
 30
0.000000
  70
    32
  0
VERTEX
  8
01
  5
C72D
 10
724.809
 20
-2150.13
 30
0.000000
  70
    32
  0
VERTEX
  8
01
  5
C72E
 10
724.723
 20
-2150.19
 30
0.000000
  70
    32
  0
VERTEX
  8
01
  5
C72F
 10
724.635
 20
-2150.25
 30
0.000000
  70
    32
  0
VERTEX
  8
01
  5
C730
 10
724.545
 20
-2150.31
 30
0.000000
  70
    32
  0
VERTEX
  8
01
  5
C731
 10
724.454
 20
-2150.37
 30
0.000000
  70
    32
  0
VERTEX
  8
01
  5
C732
 10
724.360
 20
-2150.42
 30
0.000000
  70
    32
  0
VERTEX
  8
01
  5
C733
 10
724.264
 20
-2150.48
 30
0.000000
  70
    32
  0
VERTEX
  8
01
  5
C734
 10
724.166
 20
-2150.53
 30
0.000000
  70
    32
  0
VERTEX
  8
01
  5
C735
 10
724.067
 20
-2150.58
 30
0.000000
  70
    32
  0
VERTEX
  8
01
  5
C736
 10
723.966
 20
-2150.63
 30
0.000000
  70
    32
  0
VERTEX
  8
01
  5
C737
 10
723.863
 20
-2150.68
 30
0.000000
  70
    32
  0
VERTEX
  8
01
  5
C738
 10
723.758
 20
-2150.73
 30
0.000000
  70
    32
  0
VERTEX
  8
01
  5
C739
 10
723.652
 20
-2150.77
 30
0.000000
  70
    32
  0
VERTEX
  8
01
  5
C73A
 10
723.545
 20
-2150.81
 30
0.000000
  70
    32
  0
VERTEX
  8
01
  5
C73B
 10
723.436
 20
-2150.85
 30
0.000000
  70
    32
  0
VERTEX
  8
01
  5
C73C
 10
723.325
 20
-2150.89
 30
0.000000
  70
    32
  0
VERTEX
  8
01
  5
C73D
 10
723.214
 20
-2150.93
 30
0.000000
  70
    32
  0
VERTEX
  8
01
  5
C73E
 10
723.101
 20
-2150.96
 30
0.000000
  70
    32
  0
VERTEX
  8
01
  5
C73F
 10
722.987
 20
-2150.99
 30
0.000000
  70
    32
  0
VERTEX
  8
01
  5
C740
 10
722.872
 20
-2151.03
 30
0.000000
  70
    32
  0
VERTEX
  8
01
  5
C741
 10
722.756
 20
-2151.05
 30
0.000000
  70
    32
  0
VERTEX
  8
01
  5
C742
 10
722.639
 20
-2151.08
 30
0.000000
  70
    32
  0
VERTEX
  8
01
  5
C743
 10
722.521
 20
-2151.10
 30
0.000000
  70
    32
  0
VERTEX
  8
01
  5
C744
 10
722.403
 20
-2151.13
 30
0.000000
  70
    32
  0
VERTEX
  8
01
  5
C745
 10
722.283
 20
-2151.15
 30
0.000000
  70
    32
  0
VERTEX
  8
01
  5
C746
 10
722.163
 20
-2151.17
 30
0.000000
  70
    32
  0
VERTEX
  8
01
  5
C747
 10
722.042
 20
-2151.18
 30
0.000000
  70
    32
  0
VERTEX
  8
01
  5
C748
 10
721.921
 20
-2151.20
 30
0.000000
  70
    32
  0
VERTEX
  8
01
  5
C749
 10
721.800
 20
-2151.21
 30
0.000000
  70
    32
  0
VERTEX
  8
01
  5
C74A
 10
721.678
 20
-2151.22
 30
0.000000
  70
    32
  0
VERTEX
  8
01
  5
C74B
 10
721.555
 20
-2151.22
 30
0.000000
  70
    32
  0
VERTEX
  8
01
  5
C74C
 10
721.433
 20
-2151.23
 30
0.000000
  70
    32
  0
VERTEX
  8
01
  5
C74D
 10
721.310
 20
-2151.23
 30
0.000000
  70
    32
  0
VERTEX
  8
01
  5
C74E
 10
721.188
 20
-2151.23
 30
0.000000
  70
    32
  0
VERTEX
  8
01
  5
C74F
 10
721.065
 20
-2151.23
 30
0.000000
  70
    32
  0
VERTEX
  8
01
  5
C750
 10
720.942
 20
-2151.23
 30
0.000000
  70
    32
  0
VERTEX
  8
01
  5
C751
 10
720.820
 20
-2151.22
 30
0.000000
  70
    32
  0
VERTEX
  8
01
  5
C752
 10
720.698
 20
-2151.22
 30
0.000000
  70
    32
  0
VERTEX
  8
01
  5
C753
 10
720.576
 20
-2151.21
 30
0.000000
  70
    32
  0
VERTEX
  8
01
  5
C754
 10
720.454
 20
-2151.20
 30
0.000000
  70
    32
  0
VERTEX
  8
01
  5
C755
 10
720.333
 20
-2151.18
 30
0.000000
  70
    32
  0
VERTEX
  8
01
  5
C756
 10
720.212
 20
-2151.17
 30
0.000000
  70
    32
  0
VERTEX
  8
01
  5
C757
 10
720.092
 20
-2151.15
 30
0.000000
  70
    32
  0
VERTEX
  8
01
  5
C758
 10
719.973
 20
-2151.13
 30
0.000000
  70
    32
  0
VERTEX
  8
01
  5
C759
 10
719.854
 20
-2151.10
 30
0.000000
  70
    32
  0
VERTEX
  8
01
  5
C75A
 10
719.736
 20
-2151.08
 30
0.000000
  70
    32
  0
VERTEX
  8
01
  5
C75B
 10
719.619
 20
-2151.05
 30
0.000000
  70
    32
  0
VERTEX
  8
01
  5
C75C
 10
719.503
 20
-2151.03
 30
0.000000
  70
    32
  0
VERTEX
  8
01
  5
C75D
 10
719.388
 20
-2150.99
 30
0.000000
  70
    32
  0
VERTEX
  8
01
  5
C75E
 10
719.274
 20
-2150.96
 30
0.000000
  70
    32
  0
VERTEX
  8
01
  5
C75F
 10
719.161
 20
-2150.93
 30
0.000000
  70
    32
  0
VERTEX
  8
01
  5
C760
 10
719.050
 20
-2150.89
 30
0.000000
  70
    32
  0
VERTEX
  8
01
  5
C761
 10
718.940
 20
-2150.85
 30
0.000000
  70
    32
  0
VERTEX
  8
01
  5
C762
 10
718.831
 20
-2150.81
 30
0.000000
  70
    32
  0
VERTEX
  8
01
  5
C763
 10
718.723
 20
-2150.77
 30
0.000000
  70
    32
  0
VERTEX
  8
01
  5
C764
 10
718.617
 20
-2150.73
 30
0.000000
  70
    32
  0
VERTEX
  8
01
  5
C765
 10
718.513
 20
-2150.68
 30
0.000000
  70
    32
  0
VERTEX
  8
01
  5
C766
 10
718.410
 20
-2150.63
 30
0.000000
  70
    32
  0
VERTEX
  8
01
  5
C767
 10
718.309
 20
-2150.58
 30
0.000000
  70
    32
  0
VERTEX
  8
01
  5
C768
 10
718.209
 20
-2150.53
 30
0.000000
  70
    32
  0
VERTEX
  8
01
  5
C769
 10
718.112
 20
-2150.48
 30
0.000000
  70
    32
  0
VERTEX
  8
01
  5
C76A
 10
718.016
 20
-2150.42
 30
0.000000
  70
    32
  0
VERTEX
  8
01
  5
C76B
 10
717.922
 20
-2150.37
 30
0.000000
  70
    32
  0
VERTEX
  8
01
  5
C76C
 10
717.830
 20
-2150.31
 30
0.000000
  70
    32
  0
VERTEX
  8
01
  5
C76D
 10
717.740
 20
-2150.25
 30
0.000000
  70
    32
  0
VERTEX
  8
01
  5
C76E
 10
717.652
 20
-2150.19
 30
0.000000
  70
    32
  0
VERTEX
  8
01
  5
C76F
 10
717.566
 20
-2150.13
 30
0.000000
  70
    32
  0
VERTEX
  8
01
  5
C770
 10
717.483
 20
-2150.06
 30
0.000000
  70
    32
  0
VERTEX
  8
01
  5
C771
 10
717.402
 20
-2150.00
 30
0.000000
  70
    32
  0
VERTEX
  8
01
  5
C772
 10
717.323
 20
-2149.93
 30
0.000000
  70
    32
  0
VERTEX
  8
01
  5
C773
 10
717.246
 20
-2149.86
 30
0.000000
  70
    32
  0
VERTEX
  8
01
  5
C774
 10
717.172
 20
-2149.79
 30
0.000000
  70
    32
  0
VERTEX
  8
01
  5
C775
 10
717.100
 20
-2149.72
 30
0.000000
  70
    32
  0
VERTEX
  8
01
  5
C776
 10
717.030
 20
-2149.65
 30
0.000000
  70
    32
  0
VERTEX
  8
01
  5
C777
 10
716.963
 20
-2149.57
 30
0.000000
  70
    32
  0
VERTEX
  8
01
  5
C778
 10
716.899
 20
-2149.50
 30
0.000000
  70
    32
  0
VERTEX
  8
01
  5
C779
 10
716.837
 20
-2149.42
 30
0.000000
  70
    32
  0
VERTEX
  8
01
  5
C77A
 10
716.778
 20
-2149.35
 30
0.000000
  70
    32
  0
VERTEX
  8
01
  5
C77B
 10
716.722
 20
-2149.27
 30
0.000000
  70
    32
  0
VERTEX
  8
01
  5
C77C
 10
716.668
 20
-2149.19
 30
0.000000
  70
    32
  0
VERTEX
  8
01
  5
C77D
 10
716.617
 20
-2149.11
 30
0.000000
  70
    32
  0
VERTEX
  8
01
  5
C77E
 10
716.568
 20
-2149.03
 30
0.000000
  70
    32
  0
VERTEX
  8
01
  5
C77F
 10
716.523
 20
-2148.95
 30
0.000000
  70
    32
  0
VERTEX
  8
01
  5
C780
 10
716.480
 20
-2148.87
 30
0.000000
  70
    32
  0
VERTEX
  8
01
  5
C781
 10
716.440
 20
-2148.79
 30
0.000000
  70
    32
  0
VERTEX
  8
01
  5
C782
 10
716.403
 20
-2148.70
 30
0.000000
  70
    32
  0
VERTEX
  8
01
  5
C783
 10
716.369
 20
-2148.62
 30
0.000000
  70
    32
  0
VERTEX
  8
01
  5
C784
 10
716.338
 20
-2148.53
 30
0.000000
  70
    32
  0
VERTEX
  8
01
  5
C785
 10
716.309
 20
-2148.45
 30
0.000000
  70
    32
  0
VERTEX
  8
01
  5
C786
 10
716.284
 20
-2148.36
 30
0.000000
  70
    32
  0
VERTEX
  8
01
  5
C787
 10
716.261
 20
-2148.28
 30
0.000000
  70
    32
  0
VERTEX
  8
01
  5
C788
 10
716.242
 20
-2148.19
 30
0.000000
  70
    32
  0
VERTEX
  8
01
  5
C789
 10
716.225
 20
-2148.10
 30
0.000000
  70
    32
  0
VERTEX
  8
01
  5
C78A
 10
716.212
 20
-2148.02
 30
0.000000
  70
    32
  0
VERTEX
  8
01
  5
C78B
 10
716.201
 20
-2147.93
 30
0.000000
  70
    32
  0
VERTEX
  8
01
  5
C78C
 10
716.194
 20
-2147.84
 30
0.000000
  70
    32
  0
VERTEX
  8
01
  5
C78D
 10
716.189
 20
-2147.75
 30
0.000000
  70
    32
  0
VERTEX
  8
01
  5
C78E
 10
716.188
 20
-2147.67
 30
0.000000
  70
    32
  0
SEQEND
  8
01
  5
C78F
  0
LINE
  5
B84E
  8
01
 10
726.18766116632378
 20
-2134.8025015977419
 30
0.0
 11
726.18766116632378
 21
-2147.6656615977431
 31
0.0
  0
LINE
  5
B84F
  8
01
 10
716.18766116632366
 20
-2134.8025015977419
 30
0.0
 11
716.18766116632366
 21
-2147.6656615977399
 31
0.0
  0
LINE
  5
B850
  8
01
 10
712.18764616632404
 20
-2101.2340815977432
 30
0.0
 11
711.18764616632404
 21
-2100.2340815977432
 31
0.0
  0
LINE
  5
B851
  8
01
 10
713.58766316632409
 20
-2101.1341015977432
 30
0.0
 11
712.78768216632398
 21
-2100.3341215977421
 31
0.0
  0
LINE
  5
B852
  8
01
 10
713.58766316632409
 20
-2183.3340915977419
 30
0.0
 11
712.78766016632369
 21
-2184.1340715977431
 31
0.0
  0
LINE
  5
B853
  8
01
 10
712.18760816632403
 20
-2183.234111597742
 30
0.0
 11
711.18762316632365
 21
-2184.234111597742
 31
0.0
  0
LINE
  5
B854
  8
01
 10
715.18766116632366
 20
-2207.2340815977432
 30
0.0
 11
711.18766116632366
 21
-2207.2340815977432
 31
0.0
  0
LINE
  5
B855
  8
01
 10
712.78766716632435
 20
-2207.2340815977432
 30
0.0
 11
712.78766716632435
 21
-2184.1340715977431
 31
0.0
  0
LINE
  5
B856
  8
01
 10
711.18766116632366
 20
-2207.2340815977432
 30
0.0
 11
711.18766116632366
 21
-2184.2340815977432
 31
0.0
  0
LINE
  5
B857
  8
01
 10
712.18766116632366
 20
-2101.2340815977432
 30
0.0
 11
712.18766116632366
 21
-2183.2340815977432
 31
0.0
  0
LINE
  5
B858
  8
01
 10
715.18766116632366
 20
-2077.2340815977432
 30
0.0
 11
711.18766116632366
 21
-2077.2340815977432
 31
0.0
  0
LINE
  5
B859
  8
01
 10
821.68766116632378
 20
-2083.2340815977432
 30
0.0
 11
821.68766116632378
 21
-2201.2340815977432
 31
0.0
  0
LINE
  5
B85A
  8
01
 10
846.68766116632378
 20
-2083.2340815977432
 30
0.0
 11
846.68766116632378
 21
-2201.2340815977432
 31
0.0
  0
ARC
  5
B85B
  8
01
 10
840.68766116632366
 20
-2201.2340815977432
 30
0.0
 40
6.0
 50
270.0
 51
0.0
  0
ARC
  5
B85C
  8
01
 10
827.68766116632366
 20
-2201.2340815977432
 30
0.0
 40
6.0
 50
180.0
 51
270.0
  0
LINE
  5
B85D
  8
01
 10
841.93766116632366
 20
-2134.8025015977419
 30
0.0
 11
841.93766116632366
 21
-2147.6656615977422
 31
0.0
  0
LINE
  5
B85E
  8
01
 10
840.93766116632366
 20
-2136.2340815977432
 30
0.0
 11
840.93766116632366
 21
-2146.2340815977432
 31
0.0
  0
LINE
  5
B85F
  8
01
 10
827.43766116632366
 20
-2136.2340815977432
 30
0.0
 11
827.43766116632366
 21
-2146.2340815977432
 31
0.0
  0
LINE
  5
B860
  8
01
 10
826.43766116632366
 20
-2134.8025015977419
 30
0.0
 11
826.43766116632366
 21
-2147.6656615977422
 31
0.0
  0
ARC
  5
B861
  8
01
 10
834.18766116632378
 20
-2141.0340715977418
 30
0.0
 40
10.199999999999999
 50
220.55307999996799
 51
319.44692000003198
  0
LINE
  5
B862
  8
01
 10
827.43766116632366
 20
-2146.2340815977432
 30
0.0
 11
840.93766116632366
 21
-2146.2340815977432
 31
0.0
  0
LINE
  5
B863
  8
01
 10
827.43766116632366
 20
-2136.2340815977432
 30
0.0
 11
840.93766116632366
 21
-2136.2340815977432
 31
0.0
  0
ARC
  5
B864
  8
01
 10
834.18766116632378
 20
-2141.4340915977432
 30
0.0
 40
10.199999999999999
 50
40.553083999974533
 51
139.44692000003201
  0
CIRCLE
  5
B865
  8
01
 10
834.18766116632378
 20
-2199.2340815977432
 30
0.0
 40
4.5
  0
CIRCLE
  5
B866
  8
01
 10
834.18766116632378
 20
-2199.2340815977432
 30
0.0
 40
2.75
  0
LINE
  5
B867
  8
01
 10
827.68766116632366
 20
-2207.2340815977432
 30
0.0
 11
840.68766116632366
 21
-2207.2340815977432
 31
0.0
  0
ARC
  5
B868
  8
01
 10
840.68766116632366
 20
-2083.2340815977432
 30
0.0
 40
6.0
 50
0.0
 51
90.0
  0
ARC
  5
B86A
  8
01
 10
827.68766116632366
 20
-2083.2340815977432
 30
0.0
 40
6.0
 50
90.0
 51
180.0
  0
LINE
  5
B86B
  8
01
 10
827.68766116632366
 20
-2077.2340815977432
 30
0.0
 11
840.68766116632366
 21
-2077.2340815977432
 31
0.0
  0
CIRCLE
  5
B86C
  8
01
 10
834.18766116632378
 20
-2085.2340815977432
 30
0.0
 40
4.5
  0
CIRCLE
  5
B86D
  8
01
 10
834.18766116632378
 20
-2085.2340815977432
 30
0.0
 40
2.75
  0
LINE
  5
B871
  8
01
 10
955.58766716632363
 20
-2077.2340815977432
 30
0.0
 11
955.58766716632363
 21
-2100.334051597742
 31
0.0
  0
LINE
  5
B872
  8
01
 10
957.18765716632424
 20
-2077.2340815977432
 30
0.0
 11
957.18765716632424
 21
-2100.2340815977432
 31
0.0
  0
LINE
  5
B873
  8
01
 10
954.78766716632435
 20
-2077.2340815977432
 30
0.0
 11
954.78766716632435
 21
-2207.2340815977432
 31
0.0
  0
LINE
  5
B874
  8
01
 10
953.18765716632436
 20
-2077.2340815977432
 30
0.0
 11
953.18765716632436
 21
-2207.2340815977432
 31
0.0
  0
LINE
  5
B876
  8
01
 10
956.18765716632424
 20
-2179.2340815977432
 30
0.0
 11
984.97828445402683
 21
-2179.2340815977432
 31
0.0
  0
LINE
  5
B877
  8
01
 10
956.18766716632399
 20
-2101.2340815977432
 30
0.0
 11
957.18766716632399
 21
-2100.2340815977432
 31
0.0
  0
LINE
  5
B878
  8
01
 10
954.78765716632461
 20
-2101.1341015977432
 30
0.0
 11
955.58766716632363
 21
-2100.334051597742
 31
0.0
  0
LINE
  5
B879
  8
01
 10
946.18765716632436
 20
-2131.2340815977432
 30
0.0
 11
953.18765716632436
 21
-2131.2340815977432
 31
0.0
  0
LINE
  5
B87A
  8
01
 10
946.18765716632436
 20
-2151.2340815977432
 30
0.0
 11
953.18765716632436
 21
-2151.2340815977432
 31
0.0
  0
LINE
  5
B87B
  8
01
 10
942.26975716632376
 20
-2148.0403515977432
 30
0.0
 11
953.18765716632436
 21
-2148.0403515977432
 31
0.0
  0
LINE
  5
B87C
  8
01
 10
942.26975716632376
 20
-2134.427801597742
 30
0.0
 11
953.18765716632436
 21
-2134.427801597742
 31
0.0
  0
LINE
  5
B87D
  8
01
 10
942.18765716632424
 20
-2135.2340815977432
 30
0.0
 11
942.18765716632424
 21
-2147.2340815977432
 31
0.0
  0
ARC
  5
B87E
  8
01
 10
946.18765716632436
 20
-2147.2340815977432
 30
0.0
 40
4.0
 50
179.999989999999
 51
270.0
  0
ARC
  5
B87F
  8
01
 10
946.18765716632436
 20
-2135.2340815977432
 30
0.0
 40
4.0
 50
90.000002999984659
 51
180.000010000001
  0
LINE
  5
B880
  8
01
 10
954.78765716632461
 20
-2183.3340915977419
 30
0.0
 11
955.58766716632363
 21
-2184.1340715977431
 31
0.0
  0
LINE
  5
B881
  8
01
 10
956.1877071663248
 20
-2183.234111597742
 30
0.0
 11
957.18768716632349
 21
-2184.2340815977432
 31
0.0
  0
LINE
  5
B882
  8
01
 10
948.18765716632424
 20
-2199.2340815977432
 30
0.0
 11
962.18765716632436
 21
-2199.2340815977432
 31
0.0
  0
LINE
  5
B883
  8
01
 10
953.18765716632436
 20
-2207.2340815977432
 30
0.0
 11
957.18765716632424
 21
-2207.2340815977432
 31
0.0
  0
LINE
  5
B884
  8
01
 10
955.58766716632363
 20
-2207.2340815977432
 30
0.0
 11
955.58766716632363
 21
-2184.1340715977431
 31
0.0
  0
LINE
  5
B885
  8
01
 10
957.18765716632424
 20
-2207.2340815977432
 30
0.0
 11
957.18765716632424
 21
-2184.2340815977432
 31
0.0
  0
LINE
  5
B886
  8
01
 10
956.18765716632424
 20
-2101.2340815977432
 30
0.0
 11
956.18765716632424
 21
-2183.2340815977432
 31
0.0
  0
LINE
  5
B887
  8
01
 10
1022.187657166324
 20
-2115.9827154482659
 30
0.0
 11
1022.187657166324
 21
-2145.884730024844
 31
0.0
  0
LINE
  5
B889
  8
01
 10
953.18765716632436
 20
-2077.2340815977432
 30
0.0
 11
957.18765716632424
 21
-2077.2340815977432
 31
0.0
  0
LINE
  5
B88A
  8
01
 10
948.18765716632424
 20
-2085.2340815977432
 30
0.0
 11
962.18765716632436
 21
-2085.2340815977432
 31
0.0
  0
LINE
  5
B88C
  8
01
 10
957.18854134838421
 20
-1883.7340815987709
 30
0.0
 11
1023.188541348384
 21
-1883.7340815987709
 31
0.0
  0
LINE
  5
B88D
  8
01
 10
957.18854134838421
 20
-1885.3340515987711
 30
0.0
 11
1023.188541348384
 21
-1885.3340515987711
 31
0.0
  0
LINE
  5
B88E
  8
01
 10
954.7885513483842
 20
-1902.7340815987709
 30
0.0
 11
1023.188541348384
 21
-1902.7340815987709
 31
0.0
  0
LINE
  5
B88F
  8
01
 10
956.38853134838507
 20
-1888.2340815987709
 30
0.0
 11
957.18854134838421
 21
-1887.434061598771
 31
0.0
  0
LINE
  5
B890
  8
01
 10
957.18854134838421
 20
-1882.7340815987709
 30
0.0
 11
957.18854134838421
 21
-1887.434061598771
 31
0.0
  0
LINE
  5
B891
  8
01
 10
954.7885513483842
 20
-1888.234051598771
 30
0.0
 11
955.58854134838555
 21
-1887.4340915987709
 31
0.0
  0
LINE
  5
B892
  8
01
 10
942.18854134838421
 20
-1900.9840815987709
 30
0.0
 11
953.18854134838409
 21
-1900.9840815987709
 31
0.0
  0
LINE
  5
B893
  8
01
 10
942.18854134838421
 20
-1900.9840815987709
 30
0.0
 11
942.18854134838421
 21
-1898.9840815987709
 31
0.0
  0
LINE
  5
B894
  8
01
 10
953.18854134838409
 20
-1880.7340815987709
 30
0.0
 11
954.7885513483842
 21
-1880.7340815987709
 31
0.0
  0
LINE
  5
B895
  8
01
 10
954.7885513483842
 20
-1880.7340815987709
 30
0.0
 11
954.7885513483842
 21
-1888.2340815987709
 31
0.0
  0
LINE
  5
B896
  8
01
 10
955.58855134838541
 20
-1882.7340815987709
 30
0.0
 11
955.58855134838541
 21
-1887.434061598771
 31
0.0
  0
LINE
  5
B897
  8
01
 10
954.7885513483842
 20
-1882.7340815987709
 30
0.0
 11
957.18854134838421
 21
-1882.7340815987709
 31
0.0
  0
LINE
  5
B898
  8
01
 10
957.18854134838421
 20
-1899.0340715987711
 30
0.0
 11
957.18854134838421
 21
-1902.7340815987709
 31
0.0
  0
LINE
  5
B899
  8
01
 10
956.38855134838457
 20
-1898.234051598771
 30
0.0
 11
957.18854134838421
 21
-1899.0340715987711
 31
0.0
  0
LINE
  5
B89A
  8
01
 10
957.18854134838421
 20
-1901.134071598771
 30
0.0
 11
961.78855134838432
 21
-1901.134071598771
 31
0.0
  0
LINE
  5
B89B
  8
01
 10
954.78854134838446
 20
-1898.234051598771
 30
0.0
 11
955.58855134838541
 21
-1899.0340715987711
 31
0.0
  0
LINE
  5
B89C
  8
01
 10
954.7885513483842
 20
-1898.2340815987709
 30
0.0
 11
954.7885513483842
 21
-1905.7340815987709
 31
0.0
  0
LINE
  5
B89D
  8
01
 10
953.18854134838409
 20
-1905.7340815987709
 30
0.0
 11
954.7885513483842
 21
-1905.7340815987709
 31
0.0
  0
LINE
  5
B89E
  8
01
 10
955.58855134838541
 20
-1899.0340715987711
 30
0.0
 11
955.58855134838541
 21
-1902.7340815987709
 31
0.0
  0
LINE
  5
B89F
  8
01
 10
953.18854134838409
 20
-1873.2340815987709
 30
0.0
 11
953.18854134838409
 21
-1913.2340815987709
 31
0.0
  0
LINE
  5
B8A0
  8
01
 10
961.78855134838432
 20
-1885.3340515987711
 30
0.0
 11
961.78855134838432
 21
-1902.7340815987709
 31
0.0
  0
LINE
  5
B8A1
  8
01
 10
956.38854134838482
 20
-1888.2340815987709
 30
0.0
 11
956.38854134838482
 21
-1898.2340815987709
 31
0.0
  0
LINE
  5
B8A2
  8
01
 10
954.7885513483842
 20
-1888.2340815987709
 30
0.0
 11
954.7885513483842
 21
-1898.2340815987709
 31
0.0
  0
ARC
  5
B8A3
  8
01
 10
985.85804134838418
 20
-1923.335161598771
 30
0.0
 40
50.0
 50
130.79769000000621
 51
150.8550000000302
  0
LINE
  5
B8A4
  8
01
 10
985.54988989461617
 20
-1927.73411259877
 30
0.0
 11
1001.172526506068
 21
-1927.73411259877
 31
0.0
  0
LINE
  5
B8A5
  8
01
 10
1021.588541348386
 20
-1885.3340515987711
 30
0.0
 11
1021.588541348386
 21
-1902.7340815987709
 31
0.0
  0
LINE
  5
B8A6
  8
01
 10
1023.188541348384
 20
-1883.7340815987709
 30
0.0
 11
1023.188541348384
 21
-1902.7340815987709
 31
0.0
  0
LINE
  5
B8A7
  8
01
 10
985.54988989461617
 20
-1858.734050598772
 30
0.0
 11
1001.172526506068
 21
-1858.734050598772
 31
0.0
  0
LINE
  5
B8A8
  8
01
 10
720.18766516632331
 20
-2199.2340815977432
 30
0.0
 11
706.18766516632331
 21
-2199.2340815977432
 31
0.0
  0
LINE
  5
B8A9
  8
01
 10
720.18766516632331
 20
-2085.2340815977432
 30
0.0
 11
706.18766516632331
 21
-2085.2340815977432
 31
0.0
  0
LINE
  5
B8AA
  8
01
 10
840.68766116632366
 20
-2085.2340815977432
 30
0.0
 11
827.68766116632366
 21
-2085.2340815977432
 31
0.0
  0
LINE
  5
B8AB
  8
01
 10
834.18766116632378
 20
-2078.7340815977432
 30
0.0
 11
834.18766116632378
 21
-2091.7340815977432
 31
0.0
  0
LINE
  5
B8AC
  8
01
 10
840.68766116632366
 20
-2199.2340815977432
 30
0.0
 11
827.68766116632366
 21
-2199.2340815977432
 31
0.0
  0
LINE
  5
B8AD
  8
01
 10
834.18766116632378
 20
-2192.7340815977432
 30
0.0
 11
834.18766116632378
 21
-2205.7340815977432
 31
0.0
  0
LINE
  5
B8AE
  8
01
 10
694.18766516632331
 20
-2163.2340815977432
 30
0.0
 11
634.18766516632331
 21
-2163.2340815977432
 31
0.0
  0
LINE
  5
B8AF
  8
01
 10
664.18766516632331
 20
-2133.2340815977432
 30
0.0
 11
664.18766516632331
 21
-2193.2340815977432
 31
0.0
  0
LINE
  5
B8B0
  8
01
 10
974.18765716632379
 20
-2163.2340815977432
 30
0.0
 11
1034.187657166324
 21
-2163.2340815977432
 31
0.0
  0
LINE
  5
B8B1
  8
01
 10
1004.187657166323
 20
-2133.2340815977432
 30
0.0
 11
1004.187657166323
 21
-2193.2340815977432
 31
0.0
  0
POINT
  5
B8B2
  8
01
 10
868.68766116632366
 20
-2163.2340815977432
 30
0.0
  0
LINE
  5
B8B3
  8
01
 10
868.28766115632368
 20
-2164.9840815977432
 30
0.0
 11
868.28766115632368
 21
-2164.134081577743
 31
0.0
  0
LINE
  5
B8B4
  8
01
 10
869.08766117632376
 20
-2164.9840815977432
 30
0.0
 11
869.08766117632376
 21
-2164.134081577743
 31
0.0
  0
LINE
  5
B8B5
  8
01
 10
867.78766118632382
 20
-2163.6340816077432
 30
0.0
 11
866.93766116632366
 21
-2163.6340816077432
 31
0.0
  0
LINE
  5
B8B6
  8
01
 10
867.78766118632382
 20
-2162.8340815877432
 30
0.0
 11
866.93766116632366
 21
-2162.8340815877432
 31
0.0
  0
LINE
  5
B8B7
  8
01
 10
866.93766116632366
 20
-2163.6340816077432
 30
0.0
 11
866.93766116632366
 21
-2162.8340815877432
 31
0.0
  0
LINE
  5
B8B8
  8
01
 10
869.08766117632376
 20
-2164.9840815977432
 30
0.0
 11
868.28766115632368
 21
-2164.9840815977432
 31
0.0
  0
LINE
  5
B8B9
  8
01
 10
869.08766117632376
 20
-2161.4840815977432
 30
0.0
 11
869.08766117632376
 21
-2162.3340816177429
 31
0.0
  0
LINE
  5
B8BA
  8
01
 10
868.28766115632368
 20
-2161.4840815977432
 30
0.0
 11
868.28766115632368
 21
-2162.3340816177429
 31
0.0
  0
LINE
  5
B8BB
  8
01
 10
869.58766114632351
 20
-2162.8340815877432
 30
0.0
 11
870.43766116632366
 21
-2162.8340815877432
 31
0.0
  0
LINE
  5
B8BC
  8
01
 10
869.58766114632351
 20
-2163.6340816077432
 30
0.0
 11
870.43766116632366
 21
-2163.6340816077432
 31
0.0
  0
LINE
  5
B8BD
  8
01
 10
870.43766116632366
 20
-2162.8340815877432
 30
0.0
 11
870.43766116632366
 21
-2163.6340816077432
 31
0.0
  0
LINE
  5
B8BE
  8
01
 10
868.28766115632368
 20
-2161.4840815977432
 30
0.0
 11
869.08766117632376
 21
-2161.4840815977432
 31
0.0
  0
CIRCLE
  5
B8BF
  8
01
 10
868.68766116632366
 20
-2163.2340815977432
 30
0.0
 40
2.5
  0
ARC
  5
B8C0
  8
01
 10
869.58766114632351
 20
-2162.3340816177429
 30
0.0
 40
0.5
 50
179.999989999999
 51
270.0
  0
ARC
  5
B8C1
  8
01
 10
869.58766114632351
 20
-2164.134081577743
 30
0.0
 40
0.5
 50
90.00000299999769
 51
180.000010000001
  0
ARC
  5
B8C2
  8
01
 10
867.78766118632382
 20
-2164.134081577743
 30
0.0
 40
0.5
 50
0.0
 51
90.00000299999769
  0
ARC
  5
B8C3
  8
01
 10
867.78766118632382
 20
-2162.3340816177429
 30
0.0
 40
0.5
 50
270.0
 51
0.0
  0
POINT
  5
B8C5
  8
01
 10
799.68766116632366
 20
-2163.2340815977432
 30
0.0
 50
180.0
  0
CIRCLE
  5
B8C6
  8
01
 10
799.68766116632366
 20
-2163.2340815977432
 30
0.0
 40
2.5
  0
CIRCLE
  5
B8C9
  8
01
 10
664.18765716632242
 20
-2107.7340815977432
 30
0.0
 40
19.799999
  0
LINE
  5
B8CA
  8
01
 10
666.68765716632242
 20
-2102.9263175336978
 30
0.0
 11
666.68765716632242
 21
-2123.5418456617872
 31
0.0
  0
LINE
  5
B8CB
  8
01
 10
661.68765716632265
 20
-2102.9263175336978
 30
0.0
 11
661.68765716632242
 21
-2123.5418456617872
 31
0.0
  0
CIRCLE
  5
B8CC
  8
01
 10
664.18765716632242
 20
-2113.2340815977432
 30
0.0
 40
11.0
  0
ARC
  5
B8CD
  8
01
 10
666.18765716632242
 20
-2123.5418456617872
 30
0.0
 40
0.5
 50
280.98057542761609
 51
0.0
  0
ARC
  5
B8CE
  8
01
 10
662.18765716632242
 20
-2123.5418456617872
 30
0.0
 40
0.5
 50
180.00000000002601
 51
259.0194245723838
  0
ARC
  5
B8CF
  8
01
 10
662.18765716632242
 20
-2102.9263175336978
 30
0.0
 40
0.5
 50
100.9805754276161
 51
180.0
  0
ARC
  5
B8D0
  8
01
 10
666.18765716632242
 20
-2102.9263175336978
 30
0.0
 40
0.5
 50
0.0
 51
79.019424572383826
  0
LINE
  5
B8D2
  8
01
 10
860.68766416632195
 20
-2088.9340915977432
 30
0.0
 11
860.68766416632195
 21
-2126.5340715977432
 31
0.0
  0
ARC
  5
B8D3
  8
01
 10
859.68766416632195
 20
-2088.9340915977432
 30
0.0
 40
1.0
 50
0.0
 51
90.0
  0
LINE
  5
B8D4
  8
01
 10
814.18766116632332
 20
-2087.9340915977432
 30
0.0
 11
814.18766116632332
 21
-2127.5340715977432
 31
0.0
  0
LINE
  5
B8D5
  8
01
 10
814.18766516632274
 20
-2087.9340915977432
 30
0.0
 11
814.18766516632274
 21
-2127.2340815977432
 31
0.0
  0
LINE
  5
B8D8
  8
01
 10
814.18766116632332
 20
-2088.9340915977432
 30
0.0
 11
814.18766116632332
 21
-2126.5340715977432
 31
0.0
  0
LINE
  5
B8DA
  8
01
 10
861.36106216632345
 20
-2109.7340815977432
 30
0.0
 11
860.68766416632195
 21
-2109.7340815977432
 31
0.0
  0
LINE
  5
B8DB
  8
01
 10
861.36106216632345
 20
-2116.7340815977432
 30
0.0
 11
860.68766416632195
 21
-2116.7340815977432
 31
0.0
  0
LINE
  5
B8DC
  8
01
 10
854.18766116632366
 20
-2127.5340715977432
 30
0.0
 11
859.68766416632195
 21
-2127.5340715977432
 31
0.0
  0
ARC
  5
B8DD
  8
01
 10
859.68766416632195
 20
-2126.5340715977432
 30
0.0
 40
1.0
 50
270.0
 51
0.0
  0
LINE
  5
B8DE
  8
01
 10
861.36106216632345
 20
-2109.7340815977432
 30
0.0
 11
861.36106216632345
 21
-2116.7340815977432
 31
0.0
  0
ARC
  5
B8DF
  8
01
 10
856.48766416632179
 20
-2113.2340815977432
 30
0.0
 40
6.0
 50
324.31468000001439
 51
35.685330999978902
  0
LINE
  5
B8E2
  8
01
 10
854.18766116632366
 20
-2087.9340915977432
 30
0.0
 11
859.68766416632195
 21
-2087.9340915977432
 31
0.0
  0
LINE
  5
B8E4
  8
01
 10
1005.187657166324
 20
-2116.5882015977431
 30
0.0
 11
1005.187657166324
 21
-2109.879951597743
 31
0.0
  0
LINE
  5
B8E5
  8
01
 10
1003.187657166324
 20
-2116.5882015977431
 30
0.0
 11
1003.187657166324
 21
-2109.879951597743
 31
0.0
  0
CIRCLE
  5
B8E6
  8
01
 10
1004.187657166323
 20
-2113.2340815977432
 30
0.0
 40
3.5000004999999992
  0
LINE
  5
B8E9
  8
01
 10
651.18765716632242
 20
-2113.2340815977432
 30
0.0
 11
677.18765716632242
 21
-2113.2340815977432
 31
0.0
  0
LINE
  5
B8EA
  8
01
 10
686.68765716632242
 20
-2107.7340815977432
 30
0.0
 11
641.68765716632242
 21
-2107.7340815977432
 31
0.0
  0
LINE
  5
B8EB
  8
01
 10
664.18765716632242
 20
-2085.2340815977432
 30
0.0
 11
664.18765716632242
 21
-2130.2340815977432
 31
0.0
  0
LINE
  5
B8EC
  8
01
 10
1017.187665166324
 20
-2113.2340815977432
 30
0.0
 11
991.18766516632468
 21
-2113.2340815977432
 31
0.0
  0
LINE
  5
B8ED
  8
01
 10
981.68766516632456
 20
-2107.7340815977432
 30
0.0
 11
1026.6876651663249
 21
-2107.7340815977432
 31
0.0
  0
LINE
  5
B8EE
  8
01
 10
1004.187665166324
 20
-2085.2340815977432
 30
0.0
 11
1004.187665166324
 21
-2130.2340815977432
 31
0.0
  0
ARC
  5
B8F1
  8
01
 10
1004.187766182397
 20
-1915.534082598776
 30
0.0
 40
6.0
 50
279.59301243461459
 51
305.684931053394
  0
LINE
  5
B8F2
  8
01
 10
1003.187657166324
 20
-1920.407473617749
 30
0.0
 11
1000.68773216429
 21
-1920.4074561673119
 31
0.0
  0
LINE
  5
B8F3
  8
01
 10
1005.187657166324
 20
-1921.4501808079231
 30
0.0
 11
1005.187657166324
 21
-1919.7340895784971
 31
0.0
  0
LINE
  5
B8F4
  8
01
 10
1003.187657166324
 20
-1921.450143953763
 30
0.0
 11
1003.187657166324
 21
-1919.734075617728
 31
0.0
  0
LINE
  5
B8F5
  8
01
 10
1023.987764902627
 20
-1873.2340815987709
 30
0.0
 11
1023.98772650954
 21
-1867.7339423873541
 31
0.0
  0
ARC
  5
B8F6
  8
01
 10
1022.987726509564
 20
-1867.7339493677389
 30
0.0
 40
1.0
 50
0.0003999465751871
 51
90.000399946581695
  0
LINE
  5
B8F7
  8
01
 10
984.38778490166305
 20
-1873.2340815987709
 30
0.0
 11
984.38774651050426
 21
-1867.7342188104481
 31
0.0
  0
LINE
  5
B8F8
  8
01
 10
1023.987764902627
 20
-1913.234081598772
 30
0.0
 11
1023.98772650954
 21
-1918.7342208101891
 31
0.0
  0
ARC
  5
B8F9
  8
01
 10
1004.187766182397
 20
-1915.534082598776
 30
0.0
 40
6.0
 50
234.31428005342181
 51
260.40487597756987
  0
LINE
  5
B8FA
  8
01
 10
1007.687732164119
 20
-1920.4075050300039
 30
0.0
 11
1005.187657166324
 21
-1920.4074875785191
 31
0.0
  0
LINE
  5
B8FB
  8
01
 10
984.38778490166305
 20
-1913.234081598772
 30
0.0
 11
984.38774651050426
 21
-1918.7339443870951
 31
0.0
  0
ARC
  5
B8FC
  8
01
 10
985.38774651047993
 20
-1918.7339513674799
 30
0.0
 40
1.0
 50
179.99960005339869
 51
269.99960005341831
  0
LINE
  5
B8FD
  8
01
 10
1000.68773216429
 20
-1920.4074561673119
 30
0.0
 11
1000.687736864866
 21
-1919.734058167322
 31
0.0
  0
LINE
  5
B8FE
  8
01
 10
1007.687732164119
 20
-1920.4075050300039
 30
0.0
 11
1007.6877368646969
 21
-1919.7341070300149
 31
0.0
  0
LINE
  5
B8FF
  8
01
 10
1022.987719529179
 20
-1919.7342138297799
 30
0.0
 11
985.38773953009513
 21
-1919.7339513674549
 31
0.0
  0
ARC
  5
B900
  8
01
 10
1022.987726509564
 20
-1918.734213829805
 30
0.0
 40
1.0
 50
269.99960005341831
 51
359.9996000534249
  0
LINE
  5
B901
  8
01
 10
1022.987719529179
 20
-1866.733949367763
 30
0.0
 11
985.38773953009513
 21
-1866.7342118300869
 31
0.0
  0
ARC
  5
B902
  8
01
 10
985.38774651047993
 20
-1867.734211830063
 30
0.0
 40
1.0
 50
90.000399946581695
 51
180.00039994657519
  0
LINE
  5
B905
  8
01
 10
1004.187773506069
 20
-1843.2340815987709
 30
0.0
 11
1004.187773506069
 21
-1878.2340815987709
 31
0.0
  0
LINE
  5
B906
  8
01
 10
1004.187773506069
 20
-1908.2340815987709
 30
0.0
 11
1004.187773506069
 21
-1943.2340815987709
 31
0.0
  0
LINE
  5
B907
  8
01
 10
784.18766116632378
 20
-2163.2340815977432
 30
0.0
 11
819.18766116632366
 21
-2163.2340815977432
 31
0.0
  0
LINE
  5
B908
  8
01
 10
849.18766116632378
 20
-2163.2340815977432
 30
0.0
 11
884.18766116632378
 21
-2163.2340815977432
 31
0.0
  0
LINE
  5
B909
  8
01
 10
854.18766116632355
 20
-2087.9340915977432
 30
0.0
 11
854.18766516632274
 21
-2127.5340715977432
 31
0.0
  0
LINE
  5
B90A
  8
01
 10
984.38778350653683
 20
-1873.2342178103179
 30
0.0
 11
1023.987763505599
 21
-1873.233945387225
 31
0.0
  0
LINE
  5
B90B
  8
01
 10
984.38778350653683
 20
-1913.233945387225
 30
0.0
 11
1023.987763505599
 21
-1913.234217810319
 31
0.0
  0
LINE
  5
B90C
  8
01
 10
953.18854134838409
 20
-1913.2340815987709
 30
0.0
 11
1106.9429215034161
 21
-1913.2340815987709
 31
0.0
  0
LINE
  5
B90D
  8
01
 10
953.18854134838409
 20
-1873.2340815987709
 30
0.0
 11
1106.9429215034161
 21
-1873.2340815987709
 31
0.0
  0
ARC
  5
B915
  8
01
 10
1007.6877735060619
 20
-1865.73408059862
 30
0.0
 40
1.0
 50
180.0
 51
270.00000000001302
  0
ARC
  5
B916
  8
01
 10
1000.687773506061
 20
-1865.734080598618
 30
0.0
 40
1.0
 50
270.0
 51
0.0
  0
LINE
  5
B917
  8
01
 10
1001.687773506061
 20
-1853.234057654415
 30
0.0
 11
1001.687773506061
 21
-1865.734080598618
 31
0.0
  0
ARC
  5
B918
  8
01
 10
1002.68777350606
 20
-1853.2340576544141
 30
0.0
 40
1.0
 50
90.0
 51
179.9999999999479
  0
LINE
  5
B919
  8
01
 10
1002.687773506061
 20
-1852.234057654412
 30
0.0
 11
1005.68777350606
 21
-1852.234057654412
 31
0.0
  0
ARC
  5
B91A
  8
01
 10
1005.68777350606
 20
-1853.2340576544141
 30
0.0
 40
1.0
 50
0.0
 51
90.0
  0
LINE
  5
B91B
  8
01
 10
1006.687773506061
 20
-1853.2340576544141
 30
0.0
 11
1006.687773506063
 21
-1865.73408059862
 31
0.0
  0
LINE
  5
B960
  8
01
 10
980.18777350606877
 20
-1921.734081598772
 30
0.0
 11
1028.1877735060691
 21
-1921.734081598772
 31
0.0
  0
LINE
  5
B961
  8
01
 10
979.18777350606888
 20
-1913.234081598772
 30
0.0
 11
979.18777350606888
 21
-1920.7340815987709
 31
0.0
  0
ARC
  5
B962
  8
01
 10
980.18777350606877
 20
-1920.7340815987709
 30
0.0
 40
1.0
 50
180.0
 51
270.0
  0
LINE
  5
B963
  8
01
 10
1029.1877735060691
 20
-1913.234081598772
 30
0.0
 11
1029.1877735060691
 21
-1920.7340815987709
 31
0.0
  0
ARC
  5
B964
  8
01
 10
1028.1877735060691
 20
-1920.7340815987709
 30
0.0
 40
1.0
 50
270.0
 51
0.0
  0
LINE
  5
B965
  8
01
 10
979.18777350606888
 20
-1913.234081598772
 30
0.0
 11
1029.1877735060691
 21
-1913.234081598772
 31
0.0
  0
LINE
  5
B966
  8
01
 10
996.23777650606542
 20
-1921.7340815987709
 30
0.0
 11
1012.137770506065
 21
-1921.734081598772
 31
0.0
  0
LINE
  5
B978
  8
01
 10
980.18777350606877
 20
-1864.73408159877
 30
0.0
 11
1001.687773506061
 21
-1864.73408159877
 31
0.0
  0
LINE
  5
B979
  8
01
 10
1006.687773506063
 20
-1864.73408159877
 30
0.0
 11
1028.1877735060691
 21
-1864.73408159877
 31
0.0
  0
LINE
  5
B97A
  8
01
 10
979.18777350606888
 20
-1873.23408159877
 30
0.0
 11
979.18777350606888
 21
-1865.73408159877
 31
0.0
  0
ARC
  5
B97B
  8
01
 10
980.18777350606877
 20
-1865.73408159877
 30
0.0
 40
1.0
 50
90.0
 51
180.0
  0
LINE
  5
B97C
  8
01
 10
1029.1877735060691
 20
-1873.23408159877
 30
0.0
 11
1029.1877735060691
 21
-1865.73408159877
 31
0.0
  0
ARC
  5
B97D
  8
01
 10
1028.1877735060691
 20
-1865.73408159877
 30
0.0
 40
1.0
 50
0.0
 51
90.0
  0
LINE
  5
B97E
  8
01
 10
979.18777350606888
 20
-1873.23408159877
 30
0.0
 11
1029.1877735060691
 21
-1873.23408159877
 31
0.0
  0
LINE
  5
BFCF
  8
01
 10
854.18766116632344
 20
-2138.2340815977432
 30
0.0
 11
854.18766116632344
 21
-2188.2340815977432
 31
0.0
  0
LINE
  5
BFD0
  8
01
 10
862.68766116632332
 20
-2187.2340815977432
 30
0.0
 11
862.68766116632332
 21
-2139.2340815977432
 31
0.0
  0
LINE
  5
BFD1
  8
01
 10
854.18766116632344
 20
-2188.2340815977432
 30
0.0
 11
861.68766116632332
 21
-2188.2340815977432
 31
0.0
  0
ARC
  5
BFD2
  8
01
 10
861.68766116632332
 20
-2187.2340815977432
 30
0.0
 40
1.0
 50
270.0
 51
0.0
  0
LINE
  5
BFD3
  8
01
 10
854.18766116632344
 20
-2138.2340815977432
 30
0.0
 11
861.68766116632332
 21
-2138.2340815977432
 31
0.0
  0
ARC
  5
BFD4
  8
01
 10
861.68766116632332
 20
-2139.2340815977432
 30
0.0
 40
1.0
 50
0.0
 51
90.0
  0
LINE
  5
BFD6
  8
01
 10
814.18766116632332
 20
-2138.2340815977432
 30
0.0
 11
814.18766116632332
 21
-2188.2340815977432
 31
0.0
  0
LINE
  5
BFD7
  8
01
 10
805.68766116632321
 20
-2187.2340815977432
 30
0.0
 11
805.68766116632321
 21
-2139.2340815977432
 31
0.0
  0
LINE
  5
BFD8
  8
01
 10
814.18766116632332
 20
-2188.2340815977432
 30
0.0
 11
806.68766116632321
 21
-2188.2340815977432
 31
0.0
  0
ARC
  5
BFD9
  8
01
 10
806.68766116632321
 20
-2187.2340815977432
 30
0.0
 40
1.0
 50
180.0
 51
270.0
  0
LINE
  5
BFDA
  8
01
 10
814.18766116632332
 20
-2138.2340815977432
 30
0.0
 11
806.68766116632321
 21
-2138.2340815977432
 31
0.0
  0
ARC
  5
BFDB
  8
01
 10
806.68766116632321
 20
-2139.2340815977432
 30
0.0
 40
1.0
 50
90.0
 51
180.0
  0
ARC
  5
BFF6
  8
01
 10
1004.187657166323
 20
-2163.2340815977432
 30
0.0
 40
25.0
 50
13.603031046701711
 51
346.3969689532982
  0
ARC
  5
BFFC
  8
01
 10
1018.941508934527
 20
-2183.2814601913851
 30
0.0
 40
15.0
 50
84.112682133585508
 51
138.90232941312789
  0
ARC
  5
BFFD
  8
01
 10
1018.941508934527
 20
-2143.1867030041012
 30
0.0
 40
15.0
 50
221.097670586872
 51
275.88731786641449
  0
ARC
  5
BFFE
  8
01
 10
987.73765716632386
 20
-2163.2340815977432
 30
0.0
 40
26.0
 50
13.99822588533932
 51
17.600626102072091
  0
ARC
  5
BFFF
  8
01
 10
987.73765716632386
 20
-2163.2340815977432
 30
0.0
 40
26.0
 50
342.39937389792789
 51
346.00177411466058
  0
ARC
  5
C000
  8
01
 10
1020.6376571663239
 20
-2163.2340815977432
 30
0.0
 40
26.0
 50
162.39937389792789
 51
180.0
  0
LINE
  5
C001
  8
01
 10
863.18766116632332
 20
-2148.2340815977432
 30
0.0
 11
863.18766116632423
 21
-2163.2340815977432
 31
0.0
  0
LINE
  5
C002
  8
01
 10
864.18766116632332
 20
-2148.2340815977432
 30
0.0
 11
863.18766116632332
 21
-2148.2340815977432
 31
0.0
  0
LINE
  5
C003
  8
01
 10
864.18766116632332
 20
-2178.2340815977432
 30
0.0
 11
863.18766116632332
 21
-2178.2340815977432
 31
0.0
  0
ARC
  5
C004
  8
01
 10
908.68766116632344
 20
-2143.7340815977432
 30
0.0
 40
27.0
 50
265.09485852090683
 51
279.68980735130953
  0
ARC
  5
C005
  8
01
 10
908.68766116632344
 20
-2182.7340815977432
 30
0.0
 40
27.0
 50
80.310192648690531
 51
94.905141479093146
  0
ARC
  5
C006
  8
01
 10
911.21237153991706
 20
-2158.5200830020949
 30
0.0
 40
12.0
 50
279.68980735130953
 51
313.51196948267392
  0
ARC
  5
C007
  8
01
 10
911.21237153991706
 20
-2167.9480801933919
 30
0.0
 40
12.0
 50
46.488030517326052
 51
80.310192648690531
  0
ARC
  5
C008
  8
01
 10
915.68766116632344
 20
-2163.2340815977432
 30
0.0
 40
5.5
 50
313.51196948267392
 51
0.0
  0
ARC
  5
C009
  8
01
 10
915.68766116632344
 20
-2163.2340815977432
 30
0.0
 40
5.5
 50
0.0
 51
46.488030517326052
  0
ARC
  5
C00A
  8
01
 10
1066.6376571663241
 20
-1720.7340815977429
 30
0.0
 40
450.0
 50
264.11268213358551
 51
274.76302667072468
  0
ARC
  5
C00B
  8
01
 10
1066.6376571663241
 20
-2605.7340815977432
 30
0.0
 40
450.0
 50
85.236973329275244
 51
95.887317866414477
  0
ARC
  5
C00C
  8
01
 10
1099.0212224594809
 20
-2109.3872749448501
 30
0.0
 40
60.0
 50
274.76302667072468
 51
288.58742685753168
  0
ARC
  5
C00D
  8
01
 10
1112.6376571663241
 20
-2163.2340815977432
 30
0.0
 40
7.0
 50
346.96396127509922
 51
13.03603872487388
  0
ARC
  5
C00E
  8
01
 10
1099.0212224594809
 20
-2217.0808882506358
 30
0.0
 40
60.0
 50
71.412573142468304
 51
85.236973329275244
  0
ARC
  5
C00F
  8
01
 10
1117.508799061786
 20
-2164.361901013373
 30
0.0
 40
2.0
 50
288.58742685753168
 51
346.96396127512611
  0
ARC
  5
C010
  8
01
 10
1117.508799061786
 20
-2162.1062621821129
 30
0.0
 40
2.0
 50
13.03603872487388
 51
71.412573142468304
  0
ARC
  5
C011
  8
01
 10
1020.6376571663239
 20
-2163.2340815977432
 30
0.0
 40
26.0
 50
180.0
 51
197.60062610207211
  0
LINE
  5
C012
  8
01
 10
863.18766116632423
 20
-2163.2340815977432
 30
0.0
 11
863.18766116632332
 21
-2178.2340815977432
 31
0.0
  0
ARC
  5
C013
  8
01
 10
1000.129092892814
 20
-2159.3031376098111
 30
0.0
 40
13.0
 50
17.600626102072091
 51
39.112573138829653
  0
ARC
  5
C014
  8
01
 10
1008.246221439834
 20
-2159.3031376098111
 30
0.0
 40
13.0
 50
140.8874268611703
 51
162.39937389792789
  0
ARC
  5
C015
  8
01
 10
1004.187657166323
 20
-2156.0033528005879
 30
0.0
 40
7.769271202845375
 50
39.112573138829653
 51
140.8874268611703
  0
ARC
  5
C016
  8
01
 10
1000.129092892814
 20
-2167.1650255856762
 30
0.0
 40
13.0
 50
320.88742686117041
 51
342.39937389792789
  0
ARC
  5
C017
  8
01
 10
1008.246221439834
 20
-2167.1650255856762
 30
0.0
 40
13.0
 50
197.60062610207211
 51
219.1125731388297
  0
ARC
  5
C018
  8
01
 10
1004.187657166323
 20
-2170.464810394898
 30
0.0
 40
7.769271202845375
 50
219.1125731388297
 51
320.88742686117041
  0
ARC
  5
C019
  8
01
 10
864.18766116632332
 20
-2283.0340815977429
 30
0.0
 40
134.80000000000001
 50
76.908280987877447
 51
90.0
  0
ARC
  5
C01A
  8
01
 10
881.13064924659955
 20
-2210.1782297057262
 30
0.0
 40
60.0
 50
55.917936414953097
 51
76.908280987877447
  0
ARC
  5
C01B
  8
01
 10
864.18766116632332
 20
-2043.4340815977439
 30
0.0
 40
134.80000000000001
 50
270.0
 51
283.09171901212261
  0
ARC
  5
C01C
  8
01
 10
881.13064924660046
 20
-2116.2899334897611
 30
0.0
 40
60.0
 50
283.09171901212261
 51
304.08206358504691
  0
LINE
  5
C01D
  8
01
 10
862.68766116632332
 20
-2171.1819146180228
 30
0.0
 11
863.18766116632332
 21
-2171.1819146180228
 31
0.0
  0
LINE
  5
C01E
  8
01
 10
862.68766116632332
 20
-2155.286248577464
 30
0.0
 11
863.18766116632332
 21
-2155.286248577464
 31
0.0
  0
LINE
  5
C01F
  8
01
 10
994.63777350606915
 20
-1922.011148794403
 30
0.0
 11
1013.737773506068
 21
-1922.011148794403
 31
0.0
  0
ARC
  5
C020
  8
01
 10
1144.6377735060689
 20
-1923.011148794403
 30
0.0
 40
150.0
 50
180.0
 51
191.77757693431059
  0
LINE
  5
C021
  8
01
 10
994.63777350606915
 20
-1923.011148794403
 30
0.0
 11
994.63777350606915
 21
-1922.011148794403
 31
0.0
  0
LINE
  5
C022
  8
01
 10
1013.737773506068
 20
-1923.011148794403
 30
0.0
 11
1013.737773506068
 21
-1922.011148794403
 31
0.0
  0
ARC
  5
C023
  8
01
 10
1066.6377735060689
 20
-2305.0111487944032
 30
0.0
 40
350.0
 50
85.048450687360216
 51
97.39596647792149
  0
ARC
  5
C024
  8
01
 10
1066.6377735060689
 20
-1800.011148794403
 30
0.0
 40
180.0
 50
253.36654646881101
 51
279.81121064858797
  0
ARC
  5
C025
  8
01
 10
1091.6686321073739
 20
-2016.0934163554241
 30
0.0
 40
60.0
 50
65.702643773330053
 51
85.048450687360216
  0
ARC
  5
C026
  8
01
 10
1083.6780038566269
 20
-1898.5486063909941
 30
0.0
 40
80.0
 50
279.81121064858797
 51
294.09579607104303
  0
ARC
  5
C027
  8
01
 10
1114.063179145433
 20
-1966.4888899292041
 30
0.0
 40
5.5745943606361834
 50
294.09579607104303
 51
65.702643773330053
  0
ARC
  5
C028
  8
01
 10
1020.553942707504
 20
-1949.9896275609301
 30
0.0
 40
8.0
 50
174.97488167902441
 51
277.39596647792149
  0
ARC
  5
C029
  8
01
 10
1022.2693554284
 20
-1948.5252675753629
 30
0.0
 40
25.0
 50
191.77757693431059
 51
253.36654646881101
  0
ARC
  5
C02A
  8
01
 10
863.73777350606861
 20
-1923.0111487944
 30
0.0
 40
150.0
 50
357.32522551226691
 51
0.0
  0
ARC
  5
C02B
  8
01
 10
776.06975627990005
 20
-1927.482668909669
 30
0.0
 40
237.51805361880409
 50
354.73233232331381
 51
359.3900507343858
  0
LINE
  5
C02D
  8
01
 10
1012.137773506069
 20
-1922.011148794403
 30
0.0
 11
1012.137773506069
 21
-1921.7340815987709
 31
0.0
  0
LINE
  5
C02E
  8
01
 10
996.23777350606861
 20
-1922.011148794403
 30
0.0
 11
996.2377735060677
 21
-1921.7340815987709
 31
0.0
  0
LINE
  5
C036
  8
01
 10
994.63777350606915
 20
-1864.45701440314
 30
0.0
 11
1001.687773506061
 21
-1864.45701440314
 31
0.0
  0
ARC
  5
C037
  8
01
 10
1144.6377735060689
 20
-1863.45701440314
 30
0.0
 40
150.0
 50
168.22242306568941
 51
180.0
  0
LINE
  5
C038
  8
01
 10
994.63777350606915
 20
-1863.45701440314
 30
0.0
 11
994.63777350606915
 21
-1864.45701440314
 31
0.0
  0
LINE
  5
C039
  8
01
 10
1013.737773506068
 20
-1863.45701440314
 30
0.0
 11
1013.737773506068
 21
-1864.45701440314
 31
0.0
  0
ARC
  5
C03A
  8
01
 10
1066.6377735060689
 20
-1481.4570144031391
 30
0.0
 40
350.0
 50
262.60403352207851
 51
274.95154931263983
  0
ARC
  5
C03B
  8
01
 10
1066.6377735060689
 20
-1986.4570144031391
 30
0.0
 40
180.0
 50
80.188789351411998
 51
106.63345353118901
  0
ARC
  5
C03C
  8
01
 10
1091.6686321073739
 20
-1770.3747468421191
 30
0.0
 40
60.0
 50
274.95154931263983
 51
294.29735622666988
  0
ARC
  5
C03D
  8
01
 10
1083.6780038566269
 20
-1887.9195568065491
 30
0.0
 40
80.0
 50
65.904203928957003
 51
80.188789351411998
  0
ARC
  5
C03E
  8
01
 10
1114.063179145433
 20
-1819.9792732683379
 30
0.0
 40
5.5745943606361834
 50
294.29735622666988
 51
65.904203928957003
  0
ARC
  5
C03F
  8
01
 10
1020.553942707504
 20
-1836.4785356366131
 30
0.0
 40
8.0
 50
82.604033522078495
 51
185.02511832097551
  0
ARC
  5
C040
  8
01
 10
1022.2693554284
 20
-1837.9428956221791
 30
0.0
 40
25.0
 50
106.63345353118901
 51
168.22242306568941
  0
ARC
  5
C041
  8
01
 10
863.73777350606861
 20
-1863.4570144031429
 30
0.0
 40
150.0
 50
0.0
 51
2.674774487733103
  0
ARC
  5
C042
  8
01
 10
776.06975627990005
 20
-1858.9854942878731
 30
0.0
 40
237.51805361880409
 50
0.60994926561421
 51
5.2676676766862318
  0
LINE
  5
C044
  8
01
 10
1012.137773506069
 20
-1864.45701440314
 30
0.0
 11
1012.137773506069
 21
-1864.7340815987709
 31
0.0
  0
LINE
  5
C045
  8
01
 10
996.23777350606861
 20
-1864.45701440314
 30
0.0
 11
996.2377735060677
 21
-1864.7340815987709
 31
0.0
  0
ARC
  5
C046
  8
01
 10
664.18766516632286
 20
-2163.2340815977432
 30
0.0
 40
25.0
 50
193.60303104670169
 51
166.3969689532716
  0
ARC
  5
C047
  8
01
 10
649.43381339811947
 20
-2183.2814601913851
 30
0.0
 40
15.0
 50
41.097670586872077
 51
95.887317866414477
  0
ARC
  5
C048
  8
01
 10
649.43381339811947
 20
-2143.1867030041012
 30
0.0
 40
15.0
 50
264.11268213358551
 51
318.90232941312792
  0
ARC
  5
C049
  8
01
 10
680.63766516632256
 20
-2163.2340815977432
 30
0.0
 40
26.0
 50
162.39937389792789
 51
166.00177411466061
  0
ARC
  5
C04A
  8
01
 10
680.63766516632256
 20
-2163.2340815977432
 30
0.0
 40
26.0
 50
193.99822588533931
 51
197.60062610207211
  0
ARC
  5
C04B
  8
01
 10
647.73766516632213
 20
-2163.2340815977432
 30
0.0
 40
26.0
 50
0.0
 51
17.600626102072081
  0
LINE
  5
C04C
  8
01
 10
805.18766116632332
 20
-2148.2340815977432
 30
0.0
 11
805.18766116632241
 21
-2163.2340815977432
 31
0.0
  0
LINE
  5
C04D
  8
01
 10
804.18766116632344
 20
-2148.2340815977432
 30
0.0
 11
805.18766116632332
 21
-2148.2340815977432
 31
0.0
  0
LINE
  5
C04E
  8
01
 10
804.18766116632344
 20
-2178.2340815977432
 30
0.0
 11
805.18766116632332
 21
-2178.2340815977432
 31
0.0
  0
ARC
  5
C04F
  8
01
 10
759.68766116632332
 20
-2143.7340815977432
 30
0.0
 40
27.0
 50
260.31019264869047
 51
274.90514147909317
  0
ARC
  5
C050
  8
01
 10
759.68766116632332
 20
-2182.7340815977432
 30
0.0
 40
27.0
 50
85.094858520906854
 51
99.689807351309483
  0
ARC
  5
C051
  8
01
 10
757.16295079272959
 20
-2158.5200830020949
 30
0.0
 40
12.0
 50
226.488030517326
 51
260.31019264869047
  0
ARC
  5
C052
  8
01
 10
757.16295079272959
 20
-2167.9480801933919
 30
0.0
 40
12.0
 50
99.689807351309483
 51
133.51196948267389
  0
ARC
  5
C053
  8
01
 10
752.68766116632332
 20
-2163.2340815977432
 30
0.0
 40
5.5
 50
180.0
 51
226.488030517326
  0
ARC
  5
C054
  8
01
 10
752.68766116632332
 20
-2163.2340815977432
 30
0.0
 40
5.5
 50
133.51196948267389
 51
180.0
  0
ARC
  5
C055
  8
01
 10
601.73766516632213
 20
-1720.7340815977429
 30
0.0
 40
450.0
 50
265.2369733292752
 51
275.88731786641449
  0
ARC
  5
C056
  8
01
 10
601.73766516632213
 20
-2605.7340815977432
 30
0.0
 40
450.0
 50
84.112682133585508
 51
94.763026670724756
  0
ARC
  5
C057
  8
01
 10
569.35409987316552
 20
-2109.3872749448501
 30
0.0
 40
60.0
 50
251.4125731424682
 51
265.2369733292752
  0
ARC
  5
C058
  8
01
 10
555.73766516632213
 20
-2163.2340815977432
 30
0.0
 40
7.0
 50
166.963961275126
 51
193.03603872487389
  0
ARC
  5
C059
  8
01
 10
569.35409987316552
 20
-2217.0808882506358
 30
0.0
 40
60.0
 50
94.763026670724756
 51
108.5874268575317
  0
ARC
  5
C05A
  8
01
 10
550.8665232708604
 20
-2164.361901013373
 30
0.0
 40
2.0
 50
193.03603872487389
 51
251.4125731424682
  0
ARC
  5
C05B
  8
01
 10
550.8665232708604
 20
-2162.1062621821129
 30
0.0
 40
2.0
 50
108.5874268575317
 51
166.963961275126
  0
ARC
  5
C05C
  8
01
 10
647.73766516632213
 20
-2163.2340815977432
 30
0.0
 40
26.0
 50
342.39937389792789
 51
0.0
  0
LINE
  5
C05D
  8
01
 10
805.18766116632241
 20
-2163.2340815977432
 30
0.0
 11
805.18766116632332
 21
-2178.2340815977432
 31
0.0
  0
ARC
  5
C05E
  8
01
 10
668.2462294398324
 20
-2159.3031376098111
 30
0.0
 40
13.0
 50
140.8874268611703
 51
162.39937389792789
  0
ARC
  5
C05F
  8
01
 10
660.12910089281229
 20
-2159.3031376098111
 30
0.0
 40
13.0
 50
17.600626102072081
 51
39.112573138829653
  0
ARC
  5
C060
  8
01
 10
664.18766516632286
 20
-2156.0033528005879
 30
0.0
 40
7.769271202845375
 50
39.112573138829653
 51
140.8874268611703
  0
ARC
  5
C061
  8
01
 10
668.2462294398324
 20
-2167.1650255856762
 30
0.0
 40
13.0
 50
197.60062610207211
 51
219.1125731388297
  0
ARC
  5
C062
  8
01
 10
660.12910089281229
 20
-2167.1650255856762
 30
0.0
 40
13.0
 50
320.88742686117041
 51
342.39937389792789
  0
ARC
  5
C063
  8
01
 10
664.18766516632286
 20
-2170.464810394898
 30
0.0
 40
7.769271202845375
 50
219.1125731388297
 51
320.88742686117041
  0
ARC
  5
C064
  8
01
 10
804.18766116632344
 20
-2283.0340815977429
 30
0.0
 40
134.80000000000001
 50
90.0
 51
103.0917190121225
  0
ARC
  5
C065
  8
01
 10
787.24467308604687
 20
-2210.1782297057262
 30
0.0
 40
60.0
 50
103.0917190121225
 51
124.0820635850469
  0
ARC
  5
C066
  8
01
 10
804.18766116632344
 20
-2043.4340815977439
 30
0.0
 40
134.80000000000001
 50
256.9082809878775
 51
270.0
  0
ARC
  5
C067
  8
01
 10
787.24467308604608
 20
-2116.2899334897611
 30
0.0
 40
60.0
 50
235.91793641495309
 51
256.9082809878775
  0
LINE
  5
C068
  8
01
 10
805.68766116632321
 20
-2171.1819146180228
 30
0.0
 11
805.18766116632332
 21
-2171.1819146180228
 31
0.0
  0
LINE
  5
C069
  8
01
 10
805.68766116632321
 20
-2155.286248577464
 30
0.0
 11
805.18766116632332
 21
-2155.286248577464
 31
0.0
  0
CIRCLE
  5
C218
  8
01
 10
1004.187657166324
 20
-2105.8341215977462
 30
0.0
 40
2.5
  0
LINE
  5
C242
  8
01
 10
1006.687773506063
 20
-1864.45701440314
 30
0.0
 11
1013.737773506068
 21
-1864.45701440314
 31
0.0
  0
LINE
  5
C263
  8
01
 10
807.88766116632326
 20
-2127.0340715977432
 30
0.0
 11
807.88766116632326
 21
-2088.0340715977441
 31
0.0
  0
LINE
  5
C265
  8
01
 10
814.18766116632332
 20
-2127.5340715977432
 30
0.0
 11
808.38766116632326
 21
-2127.5340715977432
 31
0.0
  0
ARC
  5
C266
  8
01
 10
808.38766116632326
 20
-2127.0340715977432
 30
0.0
 40
0.5
 50
180.0
 51
270.0
  0
LINE
  5
C267
  8
01
 10
814.1876611663231
 20
-2087.5340715977432
 30
0.0
 11
808.38766116632326
 21
-2087.5340715977441
 31
0.0
  0
ARC
  5
C268
  8
01
 10
808.38766116632326
 20
-2088.0340715977441
 30
0.0
 40
0.5
 50
90.0
 51
180.0
  0
LINE
  5
C269
  8
01
 10
789.85964412662088
 20
-2113.03407159775
 30
0.0
 11
816.7715885211245
 21
-2113.03407159775
 31
0.0
  0
LINE
  5
C26A
  8
01
 10
793.18727560060165
 20
-2124.034076597743
 30
0.0
 11
807.88766116632326
 21
-2124.034076597743
 31
0.0
  0
LINE
  5
C26B
  8
01
 10
806.6872985448133
 20
-2102.534076597743
 30
0.0
 11
806.68729854480853
 21
-2123.534076597743
 31
0.0
  0
LINE
  5
C26C
  8
01
 10
793.1872756006037
 20
-2102.034076597743
 30
0.0
 11
807.88766116632326
 21
-2102.034076597743
 31
0.0
  0
ARC
  5
C26D
  8
01
 10
793.1872756006037
 20
-2103.0340765977421
 30
0.0
 40
1.0
 50
90.0
 51
180.0
  0
LINE
  5
C26E
  8
01
 10
792.18727560060165
 20
-2103.0340765977421
 30
0.0
 11
792.18727560060165
 21
-2123.0340765977398
 31
0.0
  0
ARC
  5
C26F
  8
01
 10
793.18727560060165
 20
-2123.0340765977398
 30
0.0
 40
1.0
 50
180.0
 51
270.0
  0
ARC
  5
C270
  8
01
 10
807.18729854480841
 20
-2102.534076597743
 30
0.0
 40
0.5
 50
90.0
 51
179.99999999997391
  0
ARC
  5
C271
  8
01
 10
807.18729854480841
 20
-2123.534076597743
 30
0.0
 40
0.5
 50
179.99999999997391
 51
270.0
  0
LINE
  5
C272
  8
01
 10
812.68766116632469
 20
-2127.53407159775
 30
0.0
 11
814.18766116632469
 21
-2127.53407159775
 31
0.0
  0
TEXT
  5
C2D4
  8
01
 10
664.90427030689023
 20
-1932.774792811224
 30
0.0
 40
6.0
  1
ヘアライン
 72
     1
 11
682.10427030689016
 21
-1932.774792811224
 31
0.0
  0
TEXT
  5
C2D6
  8
01
 10
675.70427030689018
 20
-1922.311355383154
 30
0.0
 40
6.0
  1
鏡面
 72
     1
 11
682.10427030689016
 21
-1922.311355383154
 31
0.0
  0
TEXT
  5
C2DF
  8
01
 10
659.93284173546169
 20
-1943.274792811224
 30
0.0
 40
6.0
  1
鏡面+ヘアライン
 41
0.8
 72
     1
 11
682.10427030689016
 21
-1943.274792811224
 31
0.0
  0
LINE
  5
C36E
  8
01
 10
1022.187657166324
 20
-2145.8847300248458
 30
0.0
 11
1022.187657166324
 21
-2179.2340815977432
 31
0.0
  0
LINE
  5
C36F
  8
01
 10
1022.187657166324
 20
-2179.2340815977432
 30
0.0
 11
984.97828445402683
 21
-2179.2340815977432
 31
0.0
  0
LINE
  5
C371
  8
01
 10
1022.187657166324
 20
-2104.7340815977432
 30
0.0
 11
1022.187657166324
 21
-2116.4518788190289
 31
0.0
  0
LINE
  5
C372
  8
01
 10
1001.187657166324
 20
-2104.7340815977432
 30
0.0
 11
1007.187657166324
 21
-2104.7340815977432
 31
0.0
  0
LINE
  5
C373
  8
01
 10
1014.187657166324
 20
-2104.7340815977432
 30
0.0
 11
1022.187657166324
 21
-2104.7340815977432
 31
0.0
  0
LINE
  5
C374
  8
01
 10
1001.187657166324
 20
-2105.7340815977418
 30
0.0
 11
1001.187657166324
 21
-2104.7340815977432
 31
0.0
  0
LINE
  5
C375
  8
01
 10
1007.187657166324
 20
-2105.7340815977432
 30
0.0
 11
1007.187657166324
 21
-2104.7340815977432
 31
0.0
  0
ARC
  5
C376
  8
01
 10
997.68765716632402
 20
-2105.7340815977432
 30
0.0
 40
3.5
 50
179.99999999997391
 51
0.0000000000260551
  0
ARC
  5
C377
  8
01
 10
1010.687657166324
 20
-2105.7340815977432
 30
0.0
 40
3.5
 50
180.0
 51
0.0
  0
CIRCLE
  5
C378
  8
01
 10
1004.187657166035
 20
-2113.234081598031
 30
0.0
 40
6.0
  0
LINE
  5
C379
  8
01
 10
994.18765716632402
 20
-2104.7340815977432
 30
0.0
 11
984.41393691058033
 21
-2104.7340815977432
 31
0.0
  0
LINE
  5
C37A
  8
01
  6
BYBLOCK
 10
984.41393691058033
 20
-2104.7340815977432
 30
0.0
 11
956.18765716632424
 21
-2104.7340815977432
 31
0.0
  0
LINE
  5
C37B
  8
01
 10
994.18765716632379
 20
-2105.7340815977418
 30
0.0
 11
994.18765716632402
 21
-2104.7340815977432
 31
0.0
  0
LINE
  5
C37C
  8
01
 10
1014.187657166324
 20
-2105.7340815977432
 30
0.0
 11
1014.187657166324
 21
-2104.7340815977432
 31
0.0
  0
LINE
  5
C37D
  8
01
  6
BYBLOCK
 10
683.96137709960612
 20
-2104.7340815977432
 30
0.0
 11
712.18766516632331
 21
-2104.7340815977432
 31
0.0
  0
LINE
  5
C37E
  8
01
  6
BYBLOCK
 10
1010.188541348095
 20
-1882.9840815987709
 30
0.0
 11
998.18854134809544
 21
-1882.9840815987709
 31
0.0
  0
LINE
  5
C37F
  8
01
  6
BYBLOCK
 10
998.18854134809544
 20
-1903.4840815987709
 30
0.0
 11
1010.188541348095
 21
-1903.4840815987709
 31
0.0
  0
LINE
  5
C380
  8
01
  6
BYBLOCK
 10
998.18854134809544
 20
-1903.4840815987709
 30
0.0
 11
998.18854134809544
 21
-1902.7340815987709
 31
0.0
  0
LINE
  5
C381
  8
01
  6
BYBLOCK
 10
998.18854134809544
 20
-1883.7340815987709
 30
0.0
 11
998.18854134809544
 21
-1882.9840815987709
 31
0.0
  0
LINE
  5
C382
  8
01
  6
BYBLOCK
 10
1010.188541348095
 20
-1903.4840815987709
 30
0.0
 11
1010.188541348095
 21
-1902.7340815987709
 31
0.0
  0
LINE
  5
C383
  8
01
  6
BYBLOCK
 10
1010.188541348095
 20
-1883.7340815987709
 30
0.0
 11
1010.188541348095
 21
-1882.9840815987709
 31
0.0
  0
TEXT
  5
C51E
  8
01
 10
931.57081825934085
 20
-1943.6507482654381
 30
0.0
 40
4.5499999999999989
  1
材質：ステンレス
  0
TEXT
  5
C51F
  8
01
 10
925.50415159267425
 20
-1951.2340815987709
 30
0.0
 40
4.5499999999999989
  1
仕上げ：各種仕上げ
  0
SOLID
  5
C520
  8
01
 10
1001.610512805608
 20
-1932.388069738681
 30
0.0
 11
1003.928258406385
 21
-1931.132747824646
 31
0.0
 12
1002.142927783175
 22
-1933.0719157760129
 32
0.0
 13
1002.142927783175
 23
-1933.0719157760129
 33
0.0
1001
ACAD
1000
DSTYLE
1002
{
1070
    40
1040
1.3
1002
}
  0
LINE
  5
C522
  8
01
 10
1010.188541348095
 20
-1882.9840815987709
 30
0.0
 11
1045.348932108097
 21
-1882.9840815987709
 31
0.0
  0
LINE
  5
C523
  8
01
 10
1010.188541348095
 20
-1903.4840815987709
 30
0.0
 11
1045.348932108097
 21
-1903.4840815987709
 31
0.0
  0
LINE
  5
C524
  8
01
 10
1044.048932108097
 20
-1885.584081598771
 30
0.0
 11
1044.048932108097
 21
-1900.884081598771
 31
0.0
  0
LINE
  5
C528
  8
01
 10
1022.187657166324
 20
-2104.7340815977432
 30
0.0
 11
1050.487657166324
 21
-2104.7340815977432
 31
0.0
  0
LINE
  5
C529
  8
01
 10
1022.187657166324
 20
-2179.2340815977432
 30
0.0
 11
1050.487657166324
 21
-2179.2340815977432
 31
0.0
  0
LINE
  5
C52A
  8
01
 10
1049.187657166324
 20
-2107.3340815977431
 30
0.0
 11
1049.187657166324
 21
-2176.6340815977428
 31
0.0
  0
LINE
  5
C52E
  8
01
 10
1106.9429215034161
 20
-1913.234081598772
 30
0.0
 11
1139.5390403683241
 21
-1913.234081598772
 31
0.0
  0
LINE
  5
C52F
  8
01
 10
1066.6377735060689
 20
-1980.011148794403
 30
0.0
 11
1139.5390403683241
 21
-1980.011148794403
 31
0.0
  0
LINE
  5
C530
  8
01
 10
1138.2390403683239
 20
-1915.8340815987719
 30
0.0
 11
1138.2390403683239
 21
-1977.4111487944031
 31
0.0
  0
LINE
  5
C534
  8
01
 10
1106.9429215034161
 20
-1913.234081598772
 30
0.0
 11
1129.5390403683241
 21
-1913.234081598772
 31
0.0
  0
LINE
  5
C535
  8
01
 10
1066.6377735060689
 20
-1955.011148794403
 30
0.0
 11
1129.5390403683241
 21
-1955.011148794403
 31
0.0
  0
LINE
  5
C536
  8
01
 10
1128.2390403683239
 20
-1915.8340815987719
 30
0.0
 11
1128.2390403683239
 21
-1952.4111487944031
 31
0.0
  0
LINE
  5
C53A
  8
01
 10
994.63777350606915
 20
-1922.011148794403
 30
0.0
 11
994.63777350606915
 21
-2008.084081598771
 31
0.0
  0
LINE
  5
C53B
  8
01
 10
1119.637764882495
 20
-1966.498695324445
 30
0.0
 11
1119.637764882495
 21
-2008.084081598771
 31
0.0
  0
LINE
  5
C53C
  8
01
 10
997.23777350606906
 20
-2006.7840815987711
 30
0.0
 11
1117.0377648824949
 21
-2006.7840815987711
 31
0.0
  0
LINE
  5
C540
  8
01
 10
1004.187773506069
 20
-1933.0252914856189
 30
0.0
 11
1004.187773506069
 21
-1998.084081598771
 31
0.0
  0
LINE
  5
C541
  8
01
 10
1119.637764882495
 20
-1966.498695324445
 30
0.0
 11
1119.637764882495
 21
-1998.084081598771
 31
0.0
  0
LINE
  5
C542
  8
01
 10
1006.787773506069
 20
-1996.7840815987711
 30
0.0
 11
1117.0377648824949
 21
-1996.7840815987711
 31
0.0
  0
LINE
  5
C546
  8
01
 10
814.18766116632366
 20
-2070.736701597742
 30
0.0
 11
814.18766116632366
 21
-2056.2340815977432
 31
0.0
  0
LINE
  5
C547
  8
01
 10
792.18727560060358
 20
-2103.0340765977421
 30
0.0
 11
792.18727560060358
 21
-2056.2340815977432
 31
0.0
  0
LINE
  5
C548
  8
01
 10
812.18766116632366
 20
-2057.2340815977432
 30
0.0
 11
794.1872756006037
 21
-2057.2340815977432
 31
0.0
  0
LINE
  5
C54C
  8
01
 10
1004.187657166325
 20
-2138.2340815977432
 30
0.0
 11
967.88765716632474
 21
-2138.2340815977432
 31
0.0
  0
LINE
  5
C54D
  8
01
 10
1004.187657166325
 20
-2188.2340815977418
 30
0.0
 11
967.88765716632474
 21
-2188.2340815977418
 31
0.0
  0
LINE
  5
C54E
  8
01
 10
969.18765716632481
 20
-2140.8340815977431
 30
0.0
 11
969.18765716632481
 21
-2185.6340815977419
 31
0.0
  0
LINE
  5
C552
  8
01
 10
1022.187657166325
 20
-2105.2340815977432
 30
0.0
 11
1022.187657166325
 21
-2045.934081597743
 31
0.0
  0
LINE
  5
C553
  8
01
 10
953.18765716632515
 20
-2077.2340815977432
 30
0.0
 11
953.18765716632515
 21
-2045.934081597743
 31
0.0
  0
LINE
  5
C554
  8
01
 10
1019.587657166325
 20
-2047.2340815977429
 30
0.0
 11
955.78765716632518
 21
-2047.2340815977429
 31
0.0
  0
LINE
  5
C558
  8
01
 10
840.68766116632366
 20
-2077.2340815977432
 30
0.0
 11
895.48766116632339
 21
-2077.2340815977432
 31
0.0
  0
LINE
  5
C559
  8
01
 10
840.68766116632366
 20
-2207.2340815977432
 30
0.0
 11
895.48766116632339
 21
-2207.2340815977432
 31
0.0
  0
LINE
  5
C55A
  8
01
 10
894.18766116632344
 20
-2079.8340815977431
 30
0.0
 11
894.18766116632344
 21
-2204.6340815977428
 31
0.0
  0
LINE
  5
C55E
  8
01
 10
840.68766116632366
 20
-2085.2340815977432
 30
0.0
 11
879.99125220288033
 21
-2085.2340815977432
 31
0.0
  0
LINE
  5
C55F
  8
01
 10
840.68766116632366
 20
-2199.2340815977432
 30
0.0
 11
879.99125220288033
 21
-2199.2340815977432
 31
0.0
  0
LINE
  5
C560
  8
01
 10
878.69125220288026
 20
-2087.8340815977431
 30
0.0
 11
878.69125220288026
 21
-2196.6340815977428
 31
0.0
  0
LINE
  5
C564
  8
01
 10
634.18766516632331
 20
-2163.2340815977432
 30
0.0
 11
619.88767716632367
 21
-2163.2340815977432
 31
0.0
  0
LINE
  5
C565
  8
01
 10
641.68765716632242
 20
-2107.7340815977432
 30
0.0
 11
619.88767716632367
 21
-2107.7340815977432
 31
0.0
  0
LINE
  5
C566
  8
01
 10
621.18767716632374
 20
-2160.6340815977428
 30
0.0
 11
621.18767716632374
 21
-2110.3340815977431
 31
0.0
  0
LINE
  5
C56A
  8
01
 10
634.18766516632331
 20
-2163.2340815977432
 30
0.0
 11
629.88767716632378
 21
-2163.2340815977432
 31
0.0
  0
LINE
  5
C56B
  8
01
 10
651.18765716632242
 20
-2113.2340815977432
 30
0.0
 11
629.88767716632378
 21
-2113.2340815977432
 31
0.0
  0
LINE
  5
C56C
  8
01
 10
631.18767716632374
 20
-2160.6340815977428
 30
0.0
 11
631.18767716632374
 21
-2115.8340815977431
 31
0.0
  0
LINE
  5
C570
  8
01
 10
644.38765816632213
 20
-2107.7340815977432
 30
0.0
 11
644.38765816632213
 21
-2078.934081597743
 31
0.0
  0
LINE
  5
C571
  8
01
 10
683.98765616632215
 20
-2107.7340815977432
 30
0.0
 11
683.98765616632215
 21
-2078.934081597743
 31
0.0
  0
LINE
  5
C572
  8
01
 10
646.98765816632215
 20
-2080.2340815977432
 30
0.0
 11
681.38765616632224
 21
-2080.2340815977432
 31
0.0
  0
LINE
  5
C576
  8
01
 10
984.38765816632394
 20
-2107.7340815977432
 30
0.0
 11
984.38765816632394
 21
-2078.934081597743
 31
0.0
  0
LINE
  5
C577
  8
01
 10
1023.987656166324
 20
-2107.7340815977432
 30
0.0
 11
1023.987656166324
 21
-2078.934081597743
 31
0.0
  0
LINE
  5
C578
  8
01
 10
986.98765816632385
 20
-2080.2340815977432
 30
0.0
 11
1021.3876561663239
 21
-2080.2340815977432
 31
0.0
  0
LINE
  5
C57C
  8
01
 10
854.18766116632366
 20
-2070.736701597742
 30
0.0
 11
854.18766116632366
 21
-2055.9340815977421
 31
0.0
  0
LINE
  5
C57D
  8
01
 10
862.48766416632202
 20
-2113.2340815977432
 30
0.0
 11
862.48766416632202
 21
-2055.9340815977421
 31
0.0
  0
LINE
  5
C57E
  8
01
 10
856.78766116632369
 20
-2057.2340815977432
 30
0.0
 11
859.887664166322
 21
-2057.2340815977432
 31
0.0
  0
LINE
  5
C582
  8
01
 10
800.98669927200024
 20
-2162.4840815977432
 30
0.0
 11
799.68766116632366
 21
-2161.7340815977432
 31
0.0
  0
LINE
  5
C583
  8
01
 10
799.68766116632366
 20
-2161.7340815977432
 30
0.0
 11
798.38862306064686
 21
-2162.4840815977432
 31
0.0
  0
LINE
  5
C584
  8
01
 10
798.38862306064686
 20
-2162.4840815977432
 30
0.0
 11
798.38862306064686
 21
-2163.9840815977432
 31
0.0
  0
LINE
  5
C585
  8
01
 10
798.38862306064686
 20
-2163.9840815977432
 30
0.0
 11
799.68766116632366
 21
-2164.7340815977418
 31
0.0
  0
LINE
  5
C586
  8
01
 10
799.68766116632366
 20
-2164.7340815977418
 30
0.0
 11
800.98669927200024
 21
-2163.9840815977432
 31
0.0
  0
LINE
  5
C587
  8
01
 10
800.98669927200024
 20
-2163.9840815977432
 30
0.0
 11
800.98669927200024
 21
-2162.4840815977432
 31
0.0
  0
CIRCLE
  5
C588
  8
01
 10
799.68766116632366
 20
-2163.2340815977432
 30
0.0
 40
3.0
  0
CIRCLE
  5
C589
  8
01
 10
868.68766116632366
 20
-2163.2340815977432
 30
0.0
 40
3.0
  0
LINE
  5
C58A
  8
01
 10
953.18765716632436
 20
-2077.2340815977432
 30
0.0
 11
953.18765716632436
 21
-2055.9340815977421
 31
0.0
  0
LINE
  5
C58B
  8
01
 10
1004.187657166324
 20
-2132.7037175069058
 30
0.0
 11
1004.187657166324
 21
-2055.9340815977421
 31
0.0
  0
LINE
  5
C58C
  8
01
 10
955.78765716632427
 20
-2057.2340815977432
 30
0.0
 11
1001.587657166324
 21
-2057.2340815977432
 31
0.0
  0
LINE
  5
C590
  8
01
 10
1022.187657166324
 20
-2115.9827154482659
 30
0.0
 11
1022.187657166324
 21
-2045.934081597743
 31
0.0
  0
LINE
  5
C591
  8
01
 10
953.18765716632436
 20
-2077.2340815977432
 30
0.0
 11
953.18765716632436
 21
-2045.934081597743
 31
0.0
  0
LINE
  5
C592
  8
01
 10
1019.587657166324
 20
-2047.2340815977429
 30
0.0
 11
955.78765716632427
 21
-2047.2340815977429
 31
0.0
  0
LINE
  5
C596
  8
01
 10
942.18765716632424
 20
-2135.234082295874
 30
0.0
 11
942.18765716632424
 21
-2055.9340815977421
 31
0.0
  0
LINE
  5
C597
  8
01
 10
953.18765716632436
 20
-2077.2340815977432
 30
0.0
 11
953.18765716632436
 21
-2055.9340815977421
 31
0.0
  0
LINE
  5
C598
  8
01
 10
944.78765716632415
 20
-2057.2340815977432
 30
0.0
 11
950.58765716632411
 21
-2057.2340815977432
 31
0.0
  0
LINE
  5
C59C
  8
01
 10
821.68766116632378
 20
-2083.2340815977432
 30
0.0
 11
821.68766116632378
 21
-2055.9340815977421
 31
0.0
  0
LINE
  5
C59D
  8
01
 10
846.68766116632378
 20
-2083.2340815977432
 30
0.0
 11
846.68766116632378
 21
-2055.9340815977421
 31
0.0
  0
LINE
  5
C59E
  8
01
 10
824.2876611663238
 20
-2057.2340815977432
 30
0.0
 11
844.08766116632376
 21
-2057.2340815977432
 31
0.0
  0
TEXT
  5
C5A2
  8
01
 10
829.85432783299052
 20
-2056.3240815977429
 30
0.0
 40
4.5499999999999989
  1
25
  0
LINE
  5
C5A3
  8
01
  6
BYBLOCK
 10
844.08766116632376
 20
-2056.5374137037429
 30
0.0
 11
846.68766116632378
 21
-2057.2340815977432
 31
0.0
  0
LINE
  5
C5A4
  8
01
  6
BYBLOCK
 10
846.68766116632378
 20
-2057.2340815977432
 30
0.0
 11
844.08766116632376
 21
-2057.930749491743
 31
0.0
  0
LINE
  5
C5A5
  8
01
  6
BYBLOCK
 10
846.68766116632378
 20
-2057.2340815977432
 30
0.0
 11
844.08766116632376
 21
-2057.2340815977432
 31
0.0
  0
LINE
  5
C5A6
  8
01
  6
BYBLOCK
 10
824.2876611663238
 20
-2057.930749491743
 30
0.0
 11
821.68766116632378
 21
-2057.2340815977432
 31
0.0
  0
LINE
  5
C5A7
  8
01
  6
BYBLOCK
 10
821.68766116632378
 20
-2057.2340815977432
 30
0.0
 11
824.2876611663238
 21
-2056.5374137037429
 31
0.0
  0
LINE
  5
C5A8
  8
01
  6
BYBLOCK
 10
821.68766116632378
 20
-2057.2340815977432
 30
0.0
 11
824.2876611663238
 21
-2057.2340815977432
 31
0.0
  0
TEXT
  5
C5A9
  8
01
 10
943.67932383299103
 20
-2056.3240815977429
 30
0.0
 40
4.5499999999999989
  1
11
  0
LINE
  5
C5AA
  8
01
  6
BYBLOCK
 10
950.58765716632411
 20
-2056.5374137037429
 30
0.0
 11
953.18765716632436
 21
-2057.2340815977432
 31
0.0
  0
LINE
  5
C5AB
  8
01
  6
BYBLOCK
 10
953.18765716632436
 20
-2057.2340815977432
 30
0.0
 11
950.58765716632411
 21
-2057.930749491743
 31
0.0
  0
LINE
  5
C5AC
  8
01
  6
BYBLOCK
 10
953.18765716632436
 20
-2057.2340815977432
 30
0.0
 11
950.58765716632411
 21
-2057.2340815977432
 31
0.0
  0
LINE
  5
C5AD
  8
01
  6
BYBLOCK
 10
944.78765716632415
 20
-2057.930749491743
 30
0.0
 11
942.18765716632424
 21
-2057.2340815977432
 31
0.0
  0
LINE
  5
C5AE
  8
01
  6
BYBLOCK
 10
942.18765716632424
 20
-2057.2340815977432
 30
0.0
 11
944.78765716632415
 21
-2056.5374137037429
 31
0.0
  0
LINE
  5
C5AF
  8
01
  6
BYBLOCK
 10
942.18765716632424
 20
-2057.2340815977432
 30
0.0
 11
944.78765716632415
 21
-2057.2340815977432
 31
0.0
  0
TEXT
  5
C5B0
  8
01
 10
983.35432383299087
 20
-2046.3240815977431
 30
0.0
 40
4.5499999999999989
  1
69
  0
LINE
  5
C5B1
  8
01
  6
BYBLOCK
 10
955.78765716632427
 20
-2047.930749491743
 30
0.0
 11
953.18765716632436
 21
-2047.2340815977429
 31
0.0
  0
LINE
  5
C5B2
  8
01
  6
BYBLOCK
 10
953.18765716632436
 20
-2047.2340815977429
 30
0.0
 11
955.78765716632427
 21
-2046.5374137037429
 31
0.0
  0
LINE
  5
C5B3
  8
01
  6
BYBLOCK
 10
953.18765716632436
 20
-2047.2340815977429
 30
0.0
 11
955.78765716632427
 21
-2047.2340815977429
 31
0.0
  0
LINE
  5
C5B4
  8
01
  6
BYBLOCK
 10
1019.587657166324
 20
-2046.5374137037429
 30
0.0
 11
1022.187657166324
 21
-2047.2340815977429
 31
0.0
  0
LINE
  5
C5B5
  8
01
  6
BYBLOCK
 10
1022.187657166324
 20
-2047.2340815977429
 30
0.0
 11
1019.587657166324
 21
-2047.930749491743
 31
0.0
  0
LINE
  5
C5B6
  8
01
  6
BYBLOCK
 10
1022.187657166324
 20
-2047.2340815977429
 30
0.0
 11
1019.587657166324
 21
-2047.2340815977429
 31
0.0
  0
TEXT
  5
C5B7
  8
01
 10
975.00432383299096
 20
-2056.3240815977429
 30
0.0
 40
4.5499999999999989
  1
51
  0
LINE
  5
C5B8
  8
01
  6
BYBLOCK
 10
1001.587657166324
 20
-2056.5374137037429
 30
0.0
 11
1004.187657166324
 21
-2057.2340815977432
 31
0.0
  0
LINE
  5
C5B9
  8
01
  6
BYBLOCK
 10
1004.187657166324
 20
-2057.2340815977432
 30
0.0
 11
1001.587657166324
 21
-2057.930749491743
 31
0.0
  0
LINE
  5
C5BA
  8
01
  6
BYBLOCK
 10
1004.187657166324
 20
-2057.2340815977432
 30
0.0
 11
1001.587657166324
 21
-2057.2340815977432
 31
0.0
  0
LINE
  5
C5BB
  8
01
  6
BYBLOCK
 10
955.78765716632427
 20
-2057.930749491743
 30
0.0
 11
953.18765716632436
 21
-2057.2340815977432
 31
0.0
  0
LINE
  5
C5BC
  8
01
  6
BYBLOCK
 10
953.18765716632436
 20
-2057.2340815977432
 30
0.0
 11
955.78765716632427
 21
-2056.5374137037429
 31
0.0
  0
LINE
  5
C5BD
  8
01
  6
BYBLOCK
 10
953.18765716632436
 20
-2057.2340815977432
 30
0.0
 11
955.78765716632427
 21
-2057.2340815977432
 31
0.0
  0
TEXT
  5
C5BE
  8
01
 10
856.17099599965616
 20
-2056.3240815977429
 30
0.0
 40
4.5499999999999989
  1
8
  0
LINE
  5
C5BF
  8
01
  6
BYBLOCK
 10
859.887664166322
 20
-2056.5374137037429
 30
0.0
 11
862.48766416632202
 21
-2057.2340815977432
 31
0.0
  0
LINE
  5
C5C0
  8
01
  6
BYBLOCK
 10
862.48766416632202
 20
-2057.2340815977432
 30
0.0
 11
859.887664166322
 21
-2057.930749491743
 31
0.0
  0
LINE
  5
C5C1
  8
01
  6
BYBLOCK
 10
862.48766416632202
 20
-2057.2340815977432
 30
0.0
 11
859.887664166322
 21
-2057.2340815977432
 31
0.0
  0
LINE
  5
C5C2
  8
01
  6
BYBLOCK
 10
856.78766116632369
 20
-2057.930749491743
 30
0.0
 11
854.18766116632366
 21
-2057.2340815977432
 31
0.0
  0
LINE
  5
C5C3
  8
01
  6
BYBLOCK
 10
854.18766116632366
 20
-2057.2340815977432
 30
0.0
 11
856.78766116632369
 21
-2056.5374137037429
 31
0.0
  0
LINE
  5
C5C4
  8
01
  6
BYBLOCK
 10
854.18766116632366
 20
-2057.2340815977432
 30
0.0
 11
856.78766116632369
 21
-2057.2340815977432
 31
0.0
  0
TEXT
  5
C5C5
  8
01
 10
996.99432383299074
 20
-2079.3240815977429
 30
0.0
 40
4.5499999999999989
  1
\U+03C640
  0
LINE
  5
C5C6
  8
01
  6
BYBLOCK
 10
1021.3876561663239
 20
-2079.5374137037429
 30
0.0
 11
1023.987656166324
 21
-2080.2340815977432
 31
0.0
  0
LINE
  5
C5C7
  8
01
  6
BYBLOCK
 10
1023.987656166324
 20
-2080.2340815977432
 30
0.0
 11
1021.3876561663239
 21
-2080.930749491743
 31
0.0
  0
LINE
  5
C5C8
  8
01
  6
BYBLOCK
 10
1023.987656166324
 20
-2080.2340815977432
 30
0.0
 11
1021.3876561663239
 21
-2080.2340815977432
 31
0.0
  0
LINE
  5
C5C9
  8
01
  6
BYBLOCK
 10
986.98765816632385
 20
-2080.930749491743
 30
0.0
 11
984.38765816632394
 21
-2080.2340815977432
 31
0.0
  0
LINE
  5
C5CA
  8
01
  6
BYBLOCK
 10
984.38765816632394
 20
-2080.2340815977432
 30
0.0
 11
986.98765816632385
 21
-2079.5374137037429
 31
0.0
  0
LINE
  5
C5CB
  8
01
  6
BYBLOCK
 10
984.38765816632394
 20
-2080.2340815977432
 30
0.0
 11
986.98765816632385
 21
-2080.2340815977432
 31
0.0
  0
TEXT
  5
C5CC
  8
01
 10
656.99432383298893
 20
-2079.3240815977429
 30
0.0
 40
4.5499999999999989
  1
\U+03C640
  0
LINE
  5
C5CD
  8
01
  6
BYBLOCK
 10
681.38765616632224
 20
-2079.5374137037429
 30
0.0
 11
683.98765616632215
 21
-2080.2340815977432
 31
0.0
  0
LINE
  5
C5CE
  8
01
  6
BYBLOCK
 10
683.98765616632215
 20
-2080.2340815977432
 30
0.0
 11
681.38765616632224
 21
-2080.930749491743
 31
0.0
  0
LINE
  5
C5CF
  8
01
  6
BYBLOCK
 10
683.98765616632215
 20
-2080.2340815977432
 30
0.0
 11
681.38765616632224
 21
-2080.2340815977432
 31
0.0
  0
LINE
  5
C5D0
  8
01
  6
BYBLOCK
 10
646.98765816632215
 20
-2080.930749491743
 30
0.0
 11
644.38765816632213
 21
-2080.2340815977432
 31
0.0
  0
LINE
  5
C5D1
  8
01
  6
BYBLOCK
 10
644.38765816632213
 20
-2080.2340815977432
 30
0.0
 11
646.98765816632215
 21
-2079.5374137037429
 31
0.0
  0
LINE
  5
C5D2
  8
01
  6
BYBLOCK
 10
644.38765816632213
 20
-2080.2340815977432
 30
0.0
 11
646.98765816632215
 21
-2080.2340815977432
 31
0.0
  0
TEXT
  5
C5D3
  8
01
 10
630.27767716632411
 20
-2142.5674149310762
 30
0.0
 40
4.5499999999999989
  1
50
 50
90.0
  0
LINE
  5
C5D4
  8
01
  6
BYBLOCK
 10
630.49100927232371
 20
-2115.8340815977431
 30
0.0
 11
631.18767716632374
 21
-2113.2340815977432
 31
0.0
  0
LINE
  5
C5D5
  8
01
  6
BYBLOCK
 10
631.18767716632374
 20
-2113.2340815977432
 30
0.0
 11
631.88434506032365
 21
-2115.8340815977431
 31
0.0
  0
LINE
  5
C5D6
  8
01
  6
BYBLOCK
 10
631.18767716632374
 20
-2113.2340815977432
 30
0.0
 11
631.18767716632374
 21
-2115.8340815977431
 31
0.0
  0
LINE
  5
C5D7
  8
01
  6
BYBLOCK
 10
631.88434506032365
 20
-2160.6340815977428
 30
0.0
 11
631.18767716632374
 21
-2163.2340815977432
 31
0.0
  0
LINE
  5
C5D8
  8
01
  6
BYBLOCK
 10
631.18767716632374
 20
-2163.2340815977432
 30
0.0
 11
630.49100927232371
 21
-2160.6340815977428
 31
0.0
  0
LINE
  5
C5D9
  8
01
  6
BYBLOCK
 10
631.18767716632374
 20
-2163.2340815977432
 30
0.0
 11
631.18767716632374
 21
-2160.6340815977428
 31
0.0
  0
TEXT
  5
C5DA
  8
01
 10
620.277677166324
 20
-2143.0674149310762
 30
0.0
 40
4.5499999999999989
  1
55.5
 50
90.0
  0
LINE
  5
C5DB
  8
01
  6
BYBLOCK
 10
620.49100927232371
 20
-2110.3340815977431
 30
0.0
 11
621.18767716632374
 21
-2107.7340815977432
 31
0.0
  0
LINE
  5
C5DC
  8
01
  6
BYBLOCK
 10
621.18767716632374
 20
-2107.7340815977432
 30
0.0
 11
621.88434506032365
 21
-2110.3340815977431
 31
0.0
  0
LINE
  5
C5DD
  8
01
  6
BYBLOCK
 10
621.18767716632374
 20
-2107.7340815977432
 30
0.0
 11
621.18767716632374
 21
-2110.3340815977431
 31
0.0
  0
LINE
  5
C5DE
  8
01
  6
BYBLOCK
 10
621.88434506032365
 20
-2160.6340815977428
 30
0.0
 11
621.18767716632374
 21
-2163.2340815977432
 31
0.0
  0
LINE
  5
C5DF
  8
01
  6
BYBLOCK
 10
621.18767716632374
 20
-2163.2340815977432
 30
0.0
 11
620.49100927232371
 21
-2160.6340815977428
 31
0.0
  0
LINE
  5
C5E0
  8
01
  6
BYBLOCK
 10
621.18767716632374
 20
-2163.2340815977432
 30
0.0
 11
621.18767716632374
 21
-2160.6340815977428
 31
0.0
  0
TEXT
  5
C5E1
  8
01
 10
877.78125220288064
 20
-2131.3536942507621
 30
0.0
 40
4.5499999999999989
  1
114
 50
90.0
  0
LINE
  5
C5E2
  8
01
  6
BYBLOCK
 10
879.38792009688018
 20
-2196.6340815977428
 30
0.0
 11
878.69125220288026
 21
-2199.2340815977432
 31
0.0
  0
LINE
  5
C5E3
  8
01
  6
BYBLOCK
 10
878.69125220288026
 20
-2199.2340815977432
 30
0.0
 11
877.99458430888012
 21
-2196.6340815977428
 31
0.0
  0
LINE
  5
C5E4
  8
01
  6
BYBLOCK
 10
878.69125220288026
 20
-2199.2340815977432
 30
0.0
 11
878.69125220288026
 21
-2196.6340815977428
 31
0.0
  0
LINE
  5
C5E5
  8
01
  6
BYBLOCK
 10
877.99458430888012
 20
-2087.8340815977431
 30
0.0
 11
878.69125220288026
 21
-2085.2340815977432
 31
0.0
  0
LINE
  5
C5E6
  8
01
  6
BYBLOCK
 10
878.69125220288026
 20
-2085.2340815977432
 30
0.0
 11
879.38792009688018
 21
-2087.8340815977431
 31
0.0
  0
LINE
  5
C5E7
  8
01
  6
BYBLOCK
 10
878.69125220288026
 20
-2085.2340815977432
 30
0.0
 11
878.69125220288026
 21
-2087.8340815977431
 31
0.0
  0
TEXT
  5
C5E8
  8
01
 10
893.2776611663237
 20
-2131.2453609174281
 30
0.0
 40
4.5499999999999989
  1
130
 50
90.0
  0
LINE
  5
C5E9
  8
01
  6
BYBLOCK
 10
894.88432906032335
 20
-2204.6340815977428
 30
0.0
 11
894.18766116632344
 21
-2207.2340815977432
 31
0.0
  0
LINE
  5
C5EA
  8
01
  6
BYBLOCK
 10
894.18766116632344
 20
-2207.2340815977432
 30
0.0
 11
893.49099327232341
 21
-2204.6340815977428
 31
0.0
  0
LINE
  5
C5EB
  8
01
  6
BYBLOCK
 10
894.18766116632344
 20
-2207.2340815977432
 30
0.0
 11
894.18766116632344
 21
-2204.6340815977428
 31
0.0
  0
LINE
  5
C5EC
  8
01
  6
BYBLOCK
 10
893.49099327232341
 20
-2079.8340815977431
 30
0.0
 11
894.18766116632344
 21
-2077.2340815977432
 31
0.0
  0
LINE
  5
C5ED
  8
01
  6
BYBLOCK
 10
894.18766116632344
 20
-2077.2340815977432
 30
0.0
 11
894.88432906032335
 21
-2079.8340815977431
 31
0.0
  0
LINE
  5
C5EE
  8
01
  6
BYBLOCK
 10
894.18766116632344
 20
-2077.2340815977432
 30
0.0
 11
894.18766116632344
 21
-2079.8340815977431
 31
0.0
  0
TEXT
  5
C5EF
  8
01
 10
983.35432383299178
 20
-2046.3240815977431
 30
0.0
 40
4.5499999999999989
  1
69
  0
LINE
  5
C5F0
  8
01
  6
BYBLOCK
 10
955.78765716632518
 20
-2047.930749491743
 30
0.0
 11
953.18765716632515
 21
-2047.2340815977429
 31
0.0
  0
LINE
  5
C5F1
  8
01
  6
BYBLOCK
 10
953.18765716632515
 20
-2047.2340815977429
 30
0.0
 11
955.78765716632518
 21
-2046.5374137037429
 31
0.0
  0
LINE
  5
C5F2
  8
01
  6
BYBLOCK
 10
953.18765716632515
 20
-2047.2340815977429
 30
0.0
 11
955.78765716632518
 21
-2047.2340815977429
 31
0.0
  0
LINE
  5
C5F3
  8
01
  6
BYBLOCK
 10
1019.587657166325
 20
-2046.5374137037429
 30
0.0
 11
1022.187657166325
 21
-2047.2340815977429
 31
0.0
  0
LINE
  5
C5F4
  8
01
  6
BYBLOCK
 10
1022.187657166325
 20
-2047.2340815977429
 30
0.0
 11
1019.587657166325
 21
-2047.930749491743
 31
0.0
  0
LINE
  5
C5F5
  8
01
  6
BYBLOCK
 10
1022.187657166325
 20
-2047.2340815977429
 30
0.0
 11
1019.587657166325
 21
-2047.2340815977429
 31
0.0
  0
TEXT
  5
C5F6
  8
01
 10
968.27765716632518
 20
-2171.767160893231
 30
0.0
 40
4.5499999999999989
  1
\U+03C650
 50
90.0
  0
LINE
  5
C5F7
  8
01
  6
BYBLOCK
 10
969.88432506032484
 20
-2185.6340815977419
 30
0.0
 11
969.18765716632481
 21
-2188.2340815977418
 31
0.0
  0
LINE
  5
C5F8
  8
01
  6
BYBLOCK
 10
969.18765716632481
 20
-2188.2340815977418
 30
0.0
 11
968.49098927232467
 21
-2185.6340815977419
 31
0.0
  0
LINE
  5
C5F9
  8
01
  6
BYBLOCK
 10
969.18765716632481
 20
-2188.2340815977418
 30
0.0
 11
969.18765716632481
 21
-2185.6340815977419
 31
0.0
  0
LINE
  5
C5FA
  8
01
  6
BYBLOCK
 10
968.49098927232467
 20
-2140.8340815977431
 30
0.0
 11
969.18765716632481
 21
-2138.2340815977432
 31
0.0
  0
LINE
  5
C5FB
  8
01
  6
BYBLOCK
 10
969.18765716632481
 20
-2138.2340815977432
 30
0.0
 11
969.88432506032484
 21
-2140.8340815977431
 31
0.0
  0
LINE
  5
C5FC
  8
01
  6
BYBLOCK
 10
969.18765716632481
 20
-2138.2340815977432
 30
0.0
 11
969.18765716632481
 21
-2140.8340815977431
 31
0.0
  0
TEXT
  5
C5FD
  8
01
 10
799.85413505013025
 20
-2056.5340815977429
 30
0.0
 40
3.5
  1
22
  0
LINE
  5
C5FE
  8
01
  6
BYBLOCK
 10
794.1872756006037
 20
-2057.7699799777429
 30
0.0
 11
792.18727560060358
 21
-2057.2340815977432
 31
0.0
  0
LINE
  5
C5FF
  8
01
  6
BYBLOCK
 10
792.18727560060358
 20
-2057.2340815977432
 30
0.0
 11
794.1872756006037
 21
-2056.698183217743
 31
0.0
  0
LINE
  5
C600
  8
01
  6
BYBLOCK
 10
792.18727560060358
 20
-2057.2340815977432
 30
0.0
 11
794.1872756006037
 21
-2057.2340815977432
 31
0.0
  0
LINE
  5
C601
  8
01
  6
BYBLOCK
 10
812.18766116632366
 20
-2056.698183217743
 30
0.0
 11
814.18766116632366
 21
-2057.2340815977432
 31
0.0
  0
LINE
  5
C602
  8
01
  6
BYBLOCK
 10
814.18766116632366
 20
-2057.2340815977432
 30
0.0
 11
812.18766116632366
 21
-2057.7699799777429
 31
0.0
  0
LINE
  5
C603
  8
01
  6
BYBLOCK
 10
814.18766116632366
 20
-2057.2340815977432
 30
0.0
 11
812.18766116632366
 21
-2057.2340815977432
 31
0.0
  0
TEXT
  5
C604
  8
01
 10
1055.0877691942819
 20
-1995.874081598771
 30
0.0
 40
4.5499999999999989
  1
115
  0
LINE
  5
C605
  8
01
  6
BYBLOCK
 10
1117.0377648824949
 20
-1996.0874137047711
 30
0.0
 11
1119.637764882495
 21
-1996.7840815987711
 31
0.0
  0
LINE
  5
C606
  8
01
  6
BYBLOCK
 10
1119.637764882495
 20
-1996.7840815987711
 30
0.0
 11
1117.0377648824949
 21
-1997.4807494927711
 31
0.0
  0
LINE
  5
C607
  8
01
  6
BYBLOCK
 10
1119.637764882495
 20
-1996.7840815987711
 30
0.0
 11
1117.0377648824949
 21
-1996.7840815987711
 31
0.0
  0
LINE
  5
C608
  8
01
  6
BYBLOCK
 10
1006.787773506069
 20
-1997.4807494927711
 30
0.0
 11
1004.187773506069
 21
-1996.7840815987711
 31
0.0
  0
LINE
  5
C609
  8
01
  6
BYBLOCK
 10
1004.187773506069
 20
-1996.7840815987711
 30
0.0
 11
1006.787773506069
 21
-1996.0874137047711
 31
0.0
  0
LINE
  5
C60A
  8
01
  6
BYBLOCK
 10
1004.187773506069
 20
-1996.7840815987711
 30
0.0
 11
1006.787773506069
 21
-1996.7840815987711
 31
0.0
  0
TEXT
  5
C60B
  8
01
 10
1050.3127691942821
 20
-2005.874081598771
 30
0.0
 40
4.5499999999999989
  1
125
  0
LINE
  5
C60C
  8
01
  6
BYBLOCK
 10
1117.0377648824949
 20
-2006.0874137047711
 30
0.0
 11
1119.637764882495
 21
-2006.7840815987711
 31
0.0
  0
LINE
  5
C60D
  8
01
  6
BYBLOCK
 10
1119.637764882495
 20
-2006.7840815987711
 30
0.0
 11
1117.0377648824949
 21
-2007.4807494927711
 31
0.0
  0
LINE
  5
C60E
  8
01
  6
BYBLOCK
 10
1119.637764882495
 20
-2006.7840815987711
 30
0.0
 11
1117.0377648824949
 21
-2006.7840815987711
 31
0.0
  0
LINE
  5
C60F
  8
01
  6
BYBLOCK
 10
997.23777350606906
 20
-2007.4807494927711
 30
0.0
 11
994.63777350606915
 21
-2006.7840815987711
 31
0.0
  0
LINE
  5
C610
  8
01
  6
BYBLOCK
 10
994.63777350606915
 20
-2006.7840815987711
 30
0.0
 11
997.23777350606906
 21
-2006.0874137047711
 31
0.0
  0
LINE
  5
C611
  8
01
  6
BYBLOCK
 10
994.63777350606915
 20
-2006.7840815987711
 30
0.0
 11
997.23777350606906
 21
-2006.7840815987711
 31
0.0
  0
TEXT
  5
C612
  8
01
 10
1127.3290403683241
 20
-1938.4559485299201
 30
0.0
 40
4.5499999999999989
  1
42
 50
90.0
  0
LINE
  5
C613
  8
01
  6
BYBLOCK
 10
1128.9357082623239
 20
-1952.4111487944031
 30
0.0
 11
1128.2390403683239
 21
-1955.011148794403
 31
0.0
  0
LINE
  5
C614
  8
01
  6
BYBLOCK
 10
1128.2390403683239
 20
-1955.011148794403
 30
0.0
 11
1127.5423724743241
 21
-1952.4111487944031
 31
0.0
  0
LINE
  5
C615
  8
01
  6
BYBLOCK
 10
1128.2390403683239
 20
-1955.011148794403
 30
0.0
 11
1128.2390403683239
 21
-1952.4111487944031
 31
0.0
  0
LINE
  5
C616
  8
01
  6
BYBLOCK
 10
1127.5423724743241
 20
-1915.8340815987719
 30
0.0
 11
1128.2390403683239
 21
-1913.234081598772
 31
0.0
  0
LINE
  5
C617
  8
01
  6
BYBLOCK
 10
1128.2390403683239
 20
-1913.234081598772
 30
0.0
 11
1128.9357082623239
 21
-1915.8340815987719
 31
0.0
  0
LINE
  5
C618
  8
01
  6
BYBLOCK
 10
1128.2390403683239
 20
-1913.234081598772
 30
0.0
 11
1128.2390403683239
 21
-1915.8340815987719
 31
0.0
  0
TEXT
  5
C619
  8
01
 10
1137.3290403683241
 20
-1951.0642818632541
 30
0.0
 40
4.5499999999999989
  1
67
 50
90.0
  0
LINE
  5
C61A
  8
01
  6
BYBLOCK
 10
1138.9357082623239
 20
-1977.4111487944031
 30
0.0
 11
1138.2390403683239
 21
-1980.011148794403
 31
0.0
  0
LINE
  5
C61B
  8
01
  6
BYBLOCK
 10
1138.2390403683239
 20
-1980.011148794403
 30
0.0
 11
1137.5423724743241
 21
-1977.4111487944031
 31
0.0
  0
LINE
  5
C61C
  8
01
  6
BYBLOCK
 10
1138.2390403683239
 20
-1980.011148794403
 30
0.0
 11
1138.2390403683239
 21
-1977.4111487944031
 31
0.0
  0
LINE
  5
C61D
  8
01
  6
BYBLOCK
 10
1137.5423724743241
 20
-1915.8340815987719
 30
0.0
 11
1138.2390403683239
 21
-1913.234081598772
 31
0.0
  0
LINE
  5
C61E
  8
01
  6
BYBLOCK
 10
1138.2390403683239
 20
-1913.234081598772
 30
0.0
 11
1138.9357082623239
 21
-1915.8340815987719
 31
0.0
  0
LINE
  5
C61F
  8
01
  6
BYBLOCK
 10
1138.2390403683239
 20
-1913.234081598772
 30
0.0
 11
1138.2390403683239
 21
-1915.8340815987719
 31
0.0
  0
TEXT
  5
C620
  8
01
 10
1048.2776571663239
 20
-2149.5674149310762
 30
0.0
 40
4.5499999999999989
  1
74.5
 50
90.0
  0
LINE
  5
C621
  8
01
  6
BYBLOCK
 10
1049.884325060324
 20
-2176.6340815977428
 30
0.0
 11
1049.187657166324
 21
-2179.2340815977432
 31
0.0
  0
LINE
  5
C622
  8
01
  6
BYBLOCK
 10
1049.187657166324
 20
-2179.2340815977432
 30
0.0
 11
1048.490989272324
 21
-2176.6340815977428
 31
0.0
  0
LINE
  5
C623
  8
01
  6
BYBLOCK
 10
1049.187657166324
 20
-2179.2340815977432
 30
0.0
 11
1049.187657166324
 21
-2176.6340815977428
 31
0.0
  0
LINE
  5
C624
  8
01
  6
BYBLOCK
 10
1048.490989272324
 20
-2107.3340815977431
 30
0.0
 11
1049.187657166324
 21
-2104.7340815977432
 31
0.0
  0
LINE
  5
C625
  8
01
  6
BYBLOCK
 10
1049.187657166324
 20
-2104.7340815977432
 30
0.0
 11
1049.884325060324
 21
-2107.3340815977431
 31
0.0
  0
LINE
  5
C626
  8
01
  6
BYBLOCK
 10
1049.187657166324
 20
-2104.7340815977432
 30
0.0
 11
1049.187657166324
 21
-2107.3340815977431
 31
0.0
  0
TEXT
  5
C627
  8
01
 10
1043.1389321080969
 20
-1900.8174149321039
 30
0.0
 40
4.5499999999999989
  1
20.5
 50
90.0
  0
LINE
  5
C628
  8
01
  6
BYBLOCK
 10
1044.745600002097
 20
-1900.884081598771
 30
0.0
 11
1044.048932108097
 21
-1903.4840815987709
 31
0.0
  0
LINE
  5
C629
  8
01
  6
BYBLOCK
 10
1044.048932108097
 20
-1903.4840815987709
 30
0.0
 11
1043.352264214097
 21
-1900.884081598771
 31
0.0
  0
LINE
  5
C62A
  8
01
  6
BYBLOCK
 10
1044.048932108097
 20
-1903.4840815987709
 30
0.0
 11
1044.048932108097
 21
-1900.884081598771
 31
0.0
  0
LINE
  5
C62B
  8
01
  6
BYBLOCK
 10
1043.352264214097
 20
-1885.584081598771
 30
0.0
 11
1044.048932108097
 21
-1882.9840815987709
 31
0.0
  0
LINE
  5
C62C
  8
01
  6
BYBLOCK
 10
1044.048932108097
 20
-1882.9840815987709
 30
0.0
 11
1044.745600002097
 21
-1885.584081598771
 31
0.0
  0
LINE
  5
C62D
  8
01
  6
BYBLOCK
 10
1044.048932108097
 20
-1882.9840815987709
 30
0.0
 11
1044.048932108097
 21
-1885.584081598771
 31
0.0
  0
LINE
  5
C62E
  8
01
 10
1001.876720294392
 20
-1932.729992757347
 30
0.0
 11
976.94081825934086
 21
-1952.144081598771
 31
0.0
1001
ACAD
1000
DSTYLE
1002
{
1070
    40
1040
1.3
1002
}
  0
LINE
  5
C62F
  8
01
 10
976.94081825934086
 20
-1952.144081598771
 30
0.0
 11
973.43081825934087
 21
-1952.144081598771
 31
0.0
1001
ACAD
1000
DSTYLE
1002
{
1070
    40
1040
1.3
1002
}
  0
VIEWPORT
  5
57
 67
     1
  8
0
 10
10.29986349876404
 20
17.565658765306811
 30
0.0
 40
436.81620270180298
 41
283.73725025055171
 68
     1
 69
     1
1001
ACAD
1000
MVIEW
1002
{
1070
    16
1010
0.0
1020
0.0
1030
0.0
1010
0.0
1020
0.0
1030
1.0
1040
0.0
1040
283.73725025055171
1040
10.29986349876404
1040
17.565658765306811
1040
50.0
1040
0.0
1040
0.0
1070
     0
1070
   100
1070
     1
1070
     1
1070
     0
1070
     0
1070
     0
1070
     0
1040
0.0
1040
0.0
1040
0.0
1040
10.0
1040
10.0
1040
10.0
1040
10.0
1070
     0
1002
{
1002
}
1002
}
  0
ENDSEC
  0
EOF
