  0
SECTION
  2
HEADER
  9
$ACADVER
  1
AC1009
  9
$DWGCODEPAGE
  3
ansi_932
  9
$INSBASE
 10
0.0
 20
0.0
 30
0.0
  9
$EXTMIN
 10
2220.705694177516
 20
-567.631306880168
 30
0.0
  9
$EXTMAX
 10
2842.007966992491
 20
-149.168375491965
 30
0.0000000001691137
  9
$LIMMIN
 10
0.0
 20
0.0
  9
$LIMMAX
 10
420.0
 20
297.0
  9
$ORTHOMODE
 70
     0
  9
$REGENMODE
 70
     1
  9
$FILLMODE
 70
     1
  9
$QTEXTMODE
 70
     0
  9
$MIRRTEXT
 70
     0
  9
$DRAGMODE
 70
     2
  9
$LTSCALE
 40
0.5
  9
$OSMODE
 70
  6271
  9
$ATTMODE
 70
     1
  9
$TEXTSIZE
 40
4.0
  9
$TRACEWID
 40
1.0
  9
$TEXTSTYLE
  7
STANDARD
  9
$CLAYER
  8
1TEXT
  9
$CELTYPE
  6
BYLAYER
  9
$CECOLOR
 62
   256
  9
$DIMSCALE
 40
1.0
  9
$DIMASZ
 40
2.0
  9
$DIMEXO
 40
0.0
  9
$DIMDLI
 40
7.0
  9
$DIMRND
 40
0.0
  9
$DIMDLE
 40
0.0
  9
$DIMEXE
 40
1.0
  9
$DIMTP
 40
0.0
  9
$DIMTM
 40
0.0
  9
$DIMTXT
 40
3.5
  9
$DIMCEN
 40
0.0
  9
$DIMTSZ
 40
0.0
  9
$DIMTOL
 70
     0
  9
$DIMLIM
 70
     0
  9
$DIMTIH
 70
     0
  9
$DIMTOH
 70
     0
  9
$DIMSE1
 70
     0
  9
$DIMSE2
 70
     0
  9
$DIMTAD
 70
     1
  9
$DIMZIN
 70
     8
  9
$DIMBLK
  1

  9
$DIMASO
 70
     1
  9
$DIMSHO
 70
     1
  9
$DIMPOST
  1
 
  9
$DIMAPOST
  1

  9
$DIMALT
 70
     0
  9
$DIMALTD
 70
     2
  9
$DIMALTF
 40
25.4
  9
$DIMLFAC
 40
1.0
  9
$DIMTOFL
 70
     1
  9
$DIMTVP
 40
0.0
  9
$DIMTIX
 70
     0
  9
$DIMSOXD
 70
     0
  9
$DIMSAH
 70
     1
  9
$DIMBLK1
  1
OPEN30
  9
$DIMBLK2
  1
OPEN30
  9
$DIMSTYLE
  2
NEWX10
  9
$DIMCLRD
 70
   256
  9
$DIMCLRE
 70
   256
  9
$DIMCLRT
 70
   201
  9
$DIMTFAC
 40
0.7
  9
$DIMGAP
 40
0.7
  9
$LUNITS
 70
     2
  9
$LUPREC
 70
     4
  9
$SKETCHINC
 40
1.0
  9
$FILLETRAD
 40
0.0
  9
$AUNITS
 70
     0
  9
$AUPREC
 70
     2
  9
$MENU
  1
acad
  9
$ELEVATION
 40
0.0
  9
$PELEVATION
 40
0.0
  9
$THICKNESS
 40
0.0
  9
$LIMCHECK
 70
     0
  9
$CHAMFERA
 40
10.0
  9
$CHAMFERB
 40
10.0
  9
$SKPOLY
 70
     0
  9
$TDCREATE
 40
2451318.621352917
  9
$TDUPDATE
 40
2460406.473405301
  9
$TDINDWG
 40
1.5487023611
  9
$TDUSRTIMER
 40
1.5487023611
  9
$USRTIMER
 70
     1
  9
$ANGBASE
 50
0.0
  9
$ANGDIR
 70
     0
  9
$PDMODE
 70
     0
  9
$PDSIZE
 40
0.0
  9
$PLINEWID
 40
0.0
  9
$COORDS
 70
     2
  9
$SPLFRAME
 70
     0
  9
$SPLINETYPE
 70
     6
  9
$SPLINESEGS
 70
     8
  9
$ATTDIA
 70
     0
  9
$ATTREQ
 70
     1
  9
$HANDLING
 70
     1
  9
$HANDSEED
  5
1BC54
  9
$SURFTAB1
 70
     6
  9
$SURFTAB2
 70
     6
  9
$SURFTYPE
 70
     6
  9
$SURFU
 70
     6
  9
$SURFV
 70
     6
  9
$UCSNAME
  2

  9
$UCSORG
 10
0.0
 20
0.0
 30
0.0
  9
$UCSXDIR
 10
1.0
 20
0.0
 30
0.0
  9
$UCSYDIR
 10
0.0
 20
1.0
 30
0.0
  9
$PUCSNAME
  2

  9
$PUCSORG
 10
0.0
 20
0.0
 30
0.0
  9
$PUCSXDIR
 10
1.0
 20
0.0
 30
0.0
  9
$PUCSYDIR
 10
0.0
 20
1.0
 30
0.0
  9
$USERI1
 70
     0
  9
$USERI2
 70
     0
  9
$USERI3
 70
     0
  9
$USERI4
 70
     0
  9
$USERI5
 70
     0
  9
$USERR1
 40
0.0
  9
$USERR2
 40
0.0
  9
$USERR3
 40
0.0
  9
$USERR4
 40
0.0
  9
$USERR5
 40
0.0
  9
$WORLDVIEW
 70
     1
  9
$SHADEDGE
 70
     3
  9
$SHADEDIF
 70
    70
  9
$TILEMODE
 70
     1
  9
$MAXACTVP
 70
    48
  9
$PLIMCHECK
 70
     0
  9
$PEXTMIN
 10
1.000000000000000E+20
 20
1.000000000000000E+20
 30
1.000000000000000E+20
  9
$PEXTMAX
 10
-1.000000000000000E+20
 20
-1.000000000000000E+20
 30
-1.000000000000000E+20
  9
$PLIMMIN
 10
0.0
 20
0.0
  9
$PLIMMAX
 10
420.0
 20
297.0
  9
$UNITMODE
 70
     0
  9
$VISRETAIN
 70
     1
  9
$PLINEGEN
 70
     0
  9
$PSLTSCALE
 70
     1
  0
ENDSEC
  0
SECTION
  2
TABLES
  0
TABLE
  2
VPORT
 70
     1
  0
VPORT
  2
*ACTIVE
 70
     0
 10
0.0
 20
0.0
 11
1.0
 21
1.0
 12
2531.356830585004
 22
-358.3998411860665
 13
0.0
 23
0.0
 14
10.0
 24
10.0
 15
10.0
 25
10.0
 16
0.0
 26
0.0
 36
1.0
 17
0.0
 27
0.0
 37
0.0
 40
449.2970421220706
 41
1.83275663206459
 42
50.0
 43
0.0
 44
0.0
 50
0.0
 51
0.0
 71
    16
 72
  1000
 73
     1
 74
     1
 75
     0
 76
     0
 77
     0
 78
     0
  0
ENDTAB
  0
TABLE
  2
LTYPE
 70
    12
  0
LTYPE
  2
CONTINUOUS
 70
     0
  3
Solid line
 72
    65
 73
     0
 40
0.0
  0
LTYPE
  2
HIDDEN
 70
     0
  3
Hidden __ __ __ __ __ __ __ __ __ __ __ __ __ _
 72
    65
 73
     2
 40
9.524999999999999
 49
6.35
 49
-3.175
  0
LTYPE
  2
CENTER2
 70
     0
  3
Center (.5x) ___ _ ___ _ ___ _ ___ _ ___ _ ___
 72
    65
 73
     4
 40
28.575
 49
19.05
 49
-3.175
 49
3.175
 49
-3.175
  0
ENDTAB
  0
TABLE
  2
LAYER
 70
    44
  0
LAYER
  2
0
 70
     0
 62
     7
  6
CONTINUOUS
  0
LAYER
  2
1CENTER
 70
     0
 62
     7
  6
CENTER2
  0
LAYER
  2
1TEXT
 70
     0
 62
     7
  6
CONTINUOUS
  0
LAYER
  2
01
 70
     0
 62
     1
  6
CONTINUOUS
  0
LAYER
  2
1DIM
 70
     0
 62
     7
  6
CONTINUOUS
  0
LAYER
  2
1HIDDEN
 70
     0
 62
     7
  6
HIDDEN
  0
ENDTAB
  0
TABLE
  2
STYLE
 70
    17
  0
STYLE
  2
STANDARD
 70
     0
 40
0.0
 41
1.0
 50
0.0
 71
     0
 42
4.0
  3
txt.shx
  4
extfont.shx
  0
ENDTAB
  0
TABLE
  2
VIEW
 70
     0
  0
ENDTAB
  0
TABLE
  2
UCS
 70
     5
  0
UCS
  2
U
 70
     0
 10
0.0
 20
0.0
 30
0.0
 11
1.0
 21
0.0
 31
0.0
 12
0.0
 22
2.220446049250313E-16
 32
1.0
  0
UCS
  2
L
 70
     0
 10
0.0
 20
0.0
 30
0.0
 11
-2.220446049250313E-16
 21
-1.0
 31
2.220446049250313E-16
 12
0.0
 22
2.220446049250313E-16
 32
1.0
  0
UCS
  2
R
 70
     0
 10
0.0
 20
0.0
 30
0.0
 11
3.445092848397667E-16
 21
1.0
 31
-2.220446049250313E-16
 12
0.0
 22
2.220446049250313E-16
 32
1.0
  0
UCS
  2
ISOME
 70
     0
 10
0.0
 20
0.0
 30
0.0
 11
0.7071450863198265
 21
-0.7070684729403536
 31
-3.830824619466267E-5
 12
0.4082704059428734
 22
0.4082704077401151
 32
0.8164744636514736
  0
UCS
  2
PERSPECTIVE
 70
     0
 10
0.0
 20
0.0
 30
0.0
 11
0.8191477691768964
 21
-0.5735823260466403
 31
-0.0004974931557765462
 12
0.1584844715982971
 22
0.225502028986108
 32
0.961265575782966
  0
ENDTAB
  0
TABLE
  2
APPID
 70
    14
  0
APPID
  2
ACAD
 70
     0
  0
APPID
  2
DRAWINGVARIABLESXDATA
 70
     0
  0
APPID
  2
CONTENTTABDATA
 70
     0
  0
APPID
  2
CONTENTCURRENTTAB
 70
     0
  0
APPID
  2
CONTENTBLOCKDESCRIPTION
 70
     0
  0
APPID
  2
CONTENTBLOCKICON
 70
     0
  0
APPID
  2
CONTENTLONGBLOCKNAME
 70
     0
  0
APPID
  2
ACAD_PSEXT
 70
     0
  0
APPID
  2
ACAD_MLEADERVER
 70
     0
  0
APPID
  2
ACADANNOTATIVE
 70
     0
  0
APPID
  2
ACDBBLOCKREPETAG
 70
     0
  0
APPID
  2
ACAD_OBJECT_CHANGE_GUID
 70
     0
  0
APPID
  2
ACAD_NAV_VCDISPLAY
 70
     0
  0
APPID
  2
ACAECLAYERSTANDARD
 70
     0
  0
ENDTAB
  0
TABLE
  2
DIMSTYLE
 70
     1
  0
DIMSTYLE
  2
NEWX10
 70
     0
  3
 
  4

  5

  6
OPEN30
  7
OPEN30
 40
1.0
 41
2.0
 42
0.0
 43
7.0
 44
1.0
 45
0.0
 46
0.0
 47
0.0
 48
0.0
140
3.5
141
0.0
142
0.0
143
25.4
144
1.0
145
0.0
146
0.7
147
0.7
 71
     0
 72
     0
 73
     0
 74
     0
 75
     0
 76
     0
 77
     1
 78
     8
170
     0
171
     2
172
     1
173
     1
174
     0
175
     0
176
   256
177
   256
178
   201
  0
ENDTAB
  0
ENDSEC
  0
SECTION
  2
BLOCKS
  0
BLOCK
  8
0
  2
$MODEL_SPACE
 70
     0
 10
0.0
 20
0.0
 30
0.0
  3
$MODEL_SPACE
  1

  0
ENDBLK
  5
1A
  8
0
  0
BLOCK
 67
     1
  8
0
  2
$PAPER_SPACE
 70
     0
 10
0.0
 20
0.0
 30
0.0
  3
$PAPER_SPACE
  1

  0
ENDBLK
  5
17
 67
     1
  8
0
  0
BLOCK
  8
0
  2
_OPEN30
 70
     0
 10
0.0
 20
0.0
 30
0.0
  3
_OPEN30
  1

  0
LINE
  5
44
  8
0
  6
BYBLOCK
 62
     0
 10
-1.0
 20
0.26794919
 30
0.0
 11
0.0
 21
0.0
 31
0.0
  0
LINE
  5
45
  8
0
  6
BYBLOCK
 62
     0
 10
0.0
 20
0.0
 30
0.0
 11
-1.0
 21
-0.26794919
 31
0.0
  0
LINE
  5
46
  8
0
  6
BYBLOCK
 62
     0
 10
0.0
 20
0.0
 30
0.0
 11
-1.0
 21
0.0
 31
0.0
  0
ENDBLK
  5
47
  8
0
  0
BLOCK
  8
0
  2
A3WAKUKAWAJUN2017_HYOUDAI_
 70
     0
 10
0.0
 20
0.0
 30
0.0
  3
A3WAKUKAWAJUN2017_HYOUDAI_
  1

  0
LINE
  5
19D53
  8
0
 10
13.26299999998673
 20
-0.0001000000000317
 30
0.0
 11
9.236999999990758
 21
8.999899999990987
 31
0.0
1001
ACAD
1000
ASC_BOUNDS
1002
{
1070
    19
1005
19D94
1002
}
  0
LINE
  5
19D54
  8
0
 10
5.657999999994331
 20
0.9999999999989768
 30
0.0
 11
9.236999999990758
 21
8.999999999991019
 31
0.0
1001
ACAD
1000
ASC_BOUNDS
1002
{
1070
    19
1005
19D94
1002
}
  0
LINE
  5
19D55
  8
0
 10
18.59199999998134
 20
-0.2368999999997641
 30
0.0
 11
16.46099999998353
 21
5.432899999994561
 31
0.0
1001
ACAD
1000
ASC_BOUNDS
1002
{
1070
    19
1005
19D95
1002
}
  0
LINE
  5
19D56
  8
0
 10
18.59199999998134
 20
-0.2368999999997641
 30
0.0
 11
22.38199999997767
 21
8.763099999991255
 31
0.0
1001
ACAD
1000
ASC_BOUNDS
1002
{
1070
    19
1005
19D95
1002
}
  0
LINE
  5
19D57
  8
0
 10
14.32899999998563
 20
-0.2368999999997641
 30
0.0
 11
16.46099999998353
 21
5.432899999994561
 31
0.0
1001
ACAD
1000
ASC_BOUNDS
1002
{
1070
    19
1005
19D95
1002
}
  0
LINE
  5
19D58
  8
0
 10
14.32899999998563
 20
-0.2368999999997641
 30
0.0
 11
10.53899999998941
 21
8.763099999991255
 31
0.0
1001
ACAD
1000
ASC_BOUNDS
1002
{
1070
    19
1005
19D95
1002
}
  0
LINE
  5
19D59
  8
0
 10
19.53899999998043
 20
-0.0001000000000317
 30
0.0
 11
23.56599999997638
 21
8.999899999990987
 31
0.0
1001
ACAD
1000
ASC_BOUNDS
1002
{
1070
    19
1005
19D96
1002
}
  0
LINE
  5
19D5A
  8
0
 10
26.97358892824991
 20
1.383099999991202
 30
0.0
 11
23.56599999997638
 21
8.999899999990987
 31
0.0
1001
ACAD
1000
ASC_BOUNDS
1002
{
1070
    19
1005
19D96
1002
}
  0
LINE
  5
19D5B
  8
0
 10
5.657999999994331
 20
0.9999999999989768
 30
0.0
 11
3.181999999996833
 21
4.668599999995308
 31
0.0
1001
ACAD
1000
ASC_BOUNDS
1002
{
1070
    19
1005
19D94
1002
}
  0
LINE
  5
19D5C
  8
0
 10
4.617999999995391
 20
-0.0001000000000317
 30
0.0
 11
1.420999999998571
 21
4.736799999995242
 31
0.0
1001
ACAD
1000
ASC_BOUNDS
1002
{
1070
    19
1005
19D94
1002
}
  0
LINE
  5
19D5D
  8
0
 10
1.420999999998571
 20
8.763099999991255
 30
0.0
 11
1.420999999998571
 21
0.0
 31
0.0
1001
ACAD
1000
ASC_BOUNDS
1002
{
1070
    19
1005
19D99
1002
}
  0
LINE
  5
19D5E
  8
0
 10
0.0
 20
8.763099999991255
 30
0.0
 11
0.0
 21
0.0
 31
0.0
1001
ACAD
1000
ASC_BOUNDS
1002
{
1070
    19
1005
19D99
1002
}
  0
LINE
  5
19D5F
  8
0
 10
6.766999999993232
 20
-0.0001000000000317
 30
0.0
 11
7.826999999992154
 21
2.368399999997621
 31
0.0
1001
ACAD
1000
ASC_BOUNDS
1002
{
1070
    19
1005
19D94
1002
}
  0
LINE
  5
19D60
  8
0
 10
0.0
 20
0.0
 30
0.0
 11
1.420999999998571
 21
0.0
 31
0.0
1001
ACAD
1000
ASC_BOUNDS
1002
{
1070
    19
1005
19D99
1002
}
  0
LINE
  5
19D61
  8
0
 10
4.617999999995391
 20
0.0
 30
0.0
 11
6.766999999993232
 21
0.0
 31
0.0
1001
ACAD
1000
ASC_BOUNDS
1002
{
1070
    19
1005
19D94
1002
}
  0
LINE
  5
19D62
  8
0
 10
11.70599999998831
 20
-0.0001000000000317
 30
0.0
 11
10.64699999998936
 21
2.368399999997621
 31
0.0
1001
ACAD
1000
ASC_BOUNDS
1002
{
1070
    19
1005
19D94
1002
}
  0
LINE
  5
19D63
  8
0
 10
7.826999999992154
 20
2.368399999997621
 30
0.0
 11
10.64699999998936
 21
2.368399999997621
 31
0.0
1001
ACAD
1000
ASC_BOUNDS
1002
{
1070
    19
1005
19D94
1002
}
  0
LINE
  5
19D64
  8
0
 10
11.70599999998831
 20
0.0
 30
0.0
 11
13.26299999998673
 21
0.0
 31
0.0
1001
ACAD
1000
ASC_BOUNDS
1002
{
1070
    19
1005
19D94
1002
}
  0
LINE
  5
19D65
  8
0
 10
22.15599999997789
 20
2.368399999997621
 30
0.0
 11
24.97599999997499
 21
2.368399999997621
 31
0.0
1001
ACAD
1000
ASC_BOUNDS
1002
{
1070
    19
1005
19D96
1002
}
  0
LINE
  5
19D66
  8
0
 10
19.53899999998043
 20
0.0
 30
0.0
 11
21.09599999997886
 21
0.0
 31
0.0
1001
ACAD
1000
ASC_BOUNDS
1002
{
1070
    19
1005
19D96
1002
}
  0
LINE
  5
19D67
  8
0
 10
21.09599999997886
 20
-0.0001000000000317
 30
0.0
 11
22.15599999997789
 21
2.368399999997621
 31
0.0
1001
ACAD
1000
ASC_BOUNDS
1002
{
1070
    19
1005
19D96
1002
}
  0
LINE
  5
19D68
  8
0
 10
26.02015566812236
 20
0.0330999999912365
 30
0.0
 11
24.97599999997499
 21
2.368399999997621
 31
0.0
1001
ACAD
1000
ASC_BOUNDS
1002
{
1070
    19
1005
19D96
1002
}
  0
LINE
  5
19D69
  8
0
 10
14.32399999998563
 20
3.315799999996671
 30
0.0
 11
16.46099999998353
 21
8.999899999990987
 31
0.0
1001
ACAD
1000
ASC_BOUNDS
1002
{
1070
    19
1005
19D95
1002
}
  0
LINE
  5
19D6A
  8
0
 10
6.432999999993513
 20
8.763099999991255
 30
0.0
 11
3.181999999996833
 21
4.668599999995308
 31
0.0
1001
ACAD
1000
ASC_BOUNDS
1002
{
1070
    19
1005
19D94
1002
}
  0
LINE
  5
19D6B
  8
0
 10
4.617999999995391
 20
8.763099999991255
 30
0.0
 11
1.420999999998571
 21
4.736799999995242
 31
0.0
1001
ACAD
1000
ASC_BOUNDS
1002
{
1070
    19
1005
19D94
1002
}
  0
LINE
  5
19D6C
  8
0
 10
0.0
 20
8.763099999991255
 30
0.0
 11
1.420999999998571
 21
8.763099999991255
 31
0.0
1001
ACAD
1000
ASC_BOUNDS
1002
{
1070
    19
1005
19D99
1002
}
  0
LINE
  5
19D6D
  8
0
 10
4.617999999995391
 20
8.763099999991255
 30
0.0
 11
6.432999999993513
 21
8.763099999991255
 31
0.0
1001
ACAD
1000
ASC_BOUNDS
1002
{
1070
    19
1005
19D94
1002
}
  0
LINE
  5
19D6E
  8
0
 10
14.32399999998563
 20
3.315799999996671
 30
0.0
 11
12.02999999998792
 21
8.763099999991255
 31
0.0
1001
ACAD
1000
ASC_BOUNDS
1002
{
1070
    19
1005
19D95
1002
}
  0
LINE
  5
19D6F
  8
0
 10
10.06399999998996
 20
3.670999999996297
 30
0.0
 11
9.236999999990758
 21
5.5200999999945
 31
0.0
1001
ACAD
1000
ASC_BOUNDS
1002
{
1070
    19
1005
19D94
1002
}
  0
LINE
  5
19D70
  8
0
 10
8.409999999991555
 20
3.670999999996297
 30
0.0
 11
9.236999999990758
 21
5.5200999999945
 31
0.0
1001
ACAD
1000
ASC_BOUNDS
1002
{
1070
    19
1005
19D94
1002
}
  0
LINE
  5
19D71
  8
0
 10
8.409999999991555
 20
3.670999999996297
 30
0.0
 11
10.06399999998996
 21
3.670999999996297
 31
0.0
1001
ACAD
1000
ASC_BOUNDS
1002
{
1070
    19
1005
19D94
1002
}
  0
LINE
  5
19D72
  8
0
 10
10.53899999998941
 20
8.763099999991255
 30
0.0
 11
12.02999999998792
 21
8.763099999991255
 31
0.0
1001
ACAD
1000
ASC_BOUNDS
1002
{
1070
    19
1005
19D95
1002
}
  0
LINE
  5
19D73
  8
0
 10
22.7389999999773
 20
3.670999999996297
 30
0.0
 11
23.56599999997638
 21
5.5200999999945
 31
0.0
1001
ACAD
1000
ASC_BOUNDS
1002
{
1070
    19
1005
19D96
1002
}
  0
LINE
  5
19D74
  8
0
 10
22.7389999999773
 20
3.670999999996297
 30
0.0
 11
24.39299999997559
 21
3.670999999996297
 31
0.0
1001
ACAD
1000
ASC_BOUNDS
1002
{
1070
    19
1005
19D96
1002
}
  0
LINE
  5
19D75
  8
0
 10
18.59799999998143
 20
3.315799999996671
 30
0.0
 11
20.89099999997916
 21
8.763099999991255
 31
0.0
1001
ACAD
1000
ASC_BOUNDS
1002
{
1070
    19
1005
19D95
1002
}
  0
LINE
  5
19D76
  8
0
 10
18.59799999998143
 20
3.315799999996671
 30
0.0
 11
16.46099999998353
 21
8.999899999990987
 31
0.0
1001
ACAD
1000
ASC_BOUNDS
1002
{
1070
    19
1005
19D95
1002
}
  0
LINE
  5
19D77
  8
0
 10
20.89099999997916
 20
8.763099999991255
 30
0.0
 11
22.38199999997767
 21
8.763099999991255
 31
0.0
1001
ACAD
1000
ASC_BOUNDS
1002
{
1070
    19
1005
19D95
1002
}
  0
LINE
  5
19D78
  8
0
 10
24.39299999997559
 20
3.670999999996297
 30
0.0
 11
23.56599999997638
 21
5.5200999999945
 31
0.0
1001
ACAD
1000
ASC_BOUNDS
1002
{
1070
    19
1005
19D96
1002
}
  0
LINE
  5
19D79
  8
0
 10
44.99999999995498
 20
-0.2368999999997641
 30
0.0
 11
40.02599999995994
 21
5.341799999994635
 31
0.0
1001
ACAD
1000
ASC_BOUNDS
1002
{
1070
    19
1005
19D98
1002
}
  0
LINE
  5
19D7A
  8
0
 10
40.02599999995994
 20
5.341799999994635
 30
0.0
 11
40.02599999995994
 21
0.0
 31
0.0
1001
ACAD
1000
ASC_BOUNDS
1002
{
1070
    19
1005
19D98
1002
}
  0
LINE
  5
19D7B
  8
0
 10
38.60499999996136
 20
8.999999999991019
 30
0.0
 11
38.60499999996136
 21
0.0
 31
0.0
1001
ACAD
1000
ASC_BOUNDS
1002
{
1070
    19
1005
19D98
1002
}
  0
LINE
  5
19D7C
  8
0
 10
44.99999999995498
 20
8.763099999991255
 30
0.0
 11
44.99999999995498
 21
-0.2368999999997641
 31
0.0
1001
ACAD
1000
ASC_BOUNDS
1002
{
1070
    19
1005
19D98
1002
}
  0
LINE
  5
19D7D
  8
0
 10
38.60499999996136
 20
0.0
 30
0.0
 11
40.02599999995994
 21
0.0
 31
0.0
1001
ACAD
1000
ASC_BOUNDS
1002
{
1070
    19
1005
19D98
1002
}
  0
LINE
  5
19D7E
  8
0
 10
43.57899999995641
 20
3.421199999996588
 30
0.0
 11
38.60499999996136
 21
8.999899999990987
 31
0.0
1001
ACAD
1000
ASC_BOUNDS
1002
{
1070
    19
1005
19D98
1002
}
  0
LINE
  5
19D7F
  8
0
 10
43.57899999995641
 20
8.763099999991255
 30
0.0
 11
43.57899999995641
 21
3.421199999996588
 31
0.0
1001
ACAD
1000
ASC_BOUNDS
1002
{
1070
    19
1005
19D98
1002
}
  0
LINE
  5
19D80
  8
0
 10
43.57899999995641
 20
8.763099999991255
 30
0.0
 11
44.99999999995498
 21
8.763099999991255
 31
0.0
1001
ACAD
1000
ASC_BOUNDS
1002
{
1070
    19
1005
19D98
1002
}
  0
LINE
  5
19D81
  8
0
 10
37.67199999996831
 20
8.763099999991255
 30
0.0
 11
36.23199999996837
 21
8.763099999991255
 31
0.0
  0
LINE
  5
19D82
  8
0
 10
31.64199999996833
 20
8.763099999991255
 30
0.0
 11
31.64199999996833
 21
2.481619422925121
 31
0.0
  0
LINE
  5
19D83
  8
0
 10
37.67199999996831
 20
8.763099999991255
 30
0.0
 11
37.67199999996831
 21
2.481619422925121
 31
0.0
  0
LINE
  5
19D84
  8
0
 10
36.23199999996837
 20
8.763099999991255
 30
0.0
 11
36.23199999996837
 21
2.481619422925064
 31
0.0
  0
LINE
  5
19D85
  8
0
 10
33.08199999996839
 20
8.763099999991255
 30
0.0
 11
33.08199999996839
 21
2.481619422925121
 31
0.0
  0
ARC
  5
19D86
  8
0
 10
34.65699999996832
 20
3.183099999991214
 30
0.0
 40
3.420000000000007
 50
240.0000000000255
 51
299.9999999999766
  0
ARC
  5
19D87
  8
0
 10
34.65699999996832
 20
3.183099999991214
 30
0.0
 40
1.97999999999999
 50
240.000000000026
 51
299.9999999999703
  0
LINE
  5
19D88
  8
0
 10
33.08199999996828
 20
8.763099999991255
 30
0.0
 11
31.64199999996833
 21
8.763099999991255
 31
0.0
  0
ARC
  5
19D89
  8
0
 10
35.06199999996829
 20
2.481619422925064
 30
0.0
 40
1.17
 50
299.9999999999699
 51
0.0
  0
ARC
  5
19D8A
  8
0
 10
34.25199999996835
 20
2.481619422925121
 30
0.0
 40
1.17
 50
180.0
 51
240.0000000000238
  0
ARC
  5
19D8B
  8
0
 10
35.06199999996841
 20
2.481619422925121
 30
0.0
 40
2.61
 50
299.9999999999756
 51
0.0
  0
ARC
  5
19D8C
  8
0
 10
34.25199999996835
 20
2.481619422925121
 30
0.0
 40
2.61
 50
180.0
 51
240.0000000000244
  0
LINE
  5
19D8D
  8
0
 10
29.30199999996933
 20
8.763099999991255
 30
0.0
 11
30.74199999996927
 21
8.763099999991255
 31
0.0
1001
ACAD
1000
ASC_BOUNDS
1002
{
1070
    19
1005
19D96
1002
}
  0
LINE
  5
19D8E
  8
0
 10
30.74199999996927
 20
8.763099999991255
 30
0.0
 11
30.74199999996927
 21
2.373099999991211
 31
0.0
1001
ACAD
1000
ASC_BOUNDS
1002
{
1070
    19
1005
19D96
1002
}
  0
LINE
  5
19D8F
  8
0
 10
26.02015566812236
 20
0.0330999999912365
 30
0.0
 11
28.40199999996923
 21
0.0330999999912365
 31
0.0
1001
ACAD
1000
ASC_BOUNDS
1002
{
1070
    19
1005
19D96
1002
}
  0
LINE
  5
19D90
  8
0
 10
29.30199999996933
 20
8.763099999991255
 30
0.0
 11
29.30199999996933
 21
2.283099999991236
 31
0.0
1001
ACAD
1000
ASC_BOUNDS
1002
{
1070
    19
1005
19D96
1002
}
  0
LINE
  5
19D91
  8
0
 10
26.97358892824991
 20
1.383099999991202
 30
0.0
 11
28.40199999996923
 21
1.383099999991202
 31
0.0
1001
ACAD
1000
ASC_BOUNDS
1002
{
1070
    19
1005
19D96
1002
}
  0
ARC
  5
19D92
  8
0
 10
28.40199999996923
 20
2.283099999991236
 30
0.0
 40
0.9
 50
270.0
 51
0.0
1001
ACAD
1000
ASC_BOUNDS
1002
{
1070
    19
1005
19D96
1002
}
  0
ARC
  5
19D93
  8
0
 10
28.40199999996923
 20
2.373099999991211
 30
0.0
 40
2.34
 50
270.0
 51
0.0
1001
ACAD
1000
ASC_BOUNDS
1002
{
1070
    19
1005
19D96
1002
}
  0
INSERT
  5
19D94
  8
0
  2
*X58
 10
0.0
 20
0.0
 30
0.0
1001
ACAD
1000
HATCH
1002
{
1070
    19
1000
ANSI37
1040
0.15
1040
0.0
1000
ASC_BOUNDS
1070
     2
1070
     2
1070
    12
1005
19D53
1005
19D54
1005
19D5B
1005
19D6A
1005
19D6D
1005
19D6B
1005
19D5C
1005
19D61
1005
19D5F
1005
19D63
1005
19D62
1005
19D64
1070
     2
1070
     3
1005
19D6F
1005
19D71
1005
19D70
1000
ASC_SEEDPOINT
1011
3.614004224891801
1021
2.996669441146025
1031
0.0
1021
2.996669441146025
1031
0.0
1000
R14_HATCH_DATA
1000
19D94
1011
1.0
1021
0.0
1031
0.0
1021
0.0
1031
0.0
1011
0.0
1021
1.0
1031
0.0
1021
1.0
1031
0.0
1011
0.0
1021
0.0
1031
1.0
1021
0.0
1031
1.0
1040
0.0
1010
0.0
1020
0.0
1030
1.0
1000
ANSI37
1070
     0
1070
     1
1071
        2
1071
        7
1070
     0
1070
     1
1071
       17
1040
13.26299999998673
1040
-0.0001000000000317
1040
9.236999999990758
1040
8.999899999990987
1040
9.236999999990758
1040
8.999999999991019
1040
5.657999999994331
1040
0.9999999999989768
1040
3.181999999996833
1040
4.668599999995308
1040
6.432999999993513
1040
8.763099999991255
1040
4.617999999995391
1040
8.763099999991255
1040
1.420999999998571
1040
4.736799999995242
1040
4.617999999995391
1040
-0.0001000000000317
1040
4.617999999995391
1040
0.0
1040
6.766999999993232
1040
0.0
1040
6.766999999993232
1040
-0.0001000000000317
1040
7.826999999992154
1040
2.368399999997621
1040
10.64699999998936
1040
2.368399999997621
1040
11.70599999998831
1040
-0.0001000000000317
1040
11.70599999998831
1040
0.0
1040
13.26299999998673
1040
0.0
1071
       12
1005
19D53
1005
19D54
1005
19D5B
1005
19D6A
1005
19D6D
1005
19D6B
1005
19D5C
1005
19D61
1005
19D5F
1005
19D63
1005
19D62
1005
19D64
1071
       22
1070
     0
1070
     1
1071
        3
1040
9.236999999990758
1040
5.5200999999945
1040
10.06399999998996
1040
3.670999999996297
1040
8.409999999991555
1040
3.670999999996297
1071
        3
1005
19D6F
1005
19D71
1005
19D70
1070
     0
1070
     1
1040
0.0
1040
0.15
1070
     0
1070
     2
1040
0.7853981633974483
1040
49.29960901727088
1040
-10.17736998311392
1040
-0.3367596045400932
1040
0.3367596045400932
1070
     0
1040
2.356194490192345
1040
49.29960901727088
1040
-10.17736998311392
1040
-0.3367596045400932
1040
-0.3367596045400932
1070
     0
1040
0.0110235143455945
1071
        2
1040
3.614004224891801
1040
2.996669441146025
1040
0.0
1040
3.614004224891801
1040
2.996669441146025
1040
0.0
1002
}
  0
INSERT
  5
19D95
  8
0
  2
*X59
 10
0.0
 20
0.0
 30
0.0
1001
ACAD
1000
HATCH
1002
{
1070
    19
1000
ANSI37
1040
0.15
1040
0.0
1000
ASC_BOUNDS
1070
     1
1070
     2
1070
    10
1005
19D55
1005
19D56
1005
19D77
1005
19D75
1005
19D76
1005
19D69
1005
19D6E
1005
19D72
1005
19D58
1005
19D57
1000
ASC_SEEDPOINT
1011
14.73245321214324
1021
2.798246178283421
1031
0.0
1021
2.798246178283421
1031
0.0
1000
R14_HATCH_DATA
1000
19D95
1011
1.0
1021
0.0
1031
0.0
1021
0.0
1031
0.0
1011
0.0
1021
1.0
1031
0.0
1021
1.0
1031
0.0
1011
0.0
1021
0.0
1031
1.0
1021
0.0
1031
1.0
1040
0.0
1010
0.0
1020
0.0
1030
1.0
1000
ANSI37
1070
     0
1070
     1
1071
        1
1071
        7
1070
     0
1070
     1
1071
       10
1040
16.46099999998353
1040
5.432899999994561
1040
18.59199999998134
1040
-0.2368999999997641
1040
22.38199999997767
1040
8.763099999991255
1040
20.89099999997916
1040
8.763099999991255
1040
18.59799999998143
1040
3.315799999996671
1040
16.46099999998353
1040
8.999899999990987
1040
14.32399999998563
1040
3.315799999996671
1040
12.02999999998792
1040
8.763099999991255
1040
10.53899999998941
1040
8.763099999991255
1040
14.32899999998563
1040
-0.2368999999997641
1071
       10
1005
19D55
1005
19D56
1005
19D77
1005
19D75
1005
19D76
1005
19D69
1005
19D6E
1005
19D72
1005
19D58
1005
19D57
1070
     0
1070
     1
1040
0.0
1040
0.15
1070
     0
1070
     2
1040
0.7853981633974483
1040
49.29960901727088
1040
-10.17736998311392
1040
-0.3367596045400932
1040
0.3367596045400932
1070
     0
1040
2.356194490192345
1040
49.29960901727088
1040
-10.17736998311392
1040
-0.3367596045400932
1040
-0.3367596045400932
1070
     0
1040
0.0110235143455945
1071
        1
1040
14.73245321214324
1040
2.798246178283421
1040
0.0
1002
}
  0
INSERT
  5
19D96
  8
0
  2
*X60
 10
0.0
 20
0.0
 30
0.0
1001
ACAD
1000
HATCH
1002
{
1070
    19
1000
ANSI37
1040
0.15
1040
0.0
1000
ASC_BOUNDS
1070
     2
1070
     2
1070
    13
1005
19D59
1005
19D66
1005
19D67
1005
19D65
1005
19D68
1005
19D8F
1005
19D93
1005
19D8E
1005
19D8D
1005
19D90
1005
19D92
1005
19D91
1005
19D5A
1070
     2
1070
     3
1005
19D73
1005
19D78
1005
19D74
1000
ASC_SEEDPOINT
1011
21.97929957367762
1021
3.294304244259308
1031
0.0
1021
3.294304244259308
1031
0.0
1000
R14_HATCH_DATA
1000
19D96
1011
1.0
1021
0.0
1031
0.0
1021
0.0
1031
0.0
1011
0.0
1021
1.0
1031
0.0
1021
1.0
1031
0.0
1011
0.0
1021
0.0
1031
1.0
1021
0.0
1031
1.0
1040
0.0
1010
0.0
1020
0.0
1030
1.0
1000
ANSI37
1070
     0
1070
     1
1071
        2
1071
        7
1070
     1
1070
     1
1071
       15
1040
23.56599999997638
1040
8.999899999990987
1040
0.0
1040
19.53899999998043
1040
-0.0001000000000317
1040
0.0
1040
19.53899999998043
1040
0.0
1040
0.0
1040
21.09599999997886
1040
0.0
1040
0.0
1040
21.09599999997886
1040
-0.0001000000000317
1040
0.0
1040
22.15599999997789
1040
2.368399999997621
1040
0.0
1040
24.97599999997499
1040
2.368399999997621
1040
0.0
1040
26.02015566812236
1040
0.0330999999912365
1040
0.0
1040
28.40199999996923
1040
0.0330999999912365
1040
0.414213562373095
1040
30.74199999996923
1040
2.373099999991211
1040
0.0
1040
30.74199999996927
1040
8.763099999991255
1040
0.0
1040
29.30199999996933
1040
8.763099999991255
1040
0.0
1040
29.30199999996933
1040
2.283099999991236
1040
-0.414213562373095
1040
28.40199999996923
1040
1.383099999991237
1040
0.0
1040
26.97358892824991
1040
1.383099999991202
1040
0.0
1071
       13
1005
19D59
1005
19D66
1005
19D67
1005
19D65
1005
19D68
1005
19D8F
1005
19D93
1005
19D8E
1005
19D8D
1005
19D90
1005
19D92
1005
19D91
1005
19D5A
1071
       22
1070
     0
1070
     1
1071
        3
1040
22.7389999999773
1040
3.670999999996297
1040
23.56599999997638
1040
5.5200999999945
1040
24.39299999997559
1040
3.670999999996297
1071
        3
1005
19D73
1005
19D78
1005
19D74
1070
     0
1070
     1
1040
0.0
1040
0.15
1070
     0
1070
     2
1040
0.7853981633974483
1040
49.29960901727088
1040
-10.17736998311392
1040
-0.3367596045400932
1040
0.3367596045400932
1070
     0
1040
2.356194490192345
1040
49.29960901727088
1040
-10.17736998311392
1040
-0.3367596045400932
1040
-0.3367596045400932
1070
     0
1040
0.0110235143455945
1071
        2
1040
21.97929957367762
1040
3.294304244259308
1040
0.0
1040
21.97929957367762
1040
3.294304244259308
1040
0.0
1002
}
  0
INSERT
  5
19D97
  8
0
  2
*X61
 10
0.0
 20
0.0
 30
0.0
1001
ACAD
1000
HATCH
1002
{
1070
    19
1000
ANSI37
1040
0.15
1040
0.0
1000
R14_HATCH_DATA
1000
19D97
1011
1.0
1021
0.0
1031
0.0
1021
0.0
1031
0.0
1011
0.0
1021
1.0
1031
0.0
1021
1.0
1031
0.0
1011
0.0
1021
0.0
1031
1.0
1021
0.0
1031
1.0
1040
0.0
1010
0.0
1020
0.0
1030
1.0
1000
ANSI37
1070
     0
1070
     1
1071
        1
1071
        7
1070
     1
1070
     1
1071
       12
1040
31.64199999996833
1040
2.481619422925121
1040
0.2679491924310942
1040
32.94699999997067
1040
0.2212931190493919
1040
0.2679491924301353
1040
36.36699999995983
1040
0.2212931190459813
1040
0.2679491924321411
1040
37.67199999996831
1040
2.481619422928361
1040
0.0
1040
37.67199999996831
1040
8.763099999991255
1040
0.0
1040
36.23199999996837
1040
8.763099999991255
1040
0.0
1040
36.23199999996837
1040
2.481619422925064
1040
-0.2679491924310291
1040
35.64699999996708
1040
1.468369700498386
1040
-0.267949192430519
1040
33.66699999997093
1040
1.468369700497703
1040
-0.267949192431809
1040
33.08199999996839
1040
2.481619422926997
1040
0.0
1040
33.08199999996839
1040
8.763099999991255
1040
0.0
1040
31.64199999996833
1040
8.763099999991255
1040
0.0
1071
        0
1070
     0
1070
     1
1040
0.0
1040
0.15
1070
     0
1070
     2
1040
0.7853981633974483
1040
49.29960901727088
1040
-10.17736998311392
1040
-0.3367596045400932
1040
0.3367596045400932
1070
     0
1040
2.356194490192345
1040
49.29960901727088
1040
-10.17736998311392
1040
-0.3367596045400932
1040
-0.3367596045400932
1070
     0
1040
0.0110235143455945
1071
        1
1040
32.30357378967278
1040
3.988785755459219
1040
0.0
1002
}
  0
INSERT
  5
19D98
  8
0
  2
*X62
 10
0.0
 20
0.0
 30
0.0
1001
ACAD
1000
HATCH
1002
{
1070
    19
1000
ANSI37
1040
0.15
1040
0.0
1000
ASC_BOUNDS
1070
     1
1070
     2
1070
     8
1005
19D79
1005
19D7C
1005
19D80
1005
19D7F
1005
19D7E
1005
19D7B
1005
19D7D
1005
19D7A
1000
ASC_SEEDPOINT
1011
39.74896370716704
1021
4.484843821435049
1031
0.0
1021
4.484843821435049
1031
0.0
1000
R14_HATCH_DATA
1000
19D98
1011
1.0
1021
0.0
1031
0.0
1021
0.0
1031
0.0
1011
0.0
1021
1.0
1031
0.0
1021
1.0
1031
0.0
1011
0.0
1021
0.0
1031
1.0
1021
0.0
1031
1.0
1040
0.0
1010
0.0
1020
0.0
1030
1.0
1000
ANSI37
1070
     0
1070
     1
1071
        1
1071
        7
1070
     0
1070
     1
1071
        9
1040
40.02599999995994
1040
5.341799999994635
1040
44.99999999995498
1040
-0.2368999999997641
1040
44.99999999995498
1040
8.763099999991255
1040
43.57899999995641
1040
8.763099999991255
1040
43.57899999995641
1040
3.421199999996588
1040
38.60499999996136
1040
8.999899999990987
1040
38.60499999996136
1040
8.999999999991019
1040
38.60499999996136
1040
0.0
1040
40.02599999995994
1040
0.0
1071
        8
1005
19D79
1005
19D7C
1005
19D80
1005
19D7F
1005
19D7E
1005
19D7B
1005
19D7D
1005
19D7A
1070
     0
1070
     1
1040
0.0
1040
0.15
1070
     0
1070
     2
1040
0.7853981633974483
1040
49.29960901727088
1040
-10.17736998311392
1040
-0.3367596045400932
1040
0.3367596045400932
1070
     0
1040
2.356194490192345
1040
49.29960901727088
1040
-10.17736998311392
1040
-0.3367596045400932
1040
-0.3367596045400932
1070
     0
1040
0.0110235143455945
1071
        1
1040
39.74896370716704
1040
4.484843821435049
1040
0.0
1002
}
  0
INSERT
  5
19D99
  8
0
  2
*X63
 10
0.0
 20
0.0
 30
0.0
1001
ACAD
1000
HATCH
1002
{
1070
    19
1000
ANSI37
1040
0.15
1040
0.0
1000
ASC_BOUNDS
1070
     1
1070
     2
1070
     4
1005
19D5D
1005
19D6C
1005
19D5E
1005
19D60
1000
ASC_SEEDPOINT
1011
1.079051535452663
1021
4.148538732891836
1031
0.0
1021
4.148538732891836
1031
0.0
1000
R14_HATCH_DATA
1000
19D99
1011
1.0
1021
0.0
1031
0.0
1021
0.0
1031
0.0
1011
0.0
1021
1.0
1031
0.0
1021
1.0
1031
0.0
1011
0.0
1021
0.0
1031
1.0
1021
0.0
1031
1.0
1040
0.0
1010
0.0
1020
0.0
1030
1.0
1000
ANSI37
1070
     0
1070
     1
1071
        1
1071
        7
1070
     0
1070
     1
1071
        4
1040
1.420999999998571
1040
0.0
1040
1.420999999998571
1040
8.763099999991255
1040
0.0
1040
8.763099999991255
1040
0.0
1040
0.0
1071
        4
1005
19D5D
1005
19D6C
1005
19D5E
1005
19D60
1070
     0
1070
     1
1040
0.0
1040
0.15
1070
     0
1070
     2
1040
0.7853981633974483
1040
49.29960901727088
1040
-10.17736998311392
1040
-0.3367596045400932
1040
0.3367596045400932
1070
     0
1040
2.356194490192345
1040
49.29960901727088
1040
-10.17736998311392
1040
-0.3367596045400932
1040
-0.3367596045400932
1070
     0
1040
0.0053004257112761
1071
        1
1040
1.079051535452663
1040
4.148538732891836
1040
0.0
1002
}
  0
ENDBLK
  5
1A475
  8
0
  0
BLOCK
  8
0
  2
*X58
 70
     1
 10
0.0
 20
0.0
 30
0.0
  3
*X58
  1

  0
LINE
  5
1BA8E
  8
0
  6
CONTINUOUS
 10
3.418023043697893
 20
7.251849696850613
 30
0.0
 11
4.929273346838536
 21
8.763099999991255
 31
0.0
  0
LINE
  5
1BA8F
  8
0
  6
CONTINUOUS
 10
1.483656411257782
 20
4.643963855330318
 30
0.0
 11
5.60279255591872
 21
8.763099999991255
 31
0.0
  0
LINE
  5
1BA90
  8
0
  6
CONTINUOUS
 10
1.755053947328235
 20
4.241842182320584
 30
0.0
 11
6.276311764998907
 21
8.763099999991255
 31
0.0
  0
LINE
  5
1BA91
  8
0
  6
CONTINUOUS
 10
2.026451483398688
 20
3.839720509310849
 30
0.0
 11
4.441040904851878
 21
6.254309930764039
 31
0.0
  0
LINE
  5
1BA92
  8
0
  6
CONTINUOUS
 10
2.297849019469139
 20
3.437598836301114
 30
0.0
 11
3.321765168359338
 21
4.461514985191313
 31
0.0
  0
LINE
  5
1BA93
  8
0
  6
CONTINUOUS
 10
2.569246555539591
 20
3.03547716329138
 30
0.0
 11
3.593163397972743
 21
4.059394005724531
 31
0.0
  0
LINE
  5
1BA94
  8
0
  6
CONTINUOUS
 10
2.840644091610043
 20
2.633355490281646
 30
0.0
 11
3.864561627586149
 21
3.657273026257751
 31
0.0
  0
LINE
  5
1BA95
  8
0
  6
CONTINUOUS
 10
3.112041627680496
 20
2.231233817271911
 30
0.0
 11
4.135959857199554
 21
3.25515204679097
 31
0.0
  0
LINE
  5
1BA96
  8
0
  6
CONTINUOUS
 10
3.383439163750948
 20
1.829112144262177
 30
0.0
 11
4.40735808681296
 21
2.853031067324189
 31
0.0
  0
LINE
  5
1BA97
  8
0
  6
CONTINUOUS
 10
3.654836699821399
 20
1.426990471252442
 30
0.0
 11
4.678756316426365
 21
2.450910087857407
 31
0.0
  0
LINE
  5
1BA98
  8
0
  6
CONTINUOUS
 10
3.926234235891853
 20
1.024868798242709
 30
0.0
 11
4.95015454603977
 21
2.048789108390626
 31
0.0
  0
LINE
  5
1BA99
  8
0
  6
CONTINUOUS
 10
4.197631771962304
 20
0.6227471252329737
 30
0.0
 11
5.221552775653176
 21
1.646668128923846
 31
0.0
  0
LINE
  5
1BA9A
  8
0
  6
CONTINUOUS
 10
8.715877546767851
 20
7.835069736359266
 30
0.0
 11
9.435953450375058
 21
8.555145639966472
 31
0.0
  0
LINE
  5
1BA9B
  8
0
  6
CONTINUOUS
 10
8.170620868422267
 20
6.616293848933497
 30
0.0
 11
9.644120833743461
 21
8.08979381425469
 31
0.0
  0
LINE
  5
1BA9C
  8
0
  6
CONTINUOUS
 10
7.625364190076684
 20
5.397517961507727
 30
0.0
 11
9.852288217111864
 21
7.624441988542907
 31
0.0
  0
LINE
  5
1BA9D
  8
0
  6
CONTINUOUS
 10
7.080107511731101
 20
4.178742074081957
 30
0.0
 11
10.06045560048027
 21
7.159090162831124
 31
0.0
  0
LINE
  5
1BA9E
  8
0
  6
CONTINUOUS
 10
6.534850833385518
 20
2.959966186656187
 30
0.0
 11
10.26862298384867
 21
6.693738337119342
 31
0.0
  0
LINE
  5
1BA9F
  8
0
  6
CONTINUOUS
 10
4.469029308032756
 20
0.2206254522232385
 30
0.0
 11
5.492951005266582
 21
1.244547149457064
 31
0.0
  0
LINE
  5
1BAA0
  8
0
  6
CONTINUOUS
 10
5.989594155039935
 20
1.741190299230417
 30
0.0
 11
8.806950407233131
 21
4.558546551423613
 31
0.0
  0
LINE
  5
1BAA1
  8
0
  6
CONTINUOUS
 10
9.401251593263643
 20
5.152847737454126
 30
0.0
 11
10.47679036721708
 21
6.228386511407559
 31
0.0
  0
LINE
  5
1BAA2
  8
0
  6
CONTINUOUS
 10
4.921837203428691
 20
-0.0000858614610131
 30
0.0
 11
8.592923064886001
 21
3.670999999996297
 31
0.0
  0
LINE
  5
1BAA3
  8
0
  6
CONTINUOUS
 10
9.609390446785305
 20
4.6874673818956
 30
0.0
 11
10.68495775058548
 21
5.763034685695775
 31
0.0
  0
LINE
  5
1BAA4
  8
0
  6
CONTINUOUS
 10
5.595387755019432
 20
-0.0000545189504582
 30
0.0
 11
7.716137258923768
 21
2.120694984953879
 31
0.0
  0
LINE
  5
1BAA5
  8
0
  6
CONTINUOUS
 10
6.268938306610172
 20
-0.000023176439905
 30
0.0
 11
7.170485805526503
 21
0.9015243224764267
 31
0.0
  0
LINE
  5
1BAA6
  8
0
  6
CONTINUOUS
 10
7.963842273967511
 20
2.368399999997621
 30
0.0
 11
9.266442273966188
 21
3.670999999996297
 31
0.0
  0
LINE
  5
1BAA7
  8
0
  6
CONTINUOUS
 10
8.637361483047696
 20
2.368399999997621
 30
0.0
 11
9.939961483046375
 21
3.670999999996297
 31
0.0
  0
LINE
  5
1BAA8
  8
0
  6
CONTINUOUS
 10
9.817529300306965
 20
4.222087026337075
 30
0.0
 11
10.89312513395388
 21
5.297682859983993
 31
0.0
  0
LINE
  5
1BAA9
  8
0
  6
CONTINUOUS
 10
10.02566815382863
 20
3.756706670778549
 30
0.0
 11
11.10129251732229
 21
4.832331034272211
 31
0.0
  0
LINE
  5
1BAAA
  8
0
  6
CONTINUOUS
 10
9.310880692127883
 20
2.368399999997621
 30
0.0
 11
11.30945990069069
 21
4.366979208560428
 31
0.0
  0
LINE
  5
1BAAB
  8
0
  6
CONTINUOUS
 10
9.98439990120807
 20
2.36839999999762
 30
0.0
 11
11.5176272840591
 21
3.901627382848645
 31
0.0
  0
LINE
  5
1BAAC
  8
0
  6
CONTINUOUS
 10
10.65037369446246
 20
2.36085458417182
 30
0.0
 11
11.7257946674275
 21
3.436275557136862
 31
0.0
  0
LINE
  5
1BAAD
  8
0
  6
CONTINUOUS
 10
10.85847197087848
 20
1.895433651507656
 30
0.0
 11
11.9339620507959
 21
2.97092373142508
 31
0.0
  0
LINE
  5
1BAAE
  8
0
  6
CONTINUOUS
 10
11.0665702472945
 20
1.430012718843491
 30
0.0
 11
12.14212943416431
 21
2.505571905713296
 31
0.0
  0
LINE
  5
1BAAF
  8
0
  6
CONTINUOUS
 10
11.27466852371052
 20
0.9645917861793256
 30
0.0
 11
12.35029681753271
 21
2.040220080001513
 31
0.0
  0
LINE
  5
1BAB0
  8
0
  6
CONTINUOUS
 10
11.48276680012654
 20
0.4991708535151611
 30
0.0
 11
12.55846420090111
 21
1.57486825428973
 31
0.0
  0
LINE
  5
1BAB1
  8
0
  6
CONTINUOUS
 10
11.69086507654257
 20
0.0337499208509957
 30
0.0
 11
12.76663158426952
 21
1.109516428577947
 31
0.0
  0
LINE
  5
1BAB2
  8
0
  6
CONTINUOUS
 10
12.33057447873954
 20
-0.0000598860322123
 30
0.0
 11
12.97479896763792
 21
0.6441646028661663
 31
0.0
  0
LINE
  5
1BAB3
  8
0
  6
CONTINUOUS
 10
13.00413694809395
 20
-0.0000166257579952
 30
0.0
 11
13.18296635100632
 21
0.1788127771543824
 31
0.0
  0
LINE
  5
1BAB4
  8
0
  6
CONTINUOUS
 10
4.772852165289667
 20
-0.000092794222212
 30
0.0
 11
4.296495091028902
 21
0.4762642800385528
 31
0.0
  0
LINE
  5
1BAB5
  8
0
  6
CONTINUOUS
 10
5.446340034776103
 20
-0.0000614546284616
 30
0.0
 11
2.898195908335625
 21
2.548082671812017
 31
0.0
  0
LINE
  5
1BAB6
  8
0
  6
CONTINUOUS
 10
6.119827904262539
 20
-0.0000301150347113
 30
0.0
 11
1.499896725642348
 21
4.61990106358548
 31
0.0
  0
LINE
  5
1BAB7
  8
0
  6
CONTINUOUS
 10
6.775136745476159
 20
0.0181802528318542
 30
0.0
 11
5.699826040202669
 21
1.093490958105344
 31
0.0
  0
LINE
  5
1BAB8
  8
0
  6
CONTINUOUS
 10
6.983376846288489
 20
0.4834593610997118
 30
0.0
 11
5.908008617934405
 21
1.558827589453796
 31
0.0
  0
LINE
  5
1BAB9
  8
0
  6
CONTINUOUS
 10
5.377063484962296
 20
1.416253513345719
 30
0.0
 11
1.702276957014131
 21
5.091040041293883
 31
0.0
  0
LINE
  5
1BABA
  8
0
  6
CONTINUOUS
 10
3.978745891735324
 20
3.488090315652877
 30
0.0
 11
2.000373521109399
 21
5.466462686278803
 31
0.0
  0
LINE
  5
1BABB
  8
0
  6
CONTINUOUS
 10
7.191616947100819
 20
0.948738469367568
 30
0.0
 11
6.11619119566614
 21
2.024164220802247
 31
0.0
  0
LINE
  5
1BABC
  8
0
  6
CONTINUOUS
 10
7.399857047913149
 20
1.414017577635424
 30
0.0
 11
6.324373773397875
 21
2.489500852150698
 31
0.0
  0
LINE
  5
1BABD
  8
0
  6
CONTINUOUS
 10
7.608097148725479
 20
1.879296685903281
 30
0.0
 11
6.53255635112961
 21
2.95483748349915
 31
0.0
  0
LINE
  5
1BABE
  8
0
  6
CONTINUOUS
 10
7.816337249537808
 20
2.344575794171138
 30
0.0
 11
6.740738928861345
 21
3.420174114847601
 31
0.0
  0
LINE
  5
1BABF
  8
0
  6
CONTINUOUS
 10
3.310241080789734
 20
4.830114335678653
 30
0.0
 11
2.298470085204666
 21
5.84188533126372
 31
0.0
  0
LINE
  5
1BAC0
  8
0
  6
CONTINUOUS
 10
3.60832983563551
 20
5.205544789913063
 30
0.0
 11
2.596566649299935
 21
6.217307976248638
 31
0.0
  0
LINE
  5
1BAC1
  8
0
  6
CONTINUOUS
 10
3.906418590481286
 20
5.580975244147473
 30
0.0
 11
2.894663213395203
 21
6.592730621233557
 31
0.0
  0
LINE
  5
1BAC2
  8
0
  6
CONTINUOUS
 10
4.204507345327062
 20
5.956405698381884
 30
0.0
 11
3.192759777490472
 21
6.968153266218474
 31
0.0
  0
LINE
  5
1BAC3
  8
0
  6
CONTINUOUS
 10
8.466032252791512
 20
2.368399999997621
 30
0.0
 11
6.948921506593081
 21
3.885510746196053
 31
0.0
  0
LINE
  5
1BAC4
  8
0
  6
CONTINUOUS
 10
9.139551461871699
 20
2.36839999999762
 30
0.0
 11
7.157104084324816
 21
4.350847377544504
 31
0.0
  0
LINE
  5
1BAC5
  8
0
  6
CONTINUOUS
 10
4.502596100172839
 20
6.331836152616295
 30
0.0
 11
3.49085634158574
 21
7.343575911203393
 31
0.0
  0
LINE
  5
1BAC6
  8
0
  6
CONTINUOUS
 10
4.800684855018615
 20
6.707266606850705
 30
0.0
 11
3.788952905681008
 21
7.718998556188312
 31
0.0
  0
LINE
  5
1BAC7
  8
0
  6
CONTINUOUS
 10
12.18154012887317
 20
-0.0000694579236642
 30
0.0
 11
11.32140332908496
 21
0.8600673418645499
 31
0.0
  0
LINE
  5
1BAC8
  8
0
  6
CONTINUOUS
 10
12.85501608323566
 20
-0.0000262032059659
 30
0.0
 11
10.77672456435345
 21
2.078265315676246
 31
0.0
  0
LINE
  5
1BAC9
  8
0
  6
CONTINUOUS
 10
9.813070670951886
 20
2.36839999999762
 30
0.0
 11
8.51047067095321
 21
3.670999999996297
 31
0.0
  0
LINE
  5
1BACA
  8
0
  6
CONTINUOUS
 10
10.48658988003207
 20
2.36839999999762
 30
0.0
 11
9.183989880033396
 21
3.670999999996297
 31
0.0
  0
LINE
  5
1BACB
  8
0
  6
CONTINUOUS
 10
8.441048632286794
 20
3.740422038662712
 30
0.0
 11
7.365286662056551
 21
4.816184008892956
 31
0.0
  0
LINE
  5
1BACC
  8
0
  6
CONTINUOUS
 10
8.649187485808454
 20
4.205802394221237
 30
0.0
 11
7.573469239788285
 21
5.281520640241407
 31
0.0
  0
LINE
  5
1BACD
  8
0
  6
CONTINUOUS
 10
5.098773609864391
 20
7.082697061085115
 30
0.0
 11
4.087049469776277
 21
8.09442120117323
 31
0.0
  0
LINE
  5
1BACE
  8
0
  6
CONTINUOUS
 10
5.396862364710167
 20
7.458127515319526
 30
0.0
 11
4.385146033871544
 21
8.469843846158149
 31
0.0
  0
LINE
  5
1BACF
  8
0
  6
CONTINUOUS
 10
13.04801363231285
 20
0.4804954567970334
 30
0.0
 11
9.85750908911358
 21
3.670999999996297
 31
0.0
  0
LINE
  5
1BAD0
  8
0
  6
CONTINUOUS
 10
8.857326339330116
 20
4.671182749779763
 30
0.0
 11
7.781651817520021
 21
5.746857271589858
 31
0.0
  0
LINE
  5
1BAD1
  8
0
  6
CONTINUOUS
 10
5.694951119555943
 20
7.833557969553937
 30
0.0
 11
4.765409089118624
 21
8.763099999991255
 31
0.0
  0
LINE
  5
1BAD2
  8
0
  6
CONTINUOUS
 10
12.50286117236978
 20
1.699167125820288
 30
0.0
 11
9.68611877250287
 21
4.515909525687196
 31
0.0
  0
LINE
  5
1BAD3
  8
0
  6
CONTINUOUS
 10
9.065465192851777
 20
5.136563105338288
 30
0.0
 11
7.989834395251757
 21
6.21219390293831
 31
0.0
  0
LINE
  5
1BAD4
  8
0
  6
CONTINUOUS
 10
5.993039874401719
 20
8.208988423788346
 30
0.0
 11
5.43892829819881
 21
8.763099999991255
 31
0.0
  0
LINE
  5
1BAD5
  8
0
  6
CONTINUOUS
 10
11.95770871242671
 20
2.917838794843543
 30
0.0
 11
8.19801697298349
 21
6.677530534286761
 31
0.0
  0
LINE
  5
1BAD6
  8
0
  6
CONTINUOUS
 10
6.291128629247495
 20
8.584418878022756
 30
0.0
 11
6.112447507278997
 21
8.763099999991255
 31
0.0
  0
LINE
  5
1BAD7
  8
0
  6
CONTINUOUS
 10
11.41255625248364
 20
4.136510463866797
 30
0.0
 11
8.406199550715227
 21
7.142867165635211
 31
0.0
  0
LINE
  5
1BAD8
  8
0
  6
CONTINUOUS
 10
10.86740379254057
 20
5.355182132890051
 30
0.0
 11
8.614382128446962
 21
7.608203796983664
 31
0.0
  0
LINE
  5
1BAD9
  8
0
  6
CONTINUOUS
 10
10.3222513325975
 20
6.573853801913305
 30
0.0
 11
8.822564706178696
 21
8.073540428332114
 31
0.0
  0
LINE
  5
1BADA
  8
0
  6
CONTINUOUS
 10
9.777098872654436
 20
7.792525470936562
 30
0.0
 11
9.030747283910433
 21
8.538877059680566
 31
0.0
  0
ENDBLK
  5
1BC1C
  8
0
  0
BLOCK
  8
0
  2
*X59
 70
     1
 10
0.0
 20
0.0
 30
0.0
  3
*X59
  1

  0
LINE
  5
1BADC
  8
0
  6
CONTINUOUS
 10
10.67292308101235
 20
8.445076852443387
 30
0.0
 11
10.99094622856022
 21
8.763099999991255
 31
0.0
  0
LINE
  5
1BADD
  8
0
  6
CONTINUOUS
 10
10.87250383178748
 20
7.971138394138331
 30
0.0
 11
11.6644654376404
 21
8.763099999991255
 31
0.0
  0
LINE
  5
1BADE
  8
0
  6
CONTINUOUS
 10
11.07208458256261
 20
7.497199935833273
 30
0.0
 11
12.12126590876355
 21
8.546381262034211
 31
0.0
  0
LINE
  5
1BADF
  8
0
  6
CONTINUOUS
 10
11.27166533333774
 20
7.023261477528216
 30
0.0
 11
12.32085164573666
 21
8.072447789927136
 31
0.0
  0
LINE
  5
1BAE0
  8
0
  6
CONTINUOUS
 10
11.47124608411287
 20
6.549323019223158
 30
0.0
 11
12.52043738270977
 21
7.59851431782006
 31
0.0
  0
LINE
  5
1BAE1
  8
0
  6
CONTINUOUS
 10
11.670826834888
 20
6.075384560918101
 30
0.0
 11
12.72002311968288
 21
7.124580845712984
 31
0.0
  0
LINE
  5
1BAE2
  8
0
  6
CONTINUOUS
 10
11.87040758566313
 20
5.601446102613043
 30
0.0
 11
12.91960885665599
 21
6.650647373605907
 31
0.0
  0
LINE
  5
1BAE3
  8
0
  6
CONTINUOUS
 10
12.06998833643825
 20
5.127507644307986
 30
0.0
 11
13.1191945936291
 21
6.176713901498832
 31
0.0
  0
LINE
  5
1BAE4
  8
0
  6
CONTINUOUS
 10
12.26956908721338
 20
4.65356918600293
 30
0.0
 11
13.31878033060221
 21
5.702780429391757
 31
0.0
  0
LINE
  5
1BAE5
  8
0
  6
CONTINUOUS
 10
12.46914983798851
 20
4.179630727697873
 30
0.0
 11
13.51836606757532
 21
5.228846957284683
 31
0.0
  0
LINE
  5
1BAE6
  8
0
  6
CONTINUOUS
 10
12.66873058876364
 20
3.705692269392816
 30
0.0
 11
13.71795180454843
 21
4.754913485177607
 31
0.0
  0
LINE
  5
1BAE7
  8
0
  6
CONTINUOUS
 10
12.86831133953877
 20
3.231753811087759
 30
0.0
 11
13.91753754152154
 21
4.280980013070531
 31
0.0
  0
LINE
  5
1BAE8
  8
0
  6
CONTINUOUS
 10
13.0678920903139
 20
2.757815352782702
 30
0.0
 11
14.11712327849465
 21
3.807046540963456
 31
0.0
  0
LINE
  5
1BAE9
  8
0
  6
CONTINUOUS
 10
13.26747284108903
 20
2.283876894477644
 30
0.0
 11
14.31670901546777
 21
3.333113068856379
 31
0.0
  0
LINE
  5
1BAEA
  8
0
  6
CONTINUOUS
 10
16.36767838827179
 20
8.751678487061342
 30
0.0
 11
16.50332410898388
 21
8.887324207773432
 31
0.0
  0
LINE
  5
1BAEB
  8
0
  6
CONTINUOUS
 10
15.96190732182191
 20
7.67238821153127
 30
0.0
 11
16.68735328004734
 21
8.397834169756699
 31
0.0
  0
LINE
  5
1BAEC
  8
0
  6
CONTINUOUS
 10
15.55613625537202
 20
6.593097936001196
 30
0.0
 11
16.87138245111079
 21
7.908344131739965
 31
0.0
  0
LINE
  5
1BAED
  8
0
  6
CONTINUOUS
 10
15.15036518892213
 20
5.513807660471122
 30
0.0
 11
17.05541162217424
 21
7.418854093723231
 31
0.0
  0
LINE
  5
1BAEE
  8
0
  6
CONTINUOUS
 10
14.74459412247225
 20
4.434517384941048
 30
0.0
 11
17.2394407932377
 21
6.929364055706499
 31
0.0
  0
LINE
  5
1BAEF
  8
0
  6
CONTINUOUS
 10
14.33882305602236
 20
3.355227109410975
 30
0.0
 11
17.42346996430115
 21
6.439874017689766
 31
0.0
  0
LINE
  5
1BAF0
  8
0
  6
CONTINUOUS
 10
13.46705359186416
 20
1.809938436172586
 30
0.0
 11
16.0819338255367
 21
4.424818669845129
 31
0.0
  0
LINE
  5
1BAF1
  8
0
  6
CONTINUOUS
 10
16.63283254238972
 20
4.975717386698149
 30
0.0
 11
17.60749913536461
 21
5.950383979673033
 31
0.0
  0
LINE
  5
1BAF2
  8
0
  6
CONTINUOUS
 10
13.66663434263929
 20
1.335999977867529
 30
0.0
 11
15.67604797733754
 21
3.345413612565779
 31
0.0
  0
LINE
  5
1BAF3
  8
0
  6
CONTINUOUS
 10
13.86621509341442
 20
0.8620615195624723
 30
0.0
 11
15.27016212913838
 21
2.26600855528643
 31
0.0
  0
LINE
  5
1BAF4
  8
0
  6
CONTINUOUS
 10
16.81682257348267
 20
4.486188208710908
 30
0.0
 11
17.79152830642806
 21
5.460893941656299
 31
0.0
  0
LINE
  5
1BAF5
  8
0
  6
CONTINUOUS
 10
17.00081260457561
 20
3.996659030723667
 30
0.0
 11
17.97555747749151
 21
4.971403903639565
 31
0.0
  0
LINE
  5
1BAF6
  8
0
  6
CONTINUOUS
 10
20.74362343514722
 20
8.412989070375462
 30
0.0
 11
21.09373436476302
 21
8.763099999991256
 31
0.0
  0
LINE
  5
1BAF7
  8
0
  6
CONTINUOUS
 10
20.25401257174777
 20
7.249858997895826
 30
0.0
 11
21.7672535738432
 21
8.763099999991255
 31
0.0
  0
LINE
  5
1BAF8
  8
0
  6
CONTINUOUS
 10
14.06579584418955
 20
0.3881230612574149
 30
0.0
 11
14.86427628093921
 21
1.186603498007082
 31
0.0
  0
LINE
  5
1BAF9
  8
0
  6
CONTINUOUS
 10
14.26537659496467
 20
-0.0858153970476412
 30
0.0
 11
14.45839043274005
 21
0.1071984407277329
 31
0.0
  0
LINE
  5
1BAFA
  8
0
  6
CONTINUOUS
 10
17.18480263566856
 20
3.507129852736426
 30
0.0
 11
18.15958664855496
 21
4.481913865622833
 31
0.0
  0
LINE
  5
1BAFB
  8
0
  6
CONTINUOUS
 10
17.3687926667615
 20
3.017600674749186
 30
0.0
 11
18.34361581961842
 21
3.9924238276061
 31
0.0
  0
LINE
  5
1BAFC
  8
0
  6
CONTINUOUS
 10
19.76440170834832
 20
6.086728925416191
 30
0.0
 11
22.33924590259489
 21
8.661573119662755
 31
0.0
  0
LINE
  5
1BAFD
  8
0
  6
CONTINUOUS
 10
19.27479084494887
 20
4.923598852936555
 30
0.0
 11
21.84929622842713
 21
7.498104236414807
 31
0.0
  0
LINE
  5
1BAFE
  8
0
  6
CONTINUOUS
 10
17.55278269785445
 20
2.528071496761945
 30
0.0
 11
18.52764499068187
 21
3.502933789589366
 31
0.0
  0
LINE
  5
1BAFF
  8
0
  6
CONTINUOUS
 10
18.78517998154942
 20
3.760468780456919
 30
0.0
 11
21.35934655425936
 21
6.33463535316686
 31
0.0
  0
LINE
  5
1BB00
  8
0
  6
CONTINUOUS
 10
17.73677272894739
 20
2.038542318774704
 30
0.0
 11
20.8693968800916
 21
5.171166469918914
 31
0.0
  0
LINE
  5
1BB01
  8
0
  6
CONTINUOUS
 10
17.92076276004034
 20
1.549013140787464
 30
0.0
 11
20.37944720592384
 21
4.007697586670968
 31
0.0
  0
LINE
  5
1BB02
  8
0
  6
CONTINUOUS
 10
18.10475279113329
 20
1.059483962800223
 30
0.0
 11
19.88949753175608
 21
2.84422870342302
 31
0.0
  0
LINE
  5
1BB03
  8
0
  6
CONTINUOUS
 10
18.28874282222623
 20
0.5699547848129822
 30
0.0
 11
19.39954785758832
 21
1.680759820175074
 31
0.0
  0
LINE
  5
1BB04
  8
0
  6
CONTINUOUS
 10
18.47273285331918
 20
0.0804256068257416
 30
0.0
 11
18.90959818342056
 21
0.517290936927127
 31
0.0
  0
LINE
  5
1BB05
  8
0
  6
CONTINUOUS
 10
14.3590401358224
 20
-0.1570118376323384
 30
0.0
 11
14.24903296539946
 21
-0.0470046672093929
 31
0.0
  0
LINE
  5
1BB06
  8
0
  6
CONTINUOUS
 10
14.54309291258661
 20
0.332454594683643
 30
0.0
 11
13.75908329123172
 21
1.116464216038529
 31
0.0
  0
LINE
  5
1BB07
  8
0
  6
CONTINUOUS
 10
14.72714568935081
 20
0.8219210269996244
 30
0.0
 11
13.26913361706399
 21
2.27993309928645
 31
0.0
  0
LINE
  5
1BB08
  8
0
  6
CONTINUOUS
 10
14.91119846611502
 20
1.311387459315606
 30
0.0
 11
12.77918394289625
 21
3.443401982534371
 31
0.0
  0
LINE
  5
1BB09
  8
0
  6
CONTINUOUS
 10
15.09525124287922
 20
1.800853891631587
 30
0.0
 11
12.28923426872852
 21
4.606870865782293
 31
0.0
  0
LINE
  5
1BB0A
  8
0
  6
CONTINUOUS
 10
15.27930401964343
 20
2.290320323947569
 30
0.0
 11
11.79928459456078
 21
5.770339749030213
 31
0.0
  0
LINE
  5
1BB0B
  8
0
  6
CONTINUOUS
 10
15.46335679640763
 20
2.77978675626355
 30
0.0
 11
14.48885470994921
 21
3.754288842721972
 31
0.0
  0
LINE
  5
1BB0C
  8
0
  6
CONTINUOUS
 10
13.88507249233704
 20
4.358071060334137
 30
0.0
 11
11.30933492039305
 21
6.933808632278135
 31
0.0
  0
LINE
  5
1BB0D
  8
0
  6
CONTINUOUS
 10
18.75840522805855
 20
0.1582575336928151
 30
0.0
 11
18.25383727664818
 21
0.6628254851031863
 31
0.0
  0
LINE
  5
1BB0E
  8
0
  6
CONTINUOUS
 10
15.64740957317184
 20
3.269253188579531
 30
0.0
 11
14.67288388101266
 21
4.243778880738705
 31
0.0
  0
LINE
  5
1BB0F
  8
0
  6
CONTINUOUS
 10
13.39509276772158
 20
5.521569994029786
 30
0.0
 11
10.81938524622531
 21
8.097277515526056
 31
0.0
  0
LINE
  5
1BB10
  8
0
  6
CONTINUOUS
 10
18.95798597883369
 20
0.6321959919978686
 30
0.0
 11
17.84825644852853
 21
1.741925522303024
 31
0.0
  0
LINE
  5
1BB11
  8
0
  6
CONTINUOUS
 10
19.15756672960882
 20
1.106134450302922
 30
0.0
 11
17.44267562040888
 21
2.821025559502861
 31
0.0
  0
LINE
  5
1BB12
  8
0
  6
CONTINUOUS
 10
15.83146234993604
 20
3.758719620895513
 30
0.0
 11
14.85691305207612
 21
4.733268918755439
 31
0.0
  0
LINE
  5
1BB13
  8
0
  6
CONTINUOUS
 10
16.01551512670025
 20
4.248186053211494
 30
0.0
 11
15.04094222313957
 21
5.222758956772172
 31
0.0
  0
LINE
  5
1BB14
  8
0
  6
CONTINUOUS
 10
12.90511304310612
 20
6.685068927725435
 30
0.0
 11
10.8270819708403
 21
8.763099999991255
 31
0.0
  0
LINE
  5
1BB15
  8
0
  6
CONTINUOUS
 10
12.41513331849066
 20
7.848567861421083
 30
0.0
 11
11.50060117992049
 21
8.763099999991255
 31
0.0
  0
LINE
  5
1BB16
  8
0
  6
CONTINUOUS
 10
19.35714748038395
 20
1.580072908607975
 30
0.0
 11
17.03709479228923
 21
3.900125596702697
 31
0.0
  0
LINE
  5
1BB17
  8
0
  6
CONTINUOUS
 10
19.55672823115909
 20
2.054011366913028
 30
0.0
 11
16.63151396416958
 21
4.979225633902534
 31
0.0
  0
LINE
  5
1BB18
  8
0
  6
CONTINUOUS
 10
16.19956790346445
 20
4.737652485527476
 30
0.0
 11
15.22497139420302
 21
5.712248994788904
 31
0.0
  0
LINE
  5
1BB19
  8
0
  6
CONTINUOUS
 10
16.38362068022866
 20
5.227118917843457
 30
0.0
 11
15.40900056526648
 21
6.201739032805637
 31
0.0
  0
LINE
  5
1BB1A
  8
0
  6
CONTINUOUS
 10
19.75630898193422
 20
2.527949825218081
 30
0.0
 11
18.70774536448286
 21
3.576513442669441
 31
0.0
  0
LINE
  5
1BB1B
  8
0
  6
CONTINUOUS
 10
19.95588973270936
 20
3.001888283523134
 30
0.0
 11
18.90726987211446
 21
4.050508144118028
 31
0.0
  0
LINE
  5
1BB1C
  8
0
  6
CONTINUOUS
 10
20.15547048348449
 20
3.475826741828186
 30
0.0
 11
19.10679437974606
 21
4.524502845566614
 31
0.0
  0
LINE
  5
1BB1D
  8
0
  6
CONTINUOUS
 10
20.35505123425962
 20
3.94976520013324
 30
0.0
 11
19.30631888737766
 21
4.998497547015201
 31
0.0
  0
LINE
  5
1BB1E
  8
0
  6
CONTINUOUS
 10
20.55463198503475
 20
4.423703658438292
 30
0.0
 11
19.50584339500926
 21
5.472492248463787
 31
0.0
  0
LINE
  5
1BB1F
  8
0
  6
CONTINUOUS
 10
18.37481191085755
 20
3.909446896294752
 30
0.0
 11
15.59302973632993
 21
6.691229070822371
 31
0.0
  0
LINE
  5
1BB20
  8
0
  6
CONTINUOUS
 10
17.96904084440766
 20
4.988737171824825
 30
0.0
 11
15.77705890739338
 21
7.180719108839104
 31
0.0
  0
LINE
  5
1BB21
  8
0
  6
CONTINUOUS
 10
17.56326977795777
 20
6.068027447354899
 30
0.0
 11
15.96108807845684
 21
7.670209146855838
 31
0.0
  0
LINE
  5
1BB22
  8
0
  6
CONTINUOUS
 10
17.15749871150789
 20
7.147317722884972
 30
0.0
 11
16.14511724952029
 21
8.15969918487257
 31
0.0
  0
LINE
  5
1BB23
  8
0
  6
CONTINUOUS
 10
16.751727645058
 20
8.226607998415046
 30
0.0
 11
16.32914642058374
 21
8.649189222889303
 31
0.0
  0
LINE
  5
1BB24
  8
0
  6
CONTINUOUS
 10
20.75421273580989
 20
4.897642116743345
 30
0.0
 11
19.70536790264086
 21
5.946486949912374
 31
0.0
  0
LINE
  5
1BB25
  8
0
  6
CONTINUOUS
 10
20.95379348658502
 20
5.371580575048398
 30
0.0
 11
19.90489241027246
 21
6.42048165136096
 31
0.0
  0
LINE
  5
1BB26
  8
0
  6
CONTINUOUS
 10
21.15337423736015
 20
5.845519033353452
 30
0.0
 11
20.10441691790406
 21
6.894476352809547
 31
0.0
  0
LINE
  5
1BB27
  8
0
  6
CONTINUOUS
 10
21.35295498813529
 20
6.319457491658505
 30
0.0
 11
20.30394142553566
 21
7.368471054258134
 31
0.0
  0
LINE
  5
1BB28
  8
0
  6
CONTINUOUS
 10
21.55253573891042
 20
6.793395949963558
 30
0.0
 11
20.50346593316726
 21
7.842465755706721
 31
0.0
  0
LINE
  5
1BB29
  8
0
  6
CONTINUOUS
 10
21.75211648968556
 20
7.267334408268612
 30
0.0
 11
20.70299044079886
 21
8.316460457155308
 31
0.0
  0
LINE
  5
1BB2A
  8
0
  6
CONTINUOUS
 10
21.95169724046069
 20
7.741272866573663
 30
0.0
 11
20.9298701070431
 21
8.763099999991256
 31
0.0
  0
LINE
  5
1BB2B
  8
0
  6
CONTINUOUS
 10
22.15127799123582
 20
8.215211324878716
 30
0.0
 11
21.60338931612328
 21
8.763099999991256
 31
0.0
  0
LINE
  5
1BB2C
  8
0
  6
CONTINUOUS
 10
22.35085874201096
 20
8.689149783183769
 30
0.0
 11
22.27690852520347
 21
8.763099999991255
 31
0.0
  0
ENDBLK
  5
1BC1E
  8
0
  0
BLOCK
  8
0
  2
*X60
 70
     1
 10
0.0
 20
0.0
 30
0.0
  3
*X60
  1

  0
LINE
  5
1BB2E
  8
0
  6
CONTINUOUS
 10
23.19462913593892
 20
8.169917934846424
 30
0.0
 11
23.70775465517246
 21
8.683043454079957
 31
0.0
  0
LINE
  5
1BB2F
  8
0
  6
CONTINUOUS
 10
22.64923161835078
 20
6.951001208178088
 30
0.0
 11
23.9159364069932
 21
8.217705996820516
 31
0.0
  0
LINE
  5
1BB30
  8
0
  6
CONTINUOUS
 10
22.10383410076263
 20
5.732084481509751
 30
0.0
 11
24.12411815881395
 21
7.752368539561078
 31
0.0
  0
LINE
  5
1BB31
  8
0
  6
CONTINUOUS
 10
21.55843658317447
 20
4.513167754841414
 30
0.0
 11
24.3322999106347
 21
7.287031082301639
 31
0.0
  0
LINE
  5
1BB32
  8
0
  6
CONTINUOUS
 10
21.01303906558632
 20
3.294251028173077
 30
0.0
 11
24.54048166245544
 21
6.821693625042199
 31
0.0
  0
LINE
  5
1BB33
  8
0
  6
CONTINUOUS
 10
20.46764154799817
 20
2.075334301504738
 30
0.0
 11
23.28571549467848
 21
4.89340824818505
 31
0.0
  0
LINE
  5
1BB34
  8
0
  6
CONTINUOUS
 10
19.92224403041002
 20
0.8564175748364002
 30
0.0
 11
22.74075865492779
 21
3.674932199354171
 31
0.0
  0
LINE
  5
1BB35
  8
0
  6
CONTINUOUS
 10
23.67305085490148
 20
5.280743608408048
 30
0.0
 11
24.74866341427619
 21
6.356356167782759
 31
0.0
  0
LINE
  5
1BB36
  8
0
  6
CONTINUOUS
 10
23.88118970842314
 20
4.815363252849522
 30
0.0
 11
24.95684516609694
 21
5.89101871052332
 31
0.0
  0
LINE
  5
1BB37
  8
0
  6
CONTINUOUS
 10
19.73925852647308
 20
-0.0000871381807288
 30
0.0
 11
23.4103456646501
 21
3.670999999996297
 31
0.0
  0
LINE
  5
1BB38
  8
0
  6
CONTINUOUS
 10
24.0893285619448
 20
4.349982897290997
 30
0.0
 11
25.16502691791769
 21
5.42568125326388
 31
0.0
  0
LINE
  5
1BB39
  8
0
  6
CONTINUOUS
 10
20.41282099582748
 20
-0.0000438779065108
 30
0.0
 11
21.64944178675636
 21
1.236576913022366
 31
0.0
  0
LINE
  5
1BB3A
  8
0
  6
CONTINUOUS
 10
22.78126487373161
 20
2.36839999999762
 30
0.0
 11
24.08386487373029
 21
3.670999999996297
 31
0.0
  0
LINE
  5
1BB3B
  8
0
  6
CONTINUOUS
 10
24.29746741546646
 20
3.884602541732471
 30
0.0
 11
25.37320866973843
 21
4.960343796004441
 31
0.0
  0
LINE
  5
1BB3C
  8
0
  6
CONTINUOUS
 10
21.08638346518189
 20
-0.0000006176322938
 30
0.0
 11
21.10379033335899
 21
0.0174062505448083
 31
0.0
  0
LINE
  5
1BB3D
  8
0
  6
CONTINUOUS
 10
23.4547840828118
 20
2.36839999999762
 30
0.0
 11
25.58139042155918
 21
4.495006338745002
 31
0.0
  0
LINE
  5
1BB3E
  8
0
  6
CONTINUOUS
 10
29.30199999996933
 20
8.215615917155148
 30
0.0
 11
29.84948408280543
 21
8.763099999991255
 31
0.0
  0
LINE
  5
1BB3F
  8
0
  6
CONTINUOUS
 10
24.12830329189199
 20
2.36839999999762
 30
0.0
 11
25.78957217337993
 21
4.029668881485562
 31
0.0
  0
LINE
  5
1BB40
  8
0
  6
CONTINUOUS
 10
29.30199999996933
 20
7.54209670807496
 30
0.0
 11
30.52300329188562
 21
8.763099999991255
 31
0.0
  0
LINE
  5
1BB41
  8
0
  6
CONTINUOUS
 10
24.80182250097217
 20
2.36839999999762
 30
0.0
 11
25.99775392520067
 21
3.564331424226122
 31
0.0
  0
LINE
  5
1BB42
  8
0
  6
CONTINUOUS
 10
29.30199999996933
 20
6.868577498994774
 30
0.0
 11
30.74199999996926
 21
8.308577498994712
 31
0.0
  0
LINE
  5
1BB43
  8
0
  6
CONTINUOUS
 10
25.13028238392013
 20
2.023340673865392
 30
0.0
 11
26.20593567702142
 21
3.098993966966683
 31
0.0
  0
LINE
  5
1BB44
  8
0
  6
CONTINUOUS
 10
25.33838066033617
 20
1.557919741201244
 30
0.0
 11
26.41411742884217
 21
2.633656509707244
 31
0.0
  0
LINE
  5
1BB45
  8
0
  6
CONTINUOUS
 10
25.54647893675221
 20
1.092498808537098
 30
0.0
 11
26.62229918066291
 21
2.168319052447804
 31
0.0
  0
LINE
  5
1BB46
  8
0
  6
CONTINUOUS
 10
25.75457721316825
 20
0.62707787587295
 30
0.0
 11
26.83048093248366
 21
1.702981595188365
 31
0.0
  0
LINE
  5
1BB47
  8
0
  6
CONTINUOUS
 10
29.30199999996933
 20
6.195058289914587
 30
0.0
 11
30.74199999996926
 21
7.635058289914522
 31
0.0
  0
LINE
  5
1BB48
  8
0
  6
CONTINUOUS
 10
29.30199999996933
 20
5.521539080834401
 30
0.0
 11
30.74199999996926
 21
6.961539080834331
 31
0.0
  0
LINE
  5
1BB49
  8
0
  6
CONTINUOUS
 10
29.30199999996933
 20
4.848019871754214
 30
0.0
 11
30.74199999996925
 21
6.288019871754143
 31
0.0
  0
LINE
  5
1BB4A
  8
0
  6
CONTINUOUS
 10
29.30199999996933
 20
4.174500662674028
 30
0.0
 11
30.74199999996925
 21
5.614500662673953
 31
0.0
  0
LINE
  5
1BB4B
  8
0
  6
CONTINUOUS
 10
25.96267548958429
 20
0.1616569432088024
 30
0.0
 11
27.18411854636669
 21
1.383099999991207
 31
0.0
  0
LINE
  5
1BB4C
  8
0
  6
CONTINUOUS
 10
29.30199999996933
 20
3.500981453593841
 30
0.0
 11
30.74199999996925
 21
4.940981453593762
 31
0.0
  0
LINE
  5
1BB4D
  8
0
  6
CONTINUOUS
 10
26.50763775544691
 20
0.0330999999912356
 30
0.0
 11
27.85763775544689
 21
1.383099999991223
 31
0.0
  0
LINE
  5
1BB4E
  8
0
  6
CONTINUOUS
 10
29.30199999996933
 20
2.827462244513656
 30
0.0
 11
30.74199999996925
 21
4.267462244513574
 31
0.0
  0
LINE
  5
1BB4F
  8
0
  6
CONTINUOUS
 10
27.18115696452709
 20
0.0330999999912356
 30
0.0
 11
28.6224847300034
 21
1.474427765467545
 31
0.0
  0
LINE
  5
1BB50
  8
0
  6
CONTINUOUS
 10
29.21067223449293
 20
2.062615269957069
 30
0.0
 11
30.74199999996924
 21
3.593943035433383
 31
0.0
  0
LINE
  5
1BB51
  8
0
  6
CONTINUOUS
 10
27.85467617360728
 20
0.0330999999912356
 30
0.0
 11
30.74199999996924
 21
2.920423826353195
 31
0.0
  0
LINE
  5
1BB52
  8
0
  6
CONTINUOUS
 10
28.57438609860264
 20
0.0792907159064073
 30
0.0
 11
30.69580928405405
 21
2.200713901357819
 31
0.0
  0
LINE
  5
1BB53
  8
0
  6
CONTINUOUS
 10
29.49443044814297
 20
0.3258158563665496
 30
0.0
 11
30.44928414359389
 21
1.280669551817477
 31
0.0
  0
LINE
  5
1BB54
  8
0
  6
CONTINUOUS
 10
19.59027867740337
 20
-0.0000967065718083
 30
0.0
 11
19.55485265190471
 21
0.035329318926844
 31
0.0
  0
LINE
  5
1BB55
  8
0
  6
CONTINUOUS
 10
20.26375463176586
 20
-0.0000534518541091
 30
0.0
 11
19.76305575737534
 21
0.5006454225364014
 31
0.0
  0
LINE
  5
1BB56
  8
0
  6
CONTINUOUS
 10
20.93723058612834
 20
-0.0000101971364099
 30
0.0
 11
19.97125886284597
 21
0.965961526145958
 31
0.0
  0
LINE
  5
1BB57
  8
0
  6
CONTINUOUS
 10
21.25514828313686
 20
0.355591314935257
 30
0.0
 11
20.1794619683166
 21
1.431277629755512
 31
0.0
  0
LINE
  5
1BB58
  8
0
  6
CONTINUOUS
 10
21.46338838394921
 20
0.8208704232030986
 30
0.0
 11
20.38766507378723
 21
1.896593733365069
 31
0.0
  0
LINE
  5
1BB59
  8
0
  6
CONTINUOUS
 10
21.67162848476155
 20
1.28614953147094
 30
0.0
 11
20.59586817925786
 21
2.361909836974626
 31
0.0
  0
LINE
  5
1BB5A
  8
0
  6
CONTINUOUS
 10
21.8798685855739
 20
1.751428639738782
 30
0.0
 11
20.80407128472849
 21
2.827225940584183
 31
0.0
  0
LINE
  5
1BB5B
  8
0
  6
CONTINUOUS
 10
22.08810868638624
 20
2.216707748006623
 30
0.0
 11
21.01227439019912
 21
3.292542044193739
 31
0.0
  0
LINE
  5
1BB5C
  8
0
  6
CONTINUOUS
 10
22.60993564347543
 20
2.36839999999762
 30
0.0
 11
21.22047749566975
 21
3.757858147803296
 31
0.0
  0
LINE
  5
1BB5D
  8
0
  6
CONTINUOUS
 10
23.28345485255561
 20
2.36839999999762
 30
0.0
 11
21.42868060114038
 21
4.223174251412853
 31
0.0
  0
LINE
  5
1BB5E
  8
0
  6
CONTINUOUS
 10
26.29227406164219
 20
0.0330999999912356
 30
0.0
 11
25.80009199592872
 21
0.5252820657046957
 31
0.0
  0
LINE
  5
1BB5F
  8
0
  6
CONTINUOUS
 10
23.9569740616358
 20
2.36839999999762
 30
0.0
 11
21.63688370661101
 21
4.688490355022409
 31
0.0
  0
LINE
  5
1BB60
  8
0
  6
CONTINUOUS
 10
26.96579327072237
 20
0.0330999999912356
 30
0.0
 11
25.2554132311971
 21
1.743480039516508
 31
0.0
  0
LINE
  5
1BB61
  8
0
  6
CONTINUOUS
 10
24.63049327071599
 20
2.36839999999762
 30
0.0
 11
23.32789327071731
 21
3.670999999996297
 31
0.0
  0
LINE
  5
1BB62
  8
0
  6
CONTINUOUS
 10
22.92098674744635
 20
4.077906523267254
 30
0.0
 11
21.84508681208164
 21
5.153806458631966
 31
0.0
  0
LINE
  5
1BB63
  8
0
  6
CONTINUOUS
 10
27.63931247980256
 20
0.0330999999912356
 30
0.0
 11
24.0014124797975
 21
3.670999999996297
 31
0.0
  0
LINE
  5
1BB64
  8
0
  6
CONTINUOUS
 10
23.129125600968
 20
4.5432868788258
 30
0.0
 11
22.05328991755227
 21
5.619122562241522
 31
0.0
  0
LINE
  5
1BB65
  8
0
  6
CONTINUOUS
 10
28.31283168888275
 20
0.0330999999912356
 30
0.0
 11
24.16488385994816
 21
4.181047828925828
 31
0.0
  0
LINE
  5
1BB66
  8
0
  6
CONTINUOUS
 10
23.33726445448964
 20
5.008667234384345
 30
0.0
 11
22.2614930230229
 21
6.084438665851079
 31
0.0
  0
LINE
  5
1BB67
  8
0
  6
CONTINUOUS
 10
28.86286302309502
 20
0.1565878748591523
 30
0.0
 11
27.63635089796295
 21
1.383099999991217
 31
0.0
  0
LINE
  5
1BB68
  8
0
  6
CONTINUOUS
 10
26.43704649509776
 20
2.582404402856405
 30
0.0
 11
23.61992702019732
 21
5.399523877756844
 31
0.0
  0
LINE
  5
1BB69
  8
0
  6
CONTINUOUS
 10
23.54540330801128
 20
5.47404758994289
 30
0.0
 11
22.46969612849353
 21
6.549754769460635
 31
0.0
  0
LINE
  5
1BB6A
  8
0
  6
CONTINUOUS
 10
29.39405087596853
 20
0.2989192310658284
 30
0.0
 11
28.30987010704312
 21
1.383099999991234
 31
0.0
  0
LINE
  5
1BB6B
  8
0
  6
CONTINUOUS
 10
25.89179548232307
 20
3.801174624711282
 30
0.0
 11
22.67789923396416
 21
7.015070873070191
 31
0.0
  0
LINE
  5
1BB6C
  8
0
  6
CONTINUOUS
 10
29.79594438047407
 20
0.570544935640473
 30
0.0
 11
28.81310432793121
 21
1.553384988183336
 31
0.0
  0
LINE
  5
1BB6D
  8
0
  6
CONTINUOUS
 10
25.34654446954838
 20
5.01994484656616
 30
0.0
 11
22.88610233943479
 21
7.480386976679748
 31
0.0
  0
LINE
  5
1BB6E
  8
0
  6
CONTINUOUS
 10
30.13270398501416
 20
0.9073045401805646
 30
0.0
 11
29.14234640337737
 21
1.897662121817355
 31
0.0
  0
LINE
  5
1BB6F
  8
0
  6
CONTINUOUS
 10
24.80129345677369
 20
6.238715068421037
 30
0.0
 11
23.09430544490542
 21
7.945703080289305
 31
0.0
  0
LINE
  5
1BB70
  8
0
  6
CONTINUOUS
 10
30.44581292956759
 20
1.26771480470732
 30
0.0
 11
29.30199999996933
 21
2.411527734305588
 31
0.0
  0
LINE
  5
1BB71
  8
0
  6
CONTINUOUS
 10
30.58814428577427
 20
1.798902657580827
 30
0.0
 11
29.30199999996933
 21
3.085046943385775
 31
0.0
  0
LINE
  5
1BB72
  8
0
  6
CONTINUOUS
 10
24.256042443999
 20
7.457485290275915
 30
0.0
 11
23.30250855037605
 21
8.411019183898862
 31
0.0
  0
LINE
  5
1BB73
  8
0
  6
CONTINUOUS
 10
23.71079143122431
 20
8.676255512130794
 30
0.0
 11
23.51071165584668
 21
8.876335287508418
 31
0.0
  0
LINE
  5
1BB74
  8
0
  6
CONTINUOUS
 10
30.73047564198095
 20
2.330090510454333
 30
0.0
 11
29.30199999996933
 21
3.758566152465961
 31
0.0
  0
LINE
  5
1BB75
  8
0
  6
CONTINUOUS
 10
30.74199999996924
 20
2.992085361546236
 30
0.0
 11
29.30199999996933
 21
4.432085361546148
 31
0.0
  0
LINE
  5
1BB76
  8
0
  6
CONTINUOUS
 10
30.74199999996924
 20
3.665604570626419
 30
0.0
 11
29.30199999996933
 21
5.105604570626333
 31
0.0
  0
LINE
  5
1BB77
  8
0
  6
CONTINUOUS
 10
30.74199999996925
 20
4.339123779706602
 30
0.0
 11
29.30199999996933
 21
5.77912377970652
 31
0.0
  0
LINE
  5
1BB78
  8
0
  6
CONTINUOUS
 10
30.74199999996925
 20
5.012642988786785
 30
0.0
 11
29.30199999996933
 21
6.452642988786707
 31
0.0
  0
LINE
  5
1BB79
  8
0
  6
CONTINUOUS
 10
30.74199999996925
 20
5.68616219786697
 30
0.0
 11
29.30199999996933
 21
7.126162197866894
 31
0.0
  0
LINE
  5
1BB7A
  8
0
  6
CONTINUOUS
 10
30.74199999996925
 20
6.359681406947153
 30
0.0
 11
29.30199999996933
 21
7.799681406947081
 31
0.0
  0
LINE
  5
1BB7B
  8
0
  6
CONTINUOUS
 10
30.74199999996926
 20
7.033200616027337
 30
0.0
 11
29.30199999996933
 21
8.473200616027269
 31
0.0
  0
LINE
  5
1BB7C
  8
0
  6
CONTINUOUS
 10
30.74199999996926
 20
7.706719825107518
 30
0.0
 11
29.68561982508552
 21
8.763099999991255
 31
0.0
  0
LINE
  5
1BB7D
  8
0
  6
CONTINUOUS
 10
30.74199999996926
 20
8.380239034187703
 30
0.0
 11
30.35913903416571
 21
8.763099999991255
 31
0.0
  0
ENDBLK
  5
1BC20
  8
0
  0
BLOCK
  8
0
  2
*X61
 70
     1
 10
0.0
 20
0.0
 30
0.0
  3
*X61
  1

  0
LINE
  5
1BB7F
  8
0
  6
CONTINUOUS
 10
31.64199999996833
 20
8.5350582899136
 30
0.0
 11
31.87004171004599
 21
8.763099999991255
 31
0.0
  0
LINE
  5
1BB80
  8
0
  6
CONTINUOUS
 10
31.64199999996833
 20
7.861539080833413
 30
0.0
 11
32.54356091912618
 21
8.763099999991255
 31
0.0
  0
LINE
  5
1BB81
  8
0
  6
CONTINUOUS
 10
31.64199999996833
 20
7.188019871753227
 30
0.0
 11
33.08199999996839
 21
8.628019871753281
 31
0.0
  0
LINE
  5
1BB82
  8
0
  6
CONTINUOUS
 10
31.64199999996833
 20
6.514500662673041
 30
0.0
 11
33.08199999996839
 21
7.954500662673095
 31
0.0
  0
LINE
  5
1BB83
  8
0
  6
CONTINUOUS
 10
31.64199999996833
 20
5.840981453592855
 30
0.0
 11
33.08199999996839
 21
7.28098145359291
 31
0.0
  0
LINE
  5
1BB84
  8
0
  6
CONTINUOUS
 10
31.64199999996833
 20
5.167462244512668
 30
0.0
 11
33.08199999996839
 21
6.607462244512723
 31
0.0
  0
LINE
  5
1BB85
  8
0
  6
CONTINUOUS
 10
31.64199999996833
 20
4.493943035432482
 30
0.0
 11
33.08199999996839
 21
5.933943035432536
 31
0.0
  0
LINE
  5
1BB86
  8
0
  6
CONTINUOUS
 10
31.64199999996833
 20
3.820423826352294
 30
0.0
 11
33.08199999996839
 21
5.260423826352349
 31
0.0
  0
LINE
  5
1BB87
  8
0
  6
CONTINUOUS
 10
31.64199999996833
 20
3.146904617272108
 30
0.0
 11
33.08199999996839
 21
4.586904617272163
 31
0.0
  0
LINE
  5
1BB88
  8
0
  6
CONTINUOUS
 10
36.23199999996837
 20
8.410423826352327
 30
0.0
 11
36.58467617360729
 21
8.763099999991255
 31
0.0
  0
LINE
  5
1BB89
  8
0
  6
CONTINUOUS
 10
36.23199999996837
 20
7.73690461727214
 30
0.0
 11
37.25819538268748
 21
8.763099999991255
 31
0.0
  0
LINE
  5
1BB8A
  8
0
  6
CONTINUOUS
 10
31.64323424774199
 20
2.474619655965573
 30
0.0
 11
33.08199999996839
 21
3.913385408191976
 31
0.0
  0
LINE
  5
1BB8B
  8
0
  6
CONTINUOUS
 10
31.74419223861915
 20
1.902058437762552
 30
0.0
 11
33.08199999996839
 21
3.239866199111789
 31
0.0
  0
LINE
  5
1BB8C
  8
0
  6
CONTINUOUS
 10
36.23199999996837
 20
7.063385408191953
 30
0.0
 11
37.67199999996831
 21
8.503385408191894
 31
0.0
  0
LINE
  5
1BB8D
  8
0
  6
CONTINUOUS
 10
36.23199999996837
 20
6.389866199111767
 30
0.0
 11
37.67199999996831
 21
7.829866199111708
 31
0.0
  0
LINE
  5
1BB8E
  8
0
  6
CONTINUOUS
 10
31.91111233414976
 20
1.39545932421297
 30
0.0
 11
33.08199999996839
 21
2.566346990031603
 31
0.0
  0
LINE
  5
1BB8F
  8
0
  6
CONTINUOUS
 10
36.23199999996837
 20
5.71634699003158
 30
0.0
 11
37.67199999996831
 21
7.156346990031522
 31
0.0
  0
LINE
  5
1BB90
  8
0
  6
CONTINUOUS
 10
32.1576374746103
 20
0.9684652555933289
 30
0.0
 11
33.20642631446081
 21
2.017254095443838
 31
0.0
  0
LINE
  5
1BB91
  8
0
  6
CONTINUOUS
 10
36.23199999996837
 20
5.042827780951393
 30
0.0
 11
37.67199999996831
 21
6.482827780951334
 31
0.0
  0
LINE
  5
1BB92
  8
0
  6
CONTINUOUS
 10
32.47774023927325
 20
0.6150488111760914
 30
0.0
 11
33.49903056428258
 21
1.636339136185419
 31
0.0
  0
LINE
  5
1BB93
  8
0
  6
CONTINUOUS
 10
36.23199999996837
 20
4.369308571871207
 30
0.0
 11
37.67199999996831
 21
5.809308571871148
 31
0.0
  0
LINE
  5
1BB94
  8
0
  6
CONTINUOUS
 10
32.84396249154443
 20
0.3077518543670883
 30
0.0
 11
33.93324121824649
 21
1.397030581069146
 31
0.0
  0
LINE
  5
1BB95
  8
0
  6
CONTINUOUS
 10
36.23199999996837
 20
3.695789362791021
 30
0.0
 11
37.67199999996831
 21
5.135789362790963
 31
0.0
  0
LINE
  5
1BB96
  8
0
  6
CONTINUOUS
 10
33.30186329036846
 20
0.0921334441109263
 30
0.0
 11
34.46442907112041
 21
1.254699224862875
 31
0.0
  0
LINE
  5
1BB97
  8
0
  6
CONTINUOUS
 10
36.23199999996837
 20
3.022270153710834
 30
0.0
 11
37.67199999996831
 21
4.462270153710776
 31
0.0
  0
LINE
  5
1BB98
  8
0
  6
CONTINUOUS
 10
33.79565647746294
 20
-0.0875925778747773
 30
0.0
 11
35.24350171668284
 21
1.360252661345124
 31
0.0
  0
LINE
  5
1BB99
  8
0
  6
CONTINUOUS
 10
36.18336676155003
 20
2.300117706212308
 30
0.0
 11
37.67199999996831
 21
3.788750944630589
 31
0.0
  0
LINE
  5
1BB9A
  8
0
  6
CONTINUOUS
 10
34.37182574910968
 20
-0.184942515308224
 30
0.0
 11
37.67199999996831
 21
3.115231735550402
 31
0.0
  0
LINE
  5
1BB9B
  8
0
  6
CONTINUOUS
 10
35.0453449581892
 20
-0.1849425153088955
 30
0.0
 11
37.66345697088136
 21
2.433169497383271
 31
0.0
  0
LINE
  5
1BB9C
  8
0
  6
CONTINUOUS
 10
35.98667157609191
 20
0.0828648935136398
 30
0.0
 11
37.51927401744566
 21
1.615467334867382
 31
0.0
  0
LINE
  5
1BB9D
  8
0
  6
CONTINUOUS
 10
32.27747408544484
 20
0.7830920669904482
 30
0.0
 11
32.24716210471949
 21
0.8134040477157893
 31
0.0
  0
LINE
  5
1BB9E
  8
0
  6
CONTINUOUS
 10
33.83656881101902
 20
-0.1024834495035494
 30
0.0
 11
31.72538911593758
 21
2.008696245577891
 31
0.0
  0
LINE
  5
1BB9F
  8
0
  6
CONTINUOUS
 10
34.5925470859041
 20
-0.1849425153084434
 30
0.0
 11
31.64199999996833
 21
2.765604570627322
 31
0.0
  0
LINE
  5
1BBA0
  8
0
  6
CONTINUOUS
 10
35.26201302775981
 20
-0.1808892480839752
 30
0.0
 11
31.64199999996833
 21
3.439123779707508
 31
0.0
  0
LINE
  5
1BBA1
  8
0
  6
CONTINUOUS
 10
35.75580621485512
 20
-0.0011632260990879
 30
0.0
 11
34.51294304365551
 21
1.241699945100514
 31
0.0
  0
LINE
  5
1BBA2
  8
0
  6
CONTINUOUS
 10
33.08199999996839
 20
2.672642988787641
 30
0.0
 11
31.64199999996833
 21
4.112642988787695
 31
0.0
  0
LINE
  5
1BBA3
  8
0
  6
CONTINUOUS
 10
36.24959940195042
 20
0.1785627958857976
 30
0.0
 11
35.10501653033629
 21
1.323145667499924
 31
0.0
  0
LINE
  5
1BBA4
  8
0
  6
CONTINUOUS
 10
33.08199999996839
 20
3.346162197867827
 30
0.0
 11
31.64199999996833
 21
4.786162197867881
 31
0.0
  0
LINE
  5
1BBA5
  8
0
  6
CONTINUOUS
 10
36.64615197150552
 20
0.4555294354108876
 30
0.0
 11
35.6362043832099
 21
1.465477023706505
 31
0.0
  0
LINE
  5
1BBA6
  8
0
  6
CONTINUOUS
 10
33.08199999996839
 20
4.019681406948013
 30
0.0
 11
31.64199999996833
 21
5.459681406948068
 31
0.0
  0
LINE
  5
1BBA7
  8
0
  6
CONTINUOUS
 10
37.0123742237774
 20
0.7628263922191891
 30
0.0
 11
35.97691545773309
 21
1.798285158263504
 31
0.0
  0
LINE
  5
1BBA8
  8
0
  6
CONTINUOUS
 10
33.08199999996839
 20
4.6932006160282
 30
0.0
 11
31.64199999996833
 21
6.133200616028255
 31
0.0
  0
LINE
  5
1BBA9
  8
0
  6
CONTINUOUS
 10
37.27491524157143
 20
1.173804583505349
 30
0.0
 11
36.17602012811361
 21
2.272699696963169
 31
0.0
  0
LINE
  5
1BBAA
  8
0
  6
CONTINUOUS
 10
33.08199999996839
 20
5.366719825108387
 30
0.0
 11
31.64199999996833
 21
6.806719825108441
 31
0.0
  0
LINE
  5
1BBAB
  8
0
  6
CONTINUOUS
 10
37.51739996707661
 20
1.604839067080355
 30
0.0
 11
36.23199999996837
 21
2.890239034188595
 31
0.0
  0
LINE
  5
1BBAC
  8
0
  6
CONTINUOUS
 10
37.6183579579535
 20
2.177400285283649
 30
0.0
 11
36.23199999996837
 21
3.563758243268782
 31
0.0
  0
LINE
  5
1BBAD
  8
0
  6
CONTINUOUS
 10
33.08199999996839
 20
6.040239034188573
 30
0.0
 11
31.64199999996833
 21
7.480239034188628
 31
0.0
  0
LINE
  5
1BBAE
  8
0
  6
CONTINUOUS
 10
33.08199999996839
 20
6.713758243268759
 30
0.0
 11
31.64199999996833
 21
8.153758243268815
 31
0.0
  0
LINE
  5
1BBAF
  8
0
  6
CONTINUOUS
 10
37.67199999996831
 20
2.797277452349027
 30
0.0
 11
36.23199999996837
 21
4.237277452348969
 31
0.0
  0
LINE
  5
1BBB0
  8
0
  6
CONTINUOUS
 10
37.67199999996831
 20
3.470796661429214
 30
0.0
 11
36.23199999996837
 21
4.910796661429155
 31
0.0
  0
LINE
  5
1BBB1
  8
0
  6
CONTINUOUS
 10
37.67199999996831
 20
4.1443158705094
 30
0.0
 11
36.23199999996837
 21
5.584315870509341
 31
0.0
  0
LINE
  5
1BBB2
  8
0
  6
CONTINUOUS
 10
33.08199999996839
 20
7.387277452348946
 30
0.0
 11
31.70617745232608
 21
8.763099999991255
 31
0.0
  0
LINE
  5
1BBB3
  8
0
  6
CONTINUOUS
 10
33.08199999996839
 20
8.060796661429134
 30
0.0
 11
32.37969666140626
 21
8.763099999991255
 31
0.0
  0
LINE
  5
1BBB4
  8
0
  6
CONTINUOUS
 10
33.08199999996839
 20
8.734315870509318
 30
0.0
 11
33.05321587048645
 21
8.763099999991255
 31
0.0
  0
LINE
  5
1BBB5
  8
0
  6
CONTINUOUS
 10
37.67199999996831
 20
4.817835079589586
 30
0.0
 11
36.23199999996837
 21
6.257835079589528
 31
0.0
  0
LINE
  5
1BBB6
  8
0
  6
CONTINUOUS
 10
37.67199999996831
 20
5.491354288669772
 30
0.0
 11
36.23199999996837
 21
6.931354288669715
 31
0.0
  0
LINE
  5
1BBB7
  8
0
  6
CONTINUOUS
 10
37.67199999996831
 20
6.164873497749959
 30
0.0
 11
36.23199999996837
 21
7.6048734977499
 31
0.0
  0
LINE
  5
1BBB8
  8
0
  6
CONTINUOUS
 10
37.67199999996831
 20
6.838392706830145
 30
0.0
 11
36.23199999996837
 21
8.278392706830086
 31
0.0
  0
LINE
  5
1BBB9
  8
0
  6
CONTINUOUS
 10
37.67199999996831
 20
7.511911915910333
 30
0.0
 11
36.42081191588738
 21
8.763099999991255
 31
0.0
  0
LINE
  5
1BBBA
  8
0
  6
CONTINUOUS
 10
37.67199999996831
 20
8.185431124990519
 30
0.0
 11
37.09433112496757
 21
8.763099999991255
 31
0.0
  0
ENDBLK
  5
1BC22
  8
0
  0
BLOCK
  8
0
  2
*X62
 70
     1
 10
0.0
 20
0.0
 30
0.0
  3
*X62
  1

  0
LINE
  5
1BBBC
  8
0
  6
CONTINUOUS
 10
38.60499999996136
 20
8.762866199104765
 30
0.0
 11
38.71672554182345
 21
8.874591740966855
 31
0.0
  0
LINE
  5
1BBBD
  8
0
  6
CONTINUOUS
 10
38.60499999996136
 20
8.089346990024577
 30
0.0
 11
39.03418785440363
 21
8.518534844466847
 31
0.0
  0
LINE
  5
1BBBE
  8
0
  6
CONTINUOUS
 10
38.60499999996136
 20
7.41582778094439
 30
0.0
 11
39.35165016698382
 21
8.16247794796684
 31
0.0
  0
LINE
  5
1BBBF
  8
0
  6
CONTINUOUS
 10
38.60499999996136
 20
6.742308571864204
 30
0.0
 11
39.66911247956399
 21
7.806421051466834
 31
0.0
  0
LINE
  5
1BBC0
  8
0
  6
CONTINUOUS
 10
38.60499999996136
 20
6.068789362784018
 30
0.0
 11
39.98657479214418
 21
7.450364154966827
 31
0.0
  0
LINE
  5
1BBC1
  8
0
  6
CONTINUOUS
 10
38.60499999996136
 20
5.395270153703832
 30
0.0
 11
40.30403710472435
 21
7.09430725846682
 31
0.0
  0
LINE
  5
1BBC2
  8
0
  6
CONTINUOUS
 10
38.60499999996136
 20
4.721750944623645
 30
0.0
 11
40.62149941730453
 21
6.738250361966813
 31
0.0
  0
LINE
  5
1BBC3
  8
0
  6
CONTINUOUS
 10
38.60499999996136
 20
4.048231735543458
 30
0.0
 11
40.93896172988471
 21
6.382193465466806
 31
0.0
  0
LINE
  5
1BBC4
  8
0
  6
CONTINUOUS
 10
38.60499999996136
 20
3.374712526463272
 30
0.0
 11
40.02599999995994
 21
4.795712526461843
 31
0.0
  0
LINE
  5
1BBC5
  8
0
  6
CONTINUOUS
 10
38.60499999996136
 20
2.701193317383085
 30
0.0
 11
40.02599999995994
 21
4.122193317381657
 31
0.0
  0
LINE
  5
1BBC6
  8
0
  6
CONTINUOUS
 10
40.28339754687704
 20
5.053110073378947
 30
0.0
 11
41.25642404246489
 21
6.026136568966799
 31
0.0
  0
LINE
  5
1BBC7
  8
0
  6
CONTINUOUS
 10
40.60085985945722
 20
4.697053176878939
 30
0.0
 11
41.57388635504507
 21
5.670079672466793
 31
0.0
  0
LINE
  5
1BBC8
  8
0
  6
CONTINUOUS
 10
43.57899999995641
 20
8.348712526458318
 30
0.0
 11
43.99338747348935
 21
8.763099999991255
 31
0.0
  0
LINE
  5
1BBC9
  8
0
  6
CONTINUOUS
 10
43.57899999995641
 20
7.675193317378131
 30
0.0
 11
44.66690668256953
 21
8.763099999991255
 31
0.0
  0
LINE
  5
1BBCA
  8
0
  6
CONTINUOUS
 10
38.60499999996136
 20
2.027674108302898
 30
0.0
 11
40.02599999995994
 21
3.44867410830147
 31
0.0
  0
LINE
  5
1BBCB
  8
0
  6
CONTINUOUS
 10
38.60499999996136
 20
1.354154899222712
 30
0.0
 11
40.02599999995994
 21
2.775154899221284
 31
0.0
  0
LINE
  5
1BBCC
  8
0
  6
CONTINUOUS
 10
38.60499999996136
 20
0.6806356901425255
 30
0.0
 11
40.02599999995994
 21
2.101635690141098
 31
0.0
  0
LINE
  5
1BBCD
  8
0
  6
CONTINUOUS
 10
38.60499999996136
 20
0.0071164810623383
 30
0.0
 11
40.02599999995994
 21
1.428116481060911
 31
0.0
  0
LINE
  5
1BBCE
  8
0
  6
CONTINUOUS
 10
40.9183221720374
 20
4.340996280378933
 30
0.0
 11
41.89134866762525
 21
5.314022775966786
 31
0.0
  0
LINE
  5
1BBCF
  8
0
  6
CONTINUOUS
 10
41.23578448461758
 20
3.984939383878926
 30
0.0
 11
42.20881098020543
 21
4.957965879466778
 31
0.0
  0
LINE
  5
1BBD0
  8
0
  6
CONTINUOUS
 10
41.55324679719776
 20
3.628882487378919
 30
0.0
 11
42.52627329278561
 21
4.601908982966772
 31
0.0
  0
LINE
  5
1BBD1
  8
0
  6
CONTINUOUS
 10
41.87070910977793
 20
3.272825590878912
 30
0.0
 11
42.84373560536579
 21
4.245852086466765
 31
0.0
  0
LINE
  5
1BBD2
  8
0
  6
CONTINUOUS
 10
43.57899999995641
 20
7.001674108297943
 30
0.0
 11
44.99999999995498
 21
8.422674108296516
 31
0.0
  0
LINE
  5
1BBD3
  8
0
  6
CONTINUOUS
 10
43.57899999995641
 20
6.328154899217758
 30
0.0
 11
44.99999999995498
 21
7.749154899216329
 31
0.0
  0
LINE
  5
1BBD4
  8
0
  6
CONTINUOUS
 10
43.57899999995641
 20
5.654635690137571
 30
0.0
 11
44.99999999995498
 21
7.075635690136142
 31
0.0
  0
LINE
  5
1BBD5
  8
0
  6
CONTINUOUS
 10
43.57899999995641
 20
4.981116481057384
 30
0.0
 11
44.99999999995498
 21
6.402116481055955
 31
0.0
  0
LINE
  5
1BBD6
  8
0
  6
CONTINUOUS
 10
39.27140272797921
 20
-0.0000000000000009
 30
0.0
 11
40.02599999995994
 21
0.7545972719807246
 31
0.0
  0
LINE
  5
1BBD7
  8
0
  6
CONTINUOUS
 10
39.9449219370594
 20
-0.0000000000000009
 30
0.0
 11
40.02599999995994
 21
0.0810780629005379
 31
0.0
  0
LINE
  5
1BBD8
  8
0
  6
CONTINUOUS
 10
42.18817142235812
 20
2.916768694378905
 30
0.0
 11
43.16119791794597
 21
3.889795189966758
 31
0.0
  0
LINE
  5
1BBD9
  8
0
  6
CONTINUOUS
 10
42.50563373493829
 20
2.560711797878898
 30
0.0
 11
43.47866023052615
 21
3.533738293466751
 31
0.0
  0
LINE
  5
1BBDA
  8
0
  6
CONTINUOUS
 10
43.57899999995641
 20
4.307597271977198
 30
0.0
 11
44.99999999995498
 21
5.728597271975769
 31
0.0
  0
LINE
  5
1BBDB
  8
0
  6
CONTINUOUS
 10
43.57899999995641
 20
3.634078062897011
 30
0.0
 11
44.99999999995498
 21
5.055078062895582
 31
0.0
  0
LINE
  5
1BBDC
  8
0
  6
CONTINUOUS
 10
42.82309604751848
 20
2.204654901378891
 30
0.0
 11
44.99999999995498
 21
4.381558853815395
 31
0.0
  0
LINE
  5
1BBDD
  8
0
  6
CONTINUOUS
 10
43.14055836009865
 20
1.848598004878885
 30
0.0
 11
44.99999999995498
 21
3.70803964473521
 31
0.0
  0
LINE
  5
1BBDE
  8
0
  6
CONTINUOUS
 10
43.45802067267883
 20
1.492541108378878
 30
0.0
 11
44.99999999995498
 21
3.034520435655023
 31
0.0
  0
LINE
  5
1BBDF
  8
0
  6
CONTINUOUS
 10
43.77548298525902
 20
1.136484211878871
 30
0.0
 11
44.99999999995498
 21
2.361001226574837
 31
0.0
  0
LINE
  5
1BBE0
  8
0
  6
CONTINUOUS
 10
44.09294529783919
 20
0.7804273153788639
 30
0.0
 11
44.99999999995498
 21
1.687482017494649
 31
0.0
  0
LINE
  5
1BBE1
  8
0
  6
CONTINUOUS
 10
44.41040761041938
 20
0.4243704188788566
 30
0.0
 11
44.99999999995498
 21
1.013962808414463
 31
0.0
  0
LINE
  5
1BBE2
  8
0
  6
CONTINUOUS
 10
44.72786992299955
 20
0.0683135223788494
 30
0.0
 11
44.99999999995498
 21
0.340443599334276
 31
0.0
  0
LINE
  5
1BBE3
  8
0
  6
CONTINUOUS
 10
39.12223903415696
 20
-0.0000000000000009
 30
0.0
 11
38.60499999996136
 21
0.5172390341955961
 31
0.0
  0
LINE
  5
1BBE4
  8
0
  6
CONTINUOUS
 10
39.79575824323715
 20
-0.0000000000000009
 30
0.0
 11
38.60499999996136
 21
1.190758243275783
 31
0.0
  0
LINE
  5
1BBE5
  8
0
  6
CONTINUOUS
 10
40.02599999995994
 20
0.443277452357397
 30
0.0
 11
38.60499999996136
 21
1.864277452355969
 31
0.0
  0
LINE
  5
1BBE6
  8
0
  6
CONTINUOUS
 10
40.02599999995994
 20
1.116796661437583
 30
0.0
 11
38.60499999996136
 21
2.537796661436155
 31
0.0
  0
LINE
  5
1BBE7
  8
0
  6
CONTINUOUS
 10
40.02599999995994
 20
1.79031587051777
 30
0.0
 11
38.60499999996136
 21
3.211315870516341
 31
0.0
  0
LINE
  5
1BBE8
  8
0
  6
CONTINUOUS
 10
40.02599999995994
 20
2.463835079597956
 30
0.0
 11
38.60499999996136
 21
3.884835079596527
 31
0.0
  0
LINE
  5
1BBE9
  8
0
  6
CONTINUOUS
 10
40.02599999995994
 20
3.137354288678143
 30
0.0
 11
38.60499999996136
 21
4.558354288676714
 31
0.0
  0
LINE
  5
1BBEA
  8
0
  6
CONTINUOUS
 10
40.02599999995994
 20
3.810873497758329
 30
0.0
 11
38.60499999996136
 21
5.2318734977569
 31
0.0
  0
LINE
  5
1BBEB
  8
0
  6
CONTINUOUS
 10
40.02599999995994
 20
4.484392706838515
 30
0.0
 11
38.60499999996136
 21
5.905392706837086
 31
0.0
  0
LINE
  5
1BBEC
  8
0
  6
CONTINUOUS
 10
44.99999999995498
 20
0.183911915923658
 30
0.0
 11
41.53858364506288
 21
3.64532827081576
 31
0.0
  0
LINE
  5
1BBED
  8
0
  6
CONTINUOUS
 10
40.02599999995994
 20
5.157911915918703
 30
0.0
 11
38.60499999996136
 21
6.578911915917274
 31
0.0
  0
LINE
  5
1BBEE
  8
0
  6
CONTINUOUS
 10
44.99999999995498
 20
0.8574311250038447
 30
0.0
 11
38.60499999996136
 21
7.25243112499746
 31
0.0
  0
LINE
  5
1BBEF
  8
0
  6
CONTINUOUS
 10
44.99999999995498
 20
1.530950334084031
 30
0.0
 11
38.60499999996136
 21
7.925950334077647
 31
0.0
  0
LINE
  5
1BBF0
  8
0
  6
CONTINUOUS
 10
44.99999999995498
 20
2.204469543164218
 30
0.0
 11
43.57899999995641
 21
3.625469543162789
 31
0.0
  0
LINE
  5
1BBF1
  8
0
  6
CONTINUOUS
 10
41.89876730984767
 20
5.305702233271528
 30
0.0
 11
38.60499999996136
 21
8.599469543157834
 31
0.0
  0
LINE
  5
1BBF2
  8
0
  6
CONTINUOUS
 10
44.99999999995498
 20
2.877988752244405
 30
0.0
 11
43.57899999995641
 21
4.298988752242975
 31
0.0
  0
LINE
  5
1BBF3
  8
0
  6
CONTINUOUS
 10
44.99999999995498
 20
3.551507961324591
 30
0.0
 11
43.57899999995641
 21
4.972507961323163
 31
0.0
  0
LINE
  5
1BBF4
  8
0
  6
CONTINUOUS
 10
44.99999999995498
 20
4.225027170404777
 30
0.0
 11
43.57899999995641
 21
5.646027170403348
 31
0.0
  0
LINE
  5
1BBF5
  8
0
  6
CONTINUOUS
 10
44.99999999995498
 20
4.898546379484964
 30
0.0
 11
43.57899999995641
 21
6.319546379483535
 31
0.0
  0
LINE
  5
1BBF6
  8
0
  6
CONTINUOUS
 10
44.99999999995498
 20
5.572065588565151
 30
0.0
 11
43.57899999995641
 21
6.993065588563722
 31
0.0
  0
LINE
  5
1BBF7
  8
0
  6
CONTINUOUS
 10
44.99999999995498
 20
6.245584797645336
 30
0.0
 11
43.57899999995641
 21
7.666584797643908
 31
0.0
  0
LINE
  5
1BBF8
  8
0
  6
CONTINUOUS
 10
44.99999999995498
 20
6.919104006725522
 30
0.0
 11
43.57899999995641
 21
8.340104006724093
 31
0.0
  0
LINE
  5
1BBF9
  8
0
  6
CONTINUOUS
 10
44.99999999995498
 20
7.592623215805709
 30
0.0
 11
43.82952321576943
 21
8.763099999991255
 31
0.0
  0
LINE
  5
1BBFA
  8
0
  6
CONTINUOUS
 10
44.99999999995498
 20
8.266142424885896
 30
0.0
 11
44.50304242484962
 21
8.763099999991255
 31
0.0
  0
ENDBLK
  5
1BC24
  8
0
  0
BLOCK
  8
0
  2
*X63
 70
     1
 10
0.0
 20
0.0
 30
0.0
  3
*X63
  1

  0
LINE
  5
1BBFC
  8
0
  6
CONTINUOUS
 10
0.0
 20
8.548461116714023
 30
0.0
 11
0.2146388832772324
 21
8.763099999991255
 31
0.0
  0
LINE
  5
1BBFD
  8
0
  6
CONTINUOUS
 10
-0.0000000000000002
 20
7.874941907633837
 30
0.0
 11
0.8881580923574184
 21
8.763099999991255
 31
0.0
  0
LINE
  5
1BBFE
  8
0
  6
CONTINUOUS
 10
0.0
 20
7.20142269855365
 30
0.0
 11
1.420999999998572
 21
8.622422698552223
 31
0.0
  0
LINE
  5
1BBFF
  8
0
  6
CONTINUOUS
 10
-0.0000000000000001
 20
6.527903489473465
 30
0.0
 11
1.420999999998571
 21
7.948903489472036
 31
0.0
  0
LINE
  5
1BC00
  8
0
  6
CONTINUOUS
 10
-0.0000000000000002
 20
5.854384280393278
 30
0.0
 11
1.420999999998571
 21
7.275384280391849
 31
0.0
  0
LINE
  5
1BC01
  8
0
  6
CONTINUOUS
 10
-0.0000000000000002
 20
5.180865071313091
 30
0.0
 11
1.420999999998571
 21
6.601865071311663
 31
0.0
  0
LINE
  5
1BC02
  8
0
  6
CONTINUOUS
 10
0.0
 20
4.507345862232905
 30
0.0
 11
1.420999999998571
 21
5.928345862231477
 31
0.0
  0
LINE
  5
1BC03
  8
0
  6
CONTINUOUS
 10
-0.0000000000000003
 20
3.833826653152718
 30
0.0
 11
1.420999999998571
 21
5.25482665315129
 31
0.0
  0
LINE
  5
1BC04
  8
0
  6
CONTINUOUS
 10
-0.0000000000000002
 20
3.160307444072532
 30
0.0
 11
1.420999999998571
 21
4.581307444071103
 31
0.0
  0
LINE
  5
1BC05
  8
0
  6
CONTINUOUS
 10
-0.0000000000000001
 20
2.486788234992345
 30
0.0
 11
1.420999999998571
 21
3.907788234990917
 31
0.0
  0
LINE
  5
1BC06
  8
0
  6
CONTINUOUS
 10
-0.0000000000000006
 20
1.813269025912159
 30
0.0
 11
1.420999999998571
 21
3.234269025910731
 31
0.0
  0
LINE
  5
1BC07
  8
0
  6
CONTINUOUS
 10
0.0
 20
1.139749816831973
 30
0.0
 11
1.420999999998571
 21
2.560749816830544
 31
0.0
  0
LINE
  5
1BC08
  8
0
  6
CONTINUOUS
 10
0.0000000000000002
 20
0.466230607751787
 30
0.0
 11
1.420999999998571
 21
1.887230607750358
 31
0.0
  0
LINE
  5
1BC09
  8
0
  6
CONTINUOUS
 10
0.2072886013284003
 20
-0.0000000000000009
 30
0.0
 11
1.420999999998571
 21
1.213711398670171
 31
0.0
  0
LINE
  5
1BC0A
  8
0
  6
CONTINUOUS
 10
0.8808078104085864
 20
-0.0000000000000009
 30
0.0
 11
1.420999999998571
 21
0.5401921895899839
 31
0.0
  0
LINE
  5
1BC0B
  8
0
  6
CONTINUOUS
 10
0.0581249075061505
 20
-0.0000000000000009
 30
0.0
 11
-0.0000000000000002
 21
0.0581249075061496
 31
0.0
  0
LINE
  5
1BC0C
  8
0
  6
CONTINUOUS
 10
0.7316441165863372
 20
-0.0000000000000009
 30
0.0
 11
-0.0000000000000002
 21
0.7316441165863363
 31
0.0
  0
LINE
  5
1BC0D
  8
0
  6
CONTINUOUS
 10
1.405163325666523
 20
-0.0000000000000009
 30
0.0
 11
-0.0000000000000002
 21
1.405163325666523
 31
0.0
  0
LINE
  5
1BC0E
  8
0
  6
CONTINUOUS
 10
1.420999999998572
 20
0.6576825347481381
 30
0.0
 11
-0.0000000000000001
 21
2.07868253474671
 31
0.0
  0
LINE
  5
1BC0F
  8
0
  6
CONTINUOUS
 10
1.420999999998571
 20
1.331201743828324
 30
0.0
 11
-0.0000000000000001
 21
2.752201743826896
 31
0.0
  0
LINE
  5
1BC10
  8
0
  6
CONTINUOUS
 10
1.420999999998571
 20
2.004720952908511
 30
0.0
 11
-0.0000000000000002
 21
3.425720952907082
 31
0.0
  0
LINE
  5
1BC11
  8
0
  6
CONTINUOUS
 10
1.420999999998571
 20
2.678240161988697
 30
0.0
 11
-0.0000000000000001
 21
4.099240161987269
 31
0.0
  0
LINE
  5
1BC12
  8
0
  6
CONTINUOUS
 10
1.420999999998572
 20
3.351759371068884
 30
0.0
 11
0.0
 21
4.772759371067455
 31
0.0
  0
LINE
  5
1BC13
  8
0
  6
CONTINUOUS
 10
1.420999999998571
 20
4.02527858014907
 30
0.0
 11
-0.0000000000000003
 21
5.446278580147642
 31
0.0
  0
LINE
  5
1BC14
  8
0
  6
CONTINUOUS
 10
1.420999999998571
 20
4.698797789229257
 30
0.0
 11
0.0
 21
6.119797789227828
 31
0.0
  0
LINE
  5
1BC15
  8
0
  6
CONTINUOUS
 10
1.420999999998571
 20
5.372316998309444
 30
0.0
 11
-0.0000000000000001
 21
6.793316998308015
 31
0.0
  0
LINE
  5
1BC16
  8
0
  6
CONTINUOUS
 10
1.420999999998572
 20
6.045836207389629
 30
0.0
 11
-0.0000000000000004
 21
7.466836207388202
 31
0.0
  0
LINE
  5
1BC17
  8
0
  6
CONTINUOUS
 10
1.420999999998571
 20
6.719355416469816
 30
0.0
 11
0.0
 21
8.140355416468388
 31
0.0
  0
LINE
  5
1BC18
  8
0
  6
CONTINUOUS
 10
1.420999999998571
 20
7.392874625550003
 30
0.0
 11
0.0507746255573185
 21
8.763099999991255
 31
0.0
  0
LINE
  5
1BC19
  8
0
  6
CONTINUOUS
 10
1.420999999998571
 20
8.06639383463019
 30
0.0
 11
0.7242938346375052
 21
8.763099999991255
 31
0.0
  0
LINE
  5
1BC1A
  8
0
  6
CONTINUOUS
 10
1.420999999998571
 20
8.739913043710375
 30
0.0
 11
1.397813043717691
 21
8.763099999991255
 31
0.0
  0
ENDBLK
  5
1BC26
  8
0
  0
ENDSEC
  0
SECTION
  2
ENTITIES
  0
CIRCLE
  5
1AAD4
  8
01
 10
2685.707974992493
 20
-440.2313166760398
 30
0.0000000001127424
 40
2.5
  0
LINE
  5
1AAD6
  8
01
 10
2332.708079332236
 20
-447.6313068801674
 30
0.0000000001127424
 11
2358.708079332236
 21
-447.6313068801674
 31
0.0000000001127424
  0
LINE
  5
1AAD7
  8
01
 10
2368.208079332236
 20
-442.1313068801674
 30
0.0000000001127424
 11
2323.208079332236
 21
-442.1313068801674
 31
0.0000000001127424
  0
LINE
  5
1AAD8
  8
01
 10
2345.708079332236
 20
-419.6313068801674
 30
0.0000000001127424
 11
2345.708079332236
 21
-464.6313068801674
 31
0.0000000001127424
  0
LINE
  5
1AAD9
  8
01
 10
2663.207974992493
 20
-442.1313068801674
 30
0.0000000001127424
 11
2708.207974992493
 21
-442.1313068801674
 31
0.0000000001127424
  0
LINE
  5
1AADA
  8
01
 10
2685.707974992493
 20
-419.6313068801674
 30
0.0000000001127424
 11
2685.707974992493
 21
-464.6313068801674
 31
0.0000000001127424
  0
LINE
  5
1AADB
  8
01
 10
2683.208083398332
 20
-186.677423729418
 30
0.0000000000564898
 11
2683.208083398332
 21
-199.177446673621
 31
0.0000000000564898
  0
LINE
  5
1AADC
  8
01
 10
2688.208083398332
 20
-186.6774237294162
 30
0.0000000000564898
 11
2688.208083398332
 21
-199.1774466736229
 31
0.0000000000564898
  0
LINE
  5
1AADD
  8
01
 10
2495.708083332237
 20
-422.1313068801692
 30
0.0000000001127424
 11
2495.708083332233
 21
-462.1313068801696
 31
0.0000000001127424
  0
LINE
  5
1AADE
  8
01
 10
2495.708083332237
 20
-462.1313068801696
 30
0.0000000001127424
 11
2489.908083332238
 21
-462.1313068801692
 31
0.0000000001127424
  0
ARC
  5
1AADF
  8
01
 10
2489.908083332238
 20
-461.6313068801692
 30
0.0000000001127424
 40
0.5
 50
180.0
 51
270.0
  0
LINE
  5
1AAE0
  8
01
 10
2495.708083332237
 20
-422.1313068801692
 30
0.0000000001127424
 11
2489.908083332238
 21
-422.1313068801701
 31
0.0000000001127424
  0
ARC
  5
1AAE1
  8
01
 10
2489.908083332238
 20
-422.6313068801701
 30
0.0000000001127424
 40
0.5
 50
90.0
 51
180.0
  0
LINE
  5
1AAE2
  8
01
 10
2494.208083332237
 20
-462.1313068801765
 30
0.0000000001127424
 11
2495.708083332237
 21
-462.1313068801765
 31
0.0000000001127424
  0
LINE
  5
1AAE4
  8
01
 10
2685.707966992491
 20
-242.6313068801671
 30
0.0000000001127424
 11
2685.707966992491
 21
-269.1313068801671
 31
0.0000000001127424
  0
LINE
  5
1AAE5
  8
01
 10
2685.707966992491
 20
-212.6313068822244
 30
0.0000000001127424
 11
2685.707966992491
 21
-183.3400337905839
 31
0.0000000001127424
  0
LINE
  5
1AAE8
  8
01
 10
2665.708082943674
 20
-247.631306881196
 30
0.0000000001127424
 11
2705.708082943674
 21
-247.6313068811953
 31
0.0000000001127424
  0
LINE
  5
1AAE9
  8
01
 10
2705.208082943674
 20
-253.9313068811957
 30
0.0000000001127424
 11
2666.208082943674
 21
-253.9313068811962
 31
0.0000000001127424
  0
CIRCLE
  5
1AAEA
  8
01
 10
2685.707995753912
 20
-442.1313306408556
 30
0.0000000001128561
 40
19.99999999999963
  0
LINE
  5
1AAEB
  8
01
 10
2665.708082943674
 20
-247.631306881196
 30
0.0000000001127424
 11
2665.708082943674
 21
-253.4313068811962
 31
0.0000000001127424
  0
ARC
  5
1AAEC
  8
01
 10
2666.208082943674
 20
-253.4313068811957
 30
0.0000000001127424
 40
0.5
 50
180.0
 51
270.0
  0
CIRCLE
  5
1AAED
  8
01
 10
2685.70799607637
 20
-447.6313304367275
 30
0.0000000001128561
 40
3.75
  0
CIRCLE
  5
1AAEE
  8
01
 10
2685.70799607637
 20
-447.6313306408554
 30
0.0000000001128561
 40
3.5000005
  0
LINE
  5
1AAEF
  8
01
 10
2684.70799607637
 20
-450.9854334408553
 30
0.0000000001128561
 11
2684.70799607637
 21
-444.2772266408554
 31
0.0000000001128561
  0
LINE
  5
1AAF0
  8
01
 10
2686.70799607637
 20
-450.9854334408553
 30
0.0000000001128561
 11
2686.70799607637
 21
-444.2772266408554
 31
0.0000000001128561
  0
ARC
  5
1AAF1
  8
01
 10
2685.708073401528
 20
-249.781312259071
 30
0.0000000001126288
 40
6.0
 50
234.3146660000189
 51
256.8165180000145
  0
LINE
  5
1AAF2
  8
01
 10
2682.208073401528
 20
-254.6547122590712
 30
0.0000000001126288
 11
2682.208073401527
 21
-253.931306881196
 31
0.0000000001126288
  0
LINE
  5
1AAF3
  8
01
 10
2689.208073401528
 20
-254.6547122590712
 30
0.0000000001126288
 11
2689.208073401528
 21
-253.931306881196
 31
0.0000000001126288
  0
LINE
  5
1AAF4
  8
01
 10
2686.708073401528
 20
-255.3318607184735
 30
0.0000000001126288
 11
2686.708073401528
 21
-253.931306881196
 31
0.0000000001126288
  0
ARC
  5
1AAF5
  8
01
 10
2684.408070401528
 20
-255.3310822590711
 30
0.0000000001126288
 40
0.30000001
 50
256.8165180001219
 51
0.0
  0
ARC
  5
1AAF6
  8
01
 10
2687.008072401528
 20
-255.3310822590711
 30
0.0000000001126288
 40
0.30000001
 50
179.9999969999697
 51
283.1834799999676
  0
LINE
  5
1AAF7
  8
01
 10
2684.708073401528
 20
-255.3310822590711
 30
0.0000000001126288
 11
2684.708073401528
 21
-253.931306881196
 31
0.0000000001126288
  0
ARC
  5
1AAF8
  8
01
 10
2685.708073401528
 20
-249.781312259071
 30
0.0000000001126288
 40
6.0
 50
283.1834825033476
 51
305.6853299999988
  0
LINE
  5
1AAF9
  8
01
 10
2705.708082943674
 20
-247.6313068811953
 30
0.0000000001127424
 11
2705.708082943674
 21
-253.4313068811957
 31
0.0000000001127424
  0
ARC
  5
1AAFA
  8
01
 10
2705.208082943674
 20
-253.4313068811957
 30
0.0000000001127424
 40
0.5
 50
270.0
 51
0.0
  0
LINE
  5
1AAFB
  8
01
 10
2535.708083332237
 20
-422.1313068801674
 30
0.0000000001127427
 11
2535.708083332232
 21
-462.1313068801674
 31
0.0000000001127427
  0
LINE
  5
1AAFD
  8
01
 10
2332.708079332236
 20
-447.6313068801674
 30
0.0000000001127424
 11
2358.708079332236
 21
-447.6313068801674
 31
0.0000000001127424
  0
LINE
  5
1AAFE
  8
01
 10
2368.208079332236
 20
-442.1313068801674
 30
0.0000000001127424
 11
2323.208079332236
 21
-442.1313068801674
 31
0.0000000001127424
  0
LINE
  5
1AAFF
  8
01
 10
2345.708079332236
 20
-419.6313068801674
 30
0.0000000001127424
 11
2345.708079332236
 21
-464.6313068801674
 31
0.0000000001127424
  0
LINE
  5
1AB01
  8
01
 10
2685.707966992491
 20
-212.6313068822249
 30
0.0000000001127424
 11
2685.707966992491
 21
-183.002982879367
 31
0.0000000001127424
  0
LINE
  5
1AB03
  8
01
 10
2489.408083332238
 20
-461.6313068801674
 30
0.0000000001127427
 11
2489.408083332238
 21
-422.6313068801678
 31
0.0000000001127427
  0
CIRCLE
  5
1AB04
  8
01
 10
2345.708079332234
 20
-442.1313068801674
 30
0.0000000001127424
 40
20.00000000000007
  0
ARC
  5
1AB05
  8
01
 10
2347.708079332236
 20
-438.6001109460733
 30
0.0000000001127424
 40
0.5000000000000013
 50
0.0
 51
77.51311018581228
  0
ARC
  5
1AB06
  8
01
 10
2343.708079332236
 20
-456.6625028142616
 30
0.0000000001127424
 40
0.5000000000000029
 50
180.0
 51
257.5131101858123
  0
ARC
  5
1AB07
  8
01
 10
2347.708079332236
 20
-456.6625028142616
 30
0.0000000001127424
 40
0.5000000000000013
 50
282.4868898141877
 51
0.0
  0
ARC
  5
1AB08
  8
01
 10
2345.708079332236
 20
-447.6313068801674
 30
0.0000000001127424
 40
9.749999999999995
 50
77.51311018586458
 51
102.4868898141354
  0
ARC
  5
1AB09
  8
01
 10
2343.708079332236
 20
-438.6001109460733
 30
0.0000000001127424
 40
0.5000000000000029
 50
102.4868898141877
 51
180.0
  0
ARC
  5
1AB0A
  8
01
 10
2345.708079332236
 20
-447.6313068801674
 30
0.0000000001127424
 40
9.75
 50
257.5131101858646
 51
282.4868898141354
  0
LINE
  5
1AB0B
  8
01
 10
2348.208079332236
 20
-438.6001109460733
 30
0.0000000001127424
 11
2348.208079332236
 21
-456.6625028142616
 31
0.0000000001127424
  0
LINE
  5
1AB0C
  8
01
 10
2343.208079332236
 20
-456.6625028142616
 30
0.0000000001127424
 11
2343.208079332236
 21
-438.6001109460733
 31
0.0000000001127424
  0
POLYLINE
  5
1AB0D
  8
01
 66
     1
 10
0.0
 20
0.0
 30
0.0000000001127424
  0
VERTEX
  5
1B568
  8
01
 10
2349.397268521425
 20
-456.6564042827647
 30
0.0000000001127424
  0
VERTEX
  5
1B569
  8
01
 10
2349.374973631677
 20
-456.6654852371257
 30
0.0000000001127424
  0
VERTEX
  5
1B56A
  8
01
 10
2349.352688843469
 20
-456.6744973279606
 30
0.0000000001127424
  0
VERTEX
  5
1B56B
  8
01
 10
2349.330415920067
 20
-456.6834403171027
 30
0.0000000001127424
  0
VERTEX
  5
1B56C
  8
01
 10
2349.308156624738
 20
-456.6923139663853
 30
0.0000000001127424
  0
VERTEX
  5
1B56D
  8
01
 10
2349.285912720746
 20
-456.7011180376414
 30
0.0000000001127424
  0
VERTEX
  5
1B56E
  8
01
 10
2349.263685971359
 20
-456.7098522927042
 30
0.0000000001127424
  0
VERTEX
  5
1B56F
  8
01
 10
2349.241478139842
 20
-456.718516493407
 30
0.0000000001127424
  0
VERTEX
  5
1B570
  8
01
 10
2349.219290989461
 20
-456.727110401583
 30
0.0000000001127424
  0
VERTEX
  5
1B571
  8
01
 10
2349.197126283481
 20
-456.7356337790652
 30
0.0000000001127424
  0
VERTEX
  5
1B572
  8
01
 10
2349.174985785171
 20
-456.744086387687
 30
0.0000000001127424
  0
VERTEX
  5
1B573
  8
01
 10
2349.152871257793
 20
-456.7524679892814
 30
0.0000000001127424
  0
VERTEX
  5
1B574
  8
01
 10
2349.130784464617
 20
-456.7607783456817
 30
0.0000000001127424
  0
VERTEX
  5
1B575
  8
01
 10
2349.108727168906
 20
-456.769017218721
 30
0.0000000001127424
  0
VERTEX
  5
1B576
  8
01
 10
2349.086701133927
 20
-456.7771843702326
 30
0.0000000001127424
  0
VERTEX
  5
1B577
  8
01
 10
2349.064708122947
 20
-456.7852795620497
 30
0.0000000001127424
  0
VERTEX
  5
1B578
  8
01
 10
2349.042749899231
 20
-456.7933025560053
 30
0.0000000001127424
  0
VERTEX
  5
1B579
  8
01
 10
2349.020828226045
 20
-456.8012531139328
 30
0.0000000001127424
  0
VERTEX
  5
1B57A
  8
01
 10
2348.998944866655
 20
-456.8091309976652
 30
0.0000000001127424
  0
VERTEX
  5
1B57B
  8
01
 10
2348.977101584327
 20
-456.8169359690359
 30
0.0000000001127424
  0
VERTEX
  5
1B57C
  8
01
 10
2348.955300142327
 20
-456.8246677898778
 30
0.0000000001127424
  0
VERTEX
  5
1B57D
  8
01
 10
2348.933542303921
 20
-456.8323262220243
 30
0.0000000001127424
  0
VERTEX
  5
1B57E
  8
01
 10
2348.911829832376
 20
-456.8399110273087
 30
0.0000000001127424
  0
VERTEX
  5
1B57F
  8
01
 10
2348.890164490956
 20
-456.8474219675638
 30
0.0000000001127424
  0
VERTEX
  5
1B580
  8
01
 10
2348.868548042929
 20
-456.8548588046231
 30
0.0000000001127424
  0
VERTEX
  5
1B581
  8
01
 10
2348.846982251559
 20
-456.8622213003197
 30
0.0000000001127424
  0
VERTEX
  5
1B582
  8
01
 10
2348.825468880114
 20
-456.8695092164867
 30
0.0000000001127424
  0
VERTEX
  5
1B583
  8
01
 10
2348.804046592958
 20
-456.8767104569283
 30
0.0000000001127424
  0
VERTEX
  5
1B584
  8
01
 10
2348.782753314438
 20
-456.8838136670656
 30
0.0000000001127424
  0
VERTEX
  5
1B585
  8
01
 10
2348.761589697795
 20
-456.8908197211578
 30
0.0000000001127424
  0
VERTEX
  5
1B586
  8
01
 10
2348.74055639627
 20
-456.8977294934643
 30
0.0000000001127424
  0
VERTEX
  5
1B587
  8
01
 10
2348.719654063103
 20
-456.9045438582442
 30
0.0000000001127424
  0
VERTEX
  5
1B588
  8
01
 10
2348.698883351536
 20
-456.9112636897568
 30
0.0000000001127424
  0
VERTEX
  5
1B589
  8
01
 10
2348.678244914808
 20
-456.9178898622611
 30
0.0000000001127424
  0
VERTEX
  5
1B58A
  8
01
 10
2348.657739406161
 20
-456.9244232500166
 30
0.0000000001127424
  0
VERTEX
  5
1B58B
  8
01
 10
2348.637367478835
 20
-456.9308647272824
 30
0.0000000001127424
  0
VERTEX
  5
1B58C
  8
01
 10
2348.617129786071
 20
-456.9372151683176
 30
0.0000000001127424
  0
VERTEX
  5
1B58D
  8
01
 10
2348.597026981109
 20
-456.9434754473816
 30
0.0000000001127424
  0
VERTEX
  5
1B58E
  8
01
 10
2348.577059717191
 20
-456.9496464387336
 30
0.0000000001127424
  0
VERTEX
  5
1B58F
  8
01
 10
2348.557228647557
 20
-456.9557290166326
 30
0.0000000001127424
  0
VERTEX
  5
1B590
  8
01
 10
2348.537520741283
 20
-456.9617276807589
 30
0.0000000001127424
  0
VERTEX
  5
1B591
  8
01
 10
2348.517929675607
 20
-456.9676450787974
 30
0.0000000001127424
  0
VERTEX
  5
1B592
  8
01
 10
2348.498466166011
 20
-456.9734793070144
 30
0.0000000001127424
  0
VERTEX
  5
1B593
  8
01
 10
2348.479140927979
 20
-456.9792284616765
 30
0.0000000001127424
  0
VERTEX
  5
1B594
  8
01
 10
2348.459964676994
 20
-456.9848906390501
 30
0.0000000001127424
  0
VERTEX
  5
1B595
  8
01
 10
2348.440948128539
 20
-456.9904639354017
 30
0.0000000001127424
  0
VERTEX
  5
1B596
  8
01
 10
2348.422101998097
 20
-456.9959464469976
 30
0.0000000001127424
  0
VERTEX
  5
1B597
  8
01
 10
2348.40343700115
 20
-457.0013362701043
 30
0.0000000001127424
  0
VERTEX
  5
1B598
  8
01
 10
2348.384963853184
 20
-457.0066315009885
 30
0.0000000001127424
  0
VERTEX
  5
1B599
  8
01
 10
2348.36669326968
 20
-457.0118302359163
 30
0.0000000001127424
  0
VERTEX
  5
1B59A
  8
01
 10
2348.348635966121
 20
-457.0169305711544
 30
0.0000000001127424
  0
VERTEX
  5
1B59B
  8
01
 10
2348.33080265799
 20
-457.0219306029691
 30
0.0000000001127424
  0
VERTEX
  5
1B59C
  8
01
 10
2348.313204060771
 20
-457.0268284276269
 30
0.0000000001127424
  0
VERTEX
  5
1B59D
  8
01
 10
2348.295851997361
 20
-457.0316225504317
 30
0.0000000001127424
  0
VERTEX
  5
1B59E
  8
01
 10
2348.278751916388
 20
-457.0363134951231
 30
0.0000000001127424
  0
VERTEX
  5
1B59F
  8
01
 10
2348.261904971931
 20
-457.0409023856214
 30
0.0000000001127424
  0
VERTEX
  5
1B5A0
  8
01
 10
2348.245312318067
 20
-457.0453903458468
 30
0.0000000001127424
  0
VERTEX
  5
1B5A1
  8
01
 10
2348.228975108876
 20
-457.0497784997197
 30
0.0000000001127424
  0
VERTEX
  5
1B5A2
  8
01
 10
2348.212894498436
 20
-457.0540679711602
 30
0.0000000001127424
  0
VERTEX
  5
1B5A3
  8
01
 10
2348.197071640825
 20
-457.0582598840886
 30
0.0000000001127424
  0
VERTEX
  5
1B5A4
  8
01
 10
2348.181507690121
 20
-457.0623553624252
 30
0.0000000001127424
  0
VERTEX
  5
1B5A5
  8
01
 10
2348.166203800403
 20
-457.0663555300903
 30
0.0000000001127424
  0
VERTEX
  5
1B5A6
  8
01
 10
2348.151161125751
 20
-457.070261511004
 30
0.0000000001127424
  0
VERTEX
  5
1B5A7
  8
01
 10
2348.136380820241
 20
-457.0740744290867
 30
0.0000000001127424
  0
VERTEX
  5
1B5A8
  8
01
 10
2348.121864037952
 20
-457.0777954082587
 30
0.0000000001127424
  0
VERTEX
  5
1B5A9
  8
01
 10
2348.107611932965
 20
-457.08142557244
 30
0.0000000001127424
  0
VERTEX
  5
1B5AA
  8
01
 10
2348.093624451483
 20
-457.0849660975379
 30
0.0000000001127424
  0
VERTEX
  5
1B5AB
  8
01
 10
2348.079906921245
 20
-457.0884167866721
 30
0.0000000001127424
  0
VERTEX
  5
1B5AC
  8
01
 10
2348.066468568625
 20
-457.0917767045821
 30
0.0000000001127424
  0
VERTEX
  5
1B5AD
  8
01
 10
2348.053318619994
 20
-457.0950449160075
 30
0.0000000001127424
  0
VERTEX
  5
1B5AE
  8
01
 10
2348.040466301727
 20
-457.0982204856878
 30
0.0000000001127424
  0
VERTEX
  5
1B5AF
  8
01
 10
2348.027920840197
 20
-457.1013024783624
 30
0.0000000001127424
  0
VERTEX
  5
1B5B0
  8
01
 10
2348.015691461777
 20
-457.104289958771
 30
0.0000000001127424
  0
VERTEX
  5
1B5B1
  8
01
 10
2348.00378739284
 20
-457.1071819916529
 30
0.0000000001127424
  0
VERTEX
  5
1B5B2
  8
01
 10
2347.99221785976
 20
-457.1099776417479
 30
0.0000000001127424
  0
VERTEX
  5
1B5B3
  8
01
 10
2347.980992088911
 20
-457.1126759737953
 30
0.0000000001127424
  0
VERTEX
  5
1B5B4
  8
01
 10
2347.970119306664
 20
-457.1152760525347
 30
0.0000000001127424
  0
VERTEX
  5
1B5B5
  8
01
 10
2347.959608739394
 20
-457.1177769427055
 30
0.0000000001127424
  0
VERTEX
  5
1B5B6
  8
01
 10
2347.949469613475
 20
-457.1201777090474
 30
0.0000000001127424
  0
VERTEX
  5
1B5B7
  8
01
 10
2347.939693651697
 20
-457.1224826543245
 30
0.0000000001127424
  0
VERTEX
  5
1B5B8
  8
01
 10
2347.93026821378
 20
-457.1246967308645
 30
0.0000000001127424
  0
VERTEX
  5
1B5B9
  8
01
 10
2347.921195981484
 20
-457.1268199777524
 30
0.0000000001127424
  0
VERTEX
  5
1B5BA
  8
01
 10
2347.91247963657
 20
-457.128852434073
 30
0.0000000001127424
  0
VERTEX
  5
1B5BB
  8
01
 10
2347.9041218608
 20
-457.1307941389113
 30
0.0000000001127424
  0
VERTEX
  5
1B5BC
  8
01
 10
2347.896125335933
 20
-457.1326451313523
 30
0.0000000001127424
  0
VERTEX
  5
1B5BD
  8
01
 10
2347.888492743732
 20
-457.1344054504805
 30
0.0000000001127424
  0
VERTEX
  5
1B5BE
  8
01
 10
2347.881226765956
 20
-457.1360751353812
 30
0.0000000001127424
  0
VERTEX
  5
1B5BF
  8
01
 10
2347.874330084368
 20
-457.1376542251392
 30
0.0000000001127424
  0
VERTEX
  5
1B5C0
  8
01
 10
2347.867805380727
 20
-457.1391427588393
 30
0.0000000001127424
  0
VERTEX
  5
1B5C1
  8
01
 10
2347.861655336795
 20
-457.1405407755666
 30
0.0000000001127424
  0
VERTEX
  5
1B5C2
  8
01
 10
2347.855882634333
 20
-457.1418483144058
 30
0.0000000001127424
  0
VERTEX
  5
1B5C3
  8
01
 10
2347.850489955102
 20
-457.1430654144418
 30
0.0000000001127424
  0
VERTEX
  5
1B5C4
  8
01
 10
2347.845479980862
 20
-457.1441921147596
 30
0.0000000001127424
  0
VERTEX
  5
1B5C5
  8
01
 10
2347.840855393376
 20
-457.1452284544441
 30
0.0000000001127424
  0
VERTEX
  5
1B5C6
  8
01
 10
2347.836618874403
 20
-457.1461744725802
 30
0.0000000001127424
  0
VERTEX
  5
1B5C7
  8
01
 10
2347.832773105705
 20
-457.1470302082528
 30
0.0000000001127424
  0
VERTEX
  5
1B5C8
  8
01
 10
2347.829320769042
 20
-457.1477957005467
 30
0.0000000001127424
  0
VERTEX
  5
1B5C9
  8
01
 10
2347.826264546177
 20
-457.1484709885469
 30
0.0000000001127424
  0
VERTEX
  5
1B5CA
  8
01
 10
2347.823607118868
 20
-457.1490561113383
 30
0.0000000001127424
  0
VERTEX
  5
1B5CB
  8
01
 10
2347.821351168879
 20
-457.1495511080058
 30
0.0000000001127424
  0
VERTEX
  5
1B5CC
  8
01
 10
2347.819499377969
 20
-457.1499560176342
 30
0.0000000001127424
  0
VERTEX
  5
1B5CD
  8
01
 10
2347.8180544279
 20
-457.1502708793086
 30
0.0000000001127424
  0
VERTEX
  5
1B5CE
  8
01
 10
2347.817019000431
 20
-457.1504957321137
 30
0.0000000001127424
  0
VERTEX
  5
1B5CF
  8
01
 10
2347.816395777326
 20
-457.1506306151345
 30
0.0000000001127424
  0
VERTEX
  5
1B5D0
  8
01
 10
2347.816187440344
 20
-457.1506755674559
 30
0.0000000001127424
  0
SEQEND
  5
1BC27
  8
01
  0
POLYLINE
  5
1AB0E
  8
01
 66
     1
 10
0.0
 20
0.0
 30
0.0000000001127424
  0
VERTEX
  5
1B5D1
  8
01
 10
2342.018890143047
 20
-438.60620947757
 30
0.0000000001127424
  0
VERTEX
  5
1B5D2
  8
01
 10
2342.041185032794
 20
-438.5971285232091
 30
0.0000000001127424
  0
VERTEX
  5
1B5D3
  8
01
 10
2342.063469821002
 20
-438.5881164323741
 30
0.0000000001127424
  0
VERTEX
  5
1B5D4
  8
01
 10
2342.085742744404
 20
-438.579173443232
 30
0.0000000001127424
  0
VERTEX
  5
1B5D5
  8
01
 10
2342.108002039733
 20
-438.5702997939495
 30
0.0000000001127424
  0
VERTEX
  5
1B5D6
  8
01
 10
2342.130245943725
 20
-438.5614957226933
 30
0.0000000001127424
  0
VERTEX
  5
1B5D7
  8
01
 10
2342.152472693112
 20
-438.5527614676305
 30
0.0000000001127424
  0
VERTEX
  5
1B5D8
  8
01
 10
2342.17468052463
 20
-438.5440972669277
 30
0.0000000001127424
  0
VERTEX
  5
1B5D9
  8
01
 10
2342.196867675011
 20
-438.5355033587518
 30
0.0000000001127424
  0
VERTEX
  5
1B5DA
  8
01
 10
2342.21903238099
 20
-438.5269799812696
 30
0.0000000001127424
  0
VERTEX
  5
1B5DB
  8
01
 10
2342.241172879301
 20
-438.5185273726478
 30
0.0000000001127424
  0
VERTEX
  5
1B5DC
  8
01
 10
2342.263287406678
 20
-438.5101457710534
 30
0.0000000001127424
  0
VERTEX
  5
1B5DD
  8
01
 10
2342.285374199855
 20
-438.5018354146531
 30
0.0000000001127424
  0
VERTEX
  5
1B5DE
  8
01
 10
2342.307431495565
 20
-438.4935965416138
 30
0.0000000001127424
  0
VERTEX
  5
1B5DF
  8
01
 10
2342.329457530544
 20
-438.4854293901022
 30
0.0000000001127424
  0
VERTEX
  5
1B5E0
  8
01
 10
2342.351450541524
 20
-438.4773341982852
 30
0.0000000001127424
  0
VERTEX
  5
1B5E1
  8
01
 10
2342.373408765241
 20
-438.4693112043295
 30
0.0000000001127424
  0
VERTEX
  5
1B5E2
  8
01
 10
2342.395330438427
 20
-438.4613606464021
 30
0.0000000001127424
  0
VERTEX
  5
1B5E3
  8
01
 10
2342.417213797817
 20
-438.4534827626696
 30
0.0000000001127424
  0
VERTEX
  5
1B5E4
  8
01
 10
2342.439057080145
 20
-438.445677791299
 30
0.0000000001127424
  0
VERTEX
  5
1B5E5
  8
01
 10
2342.460858522144
 20
-438.4379459704571
 30
0.0000000001127424
  0
VERTEX
  5
1B5E6
  8
01
 10
2342.482616360551
 20
-438.4302875383106
 30
0.0000000001127424
  0
VERTEX
  5
1B5E7
  8
01
 10
2342.504328832096
 20
-438.4227027330263
 30
0.0000000001127424
  0
VERTEX
  5
1B5E8
  8
01
 10
2342.525994173515
 20
-438.4151917927711
 30
0.0000000001127424
  0
VERTEX
  5
1B5E9
  8
01
 10
2342.547610621543
 20
-438.4077549557118
 30
0.0000000001127424
  0
VERTEX
  5
1B5EA
  8
01
 10
2342.569176412912
 20
-438.4003924600152
 30
0.0000000001127424
  0
VERTEX
  5
1B5EB
  8
01
 10
2342.590689784357
 20
-438.3931045438482
 30
0.0000000001127424
  0
VERTEX
  5
1B5EC
  8
01
 10
2342.612112071513
 20
-438.3859033034067
 30
0.0000000001127424
  0
VERTEX
  5
1B5ED
  8
01
 10
2342.633405350033
 20
-438.3788000932694
 30
0.0000000001127424
  0
VERTEX
  5
1B5EE
  8
01
 10
2342.654568966676
 20
-438.3717940391771
 30
0.0000000001127424
  0
VERTEX
  5
1B5EF
  8
01
 10
2342.675602268201
 20
-438.3648842668706
 30
0.0000000001127424
  0
VERTEX
  5
1B5F0
  8
01
 10
2342.696504601368
 20
-438.3580699020907
 30
0.0000000001127424
  0
VERTEX
  5
1B5F1
  8
01
 10
2342.717275312936
 20
-438.3513500705781
 30
0.0000000001127424
  0
VERTEX
  5
1B5F2
  8
01
 10
2342.737913749663
 20
-438.3447238980737
 30
0.0000000001127424
  0
VERTEX
  5
1B5F3
  8
01
 10
2342.75841925831
 20
-438.3381905103182
 30
0.0000000001127424
  0
VERTEX
  5
1B5F4
  8
01
 10
2342.778791185636
 20
-438.3317490330525
 30
0.0000000001127424
  0
VERTEX
  5
1B5F5
  8
01
 10
2342.7990288784
 20
-438.3253985920172
 30
0.0000000001127424
  0
VERTEX
  5
1B5F6
  8
01
 10
2342.819131683362
 20
-438.3191383129532
 30
0.0000000001127424
  0
VERTEX
  5
1B5F7
  8
01
 10
2342.83909894728
 20
-438.3129673216013
 30
0.0000000001127424
  0
VERTEX
  5
1B5F8
  8
01
 10
2342.858930016914
 20
-438.3068847437022
 30
0.0000000001127424
  0
VERTEX
  5
1B5F9
  8
01
 10
2342.878637923188
 20
-438.3008860795759
 30
0.0000000001127424
  0
VERTEX
  5
1B5FA
  8
01
 10
2342.898228988865
 20
-438.2949686815375
 30
0.0000000001127424
  0
VERTEX
  5
1B5FB
  8
01
 10
2342.91769249846
 20
-438.2891344533204
 30
0.0000000001127424
  0
VERTEX
  5
1B5FC
  8
01
 10
2342.937017736492
 20
-438.2833852986583
 30
0.0000000001127424
  0
VERTEX
  5
1B5FD
  8
01
 10
2342.956193987477
 20
-438.2777231212847
 30
0.0000000001127424
  0
VERTEX
  5
1B5FE
  8
01
 10
2342.975210535933
 20
-438.2721498249331
 30
0.0000000001127424
  0
VERTEX
  5
1B5FF
  8
01
 10
2342.994056666374
 20
-438.2666673133372
 30
0.0000000001127424
  0
VERTEX
  5
1B600
  8
01
 10
2343.012721663321
 20
-438.2612774902304
 30
0.0000000001127424
  0
VERTEX
  5
1B601
  8
01
 10
2343.031194811288
 20
-438.2559822593464
 30
0.0000000001127424
  0
VERTEX
  5
1B602
  8
01
 10
2343.049465394792
 20
-438.2507835244185
 30
0.0000000001127424
  0
VERTEX
  5
1B603
  8
01
 10
2343.067522698351
 20
-438.2456831891805
 30
0.0000000001127424
  0
VERTEX
  5
1B604
  8
01
 10
2343.085356006481
 20
-438.2406831573657
 30
0.0000000001127424
  0
VERTEX
  5
1B605
  8
01
 10
2343.1029546037
 20
-438.2357853327079
 30
0.0000000001127424
  0
VERTEX
  5
1B606
  8
01
 10
2343.12030666711
 20
-438.2309912099032
 30
0.0000000001127424
  0
VERTEX
  5
1B607
  8
01
 10
2343.137406748083
 20
-438.2263002652118
 30
0.0000000001127424
  0
VERTEX
  5
1B608
  8
01
 10
2343.15425369254
 20
-438.2217113747135
 30
0.0000000001127424
  0
VERTEX
  5
1B609
  8
01
 10
2343.170846346404
 20
-438.2172234144881
 30
0.0000000001127424
  0
VERTEX
  5
1B60A
  8
01
 10
2343.187183555595
 20
-438.2128352606152
 30
0.0000000001127424
  0
VERTEX
  5
1B60B
  8
01
 10
2343.203264166036
 20
-438.2085457891748
 30
0.0000000001127424
  0
VERTEX
  5
1B60C
  8
01
 10
2343.219087023647
 20
-438.2043538762463
 30
0.0000000001127424
  0
VERTEX
  5
1B60D
  8
01
 10
2343.234650974351
 20
-438.2002583979097
 30
0.0000000001127424
  0
VERTEX
  5
1B60E
  8
01
 10
2343.249954864068
 20
-438.1962582302446
 30
0.0000000001127424
  0
VERTEX
  5
1B60F
  8
01
 10
2343.264997538721
 20
-438.1923522493309
 30
0.0000000001127424
  0
VERTEX
  5
1B610
  8
01
 10
2343.27977784423
 20
-438.1885393312482
 30
0.0000000001127424
  0
VERTEX
  5
1B611
  8
01
 10
2343.294294626519
 20
-438.1848183520762
 30
0.0000000001127424
  0
VERTEX
  5
1B612
  8
01
 10
2343.308546731507
 20
-438.1811881878948
 30
0.0000000001127424
  0
VERTEX
  5
1B613
  8
01
 10
2343.322534212988
 20
-438.1776476627969
 30
0.0000000001127424
  0
VERTEX
  5
1B614
  8
01
 10
2343.336251743226
 20
-438.1741969736627
 30
0.0000000001127424
  0
VERTEX
  5
1B615
  8
01
 10
2343.349690095847
 20
-438.1708370557527
 30
0.0000000001127424
  0
VERTEX
  5
1B616
  8
01
 10
2343.362840044477
 20
-438.1675688443273
 30
0.0000000001127424
  0
VERTEX
  5
1B617
  8
01
 10
2343.375692362744
 20
-438.164393274647
 30
0.0000000001127424
  0
VERTEX
  5
1B618
  8
01
 10
2343.388237824274
 20
-438.1613112819724
 30
0.0000000001127424
  0
VERTEX
  5
1B619
  8
01
 10
2343.400467202694
 20
-438.1583238015638
 30
0.0000000001127424
  0
VERTEX
  5
1B61A
  8
01
 10
2343.412371271631
 20
-438.1554317686818
 30
0.0000000001127424
  0
VERTEX
  5
1B61B
  8
01
 10
2343.423940804711
 20
-438.1526361185869
 30
0.0000000001127424
  0
VERTEX
  5
1B61C
  8
01
 10
2343.435166575561
 20
-438.1499377865395
 30
0.0000000001127424
  0
VERTEX
  5
1B61D
  8
01
 10
2343.446039357807
 20
-438.1473377078001
 30
0.0000000001127424
  0
VERTEX
  5
1B61E
  8
01
 10
2343.456549925077
 20
-438.1448368176293
 30
0.0000000001127424
  0
VERTEX
  5
1B61F
  8
01
 10
2343.466689050997
 20
-438.1424360512874
 30
0.0000000001127424
  0
VERTEX
  5
1B620
  8
01
 10
2343.476465012774
 20
-438.1401311060104
 30
0.0000000001127424
  0
VERTEX
  5
1B621
  8
01
 10
2343.485890450691
 20
-438.1379170294703
 30
0.0000000001127424
  0
VERTEX
  5
1B622
  8
01
 10
2343.494962682987
 20
-438.1357937825824
 30
0.0000000001127424
  0
VERTEX
  5
1B623
  8
01
 10
2343.503679027901
 20
-438.1337613262618
 30
0.0000000001127424
  0
VERTEX
  5
1B624
  8
01
 10
2343.512036803671
 20
-438.1318196214235
 30
0.0000000001127424
  0
VERTEX
  5
1B625
  8
01
 10
2343.520033328538
 20
-438.1299686289827
 30
0.0000000001127424
  0
VERTEX
  5
1B626
  8
01
 10
2343.52766592074
 20
-438.1282083098543
 30
0.0000000001127424
  0
VERTEX
  5
1B627
  8
01
 10
2343.534931898515
 20
-438.1265386249536
 30
0.0000000001127424
  0
VERTEX
  5
1B628
  8
01
 10
2343.541828580104
 20
-438.1249595351957
 30
0.0000000001127424
  0
VERTEX
  5
1B629
  8
01
 10
2343.548353283745
 20
-438.1234710014955
 30
0.0000000001127424
  0
VERTEX
  5
1B62A
  8
01
 10
2343.554503327677
 20
-438.1220729847684
 30
0.0000000001127424
  0
VERTEX
  5
1B62B
  8
01
 10
2343.560276030139
 20
-438.1207654459292
 30
0.0000000001127424
  0
VERTEX
  5
1B62C
  8
01
 10
2343.56566870937
 20
-438.1195483458931
 30
0.0000000001127424
  0
VERTEX
  5
1B62D
  8
01
 10
2343.570678683609
 20
-438.1184216455753
 30
0.0000000001127424
  0
VERTEX
  5
1B62E
  8
01
 10
2343.575303271095
 20
-438.1173853058908
 30
0.0000000001127424
  0
VERTEX
  5
1B62F
  8
01
 10
2343.579539790068
 20
-438.1164392877548
 30
0.0000000001127424
  0
VERTEX
  5
1B630
  8
01
 10
2343.583385558767
 20
-438.1155835520822
 30
0.0000000001127424
  0
VERTEX
  5
1B631
  8
01
 10
2343.586837895429
 20
-438.1148180597883
 30
0.0000000001127424
  0
VERTEX
  5
1B632
  8
01
 10
2343.589894118295
 20
-438.1141427717881
 30
0.0000000001127424
  0
VERTEX
  5
1B633
  8
01
 10
2343.592551545603
 20
-438.1135576489967
 30
0.0000000001127424
  0
VERTEX
  5
1B634
  8
01
 10
2343.594807495592
 20
-438.1130626523292
 30
0.0000000001127424
  0
VERTEX
  5
1B635
  8
01
 10
2343.596659286502
 20
-438.1126577427008
 30
0.0000000001127424
  0
VERTEX
  5
1B636
  8
01
 10
2343.598104236572
 20
-438.1123428810264
 30
0.0000000001127424
  0
VERTEX
  5
1B637
  8
01
 10
2343.59913966404
 20
-438.1121180282213
 30
0.0000000001127424
  0
VERTEX
  5
1B638
  8
01
 10
2343.599762887146
 20
-438.1119831452004
 30
0.0000000001127424
  0
VERTEX
  5
1B639
  8
01
 10
2343.599971224127
 20
-438.1119381928791
 30
0.0000000001127424
  0
SEQEND
  5
1BC28
  8
01
  0
POLYLINE
  5
1AB0F
  8
01
 66
     1
 10
0.0
 20
0.0
 30
0.0000000001127424
  0
VERTEX
  5
1B63A
  8
01
 10
2343.599971224127
 20
-457.1506755674559
 30
0.0000000001127424
  0
VERTEX
  5
1B63B
  8
01
 10
2343.599688656348
 20
-457.1506133968876
 30
0.0000000001127424
  0
VERTEX
  5
1B63C
  8
01
 10
2343.598842799791
 20
-457.1504269258184
 30
0.0000000001127424
  0
VERTEX
  5
1B63D
  8
01
 10
2343.597436424625
 20
-457.1501162152009
 30
0.0000000001127424
  0
VERTEX
  5
1B63E
  8
01
 10
2343.595472301022
 20
-457.1496813259882
 30
0.0000000001127424
  0
VERTEX
  5
1B63F
  8
01
 10
2343.592953199151
 20
-457.1491223191333
 30
0.0000000001127424
  0
VERTEX
  5
1B640
  8
01
 10
2343.589881889182
 20
-457.1484392555893
 30
0.0000000001127424
  0
VERTEX
  5
1B641
  8
01
 10
2343.586261141286
 20
-457.147632196309
 30
0.0000000001127424
  0
VERTEX
  5
1B642
  8
01
 10
2343.582093725633
 20
-457.1467012022454
 30
0.0000000001127424
  0
VERTEX
  5
1B643
  8
01
 10
2343.577382412392
 20
-457.1456463343516
 30
0.0000000001127424
  0
VERTEX
  5
1B644
  8
01
 10
2343.572129971735
 20
-457.1444676535804
 30
0.0000000001127424
  0
VERTEX
  5
1B645
  8
01
 10
2343.56633917383
 20
-457.1431652208848
 30
0.0000000001127424
  0
VERTEX
  5
1B646
  8
01
 10
2343.559997062474
 20
-457.1417352213356
 30
0.0000000001127424
  0
VERTEX
  5
1B647
  8
01
 10
2343.553095022205
 20
-457.1401741883627
 30
0.0000000001127424
  0
VERTEX
  5
1B648
  8
01
 10
2343.545642334312
 20
-457.1384827054582
 30
0.0000000001127424
  0
VERTEX
  5
1B649
  8
01
 10
2343.537648280083
 20
-457.1366613561142
 30
0.0000000001127424
  0
VERTEX
  5
1B64A
  8
01
 10
2343.529122140806
 20
-457.1347107238231
 30
0.0000000001127424
  0
VERTEX
  5
1B64B
  8
01
 10
2343.520073197769
 20
-457.1326313920769
 30
0.0000000001127424
  0
VERTEX
  5
1B64C
  8
01
 10
2343.510510732262
 20
-457.1304239443676
 30
0.0000000001127424
  0
VERTEX
  5
1B64D
  8
01
 10
2343.500444025571
 20
-457.1280889641877
 30
0.0000000001127424
  0
VERTEX
  5
1B64E
  8
01
 10
2343.489882358987
 20
-457.125627035029
 30
0.0000000001127424
  0
VERTEX
  5
1B64F
  8
01
 10
2343.478835013795
 20
-457.1230387403838
 30
0.0000000001127424
  0
VERTEX
  5
1B650
  8
01
 10
2343.467311271286
 20
-457.1203246637443
 30
0.0000000001127424
  0
VERTEX
  5
1B651
  8
01
 10
2343.455304621584
 20
-457.1174813507712
 30
0.0000000001127424
  0
VERTEX
  5
1B652
  8
01
 10
2343.442808455614
 20
-457.1145050091451
 30
0.0000000001127424
  0
VERTEX
  5
1B653
  8
01
 10
2343.429831905857
 20
-457.1113957153876
 30
0.0000000001127424
  0
VERTEX
  5
1B654
  8
01
 10
2343.416384104795
 20
-457.1081535460203
 30
0.0000000001127424
  0
VERTEX
  5
1B655
  8
01
 10
2343.402474184912
 20
-457.1047785775647
 30
0.0000000001127424
  0
VERTEX
  5
1B656
  8
01
 10
2343.388111278689
 20
-457.1012708865425
 30
0.0000000001127424
  0
VERTEX
  5
1B657
  8
01
 10
2343.37330451861
 20
-457.0976305494752
 30
0.0000000001127424
  0
VERTEX
  5
1B658
  8
01
 10
2343.358063037158
 20
-457.0938576428846
 30
0.0000000001127424
  0
VERTEX
  5
1B659
  8
01
 10
2343.342395966814
 20
-457.0899522432923
 30
0.0000000001127424
  0
VERTEX
  5
1B65A
  8
01
 10
2343.326312440062
 20
-457.0859144272197
 30
0.0000000001127424
  0
VERTEX
  5
1B65B
  8
01
 10
2343.309821589384
 20
-457.0817442711885
 30
0.0000000001127424
  0
VERTEX
  5
1B65C
  8
01
 10
2343.292932547263
 20
-457.0774418517204
 30
0.0000000001127424
  0
VERTEX
  5
1B65D
  8
01
 10
2343.27565444618
 20
-457.073007245337
 30
0.0000000001127424
  0
VERTEX
  5
1B65E
  8
01
 10
2343.257996418621
 20
-457.0684405285597
 30
0.0000000001127424
  0
VERTEX
  5
1B65F
  8
01
 10
2343.239967597065
 20
-457.0637417779104
 30
0.0000000001127424
  0
VERTEX
  5
1B660
  8
01
 10
2343.221577113996
 20
-457.0589110699104
 30
0.0000000001127424
  0
VERTEX
  5
1B661
  8
01
 10
2343.202834101897
 20
-457.0539484810816
 30
0.0000000001127424
  0
VERTEX
  5
1B662
  8
01
 10
2343.183747693251
 20
-457.0488540879454
 30
0.0000000001127424
  0
VERTEX
  5
1B663
  8
01
 10
2343.164327020539
 20
-457.0436279670236
 30
0.0000000001127424
  0
VERTEX
  5
1B664
  8
01
 10
2343.144581216245
 20
-457.0382701948375
 30
0.0000000001127424
  0
VERTEX
  5
1B665
  8
01
 10
2343.124519412851
 20
-457.0327808479091
 30
0.0000000001127424
  0
VERTEX
  5
1B666
  8
01
 10
2343.10415074284
 20
-457.0271600027597
 30
0.0000000001127424
  0
VERTEX
  5
1B667
  8
01
 10
2343.083470256518
 20
-457.0214026902166
 30
0.0000000001127424
  0
VERTEX
  5
1B668
  8
01
 10
2343.062473777492
 20
-457.0155047353938
 30
0.0000000001127424
  0
VERTEX
  5
1B669
  8
01
 10
2343.04117159819
 20
-457.0094674062429
 30
0.0000000001127424
  0
VERTEX
  5
1B66A
  8
01
 10
2343.019574011044
 20
-457.0032919707155
 30
0.0000000001127424
  0
VERTEX
  5
1B66B
  8
01
 10
2342.997691308483
 20
-456.9969796967633
 30
0.0000000001127424
  0
VERTEX
  5
1B66C
  8
01
 10
2342.975533782939
 20
-456.9905318523381
 30
0.0000000001127424
  0
VERTEX
  5
1B66D
  8
01
 10
2342.953111726841
 20
-456.9839497053913
 30
0.0000000001127424
  0
VERTEX
  5
1B66E
  8
01
 10
2342.93043543262
 20
-456.9772345238748
 30
0.0000000001127424
  0
VERTEX
  5
1B66F
  8
01
 10
2342.907515192706
 20
-456.9703875757401
 30
0.0000000001127424
  0
VERTEX
  5
1B670
  8
01
 10
2342.88436129953
 20
-456.963410128939
 30
0.0000000001127424
  0
VERTEX
  5
1B671
  8
01
 10
2342.860984045521
 20
-456.9563034514231
 30
0.0000000001127424
  0
VERTEX
  5
1B672
  8
01
 10
2342.83739372311
 20
-456.9490688111442
 30
0.0000000001127424
  0
VERTEX
  5
1B673
  8
01
 10
2342.813600624728
 20
-456.9417074760537
 30
0.0000000001127424
  0
VERTEX
  5
1B674
  8
01
 10
2342.789615042805
 20
-456.9342207141034
 30
0.0000000001127424
  0
VERTEX
  5
1B675
  8
01
 10
2342.76544726977
 20
-456.9266097932451
 30
0.0000000001127424
  0
VERTEX
  5
1B676
  8
01
 10
2342.741107598055
 20
-456.9188759814303
 30
0.0000000001127424
  0
VERTEX
  5
1B677
  8
01
 10
2342.716606320091
 20
-456.9110205466108
 30
0.0000000001127424
  0
VERTEX
  5
1B678
  8
01
 10
2342.691953728306
 20
-456.9030447567382
 30
0.0000000001127424
  0
VERTEX
  5
1B679
  8
01
 10
2342.667160115131
 20
-456.894949879764
 30
0.0000000001127424
  0
VERTEX
  5
1B67A
  8
01
 10
2342.642235772997
 20
-456.88673718364
 30
0.0000000001127424
  0
VERTEX
  5
1B67B
  8
01
 10
2342.617190994335
 20
-456.8784079363181
 30
0.0000000001127424
  0
VERTEX
  5
1B67C
  8
01
 10
2342.592036071574
 20
-456.8699634057496
 30
0.0000000001127424
  0
VERTEX
  5
1B67D
  8
01
 10
2342.566767275049
 20
-456.8614007003663
 30
0.0000000001127424
  0
VERTEX
  5
1B67E
  8
01
 10
2342.541378546738
 20
-456.8527172568506
 30
0.0000000001127424
  0
VERTEX
  5
1B67F
  8
01
 10
2342.515876686536
 20
-456.8439148355296
 30
0.0000000001127424
  0
VERTEX
  5
1B680
  8
01
 10
2342.490268494336
 20
-456.8349951967307
 30
0.0000000001127424
  0
VERTEX
  5
1B681
  8
01
 10
2342.464560770034
 20
-456.8259601007812
 30
0.0000000001127424
  0
VERTEX
  5
1B682
  8
01
 10
2342.438760313526
 20
-456.8168113080084
 30
0.0000000001127424
  0
VERTEX
  5
1B683
  8
01
 10
2342.412873924703
 20
-456.8075505787397
 30
0.0000000001127424
  0
VERTEX
  5
1B684
  8
01
 10
2342.386908403461
 20
-456.7981796733023
 30
0.0000000001127424
  0
VERTEX
  5
1B685
  8
01
 10
2342.360870549694
 20
-456.7887003520235
 30
0.0000000001127424
  0
VERTEX
  5
1B686
  8
01
 10
2342.334767163299
 20
-456.7791143752307
 30
0.0000000001127424
  0
VERTEX
  5
1B687
  8
01
 10
2342.308605044169
 20
-456.7694235032511
 30
0.0000000001127424
  0
VERTEX
  5
1B688
  8
01
 10
2342.282390992197
 20
-456.7596294964122
 30
0.0000000001127424
  0
VERTEX
  5
1B689
  8
01
 10
2342.256131807279
 20
-456.7497341150411
 30
0.0000000001127424
  0
VERTEX
  5
1B68A
  8
01
 10
2342.22983428931
 20
-456.7397391194653
 30
0.0000000001127424
  0
VERTEX
  5
1B68B
  8
01
 10
2342.203505238184
 20
-456.7296462700121
 30
0.0000000001127424
  0
VERTEX
  5
1B68C
  8
01
 10
2342.177151453796
 20
-456.7194573270087
 30
0.0000000001127424
  0
VERTEX
  5
1B68D
  8
01
 10
2342.15077973604
 20
-456.7091740507825
 30
0.0000000001127424
  0
VERTEX
  5
1B68E
  8
01
 10
2342.124396884809
 20
-456.6987982016606
 30
0.0000000001127424
  0
VERTEX
  5
1B68F
  8
01
 10
2342.098009700001
 20
-456.6883315399707
 30
0.0000000001127424
  0
VERTEX
  5
1B690
  8
01
 10
2342.071624981507
 20
-456.6777758260398
 30
0.0000000001127424
  0
VERTEX
  5
1B691
  8
01
 10
2342.045249529225
 20
-456.6671328201954
 30
0.0000000001127424
  0
VERTEX
  5
1B692
  8
01
 10
2342.018890143047
 20
-456.6564042827647
 30
0.0000000001127424
  0
SEQEND
  5
1BC29
  8
01
  0
POLYLINE
  5
1AB10
  8
01
 66
     1
 10
0.0
 20
0.0
 30
0.0000000001127424
  0
VERTEX
  5
1B693
  8
01
 10
2347.816187440344
 20
-438.1119381928791
 30
0.0000000001127424
  0
VERTEX
  5
1B694
  8
01
 10
2347.816470008123
 20
-438.1120003634473
 30
0.0000000001127424
  0
VERTEX
  5
1B695
  8
01
 10
2347.81731586468
 20
-438.1121868345166
 30
0.0000000001127424
  0
VERTEX
  5
1B696
  8
01
 10
2347.818722239846
 20
-438.1124975451341
 30
0.0000000001127424
  0
VERTEX
  5
1B697
  8
01
 10
2347.82068636345
 20
-438.1129324343468
 30
0.0000000001127424
  0
VERTEX
  5
1B698
  8
01
 10
2347.823205465321
 20
-438.1134914412016
 30
0.0000000001127424
  0
VERTEX
  5
1B699
  8
01
 10
2347.826276775289
 20
-438.1141745047456
 30
0.0000000001127424
  0
VERTEX
  5
1B69A
  8
01
 10
2347.829897523186
 20
-438.114981564026
 30
0.0000000001127424
  0
VERTEX
  5
1B69B
  8
01
 10
2347.834064938839
 20
-438.1159125580895
 30
0.0000000001127424
  0
VERTEX
  5
1B69C
  8
01
 10
2347.83877625208
 20
-438.1169674259834
 30
0.0000000001127424
  0
VERTEX
  5
1B69D
  8
01
 10
2347.844028692737
 20
-438.1181461067546
 30
0.0000000001127424
  0
VERTEX
  5
1B69E
  8
01
 10
2347.849819490641
 20
-438.1194485394501
 30
0.0000000001127424
  0
VERTEX
  5
1B69F
  8
01
 10
2347.856161601997
 20
-438.1208785389994
 30
0.0000000001127424
  0
VERTEX
  5
1B6A0
  8
01
 10
2347.863063642267
 20
-438.1224395719723
 30
0.0000000001127424
  0
VERTEX
  5
1B6A1
  8
01
 10
2347.87051633016
 20
-438.1241310548768
 30
0.0000000001127424
  0
VERTEX
  5
1B6A2
  8
01
 10
2347.878510384389
 20
-438.1259524042207
 30
0.0000000001127424
  0
VERTEX
  5
1B6A3
  8
01
 10
2347.887036523666
 20
-438.1279030365118
 30
0.0000000001127424
  0
VERTEX
  5
1B6A4
  8
01
 10
2347.896085466702
 20
-438.1299823682581
 30
0.0000000001127424
  0
VERTEX
  5
1B6A5
  8
01
 10
2347.905647932209
 20
-438.1321898159673
 30
0.0000000001127424
  0
VERTEX
  5
1B6A6
  8
01
 10
2347.9157146389
 20
-438.1345247961473
 30
0.0000000001127424
  0
VERTEX
  5
1B6A7
  8
01
 10
2347.926276305484
 20
-438.136986725306
 30
0.0000000001127424
  0
VERTEX
  5
1B6A8
  8
01
 10
2347.937323650676
 20
-438.1395750199511
 30
0.0000000001127424
  0
VERTEX
  5
1B6A9
  8
01
 10
2347.948847393186
 20
-438.1422890965907
 30
0.0000000001127424
  0
VERTEX
  5
1B6AA
  8
01
 10
2347.960854042887
 20
-438.1451324095637
 30
0.0000000001127424
  0
VERTEX
  5
1B6AB
  8
01
 10
2347.973350208857
 20
-438.1481087511898
 30
0.0000000001127424
  0
VERTEX
  5
1B6AC
  8
01
 10
2347.986326758615
 20
-438.1512180449473
 30
0.0000000001127424
  0
VERTEX
  5
1B6AD
  8
01
 10
2347.999774559677
 20
-438.1544602143147
 30
0.0000000001127424
  0
VERTEX
  5
1B6AE
  8
01
 10
2348.01368447956
 20
-438.1578351827702
 30
0.0000000001127424
  0
VERTEX
  5
1B6AF
  8
01
 10
2348.028047385782
 20
-438.1613428737925
 30
0.0000000001127424
  0
VERTEX
  5
1B6B0
  8
01
 10
2348.042854145861
 20
-438.1649832108596
 30
0.0000000001127424
  0
VERTEX
  5
1B6B1
  8
01
 10
2348.058095627313
 20
-438.1687561174502
 30
0.0000000001127424
  0
VERTEX
  5
1B6B2
  8
01
 10
2348.073762697657
 20
-438.1726615170426
 30
0.0000000001127424
  0
VERTEX
  5
1B6B3
  8
01
 10
2348.089846224409
 20
-438.1766993331152
 30
0.0000000001127424
  0
VERTEX
  5
1B6B4
  8
01
 10
2348.106337075088
 20
-438.1808694891463
 30
0.0000000001127424
  0
VERTEX
  5
1B6B5
  8
01
 10
2348.123226117209
 20
-438.1851719086144
 30
0.0000000001127424
  0
VERTEX
  5
1B6B6
  8
01
 10
2348.140504218291
 20
-438.1896065149979
 30
0.0000000001127424
  0
VERTEX
  5
1B6B7
  8
01
 10
2348.158162245851
 20
-438.1941732317751
 30
0.0000000001127424
  0
VERTEX
  5
1B6B8
  8
01
 10
2348.176191067407
 20
-438.1988719824245
 30
0.0000000001127424
  0
VERTEX
  5
1B6B9
  8
01
 10
2348.194581550475
 20
-438.2037026904243
 30
0.0000000001127424
  0
VERTEX
  5
1B6BA
  8
01
 10
2348.213324562575
 20
-438.2086652792532
 30
0.0000000001127424
  0
VERTEX
  5
1B6BB
  8
01
 10
2348.232410971221
 20
-438.2137596723894
 30
0.0000000001127424
  0
VERTEX
  5
1B6BC
  8
01
 10
2348.251831643933
 20
-438.2189857933112
 30
0.0000000001127424
  0
VERTEX
  5
1B6BD
  8
01
 10
2348.271577448227
 20
-438.2243435654972
 30
0.0000000001127424
  0
VERTEX
  5
1B6BE
  8
01
 10
2348.29163925162
 20
-438.2298329124256
 30
0.0000000001127424
  0
VERTEX
  5
1B6BF
  8
01
 10
2348.312007921631
 20
-438.235453757575
 30
0.0000000001127424
  0
VERTEX
  5
1B6C0
  8
01
 10
2348.332688407953
 20
-438.2412110701181
 30
0.0000000001127424
  0
VERTEX
  5
1B6C1
  8
01
 10
2348.35368488698
 20
-438.2471090249409
 30
0.0000000001127424
  0
VERTEX
  5
1B6C2
  8
01
 10
2348.374987066281
 20
-438.2531463540918
 30
0.0000000001127424
  0
VERTEX
  5
1B6C3
  8
01
 10
2348.396584653427
 20
-438.2593217896192
 30
0.0000000001127424
  0
VERTEX
  5
1B6C4
  8
01
 10
2348.418467355988
 20
-438.2656340635714
 30
0.0000000001127424
  0
VERTEX
  5
1B6C5
  8
01
 10
2348.440624881533
 20
-438.2720819079967
 30
0.0000000001127424
  0
VERTEX
  5
1B6C6
  8
01
 10
2348.463046937631
 20
-438.2786640549434
 30
0.0000000001127424
  0
VERTEX
  5
1B6C7
  8
01
 10
2348.485723231852
 20
-438.28537923646
 30
0.0000000001127424
  0
VERTEX
  5
1B6C8
  8
01
 10
2348.508643471765
 20
-438.2922261845946
 30
0.0000000001127424
  0
VERTEX
  5
1B6C9
  8
01
 10
2348.531797364942
 20
-438.2992036313957
 30
0.0000000001127424
  0
VERTEX
  5
1B6CA
  8
01
 10
2348.555174618951
 20
-438.3063103089116
 30
0.0000000001127424
  0
VERTEX
  5
1B6CB
  8
01
 10
2348.578764941362
 20
-438.3135449491905
 30
0.0000000001127424
  0
VERTEX
  5
1B6CC
  8
01
 10
2348.602558039744
 20
-438.320906284281
 30
0.0000000001127424
  0
VERTEX
  5
1B6CD
  8
01
 10
2348.626543621668
 20
-438.3283930462313
 30
0.0000000001127424
  0
VERTEX
  5
1B6CE
  8
01
 10
2348.650711394702
 20
-438.3360039670896
 30
0.0000000001127424
  0
VERTEX
  5
1B6CF
  8
01
 10
2348.675051066416
 20
-438.3437377789044
 30
0.0000000001127424
  0
VERTEX
  5
1B6D0
  8
01
 10
2348.699552344382
 20
-438.3515932137239
 30
0.0000000001127424
  0
VERTEX
  5
1B6D1
  8
01
 10
2348.724204936166
 20
-438.3595690035966
 30
0.0000000001127424
  0
VERTEX
  5
1B6D2
  8
01
 10
2348.748998549341
 20
-438.3676638805707
 30
0.0000000001127424
  0
VERTEX
  5
1B6D3
  8
01
 10
2348.773922891475
 20
-438.3758765766947
 30
0.0000000001127424
  0
VERTEX
  5
1B6D4
  8
01
 10
2348.798967670137
 20
-438.3842058240166
 30
0.0000000001127424
  0
VERTEX
  5
1B6D5
  8
01
 10
2348.824122592898
 20
-438.3926503545852
 30
0.0000000001127424
  0
VERTEX
  5
1B6D6
  8
01
 10
2348.849391389423
 20
-438.4012130599684
 30
0.0000000001127424
  0
VERTEX
  5
1B6D7
  8
01
 10
2348.874780117734
 20
-438.4098965034841
 30
0.0000000001127424
  0
VERTEX
  5
1B6D8
  8
01
 10
2348.900281977936
 20
-438.4186989248051
 30
0.0000000001127424
  0
VERTEX
  5
1B6D9
  8
01
 10
2348.925890170136
 20
-438.427618563604
 30
0.0000000001127424
  0
VERTEX
  5
1B6DA
  8
01
 10
2348.951597894437
 20
-438.4366536595535
 30
0.0000000001127424
  0
VERTEX
  5
1B6DB
  8
01
 10
2348.977398350946
 20
-438.4458024523263
 30
0.0000000001127424
  0
VERTEX
  5
1B6DC
  8
01
 10
2349.003284739769
 20
-438.4550631815951
 30
0.0000000001127424
  0
VERTEX
  5
1B6DD
  8
01
 10
2349.02925026101
 20
-438.4644340870324
 30
0.0000000001127424
  0
VERTEX
  5
1B6DE
  8
01
 10
2349.055288114777
 20
-438.4739134083113
 30
0.0000000001127424
  0
VERTEX
  5
1B6DF
  8
01
 10
2349.081391501172
 20
-438.483499385104
 30
0.0000000001127424
  0
VERTEX
  5
1B6E0
  8
01
 10
2349.107553620302
 20
-438.4931902570836
 30
0.0000000001127424
  0
VERTEX
  5
1B6E1
  8
01
 10
2349.133767672274
 20
-438.5029842639225
 30
0.0000000001127424
  0
VERTEX
  5
1B6E2
  8
01
 10
2349.160026857192
 20
-438.5128796452936
 30
0.0000000001127424
  0
VERTEX
  5
1B6E3
  8
01
 10
2349.186324375161
 20
-438.5228746408694
 30
0.0000000001127424
  0
VERTEX
  5
1B6E4
  8
01
 10
2349.212653426287
 20
-438.5329674903226
 30
0.0000000001127424
  0
VERTEX
  5
1B6E5
  8
01
 10
2349.239007210675
 20
-438.543156433326
 30
0.0000000001127424
  0
VERTEX
  5
1B6E6
  8
01
 10
2349.265378928432
 20
-438.5534397095523
 30
0.0000000001127424
  0
VERTEX
  5
1B6E7
  8
01
 10
2349.291761779662
 20
-438.5638155586741
 30
0.0000000001127424
  0
VERTEX
  5
1B6E8
  8
01
 10
2349.318148964471
 20
-438.574282220364
 30
0.0000000001127424
  0
VERTEX
  5
1B6E9
  8
01
 10
2349.344533682964
 20
-438.5848379342949
 30
0.0000000001127424
  0
VERTEX
  5
1B6EA
  8
01
 10
2349.370909135247
 20
-438.5954809401393
 30
0.0000000001127424
  0
VERTEX
  5
1B6EB
  8
01
 10
2349.397268521425
 20
-438.60620947757
 30
0.0000000001127424
  0
SEQEND
  5
1BC2A
  8
01
  0
ARC
  5
1AB11
  8
01
 10
2345.708079332236
 20
-447.6313068801674
 30
0.0000000001127424
 40
9.750000000000005
 50
112.2332717982963
 51
247.7667282017037
  0
ARC
  5
1AB12
  8
01
 10
2345.708079332236
 20
-447.6313068801674
 30
0.0000000001127424
 40
9.750000000000009
 50
292.2332717982963
 51
67.7667282017037
  0
CIRCLE
  5
1AB13
  8
01
 10
2345.708079332236
 20
-447.6313068801674
 30
0.0000000001127424
 40
10.3
  0
POLYLINE
  5
1AB14
  8
01
 10
0.0
 20
0.0
 30
0.0
 66
     1
 70
     8
  0
VERTEX
  5
1B6EC
  8
01
 10
2489.408083332238
 20
-457.3813068801746
 30
0.0000000001127427
 70
    32
  0
VERTEX
  5
1B6ED
  8
01
 10
2487.570580230861
 20
-457.3813068801746
 30
0.0000000001127427
 70
    32
  0
VERTEX
  5
1B6EE
  8
01
 10
2485.733077129485
 20
-457.3813068801746
 30
0.0000000001127427
 70
    32
  0
VERTEX
  5
1B6EF
  8
01
 10
2483.895574028108
 20
-457.3813068801746
 30
0.0000000001127427
 70
    32
  0
VERTEX
  5
1B6F0
  8
01
 10
2482.058070926731
 20
-457.3813068801746
 30
0.0000000001127427
 70
    32
  0
VERTEX
  5
1B6F1
  8
01
 10
2480.220567825355
 20
-457.3813068801746
 30
0.0000000001127427
 70
    32
  0
VERTEX
  5
1B6F2
  8
01
 10
2478.383064723978
 20
-457.3813068801746
 30
0.0000000001127427
 70
    32
  0
VERTEX
  5
1B6F3
  8
01
 10
2476.545561622602
 20
-457.3813068801746
 30
0.0000000001127427
 70
    32
  0
VERTEX
  5
1B6F4
  8
01
 10
2474.708058521225
 20
-457.3813068801746
 30
0.0000000001127427
 70
    32
  0
SEQEND
  5
1BC2B
  8
01
  0
POLYLINE
  5
1AB15
  8
01
 10
0.0
 20
0.0
 30
0.0
 66
     1
 70
     8
  0
VERTEX
  5
1B6F5
  8
01
 10
2474.708058521225
 20
-437.8813068801746
 30
0.0000000001127427
 70
    32
  0
VERTEX
  5
1B6F6
  8
01
 10
2476.545561622602
 20
-437.8813068801746
 30
0.0000000001127427
 70
    32
  0
VERTEX
  5
1B6F7
  8
01
 10
2478.383064723978
 20
-437.8813068801746
 30
0.0000000001127427
 70
    32
  0
VERTEX
  5
1B6F8
  8
01
 10
2480.220567825354
 20
-437.8813068801746
 30
0.0000000001127427
 70
    32
  0
VERTEX
  5
1B6F9
  8
01
 10
2482.058070926731
 20
-437.8813068801746
 30
0.0000000001127427
 70
    32
  0
VERTEX
  5
1B6FA
  8
01
 10
2483.895574028108
 20
-437.8813068801746
 30
0.0000000001127427
 70
    32
  0
VERTEX
  5
1B6FB
  8
01
 10
2485.733077129484
 20
-437.8813068801746
 30
0.0000000001127427
 70
    32
  0
VERTEX
  5
1B6FC
  8
01
 10
2487.57058023086
 20
-437.8813068801746
 30
0.0000000001127427
 70
    32
  0
VERTEX
  5
1B6FD
  8
01
 10
2489.408083332237
 20
-437.8813068801746
 30
0.0000000001127427
 70
    32
  0
SEQEND
  5
1BC2C
  8
01
  0
ARC
  5
1AB16
  8
01
 10
2474.708058521225
 20
-456.3813068801746
 30
0.0000000001127427
 40
1.0
 50
180.0
 51
270.0
  0
ARC
  5
1AB17
  8
01
 10
2474.708058521225
 20
-438.8813068801746
 30
0.0000000001127427
 40
1.0
 50
90.0
 51
180.0
  0
LINE
  5
1AB18
  8
01
 10
2488.208058521225
 20
-439.0690349854028
 30
0.0000000001127427
 11
2488.208058521225
 21
-456.1935787749464
 31
0.0000000001127427
  0
POLYLINE
  5
1AB19
  8
01
 66
     1
 10
0.0
 20
0.0
 30
0.0000000001127427
  0
VERTEX
  5
1B6FE
  8
01
 10
2487.208058521225
 20
-438.6001109460806
 30
0.0000000001127427
  0
VERTEX
  5
1B6FF
  8
01
 10
2487.231370117124
 20
-438.6002002139356
 30
0.0000000001127427
  0
VERTEX
  5
1B700
  8
01
 10
2487.254640884869
 20
-438.6004682016871
 30
0.0000000001127427
  0
VERTEX
  5
1B701
  8
01
 10
2487.27785863341
 20
-438.6009151856148
 30
0.0000000001127427
  0
VERTEX
  5
1B702
  8
01
 10
2487.301011171697
 20
-438.6015414419982
 30
0.0000000001127427
  0
VERTEX
  5
1B703
  8
01
 10
2487.32408630868
 20
-438.6023472471173
 30
0.0000000001127427
  0
VERTEX
  5
1B704
  8
01
 10
2487.34707185331
 20
-438.6033328772516
 30
0.0000000001127427
  0
VERTEX
  5
1B705
  8
01
 10
2487.369955614537
 20
-438.6044986086808
 30
0.0000000001127427
  0
VERTEX
  5
1B706
  8
01
 10
2487.392725401309
 20
-438.6058447176846
 30
0.0000000001127427
  0
VERTEX
  5
1B707
  8
01
 10
2487.415369022579
 20
-438.6073714805428
 30
0.0000000001127427
  0
VERTEX
  5
1B708
  8
01
 10
2487.437874287295
 20
-438.6090791735349
 30
0.0000000001127427
  0
VERTEX
  5
1B709
  8
01
 10
2487.460229004407
 20
-438.6109680729407
 30
0.0000000001127427
  0
VERTEX
  5
1B70A
  8
01
 10
2487.482420982866
 20
-438.6130384550399
 30
0.0000000001127427
  0
VERTEX
  5
1B70B
  8
01
 10
2487.504438031622
 20
-438.6152905961121
 30
0.0000000001127427
  0
VERTEX
  5
1B70C
  8
01
 10
2487.526267959624
 20
-438.617724772437
 30
0.0000000001127427
  0
VERTEX
  5
1B70D
  8
01
 10
2487.547898575823
 20
-438.6203412602944
 30
0.0000000001127427
  0
VERTEX
  5
1B70E
  8
01
 10
2487.569317689168
 20
-438.623140335964
 30
0.0000000001127427
  0
VERTEX
  5
1B70F
  8
01
 10
2487.590513108611
 20
-438.6261222757253
 30
0.0000000001127427
  0
VERTEX
  5
1B710
  8
01
 10
2487.611472643101
 20
-438.6292873558581
 30
0.0000000001127427
  0
VERTEX
  5
1B711
  8
01
 10
2487.632190950399
 20
-438.6326392174048
 30
0.0000000001127427
  0
VERTEX
  5
1B712
  8
01
 10
2487.652664583624
 20
-438.6361815833758
 30
0.0000000001127427
  0
VERTEX
  5
1B713
  8
01
 10
2487.672884194762
 20
-438.6399148530026
 30
0.0000000001127427
  0
VERTEX
  5
1B714
  8
01
 10
2487.692840435797
 20
-438.6438394255168
 30
0.0000000001127427
  0
VERTEX
  5
1B715
  8
01
 10
2487.712523958717
 20
-438.6479557001501
 30
0.0000000001127427
  0
VERTEX
  5
1B716
  8
01
 10
2487.731925415505
 20
-438.6522640761341
 30
0.0000000001127427
  0
VERTEX
  5
1B717
  8
01
 10
2487.751035458148
 20
-438.6567649527003
 30
0.0000000001127427
  0
VERTEX
  5
1B718
  8
01
 10
2487.769844738631
 20
-438.6614587290804
 30
0.0000000001127427
  0
VERTEX
  5
1B719
  8
01
 10
2487.788343908939
 20
-438.6663458045059
 30
0.0000000001127427
  0
VERTEX
  5
1B71A
  8
01
 10
2487.806523621057
 20
-438.6714265782084
 30
0.0000000001127427
  0
VERTEX
  5
1B71B
  8
01
 10
2487.824374526972
 20
-438.6767014494196
 30
0.0000000001127427
  0
VERTEX
  5
1B71C
  8
01
 10
2487.841887278669
 20
-438.6821708173711
 30
0.0000000001127427
  0
VERTEX
  5
1B71D
  8
01
 10
2487.859052528133
 20
-438.6878350812944
 30
0.0000000001127427
  0
VERTEX
  5
1B71E
  8
01
 10
2487.875860927349
 20
-438.6936946404211
 30
0.0000000001127427
  0
VERTEX
  5
1B71F
  8
01
 10
2487.892303128304
 20
-438.6997498939829
 30
0.0000000001127427
  0
VERTEX
  5
1B720
  8
01
 10
2487.908369782982
 20
-438.7060012412113
 30
0.0000000001127427
  0
VERTEX
  5
1B721
  8
01
 10
2487.924051543369
 20
-438.712449081338
 30
0.0000000001127427
  0
VERTEX
  5
1B722
  8
01
 10
2487.93933906145
 20
-438.7190938135946
 30
0.0000000001127427
  0
VERTEX
  5
1B723
  8
01
 10
2487.954215897795
 20
-438.725928957581
 30
0.0000000001127427
  0
VERTEX
  5
1B724
  8
01
 10
2487.968671661079
 20
-438.7329473316198
 30
0.0000000001127427
  0
VERTEX
  5
1B725
  8
01
 10
2487.982706075449
 20
-438.7401482830263
 30
0.0000000001127427
  0
VERTEX
  5
1B726
  8
01
 10
2487.996318865053
 20
-438.7475311591159
 30
0.0000000001127427
  0
VERTEX
  5
1B727
  8
01
 10
2488.009509754038
 20
-438.7550953072038
 30
0.0000000001127427
  0
VERTEX
  5
1B728
  8
01
 10
2488.022278466551
 20
-438.7628400746055
 30
0.0000000001127427
  0
VERTEX
  5
1B729
  8
01
 10
2488.034624726741
 20
-438.7707648086364
 30
0.0000000001127427
  0
VERTEX
  5
1B72A
  8
01
 10
2488.046548258754
 20
-438.7788688566117
 30
0.0000000001127427
  0
VERTEX
  5
1B72B
  8
01
 10
2488.058048786736
 20
-438.7871515658468
 30
0.0000000001127427
  0
VERTEX
  5
1B72C
  8
01
 10
2488.069126034838
 20
-438.795612283657
 30
0.0000000001127427
  0
VERTEX
  5
1B72D
  8
01
 10
2488.079779727204
 20
-438.8042503573578
 30
0.0000000001127427
  0
VERTEX
  5
1B72E
  8
01
 10
2488.090009587983
 20
-438.8130651342643
 30
0.0000000001127427
  0
VERTEX
  5
1B72F
  8
01
 10
2488.099815341322
 20
-438.8220559616921
 30
0.0000000001127427
  0
VERTEX
  5
1B730
  8
01
 10
2488.109196711368
 20
-438.8312221869563
 30
0.0000000001127427
  0
VERTEX
  5
1B731
  8
01
 10
2488.118153422268
 20
-438.8405631573725
 30
0.0000000001127427
  0
VERTEX
  5
1B732
  8
01
 10
2488.12668519817
 20
-438.8500782202558
 30
0.0000000001127427
  0
VERTEX
  5
1B733
  8
01
 10
2488.134791763222
 20
-438.8597667229217
 30
0.0000000001127427
  0
VERTEX
  5
1B734
  8
01
 10
2488.14247284157
 20
-438.8696280126856
 30
0.0000000001127427
  0
VERTEX
  5
1B735
  8
01
 10
2488.149719113117
 20
-438.8796411848935
 30
0.0000000001127427
  0
VERTEX
  5
1B736
  8
01
 10
2488.15652367556
 20
-438.8897850900565
 30
0.0000000001127427
  0
VERTEX
  5
1B737
  8
01
 10
2488.16288987974
 20
-438.9000587082367
 30
0.0000000001127427
  0
VERTEX
  5
1B738
  8
01
 10
2488.168821076495
 20
-438.9104610194966
 30
0.0000000001127427
  0
VERTEX
  5
1B739
  8
01
 10
2488.174320616662
 20
-438.9209910038985
 30
0.0000000001127427
  0
VERTEX
  5
1B73A
  8
01
 10
2488.179391851083
 20
-438.9316476415048
 30
0.0000000001127427
  0
VERTEX
  5
1B73B
  8
01
 10
2488.184038130594
 20
-438.9424299123776
 30
0.0000000001127427
  0
VERTEX
  5
1B73C
  8
01
 10
2488.188262806037
 20
-438.9533367965794
 30
0.0000000001127427
  0
VERTEX
  5
1B73D
  8
01
 10
2488.192069228249
 20
-438.9643672741725
 30
0.0000000001127427
  0
VERTEX
  5
1B73E
  8
01
 10
2488.19546074807
 20
-438.9755203252192
 30
0.0000000001127427
  0
VERTEX
  5
1B73F
  8
01
 10
2488.198440716339
 20
-438.9867949297819
 30
0.0000000001127427
  0
VERTEX
  5
1B740
  8
01
 10
2488.201012483893
 20
-438.9981900679228
 30
0.0000000001127427
  0
VERTEX
  5
1B741
  8
01
 10
2488.203179401574
 20
-439.0097047197044
 30
0.0000000001127427
  0
VERTEX
  5
1B742
  8
01
 10
2488.204944820219
 20
-439.0213378651889
 30
0.0000000001127427
  0
VERTEX
  5
1B743
  8
01
 10
2488.206312090668
 20
-439.0330884844387
 30
0.0000000001127427
  0
VERTEX
  5
1B744
  8
01
 10
2488.207284563759
 20
-439.0449555575161
 30
0.0000000001127427
  0
VERTEX
  5
1B745
  8
01
 10
2488.207865590332
 20
-439.0569380644833
 30
0.0000000001127427
  0
VERTEX
  5
1B746
  8
01
 10
2488.208058521225
 20
-439.0690349854028
 30
0.0000000001127427
  0
SEQEND
  5
1BC2D
  8
01
  0
POLYLINE
  5
1AB1A
  8
01
 66
     1
 10
0.0
 20
0.0
 30
0.0000000001127427
  0
VERTEX
  5
1B747
  8
01
 10
2488.208058521225
 20
-456.1935787749464
 30
0.0000000001127427
  0
VERTEX
  5
1B748
  8
01
 10
2488.20786042267
 20
-456.2056834394008
 30
0.0000000001127427
  0
VERTEX
  5
1B749
  8
01
 10
2488.207264858979
 20
-456.2176894771984
 30
0.0000000001127427
  0
VERTEX
  5
1B74A
  8
01
 10
2488.206269928114
 20
-456.2295932985575
 30
0.0000000001127427
  0
VERTEX
  5
1B74B
  8
01
 10
2488.204873728036
 20
-456.2413913136967
 30
0.0000000001127427
  0
VERTEX
  5
1B74C
  8
01
 10
2488.203074356708
 20
-456.2530799328346
 30
0.0000000001127427
  0
VERTEX
  5
1B74D
  8
01
 10
2488.200869912089
 20
-456.2646555661895
 30
0.0000000001127427
  0
VERTEX
  5
1B74E
  8
01
 10
2488.198258492143
 20
-456.2761146239801
 30
0.0000000001127427
  0
VERTEX
  5
1B74F
  8
01
 10
2488.195238194831
 20
-456.2874535164248
 30
0.0000000001127427
  0
VERTEX
  5
1B750
  8
01
 10
2488.191807118114
 20
-456.2986686537423
 30
0.0000000001127427
  0
VERTEX
  5
1B751
  8
01
 10
2488.187963359955
 20
-456.3097564461509
 30
0.0000000001127427
  0
VERTEX
  5
1B752
  8
01
 10
2488.183705018314
 20
-456.3207133038691
 30
0.0000000001127427
  0
VERTEX
  5
1B753
  8
01
 10
2488.179030191154
 20
-456.3315356371156
 30
0.0000000001127427
  0
VERTEX
  5
1B754
  8
01
 10
2488.173936976435
 20
-456.3422198561088
 30
0.0000000001127427
  0
VERTEX
  5
1B755
  8
01
 10
2488.16842347212
 20
-456.3527623710673
 30
0.0000000001127427
  0
VERTEX
  5
1B756
  8
01
 10
2488.16248777617
 20
-456.3631595922095
 30
0.0000000001127427
  0
VERTEX
  5
1B757
  8
01
 10
2488.156127986546
 20
-456.3734079297539
 30
0.0000000001127427
  0
VERTEX
  5
1B758
  8
01
 10
2488.149342201211
 20
-456.3835037939191
 30
0.0000000001127427
  0
VERTEX
  5
1B759
  8
01
 10
2488.142128518126
 20
-456.3934435949236
 30
0.0000000001127427
  0
VERTEX
  5
1B75A
  8
01
 10
2488.134475229535
 20
-456.4032291223294
 30
0.0000000001127427
  0
VERTEX
  5
1B75B
  8
01
 10
2488.126374139839
 20
-456.4128625468994
 30
0.0000000001127427
  0
VERTEX
  5
1B75C
  8
01
 10
2488.117828615238
 20
-456.4223408506538
 30
0.0000000001127427
  0
VERTEX
  5
1B75D
  8
01
 10
2488.108842021927
 20
-456.4316610156126
 30
0.0000000001127427
  0
VERTEX
  5
1B75E
  8
01
 10
2488.099417726105
 20
-456.440820023796
 30
0.0000000001127427
  0
VERTEX
  5
1B75F
  8
01
 10
2488.089559093971
 20
-456.449814857224
 30
0.0000000001127427
  0
VERTEX
  5
1B760
  8
01
 10
2488.079269491721
 20
-456.4586424979167
 30
0.0000000001127427
  0
VERTEX
  5
1B761
  8
01
 10
2488.068552285554
 20
-456.4672999278941
 30
0.0000000001127427
  0
VERTEX
  5
1B762
  8
01
 10
2488.057410841667
 20
-456.4757841291765
 30
0.0000000001127427
  0
VERTEX
  5
1B763
  8
01
 10
2488.045848526259
 20
-456.4840920837838
 30
0.0000000001127427
  0
VERTEX
  5
1B764
  8
01
 10
2488.033868705527
 20
-456.4922207737361
 30
0.0000000001127427
  0
VERTEX
  5
1B765
  8
01
 10
2488.021474745669
 20
-456.5001671810535
 30
0.0000000001127427
  0
VERTEX
  5
1B766
  8
01
 10
2488.008670012883
 20
-456.5079282877562
 30
0.0000000001127427
  0
VERTEX
  5
1B767
  8
01
 10
2487.995457873365
 20
-456.5155010758641
 30
0.0000000001127427
  0
VERTEX
  5
1B768
  8
01
 10
2487.981841693316
 20
-456.5228825273974
 30
0.0000000001127427
  0
VERTEX
  5
1B769
  8
01
 10
2487.967824838932
 20
-456.5300696243763
 30
0.0000000001127427
  0
VERTEX
  5
1B76A
  8
01
 10
2487.953410676411
 20
-456.5370593488205
 30
0.0000000001127427
  0
VERTEX
  5
1B76B
  8
01
 10
2487.93860257195
 20
-456.5438486827505
 30
0.0000000001127427
  0
VERTEX
  5
1B76C
  8
01
 10
2487.923390332723
 20
-456.5504426392675
 30
0.0000000001127427
  0
VERTEX
  5
1B76D
  8
01
 10
2487.907768450656
 20
-456.556848056453
 30
0.0000000001127427
  0
VERTEX
  5
1B76E
  8
01
 10
2487.891747319083
 20
-456.5630646537971
 30
0.0000000001127427
  0
VERTEX
  5
1B76F
  8
01
 10
2487.875337331338
 20
-456.56909215079
 30
0.0000000001127427
  0
VERTEX
  5
1B770
  8
01
 10
2487.858548880753
 20
-456.5749302669219
 30
0.0000000001127427
  0
VERTEX
  5
1B771
  8
01
 10
2487.841392360663
 20
-456.5805787216829
 30
0.0000000001127427
  0
VERTEX
  5
1B772
  8
01
 10
2487.823878164401
 20
-456.5860372345631
 30
0.0000000001127427
  0
VERTEX
  5
1B773
  8
01
 10
2487.806016685299
 20
-456.5913055250526
 30
0.0000000001127427
  0
VERTEX
  5
1B774
  8
01
 10
2487.787818316692
 20
-456.5963833126419
 30
0.0000000001127427
  0
VERTEX
  5
1B775
  8
01
 10
2487.769293451911
 20
-456.6012703168208
 30
0.0000000001127427
  0
VERTEX
  5
1B776
  8
01
 10
2487.750452484293
 20
-456.6059662570796
 30
0.0000000001127427
  0
VERTEX
  5
1B777
  8
01
 10
2487.731305807167
 20
-456.6104708529085
 30
0.0000000001127427
  0
VERTEX
  5
1B778
  8
01
 10
2487.71186381387
 20
-456.6147838237974
 30
0.0000000001127427
  0
VERTEX
  5
1B779
  8
01
 10
2487.692136897734
 20
-456.6189048892369
 30
0.0000000001127427
  0
VERTEX
  5
1B77A
  8
01
 10
2487.672135452091
 20
-456.6228337687167
 30
0.0000000001127427
  0
VERTEX
  5
1B77B
  8
01
 10
2487.651869870277
 20
-456.6265701817273
 30
0.0000000001127427
  0
VERTEX
  5
1B77C
  8
01
 10
2487.631350545623
 20
-456.6301138477586
 30
0.0000000001127427
  0
VERTEX
  5
1B77D
  8
01
 10
2487.610587871462
 20
-456.6334644863009
 30
0.0000000001127427
  0
VERTEX
  5
1B77E
  8
01
 10
2487.589596593236
 20
-456.6366259170019
 30
0.0000000001127427
  0
VERTEX
  5
1B77F
  8
01
 10
2487.568391131812
 20
-456.6396024866444
 30
0.0000000001127427
  0
VERTEX
  5
1B780
  8
01
 10
2487.546981393672
 20
-456.6423947054213
 30
0.0000000001127427
  0
VERTEX
  5
1B781
  8
01
 10
2487.525377285292
 20
-456.6450030835253
 30
0.0000000001127427
  0
VERTEX
  5
1B782
  8
01
 10
2487.503588713152
 20
-456.6474281311491
 30
0.0000000001127427
  0
VERTEX
  5
1B783
  8
01
 10
2487.481625583732
 20
-456.6496703584854
 30
0.0000000001127427
  0
VERTEX
  5
1B784
  8
01
 10
2487.459497803511
 20
-456.6517302757271
 30
0.0000000001127427
  0
VERTEX
  5
1B785
  8
01
 10
2487.437215278967
 20
-456.6536083930669
 30
0.0000000001127427
  0
VERTEX
  5
1B786
  8
01
 10
2487.414787916582
 20
-456.6553052206975
 30
0.0000000001127427
  0
VERTEX
  5
1B787
  8
01
 10
2487.392225622831
 20
-456.6568212688119
 30
0.0000000001127427
  0
VERTEX
  5
1B788
  8
01
 10
2487.369538304196
 20
-456.6581570476026
 30
0.0000000001127427
  0
VERTEX
  5
1B789
  8
01
 10
2487.346735867156
 20
-456.6593130672625
 30
0.0000000001127427
  0
VERTEX
  5
1B78A
  8
01
 10
2487.323828218189
 20
-456.6602898379843
 30
0.0000000001127427
  0
VERTEX
  5
1B78B
  8
01
 10
2487.300825263774
 20
-456.6610878699608
 30
0.0000000001127427
  0
VERTEX
  5
1B78C
  8
01
 10
2487.277736910391
 20
-456.6617076733847
 30
0.0000000001127427
  0
VERTEX
  5
1B78D
  8
01
 10
2487.25457306452
 20
-456.6621497584489
 30
0.0000000001127427
  0
VERTEX
  5
1B78E
  8
01
 10
2487.231343632638
 20
-456.662414635346
 30
0.0000000001127427
  0
VERTEX
  5
1B78F
  8
01
 10
2487.208058521225
 20
-456.6625028142689
 30
0.0000000001127427
  0
SEQEND
  5
1BC2E
  8
01
  0
LINE
  5
1AB1B
  8
01
 10
2487.208058521225
 20
-456.6625028142689
 30
0.0000000001127427
 11
2474.708058521225
 21
-456.6625028142689
 31
0.0000000001127427
  0
LINE
  5
1AB1C
  8
01
 10
2474.708058521225
 20
-438.6001109460806
 30
0.0000000001127427
 11
2487.208058521225
 21
-438.6001109460806
 31
0.0000000001127427
  0
POLYLINE
  5
1AB1D
  8
01
 66
     1
 10
0.0
 20
0.0
 30
0.0000000001127427
  0
VERTEX
  5
1B790
  8
01
 10
2474.708058521225
 20
-438.6001109460806
 30
0.0000000001127427
  0
VERTEX
  5
1B791
  8
01
 10
2474.685212354316
 20
-438.6002160502573
 30
0.0000000001127427
  0
VERTEX
  5
1B792
  8
01
 10
2474.66241642053
 20
-438.6005304902315
 30
0.0000000001127427
  0
VERTEX
  5
1B793
  8
01
 10
2474.639680112818
 20
-438.6010529571694
 30
0.0000000001127427
  0
VERTEX
  5
1B794
  8
01
 10
2474.617012824128
 20
-438.601782142237
 30
0.0000000001127427
  0
VERTEX
  5
1B795
  8
01
 10
2474.59442394741
 20
-438.6027167366004
 30
0.0000000001127427
  0
VERTEX
  5
1B796
  8
01
 10
2474.571922875612
 20
-438.603855431426
 30
0.0000000001127427
  0
VERTEX
  5
1B797
  8
01
 10
2474.549519001686
 20
-438.6051969178795
 30
0.0000000001127427
  0
VERTEX
  5
1B798
  8
01
 10
2474.527221718579
 20
-438.6067398871274
 30
0.0000000001127427
  0
VERTEX
  5
1B799
  8
01
 10
2474.505040419242
 20
-438.6084830303356
 30
0.0000000001127427
  0
VERTEX
  5
1B79A
  8
01
 10
2474.482984496623
 20
-438.6104250386703
 30
0.0000000001127427
  0
VERTEX
  5
1B79B
  8
01
 10
2474.461063343671
 20
-438.6125646032976
 30
0.0000000001127427
  0
VERTEX
  5
1B79C
  8
01
 10
2474.439286353337
 20
-438.6149004153836
 30
0.0000000001127427
  0
VERTEX
  5
1B79D
  8
01
 10
2474.41766291857
 20
-438.6174311660944
 30
0.0000000001127427
  0
VERTEX
  5
1B79E
  8
01
 10
2474.396202432319
 20
-438.6201555465963
 30
0.0000000001127427
  0
VERTEX
  5
1B79F
  8
01
 10
2474.374914287533
 20
-438.6230722480553
 30
0.0000000001127427
  0
VERTEX
  5
1B7A0
  8
01
 10
2474.353807877161
 20
-438.6261799616374
 30
0.0000000001127427
  0
VERTEX
  5
1B7A1
  8
01
 10
2474.332892594153
 20
-438.6294773785089
 30
0.0000000001127427
  0
VERTEX
  5
1B7A2
  8
01
 10
2474.312177831459
 20
-438.6329631898358
 30
0.0000000001127427
  0
VERTEX
  5
1B7A3
  8
01
 10
2474.291689444299
 20
-438.6366327816228
 30
0.0000000001127427
  0
VERTEX
  5
1B7A4
  8
01
 10
2474.271451304251
 20
-438.6404807536774
 30
0.0000000001127427
  0
VERTEX
  5
1B7A5
  8
01
 10
2474.251469828796
 20
-438.6445046178702
 30
0.0000000001127427
  0
VERTEX
  5
1B7A6
  8
01
 10
2474.231751435415
 20
-438.6487018860717
 30
0.0000000001127427
  0
VERTEX
  5
1B7A7
  8
01
 10
2474.212302541593
 20
-438.6530700701524
 30
0.0000000001127427
  0
VERTEX
  5
1B7A8
  8
01
 10
2474.19312956481
 20
-438.6576066819828
 30
0.0000000001127427
  0
VERTEX
  5
1B7A9
  8
01
 10
2474.174238922548
 20
-438.6623092334335
 30
0.0000000001127427
  0
VERTEX
  5
1B7AA
  8
01
 10
2474.155637032291
 20
-438.6671752363749
 30
0.0000000001127427
  0
VERTEX
  5
1B7AB
  8
01
 10
2474.13733031152
 20
-438.6722022026776
 30
0.0000000001127427
  0
VERTEX
  5
1B7AC
  8
01
 10
2474.119325177717
 20
-438.6773876442122
 30
0.0000000001127427
  0
VERTEX
  5
1B7AD
  8
01
 10
2474.101628048364
 20
-438.682729072849
 30
0.0000000001127427
  0
VERTEX
  5
1B7AE
  8
01
 10
2474.084245340944
 20
-438.6882240004588
 30
0.0000000001127427
  0
VERTEX
  5
1B7AF
  8
01
 10
2474.067183472938
 20
-438.6938699389118
 30
0.0000000001127427
  0
VERTEX
  5
1B7B0
  8
01
 10
2474.050448861829
 20
-438.6996644000788
 30
0.0000000001127427
  0
VERTEX
  5
1B7B1
  8
01
 10
2474.034047925099
 20
-438.7056048958302
 30
0.0000000001127427
  0
VERTEX
  5
1B7B2
  8
01
 10
2474.017987080229
 20
-438.7116889380365
 30
0.0000000001127427
  0
VERTEX
  5
1B7B3
  8
01
 10
2474.002272744704
 20
-438.7179140385683
 30
0.0000000001127427
  0
VERTEX
  5
1B7B4
  8
01
 10
2473.986911336003
 20
-438.7242777092961
 30
0.0000000001127427
  0
VERTEX
  5
1B7B5
  8
01
 10
2473.971933109309
 20
-438.7307628684285
 30
0.0000000001127427
  0
VERTEX
  5
1B7B6
  8
01
 10
2473.957363702386
 20
-438.7373533400836
 30
0.0000000001127427
  0
VERTEX
  5
1B7B7
  8
01
 10
2473.943202606592
 20
-438.7440479949958
 30
0.0000000001127427
  0
VERTEX
  5
1B7B8
  8
01
 10
2473.929449313281
 20
-438.7508457038995
 30
0.0000000001127427
  0
VERTEX
  5
1B7B9
  8
01
 10
2473.916103313813
 20
-438.7577453375291
 30
0.0000000001127427
  0
VERTEX
  5
1B7BA
  8
01
 10
2473.903164099542
 20
-438.7647457666191
 30
0.0000000001127427
  0
VERTEX
  5
1B7BB
  8
01
 10
2473.890631161827
 20
-438.7718458619038
 30
0.0000000001127427
  0
VERTEX
  5
1B7BC
  8
01
 10
2473.878503992023
 20
-438.7790444941179
 30
0.0000000001127427
  0
VERTEX
  5
1B7BD
  8
01
 10
2473.866782081487
 20
-438.7863405339955
 30
0.0000000001127427
  0
VERTEX
  5
1B7BE
  8
01
 10
2473.855464921576
 20
-438.7937328522713
 30
0.0000000001127427
  0
VERTEX
  5
1B7BF
  8
01
 10
2473.844552003648
 20
-438.8012203196797
 30
0.0000000001127427
  0
VERTEX
  5
1B7C0
  8
01
 10
2473.834042819058
 20
-438.8088018069549
 30
0.0000000001127427
  0
VERTEX
  5
1B7C1
  8
01
 10
2473.823936859164
 20
-438.8164761848315
 30
0.0000000001127427
  0
VERTEX
  5
1B7C2
  8
01
 10
2473.814233615322
 20
-438.8242423240438
 30
0.0000000001127427
  0
VERTEX
  5
1B7C3
  8
01
 10
2473.804932578889
 20
-438.8320990953265
 30
0.0000000001127427
  0
VERTEX
  5
1B7C4
  8
01
 10
2473.796033241222
 20
-438.8400453694138
 30
0.0000000001127427
  0
VERTEX
  5
1B7C5
  8
01
 10
2473.787535093677
 20
-438.8480800170403
 30
0.0000000001127427
  0
VERTEX
  5
1B7C6
  8
01
 10
2473.779437627611
 20
-438.8562019089402
 30
0.0000000001127427
  0
VERTEX
  5
1B7C7
  8
01
 10
2473.771756996358
 20
-438.8643989901649
 30
0.0000000001127427
  0
VERTEX
  5
1B7C8
  8
01
 10
2473.764510108606
 20
-438.8726580072224
 30
0.0000000001127427
  0
VERTEX
  5
1B7C9
  8
01
 10
2473.757697588744
 20
-438.8809760330315
 30
0.0000000001127427
  0
VERTEX
  5
1B7CA
  8
01
 10
2473.751320061157
 20
-438.8893501405115
 30
0.0000000001127427
  0
VERTEX
  5
1B7CB
  8
01
 10
2473.745378150235
 20
-438.8977774025815
 30
0.0000000001127427
  0
VERTEX
  5
1B7CC
  8
01
 10
2473.739872480366
 20
-438.9062548921607
 30
0.0000000001127427
  0
VERTEX
  5
1B7CD
  8
01
 10
2473.734803675937
 20
-438.9147796821683
 30
0.0000000001127427
  0
VERTEX
  5
1B7CE
  8
01
 10
2473.730172361337
 20
-438.9233488455232
 30
0.0000000001127427
  0
VERTEX
  5
1B7CF
  8
01
 10
2473.725979160952
 20
-438.9319594551447
 30
0.0000000001127427
  0
VERTEX
  5
1B7D0
  8
01
 10
2473.722224699171
 20
-438.9406085839519
 30
0.0000000001127427
  0
VERTEX
  5
1B7D1
  8
01
 10
2473.718909600384
 20
-438.9492933048639
 30
0.0000000001127427
  0
VERTEX
  5
1B7D2
  8
01
 10
2473.716034488975
 20
-438.9580106908001
 30
0.0000000001127427
  0
VERTEX
  5
1B7D3
  8
01
 10
2473.713599989334
 20
-438.9667578146792
 30
0.0000000001127427
  0
VERTEX
  5
1B7D4
  8
01
 10
2473.711606725849
 20
-438.9755317494206
 30
0.0000000001127427
  0
VERTEX
  5
1B7D5
  8
01
 10
2473.710055322908
 20
-438.9843295679433
 30
0.0000000001127427
  0
VERTEX
  5
1B7D6
  8
01
 10
2473.708946404899
 20
-438.9931483431667
 30
0.0000000001127427
  0
VERTEX
  5
1B7D7
  8
01
 10
2473.708280596208
 20
-439.0019851480097
 30
0.0000000001127427
  0
VERTEX
  5
1B7D8
  8
01
 10
2473.708058521225
 20
-439.0108370553914
 30
0.0000000001127427
  0
SEQEND
  5
1BC2F
  8
01
  0
POLYLINE
  5
1AB1E
  8
01
 66
     1
 10
0.0
 20
0.0
 30
0.0000000001127427
  0
VERTEX
  5
1B7D9
  8
01
 10
2474.708058521225
 20
-456.6625028142689
 30
0.0000000001127427
  0
VERTEX
  5
1B7DA
  8
01
 10
2474.685212354316
 20
-456.6623977100922
 30
0.0000000001127427
  0
VERTEX
  5
1B7DB
  8
01
 10
2474.66241642053
 20
-456.662083270118
 30
0.0000000001127427
  0
VERTEX
  5
1B7DC
  8
01
 10
2474.639680112818
 20
-456.6615608031801
 30
0.0000000001127427
  0
VERTEX
  5
1B7DD
  8
01
 10
2474.617012824128
 20
-456.6608316181125
 30
0.0000000001127427
  0
VERTEX
  5
1B7DE
  8
01
 10
2474.59442394741
 20
-456.659897023749
 30
0.0000000001127427
  0
VERTEX
  5
1B7DF
  8
01
 10
2474.571922875612
 20
-456.6587583289235
 30
0.0000000001127427
  0
VERTEX
  5
1B7E0
  8
01
 10
2474.549519001686
 20
-456.6574168424698
 30
0.0000000001127427
  0
VERTEX
  5
1B7E1
  8
01
 10
2474.527221718579
 20
-456.655873873222
 30
0.0000000001127427
  0
VERTEX
  5
1B7E2
  8
01
 10
2474.505040419242
 20
-456.6541307300138
 30
0.0000000001127427
  0
VERTEX
  5
1B7E3
  8
01
 10
2474.482984496623
 20
-456.6521887216791
 30
0.0000000001127427
  0
VERTEX
  5
1B7E4
  8
01
 10
2474.461063343671
 20
-456.6500491570517
 30
0.0000000001127427
  0
VERTEX
  5
1B7E5
  8
01
 10
2474.439286353337
 20
-456.6477133449657
 30
0.0000000001127427
  0
VERTEX
  5
1B7E6
  8
01
 10
2474.41766291857
 20
-456.6451825942548
 30
0.0000000001127427
  0
VERTEX
  5
1B7E7
  8
01
 10
2474.396202432319
 20
-456.6424582137529
 30
0.0000000001127427
  0
VERTEX
  5
1B7E8
  8
01
 10
2474.374914287533
 20
-456.639541512294
 30
0.0000000001127427
  0
VERTEX
  5
1B7E9
  8
01
 10
2474.353807877161
 20
-456.6364337987119
 30
0.0000000001127427
  0
VERTEX
  5
1B7EA
  8
01
 10
2474.332892594153
 20
-456.6331363818404
 30
0.0000000001127427
  0
VERTEX
  5
1B7EB
  8
01
 10
2474.312177831459
 20
-456.6296505705135
 30
0.0000000001127427
  0
VERTEX
  5
1B7EC
  8
01
 10
2474.291689444299
 20
-456.6259809787265
 30
0.0000000001127427
  0
VERTEX
  5
1B7ED
  8
01
 10
2474.271451304251
 20
-456.6221330066718
 30
0.0000000001127427
  0
VERTEX
  5
1B7EE
  8
01
 10
2474.251469828796
 20
-456.6181091424791
 30
0.0000000001127427
  0
VERTEX
  5
1B7EF
  8
01
 10
2474.231751435415
 20
-456.6139118742776
 30
0.0000000001127427
  0
VERTEX
  5
1B7F0
  8
01
 10
2474.212302541593
 20
-456.6095436901969
 30
0.0000000001127427
  0
VERTEX
  5
1B7F1
  8
01
 10
2474.19312956481
 20
-456.6050070783664
 30
0.0000000001127427
  0
VERTEX
  5
1B7F2
  8
01
 10
2474.174238922548
 20
-456.6003045269157
 30
0.0000000001127427
  0
VERTEX
  5
1B7F3
  8
01
 10
2474.155637032291
 20
-456.5954385239743
 30
0.0000000001127427
  0
VERTEX
  5
1B7F4
  8
01
 10
2474.13733031152
 20
-456.5904115576716
 30
0.0000000001127427
  0
VERTEX
  5
1B7F5
  8
01
 10
2474.119325177717
 20
-456.5852261161371
 30
0.0000000001127427
  0
VERTEX
  5
1B7F6
  8
01
 10
2474.101628048364
 20
-456.5798846875002
 30
0.0000000001127427
  0
VERTEX
  5
1B7F7
  8
01
 10
2474.084245340944
 20
-456.5743897598905
 30
0.0000000001127427
  0
VERTEX
  5
1B7F8
  8
01
 10
2474.067183472938
 20
-456.5687438214375
 30
0.0000000001127427
  0
VERTEX
  5
1B7F9
  8
01
 10
2474.050448861829
 20
-456.5629493602705
 30
0.0000000001127427
  0
VERTEX
  5
1B7FA
  8
01
 10
2474.034047925099
 20
-456.5570088645191
 30
0.0000000001127427
  0
VERTEX
  5
1B7FB
  8
01
 10
2474.017987080229
 20
-456.5509248223128
 30
0.0000000001127427
  0
VERTEX
  5
1B7FC
  8
01
 10
2474.002272744704
 20
-456.544699721781
 30
0.0000000001127427
  0
VERTEX
  5
1B7FD
  8
01
 10
2473.986911336003
 20
-456.5383360510532
 30
0.0000000001127427
  0
VERTEX
  5
1B7FE
  8
01
 10
2473.971933109309
 20
-456.5318508919207
 30
0.0000000001127427
  0
VERTEX
  5
1B7FF
  8
01
 10
2473.957363702386
 20
-456.5252604202657
 30
0.0000000001127427
  0
VERTEX
  5
1B800
  8
01
 10
2473.943202606592
 20
-456.5185657653535
 30
0.0000000001127427
  0
VERTEX
  5
1B801
  8
01
 10
2473.929449313281
 20
-456.5117680564498
 30
0.0000000001127427
  0
VERTEX
  5
1B802
  8
01
 10
2473.916103313813
 20
-456.5048684228202
 30
0.0000000001127427
  0
VERTEX
  5
1B803
  8
01
 10
2473.903164099542
 20
-456.4978679937302
 30
0.0000000001127427
  0
VERTEX
  5
1B804
  8
01
 10
2473.890631161827
 20
-456.4907678984454
 30
0.0000000001127427
  0
VERTEX
  5
1B805
  8
01
 10
2473.878503992023
 20
-456.4835692662314
 30
0.0000000001127427
  0
VERTEX
  5
1B806
  8
01
 10
2473.866782081487
 20
-456.4762732263537
 30
0.0000000001127427
  0
VERTEX
  5
1B807
  8
01
 10
2473.855464921576
 20
-456.4688809080779
 30
0.0000000001127427
  0
VERTEX
  5
1B808
  8
01
 10
2473.844552003648
 20
-456.4613934406696
 30
0.0000000001127427
  0
VERTEX
  5
1B809
  8
01
 10
2473.834042819058
 20
-456.4538119533944
 30
0.0000000001127427
  0
VERTEX
  5
1B80A
  8
01
 10
2473.823936859164
 20
-456.4461375755178
 30
0.0000000001127427
  0
VERTEX
  5
1B80B
  8
01
 10
2473.814233615322
 20
-456.4383714363054
 30
0.0000000001127427
  0
VERTEX
  5
1B80C
  8
01
 10
2473.804932578889
 20
-456.4305146650228
 30
0.0000000001127427
  0
VERTEX
  5
1B80D
  8
01
 10
2473.796033241222
 20
-456.4225683909355
 30
0.0000000001127427
  0
VERTEX
  5
1B80E
  8
01
 10
2473.787535093677
 20
-456.414533743309
 30
0.0000000001127427
  0
VERTEX
  5
1B80F
  8
01
 10
2473.779437627611
 20
-456.4064118514091
 30
0.0000000001127427
  0
VERTEX
  5
1B810
  8
01
 10
2473.771756996358
 20
-456.3982147701843
 30
0.0000000001127427
  0
VERTEX
  5
1B811
  8
01
 10
2473.764510108606
 20
-456.3899557531269
 30
0.0000000001127427
  0
VERTEX
  5
1B812
  8
01
 10
2473.757697588744
 20
-456.3816377273178
 30
0.0000000001127427
  0
VERTEX
  5
1B813
  8
01
 10
2473.751320061157
 20
-456.3732636198378
 30
0.0000000001127427
  0
VERTEX
  5
1B814
  8
01
 10
2473.745378150235
 20
-456.3648363577678
 30
0.0000000001127427
  0
VERTEX
  5
1B815
  8
01
 10
2473.739872480366
 20
-456.3563588681885
 30
0.0000000001127427
  0
VERTEX
  5
1B816
  8
01
 10
2473.734803675937
 20
-456.3478340781811
 30
0.0000000001127427
  0
VERTEX
  5
1B817
  8
01
 10
2473.730172361337
 20
-456.3392649148261
 30
0.0000000001127427
  0
VERTEX
  5
1B818
  8
01
 10
2473.725979160952
 20
-456.3306543052047
 30
0.0000000001127427
  0
VERTEX
  5
1B819
  8
01
 10
2473.722224699171
 20
-456.3220051763975
 30
0.0000000001127427
  0
VERTEX
  5
1B81A
  8
01
 10
2473.718909600384
 20
-456.3133204554854
 30
0.0000000001127427
  0
VERTEX
  5
1B81B
  8
01
 10
2473.716034488975
 20
-456.3046030695494
 30
0.0000000001127427
  0
VERTEX
  5
1B81C
  8
01
 10
2473.713599989334
 20
-456.2958559456703
 30
0.0000000001127427
  0
VERTEX
  5
1B81D
  8
01
 10
2473.711606725849
 20
-456.2870820109289
 30
0.0000000001127427
  0
VERTEX
  5
1B81E
  8
01
 10
2473.710055322908
 20
-456.2782841924061
 30
0.0000000001127427
  0
VERTEX
  5
1B81F
  8
01
 10
2473.708946404899
 20
-456.2694654171828
 30
0.0000000001127427
  0
VERTEX
  5
1B820
  8
01
 10
2473.708280596208
 20
-456.2606286123398
 30
0.0000000001127427
  0
VERTEX
  5
1B821
  8
01
 10
2473.708058521225
 20
-456.251776704958
 30
0.0000000001127427
  0
SEQEND
  5
1BC30
  8
01
  0
LINE
  5
1AB1F
  8
01
 10
2473.708058521225
 20
-439.0108370553914
 30
0.0000000001127427
 11
2473.708058521225
 21
-456.251776704958
 31
0.0000000001127427
  0
LINE
  5
1AB20
  8
01
 10
2473.708058521225
 20
-456.251776704958
 30
0.0000000001127427
 11
2473.708058521225
 21
-456.3813068801746
 31
0.0000000001127427
  0
LINE
  5
1AB21
  8
01
 10
2666.20808307588
 20
-201.331306881196
 30
0.0000000001127424
 11
2705.20808307588
 21
-201.3313068811958
 31
0.0000000001127424
  0
LINE
  5
1AB22
  8
01
 10
2705.70808307588
 20
-207.631306881196
 30
0.0000000001127424
 11
2665.70808307588
 21
-207.6313068811965
 31
0.0000000001127424
  0
LINE
  5
1AB23
  8
01
 10
2705.70808307588
 20
-207.631306881196
 30
0.0000000001127424
 11
2705.70808307588
 21
-201.8313068811958
 31
0.0000000001127424
  0
ARC
  5
1AB24
  8
01
 10
2705.20808307588
 20
-201.831306881196
 30
0.0000000001127424
 40
0.5
 50
0.0
 51
90.0
  0
LINE
  5
1AB25
  8
01
 10
2665.70808307588
 20
-207.6313068811965
 30
0.0000000001127424
 11
2665.70808307588
 21
-201.831306881196
 31
0.0000000001127424
  0
ARC
  5
1AB26
  8
01
 10
2666.20808307588
 20
-201.831306881196
 30
0.0000000001127424
 40
0.5
 50
90.0
 51
180.0
  0
LINE
  5
1AB27
  8
01
 10
2682.208095297093
 20
-200.1313102143963
 30
0.0000000000565071
 11
2676.458095297087
 21
-200.1313102143952
 31
0.0000000000565071
  0
LINE
  5
1AB28
  8
01
 10
2683.208095297095
 20
-186.6312872701897
 30
0.0000000000565071
 11
2683.208095297093
 21
-199.1313102143963
 31
0.0000000000565071
  0
LINE
  5
1AB29
  8
01
 10
2688.208095297095
 20
-186.6312872701915
 30
0.0000000000565071
 11
2688.208095297095
 21
-199.1313102143945
 31
0.0000000000565071
  0
ARC
  5
1AB2A
  8
01
 10
2687.208095297095
 20
-186.6312872701897
 30
0.0000000000565071
 40
1.0
 50
0.0000000000521102
 51
90.0
  0
ARC
  5
1AB2B
  8
01
 10
2684.208095297095
 20
-186.6312872701897
 30
0.0000000000565071
 40
1.0
 50
90.0
 51
180.0
  0
LINE
  5
1AB2C
  8
01
 10
2687.208095297095
 20
-185.6312872701878
 30
0.0000000000565071
 11
2684.208095297095
 21
-185.6312872701878
 31
0.0000000000565071
  0
LINE
  5
1AB2D
  8
01
 10
2694.958095297086
 20
-200.1313102143945
 30
0.0000000000565071
 11
2689.208095297095
 21
-200.1313102143945
 31
0.0000000000565071
  0
ARC
  5
1AB2E
  8
01
 10
2689.208095297095
 20
-199.1313102143945
 30
0.0000000000565071
 40
1.0
 50
180.0
 51
270.0
  0
ARC
  5
1AB2F
  8
01
 10
2682.208095297094
 20
-199.1313102143963
 30
0.0000000000565071
 40
1.0
 50
270.0
 51
0.0
  0
LINE
  5
1AB30
  8
01
 10
2675.958095297086
 20
-200.6313102143949
 30
0.0000000001127646
 11
2675.958095297086
 21
-201.3313068811958
 31
0.0000000001127424
  0
ARC
  5
1AB31
  8
01
 10
2676.458095297087
 20
-200.6313102143949
 30
0.0000000001127646
 40
0.5
 50
90.0
 51
180.0
  0
LINE
  5
1AB32
  8
01
 10
2695.458095297086
 20
-200.6313102143949
 30
0.0000000001127646
 11
2695.458095297086
 21
-201.3313068811958
 31
0.0000000001127424
  0
ARC
  5
1AB33
  8
01
 10
2694.958095297086
 20
-200.6313102143949
 30
0.0000000001127646
 40
0.5
 50
0.0
 51
90.0
  0
LINE
  5
1AB35
  8
01
 10
2542.008083332237
 20
-461.6313020159776
 30
0.0000000000564849
 11
2542.008083332237
 21
-422.631302015978
 31
0.0000000000564849
  0
LINE
  5
1AB36
  8
01
 10
2535.708083332232
 20
-462.1313020159778
 30
0.0000000000564849
 11
2541.508083332237
 21
-462.1313020159776
 31
0.0000000000564849
  0
ARC
  5
1AB37
  8
01
 10
2541.508083332237
 20
-461.6313020159776
 30
0.0000000000564849
 40
0.5
 50
270.0
 51
0.0
  0
LINE
  5
1AB38
  8
01
 10
2535.708083332237
 20
-422.1313020159776
 30
0.0000000000564849
 11
2541.508083332237
 21
-422.131302015978
 31
0.0000000000564849
  0
ARC
  5
1AB39
  8
01
 10
2541.508083332237
 20
-422.631302015978
 30
0.0000000000564849
 40
0.5
 50
0.0
 51
90.0
  0
LINE
  5
1AB3A
  8
01
 10
2542.750067021198
 20
-444.1313055592291
 30
0.0000000001127388
 11
2542.008083332236
 21
-444.1313055592293
 31
0.0000000001127388
  0
LINE
  5
1AB3B
  8
01
 10
2542.750067021198
 20
-451.1313055592291
 30
0.0000000001127388
 11
2542.008083332236
 21
-451.1313055592291
 31
0.0000000001127388
  0
ARC
  5
1AB3C
  8
01
 10
2537.876667021197
 20
-447.6313055592291
 30
0.0000000001127388
 40
6.0
 50
324.3146699999868
 51
35.68533471265081
  0
LINE
  5
1AB40
  8
01
 10
2629.707966992491
 20
-419.6313068801676
 30
0.0000000001127424
 11
2643.707966992491
 21
-419.6313068801676
 31
0.0000000001127424
  0
LINE
  5
1AB41
  8
01
 10
2634.708851174551
 20
-207.6313068811962
 30
0.0000000001127424
 11
2788.463231329583
 21
-207.6313068811962
 31
0.0000000001127424
  0
LINE
  5
1AB42
  8
01
  6
BYBLOCK
 10
2634.708851174551
 20
-207.6313068811962
 30
0.0000000001127424
 11
2634.708851174551
 21
-247.6313068811962
 31
0.0000000001127424
  0
LINE
  5
1AB46
  8
01
 10
2685.707966992489
 20
-212.6313068822249
 30
0.0000000001127424
 11
2685.707966992489
 21
-181.7132266929759
 31
0.0000000001127424
  0
LINE
  5
1AB47
  8
01
  6
BYBLOCK
 10
2636.207966992491
 20
-411.7313068801675
 30
0.0000000001127424
 11
2636.207966992491
 21
-541.5313068801674
 31
0.0000000001127424
  0
LINE
  5
1AB48
  8
01
  6
BYBLOCK
 10
2636.207966992491
 20
-540.6313068801676
 30
0.0000000001127424
 11
2638.707966992491
 21
-540.6313068801676
 31
0.0000000001127424
  0
LINE
  5
1AB49
  8
01
  6
BYBLOCK
 10
2638.707966992491
 20
-540.6313068801676
 30
0.0000000001127424
 11
2638.707966992491
 21
-524.1283631550152
 31
0.0000000001127424
  0
LINE
  5
1AB4A
  8
01
  6
BYBLOCK
 10
2634.707966992491
 20
-411.7313068801675
 30
0.0000000001127424
 11
2634.707966992491
 21
-541.5313068801674
 31
0.0000000001127424
  0
LINE
  5
1AB4B
  8
01
  6
BYBLOCK
 10
2634.707966992491
 20
-541.5313068801674
 30
0.0000000001127424
 11
2636.207966992491
 21
-541.5313068801674
 31
0.0000000001127424
  0
LINE
  5
1AB4C
  8
01
  6
BYBLOCK
 10
2636.207966992491
 20
-412.6313068801676
 30
0.0000000001127424
 11
2638.707966992491
 21
-412.6313068801676
 31
0.0000000001127424
  0
LINE
  5
1AB4D
  8
01
  6
BYBLOCK
 10
2634.707966992491
 20
-411.7313068801675
 30
0.0000000001127424
 11
2636.207966992491
 21
-411.7313068801675
 31
0.0000000001127424
  0
LINE
  5
1AB4E
  8
01
  6
BYBLOCK
 10
2636.207966992491
 20
-436.6313068801676
 30
0.0000000001127424
 11
2637.40796699249
 21
-436.6313068801676
 31
0.0000000001127424
  0
LINE
  5
1AB4F
  8
01
  6
BYBLOCK
 10
2637.40796699249
 20
-430.9313068801673
 30
0.0000000001127424
 11
2637.40796699249
 21
-522.3313068801674
 31
0.0000000001127424
  0
LINE
  5
1AB50
  8
01
  6
BYBLOCK
 10
2637.507966992491
 20
-540.6313068801676
 30
0.0000000001127424
 11
2637.507966992491
 21
-524.0313068801674
 31
0.0000000001127424
  0
LINE
  5
1AB51
  8
01
  6
BYBLOCK
 10
2637.507966992491
 20
-524.0313068801674
 30
0.0000000001127424
 11
2636.559438855066
 21
-523.0827787427436
 31
0.0000000001127424
  0
LINE
  5
1AB52
  8
01
  6
BYBLOCK
 10
2638.356495129914
 20
-523.2798350175913
 30
0.0000000001127424
 11
2637.40796699249
 21
-522.3313068801674
 31
0.0000000001127424
  0
ARC
  5
1AB53
  8
01
  6
BYBLOCK
 10
2637.507966992491
 20
-524.1283631550152
 30
0.0000000001127424
 40
1.2
 50
0.0
 51
45.00000000004606
  0
ARC
  5
1AB54
  8
01
  6
BYBLOCK
 10
2637.40796699249
 20
-522.2342506053196
 30
0.0000000001127424
 40
1.2
 50
180.0
 51
225.000000000046
  0
LINE
  5
1AB55
  8
01
  6
BYBLOCK
 10
2638.707966992491
 20
-412.6313068801676
 30
0.0000000001127424
 11
2638.707966992491
 21
-429.1342506053197
 31
0.0000000001127424
  0
LINE
  5
1AB56
  8
01
  6
BYBLOCK
 10
2637.507966992491
 20
-412.6313068801676
 30
0.0000000001127424
 11
2637.507966992491
 21
-429.2313068801675
 31
0.0000000001127424
  0
LINE
  5
1AB57
  8
01
  6
BYBLOCK
 10
2637.507966992491
 20
-429.2313068801675
 30
0.0000000001127424
 11
2636.559438855066
 21
-430.1798350175914
 31
0.0000000001127424
  0
LINE
  5
1AB58
  8
01
  6
BYBLOCK
 10
2638.356495129914
 20
-429.9827787427437
 30
0.0000000001127424
 11
2637.40796699249
 21
-430.9313068801675
 31
0.0000000001127424
  0
ARC
  5
1AB59
  8
01
  6
BYBLOCK
 10
2637.507966992491
 20
-429.1342506053197
 30
0.0000000001127424
 40
1.2
 50
314.999999999954
 51
0.0
  0
ARC
  5
1AB5A
  8
01
  6
BYBLOCK
 10
2637.40796699249
 20
-431.0283631550153
 30
0.0000000001127424
 40
1.2
 50
134.9999999999539
 51
180.0
  0
CIRCLE
  5
1AB5B
  8
1HIDDEN
 10
2685.707966992491
 20
-447.6313068801676
 30
0.0000000001127424
 40
4.75
  0
LINE
  5
1AB5C
  8
01
  6
BYBLOCK
 10
2637.40796699249
 20
-513.6313068801678
 30
0.0000000001127424
 11
2666.498594280191
 21
-513.6313068801676
 31
0.0000000001127424
  0
ARC
  5
1AB5D
  8
01
  6
BYBLOCK
 10
2637.808851174551
 20
-224.0700563381963
 30
0.0000000001127424
 40
1.6
 50
115.944479772022
 51
180.0
  0
ARC
  5
1AB5E
  8
01
  6
BYBLOCK
 10
2637.808851174551
 20
-231.1925574241961
 30
0.0000000001127424
 40
1.6
 50
180.0
 51
244.055520227978
  0
ARC
  5
1AB5F
  8
01
  6
BYBLOCK
 10
2637.10885117455
 20
-232.4700563381962
 30
0.0000000001127424
 40
1.6
 50
0.0
 51
64.05552022797804
  0
ARC
  5
1AB60
  8
01
  6
BYBLOCK
 10
2637.10885117455
 20
-222.7925574241963
 30
0.0000000001127424
 40
1.6
 50
295.944479772022
 51
0.0
  0
LINE
  5
1AB61
  8
01
  6
BYBLOCK
 10
2638.708851174551
 20
-222.7925574241963
 30
0.0000000001127424
 11
2638.708851174551
 21
-215.4313068811962
 31
0.0000000001127424
  0
LINE
  5
1AB62
  8
01
  6
BYBLOCK
 10
2637.808851174551
 20
-231.0313068811963
 30
0.0000000001127424
 11
2637.808851174551
 21
-224.2313068811961
 31
0.0000000001127424
  0
LINE
  5
1AB63
  8
01
  6
BYBLOCK
 10
2638.708851174551
 20
-239.6313068811962
 30
0.0000000001127424
 11
2638.708851174551
 21
-232.4700563381962
 31
0.0000000001127424
  0
LINE
  5
1AB64
  8
01
  6
BYBLOCK
 10
2637.10885117455
 20
-222.6313068811962
 30
0.0000000001127424
 11
2637.108851174551
 21
-215.4313068811962
 31
0.0000000001127424
  0
LINE
  5
1AB65
  8
01
  6
BYBLOCK
 10
2637.10885117455
 20
-232.6313068811962
 30
0.0000000001127424
 11
2637.10885117455
 21
-239.7313068811961
 31
0.0000000001127424
  0
ARC
  5
1AB66
  8
01
  6
BYBLOCK
 10
2702.10885117455
 20
-219.7313068811961
 30
0.0000000001127424
 40
1.6
 50
0.0
 51
90.0
  0
LINE
  5
1AB67
  8
01
  6
BYBLOCK
 10
2636.208851174551
 20
-215.2313068811961
 30
0.0000000001127424
 11
2636.208851174551
 21
-240.0313068811961
 31
0.0000000001127424
  0
LINE
  5
1AB68
  8
01
  6
BYBLOCK
 10
2702.10885117455
 20
-218.1313068811962
 30
0.0000000001127424
 11
2638.708851174551
 21
-218.1313068811962
 31
0.0000000001127424
  0
LINE
  5
1AB69
  8
01
  6
BYBLOCK
 10
2702.10885117455
 20
-235.3313068811963
 30
0.0000000001127424
 11
2702.10885117455
 21
-218.1313068811962
 31
0.0000000001127424
  0
LINE
  5
1AB6A
  8
01
  6
BYBLOCK
 10
2703.708851174551
 20
-236.9313068811962
 30
0.0000000001127424
 11
2703.708851174551
 21
-219.7313068811961
 31
0.0000000001127424
  0
LINE
  5
1AB6B
  8
01
  6
BYBLOCK
 10
2636.208851174551
 20
-215.4313068811962
 30
0.0000000001127424
 11
2638.708851174551
 21
-215.4313068811962
 31
0.0000000001127424
  0
LINE
  5
1AB6C
  8
01
  6
BYBLOCK
 10
2638.708851174551
 20
-239.6313068811962
 30
0.0000000001127424
 11
2637.10885117455
 21
-239.6313068811962
 31
0.0000000001127424
  0
LINE
  5
1AB6D
  8
01
  6
BYBLOCK
 10
2637.10885117455
 20
-239.7313068811961
 30
0.0000000001127424
 11
2636.208851174551
 21
-239.7313068811961
 31
0.0000000001127424
  0
ARC
  5
1AB6E
  8
01
  6
BYBLOCK
 10
2633.409446101949
 20
-233.3313068811956
 30
0.0000000001127424
 40
0.3000000000000051
 50
232.8678058729389
 51
270.0
  0
LINE
  5
1AB6F
  8
01
  6
BYBLOCK
 10
2634.208851174551
 20
-233.6313068811955
 30
0.0000000001127424
 11
2633.409446101949
 21
-233.6313068811955
 31
0.0000000001127424
  0
LINE
  5
1AB70
  8
01
  6
BYBLOCK
 10
2623.808851174551
 20
-223.9583180149914
 30
0.0000000001127424
 11
2623.808851174551
 21
-224.1289400705405
 31
0.0000000001127424
  0
ARC
  5
1AB71
  8
01
  6
BYBLOCK
 10
2624.10885117455
 20
-224.1289400705405
 30
0.0000000001127424
 40
0.3
 50
180.0
 51
217.7405295629614
  0
ARC
  5
1AB72
  8
01
  6
BYBLOCK
 10
2663.411151773835
 20
-193.7082371265997
 30
0.0000000001127424
 40
50.00000000000002
 50
217.7405295629745
 51
232.8678058729532
  0
LINE
  5
1AB73
  8
01
  6
BYBLOCK
 10
2623.60885117455
 20
-222.831306881196
 30
0.0000000001127424
 11
2623.60885117455
 21
-222.1313068811962
 31
0.0000000001127424
  0
ARC
  5
1AB74
  8
01
  6
BYBLOCK
 10
2624.10885117455
 20
-222.1313068811962
 30
0.0000000001127424
 40
0.5000000000000142
 50
90.0
 51
180.0
  0
LINE
  5
1AB75
  8
01
  6
BYBLOCK
 10
2634.208851174551
 20
-221.6313068811962
 30
0.0000000001127424
 11
2624.10885117455
 21
-221.6313068811962
 31
0.0000000001127424
  0
LINE
  5
1AB76
  8
01
  6
BYBLOCK
 10
2623.60885117455
 20
-223.2099865376365
 30
0.0000000001127424
 11
2623.60885117455
 21
-222.831306881196
 31
0.0000000001127424
  0
POLYLINE
  5
1AB77
  8
01
  6
BYBLOCK
 66
     1
 10
0.0
 20
0.0
 30
0.0000000001127424
  0
VERTEX
  5
1B822
  8
01
  6
BYBLOCK
 10
2623.634583715815
 20
-223.4866369670856
 30
0.0000000001127424
  0
VERTEX
  5
1B823
  8
01
  6
BYBLOCK
 10
2623.632448095651
 20
-223.4750004837552
 30
0.0000000001127424
  0
VERTEX
  5
1B824
  8
01
  6
BYBLOCK
 10
2623.630407935108
 20
-223.4633634934991
 30
0.0000000001127424
  0
VERTEX
  5
1B825
  8
01
  6
BYBLOCK
 10
2623.628462826819
 20
-223.4517273624643
 30
0.0000000001127424
  0
VERTEX
  5
1B826
  8
01
  6
BYBLOCK
 10
2623.626612363415
 20
-223.4400934567983
 30
0.0000000001127424
  0
VERTEX
  5
1B827
  8
01
  6
BYBLOCK
 10
2623.624856137527
 20
-223.4284631426481
 30
0.0000000001127424
  0
VERTEX
  5
1B828
  8
01
  6
BYBLOCK
 10
2623.62319374179
 20
-223.4168377861611
 30
0.0000000001127424
  0
VERTEX
  5
1B829
  8
01
  6
BYBLOCK
 10
2623.621624768833
 20
-223.4052187534844
 30
0.0000000001127424
  0
VERTEX
  5
1B82A
  8
01
  6
BYBLOCK
 10
2623.62014881129
 20
-223.3936074107653
 30
0.0000000001127424
  0
VERTEX
  5
1B82B
  8
01
  6
BYBLOCK
 10
2623.618765461792
 20
-223.3820051241511
 30
0.0000000001127424
  0
VERTEX
  5
1B82C
  8
01
  6
BYBLOCK
 10
2623.617474312971
 20
-223.3704132597889
 30
0.0000000001127424
  0
VERTEX
  5
1B82D
  8
01
  6
BYBLOCK
 10
2623.616274957461
 20
-223.3588331838261
 30
0.0000000001127424
  0
VERTEX
  5
1B82E
  8
01
  6
BYBLOCK
 10
2623.615166987891
 20
-223.3472662624097
 30
0.0000000001127424
  0
VERTEX
  5
1B82F
  8
01
  6
BYBLOCK
 10
2623.614149996895
 20
-223.3357138616872
 30
0.0000000001127424
  0
VERTEX
  5
1B830
  8
01
  6
BYBLOCK
 10
2623.613223577105
 20
-223.3241773478056
 30
0.0000000001127424
  0
VERTEX
  5
1B831
  8
01
  6
BYBLOCK
 10
2623.612387321151
 20
-223.3126580869123
 30
0.0000000001127424
  0
VERTEX
  5
1B832
  8
01
  6
BYBLOCK
 10
2623.611640821668
 20
-223.3011574451544
 30
0.0000000001127424
  0
VERTEX
  5
1B833
  8
01
  6
BYBLOCK
 10
2623.610983671287
 20
-223.2896767886792
 30
0.0000000001127424
  0
VERTEX
  5
1B834
  8
01
  6
BYBLOCK
 10
2623.610415462639
 20
-223.2782174836339
 30
0.0000000001127424
  0
VERTEX
  5
1B835
  8
01
  6
BYBLOCK
 10
2623.609935788356
 20
-223.2667808961659
 30
0.0000000001127424
  0
VERTEX
  5
1B836
  8
01
  6
BYBLOCK
 10
2623.609544241071
 20
-223.2553683924222
 30
0.0000000001127424
  0
VERTEX
  5
1B837
  8
01
  6
BYBLOCK
 10
2623.609240413417
 20
-223.2439813385501
 30
0.0000000001127424
  0
VERTEX
  5
1B838
  8
01
  6
BYBLOCK
 10
2623.609023898023
 20
-223.2326211006969
 30
0.0000000001127424
  0
VERTEX
  5
1B839
  8
01
  6
BYBLOCK
 10
2623.608894287524
 20
-223.2212890450098
 30
0.0000000001127424
  0
VERTEX
  5
1B83A
  8
01
  6
BYBLOCK
 10
2623.60885117455
 20
-223.209986537636
 30
0.0000000001127424
  0
SEQEND
  5
1BC31
  8
01
  6
BYBLOCK
  0
ARC
  5
1AB78
  8
01
  6
BYBLOCK
 10
2625.10885117455
 20
-223.2099865376365
 30
0.0000000001127424
 40
1.499999999999998
 50
190.628112987605
 51
225.000000000046
  0
LINE
  5
1AB79
  8
01
  6
BYBLOCK
 10
2634.708851174551
 20
-220.7813068811961
 30
0.0000000001127424
 11
2634.208851174551
 21
-220.7813068811961
 31
0.0000000001127424
  0
LINE
  5
1AB7A
  8
01
  6
BYBLOCK
 10
2634.208851174551
 20
-234.4813068811961
 30
0.0000000001127424
 11
2634.708851174551
 21
-234.4813068811961
 31
0.0000000001127424
  0
LINE
  5
1AB7B
  8
01
  6
BYBLOCK
 10
2634.208851174551
 20
-234.4813068811961
 30
0.0000000001127424
 11
2634.208851174551
 21
-220.7813068811961
 31
0.0000000001127424
  0
LINE
  5
1AB7C
  8
01
  6
BYBLOCK
 10
2634.708851174551
 20
-215.2313068811961
 30
0.0000000001127424
 11
2636.208851174551
 21
-215.2313068811961
 31
0.0000000001127424
  0
LINE
  5
1AB7D
  8
01
  6
BYBLOCK
 10
2634.708851174551
 20
-240.0313068811961
 30
0.0000000001127424
 11
2636.208851174551
 21
-240.0313068811961
 31
0.0000000001127424
  0
LINE
  5
1AB7E
  8
01
  6
BYBLOCK
 10
2634.708851174551
 20
-240.0313068811961
 30
0.0000000001127424
 11
2634.708851174551
 21
-215.2313068811961
 31
0.0000000001127424
  0
LINE
  5
1AB7F
  8
01
  6
BYBLOCK
 10
2703.708851174551
 20
-235.3313068811963
 30
0.0000000001127424
 11
2638.708851174551
 21
-235.3313068811963
 31
0.0000000001127424
  0
LINE
  5
1AB80
  8
01
  6
BYBLOCK
 10
2703.708851174551
 20
-236.9313068811962
 30
0.0000000001127424
 11
2653.308851174551
 21
-236.9313068811962
 31
0.0000000001127424
  0
LINE
  5
1AB81
  8
01
  6
BYBLOCK
 10
2656.146109474754
 20
-236.9313068811962
 30
0.0000000001127424
 11
2638.708851174551
 21
-236.9313068811962
 31
0.0000000001127424
  0
LINE
  5
1AB82
  8
01
  6
BYBLOCK
 10
2633.262404565144
 20
-233.4848602717896
 30
0.0000000001127424
 11
2624.04819100277
 21
-224.2706467094165
 31
0.0000000001127424
  0
ARC
  5
1AB83
  8
01
  6
BYBLOCK
 10
2633.615957955737
 20
-233.1313068811962
 30
0.0000000001127424
 40
0.5
 50
224.9999999999908
 51
270.0
  0
LINE
  5
1AB84
  8
01
  6
BYBLOCK
 10
2634.208851174551
 20
-233.6313068811962
 30
0.0000000001127424
 11
2633.615957955737
 21
-233.6313068811962
 31
0.0000000001127424
  0
LINE
  5
1AB86
  8
01
  6
BYBLOCK
 10
2623.707966992491
 20
-466.5996366131515
 30
0.0000000001127424
 11
2623.707966992491
 21
-484.6629771471573
 31
0.0000000001127424
  0
LINE
  5
1AB87
  8
01
  6
BYBLOCK
 10
2628.000860211304
 20
-465.6313068801544
 30
0.0000000001127424
 11
2634.707966992491
 21
-465.6313068801544
 31
0.0000000001127424
  0
LINE
  5
1AB88
  8
01
  6
BYBLOCK
 10
2628.000860211304
 20
-485.6313068801544
 30
0.0000000001127424
 11
2634.707966992491
 21
-485.6313068801544
 31
0.0000000001127424
  0
LINE
  5
1AB89
  8
01
  6
BYBLOCK
 10
2633.500860211305
 20
-470.3813068801544
 30
0.0000000001127424
 11
2633.500860211304
 21
-480.8813068801544
 31
0.0000000001127424
  0
ARC
  5
1AB8A
  8
01
  6
BYBLOCK
 10
2628.000860211304
 20
-475.6313068801544
 30
0.0000000001127424
 40
10.00000000000009
 50
53.13010235413383
 51
115.4224671781395
  0
ARC
  5
1AB8B
  8
01
  6
BYBLOCK
 10
2628.000860211304
 20
-475.6313068801542
 30
0.0000000001127424
 40
10.00000000000009
 50
244.5775328218606
 51
306.8698976458558
  0
LINE
  5
1AB8C
  8
01
  6
BYBLOCK
 10
2634.000860211305
 20
-467.6313068801544
 30
0.0000000001127424
 11
2634.000860211305
 21
-483.6313068801544
 31
0.0000000001127424
  0
LINE
  5
1AB8D
  8
01
  6
BYBLOCK
 10
2623.707966992491
 20
-470.3813068801544
 30
0.0000000001127424
 11
2633.500860211305
 21
-470.3813068801544
 31
0.0000000001127424
  0
LINE
  5
1AB8E
  8
01
  6
BYBLOCK
 10
2623.707966992491
 20
-480.8813068801544
 30
0.0000000001127424
 11
2633.500860211305
 21
-480.8813068801544
 31
0.0000000001127424
  0
LINE
  5
1AB8F
  8
01
  6
BYBLOCK
 10
2509.308083332236
 20
-411.7313068801682
 30
0.0000000001127424
 11
2522.108083332235
 21
-411.7313068801682
 31
0.0000000001127424
  0
LINE
  5
1AB90
  8
01
  6
BYBLOCK
 10
2509.308083332236
 20
-541.5313068801681
 30
0.0000000001127424
 11
2522.108083332235
 21
-541.5313068801681
 31
0.0000000001127424
  0
LINE
  5
1AB91
  8
01
  6
BYBLOCK
 10
2503.308083332236
 20
-417.7313068801682
 30
0.0000000001127424
 11
2503.308083332236
 21
-535.5313068801681
 31
0.0000000001127424
  0
LINE
  5
1AB92
  8
01
  6
BYBLOCK
 10
2528.108083332235
 20
-417.7313068801682
 30
0.0000000001127424
 11
2528.108083332235
 21
-535.5313068801681
 31
0.0000000001127424
  0
ARC
  5
1AB93
  8
01
  6
BYBLOCK
 10
2509.308083332236
 20
-535.5313068801681
 30
0.0000000001127424
 40
6.0
 50
180.0
 51
270.0
  0
ARC
  5
1AB94
  8
01
  6
BYBLOCK
 10
2522.108083332235
 20
-535.5313068801681
 30
0.0000000001127424
 40
6.0
 50
270.0
 51
0.0
  0
ARC
  5
1AB95
  8
01
  6
BYBLOCK
 10
2509.308083332236
 20
-417.7313068801682
 30
0.0000000001127424
 40
6.0
 50
90.0
 51
180.0
  0
ARC
  5
1AB96
  8
01
  6
BYBLOCK
 10
2522.108083332235
 20
-417.7313068801682
 30
0.0000000001127424
 40
6.0
 50
0.0
 51
90.0
  0
CIRCLE
  5
1AB97
  8
01
  6
BYBLOCK
 10
2515.708083332235
 20
-533.631306880168
 30
0.0000000001127424
 40
2.75
  0
CIRCLE
  5
1AB98
  8
01
  6
BYBLOCK
 10
2515.708083332235
 20
-533.631306880168
 30
0.0000000001127424
 40
4.25
  0
CIRCLE
  5
1AB99
  8
01
  6
BYBLOCK
 10
2515.708083332235
 20
-419.6313068801683
 30
0.0000000001127424
 40
2.75
  0
CIRCLE
  5
1AB9A
  8
01
  6
BYBLOCK
 10
2515.708083332235
 20
-419.6313068801683
 30
0.0000000001127424
 40
4.25
  0
LINE
  5
1AB9B
  8
1CENTER
 10
2521.583108740141
 20
-533.6313068801683
 30
0.0000000001127424
 11
2509.833057924329
 21
-533.6313068801683
 31
0.0000000001127424
  0
LINE
  5
1AB9C
  8
1CENTER
 10
2515.708083332235
 20
-527.7562814722619
 30
0.0000000001127424
 11
2515.708083332235
 21
-539.5063322880744
 31
0.0000000001127424
  0
LINE
  5
1AB9D
  8
1CENTER
 10
2521.583108740141
 20
-419.6313068801683
 30
0.0000000001127424
 11
2509.833057924329
 21
-419.6313068801683
 31
0.0000000001127424
  0
LINE
  5
1AB9E
  8
1CENTER
 10
2515.708083332235
 20
-413.7562814722619
 30
0.0000000001127424
 11
2515.708083332235
 21
-425.5063322880744
 31
0.0000000001127424
  0
ARC
  5
1AB9F
  8
01
  6
BYBLOCK
 10
2515.708083332235
 20
-475.631306880168
 30
0.0000000001127424
 40
10.15
 50
231.9925780701392
 51
308.0074219298607
  0
LINE
  5
1ABA0
  8
01
  6
BYBLOCK
 10
2509.458083332235
 20
-467.6338072709152
 30
0.0000000001127424
 11
2509.458083332235
 21
-483.6288064894209
 31
0.0000000001127424
  0
LINE
  5
1ABA1
  8
01
  6
BYBLOCK
 10
2521.958083332235
 20
-467.6338072709152
 30
0.0000000001127424
 11
2521.958083332235
 21
-483.6288064894209
 31
0.0000000001127424
  0
ARC
  5
1ABA2
  8
01
  6
BYBLOCK
 10
2515.708083332235
 20
-475.631306880168
 30
0.0000000001127424
 40
10.15
 50
51.99257807013929
 51
128.0074219298607
  0
LINE
  5
1ABA3
  8
01
  6
BYBLOCK
 10
2511.208083332235
 20
-470.381306880168
 30
0.0000000001127424
 11
2511.208083332235
 21
-480.881306880168
 31
0.0000000001127424
  0
LINE
  5
1ABA4
  8
01
  6
BYBLOCK
 10
2521.208083332235
 20
-470.381306880168
 30
0.0000000001127424
 11
2521.208083332235
 21
-480.881306880168
 31
0.0000000001127424
  0
LINE
  5
1ABA5
  8
01
  6
BYBLOCK
 10
2511.708083332235
 20
-466.3027217784497
 30
0.0000000001127424
 11
2511.708083332235
 21
-470.3813068801683
 31
0.0000000001127424
  0
LINE
  5
1ABA6
  8
01
  6
BYBLOCK
 10
2510.208083332235
 20
-470.3813068801683
 30
0.0000000001127424
 11
2510.208083332235
 21
-480.881306880168
 31
0.0000000001127424
  0
LINE
  5
1ABA7
  8
01
  6
BYBLOCK
 10
2511.708083332235
 20
-480.881306880168
 30
0.0000000001127424
 11
2511.708083332235
 21
-484.9598919818864
 31
0.0000000001127424
  0
LINE
  5
1ABA8
  8
01
  6
BYBLOCK
 10
2510.208083332235
 20
-470.381306880168
 30
0.0000000001127424
 11
2521.208083332235
 21
-470.381306880168
 31
0.0000000001127424
  0
LINE
  5
1ABA9
  8
01
  6
BYBLOCK
 10
2510.208083332235
 20
-480.881306880168
 30
0.0000000001127424
 11
2521.208083332235
 21
-480.881306880168
 31
0.0000000001127424
  0
LINE
  5
1ABAB
  8
01
 10
2495.708199671978
 20
-377.6313068801678
 30
0.0000000001127424
 11
2495.708199671978
 21
-567.631306880168
 31
0.0000000001127424
  0
LINE
  5
1ABAC
  8
01
 10
2497.83648505441
 20
-497.631306880168
 30
0.0000000001127424
 11
2475.208199671978
 21
-497.631306880168
 31
0.0000000001127424
  0
LINE
  5
1ABAD
  8
01
 10
2629.707966992778
 20
-533.6313068798788
 30
0.0000000001127424
 11
2643.707966992778
 21
-533.6313068798788
 31
0.0000000001127424
  0
LINE
  5
1ABAE
  8
01
 10
2697.019855260031
 20
-447.6313068801676
 30
0.0000000001127424
 11
2674.396078724948
 21
-447.6313068801676
 31
0.0000000001127424
  0
LINE
  5
1ABAF
  8
01
 10
2685.707966992491
 20
-436.3194186126259
 30
0.0000000001127424
 11
2685.707966992491
 21
-458.9431951477093
 31
0.0000000001127424
  0
LINE
  5
1ABB0
  8
01
  6
BYBLOCK
 10
2407.708199671982
 20
-466.5996366131515
 30
0.0000000001127424
 11
2407.708199671982
 21
-484.6629771471573
 31
0.0000000001127424
  0
LINE
  5
1ABB1
  8
01
  6
BYBLOCK
 10
2403.415306453168
 20
-465.6313068801544
 30
0.0000000001127424
 11
2396.708199671982
 21
-465.6313068801544
 31
0.0000000001127424
  0
LINE
  5
1ABB2
  8
01
  6
BYBLOCK
 10
2403.415306453168
 20
-485.6313068801544
 30
0.0000000001127424
 11
2396.708199671982
 21
-485.6313068801544
 31
0.0000000001127424
  0
ARC
  5
1ABB3
  8
01
  6
BYBLOCK
 10
2403.415306453168
 20
-475.6313068801544
 30
0.0000000001127424
 40
10.00000000000009
 50
64.57753282186054
 51
90.0
  0
LINE
  5
1ABB4
  8
01
  6
CONTINUOUS
 10
2407.208199671982
 20
-483.9461010729851
 30
0.0000000001127424
 11
2396.708199671982
 21
-483.9461010729851
 31
0.0000000001127424
  0
ARC
  5
1ABB5
  8
01
  6
CONTINUOUS
 10
2407.246779918895
 20
-483.4839618421784
 30
0.0000000001127424
 40
0.4637468103423796
 50
265.2279066161988
 51
354.2577450626255
  0
LINE
  5
1ABB6
  8
01
  6
CONTINUOUS
 10
2407.708199671982
 20
-468.1479921066064
 30
0.0000000001127424
 11
2407.708199671982
 21
-483.1146216537022
 31
0.0000000001127424
  0
ARC
  5
1ABB7
  8
01
  6
CONTINUOUS
 10
2407.246779918895
 20
-467.77865191813
 30
0.0000000001127424
 40
0.4637468103423387
 50
5.742254937374508
 51
94.77209338380122
  0
ARC
  5
1ABB8
  8
01
  6
BYBLOCK
 10
2403.415306453168
 20
-475.6313068801542
 30
0.0000000001127424
 40
10.00000000000009
 50
270.0
 51
295.4224671781395
  0
LINE
  5
1ABB9
  8
01
  6
CONTINUOUS
 10
2396.708199671982
 20
-467.3165126873232
 30
0.0000000001127424
 11
2407.208199671982
 21
-467.3165126873232
 31
0.0000000001127424
  0
LINE
  5
1ABBA
  8
01
 10
2703.707966992491
 20
-480.2819553072704
 30
0.0000000001127424
 11
2703.707966992491
 21
-512.4313068801675
 31
0.0000000001127424
  0
ARC
  5
1ABBB
  8
01
 10
2702.707966992491
 20
-512.6313068801676
 30
0.0000000001127424
 40
1.0
 50
270.0
 51
0.0
  0
LINE
  5
1ABBC
  8
01
 10
2666.498594280192
 20
-513.6313068801676
 30
0.0000000001127424
 11
2702.707966992491
 21
-513.6313068801674
 31
0.0000000001127424
  0
LINE
  5
1ABBD
  8
01
 10
2375.708199671982
 20
-497.6313068801676
 30
0.0000000001127424
 11
2315.708199671982
 21
-497.6313068801676
 31
0.0000000001127424
  0
LINE
  5
1ABBE
  8
01
 10
2345.708199671982
 20
-467.6313068801676
 30
0.0000000001127424
 11
2345.708199671982
 21
-527.6313068801676
 31
0.0000000001127424
  0
LINE
  5
1ABBF
  8
01
  6
BYBLOCK
 10
2703.707966992491
 20
-450.8491879125893
 30
0.0000000001128561
 11
2703.707966992491
 21
-480.2819553072704
 31
0.0000000001127424
  0
LINE
  5
1ABC0
  8
01
  6
BYBLOCK
 10
2637.40796699249
 20
-439.6313068801676
 30
0.0000000001127424
 11
2665.864863914508
 21
-439.6313068801676
 31
0.0000000001128561
  0
ARC
  5
1ABC1
  8
1HIDDEN
 10
2702.707966992491
 20
-440.6313068801676
 30
0.0000000001127424
 40
1.0
 50
0.0
 51
90.0
  0
LINE
  5
1ABC2
  8
1HIDDEN
 10
2665.864863914508
 20
-439.6313068801676
 30
0.0000000001128561
 11
2702.707966992491
 21
-439.6313068801676
 31
0.0000000001127424
  0
LINE
  5
1ABC3
  8
1HIDDEN
 10
2703.707966992491
 20
-440.6313068801676
 30
0.0000000001127424
 11
2703.707966992491
 21
-450.8491879125893
 31
0.0000000001128561
  0
LINE
  5
1ABC4
  8
01
 10
2401.708199671982
 20
-419.6313068801676
 30
0.0000000001127424
 11
2387.708199671982
 21
-419.6313068801676
 31
0.0000000001127424
  0
LINE
  5
1ABC5
  8
01
  6
BYBLOCK
 10
2395.208199671982
 20
-411.7313068801675
 30
0.0000000001127424
 11
2395.208199671982
 21
-541.5313068801674
 31
0.0000000001127424
  0
LINE
  5
1ABC6
  8
01
  6
BYBLOCK
 10
2395.208199671982
 20
-540.6313068801676
 30
0.0000000001127424
 11
2392.708199671982
 21
-540.6313068801676
 31
0.0000000001127424
  0
LINE
  5
1ABC7
  8
01
  6
BYBLOCK
 10
2392.708199671982
 20
-540.6313068801676
 30
0.0000000001127424
 11
2392.708199671982
 21
-524.1283631550152
 31
0.0000000001127424
  0
LINE
  5
1ABC8
  8
01
  6
BYBLOCK
 10
2396.708199671982
 20
-411.7313068801675
 30
0.0000000001127424
 11
2396.708199671982
 21
-541.5313068801674
 31
0.0000000001127424
  0
LINE
  5
1ABC9
  8
01
  6
BYBLOCK
 10
2396.708199671982
 20
-541.5313068801674
 30
0.0000000001127424
 11
2395.208199671982
 21
-541.5313068801674
 31
0.0000000001127424
  0
LINE
  5
1ABCA
  8
01
  6
BYBLOCK
 10
2395.208199671982
 20
-412.6313068801676
 30
0.0000000001127424
 11
2392.708199671982
 21
-412.6313068801676
 31
0.0000000001127424
  0
LINE
  5
1ABCB
  8
01
  6
BYBLOCK
 10
2396.708199671982
 20
-411.7313068801675
 30
0.0000000001127424
 11
2395.208199671982
 21
-411.7313068801675
 31
0.0000000001127424
  0
LINE
  5
1ABCC
  8
01
  6
BYBLOCK
 10
2395.208199671982
 20
-436.6313068801676
 30
0.0000000001127424
 11
2394.008199671982
 21
-436.6313068801676
 31
0.0000000001127424
  0
LINE
  5
1ABCD
  8
01
  6
BYBLOCK
 10
2394.008199671982
 20
-430.9313068801673
 30
0.0000000001127424
 11
2394.008199671982
 21
-522.3313068801674
 31
0.0000000001127424
  0
LINE
  5
1ABCE
  8
01
  6
BYBLOCK
 10
2393.908199671981
 20
-540.6313068801676
 30
0.0000000001127424
 11
2393.908199671981
 21
-524.0313068801674
 31
0.0000000001127424
  0
LINE
  5
1ABCF
  8
01
  6
BYBLOCK
 10
2393.908199671981
 20
-524.0313068801674
 30
0.0000000001127424
 11
2394.856727809406
 21
-523.0827787427436
 31
0.0000000001127424
  0
LINE
  5
1ABD0
  8
01
  6
BYBLOCK
 10
2393.059671534558
 20
-523.2798350175913
 30
0.0000000001127424
 11
2394.008199671982
 21
-522.3313068801674
 31
0.0000000001127424
  0
ARC
  5
1ABD1
  8
01
  6
BYBLOCK
 10
2393.908199671981
 20
-524.1283631550152
 30
0.0000000001127424
 40
1.2
 50
134.9999999999539
 51
180.0
  0
ARC
  5
1ABD2
  8
01
  6
BYBLOCK
 10
2394.008199671982
 20
-522.2342506053196
 30
0.0000000001127424
 40
1.2
 50
314.999999999954
 51
0.0
  0
LINE
  5
1ABD3
  8
01
  6
BYBLOCK
 10
2392.708199671982
 20
-412.6313068801676
 30
0.0000000001127424
 11
2392.708199671982
 21
-429.1342506053197
 31
0.0000000001127424
  0
LINE
  5
1ABD4
  8
01
  6
BYBLOCK
 10
2393.908199671981
 20
-412.6313068801676
 30
0.0000000001127424
 11
2393.908199671981
 21
-429.2313068801675
 31
0.0000000001127424
  0
LINE
  5
1ABD5
  8
01
  6
BYBLOCK
 10
2393.908199671981
 20
-429.2313068801675
 30
0.0000000001127424
 11
2394.856727809406
 21
-430.1798350175914
 31
0.0000000001127424
  0
LINE
  5
1ABD6
  8
01
  6
BYBLOCK
 10
2393.059671534558
 20
-429.9827787427437
 30
0.0000000001127424
 11
2394.008199671982
 21
-430.9313068801675
 31
0.0000000001127424
  0
ARC
  5
1ABD7
  8
01
  6
BYBLOCK
 10
2393.908199671981
 20
-429.1342506053197
 30
0.0000000001127424
 40
1.2
 50
180.0
 51
225.000000000046
  0
ARC
  5
1ABD8
  8
01
  6
BYBLOCK
 10
2394.008199671982
 20
-431.0283631550153
 30
0.0000000001127424
 40
1.2
 50
0.0
 51
45.00000000004606
  0
LINE
  5
1ABD9
  8
01
  6
BYBLOCK
 10
2394.008199671982
 20
-513.6313068801678
 30
0.0000000001127424
 11
2364.917572384281
 21
-513.6313068801676
 31
0.0000000001127424
  0
LINE
  5
1ABDA
  8
01
  6
BYBLOCK
 10
2403.415306453168
 20
-465.6313068801544
 30
0.0000000001127424
 11
2396.708199671982
 21
-465.6313068801544
 31
0.0000000001127424
  0
LINE
  5
1ABDB
  8
01
  6
BYBLOCK
 10
2403.415306453168
 20
-485.6313068801544
 30
0.0000000001127424
 11
2396.708199671982
 21
-485.6313068801544
 31
0.0000000001127424
  0
LINE
  5
1ABDC
  8
01
 10
2401.708199671694
 20
-533.6313068798788
 30
0.0000000001127424
 11
2387.708199671694
 21
-533.6313068798788
 31
0.0000000001127424
  0
LINE
  5
1ABDD
  8
01
  6
BYBLOCK
 10
2327.708199671982
 20
-450.8491879125893
 30
0.0000000001128561
 11
2327.708199671982
 21
-480.2819553072704
 31
0.0000000001127424
  0
LINE
  5
1ABDE
  8
01
  6
BYBLOCK
 10
2394.008199671982
 20
-439.6313068801676
 30
0.0000000001127424
 11
2365.551302749965
 21
-439.6313068801676
 31
0.0000000001128561
  0
TEXT
  5
1ABE1
  8
1TEXT
 10
2327.708099332235
 20
-216.1313068801676
 30
0.0000000001127424
 40
20.0
  1
3-T1C-※-LJ
  0
LINE
  5
1ABFB
  8
01
  6
BYBLOCK
 10
2634.708851174551
 20
-247.6313068811962
 30
0.0000000001127424
 11
2788.463231329582
 21
-247.6313068811962
 31
0.0000000001127424
  0
LINE
  5
1ABFC
  8
01
 10
2685.708083332233
 20
-242.6313068811962
 30
0.0000000001127424
 11
2685.708083332233
 21
-269.1313068811962
 31
0.0000000001127424
  0
LINE
  5
1ABFD
  8
01
 10
2535.707966992491
 20
-377.6299885670649
 30
0.0000000001127424
 11
2535.707966992491
 21
-567.6299885670649
 31
0.0000000001127424
  0
LINE
  5
1ABFE
  8
1CENTER
 10
2550.207966992491
 20
-522.6299136681607
 30
0.0000000001127424
 11
2550.207966992491
 21
-504.6299885670649
 31
0.0000000001127424
  0
LINE
  5
1ABFF
  8
01
 10
2655.707966992491
 20
-497.6299885670649
 30
0.0000000001127424
 11
2715.707966992491
 21
-497.6299885670649
 31
0.0000000001127424
  0
LINE
  5
1AC00
  8
01
 10
2685.707966992491
 20
-467.6299885670649
 30
0.0000000001127424
 11
2685.707966992491
 21
-527.6299885670649
 31
0.0000000001127424
  0
LINE
  5
1AC01
  8
01
 10
2535.707966992491
 20
-472.6299885670649
 30
0.0000000001127424
 11
2535.707966992491
 21
-522.6299885670649
 31
0.0000000001127424
  0
LINE
  5
1AC02
  8
01
 10
2533.57968161006
 20
-497.6299885670649
 30
0.0000000001127424
 11
2556.207966992491
 21
-497.6299885670649
 31
0.0000000001127424
  0
POLYLINE
  5
1AC07
  8
01
 66
     1
 10
0.0
 20
0.0
 30
0.0000000001127424
  0
VERTEX
  5
1B83B
  8
01
 10
2556.059467667154
 20
-479.7345879481161
 30
0.0000000001127424
  0
VERTEX
  5
1B83C
  8
01
 10
2556.068080335369
 20
-479.7385476162429
 30
0.0000000001127424
  0
VERTEX
  5
1B83D
  8
01
 10
2556.076693399418
 20
-479.742506424072
 30
0.0000000001127424
  0
VERTEX
  5
1B83E
  8
01
 10
2556.085306859172
 20
-479.7464643715439
 30
0.0000000001127424
  0
VERTEX
  5
1B83F
  8
01
 10
2556.093920714501
 20
-479.7504214585992
 30
0.0000000001127424
  0
VERTEX
  5
1B840
  8
01
 10
2556.102534965277
 20
-479.754377685179
 30
0.0000000001127424
  0
VERTEX
  5
1B841
  8
01
 10
2556.111149611371
 20
-479.7583330512235
 30
0.0000000001127424
  0
VERTEX
  5
1B842
  8
01
 10
2556.119764652655
 20
-479.7622875566739
 30
0.0000000001127424
  0
VERTEX
  5
1B843
  8
01
 10
2556.128380088999
 20
-479.7662412014708
 30
0.0000000001127424
  0
VERTEX
  5
1B844
  8
01
 10
2556.136995920273
 20
-479.7701939855549
 30
0.0000000001127424
  0
VERTEX
  5
1B845
  8
01
 10
2556.14561214635
 20
-479.7741459088672
 30
0.0000000001127424
  0
VERTEX
  5
1B846
  8
01
 10
2556.1542287671
 20
-479.7780969713485
 30
0.0000000001127424
  0
VERTEX
  5
1B847
  8
01
 10
2556.162845782394
 20
-479.7820471729397
 30
0.0000000001127424
  0
VERTEX
  5
1B848
  8
01
 10
2556.171463192103
 20
-479.7859965135817
 30
0.0000000001127424
  0
VERTEX
  5
1B849
  8
01
 10
2556.180080996098
 20
-479.7899449932153
 30
0.0000000001127424
  0
VERTEX
  5
1B84A
  8
01
 10
2556.18869919425
 20
-479.7938926117817
 30
0.0000000001127424
  0
VERTEX
  5
1B84B
  8
01
 10
2556.197317786431
 20
-479.7978393692218
 30
0.0000000001127424
  0
SEQEND
  5
1BC32
  8
01
  0
POLYLINE
  5
1AC08
  8
01
 66
     1
 10
0.0
 20
0.0
 30
0.0000000001127424
  0
VERTEX
  5
1B84C
  8
01
 10
2556.222715940587
 20
-479.8137389916881
 30
0.0000000001127424
  0
VERTEX
  5
1B84D
  8
01
 10
2556.221255926838
 20
-479.812564852522
 30
0.0000000001127424
  0
VERTEX
  5
1B84E
  8
01
 10
2556.219776381891
 20
-479.8114127809886
 30
0.0000000001127424
  0
VERTEX
  5
1B84F
  8
01
 10
2556.218277808045
 20
-479.8102832581876
 30
0.0000000001127424
  0
VERTEX
  5
1B850
  8
01
 10
2556.216760723228
 20
-479.8091767498913
 30
0.0000000001127424
  0
VERTEX
  5
1B851
  8
01
 10
2556.215225660419
 20
-479.8080937059168
 30
0.0000000001127424
  0
VERTEX
  5
1B852
  8
01
 10
2556.213673167019
 20
-479.8070345595224
 30
0.0000000001127424
  0
VERTEX
  5
1B853
  8
01
 10
2556.212103804212
 20
-479.8059997268361
 30
0.0000000001127424
  0
VERTEX
  5
1B854
  8
01
 10
2556.210518146287
 20
-479.804989606312
 30
0.0000000001127424
  0
VERTEX
  5
1B855
  8
01
 10
2556.208916779937
 20
-479.8040045782207
 30
0.0000000001127424
  0
VERTEX
  5
1B856
  8
01
 10
2556.207300303537
 20
-479.8030450041715
 30
0.0000000001127424
  0
VERTEX
  5
1B857
  8
01
 10
2556.205669326401
 20
-479.8021112266709
 30
0.0000000001127424
  0
VERTEX
  5
1B858
  8
01
 10
2556.204024468012
 20
-479.8012035687158
 30
0.0000000001127424
  0
VERTEX
  5
1B859
  8
01
 10
2556.202366357247
 20
-479.8003223334238
 30
0.0000000001127424
  0
VERTEX
  5
1B85A
  8
01
 10
2556.20069563157
 20
-479.7994678037011
 30
0.0000000001127424
  0
VERTEX
  5
1B85B
  8
01
 10
2556.199012936228
 20
-479.79864024195
 30
0.0000000001127424
  0
VERTEX
  5
1B85C
  8
01
 10
2556.197318923422
 20
-479.7978398898128
 30
0.0000000001127424
  0
SEQEND
  5
1BC33
  8
01
  0
POLYLINE
  5
1AC09
  8
01
 66
     1
 10
0.0
 20
0.0
 30
0.0000000001127424
  0
VERTEX
  5
1B85D
  8
01
 10
2556.190121518769
 20
-479.7948541729927
 30
0.0000000001127424
  0
VERTEX
  5
1B85E
  8
01
 10
2556.189172353188
 20
-479.7945053266386
 30
0.0000000001127424
  0
VERTEX
  5
1B85F
  8
01
 10
2556.18821952392
 20
-479.7941656155838
 30
0.0000000001127424
  0
VERTEX
  5
1B860
  8
01
 10
2556.187263163015
 20
-479.7938350965545
 30
0.0000000001127424
  0
VERTEX
  5
1B861
  8
01
 10
2556.186303403676
 20
-479.7935138237278
 30
0.0000000001127424
  0
VERTEX
  5
1B862
  8
01
 10
2556.185340380201
 20
-479.7932018487026
 30
0.0000000001127424
  0
VERTEX
  5
1B863
  8
01
 10
2556.184374227914
 20
-479.7928992204726
 30
0.0000000001127424
  0
VERTEX
  5
1B864
  8
01
 10
2556.183405083108
 20
-479.7926059854005
 30
0.0000000001127424
  0
VERTEX
  5
1B865
  8
01
 10
2556.182433082982
 20
-479.7923221871951
 30
0.0000000001127424
  0
VERTEX
  5
1B866
  8
01
 10
2556.181458365567
 20
-479.792047866889
 30
0.0000000001127424
  0
VERTEX
  5
1B867
  8
01
 10
2556.180481069672
 20
-479.7917830628193
 30
0.0000000001127424
  0
VERTEX
  5
1B868
  8
01
 10
2556.179501334812
 20
-479.7915278106094
 30
0.0000000001127424
  0
VERTEX
  5
1B869
  8
01
 10
2556.17851930114
 20
-479.7912821431534
 30
0.0000000001127424
  0
VERTEX
  5
1B86A
  8
01
 10
2556.177535109386
 20
-479.7910460906016
 30
0.0000000001127424
  0
VERTEX
  5
1B86B
  8
01
 10
2556.176548900784
 20
-479.7908196803495
 30
0.0000000001127424
  0
VERTEX
  5
1B86C
  8
01
 10
2556.175560817009
 20
-479.7906029370265
 30
0.0000000001127424
  0
VERTEX
  5
1B86D
  8
01
 10
2556.174571000107
 20
-479.7903958824888
 30
0.0000000001127424
  0
SEQEND
  5
1BC34
  8
01
  0
POLYLINE
  5
1AC0A
  8
01
 10
0.0
 20
0.0
 30
0.0
 66
     1
 70
     8
  0
VERTEX
  5
1B86E
  8
01
 10
2557.628451744939
 20
-480.5117874469304
 30
0.0000000001127424
 70
    32
  0
VERTEX
  5
1B86F
  8
01
 10
2557.628476035974
 20
-480.5114842710676
 30
0.0000000001127424
 70
    32
  0
VERTEX
  5
1B870
  8
01
 10
2557.628500327009
 20
-480.5111810952048
 30
0.0000000001127424
 70
    32
  0
VERTEX
  5
1B871
  8
01
 10
2557.628524618044
 20
-480.510877919342
 30
0.0000000001127424
 70
    32
  0
VERTEX
  5
1B872
  8
01
 10
2557.628548909079
 20
-480.5105747434793
 30
0.0000000001127424
 70
    32
  0
VERTEX
  5
1B873
  8
01
 10
2557.628573200114
 20
-480.5102715676164
 30
0.0000000001127424
 70
    32
  0
VERTEX
  5
1B874
  8
01
 10
2557.628597491149
 20
-480.5099683917537
 30
0.0000000001127424
 70
    32
  0
VERTEX
  5
1B875
  8
01
 10
2557.628621782183
 20
-480.5096652158908
 30
0.0000000001127424
 70
    32
  0
VERTEX
  5
1B876
  8
01
 10
2557.628646073219
 20
-480.509362040028
 30
0.0000000001127424
 70
    32
  0
VERTEX
  5
1B877
  8
01
 10
2557.628670364254
 20
-480.5090588641652
 30
0.0000000001127424
 70
    32
  0
VERTEX
  5
1B878
  8
01
 10
2557.628694655288
 20
-480.5087556883024
 30
0.0000000001127424
 70
    32
  0
VERTEX
  5
1B879
  8
01
 10
2557.628718946323
 20
-480.5084525124395
 30
0.0000000001127424
 70
    32
  0
VERTEX
  5
1B87A
  8
01
 10
2557.628743237358
 20
-480.5081493365767
 30
0.0000000001127424
 70
    32
  0
VERTEX
  5
1B87B
  8
01
 10
2557.628767528394
 20
-480.5078461607138
 30
0.0000000001127424
 70
    32
  0
VERTEX
  5
1B87C
  8
01
 10
2557.628791819428
 20
-480.5075429848509
 30
0.0000000001127424
 70
    32
  0
VERTEX
  5
1B87D
  8
01
 10
2557.628816110464
 20
-480.5072398089881
 30
0.0000000001127424
 70
    32
  0
VERTEX
  5
1B87E
  8
01
 10
2557.628840401499
 20
-480.5069366331252
 30
0.0000000001127424
 70
    32
  0
SEQEND
  5
1BC35
  8
01
  0
LINE
  5
1AC0B
  8
01
 10
2541.407966992489
 20
-472.6299136681598
 30
0.0000000001127424
 11
2541.407966992489
 21
-522.6299136681607
 31
0.0000000001127424
  0
LINE
  5
1AC0C
  8
01
 10
2537.407966992489
 20
-472.6299136681598
 30
0.0000000001127424
 11
2537.407966992489
 21
-522.6299136681607
 31
0.0000000001127424
  0
LINE
  5
1AC0D
  8
01
 10
2541.407966992489
 20
-522.6299136681607
 30
0.0000000001127424
 11
2537.407966992489
 21
-522.6299136681607
 31
0.0000000001127424
  0
LINE
  5
1AC0E
  8
01
 10
2541.407966992489
 20
-472.6299136681598
 30
0.0000000001127424
 11
2537.407966992489
 21
-472.6299136681598
 31
0.0000000001127424
  0
ARC
  5
1AC0F
  8
01
 10
2603.565264367063
 20
-572.7295835218044
 30
0.0000000001127424
 40
74.97979918721913
 50
98.6087727063994
 51
118.0236299168886
  0
ARC
  5
1AC10
  8
01
 10
2630.313068016568
 20
-629.4558706309715
 30
0.0000000001127424
 40
137.6558010829148
 50
116.7580761817457
 51
125.3351083491007
  0
ARC
  5
1AC11
  8
01
 10
2520.059260933435
 20
-475.7540301790038
 30
0.0000000001127424
 40
51.50840420052681
 50
294.4859660151362
 51
306.5015976327637
  0
ARC
  5
1AC12
  8
01
 10
2578.003102741865
 20
-474.5270682228136
 30
0.0000000001127424
 40
10.55957840464655
 50
264.7064877114765
 51
272.347327989484
  0
ARC
  5
1AC13
  8
01
 10
2583.456298144744
 20
-401.9399611501256
 30
0.0000000001127424
 40
83.34983966754666
 50
257.3874064512713
 51
265.5773302881367
  0
ARC
  5
1AC14
  8
01
 10
3024.273559925979
 20
494.6626327002898
 30
0.0000000001127424
 40
1081.047914932037
 50
244.0191891617887
 51
244.4944528242154
  0
ARC
  5
1AC15
  8
01
 10
2574.358459996717
 20
-446.5789289173542
 30
0.0000000001127424
 40
37.81146723568217
 50
245.6625405545555
 51
256.0705420425804
  0
ARC
  5
1AC16
  8
01
 10
18333.4093659117
 20
32080.00444565743
 30
0.0000000001127424
 40
36180.95233566153
 50
244.1209527919309
 51
244.1373044022354
  0
ARC
  5
1AC17
  8
01
 10
2563.055975236553
 20
-520.108154846115
 30
0.0000000001127424
 40
39.4095161311463
 50
41.5620618476807
 51
55.05052839400258
  0
ARC
  5
1AC18
  8
01
 10
2569.623459222677
 20
-512.5030400731819
 30
0.0000000001127424
 40
29.43162331184761
 50
57.04920384907273
 51
75.17853118939972
  0
ARC
  5
1AC19
  8
01
 10
2565.133100878999
 20
-519.5032838529066
 30
0.0000000001127424
 40
37.46547413852948
 50
40.14337613942921
 51
42.97748033608497
  0
ARC
  5
1AC1A
  8
01
 10
2578.369940490445
 20
-483.8106137296134
 30
0.0000000001127424
 40
1.268871991168467
 50
272.9658518659851
 51
284.1781281936792
  0
ARC
  5
1AC1B
  8
01
 10
2578.618074545241
 20
-484.8004254492032
 30
0.0000000001127424
 40
0.248440728366443
 50
284.6085142048009
 51
306.1786146983602
  0
ARC
  5
1AC1C
  8
01
 10
2578.732317511548
 20
-484.959225928146
 30
0.0000000001127424
 40
0.052843953261427
 50
307.8333043117128
 51
349.3718737423646
  0
ARC
  5
1AC1D
  8
01
 10
2578.733344484836
 20
-484.9625966865103
 30
0.0000000001127424
 40
0.0513080807641571
 50
352.8620740455015
 51
22.24131455633427
  0
LINE
  5
1AC1E
  8
01
 10
2578.768514673488
 20
-484.9312232107666
 30
0.0000000001127424
 11
2577.152304216182
 21
-484.0506773622526
 31
0.0000000001127424
  0
ARC
  5
1AC1F
  8
01
 10
2578.74748143825
 20
-484.9652292765265
 30
0.0000000001127424
 40
0.0399851158945239
 50
33.47227103024409
 51
58.26261966209844
  0
ARC
  5
1AC20
  8
01
 10
2584.533204962187
 20
-416.7494837182337
 30
0.0000000001127424
 40
67.70471447197825
 50
258.700678769546
 51
263.7414015410403
  0
ARC
  5
1AC21
  8
01
 10
2566.826625183913
 20
-513.140960594638
 30
0.0000000001127424
 40
30.32600447172325
 50
81.57942311876897
 51
89.13287487198495
  0
ARC
  5
1AC22
  8
01
 10
2566.876402388255
 20
-485.7195138304421
 30
0.0000000001127424
 40
2.929796701681882
 50
81.9720382020952
 51
123.5732909411269
  0
ARC
  5
1AC23
  8
01
 10
2592.210667692953
 20
-496.5416156170047
 30
0.0000000001127424
 40
1.996953838373148
 50
310.0940408071498
 51
354.9307720048449
  0
ARC
  5
1AC24
  8
01
 10
2592.272059112581
 20
-496.5683207411628
 30
0.0000000001127424
 40
1.933558857340185
 50
355.55828288029
 51
38.74624229264009
  0
ARC
  5
1AC25
  8
01
 10
2592.215881081803
 20
-496.7852301880973
 30
0.0000000001127424
 40
1.813691215017145
 50
273.980537749734
 51
314.9303267466072
  0
LINE
  5
1AC26
  8
01
 10
2535.707966992491
 20
-520.1299885670649
 30
0.0000000001127424
 11
2537.407966992489
 21
-520.1299885670649
 31
0.0000000001127424
  0
LINE
  5
1AC27
  8
01
 10
2535.707966992491
 20
-475.1299885670649
 30
0.0000000001127424
 11
2537.407966992489
 21
-475.1299885670649
 31
0.0000000001127424
  0
POLYLINE
  5
1AC28
  8
01
 10
0.0
 20
0.0
 30
0.0
 66
     1
 70
     8
  0
VERTEX
  5
1B87F
  8
01
 10
2557.628451744939
 20
-480.5117874469304
 30
0.0000000001127424
 70
    32
  0
VERTEX
  5
1B880
  8
01
 10
2557.628476035974
 20
-480.5114842710676
 30
0.0000000001127424
 70
    32
  0
VERTEX
  5
1B881
  8
01
 10
2557.628500327009
 20
-480.5111810952048
 30
0.0000000001127424
 70
    32
  0
VERTEX
  5
1B882
  8
01
 10
2557.628524618044
 20
-480.510877919342
 30
0.0000000001127424
 70
    32
  0
VERTEX
  5
1B883
  8
01
 10
2557.628548909079
 20
-480.5105747434793
 30
0.0000000001127424
 70
    32
  0
VERTEX
  5
1B884
  8
01
 10
2557.628573200114
 20
-480.5102715676164
 30
0.0000000001127424
 70
    32
  0
VERTEX
  5
1B885
  8
01
 10
2557.628597491149
 20
-480.5099683917537
 30
0.0000000001127424
 70
    32
  0
VERTEX
  5
1B886
  8
01
 10
2557.628621782183
 20
-480.5096652158908
 30
0.0000000001127424
 70
    32
  0
VERTEX
  5
1B887
  8
01
 10
2557.628646073219
 20
-480.509362040028
 30
0.0000000001127424
 70
    32
  0
VERTEX
  5
1B888
  8
01
 10
2557.628670364254
 20
-480.5090588641652
 30
0.0000000001127424
 70
    32
  0
VERTEX
  5
1B889
  8
01
 10
2557.628694655288
 20
-480.5087556883024
 30
0.0000000001127424
 70
    32
  0
VERTEX
  5
1B88A
  8
01
 10
2557.628718946323
 20
-480.5084525124395
 30
0.0000000001127424
 70
    32
  0
VERTEX
  5
1B88B
  8
01
 10
2557.628743237358
 20
-480.5081493365767
 30
0.0000000001127424
 70
    32
  0
VERTEX
  5
1B88C
  8
01
 10
2557.628767528394
 20
-480.5078461607138
 30
0.0000000001127424
 70
    32
  0
VERTEX
  5
1B88D
  8
01
 10
2557.628791819428
 20
-480.5075429848509
 30
0.0000000001127424
 70
    32
  0
VERTEX
  5
1B88E
  8
01
 10
2557.628816110464
 20
-480.5072398089881
 30
0.0000000001127424
 70
    32
  0
VERTEX
  5
1B88F
  8
01
 10
2557.628840401499
 20
-480.5069366331252
 30
0.0000000001127424
 70
    32
  0
SEQEND
  5
1BC36
  8
01
  0
POLYLINE
  5
1AC29
  8
01
 10
0.0
 20
0.0
 30
0.0
 66
     1
 70
     8
  0
VERTEX
  5
1B890
  8
01
 10
2557.628451744939
 20
-480.5117874469304
 30
0.0000000001127424
 70
    32
  0
VERTEX
  5
1B891
  8
01
 10
2557.628476035974
 20
-480.5114842710676
 30
0.0000000001127424
 70
    32
  0
VERTEX
  5
1B892
  8
01
 10
2557.628500327009
 20
-480.5111810952048
 30
0.0000000001127424
 70
    32
  0
VERTEX
  5
1B893
  8
01
 10
2557.628524618044
 20
-480.510877919342
 30
0.0000000001127424
 70
    32
  0
VERTEX
  5
1B894
  8
01
 10
2557.628548909079
 20
-480.5105747434793
 30
0.0000000001127424
 70
    32
  0
VERTEX
  5
1B895
  8
01
 10
2557.628573200114
 20
-480.5102715676164
 30
0.0000000001127424
 70
    32
  0
VERTEX
  5
1B896
  8
01
 10
2557.628597491149
 20
-480.5099683917537
 30
0.0000000001127424
 70
    32
  0
VERTEX
  5
1B897
  8
01
 10
2557.628621782183
 20
-480.5096652158908
 30
0.0000000001127424
 70
    32
  0
VERTEX
  5
1B898
  8
01
 10
2557.628646073219
 20
-480.509362040028
 30
0.0000000001127424
 70
    32
  0
VERTEX
  5
1B899
  8
01
 10
2557.628670364254
 20
-480.5090588641652
 30
0.0000000001127424
 70
    32
  0
VERTEX
  5
1B89A
  8
01
 10
2557.628694655288
 20
-480.5087556883024
 30
0.0000000001127424
 70
    32
  0
VERTEX
  5
1B89B
  8
01
 10
2557.628718946323
 20
-480.5084525124395
 30
0.0000000001127424
 70
    32
  0
VERTEX
  5
1B89C
  8
01
 10
2557.628743237358
 20
-480.5081493365767
 30
0.0000000001127424
 70
    32
  0
VERTEX
  5
1B89D
  8
01
 10
2557.628767528394
 20
-480.5078461607138
 30
0.0000000001127424
 70
    32
  0
VERTEX
  5
1B89E
  8
01
 10
2557.628791819428
 20
-480.5075429848509
 30
0.0000000001127424
 70
    32
  0
VERTEX
  5
1B89F
  8
01
 10
2557.628816110464
 20
-480.5072398089881
 30
0.0000000001127424
 70
    32
  0
VERTEX
  5
1B8A0
  8
01
 10
2557.628840401499
 20
-480.5069366331252
 30
0.0000000001127424
 70
    32
  0
SEQEND
  5
1BC37
  8
01
  0
POLYLINE
  5
1AC2A
  8
01
 10
0.0
 20
0.0
 30
0.0
 66
     1
 70
     8
  0
VERTEX
  5
1B8A1
  8
01
 10
2557.628451744939
 20
-480.5117874469304
 30
0.0000000001127424
 70
    32
  0
VERTEX
  5
1B8A2
  8
01
 10
2557.628476035974
 20
-480.5114842710676
 30
0.0000000001127424
 70
    32
  0
VERTEX
  5
1B8A3
  8
01
 10
2557.628500327009
 20
-480.5111810952048
 30
0.0000000001127424
 70
    32
  0
VERTEX
  5
1B8A4
  8
01
 10
2557.628524618044
 20
-480.510877919342
 30
0.0000000001127424
 70
    32
  0
VERTEX
  5
1B8A5
  8
01
 10
2557.628548909079
 20
-480.5105747434793
 30
0.0000000001127424
 70
    32
  0
VERTEX
  5
1B8A6
  8
01
 10
2557.628573200114
 20
-480.5102715676164
 30
0.0000000001127424
 70
    32
  0
VERTEX
  5
1B8A7
  8
01
 10
2557.628597491149
 20
-480.5099683917537
 30
0.0000000001127424
 70
    32
  0
VERTEX
  5
1B8A8
  8
01
 10
2557.628621782183
 20
-480.5096652158908
 30
0.0000000001127424
 70
    32
  0
VERTEX
  5
1B8A9
  8
01
 10
2557.628646073219
 20
-480.509362040028
 30
0.0000000001127424
 70
    32
  0
VERTEX
  5
1B8AA
  8
01
 10
2557.628670364254
 20
-480.5090588641652
 30
0.0000000001127424
 70
    32
  0
VERTEX
  5
1B8AB
  8
01
 10
2557.628694655288
 20
-480.5087556883024
 30
0.0000000001127424
 70
    32
  0
VERTEX
  5
1B8AC
  8
01
 10
2557.628718946323
 20
-480.5084525124395
 30
0.0000000001127424
 70
    32
  0
VERTEX
  5
1B8AD
  8
01
 10
2557.628743237358
 20
-480.5081493365767
 30
0.0000000001127424
 70
    32
  0
VERTEX
  5
1B8AE
  8
01
 10
2557.628767528394
 20
-480.5078461607138
 30
0.0000000001127424
 70
    32
  0
VERTEX
  5
1B8AF
  8
01
 10
2557.628791819428
 20
-480.5075429848509
 30
0.0000000001127424
 70
    32
  0
VERTEX
  5
1B8B0
  8
01
 10
2557.628816110464
 20
-480.5072398089881
 30
0.0000000001127424
 70
    32
  0
VERTEX
  5
1B8B1
  8
01
 10
2557.628840401499
 20
-480.5069366331252
 30
0.0000000001127424
 70
    32
  0
SEQEND
  5
1BC38
  8
01
  0
POLYLINE
  5
1AC2B
  8
01
 10
0.0
 20
0.0
 30
0.0
 66
     1
 70
     8
  0
VERTEX
  5
1B8B2
  8
01
 10
2557.628451744939
 20
-480.5117874469304
 30
0.0000000001127424
 70
    32
  0
VERTEX
  5
1B8B3
  8
01
 10
2557.628476035974
 20
-480.5114842710676
 30
0.0000000001127424
 70
    32
  0
VERTEX
  5
1B8B4
  8
01
 10
2557.628500327009
 20
-480.5111810952048
 30
0.0000000001127424
 70
    32
  0
VERTEX
  5
1B8B5
  8
01
 10
2557.628524618044
 20
-480.510877919342
 30
0.0000000001127424
 70
    32
  0
VERTEX
  5
1B8B6
  8
01
 10
2557.628548909079
 20
-480.5105747434793
 30
0.0000000001127424
 70
    32
  0
VERTEX
  5
1B8B7
  8
01
 10
2557.628573200114
 20
-480.5102715676164
 30
0.0000000001127424
 70
    32
  0
VERTEX
  5
1B8B8
  8
01
 10
2557.628597491149
 20
-480.5099683917537
 30
0.0000000001127424
 70
    32
  0
VERTEX
  5
1B8B9
  8
01
 10
2557.628621782183
 20
-480.5096652158908
 30
0.0000000001127424
 70
    32
  0
VERTEX
  5
1B8BA
  8
01
 10
2557.628646073219
 20
-480.509362040028
 30
0.0000000001127424
 70
    32
  0
VERTEX
  5
1B8BB
  8
01
 10
2557.628670364254
 20
-480.5090588641652
 30
0.0000000001127424
 70
    32
  0
VERTEX
  5
1B8BC
  8
01
 10
2557.628694655288
 20
-480.5087556883024
 30
0.0000000001127424
 70
    32
  0
VERTEX
  5
1B8BD
  8
01
 10
2557.628718946323
 20
-480.5084525124395
 30
0.0000000001127424
 70
    32
  0
VERTEX
  5
1B8BE
  8
01
 10
2557.628743237358
 20
-480.5081493365767
 30
0.0000000001127424
 70
    32
  0
VERTEX
  5
1B8BF
  8
01
 10
2557.628767528394
 20
-480.5078461607138
 30
0.0000000001127424
 70
    32
  0
VERTEX
  5
1B8C0
  8
01
 10
2557.628791819428
 20
-480.5075429848509
 30
0.0000000001127424
 70
    32
  0
VERTEX
  5
1B8C1
  8
01
 10
2557.628816110464
 20
-480.5072398089881
 30
0.0000000001127424
 70
    32
  0
VERTEX
  5
1B8C2
  8
01
 10
2557.628840401499
 20
-480.5069366331252
 30
0.0000000001127424
 70
    32
  0
SEQEND
  5
1BC39
  8
01
  0
POLYLINE
  5
1AC2C
  8
01
 10
0.0
 20
0.0
 30
0.0
 66
     1
 70
     8
  0
VERTEX
  5
1B8C3
  8
01
 10
2557.628451744939
 20
-480.5117874469304
 30
0.0000000001127424
 70
    32
  0
VERTEX
  5
1B8C4
  8
01
 10
2557.628476035974
 20
-480.5114842710676
 30
0.0000000001127424
 70
    32
  0
VERTEX
  5
1B8C5
  8
01
 10
2557.628500327009
 20
-480.5111810952048
 30
0.0000000001127424
 70
    32
  0
VERTEX
  5
1B8C6
  8
01
 10
2557.628524618044
 20
-480.510877919342
 30
0.0000000001127424
 70
    32
  0
VERTEX
  5
1B8C7
  8
01
 10
2557.628548909079
 20
-480.5105747434793
 30
0.0000000001127424
 70
    32
  0
VERTEX
  5
1B8C8
  8
01
 10
2557.628573200114
 20
-480.5102715676164
 30
0.0000000001127424
 70
    32
  0
VERTEX
  5
1B8C9
  8
01
 10
2557.628597491149
 20
-480.5099683917537
 30
0.0000000001127424
 70
    32
  0
VERTEX
  5
1B8CA
  8
01
 10
2557.628621782183
 20
-480.5096652158908
 30
0.0000000001127424
 70
    32
  0
VERTEX
  5
1B8CB
  8
01
 10
2557.628646073219
 20
-480.509362040028
 30
0.0000000001127424
 70
    32
  0
VERTEX
  5
1B8CC
  8
01
 10
2557.628670364254
 20
-480.5090588641652
 30
0.0000000001127424
 70
    32
  0
VERTEX
  5
1B8CD
  8
01
 10
2557.628694655288
 20
-480.5087556883024
 30
0.0000000001127424
 70
    32
  0
VERTEX
  5
1B8CE
  8
01
 10
2557.628718946323
 20
-480.5084525124395
 30
0.0000000001127424
 70
    32
  0
VERTEX
  5
1B8CF
  8
01
 10
2557.628743237358
 20
-480.5081493365767
 30
0.0000000001127424
 70
    32
  0
VERTEX
  5
1B8D0
  8
01
 10
2557.628767528394
 20
-480.5078461607138
 30
0.0000000001127424
 70
    32
  0
VERTEX
  5
1B8D1
  8
01
 10
2557.628791819428
 20
-480.5075429848509
 30
0.0000000001127424
 70
    32
  0
VERTEX
  5
1B8D2
  8
01
 10
2557.628816110464
 20
-480.5072398089881
 30
0.0000000001127424
 70
    32
  0
VERTEX
  5
1B8D3
  8
01
 10
2557.628840401499
 20
-480.5069366331252
 30
0.0000000001127424
 70
    32
  0
SEQEND
  5
1BC3A
  8
01
  0
POLYLINE
  5
1AC2D
  8
01
 10
0.0
 20
0.0
 30
0.0
 66
     1
 70
     8
  0
VERTEX
  5
1B8D4
  8
01
 10
2557.628451744939
 20
-480.5117874469304
 30
0.0000000001127424
 70
    32
  0
VERTEX
  5
1B8D5
  8
01
 10
2557.628476035974
 20
-480.5114842710676
 30
0.0000000001127424
 70
    32
  0
VERTEX
  5
1B8D6
  8
01
 10
2557.628500327009
 20
-480.5111810952048
 30
0.0000000001127424
 70
    32
  0
VERTEX
  5
1B8D7
  8
01
 10
2557.628524618044
 20
-480.510877919342
 30
0.0000000001127424
 70
    32
  0
VERTEX
  5
1B8D8
  8
01
 10
2557.628548909079
 20
-480.5105747434793
 30
0.0000000001127424
 70
    32
  0
VERTEX
  5
1B8D9
  8
01
 10
2557.628573200114
 20
-480.5102715676164
 30
0.0000000001127424
 70
    32
  0
VERTEX
  5
1B8DA
  8
01
 10
2557.628597491149
 20
-480.5099683917537
 30
0.0000000001127424
 70
    32
  0
VERTEX
  5
1B8DB
  8
01
 10
2557.628621782183
 20
-480.5096652158908
 30
0.0000000001127424
 70
    32
  0
VERTEX
  5
1B8DC
  8
01
 10
2557.628646073219
 20
-480.509362040028
 30
0.0000000001127424
 70
    32
  0
VERTEX
  5
1B8DD
  8
01
 10
2557.628670364254
 20
-480.5090588641652
 30
0.0000000001127424
 70
    32
  0
VERTEX
  5
1B8DE
  8
01
 10
2557.628694655288
 20
-480.5087556883024
 30
0.0000000001127424
 70
    32
  0
VERTEX
  5
1B8DF
  8
01
 10
2557.628718946323
 20
-480.5084525124395
 30
0.0000000001127424
 70
    32
  0
VERTEX
  5
1B8E0
  8
01
 10
2557.628743237358
 20
-480.5081493365767
 30
0.0000000001127424
 70
    32
  0
VERTEX
  5
1B8E1
  8
01
 10
2557.628767528394
 20
-480.5078461607138
 30
0.0000000001127424
 70
    32
  0
VERTEX
  5
1B8E2
  8
01
 10
2557.628791819428
 20
-480.5075429848509
 30
0.0000000001127424
 70
    32
  0
VERTEX
  5
1B8E3
  8
01
 10
2557.628816110464
 20
-480.5072398089881
 30
0.0000000001127424
 70
    32
  0
VERTEX
  5
1B8E4
  8
01
 10
2557.628840401499
 20
-480.5069366331252
 30
0.0000000001127424
 70
    32
  0
SEQEND
  5
1BC3B
  8
01
  0
POLYLINE
  5
1AC2E
  8
01
 10
0.0
 20
0.0
 30
0.0
 66
     1
 70
     8
  0
VERTEX
  5
1B8E5
  8
01
 10
2557.628451744939
 20
-480.5117874469304
 30
0.0000000001127424
 70
    32
  0
VERTEX
  5
1B8E6
  8
01
 10
2557.628476035974
 20
-480.5114842710676
 30
0.0000000001127424
 70
    32
  0
VERTEX
  5
1B8E7
  8
01
 10
2557.628500327009
 20
-480.5111810952048
 30
0.0000000001127424
 70
    32
  0
VERTEX
  5
1B8E8
  8
01
 10
2557.628524618044
 20
-480.510877919342
 30
0.0000000001127424
 70
    32
  0
VERTEX
  5
1B8E9
  8
01
 10
2557.628548909079
 20
-480.5105747434793
 30
0.0000000001127424
 70
    32
  0
VERTEX
  5
1B8EA
  8
01
 10
2557.628573200114
 20
-480.5102715676164
 30
0.0000000001127424
 70
    32
  0
VERTEX
  5
1B8EB
  8
01
 10
2557.628597491149
 20
-480.5099683917537
 30
0.0000000001127424
 70
    32
  0
VERTEX
  5
1B8EC
  8
01
 10
2557.628621782183
 20
-480.5096652158908
 30
0.0000000001127424
 70
    32
  0
VERTEX
  5
1B8ED
  8
01
 10
2557.628646073219
 20
-480.509362040028
 30
0.0000000001127424
 70
    32
  0
VERTEX
  5
1B8EE
  8
01
 10
2557.628670364254
 20
-480.5090588641652
 30
0.0000000001127424
 70
    32
  0
VERTEX
  5
1B8EF
  8
01
 10
2557.628694655288
 20
-480.5087556883024
 30
0.0000000001127424
 70
    32
  0
VERTEX
  5
1B8F0
  8
01
 10
2557.628718946323
 20
-480.5084525124395
 30
0.0000000001127424
 70
    32
  0
VERTEX
  5
1B8F1
  8
01
 10
2557.628743237358
 20
-480.5081493365767
 30
0.0000000001127424
 70
    32
  0
VERTEX
  5
1B8F2
  8
01
 10
2557.628767528394
 20
-480.5078461607138
 30
0.0000000001127424
 70
    32
  0
VERTEX
  5
1B8F3
  8
01
 10
2557.628791819428
 20
-480.5075429848509
 30
0.0000000001127424
 70
    32
  0
VERTEX
  5
1B8F4
  8
01
 10
2557.628816110464
 20
-480.5072398089881
 30
0.0000000001127424
 70
    32
  0
VERTEX
  5
1B8F5
  8
01
 10
2557.628840401499
 20
-480.5069366331252
 30
0.0000000001127424
 70
    32
  0
SEQEND
  5
1BC3C
  8
01
  0
LINE
  5
1AC2F
  8
01
 10
2535.707966992491
 20
-475.1299885670649
 30
0.0000000001127424
 11
2535.707966992491
 21
-520.1299885670649
 31
0.0000000001127424
  0
LINE
  5
1AC30
  8
01
 10
2705.708082943675
 20
-249.331306881196
 30
0.0000000001127424
 11
2710.708083332233
 21
-249.331306881196
 31
0.0000000001127424
  0
LINE
  5
1AC31
  8
01
 10
2708.208083332232
 20
-247.6313068811962
 30
0.0000000001127424
 11
2708.208083332232
 21
-249.331306881196
 31
0.0000000001127424
  0
LINE
  5
1AC32
  8
01
 10
2663.208083332233
 20
-247.6313068811962
 30
0.0000000001127424
 11
2663.208083332233
 21
-249.331306881196
 31
0.0000000001127424
  0
POLYLINE
  5
1AC33
  8
01
 66
     1
 10
0.0
 20
0.0
 30
0.0000000001127424
  0
VERTEX
  5
1B8F6
  8
01
 10
2710.703967851287
 20
-253.3346008936526
 30
0.0000000001127424
  0
VERTEX
  5
1B8F7
  8
01
 10
2710.704174049073
 20
-253.3343971281576
 30
0.0000000001127424
  0
VERTEX
  5
1B8F8
  8
01
 10
2710.704380165671
 20
-253.3341932803088
 30
0.0000000001127424
  0
VERTEX
  5
1B8F9
  8
01
 10
2710.704586201032
 20
-253.3339893501547
 30
0.0000000001127424
  0
VERTEX
  5
1B8FA
  8
01
 10
2710.704792155106
 20
-253.3337853377438
 30
0.0000000001127424
  0
VERTEX
  5
1B8FB
  8
01
 10
2710.704998027844
 20
-253.3335812431249
 30
0.0000000001127424
  0
VERTEX
  5
1B8FC
  8
01
 10
2710.705203819198
 20
-253.3333770663465
 30
0.0000000001127424
  0
VERTEX
  5
1B8FD
  8
01
 10
2710.705409529117
 20
-253.3331728074573
 30
0.0000000001127424
  0
VERTEX
  5
1B8FE
  8
01
 10
2710.705615157553
 20
-253.3329684665061
 30
0.0000000001127424
  0
VERTEX
  5
1B8FF
  8
01
 10
2710.705820704457
 20
-253.3327640435415
 30
0.0000000001127424
  0
VERTEX
  5
1B900
  8
01
 10
2710.70602616978
 20
-253.3325595386126
 30
0.0000000001127424
  0
VERTEX
  5
1B901
  8
01
 10
2710.706231553472
 20
-253.332354951768
 30
0.0000000001127424
  0
VERTEX
  5
1B902
  8
01
 10
2710.706436855485
 20
-253.3321502830566
 30
0.0000000001127424
  0
VERTEX
  5
1B903
  8
01
 10
2710.706642075769
 20
-253.3319455325275
 30
0.0000000001127424
  0
VERTEX
  5
1B904
  8
01
 10
2710.706847214277
 20
-253.3317407002295
 30
0.0000000001127424
  0
VERTEX
  5
1B905
  8
01
 10
2710.707052270958
 20
-253.3315357862116
 30
0.0000000001127424
  0
VERTEX
  5
1B906
  8
01
 10
2710.707257245765
 20
-253.331330790523
 30
0.0000000001127424
  0
SEQEND
  5
1BC3D
  8
01
  0
POLYLINE
  5
1AC34
  8
01
 10
0.0
 20
0.0
 30
0.0
 66
     1
 70
     8
  0
VERTEX
  5
1B907
  8
01
 10
2717.920544142956
 20
-305.9159366839297
 30
0.0000000001127424
 70
    32
  0
VERTEX
  5
1B908
  8
01
 10
2717.920544142974
 20
-305.9161095133459
 30
0.0000000001127424
 70
    32
  0
VERTEX
  5
1B909
  8
01
 10
2717.920544142992
 20
-305.9162490492376
 30
0.0000000001127424
 70
    32
  0
VERTEX
  5
1B90A
  8
01
 10
2717.920544143008
 20
-305.9163552720252
 30
0.0000000001127424
 70
    32
  0
VERTEX
  5
1B90B
  8
01
 10
2717.920544143022
 20
-305.916428162129
 30
0.0000000001127424
 70
    32
  0
VERTEX
  5
1B90C
  8
01
 10
2717.920544143035
 20
-305.9164676999696
 30
0.0000000001127424
 70
    32
  0
VERTEX
  5
1B90D
  8
01
 10
2717.920544143046
 20
-305.9164738659674
 30
0.0000000001127424
 70
    32
  0
VERTEX
  5
1B90E
  8
01
 10
2717.920544143056
 20
-305.9164466405428
 30
0.0000000001127424
 70
    32
  0
VERTEX
  5
1B90F
  8
01
 10
2717.920544143066
 20
-305.9163860041162
 30
0.0000000001127424
 70
    32
  0
VERTEX
  5
1B910
  8
01
 10
2717.920544143074
 20
-305.916291937108
 30
0.0000000001127424
 70
    32
  0
VERTEX
  5
1B911
  8
01
 10
2717.920544143081
 20
-305.9161644199387
 30
0.0000000001127424
 70
    32
  0
VERTEX
  5
1B912
  8
01
 10
2717.920544143087
 20
-305.9160034330288
 30
0.0000000001127424
 70
    32
  0
VERTEX
  5
1B913
  8
01
 10
2717.920544143093
 20
-305.9158089567985
 30
0.0000000001127424
 70
    32
  0
VERTEX
  5
1B914
  8
01
 10
2717.920544143097
 20
-305.9155809716685
 30
0.0000000001127424
 70
    32
  0
VERTEX
  5
1B915
  8
01
 10
2717.920544143101
 20
-305.915319458059
 30
0.0000000001127424
 70
    32
  0
VERTEX
  5
1B916
  8
01
 10
2717.920544143104
 20
-305.9150243963905
 30
0.0000000001127424
 70
    32
  0
VERTEX
  5
1B917
  8
01
 10
2717.920544143106
 20
-305.9146957670836
 30
0.0000000001127424
 70
    32
  0
VERTEX
  5
1B918
  8
01
 10
2717.920544143109
 20
-305.9143335505585
 30
0.0000000001127424
 70
    32
  0
VERTEX
  5
1B919
  8
01
 10
2717.92054414311
 20
-305.9139377272358
 30
0.0000000001127424
 70
    32
  0
VERTEX
  5
1B91A
  8
01
 10
2717.920544143111
 20
-305.9135082775358
 30
0.0000000001127424
 70
    32
  0
VERTEX
  5
1B91B
  8
01
 10
2717.920544143111
 20
-305.913045181879
 30
0.0000000001127424
 70
    32
  0
VERTEX
  5
1B91C
  8
01
 10
2717.920544143112
 20
-305.9125484206858
 30
0.0000000001127424
 70
    32
  0
VERTEX
  5
1B91D
  8
01
 10
2717.920544143112
 20
-305.9120179743766
 30
0.0000000001127424
 70
    32
  0
VERTEX
  5
1B91E
  8
01
 10
2717.920544143112
 20
-305.911453823372
 30
0.0000000001127424
 70
    32
  0
VERTEX
  5
1B91F
  8
01
 10
2717.920544143112
 20
-305.9108559480921
 30
0.0000000001127424
 70
    32
  0
SEQEND
  5
1BC3E
  8
01
  0
POLYLINE
  5
1AC35
  8
01
 10
0.0
 20
0.0
 30
0.0
 66
     1
 70
     8
  0
VERTEX
  5
1B920
  8
01
 10
2674.536257499799
 20
-283.4908534354392
 30
0.0000000001127424
 70
    32
  0
VERTEX
  5
1B921
  8
01
 10
2674.535693187935
 20
-283.4909413466967
 30
0.0000000001127424
 70
    32
  0
VERTEX
  5
1B922
  8
01
 10
2674.535128876071
 20
-283.4910292579541
 30
0.0000000001127424
 70
    32
  0
VERTEX
  5
1B923
  8
01
 10
2674.534564564206
 20
-283.4911171692115
 30
0.0000000001127424
 70
    32
  0
VERTEX
  5
1B924
  8
01
 10
2674.534000252343
 20
-283.4912050804688
 30
0.0000000001127424
 70
    32
  0
VERTEX
  5
1B925
  8
01
 10
2674.533435940478
 20
-283.4912929917262
 30
0.0000000001127424
 70
    32
  0
VERTEX
  5
1B926
  8
01
 10
2674.532871628614
 20
-283.4913809029836
 30
0.0000000001127424
 70
    32
  0
VERTEX
  5
1B927
  8
01
 10
2674.53230731675
 20
-283.4914688142409
 30
0.0000000001127424
 70
    32
  0
VERTEX
  5
1B928
  8
01
 10
2674.531743004886
 20
-283.4915567254982
 30
0.0000000001127424
 70
    32
  0
VERTEX
  5
1B929
  8
01
 10
2674.531178693022
 20
-283.4916446367555
 30
0.0000000001127424
 70
    32
  0
VERTEX
  5
1B92A
  8
01
 10
2674.530614381157
 20
-283.4917325480128
 30
0.0000000001127424
 70
    32
  0
VERTEX
  5
1B92B
  8
01
 10
2674.530050069293
 20
-283.4918204592701
 30
0.0000000001127424
 70
    32
  0
VERTEX
  5
1B92C
  8
01
 10
2674.529485757429
 20
-283.4919083705273
 30
0.0000000001127424
 70
    32
  0
VERTEX
  5
1B92D
  8
01
 10
2674.528921445564
 20
-283.4919962817846
 30
0.0000000001127424
 70
    32
  0
VERTEX
  5
1B92E
  8
01
 10
2674.5283571337
 20
-283.4920841930418
 30
0.0000000001127424
 70
    32
  0
VERTEX
  5
1B92F
  8
01
 10
2674.527792821836
 20
-283.492172104299
 30
0.0000000001127424
 70
    32
  0
VERTEX
  5
1B930
  8
01
 10
2674.527228509972
 20
-283.4922600155562
 30
0.0000000001127424
 70
    32
  0
SEQEND
  5
1BC3F
  8
01
  0
POLYLINE
  5
1AC36
  8
01
 10
0.0
 20
0.0
 30
0.0
 66
     1
 70
     8
  0
VERTEX
  5
1B931
  8
01
 10
2710.707233319575
 20
-253.3313068840646
 30
0.0000000001127424
 70
    32
  0
VERTEX
  5
1B932
  8
01
 10
2710.707124638756
 20
-253.3313068838844
 30
0.0000000001127424
 70
    32
  0
VERTEX
  5
1B933
  8
01
 10
2710.707015957936
 20
-253.3313068837042
 30
0.0000000001127424
 70
    32
  0
VERTEX
  5
1B934
  8
01
 10
2710.706907277116
 20
-253.331306883524
 30
0.0000000001127424
 70
    32
  0
VERTEX
  5
1B935
  8
01
 10
2710.706798596298
 20
-253.3313068833438
 30
0.0000000001127424
 70
    32
  0
VERTEX
  5
1B936
  8
01
 10
2710.706689915479
 20
-253.3313068831636
 30
0.0000000001127424
 70
    32
  0
VERTEX
  5
1B937
  8
01
 10
2710.706581234659
 20
-253.3313068829834
 30
0.0000000001127424
 70
    32
  0
VERTEX
  5
1B938
  8
01
 10
2710.706472553839
 20
-253.3313068828032
 30
0.0000000001127424
 70
    32
  0
VERTEX
  5
1B939
  8
01
 10
2710.706363873021
 20
-253.331306882623
 30
0.0000000001127424
 70
    32
  0
VERTEX
  5
1B93A
  8
01
 10
2710.706255192202
 20
-253.3313068824428
 30
0.0000000001127424
 70
    32
  0
VERTEX
  5
1B93B
  8
01
 10
2710.706146511382
 20
-253.3313068822627
 30
0.0000000001127424
 70
    32
  0
VERTEX
  5
1B93C
  8
01
 10
2710.706037830563
 20
-253.3313068820825
 30
0.0000000001127424
 70
    32
  0
VERTEX
  5
1B93D
  8
01
 10
2710.705929149743
 20
-253.3313068819023
 30
0.0000000001127424
 70
    32
  0
VERTEX
  5
1B93E
  8
01
 10
2710.705820468925
 20
-253.3313068817221
 30
0.0000000001127424
 70
    32
  0
VERTEX
  5
1B93F
  8
01
 10
2710.705711788105
 20
-253.3313068815419
 30
0.0000000001127424
 70
    32
  0
VERTEX
  5
1B940
  8
01
 10
2710.705603107286
 20
-253.3313068813617
 30
0.0000000001127424
 70
    32
  0
VERTEX
  5
1B941
  8
01
 10
2710.705494426466
 20
-253.3313068811815
 30
0.0000000001127424
 70
    32
  0
SEQEND
  5
1BC40
  8
01
  0
POLYLINE
  5
1AC37
  8
01
 10
0.0
 20
0.0
 30
0.0
 66
     1
 70
     8
  0
VERTEX
  5
1B942
  8
01
 10
2660.708083332233
 20
-249.331306881196
 30
0.0000000001127424
 70
    32
  0
VERTEX
  5
1B943
  8
01
 10
2660.708083332233
 20
-249.581306881196
 30
0.0000000001127424
 70
    32
  0
VERTEX
  5
1B944
  8
01
 10
2660.708083332233
 20
-249.831306881196
 30
0.0000000001127424
 70
    32
  0
VERTEX
  5
1B945
  8
01
 10
2660.708083332233
 20
-250.081306881196
 30
0.0000000001127424
 70
    32
  0
VERTEX
  5
1B946
  8
01
 10
2660.708083332233
 20
-250.331306881196
 30
0.0000000001127424
 70
    32
  0
VERTEX
  5
1B947
  8
01
 10
2660.708083332233
 20
-250.581306881196
 30
0.0000000001127424
 70
    32
  0
VERTEX
  5
1B948
  8
01
 10
2660.708083332233
 20
-250.831306881196
 30
0.0000000001127424
 70
    32
  0
VERTEX
  5
1B949
  8
01
 10
2660.708083332233
 20
-251.081306881196
 30
0.0000000001127424
 70
    32
  0
VERTEX
  5
1B94A
  8
01
 10
2660.708083332233
 20
-251.331306881196
 30
0.0000000001127424
 70
    32
  0
VERTEX
  5
1B94B
  8
01
 10
2660.708083332233
 20
-251.581306881196
 30
0.0000000001127424
 70
    32
  0
VERTEX
  5
1B94C
  8
01
 10
2660.708083332233
 20
-251.831306881196
 30
0.0000000001127424
 70
    32
  0
VERTEX
  5
1B94D
  8
01
 10
2660.708083332233
 20
-252.081306881196
 30
0.0000000001127424
 70
    32
  0
VERTEX
  5
1B94E
  8
01
 10
2660.708083332233
 20
-252.331306881196
 30
0.0000000001127424
 70
    32
  0
VERTEX
  5
1B94F
  8
01
 10
2660.708083332233
 20
-252.581306881196
 30
0.0000000001127424
 70
    32
  0
VERTEX
  5
1B950
  8
01
 10
2660.708083332233
 20
-252.831306881196
 30
0.0000000001127424
 70
    32
  0
VERTEX
  5
1B951
  8
01
 10
2660.708083332233
 20
-253.081306881196
 30
0.0000000001127424
 70
    32
  0
VERTEX
  5
1B952
  8
01
 10
2660.708083332233
 20
-253.331306881196
 30
0.0000000001127424
 70
    32
  0
SEQEND
  5
1BC41
  8
01
  0
POLYLINE
  5
1AC38
  8
01
 66
     1
 10
0.0
 20
0.0
 30
0.0000000001127424
  0
VERTEX
  5
1B953
  8
01
 10
2710.705494426466
 20
-253.3313068811815
 30
0.0000000001127424
  0
VERTEX
  5
1B954
  8
01
 10
2710.697783692255
 20
-253.3390186271502
 30
0.0000000001127424
  0
VERTEX
  5
1B955
  8
01
 10
2710.690074924248
 20
-253.3467323420778
 30
0.0000000001127424
  0
VERTEX
  5
1B956
  8
01
 10
2710.6823681232
 20
-253.3544480252124
 30
0.0000000001127424
  0
VERTEX
  5
1B957
  8
01
 10
2710.674663289865
 20
-253.3621656758015
 30
0.0000000001127424
  0
VERTEX
  5
1B958
  8
01
 10
2710.666960424996
 20
-253.3698852930922
 30
0.0000000001127424
  0
VERTEX
  5
1B959
  8
01
 10
2710.659259529345
 20
-253.3776068763313
 30
0.0000000001127424
  0
VERTEX
  5
1B95A
  8
01
 10
2710.651560603666
 20
-253.3853304247653
 30
0.0000000001127424
  0
VERTEX
  5
1B95B
  8
01
 10
2710.643863648711
 20
-253.3930559376401
 30
0.0000000001127424
  0
VERTEX
  5
1B95C
  8
01
 10
2710.63616866523
 20
-253.4007834142015
 30
0.0000000001127424
  0
VERTEX
  5
1B95D
  8
01
 10
2710.628475653977
 20
-253.4085128536946
 30
0.0000000001127424
  0
VERTEX
  5
1B95E
  8
01
 10
2710.620784615701
 20
-253.4162442553643
 30
0.0000000001127424
  0
VERTEX
  5
1B95F
  8
01
 10
2710.613095551153
 20
-253.4239776184551
 30
0.0000000001127424
  0
VERTEX
  5
1B960
  8
01
 10
2710.605408461084
 20
-253.4317129422111
 30
0.0000000001127424
  0
VERTEX
  5
1B961
  8
01
 10
2710.597723346244
 20
-253.4394502258761
 30
0.0000000001127424
  0
VERTEX
  5
1B962
  8
01
 10
2710.59004020738
 20
-253.4471894686933
 30
0.0000000001127424
  0
VERTEX
  5
1B963
  8
01
 10
2710.582359045245
 20
-253.4549306699057
 30
0.0000000001127424
  0
SEQEND
  5
1BC42
  8
01
  0
LINE
  5
1AC39
  8
01
 10
2706.244032331098
 20
-258.3252339389721
 30
0.0000000001127424
 11
2706.893978956206
 21
-257.5402404229565
 31
0.0000000001127424
  0
ARC
  5
1AC3A
  8
01
 10
2759.740402898568
 20
2765.471107623535
 30
0.0000000001127424
 40
3071.565345893962
 50
268.9696292704473
 51
270.4096535453596
  0
LINE
  5
1AC3B
  8
01
 10
2710.708083332233
 20
-249.331306881196
 30
0.0000000001127424
 11
2705.708082943675
 21
-249.331306881196
 31
0.0000000001127424
  0
LINE
  5
1AC3C
  8
01
 10
2665.708082943674
 20
-249.3313068811958
 30
0.0000000001127424
 11
2660.708083332233
 21
-249.331306881196
 31
0.0000000001127424
  0
LINE
  5
1AC3D
  8
01
 10
2710.703967851302
 20
-253.3346008936526
 30
0.0000000001127424
 11
2705.708082943675
 21
-253.3346008936526
 31
0.0000000001127424
  0
LINE
  5
1AC3E
  8
01
 10
2665.708082943674
 20
-253.3346008936528
 30
0.0000000001127424
 11
2660.708083332233
 21
-253.3346008936526
 31
0.0000000001127424
  0
LINE
  5
1AC3F
  8
01
 10
2660.708083332233
 20
-249.331306881196
 30
0.0000000001127424
 11
2660.708083332233
 21
-253.3346008936526
 31
0.0000000001127424
  0
LINE
  5
1AC40
  8
01
 10
2710.708083332233
 20
-249.331306881196
 30
0.0000000001127424
 11
2710.705494426466
 21
-253.3313068811815
 31
0.0000000001127424
  0
ARC
  5
1AC41
  8
01
 10
2702.827610595093
 20
-269.9843192851624
 30
0.0000000001127424
 40
16.71502533770776
 50
106.179356878009
 51
138.2753432356513
  0
ARC
  5
1AC42
  8
01
 10
2705.443441550456
 20
-272.2458306172314
 30
0.0000000001127424
 40
20.17257792134071
 50
138.4261263608686
 51
165.9891017290348
  0
ARC
  5
1AC43
  8
01
 10
2707.271633676189
 20
-271.8731079368492
 30
0.0000000001127424
 40
21.87093441027351
 50
168.0964917737715
 51
195.3253673514455
  0
ARC
  5
1AC44
  8
01
 10
2704.394512634038
 20
-272.1983036572212
 30
0.0000000001127424
 40
19.01542280120887
 50
196.6717279956922
 51
230.5466442848187
  0
ARC
  5
1AC45
  8
01
 10
2701.850055689115
 20
-276.6292250784511
 30
0.0000000001127424
 40
14.00312600677861
 50
227.0627321641582
 51
267.9595921316337
  0
ARC
  5
1AC46
  8
01
 10
2702.752679900955
 20
-277.0496437903741
 30
0.0000000001127424
 40
13.64595833581675
 50
264.1063604859633
 51
279.5884251916192
  0
ARC
  5
1AC47
  8
01
 10
2673.585138145297
 20
44.24060269231063
 30
0.0000000001127424
 40
336.2188308590173
 50
275.3656905796435
 51
280.8930531848424
  0
LINE
  5
1AC48
  8
01
 10
2737.122557105929
 20
-285.9201136505419
 30
0.0000000001127424
 11
2757.82641852068
 21
-282.4649878016119
 31
0.0000000001127424
  0
ARC
  5
1AC49
  8
01
 10
2831.177484472098
 20
-626.2307865954547
 30
0.0000000001127424
 40
351.5043432115423
 50
98.32194336654706
 51
102.0448646861141
  0
ARC
  5
1AC4A
  8
01
 10
2784.134055215775
 20
-332.5419933136538
 30
0.0000000001127424
 40
56.09378904943307
 50
78.93762853334144
 51
102.7813012028312
  0
ARC
  5
1AC4B
  8
01
 10
2779.757267785203
 20
-238.6818169200235
 30
0.0000000001127424
 40
67.36197079016037
 50
271.6537595670242
 51
282.9884559605963
  0
ARC
  5
1AC4C
  8
01
 10
2788.399958761936
 20
-306.7144574037113
 30
0.0000000001127424
 40
29.93750703625965
 50
50.49794173540869
 51
77.46555839706305
  0
ARC
  5
1AC4D
  8
01
 10
2788.469689173709
 20
-277.1047674030453
 30
0.0000000001127424
 40
27.96428169569596
 50
283.2880516717933
 51
312.7263447939862
  0
ARC
  5
1AC4E
  8
01
 10
2801.140770006224
 20
-291.285287849217
 30
0.0000000001127424
 40
9.927840661044746
 50
26.98740582447972
 51
50.59169898532249
  0
ARC
  5
1AC4F
  8
01
 10
2802.01734834628
 20
-290.2446561586378
 30
0.0000000001127424
 40
8.690630349575482
 50
359.0904431678201
 51
23.49416543943164
  0
ARC
  5
1AC50
  8
01
 10
2802.491890213262
 20
-290.8252397191966
 30
0.0000000001127424
 40
8.226909301699713
 50
336.2463090649919
 51
3.084141051271812
  0
ARC
  5
1AC51
  8
01
 10
2799.52179834127
 20
-289.1236506116268
 30
0.0000000001127424
 40
11.63640436824534
 50
312.9029788137788
 51
334.4681727061663
  0
ARC
  5
1AC52
  8
01
 10
2632.390000650478
 20
249.537690796127
 30
0.0000000001127424
 40
543.8816576443234
 50
277.5553038976967
 51
281.1365681483641
  0
ARC
  5
1AC53
  8
01
 10
2586.698275681662
 20
637.8561703467246
 30
0.0000000001127424
 40
934.2005681967211
 50
279.285775720485
 51
281.423434160186
  0
ARC
  5
1AC54
  8
01
 10
2703.624084864664
 20
-284.478511736653
 30
0.0000000001127424
 40
5.15116025745746
 50
253.5052345056729
 51
273.0843856353649
  0
ARC
  5
1AC55
  8
01
 10
2761.904870088924
 20
-303.5615258381688
 30
0.0000000001127424
 40
71.72482809106272
 50
135.54744277879
 51
145.9122599963881
  0
ARC
  5
1AC56
  8
01
 10
2762.116237130082
 20
-305.0833822400793
 30
0.0000000001127424
 40
72.76178146589776
 50
145.0130349996349
 51
155.0485502375248
  0
ARC
  5
1AC57
  8
01
 10
2709.226747079979
 20
-280.3020958573973
 30
0.0000000001127424
 40
14.35557004281338
 50
155.6747818016501
 51
181.9442963321754
  0
ARC
  5
1AC58
  8
01
 10
2705.860932928435
 20
-279.3480676740658
 30
0.0000000001127424
 40
11.07564289041386
 50
187.4761056788784
 51
219.027544041259
  0
ARC
  5
1AC59
  8
01
 10
2706.579333014996
 20
-276.9841706918444
 30
0.0000000001127424
 40
13.19504248503225
 50
225.0482745883455
 51
250.4391384827613
  0
ARC
  5
1AC5A
  8
01
 10
2034.231539146092
 20
-566.4008249421379
 30
0.0000000001127424
 40
700.3466176447392
 50
25.31046907029307
 51
26.55240153379512
  0
ARC
  5
1AC5B
  8
01
 10
2357.644956080293
 20
-411.0588404706752
 30
0.0000000001127424
 40
341.574020840444
 50
22.26710475999702
 51
24.94761814099012
  0
ARC
  5
1AC5C
  8
01
 10
2784.716298927681
 20
-236.7398666864458
 30
0.0000000001127424
 40
119.7043919156803
 50
202.0237567742716
 51
207.1318929426971
  0
ARC
  5
1AC5D
  8
01
 10
2702.102189640883
 20
-276.904544763571
 30
0.0000000001127424
 40
27.93129026844504
 50
211.0950023140452
 51
238.550904077064
  0
ARC
  5
1AC5E
  8
01
 10
2704.603789364431
 20
-270.8502304346432
 30
0.0000000001127424
 40
34.41830015685566
 50
240.2522929304488
 51
248.4426130292811
  0
ARC
  5
1AC5F
  8
01
 10
2719.830861347288
 20
-211.6660815040489
 30
0.0000000001127424
 40
95.35952645652287
 50
253.00435909214
 51
259.4154517286338
  0
ARC
  5
1AC60
  8
01
 10
2704.799109042945
 20
-289.8542590059108
 30
0.0000000001127424
 40
15.74604109607406
 50
260.9216705533191
 51
268.9345162609592
  0
ARC
  5
1AC61
  8
01
 10
2787.720475193792
 20
-314.5827702991667
 30
0.0000000001127424
 40
36.90827984237766
 50
68.08340575248917
 51
85.82953471338062
  0
ARC
  5
1AC62
  8
01
 10
2788.668189344756
 20
-329.1902819312093
 30
0.0000000001127424
 40
51.44737314533389
 50
88.06583528307533
 51
99.35829378370975
  0
LINE
  5
1AC63
  8
01
 10
2663.208083332233
 20
-247.6313068811962
 30
0.0000000001127424
 11
2708.208083332232
 21
-247.6313068811962
 31
0.0000000001127424
  0
LINE
  5
1AC64
  8
01
 10
2699.550085262566
 20
-499.4146057399746
 30
0.0000000001127424
 11
2781.644345523485
 21
-498.5210568847222
 31
0.0000000001127424
  0
LINE
  5
1AC65
  8
01
 10
2699.870178486623
 20
-485.0737066209701
 30
0.0000000001127424
 11
2781.646488205021
 21
-482.8881860520603
 31
0.0000000001127424
  0
ARC
  5
1AC66
  8
01
 10
2685.707966992491
 20
-497.6299885670649
 30
0.0000000001127424
 40
24.99979096596576
 50
30.67066781964537
 51
356.1840549373142
  0
ARC
  5
1AC67
  8
01
 10
2685.884307338226
 20
-503.2885727206728
 30
0.0000000001127424
 40
29.51711322463888
 50
58.16901965993942
 51
64.91934069216303
  0
ARC
  5
1AC68
  8
01
 10
2691.709760306331
 20
-490.9341798204448
 30
0.0000000001127424
 40
15.85826769269537
 50
65.06108856685938
 51
77.43358022767434
  0
ARC
  5
1AC69
  8
01
 10
2693.474477392182
 20
-483.3780059049047
 30
0.0000000001127424
 40
8.099534243652876
 50
77.98844364389373
 51
101.2396936476894
  0
ARC
  5
1AC6A
  8
01
 10
2694.275068574915
 20
-486.3116812279056
 30
0.0000000001127424
 40
11.13503455607863
 50
102.3379328297767
 51
126.4097168783744
  0
ARC
  5
1AC6B
  8
01
 10
2690.755113064442
 20
-481.7748989160798
 30
0.0000000001127424
 40
5.396391158680872
 50
124.9230625732206
 51
166.2700422301354
  0
ARC
  5
1AC6C
  8
01
 10
2689.746546962836
 20
-481.490260726029
 30
0.0000000001127424
 40
4.349245370029341
 50
166.759129010429
 51
182.675333623956
  0
ARC
  5
1AC6D
  8
01
 10
2687.965597079562
 20
-481.6138941140305
 30
0.0000000001127424
 40
2.564783586505675
 50
181.7734477164632
 51
208.3064081362689
  0
ARC
  5
1AC6E
  8
01
 10
2697.80401821439
 20
-428.1677621973083
 30
0.0000000001127424
 40
56.94344149258469
 50
261.9150713707861
 51
272.0794011025137
  0
ARC
  5
1AC6F
  8
01
 10
2688.294736066561
 20
-481.0418194532438
 30
0.0000000001127424
 40
3.145102773129
 50
214.651670304116
 51
258.464777224475
  0
ARC
  5
1AC70
  8
01
 10
2691.653252835014
 20
-469.5791564534672
 30
0.0000000001127424
 40
15.08093668083644
 50
254.6685217954485
 51
262.9238127543682
  0
ARC
  5
1AC71
  8
01
 10
2786.33595952063
 20
-601.9802884044864
 30
0.0000000001127424
 40
119.1843948843166
 50
85.21275332141903
 51
92.25496207301535
  0
ARC
  5
1AC72
  8
01
 10
2793.843668084949
 20
-515.7683047844082
 30
0.0000000001127424
 40
32.64785966672855
 50
73.4196890030193
 51
85.71574501937926
  0
ARC
  5
1AC73
  8
01
 10
2780.053066821672
 20
-390.6402692239051
 30
0.0000000001127424
 40
107.8925229764554
 50
270.8450711585127
 51
278.6514583703841
  0
ARC
  5
1AC74
  8
01
 10
2792.262984641969
 20
-465.3463163853528
 30
0.0000000001127424
 40
32.21063361533734
 50
277.168748607897
 51
289.7736896844871
  0
ARC
  5
1AC75
  8
01
 10
2799.184748379196
 20
-502.8931961143287
 30
0.0000000001127424
 40
18.83945955420323
 50
57.12041277986722
 51
77.81855510310807
  0
ARC
  5
1AC76
  8
01
 10
2798.140962236313
 20
-477.4134339693635
 30
0.0000000001127424
 40
18.92204771753521
 50
285.3817907974916
 51
306.5602849771927
  0
ARC
  5
1AC77
  8
01
 10
2807.109295055699
 20
-489.8442340636764
 30
0.0000000001127424
 40
3.600712235186706
 50
309.7602339458095
 51
0.5561680733788124
  0
ARC
  5
1AC78
  8
01
 10
2807.311592458255
 20
-489.7435936395784
 30
0.0000000001127424
 40
3.398880028698698
 50
358.8925951720863
 51
51.8270887918262
  0
LINE
  5
1AC79
  8
01
 10
2717.920636837403
 20
-497.8787905729803
 30
0.0000000001127424
 11
2781.644345523488
 21
-498.5210568847222
 31
0.0000000001127424
  0
ARC
  5
1AC7A
  8
01
 10
2711.744172844815
 20
-1283.46258827324
 30
0.0000000001127424
 40
785.6080778076408
 50
89.54953497189283
 51
91.03283153146577
  0
ARC
  5
1AC7B
  8
01
 10
2705.556010990317
 20
-614.5492555990793
 30
0.0000000001127424
 40
116.8394382932455
 50
93.91269024729569
 51
98.53430409078851
  0
ARC
  5
1AC7C
  8
01
 10
2693.515197404743
 20
-525.2452955502974
 30
0.0000000001127424
 40
26.77127486492728
 50
101.4148434400436
 51
115.0066434464459
  0
ARC
  5
1AC7D
  8
01
 10
2685.684377309636
 20
-509.5396322225104
 30
0.0000000001127424
 40
9.23894837916856
 50
112.1676604002392
 51
137.8572001926417
  0
ARC
  5
1AC7E
  8
01
 10
2685.769803569537
 20
-508.7205191070923
 30
0.0000000001127424
 40
8.77788172044793
 50
142.1998580522941
 51
172.3370119023201
  0
ARC
  5
1AC7F
  8
01
 10
2688.641446564251
 20
-509.5636190666744
 30
0.0000000001127424
 40
11.74502933276003
 50
170.1283092310063
 51
194.1693147909039
  0
ARC
  5
1AC80
  8
01
 10
2688.249886751436
 20
-509.4922085853239
 30
0.0000000001127424
 40
11.38405962301786
 50
195.0002246762303
 51
220.0465423502911
  0
ARC
  5
1AC81
  8
01
 10
2689.5566765791
 20
-508.7912539792976
 30
0.0000000001127424
 40
12.83904139673257
 50
218.6888635522039
 51
249.5935846426431
  0
ARC
  5
1AC82
  8
01
 10
2690.111210759377
 20
-501.6263900017427
 30
0.0000000001127424
 40
19.84647679739424
 50
255.3148888289354
 51
283.8029318284479
  0
ARC
  5
1AC83
  8
01
 10
2686.808146156239
 20
-516.4988934586952
 30
0.0000000001127424
 40
2.778981984552072
 50
81.09162997886553
 51
105.8512747472161
  0
ARC
  5
1AC84
  8
01
 10
2687.034734897544
 20
-514.9835521287284
 30
0.0000000001127424
 40
1.246878291068781
 50
45.08503790236953
 51
80.59524391974581
  0
ARC
  5
1AC85
  8
01
 10
2686.98082674558
 20
-514.904214975152
 30
0.0000000001127424
 40
1.232362359911368
 50
350.1927101834384
 51
40.70153424883286
  0
ARC
  5
1AC86
  8
01
 10
2687.243745330848
 20
-518.300448148361
 30
0.0000000001127424
 40
4.631586763479185
 50
104.9476370362885
 51
127.5282071782057
  0
ARC
  5
1AC87
  8
01
 10
2686.549567741927
 20
-517.4726257063528
 30
0.0000000001127424
 40
3.552520702786541
 50
126.7822508423358
 51
149.3588573032202
  0
ARC
  5
1AC88
  8
01
 10
2685.115570655717
 20
-516.6580222288046
 30
0.0000000001127424
 40
1.903809481831612
 50
148.4564254437732
 51
185.0020125448449
  0
ARC
  5
1AC89
  8
01
 10
2685.336670151192
 20
-514.6892830843797
 30
0.0000000001127424
 40
2.889908447323687
 50
327.5786558395369
 51
351.5462940448909
  0
ARC
  5
1AC8A
  8
01
 10
2684.16224123108
 20
-514.0287810358702
 30
0.0000000001127424
 40
4.236013342244362
 50
308.6432688616882
 51
328.5540725435547
  0
ARC
  5
1AC8B
  8
01
 10
2684.555815129505
 20
-516.6637489172051
 30
0.0000000001127424
 40
1.346376446120278
 50
186.8364960577533
 51
234.6722542324581
  0
ARC
  5
1AC8C
  8
01
 10
2684.615020026132
 20
-514.6651464087142
 30
0.0000000001127424
 40
3.45651100728506
 50
283.0688718287458
 51
309.368469364432
  0
ARC
  5
1AC8D
  8
01
 10
2684.785652583782
 20
-516.333312605441
 30
0.0000000001127424
 40
1.748873214865161
 50
234.7889203135329
 51
262.0346872525496
  0
ARC
  5
1AC8E
  8
01
 10
2684.878706535209
 20
-515.7021174995396
 30
0.0000000001127424
 40
2.386878064591476
 50
261.9221246985193
 51
282.5317720201044
  0
LINE
  5
1AC90
  8
01
 10
2660.708083332233
 20
-205.9313068811964
 30
0.0000000001127424
 11
2665.70808307588
 21
-205.9313068811964
 31
0.0000000001127424
  0
LINE
  5
1AC91
  8
01
 10
2708.208083332232
 20
-207.6313068811962
 30
0.0000000001127424
 11
2708.208083332232
 21
-205.9313068811964
 31
0.0000000001127424
  0
LINE
  5
1AC92
  8
01
 10
2663.208083332233
 20
-207.6313068811962
 30
0.0000000001127424
 11
2663.208083332233
 21
-205.9313068811964
 31
0.0000000001127424
  0
POLYLINE
  5
1AC93
  8
01
 66
     1
 10
0.0
 20
0.0
 30
0.0000000001127424
  0
VERTEX
  5
1B964
  8
01
 10
2710.703967851287
 20
-201.9280128687399
 30
0.0000000001127424
  0
VERTEX
  5
1B965
  8
01
 10
2710.704174049073
 20
-201.9282166342348
 30
0.0000000001127424
  0
VERTEX
  5
1B966
  8
01
 10
2710.704380165671
 20
-201.9284204820837
 30
0.0000000001127424
  0
VERTEX
  5
1B967
  8
01
 10
2710.704586201032
 20
-201.9286244122378
 30
0.0000000001127424
  0
VERTEX
  5
1B968
  8
01
 10
2710.704792155106
 20
-201.9288284246486
 30
0.0000000001127424
  0
VERTEX
  5
1B969
  8
01
 10
2710.704998027844
 20
-201.9290325192676
 30
0.0000000001127424
  0
VERTEX
  5
1B96A
  8
01
 10
2710.705203819198
 20
-201.929236696046
 30
0.0000000001127424
  0
VERTEX
  5
1B96B
  8
01
 10
2710.705409529117
 20
-201.9294409549351
 30
0.0000000001127424
  0
VERTEX
  5
1B96C
  8
01
 10
2710.705615157553
 20
-201.9296452958864
 30
0.0000000001127424
  0
VERTEX
  5
1B96D
  8
01
 10
2710.705820704457
 20
-201.9298497188509
 30
0.0000000001127424
  0
VERTEX
  5
1B96E
  8
01
 10
2710.70602616978
 20
-201.9300542237799
 30
0.0000000001127424
  0
VERTEX
  5
1B96F
  8
01
 10
2710.706231553472
 20
-201.9302588106245
 30
0.0000000001127424
  0
VERTEX
  5
1B970
  8
01
 10
2710.706436855485
 20
-201.9304634793358
 30
0.0000000001127424
  0
VERTEX
  5
1B971
  8
01
 10
2710.706642075769
 20
-201.9306682298649
 30
0.0000000001127424
  0
VERTEX
  5
1B972
  8
01
 10
2710.706847214277
 20
-201.930873062163
 30
0.0000000001127424
  0
VERTEX
  5
1B973
  8
01
 10
2710.707052270958
 20
-201.9310779761808
 30
0.0000000001127424
  0
VERTEX
  5
1B974
  8
01
 10
2710.707257245765
 20
-201.9312829718695
 30
0.0000000001127424
  0
SEQEND
  5
1BC43
  8
01
  0
POLYLINE
  5
1AC94
  8
01
 10
0.0
 20
0.0
 30
0.0
 66
     1
 70
     8
  0
VERTEX
  5
1B975
  8
01
 10
2717.920544142956
 20
-149.3466770784628
 30
0.0000000001127424
 70
    32
  0
VERTEX
  5
1B976
  8
01
 10
2717.920544142974
 20
-149.3465042490465
 30
0.0000000001127424
 70
    32
  0
VERTEX
  5
1B977
  8
01
 10
2717.920544142992
 20
-149.3463647131548
 30
0.0000000001127424
 70
    32
  0
VERTEX
  5
1B978
  8
01
 10
2717.920544143008
 20
-149.3462584903673
 30
0.0000000001127424
 70
    32
  0
VERTEX
  5
1B979
  8
01
 10
2717.920544143022
 20
-149.3461856002634
 30
0.0000000001127424
 70
    32
  0
VERTEX
  5
1B97A
  8
01
 10
2717.920544143035
 20
-149.3461460624228
 30
0.0000000001127424
 70
    32
  0
VERTEX
  5
1B97B
  8
01
 10
2717.920544143046
 20
-149.346139896425
 30
0.0000000001127424
 70
    32
  0
VERTEX
  5
1B97C
  8
01
 10
2717.920544143056
 20
-149.3461671218496
 30
0.0000000001127424
 70
    32
  0
VERTEX
  5
1B97D
  8
01
 10
2717.920544143066
 20
-149.3462277582763
 30
0.0000000001127424
 70
    32
  0
VERTEX
  5
1B97E
  8
01
 10
2717.920544143074
 20
-149.3463218252844
 30
0.0000000001127424
 70
    32
  0
VERTEX
  5
1B97F
  8
01
 10
2717.920544143081
 20
-149.3464493424537
 30
0.0000000001127424
 70
    32
  0
VERTEX
  5
1B980
  8
01
 10
2717.920544143087
 20
-149.3466103293637
 30
0.0000000001127424
 70
    32
  0
VERTEX
  5
1B981
  8
01
 10
2717.920544143093
 20
-149.3468048055939
 30
0.0000000001127424
 70
    32
  0
VERTEX
  5
1B982
  8
01
 10
2717.920544143097
 20
-149.347032790724
 30
0.0000000001127424
 70
    32
  0
VERTEX
  5
1B983
  8
01
 10
2717.920544143101
 20
-149.3472943043334
 30
0.0000000001127424
 70
    32
  0
VERTEX
  5
1B984
  8
01
 10
2717.920544143104
 20
-149.3475893660019
 30
0.0000000001127424
 70
    32
  0
VERTEX
  5
1B985
  8
01
 10
2717.920544143106
 20
-149.3479179953088
 30
0.0000000001127424
 70
    32
  0
VERTEX
  5
1B986
  8
01
 10
2717.920544143109
 20
-149.3482802118339
 30
0.0000000001127424
 70
    32
  0
VERTEX
  5
1B987
  8
01
 10
2717.92054414311
 20
-149.3486760351566
 30
0.0000000001127424
 70
    32
  0
VERTEX
  5
1B988
  8
01
 10
2717.920544143111
 20
-149.3491054848567
 30
0.0000000001127424
 70
    32
  0
VERTEX
  5
1B989
  8
01
 10
2717.920544143111
 20
-149.3495685805134
 30
0.0000000001127424
 70
    32
  0
VERTEX
  5
1B98A
  8
01
 10
2717.920544143112
 20
-149.3500653417067
 30
0.0000000001127424
 70
    32
  0
VERTEX
  5
1B98B
  8
01
 10
2717.920544143112
 20
-149.3505957880159
 30
0.0000000001127424
 70
    32
  0
VERTEX
  5
1B98C
  8
01
 10
2717.920544143112
 20
-149.3511599390205
 30
0.0000000001127424
 70
    32
  0
VERTEX
  5
1B98D
  8
01
 10
2717.920544143112
 20
-149.3517578143003
 30
0.0000000001127424
 70
    32
  0
SEQEND
  5
1BC44
  8
01
  0
POLYLINE
  5
1AC95
  8
01
 10
0.0
 20
0.0
 30
0.0
 66
     1
 70
     8
  0
VERTEX
  5
1B98E
  8
01
 10
2674.536257499799
 20
-171.7717603269532
 30
0.0000000001127424
 70
    32
  0
VERTEX
  5
1B98F
  8
01
 10
2674.535693187935
 20
-171.7716724156958
 30
0.0000000001127424
 70
    32
  0
VERTEX
  5
1B990
  8
01
 10
2674.535128876071
 20
-171.7715845044384
 30
0.0000000001127424
 70
    32
  0
VERTEX
  5
1B991
  8
01
 10
2674.534564564206
 20
-171.771496593181
 30
0.0000000001127424
 70
    32
  0
VERTEX
  5
1B992
  8
01
 10
2674.534000252343
 20
-171.7714086819236
 30
0.0000000001127424
 70
    32
  0
VERTEX
  5
1B993
  8
01
 10
2674.533435940478
 20
-171.7713207706663
 30
0.0000000001127424
 70
    32
  0
VERTEX
  5
1B994
  8
01
 10
2674.532871628614
 20
-171.7712328594089
 30
0.0000000001127424
 70
    32
  0
VERTEX
  5
1B995
  8
01
 10
2674.53230731675
 20
-171.7711449481516
 30
0.0000000001127424
 70
    32
  0
VERTEX
  5
1B996
  8
01
 10
2674.531743004886
 20
-171.7710570368943
 30
0.0000000001127424
 70
    32
  0
VERTEX
  5
1B997
  8
01
 10
2674.531178693022
 20
-171.770969125637
 30
0.0000000001127424
 70
    32
  0
VERTEX
  5
1B998
  8
01
 10
2674.530614381157
 20
-171.7708812143797
 30
0.0000000001127424
 70
    32
  0
VERTEX
  5
1B999
  8
01
 10
2674.530050069293
 20
-171.7707933031224
 30
0.0000000001127424
 70
    32
  0
VERTEX
  5
1B99A
  8
01
 10
2674.529485757429
 20
-171.7707053918651
 30
0.0000000001127424
 70
    32
  0
VERTEX
  5
1B99B
  8
01
 10
2674.528921445564
 20
-171.7706174806079
 30
0.0000000001127424
 70
    32
  0
VERTEX
  5
1B99C
  8
01
 10
2674.5283571337
 20
-171.7705295693507
 30
0.0000000001127424
 70
    32
  0
VERTEX
  5
1B99D
  8
01
 10
2674.527792821836
 20
-171.7704416580934
 30
0.0000000001127424
 70
    32
  0
VERTEX
  5
1B99E
  8
01
 10
2674.527228509972
 20
-171.7703537468362
 30
0.0000000001127424
 70
    32
  0
SEQEND
  5
1BC45
  8
01
  0
POLYLINE
  5
1AC96
  8
01
 10
0.0
 20
0.0
 30
0.0
 66
     1
 70
     8
  0
VERTEX
  5
1B99F
  8
01
 10
2710.707233319575
 20
-201.9313068783279
 30
0.0000000001127424
 70
    32
  0
VERTEX
  5
1B9A0
  8
01
 10
2710.707124638756
 20
-201.9313068785081
 30
0.0000000001127424
 70
    32
  0
VERTEX
  5
1B9A1
  8
01
 10
2710.707015957936
 20
-201.9313068786882
 30
0.0000000001127424
 70
    32
  0
VERTEX
  5
1B9A2
  8
01
 10
2710.706907277116
 20
-201.9313068788684
 30
0.0000000001127424
 70
    32
  0
VERTEX
  5
1B9A3
  8
01
 10
2710.706798596298
 20
-201.9313068790486
 30
0.0000000001127424
 70
    32
  0
VERTEX
  5
1B9A4
  8
01
 10
2710.706689915479
 20
-201.9313068792288
 30
0.0000000001127424
 70
    32
  0
VERTEX
  5
1B9A5
  8
01
 10
2710.706581234659
 20
-201.931306879409
 30
0.0000000001127424
 70
    32
  0
VERTEX
  5
1B9A6
  8
01
 10
2710.706472553839
 20
-201.9313068795892
 30
0.0000000001127424
 70
    32
  0
VERTEX
  5
1B9A7
  8
01
 10
2710.706363873021
 20
-201.9313068797694
 30
0.0000000001127424
 70
    32
  0
VERTEX
  5
1B9A8
  8
01
 10
2710.706255192202
 20
-201.9313068799496
 30
0.0000000001127424
 70
    32
  0
VERTEX
  5
1B9A9
  8
01
 10
2710.706146511382
 20
-201.9313068801298
 30
0.0000000001127424
 70
    32
  0
VERTEX
  5
1B9AA
  8
01
 10
2710.706037830563
 20
-201.93130688031
 30
0.0000000001127424
 70
    32
  0
VERTEX
  5
1B9AB
  8
01
 10
2710.705929149743
 20
-201.9313068804902
 30
0.0000000001127424
 70
    32
  0
VERTEX
  5
1B9AC
  8
01
 10
2710.705820468925
 20
-201.9313068806704
 30
0.0000000001127424
 70
    32
  0
VERTEX
  5
1B9AD
  8
01
 10
2710.705711788105
 20
-201.9313068808506
 30
0.0000000001127424
 70
    32
  0
VERTEX
  5
1B9AE
  8
01
 10
2710.705603107286
 20
-201.9313068810308
 30
0.0000000001127424
 70
    32
  0
VERTEX
  5
1B9AF
  8
01
 10
2710.705494426466
 20
-201.931306881211
 30
0.0000000001127424
 70
    32
  0
SEQEND
  5
1BC46
  8
01
  0
POLYLINE
  5
1AC97
  8
01
 10
0.0
 20
0.0
 30
0.0
 66
     1
 70
     8
  0
VERTEX
  5
1B9B0
  8
01
 10
2660.708083332233
 20
-205.9313068811964
 30
0.0000000001127424
 70
    32
  0
VERTEX
  5
1B9B1
  8
01
 10
2660.708083332233
 20
-205.6813068811964
 30
0.0000000001127424
 70
    32
  0
VERTEX
  5
1B9B2
  8
01
 10
2660.708083332233
 20
-205.4313068811964
 30
0.0000000001127424
 70
    32
  0
VERTEX
  5
1B9B3
  8
01
 10
2660.708083332233
 20
-205.1813068811964
 30
0.0000000001127424
 70
    32
  0
VERTEX
  5
1B9B4
  8
01
 10
2660.708083332233
 20
-204.9313068811964
 30
0.0000000001127424
 70
    32
  0
VERTEX
  5
1B9B5
  8
01
 10
2660.708083332233
 20
-204.6813068811964
 30
0.0000000001127424
 70
    32
  0
VERTEX
  5
1B9B6
  8
01
 10
2660.708083332233
 20
-204.4313068811964
 30
0.0000000001127424
 70
    32
  0
VERTEX
  5
1B9B7
  8
01
 10
2660.708083332233
 20
-204.1813068811964
 30
0.0000000001127424
 70
    32
  0
VERTEX
  5
1B9B8
  8
01
 10
2660.708083332233
 20
-203.9313068811964
 30
0.0000000001127424
 70
    32
  0
VERTEX
  5
1B9B9
  8
01
 10
2660.708083332233
 20
-203.6813068811964
 30
0.0000000001127424
 70
    32
  0
VERTEX
  5
1B9BA
  8
01
 10
2660.708083332233
 20
-203.4313068811964
 30
0.0000000001127424
 70
    32
  0
VERTEX
  5
1B9BB
  8
01
 10
2660.708083332233
 20
-203.1813068811964
 30
0.0000000001127424
 70
    32
  0
VERTEX
  5
1B9BC
  8
01
 10
2660.708083332233
 20
-202.9313068811964
 30
0.0000000001127424
 70
    32
  0
VERTEX
  5
1B9BD
  8
01
 10
2660.708083332233
 20
-202.6813068811964
 30
0.0000000001127424
 70
    32
  0
VERTEX
  5
1B9BE
  8
01
 10
2660.708083332233
 20
-202.4313068811964
 30
0.0000000001127424
 70
    32
  0
VERTEX
  5
1B9BF
  8
01
 10
2660.708083332233
 20
-202.1813068811964
 30
0.0000000001127424
 70
    32
  0
VERTEX
  5
1B9C0
  8
01
 10
2660.708083332233
 20
-201.9313068811964
 30
0.0000000001127424
 70
    32
  0
SEQEND
  5
1BC47
  8
01
  0
POLYLINE
  5
1AC98
  8
01
 66
     1
 10
0.0
 20
0.0
 30
0.0000000001127424
  0
VERTEX
  5
1B9C1
  8
01
 10
2710.705494426466
 20
-201.931306881211
 30
0.0000000001127424
  0
VERTEX
  5
1B9C2
  8
01
 10
2710.697783692255
 20
-201.9235951352423
 30
0.0000000001127424
  0
VERTEX
  5
1B9C3
  8
01
 10
2710.690074924248
 20
-201.9158814203146
 30
0.0000000001127424
  0
VERTEX
  5
1B9C4
  8
01
 10
2710.6823681232
 20
-201.90816573718
 30
0.0000000001127424
  0
VERTEX
  5
1B9C5
  8
01
 10
2710.674663289865
 20
-201.900448086591
 30
0.0000000001127424
  0
VERTEX
  5
1B9C6
  8
01
 10
2710.666960424996
 20
-201.8927284693003
 30
0.0000000001127424
  0
VERTEX
  5
1B9C7
  8
01
 10
2710.659259529345
 20
-201.8850068860611
 30
0.0000000001127424
  0
VERTEX
  5
1B9C8
  8
01
 10
2710.651560603666
 20
-201.8772833376272
 30
0.0000000001127424
  0
VERTEX
  5
1B9C9
  8
01
 10
2710.643863648711
 20
-201.8695578247523
 30
0.0000000001127424
  0
VERTEX
  5
1B9CA
  8
01
 10
2710.63616866523
 20
-201.861830348191
 30
0.0000000001127424
  0
VERTEX
  5
1B9CB
  8
01
 10
2710.628475653977
 20
-201.8541009086979
 30
0.0000000001127424
  0
VERTEX
  5
1B9CC
  8
01
 10
2710.620784615701
 20
-201.8463695070282
 30
0.0000000001127424
  0
VERTEX
  5
1B9CD
  8
01
 10
2710.613095551153
 20
-201.8386361439374
 30
0.0000000001127424
  0
VERTEX
  5
1B9CE
  8
01
 10
2710.605408461084
 20
-201.8309008201813
 30
0.0000000001127424
  0
VERTEX
  5
1B9CF
  8
01
 10
2710.597723346244
 20
-201.8231635365164
 30
0.0000000001127424
  0
VERTEX
  5
1B9D0
  8
01
 10
2710.59004020738
 20
-201.8154242936992
 30
0.0000000001127424
  0
VERTEX
  5
1B9D1
  8
01
 10
2710.582359045245
 20
-201.8076830924867
 30
0.0000000001127424
  0
SEQEND
  5
1BC48
  8
01
  0
LINE
  5
1AC99
  8
01
 10
2706.244032331098
 20
-196.9373798234203
 30
0.0000000001127424
 11
2706.893978956206
 21
-197.722373339436
 31
0.0000000001127424
  0
ARC
  5
1AC9A
  8
01
 10
2759.740402898568
 20
-3220.733721385927
 30
0.0000000001127424
 40
3071.565345893962
 50
89.59034645464045
 51
91.03037072955269
  0
LINE
  5
1AC9B
  8
01
 10
2710.708083332233
 20
-205.9313068811964
 30
0.0000000001127424
 11
2705.70808307588
 21
-205.9313068811964
 31
0.0000000001127424
  0
LINE
  5
1AC9C
  8
01
 10
2665.70808307588
 20
-205.9313068811964
 30
0.0000000001127424
 11
2660.708083332233
 21
-205.9313068811964
 31
0.0000000001127424
  0
LINE
  5
1AC9D
  8
01
 10
2710.703967851302
 20
-201.9280128687399
 30
0.0000000001127424
 11
2705.70808307588
 21
-201.9280128687399
 31
0.0000000001127424
  0
LINE
  5
1AC9E
  8
01
 10
2665.70808307588
 20
-201.9280128687399
 30
0.0000000001127424
 11
2660.708083332233
 21
-201.9280128687399
 31
0.0000000001127424
  0
LINE
  5
1AC9F
  8
01
 10
2660.708083332233
 20
-205.9313068811964
 30
0.0000000001127424
 11
2660.708083332233
 21
-201.9280128687399
 31
0.0000000001127424
  0
LINE
  5
1ACA0
  8
01
 10
2710.708083332233
 20
-205.9313068811964
 30
0.0000000001127424
 11
2710.705494426466
 21
-201.931306881211
 31
0.0000000001127424
  0
ARC
  5
1ACA1
  8
01
 10
2702.827610595093
 20
-185.27829447723
 30
0.0000000001127424
 40
16.71502533770776
 50
221.7246567643487
 51
253.820643121991
  0
ARC
  5
1ACA2
  8
01
 10
2705.443441550456
 20
-183.0167831451611
 30
0.0000000001127424
 40
20.17257792134071
 50
211.3069927425965
 51
221.5738736391314
  0
ARC
  5
1ACA3
  8
01
 10
2707.271633676189
 20
-183.3895058255432
 30
0.0000000001127424
 40
21.87093441027351
 50
164.6746326485545
 51
185.8831779670857
  0
ARC
  5
1ACA4
  8
01
 10
2704.394512634038
 20
-183.0643101051712
 30
0.0000000001127424
 40
19.01542280120887
 50
129.4533557151813
 51
163.3282720043078
  0
ARC
  5
1ACA5
  8
01
 10
2701.850055689115
 20
-178.6333886839413
 30
0.0000000001127424
 40
14.00312600677861
 50
92.0404078683663
 51
132.937267835883
  0
ARC
  5
1ACA6
  8
01
 10
2702.752679900955
 20
-178.2129699720183
 30
0.0000000001127424
 40
13.64595833581675
 50
80.41157480838075
 51
95.89363951403666
  0
ARC
  5
1ACA7
  8
01
 10
2673.585138145297
 20
-499.5032164547031
 30
0.0000000001127424
 40
336.2188308590173
 50
79.10694681515766
 51
84.63430942035653
  0
LINE
  5
1ACA8
  8
01
 10
2737.122557105929
 20
-169.3425001118505
 30
0.0000000001127424
 11
2757.82641852068
 21
-172.7976259607806
 31
0.0000000001127424
  0
ARC
  5
1ACA9
  8
01
 10
2831.177484472098
 20
170.9681728330622
 30
0.0000000001127424
 40
351.5043432115423
 50
257.9551353138859
 51
261.678056633453
  0
ARC
  5
1ACAA
  8
01
 10
2784.134055215775
 20
-122.7206204487386
 30
0.0000000001127424
 40
56.09378904943307
 50
257.2186987971688
 51
281.0623714666585
  0
ARC
  5
1ACAB
  8
01
 10
2779.757267785203
 20
-216.580796842369
 30
0.0000000001127424
 40
67.36197079016037
 50
77.0115440394037
 51
88.34624043297578
  0
ARC
  5
1ACAC
  8
01
 10
2788.399958761936
 20
-148.5481563586811
 30
0.0000000001127424
 40
29.93750703625965
 50
282.534441602937
 51
309.5020582645772
  0
ARC
  5
1ACAD
  8
01
 10
2788.469689173709
 20
-178.1578463593471
 30
0.0000000001127424
 40
27.96428169569596
 50
47.27365520601381
 51
76.71194832820674
  0
ARC
  5
1ACAE
  8
01
 10
2801.140770006224
 20
-163.9773259131755
 30
0.0000000001127424
 40
9.927840661044746
 50
309.4083010146875
 51
333.0125941755086
  0
ARC
  5
1ACAF
  8
01
 10
2802.01734834628
 20
-165.0179576037547
 30
0.0000000001127424
 40
8.690630349575482
 50
336.5058345605684
 51
0.9095568321798156
  0
ARC
  5
1ACB0
  8
01
 10
2802.491890213262
 20
-164.4373740431959
 30
0.0000000001127424
 40
8.226909301699713
 50
356.9158589487282
 51
23.75369093501405
  0
ARC
  5
1ACB1
  8
01
 10
2799.52179834127
 20
-166.1389631507657
 30
0.0000000001127424
 40
11.63640436824534
 50
25.53182729383365
 51
47.09702118622121
  0
ARC
  5
1ACB2
  8
01
 10
2632.390000650478
 20
-704.8003045585194
 30
0.0000000001127424
 40
543.8816576443234
 50
78.8634318516359
 51
82.44469610230328
  0
ARC
  5
1ACB3
  8
01
 10
2586.698275681662
 20
-1093.118784109117
 30
0.0000000001127424
 40
934.2005681967211
 50
78.57656583981404
 51
80.71422427951502
  0
ARC
  5
1ACB4
  8
01
 10
2703.624084864664
 20
-170.7841020257395
 30
0.0000000001127424
 40
5.15116025745746
 50
86.91561436463506
 51
106.4947654943271
  0
ARC
  5
1ACB5
  8
01
 10
2761.904870088924
 20
-151.7010879242237
 30
0.0000000001127424
 40
71.72482809106272
 50
214.0877400036119
 51
224.45255722121
  0
ARC
  5
1ACB6
  8
01
 10
2762.116237130082
 20
-150.1792315223131
 30
0.0000000001127424
 40
72.76178146589776
 50
204.9514497624752
 51
214.9869650003652
  0
ARC
  5
1ACB7
  8
01
 10
2709.226747079979
 20
-174.9605179049952
 30
0.0000000001127424
 40
14.35557004281338
 50
178.0557036678246
 51
204.3252181983499
  0
ARC
  5
1ACB8
  8
01
 10
2705.860932928435
 20
-175.9145460883267
 30
0.0000000001127424
 40
11.07564289041386
 50
140.972455958741
 51
172.5238943211216
  0
ARC
  5
1ACB9
  8
01
 10
2706.579333014996
 20
-178.2784430705481
 30
0.0000000001127424
 40
13.19504248503225
 50
109.5608615172409
 51
134.9517254116545
  0
ARC
  5
1ACBA
  8
01
 10
2034.231539146092
 20
111.1382111797454
 30
0.0000000001127424
 40
700.3466176447392
 50
333.4475984661933
 51
334.6895309297187
  0
ARC
  5
1ACBB
  8
01
 10
2357.644956080293
 20
-44.2037732917172
 30
0.0000000001127424
 40
341.574020840444
 50
335.0523818590099
 51
337.732895240003
  0
ARC
  5
1ACBC
  8
01
 10
2784.716298927681
 20
-218.5227470759467
 30
0.0000000001127424
 40
119.7043919156803
 50
152.8681070573029
 51
157.9762432257405
  0
ARC
  5
1ACBD
  8
01
 10
2702.102189640883
 20
-178.3580689988214
 30
0.0000000001127424
 40
27.93129026844504
 50
121.449095922936
 51
148.9049976859481
  0
ARC
  5
1ACBE
  8
01
 10
2704.603789364431
 20
-184.4123833277492
 30
0.0000000001127424
 40
34.41830015685566
 50
111.5573869707189
 51
119.7477070695544
  0
ARC
  5
1ACBF
  8
01
 10
2719.830861347288
 20
-243.5965322583436
 30
0.0000000001127424
 40
95.35952645652287
 50
100.5845482713662
 51
106.9956409078601
  0
ARC
  5
1ACC0
  8
01
 10
2704.799109042945
 20
-165.4083547564817
 30
0.0000000001127424
 40
15.74604109607406
 50
91.06548373904079
 51
99.07832944668091
  0
ARC
  5
1ACC1
  8
01
 10
2787.720475193792
 20
-140.6798434632258
 30
0.0000000001127424
 40
36.90827984237766
 50
274.1704652866193
 51
291.9165942475108
  0
ARC
  5
1ACC2
  8
01
 10
2788.668189344756
 20
-126.0723318311832
 30
0.0000000001127424
 40
51.44737314533389
 50
260.6417062162902
 51
271.9341647169247
  0
LINE
  5
1ACC3
  8
01
 10
2663.208083332233
 20
-207.6313068811962
 30
0.0000000001127424
 11
2708.208083332232
 21
-207.6313068811962
 31
0.0000000001127424
  0
LINE
  5
1ACC4
  8
01
 10
2495.70819967198
 20
-472.6299885670649
 30
0.0000000001127424
 11
2495.70819967198
 21
-522.6299885670649
 31
0.0000000001127424
  0
POLYLINE
  5
1ACC5
  8
01
 66
     1
 10
0.0
 20
0.0
 30
0.0000000001127424
  0
VERTEX
  5
1B9D2
  8
01
 10
2475.356698997316
 20
-479.7345879481161
 30
0.0000000001127424
  0
VERTEX
  5
1B9D3
  8
01
 10
2475.348086329101
 20
-479.7385476162429
 30
0.0000000001127424
  0
VERTEX
  5
1B9D4
  8
01
 10
2475.339473265053
 20
-479.742506424072
 30
0.0000000001127424
  0
VERTEX
  5
1B9D5
  8
01
 10
2475.330859805299
 20
-479.7464643715439
 30
0.0000000001127424
  0
VERTEX
  5
1B9D6
  8
01
 10
2475.322245949969
 20
-479.7504214585992
 30
0.0000000001127424
  0
VERTEX
  5
1B9D7
  8
01
 10
2475.313631699193
 20
-479.754377685179
 30
0.0000000001127424
  0
VERTEX
  5
1B9D8
  8
01
 10
2475.305017053099
 20
-479.7583330512235
 30
0.0000000001127424
  0
VERTEX
  5
1B9D9
  8
01
 10
2475.296402011816
 20
-479.7622875566739
 30
0.0000000001127424
  0
VERTEX
  5
1B9DA
  8
01
 10
2475.287786575472
 20
-479.7662412014708
 30
0.0000000001127424
  0
VERTEX
  5
1B9DB
  8
01
 10
2475.279170744197
 20
-479.7701939855549
 30
0.0000000001127424
  0
VERTEX
  5
1B9DC
  8
01
 10
2475.270554518121
 20
-479.7741459088672
 30
0.0000000001127424
  0
VERTEX
  5
1B9DD
  8
01
 10
2475.26193789737
 20
-479.7780969713485
 30
0.0000000001127424
  0
VERTEX
  5
1B9DE
  8
01
 10
2475.253320882077
 20
-479.7820471729397
 30
0.0000000001127424
  0
VERTEX
  5
1B9DF
  8
01
 10
2475.244703472368
 20
-479.7859965135817
 30
0.0000000001127424
  0
VERTEX
  5
1B9E0
  8
01
 10
2475.236085668373
 20
-479.7899449932153
 30
0.0000000001127424
  0
VERTEX
  5
1B9E1
  8
01
 10
2475.227467470221
 20
-479.7938926117817
 30
0.0000000001127424
  0
VERTEX
  5
1B9E2
  8
01
 10
2475.21884887804
 20
-479.7978393692218
 30
0.0000000001127424
  0
SEQEND
  5
1BC49
  8
01
  0
POLYLINE
  5
1ACC6
  8
01
 66
     1
 10
0.0
 20
0.0
 30
0.0000000001127424
  0
VERTEX
  5
1B9E3
  8
01
 10
2475.193450723883
 20
-479.8137389916881
 30
0.0000000001127424
  0
VERTEX
  5
1B9E4
  8
01
 10
2475.194910737633
 20
-479.812564852522
 30
0.0000000001127424
  0
VERTEX
  5
1B9E5
  8
01
 10
2475.196390282579
 20
-479.8114127809886
 30
0.0000000001127424
  0
VERTEX
  5
1B9E6
  8
01
 10
2475.197888856426
 20
-479.8102832581876
 30
0.0000000001127424
  0
VERTEX
  5
1B9E7
  8
01
 10
2475.199405941243
 20
-479.8091767498913
 30
0.0000000001127424
  0
VERTEX
  5
1B9E8
  8
01
 10
2475.200941004052
 20
-479.8080937059168
 30
0.0000000001127424
  0
VERTEX
  5
1B9E9
  8
01
 10
2475.202493497452
 20
-479.8070345595224
 30
0.0000000001127424
  0
VERTEX
  5
1B9EA
  8
01
 10
2475.204062860258
 20
-479.8059997268361
 30
0.0000000001127424
  0
VERTEX
  5
1B9EB
  8
01
 10
2475.205648518183
 20
-479.804989606312
 30
0.0000000001127424
  0
VERTEX
  5
1B9EC
  8
01
 10
2475.207249884533
 20
-479.8040045782207
 30
0.0000000001127424
  0
VERTEX
  5
1B9ED
  8
01
 10
2475.208866360933
 20
-479.8030450041715
 30
0.0000000001127424
  0
VERTEX
  5
1B9EE
  8
01
 10
2475.210497338069
 20
-479.8021112266709
 30
0.0000000001127424
  0
VERTEX
  5
1B9EF
  8
01
 10
2475.212142196458
 20
-479.8012035687158
 30
0.0000000001127424
  0
VERTEX
  5
1B9F0
  8
01
 10
2475.213800307223
 20
-479.8003223334238
 30
0.0000000001127424
  0
VERTEX
  5
1B9F1
  8
01
 10
2475.2154710329
 20
-479.7994678037011
 30
0.0000000001127424
  0
VERTEX
  5
1B9F2
  8
01
 10
2475.217153728242
 20
-479.79864024195
 30
0.0000000001127424
  0
VERTEX
  5
1B9F3
  8
01
 10
2475.218847741048
 20
-479.7978398898128
 30
0.0000000001127424
  0
SEQEND
  5
1BC4A
  8
01
  0
POLYLINE
  5
1ACC7
  8
01
 66
     1
 10
0.0
 20
0.0
 30
0.0000000001127424
  0
VERTEX
  5
1B9F4
  8
01
 10
2475.226045145701
 20
-479.7948541729927
 30
0.0000000001127424
  0
VERTEX
  5
1B9F5
  8
01
 10
2475.226994311283
 20
-479.7945053266386
 30
0.0000000001127424
  0
VERTEX
  5
1B9F6
  8
01
 10
2475.22794714055
 20
-479.7941656155838
 30
0.0000000001127424
  0
VERTEX
  5
1B9F7
  8
01
 10
2475.228903501455
 20
-479.7938350965545
 30
0.0000000001127424
  0
VERTEX
  5
1B9F8
  8
01
 10
2475.229863260794
 20
-479.7935138237278
 30
0.0000000001127424
  0
VERTEX
  5
1B9F9
  8
01
 10
2475.230826284269
 20
-479.7932018487026
 30
0.0000000001127424
  0
VERTEX
  5
1B9FA
  8
01
 10
2475.231792436557
 20
-479.7928992204726
 30
0.0000000001127424
  0
VERTEX
  5
1B9FB
  8
01
 10
2475.232761581362
 20
-479.7926059854005
 30
0.0000000001127424
  0
VERTEX
  5
1B9FC
  8
01
 10
2475.233733581489
 20
-479.7923221871951
 30
0.0000000001127424
  0
VERTEX
  5
1B9FD
  8
01
 10
2475.234708298903
 20
-479.792047866889
 30
0.0000000001127424
  0
VERTEX
  5
1B9FE
  8
01
 10
2475.235685594798
 20
-479.7917830628193
 30
0.0000000001127424
  0
VERTEX
  5
1B9FF
  8
01
 10
2475.236665329658
 20
-479.7915278106094
 30
0.0000000001127424
  0
VERTEX
  5
1BA00
  8
01
 10
2475.23764736333
 20
-479.7912821431534
 30
0.0000000001127424
  0
VERTEX
  5
1BA01
  8
01
 10
2475.238631555084
 20
-479.7910460906016
 30
0.0000000001127424
  0
VERTEX
  5
1BA02
  8
01
 10
2475.239617763687
 20
-479.7908196803495
 30
0.0000000001127424
  0
VERTEX
  5
1BA03
  8
01
 10
2475.240605847461
 20
-479.7906029370265
 30
0.0000000001127424
  0
VERTEX
  5
1BA04
  8
01
 10
2475.241595664363
 20
-479.7903958824888
 30
0.0000000001127424
  0
SEQEND
  5
1BC4B
  8
01
  0
POLYLINE
  5
1ACC8
  8
01
 10
0.0
 20
0.0
 30
0.0
 66
     1
 70
     8
  0
VERTEX
  5
1BA05
  8
01
 10
2473.787714919531
 20
-480.5117874469304
 30
0.0000000001127424
 70
    32
  0
VERTEX
  5
1BA06
  8
01
 10
2473.787690628496
 20
-480.5114842710676
 30
0.0000000001127424
 70
    32
  0
VERTEX
  5
1BA07
  8
01
 10
2473.787666337461
 20
-480.5111810952048
 30
0.0000000001127424
 70
    32
  0
VERTEX
  5
1BA08
  8
01
 10
2473.787642046426
 20
-480.510877919342
 30
0.0000000001127424
 70
    32
  0
VERTEX
  5
1BA09
  8
01
 10
2473.787617755392
 20
-480.5105747434793
 30
0.0000000001127424
 70
    32
  0
VERTEX
  5
1BA0A
  8
01
 10
2473.787593464357
 20
-480.5102715676164
 30
0.0000000001127424
 70
    32
  0
VERTEX
  5
1BA0B
  8
01
 10
2473.787569173322
 20
-480.5099683917537
 30
0.0000000001127424
 70
    32
  0
VERTEX
  5
1BA0C
  8
01
 10
2473.787544882287
 20
-480.5096652158908
 30
0.0000000001127424
 70
    32
  0
VERTEX
  5
1BA0D
  8
01
 10
2473.787520591252
 20
-480.509362040028
 30
0.0000000001127424
 70
    32
  0
VERTEX
  5
1BA0E
  8
01
 10
2473.787496300217
 20
-480.5090588641652
 30
0.0000000001127424
 70
    32
  0
VERTEX
  5
1BA0F
  8
01
 10
2473.787472009182
 20
-480.5087556883024
 30
0.0000000001127424
 70
    32
  0
VERTEX
  5
1BA10
  8
01
 10
2473.787447718147
 20
-480.5084525124395
 30
0.0000000001127424
 70
    32
  0
VERTEX
  5
1BA11
  8
01
 10
2473.787423427112
 20
-480.5081493365767
 30
0.0000000001127424
 70
    32
  0
VERTEX
  5
1BA12
  8
01
 10
2473.787399136077
 20
-480.5078461607138
 30
0.0000000001127424
 70
    32
  0
VERTEX
  5
1BA13
  8
01
 10
2473.787374845042
 20
-480.5075429848509
 30
0.0000000001127424
 70
    32
  0
VERTEX
  5
1BA14
  8
01
 10
2473.787350554007
 20
-480.5072398089881
 30
0.0000000001127424
 70
    32
  0
VERTEX
  5
1BA15
  8
01
 10
2473.787326262972
 20
-480.5069366331252
 30
0.0000000001127424
 70
    32
  0
SEQEND
  5
1BC4C
  8
01
  0
LINE
  5
1ACC9
  8
01
 10
2490.008199671981
 20
-472.6299136681598
 30
0.0000000001127424
 11
2490.008199671981
 21
-522.6299136681607
 31
0.0000000001127424
  0
LINE
  5
1ACCA
  8
01
 10
2494.008199671981
 20
-472.6299136681598
 30
0.0000000001127424
 11
2494.008199671981
 21
-522.6299136681607
 31
0.0000000001127424
  0
LINE
  5
1ACCB
  8
01
 10
2490.008199671981
 20
-522.6299136681607
 30
0.0000000001127424
 11
2494.008199671981
 21
-522.6299136681607
 31
0.0000000001127424
  0
LINE
  5
1ACCC
  8
01
 10
2490.008199671981
 20
-472.6299136681598
 30
0.0000000001127424
 11
2494.008199671981
 21
-472.6299136681598
 31
0.0000000001127424
  0
ARC
  5
1ACCD
  8
01
 10
2427.850902297408
 20
-572.7295835218044
 30
0.0000000001127424
 40
74.97979918721913
 50
61.97637008316968
 51
81.39122729365309
  0
ARC
  5
1ACCE
  8
01
 10
2401.103098647903
 20
-629.4558706309715
 30
0.0000000001127424
 40
137.6558010829148
 50
54.66489165089928
 51
63.24192381831256
  0
ARC
  5
1ACCF
  8
01
 10
2511.356905731035
 20
-475.7540301790038
 30
0.0000000001127424
 40
51.50840420052681
 50
233.4984023672937
 51
245.5140339849193
  0
ARC
  5
1ACD0
  8
01
 10
2453.413063922605
 20
-474.5270682228136
 30
0.0000000001127424
 40
10.55957840464655
 50
267.652672010516
 51
275.2935122885235
  0
ARC
  5
1ACD1
  8
01
 10
2447.959868519726
 20
-401.9399611501256
 30
0.0000000001127424
 40
83.34983966754666
 50
274.4226697118633
 51
282.6125935486763
  0
ARC
  5
1ACD2
  8
01
 10
2007.142606738492
 20
494.6626327002898
 30
0.0000000001127424
 40
1081.047914932037
 50
295.5055471758428
 51
295.9808108382113
  0
ARC
  5
1ACD3
  8
01
 10
2457.057706667753
 20
-446.5789289173542
 30
0.0000000001127424
 40
37.81146723568217
 50
283.9294579574196
 51
294.3374594454446
  0
ARC
  5
1ACD4
  8
01
 10
-13301.99319924723
 20
32080.00444565743
 30
0.0000000001127424
 40
36180.95233566153
 50
295.8626955977064
 51
295.8790472080691
  0
ARC
  5
1ACD5
  8
01
 10
2468.360191427918
 20
-520.108154846115
 30
0.0000000001127424
 40
39.4095161311463
 50
124.9494716059974
 51
138.4379381523328
  0
ARC
  5
1ACD6
  8
01
 10
2461.792707441794
 20
-512.5030400731819
 30
0.0000000001127424
 40
29.43162331184761
 50
104.8214688106003
 51
122.9507961508658
  0
ARC
  5
1ACD7
  8
01
 10
2466.283065785471
 20
-519.5032838529066
 30
0.0000000001127424
 40
37.46547413852948
 50
137.0225196639014
 51
139.8566238605241
  0
ARC
  5
1ACD8
  8
01
 10
2453.046226174026
 20
-483.8106137296134
 30
0.0000000001127424
 40
1.268871991168467
 50
255.8218718063744
 51
267.0341481340149
  0
ARC
  5
1ACD9
  8
01
 10
2452.798092119229
 20
-484.8004254492032
 30
0.0000000001127424
 40
0.248440728366443
 50
233.8213853016398
 51
255.3914857952527
  0
ARC
  5
1ACDA
  8
01
 10
2452.683849152922
 20
-484.959225928146
 30
0.0000000001127424
 40
0.052843953261427
 50
190.628126257629
 51
232.1666956883484
  0
ARC
  5
1ACDB
  8
01
 10
2452.682822179634
 20
-484.9625966865103
 30
0.0000000001127424
 40
0.0513080807641571
 50
157.7586854436778
 51
187.1379259545049
  0
LINE
  5
1ACDC
  8
01
 10
2452.647651990982
 20
-484.9312232107666
 30
0.0000000001127424
 11
2454.263862448289
 21
-484.0506773622526
 31
0.0000000001127424
  0
ARC
  5
1ACDD
  8
01
 10
2452.66868522622
 20
-484.9652292765265
 30
0.0000000001127424
 40
0.0399851158945239
 50
121.737380337963
 51
146.5277289697685
  0
ARC
  5
1ACDE
  8
01
 10
2446.882961702283
 20
-416.7494837182337
 30
0.0000000001127424
 40
67.70471447197825
 50
276.2585984589597
 51
281.299321230454
  0
ARC
  5
1ACDF
  8
01
 10
2464.589541480557
 20
-513.140960594638
 30
0.0000000001127424
 40
30.32600447172325
 50
90.86712512806716
 51
98.42057688123103
  0
ARC
  5
1ACE0
  8
01
 10
2464.539764276215
 20
-485.7195138304421
 30
0.0000000001127424
 40
2.929796701681882
 50
56.42670905881165
 51
98.0279617979048
  0
ARC
  5
1ACE1
  8
01
 10
2439.205498971517
 20
-496.5416156170047
 30
0.0000000001127424
 40
1.996953838373148
 50
185.0692279951487
 51
229.9059591928501
  0
ARC
  5
1ACE2
  8
01
 10
2439.14410755189
 20
-496.5683207411628
 30
0.0000000001127424
 40
1.933558857340185
 50
141.253757707365
 51
184.44171711971
  0
ARC
  5
1ACE3
  8
01
 10
2439.200285582668
 20
-496.7852301880973
 30
0.0000000001127424
 40
1.813691215017145
 50
225.0696732533789
 51
266.019462250266
  0
LINE
  5
1ACE4
  8
01
 10
2495.70819967198
 20
-520.1299885670649
 30
0.0000000001127424
 11
2494.008199671981
 21
-520.1299885670649
 31
0.0000000001127424
  0
LINE
  5
1ACE5
  8
01
 10
2495.70819967198
 20
-475.1299885670649
 30
0.0000000001127424
 11
2494.008199671981
 21
-475.1299885670649
 31
0.0000000001127424
  0
POLYLINE
  5
1ACE6
  8
01
 10
0.0
 20
0.0
 30
0.0
 66
     1
 70
     8
  0
VERTEX
  5
1BA16
  8
01
 10
2473.787714919531
 20
-480.5117874469304
 30
0.0000000001127424
 70
    32
  0
VERTEX
  5
1BA17
  8
01
 10
2473.787690628496
 20
-480.5114842710676
 30
0.0000000001127424
 70
    32
  0
VERTEX
  5
1BA18
  8
01
 10
2473.787666337461
 20
-480.5111810952048
 30
0.0000000001127424
 70
    32
  0
VERTEX
  5
1BA19
  8
01
 10
2473.787642046426
 20
-480.510877919342
 30
0.0000000001127424
 70
    32
  0
VERTEX
  5
1BA1A
  8
01
 10
2473.787617755392
 20
-480.5105747434793
 30
0.0000000001127424
 70
    32
  0
VERTEX
  5
1BA1B
  8
01
 10
2473.787593464357
 20
-480.5102715676164
 30
0.0000000001127424
 70
    32
  0
VERTEX
  5
1BA1C
  8
01
 10
2473.787569173322
 20
-480.5099683917537
 30
0.0000000001127424
 70
    32
  0
VERTEX
  5
1BA1D
  8
01
 10
2473.787544882287
 20
-480.5096652158908
 30
0.0000000001127424
 70
    32
  0
VERTEX
  5
1BA1E
  8
01
 10
2473.787520591252
 20
-480.509362040028
 30
0.0000000001127424
 70
    32
  0
VERTEX
  5
1BA1F
  8
01
 10
2473.787496300217
 20
-480.5090588641652
 30
0.0000000001127424
 70
    32
  0
VERTEX
  5
1BA20
  8
01
 10
2473.787472009182
 20
-480.5087556883024
 30
0.0000000001127424
 70
    32
  0
VERTEX
  5
1BA21
  8
01
 10
2473.787447718147
 20
-480.5084525124395
 30
0.0000000001127424
 70
    32
  0
VERTEX
  5
1BA22
  8
01
 10
2473.787423427112
 20
-480.5081493365767
 30
0.0000000001127424
 70
    32
  0
VERTEX
  5
1BA23
  8
01
 10
2473.787399136077
 20
-480.5078461607138
 30
0.0000000001127424
 70
    32
  0
VERTEX
  5
1BA24
  8
01
 10
2473.787374845042
 20
-480.5075429848509
 30
0.0000000001127424
 70
    32
  0
VERTEX
  5
1BA25
  8
01
 10
2473.787350554007
 20
-480.5072398089881
 30
0.0000000001127424
 70
    32
  0
VERTEX
  5
1BA26
  8
01
 10
2473.787326262972
 20
-480.5069366331252
 30
0.0000000001127424
 70
    32
  0
SEQEND
  5
1BC4D
  8
01
  0
POLYLINE
  5
1ACE7
  8
01
 10
0.0
 20
0.0
 30
0.0
 66
     1
 70
     8
  0
VERTEX
  5
1BA27
  8
01
 10
2473.787714919531
 20
-480.5117874469304
 30
0.0000000001127424
 70
    32
  0
VERTEX
  5
1BA28
  8
01
 10
2473.787690628496
 20
-480.5114842710676
 30
0.0000000001127424
 70
    32
  0
VERTEX
  5
1BA29
  8
01
 10
2473.787666337461
 20
-480.5111810952048
 30
0.0000000001127424
 70
    32
  0
VERTEX
  5
1BA2A
  8
01
 10
2473.787642046426
 20
-480.510877919342
 30
0.0000000001127424
 70
    32
  0
VERTEX
  5
1BA2B
  8
01
 10
2473.787617755392
 20
-480.5105747434793
 30
0.0000000001127424
 70
    32
  0
VERTEX
  5
1BA2C
  8
01
 10
2473.787593464357
 20
-480.5102715676164
 30
0.0000000001127424
 70
    32
  0
VERTEX
  5
1BA2D
  8
01
 10
2473.787569173322
 20
-480.5099683917537
 30
0.0000000001127424
 70
    32
  0
VERTEX
  5
1BA2E
  8
01
 10
2473.787544882287
 20
-480.5096652158908
 30
0.0000000001127424
 70
    32
  0
VERTEX
  5
1BA2F
  8
01
 10
2473.787520591252
 20
-480.509362040028
 30
0.0000000001127424
 70
    32
  0
VERTEX
  5
1BA30
  8
01
 10
2473.787496300217
 20
-480.5090588641652
 30
0.0000000001127424
 70
    32
  0
VERTEX
  5
1BA31
  8
01
 10
2473.787472009182
 20
-480.5087556883024
 30
0.0000000001127424
 70
    32
  0
VERTEX
  5
1BA32
  8
01
 10
2473.787447718147
 20
-480.5084525124395
 30
0.0000000001127424
 70
    32
  0
VERTEX
  5
1BA33
  8
01
 10
2473.787423427112
 20
-480.5081493365767
 30
0.0000000001127424
 70
    32
  0
VERTEX
  5
1BA34
  8
01
 10
2473.787399136077
 20
-480.5078461607138
 30
0.0000000001127424
 70
    32
  0
VERTEX
  5
1BA35
  8
01
 10
2473.787374845042
 20
-480.5075429848509
 30
0.0000000001127424
 70
    32
  0
VERTEX
  5
1BA36
  8
01
 10
2473.787350554007
 20
-480.5072398089881
 30
0.0000000001127424
 70
    32
  0
VERTEX
  5
1BA37
  8
01
 10
2473.787326262972
 20
-480.5069366331252
 30
0.0000000001127424
 70
    32
  0
SEQEND
  5
1BC4E
  8
01
  0
POLYLINE
  5
1ACE8
  8
01
 10
0.0
 20
0.0
 30
0.0
 66
     1
 70
     8
  0
VERTEX
  5
1BA38
  8
01
 10
2473.787714919531
 20
-480.5117874469304
 30
0.0000000001127424
 70
    32
  0
VERTEX
  5
1BA39
  8
01
 10
2473.787690628496
 20
-480.5114842710676
 30
0.0000000001127424
 70
    32
  0
VERTEX
  5
1BA3A
  8
01
 10
2473.787666337461
 20
-480.5111810952048
 30
0.0000000001127424
 70
    32
  0
VERTEX
  5
1BA3B
  8
01
 10
2473.787642046426
 20
-480.510877919342
 30
0.0000000001127424
 70
    32
  0
VERTEX
  5
1BA3C
  8
01
 10
2473.787617755392
 20
-480.5105747434793
 30
0.0000000001127424
 70
    32
  0
VERTEX
  5
1BA3D
  8
01
 10
2473.787593464357
 20
-480.5102715676164
 30
0.0000000001127424
 70
    32
  0
VERTEX
  5
1BA3E
  8
01
 10
2473.787569173322
 20
-480.5099683917537
 30
0.0000000001127424
 70
    32
  0
VERTEX
  5
1BA3F
  8
01
 10
2473.787544882287
 20
-480.5096652158908
 30
0.0000000001127424
 70
    32
  0
VERTEX
  5
1BA40
  8
01
 10
2473.787520591252
 20
-480.509362040028
 30
0.0000000001127424
 70
    32
  0
VERTEX
  5
1BA41
  8
01
 10
2473.787496300217
 20
-480.5090588641652
 30
0.0000000001127424
 70
    32
  0
VERTEX
  5
1BA42
  8
01
 10
2473.787472009182
 20
-480.5087556883024
 30
0.0000000001127424
 70
    32
  0
VERTEX
  5
1BA43
  8
01
 10
2473.787447718147
 20
-480.5084525124395
 30
0.0000000001127424
 70
    32
  0
VERTEX
  5
1BA44
  8
01
 10
2473.787423427112
 20
-480.5081493365767
 30
0.0000000001127424
 70
    32
  0
VERTEX
  5
1BA45
  8
01
 10
2473.787399136077
 20
-480.5078461607138
 30
0.0000000001127424
 70
    32
  0
VERTEX
  5
1BA46
  8
01
 10
2473.787374845042
 20
-480.5075429848509
 30
0.0000000001127424
 70
    32
  0
VERTEX
  5
1BA47
  8
01
 10
2473.787350554007
 20
-480.5072398089881
 30
0.0000000001127424
 70
    32
  0
VERTEX
  5
1BA48
  8
01
 10
2473.787326262972
 20
-480.5069366331252
 30
0.0000000001127424
 70
    32
  0
SEQEND
  5
1BC4F
  8
01
  0
POLYLINE
  5
1ACE9
  8
01
 10
0.0
 20
0.0
 30
0.0
 66
     1
 70
     8
  0
VERTEX
  5
1BA49
  8
01
 10
2473.787714919531
 20
-480.5117874469304
 30
0.0000000001127424
 70
    32
  0
VERTEX
  5
1BA4A
  8
01
 10
2473.787690628496
 20
-480.5114842710676
 30
0.0000000001127424
 70
    32
  0
VERTEX
  5
1BA4B
  8
01
 10
2473.787666337461
 20
-480.5111810952048
 30
0.0000000001127424
 70
    32
  0
VERTEX
  5
1BA4C
  8
01
 10
2473.787642046426
 20
-480.510877919342
 30
0.0000000001127424
 70
    32
  0
VERTEX
  5
1BA4D
  8
01
 10
2473.787617755392
 20
-480.5105747434793
 30
0.0000000001127424
 70
    32
  0
VERTEX
  5
1BA4E
  8
01
 10
2473.787593464357
 20
-480.5102715676164
 30
0.0000000001127424
 70
    32
  0
VERTEX
  5
1BA4F
  8
01
 10
2473.787569173322
 20
-480.5099683917537
 30
0.0000000001127424
 70
    32
  0
VERTEX
  5
1BA50
  8
01
 10
2473.787544882287
 20
-480.5096652158908
 30
0.0000000001127424
 70
    32
  0
VERTEX
  5
1BA51
  8
01
 10
2473.787520591252
 20
-480.509362040028
 30
0.0000000001127424
 70
    32
  0
VERTEX
  5
1BA52
  8
01
 10
2473.787496300217
 20
-480.5090588641652
 30
0.0000000001127424
 70
    32
  0
VERTEX
  5
1BA53
  8
01
 10
2473.787472009182
 20
-480.5087556883024
 30
0.0000000001127424
 70
    32
  0
VERTEX
  5
1BA54
  8
01
 10
2473.787447718147
 20
-480.5084525124395
 30
0.0000000001127424
 70
    32
  0
VERTEX
  5
1BA55
  8
01
 10
2473.787423427112
 20
-480.5081493365767
 30
0.0000000001127424
 70
    32
  0
VERTEX
  5
1BA56
  8
01
 10
2473.787399136077
 20
-480.5078461607138
 30
0.0000000001127424
 70
    32
  0
VERTEX
  5
1BA57
  8
01
 10
2473.787374845042
 20
-480.5075429848509
 30
0.0000000001127424
 70
    32
  0
VERTEX
  5
1BA58
  8
01
 10
2473.787350554007
 20
-480.5072398089881
 30
0.0000000001127424
 70
    32
  0
VERTEX
  5
1BA59
  8
01
 10
2473.787326262972
 20
-480.5069366331252
 30
0.0000000001127424
 70
    32
  0
SEQEND
  5
1BC50
  8
01
  0
POLYLINE
  5
1ACEA
  8
01
 10
0.0
 20
0.0
 30
0.0
 66
     1
 70
     8
  0
VERTEX
  5
1BA5A
  8
01
 10
2473.787714919531
 20
-480.5117874469304
 30
0.0000000001127424
 70
    32
  0
VERTEX
  5
1BA5B
  8
01
 10
2473.787690628496
 20
-480.5114842710676
 30
0.0000000001127424
 70
    32
  0
VERTEX
  5
1BA5C
  8
01
 10
2473.787666337461
 20
-480.5111810952048
 30
0.0000000001127424
 70
    32
  0
VERTEX
  5
1BA5D
  8
01
 10
2473.787642046426
 20
-480.510877919342
 30
0.0000000001127424
 70
    32
  0
VERTEX
  5
1BA5E
  8
01
 10
2473.787617755392
 20
-480.5105747434793
 30
0.0000000001127424
 70
    32
  0
VERTEX
  5
1BA5F
  8
01
 10
2473.787593464357
 20
-480.5102715676164
 30
0.0000000001127424
 70
    32
  0
VERTEX
  5
1BA60
  8
01
 10
2473.787569173322
 20
-480.5099683917537
 30
0.0000000001127424
 70
    32
  0
VERTEX
  5
1BA61
  8
01
 10
2473.787544882287
 20
-480.5096652158908
 30
0.0000000001127424
 70
    32
  0
VERTEX
  5
1BA62
  8
01
 10
2473.787520591252
 20
-480.509362040028
 30
0.0000000001127424
 70
    32
  0
VERTEX
  5
1BA63
  8
01
 10
2473.787496300217
 20
-480.5090588641652
 30
0.0000000001127424
 70
    32
  0
VERTEX
  5
1BA64
  8
01
 10
2473.787472009182
 20
-480.5087556883024
 30
0.0000000001127424
 70
    32
  0
VERTEX
  5
1BA65
  8
01
 10
2473.787447718147
 20
-480.5084525124395
 30
0.0000000001127424
 70
    32
  0
VERTEX
  5
1BA66
  8
01
 10
2473.787423427112
 20
-480.5081493365767
 30
0.0000000001127424
 70
    32
  0
VERTEX
  5
1BA67
  8
01
 10
2473.787399136077
 20
-480.5078461607138
 30
0.0000000001127424
 70
    32
  0
VERTEX
  5
1BA68
  8
01
 10
2473.787374845042
 20
-480.5075429848509
 30
0.0000000001127424
 70
    32
  0
VERTEX
  5
1BA69
  8
01
 10
2473.787350554007
 20
-480.5072398089881
 30
0.0000000001127424
 70
    32
  0
VERTEX
  5
1BA6A
  8
01
 10
2473.787326262972
 20
-480.5069366331252
 30
0.0000000001127424
 70
    32
  0
SEQEND
  5
1BC51
  8
01
  0
POLYLINE
  5
1ACEB
  8
01
 10
0.0
 20
0.0
 30
0.0
 66
     1
 70
     8
  0
VERTEX
  5
1BA6B
  8
01
 10
2473.787714919531
 20
-480.5117874469304
 30
0.0000000001127424
 70
    32
  0
VERTEX
  5
1BA6C
  8
01
 10
2473.787690628496
 20
-480.5114842710676
 30
0.0000000001127424
 70
    32
  0
VERTEX
  5
1BA6D
  8
01
 10
2473.787666337461
 20
-480.5111810952048
 30
0.0000000001127424
 70
    32
  0
VERTEX
  5
1BA6E
  8
01
 10
2473.787642046426
 20
-480.510877919342
 30
0.0000000001127424
 70
    32
  0
VERTEX
  5
1BA6F
  8
01
 10
2473.787617755392
 20
-480.5105747434793
 30
0.0000000001127424
 70
    32
  0
VERTEX
  5
1BA70
  8
01
 10
2473.787593464357
 20
-480.5102715676164
 30
0.0000000001127424
 70
    32
  0
VERTEX
  5
1BA71
  8
01
 10
2473.787569173322
 20
-480.5099683917537
 30
0.0000000001127424
 70
    32
  0
VERTEX
  5
1BA72
  8
01
 10
2473.787544882287
 20
-480.5096652158908
 30
0.0000000001127424
 70
    32
  0
VERTEX
  5
1BA73
  8
01
 10
2473.787520591252
 20
-480.509362040028
 30
0.0000000001127424
 70
    32
  0
VERTEX
  5
1BA74
  8
01
 10
2473.787496300217
 20
-480.5090588641652
 30
0.0000000001127424
 70
    32
  0
VERTEX
  5
1BA75
  8
01
 10
2473.787472009182
 20
-480.5087556883024
 30
0.0000000001127424
 70
    32
  0
VERTEX
  5
1BA76
  8
01
 10
2473.787447718147
 20
-480.5084525124395
 30
0.0000000001127424
 70
    32
  0
VERTEX
  5
1BA77
  8
01
 10
2473.787423427112
 20
-480.5081493365767
 30
0.0000000001127424
 70
    32
  0
VERTEX
  5
1BA78
  8
01
 10
2473.787399136077
 20
-480.5078461607138
 30
0.0000000001127424
 70
    32
  0
VERTEX
  5
1BA79
  8
01
 10
2473.787374845042
 20
-480.5075429848509
 30
0.0000000001127424
 70
    32
  0
VERTEX
  5
1BA7A
  8
01
 10
2473.787350554007
 20
-480.5072398089881
 30
0.0000000001127424
 70
    32
  0
VERTEX
  5
1BA7B
  8
01
 10
2473.787326262972
 20
-480.5069366331252
 30
0.0000000001127424
 70
    32
  0
SEQEND
  5
1BC52
  8
01
  0
POLYLINE
  5
1ACEC
  8
01
 10
0.0
 20
0.0
 30
0.0
 66
     1
 70
     8
  0
VERTEX
  5
1BA7C
  8
01
 10
2473.787714919531
 20
-480.5117874469304
 30
0.0000000001127424
 70
    32
  0
VERTEX
  5
1BA7D
  8
01
 10
2473.787690628496
 20
-480.5114842710676
 30
0.0000000001127424
 70
    32
  0
VERTEX
  5
1BA7E
  8
01
 10
2473.787666337461
 20
-480.5111810952048
 30
0.0000000001127424
 70
    32
  0
VERTEX
  5
1BA7F
  8
01
 10
2473.787642046426
 20
-480.510877919342
 30
0.0000000001127424
 70
    32
  0
VERTEX
  5
1BA80
  8
01
 10
2473.787617755392
 20
-480.5105747434793
 30
0.0000000001127424
 70
    32
  0
VERTEX
  5
1BA81
  8
01
 10
2473.787593464357
 20
-480.5102715676164
 30
0.0000000001127424
 70
    32
  0
VERTEX
  5
1BA82
  8
01
 10
2473.787569173322
 20
-480.5099683917537
 30
0.0000000001127424
 70
    32
  0
VERTEX
  5
1BA83
  8
01
 10
2473.787544882287
 20
-480.5096652158908
 30
0.0000000001127424
 70
    32
  0
VERTEX
  5
1BA84
  8
01
 10
2473.787520591252
 20
-480.509362040028
 30
0.0000000001127424
 70
    32
  0
VERTEX
  5
1BA85
  8
01
 10
2473.787496300217
 20
-480.5090588641652
 30
0.0000000001127424
 70
    32
  0
VERTEX
  5
1BA86
  8
01
 10
2473.787472009182
 20
-480.5087556883024
 30
0.0000000001127424
 70
    32
  0
VERTEX
  5
1BA87
  8
01
 10
2473.787447718147
 20
-480.5084525124395
 30
0.0000000001127424
 70
    32
  0
VERTEX
  5
1BA88
  8
01
 10
2473.787423427112
 20
-480.5081493365767
 30
0.0000000001127424
 70
    32
  0
VERTEX
  5
1BA89
  8
01
 10
2473.787399136077
 20
-480.5078461607138
 30
0.0000000001127424
 70
    32
  0
VERTEX
  5
1BA8A
  8
01
 10
2473.787374845042
 20
-480.5075429848509
 30
0.0000000001127424
 70
    32
  0
VERTEX
  5
1BA8B
  8
01
 10
2473.787350554007
 20
-480.5072398089881
 30
0.0000000001127424
 70
    32
  0
VERTEX
  5
1BA8C
  8
01
 10
2473.787326262972
 20
-480.5069366331252
 30
0.0000000001127424
 70
    32
  0
SEQEND
  5
1BC53
  8
01
  0
LINE
  5
1ACED
  8
01
 10
2495.70819967198
 20
-475.1299885670649
 30
0.0000000001127424
 11
2495.70819967198
 21
-520.1299885670649
 31
0.0000000001127424
  0
LINE
  5
1ACEE
  8
01
 10
2331.866081401905
 20
-499.4146057399746
 30
0.0000000001127424
 11
2249.771821140986
 21
-498.5210568847222
 31
0.0000000001127424
  0
LINE
  5
1ACEF
  8
01
 10
2331.545988177847
 20
-485.0737066209701
 30
0.0000000001127424
 11
2249.769678459449
 21
-482.8881860520603
 31
0.0000000001127424
  0
ARC
  5
1ACF0
  8
01
 10
2345.70819967198
 20
-497.6299885670649
 30
0.0000000001127424
 40
24.99979096596576
 50
183.8159450626858
 51
149.329332180349
  0
ARC
  5
1ACF1
  8
01
 10
2345.531859326245
 20
-503.2885727206728
 30
0.0000000001127424
 40
29.51711322463888
 50
115.080659307837
 51
121.8309803400606
  0
ARC
  5
1ACF2
  8
01
 10
2339.706406358139
 20
-490.9341798204448
 30
0.0000000001127424
 40
15.85826769269537
 50
102.5664197723256
 51
114.9389114331406
  0
ARC
  5
1ACF3
  8
01
 10
2337.941689272288
 20
-483.3780059049047
 30
0.0000000001127424
 40
8.099534243652876
 50
78.76030635231065
 51
102.0115563561063
  0
ARC
  5
1ACF4
  8
01
 10
2337.141098089555
 20
-486.3116812279056
 30
0.0000000001127424
 40
11.13503455607863
 50
53.59028312162563
 51
77.66206717022331
  0
ARC
  5
1ACF5
  8
01
 10
2340.661053600029
 20
-481.7748989160798
 30
0.0000000001127424
 40
5.396391158680872
 50
13.72995776987091
 51
55.07693742677935
  0
ARC
  5
1ACF6
  8
01
 10
2341.669619701634
 20
-481.490260726029
 30
0.0000000001127424
 40
4.349245370029341
 50
357.324666376044
 51
13.24087098957739
  0
ARC
  5
1ACF7
  8
01
 10
2343.450569584908
 20
-481.6138941140305
 30
0.0000000001127424
 40
2.564783586505675
 50
331.6935918637139
 51
358.2265522835368
  0
ARC
  5
1ACF8
  8
01
 10
2333.612148450081
 20
-428.1677621973083
 30
0.0000000001127424
 40
56.94344149258469
 50
267.9205988974863
 51
278.0849286292139
  0
ARC
  5
1ACF9
  8
01
 10
2343.121430597909
 20
-481.0418194532438
 30
0.0000000001127424
 40
3.145102773129
 50
281.535222775525
 51
325.3483296958967
  0
ARC
  5
1ACFA
  8
01
 10
2339.762913829457
 20
-469.5791564534672
 30
0.0000000001127424
 40
15.08093668083644
 50
277.0761872456318
 51
285.3314782045515
  0
ARC
  5
1ACFB
  8
01
 10
2245.08020714384
 20
-601.9802884044864
 30
0.0000000001127424
 40
119.1843948843166
 50
87.74503792698465
 51
94.78724667858097
  0
ARC
  5
1ACFC
  8
01
 10
2237.572498579521
 20
-515.7683047844082
 30
0.0000000001127424
 40
32.64785966672855
 50
94.28425498062074
 51
106.5803109969807
  0
ARC
  5
1ACFD
  8
01
 10
2251.363099842799
 20
-390.6402692239051
 30
0.0000000001127424
 40
107.8925229764554
 50
261.3485416296159
 51
269.1549288414873
  0
ARC
  5
1ACFE
  8
01
 10
2239.153182022502
 20
-465.3463163853528
 30
0.0000000001127424
 40
32.21063361533734
 50
250.2263103155129
 51
262.831251392103
  0
ARC
  5
1ACFF
  8
01
 10
2232.231418285274
 20
-502.8931961143287
 30
0.0000000001127424
 40
18.83945955420323
 50
102.1814448968919
 51
122.8795872201328
  0
ARC
  5
1AD00
  8
01
 10
2233.275204428158
 20
-477.4134339693635
 30
0.0000000001127424
 40
18.92204771753521
 50
233.4397150227565
 51
254.6182092025084
  0
ARC
  5
1AD01
  8
01
 10
2224.306871608772
 20
-489.8442340636764
 30
0.0000000001127424
 40
3.600712235186706
 50
179.4438319266212
 51
230.2397660542046
  0
ARC
  5
1AD02
  8
01
 10
2224.104574206215
 20
-489.7435936395784
 30
0.0000000001127424
 40
3.398880028698698
 50
128.1729112081738
 51
181.1074048279137
  0
LINE
  5
1AD03
  8
01
 10
2313.495529827068
 20
-497.8787905729803
 30
0.0000000001127424
 11
2249.771821140982
 21
-498.5210568847222
 31
0.0000000001127424
  0
ARC
  5
1AD04
  8
01
 10
2319.671993819656
 20
-1283.46258827324
 30
0.0000000001127424
 40
785.6080778076408
 50
88.96716846853423
 51
90.45046502810717
  0
ARC
  5
1AD05
  8
01
 10
2325.860155674153
 20
-614.5492555990793
 30
0.0000000001127424
 40
116.8394382932455
 50
81.46569590921149
 51
86.08730975270431
  0
ARC
  5
1AD06
  8
01
 10
2337.900969259727
 20
-525.2452955502974
 30
0.0000000001127424
 40
26.77127486492728
 50
64.99335655355682
 51
78.5851565599564
  0
ARC
  5
1AD07
  8
01
 10
2345.731789354834
 20
-509.5396322225104
 30
0.0000000001127424
 40
9.23894837916856
 50
42.14279980735831
 51
67.83233959976079
  0
ARC
  5
1AD08
  8
01
 10
2345.646363094934
 20
-508.7205191070923
 30
0.0000000001127424
 40
8.77788172044793
 50
7.662988097679852
 51
37.80014194772417
  0
ARC
  5
1AD09
  8
01
 10
2342.774720100219
 20
-509.5636190666744
 30
0.0000000001127424
 40
11.74502933276003
 50
345.8306852090835
 51
9.871690768987309
  0
ARC
  5
1AD0A
  8
01
 10
2343.166279913034
 20
-509.4922085853239
 30
0.0000000001127424
 40
11.38405962301786
 50
319.9534576497223
 51
344.9997753237635
  0
ARC
  5
1AD0B
  8
01
 10
2341.85949008537
 20
-508.7912539792976
 30
0.0000000001127424
 40
12.83904139673257
 50
290.4064153573569
 51
321.3111364477911
  0
ARC
  5
1AD0C
  8
01
 10
2341.304955905093
 20
-501.6263900017427
 30
0.0000000001127424
 40
19.84647679739424
 50
256.1970681715521
 51
284.6851111710645
  0
ARC
  5
1AD0D
  8
01
 10
2344.608020508232
 20
-516.4988934586952
 30
0.0000000001127424
 40
2.778981984552072
 50
74.14872525278386
 51
98.90837002113446
  0
ARC
  5
1AD0E
  8
01
 10
2344.381431766927
 20
-514.9835521287284
 30
0.0000000001127424
 40
1.246878291068781
 50
99.40475608025419
 51
134.9149620976443
  0
ARC
  5
1AD0F
  8
01
 10
2344.43533991889
 20
-514.904214975152
 30
0.0000000001127424
 40
1.232362359911368
 50
139.2984657511622
 51
189.8072898165616
  0
ARC
  5
1AD10
  8
01
 10
2344.172421333623
 20
-518.300448148361
 30
0.0000000001127424
 40
4.631586763479185
 50
52.4717928217903
 51
75.05236296371154
  0
ARC
  5
1AD11
  8
01
 10
2344.866598922544
 20
-517.4726257063528
 30
0.0000000001127424
 40
3.552520702786541
 50
30.64114269676199
 51
53.21774915766423
  0
ARC
  5
1AD12
  8
01
 10
2346.300596008753
 20
-516.6580222288046
 30
0.0000000001127424
 40
1.903809481831612
 50
354.9979874551486
 51
31.54357455622682
  0
ARC
  5
1AD13
  8
01
 10
2346.079496513278
 20
-514.6892830843797
 30
0.0000000001127424
 40
2.889908447323687
 50
188.453705955109
 51
212.4213441604217
  0
ARC
  5
1AD14
  8
01
 10
2347.253925433391
 20
-514.0287810358702
 30
0.0000000001127424
 40
4.236013342244362
 50
211.4459274564218
 51
231.3567311383077
  0
ARC
  5
1AD15
  8
01
 10
2346.860351534965
 20
-516.6637489172051
 30
0.0000000001127424
 40
1.346376446120278
 50
305.3277457675526
 51
353.1635039422531
  0
ARC
  5
1AD16
  8
01
 10
2346.801146638339
 20
-514.6651464087142
 30
0.0000000001127424
 40
3.45651100728506
 50
230.631530635568
 51
256.9311281712542
  0
ARC
  5
1AD17
  8
01
 10
2346.630514080688
 20
-516.333312605441
 30
0.0000000001127424
 40
1.748873214865161
 50
277.9653127474504
 51
305.2110796864671
  0
ARC
  5
1AD18
  8
01
 10
2346.537460129261
 20
-515.7021174995396
 30
0.0000000001127424
 40
2.386878064591476
 50
257.4682279798956
 51
278.0778753014807
  0
LINE
  5
1AD19
  8
1CENTER
 10
2481.20819967198
 20
-522.6299136681607
 30
0.0000000001127424
 11
2481.20819967198
 21
-504.6299885670649
 31
0.0000000001127424
  0
LINE
  5
1B440
  8
01
 10
2325.708079332232
 20
-442.1313068801674
 30
0.0000000001127424
 11
2325.708079332232
 21
-413.3313068801673
 31
0.0000000001127424
1001
ACAD
1000
DSTYLE
1002
{
1070
     3
1000
φ<>
1070
    40
1040
1.3
1070
    45
1040
0.5
1070
   271
1070
     4
1070
   272
1070
     2
1002
}
  0
LINE
  5
1B441
  8
01
 10
2365.708079332232
 20
-442.1313068801674
 30
0.0000000001127424
 11
2365.708079332232
 21
-413.3313068801673
 31
0.0000000001127424
1001
ACAD
1000
DSTYLE
1002
{
1070
     3
1000
φ<>
1070
    40
1040
1.3
1070
    45
1040
0.5
1070
   271
1070
     4
1070
   272
1070
     2
1002
}
  0
LINE
  5
1B442
  8
01
 10
2328.308079332232
 20
-414.6313068801674
 30
0.0000000001127424
 11
2363.108079332232
 21
-414.6313068801674
 31
0.0000000001127424
1001
ACAD
1000
DSTYLE
1002
{
1070
     3
1000
φ<>
1070
    40
1040
1.3
1070
    45
1040
0.5
1070
   271
1070
     4
1070
   272
1070
     2
1002
}
  0
LINE
  5
1B446
  8
01
 10
2495.708083332237
 20
-422.1313068801674
 30
0.0000000001127424
 11
2495.708083332237
 21
-390.3313068801673
 31
0.0000000001127424
1001
ACAD
1000
DSTYLE
1002
{
1070
    40
1040
1.3
1070
    45
1040
0.5
1070
   341
1005
0
1002
}
  0
LINE
  5
1B447
  8
01
 10
2473.707697766517
 20
-437.6313118801663
 30
0.0000000001127424
 11
2473.707697766517
 21
-390.3313068801673
 31
0.0000000001127424
1001
ACAD
1000
DSTYLE
1002
{
1070
    40
1040
1.3
1070
    45
1040
0.5
1070
   341
1005
0
1002
}
  0
LINE
  5
1B448
  8
01
 10
2493.108083332237
 20
-391.6313068801674
 30
0.0000000001127424
 11
2476.307697766517
 21
-391.6313068801674
 31
0.0000000001127424
1001
ACAD
1000
DSTYLE
1002
{
1070
    40
1040
1.3
1070
    45
1040
0.5
1070
   341
1005
0
1002
}
  0
LINE
  5
1B44C
  8
01
 10
2665.707966670031
 20
-442.1313068801674
 30
0.0000000001127424
 11
2665.707966670031
 21
-413.3313068801673
 31
0.0000000001127424
1001
ACAD
1000
DSTYLE
1002
{
1070
     3
1000
φ<>
1070
    40
1040
1.3
1070
    45
1040
0.5
1070
   271
1070
     4
1070
   272
1070
     2
1002
}
  0
LINE
  5
1B44D
  8
01
 10
2705.707966670031
 20
-442.1313068801674
 30
0.0000000001127424
 11
2705.707966670031
 21
-413.3313068801673
 31
0.0000000001127424
1001
ACAD
1000
DSTYLE
1002
{
1070
     3
1000
φ<>
1070
    40
1040
1.3
1070
    45
1040
0.5
1070
   271
1070
     4
1070
   272
1070
     2
1002
}
  0
LINE
  5
1B44E
  8
01
 10
2668.307966670031
 20
-414.6313068801674
 30
0.0000000001127424
 11
2703.107966670031
 21
-414.6313068801674
 31
0.0000000001127424
1001
ACAD
1000
DSTYLE
1002
{
1070
     3
1000
φ<>
1070
    40
1040
1.3
1070
    45
1040
0.5
1070
   271
1070
     4
1070
   272
1070
     2
1002
}
  0
LINE
  5
1B452
  8
01
 10
2325.708079332232
 20
-442.1313068801674
 30
0.0000000001127424
 11
2325.708079332232
 21
-413.3313068801673
 31
0.0000000001127424
1001
ACAD
1000
DSTYLE
1002
{
1070
     3
1000
φ<>
1070
    40
1040
1.3
1070
    45
1040
0.5
1070
   271
1070
     4
1070
   272
1070
     2
1002
}
  0
LINE
  5
1B453
  8
01
 10
2365.708079332232
 20
-442.1313068801674
 30
0.0000000001127424
 11
2365.708079332232
 21
-413.3313068801673
 31
0.0000000001127424
1001
ACAD
1000
DSTYLE
1002
{
1070
     3
1000
φ<>
1070
    40
1040
1.3
1070
    45
1040
0.5
1070
   271
1070
     4
1070
   272
1070
     2
1002
}
  0
LINE
  5
1B454
  8
01
 10
2328.308079332232
 20
-414.6313068801674
 30
0.0000000001127424
 11
2363.108079332232
 21
-414.6313068801674
 31
0.0000000001127424
1001
ACAD
1000
DSTYLE
1002
{
1070
     3
1000
φ<>
1070
    40
1040
1.3
1070
    45
1040
0.5
1070
   271
1070
     4
1070
   272
1070
     2
1002
}
  0
LINE
  5
1B458
  8
01
 10
2495.708083332237
 20
-422.1313068801674
 30
0.0000000001127424
 11
2495.708083332237
 21
-390.3313068801673
 31
0.0000000001127424
1001
ACAD
1000
DSTYLE
1002
{
1070
    40
1040
1.3
1070
    45
1040
0.5
1070
   341
1005
0
1002
}
  0
LINE
  5
1B459
  8
01
 10
2473.708058521225
 20
-439.0108370553914
 30
0.0000000001127424
 11
2473.708058521225
 21
-390.3313068801673
 31
0.0000000001127424
1001
ACAD
1000
DSTYLE
1002
{
1070
    40
1040
1.3
1070
    45
1040
0.5
1070
   341
1005
0
1002
}
  0
LINE
  5
1B45A
  8
01
 10
2493.108083332237
 20
-391.6313068801674
 30
0.0000000001127424
 11
2476.308058521225
 21
-391.6313068801674
 31
0.0000000001127424
1001
ACAD
1000
DSTYLE
1002
{
1070
    40
1040
1.3
1070
    45
1040
0.5
1070
   341
1005
0
1002
}
  0
LINE
  5
1B45E
  8
01
 10
2535.708083332236
 20
-422.1313068801674
 30
0.0
 11
2535.708083332236
 21
-390.3313068801673
 31
0.0
1001
ACAD
1000
DSTYLE
1002
{
1070
    40
1040
1.3
1070
    45
1040
0.5
1070
   271
1070
     1
1070
   341
1005
0
1002
}
  0
LINE
  5
1B45F
  8
01
 10
2543.876667021197
 20
-447.6313053124752
 30
0.0
 11
2543.876667021197
 21
-390.3313068801673
 31
0.0
1001
ACAD
1000
DSTYLE
1002
{
1070
    40
1040
1.3
1070
    45
1040
0.5
1070
   271
1070
     1
1070
   341
1005
0
1002
}
  0
LINE
  5
1B460
  8
01
 10
2538.308083332236
 20
-391.6313068801674
 30
0.0
 11
2541.276667021197
 21
-391.6313068801674
 31
0.0
1001
ACAD
1000
DSTYLE
1002
{
1070
    40
1040
1.3
1070
    45
1040
0.5
1070
   271
1070
     1
1070
   341
1005
0
1002
}
  0
TEXT
  5
1B464
  8
01
  6
CONTINUOUS
 10
2596.711128085509
 20
-292.6313068811962
 30
0.0000000001127424
 40
4.55
  1
材質：亜鉛ダイキャスト
  0
LINE
  5
1B465
  8
01
 10
2623.707966992491
 20
-469.6313075782989
 30
0.0000000001127424
 11
2623.707966992491
 21
-366.9098147954796
 31
0.0000000001127424
1001
ACAD
1000
DSTYLE
1002
{
1070
    40
1040
1.3
1070
    45
1040
0.5
1002
}
  0
LINE
  5
1B466
  8
01
 10
2634.707966992491
 20
-411.75998952901
 30
0.0000000001127424
 11
2634.707966992491
 21
-366.9098147954796
 31
0.0000000001127424
1001
ACAD
1000
DSTYLE
1002
{
1070
    40
1040
1.3
1070
    45
1040
0.5
1002
}
  0
LINE
  5
1B467
  8
01
 10
2626.30796699249
 20
-368.2098147954796
 30
0.0000000001127424
 11
2632.107966992491
 21
-368.2098147954796
 31
0.0000000001127424
1001
ACAD
1000
DSTYLE
1002
{
1070
    40
1040
1.3
1070
    45
1040
0.5
1002
}
  0
LINE
  5
1B46B
  8
01
 10
2703.707966992491
 20
-439.6313068801676
 30
0.0000000001127424
 11
2732.007966992491
 21
-439.6313068801676
 31
0.0000000001127424
1001
ACAD
1000
DSTYLE
1002
{
1070
    40
1040
1.3
1070
    45
1040
0.5
1002
}
  0
LINE
  5
1B46C
  8
01
 10
2703.707966992491
 20
-513.631306880168
 30
0.0000000001127424
 11
2732.007966992491
 21
-513.631306880168
 31
0.0000000001127424
1001
ACAD
1000
DSTYLE
1002
{
1070
    40
1040
1.3
1070
    45
1040
0.5
1002
}
  0
LINE
  5
1B46D
  8
01
 10
2730.707966992491
 20
-442.2313068801676
 30
0.0000000001127424
 11
2730.707966992491
 21
-511.0313068801681
 31
0.0000000001127424
1001
ACAD
1000
DSTYLE
1002
{
1070
    40
1040
1.3
1070
    45
1040
0.5
1002
}
  0
LINE
  5
1B471
  8
01
 10
2703.707966992491
 20
-439.6313068801676
 30
0.0000000001127424
 11
2703.707966992491
 21
-356.8299473274314
 31
0.0000000001127424
1001
ACAD
1000
DSTYLE
1002
{
1070
    40
1040
1.3
1070
    45
1040
0.5
1002
}
  0
LINE
  5
1B472
  8
01
 10
2634.707966992491
 20
-411.75998952901
 30
0.0000000001127424
 11
2634.707966992491
 21
-356.8299473274314
 31
0.0000000001127424
1001
ACAD
1000
DSTYLE
1002
{
1070
    40
1040
1.3
1070
    45
1040
0.5
1002
}
  0
LINE
  5
1B473
  8
01
 10
2701.107966992491
 20
-358.1299473274314
 30
0.0000000001127424
 11
2637.30796699249
 21
-358.1299473274314
 31
0.0000000001127424
1001
ACAD
1000
DSTYLE
1002
{
1070
    40
1040
1.3
1070
    45
1040
0.5
1002
}
  0
LINE
  5
1B477
  8
01
 10
2634.707966992491
 20
-411.75998952901
 30
0.0000000001127424
 11
2634.707966992491
 21
-366.9098147954796
 31
0.0000000001127424
1001
ACAD
1000
DSTYLE
1002
{
1070
    40
1040
1.3
1070
    45
1040
0.5
1002
}
  0
LINE
  5
1B478
  8
01
 10
2685.707966992491
 20
-447.6313068801676
 30
0.0000000001127424
 11
2685.707966992491
 21
-366.9098147954796
 31
0.0000000001127424
1001
ACAD
1000
DSTYLE
1002
{
1070
    40
1040
1.3
1070
    45
1040
0.5
1002
}
  0
LINE
  5
1B479
  8
01
 10
2637.30796699249
 20
-368.2098147954796
 30
0.0000000001127424
 11
2683.107966992491
 21
-368.2098147954796
 31
0.0000000001127424
1001
ACAD
1000
DSTYLE
1002
{
1070
    40
1040
1.3
1070
    45
1040
0.5
1002
}
  0
LINE
  5
1B47D
  8
01
 10
2503.208083332235
 20
-417.631306880168
 30
0.0000000001127424
 11
2503.208083332235
 21
-366.9098147954798
 31
0.0000000001127424
1001
ACAD
1000
DSTYLE
1002
{
1070
    40
1040
1.3
1070
    45
1040
0.5
1002
}
  0
LINE
  5
1B47E
  8
01
 10
2528.208083332235
 20
-417.631306880168
 30
0.0000000001127424
 11
2528.208083332235
 21
-366.9098147954798
 31
0.0000000001127424
1001
ACAD
1000
DSTYLE
1002
{
1070
    40
1040
1.3
1070
    45
1040
0.5
1002
}
  0
LINE
  5
1B47F
  8
01
 10
2505.808083332235
 20
-368.2098147954798
 30
0.0000000001127424
 11
2525.608083332235
 21
-368.2098147954798
 31
0.0000000001127424
1001
ACAD
1000
DSTYLE
1002
{
1070
    40
1040
1.3
1070
    45
1040
0.5
1002
}
  0
LINE
  5
1B483
  8
01
 10
2521.510022935471
 20
-419.6308617357518
 30
0.0000000001691137
 11
2601.796154103679
 21
-419.6308617357518
 31
0.0000000001691137
1001
ACAD
1000
DSTYLE
1002
{
1070
    40
1040
1.3
1070
    45
1040
0.5
1002
}
  0
LINE
  5
1B484
  8
01
 10
2521.510022935471
 20
-533.6308617357518
 30
0.0000000001691137
 11
2601.796154103679
 21
-533.6308617357518
 31
0.0000000001691137
1001
ACAD
1000
DSTYLE
1002
{
1070
    40
1040
1.3
1070
    45
1040
0.5
1002
}
  0
LINE
  5
1B485
  8
01
 10
2600.496154103679
 20
-422.2308617357518
 30
0.0000000001691137
 11
2600.496154103679
 21
-531.0308617357517
 31
0.0000000001691137
1001
ACAD
1000
DSTYLE
1002
{
1070
    40
1040
1.3
1070
    45
1040
0.5
1002
}
  0
LINE
  5
1B489
  8
01
 10
2522.108083332235
 20
-411.7313068801682
 30
0.0000000001691137
 11
2611.160488269904
 21
-411.7313068801682
 31
0.0000000001691137
1001
ACAD
1000
DSTYLE
1002
{
1070
    40
1040
1.3
1070
    45
1040
0.5
1002
}
  0
LINE
  5
1B48A
  8
01
 10
2522.034997527565
 20
-541.5308617357516
 30
0.0000000001691137
 11
2611.160488269904
 21
-541.5308617357516
 31
0.0000000001691137
1001
ACAD
1000
DSTYLE
1002
{
1070
    40
1040
1.3
1070
    45
1040
0.5
1002
}
  0
LINE
  5
1B48B
  8
01
 10
2609.860488269904
 20
-414.3313068801682
 30
0.0000000001691137
 11
2609.860488269904
 21
-538.9308617357516
 31
0.0000000001691137
1001
ACAD
1000
DSTYLE
1002
{
1070
    40
1040
1.3
1070
    45
1040
0.5
1002
}
  0
LINE
  5
1B48F
  8
01
 10
2685.707966992491
 20
-472.6299885670649
 30
0.0000000001127424
 11
2649.40796699249
 21
-472.6299885670649
 31
0.0000000001127424
1001
ACAD
1000
DSTYLE
1002
{
1070
     3
1000
φ<>
1070
    40
1040
1.3
1070
    45
1040
0.5
1002
}
  0
LINE
  5
1B490
  8
01
 10
2685.707966992491
 20
-522.629988567064
 30
0.0000000001127424
 11
2649.40796699249
 21
-522.629988567064
 31
0.0000000001127424
1001
ACAD
1000
DSTYLE
1002
{
1070
     3
1000
φ<>
1070
    40
1040
1.3
1070
    45
1040
0.5
1002
}
  0
LINE
  5
1B491
  8
01
 10
2650.707966992491
 20
-475.2299885670649
 30
0.0000000001127424
 11
2650.707966992491
 21
-520.0299885670639
 31
0.0000000001127424
1001
ACAD
1000
DSTYLE
1002
{
1070
     3
1000
φ<>
1070
    40
1040
1.3
1070
    45
1040
0.5
1002
}
  0
LINE
  5
1B495
  8
01
  6
BYBLOCK
 10
2328.308079332232
 20
-415.3279747741673
 30
0.0000000001127424
 11
2325.708079332232
 21
-414.6313068801674
 31
0.0000000001127424
  0
LINE
  5
1B496
  8
01
  6
BYBLOCK
 10
2325.708079332232
 20
-414.6313068801674
 30
0.0000000001127424
 11
2328.308079332232
 21
-413.9346389861674
 31
0.0000000001127424
  0
LINE
  5
1B497
  8
01
  6
BYBLOCK
 10
2325.708079332232
 20
-414.6313068801674
 30
0.0000000001127424
 11
2328.308079332232
 21
-414.6313068801674
 31
0.0000000001127424
  0
LINE
  5
1B498
  8
01
  6
BYBLOCK
 10
2363.108079332232
 20
-413.9346389861674
 30
0.0000000001127424
 11
2365.708079332232
 21
-414.6313068801674
 31
0.0000000001127424
  0
LINE
  5
1B499
  8
01
  6
BYBLOCK
 10
2365.708079332232
 20
-414.6313068801674
 30
0.0000000001127424
 11
2363.108079332232
 21
-415.3279747741673
 31
0.0000000001127424
  0
LINE
  5
1B49A
  8
01
  6
BYBLOCK
 10
2365.708079332232
 20
-414.6313068801674
 30
0.0000000001127424
 11
2363.108079332232
 21
-414.6313068801674
 31
0.0000000001127424
  0
TEXT
  5
1B49B
  8
01
  6
CONTINUOUS
 10
2338.864120998899
 20
-413.7213068801674
 30
0.0000000001127424
 40
4.55
  1
φ40
1001
ACAD
1000
DSTYLE
1002
{
1070
     3
1000
φ<>
1070
    40
1040
1.3
1070
    45
1040
0.5
1070
   271
1070
     4
1070
   272
1070
     2
1002
}
  0
LINE
  5
1B49C
  8
01
  6
BYBLOCK
 10
2493.108083332237
 20
-390.9346389861674
 30
0.0000000001127424
 11
2495.708083332237
 21
-391.6313068801674
 31
0.0000000001127424
  0
LINE
  5
1B49D
  8
01
  6
BYBLOCK
 10
2495.708083332237
 20
-391.6313068801674
 30
0.0000000001127424
 11
2493.108083332237
 21
-392.3279747741673
 31
0.0000000001127424
  0
LINE
  5
1B49E
  8
01
  6
BYBLOCK
 10
2495.708083332237
 20
-391.6313068801674
 30
0.0000000001127424
 11
2493.108083332237
 21
-391.6313068801674
 31
0.0000000001127424
  0
LINE
  5
1B49F
  8
01
  6
BYBLOCK
 10
2476.307697766517
 20
-392.3279747741673
 30
0.0000000001127424
 11
2473.707697766517
 21
-391.6313068801674
 31
0.0000000001127424
  0
LINE
  5
1B4A0
  8
01
  6
BYBLOCK
 10
2473.707697766517
 20
-391.6313068801674
 30
0.0000000001127424
 11
2476.307697766517
 21
-390.9346389861674
 31
0.0000000001127424
  0
LINE
  5
1B4A1
  8
01
  6
BYBLOCK
 10
2473.707697766517
 20
-391.6313068801674
 30
0.0000000001127424
 11
2476.307697766517
 21
-391.6313068801674
 31
0.0000000001127424
  0
TEXT
  5
1B4A2
  8
01
  6
CONTINUOUS
 10
2480.916223882711
 20
-390.7213068801674
 30
0.0000000001127424
 40
4.55
  1
22
1001
ACAD
1000
DSTYLE
1002
{
1070
    40
1040
1.3
1070
    45
1040
0.5
1070
   341
1005
0
1002
}
  0
LINE
  5
1B4A3
  8
01
  6
BYBLOCK
 10
2668.307966670031
 20
-415.3279747741673
 30
0.0000000001127424
 11
2665.707966670031
 21
-414.6313068801674
 31
0.0000000001127424
  0
LINE
  5
1B4A4
  8
01
  6
BYBLOCK
 10
2665.707966670031
 20
-414.6313068801674
 30
0.0000000001127424
 11
2668.307966670031
 21
-413.9346389861674
 31
0.0000000001127424
  0
LINE
  5
1B4A5
  8
01
  6
BYBLOCK
 10
2665.707966670031
 20
-414.6313068801674
 30
0.0000000001127424
 11
2668.307966670031
 21
-414.6313068801674
 31
0.0000000001127424
  0
LINE
  5
1B4A6
  8
01
  6
BYBLOCK
 10
2703.107966670031
 20
-413.9346389861674
 30
0.0000000001127424
 11
2705.707966670031
 21
-414.6313068801674
 31
0.0000000001127424
  0
LINE
  5
1B4A7
  8
01
  6
BYBLOCK
 10
2705.707966670031
 20
-414.6313068801674
 30
0.0000000001127424
 11
2703.107966670031
 21
-415.3279747741673
 31
0.0000000001127424
  0
LINE
  5
1B4A8
  8
01
  6
BYBLOCK
 10
2705.707966670031
 20
-414.6313068801674
 30
0.0000000001127424
 11
2703.107966670031
 21
-414.6313068801674
 31
0.0000000001127424
  0
TEXT
  5
1B4A9
  8
01
  6
CONTINUOUS
 10
2678.864008336698
 20
-413.7213068801674
 30
0.0000000001127424
 40
4.55
  1
φ40
1001
ACAD
1000
DSTYLE
1002
{
1070
     3
1000
φ<>
1070
    40
1040
1.3
1070
    45
1040
0.5
1070
   271
1070
     4
1070
   272
1070
     2
1002
}
  0
LINE
  5
1B4AA
  8
01
  6
BYBLOCK
 10
2328.308079332232
 20
-415.3279747741673
 30
0.0000000001127424
 11
2325.708079332232
 21
-414.6313068801674
 31
0.0000000001127424
  0
LINE
  5
1B4AB
  8
01
  6
BYBLOCK
 10
2325.708079332232
 20
-414.6313068801674
 30
0.0000000001127424
 11
2328.308079332232
 21
-413.9346389861674
 31
0.0000000001127424
  0
LINE
  5
1B4AC
  8
01
  6
BYBLOCK
 10
2325.708079332232
 20
-414.6313068801674
 30
0.0000000001127424
 11
2328.308079332232
 21
-414.6313068801674
 31
0.0000000001127424
  0
LINE
  5
1B4AD
  8
01
  6
BYBLOCK
 10
2363.108079332232
 20
-413.9346389861674
 30
0.0000000001127424
 11
2365.708079332232
 21
-414.6313068801674
 31
0.0000000001127424
  0
LINE
  5
1B4AE
  8
01
  6
BYBLOCK
 10
2365.708079332232
 20
-414.6313068801674
 30
0.0000000001127424
 11
2363.108079332232
 21
-415.3279747741673
 31
0.0000000001127424
  0
LINE
  5
1B4AF
  8
01
  6
BYBLOCK
 10
2365.708079332232
 20
-414.6313068801674
 30
0.0000000001127424
 11
2363.108079332232
 21
-414.6313068801674
 31
0.0000000001127424
  0
TEXT
  5
1B4B0
  8
01
  6
CONTINUOUS
 10
2338.864120998899
 20
-413.7213068801674
 30
0.0000000001127424
 40
4.55
  1
φ40
1001
ACAD
1000
DSTYLE
1002
{
1070
     3
1000
φ<>
1070
    40
1040
1.3
1070
    45
1040
0.5
1070
   271
1070
     4
1070
   272
1070
     2
1002
}
  0
LINE
  5
1B4B1
  8
01
  6
BYBLOCK
 10
2493.108083332237
 20
-390.9346389861674
 30
0.0000000001127424
 11
2495.708083332237
 21
-391.6313068801674
 31
0.0000000001127424
  0
LINE
  5
1B4B2
  8
01
  6
BYBLOCK
 10
2495.708083332237
 20
-391.6313068801674
 30
0.0000000001127424
 11
2493.108083332237
 21
-392.3279747741673
 31
0.0000000001127424
  0
LINE
  5
1B4B3
  8
01
  6
BYBLOCK
 10
2495.708083332237
 20
-391.6313068801674
 30
0.0000000001127424
 11
2493.108083332237
 21
-391.6313068801674
 31
0.0000000001127424
  0
LINE
  5
1B4B4
  8
01
  6
BYBLOCK
 10
2476.308058521225
 20
-392.3279747741673
 30
0.0000000001127424
 11
2473.708058521225
 21
-391.6313068801674
 31
0.0000000001127424
  0
LINE
  5
1B4B5
  8
01
  6
BYBLOCK
 10
2473.708058521225
 20
-391.6313068801674
 30
0.0000000001127424
 11
2476.308058521225
 21
-390.9346389861674
 31
0.0000000001127424
  0
LINE
  5
1B4B6
  8
01
  6
BYBLOCK
 10
2473.708058521225
 20
-391.6313068801674
 30
0.0000000001127424
 11
2476.308058521225
 21
-391.6313068801674
 31
0.0000000001127424
  0
TEXT
  5
1B4B7
  8
01
  6
CONTINUOUS
 10
2480.916404260065
 20
-390.7213068801674
 30
0.0000000001127424
 40
4.55
  1
22
1001
ACAD
1000
DSTYLE
1002
{
1070
    40
1040
1.3
1070
    45
1040
0.5
1070
   341
1005
0
1002
}
  0
LINE
  5
1B4B8
  8
01
  6
BYBLOCK
 10
2538.308083332236
 20
-392.3279747741673
 30
0.0
 11
2535.708083332236
 21
-391.6313068801674
 31
0.0
  0
LINE
  5
1B4B9
  8
01
  6
BYBLOCK
 10
2535.708083332236
 20
-391.6313068801674
 30
0.0
 11
2538.308083332236
 21
-390.9346389861674
 31
0.0
  0
LINE
  5
1B4BA
  8
01
  6
BYBLOCK
 10
2535.708083332236
 20
-391.6313068801674
 30
0.0
 11
2538.308083332236
 21
-391.6313068801674
 31
0.0
  0
LINE
  5
1B4BB
  8
01
  6
BYBLOCK
 10
2541.276667021197
 20
-390.9346389861674
 30
0.0
 11
2543.876667021197
 21
-391.6313068801674
 31
0.0
  0
LINE
  5
1B4BC
  8
01
  6
BYBLOCK
 10
2543.876667021197
 20
-391.6313068801674
 30
0.0
 11
2541.276667021197
 21
-392.3279747741673
 31
0.0
  0
LINE
  5
1B4BD
  8
01
  6
BYBLOCK
 10
2543.876667021197
 20
-391.6313068801674
 30
0.0
 11
2541.276667021197
 21
-391.6313068801674
 31
0.0
  0
TEXT
  5
1B4BE
  8
01
  6
CONTINUOUS
 10
2538.27570851005
 20
-390.7213068801674
 30
0.0
 40
4.55
  1
8
1001
ACAD
1000
DSTYLE
1002
{
1070
    40
1040
1.3
1070
    45
1040
0.5
1070
   271
1070
     1
1070
   341
1005
0
1002
}
  0
LINE
  5
1B4BF
  8
01
  6
BYBLOCK
 10
2626.30796699249
 20
-368.9064826894796
 30
0.0000000001127424
 11
2623.707966992491
 21
-368.2098147954796
 31
0.0000000001127424
  0
LINE
  5
1B4C0
  8
01
  6
BYBLOCK
 10
2623.707966992491
 20
-368.2098147954796
 30
0.0000000001127424
 11
2626.30796699249
 21
-367.5131469014796
 31
0.0000000001127424
  0
LINE
  5
1B4C1
  8
01
  6
BYBLOCK
 10
2623.707966992491
 20
-368.2098147954796
 30
0.0000000001127424
 11
2626.30796699249
 21
-368.2098147954796
 31
0.0000000001127424
  0
LINE
  5
1B4C2
  8
01
  6
BYBLOCK
 10
2632.107966992491
 20
-367.5131469014796
 30
0.0000000001127424
 11
2634.707966992491
 21
-368.2098147954796
 31
0.0000000001127424
  0
LINE
  5
1B4C3
  8
01
  6
BYBLOCK
 10
2634.707966992491
 20
-368.2098147954796
 30
0.0000000001127424
 11
2632.107966992491
 21
-368.9064826894796
 31
0.0000000001127424
  0
LINE
  5
1B4C4
  8
01
  6
BYBLOCK
 10
2634.707966992491
 20
-368.2098147954796
 30
0.0000000001127424
 11
2632.107966992491
 21
-368.2098147954796
 31
0.0000000001127424
  0
TEXT
  5
1B4C5
  8
01
  6
CONTINUOUS
 10
2626.93296699249
 20
-367.2998147954796
 30
0.0000000001127424
 40
4.55
  1
11
1001
ACAD
1000
DSTYLE
1002
{
1070
    40
1040
1.3
1070
    45
1040
0.5
1002
}
  0
LINE
  5
1B4C6
  8
01
  6
BYBLOCK
 10
2730.011299098491
 20
-442.2313068801676
 30
0.0000000001127424
 11
2730.707966992491
 21
-439.6313068801676
 31
0.0000000001127424
  0
LINE
  5
1B4C7
  8
01
  6
BYBLOCK
 10
2730.707966992491
 20
-439.6313068801676
 30
0.0000000001127424
 11
2731.40463488649
 21
-442.2313068801676
 31
0.0000000001127424
  0
LINE
  5
1B4C8
  8
01
  6
BYBLOCK
 10
2730.707966992491
 20
-439.6313068801676
 30
0.0000000001127424
 11
2730.707966992491
 21
-442.2313068801676
 31
0.0000000001127424
  0
LINE
  5
1B4C9
  8
01
  6
BYBLOCK
 10
2731.40463488649
 20
-511.031306880168
 30
0.0000000001127424
 11
2730.707966992491
 21
-513.631306880168
 31
0.0000000001127424
  0
LINE
  5
1B4CA
  8
01
  6
BYBLOCK
 10
2730.707966992491
 20
-513.631306880168
 30
0.0000000001127424
 11
2730.011299098491
 21
-511.031306880168
 31
0.0000000001127424
  0
LINE
  5
1B4CB
  8
01
  6
BYBLOCK
 10
2730.707966992491
 20
-513.631306880168
 30
0.0000000001127424
 11
2730.707966992491
 21
-511.031306880168
 31
0.0000000001127424
  0
TEXT
  5
1B4CC
  8
01
  6
CONTINUOUS
 10
2729.797966992491
 20
-458.6599627941487
 30
0.0000000001127424
 40
4.55
  1
74
 50
90.0
1001
ACAD
1000
DSTYLE
1002
{
1070
    40
1040
1.3
1070
    45
1040
0.5
1002
}
  0
LINE
  5
1B4CD
  8
01
  6
BYBLOCK
 10
2701.107966992491
 20
-357.4332794334314
 30
0.0000000001127424
 11
2703.707966992491
 21
-358.1299473274314
 31
0.0000000001127424
  0
LINE
  5
1B4CE
  8
01
  6
BYBLOCK
 10
2703.707966992491
 20
-358.1299473274314
 30
0.0000000001127424
 11
2701.107966992491
 21
-358.8266152214314
 31
0.0000000001127424
  0
LINE
  5
1B4CF
  8
01
  6
BYBLOCK
 10
2703.707966992491
 20
-358.1299473274314
 30
0.0000000001127424
 11
2701.107966992491
 21
-358.1299473274314
 31
0.0000000001127424
  0
LINE
  5
1B4D0
  8
01
  6
BYBLOCK
 10
2637.30796699249
 20
-358.8266152214314
 30
0.0000000001127424
 11
2634.707966992491
 21
-358.1299473274314
 31
0.0000000001127424
  0
LINE
  5
1B4D1
  8
01
  6
BYBLOCK
 10
2634.707966992491
 20
-358.1299473274314
 30
0.0000000001127424
 11
2637.30796699249
 21
-357.4332794334314
 31
0.0000000001127424
  0
LINE
  5
1B4D2
  8
01
  6
BYBLOCK
 10
2634.707966992491
 20
-358.1299473274314
 30
0.0000000001127424
 11
2637.30796699249
 21
-358.1299473274314
 31
0.0000000001127424
  0
TEXT
  5
1B4D3
  8
01
  6
CONTINUOUS
 10
2665.399448473972
 20
-357.2199473274314
 30
0.0000000001127424
 40
4.55
  1
69
1001
ACAD
1000
DSTYLE
1002
{
1070
    40
1040
1.3
1070
    45
1040
0.5
1002
}
  0
LINE
  5
1B4D4
  8
01
  6
BYBLOCK
 10
2637.30796699249
 20
-368.9064826894796
 30
0.0000000001127424
 11
2634.707966992491
 21
-368.2098147954796
 31
0.0000000001127424
  0
LINE
  5
1B4D5
  8
01
  6
BYBLOCK
 10
2634.707966992491
 20
-368.2098147954796
 30
0.0000000001127424
 11
2637.30796699249
 21
-367.5131469014796
 31
0.0000000001127424
  0
LINE
  5
1B4D6
  8
01
  6
BYBLOCK
 10
2634.707966992491
 20
-368.2098147954796
 30
0.0000000001127424
 11
2637.30796699249
 21
-368.2098147954796
 31
0.0000000001127424
  0
LINE
  5
1B4D7
  8
01
  6
BYBLOCK
 10
2683.107966992491
 20
-367.5131469014796
 30
0.0000000001127424
 11
2685.707966992491
 21
-368.2098147954796
 31
0.0000000001127424
  0
LINE
  5
1B4D8
  8
01
  6
BYBLOCK
 10
2685.707966992491
 20
-368.2098147954796
 30
0.0000000001127424
 11
2683.107966992491
 21
-368.9064826894796
 31
0.0000000001127424
  0
LINE
  5
1B4D9
  8
01
  6
BYBLOCK
 10
2685.707966992491
 20
-368.2098147954796
 30
0.0000000001127424
 11
2683.107966992491
 21
-368.2098147954796
 31
0.0000000001127424
  0
TEXT
  5
1B4DA
  8
01
  6
CONTINUOUS
 10
2657.158835048046
 20
-367.2998147954796
 30
0.0000000001127424
 40
4.55
  1
51
1001
ACAD
1000
DSTYLE
1002
{
1070
    40
1040
1.3
1070
    45
1040
0.5
1002
}
  0
LINE
  5
1B4DB
  8
01
  6
BYBLOCK
 10
2505.808083332235
 20
-368.9064826894798
 30
0.0000000001127424
 11
2503.208083332235
 21
-368.2098147954798
 31
0.0000000001127424
  0
LINE
  5
1B4DC
  8
01
  6
BYBLOCK
 10
2503.208083332235
 20
-368.2098147954798
 30
0.0000000001127424
 11
2505.808083332235
 21
-367.5131469014798
 31
0.0000000001127424
  0
LINE
  5
1B4DD
  8
01
  6
BYBLOCK
 10
2503.208083332235
 20
-368.2098147954798
 30
0.0000000001127424
 11
2505.808083332235
 21
-368.2098147954798
 31
0.0000000001127424
  0
LINE
  5
1B4DE
  8
01
  6
BYBLOCK
 10
2525.608083332235
 20
-367.5131469014798
 30
0.0000000001127424
 11
2528.208083332235
 21
-368.2098147954798
 31
0.0000000001127424
  0
LINE
  5
1B4DF
  8
01
  6
BYBLOCK
 10
2528.208083332235
 20
-368.2098147954798
 30
0.0000000001127424
 11
2525.608083332235
 21
-368.9064826894798
 31
0.0000000001127424
  0
LINE
  5
1B4E0
  8
01
  6
BYBLOCK
 10
2528.208083332235
 20
-368.2098147954798
 30
0.0000000001127424
 11
2525.608083332235
 21
-368.2098147954798
 31
0.0000000001127424
  0
TEXT
  5
1B4E1
  8
01
  6
CONTINUOUS
 10
2511.916416665569
 20
-367.2998147954798
 30
0.0000000001127424
 40
4.55
  1
25
1001
ACAD
1000
DSTYLE
1002
{
1070
    40
1040
1.3
1070
    45
1040
0.5
1002
}
  0
LINE
  5
1B4E2
  8
01
  6
BYBLOCK
 10
2599.799486209679
 20
-422.2308617357518
 30
0.0000000001691137
 11
2600.496154103679
 21
-419.6308617357518
 31
0.0000000001691137
  0
LINE
  5
1B4E3
  8
01
  6
BYBLOCK
 10
2600.496154103679
 20
-419.6308617357518
 30
0.0000000001691137
 11
2601.192821997679
 21
-422.2308617357518
 31
0.0000000001691137
  0
LINE
  5
1B4E4
  8
01
  6
BYBLOCK
 10
2600.496154103679
 20
-419.6308617357518
 30
0.0000000001691137
 11
2600.496154103679
 21
-422.2308617357518
 31
0.0000000001691137
  0
LINE
  5
1B4E5
  8
01
  6
BYBLOCK
 10
2601.192821997679
 20
-531.0308617357517
 30
0.0000000001691137
 11
2600.496154103679
 21
-533.6308617357518
 31
0.0000000001691137
  0
LINE
  5
1B4E6
  8
01
  6
BYBLOCK
 10
2600.496154103679
 20
-533.6308617357518
 30
0.0000000001691137
 11
2599.799486209679
 21
-531.0308617357517
 31
0.0000000001691137
  0
LINE
  5
1B4E7
  8
01
  6
BYBLOCK
 10
2600.496154103679
 20
-533.6308617357518
 30
0.0000000001691137
 11
2600.496154103679
 21
-531.0308617357517
 31
0.0000000001691137
  0
TEXT
  5
1B4E8
  8
01
  6
CONTINUOUS
 10
2599.586154103679
 20
-452.0478393878302
 30
0.0000000001691137
 40
4.55
  1
114
 50
90.0
1001
ACAD
1000
DSTYLE
1002
{
1070
    40
1040
1.3
1070
    45
1040
0.5
1002
}
  0
LINE
  5
1B4E9
  8
01
  6
BYBLOCK
 10
2609.163820375904
 20
-414.3313068801682
 30
0.0000000001691137
 11
2609.860488269904
 21
-411.7313068801682
 31
0.0000000001691137
  0
LINE
  5
1B4EA
  8
01
  6
BYBLOCK
 10
2609.860488269904
 20
-411.7313068801682
 30
0.0000000001691137
 11
2610.557156163904
 21
-414.3313068801682
 31
0.0000000001691137
  0
LINE
  5
1B4EB
  8
01
  6
BYBLOCK
 10
2609.860488269904
 20
-411.7313068801682
 30
0.0000000001691137
 11
2609.860488269904
 21
-414.3313068801682
 31
0.0000000001691137
  0
LINE
  5
1B4EC
  8
01
  6
BYBLOCK
 10
2610.557156163904
 20
-538.9308617357516
 30
0.0000000001691137
 11
2609.860488269904
 21
-541.5308617357516
 31
0.0000000001691137
  0
LINE
  5
1B4ED
  8
01
  6
BYBLOCK
 10
2609.860488269904
 20
-541.5308617357516
 30
0.0000000001691137
 11
2609.163820375904
 21
-538.9308617357516
 31
0.0000000001691137
  0
LINE
  5
1B4EE
  8
01
  6
BYBLOCK
 10
2609.860488269904
 20
-541.5308617357516
 30
0.0000000001691137
 11
2609.860488269904
 21
-538.9308617357516
 31
0.0000000001691137
  0
TEXT
  5
1B4EF
  8
01
  6
CONTINUOUS
 10
2608.950488269904
 20
-452.8324033906379
 30
0.0000000001691137
 40
4.55
  1
130
 50
90.0
1001
ACAD
1000
DSTYLE
1002
{
1070
    40
1040
1.3
1070
    45
1040
0.5
1002
}
  0
LINE
  5
1B4F0
  8
01
  6
BYBLOCK
 10
2650.011299098491
 20
-475.2299885670649
 30
0.0000000001127424
 11
2650.707966992491
 21
-472.6299885670649
 31
0.0000000001127424
  0
LINE
  5
1B4F1
  8
01
  6
BYBLOCK
 10
2650.707966992491
 20
-472.6299885670649
 30
0.0000000001127424
 11
2651.40463488649
 21
-475.2299885670649
 31
0.0000000001127424
  0
LINE
  5
1B4F2
  8
01
  6
BYBLOCK
 10
2650.707966992491
 20
-472.6299885670649
 30
0.0000000001127424
 11
2650.707966992491
 21
-475.2299885670649
 31
0.0000000001127424
  0
LINE
  5
1B4F3
  8
01
  6
BYBLOCK
 10
2651.40463488649
 20
-520.0299885670639
 30
0.0000000001127424
 11
2650.707966992491
 21
-522.629988567064
 31
0.0000000001127424
  0
LINE
  5
1B4F4
  8
01
  6
BYBLOCK
 10
2650.707966992491
 20
-522.629988567064
 30
0.0000000001127424
 11
2650.011299098491
 21
-520.0299885670639
 31
0.0000000001127424
  0
LINE
  5
1B4F5
  8
01
  6
BYBLOCK
 10
2650.707966992491
 20
-522.629988567064
 30
0.0000000001127424
 11
2650.707966992491
 21
-520.0299885670639
 31
0.0000000001127424
  0
TEXT
  5
1B4F6
  8
01
  6
CONTINUOUS
 10
2649.797966992491
 20
-505.8294914736634
 30
0.0000000001127424
 40
4.55
  1
φ50
 50
90.0
1001
ACAD
1000
DSTYLE
1002
{
1070
     3
1000
φ<>
1070
    40
1040
1.3
1070
    45
1040
0.5
1002
}
  0
LINE
  5
1B4F7
  8
1DIM
 10
2315.708087332235
 20
-497.6313068801674
 30
0.0000000001127424
 11
2300.714234929947
 21
-497.6313068801674
 31
0.0000000001127424
1001
ACAD
1000
DSTYLE
1002
{
1070
    40
1040
1.3
1070
    45
1040
0.5
1070
   341
1005
0
1002
}
  0
LINE
  5
1B4F8
  8
1DIM
 10
2323.208079332236
 20
-442.1313068801674
 30
0.0000000001127424
 11
2300.714234929947
 21
-442.1313068801674
 31
0.0000000001127424
1001
ACAD
1000
DSTYLE
1002
{
1070
    40
1040
1.3
1070
    45
1040
0.5
1070
   341
1005
0
1002
}
  0
LINE
  5
1B4F9
  8
1DIM
 10
2302.014234929947
 20
-495.0313068801673
 30
0.0000000001127424
 11
2302.014234929947
 21
-444.7313068801674
 31
0.0000000001127424
1001
ACAD
1000
DSTYLE
1002
{
1070
    40
1040
1.3
1070
    45
1040
0.5
1070
   341
1005
0
1002
}
  0
LINE
  5
1B4FD
  8
1DIM
 10
2315.708087332235
 20
-497.6313068801674
 30
0.0000000001127424
 11
2300.714234929947
 21
-497.6313068801674
 31
0.0000000001127424
1001
ACAD
1000
DSTYLE
1002
{
1070
    40
1040
1.3
1070
    45
1040
0.5
1070
   341
1005
0
1002
}
  0
LINE
  5
1B4FE
  8
1DIM
 10
2323.208079332236
 20
-442.1313068801674
 30
0.0000000001127424
 11
2300.714234929947
 21
-442.1313068801674
 31
0.0000000001127424
1001
ACAD
1000
DSTYLE
1002
{
1070
    40
1040
1.3
1070
    45
1040
0.5
1070
   341
1005
0
1002
}
  0
LINE
  5
1B4FF
  8
1DIM
 10
2302.014234929947
 20
-495.0313068801673
 30
0.0000000001127424
 11
2302.014234929947
 21
-444.7313068801674
 31
0.0000000001127424
1001
ACAD
1000
DSTYLE
1002
{
1070
    40
1040
1.3
1070
    45
1040
0.5
1070
   341
1005
0
1002
}
  0
LINE
  5
1B504
  8
1DIM
 10
2683.328716262197
 20
-274.035372596837
 30
0.0000000001127424
 11
2655.861128085508
 21
-293.5413068811962
 31
0.0000000001127424
1001
ACAD
1000
DSTYLE
1002
{
1070
    40
1040
1.3
1070
    45
1040
0.5
1002
}
  0
LINE
  5
1B505
  8
1DIM
 10
2702.10885117455
 20
-218.1313068811962
 30
0.0000000001127424
 11
2722.669241934263
 21
-218.1313068811962
 31
0.0000000001127424
1001
ACAD
1000
DSTYLE
1002
{
1070
    45
1040
0.5
1070
    40
1040
1.3
1002
}
  0
LINE
  5
1B506
  8
1DIM
 10
2703.708851174551
 20
-236.9313068811962
 30
0.0000000001127424
 11
2722.669241934263
 21
-236.9313068811962
 31
0.0000000001127424
1001
ACAD
1000
DSTYLE
1002
{
1070
    45
1040
0.5
1070
    40
1040
1.3
1002
}
  0
LINE
  5
1B507
  8
1DIM
 10
2721.369241934263
 20
-220.7313068811962
 30
0.0000000001127424
 11
2721.369241934263
 21
-234.3313068811962
 31
0.0000000001127424
1001
ACAD
1000
DSTYLE
1002
{
1070
    45
1040
0.5
1070
    40
1040
1.3
1002
}
  0
LINE
  5
1B50B
  8
1DIM
 10
2685.708083332233
 20
-269.1313068811962
 30
0.0000000001127424
 11
2685.708083332233
 21
-332.3157298780762
 31
0.0000000001127424
1001
ACAD
1000
DSTYLE
1002
{
1070
    40
1040
1.3
1070
    45
1040
0.5
1002
}
  0
LINE
  5
1B50C
  8
1DIM
 10
2810.706883664442
 20
-290.3826120478327
 30
0.0000000001127424
 11
2810.706883664442
 21
-332.3157298780762
 31
0.0000000001127424
1001
ACAD
1000
DSTYLE
1002
{
1070
    40
1040
1.3
1070
    45
1040
0.5
1002
}
  0
LINE
  5
1B50D
  8
1DIM
 10
2688.308083332233
 20
-331.0157298780762
 30
0.0000000001127424
 11
2808.106883664442
 21
-331.0157298780762
 31
0.0000000001127424
1001
ACAD
1000
DSTYLE
1002
{
1070
    40
1040
1.3
1070
    45
1040
0.5
1002
}
  0
LINE
  5
1B511
  8
1DIM
 10
2660.709730471332
 20
-253.3346008931669
 30
0.0000000001127424
 11
2660.709730471332
 21
-342.3157298780762
 31
0.0000000001127424
1001
ACAD
1000
DSTYLE
1002
{
1070
    40
1040
1.3
1070
    45
1040
0.5
1002
}
  0
LINE
  5
1B512
  8
1DIM
 10
2810.706883664442
 20
-290.3826120478327
 30
0.0000000001127424
 11
2810.706883664442
 21
-342.3157298780762
 31
0.0000000001127424
1001
ACAD
1000
DSTYLE
1002
{
1070
    40
1040
1.3
1070
    45
1040
0.5
1002
}
  0
LINE
  5
1B513
  8
1DIM
 10
2663.309730471332
 20
-341.0157298780762
 30
0.0000000001127424
 11
2808.106883664442
 21
-341.0157298780762
 31
0.0000000001127424
1001
ACAD
1000
DSTYLE
1002
{
1070
    40
1040
1.3
1070
    45
1040
0.5
1002
}
  0
LINE
  5
1B517
  8
1DIM
 10
2784.134055215775
 20
-276.4482042642205
 30
0.0000000001127424
 11
2832.006883664442
 21
-276.4482042642205
 31
0.0000000001127424
1001
ACAD
1000
DSTYLE
1002
{
1070
    40
1040
1.3
1070
    45
1040
0.5
1002
}
  0
LINE
  5
1B518
  8
1DIM
 10
2788.463231329582
 20
-247.6313068811962
 30
0.0000000001127424
 11
2832.006883664442
 21
-247.6313068811962
 31
0.0000000001127424
1001
ACAD
1000
DSTYLE
1002
{
1070
    40
1040
1.3
1070
    45
1040
0.5
1002
}
  0
LINE
  5
1B519
  8
1DIM
 10
2830.706883664442
 20
-273.8482042642205
 30
0.0000000001127424
 11
2830.706883664442
 21
-250.2313068811962
 31
0.0000000001127424
1001
ACAD
1000
DSTYLE
1002
{
1070
    40
1040
1.3
1070
    45
1040
0.5
1002
}
  0
LINE
  5
1B51D
  8
1DIM
 10
2781.701303405199
 20
-306.0157298780762
 30
0.0000000001127424
 11
2842.006883664442
 21
-306.0157298780762
 31
0.0000000001127424
1001
ACAD
1000
DSTYLE
1002
{
1070
    40
1040
1.3
1070
    45
1040
0.5
1002
}
  0
LINE
  5
1B51E
  8
1DIM
 10
2788.463231329582
 20
-247.6313068811962
 30
0.0000000001127424
 11
2842.006883664442
 21
-247.6313068811962
 31
0.0000000001127424
1001
ACAD
1000
DSTYLE
1002
{
1070
    40
1040
1.3
1070
    45
1040
0.5
1002
}
  0
LINE
  5
1B51F
  8
1DIM
 10
2840.706883664442
 20
-303.4157298780761
 30
0.0000000001127424
 11
2840.706883664442
 21
-250.2313068811962
 31
0.0000000001127424
1001
ACAD
1000
DSTYLE
1002
{
1070
    40
1040
1.3
1070
    45
1040
0.5
1002
}
  0
LINE
  5
1B523
  8
1DIM
 10
2786.33595952063
 20
-482.7958935201693
 30
0.0000000001127424
 11
2842.007966992491
 21
-482.7958935201693
 31
0.0000000001127424
1001
ACAD
1000
DSTYLE
1002
{
1070
    40
1040
1.3
1070
   271
1070
     0
1002
}
  0
LINE
  5
1B524
  8
1DIM
 10
2781.644345523381
 20
-498.5210568847231
 30
0.0000000001127424
 11
2842.007966992491
 21
-498.5210568847231
 31
0.0000000001127424
1001
ACAD
1000
DSTYLE
1002
{
1070
    40
1040
1.3
1070
   271
1070
     0
1002
}
  0
LINE
  5
1B525
  8
1DIM
 10
2840.707966992491
 20
-485.3958935201694
 30
0.0000000001127424
 11
2840.707966992491
 21
-495.921056884723
 31
0.0000000001127424
1001
ACAD
1000
DSTYLE
1002
{
1070
    40
1040
1.3
1070
   271
1070
     0
1002
}
  0
TEXT
  5
1B529
  8
1DIM
  6
CONTINUOUS
 10
2328.000714210144
 20
-234.7105210878735
 30
0.0000000001127424
 40
10.0
  1
※には色品番が入ります。
  0
LINE
  5
1B52A
  8
0
  6
BYBLOCK
 10
2302.710902823947
 20
-495.0313068801673
 30
0.0000000001127424
 11
2302.014234929947
 21
-497.6313068801674
 31
0.0000000001127424
  0
LINE
  5
1B52B
  8
0
  6
BYBLOCK
 10
2302.014234929947
 20
-497.6313068801674
 30
0.0000000001127424
 11
2301.317567035947
 21
-495.0313068801673
 31
0.0000000001127424
  0
LINE
  5
1B52C
  8
0
  6
BYBLOCK
 10
2302.014234929947
 20
-497.6313068801674
 30
0.0000000001127424
 11
2302.014234929947
 21
-495.0313068801673
 31
0.0000000001127424
  0
LINE
  5
1B52D
  8
0
  6
BYBLOCK
 10
2301.317567035947
 20
-444.7313068801674
 30
0.0000000001127424
 11
2302.014234929947
 21
-442.1313068801674
 31
0.0000000001127424
  0
LINE
  5
1B52E
  8
0
  6
BYBLOCK
 10
2302.014234929947
 20
-442.1313068801674
 30
0.0000000001127424
 11
2302.710902823947
 21
-444.7313068801674
 31
0.0000000001127424
  0
LINE
  5
1B52F
  8
0
  6
BYBLOCK
 10
2302.014234929947
 20
-442.1313068801674
 30
0.0000000001127424
 11
2302.014234929947
 21
-444.7313068801674
 31
0.0000000001127424
  0
TEXT
  5
1B530
  8
1DIM
  6
CONTINUOUS
 10
2301.104234929947
 20
-476.7379041023892
 30
0.0000000001127424
 40
4.55
  1
55.5
 50
90.0
1001
ACAD
1000
DSTYLE
1002
{
1070
    40
1040
1.3
1070
    45
1040
0.5
1070
   341
1005
0
1002
}
  0
LINE
  5
1B531
  8
0
  6
BYBLOCK
 10
2302.710902823947
 20
-495.0313068801673
 30
0.0000000001127424
 11
2302.014234929947
 21
-497.6313068801674
 31
0.0000000001127424
  0
LINE
  5
1B532
  8
0
  6
BYBLOCK
 10
2302.014234929947
 20
-497.6313068801674
 30
0.0000000001127424
 11
2301.317567035947
 21
-495.0313068801673
 31
0.0000000001127424
  0
LINE
  5
1B533
  8
0
  6
BYBLOCK
 10
2302.014234929947
 20
-497.6313068801674
 30
0.0000000001127424
 11
2302.014234929947
 21
-495.0313068801673
 31
0.0000000001127424
  0
LINE
  5
1B534
  8
0
  6
BYBLOCK
 10
2301.317567035947
 20
-444.7313068801674
 30
0.0000000001127424
 11
2302.014234929947
 21
-442.1313068801674
 31
0.0000000001127424
  0
LINE
  5
1B535
  8
0
  6
BYBLOCK
 10
2302.014234929947
 20
-442.1313068801674
 30
0.0000000001127424
 11
2302.710902823947
 21
-444.7313068801674
 31
0.0000000001127424
  0
LINE
  5
1B536
  8
0
  6
BYBLOCK
 10
2302.014234929947
 20
-442.1313068801674
 30
0.0000000001127424
 11
2302.014234929947
 21
-444.7313068801674
 31
0.0000000001127424
  0
TEXT
  5
1B537
  8
1DIM
  6
CONTINUOUS
 10
2301.104234929947
 20
-476.7379041023892
 30
0.0000000001127424
 40
4.55
  1
55.5
 50
90.0
1001
ACAD
1000
DSTYLE
1002
{
1070
    40
1040
1.3
1070
    45
1040
0.5
1070
   341
1005
0
1002
}
  0
LINE
  5
1B538
  8
0
  6
BYBLOCK
 10
2682.925345688288
 20
-273.4673599784609
 30
0.0000000001127424
 11
2685.448568232551
 21
-272.5299731070711
 31
0.0000000001127424
  0
LINE
  5
1B539
  8
0
  6
BYBLOCK
 10
2685.448568232551
 20
-272.5299731070711
 30
0.0000000001127424
 11
2683.732086836107
 21
-274.6033852152132
 31
0.0000000001127424
  0
LINE
  5
1B53A
  8
0
  6
BYBLOCK
 10
2685.448568232551
 20
-272.5299731070711
 30
0.0000000001127424
 11
2683.328716262197
 21
-274.035372596837
 31
0.0000000001127424
  0
LINE
  5
1B53B
  8
0
  6
BYBLOCK
 10
2720.672574040263
 20
-220.7313068811962
 30
0.0000000001127424
 11
2721.369241934263
 21
-218.1313068811962
 31
0.0000000001127424
  0
LINE
  5
1B53C
  8
0
  6
BYBLOCK
 10
2721.369241934263
 20
-218.1313068811962
 30
0.0000000001127424
 11
2722.065909828263
 21
-220.7313068811962
 31
0.0000000001127424
  0
LINE
  5
1B53D
  8
0
  6
BYBLOCK
 10
2721.369241934263
 20
-218.1313068811962
 30
0.0000000001127424
 11
2721.369241934263
 21
-220.7313068811962
 31
0.0000000001127424
  0
LINE
  5
1B53E
  8
0
  6
BYBLOCK
 10
2722.065909828263
 20
-234.3313068811962
 30
0.0000000001127424
 11
2721.369241934263
 21
-236.9313068811962
 31
0.0000000001127424
  0
LINE
  5
1B53F
  8
0
  6
BYBLOCK
 10
2721.369241934263
 20
-236.9313068811962
 30
0.0000000001127424
 11
2720.672574040263
 21
-234.3313068811962
 31
0.0000000001127424
  0
LINE
  5
1B540
  8
0
  6
BYBLOCK
 10
2721.369241934263
 20
-236.9313068811962
 30
0.0000000001127424
 11
2721.369241934263
 21
-234.3313068811962
 31
0.0000000001127424
  0
TEXT
  5
1B541
  8
1DIM
  6
CONTINUOUS
 10
2720.459241934263
 20
-230.5656934552703
 30
0.0000000001127424
 40
4.55
  1
19
 50
90.0
1001
ACAD
1000
DSTYLE
1002
{
1070
    45
1040
0.5
1070
    40
1040
1.3
1002
}
  0
LINE
  5
1B542
  8
0
  6
BYBLOCK
 10
2688.308083332233
 20
-331.7123977720761
 30
0.0000000001127424
 11
2685.708083332233
 21
-331.0157298780762
 31
0.0000000001127424
  0
LINE
  5
1B543
  8
0
  6
BYBLOCK
 10
2685.708083332233
 20
-331.0157298780762
 30
0.0000000001127424
 11
2688.308083332233
 21
-330.3190619840762
 31
0.0000000001127424
  0
LINE
  5
1B544
  8
0
  6
BYBLOCK
 10
2685.708083332233
 20
-331.0157298780762
 30
0.0000000001127424
 11
2688.308083332233
 21
-331.0157298780762
 31
0.0000000001127424
  0
LINE
  5
1B545
  8
0
  6
BYBLOCK
 10
2808.106883664442
 20
-330.3190619840762
 30
0.0000000001127424
 11
2810.706883664442
 21
-331.0157298780762
 31
0.0000000001127424
  0
LINE
  5
1B546
  8
0
  6
BYBLOCK
 10
2810.706883664442
 20
-331.0157298780762
 30
0.0000000001127424
 11
2808.106883664442
 21
-331.7123977720761
 31
0.0000000001127424
  0
LINE
  5
1B547
  8
0
  6
BYBLOCK
 10
2810.706883664442
 20
-331.0157298780762
 30
0.0000000001127424
 11
2808.106883664442
 21
-331.0157298780762
 31
0.0000000001127424
  0
TEXT
  5
1B548
  8
1DIM
  6
CONTINUOUS
 10
2742.899150165004
 20
-330.1057298780762
 30
0.0000000001127424
 40
4.55
  1
125
1001
ACAD
1000
DSTYLE
1002
{
1070
    40
1040
1.3
1070
    45
1040
0.5
1002
}
  0
LINE
  5
1B549
  8
0
  6
BYBLOCK
 10
2663.309730471332
 20
-341.7123977720761
 30
0.0000000001127424
 11
2660.709730471332
 21
-341.0157298780762
 31
0.0000000001127424
  0
LINE
  5
1B54A
  8
0
  6
BYBLOCK
 10
2660.709730471332
 20
-341.0157298780762
 30
0.0000000001127424
 11
2663.309730471332
 21
-340.3190619840762
 31
0.0000000001127424
  0
LINE
  5
1B54B
  8
0
  6
BYBLOCK
 10
2660.709730471332
 20
-341.0157298780762
 30
0.0000000001127424
 11
2663.309730471332
 21
-341.0157298780762
 31
0.0000000001127424
  0
LINE
  5
1B54C
  8
0
  6
BYBLOCK
 10
2808.106883664442
 20
-340.3190619840762
 30
0.0000000001127424
 11
2810.706883664442
 21
-341.0157298780762
 31
0.0000000001127424
  0
LINE
  5
1B54D
  8
0
  6
BYBLOCK
 10
2810.706883664442
 20
-341.0157298780762
 30
0.0000000001127424
 11
2808.106883664442
 21
-341.7123977720761
 31
0.0000000001127424
  0
LINE
  5
1B54E
  8
0
  6
BYBLOCK
 10
2810.706883664442
 20
-341.0157298780762
 30
0.0000000001127424
 11
2808.106883664442
 21
-341.0157298780762
 31
0.0000000001127424
  0
TEXT
  5
1B54F
  8
1DIM
  6
CONTINUOUS
 10
2730.668550123443
 20
-340.1057298780762
 30
0.0000000001127424
 40
4.55
  1
150
1001
ACAD
1000
DSTYLE
1002
{
1070
    40
1040
1.3
1070
    45
1040
0.5
1002
}
  0
LINE
  5
1B550
  8
0
  6
BYBLOCK
 10
2831.403551558442
 20
-273.8482042642205
 30
0.0000000001127424
 11
2830.706883664442
 21
-276.4482042642205
 31
0.0000000001127424
  0
LINE
  5
1B551
  8
0
  6
BYBLOCK
 10
2830.706883664442
 20
-276.4482042642205
 30
0.0000000001127424
 11
2830.010215770442
 21
-273.8482042642205
 31
0.0000000001127424
  0
LINE
  5
1B552
  8
0
  6
BYBLOCK
 10
2830.706883664442
 20
-276.4482042642205
 30
0.0000000001127424
 11
2830.706883664442
 21
-273.8482042642205
 31
0.0000000001127424
  0
LINE
  5
1B553
  8
0
  6
BYBLOCK
 10
2830.010215770442
 20
-250.2313068811962
 30
0.0000000001127424
 11
2830.706883664442
 21
-247.6313068811962
 31
0.0000000001127424
  0
LINE
  5
1B554
  8
0
  6
BYBLOCK
 10
2830.706883664442
 20
-247.6313068811962
 30
0.0000000001127424
 11
2831.403551558442
 21
-250.2313068811962
 31
0.0000000001127424
  0
LINE
  5
1B555
  8
0
  6
BYBLOCK
 10
2830.706883664442
 20
-247.6313068811962
 30
0.0000000001127424
 11
2830.706883664442
 21
-250.2313068811962
 31
0.0000000001127424
  0
TEXT
  5
1B556
  8
1DIM
  6
CONTINUOUS
 10
2829.796883664442
 20
-265.8324754801156
 30
0.0000000001127424
 40
4.55
  1
29
 50
90.0
1001
ACAD
1000
DSTYLE
1002
{
1070
    40
1040
1.3
1070
    45
1040
0.5
1002
}
  0
LINE
  5
1B557
  8
0
  6
BYBLOCK
 10
2841.403551558442
 20
-303.4157298780761
 30
0.0000000001127424
 11
2840.706883664442
 21
-306.0157298780762
 31
0.0000000001127424
  0
LINE
  5
1B558
  8
0
  6
BYBLOCK
 10
2840.706883664442
 20
-306.0157298780762
 30
0.0000000001127424
 11
2840.010215770442
 21
-303.4157298780761
 31
0.0000000001127424
  0
LINE
  5
1B559
  8
0
  6
BYBLOCK
 10
2840.706883664442
 20
-306.0157298780762
 30
0.0000000001127424
 11
2840.706883664442
 21
-303.4157298780761
 31
0.0000000001127424
  0
LINE
  5
1B55A
  8
0
  6
BYBLOCK
 10
2840.010215770442
 20
-250.2313068811962
 30
0.0000000001127424
 11
2840.706883664442
 21
-247.6313068811962
 31
0.0000000001127424
  0
LINE
  5
1B55B
  8
0
  6
BYBLOCK
 10
2840.706883664442
 20
-247.6313068811962
 30
0.0000000001127424
 11
2841.403551558442
 21
-250.2313068811962
 31
0.0000000001127424
  0
LINE
  5
1B55C
  8
0
  6
BYBLOCK
 10
2840.706883664442
 20
-247.6313068811962
 30
0.0000000001127424
 11
2840.706883664442
 21
-250.2313068811962
 31
0.0000000001127424
  0
TEXT
  5
1B55D
  8
1DIM
  6
CONTINUOUS
 10
2839.796883664442
 20
-280.6309836574133
 30
0.0000000001127424
 40
4.55
  1
58
 50
90.0
1001
ACAD
1000
DSTYLE
1002
{
1070
    40
1040
1.3
1070
    45
1040
0.5
1002
}
  0
LINE
  5
1B55E
  8
0
  6
BYBLOCK
 10
2840.011299098491
 20
-485.3958935201694
 30
0.0000000001127424
 11
2840.707966992491
 21
-482.7958935201693
 31
0.0000000001127424
  0
LINE
  5
1B55F
  8
0
  6
BYBLOCK
 10
2840.707966992491
 20
-482.7958935201693
 30
0.0000000001127424
 11
2841.40463488649
 21
-485.3958935201694
 31
0.0000000001127424
  0
LINE
  5
1B560
  8
0
  6
BYBLOCK
 10
2840.707966992491
 20
-482.7958935201693
 30
0.0000000001127424
 11
2840.707966992491
 21
-485.3958935201694
 31
0.0000000001127424
  0
LINE
  5
1B561
  8
0
  6
BYBLOCK
 10
2841.40463488649
 20
-495.921056884723
 30
0.0000000001127424
 11
2840.707966992491
 21
-498.5210568847231
 31
0.0000000001127424
  0
LINE
  5
1B562
  8
0
  6
BYBLOCK
 10
2840.707966992491
 20
-498.5210568847231
 30
0.0000000001127424
 11
2840.011299098491
 21
-495.921056884723
 31
0.0000000001127424
  0
LINE
  5
1B563
  8
0
  6
BYBLOCK
 10
2840.707966992491
 20
-498.5210568847231
 30
0.0000000001127424
 11
2840.707966992491
 21
-495.921056884723
 31
0.0000000001127424
  0
TEXT
  5
1B564
  8
1DIM
  6
CONTINUOUS
 10
2839.797966992491
 20
-493.6918085357793
 30
0.0000000001127424
 40
4.55
  1
16
 50
90.0
1001
ACAD
1000
DSTYLE
1002
{
1070
    40
1040
1.3
1070
   271
1070
     0
1002
}
  0
VIEWPORT
  5
57
 67
     1
  8
0
 10
0.0
 20
0.0
 30
0.0
 40
544.3287197231833
 41
297.0
 68
     1
 69
     1
1001
ACAD
1000
MVIEW
1002
{
1070
    16
1010
0.0
1020
0.0
1030
0.0
1010
0.0
1020
0.0
1030
1.0
1040
0.0
1040
297.0
1040
1.837278951023393
1040
12.29366132359621
1040
50.0
1040
0.0
1040
0.0
1070
    16
1070
   100
1070
     0
1070
     1
1070
     0
1070
     0
1070
     0
1070
     0
1040
0.0
1040
0.0
1040
0.0
1040
10.0
1040
10.0
1040
10.0
1040
10.0
1070
     0
1002
{
1002
}
1002
}
  0
ENDSEC
  0
EOF
