  0
SECTION
  2
HEADER
  9
$ACADVER
  1
AC1009
  9
$DWGCODEPAGE
  3
ansi_932
  9
$INSBASE
 10
0.0
 20
0.0
 30
0.0
  9
$EXTMIN
 10
1923.758963253451
 20
-714.4666553195726
 30
0.0
  9
$EXTMAX
 10
2557.058847060408
 20
-295.4666553210049
 30
0.0000000001691137
  9
$LIMMIN
 10
0.0
 20
0.0
  9
$LIMMAX
 10
420.0
 20
297.0
  9
$ORTHOMODE
 70
     0
  9
$REGENMODE
 70
     1
  9
$FILLMODE
 70
     1
  9
$QTEXTMODE
 70
     0
  9
$MIRRTEXT
 70
     0
  9
$DRAGMODE
 70
     2
  9
$LTSCALE
 40
0.5
  9
$OSMODE
 70
 14591
  9
$ATTMODE
 70
     1
  9
$TEXTSIZE
 40
4.0
  9
$TRACEWID
 40
1.0
  9
$TEXTSTYLE
  7
STANDARD
  9
$CLAYER
  8
1TEXT
  9
$CELTYPE
  6
BYLAYER
  9
$CECOLOR
 62
   256
  9
$DIMSCALE
 40
1.0
  9
$DIMASZ
 40
2.0
  9
$DIMEXO
 40
0.0
  9
$DIMDLI
 40
7.0
  9
$DIMRND
 40
0.0
  9
$DIMDLE
 40
0.0
  9
$DIMEXE
 40
1.0
  9
$DIMTP
 40
0.0
  9
$DIMTM
 40
0.0
  9
$DIMTXT
 40
3.5
  9
$DIMCEN
 40
0.0
  9
$DIMTSZ
 40
0.0
  9
$DIMTOL
 70
     0
  9
$DIMLIM
 70
     0
  9
$DIMTIH
 70
     0
  9
$DIMTOH
 70
     0
  9
$DIMSE1
 70
     0
  9
$DIMSE2
 70
     0
  9
$DIMTAD
 70
     1
  9
$DIMZIN
 70
     8
  9
$DIMBLK
  1

  9
$DIMASO
 70
     1
  9
$DIMSHO
 70
     1
  9
$DIMPOST
  1
 
  9
$DIMAPOST
  1

  9
$DIMALT
 70
     0
  9
$DIMALTD
 70
     2
  9
$DIMALTF
 40
25.4
  9
$DIMLFAC
 40
1.0
  9
$DIMTOFL
 70
     1
  9
$DIMTVP
 40
0.0
  9
$DIMTIX
 70
     0
  9
$DIMSOXD
 70
     0
  9
$DIMSAH
 70
     1
  9
$DIMBLK1
  1
OPEN30
  9
$DIMBLK2
  1
OPEN30
  9
$DIMSTYLE
  2
NEWX10
  9
$DIMCLRD
 70
   256
  9
$DIMCLRE
 70
   256
  9
$DIMCLRT
 70
   201
  9
$DIMTFAC
 40
0.7
  9
$DIMGAP
 40
0.7
  9
$LUNITS
 70
     2
  9
$LUPREC
 70
     4
  9
$SKETCHINC
 40
1.0
  9
$FILLETRAD
 40
0.0
  9
$AUNITS
 70
     0
  9
$AUPREC
 70
     2
  9
$MENU
  1
acad
  9
$ELEVATION
 40
0.0
  9
$PELEVATION
 40
0.0
  9
$THICKNESS
 40
0.0
  9
$LIMCHECK
 70
     0
  9
$CHAMFERA
 40
10.0
  9
$CHAMFERB
 40
10.0
  9
$SKPOLY
 70
     0
  9
$TDCREATE
 40
2451318.621352917
  9
$TDUPDATE
 40
2460097.435752454
  9
$TDINDWG
 40
1.5260277778
  9
$TDUSRTIMER
 40
1.5260277778
  9
$USRTIMER
 70
     1
  9
$ANGBASE
 50
0.0
  9
$ANGDIR
 70
     0
  9
$PDMODE
 70
     0
  9
$PDSIZE
 40
0.0
  9
$PLINEWID
 40
0.0
  9
$COORDS
 70
     2
  9
$SPLFRAME
 70
     0
  9
$SPLINETYPE
 70
     6
  9
$SPLINESEGS
 70
     8
  9
$ATTDIA
 70
     0
  9
$ATTREQ
 70
     1
  9
$HANDLING
 70
     1
  9
$HANDSEED
  5
1B2D8
  9
$SURFTAB1
 70
     6
  9
$SURFTAB2
 70
     6
  9
$SURFTYPE
 70
     6
  9
$SURFU
 70
     6
  9
$SURFV
 70
     6
  9
$UCSNAME
  2

  9
$UCSORG
 10
0.0
 20
0.0
 30
0.0
  9
$UCSXDIR
 10
1.0
 20
0.0
 30
0.0
  9
$UCSYDIR
 10
0.0
 20
1.0
 30
0.0
  9
$PUCSNAME
  2

  9
$PUCSORG
 10
0.0
 20
0.0
 30
0.0
  9
$PUCSXDIR
 10
1.0
 20
0.0
 30
0.0
  9
$PUCSYDIR
 10
0.0
 20
1.0
 30
0.0
  9
$USERI1
 70
     0
  9
$USERI2
 70
     0
  9
$USERI3
 70
     0
  9
$USERI4
 70
     0
  9
$USERI5
 70
     0
  9
$USERR1
 40
0.0
  9
$USERR2
 40
0.0
  9
$USERR3
 40
0.0
  9
$USERR4
 40
0.0
  9
$USERR5
 40
0.0
  9
$WORLDVIEW
 70
     1
  9
$SHADEDGE
 70
     3
  9
$SHADEDIF
 70
    70
  9
$TILEMODE
 70
     1
  9
$MAXACTVP
 70
    48
  9
$PLIMCHECK
 70
     0
  9
$PEXTMIN
 10
1.000000000000000E+20
 20
1.000000000000000E+20
 30
1.000000000000000E+20
  9
$PEXTMAX
 10
-1.000000000000000E+20
 20
-1.000000000000000E+20
 30
-1.000000000000000E+20
  9
$PLIMMIN
 10
0.0
 20
0.0
  9
$PLIMMAX
 10
420.0
 20
297.0
  9
$UNITMODE
 70
     0
  9
$VISRETAIN
 70
     1
  9
$PLINEGEN
 70
     0
  9
$PSLTSCALE
 70
     1
  0
ENDSEC
  0
SECTION
  2
TABLES
  0
TABLE
  2
VPORT
 70
     1
  0
VPORT
  2
*ACTIVE
 70
     0
 10
0.0
 20
0.0
 11
1.0
 21
1.0
 12
2240.408905156929
 22
-504.9666553202887
 13
0.0
 23
0.0
 14
10.0
 24
10.0
 15
10.0
 25
10.0
 16
0.0
 26
0.0
 36
1.0
 17
0.0
 27
0.0
 37
0.0
 40
449.8736842089886
 41
1.824162679425837
 42
50.0
 43
0.0
 44
0.0
 50
0.0
 51
0.0
 71
     0
 72
   100
 73
     1
 74
     1
 75
     0
 76
     0
 77
     0
 78
     0
  0
ENDTAB
  0
TABLE
  2
LTYPE
 70
    12
  0
LTYPE
  2
CONTINUOUS
 70
     0
  3
Solid line
 72
    65
 73
     0
 40
0.0
  0
LTYPE
  2
CENTER2
 70
     0
  3
Center (.5x) ___ _ ___ _ ___ _ ___ _ ___ _ ___
 72
    65
 73
     4
 40
28.575
 49
19.05
 49
-3.175
 49
3.175
 49
-3.175
  0
ENDTAB
  0
TABLE
  2
LAYER
 70
    46
  0
LAYER
  2
0
 70
     0
 62
     7
  6
CONTINUOUS
  0
LAYER
  2
1CENTER
 70
     0
 62
     7
  6
CENTER2
  0
LAYER
  2
1TEXT
 70
     0
 62
     7
  6
CONTINUOUS
  0
LAYER
  2
01
 70
     0
 62
     1
  6
CONTINUOUS
  0
LAYER
  2
1DIM
 70
     0
 62
     7
  6
CONTINUOUS
  0
ENDTAB
  0
TABLE
  2
STYLE
 70
    17
  0
STYLE
  2
STANDARD
 70
     0
 40
0.0
 41
1.0
 50
0.0
 71
     0
 42
4.0
  3
txt.shx
  4
extfont.shx
  0
ENDTAB
  0
TABLE
  2
VIEW
 70
     0
  0
ENDTAB
  0
TABLE
  2
UCS
 70
     0
  0
ENDTAB
  0
TABLE
  2
APPID
 70
    15
  0
APPID
  2
ACAD
 70
     0
  0
APPID
  2
DRAWINGVARIABLESXDATA
 70
     0
  0
APPID
  2
CONTENTTABDATA
 70
     0
  0
APPID
  2
CONTENTCURRENTTAB
 70
     0
  0
APPID
  2
CONTENTBLOCKDESCRIPTION
 70
     0
  0
APPID
  2
CONTENTBLOCKICON
 70
     0
  0
APPID
  2
CONTENTLONGBLOCKNAME
 70
     0
  0
APPID
  2
ACAD_PSEXT
 70
     0
  0
APPID
  2
ACAD_MLEADERVER
 70
     0
  0
APPID
  2
ACADANNOTATIVE
 70
     0
  0
APPID
  2
ACDBBLOCKREPETAG
 70
     0
  0
APPID
  2
ACAD_OBJECT_CHANGE_GUID
 70
     0
  0
APPID
  2
ACAECLAYERSTANDARD
 70
     0
  0
APPID
  2
ACLAYERTOOLS
 70
     0
  0
APPID
  2
ACAD_NAV_VCDISPLAY
 70
     0
  0
ENDTAB
  0
TABLE
  2
DIMSTYLE
 70
     4
  0
DIMSTYLE
  2
NEWX10
 70
     0
  3
 
  4

  5

  6
OPEN30
  7
OPEN30
 40
1.0
 41
2.0
 42
0.0
 43
7.0
 44
1.0
 45
0.0
 46
0.0
 47
0.0
 48
0.0
140
3.5
141
0.0
142
0.0
143
25.4
144
1.0
145
0.0
146
0.7
147
0.7
 71
     0
 72
     0
 73
     0
 74
     0
 75
     0
 76
     0
 77
     1
 78
     8
170
     0
171
     2
172
     1
173
     1
174
     0
175
     0
176
   256
177
   256
178
   201
  0
DIMSTYLE
  2
ISO-25
 70
     0
  3

  4

  5

  6

  7

 40
1.0
 41
20.0
 42
3.0
 43
3.75
 44
2.0
 45
0.0
 46
0.0
 47
0.0
 48
0.0
140
30.0
141
5.0
142
0.0
143
0.03937
144
1.0
145
0.0
146
1.0
147
8.0
 71
     0
 72
     0
 73
     0
 74
     0
 75
     0
 76
     0
 77
     1
 78
     8
170
     0
171
     3
172
     1
173
     0
174
     0
175
     0
176
     1
177
     1
178
     1
  0
ENDTAB
  0
ENDSEC
  0
SECTION
  2
BLOCKS
  0
BLOCK
  8
0
  2
$MODEL_SPACE
 70
     0
 10
0.0
 20
0.0
 30
0.0
  3
$MODEL_SPACE
  1

  0
ENDBLK
  5
1A
  8
0
  0
BLOCK
 67
     1
  8
0
  2
$PAPER_SPACE
 70
     0
 10
0.0
 20
0.0
 30
0.0
  3
$PAPER_SPACE
  1

  0
ENDBLK
  5
17
 67
     1
  8
0
  0
BLOCK
  8
0
  2
_OPEN30
 70
     0
 10
0.0
 20
0.0
 30
0.0
  3
_OPEN30
  1

  0
LINE
  5
44
  8
0
  6
BYBLOCK
 62
     0
 10
-1.0
 20
0.26794919
 30
0.0
 11
0.0
 21
0.0
 31
0.0
  0
LINE
  5
45
  8
0
  6
BYBLOCK
 62
     0
 10
0.0
 20
0.0
 30
0.0
 11
-1.0
 21
-0.26794919
 31
0.0
  0
LINE
  5
46
  8
0
  6
BYBLOCK
 62
     0
 10
0.0
 20
0.0
 30
0.0
 11
-1.0
 21
0.0
 31
0.0
  0
ENDBLK
  5
47
  8
0
  0
BLOCK
  8
0
  2
A3WAKUKAWAJUN2017_HYOUDAI_
 70
     0
 10
0.0
 20
0.0
 30
0.0
  3
A3WAKUKAWAJUN2017_HYOUDAI_
  1

  0
LINE
  5
19D53
  8
0
 10
13.26299999998673
 20
-0.0001000000000317
 30
0.0
 11
9.236999999990758
 21
8.999899999990987
 31
0.0
1001
ACAD
1000
ASC_BOUNDS
1002
{
1070
    19
1005
19D94
1002
}
  0
LINE
  5
19D54
  8
0
 10
5.657999999994331
 20
0.9999999999989768
 30
0.0
 11
9.236999999990758
 21
8.999999999991019
 31
0.0
1001
ACAD
1000
ASC_BOUNDS
1002
{
1070
    19
1005
19D94
1002
}
  0
LINE
  5
19D55
  8
0
 10
18.59199999998134
 20
-0.2368999999997641
 30
0.0
 11
16.46099999998353
 21
5.432899999994561
 31
0.0
1001
ACAD
1000
ASC_BOUNDS
1002
{
1070
    19
1005
19D95
1002
}
  0
LINE
  5
19D56
  8
0
 10
18.59199999998134
 20
-0.2368999999997641
 30
0.0
 11
22.38199999997767
 21
8.763099999991255
 31
0.0
1001
ACAD
1000
ASC_BOUNDS
1002
{
1070
    19
1005
19D95
1002
}
  0
LINE
  5
19D57
  8
0
 10
14.32899999998563
 20
-0.2368999999997641
 30
0.0
 11
16.46099999998353
 21
5.432899999994561
 31
0.0
1001
ACAD
1000
ASC_BOUNDS
1002
{
1070
    19
1005
19D95
1002
}
  0
LINE
  5
19D58
  8
0
 10
14.32899999998563
 20
-0.2368999999997641
 30
0.0
 11
10.53899999998941
 21
8.763099999991255
 31
0.0
1001
ACAD
1000
ASC_BOUNDS
1002
{
1070
    19
1005
19D95
1002
}
  0
LINE
  5
19D59
  8
0
 10
19.53899999998043
 20
-0.0001000000000317
 30
0.0
 11
23.56599999997638
 21
8.999899999990987
 31
0.0
1001
ACAD
1000
ASC_BOUNDS
1002
{
1070
    19
1005
19D96
1002
}
  0
LINE
  5
19D5A
  8
0
 10
26.97358892824991
 20
1.383099999991202
 30
0.0
 11
23.56599999997638
 21
8.999899999990987
 31
0.0
1001
ACAD
1000
ASC_BOUNDS
1002
{
1070
    19
1005
19D96
1002
}
  0
LINE
  5
19D5B
  8
0
 10
5.657999999994331
 20
0.9999999999989768
 30
0.0
 11
3.181999999996833
 21
4.668599999995308
 31
0.0
1001
ACAD
1000
ASC_BOUNDS
1002
{
1070
    19
1005
19D94
1002
}
  0
LINE
  5
19D5C
  8
0
 10
4.617999999995391
 20
-0.0001000000000317
 30
0.0
 11
1.420999999998571
 21
4.736799999995242
 31
0.0
1001
ACAD
1000
ASC_BOUNDS
1002
{
1070
    19
1005
19D94
1002
}
  0
LINE
  5
19D5D
  8
0
 10
1.420999999998571
 20
8.763099999991255
 30
0.0
 11
1.420999999998571
 21
0.0
 31
0.0
1001
ACAD
1000
ASC_BOUNDS
1002
{
1070
    19
1005
19D99
1002
}
  0
LINE
  5
19D5E
  8
0
 10
0.0
 20
8.763099999991255
 30
0.0
 11
0.0
 21
0.0
 31
0.0
1001
ACAD
1000
ASC_BOUNDS
1002
{
1070
    19
1005
19D99
1002
}
  0
LINE
  5
19D5F
  8
0
 10
6.766999999993232
 20
-0.0001000000000317
 30
0.0
 11
7.826999999992154
 21
2.368399999997621
 31
0.0
1001
ACAD
1000
ASC_BOUNDS
1002
{
1070
    19
1005
19D94
1002
}
  0
LINE
  5
19D60
  8
0
 10
0.0
 20
0.0
 30
0.0
 11
1.420999999998571
 21
0.0
 31
0.0
1001
ACAD
1000
ASC_BOUNDS
1002
{
1070
    19
1005
19D99
1002
}
  0
LINE
  5
19D61
  8
0
 10
4.617999999995391
 20
0.0
 30
0.0
 11
6.766999999993232
 21
0.0
 31
0.0
1001
ACAD
1000
ASC_BOUNDS
1002
{
1070
    19
1005
19D94
1002
}
  0
LINE
  5
19D62
  8
0
 10
11.70599999998831
 20
-0.0001000000000317
 30
0.0
 11
10.64699999998936
 21
2.368399999997621
 31
0.0
1001
ACAD
1000
ASC_BOUNDS
1002
{
1070
    19
1005
19D94
1002
}
  0
LINE
  5
19D63
  8
0
 10
7.826999999992154
 20
2.368399999997621
 30
0.0
 11
10.64699999998936
 21
2.368399999997621
 31
0.0
1001
ACAD
1000
ASC_BOUNDS
1002
{
1070
    19
1005
19D94
1002
}
  0
LINE
  5
19D64
  8
0
 10
11.70599999998831
 20
0.0
 30
0.0
 11
13.26299999998673
 21
0.0
 31
0.0
1001
ACAD
1000
ASC_BOUNDS
1002
{
1070
    19
1005
19D94
1002
}
  0
LINE
  5
19D65
  8
0
 10
22.15599999997789
 20
2.368399999997621
 30
0.0
 11
24.97599999997499
 21
2.368399999997621
 31
0.0
1001
ACAD
1000
ASC_BOUNDS
1002
{
1070
    19
1005
19D96
1002
}
  0
LINE
  5
19D66
  8
0
 10
19.53899999998043
 20
0.0
 30
0.0
 11
21.09599999997886
 21
0.0
 31
0.0
1001
ACAD
1000
ASC_BOUNDS
1002
{
1070
    19
1005
19D96
1002
}
  0
LINE
  5
19D67
  8
0
 10
21.09599999997886
 20
-0.0001000000000317
 30
0.0
 11
22.15599999997789
 21
2.368399999997621
 31
0.0
1001
ACAD
1000
ASC_BOUNDS
1002
{
1070
    19
1005
19D96
1002
}
  0
LINE
  5
19D68
  8
0
 10
26.02015566812236
 20
0.0330999999912365
 30
0.0
 11
24.97599999997499
 21
2.368399999997621
 31
0.0
1001
ACAD
1000
ASC_BOUNDS
1002
{
1070
    19
1005
19D96
1002
}
  0
LINE
  5
19D69
  8
0
 10
14.32399999998563
 20
3.315799999996671
 30
0.0
 11
16.46099999998353
 21
8.999899999990987
 31
0.0
1001
ACAD
1000
ASC_BOUNDS
1002
{
1070
    19
1005
19D95
1002
}
  0
LINE
  5
19D6A
  8
0
 10
6.432999999993513
 20
8.763099999991255
 30
0.0
 11
3.181999999996833
 21
4.668599999995308
 31
0.0
1001
ACAD
1000
ASC_BOUNDS
1002
{
1070
    19
1005
19D94
1002
}
  0
LINE
  5
19D6B
  8
0
 10
4.617999999995391
 20
8.763099999991255
 30
0.0
 11
1.420999999998571
 21
4.736799999995242
 31
0.0
1001
ACAD
1000
ASC_BOUNDS
1002
{
1070
    19
1005
19D94
1002
}
  0
LINE
  5
19D6C
  8
0
 10
0.0
 20
8.763099999991255
 30
0.0
 11
1.420999999998571
 21
8.763099999991255
 31
0.0
1001
ACAD
1000
ASC_BOUNDS
1002
{
1070
    19
1005
19D99
1002
}
  0
LINE
  5
19D6D
  8
0
 10
4.617999999995391
 20
8.763099999991255
 30
0.0
 11
6.432999999993513
 21
8.763099999991255
 31
0.0
1001
ACAD
1000
ASC_BOUNDS
1002
{
1070
    19
1005
19D94
1002
}
  0
LINE
  5
19D6E
  8
0
 10
14.32399999998563
 20
3.315799999996671
 30
0.0
 11
12.02999999998792
 21
8.763099999991255
 31
0.0
1001
ACAD
1000
ASC_BOUNDS
1002
{
1070
    19
1005
19D95
1002
}
  0
LINE
  5
19D6F
  8
0
 10
10.06399999998996
 20
3.670999999996297
 30
0.0
 11
9.236999999990758
 21
5.5200999999945
 31
0.0
1001
ACAD
1000
ASC_BOUNDS
1002
{
1070
    19
1005
19D94
1002
}
  0
LINE
  5
19D70
  8
0
 10
8.409999999991555
 20
3.670999999996297
 30
0.0
 11
9.236999999990758
 21
5.5200999999945
 31
0.0
1001
ACAD
1000
ASC_BOUNDS
1002
{
1070
    19
1005
19D94
1002
}
  0
LINE
  5
19D71
  8
0
 10
8.409999999991555
 20
3.670999999996297
 30
0.0
 11
10.06399999998996
 21
3.670999999996297
 31
0.0
1001
ACAD
1000
ASC_BOUNDS
1002
{
1070
    19
1005
19D94
1002
}
  0
LINE
  5
19D72
  8
0
 10
10.53899999998941
 20
8.763099999991255
 30
0.0
 11
12.02999999998792
 21
8.763099999991255
 31
0.0
1001
ACAD
1000
ASC_BOUNDS
1002
{
1070
    19
1005
19D95
1002
}
  0
LINE
  5
19D73
  8
0
 10
22.7389999999773
 20
3.670999999996297
 30
0.0
 11
23.56599999997638
 21
5.5200999999945
 31
0.0
1001
ACAD
1000
ASC_BOUNDS
1002
{
1070
    19
1005
19D96
1002
}
  0
LINE
  5
19D74
  8
0
 10
22.7389999999773
 20
3.670999999996297
 30
0.0
 11
24.39299999997559
 21
3.670999999996297
 31
0.0
1001
ACAD
1000
ASC_BOUNDS
1002
{
1070
    19
1005
19D96
1002
}
  0
LINE
  5
19D75
  8
0
 10
18.59799999998143
 20
3.315799999996671
 30
0.0
 11
20.89099999997916
 21
8.763099999991255
 31
0.0
1001
ACAD
1000
ASC_BOUNDS
1002
{
1070
    19
1005
19D95
1002
}
  0
LINE
  5
19D76
  8
0
 10
18.59799999998143
 20
3.315799999996671
 30
0.0
 11
16.46099999998353
 21
8.999899999990987
 31
0.0
1001
ACAD
1000
ASC_BOUNDS
1002
{
1070
    19
1005
19D95
1002
}
  0
LINE
  5
19D77
  8
0
 10
20.89099999997916
 20
8.763099999991255
 30
0.0
 11
22.38199999997767
 21
8.763099999991255
 31
0.0
1001
ACAD
1000
ASC_BOUNDS
1002
{
1070
    19
1005
19D95
1002
}
  0
LINE
  5
19D78
  8
0
 10
24.39299999997559
 20
3.670999999996297
 30
0.0
 11
23.56599999997638
 21
5.5200999999945
 31
0.0
1001
ACAD
1000
ASC_BOUNDS
1002
{
1070
    19
1005
19D96
1002
}
  0
LINE
  5
19D79
  8
0
 10
44.99999999995498
 20
-0.2368999999997641
 30
0.0
 11
40.02599999995994
 21
5.341799999994635
 31
0.0
1001
ACAD
1000
ASC_BOUNDS
1002
{
1070
    19
1005
19D98
1002
}
  0
LINE
  5
19D7A
  8
0
 10
40.02599999995994
 20
5.341799999994635
 30
0.0
 11
40.02599999995994
 21
0.0
 31
0.0
1001
ACAD
1000
ASC_BOUNDS
1002
{
1070
    19
1005
19D98
1002
}
  0
LINE
  5
19D7B
  8
0
 10
38.60499999996136
 20
8.999999999991019
 30
0.0
 11
38.60499999996136
 21
0.0
 31
0.0
1001
ACAD
1000
ASC_BOUNDS
1002
{
1070
    19
1005
19D98
1002
}
  0
LINE
  5
19D7C
  8
0
 10
44.99999999995498
 20
8.763099999991255
 30
0.0
 11
44.99999999995498
 21
-0.2368999999997641
 31
0.0
1001
ACAD
1000
ASC_BOUNDS
1002
{
1070
    19
1005
19D98
1002
}
  0
LINE
  5
19D7D
  8
0
 10
38.60499999996136
 20
0.0
 30
0.0
 11
40.02599999995994
 21
0.0
 31
0.0
1001
ACAD
1000
ASC_BOUNDS
1002
{
1070
    19
1005
19D98
1002
}
  0
LINE
  5
19D7E
  8
0
 10
43.57899999995641
 20
3.421199999996588
 30
0.0
 11
38.60499999996136
 21
8.999899999990987
 31
0.0
1001
ACAD
1000
ASC_BOUNDS
1002
{
1070
    19
1005
19D98
1002
}
  0
LINE
  5
19D7F
  8
0
 10
43.57899999995641
 20
8.763099999991255
 30
0.0
 11
43.57899999995641
 21
3.421199999996588
 31
0.0
1001
ACAD
1000
ASC_BOUNDS
1002
{
1070
    19
1005
19D98
1002
}
  0
LINE
  5
19D80
  8
0
 10
43.57899999995641
 20
8.763099999991255
 30
0.0
 11
44.99999999995498
 21
8.763099999991255
 31
0.0
1001
ACAD
1000
ASC_BOUNDS
1002
{
1070
    19
1005
19D98
1002
}
  0
LINE
  5
19D81
  8
0
 10
37.67199999996831
 20
8.763099999991255
 30
0.0
 11
36.23199999996837
 21
8.763099999991255
 31
0.0
  0
LINE
  5
19D82
  8
0
 10
31.64199999996833
 20
8.763099999991255
 30
0.0
 11
31.64199999996833
 21
2.481619422925121
 31
0.0
  0
LINE
  5
19D83
  8
0
 10
37.67199999996831
 20
8.763099999991255
 30
0.0
 11
37.67199999996831
 21
2.481619422925121
 31
0.0
  0
LINE
  5
19D84
  8
0
 10
36.23199999996837
 20
8.763099999991255
 30
0.0
 11
36.23199999996837
 21
2.481619422925064
 31
0.0
  0
LINE
  5
19D85
  8
0
 10
33.08199999996839
 20
8.763099999991255
 30
0.0
 11
33.08199999996839
 21
2.481619422925121
 31
0.0
  0
ARC
  5
19D86
  8
0
 10
34.65699999996832
 20
3.183099999991214
 30
0.0
 40
3.420000000000007
 50
240.0000000000255
 51
299.9999999999766
  0
ARC
  5
19D87
  8
0
 10
34.65699999996832
 20
3.183099999991214
 30
0.0
 40
1.97999999999999
 50
240.000000000026
 51
299.9999999999703
  0
LINE
  5
19D88
  8
0
 10
33.08199999996828
 20
8.763099999991255
 30
0.0
 11
31.64199999996833
 21
8.763099999991255
 31
0.0
  0
ARC
  5
19D89
  8
0
 10
35.06199999996829
 20
2.481619422925064
 30
0.0
 40
1.17
 50
299.9999999999699
 51
0.0
  0
ARC
  5
19D8A
  8
0
 10
34.25199999996835
 20
2.481619422925121
 30
0.0
 40
1.17
 50
180.0
 51
240.0000000000238
  0
ARC
  5
19D8B
  8
0
 10
35.06199999996841
 20
2.481619422925121
 30
0.0
 40
2.61
 50
299.9999999999756
 51
0.0
  0
ARC
  5
19D8C
  8
0
 10
34.25199999996835
 20
2.481619422925121
 30
0.0
 40
2.61
 50
180.0
 51
240.0000000000244
  0
LINE
  5
19D8D
  8
0
 10
29.30199999996933
 20
8.763099999991255
 30
0.0
 11
30.74199999996927
 21
8.763099999991255
 31
0.0
1001
ACAD
1000
ASC_BOUNDS
1002
{
1070
    19
1005
19D96
1002
}
  0
LINE
  5
19D8E
  8
0
 10
30.74199999996927
 20
8.763099999991255
 30
0.0
 11
30.74199999996927
 21
2.373099999991211
 31
0.0
1001
ACAD
1000
ASC_BOUNDS
1002
{
1070
    19
1005
19D96
1002
}
  0
LINE
  5
19D8F
  8
0
 10
26.02015566812236
 20
0.0330999999912365
 30
0.0
 11
28.40199999996923
 21
0.0330999999912365
 31
0.0
1001
ACAD
1000
ASC_BOUNDS
1002
{
1070
    19
1005
19D96
1002
}
  0
LINE
  5
19D90
  8
0
 10
29.30199999996933
 20
8.763099999991255
 30
0.0
 11
29.30199999996933
 21
2.283099999991236
 31
0.0
1001
ACAD
1000
ASC_BOUNDS
1002
{
1070
    19
1005
19D96
1002
}
  0
LINE
  5
19D91
  8
0
 10
26.97358892824991
 20
1.383099999991202
 30
0.0
 11
28.40199999996923
 21
1.383099999991202
 31
0.0
1001
ACAD
1000
ASC_BOUNDS
1002
{
1070
    19
1005
19D96
1002
}
  0
ARC
  5
19D92
  8
0
 10
28.40199999996923
 20
2.283099999991236
 30
0.0
 40
0.9
 50
270.0
 51
0.0
1001
ACAD
1000
ASC_BOUNDS
1002
{
1070
    19
1005
19D96
1002
}
  0
ARC
  5
19D93
  8
0
 10
28.40199999996923
 20
2.373099999991211
 30
0.0
 40
2.34
 50
270.0
 51
0.0
1001
ACAD
1000
ASC_BOUNDS
1002
{
1070
    19
1005
19D96
1002
}
  0
INSERT
  5
19D94
  8
0
  2
*X162
 10
0.0
 20
0.0
 30
0.0
1001
ACAD
1000
HATCH
1002
{
1070
    19
1000
ANSI37
1040
0.15
1040
0.0
1000
ASC_BOUNDS
1070
     2
1070
     2
1070
    12
1005
19D53
1005
19D54
1005
19D5B
1005
19D6A
1005
19D6D
1005
19D6B
1005
19D5C
1005
19D61
1005
19D5F
1005
19D63
1005
19D62
1005
19D64
1070
     2
1070
     3
1005
19D6F
1005
19D71
1005
19D70
1000
ASC_SEEDPOINT
1011
3.614004224891801
1021
2.996669441146025
1031
0.0
1021
2.996669441146025
1031
0.0
1000
R14_HATCH_DATA
1000
19D94
1011
1.0
1021
0.0
1031
0.0
1021
0.0
1031
0.0
1011
0.0
1021
1.0
1031
0.0
1021
1.0
1031
0.0
1011
0.0
1021
0.0
1031
1.0
1021
0.0
1031
1.0
1040
0.0
1010
0.0
1020
0.0
1030
1.0
1000
ANSI37
1070
     0
1070
     1
1071
        2
1071
        7
1070
     0
1070
     1
1071
       17
1040
13.26299999998673
1040
-0.0001000000000317
1040
9.236999999990758
1040
8.999899999990987
1040
9.236999999990758
1040
8.999999999991019
1040
5.657999999994331
1040
0.9999999999989768
1040
3.181999999996833
1040
4.668599999995308
1040
6.432999999993513
1040
8.763099999991255
1040
4.617999999995391
1040
8.763099999991255
1040
1.420999999998571
1040
4.736799999995242
1040
4.617999999995391
1040
-0.0001000000000317
1040
4.617999999995391
1040
0.0
1040
6.766999999993232
1040
0.0
1040
6.766999999993232
1040
-0.0001000000000317
1040
7.826999999992154
1040
2.368399999997621
1040
10.64699999998936
1040
2.368399999997621
1040
11.70599999998831
1040
-0.0001000000000317
1040
11.70599999998831
1040
0.0
1040
13.26299999998673
1040
0.0
1071
       12
1005
19D53
1005
19D54
1005
19D5B
1005
19D6A
1005
19D6D
1005
19D6B
1005
19D5C
1005
19D61
1005
19D5F
1005
19D63
1005
19D62
1005
19D64
1071
       22
1070
     0
1070
     1
1071
        3
1040
9.236999999990758
1040
5.5200999999945
1040
10.06399999998996
1040
3.670999999996297
1040
8.409999999991555
1040
3.670999999996297
1071
        3
1005
19D6F
1005
19D71
1005
19D70
1070
     0
1070
     1
1040
0.0
1040
0.15
1070
     0
1070
     2
1040
0.7853981633974483
1040
49.29960901727088
1040
-10.17736998311392
1040
-0.3367596045400932
1040
0.3367596045400932
1070
     0
1040
2.356194490192345
1040
49.29960901727088
1040
-10.17736998311392
1040
-0.3367596045400932
1040
-0.3367596045400932
1070
     0
1040
0.0110235143455945
1071
        2
1040
3.614004224891801
1040
2.996669441146025
1040
0.0
1040
3.614004224891801
1040
2.996669441146025
1040
0.0
1002
}
  0
INSERT
  5
19D95
  8
0
  2
*X163
 10
0.0
 20
0.0
 30
0.0
1001
ACAD
1000
HATCH
1002
{
1070
    19
1000
ANSI37
1040
0.15
1040
0.0
1000
ASC_BOUNDS
1070
     1
1070
     2
1070
    10
1005
19D55
1005
19D56
1005
19D77
1005
19D75
1005
19D76
1005
19D69
1005
19D6E
1005
19D72
1005
19D58
1005
19D57
1000
ASC_SEEDPOINT
1011
14.73245321214324
1021
2.798246178283421
1031
0.0
1021
2.798246178283421
1031
0.0
1000
R14_HATCH_DATA
1000
19D95
1011
1.0
1021
0.0
1031
0.0
1021
0.0
1031
0.0
1011
0.0
1021
1.0
1031
0.0
1021
1.0
1031
0.0
1011
0.0
1021
0.0
1031
1.0
1021
0.0
1031
1.0
1040
0.0
1010
0.0
1020
0.0
1030
1.0
1000
ANSI37
1070
     0
1070
     1
1071
        1
1071
        7
1070
     0
1070
     1
1071
       10
1040
16.46099999998353
1040
5.432899999994561
1040
18.59199999998134
1040
-0.2368999999997641
1040
22.38199999997767
1040
8.763099999991255
1040
20.89099999997916
1040
8.763099999991255
1040
18.59799999998143
1040
3.315799999996671
1040
16.46099999998353
1040
8.999899999990987
1040
14.32399999998563
1040
3.315799999996671
1040
12.02999999998792
1040
8.763099999991255
1040
10.53899999998941
1040
8.763099999991255
1040
14.32899999998563
1040
-0.2368999999997641
1071
       10
1005
19D55
1005
19D56
1005
19D77
1005
19D75
1005
19D76
1005
19D69
1005
19D6E
1005
19D72
1005
19D58
1005
19D57
1070
     0
1070
     1
1040
0.0
1040
0.15
1070
     0
1070
     2
1040
0.7853981633974483
1040
49.29960901727088
1040
-10.17736998311392
1040
-0.3367596045400932
1040
0.3367596045400932
1070
     0
1040
2.356194490192345
1040
49.29960901727088
1040
-10.17736998311392
1040
-0.3367596045400932
1040
-0.3367596045400932
1070
     0
1040
0.0110235143455945
1071
        1
1040
14.73245321214324
1040
2.798246178283421
1040
0.0
1002
}
  0
INSERT
  5
19D96
  8
0
  2
*X164
 10
0.0
 20
0.0
 30
0.0
1001
ACAD
1000
HATCH
1002
{
1070
    19
1000
ANSI37
1040
0.15
1040
0.0
1000
ASC_BOUNDS
1070
     2
1070
     2
1070
    13
1005
19D59
1005
19D66
1005
19D67
1005
19D65
1005
19D68
1005
19D8F
1005
19D93
1005
19D8E
1005
19D8D
1005
19D90
1005
19D92
1005
19D91
1005
19D5A
1070
     2
1070
     3
1005
19D73
1005
19D78
1005
19D74
1000
ASC_SEEDPOINT
1011
21.97929957367762
1021
3.294304244259308
1031
0.0
1021
3.294304244259308
1031
0.0
1000
R14_HATCH_DATA
1000
19D96
1011
1.0
1021
0.0
1031
0.0
1021
0.0
1031
0.0
1011
0.0
1021
1.0
1031
0.0
1021
1.0
1031
0.0
1011
0.0
1021
0.0
1031
1.0
1021
0.0
1031
1.0
1040
0.0
1010
0.0
1020
0.0
1030
1.0
1000
ANSI37
1070
     0
1070
     1
1071
        2
1071
        7
1070
     1
1070
     1
1071
       15
1040
23.56599999997638
1040
8.999899999990987
1040
0.0
1040
19.53899999998043
1040
-0.0001000000000317
1040
0.0
1040
19.53899999998043
1040
0.0
1040
0.0
1040
21.09599999997886
1040
0.0
1040
0.0
1040
21.09599999997886
1040
-0.0001000000000317
1040
0.0
1040
22.15599999997789
1040
2.368399999997621
1040
0.0
1040
24.97599999997499
1040
2.368399999997621
1040
0.0
1040
26.02015566812236
1040
0.0330999999912365
1040
0.0
1040
28.40199999996923
1040
0.0330999999912365
1040
0.414213562373095
1040
30.74199999996923
1040
2.373099999991211
1040
0.0
1040
30.74199999996927
1040
8.763099999991255
1040
0.0
1040
29.30199999996933
1040
8.763099999991255
1040
0.0
1040
29.30199999996933
1040
2.283099999991236
1040
-0.414213562373095
1040
28.40199999996923
1040
1.383099999991237
1040
0.0
1040
26.97358892824991
1040
1.383099999991202
1040
0.0
1071
       13
1005
19D59
1005
19D66
1005
19D67
1005
19D65
1005
19D68
1005
19D8F
1005
19D93
1005
19D8E
1005
19D8D
1005
19D90
1005
19D92
1005
19D91
1005
19D5A
1071
       22
1070
     0
1070
     1
1071
        3
1040
22.7389999999773
1040
3.670999999996297
1040
23.56599999997638
1040
5.5200999999945
1040
24.39299999997559
1040
3.670999999996297
1071
        3
1005
19D73
1005
19D78
1005
19D74
1070
     0
1070
     1
1040
0.0
1040
0.15
1070
     0
1070
     2
1040
0.7853981633974483
1040
49.29960901727088
1040
-10.17736998311392
1040
-0.3367596045400932
1040
0.3367596045400932
1070
     0
1040
2.356194490192345
1040
49.29960901727088
1040
-10.17736998311392
1040
-0.3367596045400932
1040
-0.3367596045400932
1070
     0
1040
0.0110235143455945
1071
        2
1040
21.97929957367762
1040
3.294304244259308
1040
0.0
1040
21.97929957367762
1040
3.294304244259308
1040
0.0
1002
}
  0
INSERT
  5
19D97
  8
0
  2
*X165
 10
0.0
 20
0.0
 30
0.0
1001
ACAD
1000
HATCH
1002
{
1070
    19
1000
ANSI37
1040
0.15
1040
0.0
1000
R14_HATCH_DATA
1000
19D97
1011
1.0
1021
0.0
1031
0.0
1021
0.0
1031
0.0
1011
0.0
1021
1.0
1031
0.0
1021
1.0
1031
0.0
1011
0.0
1021
0.0
1031
1.0
1021
0.0
1031
1.0
1040
0.0
1010
0.0
1020
0.0
1030
1.0
1000
ANSI37
1070
     0
1070
     1
1071
        1
1071
        7
1070
     1
1070
     1
1071
       12
1040
31.64199999996833
1040
2.481619422925121
1040
0.2679491924310942
1040
32.94699999997067
1040
0.2212931190493919
1040
0.2679491924301353
1040
36.36699999995983
1040
0.2212931190459813
1040
0.2679491924321411
1040
37.67199999996831
1040
2.481619422928361
1040
0.0
1040
37.67199999996831
1040
8.763099999991255
1040
0.0
1040
36.23199999996837
1040
8.763099999991255
1040
0.0
1040
36.23199999996837
1040
2.481619422925064
1040
-0.2679491924310291
1040
35.64699999996708
1040
1.468369700498386
1040
-0.267949192430519
1040
33.66699999997093
1040
1.468369700497703
1040
-0.267949192431809
1040
33.08199999996839
1040
2.481619422926997
1040
0.0
1040
33.08199999996839
1040
8.763099999991255
1040
0.0
1040
31.64199999996833
1040
8.763099999991255
1040
0.0
1071
        0
1070
     0
1070
     1
1040
0.0
1040
0.15
1070
     0
1070
     2
1040
0.7853981633974483
1040
49.29960901727088
1040
-10.17736998311392
1040
-0.3367596045400932
1040
0.3367596045400932
1070
     0
1040
2.356194490192345
1040
49.29960901727088
1040
-10.17736998311392
1040
-0.3367596045400932
1040
-0.3367596045400932
1070
     0
1040
0.0110235143455945
1071
        1
1040
32.30357378967278
1040
3.988785755459219
1040
0.0
1002
}
  0
INSERT
  5
19D98
  8
0
  2
*X166
 10
0.0
 20
0.0
 30
0.0
1001
ACAD
1000
HATCH
1002
{
1070
    19
1000
ANSI37
1040
0.15
1040
0.0
1000
ASC_BOUNDS
1070
     1
1070
     2
1070
     8
1005
19D79
1005
19D7C
1005
19D80
1005
19D7F
1005
19D7E
1005
19D7B
1005
19D7D
1005
19D7A
1000
ASC_SEEDPOINT
1011
39.74896370716704
1021
4.484843821435049
1031
0.0
1021
4.484843821435049
1031
0.0
1000
R14_HATCH_DATA
1000
19D98
1011
1.0
1021
0.0
1031
0.0
1021
0.0
1031
0.0
1011
0.0
1021
1.0
1031
0.0
1021
1.0
1031
0.0
1011
0.0
1021
0.0
1031
1.0
1021
0.0
1031
1.0
1040
0.0
1010
0.0
1020
0.0
1030
1.0
1000
ANSI37
1070
     0
1070
     1
1071
        1
1071
        7
1070
     0
1070
     1
1071
        9
1040
40.02599999995994
1040
5.341799999994635
1040
44.99999999995498
1040
-0.2368999999997641
1040
44.99999999995498
1040
8.763099999991255
1040
43.57899999995641
1040
8.763099999991255
1040
43.57899999995641
1040
3.421199999996588
1040
38.60499999996136
1040
8.999899999990987
1040
38.60499999996136
1040
8.999999999991019
1040
38.60499999996136
1040
0.0
1040
40.02599999995994
1040
0.0
1071
        8
1005
19D79
1005
19D7C
1005
19D80
1005
19D7F
1005
19D7E
1005
19D7B
1005
19D7D
1005
19D7A
1070
     0
1070
     1
1040
0.0
1040
0.15
1070
     0
1070
     2
1040
0.7853981633974483
1040
49.29960901727088
1040
-10.17736998311392
1040
-0.3367596045400932
1040
0.3367596045400932
1070
     0
1040
2.356194490192345
1040
49.29960901727088
1040
-10.17736998311392
1040
-0.3367596045400932
1040
-0.3367596045400932
1070
     0
1040
0.0110235143455945
1071
        1
1040
39.74896370716704
1040
4.484843821435049
1040
0.0
1002
}
  0
INSERT
  5
19D99
  8
0
  2
*X167
 10
0.0
 20
0.0
 30
0.0
1001
ACAD
1000
HATCH
1002
{
1070
    19
1000
ANSI37
1040
0.15
1040
0.0
1000
ASC_BOUNDS
1070
     1
1070
     2
1070
     4
1005
19D5D
1005
19D6C
1005
19D5E
1005
19D60
1000
ASC_SEEDPOINT
1011
1.079051535452663
1021
4.148538732891836
1031
0.0
1021
4.148538732891836
1031
0.0
1000
R14_HATCH_DATA
1000
19D99
1011
1.0
1021
0.0
1031
0.0
1021
0.0
1031
0.0
1011
0.0
1021
1.0
1031
0.0
1021
1.0
1031
0.0
1011
0.0
1021
0.0
1031
1.0
1021
0.0
1031
1.0
1040
0.0
1010
0.0
1020
0.0
1030
1.0
1000
ANSI37
1070
     0
1070
     1
1071
        1
1071
        7
1070
     0
1070
     1
1071
        4
1040
1.420999999998571
1040
0.0
1040
1.420999999998571
1040
8.763099999991255
1040
0.0
1040
8.763099999991255
1040
0.0
1040
0.0
1071
        4
1005
19D5D
1005
19D6C
1005
19D5E
1005
19D60
1070
     0
1070
     1
1040
0.0
1040
0.15
1070
     0
1070
     2
1040
0.7853981633974483
1040
49.29960901727088
1040
-10.17736998311392
1040
-0.3367596045400932
1040
0.3367596045400932
1070
     0
1040
2.356194490192345
1040
49.29960901727088
1040
-10.17736998311392
1040
-0.3367596045400932
1040
-0.3367596045400932
1070
     0
1040
0.0053004257112761
1071
        1
1040
1.079051535452663
1040
4.148538732891836
1040
0.0
1002
}
  0
ENDBLK
  5
1A475
  8
0
  0
BLOCK
  8
0
  2
*X162
 70
     1
 10
0.0
 20
0.0
 30
0.0
  3
*X162
  1

  0
LINE
  5
1B134
  8
0
  6
CONTINUOUS
 10
3.418023043697893
 20
7.251849696850613
 30
0.0
 11
4.929273346838536
 21
8.763099999991255
 31
0.0
  0
LINE
  5
1B135
  8
0
  6
CONTINUOUS
 10
1.483656411257782
 20
4.643963855330318
 30
0.0
 11
5.60279255591872
 21
8.763099999991255
 31
0.0
  0
LINE
  5
1B136
  8
0
  6
CONTINUOUS
 10
1.755053947328235
 20
4.241842182320584
 30
0.0
 11
6.276311764998907
 21
8.763099999991255
 31
0.0
  0
LINE
  5
1B137
  8
0
  6
CONTINUOUS
 10
2.026451483398688
 20
3.839720509310849
 30
0.0
 11
4.441040904851878
 21
6.254309930764039
 31
0.0
  0
LINE
  5
1B138
  8
0
  6
CONTINUOUS
 10
2.297849019469139
 20
3.437598836301114
 30
0.0
 11
3.321765168359338
 21
4.461514985191313
 31
0.0
  0
LINE
  5
1B139
  8
0
  6
CONTINUOUS
 10
2.569246555539591
 20
3.03547716329138
 30
0.0
 11
3.593163397972743
 21
4.059394005724531
 31
0.0
  0
LINE
  5
1B13A
  8
0
  6
CONTINUOUS
 10
2.840644091610043
 20
2.633355490281646
 30
0.0
 11
3.864561627586149
 21
3.657273026257751
 31
0.0
  0
LINE
  5
1B13B
  8
0
  6
CONTINUOUS
 10
3.112041627680496
 20
2.231233817271911
 30
0.0
 11
4.135959857199554
 21
3.25515204679097
 31
0.0
  0
LINE
  5
1B13C
  8
0
  6
CONTINUOUS
 10
3.383439163750948
 20
1.829112144262177
 30
0.0
 11
4.40735808681296
 21
2.853031067324189
 31
0.0
  0
LINE
  5
1B13D
  8
0
  6
CONTINUOUS
 10
3.654836699821399
 20
1.426990471252442
 30
0.0
 11
4.678756316426365
 21
2.450910087857407
 31
0.0
  0
LINE
  5
1B13E
  8
0
  6
CONTINUOUS
 10
3.926234235891853
 20
1.024868798242709
 30
0.0
 11
4.95015454603977
 21
2.048789108390626
 31
0.0
  0
LINE
  5
1B13F
  8
0
  6
CONTINUOUS
 10
4.197631771962304
 20
0.6227471252329737
 30
0.0
 11
5.221552775653176
 21
1.646668128923846
 31
0.0
  0
LINE
  5
1B140
  8
0
  6
CONTINUOUS
 10
8.715877546767851
 20
7.835069736359266
 30
0.0
 11
9.435953450375058
 21
8.555145639966472
 31
0.0
  0
LINE
  5
1B141
  8
0
  6
CONTINUOUS
 10
8.170620868422267
 20
6.616293848933497
 30
0.0
 11
9.644120833743461
 21
8.08979381425469
 31
0.0
  0
LINE
  5
1B142
  8
0
  6
CONTINUOUS
 10
7.625364190076684
 20
5.397517961507727
 30
0.0
 11
9.852288217111864
 21
7.624441988542907
 31
0.0
  0
LINE
  5
1B143
  8
0
  6
CONTINUOUS
 10
7.080107511731101
 20
4.178742074081957
 30
0.0
 11
10.06045560048027
 21
7.159090162831124
 31
0.0
  0
LINE
  5
1B144
  8
0
  6
CONTINUOUS
 10
6.534850833385518
 20
2.959966186656187
 30
0.0
 11
10.26862298384867
 21
6.693738337119342
 31
0.0
  0
LINE
  5
1B145
  8
0
  6
CONTINUOUS
 10
4.469029308032756
 20
0.2206254522232385
 30
0.0
 11
5.492951005266582
 21
1.244547149457064
 31
0.0
  0
LINE
  5
1B146
  8
0
  6
CONTINUOUS
 10
5.989594155039935
 20
1.741190299230417
 30
0.0
 11
8.806950407233131
 21
4.558546551423613
 31
0.0
  0
LINE
  5
1B147
  8
0
  6
CONTINUOUS
 10
9.401251593263643
 20
5.152847737454126
 30
0.0
 11
10.47679036721708
 21
6.228386511407559
 31
0.0
  0
LINE
  5
1B148
  8
0
  6
CONTINUOUS
 10
4.921837203428691
 20
-0.0000858614610131
 30
0.0
 11
8.592923064886001
 21
3.670999999996297
 31
0.0
  0
LINE
  5
1B149
  8
0
  6
CONTINUOUS
 10
9.609390446785305
 20
4.6874673818956
 30
0.0
 11
10.68495775058548
 21
5.763034685695775
 31
0.0
  0
LINE
  5
1B14A
  8
0
  6
CONTINUOUS
 10
5.595387755019432
 20
-0.0000545189504582
 30
0.0
 11
7.716137258923768
 21
2.120694984953879
 31
0.0
  0
LINE
  5
1B14B
  8
0
  6
CONTINUOUS
 10
6.268938306610172
 20
-0.000023176439905
 30
0.0
 11
7.170485805526503
 21
0.9015243224764267
 31
0.0
  0
LINE
  5
1B14C
  8
0
  6
CONTINUOUS
 10
7.963842273967511
 20
2.368399999997621
 30
0.0
 11
9.266442273966188
 21
3.670999999996297
 31
0.0
  0
LINE
  5
1B14D
  8
0
  6
CONTINUOUS
 10
8.637361483047696
 20
2.368399999997621
 30
0.0
 11
9.939961483046375
 21
3.670999999996297
 31
0.0
  0
LINE
  5
1B14E
  8
0
  6
CONTINUOUS
 10
9.817529300306965
 20
4.222087026337075
 30
0.0
 11
10.89312513395388
 21
5.297682859983993
 31
0.0
  0
LINE
  5
1B14F
  8
0
  6
CONTINUOUS
 10
10.02566815382863
 20
3.756706670778549
 30
0.0
 11
11.10129251732229
 21
4.832331034272211
 31
0.0
  0
LINE
  5
1B150
  8
0
  6
CONTINUOUS
 10
9.310880692127883
 20
2.368399999997621
 30
0.0
 11
11.30945990069069
 21
4.366979208560428
 31
0.0
  0
LINE
  5
1B151
  8
0
  6
CONTINUOUS
 10
9.98439990120807
 20
2.36839999999762
 30
0.0
 11
11.5176272840591
 21
3.901627382848645
 31
0.0
  0
LINE
  5
1B152
  8
0
  6
CONTINUOUS
 10
10.65037369446246
 20
2.36085458417182
 30
0.0
 11
11.7257946674275
 21
3.436275557136862
 31
0.0
  0
LINE
  5
1B153
  8
0
  6
CONTINUOUS
 10
10.85847197087848
 20
1.895433651507656
 30
0.0
 11
11.9339620507959
 21
2.97092373142508
 31
0.0
  0
LINE
  5
1B154
  8
0
  6
CONTINUOUS
 10
11.0665702472945
 20
1.430012718843491
 30
0.0
 11
12.14212943416431
 21
2.505571905713296
 31
0.0
  0
LINE
  5
1B155
  8
0
  6
CONTINUOUS
 10
11.27466852371052
 20
0.9645917861793256
 30
0.0
 11
12.35029681753271
 21
2.040220080001513
 31
0.0
  0
LINE
  5
1B156
  8
0
  6
CONTINUOUS
 10
11.48276680012654
 20
0.4991708535151611
 30
0.0
 11
12.55846420090111
 21
1.57486825428973
 31
0.0
  0
LINE
  5
1B157
  8
0
  6
CONTINUOUS
 10
11.69086507654257
 20
0.0337499208509957
 30
0.0
 11
12.76663158426952
 21
1.109516428577947
 31
0.0
  0
LINE
  5
1B158
  8
0
  6
CONTINUOUS
 10
12.33057447873954
 20
-0.0000598860322123
 30
0.0
 11
12.97479896763792
 21
0.6441646028661663
 31
0.0
  0
LINE
  5
1B159
  8
0
  6
CONTINUOUS
 10
13.00413694809395
 20
-0.0000166257579952
 30
0.0
 11
13.18296635100632
 21
0.1788127771543824
 31
0.0
  0
LINE
  5
1B15A
  8
0
  6
CONTINUOUS
 10
4.772852165289667
 20
-0.000092794222212
 30
0.0
 11
4.296495091028902
 21
0.4762642800385528
 31
0.0
  0
LINE
  5
1B15B
  8
0
  6
CONTINUOUS
 10
5.446340034776103
 20
-0.0000614546284616
 30
0.0
 11
2.898195908335625
 21
2.548082671812017
 31
0.0
  0
LINE
  5
1B15C
  8
0
  6
CONTINUOUS
 10
6.119827904262539
 20
-0.0000301150347113
 30
0.0
 11
1.499896725642348
 21
4.61990106358548
 31
0.0
  0
LINE
  5
1B15D
  8
0
  6
CONTINUOUS
 10
6.775136745476159
 20
0.0181802528318542
 30
0.0
 11
5.699826040202669
 21
1.093490958105344
 31
0.0
  0
LINE
  5
1B15E
  8
0
  6
CONTINUOUS
 10
6.983376846288489
 20
0.4834593610997118
 30
0.0
 11
5.908008617934405
 21
1.558827589453796
 31
0.0
  0
LINE
  5
1B15F
  8
0
  6
CONTINUOUS
 10
5.377063484962296
 20
1.416253513345719
 30
0.0
 11
1.702276957014131
 21
5.091040041293883
 31
0.0
  0
LINE
  5
1B160
  8
0
  6
CONTINUOUS
 10
3.978745891735324
 20
3.488090315652877
 30
0.0
 11
2.000373521109399
 21
5.466462686278803
 31
0.0
  0
LINE
  5
1B161
  8
0
  6
CONTINUOUS
 10
7.191616947100819
 20
0.948738469367568
 30
0.0
 11
6.11619119566614
 21
2.024164220802247
 31
0.0
  0
LINE
  5
1B162
  8
0
  6
CONTINUOUS
 10
7.399857047913149
 20
1.414017577635424
 30
0.0
 11
6.324373773397875
 21
2.489500852150698
 31
0.0
  0
LINE
  5
1B163
  8
0
  6
CONTINUOUS
 10
7.608097148725479
 20
1.879296685903281
 30
0.0
 11
6.53255635112961
 21
2.95483748349915
 31
0.0
  0
LINE
  5
1B164
  8
0
  6
CONTINUOUS
 10
7.816337249537808
 20
2.344575794171138
 30
0.0
 11
6.740738928861345
 21
3.420174114847601
 31
0.0
  0
LINE
  5
1B165
  8
0
  6
CONTINUOUS
 10
3.310241080789734
 20
4.830114335678653
 30
0.0
 11
2.298470085204666
 21
5.84188533126372
 31
0.0
  0
LINE
  5
1B166
  8
0
  6
CONTINUOUS
 10
3.60832983563551
 20
5.205544789913063
 30
0.0
 11
2.596566649299935
 21
6.217307976248638
 31
0.0
  0
LINE
  5
1B167
  8
0
  6
CONTINUOUS
 10
3.906418590481286
 20
5.580975244147473
 30
0.0
 11
2.894663213395203
 21
6.592730621233557
 31
0.0
  0
LINE
  5
1B168
  8
0
  6
CONTINUOUS
 10
4.204507345327062
 20
5.956405698381884
 30
0.0
 11
3.192759777490472
 21
6.968153266218474
 31
0.0
  0
LINE
  5
1B169
  8
0
  6
CONTINUOUS
 10
8.466032252791512
 20
2.368399999997621
 30
0.0
 11
6.948921506593081
 21
3.885510746196053
 31
0.0
  0
LINE
  5
1B16A
  8
0
  6
CONTINUOUS
 10
9.139551461871699
 20
2.36839999999762
 30
0.0
 11
7.157104084324816
 21
4.350847377544504
 31
0.0
  0
LINE
  5
1B16B
  8
0
  6
CONTINUOUS
 10
4.502596100172839
 20
6.331836152616295
 30
0.0
 11
3.49085634158574
 21
7.343575911203393
 31
0.0
  0
LINE
  5
1B16C
  8
0
  6
CONTINUOUS
 10
4.800684855018615
 20
6.707266606850705
 30
0.0
 11
3.788952905681008
 21
7.718998556188312
 31
0.0
  0
LINE
  5
1B16D
  8
0
  6
CONTINUOUS
 10
12.18154012887317
 20
-0.0000694579236642
 30
0.0
 11
11.32140332908496
 21
0.8600673418645499
 31
0.0
  0
LINE
  5
1B16E
  8
0
  6
CONTINUOUS
 10
12.85501608323566
 20
-0.0000262032059659
 30
0.0
 11
10.77672456435345
 21
2.078265315676246
 31
0.0
  0
LINE
  5
1B16F
  8
0
  6
CONTINUOUS
 10
9.813070670951886
 20
2.36839999999762
 30
0.0
 11
8.51047067095321
 21
3.670999999996297
 31
0.0
  0
LINE
  5
1B170
  8
0
  6
CONTINUOUS
 10
10.48658988003207
 20
2.36839999999762
 30
0.0
 11
9.183989880033396
 21
3.670999999996297
 31
0.0
  0
LINE
  5
1B171
  8
0
  6
CONTINUOUS
 10
8.441048632286794
 20
3.740422038662712
 30
0.0
 11
7.365286662056551
 21
4.816184008892956
 31
0.0
  0
LINE
  5
1B172
  8
0
  6
CONTINUOUS
 10
8.649187485808454
 20
4.205802394221237
 30
0.0
 11
7.573469239788285
 21
5.281520640241407
 31
0.0
  0
LINE
  5
1B173
  8
0
  6
CONTINUOUS
 10
5.098773609864391
 20
7.082697061085115
 30
0.0
 11
4.087049469776277
 21
8.09442120117323
 31
0.0
  0
LINE
  5
1B174
  8
0
  6
CONTINUOUS
 10
5.396862364710167
 20
7.458127515319526
 30
0.0
 11
4.385146033871544
 21
8.469843846158149
 31
0.0
  0
LINE
  5
1B175
  8
0
  6
CONTINUOUS
 10
13.04801363231285
 20
0.4804954567970334
 30
0.0
 11
9.85750908911358
 21
3.670999999996297
 31
0.0
  0
LINE
  5
1B176
  8
0
  6
CONTINUOUS
 10
8.857326339330116
 20
4.671182749779763
 30
0.0
 11
7.781651817520021
 21
5.746857271589858
 31
0.0
  0
LINE
  5
1B177
  8
0
  6
CONTINUOUS
 10
5.694951119555943
 20
7.833557969553937
 30
0.0
 11
4.765409089118624
 21
8.763099999991255
 31
0.0
  0
LINE
  5
1B178
  8
0
  6
CONTINUOUS
 10
12.50286117236978
 20
1.699167125820288
 30
0.0
 11
9.68611877250287
 21
4.515909525687196
 31
0.0
  0
LINE
  5
1B179
  8
0
  6
CONTINUOUS
 10
9.065465192851777
 20
5.136563105338288
 30
0.0
 11
7.989834395251757
 21
6.21219390293831
 31
0.0
  0
LINE
  5
1B17A
  8
0
  6
CONTINUOUS
 10
5.993039874401719
 20
8.208988423788346
 30
0.0
 11
5.43892829819881
 21
8.763099999991255
 31
0.0
  0
LINE
  5
1B17B
  8
0
  6
CONTINUOUS
 10
11.95770871242671
 20
2.917838794843543
 30
0.0
 11
8.19801697298349
 21
6.677530534286761
 31
0.0
  0
LINE
  5
1B17C
  8
0
  6
CONTINUOUS
 10
6.291128629247495
 20
8.584418878022756
 30
0.0
 11
6.112447507278997
 21
8.763099999991255
 31
0.0
  0
LINE
  5
1B17D
  8
0
  6
CONTINUOUS
 10
11.41255625248364
 20
4.136510463866797
 30
0.0
 11
8.406199550715227
 21
7.142867165635211
 31
0.0
  0
LINE
  5
1B17E
  8
0
  6
CONTINUOUS
 10
10.86740379254057
 20
5.355182132890051
 30
0.0
 11
8.614382128446962
 21
7.608203796983664
 31
0.0
  0
LINE
  5
1B17F
  8
0
  6
CONTINUOUS
 10
10.3222513325975
 20
6.573853801913305
 30
0.0
 11
8.822564706178696
 21
8.073540428332114
 31
0.0
  0
LINE
  5
1B180
  8
0
  6
CONTINUOUS
 10
9.777098872654436
 20
7.792525470936562
 30
0.0
 11
9.030747283910433
 21
8.538877059680566
 31
0.0
  0
ENDBLK
  5
1B2C2
  8
0
  0
BLOCK
  8
0
  2
*X163
 70
     1
 10
0.0
 20
0.0
 30
0.0
  3
*X163
  1

  0
LINE
  5
1B182
  8
0
  6
CONTINUOUS
 10
10.67292308101235
 20
8.445076852443387
 30
0.0
 11
10.99094622856022
 21
8.763099999991255
 31
0.0
  0
LINE
  5
1B183
  8
0
  6
CONTINUOUS
 10
10.87250383178748
 20
7.971138394138331
 30
0.0
 11
11.6644654376404
 21
8.763099999991255
 31
0.0
  0
LINE
  5
1B184
  8
0
  6
CONTINUOUS
 10
11.07208458256261
 20
7.497199935833273
 30
0.0
 11
12.12126590876355
 21
8.546381262034211
 31
0.0
  0
LINE
  5
1B185
  8
0
  6
CONTINUOUS
 10
11.27166533333774
 20
7.023261477528216
 30
0.0
 11
12.32085164573666
 21
8.072447789927136
 31
0.0
  0
LINE
  5
1B186
  8
0
  6
CONTINUOUS
 10
11.47124608411287
 20
6.549323019223158
 30
0.0
 11
12.52043738270977
 21
7.59851431782006
 31
0.0
  0
LINE
  5
1B187
  8
0
  6
CONTINUOUS
 10
11.670826834888
 20
6.075384560918101
 30
0.0
 11
12.72002311968288
 21
7.124580845712984
 31
0.0
  0
LINE
  5
1B188
  8
0
  6
CONTINUOUS
 10
11.87040758566313
 20
5.601446102613043
 30
0.0
 11
12.91960885665599
 21
6.650647373605907
 31
0.0
  0
LINE
  5
1B189
  8
0
  6
CONTINUOUS
 10
12.06998833643825
 20
5.127507644307986
 30
0.0
 11
13.1191945936291
 21
6.176713901498832
 31
0.0
  0
LINE
  5
1B18A
  8
0
  6
CONTINUOUS
 10
12.26956908721338
 20
4.65356918600293
 30
0.0
 11
13.31878033060221
 21
5.702780429391757
 31
0.0
  0
LINE
  5
1B18B
  8
0
  6
CONTINUOUS
 10
12.46914983798851
 20
4.179630727697873
 30
0.0
 11
13.51836606757532
 21
5.228846957284683
 31
0.0
  0
LINE
  5
1B18C
  8
0
  6
CONTINUOUS
 10
12.66873058876364
 20
3.705692269392816
 30
0.0
 11
13.71795180454843
 21
4.754913485177607
 31
0.0
  0
LINE
  5
1B18D
  8
0
  6
CONTINUOUS
 10
12.86831133953877
 20
3.231753811087759
 30
0.0
 11
13.91753754152154
 21
4.280980013070531
 31
0.0
  0
LINE
  5
1B18E
  8
0
  6
CONTINUOUS
 10
13.0678920903139
 20
2.757815352782702
 30
0.0
 11
14.11712327849465
 21
3.807046540963456
 31
0.0
  0
LINE
  5
1B18F
  8
0
  6
CONTINUOUS
 10
13.26747284108903
 20
2.283876894477644
 30
0.0
 11
14.31670901546777
 21
3.333113068856379
 31
0.0
  0
LINE
  5
1B190
  8
0
  6
CONTINUOUS
 10
16.36767838827179
 20
8.751678487061342
 30
0.0
 11
16.50332410898388
 21
8.887324207773432
 31
0.0
  0
LINE
  5
1B191
  8
0
  6
CONTINUOUS
 10
15.96190732182191
 20
7.67238821153127
 30
0.0
 11
16.68735328004734
 21
8.397834169756699
 31
0.0
  0
LINE
  5
1B192
  8
0
  6
CONTINUOUS
 10
15.55613625537202
 20
6.593097936001196
 30
0.0
 11
16.87138245111079
 21
7.908344131739965
 31
0.0
  0
LINE
  5
1B193
  8
0
  6
CONTINUOUS
 10
15.15036518892213
 20
5.513807660471122
 30
0.0
 11
17.05541162217424
 21
7.418854093723231
 31
0.0
  0
LINE
  5
1B194
  8
0
  6
CONTINUOUS
 10
14.74459412247225
 20
4.434517384941048
 30
0.0
 11
17.2394407932377
 21
6.929364055706499
 31
0.0
  0
LINE
  5
1B195
  8
0
  6
CONTINUOUS
 10
14.33882305602236
 20
3.355227109410975
 30
0.0
 11
17.42346996430115
 21
6.439874017689766
 31
0.0
  0
LINE
  5
1B196
  8
0
  6
CONTINUOUS
 10
13.46705359186416
 20
1.809938436172586
 30
0.0
 11
16.0819338255367
 21
4.424818669845129
 31
0.0
  0
LINE
  5
1B197
  8
0
  6
CONTINUOUS
 10
16.63283254238972
 20
4.975717386698149
 30
0.0
 11
17.60749913536461
 21
5.950383979673033
 31
0.0
  0
LINE
  5
1B198
  8
0
  6
CONTINUOUS
 10
13.66663434263929
 20
1.335999977867529
 30
0.0
 11
15.67604797733754
 21
3.345413612565779
 31
0.0
  0
LINE
  5
1B199
  8
0
  6
CONTINUOUS
 10
13.86621509341442
 20
0.8620615195624723
 30
0.0
 11
15.27016212913838
 21
2.26600855528643
 31
0.0
  0
LINE
  5
1B19A
  8
0
  6
CONTINUOUS
 10
16.81682257348267
 20
4.486188208710908
 30
0.0
 11
17.79152830642806
 21
5.460893941656299
 31
0.0
  0
LINE
  5
1B19B
  8
0
  6
CONTINUOUS
 10
17.00081260457561
 20
3.996659030723667
 30
0.0
 11
17.97555747749151
 21
4.971403903639565
 31
0.0
  0
LINE
  5
1B19C
  8
0
  6
CONTINUOUS
 10
20.74362343514722
 20
8.412989070375462
 30
0.0
 11
21.09373436476302
 21
8.763099999991256
 31
0.0
  0
LINE
  5
1B19D
  8
0
  6
CONTINUOUS
 10
20.25401257174777
 20
7.249858997895826
 30
0.0
 11
21.7672535738432
 21
8.763099999991255
 31
0.0
  0
LINE
  5
1B19E
  8
0
  6
CONTINUOUS
 10
14.06579584418955
 20
0.3881230612574149
 30
0.0
 11
14.86427628093921
 21
1.186603498007082
 31
0.0
  0
LINE
  5
1B19F
  8
0
  6
CONTINUOUS
 10
14.26537659496467
 20
-0.0858153970476412
 30
0.0
 11
14.45839043274005
 21
0.1071984407277329
 31
0.0
  0
LINE
  5
1B1A0
  8
0
  6
CONTINUOUS
 10
17.18480263566856
 20
3.507129852736426
 30
0.0
 11
18.15958664855496
 21
4.481913865622833
 31
0.0
  0
LINE
  5
1B1A1
  8
0
  6
CONTINUOUS
 10
17.3687926667615
 20
3.017600674749186
 30
0.0
 11
18.34361581961842
 21
3.9924238276061
 31
0.0
  0
LINE
  5
1B1A2
  8
0
  6
CONTINUOUS
 10
19.76440170834832
 20
6.086728925416191
 30
0.0
 11
22.33924590259489
 21
8.661573119662755
 31
0.0
  0
LINE
  5
1B1A3
  8
0
  6
CONTINUOUS
 10
19.27479084494887
 20
4.923598852936555
 30
0.0
 11
21.84929622842713
 21
7.498104236414807
 31
0.0
  0
LINE
  5
1B1A4
  8
0
  6
CONTINUOUS
 10
17.55278269785445
 20
2.528071496761945
 30
0.0
 11
18.52764499068187
 21
3.502933789589366
 31
0.0
  0
LINE
  5
1B1A5
  8
0
  6
CONTINUOUS
 10
18.78517998154942
 20
3.760468780456919
 30
0.0
 11
21.35934655425936
 21
6.33463535316686
 31
0.0
  0
LINE
  5
1B1A6
  8
0
  6
CONTINUOUS
 10
17.73677272894739
 20
2.038542318774704
 30
0.0
 11
20.8693968800916
 21
5.171166469918914
 31
0.0
  0
LINE
  5
1B1A7
  8
0
  6
CONTINUOUS
 10
17.92076276004034
 20
1.549013140787464
 30
0.0
 11
20.37944720592384
 21
4.007697586670968
 31
0.0
  0
LINE
  5
1B1A8
  8
0
  6
CONTINUOUS
 10
18.10475279113329
 20
1.059483962800223
 30
0.0
 11
19.88949753175608
 21
2.84422870342302
 31
0.0
  0
LINE
  5
1B1A9
  8
0
  6
CONTINUOUS
 10
18.28874282222623
 20
0.5699547848129822
 30
0.0
 11
19.39954785758832
 21
1.680759820175074
 31
0.0
  0
LINE
  5
1B1AA
  8
0
  6
CONTINUOUS
 10
18.47273285331918
 20
0.0804256068257416
 30
0.0
 11
18.90959818342056
 21
0.517290936927127
 31
0.0
  0
LINE
  5
1B1AB
  8
0
  6
CONTINUOUS
 10
14.3590401358224
 20
-0.1570118376323384
 30
0.0
 11
14.24903296539946
 21
-0.0470046672093929
 31
0.0
  0
LINE
  5
1B1AC
  8
0
  6
CONTINUOUS
 10
14.54309291258661
 20
0.332454594683643
 30
0.0
 11
13.75908329123172
 21
1.116464216038529
 31
0.0
  0
LINE
  5
1B1AD
  8
0
  6
CONTINUOUS
 10
14.72714568935081
 20
0.8219210269996244
 30
0.0
 11
13.26913361706399
 21
2.27993309928645
 31
0.0
  0
LINE
  5
1B1AE
  8
0
  6
CONTINUOUS
 10
14.91119846611502
 20
1.311387459315606
 30
0.0
 11
12.77918394289625
 21
3.443401982534371
 31
0.0
  0
LINE
  5
1B1AF
  8
0
  6
CONTINUOUS
 10
15.09525124287922
 20
1.800853891631587
 30
0.0
 11
12.28923426872852
 21
4.606870865782293
 31
0.0
  0
LINE
  5
1B1B0
  8
0
  6
CONTINUOUS
 10
15.27930401964343
 20
2.290320323947569
 30
0.0
 11
11.79928459456078
 21
5.770339749030213
 31
0.0
  0
LINE
  5
1B1B1
  8
0
  6
CONTINUOUS
 10
15.46335679640763
 20
2.77978675626355
 30
0.0
 11
14.48885470994921
 21
3.754288842721972
 31
0.0
  0
LINE
  5
1B1B2
  8
0
  6
CONTINUOUS
 10
13.88507249233704
 20
4.358071060334137
 30
0.0
 11
11.30933492039305
 21
6.933808632278135
 31
0.0
  0
LINE
  5
1B1B3
  8
0
  6
CONTINUOUS
 10
18.75840522805855
 20
0.1582575336928151
 30
0.0
 11
18.25383727664818
 21
0.6628254851031863
 31
0.0
  0
LINE
  5
1B1B4
  8
0
  6
CONTINUOUS
 10
15.64740957317184
 20
3.269253188579531
 30
0.0
 11
14.67288388101266
 21
4.243778880738705
 31
0.0
  0
LINE
  5
1B1B5
  8
0
  6
CONTINUOUS
 10
13.39509276772158
 20
5.521569994029786
 30
0.0
 11
10.81938524622531
 21
8.097277515526056
 31
0.0
  0
LINE
  5
1B1B6
  8
0
  6
CONTINUOUS
 10
18.95798597883369
 20
0.6321959919978686
 30
0.0
 11
17.84825644852853
 21
1.741925522303024
 31
0.0
  0
LINE
  5
1B1B7
  8
0
  6
CONTINUOUS
 10
19.15756672960882
 20
1.106134450302922
 30
0.0
 11
17.44267562040888
 21
2.821025559502861
 31
0.0
  0
LINE
  5
1B1B8
  8
0
  6
CONTINUOUS
 10
15.83146234993604
 20
3.758719620895513
 30
0.0
 11
14.85691305207612
 21
4.733268918755439
 31
0.0
  0
LINE
  5
1B1B9
  8
0
  6
CONTINUOUS
 10
16.01551512670025
 20
4.248186053211494
 30
0.0
 11
15.04094222313957
 21
5.222758956772172
 31
0.0
  0
LINE
  5
1B1BA
  8
0
  6
CONTINUOUS
 10
12.90511304310612
 20
6.685068927725435
 30
0.0
 11
10.8270819708403
 21
8.763099999991255
 31
0.0
  0
LINE
  5
1B1BB
  8
0
  6
CONTINUOUS
 10
12.41513331849066
 20
7.848567861421083
 30
0.0
 11
11.50060117992049
 21
8.763099999991255
 31
0.0
  0
LINE
  5
1B1BC
  8
0
  6
CONTINUOUS
 10
19.35714748038395
 20
1.580072908607975
 30
0.0
 11
17.03709479228923
 21
3.900125596702697
 31
0.0
  0
LINE
  5
1B1BD
  8
0
  6
CONTINUOUS
 10
19.55672823115909
 20
2.054011366913028
 30
0.0
 11
16.63151396416958
 21
4.979225633902534
 31
0.0
  0
LINE
  5
1B1BE
  8
0
  6
CONTINUOUS
 10
16.19956790346445
 20
4.737652485527476
 30
0.0
 11
15.22497139420302
 21
5.712248994788904
 31
0.0
  0
LINE
  5
1B1BF
  8
0
  6
CONTINUOUS
 10
16.38362068022866
 20
5.227118917843457
 30
0.0
 11
15.40900056526648
 21
6.201739032805637
 31
0.0
  0
LINE
  5
1B1C0
  8
0
  6
CONTINUOUS
 10
19.75630898193422
 20
2.527949825218081
 30
0.0
 11
18.70774536448286
 21
3.576513442669441
 31
0.0
  0
LINE
  5
1B1C1
  8
0
  6
CONTINUOUS
 10
19.95588973270936
 20
3.001888283523134
 30
0.0
 11
18.90726987211446
 21
4.050508144118028
 31
0.0
  0
LINE
  5
1B1C2
  8
0
  6
CONTINUOUS
 10
20.15547048348449
 20
3.475826741828186
 30
0.0
 11
19.10679437974606
 21
4.524502845566614
 31
0.0
  0
LINE
  5
1B1C3
  8
0
  6
CONTINUOUS
 10
20.35505123425962
 20
3.94976520013324
 30
0.0
 11
19.30631888737766
 21
4.998497547015201
 31
0.0
  0
LINE
  5
1B1C4
  8
0
  6
CONTINUOUS
 10
20.55463198503475
 20
4.423703658438292
 30
0.0
 11
19.50584339500926
 21
5.472492248463787
 31
0.0
  0
LINE
  5
1B1C5
  8
0
  6
CONTINUOUS
 10
18.37481191085755
 20
3.909446896294752
 30
0.0
 11
15.59302973632993
 21
6.691229070822371
 31
0.0
  0
LINE
  5
1B1C6
  8
0
  6
CONTINUOUS
 10
17.96904084440766
 20
4.988737171824825
 30
0.0
 11
15.77705890739338
 21
7.180719108839104
 31
0.0
  0
LINE
  5
1B1C7
  8
0
  6
CONTINUOUS
 10
17.56326977795777
 20
6.068027447354899
 30
0.0
 11
15.96108807845684
 21
7.670209146855838
 31
0.0
  0
LINE
  5
1B1C8
  8
0
  6
CONTINUOUS
 10
17.15749871150789
 20
7.147317722884972
 30
0.0
 11
16.14511724952029
 21
8.15969918487257
 31
0.0
  0
LINE
  5
1B1C9
  8
0
  6
CONTINUOUS
 10
16.751727645058
 20
8.226607998415046
 30
0.0
 11
16.32914642058374
 21
8.649189222889303
 31
0.0
  0
LINE
  5
1B1CA
  8
0
  6
CONTINUOUS
 10
20.75421273580989
 20
4.897642116743345
 30
0.0
 11
19.70536790264086
 21
5.946486949912374
 31
0.0
  0
LINE
  5
1B1CB
  8
0
  6
CONTINUOUS
 10
20.95379348658502
 20
5.371580575048398
 30
0.0
 11
19.90489241027246
 21
6.42048165136096
 31
0.0
  0
LINE
  5
1B1CC
  8
0
  6
CONTINUOUS
 10
21.15337423736015
 20
5.845519033353452
 30
0.0
 11
20.10441691790406
 21
6.894476352809547
 31
0.0
  0
LINE
  5
1B1CD
  8
0
  6
CONTINUOUS
 10
21.35295498813529
 20
6.319457491658505
 30
0.0
 11
20.30394142553566
 21
7.368471054258134
 31
0.0
  0
LINE
  5
1B1CE
  8
0
  6
CONTINUOUS
 10
21.55253573891042
 20
6.793395949963558
 30
0.0
 11
20.50346593316726
 21
7.842465755706721
 31
0.0
  0
LINE
  5
1B1CF
  8
0
  6
CONTINUOUS
 10
21.75211648968556
 20
7.267334408268612
 30
0.0
 11
20.70299044079886
 21
8.316460457155308
 31
0.0
  0
LINE
  5
1B1D0
  8
0
  6
CONTINUOUS
 10
21.95169724046069
 20
7.741272866573663
 30
0.0
 11
20.9298701070431
 21
8.763099999991256
 31
0.0
  0
LINE
  5
1B1D1
  8
0
  6
CONTINUOUS
 10
22.15127799123582
 20
8.215211324878716
 30
0.0
 11
21.60338931612328
 21
8.763099999991256
 31
0.0
  0
LINE
  5
1B1D2
  8
0
  6
CONTINUOUS
 10
22.35085874201096
 20
8.689149783183769
 30
0.0
 11
22.27690852520347
 21
8.763099999991255
 31
0.0
  0
ENDBLK
  5
1B2C4
  8
0
  0
BLOCK
  8
0
  2
*X164
 70
     1
 10
0.0
 20
0.0
 30
0.0
  3
*X164
  1

  0
LINE
  5
1B1D4
  8
0
  6
CONTINUOUS
 10
23.19462913593892
 20
8.169917934846424
 30
0.0
 11
23.70775465517246
 21
8.683043454079957
 31
0.0
  0
LINE
  5
1B1D5
  8
0
  6
CONTINUOUS
 10
22.64923161835078
 20
6.951001208178088
 30
0.0
 11
23.9159364069932
 21
8.217705996820516
 31
0.0
  0
LINE
  5
1B1D6
  8
0
  6
CONTINUOUS
 10
22.10383410076263
 20
5.732084481509751
 30
0.0
 11
24.12411815881395
 21
7.752368539561078
 31
0.0
  0
LINE
  5
1B1D7
  8
0
  6
CONTINUOUS
 10
21.55843658317447
 20
4.513167754841414
 30
0.0
 11
24.3322999106347
 21
7.287031082301639
 31
0.0
  0
LINE
  5
1B1D8
  8
0
  6
CONTINUOUS
 10
21.01303906558632
 20
3.294251028173077
 30
0.0
 11
24.54048166245544
 21
6.821693625042199
 31
0.0
  0
LINE
  5
1B1D9
  8
0
  6
CONTINUOUS
 10
20.46764154799817
 20
2.075334301504738
 30
0.0
 11
23.28571549467848
 21
4.89340824818505
 31
0.0
  0
LINE
  5
1B1DA
  8
0
  6
CONTINUOUS
 10
19.92224403041002
 20
0.8564175748364002
 30
0.0
 11
22.74075865492779
 21
3.674932199354171
 31
0.0
  0
LINE
  5
1B1DB
  8
0
  6
CONTINUOUS
 10
23.67305085490148
 20
5.280743608408048
 30
0.0
 11
24.74866341427619
 21
6.356356167782759
 31
0.0
  0
LINE
  5
1B1DC
  8
0
  6
CONTINUOUS
 10
23.88118970842314
 20
4.815363252849522
 30
0.0
 11
24.95684516609694
 21
5.89101871052332
 31
0.0
  0
LINE
  5
1B1DD
  8
0
  6
CONTINUOUS
 10
19.73925852647308
 20
-0.0000871381807288
 30
0.0
 11
23.4103456646501
 21
3.670999999996297
 31
0.0
  0
LINE
  5
1B1DE
  8
0
  6
CONTINUOUS
 10
24.0893285619448
 20
4.349982897290997
 30
0.0
 11
25.16502691791769
 21
5.42568125326388
 31
0.0
  0
LINE
  5
1B1DF
  8
0
  6
CONTINUOUS
 10
20.41282099582748
 20
-0.0000438779065108
 30
0.0
 11
21.64944178675636
 21
1.236576913022366
 31
0.0
  0
LINE
  5
1B1E0
  8
0
  6
CONTINUOUS
 10
22.78126487373161
 20
2.36839999999762
 30
0.0
 11
24.08386487373029
 21
3.670999999996297
 31
0.0
  0
LINE
  5
1B1E1
  8
0
  6
CONTINUOUS
 10
24.29746741546646
 20
3.884602541732471
 30
0.0
 11
25.37320866973843
 21
4.960343796004441
 31
0.0
  0
LINE
  5
1B1E2
  8
0
  6
CONTINUOUS
 10
21.08638346518189
 20
-0.0000006176322938
 30
0.0
 11
21.10379033335899
 21
0.0174062505448083
 31
0.0
  0
LINE
  5
1B1E3
  8
0
  6
CONTINUOUS
 10
23.4547840828118
 20
2.36839999999762
 30
0.0
 11
25.58139042155918
 21
4.495006338745002
 31
0.0
  0
LINE
  5
1B1E4
  8
0
  6
CONTINUOUS
 10
29.30199999996933
 20
8.215615917155148
 30
0.0
 11
29.84948408280543
 21
8.763099999991255
 31
0.0
  0
LINE
  5
1B1E5
  8
0
  6
CONTINUOUS
 10
24.12830329189199
 20
2.36839999999762
 30
0.0
 11
25.78957217337993
 21
4.029668881485562
 31
0.0
  0
LINE
  5
1B1E6
  8
0
  6
CONTINUOUS
 10
29.30199999996933
 20
7.54209670807496
 30
0.0
 11
30.52300329188562
 21
8.763099999991255
 31
0.0
  0
LINE
  5
1B1E7
  8
0
  6
CONTINUOUS
 10
24.80182250097217
 20
2.36839999999762
 30
0.0
 11
25.99775392520067
 21
3.564331424226122
 31
0.0
  0
LINE
  5
1B1E8
  8
0
  6
CONTINUOUS
 10
29.30199999996933
 20
6.868577498994774
 30
0.0
 11
30.74199999996926
 21
8.308577498994712
 31
0.0
  0
LINE
  5
1B1E9
  8
0
  6
CONTINUOUS
 10
25.13028238392013
 20
2.023340673865392
 30
0.0
 11
26.20593567702142
 21
3.098993966966683
 31
0.0
  0
LINE
  5
1B1EA
  8
0
  6
CONTINUOUS
 10
25.33838066033617
 20
1.557919741201244
 30
0.0
 11
26.41411742884217
 21
2.633656509707244
 31
0.0
  0
LINE
  5
1B1EB
  8
0
  6
CONTINUOUS
 10
25.54647893675221
 20
1.092498808537098
 30
0.0
 11
26.62229918066291
 21
2.168319052447804
 31
0.0
  0
LINE
  5
1B1EC
  8
0
  6
CONTINUOUS
 10
25.75457721316825
 20
0.62707787587295
 30
0.0
 11
26.83048093248366
 21
1.702981595188365
 31
0.0
  0
LINE
  5
1B1ED
  8
0
  6
CONTINUOUS
 10
29.30199999996933
 20
6.195058289914587
 30
0.0
 11
30.74199999996926
 21
7.635058289914522
 31
0.0
  0
LINE
  5
1B1EE
  8
0
  6
CONTINUOUS
 10
29.30199999996933
 20
5.521539080834401
 30
0.0
 11
30.74199999996926
 21
6.961539080834331
 31
0.0
  0
LINE
  5
1B1EF
  8
0
  6
CONTINUOUS
 10
29.30199999996933
 20
4.848019871754214
 30
0.0
 11
30.74199999996925
 21
6.288019871754143
 31
0.0
  0
LINE
  5
1B1F0
  8
0
  6
CONTINUOUS
 10
29.30199999996933
 20
4.174500662674028
 30
0.0
 11
30.74199999996925
 21
5.614500662673953
 31
0.0
  0
LINE
  5
1B1F1
  8
0
  6
CONTINUOUS
 10
25.96267548958429
 20
0.1616569432088024
 30
0.0
 11
27.18411854636669
 21
1.383099999991207
 31
0.0
  0
LINE
  5
1B1F2
  8
0
  6
CONTINUOUS
 10
29.30199999996933
 20
3.500981453593841
 30
0.0
 11
30.74199999996925
 21
4.940981453593762
 31
0.0
  0
LINE
  5
1B1F3
  8
0
  6
CONTINUOUS
 10
26.50763775544691
 20
0.0330999999912356
 30
0.0
 11
27.85763775544689
 21
1.383099999991223
 31
0.0
  0
LINE
  5
1B1F4
  8
0
  6
CONTINUOUS
 10
29.30199999996933
 20
2.827462244513656
 30
0.0
 11
30.74199999996925
 21
4.267462244513574
 31
0.0
  0
LINE
  5
1B1F5
  8
0
  6
CONTINUOUS
 10
27.18115696452709
 20
0.0330999999912356
 30
0.0
 11
28.6224847300034
 21
1.474427765467545
 31
0.0
  0
LINE
  5
1B1F6
  8
0
  6
CONTINUOUS
 10
29.21067223449293
 20
2.062615269957069
 30
0.0
 11
30.74199999996924
 21
3.593943035433383
 31
0.0
  0
LINE
  5
1B1F7
  8
0
  6
CONTINUOUS
 10
27.85467617360728
 20
0.0330999999912356
 30
0.0
 11
30.74199999996924
 21
2.920423826353195
 31
0.0
  0
LINE
  5
1B1F8
  8
0
  6
CONTINUOUS
 10
28.57438609860264
 20
0.0792907159064073
 30
0.0
 11
30.69580928405405
 21
2.200713901357819
 31
0.0
  0
LINE
  5
1B1F9
  8
0
  6
CONTINUOUS
 10
29.49443044814297
 20
0.3258158563665496
 30
0.0
 11
30.44928414359389
 21
1.280669551817477
 31
0.0
  0
LINE
  5
1B1FA
  8
0
  6
CONTINUOUS
 10
19.59027867740337
 20
-0.0000967065718083
 30
0.0
 11
19.55485265190471
 21
0.035329318926844
 31
0.0
  0
LINE
  5
1B1FB
  8
0
  6
CONTINUOUS
 10
20.26375463176586
 20
-0.0000534518541091
 30
0.0
 11
19.76305575737534
 21
0.5006454225364014
 31
0.0
  0
LINE
  5
1B1FC
  8
0
  6
CONTINUOUS
 10
20.93723058612834
 20
-0.0000101971364099
 30
0.0
 11
19.97125886284597
 21
0.965961526145958
 31
0.0
  0
LINE
  5
1B1FD
  8
0
  6
CONTINUOUS
 10
21.25514828313686
 20
0.355591314935257
 30
0.0
 11
20.1794619683166
 21
1.431277629755512
 31
0.0
  0
LINE
  5
1B1FE
  8
0
  6
CONTINUOUS
 10
21.46338838394921
 20
0.8208704232030986
 30
0.0
 11
20.38766507378723
 21
1.896593733365069
 31
0.0
  0
LINE
  5
1B1FF
  8
0
  6
CONTINUOUS
 10
21.67162848476155
 20
1.28614953147094
 30
0.0
 11
20.59586817925786
 21
2.361909836974626
 31
0.0
  0
LINE
  5
1B200
  8
0
  6
CONTINUOUS
 10
21.8798685855739
 20
1.751428639738782
 30
0.0
 11
20.80407128472849
 21
2.827225940584183
 31
0.0
  0
LINE
  5
1B201
  8
0
  6
CONTINUOUS
 10
22.08810868638624
 20
2.216707748006623
 30
0.0
 11
21.01227439019912
 21
3.292542044193739
 31
0.0
  0
LINE
  5
1B202
  8
0
  6
CONTINUOUS
 10
22.60993564347543
 20
2.36839999999762
 30
0.0
 11
21.22047749566975
 21
3.757858147803296
 31
0.0
  0
LINE
  5
1B203
  8
0
  6
CONTINUOUS
 10
23.28345485255561
 20
2.36839999999762
 30
0.0
 11
21.42868060114038
 21
4.223174251412853
 31
0.0
  0
LINE
  5
1B204
  8
0
  6
CONTINUOUS
 10
26.29227406164219
 20
0.0330999999912356
 30
0.0
 11
25.80009199592872
 21
0.5252820657046957
 31
0.0
  0
LINE
  5
1B205
  8
0
  6
CONTINUOUS
 10
23.9569740616358
 20
2.36839999999762
 30
0.0
 11
21.63688370661101
 21
4.688490355022409
 31
0.0
  0
LINE
  5
1B206
  8
0
  6
CONTINUOUS
 10
26.96579327072237
 20
0.0330999999912356
 30
0.0
 11
25.2554132311971
 21
1.743480039516508
 31
0.0
  0
LINE
  5
1B207
  8
0
  6
CONTINUOUS
 10
24.63049327071599
 20
2.36839999999762
 30
0.0
 11
23.32789327071731
 21
3.670999999996297
 31
0.0
  0
LINE
  5
1B208
  8
0
  6
CONTINUOUS
 10
22.92098674744635
 20
4.077906523267254
 30
0.0
 11
21.84508681208164
 21
5.153806458631966
 31
0.0
  0
LINE
  5
1B209
  8
0
  6
CONTINUOUS
 10
27.63931247980256
 20
0.0330999999912356
 30
0.0
 11
24.0014124797975
 21
3.670999999996297
 31
0.0
  0
LINE
  5
1B20A
  8
0
  6
CONTINUOUS
 10
23.129125600968
 20
4.5432868788258
 30
0.0
 11
22.05328991755227
 21
5.619122562241522
 31
0.0
  0
LINE
  5
1B20B
  8
0
  6
CONTINUOUS
 10
28.31283168888275
 20
0.0330999999912356
 30
0.0
 11
24.16488385994816
 21
4.181047828925828
 31
0.0
  0
LINE
  5
1B20C
  8
0
  6
CONTINUOUS
 10
23.33726445448964
 20
5.008667234384345
 30
0.0
 11
22.2614930230229
 21
6.084438665851079
 31
0.0
  0
LINE
  5
1B20D
  8
0
  6
CONTINUOUS
 10
28.86286302309502
 20
0.1565878748591523
 30
0.0
 11
27.63635089796295
 21
1.383099999991217
 31
0.0
  0
LINE
  5
1B20E
  8
0
  6
CONTINUOUS
 10
26.43704649509776
 20
2.582404402856405
 30
0.0
 11
23.61992702019732
 21
5.399523877756844
 31
0.0
  0
LINE
  5
1B20F
  8
0
  6
CONTINUOUS
 10
23.54540330801128
 20
5.47404758994289
 30
0.0
 11
22.46969612849353
 21
6.549754769460635
 31
0.0
  0
LINE
  5
1B210
  8
0
  6
CONTINUOUS
 10
29.39405087596853
 20
0.2989192310658284
 30
0.0
 11
28.30987010704312
 21
1.383099999991234
 31
0.0
  0
LINE
  5
1B211
  8
0
  6
CONTINUOUS
 10
25.89179548232307
 20
3.801174624711282
 30
0.0
 11
22.67789923396416
 21
7.015070873070191
 31
0.0
  0
LINE
  5
1B212
  8
0
  6
CONTINUOUS
 10
29.79594438047407
 20
0.570544935640473
 30
0.0
 11
28.81310432793121
 21
1.553384988183336
 31
0.0
  0
LINE
  5
1B213
  8
0
  6
CONTINUOUS
 10
25.34654446954838
 20
5.01994484656616
 30
0.0
 11
22.88610233943479
 21
7.480386976679748
 31
0.0
  0
LINE
  5
1B214
  8
0
  6
CONTINUOUS
 10
30.13270398501416
 20
0.9073045401805646
 30
0.0
 11
29.14234640337737
 21
1.897662121817355
 31
0.0
  0
LINE
  5
1B215
  8
0
  6
CONTINUOUS
 10
24.80129345677369
 20
6.238715068421037
 30
0.0
 11
23.09430544490542
 21
7.945703080289305
 31
0.0
  0
LINE
  5
1B216
  8
0
  6
CONTINUOUS
 10
30.44581292956759
 20
1.26771480470732
 30
0.0
 11
29.30199999996933
 21
2.411527734305588
 31
0.0
  0
LINE
  5
1B217
  8
0
  6
CONTINUOUS
 10
30.58814428577427
 20
1.798902657580827
 30
0.0
 11
29.30199999996933
 21
3.085046943385775
 31
0.0
  0
LINE
  5
1B218
  8
0
  6
CONTINUOUS
 10
24.256042443999
 20
7.457485290275915
 30
0.0
 11
23.30250855037605
 21
8.411019183898862
 31
0.0
  0
LINE
  5
1B219
  8
0
  6
CONTINUOUS
 10
23.71079143122431
 20
8.676255512130794
 30
0.0
 11
23.51071165584668
 21
8.876335287508418
 31
0.0
  0
LINE
  5
1B21A
  8
0
  6
CONTINUOUS
 10
30.73047564198095
 20
2.330090510454333
 30
0.0
 11
29.30199999996933
 21
3.758566152465961
 31
0.0
  0
LINE
  5
1B21B
  8
0
  6
CONTINUOUS
 10
30.74199999996924
 20
2.992085361546236
 30
0.0
 11
29.30199999996933
 21
4.432085361546148
 31
0.0
  0
LINE
  5
1B21C
  8
0
  6
CONTINUOUS
 10
30.74199999996924
 20
3.665604570626419
 30
0.0
 11
29.30199999996933
 21
5.105604570626333
 31
0.0
  0
LINE
  5
1B21D
  8
0
  6
CONTINUOUS
 10
30.74199999996925
 20
4.339123779706602
 30
0.0
 11
29.30199999996933
 21
5.77912377970652
 31
0.0
  0
LINE
  5
1B21E
  8
0
  6
CONTINUOUS
 10
30.74199999996925
 20
5.012642988786785
 30
0.0
 11
29.30199999996933
 21
6.452642988786707
 31
0.0
  0
LINE
  5
1B21F
  8
0
  6
CONTINUOUS
 10
30.74199999996925
 20
5.68616219786697
 30
0.0
 11
29.30199999996933
 21
7.126162197866894
 31
0.0
  0
LINE
  5
1B220
  8
0
  6
CONTINUOUS
 10
30.74199999996925
 20
6.359681406947153
 30
0.0
 11
29.30199999996933
 21
7.799681406947081
 31
0.0
  0
LINE
  5
1B221
  8
0
  6
CONTINUOUS
 10
30.74199999996926
 20
7.033200616027337
 30
0.0
 11
29.30199999996933
 21
8.473200616027269
 31
0.0
  0
LINE
  5
1B222
  8
0
  6
CONTINUOUS
 10
30.74199999996926
 20
7.706719825107518
 30
0.0
 11
29.68561982508552
 21
8.763099999991255
 31
0.0
  0
LINE
  5
1B223
  8
0
  6
CONTINUOUS
 10
30.74199999996926
 20
8.380239034187703
 30
0.0
 11
30.35913903416571
 21
8.763099999991255
 31
0.0
  0
ENDBLK
  5
1B2C6
  8
0
  0
BLOCK
  8
0
  2
*X165
 70
     1
 10
0.0
 20
0.0
 30
0.0
  3
*X165
  1

  0
LINE
  5
1B225
  8
0
  6
CONTINUOUS
 10
31.64199999996833
 20
8.5350582899136
 30
0.0
 11
31.87004171004599
 21
8.763099999991255
 31
0.0
  0
LINE
  5
1B226
  8
0
  6
CONTINUOUS
 10
31.64199999996833
 20
7.861539080833413
 30
0.0
 11
32.54356091912618
 21
8.763099999991255
 31
0.0
  0
LINE
  5
1B227
  8
0
  6
CONTINUOUS
 10
31.64199999996833
 20
7.188019871753227
 30
0.0
 11
33.08199999996839
 21
8.628019871753281
 31
0.0
  0
LINE
  5
1B228
  8
0
  6
CONTINUOUS
 10
31.64199999996833
 20
6.514500662673041
 30
0.0
 11
33.08199999996839
 21
7.954500662673095
 31
0.0
  0
LINE
  5
1B229
  8
0
  6
CONTINUOUS
 10
31.64199999996833
 20
5.840981453592855
 30
0.0
 11
33.08199999996839
 21
7.28098145359291
 31
0.0
  0
LINE
  5
1B22A
  8
0
  6
CONTINUOUS
 10
31.64199999996833
 20
5.167462244512668
 30
0.0
 11
33.08199999996839
 21
6.607462244512723
 31
0.0
  0
LINE
  5
1B22B
  8
0
  6
CONTINUOUS
 10
31.64199999996833
 20
4.493943035432482
 30
0.0
 11
33.08199999996839
 21
5.933943035432536
 31
0.0
  0
LINE
  5
1B22C
  8
0
  6
CONTINUOUS
 10
31.64199999996833
 20
3.820423826352294
 30
0.0
 11
33.08199999996839
 21
5.260423826352349
 31
0.0
  0
LINE
  5
1B22D
  8
0
  6
CONTINUOUS
 10
31.64199999996833
 20
3.146904617272108
 30
0.0
 11
33.08199999996839
 21
4.586904617272163
 31
0.0
  0
LINE
  5
1B22E
  8
0
  6
CONTINUOUS
 10
36.23199999996837
 20
8.410423826352327
 30
0.0
 11
36.58467617360729
 21
8.763099999991255
 31
0.0
  0
LINE
  5
1B22F
  8
0
  6
CONTINUOUS
 10
36.23199999996837
 20
7.73690461727214
 30
0.0
 11
37.25819538268748
 21
8.763099999991255
 31
0.0
  0
LINE
  5
1B230
  8
0
  6
CONTINUOUS
 10
31.64323424774199
 20
2.474619655965573
 30
0.0
 11
33.08199999996839
 21
3.913385408191976
 31
0.0
  0
LINE
  5
1B231
  8
0
  6
CONTINUOUS
 10
31.74419223861915
 20
1.902058437762552
 30
0.0
 11
33.08199999996839
 21
3.239866199111789
 31
0.0
  0
LINE
  5
1B232
  8
0
  6
CONTINUOUS
 10
36.23199999996837
 20
7.063385408191953
 30
0.0
 11
37.67199999996831
 21
8.503385408191894
 31
0.0
  0
LINE
  5
1B233
  8
0
  6
CONTINUOUS
 10
36.23199999996837
 20
6.389866199111767
 30
0.0
 11
37.67199999996831
 21
7.829866199111708
 31
0.0
  0
LINE
  5
1B234
  8
0
  6
CONTINUOUS
 10
31.91111233414976
 20
1.39545932421297
 30
0.0
 11
33.08199999996839
 21
2.566346990031603
 31
0.0
  0
LINE
  5
1B235
  8
0
  6
CONTINUOUS
 10
36.23199999996837
 20
5.71634699003158
 30
0.0
 11
37.67199999996831
 21
7.156346990031522
 31
0.0
  0
LINE
  5
1B236
  8
0
  6
CONTINUOUS
 10
32.1576374746103
 20
0.9684652555933289
 30
0.0
 11
33.20642631446081
 21
2.017254095443838
 31
0.0
  0
LINE
  5
1B237
  8
0
  6
CONTINUOUS
 10
36.23199999996837
 20
5.042827780951393
 30
0.0
 11
37.67199999996831
 21
6.482827780951334
 31
0.0
  0
LINE
  5
1B238
  8
0
  6
CONTINUOUS
 10
32.47774023927325
 20
0.6150488111760914
 30
0.0
 11
33.49903056428258
 21
1.636339136185419
 31
0.0
  0
LINE
  5
1B239
  8
0
  6
CONTINUOUS
 10
36.23199999996837
 20
4.369308571871207
 30
0.0
 11
37.67199999996831
 21
5.809308571871148
 31
0.0
  0
LINE
  5
1B23A
  8
0
  6
CONTINUOUS
 10
32.84396249154443
 20
0.3077518543670883
 30
0.0
 11
33.93324121824649
 21
1.397030581069146
 31
0.0
  0
LINE
  5
1B23B
  8
0
  6
CONTINUOUS
 10
36.23199999996837
 20
3.695789362791021
 30
0.0
 11
37.67199999996831
 21
5.135789362790963
 31
0.0
  0
LINE
  5
1B23C
  8
0
  6
CONTINUOUS
 10
33.30186329036846
 20
0.0921334441109263
 30
0.0
 11
34.46442907112041
 21
1.254699224862875
 31
0.0
  0
LINE
  5
1B23D
  8
0
  6
CONTINUOUS
 10
36.23199999996837
 20
3.022270153710834
 30
0.0
 11
37.67199999996831
 21
4.462270153710776
 31
0.0
  0
LINE
  5
1B23E
  8
0
  6
CONTINUOUS
 10
33.79565647746294
 20
-0.0875925778747773
 30
0.0
 11
35.24350171668284
 21
1.360252661345124
 31
0.0
  0
LINE
  5
1B23F
  8
0
  6
CONTINUOUS
 10
36.18336676155003
 20
2.300117706212308
 30
0.0
 11
37.67199999996831
 21
3.788750944630589
 31
0.0
  0
LINE
  5
1B240
  8
0
  6
CONTINUOUS
 10
34.37182574910968
 20
-0.184942515308224
 30
0.0
 11
37.67199999996831
 21
3.115231735550402
 31
0.0
  0
LINE
  5
1B241
  8
0
  6
CONTINUOUS
 10
35.0453449581892
 20
-0.1849425153088955
 30
0.0
 11
37.66345697088136
 21
2.433169497383271
 31
0.0
  0
LINE
  5
1B242
  8
0
  6
CONTINUOUS
 10
35.98667157609191
 20
0.0828648935136398
 30
0.0
 11
37.51927401744566
 21
1.615467334867382
 31
0.0
  0
LINE
  5
1B243
  8
0
  6
CONTINUOUS
 10
32.27747408544484
 20
0.7830920669904482
 30
0.0
 11
32.24716210471949
 21
0.8134040477157893
 31
0.0
  0
LINE
  5
1B244
  8
0
  6
CONTINUOUS
 10
33.83656881101902
 20
-0.1024834495035494
 30
0.0
 11
31.72538911593758
 21
2.008696245577891
 31
0.0
  0
LINE
  5
1B245
  8
0
  6
CONTINUOUS
 10
34.5925470859041
 20
-0.1849425153084434
 30
0.0
 11
31.64199999996833
 21
2.765604570627322
 31
0.0
  0
LINE
  5
1B246
  8
0
  6
CONTINUOUS
 10
35.26201302775981
 20
-0.1808892480839752
 30
0.0
 11
31.64199999996833
 21
3.439123779707508
 31
0.0
  0
LINE
  5
1B247
  8
0
  6
CONTINUOUS
 10
35.75580621485512
 20
-0.0011632260990879
 30
0.0
 11
34.51294304365551
 21
1.241699945100514
 31
0.0
  0
LINE
  5
1B248
  8
0
  6
CONTINUOUS
 10
33.08199999996839
 20
2.672642988787641
 30
0.0
 11
31.64199999996833
 21
4.112642988787695
 31
0.0
  0
LINE
  5
1B249
  8
0
  6
CONTINUOUS
 10
36.24959940195042
 20
0.1785627958857976
 30
0.0
 11
35.10501653033629
 21
1.323145667499924
 31
0.0
  0
LINE
  5
1B24A
  8
0
  6
CONTINUOUS
 10
33.08199999996839
 20
3.346162197867827
 30
0.0
 11
31.64199999996833
 21
4.786162197867881
 31
0.0
  0
LINE
  5
1B24B
  8
0
  6
CONTINUOUS
 10
36.64615197150552
 20
0.4555294354108876
 30
0.0
 11
35.6362043832099
 21
1.465477023706505
 31
0.0
  0
LINE
  5
1B24C
  8
0
  6
CONTINUOUS
 10
33.08199999996839
 20
4.019681406948013
 30
0.0
 11
31.64199999996833
 21
5.459681406948068
 31
0.0
  0
LINE
  5
1B24D
  8
0
  6
CONTINUOUS
 10
37.0123742237774
 20
0.7628263922191891
 30
0.0
 11
35.97691545773309
 21
1.798285158263504
 31
0.0
  0
LINE
  5
1B24E
  8
0
  6
CONTINUOUS
 10
33.08199999996839
 20
4.6932006160282
 30
0.0
 11
31.64199999996833
 21
6.133200616028255
 31
0.0
  0
LINE
  5
1B24F
  8
0
  6
CONTINUOUS
 10
37.27491524157143
 20
1.173804583505349
 30
0.0
 11
36.17602012811361
 21
2.272699696963169
 31
0.0
  0
LINE
  5
1B250
  8
0
  6
CONTINUOUS
 10
33.08199999996839
 20
5.366719825108387
 30
0.0
 11
31.64199999996833
 21
6.806719825108441
 31
0.0
  0
LINE
  5
1B251
  8
0
  6
CONTINUOUS
 10
37.51739996707661
 20
1.604839067080355
 30
0.0
 11
36.23199999996837
 21
2.890239034188595
 31
0.0
  0
LINE
  5
1B252
  8
0
  6
CONTINUOUS
 10
37.6183579579535
 20
2.177400285283649
 30
0.0
 11
36.23199999996837
 21
3.563758243268782
 31
0.0
  0
LINE
  5
1B253
  8
0
  6
CONTINUOUS
 10
33.08199999996839
 20
6.040239034188573
 30
0.0
 11
31.64199999996833
 21
7.480239034188628
 31
0.0
  0
LINE
  5
1B254
  8
0
  6
CONTINUOUS
 10
33.08199999996839
 20
6.713758243268759
 30
0.0
 11
31.64199999996833
 21
8.153758243268815
 31
0.0
  0
LINE
  5
1B255
  8
0
  6
CONTINUOUS
 10
37.67199999996831
 20
2.797277452349027
 30
0.0
 11
36.23199999996837
 21
4.237277452348969
 31
0.0
  0
LINE
  5
1B256
  8
0
  6
CONTINUOUS
 10
37.67199999996831
 20
3.470796661429214
 30
0.0
 11
36.23199999996837
 21
4.910796661429155
 31
0.0
  0
LINE
  5
1B257
  8
0
  6
CONTINUOUS
 10
37.67199999996831
 20
4.1443158705094
 30
0.0
 11
36.23199999996837
 21
5.584315870509341
 31
0.0
  0
LINE
  5
1B258
  8
0
  6
CONTINUOUS
 10
33.08199999996839
 20
7.387277452348946
 30
0.0
 11
31.70617745232608
 21
8.763099999991255
 31
0.0
  0
LINE
  5
1B259
  8
0
  6
CONTINUOUS
 10
33.08199999996839
 20
8.060796661429134
 30
0.0
 11
32.37969666140626
 21
8.763099999991255
 31
0.0
  0
LINE
  5
1B25A
  8
0
  6
CONTINUOUS
 10
33.08199999996839
 20
8.734315870509318
 30
0.0
 11
33.05321587048645
 21
8.763099999991255
 31
0.0
  0
LINE
  5
1B25B
  8
0
  6
CONTINUOUS
 10
37.67199999996831
 20
4.817835079589586
 30
0.0
 11
36.23199999996837
 21
6.257835079589528
 31
0.0
  0
LINE
  5
1B25C
  8
0
  6
CONTINUOUS
 10
37.67199999996831
 20
5.491354288669772
 30
0.0
 11
36.23199999996837
 21
6.931354288669715
 31
0.0
  0
LINE
  5
1B25D
  8
0
  6
CONTINUOUS
 10
37.67199999996831
 20
6.164873497749959
 30
0.0
 11
36.23199999996837
 21
7.6048734977499
 31
0.0
  0
LINE
  5
1B25E
  8
0
  6
CONTINUOUS
 10
37.67199999996831
 20
6.838392706830145
 30
0.0
 11
36.23199999996837
 21
8.278392706830086
 31
0.0
  0
LINE
  5
1B25F
  8
0
  6
CONTINUOUS
 10
37.67199999996831
 20
7.511911915910333
 30
0.0
 11
36.42081191588738
 21
8.763099999991255
 31
0.0
  0
LINE
  5
1B260
  8
0
  6
CONTINUOUS
 10
37.67199999996831
 20
8.185431124990519
 30
0.0
 11
37.09433112496757
 21
8.763099999991255
 31
0.0
  0
ENDBLK
  5
1B2C8
  8
0
  0
BLOCK
  8
0
  2
*X166
 70
     1
 10
0.0
 20
0.0
 30
0.0
  3
*X166
  1

  0
LINE
  5
1B262
  8
0
  6
CONTINUOUS
 10
38.60499999996136
 20
8.762866199104765
 30
0.0
 11
38.71672554182345
 21
8.874591740966855
 31
0.0
  0
LINE
  5
1B263
  8
0
  6
CONTINUOUS
 10
38.60499999996136
 20
8.089346990024577
 30
0.0
 11
39.03418785440363
 21
8.518534844466847
 31
0.0
  0
LINE
  5
1B264
  8
0
  6
CONTINUOUS
 10
38.60499999996136
 20
7.41582778094439
 30
0.0
 11
39.35165016698382
 21
8.16247794796684
 31
0.0
  0
LINE
  5
1B265
  8
0
  6
CONTINUOUS
 10
38.60499999996136
 20
6.742308571864204
 30
0.0
 11
39.66911247956399
 21
7.806421051466834
 31
0.0
  0
LINE
  5
1B266
  8
0
  6
CONTINUOUS
 10
38.60499999996136
 20
6.068789362784018
 30
0.0
 11
39.98657479214418
 21
7.450364154966827
 31
0.0
  0
LINE
  5
1B267
  8
0
  6
CONTINUOUS
 10
38.60499999996136
 20
5.395270153703832
 30
0.0
 11
40.30403710472435
 21
7.09430725846682
 31
0.0
  0
LINE
  5
1B268
  8
0
  6
CONTINUOUS
 10
38.60499999996136
 20
4.721750944623645
 30
0.0
 11
40.62149941730453
 21
6.738250361966813
 31
0.0
  0
LINE
  5
1B269
  8
0
  6
CONTINUOUS
 10
38.60499999996136
 20
4.048231735543458
 30
0.0
 11
40.93896172988471
 21
6.382193465466806
 31
0.0
  0
LINE
  5
1B26A
  8
0
  6
CONTINUOUS
 10
38.60499999996136
 20
3.374712526463272
 30
0.0
 11
40.02599999995994
 21
4.795712526461843
 31
0.0
  0
LINE
  5
1B26B
  8
0
  6
CONTINUOUS
 10
38.60499999996136
 20
2.701193317383085
 30
0.0
 11
40.02599999995994
 21
4.122193317381657
 31
0.0
  0
LINE
  5
1B26C
  8
0
  6
CONTINUOUS
 10
40.28339754687704
 20
5.053110073378947
 30
0.0
 11
41.25642404246489
 21
6.026136568966799
 31
0.0
  0
LINE
  5
1B26D
  8
0
  6
CONTINUOUS
 10
40.60085985945722
 20
4.697053176878939
 30
0.0
 11
41.57388635504507
 21
5.670079672466793
 31
0.0
  0
LINE
  5
1B26E
  8
0
  6
CONTINUOUS
 10
43.57899999995641
 20
8.348712526458318
 30
0.0
 11
43.99338747348935
 21
8.763099999991255
 31
0.0
  0
LINE
  5
1B26F
  8
0
  6
CONTINUOUS
 10
43.57899999995641
 20
7.675193317378131
 30
0.0
 11
44.66690668256953
 21
8.763099999991255
 31
0.0
  0
LINE
  5
1B270
  8
0
  6
CONTINUOUS
 10
38.60499999996136
 20
2.027674108302898
 30
0.0
 11
40.02599999995994
 21
3.44867410830147
 31
0.0
  0
LINE
  5
1B271
  8
0
  6
CONTINUOUS
 10
38.60499999996136
 20
1.354154899222712
 30
0.0
 11
40.02599999995994
 21
2.775154899221284
 31
0.0
  0
LINE
  5
1B272
  8
0
  6
CONTINUOUS
 10
38.60499999996136
 20
0.6806356901425255
 30
0.0
 11
40.02599999995994
 21
2.101635690141098
 31
0.0
  0
LINE
  5
1B273
  8
0
  6
CONTINUOUS
 10
38.60499999996136
 20
0.0071164810623383
 30
0.0
 11
40.02599999995994
 21
1.428116481060911
 31
0.0
  0
LINE
  5
1B274
  8
0
  6
CONTINUOUS
 10
40.9183221720374
 20
4.340996280378933
 30
0.0
 11
41.89134866762525
 21
5.314022775966786
 31
0.0
  0
LINE
  5
1B275
  8
0
  6
CONTINUOUS
 10
41.23578448461758
 20
3.984939383878926
 30
0.0
 11
42.20881098020543
 21
4.957965879466778
 31
0.0
  0
LINE
  5
1B276
  8
0
  6
CONTINUOUS
 10
41.55324679719776
 20
3.628882487378919
 30
0.0
 11
42.52627329278561
 21
4.601908982966772
 31
0.0
  0
LINE
  5
1B277
  8
0
  6
CONTINUOUS
 10
41.87070910977793
 20
3.272825590878912
 30
0.0
 11
42.84373560536579
 21
4.245852086466765
 31
0.0
  0
LINE
  5
1B278
  8
0
  6
CONTINUOUS
 10
43.57899999995641
 20
7.001674108297943
 30
0.0
 11
44.99999999995498
 21
8.422674108296516
 31
0.0
  0
LINE
  5
1B279
  8
0
  6
CONTINUOUS
 10
43.57899999995641
 20
6.328154899217758
 30
0.0
 11
44.99999999995498
 21
7.749154899216329
 31
0.0
  0
LINE
  5
1B27A
  8
0
  6
CONTINUOUS
 10
43.57899999995641
 20
5.654635690137571
 30
0.0
 11
44.99999999995498
 21
7.075635690136142
 31
0.0
  0
LINE
  5
1B27B
  8
0
  6
CONTINUOUS
 10
43.57899999995641
 20
4.981116481057384
 30
0.0
 11
44.99999999995498
 21
6.402116481055955
 31
0.0
  0
LINE
  5
1B27C
  8
0
  6
CONTINUOUS
 10
39.27140272797921
 20
-0.0000000000000009
 30
0.0
 11
40.02599999995994
 21
0.7545972719807246
 31
0.0
  0
LINE
  5
1B27D
  8
0
  6
CONTINUOUS
 10
39.9449219370594
 20
-0.0000000000000009
 30
0.0
 11
40.02599999995994
 21
0.0810780629005379
 31
0.0
  0
LINE
  5
1B27E
  8
0
  6
CONTINUOUS
 10
42.18817142235812
 20
2.916768694378905
 30
0.0
 11
43.16119791794597
 21
3.889795189966758
 31
0.0
  0
LINE
  5
1B27F
  8
0
  6
CONTINUOUS
 10
42.50563373493829
 20
2.560711797878898
 30
0.0
 11
43.47866023052615
 21
3.533738293466751
 31
0.0
  0
LINE
  5
1B280
  8
0
  6
CONTINUOUS
 10
43.57899999995641
 20
4.307597271977198
 30
0.0
 11
44.99999999995498
 21
5.728597271975769
 31
0.0
  0
LINE
  5
1B281
  8
0
  6
CONTINUOUS
 10
43.57899999995641
 20
3.634078062897011
 30
0.0
 11
44.99999999995498
 21
5.055078062895582
 31
0.0
  0
LINE
  5
1B282
  8
0
  6
CONTINUOUS
 10
42.82309604751848
 20
2.204654901378891
 30
0.0
 11
44.99999999995498
 21
4.381558853815395
 31
0.0
  0
LINE
  5
1B283
  8
0
  6
CONTINUOUS
 10
43.14055836009865
 20
1.848598004878885
 30
0.0
 11
44.99999999995498
 21
3.70803964473521
 31
0.0
  0
LINE
  5
1B284
  8
0
  6
CONTINUOUS
 10
43.45802067267883
 20
1.492541108378878
 30
0.0
 11
44.99999999995498
 21
3.034520435655023
 31
0.0
  0
LINE
  5
1B285
  8
0
  6
CONTINUOUS
 10
43.77548298525902
 20
1.136484211878871
 30
0.0
 11
44.99999999995498
 21
2.361001226574837
 31
0.0
  0
LINE
  5
1B286
  8
0
  6
CONTINUOUS
 10
44.09294529783919
 20
0.7804273153788639
 30
0.0
 11
44.99999999995498
 21
1.687482017494649
 31
0.0
  0
LINE
  5
1B287
  8
0
  6
CONTINUOUS
 10
44.41040761041938
 20
0.4243704188788566
 30
0.0
 11
44.99999999995498
 21
1.013962808414463
 31
0.0
  0
LINE
  5
1B288
  8
0
  6
CONTINUOUS
 10
44.72786992299955
 20
0.0683135223788494
 30
0.0
 11
44.99999999995498
 21
0.340443599334276
 31
0.0
  0
LINE
  5
1B289
  8
0
  6
CONTINUOUS
 10
39.12223903415696
 20
-0.0000000000000009
 30
0.0
 11
38.60499999996136
 21
0.5172390341955961
 31
0.0
  0
LINE
  5
1B28A
  8
0
  6
CONTINUOUS
 10
39.79575824323715
 20
-0.0000000000000009
 30
0.0
 11
38.60499999996136
 21
1.190758243275783
 31
0.0
  0
LINE
  5
1B28B
  8
0
  6
CONTINUOUS
 10
40.02599999995994
 20
0.443277452357397
 30
0.0
 11
38.60499999996136
 21
1.864277452355969
 31
0.0
  0
LINE
  5
1B28C
  8
0
  6
CONTINUOUS
 10
40.02599999995994
 20
1.116796661437583
 30
0.0
 11
38.60499999996136
 21
2.537796661436155
 31
0.0
  0
LINE
  5
1B28D
  8
0
  6
CONTINUOUS
 10
40.02599999995994
 20
1.79031587051777
 30
0.0
 11
38.60499999996136
 21
3.211315870516341
 31
0.0
  0
LINE
  5
1B28E
  8
0
  6
CONTINUOUS
 10
40.02599999995994
 20
2.463835079597956
 30
0.0
 11
38.60499999996136
 21
3.884835079596527
 31
0.0
  0
LINE
  5
1B28F
  8
0
  6
CONTINUOUS
 10
40.02599999995994
 20
3.137354288678143
 30
0.0
 11
38.60499999996136
 21
4.558354288676714
 31
0.0
  0
LINE
  5
1B290
  8
0
  6
CONTINUOUS
 10
40.02599999995994
 20
3.810873497758329
 30
0.0
 11
38.60499999996136
 21
5.2318734977569
 31
0.0
  0
LINE
  5
1B291
  8
0
  6
CONTINUOUS
 10
40.02599999995994
 20
4.484392706838515
 30
0.0
 11
38.60499999996136
 21
5.905392706837086
 31
0.0
  0
LINE
  5
1B292
  8
0
  6
CONTINUOUS
 10
44.99999999995498
 20
0.183911915923658
 30
0.0
 11
41.53858364506288
 21
3.64532827081576
 31
0.0
  0
LINE
  5
1B293
  8
0
  6
CONTINUOUS
 10
40.02599999995994
 20
5.157911915918703
 30
0.0
 11
38.60499999996136
 21
6.578911915917274
 31
0.0
  0
LINE
  5
1B294
  8
0
  6
CONTINUOUS
 10
44.99999999995498
 20
0.8574311250038447
 30
0.0
 11
38.60499999996136
 21
7.25243112499746
 31
0.0
  0
LINE
  5
1B295
  8
0
  6
CONTINUOUS
 10
44.99999999995498
 20
1.530950334084031
 30
0.0
 11
38.60499999996136
 21
7.925950334077647
 31
0.0
  0
LINE
  5
1B296
  8
0
  6
CONTINUOUS
 10
44.99999999995498
 20
2.204469543164218
 30
0.0
 11
43.57899999995641
 21
3.625469543162789
 31
0.0
  0
LINE
  5
1B297
  8
0
  6
CONTINUOUS
 10
41.89876730984767
 20
5.305702233271528
 30
0.0
 11
38.60499999996136
 21
8.599469543157834
 31
0.0
  0
LINE
  5
1B298
  8
0
  6
CONTINUOUS
 10
44.99999999995498
 20
2.877988752244405
 30
0.0
 11
43.57899999995641
 21
4.298988752242975
 31
0.0
  0
LINE
  5
1B299
  8
0
  6
CONTINUOUS
 10
44.99999999995498
 20
3.551507961324591
 30
0.0
 11
43.57899999995641
 21
4.972507961323163
 31
0.0
  0
LINE
  5
1B29A
  8
0
  6
CONTINUOUS
 10
44.99999999995498
 20
4.225027170404777
 30
0.0
 11
43.57899999995641
 21
5.646027170403348
 31
0.0
  0
LINE
  5
1B29B
  8
0
  6
CONTINUOUS
 10
44.99999999995498
 20
4.898546379484964
 30
0.0
 11
43.57899999995641
 21
6.319546379483535
 31
0.0
  0
LINE
  5
1B29C
  8
0
  6
CONTINUOUS
 10
44.99999999995498
 20
5.572065588565151
 30
0.0
 11
43.57899999995641
 21
6.993065588563722
 31
0.0
  0
LINE
  5
1B29D
  8
0
  6
CONTINUOUS
 10
44.99999999995498
 20
6.245584797645336
 30
0.0
 11
43.57899999995641
 21
7.666584797643908
 31
0.0
  0
LINE
  5
1B29E
  8
0
  6
CONTINUOUS
 10
44.99999999995498
 20
6.919104006725522
 30
0.0
 11
43.57899999995641
 21
8.340104006724093
 31
0.0
  0
LINE
  5
1B29F
  8
0
  6
CONTINUOUS
 10
44.99999999995498
 20
7.592623215805709
 30
0.0
 11
43.82952321576943
 21
8.763099999991255
 31
0.0
  0
LINE
  5
1B2A0
  8
0
  6
CONTINUOUS
 10
44.99999999995498
 20
8.266142424885896
 30
0.0
 11
44.50304242484962
 21
8.763099999991255
 31
0.0
  0
ENDBLK
  5
1B2CA
  8
0
  0
BLOCK
  8
0
  2
*X167
 70
     1
 10
0.0
 20
0.0
 30
0.0
  3
*X167
  1

  0
LINE
  5
1B2A2
  8
0
  6
CONTINUOUS
 10
0.0
 20
8.548461116714023
 30
0.0
 11
0.2146388832772324
 21
8.763099999991255
 31
0.0
  0
LINE
  5
1B2A3
  8
0
  6
CONTINUOUS
 10
-0.0000000000000002
 20
7.874941907633837
 30
0.0
 11
0.8881580923574184
 21
8.763099999991255
 31
0.0
  0
LINE
  5
1B2A4
  8
0
  6
CONTINUOUS
 10
0.0
 20
7.20142269855365
 30
0.0
 11
1.420999999998572
 21
8.622422698552223
 31
0.0
  0
LINE
  5
1B2A5
  8
0
  6
CONTINUOUS
 10
-0.0000000000000001
 20
6.527903489473465
 30
0.0
 11
1.420999999998571
 21
7.948903489472036
 31
0.0
  0
LINE
  5
1B2A6
  8
0
  6
CONTINUOUS
 10
-0.0000000000000002
 20
5.854384280393278
 30
0.0
 11
1.420999999998571
 21
7.275384280391849
 31
0.0
  0
LINE
  5
1B2A7
  8
0
  6
CONTINUOUS
 10
-0.0000000000000002
 20
5.180865071313091
 30
0.0
 11
1.420999999998571
 21
6.601865071311663
 31
0.0
  0
LINE
  5
1B2A8
  8
0
  6
CONTINUOUS
 10
0.0
 20
4.507345862232905
 30
0.0
 11
1.420999999998571
 21
5.928345862231477
 31
0.0
  0
LINE
  5
1B2A9
  8
0
  6
CONTINUOUS
 10
-0.0000000000000003
 20
3.833826653152718
 30
0.0
 11
1.420999999998571
 21
5.25482665315129
 31
0.0
  0
LINE
  5
1B2AA
  8
0
  6
CONTINUOUS
 10
-0.0000000000000002
 20
3.160307444072532
 30
0.0
 11
1.420999999998571
 21
4.581307444071103
 31
0.0
  0
LINE
  5
1B2AB
  8
0
  6
CONTINUOUS
 10
-0.0000000000000001
 20
2.486788234992345
 30
0.0
 11
1.420999999998571
 21
3.907788234990917
 31
0.0
  0
LINE
  5
1B2AC
  8
0
  6
CONTINUOUS
 10
-0.0000000000000006
 20
1.813269025912159
 30
0.0
 11
1.420999999998571
 21
3.234269025910731
 31
0.0
  0
LINE
  5
1B2AD
  8
0
  6
CONTINUOUS
 10
0.0
 20
1.139749816831973
 30
0.0
 11
1.420999999998571
 21
2.560749816830544
 31
0.0
  0
LINE
  5
1B2AE
  8
0
  6
CONTINUOUS
 10
0.0000000000000002
 20
0.466230607751787
 30
0.0
 11
1.420999999998571
 21
1.887230607750358
 31
0.0
  0
LINE
  5
1B2AF
  8
0
  6
CONTINUOUS
 10
0.2072886013284003
 20
-0.0000000000000009
 30
0.0
 11
1.420999999998571
 21
1.213711398670171
 31
0.0
  0
LINE
  5
1B2B0
  8
0
  6
CONTINUOUS
 10
0.8808078104085864
 20
-0.0000000000000009
 30
0.0
 11
1.420999999998571
 21
0.5401921895899839
 31
0.0
  0
LINE
  5
1B2B1
  8
0
  6
CONTINUOUS
 10
0.0581249075061505
 20
-0.0000000000000009
 30
0.0
 11
-0.0000000000000002
 21
0.0581249075061496
 31
0.0
  0
LINE
  5
1B2B2
  8
0
  6
CONTINUOUS
 10
0.7316441165863372
 20
-0.0000000000000009
 30
0.0
 11
-0.0000000000000002
 21
0.7316441165863363
 31
0.0
  0
LINE
  5
1B2B3
  8
0
  6
CONTINUOUS
 10
1.405163325666523
 20
-0.0000000000000009
 30
0.0
 11
-0.0000000000000002
 21
1.405163325666523
 31
0.0
  0
LINE
  5
1B2B4
  8
0
  6
CONTINUOUS
 10
1.420999999998572
 20
0.6576825347481381
 30
0.0
 11
-0.0000000000000001
 21
2.07868253474671
 31
0.0
  0
LINE
  5
1B2B5
  8
0
  6
CONTINUOUS
 10
1.420999999998571
 20
1.331201743828324
 30
0.0
 11
-0.0000000000000001
 21
2.752201743826896
 31
0.0
  0
LINE
  5
1B2B6
  8
0
  6
CONTINUOUS
 10
1.420999999998571
 20
2.004720952908511
 30
0.0
 11
-0.0000000000000002
 21
3.425720952907082
 31
0.0
  0
LINE
  5
1B2B7
  8
0
  6
CONTINUOUS
 10
1.420999999998571
 20
2.678240161988697
 30
0.0
 11
-0.0000000000000001
 21
4.099240161987269
 31
0.0
  0
LINE
  5
1B2B8
  8
0
  6
CONTINUOUS
 10
1.420999999998572
 20
3.351759371068884
 30
0.0
 11
0.0
 21
4.772759371067455
 31
0.0
  0
LINE
  5
1B2B9
  8
0
  6
CONTINUOUS
 10
1.420999999998571
 20
4.02527858014907
 30
0.0
 11
-0.0000000000000003
 21
5.446278580147642
 31
0.0
  0
LINE
  5
1B2BA
  8
0
  6
CONTINUOUS
 10
1.420999999998571
 20
4.698797789229257
 30
0.0
 11
0.0
 21
6.119797789227828
 31
0.0
  0
LINE
  5
1B2BB
  8
0
  6
CONTINUOUS
 10
1.420999999998571
 20
5.372316998309444
 30
0.0
 11
-0.0000000000000001
 21
6.793316998308015
 31
0.0
  0
LINE
  5
1B2BC
  8
0
  6
CONTINUOUS
 10
1.420999999998572
 20
6.045836207389629
 30
0.0
 11
-0.0000000000000004
 21
7.466836207388202
 31
0.0
  0
LINE
  5
1B2BD
  8
0
  6
CONTINUOUS
 10
1.420999999998571
 20
6.719355416469816
 30
0.0
 11
0.0
 21
8.140355416468388
 31
0.0
  0
LINE
  5
1B2BE
  8
0
  6
CONTINUOUS
 10
1.420999999998571
 20
7.392874625550003
 30
0.0
 11
0.0507746255573185
 21
8.763099999991255
 31
0.0
  0
LINE
  5
1B2BF
  8
0
  6
CONTINUOUS
 10
1.420999999998571
 20
8.06639383463019
 30
0.0
 11
0.7242938346375052
 21
8.763099999991255
 31
0.0
  0
LINE
  5
1B2C0
  8
0
  6
CONTINUOUS
 10
1.420999999998571
 20
8.739913043710375
 30
0.0
 11
1.397813043717691
 21
8.763099999991255
 31
0.0
  0
ENDBLK
  5
1B2CC
  8
0
  0
ENDSEC
  0
SECTION
  2
ENTITIES
  0
CIRCLE
  5
1AA74
  8
01
 10
2390.758738720668
 20
-587.0666651154442
 30
0.0000000001127424
 40
2.5
  0
LINE
  5
1AA76
  8
01
 10
2037.75884306041
 20
-594.4666553195717
 30
0.0000000001127424
 11
2063.75884306041
 21
-594.4666553195717
 31
0.0000000001127424
  0
LINE
  5
1AA77
  8
01
 10
2073.25884306041
 20
-588.9666553195717
 30
0.0000000001127424
 11
2028.25884306041
 21
-588.9666553195717
 31
0.0000000001127424
  0
LINE
  5
1AA78
  8
01
 10
2050.75884306041
 20
-566.4666553195717
 30
0.0000000001127424
 11
2050.75884306041
 21
-611.4666553195717
 31
0.0000000001127424
  0
LINE
  5
1AA79
  8
01
 10
2368.258738720668
 20
-588.9666553195717
 30
0.0000000001127424
 11
2413.258738720668
 21
-588.9666553195717
 31
0.0000000001127424
  0
LINE
  5
1AA7A
  8
01
 10
2390.758738720668
 20
-566.4666553195717
 30
0.0000000001127424
 11
2390.758738720668
 21
-611.4666553195717
 31
0.0000000001127424
  0
LINE
  5
1AA7B
  8
01
 10
2388.258847126506
 20
-333.5127721688224
 30
0.0000000000564898
 11
2388.258847126506
 21
-346.0127951130254
 31
0.0000000000564898
  0
LINE
  5
1AA7C
  8
01
 10
2393.258847126506
 20
-333.5127721688206
 30
0.0000000000564898
 11
2393.258847126506
 21
-346.0127951130272
 31
0.0000000000564898
  0
LINE
  5
1AA7D
  8
01
 10
2200.758847060411
 20
-568.9666553195735
 30
0.0000000001127424
 11
2200.758847060408
 21
-608.966655319574
 31
0.0000000001127424
  0
LINE
  5
1AA7E
  8
01
 10
2200.758847060411
 20
-608.966655319574
 30
0.0000000001127424
 11
2194.958847060412
 21
-608.9666553195735
 31
0.0000000001127424
  0
ARC
  5
1AA7F
  8
01
 10
2194.958847060412
 20
-608.4666553195735
 30
0.0000000001127424
 40
0.5
 50
180.0
 51
270.0
  0
LINE
  5
1AA80
  8
01
 10
2200.758847060411
 20
-568.9666553195735
 30
0.0000000001127424
 11
2194.958847060412
 21
-568.9666553195744
 31
0.0000000001127424
  0
ARC
  5
1AA81
  8
01
 10
2194.958847060412
 20
-569.4666553195744
 30
0.0000000001127424
 40
0.5
 50
90.0
 51
180.0
  0
LINE
  5
1AA82
  8
01
 10
2199.258847060411
 20
-608.9666553195808
 30
0.0000000001127424
 11
2200.758847060411
 21
-608.9666553195808
 31
0.0000000001127424
  0
LINE
  5
1AA84
  8
01
 10
2390.758730720665
 20
-389.4666553195715
 30
0.0000000001127424
 11
2390.758730720665
 21
-415.9666553195715
 31
0.0000000001127424
  0
LINE
  5
1AA85
  8
01
 10
2390.758730720665
 20
-359.4666553216288
 30
0.0000000001127424
 11
2390.758730720665
 21
-330.1753822299883
 31
0.0000000001127424
  0
LINE
  5
1AA88
  8
01
 10
2370.758846671848
 20
-394.4666553206004
 30
0.0000000001127424
 11
2410.758846671848
 21
-394.4666553205997
 31
0.0000000001127424
  0
LINE
  5
1AA89
  8
01
 10
2410.258846671848
 20
-400.7666553206001
 30
0.0000000001127424
 11
2371.258846671848
 21
-400.7666553206005
 31
0.0000000001127424
  0
CIRCLE
  5
1AA8A
  8
01
 10
2390.758759482086
 20
-588.96667908026
 30
0.0000000001128561
 40
19.99999999999963
  0
LINE
  5
1AA8B
  8
01
 10
2370.758846671848
 20
-394.4666553206004
 30
0.0000000001127424
 11
2370.758846671848
 21
-400.2666553206005
 31
0.0000000001127424
  0
ARC
  5
1AA8C
  8
01
 10
2371.258846671848
 20
-400.2666553206001
 30
0.0000000001127424
 40
0.5
 50
180.0
 51
270.0
  0
CIRCLE
  5
1AA8D
  8
01
 10
2390.758759804545
 20
-594.4666788761318
 30
0.0000000001128561
 40
3.75
  0
CIRCLE
  5
1AA8E
  8
01
 10
2390.758759804545
 20
-594.4666790802597
 30
0.0000000001128561
 40
3.5000005
  0
LINE
  5
1AA8F
  8
01
 10
2389.758759804545
 20
-597.8207818802597
 30
0.0000000001128561
 11
2389.758759804545
 21
-591.1125750802597
 31
0.0000000001128561
  0
LINE
  5
1AA90
  8
01
 10
2391.758759804545
 20
-597.8207818802597
 30
0.0000000001128561
 11
2391.758759804545
 21
-591.1125750802597
 31
0.0000000001128561
  0
ARC
  5
1AA91
  8
01
 10
2390.758837129702
 20
-396.6166606984754
 30
0.0000000001126288
 40
6.0
 50
234.314666000001
 51
256.8165179999972
  0
LINE
  5
1AA92
  8
01
 10
2387.258837129702
 20
-401.4900606984755
 30
0.0000000001126288
 11
2387.258837129702
 21
-400.7666553206003
 31
0.0000000001126288
  0
LINE
  5
1AA93
  8
01
 10
2394.258837129702
 20
-401.4900606984755
 30
0.0000000001126288
 11
2394.258837129702
 21
-400.7666553206003
 31
0.0000000001126288
  0
LINE
  5
1AA94
  8
01
 10
2391.758837129702
 20
-402.1672091578779
 30
0.0000000001126288
 11
2391.758837129702
 21
-400.7666553206003
 31
0.0000000001126288
  0
ARC
  5
1AA95
  8
01
 10
2389.458834129702
 20
-402.1664306984754
 30
0.0000000001126288
 40
0.30000001
 50
256.8165180001158
 51
0.0
  0
ARC
  5
1AA96
  8
01
 10
2392.058836129702
 20
-402.1664306984754
 30
0.0000000001126288
 40
0.30000001
 50
179.999996999972
 51
283.1834799999916
  0
LINE
  5
1AA97
  8
01
 10
2389.758837129702
 20
-402.1664306984754
 30
0.0000000001126288
 11
2389.758837129702
 21
-400.7666553206003
 31
0.0000000001126288
  0
ARC
  5
1AA98
  8
01
 10
2390.758837129702
 20
-396.6166606984754
 30
0.0000000001126288
 40
6.0
 50
283.1834825033654
 51
305.6853299999984
  0
LINE
  5
1AA99
  8
01
 10
2410.758846671848
 20
-394.4666553205997
 30
0.0000000001127424
 11
2410.758846671848
 21
-400.2666553206001
 31
0.0000000001127424
  0
ARC
  5
1AA9A
  8
01
 10
2410.258846671848
 20
-400.2666553206001
 30
0.0000000001127424
 40
0.5
 50
270.0
 51
0.0
  0
LINE
  5
1AA9B
  8
01
 10
2240.758847060411
 20
-568.9666553195717
 30
0.0000000001127427
 11
2240.758847060407
 21
-608.9666553195717
 31
0.0000000001127427
  0
LINE
  5
1AA9D
  8
01
 10
2037.75884306041
 20
-594.4666553195717
 30
0.0000000001127424
 11
2063.75884306041
 21
-594.4666553195717
 31
0.0000000001127424
  0
LINE
  5
1AA9E
  8
01
 10
2073.25884306041
 20
-588.9666553195717
 30
0.0000000001127424
 11
2028.25884306041
 21
-588.9666553195717
 31
0.0000000001127424
  0
LINE
  5
1AA9F
  8
01
 10
2050.75884306041
 20
-566.4666553195717
 30
0.0000000001127424
 11
2050.75884306041
 21
-611.4666553195717
 31
0.0000000001127424
  0
LINE
  5
1AAA1
  8
01
 10
2390.758730720665
 20
-359.4666553216292
 30
0.0000000001127424
 11
2390.758730720665
 21
-329.8383313187713
 31
0.0000000001127424
  0
LINE
  5
1AAA3
  8
01
 10
2194.458847060412
 20
-608.4666553195717
 30
0.0000000001127427
 11
2194.458847060412
 21
-569.4666553195722
 31
0.0000000001127427
  0
CIRCLE
  5
1AAA4
  8
01
 10
2050.758843060408
 20
-588.9666553195717
 30
0.0000000001127424
 40
20.00000000000007
  0
ARC
  5
1AAA5
  8
01
 10
2052.75884306041
 20
-585.4354593854777
 30
0.0000000001127424
 40
0.5000000000000013
 50
0.0
 51
77.51311018581228
  0
ARC
  5
1AAA6
  8
01
 10
2048.75884306041
 20
-603.497851253666
 30
0.0000000001127424
 40
0.5000000000000029
 50
180.0
 51
257.5131101858123
  0
ARC
  5
1AAA7
  8
01
 10
2052.75884306041
 20
-603.497851253666
 30
0.0000000001127424
 40
0.5000000000000013
 50
282.4868898141877
 51
0.0
  0
ARC
  5
1AAA8
  8
01
 10
2050.75884306041
 20
-594.4666553195717
 30
0.0000000001127424
 40
9.749999999999995
 50
77.5131101858446
 51
102.4868898141554
  0
ARC
  5
1AAA9
  8
01
 10
2048.75884306041
 20
-585.4354593854777
 30
0.0000000001127424
 40
0.5000000000000029
 50
102.4868898141877
 51
180.0
  0
ARC
  5
1AAAA
  8
01
 10
2050.75884306041
 20
-594.4666553195717
 30
0.0000000001127424
 40
9.75
 50
257.5131101858446
 51
282.4868898141554
  0
LINE
  5
1AAAB
  8
01
 10
2053.25884306041
 20
-585.4354593854777
 30
0.0000000001127424
 11
2053.25884306041
 21
-603.497851253666
 31
0.0000000001127424
  0
LINE
  5
1AAAC
  8
01
 10
2048.25884306041
 20
-603.497851253666
 30
0.0000000001127424
 11
2048.25884306041
 21
-585.4354593854777
 31
0.0000000001127424
  0
POLYLINE
  5
1AAAD
  8
01
 66
     1
 10
0.0
 20
0.0
 30
0.0000000001127424
  0
VERTEX
  5
1AE60
  8
01
 10
2054.448032249599
 20
-603.491752722169
 30
0.0000000001127424
  0
VERTEX
  5
1AE61
  8
01
 10
2054.425737359852
 20
-603.50083367653
 30
0.0000000001127424
  0
VERTEX
  5
1AE62
  8
01
 10
2054.403452571644
 20
-603.5098457673649
 30
0.0000000001127424
  0
VERTEX
  5
1AE63
  8
01
 10
2054.381179648242
 20
-603.5187887565071
 30
0.0000000001127424
  0
VERTEX
  5
1AE64
  8
01
 10
2054.358920352912
 20
-603.5276624057897
 30
0.0000000001127424
  0
VERTEX
  5
1AE65
  8
01
 10
2054.336676448921
 20
-603.5364664770457
 30
0.0000000001127424
  0
VERTEX
  5
1AE66
  8
01
 10
2054.314449699533
 20
-603.5452007321086
 30
0.0000000001127424
  0
VERTEX
  5
1AE67
  8
01
 10
2054.292241868016
 20
-603.5538649328114
 30
0.0000000001127424
  0
VERTEX
  5
1AE68
  8
01
 10
2054.270054717635
 20
-603.5624588409873
 30
0.0000000001127424
  0
VERTEX
  5
1AE69
  8
01
 10
2054.247890011656
 20
-603.5709822184696
 30
0.0000000001127424
  0
VERTEX
  5
1AE6A
  8
01
 10
2054.225749513345
 20
-603.5794348270913
 30
0.0000000001127424
  0
VERTEX
  5
1AE6B
  8
01
 10
2054.203634985968
 20
-603.5878164286858
 30
0.0000000001127424
  0
VERTEX
  5
1AE6C
  8
01
 10
2054.181548192791
 20
-603.5961267850861
 30
0.0000000001127424
  0
VERTEX
  5
1AE6D
  8
01
 10
2054.159490897081
 20
-603.6043656581254
 30
0.0000000001127424
  0
VERTEX
  5
1AE6E
  8
01
 10
2054.137464862102
 20
-603.6125328096371
 30
0.0000000001127424
  0
VERTEX
  5
1AE6F
  8
01
 10
2054.115471851122
 20
-603.6206280014541
 30
0.0000000001127424
  0
VERTEX
  5
1AE70
  8
01
 10
2054.093513627405
 20
-603.6286509954098
 30
0.0000000001127424
  0
VERTEX
  5
1AE71
  8
01
 10
2054.071591954219
 20
-603.6366015533372
 30
0.0000000001127424
  0
VERTEX
  5
1AE72
  8
01
 10
2054.049708594829
 20
-603.6444794370697
 30
0.0000000001127424
  0
VERTEX
  5
1AE73
  8
01
 10
2054.027865312501
 20
-603.6522844084402
 30
0.0000000001127424
  0
VERTEX
  5
1AE74
  8
01
 10
2054.006063870501
 20
-603.6600162292822
 30
0.0000000001127424
  0
VERTEX
  5
1AE75
  8
01
 10
2053.984306032095
 20
-603.6676746614288
 30
0.0000000001127424
  0
VERTEX
  5
1AE76
  8
01
 10
2053.96259356055
 20
-603.675259466713
 30
0.0000000001127424
  0
VERTEX
  5
1AE77
  8
01
 10
2053.94092821913
 20
-603.6827704069682
 30
0.0000000001127424
  0
VERTEX
  5
1AE78
  8
01
 10
2053.919311771103
 20
-603.6902072440274
 30
0.0000000001127424
  0
VERTEX
  5
1AE79
  8
01
 10
2053.897745979734
 20
-603.697569739724
 30
0.0000000001127424
  0
VERTEX
  5
1AE7A
  8
01
 10
2053.876232608289
 20
-603.7048576558911
 30
0.0000000001127424
  0
VERTEX
  5
1AE7B
  8
01
 10
2053.854810321132
 20
-603.7120588963326
 30
0.0000000001127424
  0
VERTEX
  5
1AE7C
  8
01
 10
2053.833517042613
 20
-603.7191621064699
 30
0.0000000001127424
  0
VERTEX
  5
1AE7D
  8
01
 10
2053.812353425969
 20
-603.7261681605622
 30
0.0000000001127424
  0
VERTEX
  5
1AE7E
  8
01
 10
2053.791320124445
 20
-603.7330779328687
 30
0.0000000001127424
  0
VERTEX
  5
1AE7F
  8
01
 10
2053.770417791278
 20
-603.7398922976486
 30
0.0000000001127424
  0
VERTEX
  5
1AE80
  8
01
 10
2053.74964707971
 20
-603.7466121291611
 30
0.0000000001127424
  0
VERTEX
  5
1AE81
  8
01
 10
2053.729008642983
 20
-603.7532383016655
 30
0.0000000001127424
  0
VERTEX
  5
1AE82
  8
01
 10
2053.708503134335
 20
-603.759771689421
 30
0.0000000001127424
  0
VERTEX
  5
1AE83
  8
01
 10
2053.68813120701
 20
-603.7662131666867
 30
0.0000000001127424
  0
VERTEX
  5
1AE84
  8
01
 10
2053.667893514245
 20
-603.772563607722
 30
0.0000000001127424
  0
VERTEX
  5
1AE85
  8
01
 10
2053.647790709284
 20
-603.7788238867861
 30
0.0000000001127424
  0
VERTEX
  5
1AE86
  8
01
 10
2053.627823445365
 20
-603.7849948781379
 30
0.0000000001127424
  0
VERTEX
  5
1AE87
  8
01
 10
2053.607992375732
 20
-603.791077456037
 30
0.0000000001127424
  0
VERTEX
  5
1AE88
  8
01
 10
2053.588284469457
 20
-603.7970761201633
 30
0.0000000001127424
  0
VERTEX
  5
1AE89
  8
01
 10
2053.568693403781
 20
-603.8029935182018
 30
0.0000000001127424
  0
VERTEX
  5
1AE8A
  8
01
 10
2053.549229894185
 20
-603.8088277464187
 30
0.0000000001127424
  0
VERTEX
  5
1AE8B
  8
01
 10
2053.529904656154
 20
-603.814576901081
 30
0.0000000001127424
  0
VERTEX
  5
1AE8C
  8
01
 10
2053.510728405168
 20
-603.8202390784545
 30
0.0000000001127424
  0
VERTEX
  5
1AE8D
  8
01
 10
2053.491711856713
 20
-603.825812374806
 30
0.0000000001127424
  0
VERTEX
  5
1AE8E
  8
01
 10
2053.472865726271
 20
-603.8312948864019
 30
0.0000000001127424
  0
VERTEX
  5
1AE8F
  8
01
 10
2053.454200729325
 20
-603.8366847095087
 30
0.0000000001127424
  0
VERTEX
  5
1AE90
  8
01
 10
2053.435727581358
 20
-603.8419799403929
 30
0.0000000001127424
  0
VERTEX
  5
1AE91
  8
01
 10
2053.417456997854
 20
-603.8471786753206
 30
0.0000000001127424
  0
VERTEX
  5
1AE92
  8
01
 10
2053.399399694295
 20
-603.8522790105587
 30
0.0000000001127424
  0
VERTEX
  5
1AE93
  8
01
 10
2053.381566386165
 20
-603.8572790423734
 30
0.0000000001127424
  0
VERTEX
  5
1AE94
  8
01
 10
2053.363967788946
 20
-603.8621768670313
 30
0.0000000001127424
  0
VERTEX
  5
1AE95
  8
01
 10
2053.346615725536
 20
-603.8669709898361
 30
0.0000000001127424
  0
VERTEX
  5
1AE96
  8
01
 10
2053.329515644562
 20
-603.8716619345274
 30
0.0000000001127424
  0
VERTEX
  5
1AE97
  8
01
 10
2053.312668700105
 20
-603.8762508250257
 30
0.0000000001127424
  0
VERTEX
  5
1AE98
  8
01
 10
2053.296076046242
 20
-603.8807387852511
 30
0.0000000001127424
  0
VERTEX
  5
1AE99
  8
01
 10
2053.27973883705
 20
-603.885126939124
 30
0.0000000001127424
  0
VERTEX
  5
1AE9A
  8
01
 10
2053.26365822661
 20
-603.8894164105645
 30
0.0000000001127424
  0
VERTEX
  5
1AE9B
  8
01
 10
2053.247835368999
 20
-603.8936083234929
 30
0.0000000001127424
  0
VERTEX
  5
1AE9C
  8
01
 10
2053.232271418295
 20
-603.8977038018296
 30
0.0000000001127424
  0
VERTEX
  5
1AE9D
  8
01
 10
2053.216967528578
 20
-603.9017039694946
 30
0.0000000001127424
  0
VERTEX
  5
1AE9E
  8
01
 10
2053.201924853925
 20
-603.9056099504085
 30
0.0000000001127424
  0
VERTEX
  5
1AE9F
  8
01
 10
2053.187144548415
 20
-603.9094228684911
 30
0.0000000001127424
  0
VERTEX
  5
1AEA0
  8
01
 10
2053.172627766127
 20
-603.9131438476629
 30
0.0000000001127424
  0
VERTEX
  5
1AEA1
  8
01
 10
2053.158375661139
 20
-603.9167740118444
 30
0.0000000001127424
  0
VERTEX
  5
1AEA2
  8
01
 10
2053.144388179658
 20
-603.9203145369422
 30
0.0000000001127424
  0
VERTEX
  5
1AEA3
  8
01
 10
2053.13067064942
 20
-603.9237652260765
 30
0.0000000001127424
  0
VERTEX
  5
1AEA4
  8
01
 10
2053.117232296799
 20
-603.9271251439865
 30
0.0000000001127424
  0
VERTEX
  5
1AEA5
  8
01
 10
2053.104082348169
 20
-603.9303933554119
 30
0.0000000001127424
  0
VERTEX
  5
1AEA6
  8
01
 10
2053.091230029901
 20
-603.9335689250921
 30
0.0000000001127424
  0
VERTEX
  5
1AEA7
  8
01
 10
2053.078684568372
 20
-603.9366509177668
 30
0.0000000001127424
  0
VERTEX
  5
1AEA8
  8
01
 10
2053.066455189951
 20
-603.9396383981752
 30
0.0000000001127424
  0
VERTEX
  5
1AEA9
  8
01
 10
2053.054551121014
 20
-603.9425304310573
 30
0.0000000001127424
  0
VERTEX
  5
1AEAA
  8
01
 10
2053.042981587935
 20
-603.9453260811522
 30
0.0000000001127424
  0
VERTEX
  5
1AEAB
  8
01
 10
2053.031755817085
 20
-603.9480244131996
 30
0.0000000001127424
  0
VERTEX
  5
1AEAC
  8
01
 10
2053.020883034838
 20
-603.9506244919389
 30
0.0000000001127424
  0
VERTEX
  5
1AEAD
  8
01
 10
2053.010372467569
 20
-603.9531253821099
 30
0.0000000001127424
  0
VERTEX
  5
1AEAE
  8
01
 10
2053.000233341649
 20
-603.9555261484518
 30
0.0000000001127424
  0
VERTEX
  5
1AEAF
  8
01
 10
2052.990457379872
 20
-603.9578310937288
 30
0.0000000001127424
  0
VERTEX
  5
1AEB0
  8
01
 10
2052.981031941955
 20
-603.9600451702688
 30
0.0000000001127424
  0
VERTEX
  5
1AEB1
  8
01
 10
2052.971959709659
 20
-603.9621684171567
 30
0.0000000001127424
  0
VERTEX
  5
1AEB2
  8
01
 10
2052.963243364745
 20
-603.9642008734774
 30
0.0000000001127424
  0
VERTEX
  5
1AEB3
  8
01
 10
2052.954885588974
 20
-603.9661425783157
 30
0.0000000001127424
  0
VERTEX
  5
1AEB4
  8
01
 10
2052.946889064108
 20
-603.9679935707566
 30
0.0000000001127424
  0
VERTEX
  5
1AEB5
  8
01
 10
2052.939256471906
 20
-603.9697538898849
 30
0.0000000001127424
  0
VERTEX
  5
1AEB6
  8
01
 10
2052.93199049413
 20
-603.9714235747856
 30
0.0000000001127424
  0
VERTEX
  5
1AEB7
  8
01
 10
2052.925093812542
 20
-603.9730026645436
 30
0.0000000001127424
  0
VERTEX
  5
1AEB8
  8
01
 10
2052.918569108901
 20
-603.9744911982438
 30
0.0000000001127424
  0
VERTEX
  5
1AEB9
  8
01
 10
2052.912419064969
 20
-603.9758892149708
 30
0.0000000001127424
  0
VERTEX
  5
1AEBA
  8
01
 10
2052.906646362507
 20
-603.9771967538101
 30
0.0000000001127424
  0
VERTEX
  5
1AEBB
  8
01
 10
2052.901253683276
 20
-603.9784138538461
 30
0.0000000001127424
  0
VERTEX
  5
1AEBC
  8
01
 10
2052.896243709037
 20
-603.979540554164
 30
0.0000000001127424
  0
VERTEX
  5
1AEBD
  8
01
 10
2052.89161912155
 20
-603.9805768938485
 30
0.0000000001127424
  0
VERTEX
  5
1AEBE
  8
01
 10
2052.887382602577
 20
-603.9815229119846
 30
0.0000000001127424
  0
VERTEX
  5
1AEBF
  8
01
 10
2052.883536833879
 20
-603.982378647657
 30
0.0000000001127424
  0
VERTEX
  5
1AEC0
  8
01
 10
2052.880084497217
 20
-603.983144139951
 30
0.0000000001127424
  0
VERTEX
  5
1AEC1
  8
01
 10
2052.877028274351
 20
-603.9838194279512
 30
0.0000000001127424
  0
VERTEX
  5
1AEC2
  8
01
 10
2052.874370847043
 20
-603.9844045507426
 30
0.0000000001127424
  0
VERTEX
  5
1AEC3
  8
01
 10
2052.872114897054
 20
-603.9848995474101
 30
0.0000000001127424
  0
VERTEX
  5
1AEC4
  8
01
 10
2052.870263106143
 20
-603.9853044570386
 30
0.0000000001127424
  0
VERTEX
  5
1AEC5
  8
01
 10
2052.868818156074
 20
-603.9856193187129
 30
0.0000000001127424
  0
VERTEX
  5
1AEC6
  8
01
 10
2052.867782728606
 20
-603.985844171518
 30
0.0000000001127424
  0
VERTEX
  5
1AEC7
  8
01
 10
2052.8671595055
 20
-603.9859790545388
 30
0.0000000001127424
  0
VERTEX
  5
1AEC8
  8
01
 10
2052.866951168518
 20
-603.9860240068602
 30
0.0000000001127424
  0
SEQEND
  5
1B2CD
  8
01
  0
POLYLINE
  5
1AAAE
  8
01
 66
     1
 10
0.0
 20
0.0
 30
0.0000000001127424
  0
VERTEX
  5
1AEC9
  8
01
 10
2047.069653871221
 20
-585.4415579169744
 30
0.0000000001127424
  0
VERTEX
  5
1AECA
  8
01
 10
2047.091948760969
 20
-585.4324769626135
 30
0.0000000001127424
  0
VERTEX
  5
1AECB
  8
01
 10
2047.114233549177
 20
-585.4234648717785
 30
0.0000000001127424
  0
VERTEX
  5
1AECC
  8
01
 10
2047.136506472578
 20
-585.4145218826363
 30
0.0000000001127424
  0
VERTEX
  5
1AECD
  8
01
 10
2047.158765767908
 20
-585.4056482333538
 30
0.0000000001127424
  0
VERTEX
  5
1AECE
  8
01
 10
2047.181009671899
 20
-585.3968441620978
 30
0.0000000001127424
  0
VERTEX
  5
1AECF
  8
01
 10
2047.203236421287
 20
-585.3881099070348
 30
0.0000000001127424
  0
VERTEX
  5
1AED0
  8
01
 10
2047.225444252804
 20
-585.3794457063321
 30
0.0000000001127424
  0
VERTEX
  5
1AED1
  8
01
 10
2047.247631403185
 20
-585.3708517981562
 30
0.0000000001127424
  0
VERTEX
  5
1AED2
  8
01
 10
2047.269796109164
 20
-585.362328420674
 30
0.0000000001127424
  0
VERTEX
  5
1AED3
  8
01
 10
2047.291936607475
 20
-585.3538758120523
 30
0.0000000001127424
  0
VERTEX
  5
1AED4
  8
01
 10
2047.314051134852
 20
-585.3454942104578
 30
0.0000000001127424
  0
VERTEX
  5
1AED5
  8
01
 10
2047.336137928029
 20
-585.3371838540575
 30
0.0000000001127424
  0
VERTEX
  5
1AED6
  8
01
 10
2047.35819522374
 20
-585.3289449810183
 30
0.0000000001127424
  0
VERTEX
  5
1AED7
  8
01
 10
2047.380221258718
 20
-585.3207778295065
 30
0.0000000001127424
  0
VERTEX
  5
1AED8
  8
01
 10
2047.402214269699
 20
-585.3126826376896
 30
0.0000000001127424
  0
VERTEX
  5
1AED9
  8
01
 10
2047.424172493415
 20
-585.3046596437339
 30
0.0000000001127424
  0
VERTEX
  5
1AEDA
  8
01
 10
2047.446094166601
 20
-585.2967090858064
 30
0.0000000001127424
  0
VERTEX
  5
1AEDB
  8
01
 10
2047.467977525991
 20
-585.288831202074
 30
0.0000000001127424
  0
VERTEX
  5
1AEDC
  8
01
 10
2047.489820808319
 20
-585.2810262307034
 30
0.0000000001127424
  0
VERTEX
  5
1AEDD
  8
01
 10
2047.511622250319
 20
-585.2732944098615
 30
0.0000000001127424
  0
VERTEX
  5
1AEDE
  8
01
 10
2047.533380088725
 20
-585.2656359777149
 30
0.0000000001127424
  0
VERTEX
  5
1AEDF
  8
01
 10
2047.55509256027
 20
-585.2580511724307
 30
0.0000000001127424
  0
VERTEX
  5
1AEE0
  8
01
 10
2047.57675790169
 20
-585.2505402321755
 30
0.0000000001127424
  0
VERTEX
  5
1AEE1
  8
01
 10
2047.598374349717
 20
-585.2431033951162
 30
0.0000000001127424
  0
VERTEX
  5
1AEE2
  8
01
 10
2047.619940141086
 20
-585.2357408994196
 30
0.0000000001127424
  0
VERTEX
  5
1AEE3
  8
01
 10
2047.641453512531
 20
-585.2284529832525
 30
0.0000000001127424
  0
VERTEX
  5
1AEE4
  8
01
 10
2047.662875799688
 20
-585.2212517428111
 30
0.0000000001127424
  0
VERTEX
  5
1AEE5
  8
01
 10
2047.684169078208
 20
-585.2141485326738
 30
0.0000000001127424
  0
VERTEX
  5
1AEE6
  8
01
 10
2047.705332694851
 20
-585.2071424785814
 30
0.0000000001127424
  0
VERTEX
  5
1AEE7
  8
01
 10
2047.726365996376
 20
-585.200232706275
 30
0.0000000001127424
  0
VERTEX
  5
1AEE8
  8
01
 10
2047.747268329543
 20
-585.1934183414951
 30
0.0000000001127424
  0
VERTEX
  5
1AEE9
  8
01
 10
2047.76803904111
 20
-585.1866985099825
 30
0.0000000001127424
  0
VERTEX
  5
1AEEA
  8
01
 10
2047.788677477838
 20
-585.180072337478
 30
0.0000000001127424
  0
VERTEX
  5
1AEEB
  8
01
 10
2047.809182986485
 20
-585.1735389497226
 30
0.0000000001127424
  0
VERTEX
  5
1AEEC
  8
01
 10
2047.829554913811
 20
-585.1670974724567
 30
0.0000000001127424
  0
VERTEX
  5
1AEED
  8
01
 10
2047.849792606575
 20
-585.1607470314216
 30
0.0000000001127424
  0
VERTEX
  5
1AEEE
  8
01
 10
2047.869895411536
 20
-585.1544867523575
 30
0.0000000001127424
  0
VERTEX
  5
1AEEF
  8
01
 10
2047.889862675454
 20
-585.1483157610056
 30
0.0000000001127424
  0
VERTEX
  5
1AEF0
  8
01
 10
2047.909693745089
 20
-585.1422331831066
 30
0.0000000001127424
  0
VERTEX
  5
1AEF1
  8
01
 10
2047.929401651363
 20
-585.1362345189802
 30
0.0000000001127424
  0
VERTEX
  5
1AEF2
  8
01
 10
2047.948992717039
 20
-585.1303171209419
 30
0.0000000001127424
  0
VERTEX
  5
1AEF3
  8
01
 10
2047.968456226635
 20
-585.1244828927248
 30
0.0000000001127424
  0
VERTEX
  5
1AEF4
  8
01
 10
2047.987781464667
 20
-585.1187337380627
 30
0.0000000001127424
  0
VERTEX
  5
1AEF5
  8
01
 10
2048.006957715652
 20
-585.1130715606891
 30
0.0000000001127424
  0
VERTEX
  5
1AEF6
  8
01
 10
2048.025974264107
 20
-585.1074982643376
 30
0.0000000001127424
  0
VERTEX
  5
1AEF7
  8
01
 10
2048.044820394549
 20
-585.1020157527416
 30
0.0000000001127424
  0
VERTEX
  5
1AEF8
  8
01
 10
2048.063485391495
 20
-585.0966259296348
 30
0.0000000001127424
  0
VERTEX
  5
1AEF9
  8
01
 10
2048.081958539462
 20
-585.0913306987507
 30
0.0000000001127424
  0
VERTEX
  5
1AEFA
  8
01
 10
2048.100229122966
 20
-585.0861319638228
 30
0.0000000001127424
  0
VERTEX
  5
1AEFB
  8
01
 10
2048.118286426525
 20
-585.0810316285848
 30
0.0000000001127424
  0
VERTEX
  5
1AEFC
  8
01
 10
2048.136119734655
 20
-585.07603159677
 30
0.0000000001127424
  0
VERTEX
  5
1AEFD
  8
01
 10
2048.153718331875
 20
-585.0711337721123
 30
0.0000000001127424
  0
VERTEX
  5
1AEFE
  8
01
 10
2048.171070395284
 20
-585.0663396493075
 30
0.0000000001127424
  0
VERTEX
  5
1AEFF
  8
01
 10
2048.188170476258
 20
-585.0616487046161
 30
0.0000000001127424
  0
VERTEX
  5
1AF00
  8
01
 10
2048.205017420715
 20
-585.0570598141178
 30
0.0000000001127424
  0
VERTEX
  5
1AF01
  8
01
 10
2048.221610074579
 20
-585.0525718538925
 30
0.0000000001127424
  0
VERTEX
  5
1AF02
  8
01
 10
2048.23794728377
 20
-585.0481837000195
 30
0.0000000001127424
  0
VERTEX
  5
1AF03
  8
01
 10
2048.25402789421
 20
-585.0438942285791
 30
0.0000000001127424
  0
VERTEX
  5
1AF04
  8
01
 10
2048.269850751821
 20
-585.0397023156507
 30
0.0000000001127424
  0
VERTEX
  5
1AF05
  8
01
 10
2048.285414702525
 20
-585.035606837314
 30
0.0000000001127424
  0
VERTEX
  5
1AF06
  8
01
 10
2048.300718592242
 20
-585.031606669649
 30
0.0000000001127424
  0
VERTEX
  5
1AF07
  8
01
 10
2048.315761266895
 20
-585.0277006887352
 30
0.0000000001127424
  0
VERTEX
  5
1AF08
  8
01
 10
2048.330541572405
 20
-585.0238877706525
 30
0.0000000001127424
  0
VERTEX
  5
1AF09
  8
01
 10
2048.345058354693
 20
-585.0201667914806
 30
0.0000000001127424
  0
VERTEX
  5
1AF0A
  8
01
 10
2048.359310459681
 20
-585.0165366272992
 30
0.0000000001127424
  0
VERTEX
  5
1AF0B
  8
01
 10
2048.373297941162
 20
-585.0129961022013
 30
0.0000000001127424
  0
VERTEX
  5
1AF0C
  8
01
 10
2048.3870154714
 20
-585.009545413067
 30
0.0000000001127424
  0
VERTEX
  5
1AF0D
  8
01
 10
2048.400453824021
 20
-585.0061854951571
 30
0.0000000001127424
  0
VERTEX
  5
1AF0E
  8
01
 10
2048.413603772652
 20
-585.0029172837316
 30
0.0000000001127424
  0
VERTEX
  5
1AF0F
  8
01
 10
2048.426456090919
 20
-584.9997417140513
 30
0.0000000001127424
  0
VERTEX
  5
1AF10
  8
01
 10
2048.439001552449
 20
-584.9966597213767
 30
0.0000000001127424
  0
VERTEX
  5
1AF11
  8
01
 10
2048.451230930869
 20
-584.9936722409682
 30
0.0000000001127424
  0
VERTEX
  5
1AF12
  8
01
 10
2048.463134999806
 20
-584.9907802080861
 30
0.0000000001127424
  0
VERTEX
  5
1AF13
  8
01
 10
2048.474704532885
 20
-584.9879845579912
 30
0.0000000001127424
  0
VERTEX
  5
1AF14
  8
01
 10
2048.485930303735
 20
-584.9852862259438
 30
0.0000000001127424
  0
VERTEX
  5
1AF15
  8
01
 10
2048.496803085982
 20
-584.9826861472045
 30
0.0000000001127424
  0
VERTEX
  5
1AF16
  8
01
 10
2048.507313653251
 20
-584.9801852570336
 30
0.0000000001127424
  0
VERTEX
  5
1AF17
  8
01
 10
2048.517452779171
 20
-584.9777844906918
 30
0.0000000001127424
  0
VERTEX
  5
1AF18
  8
01
 10
2048.527228740948
 20
-584.9754795454147
 30
0.0000000001127424
  0
VERTEX
  5
1AF19
  8
01
 10
2048.536654178865
 20
-584.9732654688747
 30
0.0000000001127424
  0
VERTEX
  5
1AF1A
  8
01
 10
2048.545726411161
 20
-584.9711422219868
 30
0.0000000001127424
  0
VERTEX
  5
1AF1B
  8
01
 10
2048.554442756075
 20
-584.9691097656662
 30
0.0000000001127424
  0
VERTEX
  5
1AF1C
  8
01
 10
2048.562800531846
 20
-584.9671680608279
 30
0.0000000001127424
  0
VERTEX
  5
1AF1D
  8
01
 10
2048.570797056712
 20
-584.965317068387
 30
0.0000000001127424
  0
VERTEX
  5
1AF1E
  8
01
 10
2048.578429648914
 20
-584.9635567492587
 30
0.0000000001127424
  0
VERTEX
  5
1AF1F
  8
01
 10
2048.58569562669
 20
-584.961887064358
 30
0.0000000001127424
  0
VERTEX
  5
1AF20
  8
01
 10
2048.592592308278
 20
-584.9603079746
 30
0.0000000001127424
  0
VERTEX
  5
1AF21
  8
01
 10
2048.599117011919
 20
-584.9588194408999
 30
0.0000000001127424
  0
VERTEX
  5
1AF22
  8
01
 10
2048.605267055851
 20
-584.9574214241727
 30
0.0000000001127424
  0
VERTEX
  5
1AF23
  8
01
 10
2048.611039758313
 20
-584.9561138853336
 30
0.0000000001127424
  0
VERTEX
  5
1AF24
  8
01
 10
2048.616432437544
 20
-584.9548967852976
 30
0.0000000001127424
  0
VERTEX
  5
1AF25
  8
01
 10
2048.621442411783
 20
-584.9537700849796
 30
0.0000000001127424
  0
VERTEX
  5
1AF26
  8
01
 10
2048.62606699927
 20
-584.9527337452952
 30
0.0000000001127424
  0
VERTEX
  5
1AF27
  8
01
 10
2048.630303518243
 20
-584.9517877271591
 30
0.0000000001127424
  0
VERTEX
  5
1AF28
  8
01
 10
2048.634149286941
 20
-584.9509319914866
 30
0.0000000001127424
  0
VERTEX
  5
1AF29
  8
01
 10
2048.637601623604
 20
-584.9501664991926
 30
0.0000000001127424
  0
VERTEX
  5
1AF2A
  8
01
 10
2048.640657846469
 20
-584.9494912111925
 30
0.0000000001127424
  0
VERTEX
  5
1AF2B
  8
01
 10
2048.643315273777
 20
-584.948906088401
 30
0.0000000001127424
  0
VERTEX
  5
1AF2C
  8
01
 10
2048.645571223767
 20
-584.9484110917335
 30
0.0000000001127424
  0
VERTEX
  5
1AF2D
  8
01
 10
2048.647423014677
 20
-584.948006182105
 30
0.0000000001127424
  0
VERTEX
  5
1AF2E
  8
01
 10
2048.648867964746
 20
-584.9476913204307
 30
0.0000000001127424
  0
VERTEX
  5
1AF2F
  8
01
 10
2048.649903392215
 20
-584.9474664676256
 30
0.0000000001127424
  0
VERTEX
  5
1AF30
  8
01
 10
2048.65052661532
 20
-584.9473315846049
 30
0.0000000001127424
  0
VERTEX
  5
1AF31
  8
01
 10
2048.650734952302
 20
-584.9472866322834
 30
0.0000000001127424
  0
SEQEND
  5
1B2CE
  8
01
  0
POLYLINE
  5
1AAAF
  8
01
 66
     1
 10
0.0
 20
0.0
 30
0.0000000001127424
  0
VERTEX
  5
1AF32
  8
01
 10
2048.650734952302
 20
-603.9860240068602
 30
0.0000000001127424
  0
VERTEX
  5
1AF33
  8
01
 10
2048.650452384522
 20
-603.9859618362921
 30
0.0000000001127424
  0
VERTEX
  5
1AF34
  8
01
 10
2048.649606527965
 20
-603.9857753652227
 30
0.0000000001127424
  0
VERTEX
  5
1AF35
  8
01
 10
2048.6482001528
 20
-603.9854646546052
 30
0.0000000001127424
  0
VERTEX
  5
1AF36
  8
01
 10
2048.646236029196
 20
-603.9850297653926
 30
0.0000000001127424
  0
VERTEX
  5
1AF37
  8
01
 10
2048.643716927325
 20
-603.9844707585377
 30
0.0000000001127424
  0
VERTEX
  5
1AF38
  8
01
 10
2048.640645617356
 20
-603.9837876949937
 30
0.0000000001127424
  0
VERTEX
  5
1AF39
  8
01
 10
2048.63702486946
 20
-603.9829806357133
 30
0.0000000001127424
  0
VERTEX
  5
1AF3A
  8
01
 10
2048.632857453807
 20
-603.9820496416497
 30
0.0000000001127424
  0
VERTEX
  5
1AF3B
  8
01
 10
2048.628146140566
 20
-603.9809947737559
 30
0.0000000001127424
  0
VERTEX
  5
1AF3C
  8
01
 10
2048.622893699909
 20
-603.9798160929847
 30
0.0000000001127424
  0
VERTEX
  5
1AF3D
  8
01
 10
2048.617102902005
 20
-603.9785136602892
 30
0.0000000001127424
  0
VERTEX
  5
1AF3E
  8
01
 10
2048.610760790648
 20
-603.9770836607399
 30
0.0000000001127424
  0
VERTEX
  5
1AF3F
  8
01
 10
2048.603858750379
 20
-603.975522627767
 30
0.0000000001127424
  0
VERTEX
  5
1AF40
  8
01
 10
2048.596406062486
 20
-603.9738311448624
 30
0.0000000001127424
  0
VERTEX
  5
1AF41
  8
01
 10
2048.588412008257
 20
-603.9720097955186
 30
0.0000000001127424
  0
VERTEX
  5
1AF42
  8
01
 10
2048.57988586898
 20
-603.9700591632275
 30
0.0000000001127424
  0
VERTEX
  5
1AF43
  8
01
 10
2048.570836925944
 20
-603.9679798314812
 30
0.0000000001127424
  0
VERTEX
  5
1AF44
  8
01
 10
2048.561274460436
 20
-603.9657723837721
 30
0.0000000001127424
  0
VERTEX
  5
1AF45
  8
01
 10
2048.551207753746
 20
-603.963437403592
 30
0.0000000001127424
  0
VERTEX
  5
1AF46
  8
01
 10
2048.540646087161
 20
-603.9609754744333
 30
0.0000000001127424
  0
VERTEX
  5
1AF47
  8
01
 10
2048.529598741969
 20
-603.9583871797882
 30
0.0000000001127424
  0
VERTEX
  5
1AF48
  8
01
 10
2048.51807499946
 20
-603.9556731031487
 30
0.0000000001127424
  0
VERTEX
  5
1AF49
  8
01
 10
2048.506068349759
 20
-603.9528297901755
 30
0.0000000001127424
  0
VERTEX
  5
1AF4A
  8
01
 10
2048.493572183788
 20
-603.9498534485496
 30
0.0000000001127424
  0
VERTEX
  5
1AF4B
  8
01
 10
2048.480595634031
 20
-603.946744154792
 30
0.0000000001127424
  0
VERTEX
  5
1AF4C
  8
01
 10
2048.467147832969
 20
-603.9435019854246
 30
0.0000000001127424
  0
VERTEX
  5
1AF4D
  8
01
 10
2048.453237913086
 20
-603.9401270169691
 30
0.0000000001127424
  0
VERTEX
  5
1AF4E
  8
01
 10
2048.438875006864
 20
-603.9366193259468
 30
0.0000000001127424
  0
VERTEX
  5
1AF4F
  8
01
 10
2048.424068246785
 20
-603.9329789888797
 30
0.0000000001127424
  0
VERTEX
  5
1AF50
  8
01
 10
2048.408826765332
 20
-603.9292060822889
 30
0.0000000001127424
  0
VERTEX
  5
1AF51
  8
01
 10
2048.393159694989
 20
-603.9253006826966
 30
0.0000000001127424
  0
VERTEX
  5
1AF52
  8
01
 10
2048.377076168237
 20
-603.921262866624
 30
0.0000000001127424
  0
VERTEX
  5
1AF53
  8
01
 10
2048.360585317558
 20
-603.9170927105928
 30
0.0000000001127424
  0
VERTEX
  5
1AF54
  8
01
 10
2048.343696275437
 20
-603.9127902911247
 30
0.0000000001127424
  0
VERTEX
  5
1AF55
  8
01
 10
2048.326418174355
 20
-603.9083556847413
 30
0.0000000001127424
  0
VERTEX
  5
1AF56
  8
01
 10
2048.308760146795
 20
-603.903788967964
 30
0.0000000001127424
  0
VERTEX
  5
1AF57
  8
01
 10
2048.290731325239
 20
-603.8990902173147
 30
0.0000000001127424
  0
VERTEX
  5
1AF58
  8
01
 10
2048.272340842171
 20
-603.8942595093148
 30
0.0000000001127424
  0
VERTEX
  5
1AF59
  8
01
 10
2048.253597830071
 20
-603.8892969204859
 30
0.0000000001127424
  0
VERTEX
  5
1AF5A
  8
01
 10
2048.234511421425
 20
-603.8842025273498
 30
0.0000000001127424
  0
VERTEX
  5
1AF5B
  8
01
 10
2048.215090748713
 20
-603.8789764064279
 30
0.0000000001127424
  0
VERTEX
  5
1AF5C
  8
01
 10
2048.195344944419
 20
-603.8736186342419
 30
0.0000000001127424
  0
VERTEX
  5
1AF5D
  8
01
 10
2048.175283141025
 20
-603.8681292873134
 30
0.0000000001127424
  0
VERTEX
  5
1AF5E
  8
01
 10
2048.154914471014
 20
-603.8625084421641
 30
0.0000000001127424
  0
VERTEX
  5
1AF5F
  8
01
 10
2048.134233984693
 20
-603.8567511296211
 30
0.0000000001127424
  0
VERTEX
  5
1AF60
  8
01
 10
2048.113237505666
 20
-603.8508531747982
 30
0.0000000001127424
  0
VERTEX
  5
1AF61
  8
01
 10
2048.091935326364
 20
-603.8448158456473
 30
0.0000000001127424
  0
VERTEX
  5
1AF62
  8
01
 10
2048.070337739218
 20
-603.8386404101199
 30
0.0000000001127424
  0
VERTEX
  5
1AF63
  8
01
 10
2048.048455036658
 20
-603.8323281361677
 30
0.0000000001127424
  0
VERTEX
  5
1AF64
  8
01
 10
2048.026297511113
 20
-603.8258802917424
 30
0.0000000001127424
  0
VERTEX
  5
1AF65
  8
01
 10
2048.003875455016
 20
-603.8192981447955
 30
0.0000000001127424
  0
VERTEX
  5
1AF66
  8
01
 10
2047.981199160794
 20
-603.812582963279
 30
0.0000000001127424
  0
VERTEX
  5
1AF67
  8
01
 10
2047.958278920881
 20
-603.8057360151445
 30
0.0000000001127424
  0
VERTEX
  5
1AF68
  8
01
 10
2047.935125027704
 20
-603.7987585683434
 30
0.0000000001127424
  0
VERTEX
  5
1AF69
  8
01
 10
2047.911747773695
 20
-603.7916518908276
 30
0.0000000001127424
  0
VERTEX
  5
1AF6A
  8
01
 10
2047.888157451285
 20
-603.7844172505485
 30
0.0000000001127424
  0
VERTEX
  5
1AF6B
  8
01
 10
2047.864364352902
 20
-603.777055915458
 30
0.0000000001127424
  0
VERTEX
  5
1AF6C
  8
01
 10
2047.840378770979
 20
-603.7695691535079
 30
0.0000000001127424
  0
VERTEX
  5
1AF6D
  8
01
 10
2047.816210997945
 20
-603.7619582326496
 30
0.0000000001127424
  0
VERTEX
  5
1AF6E
  8
01
 10
2047.79187132623
 20
-603.7542244208347
 30
0.0000000001127424
  0
VERTEX
  5
1AF6F
  8
01
 10
2047.767370048265
 20
-603.7463689860151
 30
0.0000000001127424
  0
VERTEX
  5
1AF70
  8
01
 10
2047.74271745648
 20
-603.7383931961424
 30
0.0000000001127424
  0
VERTEX
  5
1AF71
  8
01
 10
2047.717923843305
 20
-603.7302983191682
 30
0.0000000001127424
  0
VERTEX
  5
1AF72
  8
01
 10
2047.692999501172
 20
-603.7220856230444
 30
0.0000000001127424
  0
VERTEX
  5
1AF73
  8
01
 10
2047.667954722509
 20
-603.7137563757224
 30
0.0000000001127424
  0
VERTEX
  5
1AF74
  8
01
 10
2047.642799799748
 20
-603.7053118451539
 30
0.0000000001127424
  0
VERTEX
  5
1AF75
  8
01
 10
2047.617531003223
 20
-603.6967491397708
 30
0.0000000001127424
  0
VERTEX
  5
1AF76
  8
01
 10
2047.592142274912
 20
-603.688065696255
 30
0.0000000001127424
  0
VERTEX
  5
1AF77
  8
01
 10
2047.56664041471
 20
-603.679263274934
 30
0.0000000001127424
  0
VERTEX
  5
1AF78
  8
01
 10
2047.541032222511
 20
-603.6703436361352
 30
0.0000000001127424
  0
VERTEX
  5
1AF79
  8
01
 10
2047.515324498209
 20
-603.6613085401857
 30
0.0000000001127424
  0
VERTEX
  5
1AF7A
  8
01
 10
2047.489524041699
 20
-603.6521597474128
 30
0.0000000001127424
  0
VERTEX
  5
1AF7B
  8
01
 10
2047.463637652877
 20
-603.642899018144
 30
0.0000000001127424
  0
VERTEX
  5
1AF7C
  8
01
 10
2047.437672131635
 20
-603.6335281127066
 30
0.0000000001127424
  0
VERTEX
  5
1AF7D
  8
01
 10
2047.411634277869
 20
-603.6240487914279
 30
0.0000000001127424
  0
VERTEX
  5
1AF7E
  8
01
 10
2047.385530891474
 20
-603.6144628146351
 30
0.0000000001127424
  0
VERTEX
  5
1AF7F
  8
01
 10
2047.359368772343
 20
-603.6047719426555
 30
0.0000000001127424
  0
VERTEX
  5
1AF80
  8
01
 10
2047.333154720371
 20
-603.5949779358166
 30
0.0000000001127424
  0
VERTEX
  5
1AF81
  8
01
 10
2047.306895535454
 20
-603.5850825544455
 30
0.0000000001127424
  0
VERTEX
  5
1AF82
  8
01
 10
2047.280598017485
 20
-603.5750875588698
 30
0.0000000001127424
  0
VERTEX
  5
1AF83
  8
01
 10
2047.254268966359
 20
-603.5649947094164
 30
0.0000000001127424
  0
VERTEX
  5
1AF84
  8
01
 10
2047.22791518197
 20
-603.554805766413
 30
0.0000000001127424
  0
VERTEX
  5
1AF85
  8
01
 10
2047.201543464214
 20
-603.5445224901868
 30
0.0000000001127424
  0
VERTEX
  5
1AF86
  8
01
 10
2047.175160612984
 20
-603.534146641065
 30
0.0000000001127424
  0
VERTEX
  5
1AF87
  8
01
 10
2047.148773428175
 20
-603.5236799793751
 30
0.0000000001127424
  0
VERTEX
  5
1AF88
  8
01
 10
2047.122388709682
 20
-603.5131242654442
 30
0.0000000001127424
  0
VERTEX
  5
1AF89
  8
01
 10
2047.096013257399
 20
-603.5024812595998
 30
0.0000000001127424
  0
VERTEX
  5
1AF8A
  8
01
 10
2047.069653871221
 20
-603.491752722169
 30
0.0000000001127424
  0
SEQEND
  5
1B2CF
  8
01
  0
POLYLINE
  5
1AAB0
  8
01
 66
     1
 10
0.0
 20
0.0
 30
0.0000000001127424
  0
VERTEX
  5
1AF8B
  8
01
 10
2052.866951168518
 20
-584.9472866322834
 30
0.0000000001127424
  0
VERTEX
  5
1AF8C
  8
01
 10
2052.867233736298
 20
-584.9473488028516
 30
0.0000000001127424
  0
VERTEX
  5
1AF8D
  8
01
 10
2052.868079592855
 20
-584.947535273921
 30
0.0000000001127424
  0
VERTEX
  5
1AF8E
  8
01
 10
2052.86948596802
 20
-584.9478459845385
 30
0.0000000001127424
  0
VERTEX
  5
1AF8F
  8
01
 10
2052.871450091624
 20
-584.9482808737511
 30
0.0000000001127424
  0
VERTEX
  5
1AF90
  8
01
 10
2052.873969193495
 20
-584.948839880606
 30
0.0000000001127424
  0
VERTEX
  5
1AF91
  8
01
 10
2052.877040503464
 20
-584.94952294415
 30
0.0000000001127424
  0
VERTEX
  5
1AF92
  8
01
 10
2052.88066125136
 20
-584.9503300034304
 30
0.0000000001127424
  0
VERTEX
  5
1AF93
  8
01
 10
2052.884828667013
 20
-584.9512609974939
 30
0.0000000001127424
  0
VERTEX
  5
1AF94
  8
01
 10
2052.889539980254
 20
-584.9523158653877
 30
0.0000000001127424
  0
VERTEX
  5
1AF95
  8
01
 10
2052.894792420911
 20
-584.9534945461589
 30
0.0000000001127424
  0
VERTEX
  5
1AF96
  8
01
 10
2052.900583218815
 20
-584.9547969788545
 30
0.0000000001127424
  0
VERTEX
  5
1AF97
  8
01
 10
2052.906925330172
 20
-584.9562269784037
 30
0.0000000001127424
  0
VERTEX
  5
1AF98
  8
01
 10
2052.913827370441
 20
-584.9577880113767
 30
0.0000000001127424
  0
VERTEX
  5
1AF99
  8
01
 10
2052.921280058334
 20
-584.9594794942813
 30
0.0000000001127424
  0
VERTEX
  5
1AF9A
  8
01
 10
2052.929274112563
 20
-584.961300843625
 30
0.0000000001127424
  0
VERTEX
  5
1AF9B
  8
01
 10
2052.93780025184
 20
-584.9632514759162
 30
0.0000000001127424
  0
VERTEX
  5
1AF9C
  8
01
 10
2052.946849194876
 20
-584.9653308076624
 30
0.0000000001127424
  0
VERTEX
  5
1AF9D
  8
01
 10
2052.956411660384
 20
-584.9675382553716
 30
0.0000000001127424
  0
VERTEX
  5
1AF9E
  8
01
 10
2052.966478367075
 20
-584.9698732355516
 30
0.0000000001127424
  0
VERTEX
  5
1AF9F
  8
01
 10
2052.977040033659
 20
-584.9723351647103
 30
0.0000000001127424
  0
VERTEX
  5
1AFA0
  8
01
 10
2052.988087378851
 20
-584.9749234593554
 30
0.0000000001127424
  0
VERTEX
  5
1AFA1
  8
01
 10
2052.99961112136
 20
-584.977637535995
 30
0.0000000001127424
  0
VERTEX
  5
1AFA2
  8
01
 10
2053.011617771062
 20
-584.9804808489681
 30
0.0000000001127424
  0
VERTEX
  5
1AFA3
  8
01
 10
2053.024113937032
 20
-584.9834571905941
 30
0.0000000001127424
  0
VERTEX
  5
1AFA4
  8
01
 10
2053.037090486789
 20
-584.9865664843517
 30
0.0000000001127424
  0
VERTEX
  5
1AFA5
  8
01
 10
2053.050538287851
 20
-584.989808653719
 30
0.0000000001127424
  0
VERTEX
  5
1AFA6
  8
01
 10
2053.064448207734
 20
-584.9931836221746
 30
0.0000000001127424
  0
VERTEX
  5
1AFA7
  8
01
 10
2053.078811113956
 20
-584.9966913131968
 30
0.0000000001127424
  0
VERTEX
  5
1AFA8
  8
01
 10
2053.093617874035
 20
-585.000331650264
 30
0.0000000001127424
  0
VERTEX
  5
1AFA9
  8
01
 10
2053.108859355488
 20
-585.0041045568546
 30
0.0000000001127424
  0
VERTEX
  5
1AFAA
  8
01
 10
2053.124526425831
 20
-585.008009956447
 30
0.0000000001127424
  0
VERTEX
  5
1AFAB
  8
01
 10
2053.140609952583
 20
-585.0120477725195
 30
0.0000000001127424
  0
VERTEX
  5
1AFAC
  8
01
 10
2053.157100803262
 20
-585.0162179285508
 30
0.0000000001127424
  0
VERTEX
  5
1AFAD
  8
01
 10
2053.173989845383
 20
-585.0205203480187
 30
0.0000000001127424
  0
VERTEX
  5
1AFAE
  8
01
 10
2053.191267946465
 20
-585.0249549544022
 30
0.0000000001127424
  0
VERTEX
  5
1AFAF
  8
01
 10
2053.208925974025
 20
-585.0295216711794
 30
0.0000000001127424
  0
VERTEX
  5
1AFB0
  8
01
 10
2053.226954795581
 20
-585.0342204218289
 30
0.0000000001127424
  0
VERTEX
  5
1AFB1
  8
01
 10
2053.245345278649
 20
-585.0390511298287
 30
0.0000000001127424
  0
VERTEX
  5
1AFB2
  8
01
 10
2053.264088290749
 20
-585.0440137186575
 30
0.0000000001127424
  0
VERTEX
  5
1AFB3
  8
01
 10
2053.283174699395
 20
-585.0491081117937
 30
0.0000000001127424
  0
VERTEX
  5
1AFB4
  8
01
 10
2053.302595372107
 20
-585.0543342327155
 30
0.0000000001127424
  0
VERTEX
  5
1AFB5
  8
01
 10
2053.322341176401
 20
-585.0596920049015
 30
0.0000000001127424
  0
VERTEX
  5
1AFB6
  8
01
 10
2053.342402979795
 20
-585.06518135183
 30
0.0000000001127424
  0
VERTEX
  5
1AFB7
  8
01
 10
2053.362771649806
 20
-585.0708021969793
 30
0.0000000001127424
  0
VERTEX
  5
1AFB8
  8
01
 10
2053.383452136127
 20
-585.0765595095223
 30
0.0000000001127424
  0
VERTEX
  5
1AFB9
  8
01
 10
2053.404448615154
 20
-585.0824574643452
 30
0.0000000001127424
  0
VERTEX
  5
1AFBA
  8
01
 10
2053.425750794456
 20
-585.0884947934961
 30
0.0000000001127424
  0
VERTEX
  5
1AFBB
  8
01
 10
2053.447348381602
 20
-585.0946702290236
 30
0.0000000001127424
  0
VERTEX
  5
1AFBC
  8
01
 10
2053.469231084162
 20
-585.1009825029757
 30
0.0000000001127424
  0
VERTEX
  5
1AFBD
  8
01
 10
2053.491388609707
 20
-585.1074303474011
 30
0.0000000001127424
  0
VERTEX
  5
1AFBE
  8
01
 10
2053.513810665805
 20
-585.1140124943479
 30
0.0000000001127424
  0
VERTEX
  5
1AFBF
  8
01
 10
2053.536486960026
 20
-585.1207276758644
 30
0.0000000001127424
  0
VERTEX
  5
1AFC0
  8
01
 10
2053.55940719994
 20
-585.127574623999
 30
0.0000000001127424
  0
VERTEX
  5
1AFC1
  8
01
 10
2053.582561093117
 20
-585.1345520708
 30
0.0000000001127424
  0
VERTEX
  5
1AFC2
  8
01
 10
2053.605938347125
 20
-585.1416587483159
 30
0.0000000001127424
  0
VERTEX
  5
1AFC3
  8
01
 10
2053.629528669536
 20
-585.148893388595
 30
0.0000000001127424
  0
VERTEX
  5
1AFC4
  8
01
 10
2053.653321767918
 20
-585.1562547236854
 30
0.0000000001127424
  0
VERTEX
  5
1AFC5
  8
01
 10
2053.677307349842
 20
-585.1637414856356
 30
0.0000000001127424
  0
VERTEX
  5
1AFC6
  8
01
 10
2053.701475122876
 20
-585.1713524064938
 30
0.0000000001127424
  0
VERTEX
  5
1AFC7
  8
01
 10
2053.725814794591
 20
-585.1790862183087
 30
0.0000000001127424
  0
VERTEX
  5
1AFC8
  8
01
 10
2053.750316072556
 20
-585.1869416531283
 30
0.0000000001127424
  0
VERTEX
  5
1AFC9
  8
01
 10
2053.774968664341
 20
-585.194917443001
 30
0.0000000001127424
  0
VERTEX
  5
1AFCA
  8
01
 10
2053.799762277516
 20
-585.2030123199752
 30
0.0000000001127424
  0
VERTEX
  5
1AFCB
  8
01
 10
2053.824686619649
 20
-585.211225016099
 30
0.0000000001127424
  0
VERTEX
  5
1AFCC
  8
01
 10
2053.849731398312
 20
-585.2195542634211
 30
0.0000000001127424
  0
VERTEX
  5
1AFCD
  8
01
 10
2053.874886321073
 20
-585.2279987939895
 30
0.0000000001127424
  0
VERTEX
  5
1AFCE
  8
01
 10
2053.900155117597
 20
-585.2365614993727
 30
0.0000000001127424
  0
VERTEX
  5
1AFCF
  8
01
 10
2053.925543845908
 20
-585.2452449428885
 30
0.0000000001127424
  0
VERTEX
  5
1AFD0
  8
01
 10
2053.95104570611
 20
-585.2540473642094
 30
0.0000000001127424
  0
VERTEX
  5
1AFD1
  8
01
 10
2053.97665389831
 20
-585.2629670030083
 30
0.0000000001127424
  0
VERTEX
  5
1AFD2
  8
01
 10
2054.002361622611
 20
-585.2720020989577
 30
0.0000000001127424
  0
VERTEX
  5
1AFD3
  8
01
 10
2054.028162079121
 20
-585.2811508917306
 30
0.0000000001127424
  0
VERTEX
  5
1AFD4
  8
01
 10
2054.054048467944
 20
-585.2904116209994
 30
0.0000000001127424
  0
VERTEX
  5
1AFD5
  8
01
 10
2054.080013989185
 20
-585.2997825264368
 30
0.0000000001127424
  0
VERTEX
  5
1AFD6
  8
01
 10
2054.106051842951
 20
-585.3092618477156
 30
0.0000000001127424
  0
VERTEX
  5
1AFD7
  8
01
 10
2054.132155229347
 20
-585.3188478245083
 30
0.0000000001127424
  0
VERTEX
  5
1AFD8
  8
01
 10
2054.158317348477
 20
-585.328538696488
 30
0.0000000001127424
  0
VERTEX
  5
1AFD9
  8
01
 10
2054.184531400449
 20
-585.3383327033268
 30
0.0000000001127424
  0
VERTEX
  5
1AFDA
  8
01
 10
2054.210790585366
 20
-585.3482280846979
 30
0.0000000001127424
  0
VERTEX
  5
1AFDB
  8
01
 10
2054.237088103335
 20
-585.3582230802737
 30
0.0000000001127424
  0
VERTEX
  5
1AFDC
  8
01
 10
2054.263417154461
 20
-585.368315929727
 30
0.0000000001127424
  0
VERTEX
  5
1AFDD
  8
01
 10
2054.28977093885
 20
-585.3785048727304
 30
0.0000000001127424
  0
VERTEX
  5
1AFDE
  8
01
 10
2054.316142656606
 20
-585.3887881489567
 30
0.0000000001127424
  0
VERTEX
  5
1AFDF
  8
01
 10
2054.342525507836
 20
-585.3991639980784
 30
0.0000000001127424
  0
VERTEX
  5
1AFE0
  8
01
 10
2054.368912692645
 20
-585.4096306597684
 30
0.0000000001127424
  0
VERTEX
  5
1AFE1
  8
01
 10
2054.395297411138
 20
-585.4201863736993
 30
0.0000000001127424
  0
VERTEX
  5
1AFE2
  8
01
 10
2054.421672863421
 20
-585.4308293795436
 30
0.0000000001127424
  0
VERTEX
  5
1AFE3
  8
01
 10
2054.448032249599
 20
-585.4415579169744
 30
0.0000000001127424
  0
SEQEND
  5
1B2D0
  8
01
  0
ARC
  5
1AAB1
  8
01
 10
2050.75884306041
 20
-594.4666553195717
 30
0.0000000001127424
 40
9.750000000000005
 50
112.2332717982938
 51
247.7667282017062
  0
ARC
  5
1AAB2
  8
01
 10
2050.75884306041
 20
-594.4666553195717
 30
0.0000000001127424
 40
9.750000000000009
 50
292.2332717982938
 51
67.76672820170617
  0
CIRCLE
  5
1AAB3
  8
01
 10
2050.75884306041
 20
-594.4666553195717
 30
0.0000000001127424
 40
10.3
  0
POLYLINE
  5
1AAB4
  8
01
 10
0.0
 20
0.0
 30
0.0
 66
     1
 70
     8
  0
VERTEX
  5
1AFE4
  8
01
 10
2194.458847060412
 20
-604.216655319579
 30
0.0000000001127427
 70
    32
  0
VERTEX
  5
1AFE5
  8
01
 10
2192.621343959036
 20
-604.216655319579
 30
0.0000000001127427
 70
    32
  0
VERTEX
  5
1AFE6
  8
01
 10
2190.783840857659
 20
-604.216655319579
 30
0.0000000001127427
 70
    32
  0
VERTEX
  5
1AFE7
  8
01
 10
2188.946337756282
 20
-604.216655319579
 30
0.0000000001127427
 70
    32
  0
VERTEX
  5
1AFE8
  8
01
 10
2187.108834654906
 20
-604.216655319579
 30
0.0000000001127427
 70
    32
  0
VERTEX
  5
1AFE9
  8
01
 10
2185.271331553529
 20
-604.216655319579
 30
0.0000000001127427
 70
    32
  0
VERTEX
  5
1AFEA
  8
01
 10
2183.433828452153
 20
-604.216655319579
 30
0.0000000001127427
 70
    32
  0
VERTEX
  5
1AFEB
  8
01
 10
2181.596325350776
 20
-604.216655319579
 30
0.0000000001127427
 70
    32
  0
VERTEX
  5
1AFEC
  8
01
 10
2179.7588222494
 20
-604.216655319579
 30
0.0000000001127427
 70
    32
  0
SEQEND
  5
1B2D1
  8
01
  0
POLYLINE
  5
1AAB5
  8
01
 10
0.0
 20
0.0
 30
0.0
 66
     1
 70
     8
  0
VERTEX
  5
1AFED
  8
01
 10
2179.7588222494
 20
-584.716655319579
 30
0.0000000001127427
 70
    32
  0
VERTEX
  5
1AFEE
  8
01
 10
2181.596325350776
 20
-584.716655319579
 30
0.0000000001127427
 70
    32
  0
VERTEX
  5
1AFEF
  8
01
 10
2183.433828452153
 20
-584.716655319579
 30
0.0000000001127427
 70
    32
  0
VERTEX
  5
1AFF0
  8
01
 10
2185.271331553529
 20
-584.716655319579
 30
0.0000000001127427
 70
    32
  0
VERTEX
  5
1AFF1
  8
01
 10
2187.108834654905
 20
-584.716655319579
 30
0.0000000001127427
 70
    32
  0
VERTEX
  5
1AFF2
  8
01
 10
2188.946337756282
 20
-584.716655319579
 30
0.0000000001127427
 70
    32
  0
VERTEX
  5
1AFF3
  8
01
 10
2190.783840857658
 20
-584.716655319579
 30
0.0000000001127427
 70
    32
  0
VERTEX
  5
1AFF4
  8
01
 10
2192.621343959035
 20
-584.716655319579
 30
0.0000000001127427
 70
    32
  0
VERTEX
  5
1AFF5
  8
01
 10
2194.458847060411
 20
-584.716655319579
 30
0.0000000001127427
 70
    32
  0
SEQEND
  5
1B2D2
  8
01
  0
ARC
  5
1AAB6
  8
01
 10
2179.7588222494
 20
-603.216655319579
 30
0.0000000001127427
 40
1.0
 50
180.0
 51
270.0
  0
ARC
  5
1AAB7
  8
01
 10
2179.7588222494
 20
-585.716655319579
 30
0.0000000001127427
 40
1.0
 50
90.0
 51
180.0
  0
LINE
  5
1AAB8
  8
01
 10
2193.2588222494
 20
-585.9043834248072
 30
0.0000000001127427
 11
2193.2588222494
 21
-603.0289272143508
 31
0.0000000001127427
  0
POLYLINE
  5
1AAB9
  8
01
 66
     1
 10
0.0
 20
0.0
 30
0.0000000001127427
  0
VERTEX
  5
1AFF6
  8
01
 10
2192.2588222494
 20
-585.4354593854849
 30
0.0000000001127427
  0
VERTEX
  5
1AFF7
  8
01
 10
2192.282133845298
 20
-585.43554865334
 30
0.0000000001127427
  0
VERTEX
  5
1AFF8
  8
01
 10
2192.305404613043
 20
-585.4358166410914
 30
0.0000000001127427
  0
VERTEX
  5
1AFF9
  8
01
 10
2192.328622361584
 20
-585.4362636250191
 30
0.0000000001127427
  0
VERTEX
  5
1AFFA
  8
01
 10
2192.351774899872
 20
-585.4368898814026
 30
0.0000000001127427
  0
VERTEX
  5
1AFFB
  8
01
 10
2192.374850036855
 20
-585.4376956865217
 30
0.0000000001127427
  0
VERTEX
  5
1AFFC
  8
01
 10
2192.397835581484
 20
-585.4386813166559
 30
0.0000000001127427
  0
VERTEX
  5
1AFFD
  8
01
 10
2192.420719342711
 20
-585.4398470480852
 30
0.0000000001127427
  0
VERTEX
  5
1AFFE
  8
01
 10
2192.443489129484
 20
-585.441193157089
 30
0.0000000001127427
  0
VERTEX
  5
1AFFF
  8
01
 10
2192.466132750753
 20
-585.4427199199472
 30
0.0000000001127427
  0
VERTEX
  5
1B000
  8
01
 10
2192.488638015469
 20
-585.4444276129393
 30
0.0000000001127427
  0
VERTEX
  5
1B001
  8
01
 10
2192.510992732581
 20
-585.4463165123451
 30
0.0000000001127427
  0
VERTEX
  5
1B002
  8
01
 10
2192.53318471104
 20
-585.4483868944443
 30
0.0000000001127427
  0
VERTEX
  5
1B003
  8
01
 10
2192.555201759796
 20
-585.4506390355165
 30
0.0000000001127427
  0
VERTEX
  5
1B004
  8
01
 10
2192.577031687798
 20
-585.4530732118413
 30
0.0000000001127427
  0
VERTEX
  5
1B005
  8
01
 10
2192.598662303997
 20
-585.4556896996988
 30
0.0000000001127427
  0
VERTEX
  5
1B006
  8
01
 10
2192.620081417343
 20
-585.4584887753683
 30
0.0000000001127427
  0
VERTEX
  5
1B007
  8
01
 10
2192.641276836785
 20
-585.4614707151297
 30
0.0000000001127427
  0
VERTEX
  5
1B008
  8
01
 10
2192.662236371275
 20
-585.4646357952624
 30
0.0000000001127427
  0
VERTEX
  5
1B009
  8
01
 10
2192.682954678573
 20
-585.4679876568092
 30
0.0000000001127427
  0
VERTEX
  5
1B00A
  8
01
 10
2192.703428311798
 20
-585.4715300227801
 30
0.0000000001127427
  0
VERTEX
  5
1B00B
  8
01
 10
2192.723647922936
 20
-585.4752632924069
 30
0.0000000001127427
  0
VERTEX
  5
1B00C
  8
01
 10
2192.743604163972
 20
-585.4791878649212
 30
0.0000000001127427
  0
VERTEX
  5
1B00D
  8
01
 10
2192.763287686891
 20
-585.4833041395545
 30
0.0000000001127427
  0
VERTEX
  5
1B00E
  8
01
 10
2192.782689143679
 20
-585.4876125155384
 30
0.0000000001127427
  0
VERTEX
  5
1B00F
  8
01
 10
2192.801799186322
 20
-585.4921133921047
 30
0.0000000001127427
  0
VERTEX
  5
1B010
  8
01
 10
2192.820608466805
 20
-585.4968071684847
 30
0.0000000001127427
  0
VERTEX
  5
1B011
  8
01
 10
2192.839107637113
 20
-585.5016942439103
 30
0.0000000001127427
  0
VERTEX
  5
1B012
  8
01
 10
2192.857287349231
 20
-585.5067750176128
 30
0.0000000001127427
  0
VERTEX
  5
1B013
  8
01
 10
2192.875138255147
 20
-585.512049888824
 30
0.0000000001127427
  0
VERTEX
  5
1B014
  8
01
 10
2192.892651006843
 20
-585.5175192567754
 30
0.0000000001127427
  0
VERTEX
  5
1B015
  8
01
 10
2192.909816256307
 20
-585.5231835206987
 30
0.0000000001127427
  0
VERTEX
  5
1B016
  8
01
 10
2192.926624655523
 20
-585.5290430798254
 30
0.0000000001127427
  0
VERTEX
  5
1B017
  8
01
 10
2192.943066856478
 20
-585.5350983333873
 30
0.0000000001127427
  0
VERTEX
  5
1B018
  8
01
 10
2192.959133511156
 20
-585.5413496806157
 30
0.0000000001127427
  0
VERTEX
  5
1B019
  8
01
 10
2192.974815271543
 20
-585.5477975207424
 30
0.0000000001127427
  0
VERTEX
  5
1B01A
  8
01
 10
2192.990102789625
 20
-585.5544422529989
 30
0.0000000001127427
  0
VERTEX
  5
1B01B
  8
01
 10
2193.00497962597
 20
-585.5612773969852
 30
0.0000000001127427
  0
VERTEX
  5
1B01C
  8
01
 10
2193.019435389253
 20
-585.568295771024
 30
0.0000000001127427
  0
VERTEX
  5
1B01D
  8
01
 10
2193.033469803623
 20
-585.5754967224304
 30
0.0000000001127427
  0
VERTEX
  5
1B01E
  8
01
 10
2193.047082593227
 20
-585.5828795985201
 30
0.0000000001127427
  0
VERTEX
  5
1B01F
  8
01
 10
2193.060273482212
 20
-585.5904437466081
 30
0.0000000001127427
  0
VERTEX
  5
1B020
  8
01
 10
2193.073042194726
 20
-585.5981885140098
 30
0.0000000001127427
  0
VERTEX
  5
1B021
  8
01
 10
2193.085388454915
 20
-585.6061132480407
 30
0.0000000001127427
  0
VERTEX
  5
1B022
  8
01
 10
2193.097311986928
 20
-585.614217296016
 30
0.0000000001127427
  0
VERTEX
  5
1B023
  8
01
 10
2193.108812514911
 20
-585.622500005251
 30
0.0000000001127427
  0
VERTEX
  5
1B024
  8
01
 10
2193.119889763012
 20
-585.6309607230614
 30
0.0000000001127427
  0
VERTEX
  5
1B025
  8
01
 10
2193.130543455379
 20
-585.6395987967621
 30
0.0000000001127427
  0
VERTEX
  5
1B026
  8
01
 10
2193.140773316158
 20
-585.6484135736687
 30
0.0000000001127427
  0
VERTEX
  5
1B027
  8
01
 10
2193.150579069496
 20
-585.6574044010964
 30
0.0000000001127427
  0
VERTEX
  5
1B028
  8
01
 10
2193.159960439542
 20
-585.6665706263607
 30
0.0000000001127427
  0
VERTEX
  5
1B029
  8
01
 10
2193.168917150442
 20
-585.6759115967768
 30
0.0000000001127427
  0
VERTEX
  5
1B02A
  8
01
 10
2193.177448926344
 20
-585.6854266596603
 30
0.0000000001127427
  0
VERTEX
  5
1B02B
  8
01
 10
2193.185555491396
 20
-585.695115162326
 30
0.0000000001127427
  0
VERTEX
  5
1B02C
  8
01
 10
2193.193236569744
 20
-585.7049764520899
 30
0.0000000001127427
  0
VERTEX
  5
1B02D
  8
01
 10
2193.200482841291
 20
-585.7149896242979
 30
0.0000000001127427
  0
VERTEX
  5
1B02E
  8
01
 10
2193.207287403735
 20
-585.7251335294608
 30
0.0000000001127427
  0
VERTEX
  5
1B02F
  8
01
 10
2193.213653607914
 20
-585.7354071476411
 30
0.0000000001127427
  0
VERTEX
  5
1B030
  8
01
 10
2193.219584804669
 20
-585.745809458901
 30
0.0000000001127427
  0
VERTEX
  5
1B031
  8
01
 10
2193.225084344836
 20
-585.7563394433029
 30
0.0000000001127427
  0
VERTEX
  5
1B032
  8
01
 10
2193.230155579257
 20
-585.766996080909
 30
0.0000000001127427
  0
VERTEX
  5
1B033
  8
01
 10
2193.234801858769
 20
-585.777778351782
 30
0.0000000001127427
  0
VERTEX
  5
1B034
  8
01
 10
2193.239026534211
 20
-585.7886852359837
 30
0.0000000001127427
  0
VERTEX
  5
1B035
  8
01
 10
2193.242832956423
 20
-585.7997157135768
 30
0.0000000001127427
  0
VERTEX
  5
1B036
  8
01
 10
2193.246224476244
 20
-585.8108687646236
 30
0.0000000001127427
  0
VERTEX
  5
1B037
  8
01
 10
2193.249204444513
 20
-585.8221433691863
 30
0.0000000001127427
  0
VERTEX
  5
1B038
  8
01
 10
2193.251776212067
 20
-585.8335385073273
 30
0.0000000001127427
  0
VERTEX
  5
1B039
  8
01
 10
2193.253943129748
 20
-585.8450531591087
 30
0.0000000001127427
  0
VERTEX
  5
1B03A
  8
01
 10
2193.255708548394
 20
-585.8566863045933
 30
0.0000000001127427
  0
VERTEX
  5
1B03B
  8
01
 10
2193.257075818842
 20
-585.868436923843
 30
0.0000000001127427
  0
VERTEX
  5
1B03C
  8
01
 10
2193.258048291933
 20
-585.8803039969204
 30
0.0000000001127427
  0
VERTEX
  5
1B03D
  8
01
 10
2193.258629318506
 20
-585.8922865038877
 30
0.0000000001127427
  0
VERTEX
  5
1B03E
  8
01
 10
2193.2588222494
 20
-585.9043834248072
 30
0.0000000001127427
  0
SEQEND
  5
1B2D3
  8
01
  0
POLYLINE
  5
1AABA
  8
01
 66
     1
 10
0.0
 20
0.0
 30
0.0000000001127427
  0
VERTEX
  5
1B03F
  8
01
 10
2193.2588222494
 20
-603.0289272143508
 30
0.0000000001127427
  0
VERTEX
  5
1B040
  8
01
 10
2193.258624150845
 20
-603.0410318788054
 30
0.0000000001127427
  0
VERTEX
  5
1B041
  8
01
 10
2193.258028587153
 20
-603.0530379166028
 30
0.0000000001127427
  0
VERTEX
  5
1B042
  8
01
 10
2193.257033656288
 20
-603.0649417379618
 30
0.0000000001127427
  0
VERTEX
  5
1B043
  8
01
 10
2193.25563745621
 20
-603.076739753101
 30
0.0000000001127427
  0
VERTEX
  5
1B044
  8
01
 10
2193.253838084882
 20
-603.0884283722389
 30
0.0000000001127427
  0
VERTEX
  5
1B045
  8
01
 10
2193.251633640264
 20
-603.1000040055939
 30
0.0000000001127427
  0
VERTEX
  5
1B046
  8
01
 10
2193.249022220318
 20
-603.1114630633845
 30
0.0000000001127427
  0
VERTEX
  5
1B047
  8
01
 10
2193.246001923006
 20
-603.1228019558291
 30
0.0000000001127427
  0
VERTEX
  5
1B048
  8
01
 10
2193.242570846289
 20
-603.1340170931467
 30
0.0000000001127427
  0
VERTEX
  5
1B049
  8
01
 10
2193.23872708813
 20
-603.1451048855553
 30
0.0000000001127427
  0
VERTEX
  5
1B04A
  8
01
 10
2193.234468746489
 20
-603.1560617432735
 30
0.0000000001127427
  0
VERTEX
  5
1B04B
  8
01
 10
2193.229793919328
 20
-603.16688407652
 30
0.0000000001127427
  0
VERTEX
  5
1B04C
  8
01
 10
2193.224700704609
 20
-603.1775682955132
 30
0.0000000001127427
  0
VERTEX
  5
1B04D
  8
01
 10
2193.219187200294
 20
-603.1881108104716
 30
0.0000000001127427
  0
VERTEX
  5
1B04E
  8
01
 10
2193.213251504344
 20
-603.1985080316138
 30
0.0000000001127427
  0
VERTEX
  5
1B04F
  8
01
 10
2193.206891714721
 20
-603.2087563691583
 30
0.0000000001127427
  0
VERTEX
  5
1B050
  8
01
 10
2193.200105929386
 20
-603.2188522333234
 30
0.0000000001127427
  0
VERTEX
  5
1B051
  8
01
 10
2193.1928922463
 20
-603.228792034328
 30
0.0000000001127427
  0
VERTEX
  5
1B052
  8
01
 10
2193.185238957709
 20
-603.2385775617337
 30
0.0000000001127427
  0
VERTEX
  5
1B053
  8
01
 10
2193.177137868014
 20
-603.2482109863038
 30
0.0000000001127427
  0
VERTEX
  5
1B054
  8
01
 10
2193.168592343412
 20
-603.2576892900582
 30
0.0000000001127427
  0
VERTEX
  5
1B055
  8
01
 10
2193.159605750101
 20
-603.2670094550169
 30
0.0000000001127427
  0
VERTEX
  5
1B056
  8
01
 10
2193.15018145428
 20
-603.2761684632004
 30
0.0000000001127427
  0
VERTEX
  5
1B057
  8
01
 10
2193.140322822145
 20
-603.2851632966283
 30
0.0000000001127427
  0
VERTEX
  5
1B058
  8
01
 10
2193.130033219896
 20
-603.293990937321
 30
0.0000000001127427
  0
VERTEX
  5
1B059
  8
01
 10
2193.119316013729
 20
-603.3026483672985
 30
0.0000000001127427
  0
VERTEX
  5
1B05A
  8
01
 10
2193.108174569842
 20
-603.3111325685809
 30
0.0000000001127427
  0
VERTEX
  5
1B05B
  8
01
 10
2193.096612254434
 20
-603.3194405231881
 30
0.0000000001127427
  0
VERTEX
  5
1B05C
  8
01
 10
2193.084632433702
 20
-603.3275692131405
 30
0.0000000001127427
  0
VERTEX
  5
1B05D
  8
01
 10
2193.072238473843
 20
-603.335515620458
 30
0.0000000001127427
  0
VERTEX
  5
1B05E
  8
01
 10
2193.059433741057
 20
-603.3432767271606
 30
0.0000000001127427
  0
VERTEX
  5
1B05F
  8
01
 10
2193.04622160154
 20
-603.3508495152685
 30
0.0000000001127427
  0
VERTEX
  5
1B060
  8
01
 10
2193.03260542149
 20
-603.3582309668019
 30
0.0000000001127427
  0
VERTEX
  5
1B061
  8
01
 10
2193.018588567106
 20
-603.3654180637806
 30
0.0000000001127427
  0
VERTEX
  5
1B062
  8
01
 10
2193.004174404585
 20
-603.3724077882249
 30
0.0000000001127427
  0
VERTEX
  5
1B063
  8
01
 10
2192.989366300125
 20
-603.3791971221549
 30
0.0000000001127427
  0
VERTEX
  5
1B064
  8
01
 10
2192.974154060897
 20
-603.3857910786719
 30
0.0000000001127427
  0
VERTEX
  5
1B065
  8
01
 10
2192.95853217883
 20
-603.3921964958574
 30
0.0000000001127427
  0
VERTEX
  5
1B066
  8
01
 10
2192.942511047258
 20
-603.3984130932014
 30
0.0000000001127427
  0
VERTEX
  5
1B067
  8
01
 10
2192.926101059512
 20
-603.4044405901943
 30
0.0000000001127427
  0
VERTEX
  5
1B068
  8
01
 10
2192.909312608928
 20
-603.4102787063262
 30
0.0000000001127427
  0
VERTEX
  5
1B069
  8
01
 10
2192.892156088838
 20
-603.4159271610872
 30
0.0000000001127427
  0
VERTEX
  5
1B06A
  8
01
 10
2192.874641892575
 20
-603.4213856739674
 30
0.0000000001127427
  0
VERTEX
  5
1B06B
  8
01
 10
2192.856780413473
 20
-603.426653964457
 30
0.0000000001127427
  0
VERTEX
  5
1B06C
  8
01
 10
2192.838582044866
 20
-603.4317317520462
 30
0.0000000001127427
  0
VERTEX
  5
1B06D
  8
01
 10
2192.820057180086
 20
-603.4366187562252
 30
0.0000000001127427
  0
VERTEX
  5
1B06E
  8
01
 10
2192.801216212467
 20
-603.441314696484
 30
0.0000000001127427
  0
VERTEX
  5
1B06F
  8
01
 10
2192.782069535342
 20
-603.4458192923128
 30
0.0000000001127427
  0
VERTEX
  5
1B070
  8
01
 10
2192.762627542044
 20
-603.4501322632018
 30
0.0000000001127427
  0
VERTEX
  5
1B071
  8
01
 10
2192.742900625908
 20
-603.4542533286412
 30
0.0000000001127427
  0
VERTEX
  5
1B072
  8
01
 10
2192.722899180265
 20
-603.458182208121
 30
0.0000000001127427
  0
VERTEX
  5
1B073
  8
01
 10
2192.702633598451
 20
-603.4619186211315
 30
0.0000000001127427
  0
VERTEX
  5
1B074
  8
01
 10
2192.682114273797
 20
-603.465462287163
 30
0.0000000001127427
  0
VERTEX
  5
1B075
  8
01
 10
2192.661351599637
 20
-603.4688129257053
 30
0.0000000001127427
  0
VERTEX
  5
1B076
  8
01
 10
2192.64036032141
 20
-603.4719743564063
 30
0.0000000001127427
  0
VERTEX
  5
1B077
  8
01
 10
2192.619154859987
 20
-603.4749509260488
 30
0.0000000001127427
  0
VERTEX
  5
1B078
  8
01
 10
2192.597745121846
 20
-603.4777431448257
 30
0.0000000001127427
  0
VERTEX
  5
1B079
  8
01
 10
2192.576141013466
 20
-603.4803515229296
 30
0.0000000001127427
  0
VERTEX
  5
1B07A
  8
01
 10
2192.554352441326
 20
-603.4827765705535
 30
0.0000000001127427
  0
VERTEX
  5
1B07B
  8
01
 10
2192.532389311906
 20
-603.4850187978897
 30
0.0000000001127427
  0
VERTEX
  5
1B07C
  8
01
 10
2192.510261531686
 20
-603.4870787151314
 30
0.0000000001127427
  0
VERTEX
  5
1B07D
  8
01
 10
2192.487979007142
 20
-603.4889568324712
 30
0.0000000001127427
  0
VERTEX
  5
1B07E
  8
01
 10
2192.465551644756
 20
-603.4906536601019
 30
0.0000000001127427
  0
VERTEX
  5
1B07F
  8
01
 10
2192.442989351006
 20
-603.4921697082162
 30
0.0000000001127427
  0
VERTEX
  5
1B080
  8
01
 10
2192.42030203237
 20
-603.4935054870069
 30
0.0000000001127427
  0
VERTEX
  5
1B081
  8
01
 10
2192.39749959533
 20
-603.4946615066668
 30
0.0000000001127427
  0
VERTEX
  5
1B082
  8
01
 10
2192.374591946363
 20
-603.4956382773886
 30
0.0000000001127427
  0
VERTEX
  5
1B083
  8
01
 10
2192.351588991949
 20
-603.4964363093651
 30
0.0000000001127427
  0
VERTEX
  5
1B084
  8
01
 10
2192.328500638566
 20
-603.4970561127891
 30
0.0000000001127427
  0
VERTEX
  5
1B085
  8
01
 10
2192.305336792694
 20
-603.4974981978532
 30
0.0000000001127427
  0
VERTEX
  5
1B086
  8
01
 10
2192.282107360812
 20
-603.4977630747504
 30
0.0000000001127427
  0
VERTEX
  5
1B087
  8
01
 10
2192.2588222494
 20
-603.4978512536733
 30
0.0000000001127427
  0
SEQEND
  5
1B2D4
  8
01
  0
LINE
  5
1AABB
  8
01
 10
2192.2588222494
 20
-603.4978512536733
 30
0.0000000001127427
 11
2179.7588222494
 21
-603.4978512536733
 31
0.0000000001127427
  0
LINE
  5
1AABC
  8
01
 10
2179.7588222494
 20
-585.4354593854849
 30
0.0000000001127427
 11
2192.2588222494
 21
-585.4354593854849
 31
0.0000000001127427
  0
POLYLINE
  5
1AABD
  8
01
 66
     1
 10
0.0
 20
0.0
 30
0.0000000001127427
  0
VERTEX
  5
1B088
  8
01
 10
2179.7588222494
 20
-585.4354593854849
 30
0.0000000001127427
  0
VERTEX
  5
1B089
  8
01
 10
2179.735976082491
 20
-585.4355644896616
 30
0.0000000001127427
  0
VERTEX
  5
1B08A
  8
01
 10
2179.713180148705
 20
-585.4358789296359
 30
0.0000000001127427
  0
VERTEX
  5
1B08B
  8
01
 10
2179.690443840992
 20
-585.4364013965737
 30
0.0000000001127427
  0
VERTEX
  5
1B08C
  8
01
 10
2179.667776552302
 20
-585.4371305816413
 30
0.0000000001127427
  0
VERTEX
  5
1B08D
  8
01
 10
2179.645187675584
 20
-585.4380651760049
 30
0.0000000001127427
  0
VERTEX
  5
1B08E
  8
01
 10
2179.622686603787
 20
-585.4392038708303
 30
0.0000000001127427
  0
VERTEX
  5
1B08F
  8
01
 10
2179.60028272986
 20
-585.4405453572839
 30
0.0000000001127427
  0
VERTEX
  5
1B090
  8
01
 10
2179.577985446754
 20
-585.4420883265318
 30
0.0000000001127427
  0
VERTEX
  5
1B091
  8
01
 10
2179.555804147416
 20
-585.4438314697398
 30
0.0000000001127427
  0
VERTEX
  5
1B092
  8
01
 10
2179.533748224797
 20
-585.4457734780747
 30
0.0000000001127427
  0
VERTEX
  5
1B093
  8
01
 10
2179.511827071846
 20
-585.4479130427019
 30
0.0000000001127427
  0
VERTEX
  5
1B094
  8
01
 10
2179.490050081512
 20
-585.450248854788
 30
0.0000000001127427
  0
VERTEX
  5
1B095
  8
01
 10
2179.468426646744
 20
-585.4527796054988
 30
0.0000000001127427
  0
VERTEX
  5
1B096
  8
01
 10
2179.446966160493
 20
-585.4555039860006
 30
0.0000000001127427
  0
VERTEX
  5
1B097
  8
01
 10
2179.425678015707
 20
-585.4584206874596
 30
0.0000000001127427
  0
VERTEX
  5
1B098
  8
01
 10
2179.404571605335
 20
-585.4615284010417
 30
0.0000000001127427
  0
VERTEX
  5
1B099
  8
01
 10
2179.383656322328
 20
-585.4648258179132
 30
0.0000000001127427
  0
VERTEX
  5
1B09A
  8
01
 10
2179.362941559633
 20
-585.4683116292401
 30
0.0000000001127427
  0
VERTEX
  5
1B09B
  8
01
 10
2179.342453172474
 20
-585.4719812210271
 30
0.0000000001127427
  0
VERTEX
  5
1B09C
  8
01
 10
2179.322215032425
 20
-585.4758291930817
 30
0.0000000001127427
  0
VERTEX
  5
1B09D
  8
01
 10
2179.30223355697
 20
-585.4798530572745
 30
0.0000000001127427
  0
VERTEX
  5
1B09E
  8
01
 10
2179.282515163589
 20
-585.4840503254761
 30
0.0000000001127427
  0
VERTEX
  5
1B09F
  8
01
 10
2179.263066269767
 20
-585.4884185095567
 30
0.0000000001127427
  0
VERTEX
  5
1B0A0
  8
01
 10
2179.243893292984
 20
-585.4929551213872
 30
0.0000000001127427
  0
VERTEX
  5
1B0A1
  8
01
 10
2179.225002650723
 20
-585.4976576728378
 30
0.0000000001127427
  0
VERTEX
  5
1B0A2
  8
01
 10
2179.206400760466
 20
-585.5025236757793
 30
0.0000000001127427
  0
VERTEX
  5
1B0A3
  8
01
 10
2179.188094039695
 20
-585.5075506420819
 30
0.0000000001127427
  0
VERTEX
  5
1B0A4
  8
01
 10
2179.170088905891
 20
-585.5127360836166
 30
0.0000000001127427
  0
VERTEX
  5
1B0A5
  8
01
 10
2179.152391776538
 20
-585.5180775122534
 30
0.0000000001127427
  0
VERTEX
  5
1B0A6
  8
01
 10
2179.135009069118
 20
-585.5235724398631
 30
0.0000000001127427
  0
VERTEX
  5
1B0A7
  8
01
 10
2179.117947201113
 20
-585.5292183783162
 30
0.0000000001127427
  0
VERTEX
  5
1B0A8
  8
01
 10
2179.101212590003
 20
-585.5350128394831
 30
0.0000000001127427
  0
VERTEX
  5
1B0A9
  8
01
 10
2179.084811653274
 20
-585.5409533352346
 30
0.0000000001127427
  0
VERTEX
  5
1B0AA
  8
01
 10
2179.068750808404
 20
-585.5470373774409
 30
0.0000000001127427
  0
VERTEX
  5
1B0AB
  8
01
 10
2179.053036472878
 20
-585.5532624779726
 30
0.0000000001127427
  0
VERTEX
  5
1B0AC
  8
01
 10
2179.037675064178
 20
-585.5596261487004
 30
0.0000000001127427
  0
VERTEX
  5
1B0AD
  8
01
 10
2179.022696837484
 20
-585.5661113078329
 30
0.0000000001127427
  0
VERTEX
  5
1B0AE
  8
01
 10
2179.008127430561
 20
-585.572701779488
 30
0.0000000001127427
  0
VERTEX
  5
1B0AF
  8
01
 10
2178.993966334766
 20
-585.5793964344001
 30
0.0000000001127427
  0
VERTEX
  5
1B0B0
  8
01
 10
2178.980213041455
 20
-585.5861941433038
 30
0.0000000001127427
  0
VERTEX
  5
1B0B1
  8
01
 10
2178.966867041987
 20
-585.5930937769334
 30
0.0000000001127427
  0
VERTEX
  5
1B0B2
  8
01
 10
2178.953927827717
 20
-585.6000942060234
 30
0.0000000001127427
  0
VERTEX
  5
1B0B3
  8
01
 10
2178.941394890001
 20
-585.6071943013083
 30
0.0000000001127427
  0
VERTEX
  5
1B0B4
  8
01
 10
2178.929267720197
 20
-585.6143929335223
 30
0.0000000001127427
  0
VERTEX
  5
1B0B5
  8
01
 10
2178.917545809662
 20
-585.6216889733998
 30
0.0000000001127427
  0
VERTEX
  5
1B0B6
  8
01
 10
2178.906228649751
 20
-585.6290812916757
 30
0.0000000001127427
  0
VERTEX
  5
1B0B7
  8
01
 10
2178.895315731822
 20
-585.636568759084
 30
0.0000000001127427
  0
VERTEX
  5
1B0B8
  8
01
 10
2178.884806547233
 20
-585.6441502463592
 30
0.0000000001127427
  0
VERTEX
  5
1B0B9
  8
01
 10
2178.874700587338
 20
-585.6518246242358
 30
0.0000000001127427
  0
VERTEX
  5
1B0BA
  8
01
 10
2178.864997343496
 20
-585.6595907634481
 30
0.0000000001127427
  0
VERTEX
  5
1B0BB
  8
01
 10
2178.855696307064
 20
-585.6674475347309
 30
0.0000000001127427
  0
VERTEX
  5
1B0BC
  8
01
 10
2178.846796969396
 20
-585.6753938088182
 30
0.0000000001127427
  0
VERTEX
  5
1B0BD
  8
01
 10
2178.838298821851
 20
-585.6834284564446
 30
0.0000000001127427
  0
VERTEX
  5
1B0BE
  8
01
 10
2178.830201355785
 20
-585.6915503483445
 30
0.0000000001127427
  0
VERTEX
  5
1B0BF
  8
01
 10
2178.822520724533
 20
-585.6997474295692
 30
0.0000000001127427
  0
VERTEX
  5
1B0C0
  8
01
 10
2178.815273836781
 20
-585.7080064466268
 30
0.0000000001127427
  0
VERTEX
  5
1B0C1
  8
01
 10
2178.808461316918
 20
-585.7163244724358
 30
0.0000000001127427
  0
VERTEX
  5
1B0C2
  8
01
 10
2178.802083789331
 20
-585.7246985799159
 30
0.0000000001127427
  0
VERTEX
  5
1B0C3
  8
01
 10
2178.79614187841
 20
-585.733125841986
 30
0.0000000001127427
  0
VERTEX
  5
1B0C4
  8
01
 10
2178.79063620854
 20
-585.7416033315651
 30
0.0000000001127427
  0
VERTEX
  5
1B0C5
  8
01
 10
2178.785567404112
 20
-585.7501281215726
 30
0.0000000001127427
  0
VERTEX
  5
1B0C6
  8
01
 10
2178.780936089511
 20
-585.7586972849276
 30
0.0000000001127427
  0
VERTEX
  5
1B0C7
  8
01
 10
2178.776742889127
 20
-585.767307894549
 30
0.0000000001127427
  0
VERTEX
  5
1B0C8
  8
01
 10
2178.772988427346
 20
-585.7759570233562
 30
0.0000000001127427
  0
VERTEX
  5
1B0C9
  8
01
 10
2178.769673328558
 20
-585.7846417442684
 30
0.0000000001127427
  0
VERTEX
  5
1B0CA
  8
01
 10
2178.766798217149
 20
-585.7933591302044
 30
0.0000000001127427
  0
VERTEX
  5
1B0CB
  8
01
 10
2178.764363717509
 20
-585.8021062540835
 30
0.0000000001127427
  0
VERTEX
  5
1B0CC
  8
01
 10
2178.762370454024
 20
-585.810880188825
 30
0.0000000001127427
  0
VERTEX
  5
1B0CD
  8
01
 10
2178.760819051083
 20
-585.8196780073476
 30
0.0000000001127427
  0
VERTEX
  5
1B0CE
  8
01
 10
2178.759710133073
 20
-585.828496782571
 30
0.0000000001127427
  0
VERTEX
  5
1B0CF
  8
01
 10
2178.759044324383
 20
-585.837333587414
 30
0.0000000001127427
  0
VERTEX
  5
1B0D0
  8
01
 10
2178.7588222494
 20
-585.8461854947958
 30
0.0000000001127427
  0
SEQEND
  5
1B2D5
  8
01
  0
POLYLINE
  5
1AABE
  8
01
 66
     1
 10
0.0
 20
0.0
 30
0.0000000001127427
  0
VERTEX
  5
1B0D1
  8
01
 10
2179.7588222494
 20
-603.4978512536733
 30
0.0000000001127427
  0
VERTEX
  5
1B0D2
  8
01
 10
2179.735976082491
 20
-603.4977461494966
 30
0.0000000001127427
  0
VERTEX
  5
1B0D3
  8
01
 10
2179.713180148705
 20
-603.4974317095223
 30
0.0000000001127427
  0
VERTEX
  5
1B0D4
  8
01
 10
2179.690443840992
 20
-603.4969092425845
 30
0.0000000001127427
  0
VERTEX
  5
1B0D5
  8
01
 10
2179.667776552302
 20
-603.4961800575169
 30
0.0000000001127427
  0
VERTEX
  5
1B0D6
  8
01
 10
2179.645187675584
 20
-603.4952454631533
 30
0.0000000001127427
  0
VERTEX
  5
1B0D7
  8
01
 10
2179.622686603787
 20
-603.4941067683278
 30
0.0000000001127427
  0
VERTEX
  5
1B0D8
  8
01
 10
2179.60028272986
 20
-603.4927652818742
 30
0.0000000001127427
  0
VERTEX
  5
1B0D9
  8
01
 10
2179.577985446754
 20
-603.4912223126264
 30
0.0000000001127427
  0
VERTEX
  5
1B0DA
  8
01
 10
2179.555804147416
 20
-603.4894791694181
 30
0.0000000001127427
  0
VERTEX
  5
1B0DB
  8
01
 10
2179.533748224797
 20
-603.4875371610834
 30
0.0000000001127427
  0
VERTEX
  5
1B0DC
  8
01
 10
2179.511827071846
 20
-603.4853975964561
 30
0.0000000001127427
  0
VERTEX
  5
1B0DD
  8
01
 10
2179.490050081512
 20
-603.4830617843701
 30
0.0000000001127427
  0
VERTEX
  5
1B0DE
  8
01
 10
2179.468426646744
 20
-603.4805310336593
 30
0.0000000001127427
  0
VERTEX
  5
1B0DF
  8
01
 10
2179.446966160493
 20
-603.4778066531574
 30
0.0000000001127427
  0
VERTEX
  5
1B0E0
  8
01
 10
2179.425678015707
 20
-603.4748899516985
 30
0.0000000001127427
  0
VERTEX
  5
1B0E1
  8
01
 10
2179.404571605335
 20
-603.4717822381162
 30
0.0000000001127427
  0
VERTEX
  5
1B0E2
  8
01
 10
2179.383656322328
 20
-603.4684848212448
 30
0.0000000001127427
  0
VERTEX
  5
1B0E3
  8
01
 10
2179.362941559633
 20
-603.4649990099178
 30
0.0000000001127427
  0
VERTEX
  5
1B0E4
  8
01
 10
2179.342453172474
 20
-603.4613294181308
 30
0.0000000001127427
  0
VERTEX
  5
1B0E5
  8
01
 10
2179.322215032425
 20
-603.4574814460763
 30
0.0000000001127427
  0
VERTEX
  5
1B0E6
  8
01
 10
2179.30223355697
 20
-603.4534575818835
 30
0.0000000001127427
  0
VERTEX
  5
1B0E7
  8
01
 10
2179.282515163589
 20
-603.4492603136819
 30
0.0000000001127427
  0
VERTEX
  5
1B0E8
  8
01
 10
2179.263066269767
 20
-603.4448921296013
 30
0.0000000001127427
  0
VERTEX
  5
1B0E9
  8
01
 10
2179.243893292984
 20
-603.4403555177707
 30
0.0000000001127427
  0
VERTEX
  5
1B0EA
  8
01
 10
2179.225002650723
 20
-603.4356529663202
 30
0.0000000001127427
  0
VERTEX
  5
1B0EB
  8
01
 10
2179.206400760466
 20
-603.4307869633786
 30
0.0000000001127427
  0
VERTEX
  5
1B0EC
  8
01
 10
2179.188094039695
 20
-603.425759997076
 30
0.0000000001127427
  0
VERTEX
  5
1B0ED
  8
01
 10
2179.170088905891
 20
-603.4205745555414
 30
0.0000000001127427
  0
VERTEX
  5
1B0EE
  8
01
 10
2179.152391776538
 20
-603.4152331269046
 30
0.0000000001127427
  0
VERTEX
  5
1B0EF
  8
01
 10
2179.135009069118
 20
-603.4097381992949
 30
0.0000000001127427
  0
VERTEX
  5
1B0F0
  8
01
 10
2179.117947201113
 20
-603.4040922608418
 30
0.0000000001127427
  0
VERTEX
  5
1B0F1
  8
01
 10
2179.101212590003
 20
-603.3982977996749
 30
0.0000000001127427
  0
VERTEX
  5
1B0F2
  8
01
 10
2179.084811653274
 20
-603.3923573039234
 30
0.0000000001127427
  0
VERTEX
  5
1B0F3
  8
01
 10
2179.068750808404
 20
-603.3862732617171
 30
0.0000000001127427
  0
VERTEX
  5
1B0F4
  8
01
 10
2179.053036472878
 20
-603.3800481611854
 30
0.0000000001127427
  0
VERTEX
  5
1B0F5
  8
01
 10
2179.037675064178
 20
-603.3736844904575
 30
0.0000000001127427
  0
VERTEX
  5
1B0F6
  8
01
 10
2179.022696837484
 20
-603.3671993313251
 30
0.0000000001127427
  0
VERTEX
  5
1B0F7
  8
01
 10
2179.008127430561
 20
-603.3606088596699
 30
0.0000000001127427
  0
VERTEX
  5
1B0F8
  8
01
 10
2178.993966334766
 20
-603.3539142047579
 30
0.0000000001127427
  0
VERTEX
  5
1B0F9
  8
01
 10
2178.980213041455
 20
-603.3471164958542
 30
0.0000000001127427
  0
VERTEX
  5
1B0FA
  8
01
 10
2178.966867041987
 20
-603.3402168622246
 30
0.0000000001127427
  0
VERTEX
  5
1B0FB
  8
01
 10
2178.953927827717
 20
-603.3332164331346
 30
0.0000000001127427
  0
VERTEX
  5
1B0FC
  8
01
 10
2178.941394890001
 20
-603.3261163378497
 30
0.0000000001127427
  0
VERTEX
  5
1B0FD
  8
01
 10
2178.929267720197
 20
-603.3189177056357
 30
0.0000000001127427
  0
VERTEX
  5
1B0FE
  8
01
 10
2178.917545809662
 20
-603.3116216657581
 30
0.0000000001127427
  0
VERTEX
  5
1B0FF
  8
01
 10
2178.906228649751
 20
-603.3042293474823
 30
0.0000000001127427
  0
VERTEX
  5
1B100
  8
01
 10
2178.895315731822
 20
-603.296741880074
 30
0.0000000001127427
  0
VERTEX
  5
1B101
  8
01
 10
2178.884806547233
 20
-603.2891603927987
 30
0.0000000001127427
  0
VERTEX
  5
1B102
  8
01
 10
2178.874700587338
 20
-603.2814860149222
 30
0.0000000001127427
  0
VERTEX
  5
1B103
  8
01
 10
2178.864997343496
 20
-603.2737198757098
 30
0.0000000001127427
  0
VERTEX
  5
1B104
  8
01
 10
2178.855696307064
 20
-603.2658631044271
 30
0.0000000001127427
  0
VERTEX
  5
1B105
  8
01
 10
2178.846796969396
 20
-603.2579168303398
 30
0.0000000001127427
  0
VERTEX
  5
1B106
  8
01
 10
2178.838298821851
 20
-603.2498821827133
 30
0.0000000001127427
  0
VERTEX
  5
1B107
  8
01
 10
2178.830201355785
 20
-603.2417602908134
 30
0.0000000001127427
  0
VERTEX
  5
1B108
  8
01
 10
2178.822520724533
 20
-603.2335632095887
 30
0.0000000001127427
  0
VERTEX
  5
1B109
  8
01
 10
2178.815273836781
 20
-603.2253041925312
 30
0.0000000001127427
  0
VERTEX
  5
1B10A
  8
01
 10
2178.808461316918
 20
-603.2169861667222
 30
0.0000000001127427
  0
VERTEX
  5
1B10B
  8
01
 10
2178.802083789331
 20
-603.2086120592421
 30
0.0000000001127427
  0
VERTEX
  5
1B10C
  8
01
 10
2178.79614187841
 20
-603.2001847971721
 30
0.0000000001127427
  0
VERTEX
  5
1B10D
  8
01
 10
2178.79063620854
 20
-603.1917073075929
 30
0.0000000001127427
  0
VERTEX
  5
1B10E
  8
01
 10
2178.785567404112
 20
-603.1831825175854
 30
0.0000000001127427
  0
VERTEX
  5
1B10F
  8
01
 10
2178.780936089511
 20
-603.1746133542305
 30
0.0000000001127427
  0
VERTEX
  5
1B110
  8
01
 10
2178.776742889127
 20
-603.166002744609
 30
0.0000000001127427
  0
VERTEX
  5
1B111
  8
01
 10
2178.772988427346
 20
-603.1573536158019
 30
0.0000000001127427
  0
VERTEX
  5
1B112
  8
01
 10
2178.769673328558
 20
-603.1486688948899
 30
0.0000000001127427
  0
VERTEX
  5
1B113
  8
01
 10
2178.766798217149
 20
-603.1399515089538
 30
0.0000000001127427
  0
VERTEX
  5
1B114
  8
01
 10
2178.764363717509
 20
-603.1312043850746
 30
0.0000000001127427
  0
VERTEX
  5
1B115
  8
01
 10
2178.762370454024
 20
-603.1224304503332
 30
0.0000000001127427
  0
VERTEX
  5
1B116
  8
01
 10
2178.760819051083
 20
-603.1136326318106
 30
0.0000000001127427
  0
VERTEX
  5
1B117
  8
01
 10
2178.759710133073
 20
-603.1048138565872
 30
0.0000000001127427
  0
VERTEX
  5
1B118
  8
01
 10
2178.759044324383
 20
-603.0959770517442
 30
0.0000000001127427
  0
VERTEX
  5
1B119
  8
01
 10
2178.7588222494
 20
-603.0871251443624
 30
0.0000000001127427
  0
SEQEND
  5
1B2D6
  8
01
  0
LINE
  5
1AABF
  8
01
 10
2178.7588222494
 20
-585.8461854947958
 30
0.0000000001127427
 11
2178.7588222494
 21
-603.0871251443624
 31
0.0000000001127427
  0
LINE
  5
1AAC0
  8
01
 10
2178.7588222494
 20
-603.0871251443624
 30
0.0000000001127427
 11
2178.7588222494
 21
-603.216655319579
 31
0.0000000001127427
  0
LINE
  5
1AAC1
  8
01
 10
2371.258846804054
 20
-348.1666553206004
 30
0.0000000001127424
 11
2410.258846804054
 21
-348.1666553206002
 31
0.0000000001127424
  0
LINE
  5
1AAC2
  8
01
 10
2410.758846804054
 20
-354.4666553206004
 30
0.0000000001127424
 11
2370.758846804054
 21
-354.4666553206008
 31
0.0000000001127424
  0
LINE
  5
1AAC3
  8
01
 10
2410.758846804054
 20
-354.4666553206004
 30
0.0000000001127424
 11
2410.758846804054
 21
-348.6666553206002
 31
0.0000000001127424
  0
ARC
  5
1AAC4
  8
01
 10
2410.258846804054
 20
-348.6666553206004
 30
0.0000000001127424
 40
0.5
 50
0.0
 51
90.0
  0
LINE
  5
1AAC5
  8
01
 10
2370.758846804054
 20
-354.4666553206008
 30
0.0000000001127424
 11
2370.758846804054
 21
-348.6666553206004
 31
0.0000000001127424
  0
ARC
  5
1AAC6
  8
01
 10
2371.258846804054
 20
-348.6666553206004
 30
0.0000000001127424
 40
0.5
 50
90.0
 51
180.0
  0
LINE
  5
1AAC7
  8
01
 10
2387.258859025267
 20
-346.9666586538007
 30
0.0000000000565071
 11
2381.508859025262
 21
-346.9666586537995
 31
0.0000000000565071
  0
LINE
  5
1AAC8
  8
01
 10
2388.258859025269
 20
-333.466635709594
 30
0.0000000000565071
 11
2388.258859025267
 21
-345.9666586538007
 31
0.0000000000565071
  0
LINE
  5
1AAC9
  8
01
 10
2393.258859025269
 20
-333.4666357095958
 30
0.0000000000565071
 11
2393.258859025269
 21
-345.9666586537988
 31
0.0000000000565071
  0
ARC
  5
1AACA
  8
01
 10
2392.25885902527
 20
-333.466635709594
 30
0.0000000000565071
 40
1.0
 50
0.0000000000521102
 51
90.0
  0
ARC
  5
1AACB
  8
01
 10
2389.25885902527
 20
-333.466635709594
 30
0.0000000000565071
 40
1.0
 50
90.0
 51
180.0
  0
LINE
  5
1AACC
  8
01
 10
2392.258859025269
 20
-332.4666357095922
 30
0.0000000000565071
 11
2389.25885902527
 21
-332.4666357095922
 31
0.0000000000565071
  0
LINE
  5
1AACD
  8
01
 10
2400.008859025261
 20
-346.9666586537988
 30
0.0000000000565071
 11
2394.258859025269
 21
-346.9666586537988
 31
0.0000000000565071
  0
ARC
  5
1AACE
  8
01
 10
2394.25885902527
 20
-345.9666586537988
 30
0.0000000000565071
 40
1.0
 50
180.0
 51
270.0
  0
ARC
  5
1AACF
  8
01
 10
2387.258859025268
 20
-345.9666586538007
 30
0.0000000000565071
 40
1.0
 50
270.0
 51
0.0
  0
LINE
  5
1AAD0
  8
01
 10
2381.008859025261
 20
-347.4666586537993
 30
0.0000000001127646
 11
2381.008859025261
 21
-348.1666553206002
 31
0.0000000001127424
  0
ARC
  5
1AAD1
  8
01
 10
2381.508859025262
 20
-347.4666586537993
 30
0.0000000001127646
 40
0.5
 50
90.0
 51
180.0
  0
LINE
  5
1AAD2
  8
01
 10
2400.508859025261
 20
-347.4666586537993
 30
0.0000000001127646
 11
2400.508859025261
 21
-348.1666553206002
 31
0.0000000001127424
  0
ARC
  5
1AAD3
  8
01
 10
2400.008859025261
 20
-347.4666586537993
 30
0.0000000001127646
 40
0.5
 50
0.0
 51
90.0
  0
LINE
  5
1AAD5
  8
01
 10
2247.058847060412
 20
-608.4666504553819
 30
0.0000000000564849
 11
2247.058847060412
 21
-569.4666504553824
 31
0.0000000000564849
  0
LINE
  5
1AAD6
  8
01
 10
2240.758847060407
 20
-608.9666504553821
 30
0.0000000000564849
 11
2246.558847060412
 21
-608.9666504553819
 31
0.0000000000564849
  0
ARC
  5
1AAD7
  8
01
 10
2246.558847060412
 20
-608.4666504553819
 30
0.0000000000564849
 40
0.5
 50
270.0
 51
0.0
  0
LINE
  5
1AAD8
  8
01
 10
2240.758847060411
 20
-568.9666504553819
 30
0.0000000000564849
 11
2246.558847060412
 21
-568.9666504553824
 31
0.0000000000564849
  0
ARC
  5
1AAD9
  8
01
 10
2246.558847060412
 20
-569.4666504553824
 30
0.0000000000564849
 40
0.5
 50
0.0
 51
90.0
  0
LINE
  5
1AADA
  8
01
 10
2247.800830749372
 20
-590.9666539986334
 30
0.0000000001127388
 11
2247.058847060411
 21
-590.9666539986337
 31
0.0000000001127388
  0
LINE
  5
1AADB
  8
01
 10
2247.800830749372
 20
-597.9666539986334
 30
0.0000000001127388
 11
2247.058847060411
 21
-597.9666539986334
 31
0.0000000001127388
  0
ARC
  5
1AADC
  8
01
 10
2242.927430749372
 20
-594.4666539986334
 30
0.0000000001127388
 40
6.0
 50
324.3146699999965
 51
35.68533471265589
  0
LINE
  5
1AAE3
  8
01
 10
2334.758730720665
 20
-566.4666553195719
 30
0.0000000001127424
 11
2348.758730720665
 21
-566.4666553195719
 31
0.0000000001127424
  0
LINE
  5
1AAE4
  8
01
 10
2339.759614902725
 20
-354.4666553206006
 30
0.0000000001127424
 11
2493.513995057758
 21
-354.4666553206006
 31
0.0000000001127424
  0
LINE
  5
1AAE5
  8
01
  6
BYBLOCK
 10
2339.759614902725
 20
-354.4666553206006
 30
0.0000000001127424
 11
2339.759614902725
 21
-394.4666553206006
 31
0.0000000001127424
  0
LINE
  5
1AAE9
  8
01
 10
2390.758730720663
 20
-359.4666553216292
 30
0.0000000001127424
 11
2390.758730720663
 21
-328.5485751323803
 31
0.0000000001127424
  0
LINE
  5
1AAEA
  8
01
 10
2365.758730720665
 20
-354.4666553205997
 30
0.0000000001127424
 11
2415.758730720665
 21
-354.4666553206019
 31
0.0000000001127424
  0
LINE
  5
1AAEB
  8
01
 10
2366.258730720661
 20
-345.9666553205997
 30
0.0000000001127424
 11
2388.258859025267
 21
-345.9666553206013
 31
0.0000000001127424
  0
LINE
  5
1AAEC
  8
01
 10
2415.758730720665
 20
-354.4666553206019
 30
0.0000000001127424
 11
2415.758730720665
 21
-346.4666553206033
 31
0.0000000001127424
  0
ARC
  5
1AAED
  8
01
 10
2415.258730720665
 20
-346.4666553206033
 30
0.0000000001127424
 40
0.5
 50
0.0
 51
90.0
  0
LINE
  5
1AAEE
  8
01
 10
2365.758730720665
 20
-354.4666553205997
 30
0.0000000001127424
 11
2365.758730720661
 21
-346.4666553206001
 31
0.0000000001127424
  0
ARC
  5
1AAEF
  8
01
 10
2366.258730720661
 20
-346.4666553205997
 30
0.0000000001127424
 40
0.5
 50
90.0
 51
180.0
  0
LINE
  5
1AAF0
  8
01
  6
BYBLOCK
 10
2341.258730720665
 20
-558.5666553195719
 30
0.0000000001127424
 11
2341.258730720665
 21
-688.3666553195718
 31
0.0000000001127424
  0
LINE
  5
1AAF1
  8
01
  6
BYBLOCK
 10
2341.258730720665
 20
-687.4666553195719
 30
0.0000000001127424
 11
2343.758730720665
 21
-687.4666553195719
 31
0.0000000001127424
  0
LINE
  5
1AAF2
  8
01
  6
BYBLOCK
 10
2343.758730720665
 20
-687.4666553195719
 30
0.0000000001127424
 11
2343.758730720665
 21
-670.9637115944196
 31
0.0000000001127424
  0
LINE
  5
1AAF3
  8
01
  6
BYBLOCK
 10
2339.758730720665
 20
-558.5666553195719
 30
0.0000000001127424
 11
2339.758730720665
 21
-688.3666553195718
 31
0.0000000001127424
  0
LINE
  5
1AAF4
  8
01
  6
BYBLOCK
 10
2339.758730720665
 20
-688.3666553195718
 30
0.0000000001127424
 11
2341.258730720665
 21
-688.3666553195718
 31
0.0000000001127424
  0
LINE
  5
1AAF5
  8
01
  6
BYBLOCK
 10
2341.258730720665
 20
-559.4666553195719
 30
0.0000000001127424
 11
2343.758730720665
 21
-559.4666553195719
 31
0.0000000001127424
  0
LINE
  5
1AAF6
  8
01
  6
BYBLOCK
 10
2339.758730720665
 20
-558.5666553195719
 30
0.0000000001127424
 11
2341.258730720665
 21
-558.5666553195719
 31
0.0000000001127424
  0
LINE
  5
1AAF7
  8
01
  6
BYBLOCK
 10
2341.258730720665
 20
-583.4666553195719
 30
0.0000000001127424
 11
2342.458730720665
 21
-583.4666553195719
 31
0.0000000001127424
  0
LINE
  5
1AAF8
  8
01
  6
BYBLOCK
 10
2342.458730720665
 20
-577.7666553195717
 30
0.0000000001127424
 11
2342.458730720665
 21
-669.1666553195718
 31
0.0000000001127424
  0
LINE
  5
1AAF9
  8
01
  6
BYBLOCK
 10
2342.558730720665
 20
-687.4666553195719
 30
0.0000000001127424
 11
2342.558730720665
 21
-670.8666553195718
 31
0.0000000001127424
  0
LINE
  5
1AAFA
  8
01
  6
BYBLOCK
 10
2342.558730720665
 20
-670.8666553195718
 30
0.0000000001127424
 11
2341.610202583241
 21
-669.9181271821479
 31
0.0000000001127424
  0
LINE
  5
1AAFB
  8
01
  6
BYBLOCK
 10
2343.407258858088
 20
-670.1151834569956
 30
0.0000000001127424
 11
2342.458730720665
 21
-669.1666553195718
 31
0.0000000001127424
  0
ARC
  5
1AAFC
  8
01
  6
BYBLOCK
 10
2342.558730720665
 20
-670.9637115944196
 30
0.0000000001127424
 40
1.2
 50
0.0
 51
45.00000000003838
  0
ARC
  5
1AAFD
  8
01
  6
BYBLOCK
 10
2342.458730720665
 20
-669.069599044724
 30
0.0000000001127424
 40
1.2
 50
180.0
 51
225.0000000000384
  0
LINE
  5
1AAFE
  8
01
  6
BYBLOCK
 10
2343.758730720665
 20
-559.4666553195719
 30
0.0000000001127424
 11
2343.758730720665
 21
-575.9695990447241
 31
0.0000000001127424
  0
LINE
  5
1AAFF
  8
01
  6
BYBLOCK
 10
2342.558730720665
 20
-559.4666553195719
 30
0.0000000001127424
 11
2342.558730720665
 21
-576.0666553195719
 31
0.0000000001127424
  0
LINE
  5
1AB00
  8
01
  6
BYBLOCK
 10
2342.558730720665
 20
-576.0666553195719
 30
0.0000000001127424
 11
2341.610202583241
 21
-577.0151834569957
 31
0.0000000001127424
  0
LINE
  5
1AB01
  8
01
  6
BYBLOCK
 10
2343.407258858088
 20
-576.818127182148
 30
0.0000000001127424
 11
2342.458730720665
 21
-577.7666553195719
 31
0.0000000001127424
  0
ARC
  5
1AB02
  8
01
  6
BYBLOCK
 10
2342.558730720665
 20
-575.9695990447241
 30
0.0000000001127424
 40
1.2
 50
314.9999999999616
 51
0.0
  0
ARC
  5
1AB03
  8
01
  6
BYBLOCK
 10
2342.458730720665
 20
-577.8637115944197
 30
0.0000000001127424
 40
1.2
 50
134.9999999999616
 51
180.0
  0
CIRCLE
  5
1AB04
  8
01
 10
2390.758730720665
 20
-594.4666553195719
 30
0.0000000001127424
 40
4.75
  0
LINE
  5
1AB05
  8
01
  6
BYBLOCK
 10
2342.458730720665
 20
-660.4666553195722
 30
0.0000000001127424
 11
2371.549358008366
 21
-660.4666553195719
 31
0.0000000001127424
  0
ARC
  5
1AB06
  8
01
  6
BYBLOCK
 10
2342.859614902725
 20
-370.9054047776007
 30
0.0000000001127424
 40
1.6
 50
115.9444797720007
 51
180.0
  0
ARC
  5
1AB07
  8
01
  6
BYBLOCK
 10
2342.859614902725
 20
-378.0279058636005
 30
0.0000000001127424
 40
1.6
 50
180.0
 51
244.0555202279993
  0
ARC
  5
1AB08
  8
01
  6
BYBLOCK
 10
2342.159614902725
 20
-379.3054047776005
 30
0.0000000001127424
 40
1.6
 50
0.0
 51
64.05552022799934
  0
ARC
  5
1AB09
  8
01
  6
BYBLOCK
 10
2342.159614902725
 20
-369.6279058636006
 30
0.0000000001127424
 40
1.6
 50
295.9444797720006
 51
0.0
  0
LINE
  5
1AB0A
  8
01
  6
BYBLOCK
 10
2343.759614902725
 20
-369.6279058636006
 30
0.0000000001127424
 11
2343.759614902725
 21
-362.2666553206005
 31
0.0000000001127424
  0
LINE
  5
1AB0B
  8
01
  6
BYBLOCK
 10
2342.859614902725
 20
-377.8666553206007
 30
0.0000000001127424
 11
2342.859614902725
 21
-371.0666553206005
 31
0.0000000001127424
  0
LINE
  5
1AB0C
  8
01
  6
BYBLOCK
 10
2343.759614902725
 20
-386.4666553206006
 30
0.0000000001127424
 11
2343.759614902725
 21
-379.3054047776005
 31
0.0000000001127424
  0
LINE
  5
1AB0D
  8
01
  6
BYBLOCK
 10
2342.159614902725
 20
-369.4666553206006
 30
0.0000000001127424
 11
2342.159614902725
 21
-362.2666553206005
 31
0.0000000001127424
  0
LINE
  5
1AB0E
  8
01
  6
BYBLOCK
 10
2342.159614902725
 20
-379.4666553206006
 30
0.0000000001127424
 11
2342.159614902725
 21
-386.5666553206005
 31
0.0000000001127424
  0
ARC
  5
1AB0F
  8
01
  6
BYBLOCK
 10
2407.159614902725
 20
-366.5666553206005
 30
0.0000000001127424
 40
1.6
 50
0.0
 51
90.0
  0
LINE
  5
1AB10
  8
01
  6
BYBLOCK
 10
2341.259614902725
 20
-362.0666553206005
 30
0.0000000001127424
 11
2341.259614902725
 21
-386.8666553206004
 31
0.0000000001127424
  0
LINE
  5
1AB11
  8
01
  6
BYBLOCK
 10
2407.159614902725
 20
-364.9666553206006
 30
0.0000000001127424
 11
2343.759614902725
 21
-364.9666553206006
 31
0.0000000001127424
  0
LINE
  5
1AB12
  8
01
  6
BYBLOCK
 10
2407.159614902725
 20
-382.1666553206006
 30
0.0000000001127424
 11
2407.159614902725
 21
-364.9666553206006
 31
0.0000000001127424
  0
LINE
  5
1AB13
  8
01
  6
BYBLOCK
 10
2408.759614902725
 20
-383.7666553206005
 30
0.0000000001127424
 11
2408.759614902725
 21
-366.5666553206005
 31
0.0000000001127424
  0
LINE
  5
1AB14
  8
01
  6
BYBLOCK
 10
2341.259614902725
 20
-362.2666553206005
 30
0.0000000001127424
 11
2343.759614902725
 21
-362.2666553206005
 31
0.0000000001127424
  0
LINE
  5
1AB15
  8
01
  6
BYBLOCK
 10
2343.759614902725
 20
-386.4666553206006
 30
0.0000000001127424
 11
2342.159614902725
 21
-386.4666553206006
 31
0.0000000001127424
  0
LINE
  5
1AB16
  8
01
  6
BYBLOCK
 10
2342.159614902725
 20
-386.5666553206005
 30
0.0000000001127424
 11
2341.259614902725
 21
-386.5666553206005
 31
0.0000000001127424
  0
ARC
  5
1AB17
  8
01
  6
BYBLOCK
 10
2338.460209830124
 20
-380.1666553205999
 30
0.0000000001127424
 40
0.3000000000000051
 50
232.8678058729329
 51
270.0
  0
LINE
  5
1AB18
  8
01
  6
BYBLOCK
 10
2339.259614902725
 20
-380.4666553205999
 30
0.0000000001127424
 11
2338.460209830124
 21
-380.4666553205999
 31
0.0000000001127424
  0
LINE
  5
1AB19
  8
01
  6
BYBLOCK
 10
2328.859614902725
 20
-370.7936664543957
 30
0.0000000001127424
 11
2328.859614902725
 21
-370.9642885099448
 31
0.0000000001127424
  0
ARC
  5
1AB1A
  8
01
  6
BYBLOCK
 10
2329.159614902725
 20
-370.9642885099448
 30
0.0000000001127424
 40
0.3
 50
180.0
 51
217.7405295629668
  0
ARC
  5
1AB1B
  8
01
  6
BYBLOCK
 10
2368.461915502009
 20
-340.543585566004
 30
0.0000000001127424
 40
50.00000000000002
 50
217.7405295629802
 51
232.8678058729729
  0
LINE
  5
1AB1C
  8
01
  6
BYBLOCK
 10
2328.659614902725
 20
-369.6666553206004
 30
0.0000000001127424
 11
2328.659614902725
 21
-368.9666553206006
 31
0.0000000001127424
  0
ARC
  5
1AB1D
  8
01
  6
BYBLOCK
 10
2329.159614902725
 20
-368.9666553206006
 30
0.0000000001127424
 40
0.5000000000000142
 50
90.0
 51
180.0
  0
LINE
  5
1AB1E
  8
01
  6
BYBLOCK
 10
2339.259614902725
 20
-368.4666553206006
 30
0.0000000001127424
 11
2329.159614902725
 21
-368.4666553206006
 31
0.0000000001127424
  0
LINE
  5
1AB1F
  8
01
  6
BYBLOCK
 10
2328.659614902725
 20
-370.0453349770409
 30
0.0000000001127424
 11
2328.659614902725
 21
-369.6666553206004
 31
0.0000000001127424
  0
POLYLINE
  5
1AB20
  8
01
  6
BYBLOCK
 66
     1
 10
0.0
 20
0.0
 30
0.0000000001127424
  0
VERTEX
  5
1B11A
  8
01
  6
BYBLOCK
 10
2328.685347443989
 20
-370.3219854064899
 30
0.0000000001127424
  0
VERTEX
  5
1B11B
  8
01
  6
BYBLOCK
 10
2328.683211823825
 20
-370.3103489231596
 30
0.0000000001127424
  0
VERTEX
  5
1B11C
  8
01
  6
BYBLOCK
 10
2328.681171663282
 20
-370.2987119329034
 30
0.0000000001127424
  0
VERTEX
  5
1B11D
  8
01
  6
BYBLOCK
 10
2328.679226554993
 20
-370.2870758018687
 30
0.0000000001127424
  0
VERTEX
  5
1B11E
  8
01
  6
BYBLOCK
 10
2328.677376091589
 20
-370.2754418962026
 30
0.0000000001127424
  0
VERTEX
  5
1B11F
  8
01
  6
BYBLOCK
 10
2328.675619865701
 20
-370.2638115820524
 30
0.0000000001127424
  0
VERTEX
  5
1B120
  8
01
  6
BYBLOCK
 10
2328.673957469964
 20
-370.2521862255654
 30
0.0000000001127424
  0
VERTEX
  5
1B121
  8
01
  6
BYBLOCK
 10
2328.672388497007
 20
-370.2405671928888
 30
0.0000000001127424
  0
VERTEX
  5
1B122
  8
01
  6
BYBLOCK
 10
2328.670912539464
 20
-370.2289558501697
 30
0.0000000001127424
  0
VERTEX
  5
1B123
  8
01
  6
BYBLOCK
 10
2328.669529189966
 20
-370.2173535635554
 30
0.0000000001127424
  0
VERTEX
  5
1B124
  8
01
  6
BYBLOCK
 10
2328.668238041146
 20
-370.2057616991933
 30
0.0000000001127424
  0
VERTEX
  5
1B125
  8
01
  6
BYBLOCK
 10
2328.667038685635
 20
-370.1941816232304
 30
0.0000000001127424
  0
VERTEX
  5
1B126
  8
01
  6
BYBLOCK
 10
2328.665930716065
 20
-370.1826147018141
 30
0.0000000001127424
  0
VERTEX
  5
1B127
  8
01
  6
BYBLOCK
 10
2328.664913725069
 20
-370.1710623010915
 30
0.0000000001127424
  0
VERTEX
  5
1B128
  8
01
  6
BYBLOCK
 10
2328.663987305279
 20
-370.15952578721
 30
0.0000000001127424
  0
VERTEX
  5
1B129
  8
01
  6
BYBLOCK
 10
2328.663151049326
 20
-370.1480065263166
 30
0.0000000001127424
  0
VERTEX
  5
1B12A
  8
01
  6
BYBLOCK
 10
2328.662404549842
 20
-370.1365058845587
 30
0.0000000001127424
  0
VERTEX
  5
1B12B
  8
01
  6
BYBLOCK
 10
2328.661747399461
 20
-370.1250252280835
 30
0.0000000001127424
  0
VERTEX
  5
1B12C
  8
01
  6
BYBLOCK
 10
2328.661179190813
 20
-370.1135659230383
 30
0.0000000001127424
  0
VERTEX
  5
1B12D
  8
01
  6
BYBLOCK
 10
2328.66069951653
 20
-370.1021293355702
 30
0.0000000001127424
  0
VERTEX
  5
1B12E
  8
01
  6
BYBLOCK
 10
2328.660307969246
 20
-370.0907168318265
 30
0.0000000001127424
  0
VERTEX
  5
1B12F
  8
01
  6
BYBLOCK
 10
2328.660004141591
 20
-370.0793297779545
 30
0.0000000001127424
  0
VERTEX
  5
1B130
  8
01
  6
BYBLOCK
 10
2328.659787626198
 20
-370.0679695401013
 30
0.0000000001127424
  0
VERTEX
  5
1B131
  8
01
  6
BYBLOCK
 10
2328.659658015698
 20
-370.0566374844142
 30
0.0000000001127424
  0
VERTEX
  5
1B132
  8
01
  6
BYBLOCK
 10
2328.659614902725
 20
-370.0453349770404
 30
0.0000000001127424
  0
SEQEND
  5
1B2D7
  8
01
  6
BYBLOCK
  0
ARC
  5
1AB21
  8
01
  6
BYBLOCK
 10
2330.159614902725
 20
-370.0453349770409
 30
0.0000000001127424
 40
1.499999999999998
 50
190.628112987605
 51
225.0000000000384
  0
LINE
  5
1AB22
  8
01
  6
BYBLOCK
 10
2339.759614902725
 20
-367.6166553206004
 30
0.0000000001127424
 11
2339.259614902725
 21
-367.6166553206004
 31
0.0000000001127424
  0
LINE
  5
1AB23
  8
01
  6
BYBLOCK
 10
2339.259614902725
 20
-381.3166553206005
 30
0.0000000001127424
 11
2339.759614902725
 21
-381.3166553206005
 31
0.0000000001127424
  0
LINE
  5
1AB24
  8
01
  6
BYBLOCK
 10
2339.259614902725
 20
-381.3166553206005
 30
0.0000000001127424
 11
2339.259614902725
 21
-367.6166553206004
 31
0.0000000001127424
  0
LINE
  5
1AB25
  8
01
  6
BYBLOCK
 10
2339.759614902725
 20
-362.0666553206005
 30
0.0000000001127424
 11
2341.259614902725
 21
-362.0666553206005
 31
0.0000000001127424
  0
LINE
  5
1AB26
  8
01
  6
BYBLOCK
 10
2339.759614902725
 20
-386.8666553206004
 30
0.0000000001127424
 11
2341.259614902725
 21
-386.8666553206004
 31
0.0000000001127424
  0
LINE
  5
1AB27
  8
01
  6
BYBLOCK
 10
2339.759614902725
 20
-386.8666553206004
 30
0.0000000001127424
 11
2339.759614902725
 21
-362.0666553206005
 31
0.0000000001127424
  0
LINE
  5
1AB28
  8
01
  6
BYBLOCK
 10
2408.759614902725
 20
-382.1666553206006
 30
0.0000000001127424
 11
2343.759614902725
 21
-382.1666553206006
 31
0.0000000001127424
  0
LINE
  5
1AB29
  8
01
  6
BYBLOCK
 10
2408.759614902725
 20
-383.7666553206005
 30
0.0000000001127424
 11
2358.359614902725
 21
-383.7666553206005
 31
0.0000000001127424
  0
LINE
  5
1AB2A
  8
01
  6
BYBLOCK
 10
2361.196873202928
 20
-383.7666553206005
 30
0.0000000001127424
 11
2343.759614902725
 21
-383.7666553206005
 31
0.0000000001127424
  0
LINE
  5
1AB2B
  8
01
  6
BYBLOCK
 10
2338.313168293318
 20
-380.3202087111939
 30
0.0000000001127424
 11
2329.098954730945
 21
-371.1059951488209
 31
0.0000000001127424
  0
ARC
  5
1AB2C
  8
01
  6
BYBLOCK
 10
2338.666721683911
 20
-379.9666553206006
 30
0.0000000001127424
 40
0.5
 50
225.0
 51
270.0
  0
LINE
  5
1AB2D
  8
01
  6
BYBLOCK
 10
2339.259614902725
 20
-380.4666553206006
 30
0.0000000001127424
 11
2338.666721683911
 21
-380.4666553206006
 31
0.0000000001127424
  0
LINE
  5
1AB2F
  8
01
  6
BYBLOCK
 10
2328.758730720665
 20
-613.4349850525558
 30
0.0000000001127424
 11
2328.758730720665
 21
-631.4983255865617
 31
0.0000000001127424
  0
LINE
  5
1AB30
  8
01
  6
BYBLOCK
 10
2333.051623939478
 20
-612.4666553195588
 30
0.0000000001127424
 11
2339.758730720665
 21
-612.4666553195588
 31
0.0000000001127424
  0
LINE
  5
1AB31
  8
01
  6
BYBLOCK
 10
2333.051623939478
 20
-632.4666553195588
 30
0.0000000001127424
 11
2339.758730720665
 21
-632.4666553195588
 31
0.0000000001127424
  0
LINE
  5
1AB32
  8
01
  6
BYBLOCK
 10
2338.551623939479
 20
-617.2166553195588
 30
0.0000000001127424
 11
2338.551623939478
 21
-627.7166553195588
 31
0.0000000001127424
  0
ARC
  5
1AB33
  8
01
  6
BYBLOCK
 10
2333.051623939478
 20
-622.4666553195588
 30
0.0000000001127424
 40
10.00000000000009
 50
53.13010235414986
 51
115.4224671781178
  0
ARC
  5
1AB34
  8
01
  6
BYBLOCK
 10
2333.051623939478
 20
-622.4666553195585
 30
0.0000000001127424
 40
10.00000000000009
 50
244.5775328218822
 51
306.8698976458437
  0
LINE
  5
1AB35
  8
01
  6
BYBLOCK
 10
2339.051623939479
 20
-614.4666553195588
 30
0.0000000001127424
 11
2339.051623939479
 21
-630.4666553195588
 31
0.0000000001127424
  0
LINE
  5
1AB36
  8
01
  6
BYBLOCK
 10
2328.758730720665
 20
-617.2166553195588
 30
0.0000000001127424
 11
2338.551623939479
 21
-617.2166553195588
 31
0.0000000001127424
  0
LINE
  5
1AB37
  8
01
  6
BYBLOCK
 10
2328.758730720665
 20
-627.7166553195588
 30
0.0000000001127424
 11
2338.551623939479
 21
-627.7166553195588
 31
0.0000000001127424
  0
LINE
  5
1AB38
  8
01
  6
BYBLOCK
 10
2214.35884706041
 20
-558.5666553195725
 30
0.0000000001127424
 11
2227.158847060409
 21
-558.5666553195725
 31
0.0000000001127424
  0
LINE
  5
1AB39
  8
01
  6
BYBLOCK
 10
2214.35884706041
 20
-688.3666553195725
 30
0.0000000001127424
 11
2227.158847060409
 21
-688.3666553195725
 31
0.0000000001127424
  0
LINE
  5
1AB3A
  8
01
  6
BYBLOCK
 10
2208.35884706041
 20
-564.5666553195725
 30
0.0000000001127424
 11
2208.35884706041
 21
-682.3666553195725
 31
0.0000000001127424
  0
LINE
  5
1AB3B
  8
01
  6
BYBLOCK
 10
2233.158847060409
 20
-564.5666553195725
 30
0.0000000001127424
 11
2233.158847060409
 21
-682.3666553195725
 31
0.0000000001127424
  0
ARC
  5
1AB3C
  8
01
  6
BYBLOCK
 10
2214.35884706041
 20
-682.3666553195725
 30
0.0000000001127424
 40
6.0
 50
180.0
 51
270.0
  0
ARC
  5
1AB3D
  8
01
  6
BYBLOCK
 10
2227.158847060409
 20
-682.3666553195725
 30
0.0000000001127424
 40
6.0
 50
270.0
 51
0.0
  0
ARC
  5
1AB3E
  8
01
  6
BYBLOCK
 10
2214.35884706041
 20
-564.5666553195725
 30
0.0000000001127424
 40
6.0
 50
90.0
 51
180.0
  0
ARC
  5
1AB3F
  8
01
  6
BYBLOCK
 10
2227.158847060409
 20
-564.5666553195725
 30
0.0000000001127424
 40
6.0
 50
0.0
 51
90.0
  0
CIRCLE
  5
1AB40
  8
01
  6
BYBLOCK
 10
2220.75884706041
 20
-680.4666553195724
 30
0.0000000001127424
 40
2.75
  0
CIRCLE
  5
1AB41
  8
01
  6
BYBLOCK
 10
2220.75884706041
 20
-680.4666553195724
 30
0.0000000001127424
 40
4.25
  0
CIRCLE
  5
1AB42
  8
01
  6
BYBLOCK
 10
2220.75884706041
 20
-566.4666553195726
 30
0.0000000001127424
 40
2.75
  0
CIRCLE
  5
1AB43
  8
01
  6
BYBLOCK
 10
2220.75884706041
 20
-566.4666553195726
 30
0.0000000001127424
 40
4.25
  0
LINE
  5
1AB44
  8
1CENTER
 10
2226.633872468316
 20
-680.4666553195726
 30
0.0000000001127424
 11
2214.883821652504
 21
-680.4666553195726
 31
0.0000000001127424
  0
LINE
  5
1AB45
  8
1CENTER
 10
2220.75884706041
 20
-674.5916299116662
 30
0.0000000001127424
 11
2220.75884706041
 21
-686.3416807274788
 31
0.0000000001127424
  0
LINE
  5
1AB46
  8
1CENTER
 10
2226.633872468316
 20
-566.4666553195726
 30
0.0000000001127424
 11
2214.883821652504
 21
-566.4666553195726
 31
0.0000000001127424
  0
LINE
  5
1AB47
  8
1CENTER
 10
2220.75884706041
 20
-560.5916299116662
 30
0.0000000001127424
 11
2220.75884706041
 21
-572.3416807274788
 31
0.0000000001127424
  0
ARC
  5
1AB48
  8
01
  6
BYBLOCK
 10
2220.75884706041
 20
-622.4666553195724
 30
0.0000000001127424
 40
10.15
 50
231.9925780701369
 51
308.0074219298635
  0
LINE
  5
1AB49
  8
01
  6
BYBLOCK
 10
2214.50884706041
 20
-614.4691557103196
 30
0.0000000001127424
 11
2214.50884706041
 21
-630.4641549288252
 31
0.0000000001127424
  0
LINE
  5
1AB4A
  8
01
  6
BYBLOCK
 10
2227.00884706041
 20
-614.4691557103196
 30
0.0000000001127424
 11
2227.00884706041
 21
-630.4641549288252
 31
0.0000000001127424
  0
ARC
  5
1AB4B
  8
01
  6
BYBLOCK
 10
2220.75884706041
 20
-622.4666553195724
 30
0.0000000001127424
 40
10.15
 50
51.99257807014251
 51
128.0074219298575
  0
LINE
  5
1AB4C
  8
01
  6
BYBLOCK
 10
2216.25884706041
 20
-617.2166553195724
 30
0.0000000001127424
 11
2216.25884706041
 21
-627.7166553195724
 31
0.0000000001127424
  0
LINE
  5
1AB4D
  8
01
  6
BYBLOCK
 10
2226.25884706041
 20
-617.2166553195724
 30
0.0000000001127424
 11
2226.25884706041
 21
-627.7166553195724
 31
0.0000000001127424
  0
LINE
  5
1AB4E
  8
01
  6
BYBLOCK
 10
2216.75884706041
 20
-613.1380702178541
 30
0.0000000001127424
 11
2216.75884706041
 21
-617.2166553195726
 31
0.0000000001127424
  0
LINE
  5
1AB4F
  8
01
  6
BYBLOCK
 10
2215.25884706041
 20
-617.2166553195726
 30
0.0000000001127424
 11
2215.25884706041
 21
-627.7166553195724
 31
0.0000000001127424
  0
LINE
  5
1AB50
  8
01
  6
BYBLOCK
 10
2216.75884706041
 20
-627.7166553195724
 30
0.0000000001127424
 11
2216.75884706041
 21
-631.7952404212907
 31
0.0000000001127424
  0
LINE
  5
1AB51
  8
01
  6
BYBLOCK
 10
2215.25884706041
 20
-617.2166553195724
 30
0.0000000001127424
 11
2226.25884706041
 21
-617.2166553195724
 31
0.0000000001127424
  0
LINE
  5
1AB52
  8
01
  6
BYBLOCK
 10
2215.25884706041
 20
-627.7166553195724
 30
0.0000000001127424
 11
2226.25884706041
 21
-627.7166553195724
 31
0.0000000001127424
  0
LINE
  5
1AB54
  8
01
 10
2200.758963400152
 20
-524.4666553195722
 30
0.0000000001127424
 11
2200.758963400152
 21
-714.4666553195724
 31
0.0000000001127424
  0
LINE
  5
1AB55
  8
01
 10
2200.758963400152
 20
-619.4666553195724
 30
0.0000000001127424
 11
2200.758963400152
 21
-669.4666553195724
 31
0.0000000001127424
  0
LINE
  5
1AB56
  8
01
 10
2192.258963400152
 20
-668.9666553195724
 30
0.0000000001127424
 11
2192.258963400152
 21
-619.9666553195724
 31
0.0000000001127424
  0
LINE
  5
1AB57
  8
01
 10
2200.758963400152
 20
-669.4666553195724
 30
0.0000000001127424
 11
2192.758963400152
 21
-669.4666553195724
 31
0.0000000001127424
  0
LINE
  5
1AB58
  8
01
 10
2200.758963400152
 20
-619.4666553195724
 30
0.0000000001127424
 11
2192.758963400152
 21
-619.4666553195724
 31
0.0000000001127424
  0
LINE
  5
1AB59
  8
01
 10
2202.887248782585
 20
-644.4666553195724
 30
0.0000000001127424
 11
2180.258963400152
 21
-644.4666553195724
 31
0.0000000001127424
  0
LINE
  5
1AB5A
  8
01
 10
2334.758730720952
 20
-680.4666553192832
 30
0.0000000001127424
 11
2348.758730720952
 21
-680.4666553192832
 31
0.0000000001127424
  0
LINE
  5
1AB5B
  8
01
 10
2402.070618988206
 20
-594.4666553195719
 30
0.0000000001127424
 11
2379.446842453122
 21
-594.4666553195719
 31
0.0000000001127424
  0
LINE
  5
1AB5C
  8
01
 10
2390.758730720665
 20
-583.1547670520303
 30
0.0000000001127424
 11
2390.758730720665
 21
-605.7785435871136
 31
0.0000000001127424
  0
LINE
  5
1AB5D
  8
01
  6
BYBLOCK
 10
2112.758963400156
 20
-613.4349850525558
 30
0.0000000001127424
 11
2112.758963400156
 21
-631.4983255865617
 31
0.0000000001127424
  0
LINE
  5
1AB5E
  8
01
  6
BYBLOCK
 10
2108.466070181343
 20
-612.4666553195588
 30
0.0000000001127424
 11
2101.758963400156
 21
-612.4666553195588
 31
0.0000000001127424
  0
LINE
  5
1AB5F
  8
01
  6
BYBLOCK
 10
2108.466070181343
 20
-632.4666553195588
 30
0.0000000001127424
 11
2101.758963400156
 21
-632.4666553195588
 31
0.0000000001127424
  0
ARC
  5
1AB60
  8
01
  6
BYBLOCK
 10
2108.466070181343
 20
-622.4666553195588
 30
0.0000000001127424
 40
10.00000000000009
 50
64.57753282188216
 51
90.0
  0
LINE
  5
1AB61
  8
01
  6
CONTINUOUS
 10
2112.258963400156
 20
-630.7814495123895
 30
0.0000000001127424
 11
2101.758963400156
 21
-630.7814495123895
 31
0.0000000001127424
  0
ARC
  5
1AB62
  8
01
  6
CONTINUOUS
 10
2112.29754364707
 20
-630.3193102815827
 30
0.0000000001127424
 40
0.4637468103423796
 50
265.2279066161926
 51
354.2577450626241
  0
LINE
  5
1AB63
  8
01
  6
CONTINUOUS
 10
2112.758963400156
 20
-614.9833405460107
 30
0.0000000001127424
 11
2112.758963400156
 21
-629.9499700931066
 31
0.0000000001127424
  0
ARC
  5
1AB64
  8
01
  6
CONTINUOUS
 10
2112.29754364707
 20
-614.6140003575343
 30
0.0000000001127424
 40
0.4637468103423387
 50
5.742254937375924
 51
94.77209338380747
  0
ARC
  5
1AB65
  8
01
  6
BYBLOCK
 10
2108.466070181343
 20
-622.4666553195585
 30
0.0000000001127424
 40
10.00000000000009
 50
270.0
 51
295.4224671781178
  0
LINE
  5
1AB66
  8
01
  6
CONTINUOUS
 10
2101.758963400156
 20
-614.1518611267276
 30
0.0000000001127424
 11
2112.258963400156
 21
-614.1518611267276
 31
0.0000000001127424
  0
LINE
  5
1AB67
  8
01
 10
2408.758730720665
 20
-627.1173037466748
 30
0.0000000001127424
 11
2408.758730720665
 21
-659.2666553195719
 31
0.0000000001127424
  0
ARC
  5
1AB68
  8
01
 10
2407.758730720665
 20
-659.4666553195719
 30
0.0000000001127424
 40
1.0
 50
270.0
 51
0.0
  0
LINE
  5
1AB69
  8
01
 10
2371.549358008367
 20
-660.4666553195719
 30
0.0000000001127424
 11
2407.758730720665
 21
-660.4666553195717
 31
0.0000000001127424
  0
LINE
  5
1AB6A
  8
01
 10
2080.758963400156
 20
-644.4666553195719
 30
0.0000000001127424
 11
2020.758963400156
 21
-644.4666553195719
 31
0.0000000001127424
  0
LINE
  5
1AB6B
  8
01
 10
2050.758963400156
 20
-614.4666553195719
 30
0.0000000001127424
 11
2050.758963400156
 21
-674.4666553195719
 31
0.0000000001127424
  0
LINE
  5
1AB6C
  8
01
  6
BYBLOCK
 10
2408.758730720665
 20
-597.6845363519936
 30
0.0000000001128561
 11
2408.758730720665
 21
-627.1173037466748
 31
0.0000000001127424
  0
LINE
  5
1AB6D
  8
01
  6
BYBLOCK
 10
2342.458730720665
 20
-586.4666553195719
 30
0.0000000001127424
 11
2370.915627642682
 21
-586.4666553195719
 31
0.0000000001128561
  0
ARC
  5
1AB6E
  8
01
 10
2407.758730720665
 20
-587.4666553195719
 30
0.0000000001127424
 40
1.0
 50
0.0
 51
90.0
  0
LINE
  5
1AB6F
  8
01
 10
2370.915627642682
 20
-586.4666553195719
 30
0.0000000001128561
 11
2407.758730720665
 21
-586.4666553195719
 31
0.0000000001127424
  0
LINE
  5
1AB70
  8
01
 10
2408.758730720665
 20
-587.4666553195719
 30
0.0000000001127424
 11
2408.758730720665
 21
-597.6845363519936
 31
0.0000000001128561
  0
LINE
  5
1AB71
  8
01
 10
2106.758963400156
 20
-566.4666553195719
 30
0.0000000001127424
 11
2092.758963400156
 21
-566.4666553195719
 31
0.0000000001127424
  0
LINE
  5
1AB72
  8
01
  6
BYBLOCK
 10
2100.258963400156
 20
-558.5666553195719
 30
0.0000000001127424
 11
2100.258963400156
 21
-688.3666553195718
 31
0.0000000001127424
  0
LINE
  5
1AB73
  8
01
  6
BYBLOCK
 10
2100.258963400156
 20
-687.4666553195719
 30
0.0000000001127424
 11
2097.758963400156
 21
-687.4666553195719
 31
0.0000000001127424
  0
LINE
  5
1AB74
  8
01
  6
BYBLOCK
 10
2097.758963400156
 20
-687.4666553195719
 30
0.0000000001127424
 11
2097.758963400156
 21
-670.9637115944196
 31
0.0000000001127424
  0
LINE
  5
1AB75
  8
01
  6
BYBLOCK
 10
2101.758963400156
 20
-558.5666553195719
 30
0.0000000001127424
 11
2101.758963400156
 21
-688.3666553195718
 31
0.0000000001127424
  0
LINE
  5
1AB76
  8
01
  6
BYBLOCK
 10
2101.758963400156
 20
-688.3666553195718
 30
0.0000000001127424
 11
2100.258963400156
 21
-688.3666553195718
 31
0.0000000001127424
  0
LINE
  5
1AB77
  8
01
  6
BYBLOCK
 10
2100.258963400156
 20
-559.4666553195719
 30
0.0000000001127424
 11
2097.758963400156
 21
-559.4666553195719
 31
0.0000000001127424
  0
LINE
  5
1AB78
  8
01
  6
BYBLOCK
 10
2101.758963400156
 20
-558.5666553195719
 30
0.0000000001127424
 11
2100.258963400156
 21
-558.5666553195719
 31
0.0000000001127424
  0
LINE
  5
1AB79
  8
01
  6
BYBLOCK
 10
2100.258963400156
 20
-583.4666553195719
 30
0.0000000001127424
 11
2099.058963400156
 21
-583.4666553195719
 31
0.0000000001127424
  0
LINE
  5
1AB7A
  8
01
  6
BYBLOCK
 10
2099.058963400156
 20
-577.7666553195717
 30
0.0000000001127424
 11
2099.058963400156
 21
-669.1666553195718
 31
0.0000000001127424
  0
LINE
  5
1AB7B
  8
01
  6
BYBLOCK
 10
2098.958963400156
 20
-687.4666553195719
 30
0.0000000001127424
 11
2098.958963400156
 21
-670.8666553195718
 31
0.0000000001127424
  0
LINE
  5
1AB7C
  8
01
  6
BYBLOCK
 10
2098.958963400156
 20
-670.8666553195718
 30
0.0000000001127424
 11
2099.90749153758
 21
-669.9181271821479
 31
0.0000000001127424
  0
LINE
  5
1AB7D
  8
01
  6
BYBLOCK
 10
2098.110435262733
 20
-670.1151834569956
 30
0.0000000001127424
 11
2099.058963400156
 21
-669.1666553195718
 31
0.0000000001127424
  0
ARC
  5
1AB7E
  8
01
  6
BYBLOCK
 10
2098.958963400156
 20
-670.9637115944196
 30
0.0000000001127424
 40
1.2
 50
134.9999999999616
 51
180.0
  0
ARC
  5
1AB7F
  8
01
  6
BYBLOCK
 10
2099.058963400156
 20
-669.069599044724
 30
0.0000000001127424
 40
1.2
 50
314.9999999999616
 51
0.0
  0
LINE
  5
1AB80
  8
01
  6
BYBLOCK
 10
2097.758963400156
 20
-559.4666553195719
 30
0.0000000001127424
 11
2097.758963400156
 21
-575.9695990447241
 31
0.0000000001127424
  0
LINE
  5
1AB81
  8
01
  6
BYBLOCK
 10
2098.958963400156
 20
-559.4666553195719
 30
0.0000000001127424
 11
2098.958963400156
 21
-576.0666553195719
 31
0.0000000001127424
  0
LINE
  5
1AB82
  8
01
  6
BYBLOCK
 10
2098.958963400156
 20
-576.0666553195719
 30
0.0000000001127424
 11
2099.90749153758
 21
-577.0151834569957
 31
0.0000000001127424
  0
LINE
  5
1AB83
  8
01
  6
BYBLOCK
 10
2098.110435262733
 20
-576.818127182148
 30
0.0000000001127424
 11
2099.058963400156
 21
-577.7666553195719
 31
0.0000000001127424
  0
ARC
  5
1AB84
  8
01
  6
BYBLOCK
 10
2098.958963400156
 20
-575.9695990447241
 30
0.0000000001127424
 40
1.2
 50
180.0
 51
225.0000000000384
  0
ARC
  5
1AB85
  8
01
  6
BYBLOCK
 10
2099.058963400156
 20
-577.8637115944197
 30
0.0000000001127424
 40
1.2
 50
0.0
 51
45.00000000003838
  0
LINE
  5
1AB86
  8
01
  6
BYBLOCK
 10
2099.058963400156
 20
-660.4666553195722
 30
0.0000000001127424
 11
2069.968336112455
 21
-660.4666553195719
 31
0.0000000001127424
  0
LINE
  5
1AB87
  8
01
  6
BYBLOCK
 10
2108.466070181343
 20
-612.4666553195588
 30
0.0000000001127424
 11
2101.758963400156
 21
-612.4666553195588
 31
0.0000000001127424
  0
LINE
  5
1AB88
  8
01
  6
BYBLOCK
 10
2108.466070181343
 20
-632.4666553195588
 30
0.0000000001127424
 11
2101.758963400156
 21
-632.4666553195588
 31
0.0000000001127424
  0
LINE
  5
1AB89
  8
01
 10
2106.758963399869
 20
-680.4666553192832
 30
0.0000000001127424
 11
2092.758963399869
 21
-680.4666553192832
 31
0.0000000001127424
  0
LINE
  5
1AB8A
  8
01
  6
BYBLOCK
 10
2032.758963400156
 20
-597.6845363519936
 30
0.0000000001128561
 11
2032.758963400156
 21
-627.1173037466748
 31
0.0000000001127424
  0
LINE
  5
1AB8B
  8
01
  6
BYBLOCK
 10
2099.058963400156
 20
-586.4666553195719
 30
0.0000000001127424
 11
2070.602066478139
 21
-586.4666553195719
 31
0.0000000001128561
  0
TEXT
  5
1AB8E
  8
1TEXT
 10
2032.75886306041
 20
-362.9666553195719
 30
0.0000000001127424
 40
20.0
  1
3-TWC-X-LJ
  0
TEXT
  5
1AB8F
  8
1TEXT
 10
2044.95886306041
 20
-401.2166553195719
 30
0.0000000001127424
 40
6.0
  1
表面処理
 72
     1
 11
2058.85886306041
 21
-401.2166553195719
 31
0.0000000001127424
  0
TEXT
  5
1AB90
  8
1TEXT
 10
2033.74886306041
 20
-411.4695883088588
 30
0.0000000001127424
 40
6.0
  1
ブラストブラック
 41
0.9
 72
     1
 11
2058.85886306041
 21
-411.4695883088588
 31
0.0000000001127424
  0
LINE
  5
1AB91
  8
1DIM
 10
2032.75886306041
 20
-392.9666553195719
 30
0.0000000001127424
 11
2137.75886306041
 21
-392.9666553195719
 31
0.0000000001127424
  0
LINE
  5
1AB92
  8
1DIM
 10
2032.75886306041
 20
-403.4666553195719
 30
0.0000000001127424
 11
2137.75886306041
 21
-403.4666553195719
 31
0.0000000001127424
  0
LINE
  5
1AB93
  8
1DIM
 10
2032.75886306041
 20
-413.9666553195719
 30
0.0000000001127424
 11
2137.75886306041
 21
-413.9666553195719
 31
0.0000000001127424
  0
LINE
  5
1AB94
  8
1DIM
 10
2032.75886306041
 20
-413.9666553195719
 30
0.0000000001127424
 11
2137.75886306041
 21
-413.9666553195719
 31
0.0000000001127424
  0
LINE
  5
1AB95
  8
1DIM
 10
2085.25886306041
 20
-392.9666553195719
 30
0.0000000001127424
 11
2085.25886306041
 21
-413.9666553195719
 31
0.0000000001127424
  0
TEXT
  5
1AB96
  8
1TEXT
 10
2090.35886306041
 20
-412.0381907950458
 30
0.0000000001127424
 40
6.0
  1
3-TWC-K-LJ
 41
0.6999999999999998
 72
     1
 11
2111.35886306041
 21
-412.0381907950458
 31
0.0000000001127424
  0
TEXT
  5
1AB97
  8
1TEXT
 10
2101.05886306041
 20
-401.2166553195719
 30
0.0000000001127424
 40
6.0
  1
コード
 72
     1
 11
2111.35886306041
 21
-401.2166553195719
 31
0.0000000001127424
  0
LINE
  5
1AB98
  8
1DIM
 10
2137.75886306041
 20
-413.9666553195719
 30
0.0000000001127424
 11
2137.75886306041
 21
-392.9666553195719
 31
0.0000000001127424
  0
LINE
  5
1AB99
  8
1DIM
 10
2032.75886306041
 20
-413.9666553195719
 30
0.0000000001127424
 11
2137.75886306041
 21
-413.9666553195719
 31
0.0000000001127424
  0
LINE
  5
1AB9A
  8
1DIM
 10
2032.75886306041
 20
-413.9666553195719
 30
0.0000000001127424
 11
2032.75886306041
 21
-392.9666553195719
 31
0.0000000001127424
  0
ARC
  5
1AB9B
  8
01
 10
2192.758963400152
 20
-619.9666553195724
 30
0.0000000001127424
 40
0.5
 50
90.0
 51
180.0
  0
ARC
  5
1AB9C
  8
01
 10
2192.758963400152
 20
-668.9666553195724
 30
0.0000000001127424
 40
0.5
 50
180.0
 51
270.0
  0
LINE
  5
1AB9D
  8
01
 10
2366.258847060408
 20
-402.9666553206006
 30
0.0000000001127424
 11
2415.258847060408
 21
-402.9666553206006
 31
0.0000000001127424
  0
LINE
  5
1AB9E
  8
01
 10
2365.758847060408
 20
-394.4666553206006
 30
0.0000000001127424
 11
2365.758847060408
 21
-402.4666553206006
 31
0.0000000001127424
  0
LINE
  5
1AB9F
  8
01
 10
2415.758847060408
 20
-394.4666553206006
 30
0.0000000001127424
 11
2415.758847060408
 21
-402.4666553206006
 31
0.0000000001127424
  0
LINE
  5
1ABA0
  8
01
 10
2365.758847060408
 20
-394.4666553206006
 30
0.0000000001127424
 11
2415.758847060408
 21
-394.4666553206006
 31
0.0000000001127424
  0
LINE
  5
1ABA1
  8
01
  6
BYBLOCK
 10
2339.759614902725
 20
-394.4666553206006
 30
0.0000000001127424
 11
2493.513995057756
 21
-394.4666553206006
 31
0.0000000001127424
  0
LINE
  5
1ABA2
  8
01
 10
2390.758847060408
 20
-389.4666553206006
 30
0.0000000001127424
 11
2390.758847060408
 21
-415.9666553206006
 31
0.0000000001127424
  0
ARC
  5
1ABA7
  8
01
 10
2366.258847060408
 20
-402.4666553206006
 30
0.0000000001127424
 40
0.5
 50
180.0
 51
270.0
  0
ARC
  5
1ABA8
  8
01
 10
2415.258847060408
 20
-402.4666553206006
 30
0.0000000001127424
 40
0.5
 50
270.0
 51
0.0
  0
LINE
  5
1ABA9
  8
01
 10
2382.79670040978
 20
-402.8664679810289
 30
0.0000000001127424
 11
2382.79670040978
 21
-403.666468192593
 31
0.0000000001127424
  0
LINE
  5
1ABAA
  8
01
 10
2380.008847060408
 20
-403.4666553201972
 30
0.0000000001127424
 11
2401.508847060408
 21
-403.4666553210039
 31
0.0000000001127424
  0
LINE
  5
1ABAB
  8
01
 10
2380.008847060408
 20
-403.4666553201972
 30
0.0000000001127424
 11
2380.187688752542
 21
-431.4634614193868
 31
0.0000000001127424
  0
ARC
  5
1ABAC
  8
01
 10
2379.687698953649
 20
-431.4666553201972
 30
0.0000000001127424
 40
0.5
 50
270.0
 51
0.3659965622887517
  0
LINE
  5
1ABAD
  8
01
 10
2367.610640567669
 20
-453.466655320189
 30
0.0000000001127424
 11
2516.907053699853
 21
-453.4666553201963
 31
0.0000000001127424
  0
LINE
  5
1ABAE
  8
01
 10
2516.90705369985
 20
-431.9666553201963
 30
0.0000000001127424
 11
2401.829995167166
 21
-431.9666553201972
 31
0.0000000001127424
  0
ARC
  5
1ABAF
  8
01
 10
2401.829995167166
 20
-431.4666553201972
 30
0.0000000001127424
 40
0.5
 50
179.6340034377113
 51
270.0
  0
LINE
  5
1ABB0
  8
01
 10
2379.687698953649
 20
-431.9666553201972
 30
0.0000000001127424
 11
2367.610640567671
 21
-431.96665532021
 31
0.0000000001127424
  0
ARC
  5
1ABB1
  8
01
 10
2390.735577757921
 20
-429.4849677542182
 30
0.0000000001127424
 40
10.99045092134677
 50
192.4494132860337
 51
347.7383613495946
  0
ARC
  5
1ABB2
  8
01
 10
2390.758847060408
 20
-429.0194564925645
 30
0.0000000001127424
 40
11.45671424673691
 50
194.9067374951663
 51
345.0932625048337
  0
ARC
  5
1ABB3
  8
01
 10
2390.758847060407
 20
-429.7689851441968
 30
0.0000000001127424
 40
10.70610283049445
 50
189.1066109614427
 51
350.893389038557
  0
LINE
  5
1ABB4
  8
01
 10
2401.508847060408
 20
-403.4666553201972
 30
0.0000000001127424
 11
2401.330005368272
 21
-431.4634614193868
 31
0.0000000001127424
  0
ARC
  5
1ABB5
  8
01
 10
2367.758847207116
 20
-442.7166553202245
 30
0.0000000001127424
 40
149.9999999999999
 50
356.0686098670479
 51
3.931390132952031
  0
ARC
  5
1ABB6
  8
01
 10
2516.907053699853
 20
-452.9666553201963
 30
0.0000000001127424
 40
0.5
 50
270.0
 51
356.0686098670443
  0
ARC
  5
1ABB7
  8
01
 10
2516.90705369985
 20
-432.4666553201963
 30
0.0000000001127424
 40
0.5
 50
3.931390132955698
 51
90.0
  0
ARC
  5
1ABB8
  8
01
 10
2516.758847060408
 20
-442.7166553202163
 30
0.0000000001127424
 40
149.9999999999999
 50
176.068609867048
 51
183.931390132952
  0
ARC
  5
1ABB9
  8
01
 10
2367.610640567669
 20
-452.966655320189
 30
0.0000000001127424
 40
0.5
 50
183.9313901329521
 51
270.0
  0
ARC
  5
1ABBA
  8
01
 10
2367.610640567672
 20
-432.46665532021
 30
0.0000000001127424
 40
0.5
 50
90.00000000010422
 51
176.0686098670479
  0
LINE
  5
1ABBB
  8
01
 10
2390.758847060408
 20
-359.4666553206006
 30
0.0000000001127424
 11
2390.758847060408
 21
-332.9666553206006
 31
0.0000000001127424
  0
LINE
  5
1ABBC
  8
01
 10
2380.008847060408
 20
-345.4666553210039
 30
0.0000000001127424
 11
2380.187688752542
 21
-317.4698492218143
 31
0.0000000001127424
  0
ARC
  5
1ABBD
  8
01
 10
2379.687698953649
 20
-317.4666553210039
 30
0.0000000001127424
 40
0.5
 50
359.6340034377112
 51
90.0
  0
LINE
  5
1ABBE
  8
01
 10
2367.610640567669
 20
-295.4666553210121
 30
0.0000000001127424
 11
2516.907053699853
 21
-295.4666553210049
 31
0.0000000001127424
  0
LINE
  5
1ABBF
  8
01
 10
2516.90705369985
 20
-316.9666553210049
 30
0.0000000001127424
 11
2401.829995167166
 21
-316.9666553210039
 31
0.0000000001127424
  0
ARC
  5
1ABC0
  8
01
 10
2401.829995167166
 20
-317.4666553210039
 30
0.0000000001127424
 40
0.5
 50
90.0
 51
180.3659965622887
  0
LINE
  5
1ABC1
  8
01
 10
2379.687698953649
 20
-316.9666553210039
 30
0.0000000001127424
 11
2367.610640567671
 21
-316.9666553209912
 31
0.0000000001127424
  0
ARC
  5
1ABC2
  8
01
 10
2390.735577757921
 20
-319.4483428869829
 30
0.0000000001127424
 40
10.99045092134677
 50
12.26163865040534
 51
167.5505867139663
  0
ARC
  5
1ABC3
  8
01
 10
2390.758847060408
 20
-319.9138541486367
 30
0.0000000001127424
 40
11.45671424673691
 50
14.90673749516635
 51
165.0932625048337
  0
ARC
  5
1ABC4
  8
01
 10
2390.758847060407
 20
-319.1643254970044
 30
0.0000000001127424
 40
10.70610283049445
 50
9.106610961443089
 51
170.8933890385573
  0
LINE
  5
1ABC5
  8
01
 10
2401.508847060408
 20
-345.4666553210039
 30
0.0000000001127424
 11
2401.330005368272
 21
-317.4698492218143
 31
0.0000000001127424
  0
ARC
  5
1ABC6
  8
01
 10
2367.758847207116
 20
-306.2166553209767
 30
0.0000000001127424
 40
149.9999999999999
 50
356.0686098670479
 51
3.931390132952031
  0
ARC
  5
1ABC7
  8
01
 10
2516.907053699853
 20
-295.9666553210049
 30
0.0000000001127424
 40
0.5
 50
3.931390132955698
 51
90.0
  0
ARC
  5
1ABC8
  8
01
 10
2516.90705369985
 20
-316.4666553210049
 30
0.0000000001127424
 40
0.5
 50
270.0
 51
356.0686098670443
  0
ARC
  5
1ABC9
  8
01
 10
2516.758847060408
 20
-306.2166553209848
 30
0.0000000001127424
 40
149.9999999999999
 50
176.068609867048
 51
183.931390132952
  0
ARC
  5
1ABCA
  8
01
 10
2367.610640567669
 20
-295.9666553210121
 30
0.0000000001127424
 40
0.5
 50
90.0
 51
176.0686098670479
  0
ARC
  5
1ABCB
  8
01
 10
2367.610640567672
 20
-316.4666553209912
 30
0.0000000001127424
 40
0.5
 50
183.9313901329521
 51
269.9999999998957
  0
ARC
  5
1ABCC
  8
01
 10
2390.758730720665
 20
-644.4666553195726
 30
0.0000000001127424
 40
25.0
 50
25.46756014245872
 51
154.5324398575417
  0
LINE
  5
1ABCE
  8
01
 10
2240.758730720665
 20
-619.4666553195726
 30
0.0000000001127424
 11
2240.758730720665
 21
-669.4666553195726
 31
0.0000000001127424
  0
LINE
  5
1ABCF
  8
01
 10
2249.258730720665
 20
-668.9666553195726
 30
0.0000000001127424
 11
2249.258730720665
 21
-619.9666553195726
 31
0.0000000001127424
  0
LINE
  5
1ABD0
  8
01
 10
2240.758730720665
 20
-669.4666553195726
 30
0.0000000001127424
 11
2248.758730720665
 21
-669.4666553195726
 31
0.0000000001127424
  0
LINE
  5
1ABD1
  8
01
 10
2240.758730720665
 20
-619.4666553195726
 30
0.0000000001127424
 11
2248.758730720665
 21
-619.4666553195726
 31
0.0000000001127424
  0
LINE
  5
1ABD2
  8
01
 10
2238.630445338234
 20
-644.4666553195726
 30
0.0000000001127424
 11
2261.258730720665
 21
-644.4666553195726
 31
0.0000000001127424
  0
LINE
  5
1ABD4
  8
01
 10
2240.758730720665
 20
-524.4666553195726
 30
0.0000000001127424
 11
2240.758730720665
 21
-714.4666553195726
 31
0.0000000001127424
  0
LINE
  5
1ABD5
  8
1CENTER
 10
2255.258730720665
 20
-659.4666553195726
 30
0.0000000001127424
 11
2255.258730720665
 21
-651.4666553195726
 31
0.0000000001127424
  0
LINE
  5
1ABD6
  8
01
 10
2360.758730720665
 20
-644.4666553195726
 30
0.0000000001127424
 11
2420.758730720665
 21
-644.4666553195726
 31
0.0000000001127424
  0
LINE
  5
1ABD7
  8
01
 10
2390.758730720665
 20
-614.4666553195726
 30
0.0000000001127424
 11
2390.758730720665
 21
-674.4666553195726
 31
0.0000000001127424
  0
ARC
  5
1ABD8
  8
01
 10
2248.758730720665
 20
-619.9666553195726
 30
0.0000000001127424
 40
0.5
 50
0.0
 51
90.0
  0
ARC
  5
1ABD9
  8
01
 10
2248.758730720665
 20
-668.9666553195726
 30
0.0000000001127424
 40
0.5
 50
270.0
 51
0.0
  0
LINE
  5
1ABDA
  8
1CENTER
 10
2255.258730720665
 20
-659.4666553195726
 30
0.0000000001127424
 11
2255.258730720665
 21
-651.4666553195726
 31
0.0000000001127424
  0
LINE
  5
1ABDB
  8
01
 10
2249.758730755085
 20
-633.7166553195717
 30
0.0000000001122877
 11
2249.758730755882
 21
-655.2166553195717
 31
0.0000000001122877
  0
CIRCLE
  5
1ABDC
  8
01
 10
2289.008730755289
 20
-644.4666553195717
 30
0.0000000001122877
 40
10.75000000000011
  0
LINE
  5
1ABDD
  8
01
 10
2249.758730755882
 20
-655.2166553195717
 30
0.0000000001122877
 11
2252.161564869226
 21
-655.2013061787717
 31
0.0000000001122877
  0
LINE
  5
1ABDE
  8
01
 10
2258.361442102651
 20
-655.1617017849154
 30
0.0000000001122877
 11
2286.766677173407
 21
-654.9802510763026
 31
0.0000000001122877
  0
LINE
  5
1ABDF
  8
01
 10
2249.758730755085
 20
-633.7166553195717
 30
0.0000000001122877
 11
2286.766677173385
 21
-633.9530595628445
 31
0.0000000001122877
  0
ARC
  5
1ABE0
  8
01
 10
2255.330827560962
 20
-666.0338542546639
 30
0.0000000001122877
 40
11.28664360320378
 50
74.42385397135622
 51
106.3081391531855
  0
LINE
  5
1ABE1
  8
01
 10
2367.610524227925
 20
-655.2166553195708
 30
0.0000000001127424
 11
2516.90693736011
 21
-655.2166553195781
 31
0.0000000001127424
  0
LINE
  5
1ABE2
  8
01
 10
2516.906937360106
 20
-633.7166553195781
 30
0.0000000001127424
 11
2367.610524227928
 21
-633.7166553195781
 31
0.0000000001127424
  0
ARC
  5
1ABE3
  8
01
 10
2367.758730867368
 20
-644.4666553196063
 30
0.0000000001127424
 40
149.9999999999999
 50
356.0686098670475
 51
3.931390132952203
  0
ARC
  5
1ABE4
  8
01
 10
2516.906937360107
 20
-654.7166553195781
 30
0.0000000001127424
 40
0.5
 50
270.0
 51
356.0686098670443
  0
ARC
  5
1ABE5
  8
01
 10
2516.906937360103
 20
-634.2166553195781
 30
0.0000000001127424
 40
0.5
 50
3.931390132955698
 51
90.0
  0
ARC
  5
1ABE6
  8
01
 10
2516.758730720664
 20
-644.4666553195981
 30
0.0000000001127424
 40
149.9999999999999
 50
176.0686098670478
 51
183.9313901329521
  0
ARC
  5
1ABE7
  8
01
 10
2367.610524227925
 20
-654.7166553195708
 30
0.0000000001127424
 40
0.5
 50
183.9313901329521
 51
270.0
  0
ARC
  5
1ABE8
  8
01
 10
2367.610524227928
 20
-634.2166553195917
 30
0.0000000001127424
 40
0.5
 50
90.00000000010422
 51
176.0686098670479
  0
ARC
  5
1ABE9
  8
01
 10
2390.758730720665
 20
-644.4666553195726
 30
0.0000000001127424
 40
25.0
 50
162.2174070555205
 51
197.7825929444564
  0
ARC
  5
1ABEA
  8
01
 10
2390.758730720665
 20
-644.4666553195726
 30
0.0000000001127424
 40
25.0
 50
205.4675601424676
 51
334.5324398575264
  0
ARC
  5
1ABEB
  8
01
 10
2050.758963400154
 20
-644.4666553195726
 30
0.0000000001127424
 40
25.0
 50
25.46756014245872
 51
154.5324398575415
  0
LINE
  5
1ABEC
  8
01
 10
2200.758963400154
 20
-619.4666553195726
 30
0.0000000001127424
 11
2200.758963400154
 21
-669.4666553195726
 31
0.0000000001127424
  0
LINE
  5
1ABED
  8
01
 10
2192.258963400154
 20
-668.9666553195726
 30
0.0000000001127424
 11
2192.258963400154
 21
-619.9666553195726
 31
0.0000000001127424
  0
LINE
  5
1ABEE
  8
01
 10
2200.758963400154
 20
-669.4666553195726
 30
0.0000000001127424
 11
2192.758963400154
 21
-669.4666553195726
 31
0.0000000001127424
  0
LINE
  5
1ABEF
  8
01
 10
2200.758963400154
 20
-619.4666553195726
 30
0.0000000001127424
 11
2192.758963400154
 21
-619.4666553195726
 31
0.0000000001127424
  0
LINE
  5
1ABF0
  8
01
 10
2202.887248782585
 20
-644.4666553195726
 30
0.0000000001127424
 11
2180.258963400154
 21
-644.4666553195726
 31
0.0000000001127424
  0
LINE
  5
1ABF1
  8
01
 10
2200.758963400154
 20
-524.4666553195726
 30
0.0000000001127424
 11
2200.758963400154
 21
-714.4666553195726
 31
0.0000000001127424
  0
LINE
  5
1ABF2
  8
1CENTER
 10
2186.258963400154
 20
-659.4666553195726
 30
0.0000000001127424
 11
2186.258963400154
 21
-651.4666553195726
 31
0.0000000001127424
  0
ARC
  5
1ABF3
  8
01
 10
2192.758963400154
 20
-619.9666553195726
 30
0.0000000001127424
 40
0.5
 50
90.0
 51
180.0
  0
ARC
  5
1ABF4
  8
01
 10
2192.758963400154
 20
-668.9666553195726
 30
0.0000000001127424
 40
0.5
 50
180.0
 51
270.0
  0
LINE
  5
1ABF5
  8
1CENTER
 10
2186.258963400154
 20
-659.4666553195726
 30
0.0000000001127424
 11
2186.258963400154
 21
-651.4666553195726
 31
0.0000000001127424
  0
LINE
  5
1ABF6
  8
01
 10
2191.758963365734
 20
-633.7166553195717
 30
0.0000000001122877
 11
2191.758963364938
 21
-655.2166553195717
 31
0.0000000001122877
  0
CIRCLE
  5
1ABF7
  8
01
 10
2152.508963365531
 20
-644.4666553195717
 30
0.0000000001122877
 40
10.75000000000011
  0
LINE
  5
1ABF8
  8
01
 10
2191.758963364938
 20
-655.2166553195717
 30
0.0000000001122877
 11
2189.356129251593
 21
-655.2013061787717
 31
0.0000000001122877
  0
LINE
  5
1ABF9
  8
01
 10
2183.156252018168
 20
-655.1617017849154
 30
0.0000000001122877
 11
2154.751016947413
 21
-654.9802510763026
 31
0.0000000001122877
  0
LINE
  5
1ABFA
  8
01
 10
2191.758963365734
 20
-633.7166553195717
 30
0.0000000001122877
 11
2154.751016947434
 21
-633.9530595628445
 31
0.0000000001122877
  0
ARC
  5
1ABFB
  8
01
 10
2186.186866559857
 20
-666.0338542546639
 30
0.0000000001122877
 40
11.28664360320378
 50
73.69186084681455
 51
105.5761460286438
  0
LINE
  5
1ABFC
  8
01
 10
2073.907169892894
 20
-655.2166553195708
 30
0.0000000001127424
 11
1924.61075676071
 21
-655.2166553195781
 31
0.0000000001127424
  0
LINE
  5
1ABFD
  8
01
 10
1924.610756760713
 20
-633.7166553195781
 30
0.0000000001127424
 11
2073.907169892891
 21
-633.7166553195781
 31
0.0000000001127424
  0
ARC
  5
1ABFE
  8
01
 10
2073.758963253451
 20
-644.4666553196063
 30
0.0000000001127424
 40
149.9999999999999
 50
176.0686098670478
 51
183.9313901329523
  0
ARC
  5
1ABFF
  8
01
 10
1924.610756760712
 20
-654.7166553195781
 30
0.0000000001127424
 40
0.5
 50
183.9313901329539
 51
270.0
  0
ARC
  5
1AC00
  8
01
 10
1924.610756760716
 20
-634.2166553195781
 30
0.0000000001127424
 40
0.5
 50
90.0
 51
176.0686098670461
  0
ARC
  5
1AC01
  8
01
 10
1924.758963400155
 20
-644.4666553195981
 30
0.0000000001127424
 40
149.9999999999999
 50
356.0686098670478
 51
3.931390132952203
  0
ARC
  5
1AC02
  8
01
 10
2073.907169892894
 20
-654.7166553195708
 30
0.0000000001127424
 40
0.5
 50
270.0
 51
356.0686098670443
  0
ARC
  5
1AC03
  8
01
 10
2073.907169892891
 20
-634.2166553195917
 30
0.0000000001127424
 40
0.5
 50
3.931390132955698
 51
89.99999999989578
  0
ARC
  5
1AC04
  8
01
 10
2050.758963400154
 20
-644.4666553195726
 30
0.0000000001127424
 40
25.0
 50
342.2174070555433
 51
17.78259294447981
  0
ARC
  5
1AC05
  8
01
 10
2050.758963400154
 20
-644.4666553195726
 30
0.0000000001127424
 40
25.0
 50
205.4675601424734
 51
334.5324398575319
  0
LINE
  5
1AC06
  8
01
 10
2382.79670040978
 20
-346.0668426601723
 30
0.0000000001127424
 11
2382.79670040978
 21
-345.2668424486081
 31
0.0000000001127424
  0
LINE
  5
1AC07
  8
01
 10
2380.008847060408
 20
-345.4666553210039
 30
0.0000000001127424
 11
2388.258859025267
 21
-345.4666553206945
 31
0.0000000001127424
  0
LINE
  5
1AC08
  8
01
 10
2393.258847126506
 20
-345.9666553206017
 30
0.0000000001127424
 11
2415.258730720665
 21
-345.9666553206033
 31
0.0000000001127424
  0
LINE
  5
1AC09
  8
01
 10
2393.258847126506
 20
-345.4666553205067
 30
0.0000000001127424
 11
2401.508847060408
 21
-345.4666553201972
 31
0.0000000001127424
  0
LINE
  5
1AD3B
  8
01
 10
2030.758843060406
 20
-588.9666553195717
 30
0.0000000001127424
 11
2030.758843060406
 21
-560.1666553195718
 31
0.0000000001127424
1001
ACAD
1000
DSTYLE
1002
{
1070
     3
1000
φ<>
1070
    40
1040
1.3
1070
    45
1040
0.5
1070
   271
1070
     4
1070
   272
1070
     2
1002
}
  0
LINE
  5
1AD3C
  8
01
 10
2070.758843060406
 20
-588.9666553195717
 30
0.0000000001127424
 11
2070.758843060406
 21
-560.1666553195718
 31
0.0000000001127424
1001
ACAD
1000
DSTYLE
1002
{
1070
     3
1000
φ<>
1070
    40
1040
1.3
1070
    45
1040
0.5
1070
   271
1070
     4
1070
   272
1070
     2
1002
}
  0
LINE
  5
1AD3D
  8
01
 10
2033.358843060406
 20
-561.4666553195717
 30
0.0000000001127424
 11
2068.158843060407
 21
-561.4666553195717
 31
0.0000000001127424
1001
ACAD
1000
DSTYLE
1002
{
1070
     3
1000
φ<>
1070
    40
1040
1.3
1070
    45
1040
0.5
1070
   271
1070
     4
1070
   272
1070
     2
1002
}
  0
LINE
  5
1AD41
  8
01
 10
2200.758847060411
 20
-568.9666553195717
 30
0.0000000001127424
 11
2200.758847060411
 21
-537.1666553195718
 31
0.0000000001127424
1001
ACAD
1000
DSTYLE
1002
{
1070
    40
1040
1.3
1070
    45
1040
0.5
1070
   341
1005
0
1002
}
  0
LINE
  5
1AD42
  8
01
 10
2178.758461494692
 20
-584.4666603195707
 30
0.0000000001127424
 11
2178.758461494692
 21
-537.1666553195718
 31
0.0000000001127424
1001
ACAD
1000
DSTYLE
1002
{
1070
    40
1040
1.3
1070
    45
1040
0.5
1070
   341
1005
0
1002
}
  0
LINE
  5
1AD43
  8
01
 10
2198.158847060412
 20
-538.4666553195717
 30
0.0000000001127424
 11
2181.358461494692
 21
-538.4666553195717
 31
0.0000000001127424
1001
ACAD
1000
DSTYLE
1002
{
1070
    40
1040
1.3
1070
    45
1040
0.5
1070
   341
1005
0
1002
}
  0
LINE
  5
1AD47
  8
01
 10
2370.758730398205
 20
-588.9666553195717
 30
0.0000000001127424
 11
2370.758730398205
 21
-560.1666553195718
 31
0.0000000001127424
1001
ACAD
1000
DSTYLE
1002
{
1070
     3
1000
φ<>
1070
    40
1040
1.3
1070
    45
1040
0.5
1070
   271
1070
     4
1070
   272
1070
     2
1002
}
  0
LINE
  5
1AD48
  8
01
 10
2410.758730398205
 20
-588.9666553195717
 30
0.0000000001127424
 11
2410.758730398205
 21
-560.1666553195718
 31
0.0000000001127424
1001
ACAD
1000
DSTYLE
1002
{
1070
     3
1000
φ<>
1070
    40
1040
1.3
1070
    45
1040
0.5
1070
   271
1070
     4
1070
   272
1070
     2
1002
}
  0
LINE
  5
1AD49
  8
01
 10
2373.358730398205
 20
-561.4666553195717
 30
0.0000000001127424
 11
2408.158730398206
 21
-561.4666553195717
 31
0.0000000001127424
1001
ACAD
1000
DSTYLE
1002
{
1070
     3
1000
φ<>
1070
    40
1040
1.3
1070
    45
1040
0.5
1070
   271
1070
     4
1070
   272
1070
     2
1002
}
  0
LINE
  5
1AD4D
  8
01
 10
2030.758843060406
 20
-588.9666553195717
 30
0.0000000001127424
 11
2030.758843060406
 21
-560.1666553195718
 31
0.0000000001127424
1001
ACAD
1000
DSTYLE
1002
{
1070
     3
1000
φ<>
1070
    40
1040
1.3
1070
    45
1040
0.5
1070
   271
1070
     4
1070
   272
1070
     2
1002
}
  0
LINE
  5
1AD4E
  8
01
 10
2070.758843060406
 20
-588.9666553195717
 30
0.0000000001127424
 11
2070.758843060406
 21
-560.1666553195718
 31
0.0000000001127424
1001
ACAD
1000
DSTYLE
1002
{
1070
     3
1000
φ<>
1070
    40
1040
1.3
1070
    45
1040
0.5
1070
   271
1070
     4
1070
   272
1070
     2
1002
}
  0
LINE
  5
1AD4F
  8
01
 10
2033.358843060406
 20
-561.4666553195717
 30
0.0000000001127424
 11
2068.158843060407
 21
-561.4666553195717
 31
0.0000000001127424
1001
ACAD
1000
DSTYLE
1002
{
1070
     3
1000
φ<>
1070
    40
1040
1.3
1070
    45
1040
0.5
1070
   271
1070
     4
1070
   272
1070
     2
1002
}
  0
LINE
  5
1AD53
  8
01
 10
2200.758847060411
 20
-568.9666553195717
 30
0.0000000001127424
 11
2200.758847060411
 21
-537.1666553195718
 31
0.0000000001127424
1001
ACAD
1000
DSTYLE
1002
{
1070
    40
1040
1.3
1070
    45
1040
0.5
1070
   341
1005
0
1002
}
  0
LINE
  5
1AD54
  8
01
 10
2178.7588222494
 20
-585.8461854947958
 30
0.0000000001127424
 11
2178.7588222494
 21
-537.1666553195718
 31
0.0000000001127424
1001
ACAD
1000
DSTYLE
1002
{
1070
    40
1040
1.3
1070
    45
1040
0.5
1070
   341
1005
0
1002
}
  0
LINE
  5
1AD55
  8
01
 10
2198.158847060412
 20
-538.4666553195717
 30
0.0000000001127424
 11
2181.3588222494
 21
-538.4666553195717
 31
0.0000000001127424
1001
ACAD
1000
DSTYLE
1002
{
1070
    40
1040
1.3
1070
    45
1040
0.5
1070
   341
1005
0
1002
}
  0
LINE
  5
1AD59
  8
01
 10
2240.758847060411
 20
-568.9666553195717
 30
0.0
 11
2240.758847060411
 21
-537.1666553195718
 31
0.0
1001
ACAD
1000
DSTYLE
1002
{
1070
    40
1040
1.3
1070
    45
1040
0.5
1070
   271
1070
     1
1070
   341
1005
0
1002
}
  0
LINE
  5
1AD5A
  8
01
 10
2248.927430749372
 20
-594.4666537518796
 30
0.0
 11
2248.927430749372
 21
-537.1666553195718
 31
0.0
1001
ACAD
1000
DSTYLE
1002
{
1070
    40
1040
1.3
1070
    45
1040
0.5
1070
   271
1070
     1
1070
   341
1005
0
1002
}
  0
LINE
  5
1AD5B
  8
01
 10
2243.35884706041
 20
-538.4666553195717
 30
0.0
 11
2246.327430749372
 21
-538.4666553195717
 31
0.0
1001
ACAD
1000
DSTYLE
1002
{
1070
    40
1040
1.3
1070
    45
1040
0.5
1070
   271
1070
     1
1070
   341
1005
0
1002
}
  0
TEXT
  5
1AD5F
  8
01
  6
CONTINUOUS
 10
2329.21355848035
 20
-431.8833219872673
 30
0.0000000001127424
 40
4.55
  1
材質：アルミ
  0
TEXT
  5
1AD60
  8
01
  6
CONTINUOUS
 10
2311.771891813683
 20
-439.4666553206006
 30
0.0000000001127424
 40
4.55
  1
仕上げ：各種仕上げ
  0
LINE
  5
1AD61
  8
01
 10
2328.758730720665
 20
-616.4666560177033
 30
0.0000000001127424
 11
2328.758730720665
 21
-513.745163234884
 31
0.0000000001127424
1001
ACAD
1000
DSTYLE
1002
{
1070
    40
1040
1.3
1070
    45
1040
0.5
1002
}
  0
LINE
  5
1AD62
  8
01
 10
2339.758730720665
 20
-558.5953379684144
 30
0.0000000001127424
 11
2339.758730720665
 21
-513.745163234884
 31
0.0000000001127424
1001
ACAD
1000
DSTYLE
1002
{
1070
    40
1040
1.3
1070
    45
1040
0.5
1002
}
  0
LINE
  5
1AD63
  8
01
 10
2331.358730720665
 20
-515.045163234884
 30
0.0000000001127424
 11
2337.158730720665
 21
-515.045163234884
 31
0.0000000001127424
1001
ACAD
1000
DSTYLE
1002
{
1070
    40
1040
1.3
1070
    45
1040
0.5
1002
}
  0
LINE
  5
1AD67
  8
01
 10
2408.758730720665
 20
-586.4666553195719
 30
0.0000000001127424
 11
2437.058730720665
 21
-586.4666553195719
 31
0.0000000001127424
1001
ACAD
1000
DSTYLE
1002
{
1070
    40
1040
1.3
1070
    45
1040
0.5
1002
}
  0
LINE
  5
1AD68
  8
01
 10
2408.758730720665
 20
-660.4666553195724
 30
0.0000000001127424
 11
2437.058730720665
 21
-660.4666553195724
 31
0.0000000001127424
1001
ACAD
1000
DSTYLE
1002
{
1070
    40
1040
1.3
1070
    45
1040
0.5
1002
}
  0
LINE
  5
1AD69
  8
01
 10
2435.758730720665
 20
-589.066655319572
 30
0.0000000001127424
 11
2435.758730720665
 21
-657.8666553195724
 31
0.0000000001127424
1001
ACAD
1000
DSTYLE
1002
{
1070
    40
1040
1.3
1070
    45
1040
0.5
1002
}
  0
LINE
  5
1AD6D
  8
01
 10
2408.758730720665
 20
-586.4666553195719
 30
0.0000000001127424
 11
2408.758730720665
 21
-503.6652957668358
 31
0.0000000001127424
1001
ACAD
1000
DSTYLE
1002
{
1070
    40
1040
1.3
1070
    45
1040
0.5
1002
}
  0
LINE
  5
1AD6E
  8
01
 10
2339.758730720665
 20
-558.5953379684144
 30
0.0000000001127424
 11
2339.758730720665
 21
-503.6652957668358
 31
0.0000000001127424
1001
ACAD
1000
DSTYLE
1002
{
1070
    40
1040
1.3
1070
    45
1040
0.5
1002
}
  0
LINE
  5
1AD6F
  8
01
 10
2406.158730720665
 20
-504.9652957668358
 30
0.0000000001127424
 11
2342.358730720665
 21
-504.9652957668358
 31
0.0000000001127424
1001
ACAD
1000
DSTYLE
1002
{
1070
    40
1040
1.3
1070
    45
1040
0.5
1002
}
  0
LINE
  5
1AD73
  8
01
 10
2339.758730720665
 20
-558.5953379684144
 30
0.0000000001127424
 11
2339.758730720665
 21
-513.745163234884
 31
0.0000000001127424
1001
ACAD
1000
DSTYLE
1002
{
1070
    40
1040
1.3
1070
    45
1040
0.5
1002
}
  0
LINE
  5
1AD74
  8
01
 10
2390.758730720665
 20
-594.4666553195719
 30
0.0000000001127424
 11
2390.758730720665
 21
-513.745163234884
 31
0.0000000001127424
1001
ACAD
1000
DSTYLE
1002
{
1070
    40
1040
1.3
1070
    45
1040
0.5
1002
}
  0
LINE
  5
1AD75
  8
01
 10
2342.358730720665
 20
-515.045163234884
 30
0.0000000001127424
 11
2388.158730720665
 21
-515.045163234884
 31
0.0000000001127424
1001
ACAD
1000
DSTYLE
1002
{
1070
    40
1040
1.3
1070
    45
1040
0.5
1002
}
  0
LINE
  5
1AD79
  8
01
 10
2208.25884706041
 20
-564.4666553195724
 30
0.0000000001127424
 11
2208.25884706041
 21
-513.7451632348842
 31
0.0000000001127424
1001
ACAD
1000
DSTYLE
1002
{
1070
    40
1040
1.3
1070
    45
1040
0.5
1002
}
  0
LINE
  5
1AD7A
  8
01
 10
2233.25884706041
 20
-564.4666553195724
 30
0.0000000001127424
 11
2233.25884706041
 21
-513.7451632348842
 31
0.0000000001127424
1001
ACAD
1000
DSTYLE
1002
{
1070
    40
1040
1.3
1070
    45
1040
0.5
1002
}
  0
LINE
  5
1AD7B
  8
01
 10
2210.85884706041
 20
-515.0451632348842
 30
0.0000000001127424
 11
2230.65884706041
 21
-515.0451632348842
 31
0.0000000001127424
1001
ACAD
1000
DSTYLE
1002
{
1070
    40
1040
1.3
1070
    45
1040
0.5
1002
}
  0
LINE
  5
1AD7F
  8
01
 10
2226.560786663646
 20
-566.4662101751561
 30
0.0000000001691137
 11
2306.846917831854
 21
-566.4662101751561
 31
0.0000000001691137
1001
ACAD
1000
DSTYLE
1002
{
1070
    40
1040
1.3
1070
    45
1040
0.5
1002
}
  0
LINE
  5
1AD80
  8
01
 10
2226.560786663646
 20
-680.4662101751561
 30
0.0000000001691137
 11
2306.846917831854
 21
-680.4662101751561
 31
0.0000000001691137
1001
ACAD
1000
DSTYLE
1002
{
1070
    40
1040
1.3
1070
    45
1040
0.5
1002
}
  0
LINE
  5
1AD81
  8
01
 10
2305.546917831854
 20
-569.0662101751561
 30
0.0000000001691137
 11
2305.546917831854
 21
-677.8662101751561
 31
0.0000000001691137
1001
ACAD
1000
DSTYLE
1002
{
1070
    40
1040
1.3
1070
    45
1040
0.5
1002
}
  0
LINE
  5
1AD85
  8
01
 10
2227.158847060409
 20
-558.5666553195725
 30
0.0000000001691137
 11
2316.211251998078
 21
-558.5666553195725
 31
0.0000000001691137
1001
ACAD
1000
DSTYLE
1002
{
1070
    40
1040
1.3
1070
    45
1040
0.5
1002
}
  0
LINE
  5
1AD86
  8
01
 10
2227.085761255739
 20
-688.366210175156
 30
0.0000000001691137
 11
2316.211251998078
 21
-688.366210175156
 31
0.0000000001691137
1001
ACAD
1000
DSTYLE
1002
{
1070
    40
1040
1.3
1070
    45
1040
0.5
1002
}
  0
LINE
  5
1AD87
  8
01
 10
2314.911251998078
 20
-561.1666553195726
 30
0.0000000001691137
 11
2314.911251998078
 21
-685.766210175156
 31
0.0000000001691137
1001
ACAD
1000
DSTYLE
1002
{
1070
    40
1040
1.3
1070
    45
1040
0.5
1002
}
  0
LINE
  5
1AD8B
  8
01
 10
2390.758730720665
 20
-619.4666553195726
 30
0.0000000001127424
 11
2354.458730720665
 21
-619.4666553195726
 31
0.0000000001127424
1001
ACAD
1000
DSTYLE
1002
{
1070
     3
1000
φ<>
1070
    40
1040
1.3
1070
    45
1040
0.5
1002
}
  0
LINE
  5
1AD8C
  8
01
 10
2390.758730720665
 20
-669.4666553195717
 30
0.0000000001127424
 11
2354.458730720665
 21
-669.4666553195717
 31
0.0000000001127424
1001
ACAD
1000
DSTYLE
1002
{
1070
     3
1000
φ<>
1070
    40
1040
1.3
1070
    45
1040
0.5
1002
}
  0
LINE
  5
1AD8D
  8
01
 10
2355.758730720665
 20
-622.0666553195726
 30
0.0000000001127424
 11
2355.758730720665
 21
-666.8666553195717
 31
0.0000000001127424
1001
ACAD
1000
DSTYLE
1002
{
1070
     3
1000
φ<>
1070
    40
1040
1.3
1070
    45
1040
0.5
1002
}
  0
LINE
  5
1AD91
  8
01
  6
BYBLOCK
 10
2033.358843060406
 20
-562.1633232135717
 30
0.0000000001127424
 11
2030.758843060406
 21
-561.4666553195717
 31
0.0000000001127424
  0
LINE
  5
1AD92
  8
01
  6
BYBLOCK
 10
2030.758843060406
 20
-561.4666553195717
 30
0.0000000001127424
 11
2033.358843060406
 21
-560.7699874255717
 31
0.0000000001127424
  0
LINE
  5
1AD93
  8
01
  6
BYBLOCK
 10
2030.758843060406
 20
-561.4666553195717
 30
0.0000000001127424
 11
2033.358843060406
 21
-561.4666553195717
 31
0.0000000001127424
  0
LINE
  5
1AD94
  8
01
  6
BYBLOCK
 10
2068.158843060407
 20
-560.7699874255717
 30
0.0000000001127424
 11
2070.758843060406
 21
-561.4666553195717
 31
0.0000000001127424
  0
LINE
  5
1AD95
  8
01
  6
BYBLOCK
 10
2070.758843060406
 20
-561.4666553195717
 30
0.0000000001127424
 11
2068.158843060407
 21
-562.1633232135717
 31
0.0000000001127424
  0
LINE
  5
1AD96
  8
01
  6
BYBLOCK
 10
2070.758843060406
 20
-561.4666553195717
 30
0.0000000001127424
 11
2068.158843060407
 21
-561.4666553195717
 31
0.0000000001127424
  0
TEXT
  5
1AD97
  8
01
  6
CONTINUOUS
 10
2043.914884727073
 20
-560.5566553195717
 30
0.0000000001127424
 40
4.55
  1
φ40
1001
ACAD
1000
DSTYLE
1002
{
1070
     3
1000
φ<>
1070
    40
1040
1.3
1070
    45
1040
0.5
1070
   271
1070
     4
1070
   272
1070
     2
1002
}
  0
LINE
  5
1AD98
  8
01
  6
BYBLOCK
 10
2198.158847060412
 20
-537.7699874255717
 30
0.0000000001127424
 11
2200.758847060411
 21
-538.4666553195717
 31
0.0000000001127424
  0
LINE
  5
1AD99
  8
01
  6
BYBLOCK
 10
2200.758847060411
 20
-538.4666553195717
 30
0.0000000001127424
 11
2198.158847060412
 21
-539.1633232135717
 31
0.0000000001127424
  0
LINE
  5
1AD9A
  8
01
  6
BYBLOCK
 10
2200.758847060411
 20
-538.4666553195717
 30
0.0000000001127424
 11
2198.158847060412
 21
-538.4666553195717
 31
0.0000000001127424
  0
LINE
  5
1AD9B
  8
01
  6
BYBLOCK
 10
2181.358461494692
 20
-539.1633232135717
 30
0.0000000001127424
 11
2178.758461494692
 21
-538.4666553195717
 31
0.0000000001127424
  0
LINE
  5
1AD9C
  8
01
  6
BYBLOCK
 10
2178.758461494692
 20
-538.4666553195717
 30
0.0000000001127424
 11
2181.358461494692
 21
-537.7699874255717
 31
0.0000000001127424
  0
LINE
  5
1AD9D
  8
01
  6
BYBLOCK
 10
2178.758461494692
 20
-538.4666553195717
 30
0.0000000001127424
 11
2181.358461494692
 21
-538.4666553195717
 31
0.0000000001127424
  0
TEXT
  5
1AD9E
  8
01
  6
CONTINUOUS
 10
2185.966987610885
 20
-537.5566553195717
 30
0.0000000001127424
 40
4.55
  1
22
1001
ACAD
1000
DSTYLE
1002
{
1070
    40
1040
1.3
1070
    45
1040
0.5
1070
   341
1005
0
1002
}
  0
LINE
  5
1AD9F
  8
01
  6
BYBLOCK
 10
2373.358730398205
 20
-562.1633232135717
 30
0.0000000001127424
 11
2370.758730398205
 21
-561.4666553195717
 31
0.0000000001127424
  0
LINE
  5
1ADA0
  8
01
  6
BYBLOCK
 10
2370.758730398205
 20
-561.4666553195717
 30
0.0000000001127424
 11
2373.358730398205
 21
-560.7699874255717
 31
0.0000000001127424
  0
LINE
  5
1ADA1
  8
01
  6
BYBLOCK
 10
2370.758730398205
 20
-561.4666553195717
 30
0.0000000001127424
 11
2373.358730398205
 21
-561.4666553195717
 31
0.0000000001127424
  0
LINE
  5
1ADA2
  8
01
  6
BYBLOCK
 10
2408.158730398206
 20
-560.7699874255717
 30
0.0000000001127424
 11
2410.758730398205
 21
-561.4666553195717
 31
0.0000000001127424
  0
LINE
  5
1ADA3
  8
01
  6
BYBLOCK
 10
2410.758730398205
 20
-561.4666553195717
 30
0.0000000001127424
 11
2408.158730398206
 21
-562.1633232135717
 31
0.0000000001127424
  0
LINE
  5
1ADA4
  8
01
  6
BYBLOCK
 10
2410.758730398205
 20
-561.4666553195717
 30
0.0000000001127424
 11
2408.158730398206
 21
-561.4666553195717
 31
0.0000000001127424
  0
TEXT
  5
1ADA5
  8
01
  6
CONTINUOUS
 10
2383.914772064873
 20
-560.5566553195717
 30
0.0000000001127424
 40
4.55
  1
φ40
1001
ACAD
1000
DSTYLE
1002
{
1070
     3
1000
φ<>
1070
    40
1040
1.3
1070
    45
1040
0.5
1070
   271
1070
     4
1070
   272
1070
     2
1002
}
  0
LINE
  5
1ADA6
  8
01
  6
BYBLOCK
 10
2033.358843060406
 20
-562.1633232135717
 30
0.0000000001127424
 11
2030.758843060406
 21
-561.4666553195717
 31
0.0000000001127424
  0
LINE
  5
1ADA7
  8
01
  6
BYBLOCK
 10
2030.758843060406
 20
-561.4666553195717
 30
0.0000000001127424
 11
2033.358843060406
 21
-560.7699874255717
 31
0.0000000001127424
  0
LINE
  5
1ADA8
  8
01
  6
BYBLOCK
 10
2030.758843060406
 20
-561.4666553195717
 30
0.0000000001127424
 11
2033.358843060406
 21
-561.4666553195717
 31
0.0000000001127424
  0
LINE
  5
1ADA9
  8
01
  6
BYBLOCK
 10
2068.158843060407
 20
-560.7699874255717
 30
0.0000000001127424
 11
2070.758843060406
 21
-561.4666553195717
 31
0.0000000001127424
  0
LINE
  5
1ADAA
  8
01
  6
BYBLOCK
 10
2070.758843060406
 20
-561.4666553195717
 30
0.0000000001127424
 11
2068.158843060407
 21
-562.1633232135717
 31
0.0000000001127424
  0
LINE
  5
1ADAB
  8
01
  6
BYBLOCK
 10
2070.758843060406
 20
-561.4666553195717
 30
0.0000000001127424
 11
2068.158843060407
 21
-561.4666553195717
 31
0.0000000001127424
  0
TEXT
  5
1ADAC
  8
01
  6
CONTINUOUS
 10
2043.914884727073
 20
-560.5566553195717
 30
0.0000000001127424
 40
4.55
  1
φ40
1001
ACAD
1000
DSTYLE
1002
{
1070
     3
1000
φ<>
1070
    40
1040
1.3
1070
    45
1040
0.5
1070
   271
1070
     4
1070
   272
1070
     2
1002
}
  0
LINE
  5
1ADAD
  8
01
  6
BYBLOCK
 10
2198.158847060412
 20
-537.7699874255717
 30
0.0000000001127424
 11
2200.758847060411
 21
-538.4666553195717
 31
0.0000000001127424
  0
LINE
  5
1ADAE
  8
01
  6
BYBLOCK
 10
2200.758847060411
 20
-538.4666553195717
 30
0.0000000001127424
 11
2198.158847060412
 21
-539.1633232135717
 31
0.0000000001127424
  0
LINE
  5
1ADAF
  8
01
  6
BYBLOCK
 10
2200.758847060411
 20
-538.4666553195717
 30
0.0000000001127424
 11
2198.158847060412
 21
-538.4666553195717
 31
0.0000000001127424
  0
LINE
  5
1ADB0
  8
01
  6
BYBLOCK
 10
2181.3588222494
 20
-539.1633232135717
 30
0.0000000001127424
 11
2178.7588222494
 21
-538.4666553195717
 31
0.0000000001127424
  0
LINE
  5
1ADB1
  8
01
  6
BYBLOCK
 10
2178.7588222494
 20
-538.4666553195717
 30
0.0000000001127424
 11
2181.3588222494
 21
-537.7699874255717
 31
0.0000000001127424
  0
LINE
  5
1ADB2
  8
01
  6
BYBLOCK
 10
2178.7588222494
 20
-538.4666553195717
 30
0.0000000001127424
 11
2181.3588222494
 21
-538.4666553195717
 31
0.0000000001127424
  0
TEXT
  5
1ADB3
  8
01
  6
CONTINUOUS
 10
2185.967167988239
 20
-537.5566553195717
 30
0.0000000001127424
 40
4.55
  1
22
1001
ACAD
1000
DSTYLE
1002
{
1070
    40
1040
1.3
1070
    45
1040
0.5
1070
   341
1005
0
1002
}
  0
LINE
  5
1ADB4
  8
01
  6
BYBLOCK
 10
2243.35884706041
 20
-539.1633232135717
 30
0.0
 11
2240.758847060411
 21
-538.4666553195717
 31
0.0
  0
LINE
  5
1ADB5
  8
01
  6
BYBLOCK
 10
2240.758847060411
 20
-538.4666553195717
 30
0.0
 11
2243.35884706041
 21
-537.7699874255717
 31
0.0
  0
LINE
  5
1ADB6
  8
01
  6
BYBLOCK
 10
2240.758847060411
 20
-538.4666553195717
 30
0.0
 11
2243.35884706041
 21
-538.4666553195717
 31
0.0
  0
LINE
  5
1ADB7
  8
01
  6
BYBLOCK
 10
2246.327430749372
 20
-537.7699874255717
 30
0.0
 11
2248.927430749372
 21
-538.4666553195717
 31
0.0
  0
LINE
  5
1ADB8
  8
01
  6
BYBLOCK
 10
2248.927430749372
 20
-538.4666553195717
 30
0.0
 11
2246.327430749372
 21
-539.1633232135717
 31
0.0
  0
LINE
  5
1ADB9
  8
01
  6
BYBLOCK
 10
2248.927430749372
 20
-538.4666553195717
 30
0.0
 11
2246.327430749372
 21
-538.4666553195717
 31
0.0
  0
TEXT
  5
1ADBA
  8
01
  6
CONTINUOUS
 10
2243.326472238224
 20
-537.5566553195717
 30
0.0
 40
4.55
  1
8
1001
ACAD
1000
DSTYLE
1002
{
1070
    40
1040
1.3
1070
    45
1040
0.5
1070
   271
1070
     1
1070
   341
1005
0
1002
}
  0
LINE
  5
1ADBB
  8
01
  6
BYBLOCK
 10
2331.358730720665
 20
-515.741831128884
 30
0.0000000001127424
 11
2328.758730720665
 21
-515.045163234884
 31
0.0000000001127424
  0
LINE
  5
1ADBC
  8
01
  6
BYBLOCK
 10
2328.758730720665
 20
-515.045163234884
 30
0.0000000001127424
 11
2331.358730720665
 21
-514.3484953408839
 31
0.0000000001127424
  0
LINE
  5
1ADBD
  8
01
  6
BYBLOCK
 10
2328.758730720665
 20
-515.045163234884
 30
0.0000000001127424
 11
2331.358730720665
 21
-515.045163234884
 31
0.0000000001127424
  0
LINE
  5
1ADBE
  8
01
  6
BYBLOCK
 10
2337.158730720665
 20
-514.3484953408839
 30
0.0000000001127424
 11
2339.758730720665
 21
-515.045163234884
 31
0.0000000001127424
  0
LINE
  5
1ADBF
  8
01
  6
BYBLOCK
 10
2339.758730720665
 20
-515.045163234884
 30
0.0000000001127424
 11
2337.158730720665
 21
-515.741831128884
 31
0.0000000001127424
  0
LINE
  5
1ADC0
  8
01
  6
BYBLOCK
 10
2339.758730720665
 20
-515.045163234884
 30
0.0000000001127424
 11
2337.158730720665
 21
-515.045163234884
 31
0.0000000001127424
  0
TEXT
  5
1ADC1
  8
01
  6
CONTINUOUS
 10
2331.983730720665
 20
-514.135163234884
 30
0.0000000001127424
 40
4.55
  1
11
1001
ACAD
1000
DSTYLE
1002
{
1070
    40
1040
1.3
1070
    45
1040
0.5
1002
}
  0
LINE
  5
1ADC2
  8
01
  6
BYBLOCK
 10
2435.062062826665
 20
-589.066655319572
 30
0.0000000001127424
 11
2435.758730720665
 21
-586.4666553195719
 31
0.0000000001127424
  0
LINE
  5
1ADC3
  8
01
  6
BYBLOCK
 10
2435.758730720665
 20
-586.4666553195719
 30
0.0000000001127424
 11
2436.455398614665
 21
-589.066655319572
 31
0.0000000001127424
  0
LINE
  5
1ADC4
  8
01
  6
BYBLOCK
 10
2435.758730720665
 20
-586.4666553195719
 30
0.0000000001127424
 11
2435.758730720665
 21
-589.066655319572
 31
0.0000000001127424
  0
LINE
  5
1ADC5
  8
01
  6
BYBLOCK
 10
2436.455398614665
 20
-657.8666553195724
 30
0.0000000001127424
 11
2435.758730720665
 21
-660.4666553195724
 31
0.0000000001127424
  0
LINE
  5
1ADC6
  8
01
  6
BYBLOCK
 10
2435.758730720665
 20
-660.4666553195724
 30
0.0000000001127424
 11
2435.062062826665
 21
-657.8666553195724
 31
0.0000000001127424
  0
LINE
  5
1ADC7
  8
01
  6
BYBLOCK
 10
2435.758730720665
 20
-660.4666553195724
 30
0.0000000001127424
 11
2435.758730720665
 21
-657.8666553195724
 31
0.0000000001127424
  0
TEXT
  5
1ADC8
  8
01
  6
CONTINUOUS
 10
2434.848730720665
 20
-605.4953112335534
 30
0.0000000001127424
 40
4.55
  1
74
 50
90.0
1001
ACAD
1000
DSTYLE
1002
{
1070
    40
1040
1.3
1070
    45
1040
0.5
1002
}
  0
LINE
  5
1ADC9
  8
01
  6
BYBLOCK
 10
2406.158730720665
 20
-504.2686278728358
 30
0.0000000001127424
 11
2408.758730720665
 21
-504.9652957668358
 31
0.0000000001127424
  0
LINE
  5
1ADCA
  8
01
  6
BYBLOCK
 10
2408.758730720665
 20
-504.9652957668358
 30
0.0000000001127424
 11
2406.158730720665
 21
-505.6619636608357
 31
0.0000000001127424
  0
LINE
  5
1ADCB
  8
01
  6
BYBLOCK
 10
2408.758730720665
 20
-504.9652957668358
 30
0.0000000001127424
 11
2406.158730720665
 21
-504.9652957668358
 31
0.0000000001127424
  0
LINE
  5
1ADCC
  8
01
  6
BYBLOCK
 10
2342.358730720665
 20
-505.6619636608357
 30
0.0000000001127424
 11
2339.758730720665
 21
-504.9652957668358
 31
0.0000000001127424
  0
LINE
  5
1ADCD
  8
01
  6
BYBLOCK
 10
2339.758730720665
 20
-504.9652957668358
 30
0.0000000001127424
 11
2342.358730720665
 21
-504.2686278728358
 31
0.0000000001127424
  0
LINE
  5
1ADCE
  8
01
  6
BYBLOCK
 10
2339.758730720665
 20
-504.9652957668358
 30
0.0000000001127424
 11
2342.358730720665
 21
-504.9652957668358
 31
0.0000000001127424
  0
TEXT
  5
1ADCF
  8
01
  6
CONTINUOUS
 10
2370.450212202146
 20
-504.0552957668358
 30
0.0000000001127424
 40
4.55
  1
69
1001
ACAD
1000
DSTYLE
1002
{
1070
    40
1040
1.3
1070
    45
1040
0.5
1002
}
  0
LINE
  5
1ADD0
  8
01
  6
BYBLOCK
 10
2342.358730720665
 20
-515.741831128884
 30
0.0000000001127424
 11
2339.758730720665
 21
-515.045163234884
 31
0.0000000001127424
  0
LINE
  5
1ADD1
  8
01
  6
BYBLOCK
 10
2339.758730720665
 20
-515.045163234884
 30
0.0000000001127424
 11
2342.358730720665
 21
-514.3484953408839
 31
0.0000000001127424
  0
LINE
  5
1ADD2
  8
01
  6
BYBLOCK
 10
2339.758730720665
 20
-515.045163234884
 30
0.0000000001127424
 11
2342.358730720665
 21
-515.045163234884
 31
0.0000000001127424
  0
LINE
  5
1ADD3
  8
01
  6
BYBLOCK
 10
2388.158730720665
 20
-514.3484953408839
 30
0.0000000001127424
 11
2390.758730720665
 21
-515.045163234884
 31
0.0000000001127424
  0
LINE
  5
1ADD4
  8
01
  6
BYBLOCK
 10
2390.758730720665
 20
-515.045163234884
 30
0.0000000001127424
 11
2388.158730720665
 21
-515.741831128884
 31
0.0000000001127424
  0
LINE
  5
1ADD5
  8
01
  6
BYBLOCK
 10
2390.758730720665
 20
-515.045163234884
 30
0.0000000001127424
 11
2388.158730720665
 21
-515.045163234884
 31
0.0000000001127424
  0
TEXT
  5
1ADD6
  8
01
  6
CONTINUOUS
 10
2362.20959877622
 20
-514.135163234884
 30
0.0000000001127424
 40
4.55
  1
51
1001
ACAD
1000
DSTYLE
1002
{
1070
    40
1040
1.3
1070
    45
1040
0.5
1002
}
  0
LINE
  5
1ADD7
  8
01
  6
BYBLOCK
 10
2210.85884706041
 20
-515.7418311288842
 30
0.0000000001127424
 11
2208.25884706041
 21
-515.0451632348842
 31
0.0000000001127424
  0
LINE
  5
1ADD8
  8
01
  6
BYBLOCK
 10
2208.25884706041
 20
-515.0451632348842
 30
0.0000000001127424
 11
2210.85884706041
 21
-514.3484953408841
 31
0.0000000001127424
  0
LINE
  5
1ADD9
  8
01
  6
BYBLOCK
 10
2208.25884706041
 20
-515.0451632348842
 30
0.0000000001127424
 11
2210.85884706041
 21
-515.0451632348842
 31
0.0000000001127424
  0
LINE
  5
1ADDA
  8
01
  6
BYBLOCK
 10
2230.65884706041
 20
-514.3484953408841
 30
0.0000000001127424
 11
2233.25884706041
 21
-515.0451632348842
 31
0.0000000001127424
  0
LINE
  5
1ADDB
  8
01
  6
BYBLOCK
 10
2233.25884706041
 20
-515.0451632348842
 30
0.0000000001127424
 11
2230.65884706041
 21
-515.7418311288842
 31
0.0000000001127424
  0
LINE
  5
1ADDC
  8
01
  6
BYBLOCK
 10
2233.25884706041
 20
-515.0451632348842
 30
0.0000000001127424
 11
2230.65884706041
 21
-515.0451632348842
 31
0.0000000001127424
  0
TEXT
  5
1ADDD
  8
01
  6
CONTINUOUS
 10
2216.967180393743
 20
-514.1351632348842
 30
0.0000000001127424
 40
4.55
  1
25
1001
ACAD
1000
DSTYLE
1002
{
1070
    40
1040
1.3
1070
    45
1040
0.5
1002
}
  0
LINE
  5
1ADDE
  8
01
  6
BYBLOCK
 10
2304.850249937854
 20
-569.0662101751561
 30
0.0000000001691137
 11
2305.546917831854
 21
-566.4662101751561
 31
0.0000000001691137
  0
LINE
  5
1ADDF
  8
01
  6
BYBLOCK
 10
2305.546917831854
 20
-566.4662101751561
 30
0.0000000001691137
 11
2306.243585725853
 21
-569.0662101751561
 31
0.0000000001691137
  0
LINE
  5
1ADE0
  8
01
  6
BYBLOCK
 10
2305.546917831854
 20
-566.4662101751561
 30
0.0000000001691137
 11
2305.546917831854
 21
-569.0662101751561
 31
0.0000000001691137
  0
LINE
  5
1ADE1
  8
01
  6
BYBLOCK
 10
2306.243585725853
 20
-677.8662101751561
 30
0.0000000001691137
 11
2305.546917831854
 21
-680.4662101751561
 31
0.0000000001691137
  0
LINE
  5
1ADE2
  8
01
  6
BYBLOCK
 10
2305.546917831854
 20
-680.4662101751561
 30
0.0000000001691137
 11
2304.850249937854
 21
-677.8662101751561
 31
0.0000000001691137
  0
LINE
  5
1ADE3
  8
01
  6
BYBLOCK
 10
2305.546917831854
 20
-680.4662101751561
 30
0.0000000001691137
 11
2305.546917831854
 21
-677.8662101751561
 31
0.0000000001691137
  0
TEXT
  5
1ADE4
  8
01
  6
CONTINUOUS
 10
2304.636917831854
 20
-598.8831878272345
 30
0.0000000001691137
 40
4.55
  1
114
 50
90.0
1001
ACAD
1000
DSTYLE
1002
{
1070
    40
1040
1.3
1070
    45
1040
0.5
1002
}
  0
LINE
  5
1ADE5
  8
01
  6
BYBLOCK
 10
2314.214584104078
 20
-561.1666553195726
 30
0.0000000001691137
 11
2314.911251998078
 21
-558.5666553195725
 31
0.0000000001691137
  0
LINE
  5
1ADE6
  8
01
  6
BYBLOCK
 10
2314.911251998078
 20
-558.5666553195725
 30
0.0000000001691137
 11
2315.607919892078
 21
-561.1666553195726
 31
0.0000000001691137
  0
LINE
  5
1ADE7
  8
01
  6
BYBLOCK
 10
2314.911251998078
 20
-558.5666553195725
 30
0.0000000001691137
 11
2314.911251998078
 21
-561.1666553195726
 31
0.0000000001691137
  0
LINE
  5
1ADE8
  8
01
  6
BYBLOCK
 10
2315.607919892078
 20
-685.766210175156
 30
0.0000000001691137
 11
2314.911251998078
 21
-688.366210175156
 31
0.0000000001691137
  0
LINE
  5
1ADE9
  8
01
  6
BYBLOCK
 10
2314.911251998078
 20
-688.366210175156
 30
0.0000000001691137
 11
2314.214584104078
 21
-685.766210175156
 31
0.0000000001691137
  0
LINE
  5
1ADEA
  8
01
  6
BYBLOCK
 10
2314.911251998078
 20
-688.366210175156
 30
0.0000000001691137
 11
2314.911251998078
 21
-685.766210175156
 31
0.0000000001691137
  0
TEXT
  5
1ADEB
  8
01
  6
CONTINUOUS
 10
2314.001251998078
 20
-599.6677518300421
 30
0.0000000001691137
 40
4.55
  1
130
 50
90.0
1001
ACAD
1000
DSTYLE
1002
{
1070
    40
1040
1.3
1070
    45
1040
0.5
1002
}
  0
LINE
  5
1ADEC
  8
01
  6
BYBLOCK
 10
2355.062062826665
 20
-622.0666553195726
 30
0.0000000001127424
 11
2355.758730720665
 21
-619.4666553195726
 31
0.0000000001127424
  0
LINE
  5
1ADED
  8
01
  6
BYBLOCK
 10
2355.758730720665
 20
-619.4666553195726
 30
0.0000000001127424
 11
2356.455398614665
 21
-622.0666553195726
 31
0.0000000001127424
  0
LINE
  5
1ADEE
  8
01
  6
BYBLOCK
 10
2355.758730720665
 20
-619.4666553195726
 30
0.0000000001127424
 11
2355.758730720665
 21
-622.0666553195726
 31
0.0000000001127424
  0
LINE
  5
1ADEF
  8
01
  6
BYBLOCK
 10
2356.455398614665
 20
-666.8666553195717
 30
0.0000000001127424
 11
2355.758730720665
 21
-669.4666553195717
 31
0.0000000001127424
  0
LINE
  5
1ADF0
  8
01
  6
BYBLOCK
 10
2355.758730720665
 20
-669.4666553195717
 30
0.0000000001127424
 11
2355.062062826665
 21
-666.8666553195717
 31
0.0000000001127424
  0
LINE
  5
1ADF1
  8
01
  6
BYBLOCK
 10
2355.758730720665
 20
-669.4666553195717
 30
0.0000000001127424
 11
2355.758730720665
 21
-666.8666553195717
 31
0.0000000001127424
  0
TEXT
  5
1ADF2
  8
01
  6
CONTINUOUS
 10
2354.848730720665
 20
-652.6661582261713
 30
0.0000000001127424
 40
4.55
  1
φ50
 50
90.0
1001
ACAD
1000
DSTYLE
1002
{
1070
     3
1000
φ<>
1070
    40
1040
1.3
1070
    45
1040
0.5
1002
}
  0
LINE
  5
1ADF3
  8
1DIM
 10
2020.758851060409
 20
-644.4666553195717
 30
0.0000000001127424
 11
2005.764998658121
 21
-644.4666553195717
 31
0.0000000001127424
1001
ACAD
1000
DSTYLE
1002
{
1070
    40
1040
1.3
1070
    45
1040
0.5
1070
   341
1005
0
1002
}
  0
LINE
  5
1ADF4
  8
1DIM
 10
2028.25884306041
 20
-588.9666553195717
 30
0.0000000001127424
 11
2005.764998658121
 21
-588.9666553195717
 31
0.0000000001127424
1001
ACAD
1000
DSTYLE
1002
{
1070
    40
1040
1.3
1070
    45
1040
0.5
1070
   341
1005
0
1002
}
  0
LINE
  5
1ADF5
  8
1DIM
 10
2007.064998658121
 20
-641.8666553195717
 30
0.0000000001127424
 11
2007.064998658121
 21
-591.5666553195717
 31
0.0000000001127424
1001
ACAD
1000
DSTYLE
1002
{
1070
    40
1040
1.3
1070
    45
1040
0.5
1070
   341
1005
0
1002
}
  0
LINE
  5
1ADF9
  8
1DIM
 10
2020.758851060409
 20
-644.4666553195717
 30
0.0000000001127424
 11
2005.764998658121
 21
-644.4666553195717
 31
0.0000000001127424
1001
ACAD
1000
DSTYLE
1002
{
1070
    40
1040
1.3
1070
    45
1040
0.5
1070
   341
1005
0
1002
}
  0
LINE
  5
1ADFA
  8
1DIM
 10
2028.25884306041
 20
-588.9666553195717
 30
0.0000000001127424
 11
2005.764998658121
 21
-588.9666553195717
 31
0.0000000001127424
1001
ACAD
1000
DSTYLE
1002
{
1070
    40
1040
1.3
1070
    45
1040
0.5
1070
   341
1005
0
1002
}
  0
LINE
  5
1ADFB
  8
1DIM
 10
2007.064998658121
 20
-641.8666553195717
 30
0.0000000001127424
 11
2007.064998658121
 21
-591.5666553195717
 31
0.0000000001127424
1001
ACAD
1000
DSTYLE
1002
{
1070
    40
1040
1.3
1070
    45
1040
0.5
1070
   341
1005
0
1002
}
  0
SOLID
  5
1ADFF
  8
1DIM
 10
2388.128580075411
 20
-420.5174123745158
 30
0.0000000001127424
 11
2390.499331960726
 21
-419.3653215464755
 31
0.0000000001127424
 12
2388.630379905333
 22
-421.224029697967
 32
0.0000000001127424
 13
2388.630379905333
 23
-421.224029697967
 33
0.0000000001127424
1001
ACAD
1000
DSTYLE
1002
{
1070
    40
1040
1.3
1070
    45
1040
0.5
1002
}
  0
LINE
  5
1AE00
  8
1DIM
 10
2388.379479990372
 20
-420.8707210362414
 30
0.0000000001127424
 11
2360.911891813683
 21
-440.3766553206006
 31
0.0000000001127424
1001
ACAD
1000
DSTYLE
1002
{
1070
    40
1040
1.3
1070
    45
1040
0.5
1002
}
  0
LINE
  5
1AE01
  8
1DIM
 10
2407.159614902725
 20
-364.9666553206006
 30
0.0000000001127424
 11
2427.720005662438
 21
-364.9666553206006
 31
0.0000000001127424
1001
ACAD
1000
DSTYLE
1002
{
1070
    45
1040
0.5
1070
    40
1040
1.3
1002
}
  0
LINE
  5
1AE02
  8
1DIM
 10
2408.759614902725
 20
-383.7666553206005
 30
0.0000000001127424
 11
2427.720005662438
 21
-383.7666553206005
 31
0.0000000001127424
1001
ACAD
1000
DSTYLE
1002
{
1070
    45
1040
0.5
1070
    40
1040
1.3
1002
}
  0
LINE
  5
1AE03
  8
1DIM
 10
2426.420005662438
 20
-367.5666553206006
 30
0.0000000001127424
 11
2426.420005662438
 21
-381.1666553206005
 31
0.0000000001127424
1001
ACAD
1000
DSTYLE
1002
{
1070
    45
1040
0.5
1070
    40
1040
1.3
1002
}
  0
LINE
  5
1AE07
  8
1DIM
 10
2390.758847060408
 20
-415.9666553206006
 30
0.0000000001127424
 11
2390.758847060408
 21
-480.7666553206006
 31
0.0000000001127424
1001
ACAD
1000
DSTYLE
1002
{
1070
    40
1040
1.3
1070
    45
1040
0.5
1002
}
  0
LINE
  5
1AE08
  8
1DIM
 10
2517.748638526387
 20
-444.4666553206006
 30
0.0000000001127424
 11
2517.748638526387
 21
-480.7666553206006
 31
0.0000000001127424
1001
ACAD
1000
DSTYLE
1002
{
1070
    40
1040
1.3
1070
    45
1040
0.5
1002
}
  0
LINE
  5
1AE09
  8
1DIM
 10
2393.358847060408
 20
-479.4666553206006
 30
0.0000000001127424
 11
2515.148638526387
 21
-479.4666553206006
 31
0.0000000001127424
1001
ACAD
1000
DSTYLE
1002
{
1070
    40
1040
1.3
1070
    45
1040
0.5
1002
}
  0
LINE
  5
1AE0D
  8
1DIM
 10
2366.758847060408
 20
-442.7166553202163
 30
0.0000000001127424
 11
2366.758847060408
 21
-490.7666553206006
 31
0.0000000001127424
1001
ACAD
1000
DSTYLE
1002
{
1070
    40
1040
1.3
1070
    45
1040
0.5
1002
}
  0
LINE
  5
1AE0E
  8
1DIM
 10
2517.758847207116
 20
-442.7166553202245
 30
0.0000000001127424
 11
2517.758847207116
 21
-490.7666553206006
 31
0.0000000001127424
1001
ACAD
1000
DSTYLE
1002
{
1070
    40
1040
1.3
1070
    45
1040
0.5
1002
}
  0
LINE
  5
1AE0F
  8
1DIM
 10
2369.358847060408
 20
-489.4666553206006
 30
0.0000000001127424
 11
2515.158847207116
 21
-489.4666553206006
 31
0.0000000001127424
1001
ACAD
1000
DSTYLE
1002
{
1070
    40
1040
1.3
1070
    45
1040
0.5
1002
}
  0
LINE
  5
1AE13
  8
1DIM
 10
2516.90705369985
 20
-431.9666553201963
 30
0.0000000001127424
 11
2547.058847060408
 21
-431.9666553201963
 31
0.0000000001127424
1001
ACAD
1000
DSTYLE
1002
{
1070
    40
1040
1.3
1070
    45
1040
0.5
1002
}
  0
LINE
  5
1AE14
  8
1DIM
 10
2493.513995057756
 20
-394.4666553206006
 30
0.0000000001127424
 11
2547.058847060408
 21
-394.4666553206006
 31
0.0000000001127424
1001
ACAD
1000
DSTYLE
1002
{
1070
    40
1040
1.3
1070
    45
1040
0.5
1002
}
  0
LINE
  5
1AE15
  8
1DIM
 10
2545.758847060408
 20
-429.3666553201963
 30
0.0000000001127424
 11
2545.758847060408
 21
-397.0666553206006
 31
0.0000000001127424
1001
ACAD
1000
DSTYLE
1002
{
1070
    40
1040
1.3
1070
    45
1040
0.5
1002
}
  0
LINE
  5
1AE19
  8
1DIM
 10
2516.907053699853
 20
-453.4666553201963
 30
0.0000000001127424
 11
2557.058847060408
 21
-453.4666553201963
 31
0.0000000001127424
1001
ACAD
1000
DSTYLE
1002
{
1070
    40
1040
1.3
1070
    45
1040
0.5
1002
}
  0
LINE
  5
1AE1A
  8
1DIM
 10
2493.513995057756
 20
-394.4666553206006
 30
0.0000000001127424
 11
2557.058847060408
 21
-394.4666553206006
 31
0.0000000001127424
1001
ACAD
1000
DSTYLE
1002
{
1070
    40
1040
1.3
1070
    45
1040
0.5
1002
}
  0
LINE
  5
1AE1B
  8
1DIM
 10
2555.758847060408
 20
-450.8666553201963
 30
0.0000000001127424
 11
2555.758847060408
 21
-397.0666553206006
 31
0.0000000001127424
1001
ACAD
1000
DSTYLE
1002
{
1070
    40
1040
1.3
1070
    45
1040
0.5
1002
}
  0
LINE
  5
1AE1F
  8
1DIM
 10
2516.90693736011
 20
-655.2166553195781
 30
0.0000000001127424
 11
2547.058730720665
 21
-655.2166553195781
 31
0.0000000001127424
1001
ACAD
1000
DSTYLE
1002
{
1070
    40
1040
1.3
1070
    45
1040
0.5
1002
}
  0
LINE
  5
1AE20
  8
1DIM
 10
2516.906937360106
 20
-633.7166553195781
 30
0.0000000001127424
 11
2547.058730720665
 21
-633.7166553195781
 31
0.0000000001127424
1001
ACAD
1000
DSTYLE
1002
{
1070
    40
1040
1.3
1070
    45
1040
0.5
1002
}
  0
LINE
  5
1AE21
  8
1DIM
 10
2545.758730720665
 20
-652.6166553195781
 30
0.0000000001127424
 11
2545.758730720665
 21
-636.3166553195781
 31
0.0000000001127424
1001
ACAD
1000
DSTYLE
1002
{
1070
    40
1040
1.3
1070
    45
1040
0.5
1002
}
  0
LINE
  5
1AE25
  8
0
  6
BYBLOCK
 10
2007.761666552121
 20
-641.8666553195717
 30
0.0000000001127424
 11
2007.064998658121
 21
-644.4666553195717
 31
0.0000000001127424
  0
LINE
  5
1AE26
  8
0
  6
BYBLOCK
 10
2007.064998658121
 20
-644.4666553195717
 30
0.0000000001127424
 11
2006.368330764121
 21
-641.8666553195717
 31
0.0000000001127424
  0
LINE
  5
1AE27
  8
0
  6
BYBLOCK
 10
2007.064998658121
 20
-644.4666553195717
 30
0.0000000001127424
 11
2007.064998658121
 21
-641.8666553195717
 31
0.0000000001127424
  0
LINE
  5
1AE28
  8
0
  6
BYBLOCK
 10
2006.368330764121
 20
-591.5666553195717
 30
0.0000000001127424
 11
2007.064998658121
 21
-588.9666553195717
 31
0.0000000001127424
  0
LINE
  5
1AE29
  8
0
  6
BYBLOCK
 10
2007.064998658121
 20
-588.9666553195717
 30
0.0000000001127424
 11
2007.761666552121
 21
-591.5666553195717
 31
0.0000000001127424
  0
LINE
  5
1AE2A
  8
0
  6
BYBLOCK
 10
2007.064998658121
 20
-588.9666553195717
 30
0.0000000001127424
 11
2007.064998658121
 21
-591.5666553195717
 31
0.0000000001127424
  0
TEXT
  5
1AE2B
  8
1DIM
  6
CONTINUOUS
 10
2006.154998658121
 20
-623.5732525417939
 30
0.0000000001127424
 40
4.55
  1
55.5
 50
90.0
1001
ACAD
1000
DSTYLE
1002
{
1070
    40
1040
1.3
1070
    45
1040
0.5
1070
   341
1005
0
1002
}
  0
LINE
  5
1AE2C
  8
0
  6
BYBLOCK
 10
2007.761666552121
 20
-641.8666553195717
 30
0.0000000001127424
 11
2007.064998658121
 21
-644.4666553195717
 31
0.0000000001127424
  0
LINE
  5
1AE2D
  8
0
  6
BYBLOCK
 10
2007.064998658121
 20
-644.4666553195717
 30
0.0000000001127424
 11
2006.368330764121
 21
-641.8666553195717
 31
0.0000000001127424
  0
LINE
  5
1AE2E
  8
0
  6
BYBLOCK
 10
2007.064998658121
 20
-644.4666553195717
 30
0.0000000001127424
 11
2007.064998658121
 21
-641.8666553195717
 31
0.0000000001127424
  0
LINE
  5
1AE2F
  8
0
  6
BYBLOCK
 10
2006.368330764121
 20
-591.5666553195717
 30
0.0000000001127424
 11
2007.064998658121
 21
-588.9666553195717
 31
0.0000000001127424
  0
LINE
  5
1AE30
  8
0
  6
BYBLOCK
 10
2007.064998658121
 20
-588.9666553195717
 30
0.0000000001127424
 11
2007.761666552121
 21
-591.5666553195717
 31
0.0000000001127424
  0
LINE
  5
1AE31
  8
0
  6
BYBLOCK
 10
2007.064998658121
 20
-588.9666553195717
 30
0.0000000001127424
 11
2007.064998658121
 21
-591.5666553195717
 31
0.0000000001127424
  0
TEXT
  5
1AE32
  8
1DIM
  6
CONTINUOUS
 10
2006.154998658121
 20
-623.5732525417939
 30
0.0000000001127424
 40
4.55
  1
55.5
 50
90.0
1001
ACAD
1000
DSTYLE
1002
{
1070
    40
1040
1.3
1070
    45
1040
0.5
1070
   341
1005
0
1002
}
  0
LINE
  5
1AE33
  8
0
  6
BYBLOCK
 10
2425.723337768438
 20
-367.5666553206006
 30
0.0000000001127424
 11
2426.420005662438
 21
-364.9666553206006
 31
0.0000000001127424
  0
LINE
  5
1AE34
  8
0
  6
BYBLOCK
 10
2426.420005662438
 20
-364.9666553206006
 30
0.0000000001127424
 11
2427.116673556437
 21
-367.5666553206006
 31
0.0000000001127424
  0
LINE
  5
1AE35
  8
0
  6
BYBLOCK
 10
2426.420005662438
 20
-364.9666553206006
 30
0.0000000001127424
 11
2426.420005662438
 21
-367.5666553206006
 31
0.0000000001127424
  0
LINE
  5
1AE36
  8
0
  6
BYBLOCK
 10
2427.116673556437
 20
-381.1666553206005
 30
0.0000000001127424
 11
2426.420005662438
 21
-383.7666553206005
 31
0.0000000001127424
  0
LINE
  5
1AE37
  8
0
  6
BYBLOCK
 10
2426.420005662438
 20
-383.7666553206005
 30
0.0000000001127424
 11
2425.723337768438
 21
-381.1666553206005
 31
0.0000000001127424
  0
LINE
  5
1AE38
  8
0
  6
BYBLOCK
 10
2426.420005662438
 20
-383.7666553206005
 30
0.0000000001127424
 11
2426.420005662438
 21
-381.1666553206005
 31
0.0000000001127424
  0
TEXT
  5
1AE39
  8
1DIM
  6
CONTINUOUS
 10
2425.510005662438
 20
-377.401041894675
 30
0.0000000001127424
 40
4.55
  1
19
 50
90.0
1001
ACAD
1000
DSTYLE
1002
{
1070
    45
1040
0.5
1070
    40
1040
1.3
1002
}
  0
LINE
  5
1AE3A
  8
0
  6
BYBLOCK
 10
2393.358847060408
 20
-480.1633232146006
 30
0.0000000001127424
 11
2390.758847060408
 21
-479.4666553206006
 31
0.0000000001127424
  0
LINE
  5
1AE3B
  8
0
  6
BYBLOCK
 10
2390.758847060408
 20
-479.4666553206006
 30
0.0000000001127424
 11
2393.358847060408
 21
-478.7699874266006
 31
0.0000000001127424
  0
LINE
  5
1AE3C
  8
0
  6
BYBLOCK
 10
2390.758847060408
 20
-479.4666553206006
 30
0.0000000001127424
 11
2393.358847060408
 21
-479.4666553206006
 31
0.0000000001127424
  0
LINE
  5
1AE3D
  8
0
  6
BYBLOCK
 10
2515.148638526387
 20
-478.7699874266006
 30
0.0000000001127424
 11
2517.748638526387
 21
-479.4666553206006
 31
0.0000000001127424
  0
LINE
  5
1AE3E
  8
0
  6
BYBLOCK
 10
2517.748638526387
 20
-479.4666553206006
 30
0.0000000001127424
 11
2515.148638526387
 21
-480.1633232146006
 31
0.0000000001127424
  0
LINE
  5
1AE3F
  8
0
  6
BYBLOCK
 10
2517.748638526387
 20
-479.4666553206006
 30
0.0000000001127424
 11
2515.148638526387
 21
-479.4666553206006
 31
0.0000000001127424
  0
TEXT
  5
1AE40
  8
1DIM
  6
CONTINUOUS
 10
2448.945409460064
 20
-478.5566553206006
 30
0.0000000001127424
 40
4.55
  1
127
1001
ACAD
1000
DSTYLE
1002
{
1070
    40
1040
1.3
1070
    45
1040
0.5
1002
}
  0
LINE
  5
1AE41
  8
0
  6
BYBLOCK
 10
2369.358847060408
 20
-490.1633232146006
 30
0.0000000001127424
 11
2366.758847060408
 21
-489.4666553206006
 31
0.0000000001127424
  0
LINE
  5
1AE42
  8
0
  6
BYBLOCK
 10
2366.758847060408
 20
-489.4666553206006
 30
0.0000000001127424
 11
2369.358847060408
 21
-488.7699874266006
 31
0.0000000001127424
  0
LINE
  5
1AE43
  8
0
  6
BYBLOCK
 10
2366.758847060408
 20
-489.4666553206006
 30
0.0000000001127424
 11
2369.358847060408
 21
-489.4666553206006
 31
0.0000000001127424
  0
LINE
  5
1AE44
  8
0
  6
BYBLOCK
 10
2515.158847207116
 20
-488.7699874266006
 30
0.0000000001127424
 11
2517.758847207116
 21
-489.4666553206006
 31
0.0000000001127424
  0
LINE
  5
1AE45
  8
0
  6
BYBLOCK
 10
2517.758847207116
 20
-489.4666553206006
 30
0.0000000001127424
 11
2515.158847207116
 21
-490.1633232146006
 31
0.0000000001127424
  0
LINE
  5
1AE46
  8
0
  6
BYBLOCK
 10
2517.758847207116
 20
-489.4666553206006
 30
0.0000000001127424
 11
2515.158847207116
 21
-489.4666553206006
 31
0.0000000001127424
  0
TEXT
  5
1AE47
  8
1DIM
  6
CONTINUOUS
 10
2437.693048522651
 20
-488.5566553206006
 30
0.0000000001127424
 40
4.55
  1
151
1001
ACAD
1000
DSTYLE
1002
{
1070
    40
1040
1.3
1070
    45
1040
0.5
1002
}
  0
LINE
  5
1AE48
  8
0
  6
BYBLOCK
 10
2546.455514954408
 20
-429.3666553201963
 30
0.0000000001127424
 11
2545.758847060408
 21
-431.9666553201963
 31
0.0000000001127424
  0
LINE
  5
1AE49
  8
0
  6
BYBLOCK
 10
2545.758847060408
 20
-431.9666553201963
 30
0.0000000001127424
 11
2545.062179166408
 21
-429.3666553201963
 31
0.0000000001127424
  0
LINE
  5
1AE4A
  8
0
  6
BYBLOCK
 10
2545.758847060408
 20
-431.9666553201963
 30
0.0000000001127424
 11
2545.758847060408
 21
-429.3666553201963
 31
0.0000000001127424
  0
LINE
  5
1AE4B
  8
0
  6
BYBLOCK
 10
2545.062179166408
 20
-397.0666553206006
 30
0.0000000001127424
 11
2545.758847060408
 21
-394.4666553206006
 31
0.0000000001127424
  0
LINE
  5
1AE4C
  8
0
  6
BYBLOCK
 10
2545.758847060408
 20
-394.4666553206006
 30
0.0000000001127424
 11
2546.455514954408
 21
-397.0666553206006
 31
0.0000000001127424
  0
LINE
  5
1AE4D
  8
0
  6
BYBLOCK
 10
2545.758847060408
 20
-394.4666553206006
 30
0.0000000001127424
 11
2545.758847060408
 21
-397.0666553206006
 31
0.0000000001127424
  0
TEXT
  5
1AE4E
  8
1DIM
  6
CONTINUOUS
 10
2544.848847060408
 20
-420.0416553203981
 30
0.0000000001127424
 40
4.55
  1
37.5
 50
90.0
1001
ACAD
1000
DSTYLE
1002
{
1070
    40
1040
1.3
1070
    45
1040
0.5
1002
}
  0
LINE
  5
1AE4F
  8
0
  6
BYBLOCK
 10
2556.455514954408
 20
-450.8666553201963
 30
0.0000000001127424
 11
2555.758847060408
 21
-453.4666553201963
 31
0.0000000001127424
  0
LINE
  5
1AE50
  8
0
  6
BYBLOCK
 10
2555.758847060408
 20
-453.4666553201963
 30
0.0000000001127424
 11
2555.062179166408
 21
-450.8666553201963
 31
0.0000000001127424
  0
LINE
  5
1AE51
  8
0
  6
BYBLOCK
 10
2555.758847060408
 20
-453.4666553201963
 30
0.0000000001127424
 11
2555.758847060408
 21
-450.8666553201963
 31
0.0000000001127424
  0
LINE
  5
1AE52
  8
0
  6
BYBLOCK
 10
2555.062179166408
 20
-397.0666553206006
 30
0.0000000001127424
 11
2555.758847060408
 21
-394.4666553206006
 31
0.0000000001127424
  0
LINE
  5
1AE53
  8
0
  6
BYBLOCK
 10
2555.758847060408
 20
-394.4666553206006
 30
0.0000000001127424
 11
2556.455514954408
 21
-397.0666553206006
 31
0.0000000001127424
  0
LINE
  5
1AE54
  8
0
  6
BYBLOCK
 10
2555.758847060408
 20
-394.4666553206006
 30
0.0000000001127424
 11
2555.758847060408
 21
-397.0666553206006
 31
0.0000000001127424
  0
TEXT
  5
1AE55
  8
1DIM
  6
CONTINUOUS
 10
2554.848847060408
 20
-427.775173838917
 30
0.0000000001127424
 40
4.55
  1
59
 50
90.0
1001
ACAD
1000
DSTYLE
1002
{
1070
    40
1040
1.3
1070
    45
1040
0.5
1002
}
  0
LINE
  5
1AE56
  8
0
  6
BYBLOCK
 10
2546.455398614665
 20
-652.6166553195781
 30
0.0000000001127424
 11
2545.758730720665
 21
-655.2166553195781
 31
0.0000000001127424
  0
LINE
  5
1AE57
  8
0
  6
BYBLOCK
 10
2545.758730720665
 20
-655.2166553195781
 30
0.0000000001127424
 11
2545.062062826665
 21
-652.6166553195781
 31
0.0000000001127424
  0
LINE
  5
1AE58
  8
0
  6
BYBLOCK
 10
2545.758730720665
 20
-655.2166553195781
 30
0.0000000001127424
 11
2545.758730720665
 21
-652.6166553195781
 31
0.0000000001127424
  0
LINE
  5
1AE59
  8
0
  6
BYBLOCK
 10
2545.062062826665
 20
-636.3166553195781
 30
0.0000000001127424
 11
2545.758730720665
 21
-633.7166553195781
 31
0.0000000001127424
  0
LINE
  5
1AE5A
  8
0
  6
BYBLOCK
 10
2545.758730720665
 20
-633.7166553195781
 30
0.0000000001127424
 11
2546.455398614665
 21
-636.3166553195781
 31
0.0000000001127424
  0
LINE
  5
1AE5B
  8
0
  6
BYBLOCK
 10
2545.758730720665
 20
-633.7166553195781
 30
0.0000000001127424
 11
2545.758730720665
 21
-636.3166553195781
 31
0.0000000001127424
  0
TEXT
  5
1AE5C
  8
1DIM
  6
CONTINUOUS
 10
2544.848730720665
 20
-650.5333219862446
 30
0.0000000001127424
 40
4.55
  1
21.5
 50
90.0
1001
ACAD
1000
DSTYLE
1002
{
1070
    40
1040
1.3
1070
    45
1040
0.5
1002
}
  0
VIEWPORT
  5
57
 67
     1
  8
0
 10
0.0
 20
0.0
 30
0.0
 40
541.7763157894738
 41
297.0
 68
     1
 69
     1
1001
ACAD
1000
MVIEW
1002
{
1070
    16
1010
0.0
1020
0.0
1030
0.0
1010
0.0
1020
0.0
1030
1.0
1040
0.0
1040
297.0
1040
1.837278951023421
1040
12.29366132359621
1040
50.0
1040
0.0
1040
0.0
1070
    16
1070
   100
1070
     0
1070
     1
1070
     0
1070
     0
1070
     0
1070
     0
1040
0.0
1040
0.0
1040
0.0
1040
10.0
1040
10.0
1040
10.0
1040
10.0
1070
     0
1002
{
1002
}
1002
}
  0
ENDSEC
  0
EOF
