  0
SECTION
  2
HEADER
  9
$ACADVER
  1
AC1012
  9
$DWGCODEPAGE
  3
ansi_932
  9
$INSBASE
 10
0.0
 20
0.0
 30
0.0
  9
$EXTMIN
 10
4630.859443523997
 20
-183.2881770525044
 30
0.0
  9
$EXTMAX
 10
5243.159210844508
 20
233.2118229454388
 30
0.0000000001691137
  9
$LIMMIN
 10
0.0
 20
0.0
  9
$LIMMAX
 10
420.0
 20
297.0
  9
$ORTHOMODE
 70
     0
  9
$REGENMODE
 70
     1
  9
$FILLMODE
 70
     1
  9
$QTEXTMODE
 70
     0
  9
$MIRRTEXT
 70
     0
  9
$DRAGMODE
 70
     2
  9
$LTSCALE
 40
0.5
  9
$OSMODE
 70
 16383
  9
$ATTMODE
 70
     1
  9
$TEXTSIZE
 40
4.0
  9
$TRACEWID
 40
1.0
  9
$TEXTSTYLE
  7
STANDARD
  9
$CLAYER
  8
1TEXT
  9
$CELTYPE
  6
BYLAYER
  9
$CECOLOR
 62
   256
  9
$CELTSCALE
 40
1.0
  9
$DELOBJ
 70
     1
  9
$DISPSILH
 70
     0
  9
$DIMSCALE
 40
1.0
  9
$DIMASZ
 40
2.0
  9
$DIMEXO
 40
0.0
  9
$DIMDLI
 40
7.0
  9
$DIMRND
 40
0.0
  9
$DIMDLE
 40
0.0
  9
$DIMEXE
 40
1.0
  9
$DIMTP
 40
0.0
  9
$DIMTM
 40
0.0
  9
$DIMTXT
 40
3.5
  9
$DIMCEN
 40
0.0
  9
$DIMTSZ
 40
0.0
  9
$DIMTOL
 70
     0
  9
$DIMLIM
 70
     0
  9
$DIMTIH
 70
     0
  9
$DIMTOH
 70
     0
  9
$DIMSE1
 70
     0
  9
$DIMSE2
 70
     0
  9
$DIMTAD
 70
     1
  9
$DIMZIN
 70
     8
  9
$DIMBLK
  1

  9
$DIMASO
 70
     1
  9
$DIMSHO
 70
     1
  9
$DIMPOST
  1
 
  9
$DIMAPOST
  1

  9
$DIMALT
 70
     0
  9
$DIMALTD
 70
     2
  9
$DIMALTF
 40
25.4
  9
$DIMLFAC
 40
1.0
  9
$DIMTOFL
 70
     1
  9
$DIMTVP
 40
0.0
  9
$DIMTIX
 70
     0
  9
$DIMSOXD
 70
     0
  9
$DIMSAH
 70
     1
  9
$DIMBLK1
  1
OPEN30
  9
$DIMBLK2
  1
OPEN30
  9
$DIMSTYLE
  2
NEWX10
  9
$DIMCLRD
 70
   256
  9
$DIMCLRE
 70
   256
  9
$DIMCLRT
 70
   201
  9
$DIMTFAC
 40
0.7
  9
$DIMGAP
 40
0.7
  9
$DIMJUST
 70
     0
  9
$DIMSD1
 70
     0
  9
$DIMSD2
 70
     0
  9
$DIMTOLJ
 70
     1
  9
$DIMTZIN
 70
     8
  9
$DIMALTZ
 70
     0
  9
$DIMALTTZ
 70
     0
  9
$DIMFIT
 70
     2
  9
$DIMUPT
 70
     0
  9
$DIMUNIT
 70
     2
  9
$DIMDEC
 70
     2
  9
$DIMTDEC
 70
     4
  9
$DIMALTU
 70
     2
  9
$DIMALTTD
 70
     2
  9
$DIMTXSTY
  7
STANDARD
  9
$DIMAUNIT
 70
     0
  9
$LUNITS
 70
     2
  9
$LUPREC
 70
     4
  9
$SKETCHINC
 40
1.0
  9
$FILLETRAD
 40
0.0
  9
$AUNITS
 70
     0
  9
$AUPREC
 70
     2
  9
$MENU
  1
acad
  9
$ELEVATION
 40
0.0
  9
$PELEVATION
 40
0.0
  9
$THICKNESS
 40
0.0
  9
$LIMCHECK
 70
     0
  9
$CHAMFERA
 40
10.0
  9
$CHAMFERB
 40
10.0
  9
$CHAMFERC
 40
20.0
  9
$CHAMFERD
 40
0.0
  9
$SKPOLY
 70
     0
  9
$TDCREATE
 40
2451318.621352917
  9
$TDUPDATE
 40
2458967.581236933
  9
$TDINDWG
 40
1.4834785648
  9
$TDUSRTIMER
 40
1.4834785648
  9
$USRTIMER
 70
     1
  9
$ANGBASE
 50
0.0
  9
$ANGDIR
 70
     0
  9
$PDMODE
 70
     0
  9
$PDSIZE
 40
0.0
  9
$PLINEWID
 40
0.0
  9
$COORDS
 70
     2
  9
$SPLFRAME
 70
     0
  9
$SPLINETYPE
 70
     6
  9
$SPLINESEGS
 70
     8
  9
$ATTDIA
 70
     0
  9
$ATTREQ
 70
     1
  9
$HANDLING
 70
     1
  9
$HANDSEED
  5
E5EF
  9
$SURFTAB1
 70
     6
  9
$SURFTAB2
 70
     6
  9
$SURFTYPE
 70
     6
  9
$SURFU
 70
     6
  9
$SURFV
 70
     6
  9
$UCSNAME
  2

  9
$UCSORG
 10
0.0
 20
0.0
 30
0.0
  9
$UCSXDIR
 10
1.0
 20
0.0
 30
0.0
  9
$UCSYDIR
 10
0.0
 20
1.0
 30
0.0
  9
$PUCSNAME
  2

  9
$PUCSORG
 10
0.0
 20
0.0
 30
0.0
  9
$PUCSXDIR
 10
1.0
 20
0.0
 30
0.0
  9
$PUCSYDIR
 10
0.0
 20
1.0
 30
0.0
  9
$USERI1
 70
     0
  9
$USERI2
 70
     0
  9
$USERI3
 70
     0
  9
$USERI4
 70
     0
  9
$USERI5
 70
     0
  9
$USERR1
 40
0.0
  9
$USERR2
 40
0.0
  9
$USERR3
 40
0.0
  9
$USERR4
 40
0.0
  9
$USERR5
 40
0.0
  9
$WORLDVIEW
 70
     1
  9
$SHADEDGE
 70
     3
  9
$SHADEDIF
 70
    70
  9
$TILEMODE
 70
     1
  9
$MAXACTVP
 70
    48
  9
$PINSBASE
 10
0.0
 20
0.0
 30
0.0
  9
$PLIMCHECK
 70
     0
  9
$PEXTMIN
 10
1.000000000000000E+20
 20
1.000000000000000E+20
 30
1.000000000000000E+20
  9
$PEXTMAX
 10
-1.000000000000000E+20
 20
-1.000000000000000E+20
 30
-1.000000000000000E+20
  9
$PLIMMIN
 10
0.0
 20
0.0
  9
$PLIMMAX
 10
420.0
 20
297.0
  9
$UNITMODE
 70
     0
  9
$VISRETAIN
 70
     1
  9
$PLINEGEN
 70
     0
  9
$PSLTSCALE
 70
     1
  9
$TREEDEPTH
 70
  3020
  9
$PICKSTYLE
 70
     0
  9
$CMLSTYLE
  2
STANDARD
  9
$CMLJUST
 70
     0
  9
$CMLSCALE
 40
20.0
  9
$SAVEIMAGES
 70
     1
  0
ENDSEC
  0
SECTION
  2
CLASSES
  0
CLASS
  1
DICTIONARYVAR
  2
AcDbDictionaryVar
  3
ObjectDBX Classes
 90
        0
280
     0
281
     0
  0
CLASS
  1
IDBUFFER
  2
AcDbIdBuffer
  3
ObjectDBX Classes
 90
    32768
280
     0
281
     0
  0
CLASS
  1
LWPOLYLINE
  2
AcDbPolyline
  3
ObjectDBX Classes
 90
    32768
280
     0
281
     1
  0
CLASS
  1
ACDBDICTIONARYWDFLT
  2
AcDbDictionaryWithDefault
  3
ObjectDBX Classes
 90
    32768
280
     0
281
     0
  0
CLASS
  1
ACDBPLACEHOLDER
  2
AcDbPlaceHolder
  3
ObjectDBX Classes
 90
        0
280
     0
281
     0
  0
CLASS
  1
LAYOUT
  2
AcDbLayout
  3
ObjectDBX Classes
 90
        0
280
     0
281
     0
  0
CLASS
  1
TABLESTYLE
  2
AcDbTableStyle
  3
ObjectDBX Classes
 90
     4095
280
     0
281
     0
  0
CLASS
  1
SORTENTSTABLE
  2
AcDbSortentsTable
  3
ObjectDBX Classes
 90
    32768
280
     0
281
     0
  0
CLASS
  1
MATERIAL
  2
AcDbMaterial
  3
ObjectDBX Classes
 90
     1153
280
     0
281
     0
  0
CLASS
  1
VISUALSTYLE
  2
AcDbVisualStyle
  3
ObjectDBX Classes
 90
     4095
280
     0
281
     0
  0
CLASS
  1
SCALE
  2
AcDbScale
  3
ObjectDBX Classes
 90
     1153
280
     0
281
     0
  0
CLASS
  1
MLEADERSTYLE
  2
AcDbMLeaderStyle
  3
ACDB_MLEADERSTYLE_CLASS
 90
     4095
280
     0
281
     0
  0
CLASS
  1
CELLSTYLEMAP
  2
AcDbCellStyleMap
  3
ObjectDBX Classes
 90
     1152
280
     0
281
     0
  0
CLASS
  1
SUN
  2
AcDbSun
  3
SCENEOE
 90
     1153
280
     0
281
     0
  0
CLASS
  1
XRECORD
  2
AcDbXrecord
  3
ObjectDBX Classes
 90
    32768
280
     0
281
     0
  0
CLASS
  1
HATCH
  2
AcDbHatch
  3
ObjectDBX Classes
 90
    32768
280
     0
281
     1
  0
ENDSEC
  0
SECTION
  2
TABLES
  0
TABLE
  2
VPORT
  5
8
330
0
100
AcDbSymbolTable
 70
     1
  0
VPORT
  5
952D
330
8
100
AcDbSymbolTableRecord
100
AcDbViewportTableRecord
  2
*ACTIVE
 70
     0
 10
0.0
 20
0.0
 11
1.0
 21
1.0
 12
4937.009327184252
 22
24.96182294646724
 13
0.0
 23
0.0
 14
10.0
 24
10.0
 15
10.0
 25
10.0
 16
0.0
 26
0.0
 36
1.0
 17
0.0
 27
0.0
 37
0.0
 40
447.1894736820022
 41
1.803066037735849
 42
50.0
 43
0.0
 44
0.0
 50
0.0
 51
0.0
 71
    16
 72
   100
 73
     1
 74
     1
 75
     0
 76
     0
 77
     0
 78
     0
1001
ACAD_NAV_VCDISPLAY
1070
     3
  0
ENDTAB
  0
TABLE
  2
LTYPE
  5
5
330
0
100
AcDbSymbolTable
 70
     3
  0
LTYPE
  5
12
330
5
100
AcDbSymbolTableRecord
100
AcDbLinetypeTableRecord
  2
BYBLOCK
 70
     0
  3

 72
    65
 73
     0
 40
0.0
  0
LTYPE
  5
13
330
5
100
AcDbSymbolTableRecord
100
AcDbLinetypeTableRecord
  2
BYLAYER
 70
     0
  3

 72
    65
 73
     0
 40
0.0
  0
LTYPE
  5
14
330
5
100
AcDbSymbolTableRecord
100
AcDbLinetypeTableRecord
  2
CONTINUOUS
 70
     0
  3
Solid line
 72
    65
 73
     0
 40
0.0
  0
LTYPE
  5
2C03
330
5
100
AcDbSymbolTableRecord
100
AcDbLinetypeTableRecord
  2
HIDDEN
 70
     0
  3
Hidden __ __ __ __ __ __ __ __ __ __ __ __ __ _
 72
    65
 73
     2
 40
9.524999999999999
 49
6.35
 74
     0
 49
-3.175
 74
     0
  0
LTYPE
  5
9837
330
5
100
AcDbSymbolTableRecord
100
AcDbLinetypeTableRecord
  2
CENTER2
 70
     0
  3
Center (.5x) ___ _ ___ _ ___ _ ___ _ ___ _ ___
 72
    65
 73
     4
 40
28.575
 49
19.05
 74
     0
 49
-3.175
 74
     0
 49
3.175
 74
     0
 49
-3.175
 74
     0
  0
ENDTAB
  0
TABLE
  2
LAYER
  5
2
102
{ACAD_XDICTIONARY
360
96D9
102
}
330
0
100
AcDbSymbolTable
 70
     6
  0
LAYER
  5
E
102
{ACAD_XDICTIONARY
360
9593
102
}
330
2
100
AcDbSymbolTableRecord
100
AcDbLayerTableRecord
  2
0
 70
     0
 62
     7
  6
CONTINUOUS
  0
LAYER
  5
29
102
{ACAD_XDICTIONARY
360
9595
102
}
330
2
100
AcDbSymbolTableRecord
100
AcDbLayerTableRecord
  2
1CENTER
 70
     0
 62
     7
  6
CENTER2
  0
LAYER
  5
31
102
{ACAD_XDICTIONARY
360
9597
102
}
330
2
100
AcDbSymbolTableRecord
100
AcDbLayerTableRecord
  2
1TEXT
 70
     0
 62
     7
  6
CONTINUOUS
  0
LAYER
  5
243
102
{ACAD_XDICTIONARY
360
959D
102
}
330
2
100
AcDbSymbolTableRecord
100
AcDbLayerTableRecord
  2
01
 70
     0
 62
     1
  6
CONTINUOUS
  0
LAYER
  5
24E
102
{ACAD_XDICTIONARY
360
95A3
102
}
330
2
100
AcDbSymbolTableRecord
100
AcDbLayerTableRecord
  2
1DIM
 70
     0
 62
     7
  6
CONTINUOUS
  0
LAYER
  5
2C05
102
{ACAD_XDICTIONARY
360
95AF
102
}
330
2
100
AcDbSymbolTableRecord
100
AcDbLayerTableRecord
  2
1HIDDEN
 70
     0
 62
     7
  6
HIDDEN
  0
ENDTAB
  0
TABLE
  2
STYLE
  5
3
330
0
100
AcDbSymbolTable
 70
     1
  0
STYLE
  5
F
330
3
100
AcDbSymbolTableRecord
100
AcDbTextStyleTableRecord
  2
STANDARD
 70
     0
 40
0.0
 41
1.0
 50
0.0
 71
     0
 42
4.0
  3
txt.shx
  4
extfont.shx
  0
ENDTAB
  0
TABLE
  2
VIEW
  5
6
330
0
100
AcDbSymbolTable
 70
     0
  0
ENDTAB
  0
TABLE
  2
UCS
  5
7
330
0
100
AcDbSymbolTable
 70
     0
  0
ENDTAB
  0
TABLE
  2
APPID
  5
9
330
0
100
AcDbSymbolTable
 70
    15
  0
APPID
  5
10
330
9
100
AcDbSymbolTableRecord
100
AcDbRegAppTableRecord
  2
ACAD
 70
     0
  0
APPID
  5
21
330
9
100
AcDbSymbolTableRecord
100
AcDbRegAppTableRecord
  2
DRAWINGVARIABLESXDATA
 70
     0
  0
APPID
  5
64
330
9
100
AcDbSymbolTableRecord
100
AcDbRegAppTableRecord
  2
CONTENTTABDATA
 70
     0
  0
APPID
  5
65
330
9
100
AcDbSymbolTableRecord
100
AcDbRegAppTableRecord
  2
CONTENTCURRENTTAB
 70
     0
  0
APPID
  5
66
330
9
100
AcDbSymbolTableRecord
100
AcDbRegAppTableRecord
  2
CONTENTBLOCKDESCRIPTION
 70
     0
  0
APPID
  5
67
330
9
100
AcDbSymbolTableRecord
100
AcDbRegAppTableRecord
  2
CONTENTBLOCKICON
 70
     0
  0
APPID
  5
68
330
9
100
AcDbSymbolTableRecord
100
AcDbRegAppTableRecord
  2
CONTENTLONGBLOCKNAME
 70
     0
  0
APPID
  5
2AE
330
9
100
AcDbSymbolTableRecord
100
AcDbRegAppTableRecord
  2
ACAD_PSEXT
 70
     0
  0
APPID
  5
9585
330
9
100
AcDbSymbolTableRecord
100
AcDbRegAppTableRecord
  2
ACAD_MLEADERVER
 70
     0
  0
APPID
  5
A2E3
330
9
100
AcDbSymbolTableRecord
100
AcDbRegAppTableRecord
  2
ACADANNOTATIVE
 70
     0
  0
APPID
  5
A2E4
330
9
100
AcDbSymbolTableRecord
100
AcDbRegAppTableRecord
  2
ACDBBLOCKREPETAG
 70
     0
  0
APPID
  5
AEB1
330
9
100
AcDbSymbolTableRecord
100
AcDbRegAppTableRecord
  2
ACAD_NAV_VCDISPLAY
 70
     0
  0
APPID
  5
B6A4
330
9
100
AcDbSymbolTableRecord
100
AcDbRegAppTableRecord
  2
ACAECLAYERSTANDARD
 70
     0
  0
APPID
  5
E1FE
330
9
100
AcDbSymbolTableRecord
100
AcDbRegAppTableRecord
  2
ACAD_EXEMPT_FROM_CAD_STAND
 70
     0
  0
APPID
  5
E20F
330
9
100
AcDbSymbolTableRecord
100
AcDbRegAppTableRecord
  2
ACAD_OBJECT_CHANGE_GUID
 70
     0
  0
ENDTAB
  0
TABLE
  2
DIMSTYLE
  5
A
330
0
100
AcDbSymbolTable
 70
     1
  0
DIMSTYLE
105
48
330
A
100
AcDbSymbolTableRecord
100
AcDbDimStyleTableRecord
  2
NEWX10
 70
     0
  3
 
  4

  5

  6
OPEN30
  7
OPEN30
 40
1.0
 41
2.0
 42
0.0
 43
7.0
 44
1.0
 45
0.0
 46
0.0
 47
0.0
 48
0.0
140
3.5
141
0.0
142
0.0
143
25.4
144
1.0
145
0.0
146
0.7
147
0.7
 71
     0
 72
     0
 73
     0
 74
     0
 75
     0
 76
     0
 77
     1
 78
     8
170
     0
171
     2
172
     1
173
     1
174
     0
175
     0
176
   256
177
   256
178
   201
179
     2
270
     2
271
     2
272
     4
273
     2
274
     2
340
F
275
     0
280
     0
281
     0
282
     0
283
     1
284
     8
285
     0
286
     0
287
     2
288
     0
  0
ENDTAB
  0
TABLE
  2
BLOCK_RECORD
  5
1
330
0
100
AcDbSymbolTable
 70
     8
  0
BLOCK_RECORD
  5
18
102
{ACAD_XDICTIONARY
360
88F
102
}
330
1
100
AcDbSymbolTableRecord
100
AcDbBlockTableRecord
  2
*MODEL_SPACE
  0
BLOCK_RECORD
  5
15
330
1
100
AcDbSymbolTableRecord
100
AcDbBlockTableRecord
  2
*PAPER_SPACE
  0
BLOCK_RECORD
  5
42
330
1
100
AcDbSymbolTableRecord
100
AcDbBlockTableRecord
  2
_OPEN30
  0
BLOCK_RECORD
  5
A333
330
1
100
AcDbSymbolTableRecord
100
AcDbBlockTableRecord
  2
A3WAKUKAWAJUN2017_HYOUDAI_
  0
BLOCK_RECORD
  5
E44F
330
1
100
AcDbSymbolTableRecord
100
AcDbBlockTableRecord
  2
*X29
  0
BLOCK_RECORD
  5
E49D
330
1
100
AcDbSymbolTableRecord
100
AcDbBlockTableRecord
  2
*X30
  0
BLOCK_RECORD
  5
E4EF
330
1
100
AcDbSymbolTableRecord
100
AcDbBlockTableRecord
  2
*X31
  0
BLOCK_RECORD
  5
E540
330
1
100
AcDbSymbolTableRecord
100
AcDbBlockTableRecord
  2
*X32
  0
BLOCK_RECORD
  5
E57D
330
1
100
AcDbSymbolTableRecord
100
AcDbBlockTableRecord
  2
*X33
  0
BLOCK_RECORD
  5
E5BD
330
1
100
AcDbSymbolTableRecord
100
AcDbBlockTableRecord
  2
*X34
  0
ENDTAB
  0
ENDSEC
  0
SECTION
  2
BLOCKS
  0
BLOCK
  5
19
330
18
100
AcDbEntity
  8
0
100
AcDbBlockBegin
  2
*MODEL_SPACE
 70
     0
 10
0.0
 20
0.0
 30
0.0
  3
*MODEL_SPACE
  1

  0
ENDBLK
  5
1A
330
18
100
AcDbEntity
  8
0
100
AcDbBlockEnd
  0
BLOCK
  5
16
330
15
100
AcDbEntity
 67
     1
  8
0
100
AcDbBlockBegin
  2
*PAPER_SPACE
 70
     0
 10
0.0
 20
0.0
 30
0.0
  3
*PAPER_SPACE
  1

  0
ENDBLK
  5
17
330
15
100
AcDbEntity
 67
     1
  8
0
100
AcDbBlockEnd
  0
BLOCK
  5
43
330
42
100
AcDbEntity
  8
0
100
AcDbBlockBegin
  2
_OPEN30
 70
     0
 10
0.0
 20
0.0
 30
0.0
  3
_OPEN30
  1

  0
LINE
  5
44
330
42
100
AcDbEntity
  8
0
  6
BYBLOCK
 62
     0
100
AcDbLine
 10
-1.0
 20
0.26794919
 30
0.0
 11
0.0
 21
0.0
 31
0.0
  0
LINE
  5
45
330
42
100
AcDbEntity
  8
0
  6
BYBLOCK
 62
     0
100
AcDbLine
 10
0.0
 20
0.0
 30
0.0
 11
-1.0
 21
-0.26794919
 31
0.0
  0
LINE
  5
46
330
42
100
AcDbEntity
  8
0
  6
BYBLOCK
 62
     0
100
AcDbLine
 10
0.0
 20
0.0
 30
0.0
 11
-1.0
 21
0.0
 31
0.0
  0
ENDBLK
  5
47
330
42
100
AcDbEntity
  8
0
100
AcDbBlockEnd
  0
BLOCK
  5
AA56
330
A333
100
AcDbEntity
  8
0
100
AcDbBlockBegin
  2
A3WAKUKAWAJUN2017_HYOUDAI_
 70
     0
 10
0.0
 20
0.0
 30
0.0
  3
A3WAKUKAWAJUN2017_HYOUDAI_
  1

  0
LINE
  5
A335
330
A333
100
AcDbEntity
  8
0
100
AcDbLine
 10
13.26299999998673
 20
-0.0001000000000317
 30
0.0
 11
9.236999999990758
 21
8.999899999990987
 31
0.0
1001
ACAD
1000
ASC_BOUNDS
1002
{
1070
    19
1005
A376
1002
}
  0
LINE
  5
A336
330
A333
100
AcDbEntity
  8
0
100
AcDbLine
 10
5.657999999994331
 20
0.9999999999989768
 30
0.0
 11
9.236999999990758
 21
8.999999999991019
 31
0.0
1001
ACAD
1000
ASC_BOUNDS
1002
{
1070
    19
1005
A376
1002
}
  0
LINE
  5
A337
330
A333
100
AcDbEntity
  8
0
100
AcDbLine
 10
18.59199999998134
 20
-0.2368999999997641
 30
0.0
 11
16.46099999998353
 21
5.432899999994561
 31
0.0
1001
ACAD
1000
ASC_BOUNDS
1002
{
1070
    19
1005
A377
1002
}
  0
LINE
  5
A338
330
A333
100
AcDbEntity
  8
0
100
AcDbLine
 10
18.59199999998134
 20
-0.2368999999997641
 30
0.0
 11
22.38199999997767
 21
8.763099999991255
 31
0.0
1001
ACAD
1000
ASC_BOUNDS
1002
{
1070
    19
1005
A377
1002
}
  0
LINE
  5
A339
330
A333
100
AcDbEntity
  8
0
100
AcDbLine
 10
14.32899999998563
 20
-0.2368999999997641
 30
0.0
 11
16.46099999998353
 21
5.432899999994561
 31
0.0
1001
ACAD
1000
ASC_BOUNDS
1002
{
1070
    19
1005
A377
1002
}
  0
LINE
  5
A33A
330
A333
100
AcDbEntity
  8
0
100
AcDbLine
 10
14.32899999998563
 20
-0.2368999999997641
 30
0.0
 11
10.53899999998941
 21
8.763099999991255
 31
0.0
1001
ACAD
1000
ASC_BOUNDS
1002
{
1070
    19
1005
A377
1002
}
  0
LINE
  5
A33B
330
A333
100
AcDbEntity
  8
0
100
AcDbLine
 10
19.53899999998043
 20
-0.0001000000000317
 30
0.0
 11
23.56599999997638
 21
8.999899999990987
 31
0.0
1001
ACAD
1000
ASC_BOUNDS
1002
{
1070
    19
1005
A378
1002
}
  0
LINE
  5
A33C
330
A333
100
AcDbEntity
  8
0
100
AcDbLine
 10
26.97358892824991
 20
1.383099999991202
 30
0.0
 11
23.56599999997638
 21
8.999899999990987
 31
0.0
1001
ACAD
1000
ASC_BOUNDS
1002
{
1070
    19
1005
A378
1002
}
  0
LINE
  5
A33D
330
A333
100
AcDbEntity
  8
0
100
AcDbLine
 10
5.657999999994331
 20
0.9999999999989768
 30
0.0
 11
3.181999999996833
 21
4.668599999995308
 31
0.0
1001
ACAD
1000
ASC_BOUNDS
1002
{
1070
    19
1005
A376
1002
}
  0
LINE
  5
A33E
330
A333
100
AcDbEntity
  8
0
100
AcDbLine
 10
4.617999999995391
 20
-0.0001000000000317
 30
0.0
 11
1.420999999998571
 21
4.736799999995242
 31
0.0
1001
ACAD
1000
ASC_BOUNDS
1002
{
1070
    19
1005
A376
1002
}
  0
LINE
  5
A33F
330
A333
100
AcDbEntity
  8
0
100
AcDbLine
 10
1.420999999998571
 20
8.763099999991255
 30
0.0
 11
1.420999999998571
 21
0.0
 31
0.0
1001
ACAD
1000
ASC_BOUNDS
1002
{
1070
    19
1005
A37B
1002
}
  0
LINE
  5
A340
330
A333
100
AcDbEntity
  8
0
100
AcDbLine
 10
0.0
 20
8.763099999991255
 30
0.0
 11
0.0
 21
0.0
 31
0.0
1001
ACAD
1000
ASC_BOUNDS
1002
{
1070
    19
1005
A37B
1002
}
  0
LINE
  5
A341
330
A333
100
AcDbEntity
  8
0
100
AcDbLine
 10
6.766999999993232
 20
-0.0001000000000317
 30
0.0
 11
7.826999999992154
 21
2.368399999997621
 31
0.0
1001
ACAD
1000
ASC_BOUNDS
1002
{
1070
    19
1005
A376
1002
}
  0
LINE
  5
A342
330
A333
100
AcDbEntity
  8
0
100
AcDbLine
 10
0.0
 20
0.0
 30
0.0
 11
1.420999999998571
 21
0.0
 31
0.0
1001
ACAD
1000
ASC_BOUNDS
1002
{
1070
    19
1005
A37B
1002
}
  0
LINE
  5
A343
330
A333
100
AcDbEntity
  8
0
100
AcDbLine
 10
4.617999999995391
 20
0.0
 30
0.0
 11
6.766999999993232
 21
0.0
 31
0.0
1001
ACAD
1000
ASC_BOUNDS
1002
{
1070
    19
1005
A376
1002
}
  0
LINE
  5
A344
330
A333
100
AcDbEntity
  8
0
100
AcDbLine
 10
11.70599999998831
 20
-0.0001000000000317
 30
0.0
 11
10.64699999998936
 21
2.368399999997621
 31
0.0
1001
ACAD
1000
ASC_BOUNDS
1002
{
1070
    19
1005
A376
1002
}
  0
LINE
  5
A345
330
A333
100
AcDbEntity
  8
0
100
AcDbLine
 10
7.826999999992154
 20
2.368399999997621
 30
0.0
 11
10.64699999998936
 21
2.368399999997621
 31
0.0
1001
ACAD
1000
ASC_BOUNDS
1002
{
1070
    19
1005
A376
1002
}
  0
LINE
  5
A346
330
A333
100
AcDbEntity
  8
0
100
AcDbLine
 10
11.70599999998831
 20
0.0
 30
0.0
 11
13.26299999998673
 21
0.0
 31
0.0
1001
ACAD
1000
ASC_BOUNDS
1002
{
1070
    19
1005
A376
1002
}
  0
LINE
  5
A347
330
A333
100
AcDbEntity
  8
0
100
AcDbLine
 10
22.15599999997789
 20
2.368399999997621
 30
0.0
 11
24.97599999997499
 21
2.368399999997621
 31
0.0
1001
ACAD
1000
ASC_BOUNDS
1002
{
1070
    19
1005
A378
1002
}
  0
LINE
  5
A348
330
A333
100
AcDbEntity
  8
0
100
AcDbLine
 10
19.53899999998043
 20
0.0
 30
0.0
 11
21.09599999997886
 21
0.0
 31
0.0
1001
ACAD
1000
ASC_BOUNDS
1002
{
1070
    19
1005
A378
1002
}
  0
LINE
  5
A349
330
A333
100
AcDbEntity
  8
0
100
AcDbLine
 10
21.09599999997886
 20
-0.0001000000000317
 30
0.0
 11
22.15599999997789
 21
2.368399999997621
 31
0.0
1001
ACAD
1000
ASC_BOUNDS
1002
{
1070
    19
1005
A378
1002
}
  0
LINE
  5
A34A
330
A333
100
AcDbEntity
  8
0
100
AcDbLine
 10
26.02015566812236
 20
0.0330999999912365
 30
0.0
 11
24.97599999997499
 21
2.368399999997621
 31
0.0
1001
ACAD
1000
ASC_BOUNDS
1002
{
1070
    19
1005
A378
1002
}
  0
LINE
  5
A34B
330
A333
100
AcDbEntity
  8
0
100
AcDbLine
 10
14.32399999998563
 20
3.315799999996671
 30
0.0
 11
16.46099999998353
 21
8.999899999990987
 31
0.0
1001
ACAD
1000
ASC_BOUNDS
1002
{
1070
    19
1005
A377
1002
}
  0
LINE
  5
A34C
330
A333
100
AcDbEntity
  8
0
100
AcDbLine
 10
6.432999999993513
 20
8.763099999991255
 30
0.0
 11
3.181999999996833
 21
4.668599999995308
 31
0.0
1001
ACAD
1000
ASC_BOUNDS
1002
{
1070
    19
1005
A376
1002
}
  0
LINE
  5
A34D
330
A333
100
AcDbEntity
  8
0
100
AcDbLine
 10
4.617999999995391
 20
8.763099999991255
 30
0.0
 11
1.420999999998571
 21
4.736799999995242
 31
0.0
1001
ACAD
1000
ASC_BOUNDS
1002
{
1070
    19
1005
A376
1002
}
  0
LINE
  5
A34E
330
A333
100
AcDbEntity
  8
0
100
AcDbLine
 10
0.0
 20
8.763099999991255
 30
0.0
 11
1.420999999998571
 21
8.763099999991255
 31
0.0
1001
ACAD
1000
ASC_BOUNDS
1002
{
1070
    19
1005
A37B
1002
}
  0
LINE
  5
A34F
330
A333
100
AcDbEntity
  8
0
100
AcDbLine
 10
4.617999999995391
 20
8.763099999991255
 30
0.0
 11
6.432999999993513
 21
8.763099999991255
 31
0.0
1001
ACAD
1000
ASC_BOUNDS
1002
{
1070
    19
1005
A376
1002
}
  0
LINE
  5
A350
330
A333
100
AcDbEntity
  8
0
100
AcDbLine
 10
14.32399999998563
 20
3.315799999996671
 30
0.0
 11
12.02999999998792
 21
8.763099999991255
 31
0.0
1001
ACAD
1000
ASC_BOUNDS
1002
{
1070
    19
1005
A377
1002
}
  0
LINE
  5
A351
330
A333
100
AcDbEntity
  8
0
100
AcDbLine
 10
10.06399999998996
 20
3.670999999996297
 30
0.0
 11
9.236999999990758
 21
5.5200999999945
 31
0.0
1001
ACAD
1000
ASC_BOUNDS
1002
{
1070
    19
1005
A376
1002
}
  0
LINE
  5
A352
330
A333
100
AcDbEntity
  8
0
100
AcDbLine
 10
8.409999999991555
 20
3.670999999996297
 30
0.0
 11
9.236999999990758
 21
5.5200999999945
 31
0.0
1001
ACAD
1000
ASC_BOUNDS
1002
{
1070
    19
1005
A376
1002
}
  0
LINE
  5
A353
330
A333
100
AcDbEntity
  8
0
100
AcDbLine
 10
8.409999999991555
 20
3.670999999996297
 30
0.0
 11
10.06399999998996
 21
3.670999999996297
 31
0.0
1001
ACAD
1000
ASC_BOUNDS
1002
{
1070
    19
1005
A376
1002
}
  0
LINE
  5
A354
330
A333
100
AcDbEntity
  8
0
100
AcDbLine
 10
10.53899999998941
 20
8.763099999991255
 30
0.0
 11
12.02999999998792
 21
8.763099999991255
 31
0.0
1001
ACAD
1000
ASC_BOUNDS
1002
{
1070
    19
1005
A377
1002
}
  0
LINE
  5
A355
330
A333
100
AcDbEntity
  8
0
100
AcDbLine
 10
22.7389999999773
 20
3.670999999996297
 30
0.0
 11
23.56599999997638
 21
5.5200999999945
 31
0.0
1001
ACAD
1000
ASC_BOUNDS
1002
{
1070
    19
1005
A378
1002
}
  0
LINE
  5
A356
330
A333
100
AcDbEntity
  8
0
100
AcDbLine
 10
22.7389999999773
 20
3.670999999996297
 30
0.0
 11
24.39299999997559
 21
3.670999999996297
 31
0.0
1001
ACAD
1000
ASC_BOUNDS
1002
{
1070
    19
1005
A378
1002
}
  0
LINE
  5
A357
330
A333
100
AcDbEntity
  8
0
100
AcDbLine
 10
18.59799999998143
 20
3.315799999996671
 30
0.0
 11
20.89099999997916
 21
8.763099999991255
 31
0.0
1001
ACAD
1000
ASC_BOUNDS
1002
{
1070
    19
1005
A377
1002
}
  0
LINE
  5
A358
330
A333
100
AcDbEntity
  8
0
100
AcDbLine
 10
18.59799999998143
 20
3.315799999996671
 30
0.0
 11
16.46099999998353
 21
8.999899999990987
 31
0.0
1001
ACAD
1000
ASC_BOUNDS
1002
{
1070
    19
1005
A377
1002
}
  0
LINE
  5
A359
330
A333
100
AcDbEntity
  8
0
100
AcDbLine
 10
20.89099999997916
 20
8.763099999991255
 30
0.0
 11
22.38199999997767
 21
8.763099999991255
 31
0.0
1001
ACAD
1000
ASC_BOUNDS
1002
{
1070
    19
1005
A377
1002
}
  0
LINE
  5
A35A
330
A333
100
AcDbEntity
  8
0
100
AcDbLine
 10
24.39299999997559
 20
3.670999999996297
 30
0.0
 11
23.56599999997638
 21
5.5200999999945
 31
0.0
1001
ACAD
1000
ASC_BOUNDS
1002
{
1070
    19
1005
A378
1002
}
  0
LINE
  5
A35B
330
A333
100
AcDbEntity
  8
0
100
AcDbLine
 10
44.99999999995498
 20
-0.2368999999997641
 30
0.0
 11
40.02599999995994
 21
5.341799999994635
 31
0.0
1001
ACAD
1000
ASC_BOUNDS
1002
{
1070
    19
1005
A37A
1002
}
  0
LINE
  5
A35C
330
A333
100
AcDbEntity
  8
0
100
AcDbLine
 10
40.02599999995994
 20
5.341799999994635
 30
0.0
 11
40.02599999995994
 21
0.0
 31
0.0
1001
ACAD
1000
ASC_BOUNDS
1002
{
1070
    19
1005
A37A
1002
}
  0
LINE
  5
A35D
330
A333
100
AcDbEntity
  8
0
100
AcDbLine
 10
38.60499999996136
 20
8.999999999991019
 30
0.0
 11
38.60499999996136
 21
0.0
 31
0.0
1001
ACAD
1000
ASC_BOUNDS
1002
{
1070
    19
1005
A37A
1002
}
  0
LINE
  5
A35E
330
A333
100
AcDbEntity
  8
0
100
AcDbLine
 10
44.99999999995498
 20
8.763099999991255
 30
0.0
 11
44.99999999995498
 21
-0.2368999999997641
 31
0.0
1001
ACAD
1000
ASC_BOUNDS
1002
{
1070
    19
1005
A37A
1002
}
  0
LINE
  5
A35F
330
A333
100
AcDbEntity
  8
0
100
AcDbLine
 10
38.60499999996136
 20
0.0
 30
0.0
 11
40.02599999995994
 21
0.0
 31
0.0
1001
ACAD
1000
ASC_BOUNDS
1002
{
1070
    19
1005
A37A
1002
}
  0
LINE
  5
A360
330
A333
100
AcDbEntity
  8
0
100
AcDbLine
 10
43.57899999995641
 20
3.421199999996588
 30
0.0
 11
38.60499999996136
 21
8.999899999990987
 31
0.0
1001
ACAD
1000
ASC_BOUNDS
1002
{
1070
    19
1005
A37A
1002
}
  0
LINE
  5
A361
330
A333
100
AcDbEntity
  8
0
100
AcDbLine
 10
43.57899999995641
 20
8.763099999991255
 30
0.0
 11
43.57899999995641
 21
3.421199999996588
 31
0.0
1001
ACAD
1000
ASC_BOUNDS
1002
{
1070
    19
1005
A37A
1002
}
  0
LINE
  5
A362
330
A333
100
AcDbEntity
  8
0
100
AcDbLine
 10
43.57899999995641
 20
8.763099999991255
 30
0.0
 11
44.99999999995498
 21
8.763099999991255
 31
0.0
1001
ACAD
1000
ASC_BOUNDS
1002
{
1070
    19
1005
A37A
1002
}
  0
LINE
  5
A363
330
A333
100
AcDbEntity
  8
0
100
AcDbLine
 10
37.67199999996831
 20
8.763099999991255
 30
0.0
 11
36.23199999996837
 21
8.763099999991255
 31
0.0
  0
LINE
  5
A364
330
A333
100
AcDbEntity
  8
0
100
AcDbLine
 10
31.64199999996833
 20
8.763099999991255
 30
0.0
 11
31.64199999996833
 21
2.481619422925121
 31
0.0
  0
LINE
  5
A365
330
A333
100
AcDbEntity
  8
0
100
AcDbLine
 10
37.67199999996831
 20
8.763099999991255
 30
0.0
 11
37.67199999996831
 21
2.481619422925121
 31
0.0
  0
LINE
  5
A366
330
A333
100
AcDbEntity
  8
0
100
AcDbLine
 10
36.23199999996837
 20
8.763099999991255
 30
0.0
 11
36.23199999996837
 21
2.481619422925064
 31
0.0
  0
LINE
  5
A367
330
A333
100
AcDbEntity
  8
0
100
AcDbLine
 10
33.08199999996839
 20
8.763099999991255
 30
0.0
 11
33.08199999996839
 21
2.481619422925121
 31
0.0
  0
ARC
  5
A368
330
A333
100
AcDbEntity
  8
0
100
AcDbCircle
 10
34.65699999996832
 20
3.183099999991214
 30
0.0
 40
3.420000000000007
100
AcDbArc
 50
240.0000000000255
 51
299.9999999999766
  0
ARC
  5
A369
330
A333
100
AcDbEntity
  8
0
100
AcDbCircle
 10
34.65699999996832
 20
3.183099999991214
 30
0.0
 40
1.97999999999999
100
AcDbArc
 50
240.000000000026
 51
299.9999999999703
  0
LINE
  5
A36A
330
A333
100
AcDbEntity
  8
0
100
AcDbLine
 10
33.08199999996828
 20
8.763099999991255
 30
0.0
 11
31.64199999996833
 21
8.763099999991255
 31
0.0
  0
ARC
  5
A36B
330
A333
100
AcDbEntity
  8
0
100
AcDbCircle
 10
35.06199999996829
 20
2.481619422925064
 30
0.0
 40
1.17
100
AcDbArc
 50
299.9999999999699
 51
0.0
  0
ARC
  5
A36C
330
A333
100
AcDbEntity
  8
0
100
AcDbCircle
 10
34.25199999996835
 20
2.481619422925121
 30
0.0
 40
1.17
100
AcDbArc
 50
180.0
 51
240.0000000000238
  0
ARC
  5
A36D
330
A333
100
AcDbEntity
  8
0
100
AcDbCircle
 10
35.06199999996841
 20
2.481619422925121
 30
0.0
 40
2.61
100
AcDbArc
 50
299.9999999999756
 51
0.0
  0
ARC
  5
A36E
330
A333
100
AcDbEntity
  8
0
100
AcDbCircle
 10
34.25199999996835
 20
2.481619422925121
 30
0.0
 40
2.61
100
AcDbArc
 50
180.0
 51
240.0000000000244
  0
LINE
  5
A36F
330
A333
100
AcDbEntity
  8
0
100
AcDbLine
 10
29.30199999996933
 20
8.763099999991255
 30
0.0
 11
30.74199999996927
 21
8.763099999991255
 31
0.0
1001
ACAD
1000
ASC_BOUNDS
1002
{
1070
    19
1005
A378
1002
}
  0
LINE
  5
A370
330
A333
100
AcDbEntity
  8
0
100
AcDbLine
 10
30.74199999996927
 20
8.763099999991255
 30
0.0
 11
30.74199999996927
 21
2.373099999991211
 31
0.0
1001
ACAD
1000
ASC_BOUNDS
1002
{
1070
    19
1005
A378
1002
}
  0
LINE
  5
A371
330
A333
100
AcDbEntity
  8
0
100
AcDbLine
 10
26.02015566812236
 20
0.0330999999912365
 30
0.0
 11
28.40199999996923
 21
0.0330999999912365
 31
0.0
1001
ACAD
1000
ASC_BOUNDS
1002
{
1070
    19
1005
A378
1002
}
  0
LINE
  5
A372
330
A333
100
AcDbEntity
  8
0
100
AcDbLine
 10
29.30199999996933
 20
8.763099999991255
 30
0.0
 11
29.30199999996933
 21
2.283099999991236
 31
0.0
1001
ACAD
1000
ASC_BOUNDS
1002
{
1070
    19
1005
A378
1002
}
  0
LINE
  5
A373
330
A333
100
AcDbEntity
  8
0
100
AcDbLine
 10
26.97358892824991
 20
1.383099999991202
 30
0.0
 11
28.40199999996923
 21
1.383099999991202
 31
0.0
1001
ACAD
1000
ASC_BOUNDS
1002
{
1070
    19
1005
A378
1002
}
  0
ARC
  5
A374
330
A333
100
AcDbEntity
  8
0
100
AcDbCircle
 10
28.40199999996923
 20
2.283099999991236
 30
0.0
 40
0.9
100
AcDbArc
 50
270.0
 51
0.0
1001
ACAD
1000
ASC_BOUNDS
1002
{
1070
    19
1005
A378
1002
}
  0
ARC
  5
A375
330
A333
100
AcDbEntity
  8
0
100
AcDbCircle
 10
28.40199999996923
 20
2.373099999991211
 30
0.0
 40
2.34
100
AcDbArc
 50
270.0
 51
0.0
1001
ACAD
1000
ASC_BOUNDS
1002
{
1070
    19
1005
A378
1002
}
  0
INSERT
  5
A376
330
A333
100
AcDbEntity
  8
0
100
AcDbBlockReference
  2
*X29
 10
0.0
 20
0.0
 30
0.0
1001
ACAD
1000
HATCH
1002
{
1070
    19
1000
ANSI37
1040
0.15
1040
0.0
1000
ASC_BOUNDS
1070
     2
1070
     2
1070
    12
1005
A335
1005
A336
1005
A33D
1005
A34C
1005
A34F
1005
A34D
1005
A33E
1005
A343
1005
A341
1005
A345
1005
A344
1005
A346
1070
     2
1070
     3
1005
A351
1005
A353
1005
A352
1000
ASC_SEEDPOINT
1011
3.614004224891801
1021
2.996669441146025
1031
0.0
1000
R14_HATCH_DATA
1000
A376
1011
1.0
1021
0.0
1031
0.0
1011
0.0
1021
1.0
1031
0.0
1011
0.0
1021
0.0
1031
1.0
1040
0.0
1010
0.0
1020
0.0
1030
1.0
1000
ANSI37
1070
     0
1070
     1
1071
        2
1071
        7
1070
     0
1070
     1
1071
       17
1040
13.26299999998673
1040
-0.0001000000000317
1040
9.236999999990758
1040
8.999899999990987
1040
9.236999999990758
1040
8.999999999991019
1040
5.657999999994331
1040
0.9999999999989768
1040
3.181999999996833
1040
4.668599999995308
1040
6.432999999993513
1040
8.763099999991255
1040
4.617999999995391
1040
8.763099999991255
1040
1.420999999998571
1040
4.736799999995242
1040
4.617999999995391
1040
-0.0001000000000317
1040
4.617999999995391
1040
0.0
1040
6.766999999993232
1040
0.0
1040
6.766999999993232
1040
-0.0001000000000317
1040
7.826999999992154
1040
2.368399999997621
1040
10.64699999998936
1040
2.368399999997621
1040
11.70599999998831
1040
-0.0001000000000317
1040
11.70599999998831
1040
0.0
1040
13.26299999998673
1040
0.0
1071
       12
1005
A335
1005
A336
1005
A33D
1005
A34C
1005
A34F
1005
A34D
1005
A33E
1005
A343
1005
A341
1005
A345
1005
A344
1005
A346
1071
       22
1070
     0
1070
     1
1071
        3
1040
9.236999999990758
1040
5.5200999999945
1040
10.06399999998996
1040
3.670999999996297
1040
8.409999999991555
1040
3.670999999996297
1071
        3
1005
A351
1005
A353
1005
A352
1070
     0
1070
     1
1040
0.0
1040
0.15
1070
     0
1070
     2
1040
0.7853981633974483
1040
49.29960901727088
1040
-10.17736998311392
1040
-0.3367596045400932
1040
0.3367596045400932
1070
     0
1040
2.356194490192345
1040
49.29960901727088
1040
-10.17736998311392
1040
-0.3367596045400932
1040
-0.3367596045400932
1070
     0
1040
0.0110235143455945
1071
        2
1040
3.614004224891801
1040
2.996669441146025
1040
0.0
1040
3.614004224891801
1040
2.996669441146025
1040
0.0
1002
}
  0
INSERT
  5
A377
330
A333
100
AcDbEntity
  8
0
100
AcDbBlockReference
  2
*X30
 10
0.0
 20
0.0
 30
0.0
1001
ACAD
1000
HATCH
1002
{
1070
    19
1000
ANSI37
1040
0.15
1040
0.0
1000
ASC_BOUNDS
1070
     1
1070
     2
1070
    10
1005
A337
1005
A338
1005
A359
1005
A357
1005
A358
1005
A34B
1005
A350
1005
A354
1005
A33A
1005
A339
1000
ASC_SEEDPOINT
1011
14.73245321214324
1021
2.798246178283421
1031
0.0
1000
R14_HATCH_DATA
1000
A377
1011
1.0
1021
0.0
1031
0.0
1011
0.0
1021
1.0
1031
0.0
1011
0.0
1021
0.0
1031
1.0
1040
0.0
1010
0.0
1020
0.0
1030
1.0
1000
ANSI37
1070
     0
1070
     1
1071
        1
1071
        7
1070
     0
1070
     1
1071
       10
1040
16.46099999998353
1040
5.432899999994561
1040
18.59199999998134
1040
-0.2368999999997641
1040
22.38199999997767
1040
8.763099999991255
1040
20.89099999997916
1040
8.763099999991255
1040
18.59799999998143
1040
3.315799999996671
1040
16.46099999998353
1040
8.999899999990987
1040
14.32399999998563
1040
3.315799999996671
1040
12.02999999998792
1040
8.763099999991255
1040
10.53899999998941
1040
8.763099999991255
1040
14.32899999998563
1040
-0.2368999999997641
1071
       10
1005
A337
1005
A338
1005
A359
1005
A357
1005
A358
1005
A34B
1005
A350
1005
A354
1005
A33A
1005
A339
1070
     0
1070
     1
1040
0.0
1040
0.15
1070
     0
1070
     2
1040
0.7853981633974483
1040
49.29960901727088
1040
-10.17736998311392
1040
-0.3367596045400932
1040
0.3367596045400932
1070
     0
1040
2.356194490192345
1040
49.29960901727088
1040
-10.17736998311392
1040
-0.3367596045400932
1040
-0.3367596045400932
1070
     0
1040
0.0110235143455945
1071
        1
1040
14.73245321214324
1040
2.798246178283421
1040
0.0
1002
}
  0
INSERT
  5
A378
330
A333
100
AcDbEntity
  8
0
100
AcDbBlockReference
  2
*X31
 10
0.0
 20
0.0
 30
0.0
1001
ACAD
1000
HATCH
1002
{
1070
    19
1000
ANSI37
1040
0.15
1040
0.0
1000
ASC_BOUNDS
1070
     2
1070
     2
1070
    13
1005
A33B
1005
A348
1005
A349
1005
A347
1005
A34A
1005
A371
1005
A375
1005
A370
1005
A36F
1005
A372
1005
A374
1005
A373
1005
A33C
1070
     2
1070
     3
1005
A355
1005
A35A
1005
A356
1000
ASC_SEEDPOINT
1011
21.97929957367762
1021
3.294304244259308
1031
0.0
1000
R14_HATCH_DATA
1000
A378
1011
1.0
1021
0.0
1031
0.0
1011
0.0
1021
1.0
1031
0.0
1011
0.0
1021
0.0
1031
1.0
1040
0.0
1010
0.0
1020
0.0
1030
1.0
1000
ANSI37
1070
     0
1070
     1
1071
        2
1071
        7
1070
     1
1070
     1
1071
       15
1040
23.56599999997638
1040
8.999899999990987
1040
0.0
1040
19.53899999998043
1040
-0.0001000000000317
1040
0.0
1040
19.53899999998043
1040
0.0
1040
0.0
1040
21.09599999997886
1040
0.0
1040
0.0
1040
21.09599999997886
1040
-0.0001000000000317
1040
0.0
1040
22.15599999997789
1040
2.368399999997621
1040
0.0
1040
24.97599999997499
1040
2.368399999997621
1040
0.0
1040
26.02015566812236
1040
0.0330999999912365
1040
0.0
1040
28.40199999996923
1040
0.0330999999912365
1040
0.414213562373095
1040
30.74199999996923
1040
2.373099999991211
1040
0.0
1040
30.74199999996927
1040
8.763099999991255
1040
0.0
1040
29.30199999996933
1040
8.763099999991255
1040
0.0
1040
29.30199999996933
1040
2.283099999991236
1040
-0.414213562373095
1040
28.40199999996923
1040
1.383099999991237
1040
0.0
1040
26.97358892824991
1040
1.383099999991202
1040
0.0
1071
       13
1005
A33B
1005
A348
1005
A349
1005
A347
1005
A34A
1005
A371
1005
A375
1005
A370
1005
A36F
1005
A372
1005
A374
1005
A373
1005
A33C
1071
       22
1070
     0
1070
     1
1071
        3
1040
22.7389999999773
1040
3.670999999996297
1040
23.56599999997638
1040
5.5200999999945
1040
24.39299999997559
1040
3.670999999996297
1071
        3
1005
A355
1005
A35A
1005
A356
1070
     0
1070
     1
1040
0.0
1040
0.15
1070
     0
1070
     2
1040
0.7853981633974483
1040
49.29960901727088
1040
-10.17736998311392
1040
-0.3367596045400932
1040
0.3367596045400932
1070
     0
1040
2.356194490192345
1040
49.29960901727088
1040
-10.17736998311392
1040
-0.3367596045400932
1040
-0.3367596045400932
1070
     0
1040
0.0110235143455945
1071
        2
1040
21.97929957367762
1040
3.294304244259308
1040
0.0
1040
21.97929957367762
1040
3.294304244259308
1040
0.0
1002
}
  0
INSERT
  5
A379
330
A333
100
AcDbEntity
  8
0
100
AcDbBlockReference
  2
*X32
 10
0.0
 20
0.0
 30
0.0
1001
ACAD
1000
HATCH
1002
{
1070
    19
1000
ANSI37
1040
0.15
1040
0.0
1000
R14_HATCH_DATA
1000
A379
1011
1.0
1021
0.0
1031
0.0
1011
0.0
1021
1.0
1031
0.0
1011
0.0
1021
0.0
1031
1.0
1040
0.0
1010
0.0
1020
0.0
1030
1.0
1000
ANSI37
1070
     0
1070
     1
1071
        1
1071
        7
1070
     1
1070
     1
1071
       12
1040
31.64199999996833
1040
2.481619422925121
1040
0.2679491924310942
1040
32.94699999997067
1040
0.2212931190493919
1040
0.2679491924301353
1040
36.36699999995983
1040
0.2212931190459813
1040
0.2679491924321411
1040
37.67199999996831
1040
2.481619422928361
1040
0.0
1040
37.67199999996831
1040
8.763099999991255
1040
0.0
1040
36.23199999996837
1040
8.763099999991255
1040
0.0
1040
36.23199999996837
1040
2.481619422925064
1040
-0.2679491924310291
1040
35.64699999996708
1040
1.468369700498386
1040
-0.267949192430519
1040
33.66699999997093
1040
1.468369700497703
1040
-0.267949192431809
1040
33.08199999996839
1040
2.481619422926997
1040
0.0
1040
33.08199999996839
1040
8.763099999991255
1040
0.0
1040
31.64199999996833
1040
8.763099999991255
1040
0.0
1071
        0
1070
     0
1070
     1
1040
0.0
1040
0.15
1070
     0
1070
     2
1040
0.7853981633974483
1040
49.29960901727088
1040
-10.17736998311392
1040
-0.3367596045400932
1040
0.3367596045400932
1070
     0
1040
2.356194490192345
1040
49.29960901727088
1040
-10.17736998311392
1040
-0.3367596045400932
1040
-0.3367596045400932
1070
     0
1040
0.0110235143455945
1071
        1
1040
32.30357378967278
1040
3.988785755459219
1040
0.0
1002
}
  0
INSERT
  5
A37A
330
A333
100
AcDbEntity
  8
0
100
AcDbBlockReference
  2
*X33
 10
0.0
 20
0.0
 30
0.0
1001
ACAD
1000
HATCH
1002
{
1070
    19
1000
ANSI37
1040
0.15
1040
0.0
1000
ASC_BOUNDS
1070
     1
1070
     2
1070
     8
1005
A35B
1005
A35E
1005
A362
1005
A361
1005
A360
1005
A35D
1005
A35F
1005
A35C
1000
ASC_SEEDPOINT
1011
39.74896370716704
1021
4.484843821435049
1031
0.0
1000
R14_HATCH_DATA
1000
A37A
1011
1.0
1021
0.0
1031
0.0
1011
0.0
1021
1.0
1031
0.0
1011
0.0
1021
0.0
1031
1.0
1040
0.0
1010
0.0
1020
0.0
1030
1.0
1000
ANSI37
1070
     0
1070
     1
1071
        1
1071
        7
1070
     0
1070
     1
1071
        9
1040
40.02599999995994
1040
5.341799999994635
1040
44.99999999995498
1040
-0.2368999999997641
1040
44.99999999995498
1040
8.763099999991255
1040
43.57899999995641
1040
8.763099999991255
1040
43.57899999995641
1040
3.421199999996588
1040
38.60499999996136
1040
8.999899999990987
1040
38.60499999996136
1040
8.999999999991019
1040
38.60499999996136
1040
0.0
1040
40.02599999995994
1040
0.0
1071
        8
1005
A35B
1005
A35E
1005
A362
1005
A361
1005
A360
1005
A35D
1005
A35F
1005
A35C
1070
     0
1070
     1
1040
0.0
1040
0.15
1070
     0
1070
     2
1040
0.7853981633974483
1040
49.29960901727088
1040
-10.17736998311392
1040
-0.3367596045400932
1040
0.3367596045400932
1070
     0
1040
2.356194490192345
1040
49.29960901727088
1040
-10.17736998311392
1040
-0.3367596045400932
1040
-0.3367596045400932
1070
     0
1040
0.0110235143455945
1071
        1
1040
39.74896370716704
1040
4.484843821435049
1040
0.0
1002
}
  0
INSERT
  5
A37B
330
A333
100
AcDbEntity
  8
0
100
AcDbBlockReference
  2
*X34
 10
0.0
 20
0.0
 30
0.0
1001
ACAD
1000
HATCH
1002
{
1070
    19
1000
ANSI37
1040
0.15
1040
0.0
1000
ASC_BOUNDS
1070
     1
1070
     2
1070
     4
1005
A33F
1005
A34E
1005
A340
1005
A342
1000
ASC_SEEDPOINT
1011
1.079051535452663
1021
4.148538732891836
1031
0.0
1000
R14_HATCH_DATA
1000
A37B
1011
1.0
1021
0.0
1031
0.0
1011
0.0
1021
1.0
1031
0.0
1011
0.0
1021
0.0
1031
1.0
1040
0.0
1010
0.0
1020
0.0
1030
1.0
1000
ANSI37
1070
     0
1070
     1
1071
        1
1071
        7
1070
     0
1070
     1
1071
        4
1040
1.420999999998571
1040
0.0
1040
1.420999999998571
1040
8.763099999991255
1040
0.0
1040
8.763099999991255
1040
0.0
1040
0.0
1071
        4
1005
A33F
1005
A34E
1005
A340
1005
A342
1070
     0
1070
     1
1040
0.0
1040
0.15
1070
     0
1070
     2
1040
0.7853981633974483
1040
49.29960901727088
1040
-10.17736998311392
1040
-0.3367596045400932
1040
0.3367596045400932
1070
     0
1040
2.356194490192345
1040
49.29960901727088
1040
-10.17736998311392
1040
-0.3367596045400932
1040
-0.3367596045400932
1070
     0
1040
0.0053004257112761
1071
        1
1040
1.079051535452663
1040
4.148538732891836
1040
0.0
1002
}
  0
ENDBLK
  5
AA57
330
A333
100
AcDbEntity
  8
0
100
AcDbBlockEnd
  0
BLOCK
  5
E5DD
330
E44F
100
AcDbEntity
  8
0
100
AcDbBlockBegin
  2
*X29
 70
     1
 10
0.0
 20
0.0
 30
0.0
  3
*X29
  1

  0
LINE
  5
E450
330
E44F
100
AcDbEntity
  8
0
  6
CONTINUOUS
100
AcDbLine
 10
3.418023043697893
 20
7.251849696850613
 30
0.0
 11
4.929273346838536
 21
8.763099999991255
 31
0.0
  0
LINE
  5
E451
330
E44F
100
AcDbEntity
  8
0
  6
CONTINUOUS
100
AcDbLine
 10
1.483656411257782
 20
4.643963855330318
 30
0.0
 11
5.60279255591872
 21
8.763099999991255
 31
0.0
  0
LINE
  5
E452
330
E44F
100
AcDbEntity
  8
0
  6
CONTINUOUS
100
AcDbLine
 10
1.755053947328235
 20
4.241842182320584
 30
0.0
 11
6.276311764998907
 21
8.763099999991255
 31
0.0
  0
LINE
  5
E453
330
E44F
100
AcDbEntity
  8
0
  6
CONTINUOUS
100
AcDbLine
 10
2.026451483398688
 20
3.839720509310849
 30
0.0
 11
4.441040904851878
 21
6.254309930764039
 31
0.0
  0
LINE
  5
E454
330
E44F
100
AcDbEntity
  8
0
  6
CONTINUOUS
100
AcDbLine
 10
2.297849019469139
 20
3.437598836301114
 30
0.0
 11
3.321765168359338
 21
4.461514985191313
 31
0.0
  0
LINE
  5
E455
330
E44F
100
AcDbEntity
  8
0
  6
CONTINUOUS
100
AcDbLine
 10
2.569246555539591
 20
3.03547716329138
 30
0.0
 11
3.593163397972743
 21
4.059394005724531
 31
0.0
  0
LINE
  5
E456
330
E44F
100
AcDbEntity
  8
0
  6
CONTINUOUS
100
AcDbLine
 10
2.840644091610043
 20
2.633355490281646
 30
0.0
 11
3.864561627586149
 21
3.657273026257751
 31
0.0
  0
LINE
  5
E457
330
E44F
100
AcDbEntity
  8
0
  6
CONTINUOUS
100
AcDbLine
 10
3.112041627680496
 20
2.231233817271911
 30
0.0
 11
4.135959857199554
 21
3.25515204679097
 31
0.0
  0
LINE
  5
E458
330
E44F
100
AcDbEntity
  8
0
  6
CONTINUOUS
100
AcDbLine
 10
3.383439163750948
 20
1.829112144262177
 30
0.0
 11
4.40735808681296
 21
2.853031067324189
 31
0.0
  0
LINE
  5
E459
330
E44F
100
AcDbEntity
  8
0
  6
CONTINUOUS
100
AcDbLine
 10
3.654836699821399
 20
1.426990471252442
 30
0.0
 11
4.678756316426365
 21
2.450910087857407
 31
0.0
  0
LINE
  5
E45A
330
E44F
100
AcDbEntity
  8
0
  6
CONTINUOUS
100
AcDbLine
 10
3.926234235891853
 20
1.024868798242709
 30
0.0
 11
4.95015454603977
 21
2.048789108390626
 31
0.0
  0
LINE
  5
E45B
330
E44F
100
AcDbEntity
  8
0
  6
CONTINUOUS
100
AcDbLine
 10
4.197631771962304
 20
0.6227471252329737
 30
0.0
 11
5.221552775653176
 21
1.646668128923846
 31
0.0
  0
LINE
  5
E45C
330
E44F
100
AcDbEntity
  8
0
  6
CONTINUOUS
100
AcDbLine
 10
8.715877546767851
 20
7.835069736359266
 30
0.0
 11
9.435953450375058
 21
8.555145639966472
 31
0.0
  0
LINE
  5
E45D
330
E44F
100
AcDbEntity
  8
0
  6
CONTINUOUS
100
AcDbLine
 10
8.170620868422267
 20
6.616293848933497
 30
0.0
 11
9.644120833743461
 21
8.08979381425469
 31
0.0
  0
LINE
  5
E45E
330
E44F
100
AcDbEntity
  8
0
  6
CONTINUOUS
100
AcDbLine
 10
7.625364190076684
 20
5.397517961507727
 30
0.0
 11
9.852288217111864
 21
7.624441988542907
 31
0.0
  0
LINE
  5
E45F
330
E44F
100
AcDbEntity
  8
0
  6
CONTINUOUS
100
AcDbLine
 10
7.080107511731101
 20
4.178742074081957
 30
0.0
 11
10.06045560048027
 21
7.159090162831124
 31
0.0
  0
LINE
  5
E460
330
E44F
100
AcDbEntity
  8
0
  6
CONTINUOUS
100
AcDbLine
 10
6.534850833385518
 20
2.959966186656187
 30
0.0
 11
10.26862298384867
 21
6.693738337119342
 31
0.0
  0
LINE
  5
E461
330
E44F
100
AcDbEntity
  8
0
  6
CONTINUOUS
100
AcDbLine
 10
4.469029308032756
 20
0.2206254522232385
 30
0.0
 11
5.492951005266582
 21
1.244547149457064
 31
0.0
  0
LINE
  5
E462
330
E44F
100
AcDbEntity
  8
0
  6
CONTINUOUS
100
AcDbLine
 10
5.989594155039935
 20
1.741190299230417
 30
0.0
 11
8.806950407233131
 21
4.558546551423613
 31
0.0
  0
LINE
  5
E463
330
E44F
100
AcDbEntity
  8
0
  6
CONTINUOUS
100
AcDbLine
 10
9.401251593263643
 20
5.152847737454126
 30
0.0
 11
10.47679036721708
 21
6.228386511407559
 31
0.0
  0
LINE
  5
E464
330
E44F
100
AcDbEntity
  8
0
  6
CONTINUOUS
100
AcDbLine
 10
4.921837203428691
 20
-0.0000858614610131
 30
0.0
 11
8.592923064886001
 21
3.670999999996297
 31
0.0
  0
LINE
  5
E465
330
E44F
100
AcDbEntity
  8
0
  6
CONTINUOUS
100
AcDbLine
 10
9.609390446785305
 20
4.6874673818956
 30
0.0
 11
10.68495775058548
 21
5.763034685695775
 31
0.0
  0
LINE
  5
E466
330
E44F
100
AcDbEntity
  8
0
  6
CONTINUOUS
100
AcDbLine
 10
5.595387755019432
 20
-0.0000545189504582
 30
0.0
 11
7.716137258923768
 21
2.120694984953879
 31
0.0
  0
LINE
  5
E467
330
E44F
100
AcDbEntity
  8
0
  6
CONTINUOUS
100
AcDbLine
 10
6.268938306610172
 20
-0.000023176439905
 30
0.0
 11
7.170485805526503
 21
0.9015243224764267
 31
0.0
  0
LINE
  5
E468
330
E44F
100
AcDbEntity
  8
0
  6
CONTINUOUS
100
AcDbLine
 10
7.963842273967511
 20
2.368399999997621
 30
0.0
 11
9.266442273966188
 21
3.670999999996297
 31
0.0
  0
LINE
  5
E469
330
E44F
100
AcDbEntity
  8
0
  6
CONTINUOUS
100
AcDbLine
 10
8.637361483047696
 20
2.368399999997621
 30
0.0
 11
9.939961483046375
 21
3.670999999996297
 31
0.0
  0
LINE
  5
E46A
330
E44F
100
AcDbEntity
  8
0
  6
CONTINUOUS
100
AcDbLine
 10
9.817529300306965
 20
4.222087026337075
 30
0.0
 11
10.89312513395388
 21
5.297682859983993
 31
0.0
  0
LINE
  5
E46B
330
E44F
100
AcDbEntity
  8
0
  6
CONTINUOUS
100
AcDbLine
 10
10.02566815382863
 20
3.756706670778549
 30
0.0
 11
11.10129251732229
 21
4.832331034272211
 31
0.0
  0
LINE
  5
E46C
330
E44F
100
AcDbEntity
  8
0
  6
CONTINUOUS
100
AcDbLine
 10
9.310880692127883
 20
2.368399999997621
 30
0.0
 11
11.30945990069069
 21
4.366979208560428
 31
0.0
  0
LINE
  5
E46D
330
E44F
100
AcDbEntity
  8
0
  6
CONTINUOUS
100
AcDbLine
 10
9.98439990120807
 20
2.36839999999762
 30
0.0
 11
11.5176272840591
 21
3.901627382848645
 31
0.0
  0
LINE
  5
E46E
330
E44F
100
AcDbEntity
  8
0
  6
CONTINUOUS
100
AcDbLine
 10
10.65037369446246
 20
2.36085458417182
 30
0.0
 11
11.7257946674275
 21
3.436275557136862
 31
0.0
  0
LINE
  5
E46F
330
E44F
100
AcDbEntity
  8
0
  6
CONTINUOUS
100
AcDbLine
 10
10.85847197087848
 20
1.895433651507656
 30
0.0
 11
11.9339620507959
 21
2.97092373142508
 31
0.0
  0
LINE
  5
E470
330
E44F
100
AcDbEntity
  8
0
  6
CONTINUOUS
100
AcDbLine
 10
11.0665702472945
 20
1.430012718843491
 30
0.0
 11
12.14212943416431
 21
2.505571905713296
 31
0.0
  0
LINE
  5
E471
330
E44F
100
AcDbEntity
  8
0
  6
CONTINUOUS
100
AcDbLine
 10
11.27466852371052
 20
0.9645917861793256
 30
0.0
 11
12.35029681753271
 21
2.040220080001513
 31
0.0
  0
LINE
  5
E472
330
E44F
100
AcDbEntity
  8
0
  6
CONTINUOUS
100
AcDbLine
 10
11.48276680012654
 20
0.4991708535151611
 30
0.0
 11
12.55846420090111
 21
1.57486825428973
 31
0.0
  0
LINE
  5
E473
330
E44F
100
AcDbEntity
  8
0
  6
CONTINUOUS
100
AcDbLine
 10
11.69086507654257
 20
0.0337499208509957
 30
0.0
 11
12.76663158426952
 21
1.109516428577947
 31
0.0
  0
LINE
  5
E474
330
E44F
100
AcDbEntity
  8
0
  6
CONTINUOUS
100
AcDbLine
 10
12.33057447873954
 20
-0.0000598860322123
 30
0.0
 11
12.97479896763792
 21
0.6441646028661663
 31
0.0
  0
LINE
  5
E475
330
E44F
100
AcDbEntity
  8
0
  6
CONTINUOUS
100
AcDbLine
 10
13.00413694809395
 20
-0.0000166257579952
 30
0.0
 11
13.18296635100632
 21
0.1788127771543824
 31
0.0
  0
LINE
  5
E476
330
E44F
100
AcDbEntity
  8
0
  6
CONTINUOUS
100
AcDbLine
 10
4.772852165289667
 20
-0.000092794222212
 30
0.0
 11
4.296495091028902
 21
0.4762642800385528
 31
0.0
  0
LINE
  5
E477
330
E44F
100
AcDbEntity
  8
0
  6
CONTINUOUS
100
AcDbLine
 10
5.446340034776103
 20
-0.0000614546284616
 30
0.0
 11
2.898195908335625
 21
2.548082671812017
 31
0.0
  0
LINE
  5
E478
330
E44F
100
AcDbEntity
  8
0
  6
CONTINUOUS
100
AcDbLine
 10
6.119827904262539
 20
-0.0000301150347113
 30
0.0
 11
1.499896725642348
 21
4.61990106358548
 31
0.0
  0
LINE
  5
E479
330
E44F
100
AcDbEntity
  8
0
  6
CONTINUOUS
100
AcDbLine
 10
6.775136745476159
 20
0.0181802528318542
 30
0.0
 11
5.699826040202669
 21
1.093490958105344
 31
0.0
  0
LINE
  5
E47A
330
E44F
100
AcDbEntity
  8
0
  6
CONTINUOUS
100
AcDbLine
 10
6.983376846288489
 20
0.4834593610997118
 30
0.0
 11
5.908008617934405
 21
1.558827589453796
 31
0.0
  0
LINE
  5
E47B
330
E44F
100
AcDbEntity
  8
0
  6
CONTINUOUS
100
AcDbLine
 10
5.377063484962296
 20
1.416253513345719
 30
0.0
 11
1.702276957014131
 21
5.091040041293883
 31
0.0
  0
LINE
  5
E47C
330
E44F
100
AcDbEntity
  8
0
  6
CONTINUOUS
100
AcDbLine
 10
3.978745891735324
 20
3.488090315652877
 30
0.0
 11
2.000373521109399
 21
5.466462686278803
 31
0.0
  0
LINE
  5
E47D
330
E44F
100
AcDbEntity
  8
0
  6
CONTINUOUS
100
AcDbLine
 10
7.191616947100819
 20
0.948738469367568
 30
0.0
 11
6.11619119566614
 21
2.024164220802247
 31
0.0
  0
LINE
  5
E47E
330
E44F
100
AcDbEntity
  8
0
  6
CONTINUOUS
100
AcDbLine
 10
7.399857047913149
 20
1.414017577635424
 30
0.0
 11
6.324373773397875
 21
2.489500852150698
 31
0.0
  0
LINE
  5
E47F
330
E44F
100
AcDbEntity
  8
0
  6
CONTINUOUS
100
AcDbLine
 10
7.608097148725479
 20
1.879296685903281
 30
0.0
 11
6.53255635112961
 21
2.95483748349915
 31
0.0
  0
LINE
  5
E480
330
E44F
100
AcDbEntity
  8
0
  6
CONTINUOUS
100
AcDbLine
 10
7.816337249537808
 20
2.344575794171138
 30
0.0
 11
6.740738928861345
 21
3.420174114847601
 31
0.0
  0
LINE
  5
E481
330
E44F
100
AcDbEntity
  8
0
  6
CONTINUOUS
100
AcDbLine
 10
3.310241080789734
 20
4.830114335678653
 30
0.0
 11
2.298470085204666
 21
5.84188533126372
 31
0.0
  0
LINE
  5
E482
330
E44F
100
AcDbEntity
  8
0
  6
CONTINUOUS
100
AcDbLine
 10
3.60832983563551
 20
5.205544789913063
 30
0.0
 11
2.596566649299935
 21
6.217307976248638
 31
0.0
  0
LINE
  5
E483
330
E44F
100
AcDbEntity
  8
0
  6
CONTINUOUS
100
AcDbLine
 10
3.906418590481286
 20
5.580975244147473
 30
0.0
 11
2.894663213395203
 21
6.592730621233557
 31
0.0
  0
LINE
  5
E484
330
E44F
100
AcDbEntity
  8
0
  6
CONTINUOUS
100
AcDbLine
 10
4.204507345327062
 20
5.956405698381884
 30
0.0
 11
3.192759777490472
 21
6.968153266218474
 31
0.0
  0
LINE
  5
E485
330
E44F
100
AcDbEntity
  8
0
  6
CONTINUOUS
100
AcDbLine
 10
8.466032252791512
 20
2.368399999997621
 30
0.0
 11
6.948921506593081
 21
3.885510746196053
 31
0.0
  0
LINE
  5
E486
330
E44F
100
AcDbEntity
  8
0
  6
CONTINUOUS
100
AcDbLine
 10
9.139551461871699
 20
2.36839999999762
 30
0.0
 11
7.157104084324816
 21
4.350847377544504
 31
0.0
  0
LINE
  5
E487
330
E44F
100
AcDbEntity
  8
0
  6
CONTINUOUS
100
AcDbLine
 10
4.502596100172839
 20
6.331836152616295
 30
0.0
 11
3.49085634158574
 21
7.343575911203393
 31
0.0
  0
LINE
  5
E488
330
E44F
100
AcDbEntity
  8
0
  6
CONTINUOUS
100
AcDbLine
 10
4.800684855018615
 20
6.707266606850705
 30
0.0
 11
3.788952905681008
 21
7.718998556188312
 31
0.0
  0
LINE
  5
E489
330
E44F
100
AcDbEntity
  8
0
  6
CONTINUOUS
100
AcDbLine
 10
12.18154012887317
 20
-0.0000694579236642
 30
0.0
 11
11.32140332908496
 21
0.8600673418645499
 31
0.0
  0
LINE
  5
E48A
330
E44F
100
AcDbEntity
  8
0
  6
CONTINUOUS
100
AcDbLine
 10
12.85501608323566
 20
-0.0000262032059659
 30
0.0
 11
10.77672456435345
 21
2.078265315676246
 31
0.0
  0
LINE
  5
E48B
330
E44F
100
AcDbEntity
  8
0
  6
CONTINUOUS
100
AcDbLine
 10
9.813070670951886
 20
2.36839999999762
 30
0.0
 11
8.51047067095321
 21
3.670999999996297
 31
0.0
  0
LINE
  5
E48C
330
E44F
100
AcDbEntity
  8
0
  6
CONTINUOUS
100
AcDbLine
 10
10.48658988003207
 20
2.36839999999762
 30
0.0
 11
9.183989880033396
 21
3.670999999996297
 31
0.0
  0
LINE
  5
E48D
330
E44F
100
AcDbEntity
  8
0
  6
CONTINUOUS
100
AcDbLine
 10
8.441048632286794
 20
3.740422038662712
 30
0.0
 11
7.365286662056551
 21
4.816184008892956
 31
0.0
  0
LINE
  5
E48E
330
E44F
100
AcDbEntity
  8
0
  6
CONTINUOUS
100
AcDbLine
 10
8.649187485808454
 20
4.205802394221237
 30
0.0
 11
7.573469239788285
 21
5.281520640241407
 31
0.0
  0
LINE
  5
E48F
330
E44F
100
AcDbEntity
  8
0
  6
CONTINUOUS
100
AcDbLine
 10
5.098773609864391
 20
7.082697061085115
 30
0.0
 11
4.087049469776277
 21
8.09442120117323
 31
0.0
  0
LINE
  5
E490
330
E44F
100
AcDbEntity
  8
0
  6
CONTINUOUS
100
AcDbLine
 10
5.396862364710167
 20
7.458127515319526
 30
0.0
 11
4.385146033871544
 21
8.469843846158149
 31
0.0
  0
LINE
  5
E491
330
E44F
100
AcDbEntity
  8
0
  6
CONTINUOUS
100
AcDbLine
 10
13.04801363231285
 20
0.4804954567970334
 30
0.0
 11
9.85750908911358
 21
3.670999999996297
 31
0.0
  0
LINE
  5
E492
330
E44F
100
AcDbEntity
  8
0
  6
CONTINUOUS
100
AcDbLine
 10
8.857326339330116
 20
4.671182749779763
 30
0.0
 11
7.781651817520021
 21
5.746857271589858
 31
0.0
  0
LINE
  5
E493
330
E44F
100
AcDbEntity
  8
0
  6
CONTINUOUS
100
AcDbLine
 10
5.694951119555943
 20
7.833557969553937
 30
0.0
 11
4.765409089118624
 21
8.763099999991255
 31
0.0
  0
LINE
  5
E494
330
E44F
100
AcDbEntity
  8
0
  6
CONTINUOUS
100
AcDbLine
 10
12.50286117236978
 20
1.699167125820288
 30
0.0
 11
9.68611877250287
 21
4.515909525687196
 31
0.0
  0
LINE
  5
E495
330
E44F
100
AcDbEntity
  8
0
  6
CONTINUOUS
100
AcDbLine
 10
9.065465192851777
 20
5.136563105338288
 30
0.0
 11
7.989834395251757
 21
6.21219390293831
 31
0.0
  0
LINE
  5
E496
330
E44F
100
AcDbEntity
  8
0
  6
CONTINUOUS
100
AcDbLine
 10
5.993039874401719
 20
8.208988423788346
 30
0.0
 11
5.43892829819881
 21
8.763099999991255
 31
0.0
  0
LINE
  5
E497
330
E44F
100
AcDbEntity
  8
0
  6
CONTINUOUS
100
AcDbLine
 10
11.95770871242671
 20
2.917838794843543
 30
0.0
 11
8.19801697298349
 21
6.677530534286761
 31
0.0
  0
LINE
  5
E498
330
E44F
100
AcDbEntity
  8
0
  6
CONTINUOUS
100
AcDbLine
 10
6.291128629247495
 20
8.584418878022756
 30
0.0
 11
6.112447507278997
 21
8.763099999991255
 31
0.0
  0
LINE
  5
E499
330
E44F
100
AcDbEntity
  8
0
  6
CONTINUOUS
100
AcDbLine
 10
11.41255625248364
 20
4.136510463866797
 30
0.0
 11
8.406199550715227
 21
7.142867165635211
 31
0.0
  0
LINE
  5
E49A
330
E44F
100
AcDbEntity
  8
0
  6
CONTINUOUS
100
AcDbLine
 10
10.86740379254057
 20
5.355182132890051
 30
0.0
 11
8.614382128446962
 21
7.608203796983664
 31
0.0
  0
LINE
  5
E49B
330
E44F
100
AcDbEntity
  8
0
  6
CONTINUOUS
100
AcDbLine
 10
10.3222513325975
 20
6.573853801913305
 30
0.0
 11
8.822564706178696
 21
8.073540428332114
 31
0.0
  0
LINE
  5
E49C
330
E44F
100
AcDbEntity
  8
0
  6
CONTINUOUS
100
AcDbLine
 10
9.777098872654436
 20
7.792525470936562
 30
0.0
 11
9.030747283910433
 21
8.538877059680566
 31
0.0
  0
ENDBLK
  5
E5DE
330
E44F
100
AcDbEntity
  8
0
100
AcDbBlockEnd
  0
BLOCK
  5
E5DF
330
E49D
100
AcDbEntity
  8
0
100
AcDbBlockBegin
  2
*X30
 70
     1
 10
0.0
 20
0.0
 30
0.0
  3
*X30
  1

  0
LINE
  5
E49E
330
E49D
100
AcDbEntity
  8
0
  6
CONTINUOUS
100
AcDbLine
 10
10.67292308101235
 20
8.445076852443387
 30
0.0
 11
10.99094622856022
 21
8.763099999991255
 31
0.0
  0
LINE
  5
E49F
330
E49D
100
AcDbEntity
  8
0
  6
CONTINUOUS
100
AcDbLine
 10
10.87250383178748
 20
7.971138394138331
 30
0.0
 11
11.6644654376404
 21
8.763099999991255
 31
0.0
  0
LINE
  5
E4A0
330
E49D
100
AcDbEntity
  8
0
  6
CONTINUOUS
100
AcDbLine
 10
11.07208458256261
 20
7.497199935833273
 30
0.0
 11
12.12126590876355
 21
8.546381262034211
 31
0.0
  0
LINE
  5
E4A1
330
E49D
100
AcDbEntity
  8
0
  6
CONTINUOUS
100
AcDbLine
 10
11.27166533333774
 20
7.023261477528216
 30
0.0
 11
12.32085164573666
 21
8.072447789927136
 31
0.0
  0
LINE
  5
E4A2
330
E49D
100
AcDbEntity
  8
0
  6
CONTINUOUS
100
AcDbLine
 10
11.47124608411287
 20
6.549323019223158
 30
0.0
 11
12.52043738270977
 21
7.59851431782006
 31
0.0
  0
LINE
  5
E4A3
330
E49D
100
AcDbEntity
  8
0
  6
CONTINUOUS
100
AcDbLine
 10
11.670826834888
 20
6.075384560918101
 30
0.0
 11
12.72002311968288
 21
7.124580845712984
 31
0.0
  0
LINE
  5
E4A4
330
E49D
100
AcDbEntity
  8
0
  6
CONTINUOUS
100
AcDbLine
 10
11.87040758566313
 20
5.601446102613043
 30
0.0
 11
12.91960885665599
 21
6.650647373605907
 31
0.0
  0
LINE
  5
E4A5
330
E49D
100
AcDbEntity
  8
0
  6
CONTINUOUS
100
AcDbLine
 10
12.06998833643825
 20
5.127507644307986
 30
0.0
 11
13.1191945936291
 21
6.176713901498832
 31
0.0
  0
LINE
  5
E4A6
330
E49D
100
AcDbEntity
  8
0
  6
CONTINUOUS
100
AcDbLine
 10
12.26956908721338
 20
4.65356918600293
 30
0.0
 11
13.31878033060221
 21
5.702780429391757
 31
0.0
  0
LINE
  5
E4A7
330
E49D
100
AcDbEntity
  8
0
  6
CONTINUOUS
100
AcDbLine
 10
12.46914983798851
 20
4.179630727697873
 30
0.0
 11
13.51836606757532
 21
5.228846957284683
 31
0.0
  0
LINE
  5
E4A8
330
E49D
100
AcDbEntity
  8
0
  6
CONTINUOUS
100
AcDbLine
 10
12.66873058876364
 20
3.705692269392816
 30
0.0
 11
13.71795180454843
 21
4.754913485177607
 31
0.0
  0
LINE
  5
E4A9
330
E49D
100
AcDbEntity
  8
0
  6
CONTINUOUS
100
AcDbLine
 10
12.86831133953877
 20
3.231753811087759
 30
0.0
 11
13.91753754152154
 21
4.280980013070531
 31
0.0
  0
LINE
  5
E4AA
330
E49D
100
AcDbEntity
  8
0
  6
CONTINUOUS
100
AcDbLine
 10
13.0678920903139
 20
2.757815352782702
 30
0.0
 11
14.11712327849465
 21
3.807046540963456
 31
0.0
  0
LINE
  5
E4AB
330
E49D
100
AcDbEntity
  8
0
  6
CONTINUOUS
100
AcDbLine
 10
13.26747284108903
 20
2.283876894477644
 30
0.0
 11
14.31670901546777
 21
3.333113068856379
 31
0.0
  0
LINE
  5
E4AC
330
E49D
100
AcDbEntity
  8
0
  6
CONTINUOUS
100
AcDbLine
 10
16.36767838827179
 20
8.751678487061342
 30
0.0
 11
16.50332410898388
 21
8.887324207773432
 31
0.0
  0
LINE
  5
E4AD
330
E49D
100
AcDbEntity
  8
0
  6
CONTINUOUS
100
AcDbLine
 10
15.96190732182191
 20
7.67238821153127
 30
0.0
 11
16.68735328004734
 21
8.397834169756699
 31
0.0
  0
LINE
  5
E4AE
330
E49D
100
AcDbEntity
  8
0
  6
CONTINUOUS
100
AcDbLine
 10
15.55613625537202
 20
6.593097936001196
 30
0.0
 11
16.87138245111079
 21
7.908344131739965
 31
0.0
  0
LINE
  5
E4AF
330
E49D
100
AcDbEntity
  8
0
  6
CONTINUOUS
100
AcDbLine
 10
15.15036518892213
 20
5.513807660471122
 30
0.0
 11
17.05541162217424
 21
7.418854093723231
 31
0.0
  0
LINE
  5
E4B0
330
E49D
100
AcDbEntity
  8
0
  6
CONTINUOUS
100
AcDbLine
 10
14.74459412247225
 20
4.434517384941048
 30
0.0
 11
17.2394407932377
 21
6.929364055706499
 31
0.0
  0
LINE
  5
E4B1
330
E49D
100
AcDbEntity
  8
0
  6
CONTINUOUS
100
AcDbLine
 10
14.33882305602236
 20
3.355227109410975
 30
0.0
 11
17.42346996430115
 21
6.439874017689766
 31
0.0
  0
LINE
  5
E4B2
330
E49D
100
AcDbEntity
  8
0
  6
CONTINUOUS
100
AcDbLine
 10
13.46705359186416
 20
1.809938436172586
 30
0.0
 11
16.0819338255367
 21
4.424818669845129
 31
0.0
  0
LINE
  5
E4B3
330
E49D
100
AcDbEntity
  8
0
  6
CONTINUOUS
100
AcDbLine
 10
16.63283254238972
 20
4.975717386698149
 30
0.0
 11
17.60749913536461
 21
5.950383979673033
 31
0.0
  0
LINE
  5
E4B4
330
E49D
100
AcDbEntity
  8
0
  6
CONTINUOUS
100
AcDbLine
 10
13.66663434263929
 20
1.335999977867529
 30
0.0
 11
15.67604797733754
 21
3.345413612565779
 31
0.0
  0
LINE
  5
E4B5
330
E49D
100
AcDbEntity
  8
0
  6
CONTINUOUS
100
AcDbLine
 10
13.86621509341442
 20
0.8620615195624723
 30
0.0
 11
15.27016212913838
 21
2.26600855528643
 31
0.0
  0
LINE
  5
E4B6
330
E49D
100
AcDbEntity
  8
0
  6
CONTINUOUS
100
AcDbLine
 10
16.81682257348267
 20
4.486188208710908
 30
0.0
 11
17.79152830642806
 21
5.460893941656299
 31
0.0
  0
LINE
  5
E4B7
330
E49D
100
AcDbEntity
  8
0
  6
CONTINUOUS
100
AcDbLine
 10
17.00081260457561
 20
3.996659030723667
 30
0.0
 11
17.97555747749151
 21
4.971403903639565
 31
0.0
  0
LINE
  5
E4B8
330
E49D
100
AcDbEntity
  8
0
  6
CONTINUOUS
100
AcDbLine
 10
20.74362343514722
 20
8.412989070375462
 30
0.0
 11
21.09373436476302
 21
8.763099999991256
 31
0.0
  0
LINE
  5
E4B9
330
E49D
100
AcDbEntity
  8
0
  6
CONTINUOUS
100
AcDbLine
 10
20.25401257174777
 20
7.249858997895826
 30
0.0
 11
21.7672535738432
 21
8.763099999991255
 31
0.0
  0
LINE
  5
E4BA
330
E49D
100
AcDbEntity
  8
0
  6
CONTINUOUS
100
AcDbLine
 10
14.06579584418955
 20
0.3881230612574149
 30
0.0
 11
14.86427628093921
 21
1.186603498007082
 31
0.0
  0
LINE
  5
E4BB
330
E49D
100
AcDbEntity
  8
0
  6
CONTINUOUS
100
AcDbLine
 10
14.26537659496467
 20
-0.0858153970476412
 30
0.0
 11
14.45839043274005
 21
0.1071984407277329
 31
0.0
  0
LINE
  5
E4BC
330
E49D
100
AcDbEntity
  8
0
  6
CONTINUOUS
100
AcDbLine
 10
17.18480263566856
 20
3.507129852736426
 30
0.0
 11
18.15958664855496
 21
4.481913865622833
 31
0.0
  0
LINE
  5
E4BD
330
E49D
100
AcDbEntity
  8
0
  6
CONTINUOUS
100
AcDbLine
 10
17.3687926667615
 20
3.017600674749186
 30
0.0
 11
18.34361581961842
 21
3.9924238276061
 31
0.0
  0
LINE
  5
E4BE
330
E49D
100
AcDbEntity
  8
0
  6
CONTINUOUS
100
AcDbLine
 10
19.76440170834832
 20
6.086728925416191
 30
0.0
 11
22.33924590259489
 21
8.661573119662755
 31
0.0
  0
LINE
  5
E4BF
330
E49D
100
AcDbEntity
  8
0
  6
CONTINUOUS
100
AcDbLine
 10
19.27479084494887
 20
4.923598852936555
 30
0.0
 11
21.84929622842713
 21
7.498104236414807
 31
0.0
  0
LINE
  5
E4C0
330
E49D
100
AcDbEntity
  8
0
  6
CONTINUOUS
100
AcDbLine
 10
17.55278269785445
 20
2.528071496761945
 30
0.0
 11
18.52764499068187
 21
3.502933789589366
 31
0.0
  0
LINE
  5
E4C1
330
E49D
100
AcDbEntity
  8
0
  6
CONTINUOUS
100
AcDbLine
 10
18.78517998154942
 20
3.760468780456919
 30
0.0
 11
21.35934655425936
 21
6.33463535316686
 31
0.0
  0
LINE
  5
E4C2
330
E49D
100
AcDbEntity
  8
0
  6
CONTINUOUS
100
AcDbLine
 10
17.73677272894739
 20
2.038542318774704
 30
0.0
 11
20.8693968800916
 21
5.171166469918914
 31
0.0
  0
LINE
  5
E4C3
330
E49D
100
AcDbEntity
  8
0
  6
CONTINUOUS
100
AcDbLine
 10
17.92076276004034
 20
1.549013140787464
 30
0.0
 11
20.37944720592384
 21
4.007697586670968
 31
0.0
  0
LINE
  5
E4C4
330
E49D
100
AcDbEntity
  8
0
  6
CONTINUOUS
100
AcDbLine
 10
18.10475279113329
 20
1.059483962800223
 30
0.0
 11
19.88949753175608
 21
2.84422870342302
 31
0.0
  0
LINE
  5
E4C5
330
E49D
100
AcDbEntity
  8
0
  6
CONTINUOUS
100
AcDbLine
 10
18.28874282222623
 20
0.5699547848129822
 30
0.0
 11
19.39954785758832
 21
1.680759820175074
 31
0.0
  0
LINE
  5
E4C6
330
E49D
100
AcDbEntity
  8
0
  6
CONTINUOUS
100
AcDbLine
 10
18.47273285331918
 20
0.0804256068257416
 30
0.0
 11
18.90959818342056
 21
0.517290936927127
 31
0.0
  0
LINE
  5
E4C7
330
E49D
100
AcDbEntity
  8
0
  6
CONTINUOUS
100
AcDbLine
 10
14.3590401358224
 20
-0.1570118376323384
 30
0.0
 11
14.24903296539946
 21
-0.0470046672093929
 31
0.0
  0
LINE
  5
E4C8
330
E49D
100
AcDbEntity
  8
0
  6
CONTINUOUS
100
AcDbLine
 10
14.54309291258661
 20
0.332454594683643
 30
0.0
 11
13.75908329123172
 21
1.116464216038529
 31
0.0
  0
LINE
  5
E4C9
330
E49D
100
AcDbEntity
  8
0
  6
CONTINUOUS
100
AcDbLine
 10
14.72714568935081
 20
0.8219210269996244
 30
0.0
 11
13.26913361706399
 21
2.27993309928645
 31
0.0
  0
LINE
  5
E4CA
330
E49D
100
AcDbEntity
  8
0
  6
CONTINUOUS
100
AcDbLine
 10
14.91119846611502
 20
1.311387459315606
 30
0.0
 11
12.77918394289625
 21
3.443401982534371
 31
0.0
  0
LINE
  5
E4CB
330
E49D
100
AcDbEntity
  8
0
  6
CONTINUOUS
100
AcDbLine
 10
15.09525124287922
 20
1.800853891631587
 30
0.0
 11
12.28923426872852
 21
4.606870865782293
 31
0.0
  0
LINE
  5
E4CC
330
E49D
100
AcDbEntity
  8
0
  6
CONTINUOUS
100
AcDbLine
 10
15.27930401964343
 20
2.290320323947569
 30
0.0
 11
11.79928459456078
 21
5.770339749030213
 31
0.0
  0
LINE
  5
E4CD
330
E49D
100
AcDbEntity
  8
0
  6
CONTINUOUS
100
AcDbLine
 10
15.46335679640763
 20
2.77978675626355
 30
0.0
 11
14.48885470994921
 21
3.754288842721972
 31
0.0
  0
LINE
  5
E4CE
330
E49D
100
AcDbEntity
  8
0
  6
CONTINUOUS
100
AcDbLine
 10
13.88507249233704
 20
4.358071060334137
 30
0.0
 11
11.30933492039305
 21
6.933808632278135
 31
0.0
  0
LINE
  5
E4CF
330
E49D
100
AcDbEntity
  8
0
  6
CONTINUOUS
100
AcDbLine
 10
18.75840522805855
 20
0.1582575336928151
 30
0.0
 11
18.25383727664818
 21
0.6628254851031863
 31
0.0
  0
LINE
  5
E4D0
330
E49D
100
AcDbEntity
  8
0
  6
CONTINUOUS
100
AcDbLine
 10
15.64740957317184
 20
3.269253188579531
 30
0.0
 11
14.67288388101266
 21
4.243778880738705
 31
0.0
  0
LINE
  5
E4D1
330
E49D
100
AcDbEntity
  8
0
  6
CONTINUOUS
100
AcDbLine
 10
13.39509276772158
 20
5.521569994029786
 30
0.0
 11
10.81938524622531
 21
8.097277515526056
 31
0.0
  0
LINE
  5
E4D2
330
E49D
100
AcDbEntity
  8
0
  6
CONTINUOUS
100
AcDbLine
 10
18.95798597883369
 20
0.6321959919978686
 30
0.0
 11
17.84825644852853
 21
1.741925522303024
 31
0.0
  0
LINE
  5
E4D3
330
E49D
100
AcDbEntity
  8
0
  6
CONTINUOUS
100
AcDbLine
 10
19.15756672960882
 20
1.106134450302922
 30
0.0
 11
17.44267562040888
 21
2.821025559502861
 31
0.0
  0
LINE
  5
E4D4
330
E49D
100
AcDbEntity
  8
0
  6
CONTINUOUS
100
AcDbLine
 10
15.83146234993604
 20
3.758719620895513
 30
0.0
 11
14.85691305207612
 21
4.733268918755439
 31
0.0
  0
LINE
  5
E4D5
330
E49D
100
AcDbEntity
  8
0
  6
CONTINUOUS
100
AcDbLine
 10
16.01551512670025
 20
4.248186053211494
 30
0.0
 11
15.04094222313957
 21
5.222758956772172
 31
0.0
  0
LINE
  5
E4D6
330
E49D
100
AcDbEntity
  8
0
  6
CONTINUOUS
100
AcDbLine
 10
12.90511304310612
 20
6.685068927725435
 30
0.0
 11
10.8270819708403
 21
8.763099999991255
 31
0.0
  0
LINE
  5
E4D7
330
E49D
100
AcDbEntity
  8
0
  6
CONTINUOUS
100
AcDbLine
 10
12.41513331849066
 20
7.848567861421083
 30
0.0
 11
11.50060117992049
 21
8.763099999991255
 31
0.0
  0
LINE
  5
E4D8
330
E49D
100
AcDbEntity
  8
0
  6
CONTINUOUS
100
AcDbLine
 10
19.35714748038395
 20
1.580072908607975
 30
0.0
 11
17.03709479228923
 21
3.900125596702697
 31
0.0
  0
LINE
  5
E4D9
330
E49D
100
AcDbEntity
  8
0
  6
CONTINUOUS
100
AcDbLine
 10
19.55672823115909
 20
2.054011366913028
 30
0.0
 11
16.63151396416958
 21
4.979225633902534
 31
0.0
  0
LINE
  5
E4DA
330
E49D
100
AcDbEntity
  8
0
  6
CONTINUOUS
100
AcDbLine
 10
16.19956790346445
 20
4.737652485527476
 30
0.0
 11
15.22497139420302
 21
5.712248994788904
 31
0.0
  0
LINE
  5
E4DB
330
E49D
100
AcDbEntity
  8
0
  6
CONTINUOUS
100
AcDbLine
 10
16.38362068022866
 20
5.227118917843457
 30
0.0
 11
15.40900056526648
 21
6.201739032805637
 31
0.0
  0
LINE
  5
E4DC
330
E49D
100
AcDbEntity
  8
0
  6
CONTINUOUS
100
AcDbLine
 10
19.75630898193422
 20
2.527949825218081
 30
0.0
 11
18.70774536448286
 21
3.576513442669441
 31
0.0
  0
LINE
  5
E4DD
330
E49D
100
AcDbEntity
  8
0
  6
CONTINUOUS
100
AcDbLine
 10
19.95588973270936
 20
3.001888283523134
 30
0.0
 11
18.90726987211446
 21
4.050508144118028
 31
0.0
  0
LINE
  5
E4DE
330
E49D
100
AcDbEntity
  8
0
  6
CONTINUOUS
100
AcDbLine
 10
20.15547048348449
 20
3.475826741828186
 30
0.0
 11
19.10679437974606
 21
4.524502845566614
 31
0.0
  0
LINE
  5
E4DF
330
E49D
100
AcDbEntity
  8
0
  6
CONTINUOUS
100
AcDbLine
 10
20.35505123425962
 20
3.94976520013324
 30
0.0
 11
19.30631888737766
 21
4.998497547015201
 31
0.0
  0
LINE
  5
E4E0
330
E49D
100
AcDbEntity
  8
0
  6
CONTINUOUS
100
AcDbLine
 10
20.55463198503475
 20
4.423703658438292
 30
0.0
 11
19.50584339500926
 21
5.472492248463787
 31
0.0
  0
LINE
  5
E4E1
330
E49D
100
AcDbEntity
  8
0
  6
CONTINUOUS
100
AcDbLine
 10
18.37481191085755
 20
3.909446896294752
 30
0.0
 11
15.59302973632993
 21
6.691229070822371
 31
0.0
  0
LINE
  5
E4E2
330
E49D
100
AcDbEntity
  8
0
  6
CONTINUOUS
100
AcDbLine
 10
17.96904084440766
 20
4.988737171824825
 30
0.0
 11
15.77705890739338
 21
7.180719108839104
 31
0.0
  0
LINE
  5
E4E3
330
E49D
100
AcDbEntity
  8
0
  6
CONTINUOUS
100
AcDbLine
 10
17.56326977795777
 20
6.068027447354899
 30
0.0
 11
15.96108807845684
 21
7.670209146855838
 31
0.0
  0
LINE
  5
E4E4
330
E49D
100
AcDbEntity
  8
0
  6
CONTINUOUS
100
AcDbLine
 10
17.15749871150789
 20
7.147317722884972
 30
0.0
 11
16.14511724952029
 21
8.15969918487257
 31
0.0
  0
LINE
  5
E4E5
330
E49D
100
AcDbEntity
  8
0
  6
CONTINUOUS
100
AcDbLine
 10
16.751727645058
 20
8.226607998415046
 30
0.0
 11
16.32914642058374
 21
8.649189222889303
 31
0.0
  0
LINE
  5
E4E6
330
E49D
100
AcDbEntity
  8
0
  6
CONTINUOUS
100
AcDbLine
 10
20.75421273580989
 20
4.897642116743345
 30
0.0
 11
19.70536790264086
 21
5.946486949912374
 31
0.0
  0
LINE
  5
E4E7
330
E49D
100
AcDbEntity
  8
0
  6
CONTINUOUS
100
AcDbLine
 10
20.95379348658502
 20
5.371580575048398
 30
0.0
 11
19.90489241027246
 21
6.42048165136096
 31
0.0
  0
LINE
  5
E4E8
330
E49D
100
AcDbEntity
  8
0
  6
CONTINUOUS
100
AcDbLine
 10
21.15337423736015
 20
5.845519033353452
 30
0.0
 11
20.10441691790406
 21
6.894476352809547
 31
0.0
  0
LINE
  5
E4E9
330
E49D
100
AcDbEntity
  8
0
  6
CONTINUOUS
100
AcDbLine
 10
21.35295498813529
 20
6.319457491658505
 30
0.0
 11
20.30394142553566
 21
7.368471054258134
 31
0.0
  0
LINE
  5
E4EA
330
E49D
100
AcDbEntity
  8
0
  6
CONTINUOUS
100
AcDbLine
 10
21.55253573891042
 20
6.793395949963558
 30
0.0
 11
20.50346593316726
 21
7.842465755706721
 31
0.0
  0
LINE
  5
E4EB
330
E49D
100
AcDbEntity
  8
0
  6
CONTINUOUS
100
AcDbLine
 10
21.75211648968556
 20
7.267334408268612
 30
0.0
 11
20.70299044079886
 21
8.316460457155308
 31
0.0
  0
LINE
  5
E4EC
330
E49D
100
AcDbEntity
  8
0
  6
CONTINUOUS
100
AcDbLine
 10
21.95169724046069
 20
7.741272866573663
 30
0.0
 11
20.9298701070431
 21
8.763099999991256
 31
0.0
  0
LINE
  5
E4ED
330
E49D
100
AcDbEntity
  8
0
  6
CONTINUOUS
100
AcDbLine
 10
22.15127799123582
 20
8.215211324878716
 30
0.0
 11
21.60338931612328
 21
8.763099999991256
 31
0.0
  0
LINE
  5
E4EE
330
E49D
100
AcDbEntity
  8
0
  6
CONTINUOUS
100
AcDbLine
 10
22.35085874201096
 20
8.689149783183769
 30
0.0
 11
22.27690852520347
 21
8.763099999991255
 31
0.0
  0
ENDBLK
  5
E5E0
330
E49D
100
AcDbEntity
  8
0
100
AcDbBlockEnd
  0
BLOCK
  5
E5E1
330
E4EF
100
AcDbEntity
  8
0
100
AcDbBlockBegin
  2
*X31
 70
     1
 10
0.0
 20
0.0
 30
0.0
  3
*X31
  1

  0
LINE
  5
E4F0
330
E4EF
100
AcDbEntity
  8
0
  6
CONTINUOUS
100
AcDbLine
 10
23.19462913593892
 20
8.169917934846424
 30
0.0
 11
23.70775465517246
 21
8.683043454079957
 31
0.0
  0
LINE
  5
E4F1
330
E4EF
100
AcDbEntity
  8
0
  6
CONTINUOUS
100
AcDbLine
 10
22.64923161835078
 20
6.951001208178088
 30
0.0
 11
23.9159364069932
 21
8.217705996820516
 31
0.0
  0
LINE
  5
E4F2
330
E4EF
100
AcDbEntity
  8
0
  6
CONTINUOUS
100
AcDbLine
 10
22.10383410076263
 20
5.732084481509751
 30
0.0
 11
24.12411815881395
 21
7.752368539561078
 31
0.0
  0
LINE
  5
E4F3
330
E4EF
100
AcDbEntity
  8
0
  6
CONTINUOUS
100
AcDbLine
 10
21.55843658317447
 20
4.513167754841414
 30
0.0
 11
24.3322999106347
 21
7.287031082301639
 31
0.0
  0
LINE
  5
E4F4
330
E4EF
100
AcDbEntity
  8
0
  6
CONTINUOUS
100
AcDbLine
 10
21.01303906558632
 20
3.294251028173077
 30
0.0
 11
24.54048166245544
 21
6.821693625042199
 31
0.0
  0
LINE
  5
E4F5
330
E4EF
100
AcDbEntity
  8
0
  6
CONTINUOUS
100
AcDbLine
 10
20.46764154799817
 20
2.075334301504738
 30
0.0
 11
23.28571549467848
 21
4.89340824818505
 31
0.0
  0
LINE
  5
E4F6
330
E4EF
100
AcDbEntity
  8
0
  6
CONTINUOUS
100
AcDbLine
 10
19.92224403041002
 20
0.8564175748364002
 30
0.0
 11
22.74075865492779
 21
3.674932199354171
 31
0.0
  0
LINE
  5
E4F7
330
E4EF
100
AcDbEntity
  8
0
  6
CONTINUOUS
100
AcDbLine
 10
23.67305085490148
 20
5.280743608408048
 30
0.0
 11
24.74866341427619
 21
6.356356167782759
 31
0.0
  0
LINE
  5
E4F8
330
E4EF
100
AcDbEntity
  8
0
  6
CONTINUOUS
100
AcDbLine
 10
23.88118970842314
 20
4.815363252849522
 30
0.0
 11
24.95684516609694
 21
5.89101871052332
 31
0.0
  0
LINE
  5
E4F9
330
E4EF
100
AcDbEntity
  8
0
  6
CONTINUOUS
100
AcDbLine
 10
19.73925852647308
 20
-0.0000871381807288
 30
0.0
 11
23.4103456646501
 21
3.670999999996297
 31
0.0
  0
LINE
  5
E4FA
330
E4EF
100
AcDbEntity
  8
0
  6
CONTINUOUS
100
AcDbLine
 10
24.0893285619448
 20
4.349982897290997
 30
0.0
 11
25.16502691791769
 21
5.42568125326388
 31
0.0
  0
LINE
  5
E4FB
330
E4EF
100
AcDbEntity
  8
0
  6
CONTINUOUS
100
AcDbLine
 10
20.41282099582748
 20
-0.0000438779065108
 30
0.0
 11
21.64944178675636
 21
1.236576913022366
 31
0.0
  0
LINE
  5
E4FC
330
E4EF
100
AcDbEntity
  8
0
  6
CONTINUOUS
100
AcDbLine
 10
22.78126487373161
 20
2.36839999999762
 30
0.0
 11
24.08386487373029
 21
3.670999999996297
 31
0.0
  0
LINE
  5
E4FD
330
E4EF
100
AcDbEntity
  8
0
  6
CONTINUOUS
100
AcDbLine
 10
24.29746741546646
 20
3.884602541732471
 30
0.0
 11
25.37320866973843
 21
4.960343796004441
 31
0.0
  0
LINE
  5
E4FE
330
E4EF
100
AcDbEntity
  8
0
  6
CONTINUOUS
100
AcDbLine
 10
21.08638346518189
 20
-0.0000006176322938
 30
0.0
 11
21.10379033335899
 21
0.0174062505448083
 31
0.0
  0
LINE
  5
E4FF
330
E4EF
100
AcDbEntity
  8
0
  6
CONTINUOUS
100
AcDbLine
 10
23.4547840828118
 20
2.36839999999762
 30
0.0
 11
25.58139042155918
 21
4.495006338745002
 31
0.0
  0
LINE
  5
E500
330
E4EF
100
AcDbEntity
  8
0
  6
CONTINUOUS
100
AcDbLine
 10
29.30199999996933
 20
8.215615917155148
 30
0.0
 11
29.84948408280543
 21
8.763099999991255
 31
0.0
  0
LINE
  5
E501
330
E4EF
100
AcDbEntity
  8
0
  6
CONTINUOUS
100
AcDbLine
 10
24.12830329189199
 20
2.36839999999762
 30
0.0
 11
25.78957217337993
 21
4.029668881485562
 31
0.0
  0
LINE
  5
E502
330
E4EF
100
AcDbEntity
  8
0
  6
CONTINUOUS
100
AcDbLine
 10
29.30199999996933
 20
7.54209670807496
 30
0.0
 11
30.52300329188562
 21
8.763099999991255
 31
0.0
  0
LINE
  5
E503
330
E4EF
100
AcDbEntity
  8
0
  6
CONTINUOUS
100
AcDbLine
 10
24.80182250097217
 20
2.36839999999762
 30
0.0
 11
25.99775392520067
 21
3.564331424226122
 31
0.0
  0
LINE
  5
E504
330
E4EF
100
AcDbEntity
  8
0
  6
CONTINUOUS
100
AcDbLine
 10
29.30199999996933
 20
6.868577498994774
 30
0.0
 11
30.74199999996926
 21
8.308577498994712
 31
0.0
  0
LINE
  5
E505
330
E4EF
100
AcDbEntity
  8
0
  6
CONTINUOUS
100
AcDbLine
 10
25.13028238392013
 20
2.023340673865392
 30
0.0
 11
26.20593567702142
 21
3.098993966966683
 31
0.0
  0
LINE
  5
E506
330
E4EF
100
AcDbEntity
  8
0
  6
CONTINUOUS
100
AcDbLine
 10
25.33838066033617
 20
1.557919741201244
 30
0.0
 11
26.41411742884217
 21
2.633656509707244
 31
0.0
  0
LINE
  5
E507
330
E4EF
100
AcDbEntity
  8
0
  6
CONTINUOUS
100
AcDbLine
 10
25.54647893675221
 20
1.092498808537098
 30
0.0
 11
26.62229918066291
 21
2.168319052447804
 31
0.0
  0
LINE
  5
E508
330
E4EF
100
AcDbEntity
  8
0
  6
CONTINUOUS
100
AcDbLine
 10
25.75457721316825
 20
0.62707787587295
 30
0.0
 11
26.83048093248366
 21
1.702981595188365
 31
0.0
  0
LINE
  5
E509
330
E4EF
100
AcDbEntity
  8
0
  6
CONTINUOUS
100
AcDbLine
 10
29.30199999996933
 20
6.195058289914587
 30
0.0
 11
30.74199999996926
 21
7.635058289914522
 31
0.0
  0
LINE
  5
E50A
330
E4EF
100
AcDbEntity
  8
0
  6
CONTINUOUS
100
AcDbLine
 10
29.30199999996933
 20
5.521539080834401
 30
0.0
 11
30.74199999996926
 21
6.961539080834331
 31
0.0
  0
LINE
  5
E50B
330
E4EF
100
AcDbEntity
  8
0
  6
CONTINUOUS
100
AcDbLine
 10
29.30199999996933
 20
4.848019871754214
 30
0.0
 11
30.74199999996925
 21
6.288019871754143
 31
0.0
  0
LINE
  5
E50C
330
E4EF
100
AcDbEntity
  8
0
  6
CONTINUOUS
100
AcDbLine
 10
29.30199999996933
 20
4.174500662674028
 30
0.0
 11
30.74199999996925
 21
5.614500662673953
 31
0.0
  0
LINE
  5
E50D
330
E4EF
100
AcDbEntity
  8
0
  6
CONTINUOUS
100
AcDbLine
 10
25.96267548958429
 20
0.1616569432088024
 30
0.0
 11
27.18411854636669
 21
1.383099999991207
 31
0.0
  0
LINE
  5
E50E
330
E4EF
100
AcDbEntity
  8
0
  6
CONTINUOUS
100
AcDbLine
 10
29.30199999996933
 20
3.500981453593841
 30
0.0
 11
30.74199999996925
 21
4.940981453593762
 31
0.0
  0
LINE
  5
E50F
330
E4EF
100
AcDbEntity
  8
0
  6
CONTINUOUS
100
AcDbLine
 10
26.50763775544691
 20
0.0330999999912356
 30
0.0
 11
27.85763775544689
 21
1.383099999991223
 31
0.0
  0
LINE
  5
E510
330
E4EF
100
AcDbEntity
  8
0
  6
CONTINUOUS
100
AcDbLine
 10
29.30199999996933
 20
2.827462244513656
 30
0.0
 11
30.74199999996925
 21
4.267462244513574
 31
0.0
  0
LINE
  5
E511
330
E4EF
100
AcDbEntity
  8
0
  6
CONTINUOUS
100
AcDbLine
 10
27.18115696452709
 20
0.0330999999912356
 30
0.0
 11
28.55073879889363
 21
1.402681834357775
 31
0.0
  0
LINE
  5
E512
330
E4EF
100
AcDbEntity
  8
0
  6
CONTINUOUS
100
AcDbLine
 10
29.28241816560272
 20
2.134361201066866
 30
0.0
 11
30.74199999996924
 21
3.593943035433383
 31
0.0
  0
LINE
  5
E513
330
E4EF
100
AcDbEntity
  8
0
  6
CONTINUOUS
100
AcDbLine
 10
27.85467617360728
 20
0.0330999999912356
 30
0.0
 11
30.74199999996924
 21
2.920423826353195
 31
0.0
  0
LINE
  5
E514
330
E4EF
100
AcDbEntity
  8
0
  6
CONTINUOUS
100
AcDbLine
 10
28.53897559587887
 20
0.0438802131826428
 30
0.0
 11
30.73121978677781
 21
2.236124404081585
 31
0.0
  0
LINE
  5
E515
330
E4EF
100
AcDbEntity
  8
0
  6
CONTINUOUS
100
AcDbLine
 10
29.45140055588722
 20
0.2827859641107988
 30
0.0
 11
30.49231403584965
 21
1.323699444073236
 31
0.0
  0
LINE
  5
E516
330
E4EF
100
AcDbEntity
  8
0
  6
CONTINUOUS
100
AcDbLine
 10
19.59027867740337
 20
-0.0000967065718083
 30
0.0
 11
19.55485265190471
 21
0.035329318926844
 31
0.0
  0
LINE
  5
E517
330
E4EF
100
AcDbEntity
  8
0
  6
CONTINUOUS
100
AcDbLine
 10
20.26375463176586
 20
-0.0000534518541091
 30
0.0
 11
19.76305575737534
 21
0.5006454225364014
 31
0.0
  0
LINE
  5
E518
330
E4EF
100
AcDbEntity
  8
0
  6
CONTINUOUS
100
AcDbLine
 10
20.93723058612834
 20
-0.0000101971364099
 30
0.0
 11
19.97125886284597
 21
0.965961526145958
 31
0.0
  0
LINE
  5
E519
330
E4EF
100
AcDbEntity
  8
0
  6
CONTINUOUS
100
AcDbLine
 10
21.25514828313686
 20
0.355591314935257
 30
0.0
 11
20.1794619683166
 21
1.431277629755512
 31
0.0
  0
LINE
  5
E51A
330
E4EF
100
AcDbEntity
  8
0
  6
CONTINUOUS
100
AcDbLine
 10
21.46338838394921
 20
0.8208704232030986
 30
0.0
 11
20.38766507378723
 21
1.896593733365069
 31
0.0
  0
LINE
  5
E51B
330
E4EF
100
AcDbEntity
  8
0
  6
CONTINUOUS
100
AcDbLine
 10
21.67162848476155
 20
1.28614953147094
 30
0.0
 11
20.59586817925786
 21
2.361909836974626
 31
0.0
  0
LINE
  5
E51C
330
E4EF
100
AcDbEntity
  8
0
  6
CONTINUOUS
100
AcDbLine
 10
21.8798685855739
 20
1.751428639738782
 30
0.0
 11
20.80407128472849
 21
2.827225940584183
 31
0.0
  0
LINE
  5
E51D
330
E4EF
100
AcDbEntity
  8
0
  6
CONTINUOUS
100
AcDbLine
 10
22.08810868638624
 20
2.216707748006623
 30
0.0
 11
21.01227439019912
 21
3.292542044193739
 31
0.0
  0
LINE
  5
E51E
330
E4EF
100
AcDbEntity
  8
0
  6
CONTINUOUS
100
AcDbLine
 10
22.60993564347543
 20
2.36839999999762
 30
0.0
 11
21.22047749566975
 21
3.757858147803296
 31
0.0
  0
LINE
  5
E51F
330
E4EF
100
AcDbEntity
  8
0
  6
CONTINUOUS
100
AcDbLine
 10
23.28345485255561
 20
2.36839999999762
 30
0.0
 11
21.42868060114038
 21
4.223174251412853
 31
0.0
  0
LINE
  5
E520
330
E4EF
100
AcDbEntity
  8
0
  6
CONTINUOUS
100
AcDbLine
 10
26.29227406164219
 20
0.0330999999912356
 30
0.0
 11
25.80009199592872
 21
0.5252820657046957
 31
0.0
  0
LINE
  5
E521
330
E4EF
100
AcDbEntity
  8
0
  6
CONTINUOUS
100
AcDbLine
 10
23.9569740616358
 20
2.36839999999762
 30
0.0
 11
21.63688370661101
 21
4.688490355022409
 31
0.0
  0
LINE
  5
E522
330
E4EF
100
AcDbEntity
  8
0
  6
CONTINUOUS
100
AcDbLine
 10
26.96579327072237
 20
0.0330999999912356
 30
0.0
 11
25.2554132311971
 21
1.743480039516508
 31
0.0
  0
LINE
  5
E523
330
E4EF
100
AcDbEntity
  8
0
  6
CONTINUOUS
100
AcDbLine
 10
24.63049327071599
 20
2.36839999999762
 30
0.0
 11
23.32789327071731
 21
3.670999999996297
 31
0.0
  0
LINE
  5
E524
330
E4EF
100
AcDbEntity
  8
0
  6
CONTINUOUS
100
AcDbLine
 10
22.92098674744635
 20
4.077906523267254
 30
0.0
 11
21.84508681208164
 21
5.153806458631966
 31
0.0
  0
LINE
  5
E525
330
E4EF
100
AcDbEntity
  8
0
  6
CONTINUOUS
100
AcDbLine
 10
27.63931247980256
 20
0.0330999999912356
 30
0.0
 11
24.0014124797975
 21
3.670999999996297
 31
0.0
  0
LINE
  5
E526
330
E4EF
100
AcDbEntity
  8
0
  6
CONTINUOUS
100
AcDbLine
 10
23.129125600968
 20
4.5432868788258
 30
0.0
 11
22.05328991755227
 21
5.619122562241522
 31
0.0
  0
LINE
  5
E527
330
E4EF
100
AcDbEntity
  8
0
  6
CONTINUOUS
100
AcDbLine
 10
28.31283168888275
 20
0.0330999999912356
 30
0.0
 11
24.16488385994816
 21
4.181047828925828
 31
0.0
  0
LINE
  5
E528
330
E4EF
100
AcDbEntity
  8
0
  6
CONTINUOUS
100
AcDbLine
 10
23.33726445448964
 20
5.008667234384345
 30
0.0
 11
22.2614930230229
 21
6.084438665851079
 31
0.0
  0
LINE
  5
E529
330
E4EF
100
AcDbEntity
  8
0
  6
CONTINUOUS
100
AcDbLine
 10
28.92085740005492
 20
0.0985934978992438
 30
0.0
 11
27.63635089796295
 21
1.383099999991217
 31
0.0
  0
LINE
  5
E52A
330
E4EF
100
AcDbEntity
  8
0
  6
CONTINUOUS
100
AcDbLine
 10
26.43704649509776
 20
2.582404402856405
 30
0.0
 11
23.61992702019732
 21
5.399523877756844
 31
0.0
  0
LINE
  5
E52B
330
E4EF
100
AcDbEntity
  8
0
  6
CONTINUOUS
100
AcDbLine
 10
23.54540330801128
 20
5.47404758994289
 30
0.0
 11
22.46969612849353
 21
6.549754769460635
 31
0.0
  0
LINE
  5
E52C
330
E4EF
100
AcDbEntity
  8
0
  6
CONTINUOUS
100
AcDbLine
 10
29.42225615078443
 20
0.2707139562499279
 30
0.0
 11
28.30987010704312
 21
1.383099999991234
 31
0.0
  0
LINE
  5
E52D
330
E4EF
100
AcDbEntity
  8
0
  6
CONTINUOUS
100
AcDbLine
 10
25.89179548232307
 20
3.801174624711282
 30
0.0
 11
22.67789923396416
 21
7.015070873070191
 31
0.0
  0
LINE
  5
E52E
330
E4EF
100
AcDbEntity
  8
0
  6
CONTINUOUS
100
AcDbLine
 10
29.83624534690007
 20
0.5302439692144705
 30
0.0
 11
28.85811781497101
 21
1.508371501143527
 31
0.0
  0
LINE
  5
E52F
330
E4EF
100
AcDbEntity
  8
0
  6
CONTINUOUS
100
AcDbLine
 10
25.34654446954838
 20
5.01994484656616
 30
0.0
 11
22.88610233943479
 21
7.480386976679748
 31
0.0
  0
LINE
  5
E530
330
E4EF
100
AcDbEntity
  8
0
  6
CONTINUOUS
100
AcDbLine
 10
30.17865975401872
 20
0.8613487711760022
 30
0.0
 11
29.18888744090175
 21
1.851121084292977
 31
0.0
  0
LINE
  5
E531
330
E4EF
100
AcDbEntity
  8
0
  6
CONTINUOUS
100
AcDbLine
 10
24.80129345677369
 20
6.238715068421037
 30
0.0
 11
23.09430544490542
 21
7.945703080289305
 31
0.0
  0
LINE
  5
E532
330
E4EF
100
AcDbEntity
  8
0
  6
CONTINUOUS
100
AcDbLine
 10
30.45496647202376
 20
1.258561262251155
 30
0.0
 11
29.30199999996933
 21
2.411527734305588
 31
0.0
  0
LINE
  5
E533
330
E4EF
100
AcDbEntity
  8
0
  6
CONTINUOUS
100
AcDbLine
 10
24.256042443999
 20
7.457485290275915
 30
0.0
 11
23.30250855037605
 21
8.411019183898862
 31
0.0
  0
LINE
  5
E534
330
E4EF
100
AcDbEntity
  8
0
  6
CONTINUOUS
100
AcDbLine
 10
30.64868582078271
 20
1.738361122572387
 30
0.0
 11
29.30199999996933
 21
3.085046943385775
 31
0.0
  0
LINE
  5
E535
330
E4EF
100
AcDbEntity
  8
0
  6
CONTINUOUS
100
AcDbLine
 10
23.71079143122431
 20
8.676255512130794
 30
0.0
 11
23.51071165584668
 21
8.876335287508416
 31
0.0
  0
LINE
  5
E536
330
E4EF
100
AcDbEntity
  8
0
  6
CONTINUOUS
100
AcDbLine
 10
30.73802122914428
 20
2.322544923291007
 30
0.0
 11
29.30199999996933
 21
3.758566152465961
 31
0.0
  0
LINE
  5
E537
330
E4EF
100
AcDbEntity
  8
0
  6
CONTINUOUS
100
AcDbLine
 10
30.74199999996924
 20
2.992085361546236
 30
0.0
 11
29.30199999996933
 21
4.432085361546148
 31
0.0
  0
LINE
  5
E538
330
E4EF
100
AcDbEntity
  8
0
  6
CONTINUOUS
100
AcDbLine
 10
30.74199999996924
 20
3.665604570626419
 30
0.0
 11
29.30199999996933
 21
5.105604570626333
 31
0.0
  0
LINE
  5
E539
330
E4EF
100
AcDbEntity
  8
0
  6
CONTINUOUS
100
AcDbLine
 10
30.74199999996925
 20
4.339123779706602
 30
0.0
 11
29.30199999996933
 21
5.77912377970652
 31
0.0
  0
LINE
  5
E53A
330
E4EF
100
AcDbEntity
  8
0
  6
CONTINUOUS
100
AcDbLine
 10
30.74199999996925
 20
5.012642988786785
 30
0.0
 11
29.30199999996933
 21
6.452642988786707
 31
0.0
  0
LINE
  5
E53B
330
E4EF
100
AcDbEntity
  8
0
  6
CONTINUOUS
100
AcDbLine
 10
30.74199999996925
 20
5.68616219786697
 30
0.0
 11
29.30199999996933
 21
7.126162197866894
 31
0.0
  0
LINE
  5
E53C
330
E4EF
100
AcDbEntity
  8
0
  6
CONTINUOUS
100
AcDbLine
 10
30.74199999996925
 20
6.359681406947153
 30
0.0
 11
29.30199999996933
 21
7.799681406947081
 31
0.0
  0
LINE
  5
E53D
330
E4EF
100
AcDbEntity
  8
0
  6
CONTINUOUS
100
AcDbLine
 10
30.74199999996926
 20
7.033200616027337
 30
0.0
 11
29.30199999996933
 21
8.473200616027269
 31
0.0
  0
LINE
  5
E53E
330
E4EF
100
AcDbEntity
  8
0
  6
CONTINUOUS
100
AcDbLine
 10
30.74199999996926
 20
7.706719825107518
 30
0.0
 11
29.68561982508552
 21
8.763099999991255
 31
0.0
  0
LINE
  5
E53F
330
E4EF
100
AcDbEntity
  8
0
  6
CONTINUOUS
100
AcDbLine
 10
30.74199999996926
 20
8.380239034187703
 30
0.0
 11
30.35913903416571
 21
8.763099999991255
 31
0.0
  0
ENDBLK
  5
E5E2
330
E4EF
100
AcDbEntity
  8
0
100
AcDbBlockEnd
  0
BLOCK
  5
E5E3
330
E540
100
AcDbEntity
  8
0
100
AcDbBlockBegin
  2
*X32
 70
     1
 10
0.0
 20
0.0
 30
0.0
  3
*X32
  1

  0
LINE
  5
E541
330
E540
100
AcDbEntity
  8
0
  6
CONTINUOUS
100
AcDbLine
 10
31.64199999996833
 20
8.535058289913598
 30
0.0
 11
31.87004171004599
 21
8.763099999991255
 31
0.0
  0
LINE
  5
E542
330
E540
100
AcDbEntity
  8
0
  6
CONTINUOUS
100
AcDbLine
 10
31.64199999996833
 20
7.861539080833412
 30
0.0
 11
32.54356091912618
 21
8.763099999991255
 31
0.0
  0
LINE
  5
E543
330
E540
100
AcDbEntity
  8
0
  6
CONTINUOUS
100
AcDbLine
 10
31.64199999996833
 20
7.188019871753226
 30
0.0
 11
33.08199999996839
 21
8.628019871753281
 31
0.0
  0
LINE
  5
E544
330
E540
100
AcDbEntity
  8
0
  6
CONTINUOUS
100
AcDbLine
 10
31.64199999996833
 20
6.51450066267304
 30
0.0
 11
33.08199999996839
 21
7.954500662673095
 31
0.0
  0
LINE
  5
E545
330
E540
100
AcDbEntity
  8
0
  6
CONTINUOUS
100
AcDbLine
 10
31.64199999996833
 20
5.840981453592853
 30
0.0
 11
33.08199999996839
 21
7.280981453592908
 31
0.0
  0
LINE
  5
E546
330
E540
100
AcDbEntity
  8
0
  6
CONTINUOUS
100
AcDbLine
 10
31.64199999996833
 20
5.167462244512667
 30
0.0
 11
33.08199999996839
 21
6.607462244512721
 31
0.0
  0
LINE
  5
E547
330
E540
100
AcDbEntity
  8
0
  6
CONTINUOUS
100
AcDbLine
 10
31.64199999996833
 20
4.493943035432481
 30
0.0
 11
33.08199999996839
 21
5.933943035432535
 31
0.0
  0
LINE
  5
E548
330
E540
100
AcDbEntity
  8
0
  6
CONTINUOUS
100
AcDbLine
 10
31.64199999996833
 20
3.820423826352293
 30
0.0
 11
33.08199999996839
 21
5.260423826352348
 31
0.0
  0
LINE
  5
E549
330
E540
100
AcDbEntity
  8
0
  6
CONTINUOUS
100
AcDbLine
 10
31.64199999996833
 20
3.146904617272106
 30
0.0
 11
33.08199999996839
 21
4.586904617272161
 31
0.0
  0
LINE
  5
E54A
330
E540
100
AcDbEntity
  8
0
  6
CONTINUOUS
100
AcDbLine
 10
36.23199999996837
 20
8.410423826352325
 30
0.0
 11
36.5846761736073
 21
8.763099999991255
 31
0.0
  0
LINE
  5
E54B
330
E540
100
AcDbEntity
  8
0
  6
CONTINUOUS
100
AcDbLine
 10
36.23199999996837
 20
7.73690461727214
 30
0.0
 11
37.25819538268748
 21
8.763099999991255
 31
0.0
  0
LINE
  5
E54C
330
E540
100
AcDbEntity
  8
0
  6
CONTINUOUS
100
AcDbLine
 10
31.64257403601376
 20
2.473959444237348
 30
0.0
 11
33.08199999996839
 21
3.913385408191974
 31
0.0
  0
LINE
  5
E54D
330
E540
100
AcDbEntity
  8
0
  6
CONTINUOUS
100
AcDbLine
 10
36.23199999996837
 20
7.063385408191953
 30
0.0
 11
37.67199999996831
 21
8.503385408191894
 31
0.0
  0
LINE
  5
E54E
330
E540
100
AcDbEntity
  8
0
  6
CONTINUOUS
100
AcDbLine
 10
31.72013636841932
 20
1.87800256756272
 30
0.0
 11
33.08199999996839
 21
3.239866199111788
 31
0.0
  0
LINE
  5
E54F
330
E540
100
AcDbEntity
  8
0
  6
CONTINUOUS
100
AcDbLine
 10
36.23199999996837
 20
6.389866199111767
 30
0.0
 11
37.67199999996831
 21
7.829866199111708
 31
0.0
  0
LINE
  5
E550
330
E540
100
AcDbEntity
  8
0
  6
CONTINUOUS
100
AcDbLine
 10
31.89042734314753
 20
1.374774333210744
 30
0.0
 11
33.08199999996839
 21
2.566346990031601
 31
0.0
  0
LINE
  5
E551
330
E540
100
AcDbEntity
  8
0
  6
CONTINUOUS
100
AcDbLine
 10
36.23199999996837
 20
5.71634699003158
 30
0.0
 11
37.67199999996831
 21
7.156346990031521
 31
0.0
  0
LINE
  5
E552
330
E540
100
AcDbEntity
  8
0
  6
CONTINUOUS
100
AcDbLine
 10
32.14210568064475
 20
0.952933461627778
 30
0.0
 11
33.18745552475986
 21
1.998283305742888
 31
0.0
  0
LINE
  5
E553
330
E540
100
AcDbEntity
  8
0
  6
CONTINUOUS
100
AcDbLine
 10
36.23199999996837
 20
5.042827780951393
 30
0.0
 11
37.67199999996831
 21
6.482827780951334
 31
0.0
  0
LINE
  5
E554
330
E540
100
AcDbEntity
  8
0
  6
CONTINUOUS
100
AcDbLine
 10
32.45820639400955
 20
0.5955149659123915
 30
0.0
 11
33.47242681921943
 21
1.60973539112227
 31
0.0
  0
LINE
  5
E555
330
E540
100
AcDbEntity
  8
0
  6
CONTINUOUS
100
AcDbLine
 10
36.23199999996837
 20
4.369308571871207
 30
0.0
 11
37.67199999996831
 21
5.809308571871147
 31
0.0
  0
LINE
  5
E556
330
E540
100
AcDbEntity
  8
0
  6
CONTINUOUS
100
AcDbLine
 10
32.83432456621412
 20
0.2981139290367771
 30
0.0
 11
33.89722476612215
 21
1.361014128944803
 31
0.0
  0
LINE
  5
E557
330
E540
100
AcDbEntity
  8
0
  6
CONTINUOUS
100
AcDbLine
 10
36.23199999996837
 20
3.69578936279102
 30
0.0
 11
37.67199999996831
 21
5.135789362790962
 31
0.0
  0
LINE
  5
E558
330
E540
100
AcDbEntity
  8
0
  6
CONTINUOUS
100
AcDbLine
 10
33.2711633111245
 20
0.0614334648669672
 30
0.0
 11
34.43247338014423
 21
1.222743533886696
 31
0.0
  0
LINE
  5
E559
330
E540
100
AcDbEntity
  8
0
  6
CONTINUOUS
100
AcDbLine
 10
36.23199999996837
 20
3.022270153710834
 30
0.0
 11
37.67199999996831
 21
4.462270153710775
 31
0.0
  0
LINE
  5
E55A
330
E540
100
AcDbEntity
  8
0
  6
CONTINUOUS
100
AcDbLine
 10
33.76515245874577
 20
-0.1180965965919523
 30
0.0
 11
35.1587445516215
 21
1.27549549628378
 31
0.0
  0
LINE
  5
E55B
330
E540
100
AcDbEntity
  8
0
  6
CONTINUOUS
100
AcDbLine
 10
36.21639478609585
 20
2.333145730758136
 30
0.0
 11
37.67199999996831
 21
3.788750944630588
 31
0.0
  0
LINE
  5
E55C
330
E540
100
AcDbEntity
  8
0
  6
CONTINUOUS
100
AcDbLine
 10
34.34060583368432
 20
-0.2161624307335863
 30
0.0
 11
37.67199999996831
 21
3.115231735550401
 31
0.0
  0
LINE
  5
E55D
330
E540
100
AcDbEntity
  8
0
  6
CONTINUOUS
100
AcDbLine
 10
35.01698193613905
 20
-0.2133055373590427
 30
0.0
 11
37.66876712070525
 21
2.438479647207154
 31
0.0
  0
LINE
  5
E55E
330
E540
100
AcDbEntity
  8
0
  6
CONTINUOUS
100
AcDbLine
 10
35.90743367693304
 20
0.0036269943547609
 30
0.0
 11
37.51723902192366
 21
1.613432339345381
 31
0.0
  0
LINE
  5
E55F
330
E540
100
AcDbEntity
  8
0
  6
CONTINUOUS
100
AcDbLine
 10
32.55309425579761
 20
0.5074718966376706
 30
0.0
 11
32.27784730925847
 21
0.7827188431768102
 31
0.0
  0
LINE
  5
E560
330
E540
100
AcDbEntity
  8
0
  6
CONTINUOUS
100
AcDbLine
 10
33.87496468909684
 20
-0.1408793275813673
 30
0.0
 11
31.67993083278052
 21
2.054154528734943
 31
0.0
  0
LINE
  5
E561
330
E540
100
AcDbEntity
  8
0
  6
CONTINUOUS
100
AcDbLine
 10
34.64362813207632
 20
-0.2360235614806649
 30
0.0
 11
31.64199999996833
 21
2.765604570627322
 31
0.0
  0
LINE
  5
E562
330
E540
100
AcDbEntity
  8
0
  6
CONTINUOUS
100
AcDbLine
 10
35.25801106796118
 20
-0.1768872882853429
 30
0.0
 11
31.64199999996833
 21
3.439123779707508
 31
0.0
  0
LINE
  5
E563
330
E540
100
AcDbEntity
  8
0
  6
CONTINUOUS
100
AcDbLine
 10
35.79065650332146
 20
-0.0360135145654361
 30
0.0
 11
34.54143210838231
 21
1.213210880373721
 31
0.0
  0
LINE
  5
E564
330
E540
100
AcDbEntity
  8
0
  6
CONTINUOUS
100
AcDbLine
 10
33.08199999996839
 20
2.67264298878764
 30
0.0
 11
31.64199999996833
 21
4.112642988787695
 31
0.0
  0
LINE
  5
E565
330
E540
100
AcDbEntity
  8
0
  6
CONTINUOUS
100
AcDbLine
 10
36.25975597779143
 20
0.1684062200447833
 30
0.0
 11
35.15395110240023
 21
1.274211095435983
 31
0.0
  0
LINE
  5
E566
330
E540
100
AcDbEntity
  8
0
  6
CONTINUOUS
100
AcDbLine
 10
33.08199999996839
 20
3.346162197867826
 30
0.0
 11
31.64199999996833
 21
4.786162197867881
 31
0.0
  0
LINE
  5
E567
330
E540
100
AcDbEntity
  8
0
  6
CONTINUOUS
100
AcDbLine
 10
36.67226329638774
 20
0.4294181105286579
 30
0.0
 11
35.63766478748767
 21
1.464016619428737
 31
0.0
  0
LINE
  5
E568
330
E540
100
AcDbEntity
  8
0
  6
CONTINUOUS
100
AcDbLine
 10
33.08199999996839
 20
4.019681406948012
 30
0.0
 11
31.64199999996833
 21
5.459681406948068
 31
0.0
  0
LINE
  5
E569
330
E540
100
AcDbEntity
  8
0
  6
CONTINUOUS
100
AcDbLine
 10
37.01677749710036
 20
0.7584231188962329
 30
0.0
 11
35.99563422741351
 21
1.779566388583076
 31
0.0
  0
LINE
  5
E56A
330
E540
100
AcDbEntity
  8
0
  6
CONTINUOUS
100
AcDbLine
 10
33.08199999996839
 20
4.693200616028199
 30
0.0
 11
31.64199999996833
 21
6.133200616028255
 31
0.0
  0
LINE
  5
E56B
330
E540
100
AcDbEntity
  8
0
  6
CONTINUOUS
100
AcDbLine
 10
37.29859977568887
 20
1.1501200493879
 30
0.0
 11
36.20680593341555
 21
2.241913891661226
 31
0.0
  0
LINE
  5
E56C
330
E540
100
AcDbEntity
  8
0
  6
CONTINUOUS
100
AcDbLine
 10
33.08199999996839
 20
5.366719825108386
 30
0.0
 11
31.64199999996833
 21
6.80671982510844
 31
0.0
  0
LINE
  5
E56D
330
E540
100
AcDbEntity
  8
0
  6
CONTINUOUS
100
AcDbLine
 10
37.5148623517228
 20
1.607376682434161
 30
0.0
 11
36.23199999996837
 21
2.890239034188594
 31
0.0
  0
LINE
  5
E56E
330
E540
100
AcDbEntity
  8
0
  6
CONTINUOUS
100
AcDbLine
 10
33.08199999996839
 20
6.040239034188573
 30
0.0
 11
31.64199999996833
 21
7.480239034188627
 31
0.0
  0
LINE
  5
E56F
330
E540
100
AcDbEntity
  8
0
  6
CONTINUOUS
100
AcDbLine
 10
37.64705163358367
 20
2.148706609653477
 30
0.0
 11
36.23199999996837
 21
3.56375824326878
 31
0.0
  0
LINE
  5
E570
330
E540
100
AcDbEntity
  8
0
  6
CONTINUOUS
100
AcDbLine
 10
33.08199999996839
 20
6.713758243268758
 30
0.0
 11
31.64199999996833
 21
8.153758243268815
 31
0.0
  0
LINE
  5
E571
330
E540
100
AcDbEntity
  8
0
  6
CONTINUOUS
100
AcDbLine
 10
37.67199999996831
 20
2.797277452349026
 30
0.0
 11
36.23199999996837
 21
4.237277452348967
 31
0.0
  0
LINE
  5
E572
330
E540
100
AcDbEntity
  8
0
  6
CONTINUOUS
100
AcDbLine
 10
37.67199999996831
 20
3.470796661429213
 30
0.0
 11
36.23199999996837
 21
4.910796661429154
 31
0.0
  0
LINE
  5
E573
330
E540
100
AcDbEntity
  8
0
  6
CONTINUOUS
100
AcDbLine
 10
37.67199999996831
 20
4.144315870509399
 30
0.0
 11
36.23199999996837
 21
5.58431587050934
 31
0.0
  0
LINE
  5
E574
330
E540
100
AcDbEntity
  8
0
  6
CONTINUOUS
100
AcDbLine
 10
33.08199999996839
 20
7.387277452348945
 30
0.0
 11
31.70617745232608
 21
8.763099999991255
 31
0.0
  0
LINE
  5
E575
330
E540
100
AcDbEntity
  8
0
  6
CONTINUOUS
100
AcDbLine
 10
33.08199999996839
 20
8.060796661429132
 30
0.0
 11
32.37969666140626
 21
8.763099999991255
 31
0.0
  0
LINE
  5
E576
330
E540
100
AcDbEntity
  8
0
  6
CONTINUOUS
100
AcDbLine
 10
33.08199999996839
 20
8.734315870509318
 30
0.0
 11
33.05321587048645
 21
8.763099999991255
 31
0.0
  0
LINE
  5
E577
330
E540
100
AcDbEntity
  8
0
  6
CONTINUOUS
100
AcDbLine
 10
37.67199999996831
 20
4.817835079589585
 30
0.0
 11
36.23199999996837
 21
6.257835079589526
 31
0.0
  0
LINE
  5
E578
330
E540
100
AcDbEntity
  8
0
  6
CONTINUOUS
100
AcDbLine
 10
37.67199999996831
 20
5.491354288669771
 30
0.0
 11
36.23199999996837
 21
6.931354288669713
 31
0.0
  0
LINE
  5
E579
330
E540
100
AcDbEntity
  8
0
  6
CONTINUOUS
100
AcDbLine
 10
37.67199999996831
 20
6.164873497749958
 30
0.0
 11
36.23199999996837
 21
7.6048734977499
 31
0.0
  0
LINE
  5
E57A
330
E540
100
AcDbEntity
  8
0
  6
CONTINUOUS
100
AcDbLine
 10
37.67199999996831
 20
6.838392706830144
 30
0.0
 11
36.23199999996837
 21
8.278392706830086
 31
0.0
  0
LINE
  5
E57B
330
E540
100
AcDbEntity
  8
0
  6
CONTINUOUS
100
AcDbLine
 10
37.67199999996831
 20
7.511911915910332
 30
0.0
 11
36.42081191588738
 21
8.763099999991255
 31
0.0
  0
LINE
  5
E57C
330
E540
100
AcDbEntity
  8
0
  6
CONTINUOUS
100
AcDbLine
 10
37.67199999996831
 20
8.185431124990519
 30
0.0
 11
37.09433112496757
 21
8.763099999991255
 31
0.0
  0
ENDBLK
  5
E5E4
330
E540
100
AcDbEntity
  8
0
100
AcDbBlockEnd
  0
BLOCK
  5
E5E5
330
E57D
100
AcDbEntity
  8
0
100
AcDbBlockBegin
  2
*X33
 70
     1
 10
0.0
 20
0.0
 30
0.0
  3
*X33
  1

  0
LINE
  5
E57E
330
E57D
100
AcDbEntity
  8
0
  6
CONTINUOUS
100
AcDbLine
 10
38.60499999996136
 20
8.762866199104765
 30
0.0
 11
38.71672554182345
 21
8.874591740966855
 31
0.0
  0
LINE
  5
E57F
330
E57D
100
AcDbEntity
  8
0
  6
CONTINUOUS
100
AcDbLine
 10
38.60499999996136
 20
8.089346990024577
 30
0.0
 11
39.03418785440363
 21
8.518534844466847
 31
0.0
  0
LINE
  5
E580
330
E57D
100
AcDbEntity
  8
0
  6
CONTINUOUS
100
AcDbLine
 10
38.60499999996136
 20
7.41582778094439
 30
0.0
 11
39.35165016698382
 21
8.16247794796684
 31
0.0
  0
LINE
  5
E581
330
E57D
100
AcDbEntity
  8
0
  6
CONTINUOUS
100
AcDbLine
 10
38.60499999996136
 20
6.742308571864204
 30
0.0
 11
39.66911247956399
 21
7.806421051466834
 31
0.0
  0
LINE
  5
E582
330
E57D
100
AcDbEntity
  8
0
  6
CONTINUOUS
100
AcDbLine
 10
38.60499999996136
 20
6.068789362784018
 30
0.0
 11
39.98657479214418
 21
7.450364154966827
 31
0.0
  0
LINE
  5
E583
330
E57D
100
AcDbEntity
  8
0
  6
CONTINUOUS
100
AcDbLine
 10
38.60499999996136
 20
5.395270153703832
 30
0.0
 11
40.30403710472435
 21
7.09430725846682
 31
0.0
  0
LINE
  5
E584
330
E57D
100
AcDbEntity
  8
0
  6
CONTINUOUS
100
AcDbLine
 10
38.60499999996136
 20
4.721750944623645
 30
0.0
 11
40.62149941730453
 21
6.738250361966813
 31
0.0
  0
LINE
  5
E585
330
E57D
100
AcDbEntity
  8
0
  6
CONTINUOUS
100
AcDbLine
 10
38.60499999996136
 20
4.048231735543458
 30
0.0
 11
40.93896172988471
 21
6.382193465466806
 31
0.0
  0
LINE
  5
E586
330
E57D
100
AcDbEntity
  8
0
  6
CONTINUOUS
100
AcDbLine
 10
38.60499999996136
 20
3.374712526463272
 30
0.0
 11
40.02599999995994
 21
4.795712526461843
 31
0.0
  0
LINE
  5
E587
330
E57D
100
AcDbEntity
  8
0
  6
CONTINUOUS
100
AcDbLine
 10
38.60499999996136
 20
2.701193317383085
 30
0.0
 11
40.02599999995994
 21
4.122193317381657
 31
0.0
  0
LINE
  5
E588
330
E57D
100
AcDbEntity
  8
0
  6
CONTINUOUS
100
AcDbLine
 10
40.28339754687704
 20
5.053110073378947
 30
0.0
 11
41.25642404246489
 21
6.026136568966799
 31
0.0
  0
LINE
  5
E589
330
E57D
100
AcDbEntity
  8
0
  6
CONTINUOUS
100
AcDbLine
 10
40.60085985945722
 20
4.697053176878939
 30
0.0
 11
41.57388635504507
 21
5.670079672466793
 31
0.0
  0
LINE
  5
E58A
330
E57D
100
AcDbEntity
  8
0
  6
CONTINUOUS
100
AcDbLine
 10
43.57899999995641
 20
8.348712526458318
 30
0.0
 11
43.99338747348935
 21
8.763099999991255
 31
0.0
  0
LINE
  5
E58B
330
E57D
100
AcDbEntity
  8
0
  6
CONTINUOUS
100
AcDbLine
 10
43.57899999995641
 20
7.675193317378131
 30
0.0
 11
44.66690668256953
 21
8.763099999991255
 31
0.0
  0
LINE
  5
E58C
330
E57D
100
AcDbEntity
  8
0
  6
CONTINUOUS
100
AcDbLine
 10
38.60499999996136
 20
2.027674108302898
 30
0.0
 11
40.02599999995994
 21
3.44867410830147
 31
0.0
  0
LINE
  5
E58D
330
E57D
100
AcDbEntity
  8
0
  6
CONTINUOUS
100
AcDbLine
 10
38.60499999996136
 20
1.354154899222712
 30
0.0
 11
40.02599999995994
 21
2.775154899221284
 31
0.0
  0
LINE
  5
E58E
330
E57D
100
AcDbEntity
  8
0
  6
CONTINUOUS
100
AcDbLine
 10
38.60499999996136
 20
0.6806356901425255
 30
0.0
 11
40.02599999995994
 21
2.101635690141098
 31
0.0
  0
LINE
  5
E58F
330
E57D
100
AcDbEntity
  8
0
  6
CONTINUOUS
100
AcDbLine
 10
38.60499999996136
 20
0.0071164810623383
 30
0.0
 11
40.02599999995994
 21
1.428116481060911
 31
0.0
  0
LINE
  5
E590
330
E57D
100
AcDbEntity
  8
0
  6
CONTINUOUS
100
AcDbLine
 10
40.9183221720374
 20
4.340996280378933
 30
0.0
 11
41.89134866762525
 21
5.314022775966786
 31
0.0
  0
LINE
  5
E591
330
E57D
100
AcDbEntity
  8
0
  6
CONTINUOUS
100
AcDbLine
 10
41.23578448461758
 20
3.984939383878926
 30
0.0
 11
42.20881098020543
 21
4.957965879466778
 31
0.0
  0
LINE
  5
E592
330
E57D
100
AcDbEntity
  8
0
  6
CONTINUOUS
100
AcDbLine
 10
41.55324679719776
 20
3.628882487378919
 30
0.0
 11
42.52627329278561
 21
4.601908982966772
 31
0.0
  0
LINE
  5
E593
330
E57D
100
AcDbEntity
  8
0
  6
CONTINUOUS
100
AcDbLine
 10
41.87070910977793
 20
3.272825590878912
 30
0.0
 11
42.84373560536579
 21
4.245852086466765
 31
0.0
  0
LINE
  5
E594
330
E57D
100
AcDbEntity
  8
0
  6
CONTINUOUS
100
AcDbLine
 10
43.57899999995641
 20
7.001674108297943
 30
0.0
 11
44.99999999995498
 21
8.422674108296516
 31
0.0
  0
LINE
  5
E595
330
E57D
100
AcDbEntity
  8
0
  6
CONTINUOUS
100
AcDbLine
 10
43.57899999995641
 20
6.328154899217758
 30
0.0
 11
44.99999999995498
 21
7.749154899216329
 31
0.0
  0
LINE
  5
E596
330
E57D
100
AcDbEntity
  8
0
  6
CONTINUOUS
100
AcDbLine
 10
43.57899999995641
 20
5.654635690137571
 30
0.0
 11
44.99999999995498
 21
7.075635690136142
 31
0.0
  0
LINE
  5
E597
330
E57D
100
AcDbEntity
  8
0
  6
CONTINUOUS
100
AcDbLine
 10
43.57899999995641
 20
4.981116481057384
 30
0.0
 11
44.99999999995498
 21
6.402116481055955
 31
0.0
  0
LINE
  5
E598
330
E57D
100
AcDbEntity
  8
0
  6
CONTINUOUS
100
AcDbLine
 10
39.27140272797921
 20
-0.0000000000000009
 30
0.0
 11
40.02599999995994
 21
0.7545972719807246
 31
0.0
  0
LINE
  5
E599
330
E57D
100
AcDbEntity
  8
0
  6
CONTINUOUS
100
AcDbLine
 10
39.9449219370594
 20
-0.0000000000000009
 30
0.0
 11
40.02599999995994
 21
0.0810780629005379
 31
0.0
  0
LINE
  5
E59A
330
E57D
100
AcDbEntity
  8
0
  6
CONTINUOUS
100
AcDbLine
 10
42.18817142235812
 20
2.916768694378905
 30
0.0
 11
43.16119791794597
 21
3.889795189966758
 31
0.0
  0
LINE
  5
E59B
330
E57D
100
AcDbEntity
  8
0
  6
CONTINUOUS
100
AcDbLine
 10
42.50563373493829
 20
2.560711797878898
 30
0.0
 11
43.47866023052615
 21
3.533738293466751
 31
0.0
  0
LINE
  5
E59C
330
E57D
100
AcDbEntity
  8
0
  6
CONTINUOUS
100
AcDbLine
 10
43.57899999995641
 20
4.307597271977198
 30
0.0
 11
44.99999999995498
 21
5.728597271975769
 31
0.0
  0
LINE
  5
E59D
330
E57D
100
AcDbEntity
  8
0
  6
CONTINUOUS
100
AcDbLine
 10
43.57899999995641
 20
3.634078062897011
 30
0.0
 11
44.99999999995498
 21
5.055078062895582
 31
0.0
  0
LINE
  5
E59E
330
E57D
100
AcDbEntity
  8
0
  6
CONTINUOUS
100
AcDbLine
 10
42.82309604751848
 20
2.204654901378891
 30
0.0
 11
44.99999999995498
 21
4.381558853815395
 31
0.0
  0
LINE
  5
E59F
330
E57D
100
AcDbEntity
  8
0
  6
CONTINUOUS
100
AcDbLine
 10
43.14055836009865
 20
1.848598004878885
 30
0.0
 11
44.99999999995498
 21
3.70803964473521
 31
0.0
  0
LINE
  5
E5A0
330
E57D
100
AcDbEntity
  8
0
  6
CONTINUOUS
100
AcDbLine
 10
43.45802067267883
 20
1.492541108378878
 30
0.0
 11
44.99999999995498
 21
3.034520435655023
 31
0.0
  0
LINE
  5
E5A1
330
E57D
100
AcDbEntity
  8
0
  6
CONTINUOUS
100
AcDbLine
 10
43.77548298525902
 20
1.136484211878871
 30
0.0
 11
44.99999999995498
 21
2.361001226574837
 31
0.0
  0
LINE
  5
E5A2
330
E57D
100
AcDbEntity
  8
0
  6
CONTINUOUS
100
AcDbLine
 10
44.09294529783919
 20
0.7804273153788639
 30
0.0
 11
44.99999999995498
 21
1.687482017494649
 31
0.0
  0
LINE
  5
E5A3
330
E57D
100
AcDbEntity
  8
0
  6
CONTINUOUS
100
AcDbLine
 10
44.41040761041938
 20
0.4243704188788566
 30
0.0
 11
44.99999999995498
 21
1.013962808414463
 31
0.0
  0
LINE
  5
E5A4
330
E57D
100
AcDbEntity
  8
0
  6
CONTINUOUS
100
AcDbLine
 10
44.72786992299955
 20
0.0683135223788494
 30
0.0
 11
44.99999999995498
 21
0.340443599334276
 31
0.0
  0
LINE
  5
E5A5
330
E57D
100
AcDbEntity
  8
0
  6
CONTINUOUS
100
AcDbLine
 10
39.12223903415696
 20
-0.0000000000000009
 30
0.0
 11
38.60499999996136
 21
0.5172390341955961
 31
0.0
  0
LINE
  5
E5A6
330
E57D
100
AcDbEntity
  8
0
  6
CONTINUOUS
100
AcDbLine
 10
39.79575824323715
 20
-0.0000000000000009
 30
0.0
 11
38.60499999996136
 21
1.190758243275783
 31
0.0
  0
LINE
  5
E5A7
330
E57D
100
AcDbEntity
  8
0
  6
CONTINUOUS
100
AcDbLine
 10
40.02599999995994
 20
0.443277452357397
 30
0.0
 11
38.60499999996136
 21
1.864277452355969
 31
0.0
  0
LINE
  5
E5A8
330
E57D
100
AcDbEntity
  8
0
  6
CONTINUOUS
100
AcDbLine
 10
40.02599999995994
 20
1.116796661437583
 30
0.0
 11
38.60499999996136
 21
2.537796661436155
 31
0.0
  0
LINE
  5
E5A9
330
E57D
100
AcDbEntity
  8
0
  6
CONTINUOUS
100
AcDbLine
 10
40.02599999995994
 20
1.79031587051777
 30
0.0
 11
38.60499999996136
 21
3.211315870516341
 31
0.0
  0
LINE
  5
E5AA
330
E57D
100
AcDbEntity
  8
0
  6
CONTINUOUS
100
AcDbLine
 10
40.02599999995994
 20
2.463835079597956
 30
0.0
 11
38.60499999996136
 21
3.884835079596527
 31
0.0
  0
LINE
  5
E5AB
330
E57D
100
AcDbEntity
  8
0
  6
CONTINUOUS
100
AcDbLine
 10
40.02599999995994
 20
3.137354288678143
 30
0.0
 11
38.60499999996136
 21
4.558354288676714
 31
0.0
  0
LINE
  5
E5AC
330
E57D
100
AcDbEntity
  8
0
  6
CONTINUOUS
100
AcDbLine
 10
40.02599999995994
 20
3.810873497758329
 30
0.0
 11
38.60499999996136
 21
5.2318734977569
 31
0.0
  0
LINE
  5
E5AD
330
E57D
100
AcDbEntity
  8
0
  6
CONTINUOUS
100
AcDbLine
 10
40.02599999995994
 20
4.484392706838515
 30
0.0
 11
38.60499999996136
 21
5.905392706837086
 31
0.0
  0
LINE
  5
E5AE
330
E57D
100
AcDbEntity
  8
0
  6
CONTINUOUS
100
AcDbLine
 10
44.99999999995498
 20
0.183911915923658
 30
0.0
 11
41.53858364506288
 21
3.64532827081576
 31
0.0
  0
LINE
  5
E5AF
330
E57D
100
AcDbEntity
  8
0
  6
CONTINUOUS
100
AcDbLine
 10
40.02599999995994
 20
5.157911915918703
 30
0.0
 11
38.60499999996136
 21
6.578911915917274
 31
0.0
  0
LINE
  5
E5B0
330
E57D
100
AcDbEntity
  8
0
  6
CONTINUOUS
100
AcDbLine
 10
44.99999999995498
 20
0.8574311250038447
 30
0.0
 11
38.60499999996136
 21
7.25243112499746
 31
0.0
  0
LINE
  5
E5B1
330
E57D
100
AcDbEntity
  8
0
  6
CONTINUOUS
100
AcDbLine
 10
44.99999999995498
 20
1.530950334084031
 30
0.0
 11
38.60499999996136
 21
7.925950334077647
 31
0.0
  0
LINE
  5
E5B2
330
E57D
100
AcDbEntity
  8
0
  6
CONTINUOUS
100
AcDbLine
 10
44.99999999995498
 20
2.204469543164218
 30
0.0
 11
43.57899999995641
 21
3.625469543162789
 31
0.0
  0
LINE
  5
E5B3
330
E57D
100
AcDbEntity
  8
0
  6
CONTINUOUS
100
AcDbLine
 10
41.89876730984767
 20
5.305702233271528
 30
0.0
 11
38.60499999996136
 21
8.599469543157834
 31
0.0
  0
LINE
  5
E5B4
330
E57D
100
AcDbEntity
  8
0
  6
CONTINUOUS
100
AcDbLine
 10
44.99999999995498
 20
2.877988752244405
 30
0.0
 11
43.57899999995641
 21
4.298988752242975
 31
0.0
  0
LINE
  5
E5B5
330
E57D
100
AcDbEntity
  8
0
  6
CONTINUOUS
100
AcDbLine
 10
44.99999999995498
 20
3.551507961324591
 30
0.0
 11
43.57899999995641
 21
4.972507961323163
 31
0.0
  0
LINE
  5
E5B6
330
E57D
100
AcDbEntity
  8
0
  6
CONTINUOUS
100
AcDbLine
 10
44.99999999995498
 20
4.225027170404777
 30
0.0
 11
43.57899999995641
 21
5.646027170403348
 31
0.0
  0
LINE
  5
E5B7
330
E57D
100
AcDbEntity
  8
0
  6
CONTINUOUS
100
AcDbLine
 10
44.99999999995498
 20
4.898546379484964
 30
0.0
 11
43.57899999995641
 21
6.319546379483535
 31
0.0
  0
LINE
  5
E5B8
330
E57D
100
AcDbEntity
  8
0
  6
CONTINUOUS
100
AcDbLine
 10
44.99999999995498
 20
5.572065588565151
 30
0.0
 11
43.57899999995641
 21
6.993065588563722
 31
0.0
  0
LINE
  5
E5B9
330
E57D
100
AcDbEntity
  8
0
  6
CONTINUOUS
100
AcDbLine
 10
44.99999999995498
 20
6.245584797645336
 30
0.0
 11
43.57899999995641
 21
7.666584797643908
 31
0.0
  0
LINE
  5
E5BA
330
E57D
100
AcDbEntity
  8
0
  6
CONTINUOUS
100
AcDbLine
 10
44.99999999995498
 20
6.919104006725522
 30
0.0
 11
43.57899999995641
 21
8.340104006724093
 31
0.0
  0
LINE
  5
E5BB
330
E57D
100
AcDbEntity
  8
0
  6
CONTINUOUS
100
AcDbLine
 10
44.99999999995498
 20
7.592623215805709
 30
0.0
 11
43.82952321576943
 21
8.763099999991255
 31
0.0
  0
LINE
  5
E5BC
330
E57D
100
AcDbEntity
  8
0
  6
CONTINUOUS
100
AcDbLine
 10
44.99999999995498
 20
8.266142424885896
 30
0.0
 11
44.50304242484962
 21
8.763099999991255
 31
0.0
  0
ENDBLK
  5
E5E6
330
E57D
100
AcDbEntity
  8
0
100
AcDbBlockEnd
  0
BLOCK
  5
E5E7
330
E5BD
100
AcDbEntity
  8
0
100
AcDbBlockBegin
  2
*X34
 70
     1
 10
0.0
 20
0.0
 30
0.0
  3
*X34
  1

  0
LINE
  5
E5BE
330
E5BD
100
AcDbEntity
  8
0
  6
CONTINUOUS
100
AcDbLine
 10
0.0
 20
8.548461116714023
 30
0.0
 11
0.2146388832772324
 21
8.763099999991255
 31
0.0
  0
LINE
  5
E5BF
330
E5BD
100
AcDbEntity
  8
0
  6
CONTINUOUS
100
AcDbLine
 10
-0.0000000000000002
 20
7.874941907633837
 30
0.0
 11
0.8881580923574184
 21
8.763099999991255
 31
0.0
  0
LINE
  5
E5C0
330
E5BD
100
AcDbEntity
  8
0
  6
CONTINUOUS
100
AcDbLine
 10
0.0
 20
7.20142269855365
 30
0.0
 11
1.420999999998572
 21
8.622422698552223
 31
0.0
  0
LINE
  5
E5C1
330
E5BD
100
AcDbEntity
  8
0
  6
CONTINUOUS
100
AcDbLine
 10
-0.0000000000000001
 20
6.527903489473465
 30
0.0
 11
1.420999999998571
 21
7.948903489472036
 31
0.0
  0
LINE
  5
E5C2
330
E5BD
100
AcDbEntity
  8
0
  6
CONTINUOUS
100
AcDbLine
 10
-0.0000000000000002
 20
5.854384280393278
 30
0.0
 11
1.420999999998571
 21
7.275384280391849
 31
0.0
  0
LINE
  5
E5C3
330
E5BD
100
AcDbEntity
  8
0
  6
CONTINUOUS
100
AcDbLine
 10
-0.0000000000000002
 20
5.180865071313091
 30
0.0
 11
1.420999999998571
 21
6.601865071311663
 31
0.0
  0
LINE
  5
E5C4
330
E5BD
100
AcDbEntity
  8
0
  6
CONTINUOUS
100
AcDbLine
 10
0.0
 20
4.507345862232905
 30
0.0
 11
1.420999999998571
 21
5.928345862231477
 31
0.0
  0
LINE
  5
E5C5
330
E5BD
100
AcDbEntity
  8
0
  6
CONTINUOUS
100
AcDbLine
 10
-0.0000000000000003
 20
3.833826653152718
 30
0.0
 11
1.420999999998571
 21
5.25482665315129
 31
0.0
  0
LINE
  5
E5C6
330
E5BD
100
AcDbEntity
  8
0
  6
CONTINUOUS
100
AcDbLine
 10
-0.0000000000000002
 20
3.160307444072532
 30
0.0
 11
1.420999999998571
 21
4.581307444071103
 31
0.0
  0
LINE
  5
E5C7
330
E5BD
100
AcDbEntity
  8
0
  6
CONTINUOUS
100
AcDbLine
 10
-0.0000000000000001
 20
2.486788234992345
 30
0.0
 11
1.420999999998571
 21
3.907788234990917
 31
0.0
  0
LINE
  5
E5C8
330
E5BD
100
AcDbEntity
  8
0
  6
CONTINUOUS
100
AcDbLine
 10
-0.0000000000000006
 20
1.813269025912159
 30
0.0
 11
1.420999999998571
 21
3.234269025910731
 31
0.0
  0
LINE
  5
E5C9
330
E5BD
100
AcDbEntity
  8
0
  6
CONTINUOUS
100
AcDbLine
 10
0.0
 20
1.139749816831973
 30
0.0
 11
1.420999999998571
 21
2.560749816830544
 31
0.0
  0
LINE
  5
E5CA
330
E5BD
100
AcDbEntity
  8
0
  6
CONTINUOUS
100
AcDbLine
 10
0.0000000000000002
 20
0.466230607751787
 30
0.0
 11
1.420999999998571
 21
1.887230607750358
 31
0.0
  0
LINE
  5
E5CB
330
E5BD
100
AcDbEntity
  8
0
  6
CONTINUOUS
100
AcDbLine
 10
0.2072886013284003
 20
-0.0000000000000009
 30
0.0
 11
1.420999999998571
 21
1.213711398670171
 31
0.0
  0
LINE
  5
E5CC
330
E5BD
100
AcDbEntity
  8
0
  6
CONTINUOUS
100
AcDbLine
 10
0.8808078104085864
 20
-0.0000000000000009
 30
0.0
 11
1.420999999998571
 21
0.5401921895899839
 31
0.0
  0
LINE
  5
E5CD
330
E5BD
100
AcDbEntity
  8
0
  6
CONTINUOUS
100
AcDbLine
 10
0.0581249075061505
 20
-0.0000000000000009
 30
0.0
 11
-0.0000000000000002
 21
0.0581249075061496
 31
0.0
  0
LINE
  5
E5CE
330
E5BD
100
AcDbEntity
  8
0
  6
CONTINUOUS
100
AcDbLine
 10
0.7316441165863372
 20
-0.0000000000000009
 30
0.0
 11
-0.0000000000000002
 21
0.7316441165863363
 31
0.0
  0
LINE
  5
E5CF
330
E5BD
100
AcDbEntity
  8
0
  6
CONTINUOUS
100
AcDbLine
 10
1.405163325666523
 20
-0.0000000000000009
 30
0.0
 11
-0.0000000000000002
 21
1.405163325666523
 31
0.0
  0
LINE
  5
E5D0
330
E5BD
100
AcDbEntity
  8
0
  6
CONTINUOUS
100
AcDbLine
 10
1.420999999998572
 20
0.6576825347481381
 30
0.0
 11
-0.0000000000000001
 21
2.07868253474671
 31
0.0
  0
LINE
  5
E5D1
330
E5BD
100
AcDbEntity
  8
0
  6
CONTINUOUS
100
AcDbLine
 10
1.420999999998571
 20
1.331201743828324
 30
0.0
 11
-0.0000000000000001
 21
2.752201743826896
 31
0.0
  0
LINE
  5
E5D2
330
E5BD
100
AcDbEntity
  8
0
  6
CONTINUOUS
100
AcDbLine
 10
1.420999999998571
 20
2.004720952908511
 30
0.0
 11
-0.0000000000000002
 21
3.425720952907082
 31
0.0
  0
LINE
  5
E5D3
330
E5BD
100
AcDbEntity
  8
0
  6
CONTINUOUS
100
AcDbLine
 10
1.420999999998571
 20
2.678240161988697
 30
0.0
 11
-0.0000000000000001
 21
4.099240161987269
 31
0.0
  0
LINE
  5
E5D4
330
E5BD
100
AcDbEntity
  8
0
  6
CONTINUOUS
100
AcDbLine
 10
1.420999999998572
 20
3.351759371068884
 30
0.0
 11
0.0
 21
4.772759371067455
 31
0.0
  0
LINE
  5
E5D5
330
E5BD
100
AcDbEntity
  8
0
  6
CONTINUOUS
100
AcDbLine
 10
1.420999999998571
 20
4.02527858014907
 30
0.0
 11
-0.0000000000000003
 21
5.446278580147642
 31
0.0
  0
LINE
  5
E5D6
330
E5BD
100
AcDbEntity
  8
0
  6
CONTINUOUS
100
AcDbLine
 10
1.420999999998571
 20
4.698797789229257
 30
0.0
 11
0.0
 21
6.119797789227828
 31
0.0
  0
LINE
  5
E5D7
330
E5BD
100
AcDbEntity
  8
0
  6
CONTINUOUS
100
AcDbLine
 10
1.420999999998571
 20
5.372316998309444
 30
0.0
 11
-0.0000000000000001
 21
6.793316998308015
 31
0.0
  0
LINE
  5
E5D8
330
E5BD
100
AcDbEntity
  8
0
  6
CONTINUOUS
100
AcDbLine
 10
1.420999999998572
 20
6.045836207389629
 30
0.0
 11
-0.0000000000000004
 21
7.466836207388202
 31
0.0
  0
LINE
  5
E5D9
330
E5BD
100
AcDbEntity
  8
0
  6
CONTINUOUS
100
AcDbLine
 10
1.420999999998571
 20
6.719355416469816
 30
0.0
 11
0.0
 21
8.140355416468388
 31
0.0
  0
LINE
  5
E5DA
330
E5BD
100
AcDbEntity
  8
0
  6
CONTINUOUS
100
AcDbLine
 10
1.420999999998571
 20
7.392874625550003
 30
0.0
 11
0.0507746255573185
 21
8.763099999991255
 31
0.0
  0
LINE
  5
E5DB
330
E5BD
100
AcDbEntity
  8
0
  6
CONTINUOUS
100
AcDbLine
 10
1.420999999998571
 20
8.06639383463019
 30
0.0
 11
0.7242938346375052
 21
8.763099999991255
 31
0.0
  0
LINE
  5
E5DC
330
E5BD
100
AcDbEntity
  8
0
  6
CONTINUOUS
100
AcDbLine
 10
1.420999999998571
 20
8.739913043710375
 30
0.0
 11
1.397813043717691
 21
8.763099999991255
 31
0.0
  0
ENDBLK
  5
E5E8
330
E5BD
100
AcDbEntity
  8
0
100
AcDbBlockEnd
  0
ENDSEC
  0
SECTION
  2
ENTITIES
  0
CIRCLE
  5
C566
330
18
100
AcDbEntity
  8
01
100
AcDbCircle
 10
5076.859218844511
 20
-55.88818684837611
 30
0.0000000001127424
 40
2.5
  0
LINE
  5
CC39
330
18
100
AcDbEntity
  8
01
100
AcDbLine
 10
4723.859323184253
 20
-63.28817705250367
 30
0.0000000001127424
 11
4749.859323184253
 21
-63.28817705250367
 31
0.0000000001127424
  0
LINE
  5
CC3A
330
18
100
AcDbEntity
  8
01
100
AcDbLine
 10
4759.359323184253
 20
-57.78817705250367
 30
0.0000000001127424
 11
4714.359323184253
 21
-57.78817705250367
 31
0.0000000001127424
  0
LINE
  5
CC3B
330
18
100
AcDbEntity
  8
01
100
AcDbLine
 10
4736.859323184253
 20
-35.28817705250367
 30
0.0000000001127424
 11
4736.859323184253
 21
-80.28817705250367
 31
0.0000000001127424
  0
LINE
  5
CC3C
330
18
100
AcDbEntity
  8
01
100
AcDbLine
 10
5054.359218844511
 20
-57.78817705250367
 30
0.0000000001127424
 11
5099.359218844511
 21
-57.78817705250367
 31
0.0000000001127424
  0
LINE
  5
CC3D
330
18
100
AcDbEntity
  8
01
100
AcDbLine
 10
5076.859218844511
 20
-35.28817705250367
 30
0.0000000001127424
 11
5076.859218844511
 21
-80.28817705250367
 31
0.0000000001127424
  0
LINE
  5
CC3E
330
18
100
AcDbEntity
  8
01
100
AcDbLine
 10
5074.359327250349
 20
197.6657060982457
 30
0.0000000000564898
 11
5074.359327250349
 21
185.1656831540427
 31
0.0000000000564898
  0
LINE
  5
CC3F
330
18
100
AcDbEntity
  8
01
100
AcDbLine
 10
5079.359327250349
 20
197.6657060982475
 30
0.0000000000564898
 11
5079.359327250349
 21
185.1656831540408
 31
0.0000000000564898
  0
LINE
  5
CC40
330
18
100
AcDbEntity
  8
01
100
AcDbLine
 10
4886.859327184255
 20
-37.78817705250549
 30
0.0000000001127424
 11
4886.859327184251
 21
-77.78817705250594
 31
0.0000000001127424
  0
LINE
  5
CC41
330
18
100
AcDbEntity
  8
01
100
AcDbLine
 10
4886.859327184255
 20
-77.78817705250594
 30
0.0000000001127424
 11
4881.059327184255
 21
-77.78817705250549
 31
0.0000000001127424
  0
ARC
  5
CC42
330
18
100
AcDbEntity
  8
01
100
AcDbCircle
 10
4881.059327184255
 20
-77.28817705250549
 30
0.0000000001127424
 40
0.5
100
AcDbArc
 50
180.0
 51
270.0
  0
LINE
  5
CC43
330
18
100
AcDbEntity
  8
01
100
AcDbLine
 10
4886.859327184255
 20
-37.78817705250549
 30
0.0000000001127424
 11
4881.059327184255
 21
-37.7881770525064
 31
0.0000000001127424
  0
ARC
  5
CC44
330
18
100
AcDbEntity
  8
01
100
AcDbCircle
 10
4881.059327184255
 20
-38.2881770525064
 30
0.0000000001127424
 40
0.5
100
AcDbArc
 50
90.0
 51
180.0
  0
LINE
  5
CC45
330
18
100
AcDbEntity
  8
01
100
AcDbLine
 10
4885.359327184255
 20
-77.78817705251276
 30
0.0000000001127424
 11
4886.859327184255
 21
-77.78817705251276
 31
0.0000000001127424
  0
LINE
  5
CC47
330
18
100
AcDbEntity
  8
01
100
AcDbLine
 10
5076.859210844508
 20
141.7118229474966
 30
0.0000000001127424
 11
5076.859210844508
 21
115.2118229474966
 31
0.0000000001127424
  0
LINE
  5
CC48
330
18
100
AcDbEntity
  8
01
100
AcDbLine
 10
5076.859210844508
 20
171.7118229454393
 30
0.0000000001127424
 11
5076.859210844508
 21
201.0030960370798
 31
0.0000000001127424
  0
LINE
  5
CC4B
330
18
100
AcDbEntity
  8
01
100
AcDbLine
 10
5056.859326795691
 20
136.7118229464677
 30
0.0000000001127424
 11
5096.859326795691
 21
136.7118229464684
 31
0.0000000001127424
  0
LINE
  5
CC4C
330
18
100
AcDbEntity
  8
01
100
AcDbLine
 10
5096.359326795691
 20
130.411822946468
 30
0.0000000001127424
 11
5057.359326795691
 21
130.4118229464675
 31
0.0000000001127424
  0
CIRCLE
  5
CC4D
330
18
100
AcDbEntity
  8
01
100
AcDbCircle
 10
5076.859239605929
 20
-57.78820081319191
 30
0.0000000001128561
 40
19.99999999999963
  0
LINE
  5
CC4E
330
18
100
AcDbEntity
  8
01
100
AcDbLine
 10
5056.859326795691
 20
136.7118229464677
 30
0.0000000001127424
 11
5056.859326795691
 21
130.9118229464675
 31
0.0000000001127424
  0
ARC
  5
CC4F
330
18
100
AcDbEntity
  8
01
100
AcDbCircle
 10
5057.359326795691
 20
130.911822946468
 30
0.0000000001127424
 40
0.5
100
AcDbArc
 50
180.0
 51
270.0
  0
CIRCLE
  5
CC50
330
18
100
AcDbEntity
  8
01
100
AcDbCircle
 10
5076.859239928388
 20
-63.28820060906378
 30
0.0000000001128561
 40
3.75
  0
CIRCLE
  5
CC51
330
18
100
AcDbEntity
  8
01
100
AcDbCircle
 10
5076.859239928388
 20
-63.28820081319168
 30
0.0000000001128561
 40
3.5000005
  0
LINE
  5
CC52
330
18
100
AcDbEntity
  8
01
100
AcDbLine
 10
5075.859239928388
 20
-66.64230361319164
 30
0.0000000001128561
 11
5075.859239928388
 21
-59.93409681319167
 31
0.0000000001128561
  0
LINE
  5
CC53
330
18
100
AcDbEntity
  8
01
100
AcDbLine
 10
5077.859239928388
 20
-66.64230361319164
 30
0.0000000001128561
 11
5077.859239928388
 21
-59.93409681319167
 31
0.0000000001128561
  0
ARC
  5
CC54
330
18
100
AcDbEntity
  8
01
100
AcDbCircle
 10
5076.859317253546
 20
134.5618175685927
 30
0.0000000001126288
 40
6.0
100
AcDbArc
 50
234.3146660000189
 51
256.8165180000145
  0
LINE
  5
CC55
330
18
100
AcDbEntity
  8
01
100
AcDbLine
 10
5073.359317253546
 20
129.6884175685925
 30
0.0000000001126288
 11
5073.359317253545
 21
130.4118229464677
 31
0.0000000001126288
  0
LINE
  5
CC56
330
18
100
AcDbEntity
  8
01
100
AcDbLine
 10
5080.359317253546
 20
129.6884175685925
 30
0.0000000001126288
 11
5080.359317253546
 21
130.4118229464677
 31
0.0000000001126288
  0
LINE
  5
CC57
330
18
100
AcDbEntity
  8
01
100
AcDbLine
 10
5077.859317253546
 20
129.0112691091902
 30
0.0000000001126288
 11
5077.859317253546
 21
130.4118229464677
 31
0.0000000001126288
  0
ARC
  5
CC58
330
18
100
AcDbEntity
  8
01
100
AcDbCircle
 10
5075.559314253545
 20
129.0120475685926
 30
0.0000000001126288
 40
0.30000001
100
AcDbArc
 50
256.8165180001219
 51
0.0
  0
ARC
  5
CC59
330
18
100
AcDbEntity
  8
01
100
AcDbCircle
 10
5078.159316253546
 20
129.0120475685926
 30
0.0000000001126288
 40
0.30000001
100
AcDbArc
 50
179.9999969999697
 51
283.1834799999676
  0
LINE
  5
CC5A
330
18
100
AcDbEntity
  8
01
100
AcDbLine
 10
5075.859317253546
 20
129.0120475685926
 30
0.0000000001126288
 11
5075.859317253546
 21
130.4118229464677
 31
0.0000000001126288
  0
ARC
  5
CC5B
330
18
100
AcDbEntity
  8
01
100
AcDbCircle
 10
5076.859317253546
 20
134.5618175685927
 30
0.0000000001126288
 40
6.0
100
AcDbArc
 50
283.1834825033476
 51
305.6853299999988
  0
LINE
  5
CC5C
330
18
100
AcDbEntity
  8
01
100
AcDbLine
 10
5096.859326795691
 20
136.7118229464684
 30
0.0000000001127424
 11
5096.859326795691
 21
130.911822946468
 31
0.0000000001127424
  0
ARC
  5
CC5D
330
18
100
AcDbEntity
  8
01
100
AcDbCircle
 10
5096.359326795691
 20
130.911822946468
 30
0.0000000001127424
 40
0.5
100
AcDbArc
 50
270.0
 51
0.0
  0
LINE
  5
CC5E
330
18
100
AcDbEntity
  8
01
100
AcDbLine
 10
4926.859327184255
 20
-37.78817705250367
 30
0.0000000001127427
 11
4926.85932718425
 21
-77.78817705250367
 31
0.0000000001127427
  0
LINE
  5
CC60
330
18
100
AcDbEntity
  8
01
100
AcDbLine
 10
4723.859323184253
 20
-63.28817705250367
 30
0.0000000001127424
 11
4749.859323184253
 21
-63.28817705250367
 31
0.0000000001127424
  0
LINE
  5
CC61
330
18
100
AcDbEntity
  8
01
100
AcDbLine
 10
4759.359323184253
 20
-57.78817705250367
 30
0.0000000001127424
 11
4714.359323184253
 21
-57.78817705250367
 31
0.0000000001127424
  0
LINE
  5
CC62
330
18
100
AcDbEntity
  8
01
100
AcDbLine
 10
4736.859323184253
 20
-35.28817705250367
 30
0.0000000001127424
 11
4736.859323184253
 21
-80.28817705250367
 31
0.0000000001127424
  0
LINE
  5
CC64
330
18
100
AcDbEntity
  8
01
100
AcDbLine
 10
5076.859210844508
 20
171.7118229454388
 30
0.0000000001127424
 11
5076.859210844508
 21
201.3401469482967
 31
0.0000000001127424
  0
LINE
  5
CC66
330
18
100
AcDbEntity
  8
01
100
AcDbLine
 10
4880.559327184255
 20
-77.28817705250367
 30
0.0000000001127427
 11
4880.559327184255
 21
-38.28817705250412
 31
0.0000000001127427
  0
CIRCLE
  5
CC67
330
18
100
AcDbEntity
  8
01
100
AcDbCircle
 10
4736.859323184251
 20
-57.78817705250367
 30
0.0000000001127424
 40
20.00000000000007
  0
ARC
  5
CC68
330
18
100
AcDbEntity
  8
01
100
AcDbCircle
 10
4738.859323184253
 20
-54.25698111840961
 30
0.0000000001127424
 40
0.5000000000000013
100
AcDbArc
 50
0.0
 51
77.51311018581228
  0
ARC
  5
CC69
330
18
100
AcDbEntity
  8
01
100
AcDbCircle
 10
4734.859323184253
 20
-72.31937298659795
 30
0.0000000001127424
 40
0.5000000000000029
100
AcDbArc
 50
180.0
 51
257.5131101858123
  0
ARC
  5
CC6A
330
18
100
AcDbEntity
  8
01
100
AcDbCircle
 10
4738.859323184253
 20
-72.31937298659795
 30
0.0000000001127424
 40
0.5000000000000013
100
AcDbArc
 50
282.4868898141877
 51
0.0
  0
ARC
  5
CC6B
330
18
100
AcDbEntity
  8
01
100
AcDbCircle
 10
4736.859323184253
 20
-63.28817705250367
 30
0.0000000001127424
 40
9.749999999999995
100
AcDbArc
 50
77.51311018586458
 51
102.4868898141354
  0
ARC
  5
CC6C
330
18
100
AcDbEntity
  8
01
100
AcDbCircle
 10
4734.859323184253
 20
-54.25698111840961
 30
0.0000000001127424
 40
0.5000000000000029
100
AcDbArc
 50
102.4868898141877
 51
180.0
  0
ARC
  5
CC6D
330
18
100
AcDbEntity
  8
01
100
AcDbCircle
 10
4736.859323184253
 20
-63.28817705250367
 30
0.0000000001127424
 40
9.75
100
AcDbArc
 50
257.5131101858646
 51
282.4868898141354
  0
LINE
  5
CC6E
330
18
100
AcDbEntity
  8
01
100
AcDbLine
 10
4739.359323184253
 20
-54.25698111840961
 30
0.0000000001127424
 11
4739.359323184253
 21
-72.31937298659795
 31
0.0000000001127424
  0
LINE
  5
CC6F
330
18
100
AcDbEntity
  8
01
100
AcDbLine
 10
4734.359323184253
 20
-72.31937298659795
 30
0.0000000001127424
 11
4734.359323184253
 21
-54.25698111840961
 31
0.0000000001127424
  0
SPLINE
  5
CC70
330
18
100
AcDbEntity
  8
01
100
AcDbSpline
210
0.0
220
0.0
230
1.0
 70
     8
 71
     3
 72
    18
 73
    14
 74
     0
 42
0.0000000001
 43
0.0000000001
 40
0.0
 40
0.0
 40
0.0
 40
0.0
 40
0.2500000000000002
 40
0.2500000000000002
 40
0.375
 40
0.375
 40
0.4999999999999998
 40
0.4999999999999998
 40
0.6249999999999996
 40
0.6249999999999996
 40
0.7499999999999993
 40
0.7499999999999993
 40
1.0
 40
1.0
 40
1.0
 40
1.0
 10
4740.548512373442
 20
-72.31327445510101
 30
0.0000000001127424
 10
4740.355251316167
 20
-72.39227378013766
 30
0.0000000001127424
 10
4740.162929704438
 20
-72.4635413147073
 30
0.0000000001127424
 10
4739.883604245979
 20
-72.55779842588095
 30
0.0000000001127424
 10
4739.794111103471
 20
-72.58643165106855
 30
0.0000000001127424
 10
4739.622833895679
 20
-72.63876672686933
 30
0.0000000001127424
 10
4739.540184482509
 20
-72.66269889178989
 30
0.0000000001127424
 10
4739.388711343068
 20
-72.70469830813659
 30
0.0000000001127424
 10
4739.320039772112
 20
-72.72276017569607
 30
0.0000000001127424
 10
4739.197671797852
 20
-72.75383131385661
 30
0.0000000001127424
 10
4739.143831561236
 20
-72.76686284646348
 30
0.0000000001127424
 10
4739.014477274005
 20
-72.79741795122413
 30
0.0000000001127424
 10
4738.967431292362
 20
-72.8075457397922
 30
0.0000000001127424
 10
4738.967431292362
 20
-72.8075457397922
 30
0.0000000001127424
  0
SPLINE
  5
CC71
330
18
100
AcDbEntity
  8
01
100
AcDbSpline
210
0.0
220
0.0
230
1.0
 70
     8
 71
     3
 72
    18
 73
    14
 74
     0
 42
0.0000000001
 43
0.0000000001
 40
0.0
 40
0.0
 40
0.0
 40
0.0
 40
0.2500000000000002
 40
0.2500000000000002
 40
0.3750000000000002
 40
0.3750000000000002
 40
0.5000000000000002
 40
0.5000000000000002
 40
0.6250000000000002
 40
0.6250000000000002
 40
0.7500000000000001
 40
0.7500000000000001
 40
1.0
 40
1.0
 40
1.0
 40
1.0
 10
4733.170133995064
 20
-54.26307964990633
 30
0.0000000001127424
 10
4733.36339505234
 20
-54.18408032486968
 30
0.0000000001127424
 10
4733.555716664068
 20
-54.11281279030027
 30
0.0000000001127424
 10
4733.835042122528
 20
-54.01855567912662
 30
0.0000000001127424
 10
4733.924535265036
 20
-53.98992245393879
 30
0.0000000001127424
 10
4734.095812472828
 20
-53.93758737813823
 30
0.0000000001127424
 10
4734.178461885997
 20
-53.91365521321745
 30
0.0000000001127424
 10
4734.329935025438
 20
-53.87165579687098
 30
0.0000000001127424
 10
4734.398606596395
 20
-53.8535939293115
 30
0.0000000001127424
 10
4734.520974570654
 20
-53.82252279115073
 30
0.0000000001127424
 10
4734.574814807271
 20
-53.80949125854386
 30
0.0000000001127424
 10
4734.704169094502
 20
-53.77893615378343
 30
0.0000000001127424
 10
4734.751215076145
 20
-53.76880836521536
 30
0.0000000001127424
 10
4734.751215076145
 20
-53.76880836521536
 30
0.0000000001127424
  0
SPLINE
  5
CC72
330
18
100
AcDbEntity
  8
01
100
AcDbSpline
210
0.0
220
0.0
230
1.0
 70
     8
 71
     3
 72
    16
 73
    12
 74
     0
 42
0.0000000001
 43
0.0000000001
 40
0.0
 40
0.0
 40
0.0
 40
0.0
 40
0.1249999999999998
 40
0.1249999999999998
 40
0.2499999999999997
 40
0.2499999999999997
 40
0.4999999999999998
 40
0.4999999999999998
 40
0.7499999999999999
 40
0.7499999999999999
 40
1.0
 40
1.0
 40
1.0
 40
1.0
 10
4734.751215076145
 20
-72.8075457397922
 30
0.0000000001127424
 10
4734.751215076145
 20
-72.8075457397922
 30
0.0000000001127424
 10
4734.739799554019
 20
-72.80503778380125
 30
0.0000000001127424
 10
4734.695366497677
 20
-72.79503300264105
 30
0.0000000001127424
 10
4734.661670897124
 20
-72.78737633759147
 30
0.0000000001127424
 10
4734.532323575662
 20
-72.75683183305887
 30
0.0000000001127424
 10
4734.405867695355
 20
-72.72573167928181
 30
0.0000000001127424
 10
4734.10492149436
 20
-72.64232867091027
 30
0.0000000001127424
 10
4733.928128059593
 20
-72.58917974138762
 30
0.0000000001127424
 10
4733.558431787589
 20
-72.46448741478412
 30
0.0000000001127424
 10
4733.363360629355
 20
-72.3922597090534
 30
0.0000000001127424
 10
4733.170133995064
 20
-72.31327445510101
 30
0.0000000001127424
  0
SPLINE
  5
CC73
330
18
100
AcDbEntity
  8
01
100
AcDbSpline
210
0.0
220
0.0
230
1.0
 70
     8
 71
     3
 72
    16
 73
    12
 74
     0
 42
0.0000000001
 43
0.0000000001
 40
0.0
 40
0.0
 40
0.0
 40
0.0
 40
0.1249999999999997
 40
0.1249999999999997
 40
0.2499999999999993
 40
0.2499999999999993
 40
0.4999999999999996
 40
0.4999999999999996
 40
0.7499999999999998
 40
0.7499999999999998
 40
1.0
 40
1.0
 40
1.0
 40
1.0
 10
4738.967431292362
 20
-53.76880836521536
 30
0.0000000001127424
 10
4738.967431292362
 20
-53.76880836521536
 30
0.0000000001127424
 10
4738.978846814488
 20
-53.77131632120631
 30
0.0000000001127424
 10
4739.023279870829
 20
-53.78132110236652
 30
0.0000000001127424
 10
4739.056975471382
 20
-53.7889777674161
 30
0.0000000001127424
 10
4739.186322792844
 20
-53.8195222719487
 30
0.0000000001127424
 10
4739.312778673151
 20
-53.85062242572553
 30
0.0000000001127424
 10
4739.613724874147
 20
-53.93402543409707
 30
0.0000000001127424
 10
4739.790518308914
 20
-53.98717436361972
 30
0.0000000001127424
 10
4740.160214580917
 20
-54.11186669022322
 30
0.0000000001127424
 10
4740.355285739151
 20
-54.18409439595393
 30
0.0000000001127424
 10
4740.548512373442
 20
-54.26307964990633
 30
0.0000000001127424
  0
ARC
  5
CC74
330
18
100
AcDbEntity
  8
01
100
AcDbCircle
 10
4736.859323184253
 20
-63.28817705250367
 30
0.0000000001127424
 40
9.750000000000005
100
AcDbArc
 50
112.2332717982963
 51
247.7667282017037
  0
ARC
  5
CC75
330
18
100
AcDbEntity
  8
01
100
AcDbCircle
 10
4736.859323184253
 20
-63.28817705250367
 30
0.0000000001127424
 40
9.750000000000009
100
AcDbArc
 50
292.2332717982963
 51
67.7667282017037
  0
CIRCLE
  5
CC76
330
18
100
AcDbEntity
  8
01
100
AcDbCircle
 10
4736.859323184253
 20
-63.28817705250367
 30
0.0000000001127424
 40
10.3
  0
SPLINE
  5
CC77
330
18
100
AcDbEntity
  8
01
100
AcDbSpline
210
0.0
220
0.0
230
1.0
 70
    24
 71
     1
 72
     4
 73
     2
 74
     0
 42
0.0000000001
 43
0.0000000001
 40
0.1160848018737504
 40
0.1160848018737504
 40
1.0
 40
1.0
 10
4880.559327184255
 20
-73.03817705251095
 30
0.0000000001127427
 10
4865.859302373243
 20
-73.03817705251095
 30
0.0000000001127427
  0
SPLINE
  5
CC78
330
18
100
AcDbEntity
  8
01
100
AcDbSpline
210
0.0
220
0.0
230
1.0
 70
    24
 71
     1
 72
     4
 73
     2
 74
     0
 42
0.0000000001
 43
0.0000000001
 40
0.0
 40
0.0
 40
0.8839151981262495
 40
0.8839151981262495
 10
4865.859302373243
 20
-53.53817705251095
 30
0.0000000001127427
 10
4880.559327184254
 20
-53.53817705251095
 30
0.0000000001127427
  0
ARC
  5
CC79
330
18
100
AcDbEntity
  8
01
100
AcDbCircle
 10
4865.859302373243
 20
-72.03817705251095
 30
0.0000000001127427
 40
1.0
100
AcDbArc
 50
180.0
 51
270.0
  0
ARC
  5
CC7A
330
18
100
AcDbEntity
  8
01
100
AcDbCircle
 10
4865.859302373243
 20
-54.53817705251095
 30
0.0000000001127427
 40
1.0
100
AcDbArc
 50
90.0
 51
180.0
  0
LINE
  5
CC7B
330
18
100
AcDbEntity
  8
01
100
AcDbLine
 10
4879.359302373243
 20
-54.72590515773913
 30
0.0000000001127427
 11
4879.359302373243
 21
-71.85044894728276
 31
0.0000000001127427
  0
SPLINE
  5
CC7C
330
18
100
AcDbEntity
  8
01
100
AcDbSpline
210
0.0
220
0.0
230
1.0
 70
     8
 71
     3
 72
    14
 73
    10
 74
     0
 42
0.0000000001
 43
0.0000000001
 40
0.0
 40
0.0
 40
0.0
 40
0.0
 40
0.25
 40
0.25
 40
0.5
 40
0.5
 40
0.75
 40
0.75
 40
1.0
 40
1.0
 40
1.0
 40
1.0
 10
4878.359302373243
 20
-54.25698111841689
 30
0.0000000001127427
 10
4878.499270050996
 20
-54.25698111841689
 30
0.0000000001127427
 10
4878.637691325141
 20
-54.26661707372364
 30
0.0000000001127427
 10
4878.887741665096
 20
-54.30569798266515
 30
0.0000000001127427
 10
4879.000059227925
 20
-54.3355041175389
 30
0.0000000001127427
 10
4879.181106599011
 20
-54.41642385432283
 30
0.0000000001127427
 10
4879.248907235316
 20
-54.46681339051452
 30
0.0000000001127427
 10
4879.338526151859
 20
-54.58618297952921
 30
0.0000000001127427
 10
4879.359302373243
 20
-54.65298243024063
 30
0.0000000001127427
 10
4879.359302373243
 20
-54.72590515773913
 30
0.0000000001127427
  0
SPLINE
  5
CC7D
330
18
100
AcDbEntity
  8
01
100
AcDbSpline
210
0.0
220
0.0
230
1.0
 70
     8
 71
     3
 72
    14
 73
    10
 74
     0
 42
0.0000000001
 43
0.0000000001
 40
0.0
 40
0.0
 40
0.0
 40
0.0
 40
0.25
 40
0.25
 40
0.5
 40
0.5
 40
0.75
 40
0.75
 40
1.0
 40
1.0
 40
1.0
 40
1.0
 10
4879.359302373243
 20
-71.85044894728276
 30
0.0000000001127427
 10
4879.359302373243
 20
-71.92336563441722
 30
0.0000000001127427
 10
4879.337941965981
 20
-71.99115033027806
 30
0.0000000001127427
 10
4879.248802774306
 20
-72.10947720424178
 30
0.0000000001127427
 10
4879.179870144151
 20
-72.16059005901002
 30
0.0000000001127427
 10
4878.999822703785
 20
-72.24084765116368
 30
0.0000000001127427
 10
4878.88711703029
 20
-72.27081047087017
 30
0.0000000001127427
 10
4878.63654641667
 20
-72.30985884640427
 30
0.0000000001127427
 10
4878.499160267353
 20
-72.31937298660523
 30
0.0000000001127427
 10
4878.359302373243
 20
-72.31937298660523
 30
0.0000000001127427
  0
LINE
  5
CC7E
330
18
100
AcDbEntity
  8
01
100
AcDbLine
 10
4878.359302373243
 20
-72.31937298660523
 30
0.0000000001127427
 11
4865.859302373243
 21
-72.31937298660523
 31
0.0000000001127427
  0
LINE
  5
CC7F
330
18
100
AcDbEntity
  8
01
100
AcDbLine
 10
4865.859302373243
 20
-54.25698111841689
 30
0.0000000001127427
 11
4878.359302373243
 21
-54.25698111841689
 31
0.0000000001127427
  0
SPLINE
  5
CC80
330
18
100
AcDbEntity
  8
01
100
AcDbSpline
210
0.0
220
0.0
230
1.0
 70
     8
 71
     3
 72
    14
 73
    10
 74
     0
 42
0.0000000001
 43
0.0000000001
 40
0.0
 40
0.0
 40
0.0
 40
0.0
 40
0.2500000000000001
 40
0.2500000000000001
 40
0.5000000000000002
 40
0.5000000000000002
 40
0.7500000000000003
 40
0.7500000000000003
 40
1.0
 40
1.0
 40
1.0
 40
1.0
 10
4865.859302373243
 20
-54.25698111841689
 30
0.0000000001127427
 10
4865.722093458315
 20
-54.25698111841689
 30
0.0000000001127427
 10
4865.587089912803
 20
-54.26835592851194
 30
0.0000000001127427
 10
4865.33975345415
 20
-54.31131079583224
 30
0.0000000001127427
 10
4865.229252024785
 20
-54.3425551229368
 30
0.0000000001127427
 10
4865.047058351257
 20
-54.41974064032797
 30
0.0000000001127427
 10
4864.978065248872
 20
-54.46408125558742
 30
0.0000000001127427
 10
4864.883297710386
 20
-54.56206290696559
 30
0.0000000001127427
 10
4864.859302373243
 20
-54.61455632998241
 30
0.0000000001127427
 10
4864.859302373243
 20
-54.66770722772776
 30
0.0000000001127427
  0
SPLINE
  5
CC81
330
18
100
AcDbEntity
  8
01
100
AcDbSpline
210
0.0
220
0.0
230
1.0
 70
     8
 71
     3
 72
    14
 73
    10
 74
     0
 42
0.0000000001
 43
0.0000000001
 40
0.0
 40
0.0
 40
0.0
 40
0.0
 40
0.2500000000000001
 40
0.2500000000000001
 40
0.5000000000000002
 40
0.5000000000000002
 40
0.7500000000000003
 40
0.7500000000000003
 40
1.0
 40
1.0
 40
1.0
 40
1.0
 10
4865.859302373243
 20
-72.31937298660523
 30
0.0000000001127427
 10
4865.722093458315
 20
-72.31937298660523
 30
0.0000000001127427
 10
4865.587089912803
 20
-72.30799817650995
 30
0.0000000001127427
 10
4865.33975345415
 20
-72.26504330918965
 30
0.0000000001127427
 10
4865.229252024785
 20
-72.23379898208509
 30
0.0000000001127427
 10
4865.047058351257
 20
-72.15661346469392
 30
0.0000000001127427
 10
4864.978065248872
 20
-72.11227284943448
 30
0.0000000001127427
 10
4864.883297710386
 20
-72.0142911980563
 30
0.0000000001127427
 10
4864.859302373243
 20
-71.96179777503971
 30
0.0000000001127427
 10
4864.859302373243
 20
-71.90864687729436
 30
0.0000000001127427
  0
LINE
  5
CC82
330
18
100
AcDbEntity
  8
01
100
AcDbLine
 10
4864.859302373243
 20
-54.66770722772776
 30
0.0000000001127427
 11
4864.859302373243
 21
-71.90864687729436
 31
0.0000000001127427
  0
LINE
  5
CC83
330
18
100
AcDbEntity
  8
01
100
AcDbLine
 10
4864.859302373243
 20
-71.90864687729436
 30
0.0000000001127427
 11
4864.859302373243
 21
-72.03817705251095
 31
0.0000000001127427
  0
LINE
  5
CC84
330
18
100
AcDbEntity
  8
01
100
AcDbLine
 10
5057.359326927897
 20
183.0118229464676
 30
0.0000000001127424
 11
5096.359326927897
 21
183.0118229464679
 31
0.0000000001127424
  0
LINE
  5
CC85
330
18
100
AcDbEntity
  8
01
100
AcDbLine
 10
5096.859326927897
 20
176.7118229464677
 30
0.0000000001127424
 11
5056.859326927897
 21
176.7118229464672
 31
0.0000000001127424
  0
LINE
  5
CC86
330
18
100
AcDbEntity
  8
01
100
AcDbLine
 10
5096.859326927897
 20
176.7118229464677
 30
0.0000000001127424
 11
5096.859326927897
 21
182.5118229464679
 31
0.0000000001127424
  0
ARC
  5
CC87
330
18
100
AcDbEntity
  8
01
100
AcDbCircle
 10
5096.359326927897
 20
182.5118229464676
 30
0.0000000001127424
 40
0.5
100
AcDbArc
 50
0.0
 51
90.0
  0
LINE
  5
CC88
330
18
100
AcDbEntity
  8
01
100
AcDbLine
 10
5056.859326927897
 20
176.7118229464672
 30
0.0000000001127424
 11
5056.859326927897
 21
182.5118229464676
 31
0.0000000001127424
  0
ARC
  5
CC89
330
18
100
AcDbEntity
  8
01
100
AcDbCircle
 10
5057.359326927897
 20
182.5118229464676
 30
0.0000000001127424
 40
0.5
100
AcDbArc
 50
90.0
 51
180.0
  0
LINE
  5
CC8A
330
18
100
AcDbEntity
  8
01
100
AcDbLine
 10
5073.35933914911
 20
184.2118196132674
 30
0.0000000000565071
 11
5067.609339149105
 21
184.2118196132685
 31
0.0000000000565071
  0
LINE
  5
CC8B
330
18
100
AcDbEntity
  8
01
100
AcDbLine
 10
5074.359339149112
 20
197.711842557474
 30
0.0000000000565071
 11
5074.35933914911
 21
185.2118196132674
 31
0.0000000000565071
  0
LINE
  5
CC8C
330
18
100
AcDbEntity
  8
01
100
AcDbLine
 10
5079.359339149112
 20
197.7118425574722
 30
0.0000000000565071
 11
5079.359339149112
 21
185.2118196132692
 31
0.0000000000565071
  0
ARC
  5
CC8D
330
18
100
AcDbEntity
  8
01
100
AcDbCircle
 10
5078.359339149113
 20
197.711842557474
 30
0.0000000000565071
 40
1.0
100
AcDbArc
 50
0.0000000000521102
 51
90.0
  0
ARC
  5
CC8E
330
18
100
AcDbEntity
  8
01
100
AcDbCircle
 10
5075.359339149113
 20
197.711842557474
 30
0.0000000000565071
 40
1.0
100
AcDbArc
 50
90.0
 51
180.0
  0
LINE
  5
CC8F
330
18
100
AcDbEntity
  8
01
100
AcDbLine
 10
5078.359339149112
 20
198.7118425574758
 30
0.0000000000565071
 11
5075.359339149113
 21
198.7118425574758
 31
0.0000000000565071
  0
LINE
  5
CC90
330
18
100
AcDbEntity
  8
01
100
AcDbLine
 10
5086.109339149104
 20
184.2118196132692
 30
0.0000000000565071
 11
5080.359339149112
 21
184.2118196132692
 31
0.0000000000565071
  0
ARC
  5
CC91
330
18
100
AcDbEntity
  8
01
100
AcDbCircle
 10
5080.359339149113
 20
185.2118196132692
 30
0.0000000000565071
 40
1.0
100
AcDbArc
 50
180.0
 51
270.0
  0
ARC
  5
CC92
330
18
100
AcDbEntity
  8
01
100
AcDbCircle
 10
5073.359339149111
 20
185.2118196132674
 30
0.0000000000565071
 40
1.0
100
AcDbArc
 50
270.0
 51
0.0
  0
LINE
  5
CC93
330
18
100
AcDbEntity
  8
01
100
AcDbLine
 10
5067.109339149104
 20
183.7118196132687
 30
0.0000000001127646
 11
5067.109339149104
 21
183.0118229464679
 31
0.0000000001127424
  0
ARC
  5
CC94
330
18
100
AcDbEntity
  8
01
100
AcDbCircle
 10
5067.609339149105
 20
183.7118196132687
 30
0.0000000001127646
 40
0.5
100
AcDbArc
 50
90.0
 51
180.0
  0
LINE
  5
CC95
330
18
100
AcDbEntity
  8
01
100
AcDbLine
 10
5086.609339149104
 20
183.7118196132687
 30
0.0000000001127646
 11
5086.609339149104
 21
183.0118229464679
 31
0.0000000001127424
  0
ARC
  5
CC96
330
18
100
AcDbEntity
  8
01
100
AcDbCircle
 10
5086.109339149104
 20
183.7118196132687
 30
0.0000000001127646
 40
0.5
100
AcDbArc
 50
0.0
 51
90.0
  0
LINE
  5
CC98
330
18
100
AcDbEntity
  8
01
100
AcDbLine
 10
4933.159327184255
 20
-77.28817218831387
 30
0.0000000000564849
 11
4933.159327184255
 21
-38.28817218831432
 31
0.0000000000564849
  0
LINE
  5
CC99
330
18
100
AcDbEntity
  8
01
100
AcDbLine
 10
4926.85932718425
 20
-77.78817218831409
 30
0.0000000000564849
 11
4932.659327184255
 21
-77.78817218831387
 31
0.0000000000564849
  0
ARC
  5
CC9A
330
18
100
AcDbEntity
  8
01
100
AcDbCircle
 10
4932.659327184255
 20
-77.28817218831387
 30
0.0000000000564849
 40
0.5
100
AcDbArc
 50
270.0
 51
0.0
  0
LINE
  5
CC9B
330
18
100
AcDbEntity
  8
01
100
AcDbLine
 10
4926.859327184255
 20
-37.78817218831387
 30
0.0000000000564849
 11
4932.659327184255
 21
-37.78817218831432
 31
0.0000000000564849
  0
ARC
  5
CC9C
330
18
100
AcDbEntity
  8
01
100
AcDbCircle
 10
4932.659327184255
 20
-38.28817218831432
 30
0.0000000000564849
 40
0.5
100
AcDbArc
 50
0.0
 51
90.0
  0
LINE
  5
CC9D
330
18
100
AcDbEntity
  8
01
100
AcDbLine
 10
4933.901310873215
 20
-59.78817573156539
 30
0.0000000001127388
 11
4933.159327184254
 21
-59.78817573156562
 31
0.0000000001127388
  0
LINE
  5
CC9E
330
18
100
AcDbEntity
  8
01
100
AcDbLine
 10
4933.901310873215
 20
-66.78817573156539
 30
0.0000000001127388
 11
4933.159327184254
 21
-66.78817573156539
 31
0.0000000001127388
  0
ARC
  5
CC9F
330
18
100
AcDbEntity
  8
01
100
AcDbCircle
 10
4929.027910873215
 20
-63.28817573156539
 30
0.0000000001127388
 40
6.0
100
AcDbArc
 50
324.3146699999792
 51
35.68533471265081
  0
LINE
  5
CCA3
330
18
100
AcDbEntity
  8
01
100
AcDbLine
 10
5020.859210844508
 20
-35.2881770525039
 30
0.0000000001127424
 11
5034.859210844508
 21
-35.2881770525039
 31
0.0000000001127424
  0
LINE
  5
CCA4
330
18
100
AcDbEntity
  8
01
100
AcDbLine
 10
5025.860095026568
 20
176.7118229464675
 30
0.0000000001127424
 11
5179.614475181601
 21
176.7118229464675
 31
0.0000000001127424
  0
LINE
  5
CCA5
330
18
100
AcDbEntity
  8
01
  6
BYBLOCK
100
AcDbLine
 10
5025.860095026568
 20
176.7118229464675
 30
0.0000000001127424
 11
5025.860095026568
 21
136.7118229464675
 31
0.0000000001127424
  0
LINE
  5
CCA9
330
18
100
AcDbEntity
  8
01
100
AcDbLine
 10
5076.859210844506
 20
171.7118229454388
 30
0.0000000001127424
 11
5076.859210844506
 21
202.6299031346878
 31
0.0000000001127424
  0
LINE
  5
CCAA
330
18
100
AcDbEntity
  8
01
100
AcDbLine
 10
5051.859210844508
 20
176.7118229464684
 30
0.0000000001127424
 11
5101.859210844508
 21
176.7118229464661
 31
0.0000000001127424
  0
LINE
  5
CCAB
330
18
100
AcDbEntity
  8
01
100
AcDbLine
 10
5052.359210844505
 20
185.2118229464684
 30
0.0000000001127424
 11
5074.35933914911
 21
185.2118229464666
 31
0.0000000001127424
  0
LINE
  5
CCAC
330
18
100
AcDbEntity
  8
01
100
AcDbLine
 10
5079.35932725035
 20
185.2118229464663
 30
0.0000000001127424
 11
5101.359210844508
 21
185.2118229464647
 31
0.0000000001127424
  0
LINE
  5
CCAD
330
18
100
AcDbEntity
  8
01
100
AcDbLine
 10
5101.859210844508
 20
176.7118229464661
 30
0.0000000001127424
 11
5101.859210844508
 21
184.7118229464647
 31
0.0000000001127424
  0
ARC
  5
CCAE
330
18
100
AcDbEntity
  8
01
100
AcDbCircle
 10
5101.359210844508
 20
184.7118229464647
 30
0.0000000001127424
 40
0.5
100
AcDbArc
 50
0.0
 51
90.0
  0
LINE
  5
CCAF
330
18
100
AcDbEntity
  8
01
100
AcDbLine
 10
5051.859210844508
 20
176.7118229464684
 30
0.0000000001127424
 11
5051.859210844505
 21
184.7118229464679
 31
0.0000000001127424
  0
ARC
  5
CCB0
330
18
100
AcDbEntity
  8
01
100
AcDbCircle
 10
5052.359210844505
 20
184.7118229464684
 30
0.0000000001127424
 40
0.5
100
AcDbArc
 50
90.0
 51
180.0
  0
LINE
  5
CCB1
330
18
100
AcDbEntity
  8
01
  6
BYBLOCK
100
AcDbLine
 10
5027.359210844508
 20
-27.38817705250381
 30
0.0000000001127424
 11
5027.359210844508
 21
-157.1881770525038
 31
0.0000000001127424
  0
LINE
  5
CCB2
330
18
100
AcDbEntity
  8
01
  6
BYBLOCK
100
AcDbLine
 10
5027.359210844508
 20
-156.2881770525039
 30
0.0000000001127424
 11
5029.859210844508
 21
-156.2881770525039
 31
0.0000000001127424
  0
LINE
  5
CCB3
330
18
100
AcDbEntity
  8
01
  6
BYBLOCK
100
AcDbLine
 10
5029.859210844508
 20
-156.2881770525039
 30
0.0000000001127424
 11
5029.859210844508
 21
-139.7852333273515
 31
0.0000000001127424
  0
LINE
  5
CCB4
330
18
100
AcDbEntity
  8
01
  6
BYBLOCK
100
AcDbLine
 10
5025.859210844508
 20
-27.38817705250381
 30
0.0000000001127424
 11
5025.859210844508
 21
-157.1881770525038
 31
0.0000000001127424
  0
LINE
  5
CCB5
330
18
100
AcDbEntity
  8
01
  6
BYBLOCK
100
AcDbLine
 10
5025.859210844508
 20
-157.1881770525038
 30
0.0000000001127424
 11
5027.359210844508
 21
-157.1881770525038
 31
0.0000000001127424
  0
LINE
  5
CCB6
330
18
100
AcDbEntity
  8
01
  6
BYBLOCK
100
AcDbLine
 10
5027.359210844508
 20
-28.2881770525039
 30
0.0000000001127424
 11
5029.859210844508
 21
-28.2881770525039
 31
0.0000000001127424
  0
LINE
  5
CCB7
330
18
100
AcDbEntity
  8
01
  6
BYBLOCK
100
AcDbLine
 10
5025.859210844508
 20
-27.38817705250381
 30
0.0000000001127424
 11
5027.359210844508
 21
-27.38817705250381
 31
0.0000000001127424
  0
LINE
  5
CCB8
330
18
100
AcDbEntity
  8
01
  6
BYBLOCK
100
AcDbLine
 10
5027.359210844508
 20
-52.2881770525039
 30
0.0000000001127424
 11
5028.559210844508
 21
-52.2881770525039
 31
0.0000000001127424
  0
LINE
  5
CCB9
330
18
100
AcDbEntity
  8
01
  6
BYBLOCK
100
AcDbLine
 10
5028.559210844508
 20
-46.58817705250362
 30
0.0000000001127424
 11
5028.559210844508
 21
-137.9881770525037
 31
0.0000000001127424
  0
LINE
  5
CCBA
330
18
100
AcDbEntity
  8
01
  6
BYBLOCK
100
AcDbLine
 10
5028.659210844508
 20
-156.2881770525039
 30
0.0000000001127424
 11
5028.659210844508
 21
-139.6881770525038
 31
0.0000000001127424
  0
LINE
  5
CCBB
330
18
100
AcDbEntity
  8
01
  6
BYBLOCK
100
AcDbLine
 10
5028.659210844508
 20
-139.6881770525038
 30
0.0000000001127424
 11
5027.710682707084
 21
-138.7396489150799
 31
0.0000000001127424
  0
LINE
  5
CCBC
330
18
100
AcDbEntity
  8
01
  6
BYBLOCK
100
AcDbLine
 10
5029.507738981932
 20
-138.9367051899276
 30
0.0000000001127424
 11
5028.559210844508
 21
-137.9881770525037
 31
0.0000000001127424
  0
ARC
  5
CCBD
330
18
100
AcDbEntity
  8
01
  6
BYBLOCK
100
AcDbCircle
 10
5028.659210844508
 20
-139.7852333273515
 30
0.0000000001127424
 40
1.2
100
AcDbArc
 50
0.0
 51
45.00000000005527
  0
ARC
  5
CCBE
330
18
100
AcDbEntity
  8
01
  6
BYBLOCK
100
AcDbCircle
 10
5028.559210844508
 20
-137.8911207776559
 30
0.0000000001127424
 40
1.2
100
AcDbArc
 50
180.0
 51
225.0000000000553
  0
LINE
  5
CCBF
330
18
100
AcDbEntity
  8
01
  6
BYBLOCK
100
AcDbLine
 10
5029.859210844508
 20
-28.2881770525039
 30
0.0000000001127424
 11
5029.859210844508
 21
-44.79112077765603
 31
0.0000000001127424
  0
LINE
  5
CCC0
330
18
100
AcDbEntity
  8
01
  6
BYBLOCK
100
AcDbLine
 10
5028.659210844508
 20
-28.2881770525039
 30
0.0000000001127424
 11
5028.659210844508
 21
-44.88817705250381
 31
0.0000000001127424
  0
LINE
  5
CCC1
330
18
100
AcDbEntity
  8
01
  6
BYBLOCK
100
AcDbLine
 10
5028.659210844508
 20
-44.88817705250381
 30
0.0000000001127424
 11
5027.710682707084
 21
-45.83670518992767
 31
0.0000000001127424
  0
LINE
  5
CCC2
330
18
100
AcDbEntity
  8
01
  6
BYBLOCK
100
AcDbLine
 10
5029.507738981932
 20
-45.63964891507999
 30
0.0000000001127424
 11
5028.559210844508
 21
-46.58817705250385
 31
0.0000000001127424
  0
ARC
  5
CCC3
330
18
100
AcDbEntity
  8
01
  6
BYBLOCK
100
AcDbCircle
 10
5028.659210844508
 20
-44.79112077765603
 30
0.0000000001127424
 40
1.2
100
AcDbArc
 50
314.9999999999447
 51
0.0
  0
ARC
  5
CCC4
330
18
100
AcDbEntity
  8
01
  6
BYBLOCK
100
AcDbCircle
 10
5028.559210844508
 20
-46.68523332735163
 30
0.0000000001127424
 40
1.2
100
AcDbArc
 50
134.9999999999447
 51
180.0
  0
CIRCLE
  5
CCC5
330
18
100
AcDbEntity
  8
1HIDDEN
100
AcDbCircle
 10
5076.859210844508
 20
-63.2881770525039
 30
0.0000000001127424
 40
4.75
  0
LINE
  5
CCC6
330
18
100
AcDbEntity
  8
01
  6
BYBLOCK
100
AcDbLine
 10
5028.559210844508
 20
-129.2881770525041
 30
0.0000000001127424
 11
5057.649838132209
 21
-129.2881770525039
 31
0.0000000001127424
  0
ARC
  5
CCC7
330
18
100
AcDbEntity
  8
01
  6
BYBLOCK
100
AcDbCircle
 10
5028.960095026569
 20
160.2730734894674
 30
0.0000000001127424
 40
1.6
100
AcDbArc
 50
115.944479772022
 51
180.0
  0
ARC
  5
CCC8
330
18
100
AcDbEntity
  8
01
  6
BYBLOCK
100
AcDbCircle
 10
5028.960095026569
 20
153.1505724034675
 30
0.0000000001127424
 40
1.6
100
AcDbArc
 50
180.0
 51
244.055520227978
  0
ARC
  5
CCC9
330
18
100
AcDbEntity
  8
01
  6
BYBLOCK
100
AcDbCircle
 10
5028.260095026568
 20
151.8730734894675
 30
0.0000000001127424
 40
1.6
100
AcDbArc
 50
0.0
 51
64.05552022797804
  0
ARC
  5
CCCA
330
18
100
AcDbEntity
  8
01
  6
BYBLOCK
100
AcDbCircle
 10
5028.260095026568
 20
161.5505724034674
 30
0.0000000001127424
 40
1.6
100
AcDbArc
 50
295.944479772022
 51
0.0
  0
LINE
  5
CCCB
330
18
100
AcDbEntity
  8
01
  6
BYBLOCK
100
AcDbLine
 10
5029.860095026568
 20
161.5505724034674
 30
0.0000000001127424
 11
5029.860095026568
 21
168.9118229464675
 31
0.0000000001127424
  0
LINE
  5
CCCC
330
18
100
AcDbEntity
  8
01
  6
BYBLOCK
100
AcDbLine
 10
5028.960095026569
 20
153.3118229464674
 30
0.0000000001127424
 11
5028.960095026569
 21
160.1118229464676
 31
0.0000000001127424
  0
LINE
  5
CCCD
330
18
100
AcDbEntity
  8
01
  6
BYBLOCK
100
AcDbLine
 10
5029.860095026568
 20
144.7118229464675
 30
0.0000000001127424
 11
5029.860095026568
 21
151.8730734894675
 31
0.0000000001127424
  0
LINE
  5
CCCE
330
18
100
AcDbEntity
  8
01
  6
BYBLOCK
100
AcDbLine
 10
5028.260095026568
 20
161.7118229464675
 30
0.0000000001127424
 11
5028.260095026569
 21
168.9118229464675
 31
0.0000000001127424
  0
LINE
  5
CCCF
330
18
100
AcDbEntity
  8
01
  6
BYBLOCK
100
AcDbLine
 10
5028.260095026568
 20
151.7118229464675
 30
0.0000000001127424
 11
5028.260095026568
 21
144.6118229464676
 31
0.0000000001127424
  0
ARC
  5
CCD0
330
18
100
AcDbEntity
  8
01
  6
BYBLOCK
100
AcDbCircle
 10
5093.260095026568
 20
164.6118229464676
 30
0.0000000001127424
 40
1.6
100
AcDbArc
 50
0.0
 51
90.0
  0
LINE
  5
CCD1
330
18
100
AcDbEntity
  8
01
  6
BYBLOCK
100
AcDbLine
 10
5027.360095026568
 20
169.1118229464676
 30
0.0000000001127424
 11
5027.360095026568
 21
144.3118229464676
 31
0.0000000001127424
  0
LINE
  5
CCD2
330
18
100
AcDbEntity
  8
01
  6
BYBLOCK
100
AcDbLine
 10
5093.260095026568
 20
166.2118229464675
 30
0.0000000001127424
 11
5029.860095026568
 21
166.2118229464675
 31
0.0000000001127424
  0
LINE
  5
CCD3
330
18
100
AcDbEntity
  8
01
  6
BYBLOCK
100
AcDbLine
 10
5093.260095026568
 20
149.0118229464674
 30
0.0000000001127424
 11
5093.260095026568
 21
166.2118229464675
 31
0.0000000001127424
  0
LINE
  5
CCD4
330
18
100
AcDbEntity
  8
01
  6
BYBLOCK
100
AcDbLine
 10
5094.860095026568
 20
147.4118229464675
 30
0.0000000001127424
 11
5094.860095026568
 21
164.6118229464676
 31
0.0000000001127424
  0
LINE
  5
CCD5
330
18
100
AcDbEntity
  8
01
  6
BYBLOCK
100
AcDbLine
 10
5027.360095026568
 20
168.9118229464675
 30
0.0000000001127424
 11
5029.860095026568
 21
168.9118229464675
 31
0.0000000001127424
  0
LINE
  5
CCD6
330
18
100
AcDbEntity
  8
01
  6
BYBLOCK
100
AcDbLine
 10
5029.860095026568
 20
144.7118229464675
 30
0.0000000001127424
 11
5028.260095026568
 21
144.7118229464675
 31
0.0000000001127424
  0
LINE
  5
CCD7
330
18
100
AcDbEntity
  8
01
  6
BYBLOCK
100
AcDbLine
 10
5028.260095026568
 20
144.6118229464676
 30
0.0000000001127424
 11
5027.360095026568
 21
144.6118229464676
 31
0.0000000001127424
  0
ARC
  5
CCD8
330
18
100
AcDbEntity
  8
01
  6
BYBLOCK
100
AcDbCircle
 10
5024.560689953967
 20
151.0118229464681
 30
0.0000000001127424
 40
0.3000000000000051
100
AcDbArc
 50
232.8678058729389
 51
270.0
  0
LINE
  5
CCD9
330
18
100
AcDbEntity
  8
01
  6
BYBLOCK
100
AcDbLine
 10
5025.360095026568
 20
150.7118229464681
 30
0.0000000001127424
 11
5024.560689953967
 21
150.7118229464681
 31
0.0000000001127424
  0
LINE
  5
CCDA
330
18
100
AcDbEntity
  8
01
  6
BYBLOCK
100
AcDbLine
 10
5014.960095026569
 20
160.3848118126723
 30
0.0000000001127424
 11
5014.960095026569
 21
160.2141897571232
 31
0.0000000001127424
  0
ARC
  5
CCDB
330
18
100
AcDbEntity
  8
01
  6
BYBLOCK
100
AcDbCircle
 10
5015.260095026568
 20
160.2141897571232
 30
0.0000000001127424
 40
0.3
100
AcDbArc
 50
180.0
 51
217.7405295629614
  0
ARC
  5
CCDC
330
18
100
AcDbEntity
  8
01
  6
BYBLOCK
100
AcDbCircle
 10
5054.562395625852
 20
190.634892701064
 30
0.0000000001127424
 40
50.00000000000002
100
AcDbArc
 50
217.7405295629665
 51
232.8678058729428
  0
LINE
  5
CCDD
330
18
100
AcDbEntity
  8
01
  6
BYBLOCK
100
AcDbLine
 10
5014.760095026568
 20
161.5118229464676
 30
0.0000000001127424
 11
5014.760095026568
 21
162.2118229464675
 31
0.0000000001127424
  0
ARC
  5
CCDE
330
18
100
AcDbEntity
  8
01
  6
BYBLOCK
100
AcDbCircle
 10
5015.260095026568
 20
162.2118229464675
 30
0.0000000001127424
 40
0.5000000000000142
100
AcDbArc
 50
90.0
 51
180.0
  0
LINE
  5
CCDF
330
18
100
AcDbEntity
  8
01
  6
BYBLOCK
100
AcDbLine
 10
5025.360095026568
 20
162.7118229464675
 30
0.0000000001127424
 11
5015.260095026568
 21
162.7118229464675
 31
0.0000000001127424
  0
LINE
  5
CCE0
330
18
100
AcDbEntity
  8
01
  6
BYBLOCK
100
AcDbLine
 10
5014.760095026568
 20
161.1331432900272
 30
0.0000000001127424
 11
5014.760095026568
 21
161.5118229464676
 31
0.0000000001127424
  0
SPLINE
  5
CCE1
330
18
100
AcDbEntity
  8
01
  6
BYBLOCK
100
AcDbSpline
210
0.0
220
0.0
230
1.0
 70
     8
 71
     3
 72
     8
 73
     4
 74
     0
 42
0.0000000001
 43
0.0000000001
 40
0.0
 40
0.0
 40
0.0
 40
0.0
 40
1.0
 40
1.0
 40
1.0
 40
1.0
 10
5014.785827567833
 20
160.8564928605781
 30
0.0000000001127424
 10
5014.768359681721
 20
160.9495790564586
 30
0.0000000001127424
 10
5014.760095026568
 20
161.0428450673501
 30
0.0000000001127424
 10
5014.760095026568
 20
161.1331432900276
 30
0.0000000001127424
  0
ARC
  5
CCE2
330
18
100
AcDbEntity
  8
01
  6
BYBLOCK
100
AcDbCircle
 10
5016.260095026568
 20
161.1331432900272
 30
0.0000000001127424
 40
1.499999999999998
100
AcDbArc
 50
190.628112987605
 51
225.0000000000553
  0
LINE
  5
CCE3
330
18
100
AcDbEntity
  8
01
  6
BYBLOCK
100
AcDbLine
 10
5025.860095026568
 20
163.5618229464676
 30
0.0000000001127424
 11
5025.360095026568
 21
163.5618229464676
 31
0.0000000001127424
  0
LINE
  5
CCE4
330
18
100
AcDbEntity
  8
01
  6
BYBLOCK
100
AcDbLine
 10
5025.360095026568
 20
149.8618229464676
 30
0.0000000001127424
 11
5025.860095026568
 21
149.8618229464676
 31
0.0000000001127424
  0
LINE
  5
CCE5
330
18
100
AcDbEntity
  8
01
  6
BYBLOCK
100
AcDbLine
 10
5025.360095026568
 20
149.8618229464676
 30
0.0000000001127424
 11
5025.360095026568
 21
163.5618229464676
 31
0.0000000001127424
  0
LINE
  5
CCE6
330
18
100
AcDbEntity
  8
01
  6
BYBLOCK
100
AcDbLine
 10
5025.860095026568
 20
169.1118229464676
 30
0.0000000001127424
 11
5027.360095026568
 21
169.1118229464676
 31
0.0000000001127424
  0
LINE
  5
CCE7
330
18
100
AcDbEntity
  8
01
  6
BYBLOCK
100
AcDbLine
 10
5025.860095026568
 20
144.3118229464676
 30
0.0000000001127424
 11
5027.360095026568
 21
144.3118229464676
 31
0.0000000001127424
  0
LINE
  5
CCE8
330
18
100
AcDbEntity
  8
01
  6
BYBLOCK
100
AcDbLine
 10
5025.860095026568
 20
144.3118229464676
 30
0.0000000001127424
 11
5025.860095026568
 21
169.1118229464676
 31
0.0000000001127424
  0
LINE
  5
CCE9
330
18
100
AcDbEntity
  8
01
  6
BYBLOCK
100
AcDbLine
 10
5094.860095026568
 20
149.0118229464674
 30
0.0000000001127424
 11
5029.860095026568
 21
149.0118229464674
 31
0.0000000001127424
  0
LINE
  5
CCEA
330
18
100
AcDbEntity
  8
01
  6
BYBLOCK
100
AcDbLine
 10
5094.860095026568
 20
147.4118229464675
 30
0.0000000001127424
 11
5044.460095026569
 21
147.4118229464675
 31
0.0000000001127424
  0
LINE
  5
CCEB
330
18
100
AcDbEntity
  8
01
  6
BYBLOCK
100
AcDbLine
 10
5047.297353326771
 20
147.4118229464675
 30
0.0000000001127424
 11
5029.860095026568
 21
147.4118229464675
 31
0.0000000001127424
  0
LINE
  5
CCEC
330
18
100
AcDbEntity
  8
01
  6
BYBLOCK
100
AcDbLine
 10
5024.413648417161
 20
150.8582695558741
 30
0.0000000001127424
 11
5015.199434854788
 21
160.0724831182472
 31
0.0000000001127424
  0
ARC
  5
CCED
330
18
100
AcDbEntity
  8
01
  6
BYBLOCK
100
AcDbCircle
 10
5024.767201807755
 20
151.2118229464675
 30
0.0000000001127424
 40
0.5
100
AcDbArc
 50
224.9999999999908
 51
270.0
  0
LINE
  5
CCEE
330
18
100
AcDbEntity
  8
01
  6
BYBLOCK
100
AcDbLine
 10
5025.360095026568
 20
150.7118229464675
 30
0.0000000001127424
 11
5024.767201807755
 21
150.7118229464675
 31
0.0000000001127424
  0
LINE
  5
CCF0
330
18
100
AcDbEntity
  8
01
  6
BYBLOCK
100
AcDbLine
 10
5014.859210844508
 20
-82.25650678548777
 30
0.0000000001127424
 11
5014.859210844508
 21
-100.3198473194936
 31
0.0000000001127424
  0
LINE
  5
CCF1
330
18
100
AcDbEntity
  8
01
  6
BYBLOCK
100
AcDbLine
 10
5019.152104063322
 20
-81.28817705249071
 30
0.0000000001127424
 11
5025.859210844508
 21
-81.28817705249071
 31
0.0000000001127424
  0
LINE
  5
CCF2
330
18
100
AcDbEntity
  8
01
  6
BYBLOCK
100
AcDbLine
 10
5019.152104063322
 20
-101.2881770524907
 30
0.0000000001127424
 11
5025.859210844508
 21
-101.2881770524907
 31
0.0000000001127424
  0
LINE
  5
CCF3
330
18
100
AcDbEntity
  8
01
  6
BYBLOCK
100
AcDbLine
 10
5024.652104063322
 20
-86.03817705249071
 30
0.0000000001127424
 11
5024.652104063322
 21
-96.53817705249071
 31
0.0000000001127424
  0
ARC
  5
CCF4
330
18
100
AcDbEntity
  8
01
  6
BYBLOCK
100
AcDbCircle
 10
5019.152104063322
 20
-91.28817705249071
 30
0.0000000001127424
 40
10.00000000000009
100
AcDbArc
 50
53.13010235413383
 51
115.4224671781395
  0
ARC
  5
CCF5
330
18
100
AcDbEntity
  8
01
  6
BYBLOCK
100
AcDbCircle
 10
5019.152104063322
 20
-91.28817705249048
 30
0.0000000001127424
 40
10.00000000000009
100
AcDbArc
 50
244.5775328218606
 51
306.8698976458662
  0
LINE
  5
CCF6
330
18
100
AcDbEntity
  8
01
  6
BYBLOCK
100
AcDbLine
 10
5025.152104063322
 20
-83.28817705249071
 30
0.0000000001127424
 11
5025.152104063322
 21
-99.28817705249071
 31
0.0000000001127424
  0
LINE
  5
CCF7
330
18
100
AcDbEntity
  8
01
  6
BYBLOCK
100
AcDbLine
 10
5014.859210844508
 20
-86.03817705249071
 30
0.0000000001127424
 11
5024.652104063322
 21
-86.03817705249071
 31
0.0000000001127424
  0
LINE
  5
CCF8
330
18
100
AcDbEntity
  8
01
  6
BYBLOCK
100
AcDbLine
 10
5014.859210844508
 20
-96.53817705249071
 30
0.0000000001127424
 11
5024.652104063322
 21
-96.53817705249071
 31
0.0000000001127424
  0
LINE
  5
CCF9
330
18
100
AcDbEntity
  8
01
  6
BYBLOCK
100
AcDbLine
 10
4900.459327184253
 20
-27.38817705250449
 30
0.0000000001127424
 11
4913.259327184252
 21
-27.38817705250449
 31
0.0000000001127424
  0
LINE
  5
CCFA
330
18
100
AcDbEntity
  8
01
  6
BYBLOCK
100
AcDbLine
 10
4900.459327184253
 20
-157.1881770525044
 30
0.0000000001127424
 11
4913.259327184252
 21
-157.1881770525044
 31
0.0000000001127424
  0
LINE
  5
CCFB
330
18
100
AcDbEntity
  8
01
  6
BYBLOCK
100
AcDbLine
 10
4894.459327184253
 20
-33.38817705250449
 30
0.0000000001127424
 11
4894.459327184253
 21
-151.1881770525044
 31
0.0000000001127424
  0
LINE
  5
CCFC
330
18
100
AcDbEntity
  8
01
  6
BYBLOCK
100
AcDbLine
 10
4919.259327184252
 20
-33.38817705250449
 30
0.0000000001127424
 11
4919.259327184252
 21
-151.1881770525044
 31
0.0000000001127424
  0
ARC
  5
CCFD
330
18
100
AcDbEntity
  8
01
  6
BYBLOCK
100
AcDbCircle
 10
4900.459327184253
 20
-151.1881770525044
 30
0.0000000001127424
 40
6.0
100
AcDbArc
 50
180.0
 51
270.0
  0
ARC
  5
CCFE
330
18
100
AcDbEntity
  8
01
  6
BYBLOCK
100
AcDbCircle
 10
4913.259327184252
 20
-151.1881770525044
 30
0.0000000001127424
 40
6.0
100
AcDbArc
 50
270.0
 51
0.0
  0
ARC
  5
CCFF
330
18
100
AcDbEntity
  8
01
  6
BYBLOCK
100
AcDbCircle
 10
4900.459327184253
 20
-33.38817705250449
 30
0.0000000001127424
 40
6.0
100
AcDbArc
 50
90.0
 51
180.0
  0
ARC
  5
CD00
330
18
100
AcDbEntity
  8
01
  6
BYBLOCK
100
AcDbCircle
 10
4913.259327184252
 20
-33.38817705250449
 30
0.0000000001127424
 40
6.0
100
AcDbArc
 50
0.0
 51
90.0
  0
CIRCLE
  5
CD01
330
18
100
AcDbEntity
  8
01
  6
BYBLOCK
100
AcDbCircle
 10
4906.859327184253
 20
-149.2881770525044
 30
0.0000000001127424
 40
2.75
  0
CIRCLE
  5
CD02
330
18
100
AcDbEntity
  8
01
  6
BYBLOCK
100
AcDbCircle
 10
4906.859327184253
 20
-149.2881770525044
 30
0.0000000001127424
 40
4.25
  0
CIRCLE
  5
CD03
330
18
100
AcDbEntity
  8
01
  6
BYBLOCK
100
AcDbCircle
 10
4906.859327184253
 20
-35.28817705250458
 30
0.0000000001127424
 40
2.75
  0
CIRCLE
  5
CD04
330
18
100
AcDbEntity
  8
01
  6
BYBLOCK
100
AcDbCircle
 10
4906.859327184253
 20
-35.28817705250458
 30
0.0000000001127424
 40
4.25
  0
LINE
  5
CD05
330
18
100
AcDbEntity
  8
1CENTER
100
AcDbLine
 10
4912.734352592159
 20
-149.2881770525046
 30
0.0000000001127424
 11
4900.984301776347
 21
-149.2881770525046
 31
0.0000000001127424
  0
LINE
  5
CD06
330
18
100
AcDbEntity
  8
1CENTER
100
AcDbLine
 10
4906.859327184253
 20
-143.4131516445982
 30
0.0000000001127424
 11
4906.859327184253
 21
-155.1632024604107
 31
0.0000000001127424
  0
LINE
  5
CD07
330
18
100
AcDbEntity
  8
1CENTER
100
AcDbLine
 10
4912.734352592159
 20
-35.28817705250458
 30
0.0000000001127424
 11
4900.984301776347
 21
-35.28817705250458
 31
0.0000000001127424
  0
LINE
  5
CD08
330
18
100
AcDbEntity
  8
1CENTER
100
AcDbLine
 10
4906.859327184253
 20
-29.4131516445982
 30
0.0000000001127424
 11
4906.859327184253
 21
-41.16320246041073
 31
0.0000000001127424
  0
ARC
  5
CD09
330
18
100
AcDbEntity
  8
01
  6
BYBLOCK
100
AcDbCircle
 10
4906.859327184253
 20
-91.28817705250435
 30
0.0000000001127424
 40
10.15
100
AcDbArc
 50
231.9925780701392
 51
308.0074219298607
  0
LINE
  5
CD0A
330
18
100
AcDbEntity
  8
01
  6
BYBLOCK
100
AcDbLine
 10
4900.609327184253
 20
-83.29067744325152
 30
0.0000000001127424
 11
4900.609327184253
 21
-99.28567666175718
 31
0.0000000001127424
  0
LINE
  5
CD0B
330
18
100
AcDbEntity
  8
01
  6
BYBLOCK
100
AcDbLine
 10
4913.109327184253
 20
-83.29067744325152
 30
0.0000000001127424
 11
4913.109327184253
 21
-99.28567666175718
 31
0.0000000001127424
  0
ARC
  5
CD0C
330
18
100
AcDbEntity
  8
01
  6
BYBLOCK
100
AcDbCircle
 10
4906.859327184253
 20
-91.28817705250435
 30
0.0000000001127424
 40
10.15
100
AcDbArc
 50
51.99257807013929
 51
128.0074219298607
  0
LINE
  5
CD0D
330
18
100
AcDbEntity
  8
01
  6
BYBLOCK
100
AcDbLine
 10
4902.359327184253
 20
-86.03817705250435
 30
0.0000000001127424
 11
4902.359327184253
 21
-96.53817705250435
 31
0.0000000001127424
  0
LINE
  5
CD0E
330
18
100
AcDbEntity
  8
01
  6
BYBLOCK
100
AcDbLine
 10
4912.359327184253
 20
-86.03817705250435
 30
0.0000000001127424
 11
4912.359327184253
 21
-96.53817705250435
 31
0.0000000001127424
  0
LINE
  5
CD0F
330
18
100
AcDbEntity
  8
01
  6
BYBLOCK
100
AcDbLine
 10
4902.859327184253
 20
-81.95959195078603
 30
0.0000000001127424
 11
4902.859327184253
 21
-86.03817705250458
 31
0.0000000001127424
  0
LINE
  5
CD10
330
18
100
AcDbEntity
  8
01
  6
BYBLOCK
100
AcDbLine
 10
4901.359327184253
 20
-86.03817705250458
 30
0.0000000001127424
 11
4901.359327184253
 21
-96.53817705250435
 31
0.0000000001127424
  0
LINE
  5
CD11
330
18
100
AcDbEntity
  8
01
  6
BYBLOCK
100
AcDbLine
 10
4902.859327184253
 20
-96.53817705250435
 30
0.0000000001127424
 11
4902.859327184253
 21
-100.6167621542227
 31
0.0000000001127424
  0
LINE
  5
CD12
330
18
100
AcDbEntity
  8
01
  6
BYBLOCK
100
AcDbLine
 10
4901.359327184253
 20
-86.03817705250435
 30
0.0000000001127424
 11
4912.359327184253
 21
-86.03817705250435
 31
0.0000000001127424
  0
LINE
  5
CD13
330
18
100
AcDbEntity
  8
01
  6
BYBLOCK
100
AcDbLine
 10
4901.359327184253
 20
-96.53817705250435
 30
0.0000000001127424
 11
4912.359327184253
 21
-96.53817705250435
 31
0.0000000001127424
  0
LINE
  5
CD15
330
18
100
AcDbEntity
  8
01
100
AcDbLine
 10
4886.859443523996
 20
6.711822947495875
 30
0.0000000001127424
 11
4886.859443523996
 21
-183.2881770525044
 31
0.0000000001127424
  0
LINE
  5
CD16
330
18
100
AcDbEntity
  8
01
100
AcDbLine
 10
4886.859443523996
 20
-88.28817705250435
 30
0.0000000001127424
 11
4886.859443523996
 21
-138.2881770525044
 31
0.0000000001127424
  0
LINE
  5
CD17
330
18
100
AcDbEntity
  8
01
100
AcDbLine
 10
4878.359443523996
 20
-137.2881770525044
 30
0.0000000001127424
 11
4878.359443523996
 21
-89.28817705250435
 31
0.0000000001127424
  0
LINE
  5
CD18
330
18
100
AcDbEntity
  8
01
100
AcDbLine
 10
4886.859443523996
 20
-138.2881770525044
 30
0.0000000001127424
 11
4879.359443523996
 21
-138.2881770525044
 31
0.0000000001127424
  0
ARC
  5
CD19
330
18
100
AcDbEntity
  8
01
100
AcDbCircle
 10
4879.359443523996
 20
-137.2881770525044
 30
0.0000000001127424
 40
1.0
100
AcDbArc
 50
180.0
 51
270.0
  0
LINE
  5
CD1A
330
18
100
AcDbEntity
  8
01
100
AcDbLine
 10
4886.859443523996
 20
-88.28817705250435
 30
0.0000000001127424
 11
4879.359443523996
 21
-88.28817705250435
 31
0.0000000001127424
  0
ARC
  5
CD1B
330
18
100
AcDbEntity
  8
01
100
AcDbCircle
 10
4879.359443523996
 20
-89.28817705250435
 30
0.0000000001127424
 40
1.0
100
AcDbArc
 50
90.0
 51
180.0
  0
LINE
  5
CD1C
330
18
100
AcDbEntity
  8
01
100
AcDbLine
 10
4888.987728906428
 20
-113.2881770525044
 30
0.0000000001127424
 11
4866.359443523996
 21
-113.2881770525044
 31
0.0000000001127424
  0
POINT
  5
CD1D
330
18
100
AcDbEntity
  8
01
100
AcDbPoint
 10
4872.359327184253
 20
-113.2881770525044
 30
0.0000000001127424
 50
180.0
  0
CIRCLE
  5
CD1E
330
18
100
AcDbEntity
  8
01
100
AcDbCircle
 10
4872.359327184253
 20
-113.2881770525044
 30
0.0000000001127424
 40
2.5
  0
CIRCLE
  5
CD1F
330
18
100
AcDbEntity
  8
01
100
AcDbCircle
 10
4872.359327184253
 20
-113.2881770525044
 30
0.0000000001127424
 40
3.0
  0
LINE
  5
CD21
330
18
100
AcDbEntity
  8
1CENTER
100
AcDbLine
 10
4872.359327184253
 20
-119.2881770525044
 30
0.0000000001127424
 11
4872.359327184253
 21
-107.2881770525044
 31
0.0000000001127424
  0
LINE
  5
CD22
330
18
100
AcDbEntity
  8
01
100
AcDbLine
 10
5020.859210844796
 20
-149.2881770522151
 30
0.0000000001127424
 11
5034.859210844796
 21
-149.2881770522151
 31
0.0000000001127424
  0
LINE
  5
CD23
330
18
100
AcDbEntity
  8
01
100
AcDbLine
 10
5088.171099112049
 20
-63.2881770525039
 30
0.0000000001127424
 11
5065.547322576966
 21
-63.2881770525039
 31
0.0000000001127424
  0
LINE
  5
CD24
330
18
100
AcDbEntity
  8
01
100
AcDbLine
 10
5076.859210844508
 20
-51.97628878496221
 30
0.0000000001127424
 11
5076.859210844508
 21
-74.60006532004559
 31
0.0000000001127424
  0
LINE
  5
CD25
330
18
100
AcDbEntity
  8
01
  6
BYBLOCK
100
AcDbLine
 10
4798.859443523999
 20
-82.25650678548777
 30
0.0000000001127424
 11
4798.859443523999
 21
-100.3198473194936
 31
0.0000000001127424
  0
LINE
  5
CD26
330
18
100
AcDbEntity
  8
01
  6
BYBLOCK
100
AcDbLine
 10
4794.566550305186
 20
-81.28817705249071
 30
0.0000000001127424
 11
4787.859443523999
 21
-81.28817705249071
 31
0.0000000001127424
  0
LINE
  5
CD27
330
18
100
AcDbEntity
  8
01
  6
BYBLOCK
100
AcDbLine
 10
4794.566550305186
 20
-101.2881770524907
 30
0.0000000001127424
 11
4787.859443523999
 21
-101.2881770524907
 31
0.0000000001127424
  0
ARC
  5
CD28
330
18
100
AcDbEntity
  8
01
  6
BYBLOCK
100
AcDbCircle
 10
4794.566550305186
 20
-91.28817705249071
 30
0.0000000001127424
 40
10.00000000000009
100
AcDbArc
 50
64.57753282186054
 51
90.0
  0
LINE
  5
CD29
330
18
100
AcDbEntity
  8
01
  6
CONTINUOUS
100
AcDbLine
 10
4798.359443523999
 20
-99.60297124532144
 30
0.0000000001127424
 11
4787.859443523999
 21
-99.60297124532144
 31
0.0000000001127424
  0
ARC
  5
CD2A
330
18
100
AcDbEntity
  8
01
  6
CONTINUOUS
100
AcDbCircle
 10
4798.398023770913
 20
-99.14083201451467
 30
0.0000000001127424
 40
0.4637468103423796
100
AcDbArc
 50
265.2279066161988
 51
354.2577450626242
  0
LINE
  5
CD2B
330
18
100
AcDbEntity
  8
01
  6
CONTINUOUS
100
AcDbLine
 10
4798.859443523999
 20
-83.80486227894266
 30
0.0000000001127424
 11
4798.859443523999
 21
-98.77149182603853
 31
0.0000000001127424
  0
ARC
  5
CD2C
330
18
100
AcDbEntity
  8
01
  6
CONTINUOUS
100
AcDbCircle
 10
4798.398023770913
 20
-83.43552209046629
 30
0.0000000001127424
 40
0.4637468103423387
100
AcDbArc
 50
5.742254937375811
 51
94.77209338380122
  0
ARC
  5
CD2D
330
18
100
AcDbEntity
  8
01
  6
BYBLOCK
100
AcDbCircle
 10
4794.566550305186
 20
-91.28817705249048
 30
0.0000000001127424
 40
10.00000000000009
100
AcDbArc
 50
270.0
 51
295.4224671781395
  0
LINE
  5
CD2E
330
18
100
AcDbEntity
  8
01
  6
CONTINUOUS
100
AcDbLine
 10
4787.859443523999
 20
-82.97338285965952
 30
0.0000000001127424
 11
4798.359443523999
 21
-82.97338285965952
 31
0.0000000001127424
  0
LINE
  5
CD2F
330
18
100
AcDbEntity
  8
01
100
AcDbLine
 10
5094.859210844508
 20
-95.93882547960675
 30
0.0000000001127424
 11
5094.859210844508
 21
-128.0881770525039
 31
0.0000000001127424
  0
ARC
  5
CD30
330
18
100
AcDbEntity
  8
01
100
AcDbCircle
 10
5093.859210844508
 20
-128.2881770525039
 30
0.0000000001127424
 40
1.0
100
AcDbArc
 50
270.0
 51
0.0
  0
LINE
  5
CD31
330
18
100
AcDbEntity
  8
01
100
AcDbLine
 10
5057.64983813221
 20
-129.2881770525039
 30
0.0000000001127424
 11
5093.859210844508
 21
-129.2881770525037
 31
0.0000000001127424
  0
LINE
  5
CD32
330
18
100
AcDbEntity
  8
01
100
AcDbLine
 10
4766.859443523999
 20
-113.2881770525039
 30
0.0000000001127424
 11
4706.859443523999
 21
-113.2881770525039
 31
0.0000000001127424
  0
LINE
  5
CD33
330
18
100
AcDbEntity
  8
01
100
AcDbLine
 10
4736.859443523999
 20
-83.2881770525039
 30
0.0000000001127424
 11
4736.859443523999
 21
-143.2881770525039
 31
0.0000000001127424
  0
LINE
  5
CD34
330
18
100
AcDbEntity
  8
01
  6
BYBLOCK
100
AcDbLine
 10
5094.859210844508
 20
-66.5060580849256
 30
0.0000000001128561
 11
5094.859210844508
 21
-95.93882547960675
 31
0.0000000001127424
  0
LINE
  5
CD35
330
18
100
AcDbEntity
  8
01
  6
BYBLOCK
100
AcDbLine
 10
5028.559210844508
 20
-55.2881770525039
 30
0.0000000001127424
 11
5057.016107766525
 21
-55.2881770525039
 31
0.0000000001128561
  0
ARC
  5
CD36
330
18
100
AcDbEntity
  8
1HIDDEN
100
AcDbCircle
 10
5093.859210844508
 20
-56.2881770525039
 30
0.0000000001127424
 40
1.0
100
AcDbArc
 50
0.0
 51
90.0
  0
LINE
  5
CD37
330
18
100
AcDbEntity
  8
1HIDDEN
100
AcDbLine
 10
5057.016107766525
 20
-55.2881770525039
 30
0.0000000001128561
 11
5093.859210844508
 21
-55.2881770525039
 31
0.0000000001127424
  0
LINE
  5
CD38
330
18
100
AcDbEntity
  8
1HIDDEN
100
AcDbLine
 10
5094.859210844508
 20
-56.2881770525039
 30
0.0000000001127424
 11
5094.859210844508
 21
-66.5060580849256
 31
0.0000000001128561
  0
LINE
  5
CD39
330
18
100
AcDbEntity
  8
01
100
AcDbLine
 10
4792.859443523999
 20
-35.2881770525039
 30
0.0000000001127424
 11
4778.859443523999
 21
-35.2881770525039
 31
0.0000000001127424
  0
LINE
  5
CD3A
330
18
100
AcDbEntity
  8
01
  6
BYBLOCK
100
AcDbLine
 10
4786.359443523999
 20
-27.38817705250381
 30
0.0000000001127424
 11
4786.359443523999
 21
-157.1881770525038
 31
0.0000000001127424
  0
LINE
  5
CD3B
330
18
100
AcDbEntity
  8
01
  6
BYBLOCK
100
AcDbLine
 10
4786.359443523999
 20
-156.2881770525039
 30
0.0000000001127424
 11
4783.859443523999
 21
-156.2881770525039
 31
0.0000000001127424
  0
LINE
  5
CD3C
330
18
100
AcDbEntity
  8
01
  6
BYBLOCK
100
AcDbLine
 10
4783.859443523999
 20
-156.2881770525039
 30
0.0000000001127424
 11
4783.859443523999
 21
-139.7852333273515
 31
0.0000000001127424
  0
LINE
  5
CD3D
330
18
100
AcDbEntity
  8
01
  6
BYBLOCK
100
AcDbLine
 10
4787.859443523999
 20
-27.38817705250381
 30
0.0000000001127424
 11
4787.859443523999
 21
-157.1881770525038
 31
0.0000000001127424
  0
LINE
  5
CD3E
330
18
100
AcDbEntity
  8
01
  6
BYBLOCK
100
AcDbLine
 10
4787.859443523999
 20
-157.1881770525038
 30
0.0000000001127424
 11
4786.359443523999
 21
-157.1881770525038
 31
0.0000000001127424
  0
LINE
  5
CD3F
330
18
100
AcDbEntity
  8
01
  6
BYBLOCK
100
AcDbLine
 10
4786.359443523999
 20
-28.2881770525039
 30
0.0000000001127424
 11
4783.859443523999
 21
-28.2881770525039
 31
0.0000000001127424
  0
LINE
  5
CD40
330
18
100
AcDbEntity
  8
01
  6
BYBLOCK
100
AcDbLine
 10
4787.859443523999
 20
-27.38817705250381
 30
0.0000000001127424
 11
4786.359443523999
 21
-27.38817705250381
 31
0.0000000001127424
  0
LINE
  5
CD41
330
18
100
AcDbEntity
  8
01
  6
BYBLOCK
100
AcDbLine
 10
4786.359443523999
 20
-52.2881770525039
 30
0.0000000001127424
 11
4785.159443523999
 21
-52.2881770525039
 31
0.0000000001127424
  0
LINE
  5
CD42
330
18
100
AcDbEntity
  8
01
  6
BYBLOCK
100
AcDbLine
 10
4785.159443523999
 20
-46.58817705250362
 30
0.0000000001127424
 11
4785.159443523999
 21
-137.9881770525037
 31
0.0000000001127424
  0
LINE
  5
CD43
330
18
100
AcDbEntity
  8
01
  6
BYBLOCK
100
AcDbLine
 10
4785.059443523999
 20
-156.2881770525039
 30
0.0000000001127424
 11
4785.059443523999
 21
-139.6881770525038
 31
0.0000000001127424
  0
LINE
  5
CD44
330
18
100
AcDbEntity
  8
01
  6
BYBLOCK
100
AcDbLine
 10
4785.059443523999
 20
-139.6881770525038
 30
0.0000000001127424
 11
4786.007971661424
 21
-138.7396489150799
 31
0.0000000001127424
  0
LINE
  5
CD45
330
18
100
AcDbEntity
  8
01
  6
BYBLOCK
100
AcDbLine
 10
4784.210915386576
 20
-138.9367051899276
 30
0.0000000001127424
 11
4785.159443523999
 21
-137.9881770525037
 31
0.0000000001127424
  0
ARC
  5
CD46
330
18
100
AcDbEntity
  8
01
  6
BYBLOCK
100
AcDbCircle
 10
4785.059443523999
 20
-139.7852333273515
 30
0.0000000001127424
 40
1.2
100
AcDbArc
 50
134.9999999999447
 51
180.0
  0
ARC
  5
CD47
330
18
100
AcDbEntity
  8
01
  6
BYBLOCK
100
AcDbCircle
 10
4785.159443523999
 20
-137.8911207776559
 30
0.0000000001127424
 40
1.2
100
AcDbArc
 50
314.9999999999447
 51
0.0
  0
LINE
  5
CD48
330
18
100
AcDbEntity
  8
01
  6
BYBLOCK
100
AcDbLine
 10
4783.859443523999
 20
-28.2881770525039
 30
0.0000000001127424
 11
4783.859443523999
 21
-44.79112077765603
 31
0.0000000001127424
  0
LINE
  5
CD49
330
18
100
AcDbEntity
  8
01
  6
BYBLOCK
100
AcDbLine
 10
4785.059443523999
 20
-28.2881770525039
 30
0.0000000001127424
 11
4785.059443523999
 21
-44.88817705250381
 31
0.0000000001127424
  0
LINE
  5
CD4A
330
18
100
AcDbEntity
  8
01
  6
BYBLOCK
100
AcDbLine
 10
4785.059443523999
 20
-44.88817705250381
 30
0.0000000001127424
 11
4786.007971661424
 21
-45.83670518992767
 31
0.0000000001127424
  0
LINE
  5
CD4B
330
18
100
AcDbEntity
  8
01
  6
BYBLOCK
100
AcDbLine
 10
4784.210915386576
 20
-45.63964891507999
 30
0.0000000001127424
 11
4785.159443523999
 21
-46.58817705250385
 31
0.0000000001127424
  0
ARC
  5
CD4C
330
18
100
AcDbEntity
  8
01
  6
BYBLOCK
100
AcDbCircle
 10
4785.059443523999
 20
-44.79112077765603
 30
0.0000000001127424
 40
1.2
100
AcDbArc
 50
180.0
 51
225.0000000000553
  0
ARC
  5
CD4D
330
18
100
AcDbEntity
  8
01
  6
BYBLOCK
100
AcDbCircle
 10
4785.159443523999
 20
-46.68523332735163
 30
0.0000000001127424
 40
1.2
100
AcDbArc
 50
0.0
 51
45.00000000005527
  0
LINE
  5
CD4E
330
18
100
AcDbEntity
  8
01
  6
BYBLOCK
100
AcDbLine
 10
4785.159443523999
 20
-129.2881770525041
 30
0.0000000001127424
 11
4756.068816236299
 21
-129.2881770525039
 31
0.0000000001127424
  0
LINE
  5
CD4F
330
18
100
AcDbEntity
  8
01
  6
BYBLOCK
100
AcDbLine
 10
4794.566550305186
 20
-81.28817705249071
 30
0.0000000001127424
 11
4787.859443523999
 21
-81.28817705249071
 31
0.0000000001127424
  0
LINE
  5
CD50
330
18
100
AcDbEntity
  8
01
  6
BYBLOCK
100
AcDbLine
 10
4794.566550305186
 20
-101.2881770524907
 30
0.0000000001127424
 11
4787.859443523999
 21
-101.2881770524907
 31
0.0000000001127424
  0
LINE
  5
CD51
330
18
100
AcDbEntity
  8
01
100
AcDbLine
 10
4792.859443523712
 20
-149.2881770522151
 30
0.0000000001127424
 11
4778.859443523712
 21
-149.2881770522151
 31
0.0000000001127424
  0
LINE
  5
CD52
330
18
100
AcDbEntity
  8
01
  6
BYBLOCK
100
AcDbLine
 10
4718.859443523999
 20
-66.5060580849256
 30
0.0000000001128561
 11
4718.859443523999
 21
-95.93882547960675
 31
0.0000000001127424
  0
LINE
  5
CD53
330
18
100
AcDbEntity
  8
01
  6
BYBLOCK
100
AcDbLine
 10
4785.159443523999
 20
-55.2881770525039
 30
0.0000000001127424
 11
4756.702546601982
 21
-55.2881770525039
 31
0.0000000001128561
  0
TEXT
  5
CD56
330
18
100
AcDbEntity
  8
1TEXT
100
AcDbText
 10
4718.859343184253
 20
168.2118229474961
 30
0.0000000001127424
 40
20.0
  1
3-V1C-X-LJ
100
AcDbText
  0
TEXT
  5
CD57
330
18
100
AcDbEntity
  8
1TEXT
100
AcDbText
 10
4731.059343184254
 20
129.9618229474961
 30
0.0000000001127424
 40
6.0
  1
表面処理
 72
     1
 11
4744.959343184253
 21
129.9618229474961
 31
0.0000000001127424
100
AcDbText
  0
TEXT
  5
CD58
330
18
100
AcDbEntity
  8
1TEXT
100
AcDbText
 10
4730.759343184253
 20
119.7088899582093
 30
0.0000000001127424
 40
6.0
  1
クローム
 72
     1
 11
4744.959343184253
 21
119.7088899582093
 31
0.0000000001127424
100
AcDbText
  0
LINE
  5
CD59
330
18
100
AcDbEntity
  8
1DIM
100
AcDbLine
 10
4718.859343184253
 20
138.2118229474961
 30
0.0000000001127424
 11
4823.859343184253
 21
138.2118229474961
 31
0.0000000001127424
  0
LINE
  5
CD5A
330
18
100
AcDbEntity
  8
1DIM
100
AcDbLine
 10
4718.859343184253
 20
127.7118229474961
 30
0.0000000001127424
 11
4823.859343184253
 21
127.7118229474961
 31
0.0000000001127424
  0
LINE
  5
CD5B
330
18
100
AcDbEntity
  8
1DIM
100
AcDbLine
 10
4718.859343184253
 20
117.2118229474961
 30
0.0000000001127424
 11
4823.859343184253
 21
117.2118229474961
 31
0.0000000001127424
  0
LINE
  5
CD5C
330
18
100
AcDbEntity
  8
1DIM
100
AcDbLine
 10
4718.859343184253
 20
117.2118229474961
 30
0.0000000001127424
 11
4823.859343184253
 21
117.2118229474961
 31
0.0000000001127424
  0
LINE
  5
CD5D
330
18
100
AcDbEntity
  8
1DIM
100
AcDbLine
 10
4771.359343184253
 20
138.2118229474961
 30
0.0000000001127424
 11
4771.359343184253
 21
117.2118229474961
 31
0.0000000001127424
  0
TEXT
  5
CD5E
330
18
100
AcDbEntity
  8
1TEXT
100
AcDbText
 10
4777.159343184253
 20
119.1402874720222
 30
0.0000000001127424
 40
6.0
  1
3-V1C-C-LJ
 41
0.6999999999999998
 72
     1
 11
4797.459343184253
 21
119.1402874720222
 31
0.0000000001127424
100
AcDbText
  0
TEXT
  5
CD5F
330
18
100
AcDbEntity
  8
1TEXT
100
AcDbText
 10
4787.159343184253
 20
129.9618229474961
 30
0.0000000001127424
 40
6.0
  1
コード
 72
     1
 11
4797.459343184253
 21
129.9618229474961
 31
0.0000000001127424
100
AcDbText
  0
LINE
  5
CD60
330
18
100
AcDbEntity
  8
1DIM
100
AcDbLine
 10
4823.859343184253
 20
117.2118229474961
 30
0.0000000001127424
 11
4823.859343184253
 21
138.2118229474961
 31
0.0000000001127424
  0
LINE
  5
CD61
330
18
100
AcDbEntity
  8
1DIM
100
AcDbLine
 10
4718.859343184253
 20
117.2118229474961
 30
0.0000000001127424
 11
4823.859343184253
 21
117.2118229474961
 31
0.0000000001127424
  0
LINE
  5
CD62
330
18
100
AcDbEntity
  8
1DIM
100
AcDbLine
 10
4771.359343184253
 20
117.2118229474961
 30
0.0000000001127424
 11
4771.359343184253
 21
106.7118229474961
 31
0.0000000001127424
  0
LINE
  5
CD63
330
18
100
AcDbEntity
  8
1DIM
100
AcDbLine
 10
4718.859343184253
 20
106.7118229474961
 30
0.0000000001127424
 11
4823.859343184253
 21
106.7118229474961
 31
0.0000000001127424
  0
TEXT
  5
CD64
330
18
100
AcDbEntity
  8
1TEXT
100
AcDbText
 10
4720.159343184253
 20
109.2454525301398
 30
0.0000000001127424
 40
6.0
  1
サテンニッケル
 72
     1
 11
4744.959343184253
 21
109.2454525301398
 31
0.0000000001127424
100
AcDbText
  0
LINE
  5
CD65
330
18
100
AcDbEntity
  8
1DIM
100
AcDbLine
 10
4718.859343184253
 20
106.7118229474961
 30
0.0000000001127424
 11
4718.859343184253
 21
117.2118229474961
 31
0.0000000001127424
  0
LINE
  5
CD66
330
18
100
AcDbEntity
  8
1DIM
100
AcDbLine
 10
4823.859343184253
 20
106.7118229474961
 30
0.0000000001127424
 11
4823.859343184253
 21
117.2118229474961
 31
0.0000000001127424
  0
TEXT
  5
CD67
330
18
100
AcDbEntity
  8
1TEXT
100
AcDbText
 10
4777.159343184253
 20
108.6402874720222
 30
0.0000000001127424
 40
6.0
  1
3-V1C-N-LJ
 41
0.6999999999999998
 72
     1
 11
4797.459343184253
 21
108.6402874720222
 31
0.0000000001127424
100
AcDbText
  0
LINE
  5
CD68
330
18
100
AcDbEntity
  8
1DIM
100
AcDbLine
 10
4718.859343184253
 20
117.2118229474961
 30
0.0000000001127424
 11
4718.859343184253
 21
138.2118229474961
 31
0.0000000001127424
  0
LINE
  5
CD6F
330
18
100
AcDbEntity
  8
01
100
AcDbLine
 10
5052.859210844508
 20
128.2118229474961
 30
0.0000000001127424
 11
5100.859210844508
 21
128.2118229474961
 31
0.0000000001127424
  0
LINE
  5
CD70
330
18
100
AcDbEntity
  8
01
100
AcDbLine
 10
5051.859210844508
 20
136.7118229474961
 30
0.0000000001127424
 11
5051.859210844508
 21
129.2118229474961
 31
0.0000000001127424
  0
ARC
  5
CD71
330
18
100
AcDbEntity
  8
01
100
AcDbCircle
 10
5052.859210844508
 20
129.2118229474961
 30
0.0000000001127424
 40
1.0
100
AcDbArc
 50
180.0
 51
270.0
  0
LINE
  5
CD72
330
18
100
AcDbEntity
  8
01
100
AcDbLine
 10
5101.859210844508
 20
136.7118229474961
 30
0.0000000001127424
 11
5101.859210844508
 21
129.2118229474961
 31
0.0000000001127424
  0
ARC
  5
CD73
330
18
100
AcDbEntity
  8
01
100
AcDbCircle
 10
5100.859210844508
 20
129.2118229474961
 30
0.0000000001127424
 40
1.0
100
AcDbArc
 50
270.0
 51
0.0
  0
ARC
  5
CD74
330
18
100
AcDbEntity
  8
01
100
AcDbCircle
 10
5076.859210844508
 20
-113.2868587394012
 30
0.0000000001127424
 40
25.0
100
AcDbArc
 50
22.33368265780555
 51
337.6663173421945
  0
LINE
  5
CD76
330
18
100
AcDbEntity
  8
01
100
AcDbLine
 10
4926.859210844508
 20
-88.28685873940117
 30
0.0000000001127424
 11
4926.859210844508
 21
-138.2868587394012
 31
0.0000000001127424
  0
LINE
  5
CD77
330
18
100
AcDbEntity
  8
01
100
AcDbLine
 10
4935.359210844508
 20
-137.2868587394012
 30
0.0000000001127424
 11
4935.359210844508
 21
-89.28685873940117
 31
0.0000000001127424
  0
LINE
  5
CD78
330
18
100
AcDbEntity
  8
01
100
AcDbLine
 10
4926.859210844508
 20
-138.2868587394012
 30
0.0000000001127424
 11
4934.359210844508
 21
-138.2868587394012
 31
0.0000000001127424
  0
ARC
  5
CD79
330
18
100
AcDbEntity
  8
01
100
AcDbCircle
 10
4934.359210844508
 20
-137.2868587394012
 30
0.0000000001127424
 40
1.0
100
AcDbArc
 50
270.0
 51
0.0
  0
LINE
  5
CD7A
330
18
100
AcDbEntity
  8
01
100
AcDbLine
 10
4926.859210844508
 20
-88.28685873940117
 30
0.0000000001127424
 11
4934.359210844508
 21
-88.28685873940117
 31
0.0000000001127424
  0
ARC
  5
CD7B
330
18
100
AcDbEntity
  8
01
100
AcDbCircle
 10
4934.359210844508
 20
-89.28685873940117
 30
0.0000000001127424
 40
1.0
100
AcDbArc
 50
0.0
 51
90.0
  0
POINT
  5
CD7C
330
18
100
AcDbEntity
  8
01
100
AcDbPoint
 10
4941.359210844508
 20
-113.2868587394012
 30
0.0000000001127424
  0
LINE
  5
CD7D
330
18
100
AcDbEntity
  8
01
100
AcDbLine
 10
4940.95921083451
 20
-115.0368587394012
 30
0.0000000001127424
 11
4940.95921083451
 21
-114.186858719401
 31
0.0000000001127424
  0
LINE
  5
CD7E
330
18
100
AcDbEntity
  8
01
100
AcDbLine
 10
4941.75921085451
 20
-115.0368587394012
 30
0.0000000001127424
 11
4941.75921085451
 21
-114.186858719401
 31
0.0000000001127424
  0
LINE
  5
CD7F
330
18
100
AcDbEntity
  8
01
100
AcDbLine
 10
4940.459210864508
 20
-113.6868587494016
 30
0.0000000001127424
 11
4939.609210844508
 21
-113.6868587494016
 31
0.0000000001127424
  0
LINE
  5
CD80
330
18
100
AcDbEntity
  8
01
100
AcDbLine
 10
4940.459210864508
 20
-112.8868587294016
 30
0.0000000001127424
 11
4939.609210844508
 21
-112.8868587294016
 31
0.0000000001127424
  0
LINE
  5
CD81
330
18
100
AcDbEntity
  8
01
100
AcDbLine
 10
4939.609210844508
 20
-113.6868587494016
 30
0.0000000001127424
 11
4939.609210844508
 21
-112.8868587294016
 31
0.0000000001127424
  0
LINE
  5
CD82
330
18
100
AcDbEntity
  8
01
100
AcDbLine
 10
4941.75921085451
 20
-115.0368587394012
 30
0.0000000001127424
 11
4940.95921083451
 21
-115.0368587394012
 31
0.0000000001127424
  0
LINE
  5
CD83
330
18
100
AcDbEntity
  8
01
100
AcDbLine
 10
4941.75921085451
 20
-111.5368587394012
 30
0.0000000001127424
 11
4941.75921085451
 21
-112.3868587594013
 31
0.0000000001127424
  0
LINE
  5
CD84
330
18
100
AcDbEntity
  8
01
100
AcDbLine
 10
4940.95921083451
 20
-111.5368587394012
 30
0.0000000001127424
 11
4940.95921083451
 21
-112.3868587594013
 31
0.0000000001127424
  0
LINE
  5
CD85
330
18
100
AcDbEntity
  8
01
100
AcDbLine
 10
4942.259210824508
 20
-112.8868587294016
 30
0.0000000001127424
 11
4943.109210844508
 21
-112.8868587294016
 31
0.0000000001127424
  0
LINE
  5
CD86
330
18
100
AcDbEntity
  8
01
100
AcDbLine
 10
4942.259210824508
 20
-113.6868587494016
 30
0.0000000001127424
 11
4943.109210844508
 21
-113.6868587494016
 31
0.0000000001127424
  0
LINE
  5
CD87
330
18
100
AcDbEntity
  8
01
100
AcDbLine
 10
4943.109210844508
 20
-112.8868587294016
 30
0.0000000001127424
 11
4943.109210844508
 21
-113.6868587494016
 31
0.0000000001127424
  0
LINE
  5
CD88
330
18
100
AcDbEntity
  8
01
100
AcDbLine
 10
4940.95921083451
 20
-111.5368587394012
 30
0.0000000001127424
 11
4941.75921085451
 21
-111.5368587394012
 31
0.0000000001127424
  0
CIRCLE
  5
CD89
330
18
100
AcDbEntity
  8
01
100
AcDbCircle
 10
4941.359210844508
 20
-113.2868587394012
 30
0.0000000001127424
 40
2.5
  0
ARC
  5
CD8A
330
18
100
AcDbEntity
  8
01
100
AcDbCircle
 10
4942.259210824508
 20
-112.3868587594013
 30
0.0000000001127424
 40
0.5
100
AcDbArc
 50
179.999989999999
 51
270.0
  0
ARC
  5
CD8B
330
18
100
AcDbEntity
  8
01
100
AcDbCircle
 10
4942.259210824508
 20
-114.186858719401
 30
0.0000000001127424
 40
0.5
100
AcDbArc
 50
90.00000299998466
 51
180.000010000001
  0
ARC
  5
CD8C
330
18
100
AcDbEntity
  8
01
100
AcDbCircle
 10
4940.459210864508
 20
-114.186858719401
 30
0.0000000001127424
 40
0.5
100
AcDbArc
 50
0.0
 51
90.00000299998466
  0
ARC
  5
CD8D
330
18
100
AcDbEntity
  8
01
100
AcDbCircle
 10
4940.459210864508
 20
-112.3868587594013
 30
0.0000000001127424
 40
0.5
100
AcDbArc
 50
270.0
 51
0.0
  0
LINE
  5
CD8F
330
18
100
AcDbEntity
  8
1CENTER
100
AcDbLine
 10
4941.359210844508
 20
-119.2868587394012
 30
0.0000000001127424
 11
4941.359210844508
 21
-107.2868587394012
 31
0.0000000001127424
  0
LINE
  5
CD90
330
18
100
AcDbEntity
  8
01
100
AcDbLine
 10
4924.730925462078
 20
-113.2868587394012
 30
0.0000000001127424
 11
4947.359210844508
 21
-113.2868587394012
 31
0.0000000001127424
  0
LINE
  5
CD91
330
18
100
AcDbEntity
  8
01
100
AcDbLine
 10
5051.859210844508
 20
136.7118229474961
 30
0.0000000001127424
 11
5101.859210844508
 21
136.7118229474961
 31
0.0000000001127424
  0
LINE
  5
CD92
330
18
100
AcDbEntity
  8
1CENTER
100
AcDbLine
 10
5060.775536080568
 20
122.211830980749
 30
0.0000000001127424
 11
5068.909208442416
 21
122.2118229474988
 31
0.0000000001127424
  0
LINE
  5
CD93
330
18
100
AcDbEntity
  8
01
100
AcDbLine
 10
5076.859210844508
 20
141.7118229474961
 30
0.0000000001127424
 11
5076.859210844508
 21
115.2118229474961
 31
0.0000000001127424
  0
LINE
  5
CD99
330
18
100
AcDbEntity
  8
01
100
AcDbLine
 10
5046.859210844508
 20
-113.2868587394012
 30
0.0000000001127424
 11
5106.859210844508
 21
-113.2868587394012
 31
0.0000000001127424
  0
LINE
  5
CD9A
330
18
100
AcDbEntity
  8
01
100
AcDbLine
 10
5076.859210844508
 20
-83.28685873940117
 30
0.0000000001127424
 11
5076.859210844508
 21
-143.2868587394012
 31
0.0000000001127424
  0
LINE
  5
CD9B
330
18
100
AcDbEntity
  8
01
100
AcDbLine
 10
5087.497455300596
 20
99.2118229474961
 30
0.0000000001127424
 11
5181.859210844509
 21
99.2118229474961
 31
0.0000000001127424
  0
LINE
  5
CD9C
330
18
100
AcDbEntity
  8
01
100
AcDbLine
 10
5068.471139511121
 20
80.2118229474961
 30
0.0000000001127424
 11
5181.859210844509
 21
80.2118229474961
 31
0.0000000001127424
  0
ARC
  5
CD9D
330
18
100
AcDbEntity
  8
01
100
AcDbCircle
 10
5068.471139511121
 20
81.2118229474961
 30
0.0000000001127424
 40
1.0
100
AcDbArc
 50
180.7538483330612
 51
270.0
  0
LINE
  5
CD9E
330
18
100
AcDbEntity
  8
01
100
AcDbLine
 10
5086.484210844508
 20
99.2118229474961
 30
0.0000000001127424
 11
5067.770598601296
 21
80.49821070428493
 31
0.0000000001127424
  0
LINE
  5
CD9F
330
18
100
AcDbEntity
  8
01
100
AcDbLine
 10
5067.471226064979
 20
81.19866619162599
 30
0.0000000001127424
 11
5066.859210844507
 21
127.7118229474961
 31
0.0000000001127424
  0
LINE
  5
CDA0
330
18
100
AcDbEntity
  8
01
100
AcDbLine
 10
5086.497541854455
 20
100.2249797033667
 30
0.0000000001127424
 11
5086.859210844508
 21
127.7118229474961
 31
0.0000000001127424
  0
LINE
  5
CDA1
330
18
100
AcDbEntity
  8
01
100
AcDbLine
 10
5086.859210844508
 20
127.7118229474961
 30
0.0000000001127424
 11
5066.859210844507
 21
127.7118229474961
 31
0.0000000001127424
  0
ARC
  5
CDA2
330
18
100
AcDbEntity
  8
01
100
AcDbCircle
 10
5087.497455300596
 20
100.2118229474961
 30
0.0000000001127424
 40
1.0
100
AcDbArc
 50
179.2461516669388
 51
270.0
  0
ARC
  5
CDA3
330
18
100
AcDbEntity
  8
01
100
AcDbCircle
 10
5181.859210844509
 20
81.2118229474961
 30
0.0000000001127424
 40
1.0
100
AcDbArc
 50
270.0
 51
0.0
  0
LINE
  5
CDA4
330
18
100
AcDbEntity
  8
01
100
AcDbLine
 10
5182.859210844509
 20
98.2118229474961
 30
0.0000000001127424
 11
5182.859210844509
 21
81.2118229474961
 31
0.0000000001127424
  0
ARC
  5
CDA5
330
18
100
AcDbEntity
  8
01
100
AcDbCircle
 10
5181.859210844509
 20
98.2118229474961
 30
0.0000000001127424
 40
1.0
100
AcDbArc
 50
0.0
 51
90.0
  0
ARC
  5
CDA6
330
18
100
AcDbEntity
  8
01
100
AcDbCircle
 10
5101.359210844508
 20
128.8118236905905
 30
0.0000000001127424
 40
0.5
100
AcDbArc
 50
270.0
 51
0.0
  0
LINE
  5
CDA7
330
18
100
AcDbEntity
  8
1CENTER
100
AcDbLine
 10
5076.859210844508
 20
-119.2868587394012
 30
0.0000000001127424
 11
5076.859210844508
 21
-107.2868587394012
 31
0.0000000001127424
  0
LINE
  5
CDA8
330
18
100
AcDbEntity
  8
1CENTER
100
AcDbLine
 10
5070.859210844508
 20
-113.2868587394012
 30
0.0000000001127424
 11
5082.859210844508
 21
-113.2868587394012
 31
0.0000000001127424
  0
LINE
  5
CDA9
330
18
100
AcDbEntity
  8
01
100
AcDbLine
 10
5076.859210844509
 20
-103.7868587394012
 30
0.0000000001127424
 11
5181.859210844509
 21
-103.7868587394012
 31
0.0000000001127424
  0
LINE
  5
CDAA
330
18
100
AcDbEntity
  8
01
100
AcDbLine
 10
5076.859210844508
 20
-122.7868587394012
 30
0.0000000001127424
 11
5181.859210844508
 21
-122.7868587394012
 31
0.0000000001127424
  0
ELLIPSE
  5
CDAB
330
18
100
AcDbEntity
  8
01
100
AcDbEllipse
 10
5076.859210844508
 20
-113.2868587394012
 30
0.0000000001127424
 11
-9.626666666667004
 21
0.0
 31
0.0
210
0.0
220
0.0
230
1.0
 40
0.9868421052631231
 41
4.71238898038469
 42
7.853981633974483
  0
LINE
  5
CDAC
330
18
100
AcDbEntity
  8
01
100
AcDbLine
 10
5182.859210844509
 20
-104.7868587394012
 30
0.0000000001127424
 11
5182.859210844508
 21
-121.7868587394012
 31
0.0000000001127424
  0
ARC
  5
CDAD
330
18
100
AcDbEntity
  8
01
100
AcDbCircle
 10
5181.859210844508
 20
-121.7868587394012
 30
0.0000000001127424
 40
1.0
100
AcDbArc
 50
270.0
 51
0.0
  0
ARC
  5
CDAE
330
18
100
AcDbEntity
  8
01
100
AcDbCircle
 10
5181.859210844509
 20
-104.7868587394012
 30
0.0000000001127424
 40
1.0
100
AcDbArc
 50
0.0
 51
90.0
  0
ARC
  5
CDAF
330
18
100
AcDbEntity
  8
01
100
AcDbCircle
 10
4973.959211587603
 20
-113.2868587394012
 30
0.0000000001127424
 40
9.5
100
AcDbArc
 50
270.0
 51
90.0
  0
LINE
  5
CDB0
330
18
100
AcDbEntity
  8
01
100
AcDbLine
 10
4935.859210844508
 20
-123.2868587394012
 30
0.0000000001127424
 11
4935.859210844507
 21
-103.2868587394003
 31
0.0000000001127424
  0
LINE
  5
CDB1
330
18
100
AcDbEntity
  8
01
100
AcDbLine
 10
4973.959211587603
 20
-103.7868587394012
 30
0.0000000001127424
 11
4935.959211587603
 21
-103.2868587394003
 31
0.0000000001127424
  0
LINE
  5
CDB2
330
18
100
AcDbEntity
  8
01
100
AcDbLine
 10
4973.959211587602
 20
-122.7868587394012
 30
0.0000000001127424
 11
4935.959211587603
 21
-123.2868587394003
 31
0.0000000001127424
  0
ARC
  5
CDB3
330
18
100
AcDbEntity
  8
01
100
AcDbCircle
 10
4736.859443523997
 20
-113.2868587394012
 30
0.0000000001127424
 40
25.0
100
AcDbArc
 50
202.3336826577935
 51
157.6663173422065
  0
LINE
  5
CDB4
330
18
100
AcDbEntity
  8
01
100
AcDbLine
 10
4766.859443523997
 20
-113.2868587394012
 30
0.0000000001127424
 11
4706.859443523997
 21
-113.2868587394012
 31
0.0000000001127424
  0
LINE
  5
CDB5
330
18
100
AcDbEntity
  8
01
100
AcDbLine
 10
4736.859443523997
 20
-83.28685873940117
 30
0.0000000001127424
 11
4736.859443523997
 21
-143.2868587394012
 31
0.0000000001127424
  0
LINE
  5
CDB6
330
18
100
AcDbEntity
  8
1CENTER
100
AcDbLine
 10
4736.859443523997
 20
-119.2868587394012
 30
0.0000000001127424
 11
4736.859443523997
 21
-107.2868587394012
 31
0.0000000001127424
  0
LINE
  5
CDB7
330
18
100
AcDbEntity
  8
1CENTER
100
AcDbLine
 10
4742.859443523997
 20
-113.2868587394012
 30
0.0000000001127424
 11
4730.859443523997
 21
-113.2868587394012
 31
0.0000000001127424
  0
LINE
  5
CDB8
330
18
100
AcDbEntity
  8
01
100
AcDbLine
 10
4736.859443523997
 20
-103.7868587394012
 30
0.0000000001127424
 11
4631.859443523997
 21
-103.7868587394012
 31
0.0000000001127424
  0
LINE
  5
CDB9
330
18
100
AcDbEntity
  8
01
100
AcDbLine
 10
4736.859443523997
 20
-122.7868587394012
 30
0.0000000001127424
 11
4631.859443523997
 21
-122.7868587394012
 31
0.0000000001127424
  0
ELLIPSE
  5
CDBA
330
18
100
AcDbEntity
  8
01
100
AcDbEllipse
 10
4736.859443523997
 20
-113.2868587394012
 30
0.0000000001127424
 11
9.626666666667004
 21
0.0
 31
0.0
210
0.0
220
0.0
230
-1.0
 40
0.9868421052631231
 41
4.71238898038469
 42
7.853981633974483
  0
LINE
  5
CDBB
330
18
100
AcDbEntity
  8
01
100
AcDbLine
 10
4630.859443523997
 20
-104.7868587394012
 30
0.0000000001127424
 11
4630.859443523997
 21
-121.7868587394012
 31
0.0000000001127424
  0
ARC
  5
CDBC
330
18
100
AcDbEntity
  8
01
100
AcDbCircle
 10
4631.859443523997
 20
-121.7868587394012
 30
0.0000000001127424
 40
1.0
100
AcDbArc
 50
180.0
 51
270.0
  0
ARC
  5
CDBD
330
18
100
AcDbEntity
  8
01
100
AcDbCircle
 10
4631.859443523997
 20
-104.7868587394012
 30
0.0000000001127424
 40
1.0
100
AcDbArc
 50
90.0
 51
180.0
  0
ARC
  5
CDBE
330
18
100
AcDbEntity
  8
01
100
AcDbCircle
 10
4839.759442780903
 20
-113.2868587394012
 30
0.0000000001127424
 40
9.5
100
AcDbArc
 50
90.0
 51
270.0
  0
LINE
  5
CDBF
330
18
100
AcDbEntity
  8
01
100
AcDbLine
 10
4877.859443523997
 20
-123.2868587394012
 30
0.0000000001127424
 11
4877.859443523998
 21
-103.2868587394003
 31
0.0000000001127424
  0
LINE
  5
CDC0
330
18
100
AcDbEntity
  8
01
100
AcDbLine
 10
4839.759442780903
 20
-103.7868587394012
 30
0.0000000001127424
 11
4877.759442780903
 21
-103.2868587394003
 31
0.0000000001127424
  0
LINE
  5
CDC1
330
18
100
AcDbEntity
  8
01
100
AcDbLine
 10
4839.759442780904
 20
-122.7868587394012
 30
0.0000000001127424
 11
4877.759442780903
 21
-123.2868587394003
 31
0.0000000001127424
  0
LINE
  5
CDC2
330
18
100
AcDbEntity
  8
01
100
AcDbLine
 10
4926.85921084451
 20
6.711822947495875
 30
0.0000000001127424
 11
4926.85921084451
 21
-183.2881770525044
 31
0.0000000001127424
  0
LINE
  5
CDC3
330
18
100
AcDbEntity
  8
01
100
AcDbLine
 10
5025.860095026568
 20
136.7118229464675
 30
0.0000000001127424
 11
5179.614475181601
 21
136.7118229464675
 31
0.0000000001127424
  0
LINE
  5
CDC4
330
18
100
AcDbEntity
  8
1CENTER
100
AcDbLine
 10
5060.775536080568
 20
191.2118149121859
 30
0.0000000001127424
 11
5068.909208442416
 21
191.2118229454361
 31
0.0000000001127424
  0
LINE
  5
CDC5
330
18
100
AcDbEntity
  8
01
100
AcDbLine
 10
5087.497455300596
 20
214.2118229454388
 30
0.0000000001127424
 11
5181.859210844509
 21
214.2118229454388
 31
0.0000000001127424
  0
LINE
  5
CDC6
330
18
100
AcDbEntity
  8
01
100
AcDbLine
 10
5068.471139511121
 20
233.2118229454388
 30
0.0000000001127424
 11
5181.859210844509
 21
233.2118229454388
 31
0.0000000001127424
  0
ARC
  5
CDC7
330
18
100
AcDbEntity
  8
01
100
AcDbCircle
 10
5068.471139511121
 20
232.2118229454388
 30
0.0000000001127424
 40
1.0
100
AcDbArc
 50
90.0
 51
179.2461516669388
  0
LINE
  5
CDC8
330
18
100
AcDbEntity
  8
01
100
AcDbLine
 10
5086.484210844508
 20
214.2118229454388
 30
0.0000000001127424
 11
5067.770598601296
 21
232.92543518865
 31
0.0000000001127424
  0
LINE
  5
CDC9
330
18
100
AcDbEntity
  8
01
100
AcDbLine
 10
5067.471226064979
 20
232.2249797013089
 30
0.0000000001127424
 11
5066.859210844507
 21
185.7118229454388
 31
0.0000000001127424
  0
LINE
  5
CDCA
330
18
100
AcDbEntity
  8
01
100
AcDbLine
 10
5086.497541854455
 20
213.1986661895683
 30
0.0000000001127424
 11
5086.859210844508
 21
185.7118229454388
 31
0.0000000001127424
  0
LINE
  5
CDCB
330
18
100
AcDbEntity
  8
01
100
AcDbLine
 10
5086.859210844508
 20
185.7118229454388
 30
0.0000000001127424
 11
5079.359327250349
 21
185.7118229454388
 31
0.0000000001127424
  0
LINE
  5
CDCC
330
18
100
AcDbEntity
  8
01
100
AcDbLine
 10
5074.35933914911
 20
185.7118229454388
 30
0.0000000001127424
 11
5066.859210844507
 21
185.7118229454388
 31
0.0000000001127424
  0
ARC
  5
CDCD
330
18
100
AcDbEntity
  8
01
100
AcDbCircle
 10
5087.497455300596
 20
213.2118229454388
 30
0.0000000001127424
 40
1.0
100
AcDbArc
 50
90.0
 51
180.7538483330612
  0
ARC
  5
CDCE
330
18
100
AcDbEntity
  8
01
100
AcDbCircle
 10
5181.859210844509
 20
232.2118229454388
 30
0.0000000001127424
 40
1.0
100
AcDbArc
 50
0.0
 51
90.0
  0
LINE
  5
CDCF
330
18
100
AcDbEntity
  8
01
100
AcDbLine
 10
5182.859210844509
 20
215.2118229454388
 30
0.0000000001127424
 11
5182.859210844509
 21
232.2118229454388
 31
0.0000000001127424
  0
ARC
  5
CDD0
330
18
100
AcDbEntity
  8
01
100
AcDbCircle
 10
5181.859210844509
 20
215.2118229454388
 30
0.0000000001127424
 40
1.0
100
AcDbArc
 50
270.0
 51
0.0
  0
LINE
  5
E322
330
18
100
AcDbEntity
  8
01
100
AcDbLine
 10
4716.85932318425
 20
-57.78817705250367
 30
0.0000000001127424
 11
4716.85932318425
 21
-28.98817705250367
 31
0.0000000001127424
1001
ACAD
1000
DSTYLE
1002
{
1070
     3
1000
φ<>
1070
    40
1040
1.3
1070
    45
1040
0.5
1070
   271
1070
     4
1070
   272
1070
     2
1002
}
  0
LINE
  5
E323
330
18
100
AcDbEntity
  8
01
100
AcDbLine
 10
4756.85932318425
 20
-57.78817705250367
 30
0.0000000001127424
 11
4756.85932318425
 21
-28.98817705250367
 31
0.0000000001127424
1001
ACAD
1000
DSTYLE
1002
{
1070
     3
1000
φ<>
1070
    40
1040
1.3
1070
    45
1040
0.5
1070
   271
1070
     4
1070
   272
1070
     2
1002
}
  0
LINE
  5
E324
330
18
100
AcDbEntity
  8
01
100
AcDbLine
 10
4719.45932318425
 20
-30.28817705250367
 30
0.0000000001127424
 11
4754.259323184249
 21
-30.28817705250367
 31
0.0000000001127424
1001
ACAD
1000
DSTYLE
1002
{
1070
     3
1000
φ<>
1070
    40
1040
1.3
1070
    45
1040
0.5
1070
   271
1070
     4
1070
   272
1070
     2
1002
}
  0
LINE
  5
E328
330
18
100
AcDbEntity
  8
01
100
AcDbLine
 10
4886.859327184255
 20
-37.78817705250367
 30
0.0000000001127424
 11
4886.859327184255
 21
-5.988177052503669
 31
0.0000000001127424
1001
ACAD
1000
DSTYLE
1002
{
1070
    40
1040
1.3
1070
    45
1040
0.5
1070
   341
1005
0
1002
}
  0
LINE
  5
E329
330
18
100
AcDbEntity
  8
01
100
AcDbLine
 10
4864.858941618535
 20
-53.28818205250263
 30
0.0000000001127424
 11
4864.858941618535
 21
-5.988177052503673
 31
0.0000000001127424
1001
ACAD
1000
DSTYLE
1002
{
1070
    40
1040
1.3
1070
    45
1040
0.5
1070
   341
1005
0
1002
}
  0
LINE
  5
E32A
330
18
100
AcDbEntity
  8
01
100
AcDbLine
 10
4884.259327184254
 20
-7.28817705250367
 30
0.0000000001127424
 11
4867.458941618535
 21
-7.28817705250367
 31
0.0000000001127424
1001
ACAD
1000
DSTYLE
1002
{
1070
    40
1040
1.3
1070
    45
1040
0.5
1070
   341
1005
0
1002
}
  0
LINE
  5
E32E
330
18
100
AcDbEntity
  8
01
100
AcDbLine
 10
5056.859210522049
 20
-57.78817705250367
 30
0.0000000001127424
 11
5056.859210522049
 21
-28.98817705250367
 31
0.0000000001127424
1001
ACAD
1000
DSTYLE
1002
{
1070
     3
1000
φ<>
1070
    40
1040
1.3
1070
    45
1040
0.5
1070
   271
1070
     4
1070
   272
1070
     2
1002
}
  0
LINE
  5
E32F
330
18
100
AcDbEntity
  8
01
100
AcDbLine
 10
5096.859210522049
 20
-57.78817705250367
 30
0.0000000001127424
 11
5096.859210522049
 21
-28.98817705250367
 31
0.0000000001127424
1001
ACAD
1000
DSTYLE
1002
{
1070
     3
1000
φ<>
1070
    40
1040
1.3
1070
    45
1040
0.5
1070
   271
1070
     4
1070
   272
1070
     2
1002
}
  0
LINE
  5
E330
330
18
100
AcDbEntity
  8
01
100
AcDbLine
 10
5059.459210522049
 20
-30.28817705250367
 30
0.0000000001127424
 11
5094.259210522048
 21
-30.28817705250367
 31
0.0000000001127424
1001
ACAD
1000
DSTYLE
1002
{
1070
     3
1000
φ<>
1070
    40
1040
1.3
1070
    45
1040
0.5
1070
   271
1070
     4
1070
   272
1070
     2
1002
}
  0
LINE
  5
E334
330
18
100
AcDbEntity
  8
01
100
AcDbLine
 10
4716.85932318425
 20
-57.78817705250367
 30
0.0000000001127424
 11
4716.85932318425
 21
-28.98817705250367
 31
0.0000000001127424
1001
ACAD
1000
DSTYLE
1002
{
1070
     3
1000
φ<>
1070
    40
1040
1.3
1070
    45
1040
0.5
1070
   271
1070
     4
1070
   272
1070
     2
1002
}
  0
LINE
  5
E335
330
18
100
AcDbEntity
  8
01
100
AcDbLine
 10
4756.85932318425
 20
-57.78817705250367
 30
0.0000000001127424
 11
4756.85932318425
 21
-28.98817705250367
 31
0.0000000001127424
1001
ACAD
1000
DSTYLE
1002
{
1070
     3
1000
φ<>
1070
    40
1040
1.3
1070
    45
1040
0.5
1070
   271
1070
     4
1070
   272
1070
     2
1002
}
  0
LINE
  5
E336
330
18
100
AcDbEntity
  8
01
100
AcDbLine
 10
4719.45932318425
 20
-30.28817705250367
 30
0.0000000001127424
 11
4754.259323184249
 21
-30.28817705250367
 31
0.0000000001127424
1001
ACAD
1000
DSTYLE
1002
{
1070
     3
1000
φ<>
1070
    40
1040
1.3
1070
    45
1040
0.5
1070
   271
1070
     4
1070
   272
1070
     2
1002
}
  0
LINE
  5
E33A
330
18
100
AcDbEntity
  8
01
100
AcDbLine
 10
4886.859327184255
 20
-37.78817705250367
 30
0.0000000001127424
 11
4886.859327184255
 21
-5.988177052503669
 31
0.0000000001127424
1001
ACAD
1000
DSTYLE
1002
{
1070
    40
1040
1.3
1070
    45
1040
0.5
1070
   341
1005
0
1002
}
  0
LINE
  5
E33B
330
18
100
AcDbEntity
  8
01
100
AcDbLine
 10
4864.859302373243
 20
-54.66770722772776
 30
0.0000000001127424
 11
4864.859302373243
 21
-5.988177052503673
 31
0.0000000001127424
1001
ACAD
1000
DSTYLE
1002
{
1070
    40
1040
1.3
1070
    45
1040
0.5
1070
   341
1005
0
1002
}
  0
LINE
  5
E33C
330
18
100
AcDbEntity
  8
01
100
AcDbLine
 10
4884.259327184254
 20
-7.28817705250367
 30
0.0000000001127424
 11
4867.459302373243
 21
-7.28817705250367
 31
0.0000000001127424
1001
ACAD
1000
DSTYLE
1002
{
1070
    40
1040
1.3
1070
    45
1040
0.5
1070
   341
1005
0
1002
}
  0
LINE
  5
E340
330
18
100
AcDbEntity
  8
01
100
AcDbLine
 10
4926.859327184254
 20
-37.78817705250367
 30
0.0
 11
4926.859327184254
 21
-5.988177052503669
 31
0.0
1001
ACAD
1000
DSTYLE
1002
{
1070
    40
1040
1.3
1070
    45
1040
0.5
1070
   271
1070
     1
1070
   341
1005
0
1002
}
  0
LINE
  5
E341
330
18
100
AcDbEntity
  8
01
100
AcDbLine
 10
4935.027910873215
 20
-63.28817548481152
 30
0.0
 11
4935.027910873215
 21
-5.988177052503673
 31
0.0
1001
ACAD
1000
DSTYLE
1002
{
1070
    40
1040
1.3
1070
    45
1040
0.5
1070
   271
1070
     1
1070
   341
1005
0
1002
}
  0
LINE
  5
E342
330
18
100
AcDbEntity
  8
01
100
AcDbLine
 10
4929.459327184254
 20
-7.28817705250367
 30
0.0
 11
4932.427910873214
 21
-7.28817705250367
 31
0.0
1001
ACAD
1000
DSTYLE
1002
{
1070
    40
1040
1.3
1070
    45
1040
0.5
1070
   271
1070
     1
1070
   341
1005
0
1002
}
  0
TEXT
  5
E346
330
18
100
AcDbEntity
  8
01
  6
CONTINUOUS
100
AcDbText
 10
4987.862371937526
 20
99.29515627980079
 30
0.0000000001127424
 40
4.55
  1
材質：亜鉛ダイキャスト
100
AcDbText
  0
TEXT
  5
E347
330
18
100
AcDbEntity
  8
01
  6
CONTINUOUS
100
AcDbText
 10
4998.17570527086
 20
91.71182294646746
 30
0.0000000001127424
 40
4.55
  1
仕上げ：各種メッキ
100
AcDbText
  0
LINE
  5
E348
330
18
100
AcDbEntity
  8
01
100
AcDbLine
 10
5014.859210844508
 20
-85.28817775063521
 30
0.0000000001127424
 11
5014.859210844508
 21
17.4333150321841
 31
0.0000000001127424
1001
ACAD
1000
DSTYLE
1002
{
1070
    40
1040
1.3
1070
    45
1040
0.5
1002
}
  0
LINE
  5
E349
330
18
100
AcDbEntity
  8
01
100
AcDbLine
 10
5025.859210844508
 20
-27.41685970134631
 30
0.0000000001127424
 11
5025.859210844508
 21
17.4333150321841
 31
0.0000000001127424
1001
ACAD
1000
DSTYLE
1002
{
1070
    40
1040
1.3
1070
    45
1040
0.5
1002
}
  0
LINE
  5
E34A
330
18
100
AcDbEntity
  8
01
100
AcDbLine
 10
5017.459210844509
 20
16.1333150321841
 30
0.0000000001127424
 11
5023.259210844508
 21
16.1333150321841
 31
0.0000000001127424
1001
ACAD
1000
DSTYLE
1002
{
1070
    40
1040
1.3
1070
    45
1040
0.5
1002
}
  0
LINE
  5
E34E
330
18
100
AcDbEntity
  8
01
100
AcDbLine
 10
5094.859210844508
 20
-55.2881770525039
 30
0.0000000001127424
 11
5123.159210844508
 21
-55.2881770525039
 31
0.0000000001127424
1001
ACAD
1000
DSTYLE
1002
{
1070
    40
1040
1.3
1070
    45
1040
0.5
1002
}
  0
LINE
  5
E34F
330
18
100
AcDbEntity
  8
01
100
AcDbLine
 10
5094.859210844508
 20
-129.2881770525044
 30
0.0000000001127424
 11
5123.159210844508
 21
-129.2881770525044
 31
0.0000000001127424
1001
ACAD
1000
DSTYLE
1002
{
1070
    40
1040
1.3
1070
    45
1040
0.5
1002
}
  0
LINE
  5
E350
330
18
100
AcDbEntity
  8
01
100
AcDbLine
 10
5121.859210844508
 20
-57.88817705250391
 30
0.0000000001127424
 11
5121.859210844508
 21
-126.6881770525044
 31
0.0000000001127424
1001
ACAD
1000
DSTYLE
1002
{
1070
    40
1040
1.3
1070
    45
1040
0.5
1002
}
  0
LINE
  5
E354
330
18
100
AcDbEntity
  8
01
100
AcDbLine
 10
5094.859210844508
 20
-55.2881770525039
 30
0.0000000001127424
 11
5094.859210844508
 21
27.51318250023228
 31
0.0000000001127424
1001
ACAD
1000
DSTYLE
1002
{
1070
    40
1040
1.3
1070
    45
1040
0.5
1002
}
  0
LINE
  5
E355
330
18
100
AcDbEntity
  8
01
100
AcDbLine
 10
5025.859210844508
 20
-27.41685970134631
 30
0.0000000001127424
 11
5025.859210844508
 21
27.51318250023228
 31
0.0000000001127424
1001
ACAD
1000
DSTYLE
1002
{
1070
    40
1040
1.3
1070
    45
1040
0.5
1002
}
  0
LINE
  5
E356
330
18
100
AcDbEntity
  8
01
100
AcDbLine
 10
5092.259210844508
 20
26.21318250023228
 30
0.0000000001127424
 11
5028.459210844509
 21
26.21318250023228
 31
0.0000000001127424
1001
ACAD
1000
DSTYLE
1002
{
1070
    40
1040
1.3
1070
    45
1040
0.5
1002
}
  0
LINE
  5
E35A
330
18
100
AcDbEntity
  8
01
100
AcDbLine
 10
5025.859210844508
 20
-27.41685970134631
 30
0.0000000001127424
 11
5025.859210844508
 21
17.4333150321841
 31
0.0000000001127424
1001
ACAD
1000
DSTYLE
1002
{
1070
    40
1040
1.3
1070
    45
1040
0.5
1002
}
  0
LINE
  5
E35B
330
18
100
AcDbEntity
  8
01
100
AcDbLine
 10
5076.859210844508
 20
-63.2881770525039
 30
0.0000000001127424
 11
5076.859210844508
 21
17.4333150321841
 31
0.0000000001127424
1001
ACAD
1000
DSTYLE
1002
{
1070
    40
1040
1.3
1070
    45
1040
0.5
1002
}
  0
LINE
  5
E35C
330
18
100
AcDbEntity
  8
01
100
AcDbLine
 10
5028.459210844509
 20
16.1333150321841
 30
0.0000000001127424
 11
5074.259210844508
 21
16.1333150321841
 31
0.0000000001127424
1001
ACAD
1000
DSTYLE
1002
{
1070
    40
1040
1.3
1070
    45
1040
0.5
1002
}
  0
LINE
  5
E360
330
18
100
AcDbEntity
  8
01
100
AcDbLine
 10
4894.359327184253
 20
-33.28817705250435
 30
0.0000000001127424
 11
4894.359327184253
 21
17.43331503218387
 31
0.0000000001127424
1001
ACAD
1000
DSTYLE
1002
{
1070
    40
1040
1.3
1070
    45
1040
0.5
1002
}
  0
LINE
  5
E361
330
18
100
AcDbEntity
  8
01
100
AcDbLine
 10
4919.359327184253
 20
-33.28817705250435
 30
0.0000000001127424
 11
4919.359327184253
 21
17.43331503218387
 31
0.0000000001127424
1001
ACAD
1000
DSTYLE
1002
{
1070
    40
1040
1.3
1070
    45
1040
0.5
1002
}
  0
LINE
  5
E362
330
18
100
AcDbEntity
  8
01
100
AcDbLine
 10
4896.959327184253
 20
16.13331503218387
 30
0.0000000001127424
 11
4916.759327184252
 21
16.13331503218387
 31
0.0000000001127424
1001
ACAD
1000
DSTYLE
1002
{
1070
    40
1040
1.3
1070
    45
1040
0.5
1002
}
  0
LINE
  5
E366
330
18
100
AcDbEntity
  8
01
100
AcDbLine
 10
4873.65836528993
 20
-112.5381770525044
 30
0.0
 11
4872.359327184253
 21
-111.7881770525044
 31
0.0
  0
LINE
  5
E367
330
18
100
AcDbEntity
  8
01
100
AcDbLine
 10
4872.359327184253
 20
-111.7881770525044
 30
0.0
 11
4871.060289078576
 21
-112.5381770525044
 31
0.0
  0
LINE
  5
E368
330
18
100
AcDbEntity
  8
01
100
AcDbLine
 10
4871.060289078576
 20
-112.5381770525044
 30
0.0
 11
4871.060289078576
 21
-114.0381770525044
 31
0.0
  0
LINE
  5
E369
330
18
100
AcDbEntity
  8
01
100
AcDbLine
 10
4871.060289078576
 20
-114.0381770525044
 30
0.0
 11
4872.359327184253
 21
-114.7881770525044
 31
0.0
  0
LINE
  5
E36A
330
18
100
AcDbEntity
  8
01
100
AcDbLine
 10
4872.359327184253
 20
-114.7881770525044
 30
0.0
 11
4873.65836528993
 21
-114.0381770525044
 31
0.0
  0
LINE
  5
E36B
330
18
100
AcDbEntity
  8
01
100
AcDbLine
 10
4873.65836528993
 20
-114.0381770525044
 30
0.0
 11
4873.65836528993
 21
-112.5381770525044
 31
0.0
  0
LINE
  5
E36C
330
18
100
AcDbEntity
  8
01
100
AcDbLine
 10
4912.661266787489
 20
-35.28773190808806
 30
0.0000000001691137
 11
4992.947397955697
 21
-35.28773190808808
 31
0.0000000001691137
1001
ACAD
1000
DSTYLE
1002
{
1070
    40
1040
1.3
1070
    45
1040
0.5
1002
}
  0
LINE
  5
E36D
330
18
100
AcDbEntity
  8
01
100
AcDbLine
 10
4912.661266787489
 20
-149.2877319080881
 30
0.0000000001691137
 11
4992.947397955697
 21
-149.2877319080881
 31
0.0000000001691137
1001
ACAD
1000
DSTYLE
1002
{
1070
    40
1040
1.3
1070
    45
1040
0.5
1002
}
  0
LINE
  5
E36E
330
18
100
AcDbEntity
  8
01
100
AcDbLine
 10
4991.647397955697
 20
-37.88773190808809
 30
0.0000000001691137
 11
4991.647397955697
 21
-146.6877319080881
 31
0.0000000001691137
1001
ACAD
1000
DSTYLE
1002
{
1070
    40
1040
1.3
1070
    45
1040
0.5
1002
}
  0
LINE
  5
E372
330
18
100
AcDbEntity
  8
01
100
AcDbLine
 10
4913.259327184252
 20
-27.38817705250449
 30
0.0000000001691137
 11
5002.311732121922
 21
-27.38817705250452
 31
0.0000000001691137
1001
ACAD
1000
DSTYLE
1002
{
1070
    40
1040
1.3
1070
    45
1040
0.5
1002
}
  0
LINE
  5
E373
330
18
100
AcDbEntity
  8
01
100
AcDbLine
 10
4913.186241379582
 20
-157.1877319080879
 30
0.0000000001691137
 11
5002.311732121922
 21
-157.187731908088
 31
0.0000000001691137
1001
ACAD
1000
DSTYLE
1002
{
1070
    40
1040
1.3
1070
    45
1040
0.5
1002
}
  0
LINE
  5
E374
330
18
100
AcDbEntity
  8
01
100
AcDbLine
 10
5001.011732121921
 20
-29.98817705250452
 30
0.0000000001691137
 11
5001.011732121921
 21
-154.587731908088
 31
0.0000000001691137
1001
ACAD
1000
DSTYLE
1002
{
1070
    40
1040
1.3
1070
    45
1040
0.5
1002
}
  0
LINE
  5
E378
330
18
100
AcDbEntity
  8
01
100
AcDbLine
 10
5076.859210844508
 20
-88.28685873940117
 30
0.0000000001127424
 11
5040.559210844508
 21
-88.28685873940117
 31
0.0000000001127424
1001
ACAD
1000
DSTYLE
1002
{
1070
     3
1000
φ<>
1070
    40
1040
1.3
1070
    45
1040
0.5
1002
}
  0
LINE
  5
E379
330
18
100
AcDbEntity
  8
01
100
AcDbLine
 10
5076.859210844508
 20
-138.2868587394003
 30
0.0000000001127424
 11
5040.559210844508
 21
-138.2868587394002
 31
0.0000000001127424
1001
ACAD
1000
DSTYLE
1002
{
1070
     3
1000
φ<>
1070
    40
1040
1.3
1070
    45
1040
0.5
1002
}
  0
LINE
  5
E37A
330
18
100
AcDbEntity
  8
01
100
AcDbLine
 10
5041.859210844508
 20
-90.88685873940116
 30
0.0000000001127424
 11
5041.859210844508
 21
-135.6868587394002
 31
0.0000000001127424
1001
ACAD
1000
DSTYLE
1002
{
1070
     3
1000
φ<>
1070
    40
1040
1.3
1070
    45
1040
0.5
1002
}
  0
CIRCLE
  5
E37E
330
18
100
AcDbEntity
  8
01
100
AcDbCircle
 10
4941.359210844508
 20
-113.2868587394012
 30
0.0000000001127424
 40
3.0
  0
LINE
  5
E37F
330
18
100
AcDbEntity
  8
01
  6
BYBLOCK
100
AcDbLine
 10
4719.45932318425
 20
-30.98484494650367
 30
0.0000000001127424
 11
4716.85932318425
 21
-30.28817705250367
 31
0.0000000001127424
  0
LINE
  5
E380
330
18
100
AcDbEntity
  8
01
  6
BYBLOCK
100
AcDbLine
 10
4716.85932318425
 20
-30.28817705250367
 30
0.0000000001127424
 11
4719.45932318425
 21
-29.59150915850367
 31
0.0000000001127424
  0
LINE
  5
E381
330
18
100
AcDbEntity
  8
01
  6
BYBLOCK
100
AcDbLine
 10
4716.85932318425
 20
-30.28817705250367
 30
0.0000000001127424
 11
4719.45932318425
 21
-30.28817705250367
 31
0.0000000001127424
  0
LINE
  5
E382
330
18
100
AcDbEntity
  8
01
  6
BYBLOCK
100
AcDbLine
 10
4754.259323184249
 20
-29.59150915850367
 30
0.0000000001127424
 11
4756.85932318425
 21
-30.28817705250367
 31
0.0000000001127424
  0
LINE
  5
E383
330
18
100
AcDbEntity
  8
01
  6
BYBLOCK
100
AcDbLine
 10
4756.85932318425
 20
-30.28817705250367
 30
0.0000000001127424
 11
4754.259323184249
 21
-30.98484494650367
 31
0.0000000001127424
  0
LINE
  5
E384
330
18
100
AcDbEntity
  8
01
  6
BYBLOCK
100
AcDbLine
 10
4756.85932318425
 20
-30.28817705250367
 30
0.0000000001127424
 11
4754.259323184249
 21
-30.28817705250367
 31
0.0000000001127424
  0
TEXT
  5
E385
330
18
100
AcDbEntity
  8
01
  6
CONTINUOUS
100
AcDbText
 10
4730.015364850917
 20
-29.37817705250367
 30
0.0000000001127424
 40
4.55
  1
φ40
100
AcDbText
1001
ACAD
1000
DSTYLE
1002
{
1070
     3
1000
φ<>
1070
    40
1040
1.3
1070
    45
1040
0.5
1070
   271
1070
     4
1070
   272
1070
     2
1002
}
  0
LINE
  5
E386
330
18
100
AcDbEntity
  8
01
  6
BYBLOCK
100
AcDbLine
 10
4884.259327184254
 20
-6.59150915850367
 30
0.0000000001127424
 11
4886.859327184255
 21
-7.28817705250367
 31
0.0000000001127424
  0
LINE
  5
E387
330
18
100
AcDbEntity
  8
01
  6
BYBLOCK
100
AcDbLine
 10
4886.859327184255
 20
-7.28817705250367
 30
0.0000000001127424
 11
4884.259327184254
 21
-7.98484494650367
 31
0.0000000001127424
  0
LINE
  5
E388
330
18
100
AcDbEntity
  8
01
  6
BYBLOCK
100
AcDbLine
 10
4886.859327184255
 20
-7.28817705250367
 30
0.0000000001127424
 11
4884.259327184254
 21
-7.28817705250367
 31
0.0000000001127424
  0
LINE
  5
E389
330
18
100
AcDbEntity
  8
01
  6
BYBLOCK
100
AcDbLine
 10
4867.458941618535
 20
-7.984844946503671
 30
0.0000000001127424
 11
4864.858941618535
 21
-7.28817705250367
 31
0.0000000001127424
  0
LINE
  5
E38A
330
18
100
AcDbEntity
  8
01
  6
BYBLOCK
100
AcDbLine
 10
4864.858941618535
 20
-7.28817705250367
 30
0.0000000001127424
 11
4867.458941618535
 21
-6.59150915850367
 31
0.0000000001127424
  0
LINE
  5
E38B
330
18
100
AcDbEntity
  8
01
  6
BYBLOCK
100
AcDbLine
 10
4864.858941618535
 20
-7.28817705250367
 30
0.0000000001127424
 11
4867.458941618535
 21
-7.28817705250367
 31
0.0000000001127424
  0
TEXT
  5
E38C
330
18
100
AcDbEntity
  8
01
  6
CONTINUOUS
100
AcDbText
 10
4872.067467734728
 20
-6.37817705250367
 30
0.0000000001127424
 40
4.55
  1
22
100
AcDbText
1001
ACAD
1000
DSTYLE
1002
{
1070
    40
1040
1.3
1070
    45
1040
0.5
1070
   341
1005
0
1002
}
  0
LINE
  5
E38D
330
18
100
AcDbEntity
  8
01
  6
BYBLOCK
100
AcDbLine
 10
5059.459210522049
 20
-30.98484494650367
 30
0.0000000001127424
 11
5056.859210522049
 21
-30.28817705250367
 31
0.0000000001127424
  0
LINE
  5
E38E
330
18
100
AcDbEntity
  8
01
  6
BYBLOCK
100
AcDbLine
 10
5056.859210522049
 20
-30.28817705250367
 30
0.0000000001127424
 11
5059.459210522049
 21
-29.59150915850367
 31
0.0000000001127424
  0
LINE
  5
E38F
330
18
100
AcDbEntity
  8
01
  6
BYBLOCK
100
AcDbLine
 10
5056.859210522049
 20
-30.28817705250367
 30
0.0000000001127424
 11
5059.459210522049
 21
-30.28817705250367
 31
0.0000000001127424
  0
LINE
  5
E390
330
18
100
AcDbEntity
  8
01
  6
BYBLOCK
100
AcDbLine
 10
5094.259210522048
 20
-29.59150915850367
 30
0.0000000001127424
 11
5096.859210522049
 21
-30.28817705250367
 31
0.0000000001127424
  0
LINE
  5
E391
330
18
100
AcDbEntity
  8
01
  6
BYBLOCK
100
AcDbLine
 10
5096.859210522049
 20
-30.28817705250367
 30
0.0000000001127424
 11
5094.259210522048
 21
-30.98484494650367
 31
0.0000000001127424
  0
LINE
  5
E392
330
18
100
AcDbEntity
  8
01
  6
BYBLOCK
100
AcDbLine
 10
5096.859210522049
 20
-30.28817705250367
 30
0.0000000001127424
 11
5094.259210522048
 21
-30.28817705250367
 31
0.0000000001127424
  0
TEXT
  5
E393
330
18
100
AcDbEntity
  8
01
  6
CONTINUOUS
100
AcDbText
 10
5070.015252188716
 20
-29.37817705250367
 30
0.0000000001127424
 40
4.55
  1
φ40
100
AcDbText
1001
ACAD
1000
DSTYLE
1002
{
1070
     3
1000
φ<>
1070
    40
1040
1.3
1070
    45
1040
0.5
1070
   271
1070
     4
1070
   272
1070
     2
1002
}
  0
LINE
  5
E394
330
18
100
AcDbEntity
  8
01
  6
BYBLOCK
100
AcDbLine
 10
4719.45932318425
 20
-30.98484494650367
 30
0.0000000001127424
 11
4716.85932318425
 21
-30.28817705250367
 31
0.0000000001127424
  0
LINE
  5
E395
330
18
100
AcDbEntity
  8
01
  6
BYBLOCK
100
AcDbLine
 10
4716.85932318425
 20
-30.28817705250367
 30
0.0000000001127424
 11
4719.45932318425
 21
-29.59150915850367
 31
0.0000000001127424
  0
LINE
  5
E396
330
18
100
AcDbEntity
  8
01
  6
BYBLOCK
100
AcDbLine
 10
4716.85932318425
 20
-30.28817705250367
 30
0.0000000001127424
 11
4719.45932318425
 21
-30.28817705250367
 31
0.0000000001127424
  0
LINE
  5
E397
330
18
100
AcDbEntity
  8
01
  6
BYBLOCK
100
AcDbLine
 10
4754.259323184249
 20
-29.59150915850367
 30
0.0000000001127424
 11
4756.85932318425
 21
-30.28817705250367
 31
0.0000000001127424
  0
LINE
  5
E398
330
18
100
AcDbEntity
  8
01
  6
BYBLOCK
100
AcDbLine
 10
4756.85932318425
 20
-30.28817705250367
 30
0.0000000001127424
 11
4754.259323184249
 21
-30.98484494650367
 31
0.0000000001127424
  0
LINE
  5
E399
330
18
100
AcDbEntity
  8
01
  6
BYBLOCK
100
AcDbLine
 10
4756.85932318425
 20
-30.28817705250367
 30
0.0000000001127424
 11
4754.259323184249
 21
-30.28817705250367
 31
0.0000000001127424
  0
TEXT
  5
E39A
330
18
100
AcDbEntity
  8
01
  6
CONTINUOUS
100
AcDbText
 10
4730.015364850917
 20
-29.37817705250367
 30
0.0000000001127424
 40
4.55
  1
φ40
100
AcDbText
1001
ACAD
1000
DSTYLE
1002
{
1070
     3
1000
φ<>
1070
    40
1040
1.3
1070
    45
1040
0.5
1070
   271
1070
     4
1070
   272
1070
     2
1002
}
  0
LINE
  5
E39B
330
18
100
AcDbEntity
  8
01
  6
BYBLOCK
100
AcDbLine
 10
4884.259327184254
 20
-6.59150915850367
 30
0.0000000001127424
 11
4886.859327184255
 21
-7.28817705250367
 31
0.0000000001127424
  0
LINE
  5
E39C
330
18
100
AcDbEntity
  8
01
  6
BYBLOCK
100
AcDbLine
 10
4886.859327184255
 20
-7.28817705250367
 30
0.0000000001127424
 11
4884.259327184254
 21
-7.98484494650367
 31
0.0000000001127424
  0
LINE
  5
E39D
330
18
100
AcDbEntity
  8
01
  6
BYBLOCK
100
AcDbLine
 10
4886.859327184255
 20
-7.28817705250367
 30
0.0000000001127424
 11
4884.259327184254
 21
-7.28817705250367
 31
0.0000000001127424
  0
LINE
  5
E39E
330
18
100
AcDbEntity
  8
01
  6
BYBLOCK
100
AcDbLine
 10
4867.459302373243
 20
-7.984844946503671
 30
0.0000000001127424
 11
4864.859302373243
 21
-7.28817705250367
 31
0.0000000001127424
  0
LINE
  5
E39F
330
18
100
AcDbEntity
  8
01
  6
BYBLOCK
100
AcDbLine
 10
4864.859302373243
 20
-7.28817705250367
 30
0.0000000001127424
 11
4867.459302373243
 21
-6.59150915850367
 31
0.0000000001127424
  0
LINE
  5
E3A0
330
18
100
AcDbEntity
  8
01
  6
BYBLOCK
100
AcDbLine
 10
4864.859302373243
 20
-7.28817705250367
 30
0.0000000001127424
 11
4867.459302373243
 21
-7.28817705250367
 31
0.0000000001127424
  0
TEXT
  5
E3A1
330
18
100
AcDbEntity
  8
01
  6
CONTINUOUS
100
AcDbText
 10
4872.067648112082
 20
-6.37817705250367
 30
0.0000000001127424
 40
4.55
  1
22
100
AcDbText
1001
ACAD
1000
DSTYLE
1002
{
1070
    40
1040
1.3
1070
    45
1040
0.5
1070
   341
1005
0
1002
}
  0
LINE
  5
E3A2
330
18
100
AcDbEntity
  8
01
  6
BYBLOCK
100
AcDbLine
 10
4929.459327184254
 20
-7.984844946503671
 30
0.0
 11
4926.859327184254
 21
-7.28817705250367
 31
0.0
  0
LINE
  5
E3A3
330
18
100
AcDbEntity
  8
01
  6
BYBLOCK
100
AcDbLine
 10
4926.859327184254
 20
-7.28817705250367
 30
0.0
 11
4929.459327184254
 21
-6.59150915850367
 31
0.0
  0
LINE
  5
E3A4
330
18
100
AcDbEntity
  8
01
  6
BYBLOCK
100
AcDbLine
 10
4926.859327184254
 20
-7.28817705250367
 30
0.0
 11
4929.459327184254
 21
-7.28817705250367
 31
0.0
  0
LINE
  5
E3A5
330
18
100
AcDbEntity
  8
01
  6
BYBLOCK
100
AcDbLine
 10
4932.427910873214
 20
-6.59150915850367
 30
0.0
 11
4935.027910873215
 21
-7.28817705250367
 31
0.0
  0
LINE
  5
E3A6
330
18
100
AcDbEntity
  8
01
  6
BYBLOCK
100
AcDbLine
 10
4935.027910873215
 20
-7.28817705250367
 30
0.0
 11
4932.427910873214
 21
-7.98484494650367
 31
0.0
  0
LINE
  5
E3A7
330
18
100
AcDbEntity
  8
01
  6
BYBLOCK
100
AcDbLine
 10
4935.027910873215
 20
-7.28817705250367
 30
0.0
 11
4932.427910873214
 21
-7.28817705250367
 31
0.0
  0
TEXT
  5
E3A8
330
18
100
AcDbEntity
  8
01
  6
CONTINUOUS
100
AcDbText
 10
4929.426952362068
 20
-6.37817705250367
 30
0.0
 40
4.55
  1
8
100
AcDbText
1001
ACAD
1000
DSTYLE
1002
{
1070
    40
1040
1.3
1070
    45
1040
0.5
1070
   271
1070
     1
1070
   341
1005
0
1002
}
  0
LINE
  5
E3A9
330
18
100
AcDbEntity
  8
01
  6
BYBLOCK
100
AcDbLine
 10
5017.459210844509
 20
15.4366471381841
 30
0.0000000001127424
 11
5014.859210844508
 21
16.1333150321841
 31
0.0000000001127424
  0
LINE
  5
E3AA
330
18
100
AcDbEntity
  8
01
  6
BYBLOCK
100
AcDbLine
 10
5014.859210844508
 20
16.1333150321841
 30
0.0000000001127424
 11
5017.459210844509
 21
16.8299829261841
 31
0.0000000001127424
  0
LINE
  5
E3AB
330
18
100
AcDbEntity
  8
01
  6
BYBLOCK
100
AcDbLine
 10
5014.859210844508
 20
16.1333150321841
 30
0.0000000001127424
 11
5017.459210844509
 21
16.1333150321841
 31
0.0000000001127424
  0
LINE
  5
E3AC
330
18
100
AcDbEntity
  8
01
  6
BYBLOCK
100
AcDbLine
 10
5023.259210844508
 20
16.8299829261841
 30
0.0000000001127424
 11
5025.859210844508
 21
16.1333150321841
 31
0.0000000001127424
  0
LINE
  5
E3AD
330
18
100
AcDbEntity
  8
01
  6
BYBLOCK
100
AcDbLine
 10
5025.859210844508
 20
16.1333150321841
 30
0.0000000001127424
 11
5023.259210844508
 21
15.4366471381841
 31
0.0000000001127424
  0
LINE
  5
E3AE
330
18
100
AcDbEntity
  8
01
  6
BYBLOCK
100
AcDbLine
 10
5025.859210844508
 20
16.1333150321841
 30
0.0000000001127424
 11
5023.259210844508
 21
16.1333150321841
 31
0.0000000001127424
  0
TEXT
  5
E3AF
330
18
100
AcDbEntity
  8
01
  6
CONTINUOUS
100
AcDbText
 10
5018.084210844509
 20
17.0433150321841
 30
0.0000000001127424
 40
4.55
  1
11
100
AcDbText
1001
ACAD
1000
DSTYLE
1002
{
1070
    40
1040
1.3
1070
    45
1040
0.5
1002
}
  0
LINE
  5
E3B0
330
18
100
AcDbEntity
  8
01
  6
BYBLOCK
100
AcDbLine
 10
5121.162542950508
 20
-57.88817705250391
 30
0.0000000001127424
 11
5121.859210844508
 21
-55.2881770525039
 31
0.0000000001127424
  0
LINE
  5
E3B1
330
18
100
AcDbEntity
  8
01
  6
BYBLOCK
100
AcDbLine
 10
5121.859210844508
 20
-55.2881770525039
 30
0.0000000001127424
 11
5122.555878738508
 21
-57.88817705250391
 31
0.0000000001127424
  0
LINE
  5
E3B2
330
18
100
AcDbEntity
  8
01
  6
BYBLOCK
100
AcDbLine
 10
5121.859210844508
 20
-55.2881770525039
 30
0.0000000001127424
 11
5121.859210844508
 21
-57.88817705250391
 31
0.0000000001127424
  0
LINE
  5
E3B3
330
18
100
AcDbEntity
  8
01
  6
BYBLOCK
100
AcDbLine
 10
5122.555878738508
 20
-126.6881770525044
 30
0.0000000001127424
 11
5121.859210844508
 21
-129.2881770525044
 31
0.0000000001127424
  0
LINE
  5
E3B4
330
18
100
AcDbEntity
  8
01
  6
BYBLOCK
100
AcDbLine
 10
5121.859210844508
 20
-129.2881770525044
 30
0.0000000001127424
 11
5121.162542950508
 21
-126.6881770525044
 31
0.0000000001127424
  0
LINE
  5
E3B5
330
18
100
AcDbEntity
  8
01
  6
BYBLOCK
100
AcDbLine
 10
5121.859210844508
 20
-129.2881770525044
 30
0.0000000001127424
 11
5121.859210844508
 21
-126.6881770525044
 31
0.0000000001127424
  0
TEXT
  5
E3B6
330
18
100
AcDbEntity
  8
01
  6
CONTINUOUS
100
AcDbText
 10
5120.949210844507
 20
-74.31683296648589
 30
0.0000000001127424
 40
4.55
  1
74
 50
90.0
100
AcDbText
1001
ACAD
1000
DSTYLE
1002
{
1070
    40
1040
1.3
1070
    45
1040
0.5
1002
}
  0
LINE
  5
E3B7
330
18
100
AcDbEntity
  8
01
  6
BYBLOCK
100
AcDbLine
 10
5092.259210844508
 20
26.90985039423228
 30
0.0000000001127424
 11
5094.859210844508
 21
26.21318250023228
 31
0.0000000001127424
  0
LINE
  5
E3B8
330
18
100
AcDbEntity
  8
01
  6
BYBLOCK
100
AcDbLine
 10
5094.859210844508
 20
26.21318250023228
 30
0.0000000001127424
 11
5092.259210844508
 21
25.51651460623228
 31
0.0000000001127424
  0
LINE
  5
E3B9
330
18
100
AcDbEntity
  8
01
  6
BYBLOCK
100
AcDbLine
 10
5094.859210844508
 20
26.21318250023228
 30
0.0000000001127424
 11
5092.259210844508
 21
26.21318250023228
 31
0.0000000001127424
  0
LINE
  5
E3BA
330
18
100
AcDbEntity
  8
01
  6
BYBLOCK
100
AcDbLine
 10
5028.459210844509
 20
25.51651460623228
 30
0.0000000001127424
 11
5025.859210844508
 21
26.21318250023228
 31
0.0000000001127424
  0
LINE
  5
E3BB
330
18
100
AcDbEntity
  8
01
  6
BYBLOCK
100
AcDbLine
 10
5025.859210844508
 20
26.21318250023228
 30
0.0000000001127424
 11
5028.459210844509
 21
26.90985039423228
 31
0.0000000001127424
  0
LINE
  5
E3BC
330
18
100
AcDbEntity
  8
01
  6
BYBLOCK
100
AcDbLine
 10
5025.859210844508
 20
26.21318250023228
 30
0.0000000001127424
 11
5028.459210844509
 21
26.21318250023228
 31
0.0000000001127424
  0
TEXT
  5
E3BD
330
18
100
AcDbEntity
  8
01
  6
CONTINUOUS
100
AcDbText
 10
5056.55069232599
 20
27.12318250023228
 30
0.0000000001127424
 40
4.55
  1
69
100
AcDbText
1001
ACAD
1000
DSTYLE
1002
{
1070
    40
1040
1.3
1070
    45
1040
0.5
1002
}
  0
LINE
  5
E3BE
330
18
100
AcDbEntity
  8
01
  6
BYBLOCK
100
AcDbLine
 10
5028.459210844509
 20
15.4366471381841
 30
0.0000000001127424
 11
5025.859210844508
 21
16.1333150321841
 31
0.0000000001127424
  0
LINE
  5
E3BF
330
18
100
AcDbEntity
  8
01
  6
BYBLOCK
100
AcDbLine
 10
5025.859210844508
 20
16.1333150321841
 30
0.0000000001127424
 11
5028.459210844509
 21
16.8299829261841
 31
0.0000000001127424
  0
LINE
  5
E3C0
330
18
100
AcDbEntity
  8
01
  6
BYBLOCK
100
AcDbLine
 10
5025.859210844508
 20
16.1333150321841
 30
0.0000000001127424
 11
5028.459210844509
 21
16.1333150321841
 31
0.0000000001127424
  0
LINE
  5
E3C1
330
18
100
AcDbEntity
  8
01
  6
BYBLOCK
100
AcDbLine
 10
5074.259210844508
 20
16.8299829261841
 30
0.0000000001127424
 11
5076.859210844508
 21
16.1333150321841
 31
0.0000000001127424
  0
LINE
  5
E3C2
330
18
100
AcDbEntity
  8
01
  6
BYBLOCK
100
AcDbLine
 10
5076.859210844508
 20
16.1333150321841
 30
0.0000000001127424
 11
5074.259210844508
 21
15.4366471381841
 31
0.0000000001127424
  0
LINE
  5
E3C3
330
18
100
AcDbEntity
  8
01
  6
BYBLOCK
100
AcDbLine
 10
5076.859210844508
 20
16.1333150321841
 30
0.0000000001127424
 11
5074.259210844508
 21
16.1333150321841
 31
0.0000000001127424
  0
TEXT
  5
E3C4
330
18
100
AcDbEntity
  8
01
  6
CONTINUOUS
100
AcDbText
 10
5048.310078900064
 20
17.0433150321841
 30
0.0000000001127424
 40
4.55
  1
51
100
AcDbText
1001
ACAD
1000
DSTYLE
1002
{
1070
    40
1040
1.3
1070
    45
1040
0.5
1002
}
  0
LINE
  5
E3C5
330
18
100
AcDbEntity
  8
01
  6
BYBLOCK
100
AcDbLine
 10
4896.959327184253
 20
15.43664713818387
 30
0.0000000001127424
 11
4894.359327184253
 21
16.13331503218387
 31
0.0000000001127424
  0
LINE
  5
E3C6
330
18
100
AcDbEntity
  8
01
  6
BYBLOCK
100
AcDbLine
 10
4894.359327184253
 20
16.13331503218387
 30
0.0000000001127424
 11
4896.959327184253
 21
16.82998292618387
 31
0.0000000001127424
  0
LINE
  5
E3C7
330
18
100
AcDbEntity
  8
01
  6
BYBLOCK
100
AcDbLine
 10
4894.359327184253
 20
16.13331503218387
 30
0.0000000001127424
 11
4896.959327184253
 21
16.13331503218387
 31
0.0000000001127424
  0
LINE
  5
E3C8
330
18
100
AcDbEntity
  8
01
  6
BYBLOCK
100
AcDbLine
 10
4916.759327184252
 20
16.82998292618387
 30
0.0000000001127424
 11
4919.359327184253
 21
16.13331503218387
 31
0.0000000001127424
  0
LINE
  5
E3C9
330
18
100
AcDbEntity
  8
01
  6
BYBLOCK
100
AcDbLine
 10
4919.359327184253
 20
16.13331503218387
 30
0.0000000001127424
 11
4916.759327184252
 21
15.43664713818387
 31
0.0000000001127424
  0
LINE
  5
E3CA
330
18
100
AcDbEntity
  8
01
  6
BYBLOCK
100
AcDbLine
 10
4919.359327184253
 20
16.13331503218387
 30
0.0000000001127424
 11
4916.759327184252
 21
16.13331503218387
 31
0.0000000001127424
  0
TEXT
  5
E3CB
330
18
100
AcDbEntity
  8
01
  6
CONTINUOUS
100
AcDbText
 10
4903.067660517586
 20
17.04331503218387
 30
0.0000000001127424
 40
4.55
  1
25
100
AcDbText
1001
ACAD
1000
DSTYLE
1002
{
1070
    40
1040
1.3
1070
    45
1040
0.5
1002
}
  0
LINE
  5
E3CC
330
18
100
AcDbEntity
  8
01
  6
BYBLOCK
100
AcDbLine
 10
4990.950730061697
 20
-37.88773190808809
 30
0.0000000001691137
 11
4991.647397955697
 21
-35.28773190808808
 31
0.0000000001691137
  0
LINE
  5
E3CD
330
18
100
AcDbEntity
  8
01
  6
BYBLOCK
100
AcDbLine
 10
4991.647397955697
 20
-35.28773190808808
 30
0.0000000001691137
 11
4992.344065849697
 21
-37.88773190808809
 31
0.0000000001691137
  0
LINE
  5
E3CE
330
18
100
AcDbEntity
  8
01
  6
BYBLOCK
100
AcDbLine
 10
4991.647397955697
 20
-35.28773190808808
 30
0.0000000001691137
 11
4991.647397955697
 21
-37.88773190808809
 31
0.0000000001691137
  0
LINE
  5
E3CF
330
18
100
AcDbEntity
  8
01
  6
BYBLOCK
100
AcDbLine
 10
4992.344065849697
 20
-146.6877319080881
 30
0.0000000001691137
 11
4991.647397955697
 21
-149.2877319080881
 31
0.0000000001691137
  0
LINE
  5
E3D0
330
18
100
AcDbEntity
  8
01
  6
BYBLOCK
100
AcDbLine
 10
4991.647397955697
 20
-149.2877319080881
 30
0.0000000001691137
 11
4990.950730061697
 21
-146.6877319080881
 31
0.0000000001691137
  0
LINE
  5
E3D1
330
18
100
AcDbEntity
  8
01
  6
BYBLOCK
100
AcDbLine
 10
4991.647397955697
 20
-149.2877319080881
 30
0.0000000001691137
 11
4991.647397955697
 21
-146.6877319080881
 31
0.0000000001691137
  0
TEXT
  5
E3D2
330
18
100
AcDbEntity
  8
01
  6
CONTINUOUS
100
AcDbText
 10
4990.737397955697
 20
-67.70470956016652
 30
0.0000000001691137
 40
4.55
  1
114
 50
90.0
100
AcDbText
1001
ACAD
1000
DSTYLE
1002
{
1070
    40
1040
1.3
1070
    45
1040
0.5
1002
}
  0
LINE
  5
E3D3
330
18
100
AcDbEntity
  8
01
  6
BYBLOCK
100
AcDbLine
 10
5000.315064227922
 20
-29.98817705250452
 30
0.0000000001691137
 11
5001.011732121921
 21
-27.38817705250452
 31
0.0000000001691137
  0
LINE
  5
E3D4
330
18
100
AcDbEntity
  8
01
  6
BYBLOCK
100
AcDbLine
 10
5001.011732121921
 20
-27.38817705250452
 30
0.0000000001691137
 11
5001.708400015921
 21
-29.98817705250452
 31
0.0000000001691137
  0
LINE
  5
E3D5
330
18
100
AcDbEntity
  8
01
  6
BYBLOCK
100
AcDbLine
 10
5001.011732121921
 20
-27.38817705250452
 30
0.0000000001691137
 11
5001.011732121921
 21
-29.98817705250452
 31
0.0000000001691137
  0
LINE
  5
E3D6
330
18
100
AcDbEntity
  8
01
  6
BYBLOCK
100
AcDbLine
 10
5001.708400015921
 20
-154.587731908088
 30
0.0000000001691137
 11
5001.011732121921
 21
-157.187731908088
 31
0.0000000001691137
  0
LINE
  5
E3D7
330
18
100
AcDbEntity
  8
01
  6
BYBLOCK
100
AcDbLine
 10
5001.011732121921
 20
-157.187731908088
 30
0.0000000001691137
 11
5000.315064227922
 21
-154.587731908088
 31
0.0000000001691137
  0
LINE
  5
E3D8
330
18
100
AcDbEntity
  8
01
  6
BYBLOCK
100
AcDbLine
 10
5001.011732121921
 20
-157.187731908088
 30
0.0000000001691137
 11
5001.011732121921
 21
-154.587731908088
 31
0.0000000001691137
  0
TEXT
  5
E3D9
330
18
100
AcDbEntity
  8
01
  6
CONTINUOUS
100
AcDbText
 10
5000.101732121921
 20
-68.48927356297463
 30
0.0000000001691137
 40
4.55
  1
130
 50
90.0
100
AcDbText
1001
ACAD
1000
DSTYLE
1002
{
1070
    40
1040
1.3
1070
    45
1040
0.5
1002
}
  0
LINE
  5
E3DA
330
18
100
AcDbEntity
  8
01
  6
BYBLOCK
100
AcDbLine
 10
5041.162542950508
 20
-90.88685873940116
 30
0.0000000001127424
 11
5041.859210844508
 21
-88.28685873940117
 31
0.0000000001127424
  0
LINE
  5
E3DB
330
18
100
AcDbEntity
  8
01
  6
BYBLOCK
100
AcDbLine
 10
5041.859210844508
 20
-88.28685873940117
 30
0.0000000001127424
 11
5042.555878738508
 21
-90.88685873940116
 31
0.0000000001127424
  0
LINE
  5
E3DC
330
18
100
AcDbEntity
  8
01
  6
BYBLOCK
100
AcDbLine
 10
5041.859210844508
 20
-88.28685873940117
 30
0.0000000001127424
 11
5041.859210844508
 21
-90.88685873940116
 31
0.0000000001127424
  0
LINE
  5
E3DD
330
18
100
AcDbEntity
  8
01
  6
BYBLOCK
100
AcDbLine
 10
5042.555878738508
 20
-135.6868587394002
 30
0.0000000001127424
 11
5041.859210844508
 21
-138.2868587394002
 31
0.0000000001127424
  0
LINE
  5
E3DE
330
18
100
AcDbEntity
  8
01
  6
BYBLOCK
100
AcDbLine
 10
5041.859210844508
 20
-138.2868587394002
 30
0.0000000001127424
 11
5041.162542950508
 21
-135.6868587394002
 31
0.0000000001127424
  0
LINE
  5
E3DF
330
18
100
AcDbEntity
  8
01
  6
BYBLOCK
100
AcDbLine
 10
5041.859210844508
 20
-138.2868587394002
 30
0.0000000001127424
 11
5041.859210844508
 21
-135.6868587394002
 31
0.0000000001127424
  0
TEXT
  5
E3E0
330
18
100
AcDbEntity
  8
01
  6
CONTINUOUS
100
AcDbText
 10
5040.949210844507
 20
-121.4863616460007
 30
0.0000000001127424
 40
4.55
  1
φ50
 50
90.0
100
AcDbText
1001
ACAD
1000
DSTYLE
1002
{
1070
     3
1000
φ<>
1070
    40
1040
1.3
1070
    45
1040
0.5
1002
}
  0
LINE
  5
E3E1
330
18
100
AcDbEntity
  8
1DIM
100
AcDbLine
 10
4706.859331184252
 20
-113.2881770525037
 30
0.0000000001127424
 11
4691.865478781964
 21
-113.2881770525037
 31
0.0000000001127424
1001
ACAD
1000
DSTYLE
1002
{
1070
    40
1040
1.3
1070
    45
1040
0.5
1070
   341
1005
0
1002
}
  0
LINE
  5
E3E2
330
18
100
AcDbEntity
  8
1DIM
100
AcDbLine
 10
4714.359323184253
 20
-57.78817705250367
 30
0.0000000001127424
 11
4691.865478781964
 21
-57.78817705250367
 31
0.0000000001127424
1001
ACAD
1000
DSTYLE
1002
{
1070
    40
1040
1.3
1070
    45
1040
0.5
1070
   341
1005
0
1002
}
  0
LINE
  5
E3E3
330
18
100
AcDbEntity
  8
1DIM
100
AcDbLine
 10
4693.165478781964
 20
-110.6881770525037
 30
0.0000000001127424
 11
4693.165478781964
 21
-60.38817705250367
 31
0.0000000001127424
1001
ACAD
1000
DSTYLE
1002
{
1070
    40
1040
1.3
1070
    45
1040
0.5
1070
   341
1005
0
1002
}
  0
LINE
  5
E3E7
330
18
100
AcDbEntity
  8
1DIM
100
AcDbLine
 10
4706.859331184252
 20
-113.2881770525037
 30
0.0000000001127424
 11
4691.865478781964
 21
-113.2881770525037
 31
0.0000000001127424
1001
ACAD
1000
DSTYLE
1002
{
1070
    40
1040
1.3
1070
    45
1040
0.5
1070
   341
1005
0
1002
}
  0
LINE
  5
E3E8
330
18
100
AcDbEntity
  8
1DIM
100
AcDbLine
 10
4714.359323184253
 20
-57.78817705250367
 30
0.0000000001127424
 11
4691.865478781964
 21
-57.78817705250367
 31
0.0000000001127424
1001
ACAD
1000
DSTYLE
1002
{
1070
    40
1040
1.3
1070
    45
1040
0.5
1070
   341
1005
0
1002
}
  0
LINE
  5
E3E9
330
18
100
AcDbEntity
  8
1DIM
100
AcDbLine
 10
4693.165478781964
 20
-110.6881770525037
 30
0.0000000001127424
 11
4693.165478781964
 21
-60.38817705250367
 31
0.0000000001127424
1001
ACAD
1000
DSTYLE
1002
{
1070
    40
1040
1.3
1070
    45
1040
0.5
1070
   341
1005
0
1002
}
  0
SOLID
  5
E3ED
330
18
100
AcDbEntity
  8
1DIM
100
AcDbTrace
 10
5074.229060199254
 20
110.6610658925523
 30
0.0000000001127424
 11
5076.599812084569
 21
111.8131567205926
 31
0.0000000001127424
 12
5074.730860029176
 22
109.954448569101
 32
0.0000000001127424
 13
5074.730860029176
 23
109.954448569101
 33
0.0000000001127424
1001
ACAD
1000
DSTYLE
1002
{
1070
    40
1040
1.3
1070
    45
1040
0.5
1002
}
  0
LINE
  5
E3EE
330
18
100
AcDbEntity
  8
1DIM
100
AcDbLine
 10
5074.479960114215
 20
110.3077572308267
 30
0.0000000001127424
 11
5047.012371937526
 21
90.80182294646747
 31
0.0000000001127424
1001
ACAD
1000
DSTYLE
1002
{
1070
    40
1040
1.3
1070
    45
1040
0.5
1002
}
  0
LINE
  5
E3EF
330
18
100
AcDbEntity
  8
1DIM
100
AcDbLine
 10
5093.260095026568
 20
166.2118229464675
 30
0.0000000001127424
 11
5113.820485786281
 21
166.2118229464675
 31
0.0000000001127424
1001
ACAD
1000
DSTYLE
1002
{
1070
    45
1040
0.5
1070
    40
1040
1.3
1002
}
  0
LINE
  5
E3F0
330
18
100
AcDbEntity
  8
1DIM
100
AcDbLine
 10
5094.860095026568
 20
147.4118229464675
 30
0.0000000001127424
 11
5113.820485786281
 21
147.4118229464675
 31
0.0000000001127424
1001
ACAD
1000
DSTYLE
1002
{
1070
    45
1040
0.5
1070
    40
1040
1.3
1002
}
  0
LINE
  5
E3F1
330
18
100
AcDbEntity
  8
1DIM
100
AcDbLine
 10
5112.520485786281
 20
163.6118229464675
 30
0.0000000001127424
 11
5112.520485786281
 21
150.0118229464675
 31
0.0000000001127424
1001
ACAD
1000
DSTYLE
1002
{
1070
    45
1040
0.5
1070
    40
1040
1.3
1002
}
  0
LINE
  5
E3F5
330
18
100
AcDbEntity
  8
1DIM
100
AcDbLine
 10
5076.859210844508
 20
115.2118229474961
 30
0.0000000001127424
 11
5076.859210844508
 21
50.41182294749611
 31
0.0000000001127424
1001
ACAD
1000
DSTYLE
1002
{
1070
    40
1040
1.3
1070
    45
1040
0.5
1002
}
  0
LINE
  5
E3F6
330
18
100
AcDbEntity
  8
1DIM
100
AcDbLine
 10
5182.859210844509
 20
81.2118229474961
 30
0.0000000001127424
 11
5182.859210844509
 21
50.41182294749611
 31
0.0000000001127424
1001
ACAD
1000
DSTYLE
1002
{
1070
    40
1040
1.3
1070
    45
1040
0.5
1002
}
  0
LINE
  5
E3F7
330
18
100
AcDbEntity
  8
1DIM
100
AcDbLine
 10
5079.459210844509
 20
51.7118229474961
 30
0.0000000001127424
 11
5180.259210844509
 21
51.7118229474961
 31
0.0000000001127424
1001
ACAD
1000
DSTYLE
1002
{
1070
    40
1040
1.3
1070
    45
1040
0.5
1002
}
  0
LINE
  5
E3FB
330
18
100
AcDbEntity
  8
1DIM
100
AcDbLine
 10
5066.859210844507
 20
127.7118229474961
 30
0.0000000001127424
 11
5066.859210844507
 21
40.41182294749611
 31
0.0000000001127424
1001
ACAD
1000
DSTYLE
1002
{
1070
    40
1040
1.3
1070
    45
1040
0.5
1002
}
  0
LINE
  5
E3FC
330
18
100
AcDbEntity
  8
1DIM
100
AcDbLine
 10
5182.859210844509
 20
81.2118229474961
 30
0.0000000001127424
 11
5182.859210844509
 21
40.41182294749611
 31
0.0000000001127424
1001
ACAD
1000
DSTYLE
1002
{
1070
    40
1040
1.3
1070
    45
1040
0.5
1002
}
  0
LINE
  5
E3FD
330
18
100
AcDbEntity
  8
1DIM
100
AcDbLine
 10
5069.459210844508
 20
41.7118229474961
 30
0.0000000001127424
 11
5180.259210844509
 21
41.7118229474961
 31
0.0000000001127424
1001
ACAD
1000
DSTYLE
1002
{
1070
    40
1040
1.3
1070
    45
1040
0.5
1002
}
  0
LINE
  5
E401
330
18
100
AcDbEntity
  8
1DIM
100
AcDbLine
 10
5181.859210844509
 20
99.2118229474961
 30
0.0000000001127424
 11
5233.159210844508
 21
99.21182294749609
 31
0.0000000001127424
1001
ACAD
1000
DSTYLE
1002
{
1070
    40
1040
1.3
1070
    45
1040
0.5
1002
}
  0
LINE
  5
E402
330
18
100
AcDbEntity
  8
1DIM
100
AcDbLine
 10
5179.614358841856
 20
136.7118229474961
 30
0.0000000001127424
 11
5233.159210844508
 21
136.7118229474961
 31
0.0000000001127424
1001
ACAD
1000
DSTYLE
1002
{
1070
    40
1040
1.3
1070
    45
1040
0.5
1002
}
  0
LINE
  5
E403
330
18
100
AcDbEntity
  8
1DIM
100
AcDbLine
 10
5231.859210844508
 20
101.8118229474961
 30
0.0000000001127424
 11
5231.859210844508
 21
134.1118229474961
 31
0.0000000001127424
1001
ACAD
1000
DSTYLE
1002
{
1070
    40
1040
1.3
1070
    45
1040
0.5
1002
}
  0
LINE
  5
E407
330
18
100
AcDbEntity
  8
1DIM
100
AcDbLine
 10
5181.859210844509
 20
80.2118229474961
 30
0.0000000001127424
 11
5243.159210844508
 21
80.21182294749609
 31
0.0000000001127424
1001
ACAD
1000
DSTYLE
1002
{
1070
    40
1040
1.3
1070
    45
1040
0.5
1002
}
  0
LINE
  5
E408
330
18
100
AcDbEntity
  8
1DIM
100
AcDbLine
 10
5179.614358841856
 20
136.7118229474961
 30
0.0000000001127424
 11
5243.159210844508
 21
136.7118229474961
 31
0.0000000001127424
1001
ACAD
1000
DSTYLE
1002
{
1070
    40
1040
1.3
1070
    45
1040
0.5
1002
}
  0
LINE
  5
E409
330
18
100
AcDbEntity
  8
1DIM
100
AcDbLine
 10
5241.859210844508
 20
82.81182294749608
 30
0.0000000001127424
 11
5241.859210844508
 21
134.1118229474961
 31
0.0000000001127424
1001
ACAD
1000
DSTYLE
1002
{
1070
    40
1040
1.3
1070
    45
1040
0.5
1002
}
  0
LINE
  5
E40D
330
18
100
AcDbEntity
  8
1DIM
100
AcDbLine
 10
5181.859210844508
 20
-122.7868587394012
 30
0.0000000001127424
 11
5233.159210844508
 21
-122.7868587394012
 31
0.0000000001127424
1001
ACAD
1000
DSTYLE
1002
{
1070
     3
1000
φ<>
1070
    40
1040
1.3
1070
    45
1040
0.5
1002
}
  0
LINE
  5
E40E
330
18
100
AcDbEntity
  8
1DIM
100
AcDbLine
 10
5181.859210844509
 20
-103.7868587394012
 30
0.0000000001127424
 11
5233.159210844508
 21
-103.7868587394012
 31
0.0000000001127424
1001
ACAD
1000
DSTYLE
1002
{
1070
     3
1000
φ<>
1070
    40
1040
1.3
1070
    45
1040
0.5
1002
}
  0
LINE
  5
E40F
330
18
100
AcDbEntity
  8
1DIM
100
AcDbLine
 10
5231.859210844508
 20
-120.1868587394012
 30
0.0000000001127424
 11
5231.859210844508
 21
-106.3868587394012
 31
0.0000000001127424
1001
ACAD
1000
DSTYLE
1002
{
1070
     3
1000
φ<>
1070
    40
1040
1.3
1070
    45
1040
0.5
1002
}
  0
LINE
  5
E413
330
18
100
AcDbEntity
  8
0
  6
BYBLOCK
100
AcDbLine
 10
4693.862146675964
 20
-110.6881770525037
 30
0.0000000001127424
 11
4693.165478781964
 21
-113.2881770525037
 31
0.0000000001127424
  0
LINE
  5
E414
330
18
100
AcDbEntity
  8
0
  6
BYBLOCK
100
AcDbLine
 10
4693.165478781964
 20
-113.2881770525037
 30
0.0000000001127424
 11
4692.468810887965
 21
-110.6881770525037
 31
0.0000000001127424
  0
LINE
  5
E415
330
18
100
AcDbEntity
  8
0
  6
BYBLOCK
100
AcDbLine
 10
4693.165478781964
 20
-113.2881770525037
 30
0.0000000001127424
 11
4693.165478781964
 21
-110.6881770525037
 31
0.0000000001127424
  0
LINE
  5
E416
330
18
100
AcDbEntity
  8
0
  6
BYBLOCK
100
AcDbLine
 10
4692.468810887965
 20
-60.38817705250367
 30
0.0000000001127424
 11
4693.165478781964
 21
-57.78817705250367
 31
0.0000000001127424
  0
LINE
  5
E417
330
18
100
AcDbEntity
  8
0
  6
BYBLOCK
100
AcDbLine
 10
4693.165478781964
 20
-57.78817705250367
 30
0.0000000001127424
 11
4693.862146675964
 21
-60.38817705250367
 31
0.0000000001127424
  0
LINE
  5
E418
330
18
100
AcDbEntity
  8
0
  6
BYBLOCK
100
AcDbLine
 10
4693.165478781964
 20
-57.78817705250367
 30
0.0000000001127424
 11
4693.165478781964
 21
-60.38817705250367
 31
0.0000000001127424
  0
TEXT
  5
E419
330
18
100
AcDbEntity
  8
1DIM
  6
CONTINUOUS
100
AcDbText
 10
4692.255478781964
 20
-92.39477427472502
 30
0.0000000001127424
 40
4.55
  1
55.5
 50
90.0
100
AcDbText
1001
ACAD
1000
DSTYLE
1002
{
1070
    40
1040
1.3
1070
    45
1040
0.5
1070
   341
1005
0
1002
}
  0
LINE
  5
E41A
330
18
100
AcDbEntity
  8
0
  6
BYBLOCK
100
AcDbLine
 10
4693.862146675964
 20
-110.6881770525037
 30
0.0000000001127424
 11
4693.165478781964
 21
-113.2881770525037
 31
0.0000000001127424
  0
LINE
  5
E41B
330
18
100
AcDbEntity
  8
0
  6
BYBLOCK
100
AcDbLine
 10
4693.165478781964
 20
-113.2881770525037
 30
0.0000000001127424
 11
4692.468810887965
 21
-110.6881770525037
 31
0.0000000001127424
  0
LINE
  5
E41C
330
18
100
AcDbEntity
  8
0
  6
BYBLOCK
100
AcDbLine
 10
4693.165478781964
 20
-113.2881770525037
 30
0.0000000001127424
 11
4693.165478781964
 21
-110.6881770525037
 31
0.0000000001127424
  0
LINE
  5
E41D
330
18
100
AcDbEntity
  8
0
  6
BYBLOCK
100
AcDbLine
 10
4692.468810887965
 20
-60.38817705250367
 30
0.0000000001127424
 11
4693.165478781964
 21
-57.78817705250367
 31
0.0000000001127424
  0
LINE
  5
E41E
330
18
100
AcDbEntity
  8
0
  6
BYBLOCK
100
AcDbLine
 10
4693.165478781964
 20
-57.78817705250367
 30
0.0000000001127424
 11
4693.862146675964
 21
-60.38817705250367
 31
0.0000000001127424
  0
LINE
  5
E41F
330
18
100
AcDbEntity
  8
0
  6
BYBLOCK
100
AcDbLine
 10
4693.165478781964
 20
-57.78817705250367
 30
0.0000000001127424
 11
4693.165478781964
 21
-60.38817705250367
 31
0.0000000001127424
  0
TEXT
  5
E420
330
18
100
AcDbEntity
  8
1DIM
  6
CONTINUOUS
100
AcDbText
 10
4692.255478781964
 20
-92.39477427472502
 30
0.0000000001127424
 40
4.55
  1
55.5
 50
90.0
100
AcDbText
1001
ACAD
1000
DSTYLE
1002
{
1070
    40
1040
1.3
1070
    45
1040
0.5
1070
   341
1005
0
1002
}
  0
LINE
  5
E421
330
18
100
AcDbEntity
  8
0
  6
BYBLOCK
100
AcDbLine
 10
5111.823817892281
 20
163.6118229464675
 30
0.0000000001127424
 11
5112.520485786281
 21
166.2118229464675
 31
0.0000000001127424
  0
LINE
  5
E422
330
18
100
AcDbEntity
  8
0
  6
BYBLOCK
100
AcDbLine
 10
5112.520485786281
 20
166.2118229464675
 30
0.0000000001127424
 11
5113.217153680281
 21
163.6118229464675
 31
0.0000000001127424
  0
LINE
  5
E423
330
18
100
AcDbEntity
  8
0
  6
BYBLOCK
100
AcDbLine
 10
5112.520485786281
 20
166.2118229464675
 30
0.0000000001127424
 11
5112.520485786281
 21
163.6118229464675
 31
0.0000000001127424
  0
LINE
  5
E424
330
18
100
AcDbEntity
  8
0
  6
BYBLOCK
100
AcDbLine
 10
5113.217153680281
 20
150.0118229464675
 30
0.0000000001127424
 11
5112.520485786281
 21
147.4118229464675
 31
0.0000000001127424
  0
LINE
  5
E425
330
18
100
AcDbEntity
  8
0
  6
BYBLOCK
100
AcDbLine
 10
5112.520485786281
 20
147.4118229464675
 30
0.0000000001127424
 11
5111.823817892281
 21
150.0118229464675
 31
0.0000000001127424
  0
LINE
  5
E426
330
18
100
AcDbEntity
  8
0
  6
BYBLOCK
100
AcDbLine
 10
5112.520485786281
 20
147.4118229464675
 30
0.0000000001127424
 11
5112.520485786281
 21
150.0118229464675
 31
0.0000000001127424
  0
TEXT
  5
E427
330
18
100
AcDbEntity
  8
1DIM
  6
CONTINUOUS
100
AcDbText
 10
5111.610485786281
 20
153.7774363723929
 30
0.0000000001127424
 40
4.55
  1
19
 50
90.0
100
AcDbText
1001
ACAD
1000
DSTYLE
1002
{
1070
    45
1040
0.5
1070
    40
1040
1.3
1002
}
  0
LINE
  5
E428
330
18
100
AcDbEntity
  8
0
  6
BYBLOCK
100
AcDbLine
 10
5079.459210844509
 20
51.0151550534961
 30
0.0000000001127424
 11
5076.859210844508
 21
51.7118229474961
 31
0.0000000001127424
  0
LINE
  5
E429
330
18
100
AcDbEntity
  8
0
  6
BYBLOCK
100
AcDbLine
 10
5076.859210844508
 20
51.7118229474961
 30
0.0000000001127424
 11
5079.459210844509
 21
52.4084908414961
 31
0.0000000001127424
  0
LINE
  5
E42A
330
18
100
AcDbEntity
  8
0
  6
BYBLOCK
100
AcDbLine
 10
5076.859210844508
 20
51.7118229474961
 30
0.0000000001127424
 11
5079.459210844509
 21
51.7118229474961
 31
0.0000000001127424
  0
LINE
  5
E42B
330
18
100
AcDbEntity
  8
0
  6
BYBLOCK
100
AcDbLine
 10
5180.259210844509
 20
52.4084908414961
 30
0.0000000001127424
 11
5182.859210844509
 21
51.7118229474961
 31
0.0000000001127424
  0
LINE
  5
E42C
330
18
100
AcDbEntity
  8
0
  6
BYBLOCK
100
AcDbLine
 10
5182.859210844509
 20
51.7118229474961
 30
0.0000000001127424
 11
5180.259210844509
 21
51.0151550534961
 31
0.0000000001127424
  0
LINE
  5
E42D
330
18
100
AcDbEntity
  8
0
  6
BYBLOCK
100
AcDbLine
 10
5182.859210844509
 20
51.7118229474961
 30
0.0000000001127424
 11
5180.259210844509
 21
51.7118229474961
 31
0.0000000001127424
  0
TEXT
  5
E42E
330
18
100
AcDbEntity
  8
1DIM
  6
CONTINUOUS
100
AcDbText
 10
5124.930044177841
 20
52.62182294749611
 30
0.0000000001127424
 40
4.55
  1
106
100
AcDbText
1001
ACAD
1000
DSTYLE
1002
{
1070
    40
1040
1.3
1070
    45
1040
0.5
1002
}
  0
LINE
  5
E42F
330
18
100
AcDbEntity
  8
0
  6
BYBLOCK
100
AcDbLine
 10
5069.459210844508
 20
41.0151550534961
 30
0.0000000001127424
 11
5066.859210844507
 21
41.7118229474961
 31
0.0000000001127424
  0
LINE
  5
E430
330
18
100
AcDbEntity
  8
0
  6
BYBLOCK
100
AcDbLine
 10
5066.859210844507
 20
41.7118229474961
 30
0.0000000001127424
 11
5069.459210844508
 21
42.4084908414961
 31
0.0000000001127424
  0
LINE
  5
E431
330
18
100
AcDbEntity
  8
0
  6
BYBLOCK
100
AcDbLine
 10
5066.859210844507
 20
41.7118229474961
 30
0.0000000001127424
 11
5069.459210844508
 21
41.7118229474961
 31
0.0000000001127424
  0
LINE
  5
E432
330
18
100
AcDbEntity
  8
0
  6
BYBLOCK
100
AcDbLine
 10
5180.259210844509
 20
42.4084908414961
 30
0.0000000001127424
 11
5182.859210844509
 21
41.7118229474961
 31
0.0000000001127424
  0
LINE
  5
E433
330
18
100
AcDbEntity
  8
0
  6
BYBLOCK
100
AcDbLine
 10
5182.859210844509
 20
41.7118229474961
 30
0.0000000001127424
 11
5180.259210844509
 21
41.0151550534961
 31
0.0000000001127424
  0
LINE
  5
E434
330
18
100
AcDbEntity
  8
0
  6
BYBLOCK
100
AcDbLine
 10
5182.859210844509
 20
41.7118229474961
 30
0.0000000001127424
 11
5180.259210844509
 21
41.7118229474961
 31
0.0000000001127424
  0
TEXT
  5
E435
330
18
100
AcDbEntity
  8
1DIM
  6
CONTINUOUS
100
AcDbText
 10
5120.309210844508
 20
42.62182294749611
 30
0.0000000001127424
 40
4.55
  1
116
100
AcDbText
1001
ACAD
1000
DSTYLE
1002
{
1070
    40
1040
1.3
1070
    45
1040
0.5
1002
}
  0
LINE
  5
E436
330
18
100
AcDbEntity
  8
0
  6
BYBLOCK
100
AcDbLine
 10
5232.555878738508
 20
101.8118229474961
 30
0.0000000001127424
 11
5231.859210844508
 21
99.21182294749609
 31
0.0000000001127424
  0
LINE
  5
E437
330
18
100
AcDbEntity
  8
0
  6
BYBLOCK
100
AcDbLine
 10
5231.859210844508
 20
99.21182294749609
 30
0.0000000001127424
 11
5231.162542950508
 21
101.8118229474961
 31
0.0000000001127424
  0
LINE
  5
E438
330
18
100
AcDbEntity
  8
0
  6
BYBLOCK
100
AcDbLine
 10
5231.859210844508
 20
99.21182294749609
 30
0.0000000001127424
 11
5231.859210844508
 21
101.8118229474961
 31
0.0000000001127424
  0
LINE
  5
E439
330
18
100
AcDbEntity
  8
0
  6
BYBLOCK
100
AcDbLine
 10
5231.162542950508
 20
134.1118229474961
 30
0.0000000001127424
 11
5231.859210844508
 21
136.7118229474961
 31
0.0000000001127424
  0
LINE
  5
E43A
330
18
100
AcDbEntity
  8
0
  6
BYBLOCK
100
AcDbLine
 10
5231.859210844508
 20
136.7118229474961
 30
0.0000000001127424
 11
5232.555878738508
 21
134.1118229474961
 31
0.0000000001127424
  0
LINE
  5
E43B
330
18
100
AcDbEntity
  8
0
  6
BYBLOCK
100
AcDbLine
 10
5231.859210844508
 20
136.7118229474961
 30
0.0000000001127424
 11
5231.859210844508
 21
134.1118229474961
 31
0.0000000001127424
  0
TEXT
  5
E43C
330
18
100
AcDbEntity
  8
1DIM
  6
CONTINUOUS
100
AcDbText
 10
5230.949210844507
 20
111.1368229474974
 30
0.0000000001127424
 40
4.55
  1
37.5
 50
90.0
100
AcDbText
1001
ACAD
1000
DSTYLE
1002
{
1070
    40
1040
1.3
1070
    45
1040
0.5
1002
}
  0
LINE
  5
E43D
330
18
100
AcDbEntity
  8
0
  6
BYBLOCK
100
AcDbLine
 10
5242.555878738508
 20
82.81182294749608
 30
0.0000000001127424
 11
5241.859210844508
 21
80.21182294749609
 31
0.0000000001127424
  0
LINE
  5
E43E
330
18
100
AcDbEntity
  8
0
  6
BYBLOCK
100
AcDbLine
 10
5241.859210844508
 20
80.21182294749609
 30
0.0000000001127424
 11
5241.162542950508
 21
82.81182294749608
 31
0.0000000001127424
  0
LINE
  5
E43F
330
18
100
AcDbEntity
  8
0
  6
BYBLOCK
100
AcDbLine
 10
5241.859210844508
 20
80.21182294749609
 30
0.0000000001127424
 11
5241.859210844508
 21
82.81182294749608
 31
0.0000000001127424
  0
LINE
  5
E440
330
18
100
AcDbEntity
  8
0
  6
BYBLOCK
100
AcDbLine
 10
5241.162542950508
 20
134.1118229474961
 30
0.0000000001127424
 11
5241.859210844508
 21
136.7118229474961
 31
0.0000000001127424
  0
LINE
  5
E441
330
18
100
AcDbEntity
  8
0
  6
BYBLOCK
100
AcDbLine
 10
5241.859210844508
 20
136.7118229474961
 30
0.0000000001127424
 11
5242.555878738508
 21
134.1118229474961
 31
0.0000000001127424
  0
LINE
  5
E442
330
18
100
AcDbEntity
  8
0
  6
BYBLOCK
100
AcDbLine
 10
5241.859210844508
 20
136.7118229474961
 30
0.0000000001127424
 11
5241.859210844508
 21
134.1118229474961
 31
0.0000000001127424
  0
TEXT
  5
E443
330
18
100
AcDbEntity
  8
1DIM
  6
CONTINUOUS
100
AcDbText
 10
5240.949210844507
 20
101.605225725275
 30
0.0000000001127424
 40
4.55
  1
56.5
 50
90.0
100
AcDbText
1001
ACAD
1000
DSTYLE
1002
{
1070
    40
1040
1.3
1070
    45
1040
0.5
1002
}
  0
LINE
  5
E444
330
18
100
AcDbEntity
  8
0
  6
BYBLOCK
100
AcDbLine
 10
5232.555878738508
 20
-120.1868587394012
 30
0.0000000001127424
 11
5231.859210844508
 21
-122.7868587394012
 31
0.0000000001127424
  0
LINE
  5
E445
330
18
100
AcDbEntity
  8
0
  6
BYBLOCK
100
AcDbLine
 10
5231.859210844508
 20
-122.7868587394012
 30
0.0000000001127424
 11
5231.162542950508
 21
-120.1868587394012
 31
0.0000000001127424
  0
LINE
  5
E446
330
18
100
AcDbEntity
  8
0
  6
BYBLOCK
100
AcDbLine
 10
5231.859210844508
 20
-122.7868587394012
 30
0.0000000001127424
 11
5231.859210844508
 21
-120.1868587394012
 31
0.0000000001127424
  0
LINE
  5
E447
330
18
100
AcDbEntity
  8
0
  6
BYBLOCK
100
AcDbLine
 10
5231.162542950508
 20
-106.3868587394012
 30
0.0000000001127424
 11
5231.859210844508
 21
-103.7868587394012
 31
0.0000000001127424
  0
LINE
  5
E448
330
18
100
AcDbEntity
  8
0
  6
BYBLOCK
100
AcDbLine
 10
5231.859210844508
 20
-103.7868587394012
 30
0.0000000001127424
 11
5232.555878738508
 21
-106.3868587394012
 31
0.0000000001127424
  0
LINE
  5
E449
330
18
100
AcDbEntity
  8
0
  6
BYBLOCK
100
AcDbLine
 10
5231.859210844508
 20
-103.7868587394012
 30
0.0000000001127424
 11
5231.859210844508
 21
-106.3868587394012
 31
0.0000000001127424
  0
TEXT
  5
E44A
330
18
100
AcDbEntity
  8
1DIM
  6
CONTINUOUS
100
AcDbText
 10
5230.949210844508
 20
-119.6579119801409
 30
0.0000000001127424
 40
4.55
  1
φ19
 50
90.0
100
AcDbText
1001
ACAD
1000
DSTYLE
1002
{
1070
     3
1000
φ<>
1070
    40
1040
1.3
1070
    45
1040
0.5
1002
}
  0
VIEWPORT
  5
57
330
15
100
AcDbEntity
 67
     1
  8
0
100
AcDbViewport
 68
     1
 10
0.0
 20
0.0
 30
0.0
 40
535.5106132075471
 41
296.9999999999999
 68
     1
 69
     1
1001
ACAD
1000
MVIEW
1002
{
1070
    16
1010
0.0
1020
0.0
1030
0.0
1010
0.0
1020
0.0
1030
1.0
1040
0.0
1040
296.9999999999999
1040
5.728000000000009
1040
25.339
1040
50.0
1040
0.0
1040
0.0
1070
    16
1070
   100
1070
     0
1070
     1
1070
     0
1070
     0
1070
     0
1070
     0
1040
0.0
1040
0.0
1040
0.0
1040
10.0
1040
10.0
1040
10.0
1040
10.0
1070
     0
1002
{
1002
}
1002
}
  0
ENDSEC
  0
SECTION
  2
OBJECTS
  0
DICTIONARY
  5
C
330
0
100
AcDbDictionary
  3
ACAD_CIP_PREVIOUS_PRODUCT_INFO
350
AEA8
  3
ACAD_COLOR
350
18D
  3
ACAD_GROUP
350
D
  3
ACAD_LAYOUT
350
18E
  3
ACAD_MATERIAL
350
18C
  3
ACAD_MLEADERSTYLE
350
9583
  3
ACAD_MLINESTYLE
350
1B
  3
ACAD_PLOTSETTINGS
350
18F
  3
ACAD_SCALELIST
350
9561
  3
ACAD_VISUALSTYLE
350
9550
  3
ACDBHEADERROUNDTRIPXREC
350
E44B
  3
ACDBVARIABLEDICTIONARY
350
37
  3
CONTENTDICTIONARY
350
D8
  3
DRAWINGVARIABLESDICT
350
20
  3
DWGPROPS
350
E44E
1001
ACAD
1000
TREAT_AS_HARD
1070
     0
  0
DICTIONARY
  5
96D9
330
2
100
AcDbDictionary
  3
ACAD_LAYERSTATES
360
96DA
1001
ACAD
1000
TREAT_AS_HARD
1070
     1
  0
DICTIONARY
  5
9593
330
E
100
AcDbDictionary
  3
ADSK_XREC_LAYER_RECONCILED
360
9594
1001
ACAD
1000
TREAT_AS_HARD
1070
     1
  0
DICTIONARY
  5
9595
330
29
100
AcDbDictionary
  3
ADSK_XREC_LAYER_RECONCILED
360
9596
1001
ACAD
1000
TREAT_AS_HARD
1070
     1
  0
DICTIONARY
  5
9597
330
31
100
AcDbDictionary
  3
ADSK_XREC_LAYER_RECONCILED
360
9598
1001
ACAD
1000
TREAT_AS_HARD
1070
     1
  0
DICTIONARY
  5
959D
330
243
100
AcDbDictionary
  3
ADSK_XREC_LAYER_RECONCILED
360
959E
1001
ACAD
1000
TREAT_AS_HARD
1070
     1
  0
DICTIONARY
  5
95A3
330
24E
100
AcDbDictionary
  3
ADSK_XREC_LAYER_RECONCILED
360
95A4
1001
ACAD
1000
TREAT_AS_HARD
1070
     1
  0
DICTIONARY
  5
95AF
330
2C05
100
AcDbDictionary
  3
ADSK_XREC_LAYER_RECONCILED
360
95B0
1001
ACAD
1000
TREAT_AS_HARD
1070
     1
  0
DICTIONARY
  5
88F
330
18
100
AcDbDictionary
  3
ACAD_SORTENTS
360
890
1001
ACAD
1000
TREAT_AS_HARD
1070
     1
  0
XRECORD
  5
AEA8
102
{ACAD_REACTORS
330
C
102
}
330
C
100
AcDbXrecord
300
ACDLT
300
2012
300
ACDLT_F_S
  0
DICTIONARY
  5
18D
102
{ACAD_REACTORS
330
C
102
}
330
C
100
AcDbDictionary
1001
ACAD
1000
TREAT_AS_HARD
1070
     0
  0
DICTIONARY
  5
D
102
{ACAD_REACTORS
330
C
102
}
330
C
100
AcDbDictionary
1001
ACAD
1000
TREAT_AS_HARD
1070
     0
  0
DICTIONARY
  5
18E
102
{ACAD_REACTORS
330
C
102
}
330
C
100
AcDbDictionary
1001
ACAD
1000
TREAT_AS_HARD
1070
     0
  0
DICTIONARY
  5
18C
102
{ACAD_REACTORS
330
C
102
}
330
C
100
AcDbDictionary
  3
BYBLOCK
350
9540
  3
BYLAYER
350
9538
  3
GLOBAL
350
9548
1001
ACAD
1000
TREAT_AS_HARD
1070
     0
  0
DICTIONARY
  5
9583
102
{ACAD_REACTORS
330
C
102
}
330
C
100
AcDbDictionary
  3
STANDARD
350
9584
1001
ACAD
1000
TREAT_AS_HARD
1070
     0
  0
DICTIONARY
  5
1B
102
{ACAD_REACTORS
330
C
102
}
330
C
100
AcDbDictionary
  3
STANDARD
350
1C
1001
ACAD
1000
TREAT_AS_HARD
1070
     0
  0
DICTIONARY
  5
18F
102
{ACAD_REACTORS
330
C
102
}
330
C
100
AcDbDictionary
1001
ACAD
1000
TREAT_AS_HARD
1070
     0
  0
DICTIONARY
  5
9561
102
{ACAD_REACTORS
330
C
102
}
330
C
100
AcDbDictionary
  3
A0
350
9562
  3
A1
350
9563
  3
A2
350
9564
  3
A3
350
9565
  3
A4
350
9566
  3
A5
350
9567
  3
A6
350
9568
  3
A7
350
9569
  3
A8
350
956A
  3
A9
350
956B
  3
B0
350
956C
  3
B1
350
956D
  3
B2
350
956E
  3
B3
350
956F
  3
B4
350
9570
  3
B5
350
9571
  3
B6
350
9572
  3
B7
350
9573
  3
B8
350
9574
  3
B9
350
9575
  3
C0
350
9576
  3
C1
350
9577
  3
C2
350
9578
  3
C3
350
9579
  3
C4
350
957A
  3
C5
350
957B
  3
C6
350
957C
  3
C7
350
957D
  3
C8
350
957E
  3
C9
350
957F
  3
D0
350
9580
  3
D1
350
9581
  3
D2
350
9582
1001
ACAD
1000
TREAT_AS_HARD
1070
     0
  0
DICTIONARY
  5
9550
102
{ACAD_REACTORS
330
C
102
}
330
C
100
AcDbDictionary
  3
2DWIREFRAME
350
9556
  3
3D_HIDDEN
350
9558
  3
3DWIREFRAME
350
9557
  3
BASIC
350
9555
  3
BRIGHTEN
350
955C
  3
COLORCHANGE
350
9560
  3
CONCEPTUAL
350
9559
  3
DIM
350
955B
  3
EDGECOLOROFF
350
A211
  3
FACEPATTERN
350
955F
  3
FLAT
350
9551
  3
FLATWITHEDGES
350
9552
  3
GOURAUD
350
9553
  3
GOURAUDWITHEDGES
350
9554
  3
HIDDEN
350
A260
  3
JITTEROFF
350
A20F
  3
LINEPATTERN
350
955E
  3
MODELING
350
A266
  3
OVERHANGOFF
350
A210
  3
REALISTIC
350
955A
  3
SHADED
350
A265
  3
SHADED_WITH_EDGES
350
A264
  3
SHADES_OF_GRAY
350
A261
  3
SKETCHY
350
A262
  3
THICKEN
350
955D
  3
WIREFRAME
350
A25F
  3
X-RAY
350
A263
1001
ACAD
1000
TREAT_AS_HARD
1070
     0
  0
DICTIONARY
  5
E44B
102
{ACAD_REACTORS
330
C
102
}
330
C
100
AcDbDictionary
  3
COLORDICT
350
E44C
  3
MATERIALDICT
350
E44D
1001
ACAD
1000
TREAT_AS_HARD
1070
     0
  0
DICTIONARY
  5
37
102
{ACAD_REACTORS
330
C
102
}
330
C
100
AcDbDictionary
  3
CANNOSCALE
350
AAE0
  3
CMLEADERSTYLE
350
9627
  3
CTABLESTYLE
350
29E
  3
DIMADEC
350
38
  3
DIMASSOC
350
1CE
  3
HIDETEXT
350
704E
  3
INDEXCTL
350
962A
  3
INTERSECTIONCOLOR
350
7052
  3
INTERSECTIONDISPLAY
350
7051
  3
MSLTSCALE
350
AB30
  3
OBSCOLOR
350
704F
  3
OBSLTYPE
350
7050
  3
PROJECTNAME
350
1CF
  3
SORTENTS
350
9629
  3
XCLIPFRAME
350
E20E
1001
ACAD
1000
TREAT_AS_HARD
1070
     0
  0
DICTIONARY
  5
D8
102
{ACAD_REACTORS
330
C
102
}
330
C
100
AcDbDictionary
1001
ACAD
1000
TREAT_AS_HARD
1070
     0
  0
DICTIONARY
  5
20
102
{ACAD_REACTORS
330
C
102
}
330
C
100
AcDbDictionary
1001
DRAWINGVARIABLESXDATA
1000
POLARANG
1000
0.261799387799149410000000
1000
POLARMODE
1000
1
1000
POLARSTYLE
1000
1
1001
ACAD
1000
TREAT_AS_HARD
1070
     0
  0
XRECORD
  5
E44E
102
{ACAD_REACTORS
330
C
102
}
330
C
100
AcDbXrecord
  1
DWGPROPS COOKIE
  2

  3

  4

  6

  7

  8
3684
  9

300
=
301
=
302
=
303
=
304
=
305
=
306
=
307
=
308
=
309
=
 40
0.0
 41
2451318.246352917
 42
2458967.206236933
  1

 90
        0
  0
DICTIONARY
  5
96DA
102
{ACAD_REACTORS
330
96D9
102
}
330
96D9
100
AcDbDictionary
1001
ACAD
1000
TREAT_AS_HARD
1070
     0
  0
ACAD_PROXY_OBJECT
  5
9594
102
{ACAD_REACTORS
330
9593
102
}
330
9593
100
AcDbZombieObject
 90
      499
 91
      514
 93
       34
310
40C8804040
  0
ACAD_PROXY_OBJECT
  5
9596
102
{ACAD_REACTORS
330
9595
102
}
330
9595
100
AcDbZombieObject
 90
      499
 91
      514
 93
       34
310
40C8804040
  0
ACAD_PROXY_OBJECT
  5
9598
102
{ACAD_REACTORS
330
9597
102
}
330
9597
100
AcDbZombieObject
 90
      499
 91
      514
 93
       34
310
40C8804040
  0
ACAD_PROXY_OBJECT
  5
959E
102
{ACAD_REACTORS
330
959D
102
}
330
959D
100
AcDbZombieObject
 90
      499
 91
      514
 93
       34
310
40C8804040
  0
ACAD_PROXY_OBJECT
  5
95A4
102
{ACAD_REACTORS
330
95A3
102
}
330
95A3
100
AcDbZombieObject
 90
      499
 91
      514
 93
       34
310
40C8804040
  0
ACAD_PROXY_OBJECT
  5
95B0
102
{ACAD_REACTORS
330
95AF
102
}
330
95AF
100
AcDbZombieObject
 90
      499
 91
      514
 93
       34
310
40C8804040
  0
SORTENTSTABLE
  5
890
102
{ACAD_REACTORS
330
88F
102
}
330
88F
100
AcDbSortentsTable
330
18
331
CC39
  5
CC47
331
CC3A
  5
CC48
331
CC3B
  5
CC4A
331
CC3C
  5
CC4B
331
CC3D
  5
CC4C
331
CC3E
  5
CC4D
331
CC3F
  5
CC4E
331
CC40
  5
CC4F
331
CC41
  5
CC50
331
CC42
  5
CC54
331
CC43
  5
CC55
331
CC44
  5
CC56
331
CC45
  5
CC57
331
CC47
  5
CC67
331
CC48
  5
CC68
331
0
  5
CC73
331
CC4B
  5
CC87
331
CC4C
  5
CC88
331
CC4D
  5
CC89
331
CC4E
  5
CC8A
331
CC4F
  5
CC8B
331
CC50
  5
CC8C
331
CC51
  5
CC8D
331
CC52
  5
CC8E
331
CC53
  5
CC8F
331
CC54
  5
CC90
331
CC55
  5
CC91
331
CC56
  5
CC92
331
CC57
  5
CC93
331
CC58
  5
CC94
331
CC59
  5
CC95
331
CC5A
  5
CC96
331
CC5B
  5
CC98
331
CC5C
  5
CC99
331
CC5D
  5
CC9A
331
CC5E
  5
CC9B
331
CC60
  5
CCAB
331
CC61
  5
CCAD
331
CC62
  5
CCAE
331
CC64
  5
CCBC
331
0
  5
CCAC
331
CC66
  5
CCCA
331
CC67
  5
CCCB
331
CC68
  5
CCCC
331
CC69
  5
CCCD
331
CC6A
  5
CCCE
331
CC6B
  5
CCD2
331
CC6C
  5
CCD3
331
CC6D
  5
CCD4
331
CC6E
  5
CCD5
331
CC6F
  5
CCD6
331
CC70
  5
CCD7
331
CC71
  5
CCDB
331
CC72
  5
CCDC
331
CC73
  5
CCDD
331
CC74
  5
CCE1
331
CC75
  5
CCE2
331
CC76
  5
CCE3
331
CC77
  5
CCE7
331
CC78
  5
CCE8
331
CC79
  5
CCE9
331
CC7A
  5
CCEA
331
CC7B
  5
CCEB
331
CC7C
  5
CCEC
331
CC7D
  5
CCED
331
CC7E
  5
CCEE
331
CC7F
  5
CCEF
331
CC80
  5
CCF0
331
CC81
  5
CCF1
331
CC82
  5
CCF2
331
CC83
  5
CCF3
331
CC84
  5
CCF4
331
CC85
  5
CCF5
331
CC86
  5
CCF6
331
CC87
  5
CCF7
331
CC88
  5
CCF8
331
CC89
  5
CCF9
331
CC8A
  5
CCFA
331
CC8B
  5
CCFB
331
CC8C
  5
CCFC
331
CC8D
  5
CCFD
331
CC8E
  5
CCFE
331
CC8F
  5
CCFF
331
CC90
  5
CD00
331
CC91
  5
CD02
331
CC92
  5
CD03
331
CC93
  5
CD04
331
CC94
  5
CD05
331
CC95
  5
CD06
331
CC96
  5
CD07
331
CC98
  5
CD12
331
CC99
  5
CD13
331
CC9A
  5
CD15
331
CC9B
  5
CD16
331
CC9C
  5
CD17
331
CC9D
  5
CD18
331
CC9E
  5
CD19
331
CC9F
  5
CD1A
331
0
  5
CD01
331
CCA3
  5
CD2A
331
CCA4
  5
CD2B
331
CCA5
  5
CD2C
331
CCA9
  5
CD4B
331
CCAA
  5
CD4C
331
CCAB
  5
CD4D
331
CCAC
  5
CD4E
331
CCAD
  5
CD4F
331
CCAE
  5
CD50
331
CCAF
  5
CD51
331
CCB0
  5
CD52
331
CCB1
  5
CD53
331
CCB2
  5
CD56
331
CCB3
  5
CD57
331
CCB4
  5
CD58
331
CCB5
  5
CD5C
331
CCB6
  5
CD5D
331
CCB7
  5
CD5E
331
CCB8
  5
CD5F
331
CCB9
  5
CD60
331
CCBA
  5
CD61
331
CCBB
  5
CD62
331
CCBC
  5
CD63
331
CCBD
  5
CD64
331
CCBE
  5
CD65
331
CCBF
  5
CD66
331
CCC0
  5
CD67
331
CCC1
  5
CD68
331
CCC2
  5
CD6F
331
CCC3
  5
CD70
331
CCC4
  5
CD71
331
CCC5
  5
CD72
331
CCC6
  5
CD73
331
CCC7
  5
CD74
331
CCC8
  5
CD76
331
CCC9
  5
CD77
331
CCCA
  5
CD78
331
CCCB
  5
CD79
331
CCCC
  5
CD7A
331
CCCD
  5
CD7B
331
CCCE
  5
CD7C
331
CCCF
  5
CD7D
331
CCD0
  5
CD7E
331
CCD1
  5
CD7F
331
CCD2
  5
CD80
331
CCD3
  5
CD82
331
CCD4
  5
CD83
331
CCD5
  5
CD84
331
CCD6
  5
CD85
331
CCD7
  5
CD86
331
CCD8
  5
CD87
331
CCD9
  5
CD88
331
CCDA
  5
CD89
331
CCDB
  5
CD8A
331
CCDC
  5
CD8B
331
CCDD
  5
CD8C
331
CCDE
  5
CD8D
331
CCDF
  5
CD8F
331
CCE0
  5
CD90
331
CCE1
  5
CD91
331
CCE2
  5
CD92
331
CCE3
  5
CD93
331
CCE4
  5
CD97
331
CCE5
  5
CD98
331
CCE6
  5
CD99
331
CCE7
  5
CD9A
331
CCE8
  5
CD9B
331
CCE9
  5
CD9C
331
CCEA
  5
CD9D
331
CCEB
  5
CD9E
331
CCEC
  5
CD9F
331
CCED
  5
CDA0
331
CCEE
  5
CDA1
331
0
  5
CD81
331
CCF0
  5
CDAF
331
CCF1
  5
CDB0
331
CCF2
  5
CDB4
331
CCF3
  5
CDB5
331
CCF4
  5
CDB6
331
CCF5
  5
CDB7
331
CCF6
  5
CDB8
331
CCF7
  5
CDB9
331
CCF8
  5
CDBA
331
CCF9
  5
CDBB
331
CCFA
  5
CDBC
331
CCFB
  5
CDBD
331
CCFC
  5
CDBE
331
CCFD
  5
CDBF
331
CCFE
  5
CDC0
331
CCFF
  5
CDC1
331
CD00
  5
CDC2
331
CD01
  5
CDC3
331
CD02
  5
CDC4
331
CD03
  5
CDC5
331
CD04
  5
CDC6
331
CD05
  5
CDC7
331
CD06
  5
CDC8
331
CD07
  5
CDC9
331
CD08
  5
CDCA
331
CD09
  5
CDCB
331
CD0A
  5
CDCC
331
CD0B
  5
CDCD
331
CD0C
  5
CDCE
331
CD0D
  5
CDCF
331
CD0E
  5
E324
331
CD0F
  5
E325
331
CD10
  5
E326
331
CD11
  5
E327
331
CD12
  5
E328
331
CD13
  5
E329
331
CD15
  5
E334
331
CD16
  5
E335
331
CD17
  5
E336
331
CD18
  5
E337
331
CD19
  5
E338
331
CD1A
  5
E339
331
CD1B
  5
E33A
331
CD1C
  5
E33B
331
CD1D
  5
E33C
331
CD1E
  5
E33D
331
CD1F
  5
E33E
331
CD21
  5
E345
331
CD22
  5
E346
331
CD23
  5
E347
331
CD24
  5
E348
331
CD25
  5
E349
331
CD26
  5
E34A
331
CD27
  5
E34B
331
CD28
  5
E34C
331
CD29
  5
E34D
331
CD2A
  5
E34E
331
CD2B
  5
E34F
331
CD2C
  5
E350
331
CD2D
  5
E351
331
CD2E
  5
E352
331
CD2F
  5
E353
331
CD30
  5
E354
331
CD31
  5
E355
331
CD32
  5
E356
331
CD33
  5
E357
331
CD34
  5
E358
331
CD35
  5
E359
331
CD36
  5
E35A
331
CD37
  5
E35B
331
CD38
  5
E35C
331
CD39
  5
E35D
331
CD3A
  5
E35E
331
CD3B
  5
E35F
331
CD3C
  5
E360
331
CD3D
  5
E361
331
CD3E
  5
E362
331
CD3F
  5
E363
331
CD40
  5
E364
331
CD41
  5
E365
331
CD42
  5
E366
331
CD43
  5
E367
331
CD44
  5
E368
331
CD45
  5
E369
331
CD46
  5
E36A
331
CD47
  5
E36B
331
CD48
  5
E36C
331
CD49
  5
E36D
331
CD4A
  5
E36E
331
CD4B
  5
E36F
331
CD4C
  5
E370
331
CD4D
  5
E371
331
CD4E
  5
E372
331
CD4F
  5
E373
331
CD50
  5
E374
331
CD51
  5
E375
331
CD52
  5
E376
331
CD53
  5
E377
331
CD56
  5
E38C
331
CD57
  5
E38D
331
CD58
  5
E38E
331
CD59
  5
E38F
331
CD5A
  5
E390
331
CD5B
  5
E391
331
CD5C
  5
E392
331
CD5D
  5
E393
331
CD5E
  5
E394
331
CD5F
  5
E395
331
CD60
  5
E396
331
CD61
  5
E397
331
CD62
  5
E398
331
CD63
  5
E399
331
CD64
  5
E39A
331
CD65
  5
E39B
331
CD66
  5
E39C
331
CD67
  5
E39D
331
CD68
  5
E39E
331
CD6F
  5
E39F
331
CD70
  5
E3A0
331
CD71
  5
E3A1
331
CD72
  5
E3A2
331
CD73
  5
E3A3
331
CD74
  5
E3A9
331
CD76
  5
E3B4
331
CD77
  5
E3B5
331
CD78
  5
E3B6
331
CD79
  5
E3B7
331
CD7A
  5
E3B8
331
CD7B
  5
E3B9
331
CD7C
  5
E3BA
331
CD7D
  5
E3BB
331
CD7E
  5
E3BC
331
CD7F
  5
E3BD
331
CD80
  5
E3BE
331
CD81
  5
E3BF
331
CD82
  5
E3C3
331
CD83
  5
E3C4
331
CD84
  5
E3C5
331
CD85
  5
E3C9
331
CD86
  5
E3CA
331
CD87
  5
E3CB
331
CD88
  5
E3CF
331
CD89
  5
E3D0
331
CD8A
  5
E3D1
331
CD8B
  5
E3D5
331
CD8C
  5
E3D6
331
CD8D
  5
E3D7
331
CD8F
  5
E3DC
331
CD90
  5
E3DD
331
CD91
  5
E3DE
331
CD92
  5
E3DF
331
CD93
  5
E3E0
331
0
  5
E3A4
331
0
  5
E3A5
331
0
  5
E3A6
331
0
  5
E3A7
331
0
  5
E3A8
331
CD99
  5
E413
331
CD9A
  5
E414
331
CD9B
  5
E415
331
CD9C
  5
E416
331
CD9D
  5
E417
331
CD9E
  5
E418
331
CD9F
  5
E419
331
CDA0
  5
E41A
331
CDA1
  5
E41B
331
CDA2
  5
E41C
331
CDA3
  5
E41D
331
CDA4
  5
E41E
331
CDA5
  5
E41F
331
CDA6
  5
E420
331
CDA7
  5
E421
331
CDA8
  5
E422
331
CDA9
  5
E423
331
CDAA
  5
E424
331
CDAB
  5
E425
331
CDAC
  5
E426
331
CDAD
  5
E427
331
CDAE
  5
E428
331
CDAF
  5
E429
331
CDB0
  5
E42A
331
CDB1
  5
E42B
331
CDB2
  5
E42C
331
CDB3
  5
E42D
331
CDB4
  5
E42E
331
CDB5
  5
E42F
331
CDB6
  5
E430
331
CDB7
  5
E431
331
CDB8
  5
E432
331
CDB9
  5
E433
331
CDBA
  5
E434
331
CDBB
  5
E435
331
CDBC
  5
E436
331
CDBD
  5
E437
331
CDBE
  5
E438
331
CDBF
  5
E439
331
CDC0
  5
E43A
331
CDC1
  5
E43B
331
CDC2
  5
E43C
331
CDC3
  5
E43D
331
CDC4
  5
E43E
331
CDC5
  5
E43F
331
CDC6
  5
E440
331
CDC7
  5
E441
331
CDC8
  5
E442
331
CDC9
  5
E443
331
CDCA
  5
E444
331
CDCB
  5
E445
331
CDCC
  5
E446
331
CDCD
  5
E447
331
CDCE
  5
E448
331
CDCF
  5
E449
331
CDD0
  5
E44A
331
E322
  5
CC39
331
E323
  5
CC3A
331
E324
  5
CC3B
331
0
  5
CC3C
331
0
  5
CC3D
331
0
  5
CC3E
331
E328
  5
CC58
331
E329
  5
CC5C
331
E32A
  5
CC5D
331
0
  5
CC51
331
0
  5
CC52
331
0
  5
CC53
331
E32E
  5
CC69
331
E32F
  5
CC6A
331
E330
  5
CC6B
331
0
  5
CC59
331
0
  5
CC5A
331
0
  5
CC5B
331
E334
  5
CC9C
331
E335
  5
CC9D
331
E336
  5
CC9E
331
0
  5
CC76
331
0
  5
CC77
331
0
  5
CC78
331
E33A
  5
CCAF
331
E33B
  5
CCB0
331
E33C
  5
CCB1
331
0
  5
CC7F
331
0
  5
CC80
331
0
  5
CC81
331
E340
  5
CD08
331
E341
  5
CD09
331
E342
  5
CD0A
331
0
  5
CCBE
331
0
  5
CCBF
331
0
  5
CCC0
331
E346
  5
CD1B
331
E347
  5
CD1C
331
E348
  5
CD1F
331
E349
  5
CD21
331
E34A
  5
CD22
331
0
  5
CCCF
331
0
  5
CCD0
331
0
  5
CCD1
331
E34E
  5
CD2D
331
E34F
  5
CD2E
331
E350
  5
CD2F
331
0
  5
CCD8
331
0
  5
CCD9
331
0
  5
CCDA
331
E354
  5
CD37
331
E355
  5
CD38
331
E356
  5
CD39
331
0
  5
CCDE
331
0
  5
CCDF
331
0
  5
CCE0
331
E35A
  5
CD41
331
E35B
  5
CD42
331
E35C
  5
CD43
331
0
  5
CCE4
331
0
  5
CCE5
331
0
  5
CCE6
331
E360
  5
E32A
331
E361
  5
E32B
331
E362
  5
E32C
331
0
  5
CD59
331
0
  5
CD5A
331
0
  5
CD5B
331
E366
  5
E33F
331
E367
  5
E340
331
E368
  5
E341
331
E369
  5
E342
331
E36A
  5
E343
331
E36B
  5
E344
331
E36C
  5
E378
331
E36D
  5
E379
331
E36E
  5
E37A
331
0
  5
CDAB
331
0
  5
CDAC
331
0
  5
CDAD
331
E372
  5
E382
331
E373
  5
E383
331
E374
  5
E384
331
0
  5
CDB1
331
0
  5
CDB2
331
0
  5
CDB3
331
E378
  5
E3AA
331
E379
  5
E3AB
331
E37A
  5
E3AC
331
0
  5
CDD0
331
0
  5
E322
331
0
  5
E323
331
E37E
  5
E3DB
331
E37F
  5
CC3F
331
E380
  5
CC40
331
E381
  5
CC41
331
E382
  5
CC42
331
E383
  5
CC43
331
E384
  5
CC44
331
E385
  5
CC45
331
E386
  5
CC5E
331
E387
  5
CC60
331
E388
  5
CC61
331
E389
  5
CC62
331
E38A
  5
CC64
331
E38B
  5
CC65
331
E38C
  5
CC66
331
E38D
  5
CC6C
331
E38E
  5
CC6D
331
E38F
  5
CC6E
331
E390
  5
CC6F
331
E391
  5
CC70
331
E392
  5
CC71
331
E393
  5
CC72
331
E394
  5
CC9F
331
E395
  5
CCA1
331
E396
  5
CCA3
331
E397
  5
CCA4
331
E398
  5
CCA5
331
E399
  5
CCA9
331
E39A
  5
CCAA
331
E39B
  5
CCB2
331
E39C
  5
CCB3
331
E39D
  5
CCB4
331
E39E
  5
CCB5
331
E39F
  5
CCB9
331
E3A0
  5
CCBA
331
E3A1
  5
CCBB
331
E3A2
  5
CD0B
331
E3A3
  5
CD0C
331
E3A4
  5
CD0D
331
E3A5
  5
CD0E
331
E3A6
  5
CD0F
331
E3A7
  5
CD10
331
E3A8
  5
CD11
331
E3A9
  5
CD23
331
E3AA
  5
CD24
331
E3AB
  5
CD25
331
E3AC
  5
CD26
331
E3AD
  5
CD27
331
E3AE
  5
CD28
331
E3AF
  5
CD29
331
E3B0
  5
CD30
331
E3B1
  5
CD31
331
E3B2
  5
CD32
331
E3B3
  5
CD33
331
E3B4
  5
CD34
331
E3B5
  5
CD35
331
E3B6
  5
CD36
331
E3B7
  5
CD3A
331
E3B8
  5
CD3B
331
E3B9
  5
CD3C
331
E3BA
  5
CD3D
331
E3BB
  5
CD3E
331
E3BC
  5
CD3F
331
E3BD
  5
CD40
331
E3BE
  5
CD44
331
E3BF
  5
CD45
331
E3C0
  5
CD46
331
E3C1
  5
CD47
331
E3C2
  5
CD48
331
E3C3
  5
CD49
331
E3C4
  5
CD4A
331
E3C5
  5
E32D
331
E3C6
  5
E32E
331
E3C7
  5
E32F
331
E3C8
  5
E330
331
E3C9
  5
E331
331
E3CA
  5
E332
331
E3CB
  5
E333
331
E3CC
  5
E37B
331
E3CD
  5
E37C
331
E3CE
  5
E37D
331
E3CF
  5
E37E
331
E3D0
  5
E37F
331
E3D1
  5
E380
331
E3D2
  5
E381
331
E3D3
  5
E385
331
E3D4
  5
E386
331
E3D5
  5
E387
331
E3D6
  5
E388
331
E3D7
  5
E389
331
E3D8
  5
E38A
331
E3D9
  5
E38B
331
E3DA
  5
E3AD
331
E3DB
  5
E3AE
331
E3DC
  5
E3AF
331
E3DD
  5
E3B0
331
E3DE
  5
E3B1
331
E3DF
  5
E3B2
331
E3E0
  5
E3B3
331
E3E1
  5
CC74
331
E3E2
  5
CC75
331
E3E3
  5
CC79
331
0
  5
CC7A
331
0
  5
CC7B
331
0
  5
CC7C
331
E3E7
  5
CCBD
331
E3E8
  5
CCC1
331
E3E9
  5
CCC2
331
0
  5
CCB6
331
0
  5
CCB7
331
0
  5
CCB8
331
E3ED
  5
CD1D
331
E3EE
  5
CD1E
331
E3EF
  5
CDA2
331
E3F0
  5
CDA3
331
E3F1
  5
CDA4
331
0
  5
CD94
331
0
  5
CD95
331
0
  5
CD96
331
E3F5
  5
E3E1
331
E3F6
  5
E3E2
331
E3F7
  5
E3E3
331
0
  5
E3C0
331
0
  5
E3C1
331
0
  5
E3C2
331
E3FB
  5
E3EB
331
E3FC
  5
E3EC
331
E3FD
  5
E3ED
331
0
  5
E3C6
331
0
  5
E3C7
331
0
  5
E3C8
331
E401
  5
E3F5
331
E402
  5
E3F6
331
E403
  5
E3F7
331
0
  5
E3CC
331
0
  5
E3CD
331
0
  5
E3CE
331
E407
  5
E3FF
331
E408
  5
E400
331
E409
  5
E401
331
0
  5
E3D2
331
0
  5
E3D3
331
0
  5
E3D4
331
E40D
  5
E409
331
E40E
  5
E40A
331
E40F
  5
E40B
331
0
  5
E3D8
331
0
  5
E3D9
331
0
  5
E3DA
331
E413
  5
CC7D
331
E414
  5
CC7E
331
E415
  5
CC82
331
E416
  5
CC83
331
E417
  5
CC84
331
E418
  5
CC85
331
E419
  5
CC86
331
E41A
  5
CCC3
331
E41B
  5
CCC4
331
E41C
  5
CCC5
331
E41D
  5
CCC6
331
E41E
  5
CCC7
331
E41F
  5
CCC8
331
E420
  5
CCC9
331
E421
  5
CDA5
331
E422
  5
CDA6
331
E423
  5
CDA7
331
E424
  5
CDA8
331
E425
  5
CDA9
331
E426
  5
CDAA
331
E427
  5
CDAE
331
E428
  5
E3E4
331
E429
  5
E3E5
331
E42A
  5
E3E6
331
E42B
  5
E3E7
331
E42C
  5
E3E8
331
E42D
  5
E3E9
331
E42E
  5
E3EA
331
E42F
  5
E3EE
331
E430
  5
E3EF
331
E431
  5
E3F0
331
E432
  5
E3F1
331
E433
  5
E3F2
331
E434
  5
E3F3
331
E435
  5
E3F4
331
E436
  5
E3F8
331
E437
  5
E3F9
331
E438
  5
E3FA
331
E439
  5
E3FB
331
E43A
  5
E3FC
331
E43B
  5
E3FD
331
E43C
  5
E3FE
331
E43D
  5
E402
331
E43E
  5
E403
331
E43F
  5
E404
331
E440
  5
E405
331
E441
  5
E406
331
E442
  5
E407
331
E443
  5
E408
331
E444
  5
E40C
331
E445
  5
E40D
331
E446
  5
E40E
331
E447
  5
E40F
331
E448
  5
E410
331
E449
  5
E411
331
E44A
  5
E412
  0
MATERIAL
  5
9540
102
{ACAD_REACTORS
330
18C
102
}
102
{ACAD_XDICTIONARY
360
E5E9
102
}
330
18C
100
AcDbMaterial
  1
BYBLOCK
 72
     0
 73
     2
 43
0.0208333333333333
 43
0.0
 43
0.0
 43
0.0
 43
0.0
 43
0.0208333333333333
 43
0.0
 43
0.0
 43
0.0
 43
0.0
 43
1.0
 43
0.0
 43
0.0
 43
0.0
 43
0.0
 43
1.0
 77
     0
 78
     2
 47
0.0208333333333333
 47
0.0
 47
0.0
 47
0.0
 47
0.0
 47
0.0208333333333333
 47
0.0
 47
0.0
 47
0.0
 47
0.0
 47
1.0
 47
0.0
 47
0.0
 47
0.0
 47
0.0
 47
1.0
171
     0
172
     2
 49
0.0208333333333333
 49
0.0
 49
0.0
 49
0.0
 49
0.0
 49
0.0208333333333333
 49
0.0
 49
0.0
 49
0.0
 49
0.0
 49
1.0
 49
0.0
 49
0.0
 49
0.0
 49
0.0
 49
1.0
175
     0
176
     2
142
0.0208333333333333
142
0.0
142
0.0
142
0.0
142
0.0
142
0.0208333333333333
142
0.0
142
0.0
142
0.0
142
0.0
142
1.0
142
0.0
142
0.0
142
0.0
142
0.0
142
1.0
179
     0
270
     2
144
0.0208333333333333
144
0.0
144
0.0
144
0.0
144
0.0
144
0.0208333333333333
144
0.0
144
0.0
144
0.0
144
0.0
144
1.0
144
0.0
144
0.0
144
0.0
144
0.0
144
1.0
274
     2
147
0.0208333333333333
147
0.0
147
0.0
147
0.0
147
0.0
147
0.0208333333333333
147
0.0
147
0.0
147
0.0
147
0.0
147
1.0
147
0.0
147
0.0
147
0.0
147
0.0
147
1.0
  0
MATERIAL
  5
9538
102
{ACAD_REACTORS
330
18C
102
}
102
{ACAD_XDICTIONARY
360
E5EB
102
}
330
18C
100
AcDbMaterial
  1
BYLAYER
 72
     0
 73
     2
 43
0.0208333333333333
 43
0.0
 43
0.0
 43
0.0
 43
0.0
 43
0.0208333333333333
 43
0.0
 43
0.0
 43
0.0
 43
0.0
 43
1.0
 43
0.0
 43
0.0
 43
0.0
 43
0.0
 43
1.0
 77
     0
 78
     2
 47
0.0208333333333333
 47
0.0
 47
0.0
 47
0.0
 47
0.0
 47
0.0208333333333333
 47
0.0
 47
0.0
 47
0.0
 47
0.0
 47
1.0
 47
0.0
 47
0.0
 47
0.0
 47
0.0
 47
1.0
171
     0
172
     2
 49
0.0208333333333333
 49
0.0
 49
0.0
 49
0.0
 49
0.0
 49
0.0208333333333333
 49
0.0
 49
0.0
 49
0.0
 49
0.0
 49
1.0
 49
0.0
 49
0.0
 49
0.0
 49
0.0
 49
1.0
175
     0
176
     2
142
0.0208333333333333
142
0.0
142
0.0
142
0.0
142
0.0
142
0.0208333333333333
142
0.0
142
0.0
142
0.0
142
0.0
142
1.0
142
0.0
142
0.0
142
0.0
142
0.0
142
1.0
179
     0
270
     2
144
0.0208333333333333
144
0.0
144
0.0
144
0.0
144
0.0
144
0.0208333333333333
144
0.0
144
0.0
144
0.0
144
0.0
144
1.0
144
0.0
144
0.0
144
0.0
144
0.0
144
1.0
274
     2
147
0.0208333333333333
147
0.0
147
0.0
147
0.0
147
0.0
147
0.0208333333333333
147
0.0
147
0.0
147
0.0
147
0.0
147
1.0
147
0.0
147
0.0
147
0.0
147
0.0
147
1.0
  0
MATERIAL
  5
9548
102
{ACAD_REACTORS
330
18C
102
}
102
{ACAD_XDICTIONARY
360
E5ED
102
}
330
18C
100
AcDbMaterial
  1
GLOBAL
 72
     0
 73
     2
 43
0.0208333333333333
 43
0.0
 43
0.0
 43
0.0
 43
0.0
 43
0.0208333333333333
 43
0.0
 43
0.0
 43
0.0
 43
0.0
 43
1.0
 43
0.0
 43
0.0
 43
0.0
 43
0.0
 43
1.0
 77
     0
 78
     2
 47
0.0208333333333333
 47
0.0
 47
0.0
 47
0.0
 47
0.0
 47
0.0208333333333333
 47
0.0
 47
0.0
 47
0.0
 47
0.0
 47
1.0
 47
0.0
 47
0.0
 47
0.0
 47
0.0
 47
1.0
171
     0
172
     2
 49
0.0208333333333333
 49
0.0
 49
0.0
 49
0.0
 49
0.0
 49
0.0208333333333333
 49
0.0
 49
0.0
 49
0.0
 49
0.0
 49
1.0
 49
0.0
 49
0.0
 49
0.0
 49
0.0
 49
1.0
175
     0
176
     2
142
0.0208333333333333
142
0.0
142
0.0
142
0.0
142
0.0
142
0.0208333333333333
142
0.0
142
0.0
142
0.0
142
0.0
142
1.0
142
0.0
142
0.0
142
0.0
142
0.0
142
1.0
179
     0
270
     2
144
0.0208333333333333
144
0.0
144
0.0
144
0.0
144
0.0
144
0.0208333333333333
144
0.0
144
0.0
144
0.0
144
0.0
144
1.0
144
0.0
144
0.0
144
0.0
144
0.0
144
1.0
274
     2
147
0.0208333333333333
147
0.0
147
0.0
147
0.0
147
0.0
147
0.0208333333333333
147
0.0
147
0.0
147
0.0
147
0.0
147
1.0
147
0.0
147
0.0
147
0.0
147
0.0
147
1.0
  0
ACAD_PROXY_OBJECT
  5
9584
102
{ACAD_REACTORS
330
9583
102
}
330
9583
100
AcDbZombieObject
 90
      499
 91
      511
 93
      610
310
40901902A4063FBFFFFFE000000000000002040AD7A3703D0AD73F4214DD185B99185C990000000000000104090141901A00000000000004100000000000000041025764000000000000300FC0
340
12
340
0
340
F
340
0
 94
        0
1001
ACAD_MLEADERVER
1070
     2
  0
MLINESTYLE
  5
1C
102
{ACAD_REACTORS
330
1B
102
}
330
1B
100
AcDbMlineStyle
  2
STANDARD
 70
     0
  3

 62
   256
 51
90.0
 52
90.0
 71
     2
 49
0.5
 62
   256
  6
BYLAYER
 49
-0.5
 62
   256
  6
BYLAYER
  0
ACAD_PROXY_OBJECT
  5
9562
102
{ACAD_REACTORS
330
9561
102
}
330
9561
100
AcDbZombieObject
 90
      499
 91
      510
 93
       41
310
903313A31580
  0
ACAD_PROXY_OBJECT
  5
9563
102
{ACAD_REACTORS
330
9561
102
}
330
9561
100
AcDbZombieObject
 90
      499
 91
      510
 93
      105
310
903313A324000000000000004000
  0
ACAD_PROXY_OBJECT
  5
9564
102
{ACAD_REACTORS
330
9561
102
}
330
9561
100
AcDbZombieObject
 90
      499
 91
      510
 93
      105
310
903313A344000000000000104000
  0
ACAD_PROXY_OBJECT
  5
9565
102
{ACAD_REACTORS
330
9561
102
}
330
9561
100
AcDbZombieObject
 90
      499
 91
      510
 93
      105
310
903313A354000000000000144000
  0
ACAD_PROXY_OBJECT
  5
9566
102
{ACAD_REACTORS
330
9561
102
}
330
9561
100
AcDbZombieObject
 90
      499
 91
      510
 93
      105
310
903313A384000000000000204000
  0
ACAD_PROXY_OBJECT
  5
9567
102
{ACAD_REACTORS
330
9561
102
}
330
9561
100
AcDbZombieObject
 90
      499
 91
      510
 93
      113
310
904313A31304000000000000244000
  0
ACAD_PROXY_OBJECT
  5
9568
102
{ACAD_REACTORS
330
9561
102
}
330
9561
100
AcDbZombieObject
 90
      499
 91
      510
 93
      113
310
904313A31364000000000000304000
  0
ACAD_PROXY_OBJECT
  5
9569
102
{ACAD_REACTORS
330
9561
102
}
330
9561
100
AcDbZombieObject
 90
      499
 91
      510
 93
      113
310
904313A32304000000000000344000
  0
ACAD_PROXY_OBJECT
  5
956A
102
{ACAD_REACTORS
330
9561
102
}
330
9561
100
AcDbZombieObject
 90
      499
 91
      510
 93
      113
310
904313A333040000000000003E4000
  0
ACAD_PROXY_OBJECT
  5
956B
102
{ACAD_REACTORS
330
9561
102
}
330
9561
100
AcDbZombieObject
 90
      499
 91
      510
 93
      113
310
904313A34304000000000000444000
  0
ACAD_PROXY_OBJECT
  5
956C
102
{ACAD_REACTORS
330
9561
102
}
330
9561
100
AcDbZombieObject
 90
      499
 91
      510
 93
      113
310
904313A35304000000000000494000
  0
ACAD_PROXY_OBJECT
  5
956D
102
{ACAD_REACTORS
330
9561
102
}
330
9561
100
AcDbZombieObject
 90
      499
 91
      510
 93
      121
310
905313A3130304000000000000594000
  0
ACAD_PROXY_OBJECT
  5
956E
102
{ACAD_REACTORS
330
9561
102
}
330
9561
100
AcDbZombieObject
 90
      499
 91
      510
 93
      105
310
903323A310000000000000010100
  0
ACAD_PROXY_OBJECT
  5
956F
102
{ACAD_REACTORS
330
9561
102
}
330
9561
100
AcDbZombieObject
 90
      499
 91
      510
 93
      105
310
903343A310000000000000410100
  0
ACAD_PROXY_OBJECT
  5
9570
102
{ACAD_REACTORS
330
9561
102
}
330
9561
100
AcDbZombieObject
 90
      499
 91
      510
 93
      105
310
903383A310000000000000810100
  0
ACAD_PROXY_OBJECT
  5
9571
102
{ACAD_REACTORS
330
9561
102
}
330
9561
100
AcDbZombieObject
 90
      499
 91
      510
 93
      113
310
90431303A310000000000000910100
  0
ACAD_PROXY_OBJECT
  5
9572
102
{ACAD_REACTORS
330
9561
102
}
330
9561
100
AcDbZombieObject
 90
      499
 91
      510
 93
      121
310
9053130303A310000000000001650100
  0
ACAD_PROXY_OBJECT
  5
9573
102
{ACAD_REACTORS
330
9561
102
}
330
9561
100
AcDbZombieObject
 90
      499
 91
      510
 93
      257
310
90E312F31323822203D2031272D3022000000000000200FC000000000000284000
  0
ACAD_PROXY_OBJECT
  5
9574
102
{ACAD_REACTORS
330
9561
102
}
330
9561
100
AcDbZombieObject
 90
      499
 91
      510
 93
      249
310
90D312F363422203D2031272D3022000000000000240FC000000000000284000
  0
ACAD_PROXY_OBJECT
  5
9575
102
{ACAD_REACTORS
330
9561
102
}
330
9561
100
AcDbZombieObject
 90
      499
 91
      510
 93
      249
310
90D312F333222203D2031272D3022000000000000280FC000000000000284000
  0
ACAD_PROXY_OBJECT
  5
9576
102
{ACAD_REACTORS
330
9561
102
}
330
9561
100
AcDbZombieObject
 90
      499
 91
      510
 93
      249
310
90D312F313622203D2031272D30220000000000002C0FC000000000000284000
  0
ACAD_PROXY_OBJECT
  5
9577
102
{ACAD_REACTORS
330
9561
102
}
330
9561
100
AcDbZombieObject
 90
      499
 91
      510
 93
      249
310
90D332F333222203D2031272D30220000000000002E0FC000000000000284000
  0
ACAD_PROXY_OBJECT
  5
9578
102
{ACAD_REACTORS
330
9561
102
}
330
9561
100
AcDbZombieObject
 90
      499
 91
      510
 93
      241
310
90C312F3822203D2031272D3022000000000000300FC000000000000284000
  0
ACAD_PROXY_OBJECT
  5
9579
102
{ACAD_REACTORS
330
9561
102
}
330
9561
100
AcDbZombieObject
 90
      499
 91
      510
 93
      249
310
90D332F313622203D2031272D3022000000000000320FC000000000000284000
  0
ACAD_PROXY_OBJECT
  5
957A
102
{ACAD_REACTORS
330
9561
102
}
330
9561
100
AcDbZombieObject
 90
      499
 91
      510
 93
      241
310
90C312F3422203D2031272D3022000000000000340FC000000000000284000
  0
ACAD_PROXY_OBJECT
  5
957B
102
{ACAD_REACTORS
330
9561
102
}
330
9561
100
AcDbZombieObject
 90
      499
 91
      510
 93
      241
310
90C332F3822203D2031272D3022000000000000360FC000000000000284000
  0
ACAD_PROXY_OBJECT
  5
957C
102
{ACAD_REACTORS
330
9561
102
}
330
9561
100
AcDbZombieObject
 90
      499
 91
      510
 93
      241
310
90C312F3222203D2031272D3022000000000000380FC000000000000284000
  0
ACAD_PROXY_OBJECT
  5
957D
102
{ACAD_REACTORS
330
9561
102
}
330
9561
100
AcDbZombieObject
 90
      499
 91
      510
 93
      241
310
90C332F3422203D2031272D30220000000000003A0FC000000000000284000
  0
ACAD_PROXY_OBJECT
  5
957E
102
{ACAD_REACTORS
330
9561
102
}
330
9561
100
AcDbZombieObject
 90
      499
 91
      510
 93
      161
310
90A3122203D2031272D30224000000000000284000
  0
ACAD_PROXY_OBJECT
  5
957F
102
{ACAD_REACTORS
330
9561
102
}
330
9561
100
AcDbZombieObject
 90
      499
 91
      510
 93
      257
310
90E312D312F3222203D2031272D30220000000000003E0FC000000000000284000
  0
ACAD_PROXY_OBJECT
  5
9580
102
{ACAD_REACTORS
330
9561
102
}
330
9561
100
AcDbZombieObject
 90
      499
 91
      510
 93
      225
310
90A3322203D2031272D302200000000000002100000000000000284000
  0
ACAD_PROXY_OBJECT
  5
9581
102
{ACAD_REACTORS
330
9561
102
}
330
9561
100
AcDbZombieObject
 90
      499
 91
      510
 93
      225
310
90A3622203D2031272D302200000000000006100000000000000284000
  0
ACAD_PROXY_OBJECT
  5
9582
102
{ACAD_REACTORS
330
9561
102
}
330
9561
100
AcDbZombieObject
 90
      499
 91
      510
 93
      249
310
90D31272D3022203D2031272D30220000000000000A100000000000000284000
  0
ACAD_PROXY_OBJECT
  5
9556
102
{ACAD_REACTORS
330
9550
102
}
330
9550
100
AcDbZombieObject
 90
      499
 91
      509
 93
      436
310
42CC9915DA5C99599C985B595049028333333333333E3BF0000000000000FB0107901411070040501600405405064090741402480A0340
1001
ACAD
1000
AcDbSavedByObjectVersion
1070
     0
  0
ACAD_PROXY_OBJECT
  5
9558
102
{ACAD_REACTORS
330
9550
102
}
330
9550
100
AcDbZombieObject
 90
      499
 91
      509
 93
      500
310
424CD108121A5919195B90640502408333333333333E3BF0000000000000FB01079024090700405020000000000001110200405405064090740C02480A0340
1001
ACAD
1000
AcDbSavedByObjectVersion
1070
     0
  0
ACAD_PROXY_OBJECT
  5
9557
102
{ACAD_REACTORS
330
9550
102
}
330
9550
100
AcDbZombieObject
 90
      499
 91
      509
 93
      436
310
42CCD915DA5C99599C985B595059028333333333333E3BF0000000000000FB0107901411070040501600405405064090741402480A0340
1001
ACAD
1000
AcDbSavedByObjectVersion
1070
     0
  0
ACAD_PROXY_OBJECT
  5
9555
102
{ACAD_REACTORS
330
9550
102
}
330
9550
100
AcDbZombieObject
 90
      499
 91
      509
 93
      388
310
4150985CDA58D07406404333333333333E3BF0000000000000FB0107A41107004050150841D405064090741402480A0350
1001
ACAD
1000
AcDbSavedByObjectVersion
1070
     0
  0
ACAD_PROXY_OBJECT
  5
955C
102
{ACAD_REACTORS
330
9550
102
}
330
9550
100
AcDbZombieObject
 90
      499
 91
      509
 93
      428
310
42109C9A59DA1D195B90C409028333333333333E3BF0000000000000FB010790141107004050150841D405064090741402480A029950
1001
ACAD
1000
AcDbSavedByObjectVersion
1070
     0
  0
ACAD_PROXY_OBJECT
  5
9560
102
{ACAD_REACTORS
330
9550
102
}
330
9550
100
AcDbZombieObject
 90
      499
 91
      509
 93
      452
310
42D0DBDB1BDC90DA185B99D95104090240C333333333333E3BF0000000000000FB0108901411070040501508421405064090741402480A0350
1001
ACAD
1000
AcDbSavedByObjectVersion
1070
     0
  0
ACAD_PROXY_OBJECT
  5
9559
102
{ACAD_REACTORS
330
9550
102
}
330
9550
100
AcDbZombieObject
 90
      499
 91
      509
 93
      500
310
4290DBDB98D95C1D1D585B10940D028333333333333E3BF0000000000000FB0107902409070040501000000000000111010841D405064090740C02480A0340
1001
ACAD
1000
AcDbSavedByObjectVersion
1070
     0
  0
ACAD_PROXY_OBJECT
  5
955B
102
{ACAD_REACTORS
330
9550
102
}
330
9550
100
AcDbZombieObject
 90
      499
 91
      509
 93
      412
310
40D11A5B50B409028333333333333E3BF0000000000000FB010790141107004050150841D405064090741402480A02677FFFFFD0
1001
ACAD
1000
AcDbSavedByObjectVersion
1070
     0
  0
ACAD_PROXY_OBJECT
  5
A211
102
{ACAD_REACTORS
330
9550
102
}
330
9550
100
AcDbZombieObject
 90
      499
 91
      509
 93
      452
310
43115919D950DBDB1BDC93D999916409028333333333333E3BF0000000000000FB010790141107004050150841D405064090741402480A0350
1001
ACAD
1000
AcDbSavedByObjectVersion
1070
     0
  0
ACAD_PROXY_OBJECT
  5
955F
102
{ACAD_REACTORS
330
9550
102
}
330
9550
100
AcDbZombieObject
 90
      499
 91
      509
 93
      444
310
42D19858D95C185D1D195C9B90F409028333333333333E3BF0000000000000FB010790141107004050150841D405064090741402480A0350
1001
ACAD
1000
AcDbSavedByObjectVersion
1070
     0
  0
ACAD_PROXY_OBJECT
  5
9551
102
{ACAD_REACTORS
330
9550
102
}
330
9550
100
AcDbZombieObject
 90
      499
 91
      509
 93
      388
310
41119B185D240901404333333333333E3BF0000000000000F9010740A41107004050150841D405064090741402480A1B50
1001
ACAD
1000
AcDbSavedByObjectVersion
1070
     0
  0
ACAD_PROXY_OBJECT
  5
9552
102
{ACAD_REACTORS
330
9550
102
}
330
9550
100
AcDbZombieObject
 90
      499
 91
      509
 93
      476
310
43519B185D15DA5D1A115919D95CD0140901404333333333333E3BF0000000000000F9010740901411070040501600405405064090741402480A1B50
1001
ACAD
1000
AcDbSavedByObjectVersion
1070
     0
  0
ACAD_PROXY_OBJECT
  5
9553
102
{ACAD_REACTORS
330
9550
102
}
330
9550
100
AcDbZombieObject
 90
      499
 91
      509
 93
      412
310
41D1DBDD5C985D5910240902404333333333333E3BF0000000000000F9010740A411070040501641D405064090741402480A1B50
1001
ACAD
1000
AcDbSavedByObjectVersion
1070
     0
  0
ACAD_PROXY_OBJECT
  5
9554
102
{ACAD_REACTORS
330
9550
102
}
330
9550
100
AcDbZombieObject
 90
      499
 91
      509
 93
      500
310
4411DBDD5C985D5915DA5D1A115919D95CD0340902404333333333333E3BF0000000000000F9010740901411070040501600405405064090741402480A1B50
1001
ACAD
1000
AcDbSavedByObjectVersion
1070
     0
  0
ACAD_PROXY_OBJECT
  5
A260
102
{ACAD_REACTORS
330
9550
102
}
330
9550
100
AcDbZombieObject
 90
      499
 91
      509
 93
      476
310
41921A5919195B90640502408333333333333E3BF0000000000000FB01079024090700405020000000000001110200405405064090740C02480A0340
1001
ACAD
1000
AcDbSavedByObjectVersion
1070
     0
  0
ACAD_PROXY_OBJECT
  5
A20F
102
{ACAD_REACTORS
330
9550
102
}
330
9550
100
AcDbZombieObject
 90
      499
 91
      509
 93
      428
310
42529A5D1D195C93D999914409028333333333333E3BF0000000000000FB010790141107004050150A41D405064090741402480A0350
1001
ACAD
1000
AcDbSavedByObjectVersion
1070
     0
  0
ACAD_PROXY_OBJECT
  5
955E
102
{ACAD_REACTORS
330
9550
102
}
330
9550
100
AcDbZombieObject
 90
      499
 91
      509
 93
      444
310
42D31A5B995C185D1D195C9B90E409028333333333333E3BF0000000000000FB010790141107004050750841D405064090741402483A0350
1001
ACAD
1000
AcDbSavedByObjectVersion
1070
     0
  0
ACAD_PROXY_OBJECT
  5
A266
102
{ACAD_REACTORS
330
9550
102
}
330
9550
100
AcDbZombieObject
 90
      499
 91
      509
 93
      484
310
42135BD9195B1A5B99D0A409028333333333333E3BF0000000000000F901074090290700405010000000000201990108421405064090741402480A1B40
1001
ACAD
1000
AcDbSavedByObjectVersion
1070
     0
  0
ACAD_PROXY_OBJECT
  5
A210
102
{ACAD_REACTORS
330
9550
102
}
330
9550
100
AcDbZombieObject
 90
      499
 91
      509
 93
      444
310
42D3DD995C9A185B99D3D999915409028333333333333E3BF0000000000000FB010790141107004050150941D405064090741402480A0350
1001
ACAD
1000
AcDbSavedByObjectVersion
1070
     0
  0
ACAD_PROXY_OBJECT
  5
955A
102
{ACAD_REACTORS
330
9550
102
}
330
9550
100
AcDbZombieObject
 90
      499
 91
      509
 93
      420
310
425499585B1A5CDD1A58D08409028333333333333E3BF0000000000000FB01079019070040501508421405064090741402480A1B40
1001
ACAD
1000
AcDbSavedByObjectVersion
1070
     0
  0
ACAD_PROXY_OBJECT
  5
A265
102
{ACAD_REACTORS
330
9550
102
}
330
9550
100
AcDbZombieObject
 90
      499
 91
      509
 93
      420
310
4194DA1859195911B40902404333333333333E3BF0000000000000F9010740A41107004050150800405405064090840C02480A0B40
1001
ACAD
1000
AcDbSavedByObjectVersion
1070
     0
  0
ACAD_PROXY_OBJECT
  5
A264
102
{ACAD_REACTORS
330
9550
102
}
330
9550
100
AcDbZombieObject
 90
      499
 91
      509
 93
      516
310
4454DA18591959081DDA5D1A08195919D95CD1A40902404333333333333E3BF0000000000000F901074090142907004050250800405405064090740C02480A0B40
1001
ACAD
1000
AcDbSavedByObjectVersion
1070
     0
  0
ACAD_PROXY_OBJECT
  5
A261
102
{ACAD_REACTORS
330
9550
102
}
330
9550
100
AcDbZombieObject
 90
      499
 91
      509
 93
      532
310
4394DA1859195CC81BD98811DC985E5174090240C333333333333E3BF0000000000000FB01079024090741D01000000000000111010841D405064090740C02480A0340
1001
ACAD
1000
AcDbSavedByObjectVersion
1070
     0
  0
ACAD_PROXY_OBJECT
  5
A262
102
{ACAD_REACTORS
330
9550
102
}
330
9550
100
AcDbZombieObject
 90
      499
 91
      509
 93
      476
310
41D4DAD95D18DA1E51840502408333333333333E3BF0000000000000FB01079024090741D01000000000000111010B41D405064090741802480A0340
1001
ACAD
1000
AcDbSavedByObjectVersion
1070
     0
  0
ACAD_PROXY_OBJECT
  5
955D
102
{ACAD_REACTORS
330
9550
102
}
330
9550
100
AcDbZombieObject
 90
      499
 91
      509
 93
      412
310
41D51A1A58DAD95B90D409028333333333333E3BF0000000000000FB010790141107004050150C41D405064090741402480A0350
1001
ACAD
1000
AcDbSavedByObjectVersion
1070
     0
  0
ACAD_PROXY_OBJECT
  5
A25F
102
{ACAD_REACTORS
330
9550
102
}
330
9550
100
AcDbZombieObject
 90
      499
 91
      509
 93
      420
310
4255DA5C99599C985B595059028333333333333E3BF0000000000000FB0107901411070040501600405405064090740C02480A0340
1001
ACAD
1000
AcDbSavedByObjectVersion
1070
     0
  0
ACAD_PROXY_OBJECT
  5
A263
102
{ACAD_REACTORS
330
9550
102
}
330
9550
100
AcDbZombieObject
 90
      499
 91
      509
 93
      404
310
41560B54985E51940902404000000000000E03F0000000000000FB010740501907004050150841D405064090740C02480A1B40
1001
ACAD
1000
AcDbSavedByObjectVersion
1070
     0
  0
XRECORD
  5
E44C
102
{ACAD_REACTORS
330
E44B
102
}
330
E44B
100
AcDbXrecord
340
18D
  0
XRECORD
  5
E44D
102
{ACAD_REACTORS
330
E44B
102
}
330
E44B
100
AcDbXrecord
340
18C
  0
DICTIONARYVAR
  5
AAE0
102
{ACAD_REACTORS
330
37
102
}
330
37
100
DictionaryVariables
280
     0
  1
1:1
  0
DICTIONARYVAR
  5
9627
102
{ACAD_REACTORS
330
37
102
}
330
37
100
DictionaryVariables
280
     0
  1
Standard
  0
DICTIONARYVAR
  5
29E
102
{ACAD_REACTORS
330
37
102
}
330
37
100
DictionaryVariables
280
     0
  1
Standard
  0
DICTIONARYVAR
  5
38
102
{ACAD_REACTORS
330
37
102
}
330
37
100
DictionaryVariables
280
     0
  1
-1
  0
DICTIONARYVAR
  5
1CE
102
{ACAD_REACTORS
330
37
102
}
330
37
100
DictionaryVariables
280
     0
  1
2
  0
DICTIONARYVAR
  5
704E
102
{ACAD_REACTORS
330
37
102
}
330
37
100
DictionaryVariables
280
     0
  1
1
  0
DICTIONARYVAR
  5
962A
102
{ACAD_REACTORS
330
37
102
}
330
37
100
DictionaryVariables
280
     0
  1
0
  0
DICTIONARYVAR
  5
7052
102
{ACAD_REACTORS
330
37
102
}
330
37
100
DictionaryVariables
280
     0
  1
8
  0
DICTIONARYVAR
  5
7051
102
{ACAD_REACTORS
330
37
102
}
330
37
100
DictionaryVariables
280
     0
  1
1
  0
DICTIONARYVAR
  5
AB30
102
{ACAD_REACTORS
330
37
102
}
330
37
100
DictionaryVariables
280
     0
  1
0
  0
DICTIONARYVAR
  5
704F
102
{ACAD_REACTORS
330
37
102
}
330
37
100
DictionaryVariables
280
     0
  1
8
  0
DICTIONARYVAR
  5
7050
102
{ACAD_REACTORS
330
37
102
}
330
37
100
DictionaryVariables
280
     0
  1
2
  0
DICTIONARYVAR
  5
1CF
102
{ACAD_REACTORS
330
37
102
}
330
37
100
DictionaryVariables
280
     0
  1

  0
DICTIONARYVAR
  5
9629
102
{ACAD_REACTORS
330
37
102
}
330
37
100
DictionaryVariables
280
     0
  1
127
  0
DICTIONARYVAR
  5
E20E
102
{ACAD_REACTORS
330
37
102
}
330
37
100
DictionaryVariables
280
     0
  1
2
  0
DICTIONARY
  5
E5E9
330
9540
100
AcDbDictionary
  3
ACAD_XREC_ROUNDTRIP
360
E5EA
1001
ACAD
1000
TREAT_AS_HARD
1070
     1
  0
DICTIONARY
  5
E5EB
330
9538
100
AcDbDictionary
  3
ACAD_XREC_ROUNDTRIP
360
E5EC
1001
ACAD
1000
TREAT_AS_HARD
1070
     1
  0
DICTIONARY
  5
E5ED
330
9548
100
AcDbDictionary
  3
ACAD_XREC_ROUNDTRIP
360
E5EE
1001
ACAD
1000
TREAT_AS_HARD
1070
     1
  0
XRECORD
  5
E5EA
102
{ACAD_REACTORS
330
E5E9
102
}
330
E5E9
100
AcDbXrecord
102
MATERIAL
148
0.0
149
0.0
149
0.0
 93
        0
 94
      127
282
     0
 72
     0
 77
     0
171
     0
175
     0
179
     0
273
     0
  0
XRECORD
  5
E5EC
102
{ACAD_REACTORS
330
E5EB
102
}
330
E5EB
100
AcDbXrecord
102
MATERIAL
148
0.0
149
0.0
149
0.0
 93
        0
 94
      127
282
     0
 72
     0
 77
     0
171
     0
175
     0
179
     0
273
     0
  0
XRECORD
  5
E5EE
102
{ACAD_REACTORS
330
E5ED
102
}
330
E5ED
100
AcDbXrecord
102
MATERIAL
148
0.0
149
0.0
149
0.0
 93
        0
 94
      127
282
     0
 72
     0
 77
     0
171
     0
175
     0
179
     0
273
     0
  0
ENDSEC
  0
EOF
