  0
SECTION
  2
HEADER
  9
$ACADVER
  1
AC1012
  9
$DWGCODEPAGE
  3
ansi_932
  9
$INSBASE
 10
0.0
 20
0.0
 30
0.0
  9
$EXTMIN
 10
1926.614510618842
 20
-711.5974787378664
 30
0.0
  9
$EXTMAX
 10
2542.915368925727
 20
-292.2973554296343
 30
0.0000000001691137
  9
$LIMMIN
 10
0.0
 20
0.0
  9
$LIMMAX
 10
420.0
 20
297.0
  9
$ORTHOMODE
 70
     0
  9
$REGENMODE
 70
     1
  9
$FILLMODE
 70
     1
  9
$QTEXTMODE
 70
     0
  9
$MIRRTEXT
 70
     0
  9
$DRAGMODE
 70
     2
  9
$LTSCALE
 40
0.5
  9
$OSMODE
 70
  2399
  9
$ATTMODE
 70
     1
  9
$TEXTSIZE
 40
4.0
  9
$TRACEWID
 40
1.0
  9
$TEXTSTYLE
  7
STANDARD
  9
$CLAYER
  8
1TEXT
  9
$CELTYPE
  6
BYLAYER
  9
$CECOLOR
 62
   256
  9
$CELTSCALE
 40
1.0
  9
$DELOBJ
 70
     1
  9
$DISPSILH
 70
     0
  9
$DIMSCALE
 40
1.0
  9
$DIMASZ
 40
2.0
  9
$DIMEXO
 40
0.0
  9
$DIMDLI
 40
7.0
  9
$DIMRND
 40
0.0
  9
$DIMDLE
 40
0.0
  9
$DIMEXE
 40
1.0
  9
$DIMTP
 40
0.0
  9
$DIMTM
 40
0.0
  9
$DIMTXT
 40
3.5
  9
$DIMCEN
 40
0.0
  9
$DIMTSZ
 40
0.0
  9
$DIMTOL
 70
     0
  9
$DIMLIM
 70
     0
  9
$DIMTIH
 70
     0
  9
$DIMTOH
 70
     0
  9
$DIMSE1
 70
     0
  9
$DIMSE2
 70
     0
  9
$DIMTAD
 70
     1
  9
$DIMZIN
 70
     8
  9
$DIMBLK
  1

  9
$DIMASO
 70
     1
  9
$DIMSHO
 70
     1
  9
$DIMPOST
  1
 
  9
$DIMAPOST
  1

  9
$DIMALT
 70
     0
  9
$DIMALTD
 70
     2
  9
$DIMALTF
 40
25.4
  9
$DIMLFAC
 40
1.0
  9
$DIMTOFL
 70
     1
  9
$DIMTVP
 40
0.0
  9
$DIMTIX
 70
     0
  9
$DIMSOXD
 70
     0
  9
$DIMSAH
 70
     1
  9
$DIMBLK1
  1
OPEN30
  9
$DIMBLK2
  1
OPEN30
  9
$DIMSTYLE
  2
NEWX10
  9
$DIMCLRD
 70
   256
  9
$DIMCLRE
 70
   256
  9
$DIMCLRT
 70
   201
  9
$DIMTFAC
 40
0.7
  9
$DIMGAP
 40
0.7
  9
$DIMJUST
 70
     0
  9
$DIMSD1
 70
     0
  9
$DIMSD2
 70
     0
  9
$DIMTOLJ
 70
     1
  9
$DIMTZIN
 70
     8
  9
$DIMALTZ
 70
     0
  9
$DIMALTTZ
 70
     0
  9
$DIMFIT
 70
     2
  9
$DIMUPT
 70
     0
  9
$DIMUNIT
 70
     2
  9
$DIMDEC
 70
     2
  9
$DIMTDEC
 70
     4
  9
$DIMALTU
 70
     2
  9
$DIMALTTD
 70
     2
  9
$DIMTXSTY
  7
STANDARD
  9
$DIMAUNIT
 70
     0
  9
$LUNITS
 70
     2
  9
$LUPREC
 70
     4
  9
$SKETCHINC
 40
1.0
  9
$FILLETRAD
 40
0.0
  9
$AUNITS
 70
     0
  9
$AUPREC
 70
     2
  9
$MENU
  1
acad
  9
$ELEVATION
 40
0.0
  9
$PELEVATION
 40
0.0
  9
$THICKNESS
 40
0.0
  9
$LIMCHECK
 70
     0
  9
$CHAMFERA
 40
10.0
  9
$CHAMFERB
 40
10.0
  9
$CHAMFERC
 40
20.0
  9
$CHAMFERD
 40
0.0
  9
$SKPOLY
 70
     0
  9
$TDCREATE
 40
2451318.621352917
  9
$TDUPDATE
 40
2459198.435451632
  9
$TDINDWG
 40
1.6528212731
  9
$TDUSRTIMER
 40
1.6528212731
  9
$USRTIMER
 70
     1
  9
$ANGBASE
 50
0.0
  9
$ANGDIR
 70
     0
  9
$PDMODE
 70
     0
  9
$PDSIZE
 40
0.0
  9
$PLINEWID
 40
0.0
  9
$COORDS
 70
     2
  9
$SPLFRAME
 70
     0
  9
$SPLINETYPE
 70
     6
  9
$SPLINESEGS
 70
     8
  9
$ATTDIA
 70
     0
  9
$ATTREQ
 70
     1
  9
$HANDLING
 70
     1
  9
$HANDSEED
  5
1C840
  9
$SURFTAB1
 70
     6
  9
$SURFTAB2
 70
     6
  9
$SURFTYPE
 70
     6
  9
$SURFU
 70
     6
  9
$SURFV
 70
     6
  9
$UCSNAME
  2

  9
$UCSORG
 10
0.0
 20
0.0
 30
0.0
  9
$UCSXDIR
 10
1.0
 20
0.0
 30
0.0
  9
$UCSYDIR
 10
0.0
 20
1.0
 30
0.0
  9
$PUCSNAME
  2

  9
$PUCSORG
 10
0.0
 20
0.0
 30
0.0
  9
$PUCSXDIR
 10
1.0
 20
0.0
 30
0.0
  9
$PUCSYDIR
 10
0.0
 20
1.0
 30
0.0
  9
$USERI1
 70
     0
  9
$USERI2
 70
     0
  9
$USERI3
 70
     0
  9
$USERI4
 70
     0
  9
$USERI5
 70
     0
  9
$USERR1
 40
0.0
  9
$USERR2
 40
0.0
  9
$USERR3
 40
0.0
  9
$USERR4
 40
0.0
  9
$USERR5
 40
0.0
  9
$WORLDVIEW
 70
     1
  9
$SHADEDGE
 70
     3
  9
$SHADEDIF
 70
    70
  9
$TILEMODE
 70
     1
  9
$MAXACTVP
 70
    48
  9
$PINSBASE
 10
0.0
 20
0.0
 30
0.0
  9
$PLIMCHECK
 70
     0
  9
$PEXTMIN
 10
1.000000000000000E+20
 20
1.000000000000000E+20
 30
1.000000000000000E+20
  9
$PEXTMAX
 10
-1.000000000000000E+20
 20
-1.000000000000000E+20
 30
-1.000000000000000E+20
  9
$PLIMMIN
 10
0.0
 20
0.0
  9
$PLIMMAX
 10
420.0
 20
297.0
  9
$UNITMODE
 70
     0
  9
$VISRETAIN
 70
     1
  9
$PLINEGEN
 70
     0
  9
$PSLTSCALE
 70
     1
  9
$TREEDEPTH
 70
  3020
  9
$PICKSTYLE
 70
     0
  9
$CMLSTYLE
  2
STANDARD
  9
$CMLJUST
 70
     0
  9
$CMLSCALE
 40
20.0
  9
$SAVEIMAGES
 70
     1
  0
ENDSEC
  0
SECTION
  2
CLASSES
  0
CLASS
  1
DICTIONARYVAR
  2
AcDbDictionaryVar
  3
ObjectDBX Classes
 90
        0
280
     0
281
     0
  0
CLASS
  1
IDBUFFER
  2
AcDbIdBuffer
  3
ObjectDBX Classes
 90
    32768
280
     0
281
     0
  0
CLASS
  1
LWPOLYLINE
  2
AcDbPolyline
  3
ObjectDBX Classes
 90
    32768
280
     0
281
     1
  0
CLASS
  1
ACDBDICTIONARYWDFLT
  2
AcDbDictionaryWithDefault
  3
ObjectDBX Classes
 90
    32768
280
     0
281
     0
  0
CLASS
  1
ACDBPLACEHOLDER
  2
AcDbPlaceHolder
  3
ObjectDBX Classes
 90
        0
280
     0
281
     0
  0
CLASS
  1
LAYOUT
  2
AcDbLayout
  3
ObjectDBX Classes
 90
        0
280
     0
281
     0
  0
CLASS
  1
TABLESTYLE
  2
AcDbTableStyle
  3
ObjectDBX Classes
 90
     4095
280
     0
281
     0
  0
CLASS
  1
SORTENTSTABLE
  2
AcDbSortentsTable
  3
ObjectDBX Classes
 90
    32768
280
     0
281
     0
  0
CLASS
  1
MATERIAL
  2
AcDbMaterial
  3
ObjectDBX Classes
 90
     1153
280
     0
281
     0
  0
CLASS
  1
VISUALSTYLE
  2
AcDbVisualStyle
  3
ObjectDBX Classes
 90
     4095
280
     0
281
     0
  0
CLASS
  1
SCALE
  2
AcDbScale
  3
ObjectDBX Classes
 90
     1153
280
     0
281
     0
  0
CLASS
  1
MLEADERSTYLE
  2
AcDbMLeaderStyle
  3
ACDB_MLEADERSTYLE_CLASS
 90
     4095
280
     0
281
     0
  0
CLASS
  1
CELLSTYLEMAP
  2
AcDbCellStyleMap
  3
ObjectDBX Classes
 90
     1152
280
     0
281
     0
  0
CLASS
  1
SUN
  2
AcDbSun
  3
SCENEOE
 90
     1153
280
     0
281
     0
  0
CLASS
  1
XRECORD
  2
AcDbXrecord
  3
ObjectDBX Classes
 90
    32768
280
     0
281
     0
  0
CLASS
  1
HATCH
  2
AcDbHatch
  3
ObjectDBX Classes
 90
    32768
280
     0
281
     1
  0
ENDSEC
  0
SECTION
  2
TABLES
  0
TABLE
  2
VPORT
  5
8
330
0
100
AcDbSymbolTable
 70
     1
  0
VPORT
  5
D991
330
8
100
AcDbSymbolTableRecord
100
AcDbViewportTableRecord
  2
*ACTIVE
 70
     0
 10
0.0
 20
0.0
 11
1.0
 21
1.0
 12
2234.764939772285
 22
-501.9474170837503
 13
0.0
 23
0.0
 14
10.0
 24
10.0
 15
10.0
 25
10.0
 16
0.0
 26
0.0
 36
1.0
 17
0.0
 27
0.0
 37
0.0
 40
450.195921867786
 41
1.858156028368794
 42
50.0
 43
0.0
 44
0.0
 50
0.0
 51
0.0
 71
    16
 72
   100
 73
     1
 74
     1
 75
     0
 76
     0
 77
     0
 78
     0
  0
ENDTAB
  0
TABLE
  2
LTYPE
  5
5
330
0
100
AcDbSymbolTable
 70
     3
  0
LTYPE
  5
12
330
5
100
AcDbSymbolTableRecord
100
AcDbLinetypeTableRecord
  2
BYBLOCK
 70
     0
  3

 72
    65
 73
     0
 40
0.0
  0
LTYPE
  5
13
330
5
100
AcDbSymbolTableRecord
100
AcDbLinetypeTableRecord
  2
BYLAYER
 70
     0
  3

 72
    65
 73
     0
 40
0.0
  0
LTYPE
  5
14
330
5
100
AcDbSymbolTableRecord
100
AcDbLinetypeTableRecord
  2
CONTINUOUS
 70
     0
  3
Solid line
 72
    65
 73
     0
 40
0.0
  0
LTYPE
  5
2C03
330
5
100
AcDbSymbolTableRecord
100
AcDbLinetypeTableRecord
  2
HIDDEN
 70
     0
  3
Hidden __ __ __ __ __ __ __ __ __ __ __ __ __ _
 72
    65
 73
     2
 40
9.524999999999999
 49
6.35
 74
     0
 49
-3.175
 74
     0
  0
LTYPE
  5
13839
330
5
100
AcDbSymbolTableRecord
100
AcDbLinetypeTableRecord
  2
CENTER2
 70
     0
  3
Center (.5x) ___ _ ___ _ ___ _ ___ _ ___ _ ___
 72
    65
 73
     4
 40
28.575
 49
19.05
 74
     0
 49
-3.175
 74
     0
 49
3.175
 74
     0
 49
-3.175
 74
     0
  0
ENDTAB
  0
TABLE
  2
LAYER
  5
2
102
{ACAD_XDICTIONARY
360
E6A6
102
}
330
0
100
AcDbSymbolTable
 70
     6
  0
LAYER
  5
E
102
{ACAD_XDICTIONARY
360
DA05
102
}
330
2
100
AcDbSymbolTableRecord
100
AcDbLayerTableRecord
  2
0
 70
     0
 62
     7
  6
CONTINUOUS
  0
LAYER
  5
29
102
{ACAD_XDICTIONARY
360
DA07
102
}
330
2
100
AcDbSymbolTableRecord
100
AcDbLayerTableRecord
  2
1CENTER
 70
     0
 62
     7
  6
CENTER2
  0
LAYER
  5
31
102
{ACAD_XDICTIONARY
360
DA09
102
}
330
2
100
AcDbSymbolTableRecord
100
AcDbLayerTableRecord
  2
1TEXT
 70
     0
 62
     7
  6
CONTINUOUS
  0
LAYER
  5
243
102
{ACAD_XDICTIONARY
360
DA0F
102
}
330
2
100
AcDbSymbolTableRecord
100
AcDbLayerTableRecord
  2
01
 70
     0
 62
     1
  6
CONTINUOUS
  0
LAYER
  5
24E
102
{ACAD_XDICTIONARY
360
DA15
102
}
330
2
100
AcDbSymbolTableRecord
100
AcDbLayerTableRecord
  2
1DIM
 70
     0
 62
     7
  6
CONTINUOUS
  0
LAYER
  5
2C05
102
{ACAD_XDICTIONARY
360
DA23
102
}
330
2
100
AcDbSymbolTableRecord
100
AcDbLayerTableRecord
  2
1HIDDEN
 70
     0
 62
     7
  6
HIDDEN
  0
ENDTAB
  0
TABLE
  2
STYLE
  5
3
330
0
100
AcDbSymbolTable
 70
     1
  0
STYLE
  5
F
330
3
100
AcDbSymbolTableRecord
100
AcDbTextStyleTableRecord
  2
STANDARD
 70
     0
 40
0.0
 41
1.0
 50
0.0
 71
     0
 42
4.0
  3
txt.shx
  4
extfont.shx
  0
ENDTAB
  0
TABLE
  2
VIEW
  5
6
330
0
100
AcDbSymbolTable
 70
     0
  0
ENDTAB
  0
TABLE
  2
UCS
  5
7
330
0
100
AcDbSymbolTable
 70
     0
  0
ENDTAB
  0
TABLE
  2
APPID
  5
9
330
0
100
AcDbSymbolTable
 70
    17
  0
APPID
  5
10
330
9
100
AcDbSymbolTableRecord
100
AcDbRegAppTableRecord
  2
ACAD
 70
     0
  0
APPID
  5
21
330
9
100
AcDbSymbolTableRecord
100
AcDbRegAppTableRecord
  2
DRAWINGVARIABLESXDATA
 70
     0
  0
APPID
  5
64
330
9
100
AcDbSymbolTableRecord
100
AcDbRegAppTableRecord
  2
CONTENTTABDATA
 70
     0
  0
APPID
  5
65
330
9
100
AcDbSymbolTableRecord
100
AcDbRegAppTableRecord
  2
CONTENTCURRENTTAB
 70
     0
  0
APPID
  5
66
330
9
100
AcDbSymbolTableRecord
100
AcDbRegAppTableRecord
  2
CONTENTBLOCKDESCRIPTION
 70
     0
  0
APPID
  5
67
330
9
100
AcDbSymbolTableRecord
100
AcDbRegAppTableRecord
  2
CONTENTBLOCKICON
 70
     0
  0
APPID
  5
68
330
9
100
AcDbSymbolTableRecord
100
AcDbRegAppTableRecord
  2
CONTENTLONGBLOCKNAME
 70
     0
  0
APPID
  5
2AE
330
9
100
AcDbSymbolTableRecord
100
AcDbRegAppTableRecord
  2
ACAD_PSEXT
 70
     0
  0
APPID
  5
D9E9
330
9
100
AcDbSymbolTableRecord
100
AcDbRegAppTableRecord
  2
ACAD_MLEADERVER
 70
     0
  0
APPID
  5
19D01
330
9
100
AcDbSymbolTableRecord
100
AcDbRegAppTableRecord
  2
ACADANNOTATIVE
 70
     0
  0
APPID
  5
19D02
330
9
100
AcDbSymbolTableRecord
100
AcDbRegAppTableRecord
  2
ACDBBLOCKREPETAG
 70
     0
  0
APPID
  5
1A67E
330
9
100
AcDbSymbolTableRecord
100
AcDbRegAppTableRecord
  2
ACAD_OBJECT_CHANGE_GUID
 70
     0
  0
APPID
  5
1A897
330
9
100
AcDbSymbolTableRecord
100
AcDbRegAppTableRecord
  2
ACAECLAYERSTANDARD
 70
     0
  0
APPID
  5
1C3B1
330
9
100
AcDbSymbolTableRecord
100
AcDbRegAppTableRecord
  2
ACAD_DSTYLE_DIMJOGGED_JOGA
 70
     0
  0
APPID
  5
1C3B2
330
9
100
AcDbSymbolTableRecord
100
AcDbRegAppTableRecord
  2
ACAD_DSTYLE_DIM_LINETYPE
 70
     0
  0
APPID
  5
1C3B3
330
9
100
AcDbSymbolTableRecord
100
AcDbRegAppTableRecord
  2
ACAD_DSTYLE_DIM_EXT1_LINET
 70
     0
  0
APPID
  5
1C3B4
330
9
100
AcDbSymbolTableRecord
100
AcDbRegAppTableRecord
  2
ACAD_DSTYLE_DIM_EXT2_LINET
 70
     0
  0
ENDTAB
  0
TABLE
  2
DIMSTYLE
  5
A
330
0
100
AcDbSymbolTable
 70
     2
  0
DIMSTYLE
105
48
330
A
100
AcDbSymbolTableRecord
100
AcDbDimStyleTableRecord
  2
NEWX10
 70
     0
  3
 
  4

  5

  6
OPEN30
  7
OPEN30
 40
1.0
 41
2.0
 42
0.0
 43
7.0
 44
1.0
 45
0.0
 46
0.0
 47
0.0
 48
0.0
140
3.5
141
0.0
142
0.0
143
25.4
144
1.0
145
0.0
146
0.7
147
0.7
 71
     0
 72
     0
 73
     0
 74
     0
 75
     0
 76
     0
 77
     1
 78
     8
170
     0
171
     2
172
     1
173
     1
174
     0
175
     0
176
   256
177
   256
178
   201
179
     2
270
     2
271
     2
272
     4
273
     2
274
     2
340
F
275
     0
280
     0
281
     0
282
     0
283
     1
284
     8
285
     0
286
     0
287
     2
288
     0
  0
DIMSTYLE
105
1B058
330
A
100
AcDbSymbolTableRecord
100
AcDbDimStyleTableRecord
  2
ISO-25
 70
     0
  3

  4

  5

  6

  7

 40
1.0
 41
20.0
 42
3.0
 43
3.75
 44
2.0
 45
0.0
 46
0.0
 47
0.0
 48
0.0
140
30.0
141
5.0
142
0.0
143
0.03937
144
1.0
145
0.0
146
1.0
147
8.0
 71
     0
 72
     0
 73
     0
 74
     0
 75
     0
 76
     0
 77
     1
 78
     8
170
     0
171
     3
172
     1
173
     0
174
     0
175
     0
176
     1
177
     1
178
     1
179
     2
270
     2
271
     2
272
     2
273
     2
274
     3
340
F
275
     0
280
     0
281
     0
282
     0
283
     0
284
     8
285
     0
286
     0
287
     3
288
     0
  0
ENDTAB
  0
TABLE
  2
BLOCK_RECORD
  5
1
330
0
100
AcDbSymbolTable
 70
     8
  0
BLOCK_RECORD
  5
18
102
{ACAD_XDICTIONARY
360
88F
102
}
330
1
100
AcDbSymbolTableRecord
100
AcDbBlockTableRecord
  2
*MODEL_SPACE
  0
BLOCK_RECORD
  5
15
330
1
100
AcDbSymbolTableRecord
100
AcDbBlockTableRecord
  2
*PAPER_SPACE
  0
BLOCK_RECORD
  5
42
330
1
100
AcDbSymbolTableRecord
100
AcDbBlockTableRecord
  2
_OPEN30
  0
BLOCK_RECORD
  5
19D51
330
1
100
AcDbSymbolTableRecord
100
AcDbBlockTableRecord
  2
A3WAKUKAWAJUN2017_HYOUDAI_
  0
BLOCK_RECORD
  5
1C6A0
330
1
100
AcDbSymbolTableRecord
100
AcDbBlockTableRecord
  2
*X196
  0
BLOCK_RECORD
  5
1C6EE
330
1
100
AcDbSymbolTableRecord
100
AcDbBlockTableRecord
  2
*X197
  0
BLOCK_RECORD
  5
1C740
330
1
100
AcDbSymbolTableRecord
100
AcDbBlockTableRecord
  2
*X198
  0
BLOCK_RECORD
  5
1C791
330
1
100
AcDbSymbolTableRecord
100
AcDbBlockTableRecord
  2
*X199
  0
BLOCK_RECORD
  5
1C7CE
330
1
100
AcDbSymbolTableRecord
100
AcDbBlockTableRecord
  2
*X200
  0
BLOCK_RECORD
  5
1C80E
330
1
100
AcDbSymbolTableRecord
100
AcDbBlockTableRecord
  2
*X201
  0
ENDTAB
  0
ENDSEC
  0
SECTION
  2
BLOCKS
  0
BLOCK
  5
19
330
18
100
AcDbEntity
  8
0
100
AcDbBlockBegin
  2
*MODEL_SPACE
 70
     0
 10
0.0
 20
0.0
 30
0.0
  3
*MODEL_SPACE
  1

  0
ENDBLK
  5
1A
330
18
100
AcDbEntity
  8
0
100
AcDbBlockEnd
  0
BLOCK
  5
16
330
15
100
AcDbEntity
 67
     1
  8
0
100
AcDbBlockBegin
  2
*PAPER_SPACE
 70
     0
 10
0.0
 20
0.0
 30
0.0
  3
*PAPER_SPACE
  1

  0
ENDBLK
  5
17
330
15
100
AcDbEntity
 67
     1
  8
0
100
AcDbBlockEnd
  0
BLOCK
  5
43
330
42
100
AcDbEntity
  8
0
100
AcDbBlockBegin
  2
_OPEN30
 70
     0
 10
0.0
 20
0.0
 30
0.0
  3
_OPEN30
  1

  0
LINE
  5
44
330
42
100
AcDbEntity
  8
0
  6
BYBLOCK
 62
     0
100
AcDbLine
 10
-1.0
 20
0.26794919
 30
0.0
 11
0.0
 21
0.0
 31
0.0
  0
LINE
  5
45
330
42
100
AcDbEntity
  8
0
  6
BYBLOCK
 62
     0
100
AcDbLine
 10
0.0
 20
0.0
 30
0.0
 11
-1.0
 21
-0.26794919
 31
0.0
  0
LINE
  5
46
330
42
100
AcDbEntity
  8
0
  6
BYBLOCK
 62
     0
100
AcDbLine
 10
0.0
 20
0.0
 30
0.0
 11
-1.0
 21
0.0
 31
0.0
  0
ENDBLK
  5
47
330
42
100
AcDbEntity
  8
0
100
AcDbBlockEnd
  0
BLOCK
  5
1A474
330
19D51
100
AcDbEntity
  8
0
100
AcDbBlockBegin
  2
A3WAKUKAWAJUN2017_HYOUDAI_
 70
     0
 10
0.0
 20
0.0
 30
0.0
  3
A3WAKUKAWAJUN2017_HYOUDAI_
  1

  0
LINE
  5
19D53
330
19D51
100
AcDbEntity
  8
0
100
AcDbLine
 10
13.26299999998673
 20
-0.0001000000000317
 30
0.0
 11
9.236999999990758
 21
8.999899999990987
 31
0.0
1001
ACAD
1000
ASC_BOUNDS
1002
{
1070
    19
1005
19D94
1002
}
  0
LINE
  5
19D54
330
19D51
100
AcDbEntity
  8
0
100
AcDbLine
 10
5.657999999994331
 20
0.9999999999989768
 30
0.0
 11
9.236999999990758
 21
8.999999999991019
 31
0.0
1001
ACAD
1000
ASC_BOUNDS
1002
{
1070
    19
1005
19D94
1002
}
  0
LINE
  5
19D55
330
19D51
100
AcDbEntity
  8
0
100
AcDbLine
 10
18.59199999998134
 20
-0.2368999999997641
 30
0.0
 11
16.46099999998353
 21
5.432899999994561
 31
0.0
1001
ACAD
1000
ASC_BOUNDS
1002
{
1070
    19
1005
19D95
1002
}
  0
LINE
  5
19D56
330
19D51
100
AcDbEntity
  8
0
100
AcDbLine
 10
18.59199999998134
 20
-0.2368999999997641
 30
0.0
 11
22.38199999997767
 21
8.763099999991255
 31
0.0
1001
ACAD
1000
ASC_BOUNDS
1002
{
1070
    19
1005
19D95
1002
}
  0
LINE
  5
19D57
330
19D51
100
AcDbEntity
  8
0
100
AcDbLine
 10
14.32899999998563
 20
-0.2368999999997641
 30
0.0
 11
16.46099999998353
 21
5.432899999994561
 31
0.0
1001
ACAD
1000
ASC_BOUNDS
1002
{
1070
    19
1005
19D95
1002
}
  0
LINE
  5
19D58
330
19D51
100
AcDbEntity
  8
0
100
AcDbLine
 10
14.32899999998563
 20
-0.2368999999997641
 30
0.0
 11
10.53899999998941
 21
8.763099999991255
 31
0.0
1001
ACAD
1000
ASC_BOUNDS
1002
{
1070
    19
1005
19D95
1002
}
  0
LINE
  5
19D59
330
19D51
100
AcDbEntity
  8
0
100
AcDbLine
 10
19.53899999998043
 20
-0.0001000000000317
 30
0.0
 11
23.56599999997638
 21
8.999899999990987
 31
0.0
1001
ACAD
1000
ASC_BOUNDS
1002
{
1070
    19
1005
19D96
1002
}
  0
LINE
  5
19D5A
330
19D51
100
AcDbEntity
  8
0
100
AcDbLine
 10
26.97358892824991
 20
1.383099999991202
 30
0.0
 11
23.56599999997638
 21
8.999899999990987
 31
0.0
1001
ACAD
1000
ASC_BOUNDS
1002
{
1070
    19
1005
19D96
1002
}
  0
LINE
  5
19D5B
330
19D51
100
AcDbEntity
  8
0
100
AcDbLine
 10
5.657999999994331
 20
0.9999999999989768
 30
0.0
 11
3.181999999996833
 21
4.668599999995308
 31
0.0
1001
ACAD
1000
ASC_BOUNDS
1002
{
1070
    19
1005
19D94
1002
}
  0
LINE
  5
19D5C
330
19D51
100
AcDbEntity
  8
0
100
AcDbLine
 10
4.617999999995391
 20
-0.0001000000000317
 30
0.0
 11
1.420999999998571
 21
4.736799999995242
 31
0.0
1001
ACAD
1000
ASC_BOUNDS
1002
{
1070
    19
1005
19D94
1002
}
  0
LINE
  5
19D5D
330
19D51
100
AcDbEntity
  8
0
100
AcDbLine
 10
1.420999999998571
 20
8.763099999991255
 30
0.0
 11
1.420999999998571
 21
0.0
 31
0.0
1001
ACAD
1000
ASC_BOUNDS
1002
{
1070
    19
1005
19D99
1002
}
  0
LINE
  5
19D5E
330
19D51
100
AcDbEntity
  8
0
100
AcDbLine
 10
0.0
 20
8.763099999991255
 30
0.0
 11
0.0
 21
0.0
 31
0.0
1001
ACAD
1000
ASC_BOUNDS
1002
{
1070
    19
1005
19D99
1002
}
  0
LINE
  5
19D5F
330
19D51
100
AcDbEntity
  8
0
100
AcDbLine
 10
6.766999999993232
 20
-0.0001000000000317
 30
0.0
 11
7.826999999992154
 21
2.368399999997621
 31
0.0
1001
ACAD
1000
ASC_BOUNDS
1002
{
1070
    19
1005
19D94
1002
}
  0
LINE
  5
19D60
330
19D51
100
AcDbEntity
  8
0
100
AcDbLine
 10
0.0
 20
0.0
 30
0.0
 11
1.420999999998571
 21
0.0
 31
0.0
1001
ACAD
1000
ASC_BOUNDS
1002
{
1070
    19
1005
19D99
1002
}
  0
LINE
  5
19D61
330
19D51
100
AcDbEntity
  8
0
100
AcDbLine
 10
4.617999999995391
 20
0.0
 30
0.0
 11
6.766999999993232
 21
0.0
 31
0.0
1001
ACAD
1000
ASC_BOUNDS
1002
{
1070
    19
1005
19D94
1002
}
  0
LINE
  5
19D62
330
19D51
100
AcDbEntity
  8
0
100
AcDbLine
 10
11.70599999998831
 20
-0.0001000000000317
 30
0.0
 11
10.64699999998936
 21
2.368399999997621
 31
0.0
1001
ACAD
1000
ASC_BOUNDS
1002
{
1070
    19
1005
19D94
1002
}
  0
LINE
  5
19D63
330
19D51
100
AcDbEntity
  8
0
100
AcDbLine
 10
7.826999999992154
 20
2.368399999997621
 30
0.0
 11
10.64699999998936
 21
2.368399999997621
 31
0.0
1001
ACAD
1000
ASC_BOUNDS
1002
{
1070
    19
1005
19D94
1002
}
  0
LINE
  5
19D64
330
19D51
100
AcDbEntity
  8
0
100
AcDbLine
 10
11.70599999998831
 20
0.0
 30
0.0
 11
13.26299999998673
 21
0.0
 31
0.0
1001
ACAD
1000
ASC_BOUNDS
1002
{
1070
    19
1005
19D94
1002
}
  0
LINE
  5
19D65
330
19D51
100
AcDbEntity
  8
0
100
AcDbLine
 10
22.15599999997789
 20
2.368399999997621
 30
0.0
 11
24.97599999997499
 21
2.368399999997621
 31
0.0
1001
ACAD
1000
ASC_BOUNDS
1002
{
1070
    19
1005
19D96
1002
}
  0
LINE
  5
19D66
330
19D51
100
AcDbEntity
  8
0
100
AcDbLine
 10
19.53899999998043
 20
0.0
 30
0.0
 11
21.09599999997886
 21
0.0
 31
0.0
1001
ACAD
1000
ASC_BOUNDS
1002
{
1070
    19
1005
19D96
1002
}
  0
LINE
  5
19D67
330
19D51
100
AcDbEntity
  8
0
100
AcDbLine
 10
21.09599999997886
 20
-0.0001000000000317
 30
0.0
 11
22.15599999997789
 21
2.368399999997621
 31
0.0
1001
ACAD
1000
ASC_BOUNDS
1002
{
1070
    19
1005
19D96
1002
}
  0
LINE
  5
19D68
330
19D51
100
AcDbEntity
  8
0
100
AcDbLine
 10
26.02015566812236
 20
0.0330999999912365
 30
0.0
 11
24.97599999997499
 21
2.368399999997621
 31
0.0
1001
ACAD
1000
ASC_BOUNDS
1002
{
1070
    19
1005
19D96
1002
}
  0
LINE
  5
19D69
330
19D51
100
AcDbEntity
  8
0
100
AcDbLine
 10
14.32399999998563
 20
3.315799999996671
 30
0.0
 11
16.46099999998353
 21
8.999899999990987
 31
0.0
1001
ACAD
1000
ASC_BOUNDS
1002
{
1070
    19
1005
19D95
1002
}
  0
LINE
  5
19D6A
330
19D51
100
AcDbEntity
  8
0
100
AcDbLine
 10
6.432999999993513
 20
8.763099999991255
 30
0.0
 11
3.181999999996833
 21
4.668599999995308
 31
0.0
1001
ACAD
1000
ASC_BOUNDS
1002
{
1070
    19
1005
19D94
1002
}
  0
LINE
  5
19D6B
330
19D51
100
AcDbEntity
  8
0
100
AcDbLine
 10
4.617999999995391
 20
8.763099999991255
 30
0.0
 11
1.420999999998571
 21
4.736799999995242
 31
0.0
1001
ACAD
1000
ASC_BOUNDS
1002
{
1070
    19
1005
19D94
1002
}
  0
LINE
  5
19D6C
330
19D51
100
AcDbEntity
  8
0
100
AcDbLine
 10
0.0
 20
8.763099999991255
 30
0.0
 11
1.420999999998571
 21
8.763099999991255
 31
0.0
1001
ACAD
1000
ASC_BOUNDS
1002
{
1070
    19
1005
19D99
1002
}
  0
LINE
  5
19D6D
330
19D51
100
AcDbEntity
  8
0
100
AcDbLine
 10
4.617999999995391
 20
8.763099999991255
 30
0.0
 11
6.432999999993513
 21
8.763099999991255
 31
0.0
1001
ACAD
1000
ASC_BOUNDS
1002
{
1070
    19
1005
19D94
1002
}
  0
LINE
  5
19D6E
330
19D51
100
AcDbEntity
  8
0
100
AcDbLine
 10
14.32399999998563
 20
3.315799999996671
 30
0.0
 11
12.02999999998792
 21
8.763099999991255
 31
0.0
1001
ACAD
1000
ASC_BOUNDS
1002
{
1070
    19
1005
19D95
1002
}
  0
LINE
  5
19D6F
330
19D51
100
AcDbEntity
  8
0
100
AcDbLine
 10
10.06399999998996
 20
3.670999999996297
 30
0.0
 11
9.236999999990758
 21
5.5200999999945
 31
0.0
1001
ACAD
1000
ASC_BOUNDS
1002
{
1070
    19
1005
19D94
1002
}
  0
LINE
  5
19D70
330
19D51
100
AcDbEntity
  8
0
100
AcDbLine
 10
8.409999999991555
 20
3.670999999996297
 30
0.0
 11
9.236999999990758
 21
5.5200999999945
 31
0.0
1001
ACAD
1000
ASC_BOUNDS
1002
{
1070
    19
1005
19D94
1002
}
  0
LINE
  5
19D71
330
19D51
100
AcDbEntity
  8
0
100
AcDbLine
 10
8.409999999991555
 20
3.670999999996297
 30
0.0
 11
10.06399999998996
 21
3.670999999996297
 31
0.0
1001
ACAD
1000
ASC_BOUNDS
1002
{
1070
    19
1005
19D94
1002
}
  0
LINE
  5
19D72
330
19D51
100
AcDbEntity
  8
0
100
AcDbLine
 10
10.53899999998941
 20
8.763099999991255
 30
0.0
 11
12.02999999998792
 21
8.763099999991255
 31
0.0
1001
ACAD
1000
ASC_BOUNDS
1002
{
1070
    19
1005
19D95
1002
}
  0
LINE
  5
19D73
330
19D51
100
AcDbEntity
  8
0
100
AcDbLine
 10
22.7389999999773
 20
3.670999999996297
 30
0.0
 11
23.56599999997638
 21
5.5200999999945
 31
0.0
1001
ACAD
1000
ASC_BOUNDS
1002
{
1070
    19
1005
19D96
1002
}
  0
LINE
  5
19D74
330
19D51
100
AcDbEntity
  8
0
100
AcDbLine
 10
22.7389999999773
 20
3.670999999996297
 30
0.0
 11
24.39299999997559
 21
3.670999999996297
 31
0.0
1001
ACAD
1000
ASC_BOUNDS
1002
{
1070
    19
1005
19D96
1002
}
  0
LINE
  5
19D75
330
19D51
100
AcDbEntity
  8
0
100
AcDbLine
 10
18.59799999998143
 20
3.315799999996671
 30
0.0
 11
20.89099999997916
 21
8.763099999991255
 31
0.0
1001
ACAD
1000
ASC_BOUNDS
1002
{
1070
    19
1005
19D95
1002
}
  0
LINE
  5
19D76
330
19D51
100
AcDbEntity
  8
0
100
AcDbLine
 10
18.59799999998143
 20
3.315799999996671
 30
0.0
 11
16.46099999998353
 21
8.999899999990987
 31
0.0
1001
ACAD
1000
ASC_BOUNDS
1002
{
1070
    19
1005
19D95
1002
}
  0
LINE
  5
19D77
330
19D51
100
AcDbEntity
  8
0
100
AcDbLine
 10
20.89099999997916
 20
8.763099999991255
 30
0.0
 11
22.38199999997767
 21
8.763099999991255
 31
0.0
1001
ACAD
1000
ASC_BOUNDS
1002
{
1070
    19
1005
19D95
1002
}
  0
LINE
  5
19D78
330
19D51
100
AcDbEntity
  8
0
100
AcDbLine
 10
24.39299999997559
 20
3.670999999996297
 30
0.0
 11
23.56599999997638
 21
5.5200999999945
 31
0.0
1001
ACAD
1000
ASC_BOUNDS
1002
{
1070
    19
1005
19D96
1002
}
  0
LINE
  5
19D79
330
19D51
100
AcDbEntity
  8
0
100
AcDbLine
 10
44.99999999995498
 20
-0.2368999999997641
 30
0.0
 11
40.02599999995994
 21
5.341799999994635
 31
0.0
1001
ACAD
1000
ASC_BOUNDS
1002
{
1070
    19
1005
19D98
1002
}
  0
LINE
  5
19D7A
330
19D51
100
AcDbEntity
  8
0
100
AcDbLine
 10
40.02599999995994
 20
5.341799999994635
 30
0.0
 11
40.02599999995994
 21
0.0
 31
0.0
1001
ACAD
1000
ASC_BOUNDS
1002
{
1070
    19
1005
19D98
1002
}
  0
LINE
  5
19D7B
330
19D51
100
AcDbEntity
  8
0
100
AcDbLine
 10
38.60499999996136
 20
8.999999999991019
 30
0.0
 11
38.60499999996136
 21
0.0
 31
0.0
1001
ACAD
1000
ASC_BOUNDS
1002
{
1070
    19
1005
19D98
1002
}
  0
LINE
  5
19D7C
330
19D51
100
AcDbEntity
  8
0
100
AcDbLine
 10
44.99999999995498
 20
8.763099999991255
 30
0.0
 11
44.99999999995498
 21
-0.2368999999997641
 31
0.0
1001
ACAD
1000
ASC_BOUNDS
1002
{
1070
    19
1005
19D98
1002
}
  0
LINE
  5
19D7D
330
19D51
100
AcDbEntity
  8
0
100
AcDbLine
 10
38.60499999996136
 20
0.0
 30
0.0
 11
40.02599999995994
 21
0.0
 31
0.0
1001
ACAD
1000
ASC_BOUNDS
1002
{
1070
    19
1005
19D98
1002
}
  0
LINE
  5
19D7E
330
19D51
100
AcDbEntity
  8
0
100
AcDbLine
 10
43.57899999995641
 20
3.421199999996588
 30
0.0
 11
38.60499999996136
 21
8.999899999990987
 31
0.0
1001
ACAD
1000
ASC_BOUNDS
1002
{
1070
    19
1005
19D98
1002
}
  0
LINE
  5
19D7F
330
19D51
100
AcDbEntity
  8
0
100
AcDbLine
 10
43.57899999995641
 20
8.763099999991255
 30
0.0
 11
43.57899999995641
 21
3.421199999996588
 31
0.0
1001
ACAD
1000
ASC_BOUNDS
1002
{
1070
    19
1005
19D98
1002
}
  0
LINE
  5
19D80
330
19D51
100
AcDbEntity
  8
0
100
AcDbLine
 10
43.57899999995641
 20
8.763099999991255
 30
0.0
 11
44.99999999995498
 21
8.763099999991255
 31
0.0
1001
ACAD
1000
ASC_BOUNDS
1002
{
1070
    19
1005
19D98
1002
}
  0
LINE
  5
19D81
330
19D51
100
AcDbEntity
  8
0
100
AcDbLine
 10
37.67199999996831
 20
8.763099999991255
 30
0.0
 11
36.23199999996837
 21
8.763099999991255
 31
0.0
  0
LINE
  5
19D82
330
19D51
100
AcDbEntity
  8
0
100
AcDbLine
 10
31.64199999996833
 20
8.763099999991255
 30
0.0
 11
31.64199999996833
 21
2.481619422925121
 31
0.0
  0
LINE
  5
19D83
330
19D51
100
AcDbEntity
  8
0
100
AcDbLine
 10
37.67199999996831
 20
8.763099999991255
 30
0.0
 11
37.67199999996831
 21
2.481619422925121
 31
0.0
  0
LINE
  5
19D84
330
19D51
100
AcDbEntity
  8
0
100
AcDbLine
 10
36.23199999996837
 20
8.763099999991255
 30
0.0
 11
36.23199999996837
 21
2.481619422925064
 31
0.0
  0
LINE
  5
19D85
330
19D51
100
AcDbEntity
  8
0
100
AcDbLine
 10
33.08199999996839
 20
8.763099999991255
 30
0.0
 11
33.08199999996839
 21
2.481619422925121
 31
0.0
  0
ARC
  5
19D86
330
19D51
100
AcDbEntity
  8
0
100
AcDbCircle
 10
34.65699999996832
 20
3.183099999991214
 30
0.0
 40
3.420000000000007
100
AcDbArc
 50
240.0000000000255
 51
299.9999999999766
  0
ARC
  5
19D87
330
19D51
100
AcDbEntity
  8
0
100
AcDbCircle
 10
34.65699999996832
 20
3.183099999991214
 30
0.0
 40
1.97999999999999
100
AcDbArc
 50
240.000000000026
 51
299.9999999999703
  0
LINE
  5
19D88
330
19D51
100
AcDbEntity
  8
0
100
AcDbLine
 10
33.08199999996828
 20
8.763099999991255
 30
0.0
 11
31.64199999996833
 21
8.763099999991255
 31
0.0
  0
ARC
  5
19D89
330
19D51
100
AcDbEntity
  8
0
100
AcDbCircle
 10
35.06199999996829
 20
2.481619422925064
 30
0.0
 40
1.17
100
AcDbArc
 50
299.9999999999699
 51
0.0
  0
ARC
  5
19D8A
330
19D51
100
AcDbEntity
  8
0
100
AcDbCircle
 10
34.25199999996835
 20
2.481619422925121
 30
0.0
 40
1.17
100
AcDbArc
 50
180.0
 51
240.0000000000238
  0
ARC
  5
19D8B
330
19D51
100
AcDbEntity
  8
0
100
AcDbCircle
 10
35.06199999996841
 20
2.481619422925121
 30
0.0
 40
2.61
100
AcDbArc
 50
299.9999999999756
 51
0.0
  0
ARC
  5
19D8C
330
19D51
100
AcDbEntity
  8
0
100
AcDbCircle
 10
34.25199999996835
 20
2.481619422925121
 30
0.0
 40
2.61
100
AcDbArc
 50
180.0
 51
240.0000000000244
  0
LINE
  5
19D8D
330
19D51
100
AcDbEntity
  8
0
100
AcDbLine
 10
29.30199999996933
 20
8.763099999991255
 30
0.0
 11
30.74199999996927
 21
8.763099999991255
 31
0.0
1001
ACAD
1000
ASC_BOUNDS
1002
{
1070
    19
1005
19D96
1002
}
  0
LINE
  5
19D8E
330
19D51
100
AcDbEntity
  8
0
100
AcDbLine
 10
30.74199999996927
 20
8.763099999991255
 30
0.0
 11
30.74199999996927
 21
2.373099999991211
 31
0.0
1001
ACAD
1000
ASC_BOUNDS
1002
{
1070
    19
1005
19D96
1002
}
  0
LINE
  5
19D8F
330
19D51
100
AcDbEntity
  8
0
100
AcDbLine
 10
26.02015566812236
 20
0.0330999999912365
 30
0.0
 11
28.40199999996923
 21
0.0330999999912365
 31
0.0
1001
ACAD
1000
ASC_BOUNDS
1002
{
1070
    19
1005
19D96
1002
}
  0
LINE
  5
19D90
330
19D51
100
AcDbEntity
  8
0
100
AcDbLine
 10
29.30199999996933
 20
8.763099999991255
 30
0.0
 11
29.30199999996933
 21
2.283099999991236
 31
0.0
1001
ACAD
1000
ASC_BOUNDS
1002
{
1070
    19
1005
19D96
1002
}
  0
LINE
  5
19D91
330
19D51
100
AcDbEntity
  8
0
100
AcDbLine
 10
26.97358892824991
 20
1.383099999991202
 30
0.0
 11
28.40199999996923
 21
1.383099999991202
 31
0.0
1001
ACAD
1000
ASC_BOUNDS
1002
{
1070
    19
1005
19D96
1002
}
  0
ARC
  5
19D92
330
19D51
100
AcDbEntity
  8
0
100
AcDbCircle
 10
28.40199999996923
 20
2.283099999991236
 30
0.0
 40
0.9
100
AcDbArc
 50
270.0
 51
0.0
1001
ACAD
1000
ASC_BOUNDS
1002
{
1070
    19
1005
19D96
1002
}
  0
ARC
  5
19D93
330
19D51
100
AcDbEntity
  8
0
100
AcDbCircle
 10
28.40199999996923
 20
2.373099999991211
 30
0.0
 40
2.34
100
AcDbArc
 50
270.0
 51
0.0
1001
ACAD
1000
ASC_BOUNDS
1002
{
1070
    19
1005
19D96
1002
}
  0
INSERT
  5
19D94
330
19D51
100
AcDbEntity
  8
0
100
AcDbBlockReference
  2
*X196
 10
0.0
 20
0.0
 30
0.0
1001
ACAD
1000
HATCH
1002
{
1070
    19
1000
ANSI37
1040
0.15
1040
0.0
1000
ASC_BOUNDS
1070
     2
1070
     2
1070
    12
1005
19D53
1005
19D54
1005
19D5B
1005
19D6A
1005
19D6D
1005
19D6B
1005
19D5C
1005
19D61
1005
19D5F
1005
19D63
1005
19D62
1005
19D64
1070
     2
1070
     3
1005
19D6F
1005
19D71
1005
19D70
1000
ASC_SEEDPOINT
1011
3.614004224891801
1021
2.996669441146025
1031
0.0
1000
R14_HATCH_DATA
1000
19D94
1011
1.0
1021
0.0
1031
0.0
1011
0.0
1021
1.0
1031
0.0
1011
0.0
1021
0.0
1031
1.0
1040
0.0
1010
0.0
1020
0.0
1030
1.0
1000
ANSI37
1070
     0
1070
     1
1071
        2
1071
        7
1070
     0
1070
     1
1071
       17
1040
13.26299999998673
1040
-0.0001000000000317
1040
9.236999999990758
1040
8.999899999990987
1040
9.236999999990758
1040
8.999999999991019
1040
5.657999999994331
1040
0.9999999999989768
1040
3.181999999996833
1040
4.668599999995308
1040
6.432999999993513
1040
8.763099999991255
1040
4.617999999995391
1040
8.763099999991255
1040
1.420999999998571
1040
4.736799999995242
1040
4.617999999995391
1040
-0.0001000000000317
1040
4.617999999995391
1040
0.0
1040
6.766999999993232
1040
0.0
1040
6.766999999993232
1040
-0.0001000000000317
1040
7.826999999992154
1040
2.368399999997621
1040
10.64699999998936
1040
2.368399999997621
1040
11.70599999998831
1040
-0.0001000000000317
1040
11.70599999998831
1040
0.0
1040
13.26299999998673
1040
0.0
1071
       12
1005
19D53
1005
19D54
1005
19D5B
1005
19D6A
1005
19D6D
1005
19D6B
1005
19D5C
1005
19D61
1005
19D5F
1005
19D63
1005
19D62
1005
19D64
1071
       22
1070
     0
1070
     1
1071
        3
1040
9.236999999990758
1040
5.5200999999945
1040
10.06399999998996
1040
3.670999999996297
1040
8.409999999991555
1040
3.670999999996297
1071
        3
1005
19D6F
1005
19D71
1005
19D70
1070
     0
1070
     1
1040
0.0
1040
0.15
1070
     0
1070
     2
1040
0.7853981633974483
1040
49.29960901727088
1040
-10.17736998311392
1040
-0.3367596045400932
1040
0.3367596045400932
1070
     0
1040
2.356194490192345
1040
49.29960901727088
1040
-10.17736998311392
1040
-0.3367596045400932
1040
-0.3367596045400932
1070
     0
1040
0.0110235143455945
1071
        2
1040
3.614004224891801
1040
2.996669441146025
1040
0.0
1040
3.614004224891801
1040
2.996669441146025
1040
0.0
1002
}
  0
INSERT
  5
19D95
330
19D51
100
AcDbEntity
  8
0
100
AcDbBlockReference
  2
*X197
 10
0.0
 20
0.0
 30
0.0
1001
ACAD
1000
HATCH
1002
{
1070
    19
1000
ANSI37
1040
0.15
1040
0.0
1000
ASC_BOUNDS
1070
     1
1070
     2
1070
    10
1005
19D55
1005
19D56
1005
19D77
1005
19D75
1005
19D76
1005
19D69
1005
19D6E
1005
19D72
1005
19D58
1005
19D57
1000
ASC_SEEDPOINT
1011
14.73245321214324
1021
2.798246178283421
1031
0.0
1000
R14_HATCH_DATA
1000
19D95
1011
1.0
1021
0.0
1031
0.0
1011
0.0
1021
1.0
1031
0.0
1011
0.0
1021
0.0
1031
1.0
1040
0.0
1010
0.0
1020
0.0
1030
1.0
1000
ANSI37
1070
     0
1070
     1
1071
        1
1071
        7
1070
     0
1070
     1
1071
       10
1040
16.46099999998353
1040
5.432899999994561
1040
18.59199999998134
1040
-0.2368999999997641
1040
22.38199999997767
1040
8.763099999991255
1040
20.89099999997916
1040
8.763099999991255
1040
18.59799999998143
1040
3.315799999996671
1040
16.46099999998353
1040
8.999899999990987
1040
14.32399999998563
1040
3.315799999996671
1040
12.02999999998792
1040
8.763099999991255
1040
10.53899999998941
1040
8.763099999991255
1040
14.32899999998563
1040
-0.2368999999997641
1071
       10
1005
19D55
1005
19D56
1005
19D77
1005
19D75
1005
19D76
1005
19D69
1005
19D6E
1005
19D72
1005
19D58
1005
19D57
1070
     0
1070
     1
1040
0.0
1040
0.15
1070
     0
1070
     2
1040
0.7853981633974483
1040
49.29960901727088
1040
-10.17736998311392
1040
-0.3367596045400932
1040
0.3367596045400932
1070
     0
1040
2.356194490192345
1040
49.29960901727088
1040
-10.17736998311392
1040
-0.3367596045400932
1040
-0.3367596045400932
1070
     0
1040
0.0110235143455945
1071
        1
1040
14.73245321214324
1040
2.798246178283421
1040
0.0
1002
}
  0
INSERT
  5
19D96
330
19D51
100
AcDbEntity
  8
0
100
AcDbBlockReference
  2
*X198
 10
0.0
 20
0.0
 30
0.0
1001
ACAD
1000
HATCH
1002
{
1070
    19
1000
ANSI37
1040
0.15
1040
0.0
1000
ASC_BOUNDS
1070
     2
1070
     2
1070
    13
1005
19D59
1005
19D66
1005
19D67
1005
19D65
1005
19D68
1005
19D8F
1005
19D93
1005
19D8E
1005
19D8D
1005
19D90
1005
19D92
1005
19D91
1005
19D5A
1070
     2
1070
     3
1005
19D73
1005
19D78
1005
19D74
1000
ASC_SEEDPOINT
1011
21.97929957367762
1021
3.294304244259308
1031
0.0
1000
R14_HATCH_DATA
1000
19D96
1011
1.0
1021
0.0
1031
0.0
1011
0.0
1021
1.0
1031
0.0
1011
0.0
1021
0.0
1031
1.0
1040
0.0
1010
0.0
1020
0.0
1030
1.0
1000
ANSI37
1070
     0
1070
     1
1071
        2
1071
        7
1070
     1
1070
     1
1071
       15
1040
23.56599999997638
1040
8.999899999990987
1040
0.0
1040
19.53899999998043
1040
-0.0001000000000317
1040
0.0
1040
19.53899999998043
1040
0.0
1040
0.0
1040
21.09599999997886
1040
0.0
1040
0.0
1040
21.09599999997886
1040
-0.0001000000000317
1040
0.0
1040
22.15599999997789
1040
2.368399999997621
1040
0.0
1040
24.97599999997499
1040
2.368399999997621
1040
0.0
1040
26.02015566812236
1040
0.0330999999912365
1040
0.0
1040
28.40199999996923
1040
0.0330999999912365
1040
0.414213562373095
1040
30.74199999996923
1040
2.373099999991211
1040
0.0
1040
30.74199999996927
1040
8.763099999991255
1040
0.0
1040
29.30199999996933
1040
8.763099999991255
1040
0.0
1040
29.30199999996933
1040
2.283099999991236
1040
-0.414213562373095
1040
28.40199999996923
1040
1.383099999991237
1040
0.0
1040
26.97358892824991
1040
1.383099999991202
1040
0.0
1071
       13
1005
19D59
1005
19D66
1005
19D67
1005
19D65
1005
19D68
1005
19D8F
1005
19D93
1005
19D8E
1005
19D8D
1005
19D90
1005
19D92
1005
19D91
1005
19D5A
1071
       22
1070
     0
1070
     1
1071
        3
1040
22.7389999999773
1040
3.670999999996297
1040
23.56599999997638
1040
5.5200999999945
1040
24.39299999997559
1040
3.670999999996297
1071
        3
1005
19D73
1005
19D78
1005
19D74
1070
     0
1070
     1
1040
0.0
1040
0.15
1070
     0
1070
     2
1040
0.7853981633974483
1040
49.29960901727088
1040
-10.17736998311392
1040
-0.3367596045400932
1040
0.3367596045400932
1070
     0
1040
2.356194490192345
1040
49.29960901727088
1040
-10.17736998311392
1040
-0.3367596045400932
1040
-0.3367596045400932
1070
     0
1040
0.0110235143455945
1071
        2
1040
21.97929957367762
1040
3.294304244259308
1040
0.0
1040
21.97929957367762
1040
3.294304244259308
1040
0.0
1002
}
  0
INSERT
  5
19D97
330
19D51
100
AcDbEntity
  8
0
100
AcDbBlockReference
  2
*X199
 10
0.0
 20
0.0
 30
0.0
1001
ACAD
1000
HATCH
1002
{
1070
    19
1000
ANSI37
1040
0.15
1040
0.0
1000
R14_HATCH_DATA
1000
19D97
1011
1.0
1021
0.0
1031
0.0
1011
0.0
1021
1.0
1031
0.0
1011
0.0
1021
0.0
1031
1.0
1040
0.0
1010
0.0
1020
0.0
1030
1.0
1000
ANSI37
1070
     0
1070
     1
1071
        1
1071
        7
1070
     1
1070
     1
1071
       12
1040
31.64199999996833
1040
2.481619422925121
1040
0.2679491924310942
1040
32.94699999997067
1040
0.2212931190493919
1040
0.2679491924301353
1040
36.36699999995983
1040
0.2212931190459813
1040
0.2679491924321411
1040
37.67199999996831
1040
2.481619422928361
1040
0.0
1040
37.67199999996831
1040
8.763099999991255
1040
0.0
1040
36.23199999996837
1040
8.763099999991255
1040
0.0
1040
36.23199999996837
1040
2.481619422925064
1040
-0.2679491924310291
1040
35.64699999996708
1040
1.468369700498386
1040
-0.267949192430519
1040
33.66699999997093
1040
1.468369700497703
1040
-0.267949192431809
1040
33.08199999996839
1040
2.481619422926997
1040
0.0
1040
33.08199999996839
1040
8.763099999991255
1040
0.0
1040
31.64199999996833
1040
8.763099999991255
1040
0.0
1071
        0
1070
     0
1070
     1
1040
0.0
1040
0.15
1070
     0
1070
     2
1040
0.7853981633974483
1040
49.29960901727088
1040
-10.17736998311392
1040
-0.3367596045400932
1040
0.3367596045400932
1070
     0
1040
2.356194490192345
1040
49.29960901727088
1040
-10.17736998311392
1040
-0.3367596045400932
1040
-0.3367596045400932
1070
     0
1040
0.0110235143455945
1071
        1
1040
32.30357378967278
1040
3.988785755459219
1040
0.0
1002
}
  0
INSERT
  5
19D98
330
19D51
100
AcDbEntity
  8
0
100
AcDbBlockReference
  2
*X200
 10
0.0
 20
0.0
 30
0.0
1001
ACAD
1000
HATCH
1002
{
1070
    19
1000
ANSI37
1040
0.15
1040
0.0
1000
ASC_BOUNDS
1070
     1
1070
     2
1070
     8
1005
19D79
1005
19D7C
1005
19D80
1005
19D7F
1005
19D7E
1005
19D7B
1005
19D7D
1005
19D7A
1000
ASC_SEEDPOINT
1011
39.74896370716704
1021
4.484843821435049
1031
0.0
1000
R14_HATCH_DATA
1000
19D98
1011
1.0
1021
0.0
1031
0.0
1011
0.0
1021
1.0
1031
0.0
1011
0.0
1021
0.0
1031
1.0
1040
0.0
1010
0.0
1020
0.0
1030
1.0
1000
ANSI37
1070
     0
1070
     1
1071
        1
1071
        7
1070
     0
1070
     1
1071
        9
1040
40.02599999995994
1040
5.341799999994635
1040
44.99999999995498
1040
-0.2368999999997641
1040
44.99999999995498
1040
8.763099999991255
1040
43.57899999995641
1040
8.763099999991255
1040
43.57899999995641
1040
3.421199999996588
1040
38.60499999996136
1040
8.999899999990987
1040
38.60499999996136
1040
8.999999999991019
1040
38.60499999996136
1040
0.0
1040
40.02599999995994
1040
0.0
1071
        8
1005
19D79
1005
19D7C
1005
19D80
1005
19D7F
1005
19D7E
1005
19D7B
1005
19D7D
1005
19D7A
1070
     0
1070
     1
1040
0.0
1040
0.15
1070
     0
1070
     2
1040
0.7853981633974483
1040
49.29960901727088
1040
-10.17736998311392
1040
-0.3367596045400932
1040
0.3367596045400932
1070
     0
1040
2.356194490192345
1040
49.29960901727088
1040
-10.17736998311392
1040
-0.3367596045400932
1040
-0.3367596045400932
1070
     0
1040
0.0110235143455945
1071
        1
1040
39.74896370716704
1040
4.484843821435049
1040
0.0
1002
}
  0
INSERT
  5
19D99
330
19D51
100
AcDbEntity
  8
0
100
AcDbBlockReference
  2
*X201
 10
0.0
 20
0.0
 30
0.0
1001
ACAD
1000
HATCH
1002
{
1070
    19
1000
ANSI37
1040
0.15
1040
0.0
1000
ASC_BOUNDS
1070
     1
1070
     2
1070
     4
1005
19D5D
1005
19D6C
1005
19D5E
1005
19D60
1000
ASC_SEEDPOINT
1011
1.079051535452663
1021
4.148538732891836
1031
0.0
1000
R14_HATCH_DATA
1000
19D99
1011
1.0
1021
0.0
1031
0.0
1011
0.0
1021
1.0
1031
0.0
1011
0.0
1021
0.0
1031
1.0
1040
0.0
1010
0.0
1020
0.0
1030
1.0
1000
ANSI37
1070
     0
1070
     1
1071
        1
1071
        7
1070
     0
1070
     1
1071
        4
1040
1.420999999998571
1040
0.0
1040
1.420999999998571
1040
8.763099999991255
1040
0.0
1040
8.763099999991255
1040
0.0
1040
0.0
1071
        4
1005
19D5D
1005
19D6C
1005
19D5E
1005
19D60
1070
     0
1070
     1
1040
0.0
1040
0.15
1070
     0
1070
     2
1040
0.7853981633974483
1040
49.29960901727088
1040
-10.17736998311392
1040
-0.3367596045400932
1040
0.3367596045400932
1070
     0
1040
2.356194490192345
1040
49.29960901727088
1040
-10.17736998311392
1040
-0.3367596045400932
1040
-0.3367596045400932
1070
     0
1040
0.0053004257112761
1071
        1
1040
1.079051535452663
1040
4.148538732891836
1040
0.0
1002
}
  0
ENDBLK
  5
1A475
330
19D51
100
AcDbEntity
  8
0
100
AcDbBlockEnd
  0
BLOCK
  5
1C82E
330
1C6A0
100
AcDbEntity
  8
0
100
AcDbBlockBegin
  2
*X196
 70
     1
 10
0.0
 20
0.0
 30
0.0
  3
*X196
  1

  0
LINE
  5
1C6A1
330
1C6A0
100
AcDbEntity
  8
0
  6
CONTINUOUS
100
AcDbLine
 10
3.418023043697893
 20
7.251849696850613
 30
0.0
 11
4.929273346838536
 21
8.763099999991255
 31
0.0
  0
LINE
  5
1C6A2
330
1C6A0
100
AcDbEntity
  8
0
  6
CONTINUOUS
100
AcDbLine
 10
1.483656411257782
 20
4.643963855330318
 30
0.0
 11
5.60279255591872
 21
8.763099999991255
 31
0.0
  0
LINE
  5
1C6A3
330
1C6A0
100
AcDbEntity
  8
0
  6
CONTINUOUS
100
AcDbLine
 10
1.755053947328235
 20
4.241842182320584
 30
0.0
 11
6.276311764998907
 21
8.763099999991255
 31
0.0
  0
LINE
  5
1C6A4
330
1C6A0
100
AcDbEntity
  8
0
  6
CONTINUOUS
100
AcDbLine
 10
2.026451483398688
 20
3.839720509310849
 30
0.0
 11
4.441040904851878
 21
6.254309930764039
 31
0.0
  0
LINE
  5
1C6A5
330
1C6A0
100
AcDbEntity
  8
0
  6
CONTINUOUS
100
AcDbLine
 10
2.297849019469139
 20
3.437598836301114
 30
0.0
 11
3.321765168359338
 21
4.461514985191313
 31
0.0
  0
LINE
  5
1C6A6
330
1C6A0
100
AcDbEntity
  8
0
  6
CONTINUOUS
100
AcDbLine
 10
2.569246555539591
 20
3.03547716329138
 30
0.0
 11
3.593163397972743
 21
4.059394005724531
 31
0.0
  0
LINE
  5
1C6A7
330
1C6A0
100
AcDbEntity
  8
0
  6
CONTINUOUS
100
AcDbLine
 10
2.840644091610043
 20
2.633355490281646
 30
0.0
 11
3.864561627586149
 21
3.657273026257751
 31
0.0
  0
LINE
  5
1C6A8
330
1C6A0
100
AcDbEntity
  8
0
  6
CONTINUOUS
100
AcDbLine
 10
3.112041627680496
 20
2.231233817271911
 30
0.0
 11
4.135959857199554
 21
3.25515204679097
 31
0.0
  0
LINE
  5
1C6A9
330
1C6A0
100
AcDbEntity
  8
0
  6
CONTINUOUS
100
AcDbLine
 10
3.383439163750948
 20
1.829112144262177
 30
0.0
 11
4.40735808681296
 21
2.853031067324189
 31
0.0
  0
LINE
  5
1C6AA
330
1C6A0
100
AcDbEntity
  8
0
  6
CONTINUOUS
100
AcDbLine
 10
3.654836699821399
 20
1.426990471252442
 30
0.0
 11
4.678756316426365
 21
2.450910087857407
 31
0.0
  0
LINE
  5
1C6AB
330
1C6A0
100
AcDbEntity
  8
0
  6
CONTINUOUS
100
AcDbLine
 10
3.926234235891853
 20
1.024868798242709
 30
0.0
 11
4.95015454603977
 21
2.048789108390626
 31
0.0
  0
LINE
  5
1C6AC
330
1C6A0
100
AcDbEntity
  8
0
  6
CONTINUOUS
100
AcDbLine
 10
4.197631771962304
 20
0.6227471252329737
 30
0.0
 11
5.221552775653176
 21
1.646668128923846
 31
0.0
  0
LINE
  5
1C6AD
330
1C6A0
100
AcDbEntity
  8
0
  6
CONTINUOUS
100
AcDbLine
 10
8.715877546767851
 20
7.835069736359266
 30
0.0
 11
9.435953450375058
 21
8.555145639966472
 31
0.0
  0
LINE
  5
1C6AE
330
1C6A0
100
AcDbEntity
  8
0
  6
CONTINUOUS
100
AcDbLine
 10
8.170620868422267
 20
6.616293848933497
 30
0.0
 11
9.644120833743461
 21
8.08979381425469
 31
0.0
  0
LINE
  5
1C6AF
330
1C6A0
100
AcDbEntity
  8
0
  6
CONTINUOUS
100
AcDbLine
 10
7.625364190076684
 20
5.397517961507727
 30
0.0
 11
9.852288217111864
 21
7.624441988542907
 31
0.0
  0
LINE
  5
1C6B0
330
1C6A0
100
AcDbEntity
  8
0
  6
CONTINUOUS
100
AcDbLine
 10
7.080107511731101
 20
4.178742074081957
 30
0.0
 11
10.06045560048027
 21
7.159090162831124
 31
0.0
  0
LINE
  5
1C6B1
330
1C6A0
100
AcDbEntity
  8
0
  6
CONTINUOUS
100
AcDbLine
 10
6.534850833385518
 20
2.959966186656187
 30
0.0
 11
10.26862298384867
 21
6.693738337119342
 31
0.0
  0
LINE
  5
1C6B2
330
1C6A0
100
AcDbEntity
  8
0
  6
CONTINUOUS
100
AcDbLine
 10
4.469029308032756
 20
0.2206254522232385
 30
0.0
 11
5.492951005266582
 21
1.244547149457064
 31
0.0
  0
LINE
  5
1C6B3
330
1C6A0
100
AcDbEntity
  8
0
  6
CONTINUOUS
100
AcDbLine
 10
5.989594155039935
 20
1.741190299230417
 30
0.0
 11
8.806950407233131
 21
4.558546551423613
 31
0.0
  0
LINE
  5
1C6B4
330
1C6A0
100
AcDbEntity
  8
0
  6
CONTINUOUS
100
AcDbLine
 10
9.401251593263643
 20
5.152847737454126
 30
0.0
 11
10.47679036721708
 21
6.228386511407559
 31
0.0
  0
LINE
  5
1C6B5
330
1C6A0
100
AcDbEntity
  8
0
  6
CONTINUOUS
100
AcDbLine
 10
4.921837203428691
 20
-0.0000858614610131
 30
0.0
 11
8.592923064886001
 21
3.670999999996297
 31
0.0
  0
LINE
  5
1C6B6
330
1C6A0
100
AcDbEntity
  8
0
  6
CONTINUOUS
100
AcDbLine
 10
9.609390446785305
 20
4.6874673818956
 30
0.0
 11
10.68495775058548
 21
5.763034685695775
 31
0.0
  0
LINE
  5
1C6B7
330
1C6A0
100
AcDbEntity
  8
0
  6
CONTINUOUS
100
AcDbLine
 10
5.595387755019432
 20
-0.0000545189504582
 30
0.0
 11
7.716137258923768
 21
2.120694984953879
 31
0.0
  0
LINE
  5
1C6B8
330
1C6A0
100
AcDbEntity
  8
0
  6
CONTINUOUS
100
AcDbLine
 10
6.268938306610172
 20
-0.000023176439905
 30
0.0
 11
7.170485805526503
 21
0.9015243224764267
 31
0.0
  0
LINE
  5
1C6B9
330
1C6A0
100
AcDbEntity
  8
0
  6
CONTINUOUS
100
AcDbLine
 10
7.963842273967511
 20
2.368399999997621
 30
0.0
 11
9.266442273966188
 21
3.670999999996297
 31
0.0
  0
LINE
  5
1C6BA
330
1C6A0
100
AcDbEntity
  8
0
  6
CONTINUOUS
100
AcDbLine
 10
8.637361483047696
 20
2.368399999997621
 30
0.0
 11
9.939961483046375
 21
3.670999999996297
 31
0.0
  0
LINE
  5
1C6BB
330
1C6A0
100
AcDbEntity
  8
0
  6
CONTINUOUS
100
AcDbLine
 10
9.817529300306965
 20
4.222087026337075
 30
0.0
 11
10.89312513395388
 21
5.297682859983993
 31
0.0
  0
LINE
  5
1C6BC
330
1C6A0
100
AcDbEntity
  8
0
  6
CONTINUOUS
100
AcDbLine
 10
10.02566815382863
 20
3.756706670778549
 30
0.0
 11
11.10129251732229
 21
4.832331034272211
 31
0.0
  0
LINE
  5
1C6BD
330
1C6A0
100
AcDbEntity
  8
0
  6
CONTINUOUS
100
AcDbLine
 10
9.310880692127883
 20
2.368399999997621
 30
0.0
 11
11.30945990069069
 21
4.366979208560428
 31
0.0
  0
LINE
  5
1C6BE
330
1C6A0
100
AcDbEntity
  8
0
  6
CONTINUOUS
100
AcDbLine
 10
9.98439990120807
 20
2.36839999999762
 30
0.0
 11
11.5176272840591
 21
3.901627382848645
 31
0.0
  0
LINE
  5
1C6BF
330
1C6A0
100
AcDbEntity
  8
0
  6
CONTINUOUS
100
AcDbLine
 10
10.65037369446246
 20
2.36085458417182
 30
0.0
 11
11.7257946674275
 21
3.436275557136862
 31
0.0
  0
LINE
  5
1C6C0
330
1C6A0
100
AcDbEntity
  8
0
  6
CONTINUOUS
100
AcDbLine
 10
10.85847197087848
 20
1.895433651507656
 30
0.0
 11
11.9339620507959
 21
2.97092373142508
 31
0.0
  0
LINE
  5
1C6C1
330
1C6A0
100
AcDbEntity
  8
0
  6
CONTINUOUS
100
AcDbLine
 10
11.0665702472945
 20
1.430012718843491
 30
0.0
 11
12.14212943416431
 21
2.505571905713296
 31
0.0
  0
LINE
  5
1C6C2
330
1C6A0
100
AcDbEntity
  8
0
  6
CONTINUOUS
100
AcDbLine
 10
11.27466852371052
 20
0.9645917861793256
 30
0.0
 11
12.35029681753271
 21
2.040220080001513
 31
0.0
  0
LINE
  5
1C6C3
330
1C6A0
100
AcDbEntity
  8
0
  6
CONTINUOUS
100
AcDbLine
 10
11.48276680012654
 20
0.4991708535151611
 30
0.0
 11
12.55846420090111
 21
1.57486825428973
 31
0.0
  0
LINE
  5
1C6C4
330
1C6A0
100
AcDbEntity
  8
0
  6
CONTINUOUS
100
AcDbLine
 10
11.69086507654257
 20
0.0337499208509957
 30
0.0
 11
12.76663158426952
 21
1.109516428577947
 31
0.0
  0
LINE
  5
1C6C5
330
1C6A0
100
AcDbEntity
  8
0
  6
CONTINUOUS
100
AcDbLine
 10
12.33057447873954
 20
-0.0000598860322123
 30
0.0
 11
12.97479896763792
 21
0.6441646028661663
 31
0.0
  0
LINE
  5
1C6C6
330
1C6A0
100
AcDbEntity
  8
0
  6
CONTINUOUS
100
AcDbLine
 10
13.00413694809395
 20
-0.0000166257579952
 30
0.0
 11
13.18296635100632
 21
0.1788127771543824
 31
0.0
  0
LINE
  5
1C6C7
330
1C6A0
100
AcDbEntity
  8
0
  6
CONTINUOUS
100
AcDbLine
 10
4.772852165289667
 20
-0.000092794222212
 30
0.0
 11
4.296495091028902
 21
0.4762642800385528
 31
0.0
  0
LINE
  5
1C6C8
330
1C6A0
100
AcDbEntity
  8
0
  6
CONTINUOUS
100
AcDbLine
 10
5.446340034776103
 20
-0.0000614546284616
 30
0.0
 11
2.898195908335625
 21
2.548082671812017
 31
0.0
  0
LINE
  5
1C6C9
330
1C6A0
100
AcDbEntity
  8
0
  6
CONTINUOUS
100
AcDbLine
 10
6.119827904262539
 20
-0.0000301150347113
 30
0.0
 11
1.499896725642348
 21
4.61990106358548
 31
0.0
  0
LINE
  5
1C6CA
330
1C6A0
100
AcDbEntity
  8
0
  6
CONTINUOUS
100
AcDbLine
 10
6.775136745476159
 20
0.0181802528318542
 30
0.0
 11
5.699826040202669
 21
1.093490958105344
 31
0.0
  0
LINE
  5
1C6CB
330
1C6A0
100
AcDbEntity
  8
0
  6
CONTINUOUS
100
AcDbLine
 10
6.983376846288489
 20
0.4834593610997118
 30
0.0
 11
5.908008617934405
 21
1.558827589453796
 31
0.0
  0
LINE
  5
1C6CC
330
1C6A0
100
AcDbEntity
  8
0
  6
CONTINUOUS
100
AcDbLine
 10
5.377063484962296
 20
1.416253513345719
 30
0.0
 11
1.702276957014131
 21
5.091040041293883
 31
0.0
  0
LINE
  5
1C6CD
330
1C6A0
100
AcDbEntity
  8
0
  6
CONTINUOUS
100
AcDbLine
 10
3.978745891735324
 20
3.488090315652877
 30
0.0
 11
2.000373521109399
 21
5.466462686278803
 31
0.0
  0
LINE
  5
1C6CE
330
1C6A0
100
AcDbEntity
  8
0
  6
CONTINUOUS
100
AcDbLine
 10
7.191616947100819
 20
0.948738469367568
 30
0.0
 11
6.11619119566614
 21
2.024164220802247
 31
0.0
  0
LINE
  5
1C6CF
330
1C6A0
100
AcDbEntity
  8
0
  6
CONTINUOUS
100
AcDbLine
 10
7.399857047913149
 20
1.414017577635424
 30
0.0
 11
6.324373773397875
 21
2.489500852150698
 31
0.0
  0
LINE
  5
1C6D0
330
1C6A0
100
AcDbEntity
  8
0
  6
CONTINUOUS
100
AcDbLine
 10
7.608097148725479
 20
1.879296685903281
 30
0.0
 11
6.53255635112961
 21
2.95483748349915
 31
0.0
  0
LINE
  5
1C6D1
330
1C6A0
100
AcDbEntity
  8
0
  6
CONTINUOUS
100
AcDbLine
 10
7.816337249537808
 20
2.344575794171138
 30
0.0
 11
6.740738928861345
 21
3.420174114847601
 31
0.0
  0
LINE
  5
1C6D2
330
1C6A0
100
AcDbEntity
  8
0
  6
CONTINUOUS
100
AcDbLine
 10
3.310241080789734
 20
4.830114335678653
 30
0.0
 11
2.298470085204666
 21
5.84188533126372
 31
0.0
  0
LINE
  5
1C6D3
330
1C6A0
100
AcDbEntity
  8
0
  6
CONTINUOUS
100
AcDbLine
 10
3.60832983563551
 20
5.205544789913063
 30
0.0
 11
2.596566649299935
 21
6.217307976248638
 31
0.0
  0
LINE
  5
1C6D4
330
1C6A0
100
AcDbEntity
  8
0
  6
CONTINUOUS
100
AcDbLine
 10
3.906418590481286
 20
5.580975244147473
 30
0.0
 11
2.894663213395203
 21
6.592730621233557
 31
0.0
  0
LINE
  5
1C6D5
330
1C6A0
100
AcDbEntity
  8
0
  6
CONTINUOUS
100
AcDbLine
 10
4.204507345327062
 20
5.956405698381884
 30
0.0
 11
3.192759777490472
 21
6.968153266218474
 31
0.0
  0
LINE
  5
1C6D6
330
1C6A0
100
AcDbEntity
  8
0
  6
CONTINUOUS
100
AcDbLine
 10
8.466032252791512
 20
2.368399999997621
 30
0.0
 11
6.948921506593081
 21
3.885510746196053
 31
0.0
  0
LINE
  5
1C6D7
330
1C6A0
100
AcDbEntity
  8
0
  6
CONTINUOUS
100
AcDbLine
 10
9.139551461871699
 20
2.36839999999762
 30
0.0
 11
7.157104084324816
 21
4.350847377544504
 31
0.0
  0
LINE
  5
1C6D8
330
1C6A0
100
AcDbEntity
  8
0
  6
CONTINUOUS
100
AcDbLine
 10
4.502596100172839
 20
6.331836152616295
 30
0.0
 11
3.49085634158574
 21
7.343575911203393
 31
0.0
  0
LINE
  5
1C6D9
330
1C6A0
100
AcDbEntity
  8
0
  6
CONTINUOUS
100
AcDbLine
 10
4.800684855018615
 20
6.707266606850705
 30
0.0
 11
3.788952905681008
 21
7.718998556188312
 31
0.0
  0
LINE
  5
1C6DA
330
1C6A0
100
AcDbEntity
  8
0
  6
CONTINUOUS
100
AcDbLine
 10
12.18154012887317
 20
-0.0000694579236642
 30
0.0
 11
11.32140332908496
 21
0.8600673418645499
 31
0.0
  0
LINE
  5
1C6DB
330
1C6A0
100
AcDbEntity
  8
0
  6
CONTINUOUS
100
AcDbLine
 10
12.85501608323566
 20
-0.0000262032059659
 30
0.0
 11
10.77672456435345
 21
2.078265315676246
 31
0.0
  0
LINE
  5
1C6DC
330
1C6A0
100
AcDbEntity
  8
0
  6
CONTINUOUS
100
AcDbLine
 10
9.813070670951886
 20
2.36839999999762
 30
0.0
 11
8.51047067095321
 21
3.670999999996297
 31
0.0
  0
LINE
  5
1C6DD
330
1C6A0
100
AcDbEntity
  8
0
  6
CONTINUOUS
100
AcDbLine
 10
10.48658988003207
 20
2.36839999999762
 30
0.0
 11
9.183989880033396
 21
3.670999999996297
 31
0.0
  0
LINE
  5
1C6DE
330
1C6A0
100
AcDbEntity
  8
0
  6
CONTINUOUS
100
AcDbLine
 10
8.441048632286794
 20
3.740422038662712
 30
0.0
 11
7.365286662056551
 21
4.816184008892956
 31
0.0
  0
LINE
  5
1C6DF
330
1C6A0
100
AcDbEntity
  8
0
  6
CONTINUOUS
100
AcDbLine
 10
8.649187485808454
 20
4.205802394221237
 30
0.0
 11
7.573469239788285
 21
5.281520640241407
 31
0.0
  0
LINE
  5
1C6E0
330
1C6A0
100
AcDbEntity
  8
0
  6
CONTINUOUS
100
AcDbLine
 10
5.098773609864391
 20
7.082697061085115
 30
0.0
 11
4.087049469776277
 21
8.09442120117323
 31
0.0
  0
LINE
  5
1C6E1
330
1C6A0
100
AcDbEntity
  8
0
  6
CONTINUOUS
100
AcDbLine
 10
5.396862364710167
 20
7.458127515319526
 30
0.0
 11
4.385146033871544
 21
8.469843846158149
 31
0.0
  0
LINE
  5
1C6E2
330
1C6A0
100
AcDbEntity
  8
0
  6
CONTINUOUS
100
AcDbLine
 10
13.04801363231285
 20
0.4804954567970334
 30
0.0
 11
9.85750908911358
 21
3.670999999996297
 31
0.0
  0
LINE
  5
1C6E3
330
1C6A0
100
AcDbEntity
  8
0
  6
CONTINUOUS
100
AcDbLine
 10
8.857326339330116
 20
4.671182749779763
 30
0.0
 11
7.781651817520021
 21
5.746857271589858
 31
0.0
  0
LINE
  5
1C6E4
330
1C6A0
100
AcDbEntity
  8
0
  6
CONTINUOUS
100
AcDbLine
 10
5.694951119555943
 20
7.833557969553937
 30
0.0
 11
4.765409089118624
 21
8.763099999991255
 31
0.0
  0
LINE
  5
1C6E5
330
1C6A0
100
AcDbEntity
  8
0
  6
CONTINUOUS
100
AcDbLine
 10
12.50286117236978
 20
1.699167125820288
 30
0.0
 11
9.68611877250287
 21
4.515909525687196
 31
0.0
  0
LINE
  5
1C6E6
330
1C6A0
100
AcDbEntity
  8
0
  6
CONTINUOUS
100
AcDbLine
 10
9.065465192851777
 20
5.136563105338288
 30
0.0
 11
7.989834395251757
 21
6.21219390293831
 31
0.0
  0
LINE
  5
1C6E7
330
1C6A0
100
AcDbEntity
  8
0
  6
CONTINUOUS
100
AcDbLine
 10
5.993039874401719
 20
8.208988423788346
 30
0.0
 11
5.43892829819881
 21
8.763099999991255
 31
0.0
  0
LINE
  5
1C6E8
330
1C6A0
100
AcDbEntity
  8
0
  6
CONTINUOUS
100
AcDbLine
 10
11.95770871242671
 20
2.917838794843543
 30
0.0
 11
8.19801697298349
 21
6.677530534286761
 31
0.0
  0
LINE
  5
1C6E9
330
1C6A0
100
AcDbEntity
  8
0
  6
CONTINUOUS
100
AcDbLine
 10
6.291128629247495
 20
8.584418878022756
 30
0.0
 11
6.112447507278997
 21
8.763099999991255
 31
0.0
  0
LINE
  5
1C6EA
330
1C6A0
100
AcDbEntity
  8
0
  6
CONTINUOUS
100
AcDbLine
 10
11.41255625248364
 20
4.136510463866797
 30
0.0
 11
8.406199550715227
 21
7.142867165635211
 31
0.0
  0
LINE
  5
1C6EB
330
1C6A0
100
AcDbEntity
  8
0
  6
CONTINUOUS
100
AcDbLine
 10
10.86740379254057
 20
5.355182132890051
 30
0.0
 11
8.614382128446962
 21
7.608203796983664
 31
0.0
  0
LINE
  5
1C6EC
330
1C6A0
100
AcDbEntity
  8
0
  6
CONTINUOUS
100
AcDbLine
 10
10.3222513325975
 20
6.573853801913305
 30
0.0
 11
8.822564706178696
 21
8.073540428332114
 31
0.0
  0
LINE
  5
1C6ED
330
1C6A0
100
AcDbEntity
  8
0
  6
CONTINUOUS
100
AcDbLine
 10
9.777098872654436
 20
7.792525470936562
 30
0.0
 11
9.030747283910433
 21
8.538877059680566
 31
0.0
  0
ENDBLK
  5
1C82F
330
1C6A0
100
AcDbEntity
  8
0
100
AcDbBlockEnd
  0
BLOCK
  5
1C830
330
1C6EE
100
AcDbEntity
  8
0
100
AcDbBlockBegin
  2
*X197
 70
     1
 10
0.0
 20
0.0
 30
0.0
  3
*X197
  1

  0
LINE
  5
1C6EF
330
1C6EE
100
AcDbEntity
  8
0
  6
CONTINUOUS
100
AcDbLine
 10
10.67292308101235
 20
8.445076852443387
 30
0.0
 11
10.99094622856022
 21
8.763099999991255
 31
0.0
  0
LINE
  5
1C6F0
330
1C6EE
100
AcDbEntity
  8
0
  6
CONTINUOUS
100
AcDbLine
 10
10.87250383178748
 20
7.971138394138331
 30
0.0
 11
11.6644654376404
 21
8.763099999991255
 31
0.0
  0
LINE
  5
1C6F1
330
1C6EE
100
AcDbEntity
  8
0
  6
CONTINUOUS
100
AcDbLine
 10
11.07208458256261
 20
7.497199935833273
 30
0.0
 11
12.12126590876355
 21
8.546381262034211
 31
0.0
  0
LINE
  5
1C6F2
330
1C6EE
100
AcDbEntity
  8
0
  6
CONTINUOUS
100
AcDbLine
 10
11.27166533333774
 20
7.023261477528216
 30
0.0
 11
12.32085164573666
 21
8.072447789927136
 31
0.0
  0
LINE
  5
1C6F3
330
1C6EE
100
AcDbEntity
  8
0
  6
CONTINUOUS
100
AcDbLine
 10
11.47124608411287
 20
6.549323019223158
 30
0.0
 11
12.52043738270977
 21
7.59851431782006
 31
0.0
  0
LINE
  5
1C6F4
330
1C6EE
100
AcDbEntity
  8
0
  6
CONTINUOUS
100
AcDbLine
 10
11.670826834888
 20
6.075384560918101
 30
0.0
 11
12.72002311968288
 21
7.124580845712984
 31
0.0
  0
LINE
  5
1C6F5
330
1C6EE
100
AcDbEntity
  8
0
  6
CONTINUOUS
100
AcDbLine
 10
11.87040758566313
 20
5.601446102613043
 30
0.0
 11
12.91960885665599
 21
6.650647373605907
 31
0.0
  0
LINE
  5
1C6F6
330
1C6EE
100
AcDbEntity
  8
0
  6
CONTINUOUS
100
AcDbLine
 10
12.06998833643825
 20
5.127507644307986
 30
0.0
 11
13.1191945936291
 21
6.176713901498832
 31
0.0
  0
LINE
  5
1C6F7
330
1C6EE
100
AcDbEntity
  8
0
  6
CONTINUOUS
100
AcDbLine
 10
12.26956908721338
 20
4.65356918600293
 30
0.0
 11
13.31878033060221
 21
5.702780429391757
 31
0.0
  0
LINE
  5
1C6F8
330
1C6EE
100
AcDbEntity
  8
0
  6
CONTINUOUS
100
AcDbLine
 10
12.46914983798851
 20
4.179630727697873
 30
0.0
 11
13.51836606757532
 21
5.228846957284683
 31
0.0
  0
LINE
  5
1C6F9
330
1C6EE
100
AcDbEntity
  8
0
  6
CONTINUOUS
100
AcDbLine
 10
12.66873058876364
 20
3.705692269392816
 30
0.0
 11
13.71795180454843
 21
4.754913485177607
 31
0.0
  0
LINE
  5
1C6FA
330
1C6EE
100
AcDbEntity
  8
0
  6
CONTINUOUS
100
AcDbLine
 10
12.86831133953877
 20
3.231753811087759
 30
0.0
 11
13.91753754152154
 21
4.280980013070531
 31
0.0
  0
LINE
  5
1C6FB
330
1C6EE
100
AcDbEntity
  8
0
  6
CONTINUOUS
100
AcDbLine
 10
13.0678920903139
 20
2.757815352782702
 30
0.0
 11
14.11712327849465
 21
3.807046540963456
 31
0.0
  0
LINE
  5
1C6FC
330
1C6EE
100
AcDbEntity
  8
0
  6
CONTINUOUS
100
AcDbLine
 10
13.26747284108903
 20
2.283876894477644
 30
0.0
 11
14.31670901546777
 21
3.333113068856379
 31
0.0
  0
LINE
  5
1C6FD
330
1C6EE
100
AcDbEntity
  8
0
  6
CONTINUOUS
100
AcDbLine
 10
16.36767838827179
 20
8.751678487061342
 30
0.0
 11
16.50332410898388
 21
8.887324207773432
 31
0.0
  0
LINE
  5
1C6FE
330
1C6EE
100
AcDbEntity
  8
0
  6
CONTINUOUS
100
AcDbLine
 10
15.96190732182191
 20
7.67238821153127
 30
0.0
 11
16.68735328004734
 21
8.397834169756699
 31
0.0
  0
LINE
  5
1C6FF
330
1C6EE
100
AcDbEntity
  8
0
  6
CONTINUOUS
100
AcDbLine
 10
15.55613625537202
 20
6.593097936001196
 30
0.0
 11
16.87138245111079
 21
7.908344131739965
 31
0.0
  0
LINE
  5
1C700
330
1C6EE
100
AcDbEntity
  8
0
  6
CONTINUOUS
100
AcDbLine
 10
15.15036518892213
 20
5.513807660471122
 30
0.0
 11
17.05541162217424
 21
7.418854093723231
 31
0.0
  0
LINE
  5
1C701
330
1C6EE
100
AcDbEntity
  8
0
  6
CONTINUOUS
100
AcDbLine
 10
14.74459412247225
 20
4.434517384941048
 30
0.0
 11
17.2394407932377
 21
6.929364055706499
 31
0.0
  0
LINE
  5
1C702
330
1C6EE
100
AcDbEntity
  8
0
  6
CONTINUOUS
100
AcDbLine
 10
14.33882305602236
 20
3.355227109410975
 30
0.0
 11
17.42346996430115
 21
6.439874017689766
 31
0.0
  0
LINE
  5
1C703
330
1C6EE
100
AcDbEntity
  8
0
  6
CONTINUOUS
100
AcDbLine
 10
13.46705359186416
 20
1.809938436172586
 30
0.0
 11
16.0819338255367
 21
4.424818669845129
 31
0.0
  0
LINE
  5
1C704
330
1C6EE
100
AcDbEntity
  8
0
  6
CONTINUOUS
100
AcDbLine
 10
16.63283254238972
 20
4.975717386698149
 30
0.0
 11
17.60749913536461
 21
5.950383979673033
 31
0.0
  0
LINE
  5
1C705
330
1C6EE
100
AcDbEntity
  8
0
  6
CONTINUOUS
100
AcDbLine
 10
13.66663434263929
 20
1.335999977867529
 30
0.0
 11
15.67604797733754
 21
3.345413612565779
 31
0.0
  0
LINE
  5
1C706
330
1C6EE
100
AcDbEntity
  8
0
  6
CONTINUOUS
100
AcDbLine
 10
13.86621509341442
 20
0.8620615195624723
 30
0.0
 11
15.27016212913838
 21
2.26600855528643
 31
0.0
  0
LINE
  5
1C707
330
1C6EE
100
AcDbEntity
  8
0
  6
CONTINUOUS
100
AcDbLine
 10
16.81682257348267
 20
4.486188208710908
 30
0.0
 11
17.79152830642806
 21
5.460893941656299
 31
0.0
  0
LINE
  5
1C708
330
1C6EE
100
AcDbEntity
  8
0
  6
CONTINUOUS
100
AcDbLine
 10
17.00081260457561
 20
3.996659030723667
 30
0.0
 11
17.97555747749151
 21
4.971403903639565
 31
0.0
  0
LINE
  5
1C709
330
1C6EE
100
AcDbEntity
  8
0
  6
CONTINUOUS
100
AcDbLine
 10
20.74362343514722
 20
8.412989070375462
 30
0.0
 11
21.09373436476302
 21
8.763099999991256
 31
0.0
  0
LINE
  5
1C70A
330
1C6EE
100
AcDbEntity
  8
0
  6
CONTINUOUS
100
AcDbLine
 10
20.25401257174777
 20
7.249858997895826
 30
0.0
 11
21.7672535738432
 21
8.763099999991255
 31
0.0
  0
LINE
  5
1C70B
330
1C6EE
100
AcDbEntity
  8
0
  6
CONTINUOUS
100
AcDbLine
 10
14.06579584418955
 20
0.3881230612574149
 30
0.0
 11
14.86427628093921
 21
1.186603498007082
 31
0.0
  0
LINE
  5
1C70C
330
1C6EE
100
AcDbEntity
  8
0
  6
CONTINUOUS
100
AcDbLine
 10
14.26537659496467
 20
-0.0858153970476412
 30
0.0
 11
14.45839043274005
 21
0.1071984407277329
 31
0.0
  0
LINE
  5
1C70D
330
1C6EE
100
AcDbEntity
  8
0
  6
CONTINUOUS
100
AcDbLine
 10
17.18480263566856
 20
3.507129852736426
 30
0.0
 11
18.15958664855496
 21
4.481913865622833
 31
0.0
  0
LINE
  5
1C70E
330
1C6EE
100
AcDbEntity
  8
0
  6
CONTINUOUS
100
AcDbLine
 10
17.3687926667615
 20
3.017600674749186
 30
0.0
 11
18.34361581961842
 21
3.9924238276061
 31
0.0
  0
LINE
  5
1C70F
330
1C6EE
100
AcDbEntity
  8
0
  6
CONTINUOUS
100
AcDbLine
 10
19.76440170834832
 20
6.086728925416191
 30
0.0
 11
22.33924590259489
 21
8.661573119662755
 31
0.0
  0
LINE
  5
1C710
330
1C6EE
100
AcDbEntity
  8
0
  6
CONTINUOUS
100
AcDbLine
 10
19.27479084494887
 20
4.923598852936555
 30
0.0
 11
21.84929622842713
 21
7.498104236414807
 31
0.0
  0
LINE
  5
1C711
330
1C6EE
100
AcDbEntity
  8
0
  6
CONTINUOUS
100
AcDbLine
 10
17.55278269785445
 20
2.528071496761945
 30
0.0
 11
18.52764499068187
 21
3.502933789589366
 31
0.0
  0
LINE
  5
1C712
330
1C6EE
100
AcDbEntity
  8
0
  6
CONTINUOUS
100
AcDbLine
 10
18.78517998154942
 20
3.760468780456919
 30
0.0
 11
21.35934655425936
 21
6.33463535316686
 31
0.0
  0
LINE
  5
1C713
330
1C6EE
100
AcDbEntity
  8
0
  6
CONTINUOUS
100
AcDbLine
 10
17.73677272894739
 20
2.038542318774704
 30
0.0
 11
20.8693968800916
 21
5.171166469918914
 31
0.0
  0
LINE
  5
1C714
330
1C6EE
100
AcDbEntity
  8
0
  6
CONTINUOUS
100
AcDbLine
 10
17.92076276004034
 20
1.549013140787464
 30
0.0
 11
20.37944720592384
 21
4.007697586670968
 31
0.0
  0
LINE
  5
1C715
330
1C6EE
100
AcDbEntity
  8
0
  6
CONTINUOUS
100
AcDbLine
 10
18.10475279113329
 20
1.059483962800223
 30
0.0
 11
19.88949753175608
 21
2.84422870342302
 31
0.0
  0
LINE
  5
1C716
330
1C6EE
100
AcDbEntity
  8
0
  6
CONTINUOUS
100
AcDbLine
 10
18.28874282222623
 20
0.5699547848129822
 30
0.0
 11
19.39954785758832
 21
1.680759820175074
 31
0.0
  0
LINE
  5
1C717
330
1C6EE
100
AcDbEntity
  8
0
  6
CONTINUOUS
100
AcDbLine
 10
18.47273285331918
 20
0.0804256068257416
 30
0.0
 11
18.90959818342056
 21
0.517290936927127
 31
0.0
  0
LINE
  5
1C718
330
1C6EE
100
AcDbEntity
  8
0
  6
CONTINUOUS
100
AcDbLine
 10
14.3590401358224
 20
-0.1570118376323384
 30
0.0
 11
14.24903296539946
 21
-0.0470046672093929
 31
0.0
  0
LINE
  5
1C719
330
1C6EE
100
AcDbEntity
  8
0
  6
CONTINUOUS
100
AcDbLine
 10
14.54309291258661
 20
0.332454594683643
 30
0.0
 11
13.75908329123172
 21
1.116464216038529
 31
0.0
  0
LINE
  5
1C71A
330
1C6EE
100
AcDbEntity
  8
0
  6
CONTINUOUS
100
AcDbLine
 10
14.72714568935081
 20
0.8219210269996244
 30
0.0
 11
13.26913361706399
 21
2.27993309928645
 31
0.0
  0
LINE
  5
1C71B
330
1C6EE
100
AcDbEntity
  8
0
  6
CONTINUOUS
100
AcDbLine
 10
14.91119846611502
 20
1.311387459315606
 30
0.0
 11
12.77918394289625
 21
3.443401982534371
 31
0.0
  0
LINE
  5
1C71C
330
1C6EE
100
AcDbEntity
  8
0
  6
CONTINUOUS
100
AcDbLine
 10
15.09525124287922
 20
1.800853891631587
 30
0.0
 11
12.28923426872852
 21
4.606870865782293
 31
0.0
  0
LINE
  5
1C71D
330
1C6EE
100
AcDbEntity
  8
0
  6
CONTINUOUS
100
AcDbLine
 10
15.27930401964343
 20
2.290320323947569
 30
0.0
 11
11.79928459456078
 21
5.770339749030213
 31
0.0
  0
LINE
  5
1C71E
330
1C6EE
100
AcDbEntity
  8
0
  6
CONTINUOUS
100
AcDbLine
 10
15.46335679640763
 20
2.77978675626355
 30
0.0
 11
14.48885470994921
 21
3.754288842721972
 31
0.0
  0
LINE
  5
1C71F
330
1C6EE
100
AcDbEntity
  8
0
  6
CONTINUOUS
100
AcDbLine
 10
13.88507249233704
 20
4.358071060334137
 30
0.0
 11
11.30933492039305
 21
6.933808632278135
 31
0.0
  0
LINE
  5
1C720
330
1C6EE
100
AcDbEntity
  8
0
  6
CONTINUOUS
100
AcDbLine
 10
18.75840522805855
 20
0.1582575336928151
 30
0.0
 11
18.25383727664818
 21
0.6628254851031863
 31
0.0
  0
LINE
  5
1C721
330
1C6EE
100
AcDbEntity
  8
0
  6
CONTINUOUS
100
AcDbLine
 10
15.64740957317184
 20
3.269253188579531
 30
0.0
 11
14.67288388101266
 21
4.243778880738705
 31
0.0
  0
LINE
  5
1C722
330
1C6EE
100
AcDbEntity
  8
0
  6
CONTINUOUS
100
AcDbLine
 10
13.39509276772158
 20
5.521569994029786
 30
0.0
 11
10.81938524622531
 21
8.097277515526056
 31
0.0
  0
LINE
  5
1C723
330
1C6EE
100
AcDbEntity
  8
0
  6
CONTINUOUS
100
AcDbLine
 10
18.95798597883369
 20
0.6321959919978686
 30
0.0
 11
17.84825644852853
 21
1.741925522303024
 31
0.0
  0
LINE
  5
1C724
330
1C6EE
100
AcDbEntity
  8
0
  6
CONTINUOUS
100
AcDbLine
 10
19.15756672960882
 20
1.106134450302922
 30
0.0
 11
17.44267562040888
 21
2.821025559502861
 31
0.0
  0
LINE
  5
1C725
330
1C6EE
100
AcDbEntity
  8
0
  6
CONTINUOUS
100
AcDbLine
 10
15.83146234993604
 20
3.758719620895513
 30
0.0
 11
14.85691305207612
 21
4.733268918755439
 31
0.0
  0
LINE
  5
1C726
330
1C6EE
100
AcDbEntity
  8
0
  6
CONTINUOUS
100
AcDbLine
 10
16.01551512670025
 20
4.248186053211494
 30
0.0
 11
15.04094222313957
 21
5.222758956772172
 31
0.0
  0
LINE
  5
1C727
330
1C6EE
100
AcDbEntity
  8
0
  6
CONTINUOUS
100
AcDbLine
 10
12.90511304310612
 20
6.685068927725435
 30
0.0
 11
10.8270819708403
 21
8.763099999991255
 31
0.0
  0
LINE
  5
1C728
330
1C6EE
100
AcDbEntity
  8
0
  6
CONTINUOUS
100
AcDbLine
 10
12.41513331849066
 20
7.848567861421083
 30
0.0
 11
11.50060117992049
 21
8.763099999991255
 31
0.0
  0
LINE
  5
1C729
330
1C6EE
100
AcDbEntity
  8
0
  6
CONTINUOUS
100
AcDbLine
 10
19.35714748038395
 20
1.580072908607975
 30
0.0
 11
17.03709479228923
 21
3.900125596702697
 31
0.0
  0
LINE
  5
1C72A
330
1C6EE
100
AcDbEntity
  8
0
  6
CONTINUOUS
100
AcDbLine
 10
19.55672823115909
 20
2.054011366913028
 30
0.0
 11
16.63151396416958
 21
4.979225633902534
 31
0.0
  0
LINE
  5
1C72B
330
1C6EE
100
AcDbEntity
  8
0
  6
CONTINUOUS
100
AcDbLine
 10
16.19956790346445
 20
4.737652485527476
 30
0.0
 11
15.22497139420302
 21
5.712248994788904
 31
0.0
  0
LINE
  5
1C72C
330
1C6EE
100
AcDbEntity
  8
0
  6
CONTINUOUS
100
AcDbLine
 10
16.38362068022866
 20
5.227118917843457
 30
0.0
 11
15.40900056526648
 21
6.201739032805637
 31
0.0
  0
LINE
  5
1C72D
330
1C6EE
100
AcDbEntity
  8
0
  6
CONTINUOUS
100
AcDbLine
 10
19.75630898193422
 20
2.527949825218081
 30
0.0
 11
18.70774536448286
 21
3.576513442669441
 31
0.0
  0
LINE
  5
1C72E
330
1C6EE
100
AcDbEntity
  8
0
  6
CONTINUOUS
100
AcDbLine
 10
19.95588973270936
 20
3.001888283523134
 30
0.0
 11
18.90726987211446
 21
4.050508144118028
 31
0.0
  0
LINE
  5
1C72F
330
1C6EE
100
AcDbEntity
  8
0
  6
CONTINUOUS
100
AcDbLine
 10
20.15547048348449
 20
3.475826741828186
 30
0.0
 11
19.10679437974606
 21
4.524502845566614
 31
0.0
  0
LINE
  5
1C730
330
1C6EE
100
AcDbEntity
  8
0
  6
CONTINUOUS
100
AcDbLine
 10
20.35505123425962
 20
3.94976520013324
 30
0.0
 11
19.30631888737766
 21
4.998497547015201
 31
0.0
  0
LINE
  5
1C731
330
1C6EE
100
AcDbEntity
  8
0
  6
CONTINUOUS
100
AcDbLine
 10
20.55463198503475
 20
4.423703658438292
 30
0.0
 11
19.50584339500926
 21
5.472492248463787
 31
0.0
  0
LINE
  5
1C732
330
1C6EE
100
AcDbEntity
  8
0
  6
CONTINUOUS
100
AcDbLine
 10
18.37481191085755
 20
3.909446896294752
 30
0.0
 11
15.59302973632993
 21
6.691229070822371
 31
0.0
  0
LINE
  5
1C733
330
1C6EE
100
AcDbEntity
  8
0
  6
CONTINUOUS
100
AcDbLine
 10
17.96904084440766
 20
4.988737171824825
 30
0.0
 11
15.77705890739338
 21
7.180719108839104
 31
0.0
  0
LINE
  5
1C734
330
1C6EE
100
AcDbEntity
  8
0
  6
CONTINUOUS
100
AcDbLine
 10
17.56326977795777
 20
6.068027447354899
 30
0.0
 11
15.96108807845684
 21
7.670209146855838
 31
0.0
  0
LINE
  5
1C735
330
1C6EE
100
AcDbEntity
  8
0
  6
CONTINUOUS
100
AcDbLine
 10
17.15749871150789
 20
7.147317722884972
 30
0.0
 11
16.14511724952029
 21
8.15969918487257
 31
0.0
  0
LINE
  5
1C736
330
1C6EE
100
AcDbEntity
  8
0
  6
CONTINUOUS
100
AcDbLine
 10
16.751727645058
 20
8.226607998415046
 30
0.0
 11
16.32914642058374
 21
8.649189222889303
 31
0.0
  0
LINE
  5
1C737
330
1C6EE
100
AcDbEntity
  8
0
  6
CONTINUOUS
100
AcDbLine
 10
20.75421273580989
 20
4.897642116743345
 30
0.0
 11
19.70536790264086
 21
5.946486949912374
 31
0.0
  0
LINE
  5
1C738
330
1C6EE
100
AcDbEntity
  8
0
  6
CONTINUOUS
100
AcDbLine
 10
20.95379348658502
 20
5.371580575048398
 30
0.0
 11
19.90489241027246
 21
6.42048165136096
 31
0.0
  0
LINE
  5
1C739
330
1C6EE
100
AcDbEntity
  8
0
  6
CONTINUOUS
100
AcDbLine
 10
21.15337423736015
 20
5.845519033353452
 30
0.0
 11
20.10441691790406
 21
6.894476352809547
 31
0.0
  0
LINE
  5
1C73A
330
1C6EE
100
AcDbEntity
  8
0
  6
CONTINUOUS
100
AcDbLine
 10
21.35295498813529
 20
6.319457491658505
 30
0.0
 11
20.30394142553566
 21
7.368471054258134
 31
0.0
  0
LINE
  5
1C73B
330
1C6EE
100
AcDbEntity
  8
0
  6
CONTINUOUS
100
AcDbLine
 10
21.55253573891042
 20
6.793395949963558
 30
0.0
 11
20.50346593316726
 21
7.842465755706721
 31
0.0
  0
LINE
  5
1C73C
330
1C6EE
100
AcDbEntity
  8
0
  6
CONTINUOUS
100
AcDbLine
 10
21.75211648968556
 20
7.267334408268612
 30
0.0
 11
20.70299044079886
 21
8.316460457155308
 31
0.0
  0
LINE
  5
1C73D
330
1C6EE
100
AcDbEntity
  8
0
  6
CONTINUOUS
100
AcDbLine
 10
21.95169724046069
 20
7.741272866573663
 30
0.0
 11
20.9298701070431
 21
8.763099999991256
 31
0.0
  0
LINE
  5
1C73E
330
1C6EE
100
AcDbEntity
  8
0
  6
CONTINUOUS
100
AcDbLine
 10
22.15127799123582
 20
8.215211324878716
 30
0.0
 11
21.60338931612328
 21
8.763099999991256
 31
0.0
  0
LINE
  5
1C73F
330
1C6EE
100
AcDbEntity
  8
0
  6
CONTINUOUS
100
AcDbLine
 10
22.35085874201096
 20
8.689149783183769
 30
0.0
 11
22.27690852520347
 21
8.763099999991255
 31
0.0
  0
ENDBLK
  5
1C831
330
1C6EE
100
AcDbEntity
  8
0
100
AcDbBlockEnd
  0
BLOCK
  5
1C832
330
1C740
100
AcDbEntity
  8
0
100
AcDbBlockBegin
  2
*X198
 70
     1
 10
0.0
 20
0.0
 30
0.0
  3
*X198
  1

  0
LINE
  5
1C741
330
1C740
100
AcDbEntity
  8
0
  6
CONTINUOUS
100
AcDbLine
 10
23.19462913593892
 20
8.169917934846424
 30
0.0
 11
23.70775465517246
 21
8.683043454079957
 31
0.0
  0
LINE
  5
1C742
330
1C740
100
AcDbEntity
  8
0
  6
CONTINUOUS
100
AcDbLine
 10
22.64923161835078
 20
6.951001208178088
 30
0.0
 11
23.9159364069932
 21
8.217705996820516
 31
0.0
  0
LINE
  5
1C743
330
1C740
100
AcDbEntity
  8
0
  6
CONTINUOUS
100
AcDbLine
 10
22.10383410076263
 20
5.732084481509751
 30
0.0
 11
24.12411815881395
 21
7.752368539561078
 31
0.0
  0
LINE
  5
1C744
330
1C740
100
AcDbEntity
  8
0
  6
CONTINUOUS
100
AcDbLine
 10
21.55843658317447
 20
4.513167754841414
 30
0.0
 11
24.3322999106347
 21
7.287031082301639
 31
0.0
  0
LINE
  5
1C745
330
1C740
100
AcDbEntity
  8
0
  6
CONTINUOUS
100
AcDbLine
 10
21.01303906558632
 20
3.294251028173077
 30
0.0
 11
24.54048166245544
 21
6.821693625042199
 31
0.0
  0
LINE
  5
1C746
330
1C740
100
AcDbEntity
  8
0
  6
CONTINUOUS
100
AcDbLine
 10
20.46764154799817
 20
2.075334301504738
 30
0.0
 11
23.28571549467848
 21
4.89340824818505
 31
0.0
  0
LINE
  5
1C747
330
1C740
100
AcDbEntity
  8
0
  6
CONTINUOUS
100
AcDbLine
 10
19.92224403041002
 20
0.8564175748364002
 30
0.0
 11
22.74075865492779
 21
3.674932199354171
 31
0.0
  0
LINE
  5
1C748
330
1C740
100
AcDbEntity
  8
0
  6
CONTINUOUS
100
AcDbLine
 10
23.67305085490148
 20
5.280743608408048
 30
0.0
 11
24.74866341427619
 21
6.356356167782759
 31
0.0
  0
LINE
  5
1C749
330
1C740
100
AcDbEntity
  8
0
  6
CONTINUOUS
100
AcDbLine
 10
23.88118970842314
 20
4.815363252849522
 30
0.0
 11
24.95684516609694
 21
5.89101871052332
 31
0.0
  0
LINE
  5
1C74A
330
1C740
100
AcDbEntity
  8
0
  6
CONTINUOUS
100
AcDbLine
 10
19.73925852647308
 20
-0.0000871381807288
 30
0.0
 11
23.4103456646501
 21
3.670999999996297
 31
0.0
  0
LINE
  5
1C74B
330
1C740
100
AcDbEntity
  8
0
  6
CONTINUOUS
100
AcDbLine
 10
24.0893285619448
 20
4.349982897290997
 30
0.0
 11
25.16502691791769
 21
5.42568125326388
 31
0.0
  0
LINE
  5
1C74C
330
1C740
100
AcDbEntity
  8
0
  6
CONTINUOUS
100
AcDbLine
 10
20.41282099582748
 20
-0.0000438779065108
 30
0.0
 11
21.64944178675636
 21
1.236576913022366
 31
0.0
  0
LINE
  5
1C74D
330
1C740
100
AcDbEntity
  8
0
  6
CONTINUOUS
100
AcDbLine
 10
22.78126487373161
 20
2.36839999999762
 30
0.0
 11
24.08386487373029
 21
3.670999999996297
 31
0.0
  0
LINE
  5
1C74E
330
1C740
100
AcDbEntity
  8
0
  6
CONTINUOUS
100
AcDbLine
 10
24.29746741546646
 20
3.884602541732471
 30
0.0
 11
25.37320866973843
 21
4.960343796004441
 31
0.0
  0
LINE
  5
1C74F
330
1C740
100
AcDbEntity
  8
0
  6
CONTINUOUS
100
AcDbLine
 10
21.08638346518189
 20
-0.0000006176322938
 30
0.0
 11
21.10379033335899
 21
0.0174062505448083
 31
0.0
  0
LINE
  5
1C750
330
1C740
100
AcDbEntity
  8
0
  6
CONTINUOUS
100
AcDbLine
 10
23.4547840828118
 20
2.36839999999762
 30
0.0
 11
25.58139042155918
 21
4.495006338745002
 31
0.0
  0
LINE
  5
1C751
330
1C740
100
AcDbEntity
  8
0
  6
CONTINUOUS
100
AcDbLine
 10
29.30199999996933
 20
8.215615917155148
 30
0.0
 11
29.84948408280543
 21
8.763099999991255
 31
0.0
  0
LINE
  5
1C752
330
1C740
100
AcDbEntity
  8
0
  6
CONTINUOUS
100
AcDbLine
 10
24.12830329189199
 20
2.36839999999762
 30
0.0
 11
25.78957217337993
 21
4.029668881485562
 31
0.0
  0
LINE
  5
1C753
330
1C740
100
AcDbEntity
  8
0
  6
CONTINUOUS
100
AcDbLine
 10
29.30199999996933
 20
7.54209670807496
 30
0.0
 11
30.52300329188562
 21
8.763099999991255
 31
0.0
  0
LINE
  5
1C754
330
1C740
100
AcDbEntity
  8
0
  6
CONTINUOUS
100
AcDbLine
 10
24.80182250097217
 20
2.36839999999762
 30
0.0
 11
25.99775392520067
 21
3.564331424226122
 31
0.0
  0
LINE
  5
1C755
330
1C740
100
AcDbEntity
  8
0
  6
CONTINUOUS
100
AcDbLine
 10
29.30199999996933
 20
6.868577498994774
 30
0.0
 11
30.74199999996926
 21
8.308577498994712
 31
0.0
  0
LINE
  5
1C756
330
1C740
100
AcDbEntity
  8
0
  6
CONTINUOUS
100
AcDbLine
 10
25.13028238392013
 20
2.023340673865392
 30
0.0
 11
26.20593567702142
 21
3.098993966966683
 31
0.0
  0
LINE
  5
1C757
330
1C740
100
AcDbEntity
  8
0
  6
CONTINUOUS
100
AcDbLine
 10
25.33838066033617
 20
1.557919741201244
 30
0.0
 11
26.41411742884217
 21
2.633656509707244
 31
0.0
  0
LINE
  5
1C758
330
1C740
100
AcDbEntity
  8
0
  6
CONTINUOUS
100
AcDbLine
 10
25.54647893675221
 20
1.092498808537098
 30
0.0
 11
26.62229918066291
 21
2.168319052447804
 31
0.0
  0
LINE
  5
1C759
330
1C740
100
AcDbEntity
  8
0
  6
CONTINUOUS
100
AcDbLine
 10
25.75457721316825
 20
0.62707787587295
 30
0.0
 11
26.83048093248366
 21
1.702981595188365
 31
0.0
  0
LINE
  5
1C75A
330
1C740
100
AcDbEntity
  8
0
  6
CONTINUOUS
100
AcDbLine
 10
29.30199999996933
 20
6.195058289914587
 30
0.0
 11
30.74199999996926
 21
7.635058289914522
 31
0.0
  0
LINE
  5
1C75B
330
1C740
100
AcDbEntity
  8
0
  6
CONTINUOUS
100
AcDbLine
 10
29.30199999996933
 20
5.521539080834401
 30
0.0
 11
30.74199999996926
 21
6.961539080834331
 31
0.0
  0
LINE
  5
1C75C
330
1C740
100
AcDbEntity
  8
0
  6
CONTINUOUS
100
AcDbLine
 10
29.30199999996933
 20
4.848019871754214
 30
0.0
 11
30.74199999996925
 21
6.288019871754143
 31
0.0
  0
LINE
  5
1C75D
330
1C740
100
AcDbEntity
  8
0
  6
CONTINUOUS
100
AcDbLine
 10
29.30199999996933
 20
4.174500662674028
 30
0.0
 11
30.74199999996925
 21
5.614500662673953
 31
0.0
  0
LINE
  5
1C75E
330
1C740
100
AcDbEntity
  8
0
  6
CONTINUOUS
100
AcDbLine
 10
25.96267548958429
 20
0.1616569432088024
 30
0.0
 11
27.18411854636669
 21
1.383099999991207
 31
0.0
  0
LINE
  5
1C75F
330
1C740
100
AcDbEntity
  8
0
  6
CONTINUOUS
100
AcDbLine
 10
29.30199999996933
 20
3.500981453593841
 30
0.0
 11
30.74199999996925
 21
4.940981453593762
 31
0.0
  0
LINE
  5
1C760
330
1C740
100
AcDbEntity
  8
0
  6
CONTINUOUS
100
AcDbLine
 10
26.50763775544691
 20
0.0330999999912356
 30
0.0
 11
27.85763775544689
 21
1.383099999991223
 31
0.0
  0
LINE
  5
1C761
330
1C740
100
AcDbEntity
  8
0
  6
CONTINUOUS
100
AcDbLine
 10
29.30199999996933
 20
2.827462244513656
 30
0.0
 11
30.74199999996925
 21
4.267462244513574
 31
0.0
  0
LINE
  5
1C762
330
1C740
100
AcDbEntity
  8
0
  6
CONTINUOUS
100
AcDbLine
 10
27.18115696452709
 20
0.0330999999912356
 30
0.0
 11
28.6224847300034
 21
1.474427765467545
 31
0.0
  0
LINE
  5
1C763
330
1C740
100
AcDbEntity
  8
0
  6
CONTINUOUS
100
AcDbLine
 10
29.21067223449293
 20
2.062615269957069
 30
0.0
 11
30.74199999996924
 21
3.593943035433383
 31
0.0
  0
LINE
  5
1C764
330
1C740
100
AcDbEntity
  8
0
  6
CONTINUOUS
100
AcDbLine
 10
27.85467617360728
 20
0.0330999999912356
 30
0.0
 11
30.74199999996924
 21
2.920423826353195
 31
0.0
  0
LINE
  5
1C765
330
1C740
100
AcDbEntity
  8
0
  6
CONTINUOUS
100
AcDbLine
 10
28.57438609860264
 20
0.0792907159064073
 30
0.0
 11
30.69580928405405
 21
2.200713901357819
 31
0.0
  0
LINE
  5
1C766
330
1C740
100
AcDbEntity
  8
0
  6
CONTINUOUS
100
AcDbLine
 10
29.49443044814297
 20
0.3258158563665496
 30
0.0
 11
30.44928414359389
 21
1.280669551817477
 31
0.0
  0
LINE
  5
1C767
330
1C740
100
AcDbEntity
  8
0
  6
CONTINUOUS
100
AcDbLine
 10
19.59027867740337
 20
-0.0000967065718083
 30
0.0
 11
19.55485265190471
 21
0.035329318926844
 31
0.0
  0
LINE
  5
1C768
330
1C740
100
AcDbEntity
  8
0
  6
CONTINUOUS
100
AcDbLine
 10
20.26375463176586
 20
-0.0000534518541091
 30
0.0
 11
19.76305575737534
 21
0.5006454225364014
 31
0.0
  0
LINE
  5
1C769
330
1C740
100
AcDbEntity
  8
0
  6
CONTINUOUS
100
AcDbLine
 10
20.93723058612834
 20
-0.0000101971364099
 30
0.0
 11
19.97125886284597
 21
0.965961526145958
 31
0.0
  0
LINE
  5
1C76A
330
1C740
100
AcDbEntity
  8
0
  6
CONTINUOUS
100
AcDbLine
 10
21.25514828313686
 20
0.355591314935257
 30
0.0
 11
20.1794619683166
 21
1.431277629755512
 31
0.0
  0
LINE
  5
1C76B
330
1C740
100
AcDbEntity
  8
0
  6
CONTINUOUS
100
AcDbLine
 10
21.46338838394921
 20
0.8208704232030986
 30
0.0
 11
20.38766507378723
 21
1.896593733365069
 31
0.0
  0
LINE
  5
1C76C
330
1C740
100
AcDbEntity
  8
0
  6
CONTINUOUS
100
AcDbLine
 10
21.67162848476155
 20
1.28614953147094
 30
0.0
 11
20.59586817925786
 21
2.361909836974626
 31
0.0
  0
LINE
  5
1C76D
330
1C740
100
AcDbEntity
  8
0
  6
CONTINUOUS
100
AcDbLine
 10
21.8798685855739
 20
1.751428639738782
 30
0.0
 11
20.80407128472849
 21
2.827225940584183
 31
0.0
  0
LINE
  5
1C76E
330
1C740
100
AcDbEntity
  8
0
  6
CONTINUOUS
100
AcDbLine
 10
22.08810868638624
 20
2.216707748006623
 30
0.0
 11
21.01227439019912
 21
3.292542044193739
 31
0.0
  0
LINE
  5
1C76F
330
1C740
100
AcDbEntity
  8
0
  6
CONTINUOUS
100
AcDbLine
 10
22.60993564347543
 20
2.36839999999762
 30
0.0
 11
21.22047749566975
 21
3.757858147803296
 31
0.0
  0
LINE
  5
1C770
330
1C740
100
AcDbEntity
  8
0
  6
CONTINUOUS
100
AcDbLine
 10
23.28345485255561
 20
2.36839999999762
 30
0.0
 11
21.42868060114038
 21
4.223174251412853
 31
0.0
  0
LINE
  5
1C771
330
1C740
100
AcDbEntity
  8
0
  6
CONTINUOUS
100
AcDbLine
 10
26.29227406164219
 20
0.0330999999912356
 30
0.0
 11
25.80009199592872
 21
0.5252820657046957
 31
0.0
  0
LINE
  5
1C772
330
1C740
100
AcDbEntity
  8
0
  6
CONTINUOUS
100
AcDbLine
 10
23.9569740616358
 20
2.36839999999762
 30
0.0
 11
21.63688370661101
 21
4.688490355022409
 31
0.0
  0
LINE
  5
1C773
330
1C740
100
AcDbEntity
  8
0
  6
CONTINUOUS
100
AcDbLine
 10
26.96579327072237
 20
0.0330999999912356
 30
0.0
 11
25.2554132311971
 21
1.743480039516508
 31
0.0
  0
LINE
  5
1C774
330
1C740
100
AcDbEntity
  8
0
  6
CONTINUOUS
100
AcDbLine
 10
24.63049327071599
 20
2.36839999999762
 30
0.0
 11
23.32789327071731
 21
3.670999999996297
 31
0.0
  0
LINE
  5
1C775
330
1C740
100
AcDbEntity
  8
0
  6
CONTINUOUS
100
AcDbLine
 10
22.92098674744635
 20
4.077906523267254
 30
0.0
 11
21.84508681208164
 21
5.153806458631966
 31
0.0
  0
LINE
  5
1C776
330
1C740
100
AcDbEntity
  8
0
  6
CONTINUOUS
100
AcDbLine
 10
27.63931247980256
 20
0.0330999999912356
 30
0.0
 11
24.0014124797975
 21
3.670999999996297
 31
0.0
  0
LINE
  5
1C777
330
1C740
100
AcDbEntity
  8
0
  6
CONTINUOUS
100
AcDbLine
 10
23.129125600968
 20
4.5432868788258
 30
0.0
 11
22.05328991755227
 21
5.619122562241522
 31
0.0
  0
LINE
  5
1C778
330
1C740
100
AcDbEntity
  8
0
  6
CONTINUOUS
100
AcDbLine
 10
28.31283168888275
 20
0.0330999999912356
 30
0.0
 11
24.16488385994816
 21
4.181047828925828
 31
0.0
  0
LINE
  5
1C779
330
1C740
100
AcDbEntity
  8
0
  6
CONTINUOUS
100
AcDbLine
 10
23.33726445448964
 20
5.008667234384345
 30
0.0
 11
22.2614930230229
 21
6.084438665851079
 31
0.0
  0
LINE
  5
1C77A
330
1C740
100
AcDbEntity
  8
0
  6
CONTINUOUS
100
AcDbLine
 10
28.86286302309502
 20
0.1565878748591523
 30
0.0
 11
27.63635089796295
 21
1.383099999991217
 31
0.0
  0
LINE
  5
1C77B
330
1C740
100
AcDbEntity
  8
0
  6
CONTINUOUS
100
AcDbLine
 10
26.43704649509776
 20
2.582404402856405
 30
0.0
 11
23.61992702019732
 21
5.399523877756844
 31
0.0
  0
LINE
  5
1C77C
330
1C740
100
AcDbEntity
  8
0
  6
CONTINUOUS
100
AcDbLine
 10
23.54540330801128
 20
5.47404758994289
 30
0.0
 11
22.46969612849353
 21
6.549754769460635
 31
0.0
  0
LINE
  5
1C77D
330
1C740
100
AcDbEntity
  8
0
  6
CONTINUOUS
100
AcDbLine
 10
29.39405087596853
 20
0.2989192310658284
 30
0.0
 11
28.30987010704312
 21
1.383099999991234
 31
0.0
  0
LINE
  5
1C77E
330
1C740
100
AcDbEntity
  8
0
  6
CONTINUOUS
100
AcDbLine
 10
25.89179548232307
 20
3.801174624711282
 30
0.0
 11
22.67789923396416
 21
7.015070873070191
 31
0.0
  0
LINE
  5
1C77F
330
1C740
100
AcDbEntity
  8
0
  6
CONTINUOUS
100
AcDbLine
 10
29.79594438047407
 20
0.570544935640473
 30
0.0
 11
28.81310432793121
 21
1.553384988183336
 31
0.0
  0
LINE
  5
1C780
330
1C740
100
AcDbEntity
  8
0
  6
CONTINUOUS
100
AcDbLine
 10
25.34654446954838
 20
5.01994484656616
 30
0.0
 11
22.88610233943479
 21
7.480386976679748
 31
0.0
  0
LINE
  5
1C781
330
1C740
100
AcDbEntity
  8
0
  6
CONTINUOUS
100
AcDbLine
 10
30.13270398501416
 20
0.9073045401805646
 30
0.0
 11
29.14234640337737
 21
1.897662121817355
 31
0.0
  0
LINE
  5
1C782
330
1C740
100
AcDbEntity
  8
0
  6
CONTINUOUS
100
AcDbLine
 10
24.80129345677369
 20
6.238715068421037
 30
0.0
 11
23.09430544490542
 21
7.945703080289305
 31
0.0
  0
LINE
  5
1C783
330
1C740
100
AcDbEntity
  8
0
  6
CONTINUOUS
100
AcDbLine
 10
30.44581292956759
 20
1.26771480470732
 30
0.0
 11
29.30199999996933
 21
2.411527734305588
 31
0.0
  0
LINE
  5
1C784
330
1C740
100
AcDbEntity
  8
0
  6
CONTINUOUS
100
AcDbLine
 10
30.58814428577427
 20
1.798902657580827
 30
0.0
 11
29.30199999996933
 21
3.085046943385775
 31
0.0
  0
LINE
  5
1C785
330
1C740
100
AcDbEntity
  8
0
  6
CONTINUOUS
100
AcDbLine
 10
24.256042443999
 20
7.457485290275915
 30
0.0
 11
23.30250855037605
 21
8.411019183898862
 31
0.0
  0
LINE
  5
1C786
330
1C740
100
AcDbEntity
  8
0
  6
CONTINUOUS
100
AcDbLine
 10
23.71079143122431
 20
8.676255512130794
 30
0.0
 11
23.51071165584668
 21
8.876335287508418
 31
0.0
  0
LINE
  5
1C787
330
1C740
100
AcDbEntity
  8
0
  6
CONTINUOUS
100
AcDbLine
 10
30.73047564198095
 20
2.330090510454333
 30
0.0
 11
29.30199999996933
 21
3.758566152465961
 31
0.0
  0
LINE
  5
1C788
330
1C740
100
AcDbEntity
  8
0
  6
CONTINUOUS
100
AcDbLine
 10
30.74199999996924
 20
2.992085361546236
 30
0.0
 11
29.30199999996933
 21
4.432085361546148
 31
0.0
  0
LINE
  5
1C789
330
1C740
100
AcDbEntity
  8
0
  6
CONTINUOUS
100
AcDbLine
 10
30.74199999996924
 20
3.665604570626419
 30
0.0
 11
29.30199999996933
 21
5.105604570626333
 31
0.0
  0
LINE
  5
1C78A
330
1C740
100
AcDbEntity
  8
0
  6
CONTINUOUS
100
AcDbLine
 10
30.74199999996925
 20
4.339123779706602
 30
0.0
 11
29.30199999996933
 21
5.77912377970652
 31
0.0
  0
LINE
  5
1C78B
330
1C740
100
AcDbEntity
  8
0
  6
CONTINUOUS
100
AcDbLine
 10
30.74199999996925
 20
5.012642988786785
 30
0.0
 11
29.30199999996933
 21
6.452642988786707
 31
0.0
  0
LINE
  5
1C78C
330
1C740
100
AcDbEntity
  8
0
  6
CONTINUOUS
100
AcDbLine
 10
30.74199999996925
 20
5.68616219786697
 30
0.0
 11
29.30199999996933
 21
7.126162197866894
 31
0.0
  0
LINE
  5
1C78D
330
1C740
100
AcDbEntity
  8
0
  6
CONTINUOUS
100
AcDbLine
 10
30.74199999996925
 20
6.359681406947153
 30
0.0
 11
29.30199999996933
 21
7.799681406947081
 31
0.0
  0
LINE
  5
1C78E
330
1C740
100
AcDbEntity
  8
0
  6
CONTINUOUS
100
AcDbLine
 10
30.74199999996926
 20
7.033200616027337
 30
0.0
 11
29.30199999996933
 21
8.473200616027269
 31
0.0
  0
LINE
  5
1C78F
330
1C740
100
AcDbEntity
  8
0
  6
CONTINUOUS
100
AcDbLine
 10
30.74199999996926
 20
7.706719825107518
 30
0.0
 11
29.68561982508552
 21
8.763099999991255
 31
0.0
  0
LINE
  5
1C790
330
1C740
100
AcDbEntity
  8
0
  6
CONTINUOUS
100
AcDbLine
 10
30.74199999996926
 20
8.380239034187703
 30
0.0
 11
30.35913903416571
 21
8.763099999991255
 31
0.0
  0
ENDBLK
  5
1C833
330
1C740
100
AcDbEntity
  8
0
100
AcDbBlockEnd
  0
BLOCK
  5
1C834
330
1C791
100
AcDbEntity
  8
0
100
AcDbBlockBegin
  2
*X199
 70
     1
 10
0.0
 20
0.0
 30
0.0
  3
*X199
  1

  0
LINE
  5
1C792
330
1C791
100
AcDbEntity
  8
0
  6
CONTINUOUS
100
AcDbLine
 10
31.64199999996833
 20
8.5350582899136
 30
0.0
 11
31.87004171004599
 21
8.763099999991255
 31
0.0
  0
LINE
  5
1C793
330
1C791
100
AcDbEntity
  8
0
  6
CONTINUOUS
100
AcDbLine
 10
31.64199999996833
 20
7.861539080833413
 30
0.0
 11
32.54356091912618
 21
8.763099999991255
 31
0.0
  0
LINE
  5
1C794
330
1C791
100
AcDbEntity
  8
0
  6
CONTINUOUS
100
AcDbLine
 10
31.64199999996833
 20
7.188019871753227
 30
0.0
 11
33.08199999996839
 21
8.628019871753281
 31
0.0
  0
LINE
  5
1C795
330
1C791
100
AcDbEntity
  8
0
  6
CONTINUOUS
100
AcDbLine
 10
31.64199999996833
 20
6.514500662673041
 30
0.0
 11
33.08199999996839
 21
7.954500662673095
 31
0.0
  0
LINE
  5
1C796
330
1C791
100
AcDbEntity
  8
0
  6
CONTINUOUS
100
AcDbLine
 10
31.64199999996833
 20
5.840981453592855
 30
0.0
 11
33.08199999996839
 21
7.28098145359291
 31
0.0
  0
LINE
  5
1C797
330
1C791
100
AcDbEntity
  8
0
  6
CONTINUOUS
100
AcDbLine
 10
31.64199999996833
 20
5.167462244512668
 30
0.0
 11
33.08199999996839
 21
6.607462244512723
 31
0.0
  0
LINE
  5
1C798
330
1C791
100
AcDbEntity
  8
0
  6
CONTINUOUS
100
AcDbLine
 10
31.64199999996833
 20
4.493943035432482
 30
0.0
 11
33.08199999996839
 21
5.933943035432536
 31
0.0
  0
LINE
  5
1C799
330
1C791
100
AcDbEntity
  8
0
  6
CONTINUOUS
100
AcDbLine
 10
31.64199999996833
 20
3.820423826352294
 30
0.0
 11
33.08199999996839
 21
5.260423826352349
 31
0.0
  0
LINE
  5
1C79A
330
1C791
100
AcDbEntity
  8
0
  6
CONTINUOUS
100
AcDbLine
 10
31.64199999996833
 20
3.146904617272108
 30
0.0
 11
33.08199999996839
 21
4.586904617272163
 31
0.0
  0
LINE
  5
1C79B
330
1C791
100
AcDbEntity
  8
0
  6
CONTINUOUS
100
AcDbLine
 10
36.23199999996837
 20
8.410423826352327
 30
0.0
 11
36.58467617360729
 21
8.763099999991255
 31
0.0
  0
LINE
  5
1C79C
330
1C791
100
AcDbEntity
  8
0
  6
CONTINUOUS
100
AcDbLine
 10
36.23199999996837
 20
7.73690461727214
 30
0.0
 11
37.25819538268748
 21
8.763099999991255
 31
0.0
  0
LINE
  5
1C79D
330
1C791
100
AcDbEntity
  8
0
  6
CONTINUOUS
100
AcDbLine
 10
31.64323424774199
 20
2.474619655965573
 30
0.0
 11
33.08199999996839
 21
3.913385408191976
 31
0.0
  0
LINE
  5
1C79E
330
1C791
100
AcDbEntity
  8
0
  6
CONTINUOUS
100
AcDbLine
 10
31.74419223861915
 20
1.902058437762552
 30
0.0
 11
33.08199999996839
 21
3.239866199111789
 31
0.0
  0
LINE
  5
1C79F
330
1C791
100
AcDbEntity
  8
0
  6
CONTINUOUS
100
AcDbLine
 10
36.23199999996837
 20
7.063385408191953
 30
0.0
 11
37.67199999996831
 21
8.503385408191894
 31
0.0
  0
LINE
  5
1C7A0
330
1C791
100
AcDbEntity
  8
0
  6
CONTINUOUS
100
AcDbLine
 10
36.23199999996837
 20
6.389866199111767
 30
0.0
 11
37.67199999996831
 21
7.829866199111708
 31
0.0
  0
LINE
  5
1C7A1
330
1C791
100
AcDbEntity
  8
0
  6
CONTINUOUS
100
AcDbLine
 10
31.91111233414976
 20
1.39545932421297
 30
0.0
 11
33.08199999996839
 21
2.566346990031603
 31
0.0
  0
LINE
  5
1C7A2
330
1C791
100
AcDbEntity
  8
0
  6
CONTINUOUS
100
AcDbLine
 10
36.23199999996837
 20
5.71634699003158
 30
0.0
 11
37.67199999996831
 21
7.156346990031522
 31
0.0
  0
LINE
  5
1C7A3
330
1C791
100
AcDbEntity
  8
0
  6
CONTINUOUS
100
AcDbLine
 10
32.1576374746103
 20
0.9684652555933289
 30
0.0
 11
33.20642631446081
 21
2.017254095443838
 31
0.0
  0
LINE
  5
1C7A4
330
1C791
100
AcDbEntity
  8
0
  6
CONTINUOUS
100
AcDbLine
 10
36.23199999996837
 20
5.042827780951393
 30
0.0
 11
37.67199999996831
 21
6.482827780951334
 31
0.0
  0
LINE
  5
1C7A5
330
1C791
100
AcDbEntity
  8
0
  6
CONTINUOUS
100
AcDbLine
 10
32.47774023927325
 20
0.6150488111760914
 30
0.0
 11
33.49903056428258
 21
1.636339136185419
 31
0.0
  0
LINE
  5
1C7A6
330
1C791
100
AcDbEntity
  8
0
  6
CONTINUOUS
100
AcDbLine
 10
36.23199999996837
 20
4.369308571871207
 30
0.0
 11
37.67199999996831
 21
5.809308571871148
 31
0.0
  0
LINE
  5
1C7A7
330
1C791
100
AcDbEntity
  8
0
  6
CONTINUOUS
100
AcDbLine
 10
32.84396249154443
 20
0.3077518543670883
 30
0.0
 11
33.93324121824649
 21
1.397030581069146
 31
0.0
  0
LINE
  5
1C7A8
330
1C791
100
AcDbEntity
  8
0
  6
CONTINUOUS
100
AcDbLine
 10
36.23199999996837
 20
3.695789362791021
 30
0.0
 11
37.67199999996831
 21
5.135789362790963
 31
0.0
  0
LINE
  5
1C7A9
330
1C791
100
AcDbEntity
  8
0
  6
CONTINUOUS
100
AcDbLine
 10
33.30186329036846
 20
0.0921334441109263
 30
0.0
 11
34.46442907112041
 21
1.254699224862875
 31
0.0
  0
LINE
  5
1C7AA
330
1C791
100
AcDbEntity
  8
0
  6
CONTINUOUS
100
AcDbLine
 10
36.23199999996837
 20
3.022270153710834
 30
0.0
 11
37.67199999996831
 21
4.462270153710776
 31
0.0
  0
LINE
  5
1C7AB
330
1C791
100
AcDbEntity
  8
0
  6
CONTINUOUS
100
AcDbLine
 10
33.79565647746294
 20
-0.0875925778747773
 30
0.0
 11
35.24350171668284
 21
1.360252661345124
 31
0.0
  0
LINE
  5
1C7AC
330
1C791
100
AcDbEntity
  8
0
  6
CONTINUOUS
100
AcDbLine
 10
36.18336676155003
 20
2.300117706212308
 30
0.0
 11
37.67199999996831
 21
3.788750944630589
 31
0.0
  0
LINE
  5
1C7AD
330
1C791
100
AcDbEntity
  8
0
  6
CONTINUOUS
100
AcDbLine
 10
34.37182574910968
 20
-0.184942515308224
 30
0.0
 11
37.67199999996831
 21
3.115231735550402
 31
0.0
  0
LINE
  5
1C7AE
330
1C791
100
AcDbEntity
  8
0
  6
CONTINUOUS
100
AcDbLine
 10
35.0453449581892
 20
-0.1849425153088955
 30
0.0
 11
37.66345697088136
 21
2.433169497383271
 31
0.0
  0
LINE
  5
1C7AF
330
1C791
100
AcDbEntity
  8
0
  6
CONTINUOUS
100
AcDbLine
 10
35.98667157609191
 20
0.0828648935136398
 30
0.0
 11
37.51927401744566
 21
1.615467334867382
 31
0.0
  0
LINE
  5
1C7B0
330
1C791
100
AcDbEntity
  8
0
  6
CONTINUOUS
100
AcDbLine
 10
32.27747408544484
 20
0.7830920669904482
 30
0.0
 11
32.24716210471949
 21
0.8134040477157893
 31
0.0
  0
LINE
  5
1C7B1
330
1C791
100
AcDbEntity
  8
0
  6
CONTINUOUS
100
AcDbLine
 10
33.83656881101902
 20
-0.1024834495035494
 30
0.0
 11
31.72538911593758
 21
2.008696245577891
 31
0.0
  0
LINE
  5
1C7B2
330
1C791
100
AcDbEntity
  8
0
  6
CONTINUOUS
100
AcDbLine
 10
34.5925470859041
 20
-0.1849425153084434
 30
0.0
 11
31.64199999996833
 21
2.765604570627322
 31
0.0
  0
LINE
  5
1C7B3
330
1C791
100
AcDbEntity
  8
0
  6
CONTINUOUS
100
AcDbLine
 10
35.26201302775981
 20
-0.1808892480839752
 30
0.0
 11
31.64199999996833
 21
3.439123779707508
 31
0.0
  0
LINE
  5
1C7B4
330
1C791
100
AcDbEntity
  8
0
  6
CONTINUOUS
100
AcDbLine
 10
35.75580621485512
 20
-0.0011632260990879
 30
0.0
 11
34.51294304365551
 21
1.241699945100514
 31
0.0
  0
LINE
  5
1C7B5
330
1C791
100
AcDbEntity
  8
0
  6
CONTINUOUS
100
AcDbLine
 10
33.08199999996839
 20
2.672642988787641
 30
0.0
 11
31.64199999996833
 21
4.112642988787695
 31
0.0
  0
LINE
  5
1C7B6
330
1C791
100
AcDbEntity
  8
0
  6
CONTINUOUS
100
AcDbLine
 10
36.24959940195042
 20
0.1785627958857976
 30
0.0
 11
35.10501653033629
 21
1.323145667499924
 31
0.0
  0
LINE
  5
1C7B7
330
1C791
100
AcDbEntity
  8
0
  6
CONTINUOUS
100
AcDbLine
 10
33.08199999996839
 20
3.346162197867827
 30
0.0
 11
31.64199999996833
 21
4.786162197867881
 31
0.0
  0
LINE
  5
1C7B8
330
1C791
100
AcDbEntity
  8
0
  6
CONTINUOUS
100
AcDbLine
 10
36.64615197150552
 20
0.4555294354108876
 30
0.0
 11
35.6362043832099
 21
1.465477023706505
 31
0.0
  0
LINE
  5
1C7B9
330
1C791
100
AcDbEntity
  8
0
  6
CONTINUOUS
100
AcDbLine
 10
33.08199999996839
 20
4.019681406948013
 30
0.0
 11
31.64199999996833
 21
5.459681406948068
 31
0.0
  0
LINE
  5
1C7BA
330
1C791
100
AcDbEntity
  8
0
  6
CONTINUOUS
100
AcDbLine
 10
37.0123742237774
 20
0.7628263922191891
 30
0.0
 11
35.97691545773309
 21
1.798285158263504
 31
0.0
  0
LINE
  5
1C7BB
330
1C791
100
AcDbEntity
  8
0
  6
CONTINUOUS
100
AcDbLine
 10
33.08199999996839
 20
4.6932006160282
 30
0.0
 11
31.64199999996833
 21
6.133200616028255
 31
0.0
  0
LINE
  5
1C7BC
330
1C791
100
AcDbEntity
  8
0
  6
CONTINUOUS
100
AcDbLine
 10
37.27491524157143
 20
1.173804583505349
 30
0.0
 11
36.17602012811361
 21
2.272699696963169
 31
0.0
  0
LINE
  5
1C7BD
330
1C791
100
AcDbEntity
  8
0
  6
CONTINUOUS
100
AcDbLine
 10
33.08199999996839
 20
5.366719825108387
 30
0.0
 11
31.64199999996833
 21
6.806719825108441
 31
0.0
  0
LINE
  5
1C7BE
330
1C791
100
AcDbEntity
  8
0
  6
CONTINUOUS
100
AcDbLine
 10
37.51739996707661
 20
1.604839067080355
 30
0.0
 11
36.23199999996837
 21
2.890239034188595
 31
0.0
  0
LINE
  5
1C7BF
330
1C791
100
AcDbEntity
  8
0
  6
CONTINUOUS
100
AcDbLine
 10
37.6183579579535
 20
2.177400285283649
 30
0.0
 11
36.23199999996837
 21
3.563758243268782
 31
0.0
  0
LINE
  5
1C7C0
330
1C791
100
AcDbEntity
  8
0
  6
CONTINUOUS
100
AcDbLine
 10
33.08199999996839
 20
6.040239034188573
 30
0.0
 11
31.64199999996833
 21
7.480239034188628
 31
0.0
  0
LINE
  5
1C7C1
330
1C791
100
AcDbEntity
  8
0
  6
CONTINUOUS
100
AcDbLine
 10
33.08199999996839
 20
6.713758243268759
 30
0.0
 11
31.64199999996833
 21
8.153758243268815
 31
0.0
  0
LINE
  5
1C7C2
330
1C791
100
AcDbEntity
  8
0
  6
CONTINUOUS
100
AcDbLine
 10
37.67199999996831
 20
2.797277452349027
 30
0.0
 11
36.23199999996837
 21
4.237277452348969
 31
0.0
  0
LINE
  5
1C7C3
330
1C791
100
AcDbEntity
  8
0
  6
CONTINUOUS
100
AcDbLine
 10
37.67199999996831
 20
3.470796661429214
 30
0.0
 11
36.23199999996837
 21
4.910796661429155
 31
0.0
  0
LINE
  5
1C7C4
330
1C791
100
AcDbEntity
  8
0
  6
CONTINUOUS
100
AcDbLine
 10
37.67199999996831
 20
4.1443158705094
 30
0.0
 11
36.23199999996837
 21
5.584315870509341
 31
0.0
  0
LINE
  5
1C7C5
330
1C791
100
AcDbEntity
  8
0
  6
CONTINUOUS
100
AcDbLine
 10
33.08199999996839
 20
7.387277452348946
 30
0.0
 11
31.70617745232608
 21
8.763099999991255
 31
0.0
  0
LINE
  5
1C7C6
330
1C791
100
AcDbEntity
  8
0
  6
CONTINUOUS
100
AcDbLine
 10
33.08199999996839
 20
8.060796661429134
 30
0.0
 11
32.37969666140626
 21
8.763099999991255
 31
0.0
  0
LINE
  5
1C7C7
330
1C791
100
AcDbEntity
  8
0
  6
CONTINUOUS
100
AcDbLine
 10
33.08199999996839
 20
8.734315870509318
 30
0.0
 11
33.05321587048645
 21
8.763099999991255
 31
0.0
  0
LINE
  5
1C7C8
330
1C791
100
AcDbEntity
  8
0
  6
CONTINUOUS
100
AcDbLine
 10
37.67199999996831
 20
4.817835079589586
 30
0.0
 11
36.23199999996837
 21
6.257835079589528
 31
0.0
  0
LINE
  5
1C7C9
330
1C791
100
AcDbEntity
  8
0
  6
CONTINUOUS
100
AcDbLine
 10
37.67199999996831
 20
5.491354288669772
 30
0.0
 11
36.23199999996837
 21
6.931354288669715
 31
0.0
  0
LINE
  5
1C7CA
330
1C791
100
AcDbEntity
  8
0
  6
CONTINUOUS
100
AcDbLine
 10
37.67199999996831
 20
6.164873497749959
 30
0.0
 11
36.23199999996837
 21
7.6048734977499
 31
0.0
  0
LINE
  5
1C7CB
330
1C791
100
AcDbEntity
  8
0
  6
CONTINUOUS
100
AcDbLine
 10
37.67199999996831
 20
6.838392706830145
 30
0.0
 11
36.23199999996837
 21
8.278392706830086
 31
0.0
  0
LINE
  5
1C7CC
330
1C791
100
AcDbEntity
  8
0
  6
CONTINUOUS
100
AcDbLine
 10
37.67199999996831
 20
7.511911915910333
 30
0.0
 11
36.42081191588738
 21
8.763099999991255
 31
0.0
  0
LINE
  5
1C7CD
330
1C791
100
AcDbEntity
  8
0
  6
CONTINUOUS
100
AcDbLine
 10
37.67199999996831
 20
8.185431124990519
 30
0.0
 11
37.09433112496757
 21
8.763099999991255
 31
0.0
  0
ENDBLK
  5
1C835
330
1C791
100
AcDbEntity
  8
0
100
AcDbBlockEnd
  0
BLOCK
  5
1C836
330
1C7CE
100
AcDbEntity
  8
0
100
AcDbBlockBegin
  2
*X200
 70
     1
 10
0.0
 20
0.0
 30
0.0
  3
*X200
  1

  0
LINE
  5
1C7CF
330
1C7CE
100
AcDbEntity
  8
0
  6
CONTINUOUS
100
AcDbLine
 10
38.60499999996136
 20
8.762866199104765
 30
0.0
 11
38.71672554182345
 21
8.874591740966855
 31
0.0
  0
LINE
  5
1C7D0
330
1C7CE
100
AcDbEntity
  8
0
  6
CONTINUOUS
100
AcDbLine
 10
38.60499999996136
 20
8.089346990024577
 30
0.0
 11
39.03418785440363
 21
8.518534844466847
 31
0.0
  0
LINE
  5
1C7D1
330
1C7CE
100
AcDbEntity
  8
0
  6
CONTINUOUS
100
AcDbLine
 10
38.60499999996136
 20
7.41582778094439
 30
0.0
 11
39.35165016698382
 21
8.16247794796684
 31
0.0
  0
LINE
  5
1C7D2
330
1C7CE
100
AcDbEntity
  8
0
  6
CONTINUOUS
100
AcDbLine
 10
38.60499999996136
 20
6.742308571864204
 30
0.0
 11
39.66911247956399
 21
7.806421051466834
 31
0.0
  0
LINE
  5
1C7D3
330
1C7CE
100
AcDbEntity
  8
0
  6
CONTINUOUS
100
AcDbLine
 10
38.60499999996136
 20
6.068789362784018
 30
0.0
 11
39.98657479214418
 21
7.450364154966827
 31
0.0
  0
LINE
  5
1C7D4
330
1C7CE
100
AcDbEntity
  8
0
  6
CONTINUOUS
100
AcDbLine
 10
38.60499999996136
 20
5.395270153703832
 30
0.0
 11
40.30403710472435
 21
7.09430725846682
 31
0.0
  0
LINE
  5
1C7D5
330
1C7CE
100
AcDbEntity
  8
0
  6
CONTINUOUS
100
AcDbLine
 10
38.60499999996136
 20
4.721750944623645
 30
0.0
 11
40.62149941730453
 21
6.738250361966813
 31
0.0
  0
LINE
  5
1C7D6
330
1C7CE
100
AcDbEntity
  8
0
  6
CONTINUOUS
100
AcDbLine
 10
38.60499999996136
 20
4.048231735543458
 30
0.0
 11
40.93896172988471
 21
6.382193465466806
 31
0.0
  0
LINE
  5
1C7D7
330
1C7CE
100
AcDbEntity
  8
0
  6
CONTINUOUS
100
AcDbLine
 10
38.60499999996136
 20
3.374712526463272
 30
0.0
 11
40.02599999995994
 21
4.795712526461843
 31
0.0
  0
LINE
  5
1C7D8
330
1C7CE
100
AcDbEntity
  8
0
  6
CONTINUOUS
100
AcDbLine
 10
38.60499999996136
 20
2.701193317383085
 30
0.0
 11
40.02599999995994
 21
4.122193317381657
 31
0.0
  0
LINE
  5
1C7D9
330
1C7CE
100
AcDbEntity
  8
0
  6
CONTINUOUS
100
AcDbLine
 10
40.28339754687704
 20
5.053110073378947
 30
0.0
 11
41.25642404246489
 21
6.026136568966799
 31
0.0
  0
LINE
  5
1C7DA
330
1C7CE
100
AcDbEntity
  8
0
  6
CONTINUOUS
100
AcDbLine
 10
40.60085985945722
 20
4.697053176878939
 30
0.0
 11
41.57388635504507
 21
5.670079672466793
 31
0.0
  0
LINE
  5
1C7DB
330
1C7CE
100
AcDbEntity
  8
0
  6
CONTINUOUS
100
AcDbLine
 10
43.57899999995641
 20
8.348712526458318
 30
0.0
 11
43.99338747348935
 21
8.763099999991255
 31
0.0
  0
LINE
  5
1C7DC
330
1C7CE
100
AcDbEntity
  8
0
  6
CONTINUOUS
100
AcDbLine
 10
43.57899999995641
 20
7.675193317378131
 30
0.0
 11
44.66690668256953
 21
8.763099999991255
 31
0.0
  0
LINE
  5
1C7DD
330
1C7CE
100
AcDbEntity
  8
0
  6
CONTINUOUS
100
AcDbLine
 10
38.60499999996136
 20
2.027674108302898
 30
0.0
 11
40.02599999995994
 21
3.44867410830147
 31
0.0
  0
LINE
  5
1C7DE
330
1C7CE
100
AcDbEntity
  8
0
  6
CONTINUOUS
100
AcDbLine
 10
38.60499999996136
 20
1.354154899222712
 30
0.0
 11
40.02599999995994
 21
2.775154899221284
 31
0.0
  0
LINE
  5
1C7DF
330
1C7CE
100
AcDbEntity
  8
0
  6
CONTINUOUS
100
AcDbLine
 10
38.60499999996136
 20
0.6806356901425255
 30
0.0
 11
40.02599999995994
 21
2.101635690141098
 31
0.0
  0
LINE
  5
1C7E0
330
1C7CE
100
AcDbEntity
  8
0
  6
CONTINUOUS
100
AcDbLine
 10
38.60499999996136
 20
0.0071164810623383
 30
0.0
 11
40.02599999995994
 21
1.428116481060911
 31
0.0
  0
LINE
  5
1C7E1
330
1C7CE
100
AcDbEntity
  8
0
  6
CONTINUOUS
100
AcDbLine
 10
40.9183221720374
 20
4.340996280378933
 30
0.0
 11
41.89134866762525
 21
5.314022775966786
 31
0.0
  0
LINE
  5
1C7E2
330
1C7CE
100
AcDbEntity
  8
0
  6
CONTINUOUS
100
AcDbLine
 10
41.23578448461758
 20
3.984939383878926
 30
0.0
 11
42.20881098020543
 21
4.957965879466778
 31
0.0
  0
LINE
  5
1C7E3
330
1C7CE
100
AcDbEntity
  8
0
  6
CONTINUOUS
100
AcDbLine
 10
41.55324679719776
 20
3.628882487378919
 30
0.0
 11
42.52627329278561
 21
4.601908982966772
 31
0.0
  0
LINE
  5
1C7E4
330
1C7CE
100
AcDbEntity
  8
0
  6
CONTINUOUS
100
AcDbLine
 10
41.87070910977793
 20
3.272825590878912
 30
0.0
 11
42.84373560536579
 21
4.245852086466765
 31
0.0
  0
LINE
  5
1C7E5
330
1C7CE
100
AcDbEntity
  8
0
  6
CONTINUOUS
100
AcDbLine
 10
43.57899999995641
 20
7.001674108297943
 30
0.0
 11
44.99999999995498
 21
8.422674108296516
 31
0.0
  0
LINE
  5
1C7E6
330
1C7CE
100
AcDbEntity
  8
0
  6
CONTINUOUS
100
AcDbLine
 10
43.57899999995641
 20
6.328154899217758
 30
0.0
 11
44.99999999995498
 21
7.749154899216329
 31
0.0
  0
LINE
  5
1C7E7
330
1C7CE
100
AcDbEntity
  8
0
  6
CONTINUOUS
100
AcDbLine
 10
43.57899999995641
 20
5.654635690137571
 30
0.0
 11
44.99999999995498
 21
7.075635690136142
 31
0.0
  0
LINE
  5
1C7E8
330
1C7CE
100
AcDbEntity
  8
0
  6
CONTINUOUS
100
AcDbLine
 10
43.57899999995641
 20
4.981116481057384
 30
0.0
 11
44.99999999995498
 21
6.402116481055955
 31
0.0
  0
LINE
  5
1C7E9
330
1C7CE
100
AcDbEntity
  8
0
  6
CONTINUOUS
100
AcDbLine
 10
39.27140272797921
 20
-0.0000000000000009
 30
0.0
 11
40.02599999995994
 21
0.7545972719807246
 31
0.0
  0
LINE
  5
1C7EA
330
1C7CE
100
AcDbEntity
  8
0
  6
CONTINUOUS
100
AcDbLine
 10
39.9449219370594
 20
-0.0000000000000009
 30
0.0
 11
40.02599999995994
 21
0.0810780629005379
 31
0.0
  0
LINE
  5
1C7EB
330
1C7CE
100
AcDbEntity
  8
0
  6
CONTINUOUS
100
AcDbLine
 10
42.18817142235812
 20
2.916768694378905
 30
0.0
 11
43.16119791794597
 21
3.889795189966758
 31
0.0
  0
LINE
  5
1C7EC
330
1C7CE
100
AcDbEntity
  8
0
  6
CONTINUOUS
100
AcDbLine
 10
42.50563373493829
 20
2.560711797878898
 30
0.0
 11
43.47866023052615
 21
3.533738293466751
 31
0.0
  0
LINE
  5
1C7ED
330
1C7CE
100
AcDbEntity
  8
0
  6
CONTINUOUS
100
AcDbLine
 10
43.57899999995641
 20
4.307597271977198
 30
0.0
 11
44.99999999995498
 21
5.728597271975769
 31
0.0
  0
LINE
  5
1C7EE
330
1C7CE
100
AcDbEntity
  8
0
  6
CONTINUOUS
100
AcDbLine
 10
43.57899999995641
 20
3.634078062897011
 30
0.0
 11
44.99999999995498
 21
5.055078062895582
 31
0.0
  0
LINE
  5
1C7EF
330
1C7CE
100
AcDbEntity
  8
0
  6
CONTINUOUS
100
AcDbLine
 10
42.82309604751848
 20
2.204654901378891
 30
0.0
 11
44.99999999995498
 21
4.381558853815395
 31
0.0
  0
LINE
  5
1C7F0
330
1C7CE
100
AcDbEntity
  8
0
  6
CONTINUOUS
100
AcDbLine
 10
43.14055836009865
 20
1.848598004878885
 30
0.0
 11
44.99999999995498
 21
3.70803964473521
 31
0.0
  0
LINE
  5
1C7F1
330
1C7CE
100
AcDbEntity
  8
0
  6
CONTINUOUS
100
AcDbLine
 10
43.45802067267883
 20
1.492541108378878
 30
0.0
 11
44.99999999995498
 21
3.034520435655023
 31
0.0
  0
LINE
  5
1C7F2
330
1C7CE
100
AcDbEntity
  8
0
  6
CONTINUOUS
100
AcDbLine
 10
43.77548298525902
 20
1.136484211878871
 30
0.0
 11
44.99999999995498
 21
2.361001226574837
 31
0.0
  0
LINE
  5
1C7F3
330
1C7CE
100
AcDbEntity
  8
0
  6
CONTINUOUS
100
AcDbLine
 10
44.09294529783919
 20
0.7804273153788639
 30
0.0
 11
44.99999999995498
 21
1.687482017494649
 31
0.0
  0
LINE
  5
1C7F4
330
1C7CE
100
AcDbEntity
  8
0
  6
CONTINUOUS
100
AcDbLine
 10
44.41040761041938
 20
0.4243704188788566
 30
0.0
 11
44.99999999995498
 21
1.013962808414463
 31
0.0
  0
LINE
  5
1C7F5
330
1C7CE
100
AcDbEntity
  8
0
  6
CONTINUOUS
100
AcDbLine
 10
44.72786992299955
 20
0.0683135223788494
 30
0.0
 11
44.99999999995498
 21
0.340443599334276
 31
0.0
  0
LINE
  5
1C7F6
330
1C7CE
100
AcDbEntity
  8
0
  6
CONTINUOUS
100
AcDbLine
 10
39.12223903415696
 20
-0.0000000000000009
 30
0.0
 11
38.60499999996136
 21
0.5172390341955961
 31
0.0
  0
LINE
  5
1C7F7
330
1C7CE
100
AcDbEntity
  8
0
  6
CONTINUOUS
100
AcDbLine
 10
39.79575824323715
 20
-0.0000000000000009
 30
0.0
 11
38.60499999996136
 21
1.190758243275783
 31
0.0
  0
LINE
  5
1C7F8
330
1C7CE
100
AcDbEntity
  8
0
  6
CONTINUOUS
100
AcDbLine
 10
40.02599999995994
 20
0.443277452357397
 30
0.0
 11
38.60499999996136
 21
1.864277452355969
 31
0.0
  0
LINE
  5
1C7F9
330
1C7CE
100
AcDbEntity
  8
0
  6
CONTINUOUS
100
AcDbLine
 10
40.02599999995994
 20
1.116796661437583
 30
0.0
 11
38.60499999996136
 21
2.537796661436155
 31
0.0
  0
LINE
  5
1C7FA
330
1C7CE
100
AcDbEntity
  8
0
  6
CONTINUOUS
100
AcDbLine
 10
40.02599999995994
 20
1.79031587051777
 30
0.0
 11
38.60499999996136
 21
3.211315870516341
 31
0.0
  0
LINE
  5
1C7FB
330
1C7CE
100
AcDbEntity
  8
0
  6
CONTINUOUS
100
AcDbLine
 10
40.02599999995994
 20
2.463835079597956
 30
0.0
 11
38.60499999996136
 21
3.884835079596527
 31
0.0
  0
LINE
  5
1C7FC
330
1C7CE
100
AcDbEntity
  8
0
  6
CONTINUOUS
100
AcDbLine
 10
40.02599999995994
 20
3.137354288678143
 30
0.0
 11
38.60499999996136
 21
4.558354288676714
 31
0.0
  0
LINE
  5
1C7FD
330
1C7CE
100
AcDbEntity
  8
0
  6
CONTINUOUS
100
AcDbLine
 10
40.02599999995994
 20
3.810873497758329
 30
0.0
 11
38.60499999996136
 21
5.2318734977569
 31
0.0
  0
LINE
  5
1C7FE
330
1C7CE
100
AcDbEntity
  8
0
  6
CONTINUOUS
100
AcDbLine
 10
40.02599999995994
 20
4.484392706838515
 30
0.0
 11
38.60499999996136
 21
5.905392706837086
 31
0.0
  0
LINE
  5
1C7FF
330
1C7CE
100
AcDbEntity
  8
0
  6
CONTINUOUS
100
AcDbLine
 10
44.99999999995498
 20
0.183911915923658
 30
0.0
 11
41.53858364506288
 21
3.64532827081576
 31
0.0
  0
LINE
  5
1C800
330
1C7CE
100
AcDbEntity
  8
0
  6
CONTINUOUS
100
AcDbLine
 10
40.02599999995994
 20
5.157911915918703
 30
0.0
 11
38.60499999996136
 21
6.578911915917274
 31
0.0
  0
LINE
  5
1C801
330
1C7CE
100
AcDbEntity
  8
0
  6
CONTINUOUS
100
AcDbLine
 10
44.99999999995498
 20
0.8574311250038447
 30
0.0
 11
38.60499999996136
 21
7.25243112499746
 31
0.0
  0
LINE
  5
1C802
330
1C7CE
100
AcDbEntity
  8
0
  6
CONTINUOUS
100
AcDbLine
 10
44.99999999995498
 20
1.530950334084031
 30
0.0
 11
38.60499999996136
 21
7.925950334077647
 31
0.0
  0
LINE
  5
1C803
330
1C7CE
100
AcDbEntity
  8
0
  6
CONTINUOUS
100
AcDbLine
 10
44.99999999995498
 20
2.204469543164218
 30
0.0
 11
43.57899999995641
 21
3.625469543162789
 31
0.0
  0
LINE
  5
1C804
330
1C7CE
100
AcDbEntity
  8
0
  6
CONTINUOUS
100
AcDbLine
 10
41.89876730984767
 20
5.305702233271528
 30
0.0
 11
38.60499999996136
 21
8.599469543157834
 31
0.0
  0
LINE
  5
1C805
330
1C7CE
100
AcDbEntity
  8
0
  6
CONTINUOUS
100
AcDbLine
 10
44.99999999995498
 20
2.877988752244405
 30
0.0
 11
43.57899999995641
 21
4.298988752242975
 31
0.0
  0
LINE
  5
1C806
330
1C7CE
100
AcDbEntity
  8
0
  6
CONTINUOUS
100
AcDbLine
 10
44.99999999995498
 20
3.551507961324591
 30
0.0
 11
43.57899999995641
 21
4.972507961323163
 31
0.0
  0
LINE
  5
1C807
330
1C7CE
100
AcDbEntity
  8
0
  6
CONTINUOUS
100
AcDbLine
 10
44.99999999995498
 20
4.225027170404777
 30
0.0
 11
43.57899999995641
 21
5.646027170403348
 31
0.0
  0
LINE
  5
1C808
330
1C7CE
100
AcDbEntity
  8
0
  6
CONTINUOUS
100
AcDbLine
 10
44.99999999995498
 20
4.898546379484964
 30
0.0
 11
43.57899999995641
 21
6.319546379483535
 31
0.0
  0
LINE
  5
1C809
330
1C7CE
100
AcDbEntity
  8
0
  6
CONTINUOUS
100
AcDbLine
 10
44.99999999995498
 20
5.572065588565151
 30
0.0
 11
43.57899999995641
 21
6.993065588563722
 31
0.0
  0
LINE
  5
1C80A
330
1C7CE
100
AcDbEntity
  8
0
  6
CONTINUOUS
100
AcDbLine
 10
44.99999999995498
 20
6.245584797645336
 30
0.0
 11
43.57899999995641
 21
7.666584797643908
 31
0.0
  0
LINE
  5
1C80B
330
1C7CE
100
AcDbEntity
  8
0
  6
CONTINUOUS
100
AcDbLine
 10
44.99999999995498
 20
6.919104006725522
 30
0.0
 11
43.57899999995641
 21
8.340104006724093
 31
0.0
  0
LINE
  5
1C80C
330
1C7CE
100
AcDbEntity
  8
0
  6
CONTINUOUS
100
AcDbLine
 10
44.99999999995498
 20
7.592623215805709
 30
0.0
 11
43.82952321576943
 21
8.763099999991255
 31
0.0
  0
LINE
  5
1C80D
330
1C7CE
100
AcDbEntity
  8
0
  6
CONTINUOUS
100
AcDbLine
 10
44.99999999995498
 20
8.266142424885896
 30
0.0
 11
44.50304242484962
 21
8.763099999991255
 31
0.0
  0
ENDBLK
  5
1C837
330
1C7CE
100
AcDbEntity
  8
0
100
AcDbBlockEnd
  0
BLOCK
  5
1C838
330
1C80E
100
AcDbEntity
  8
0
100
AcDbBlockBegin
  2
*X201
 70
     1
 10
0.0
 20
0.0
 30
0.0
  3
*X201
  1

  0
LINE
  5
1C80F
330
1C80E
100
AcDbEntity
  8
0
  6
CONTINUOUS
100
AcDbLine
 10
0.0
 20
8.548461116714023
 30
0.0
 11
0.2146388832772324
 21
8.763099999991255
 31
0.0
  0
LINE
  5
1C810
330
1C80E
100
AcDbEntity
  8
0
  6
CONTINUOUS
100
AcDbLine
 10
-0.0000000000000002
 20
7.874941907633837
 30
0.0
 11
0.8881580923574184
 21
8.763099999991255
 31
0.0
  0
LINE
  5
1C811
330
1C80E
100
AcDbEntity
  8
0
  6
CONTINUOUS
100
AcDbLine
 10
0.0
 20
7.20142269855365
 30
0.0
 11
1.420999999998572
 21
8.622422698552223
 31
0.0
  0
LINE
  5
1C812
330
1C80E
100
AcDbEntity
  8
0
  6
CONTINUOUS
100
AcDbLine
 10
-0.0000000000000001
 20
6.527903489473465
 30
0.0
 11
1.420999999998571
 21
7.948903489472036
 31
0.0
  0
LINE
  5
1C813
330
1C80E
100
AcDbEntity
  8
0
  6
CONTINUOUS
100
AcDbLine
 10
-0.0000000000000002
 20
5.854384280393278
 30
0.0
 11
1.420999999998571
 21
7.275384280391849
 31
0.0
  0
LINE
  5
1C814
330
1C80E
100
AcDbEntity
  8
0
  6
CONTINUOUS
100
AcDbLine
 10
-0.0000000000000002
 20
5.180865071313091
 30
0.0
 11
1.420999999998571
 21
6.601865071311663
 31
0.0
  0
LINE
  5
1C815
330
1C80E
100
AcDbEntity
  8
0
  6
CONTINUOUS
100
AcDbLine
 10
0.0
 20
4.507345862232905
 30
0.0
 11
1.420999999998571
 21
5.928345862231477
 31
0.0
  0
LINE
  5
1C816
330
1C80E
100
AcDbEntity
  8
0
  6
CONTINUOUS
100
AcDbLine
 10
-0.0000000000000003
 20
3.833826653152718
 30
0.0
 11
1.420999999998571
 21
5.25482665315129
 31
0.0
  0
LINE
  5
1C817
330
1C80E
100
AcDbEntity
  8
0
  6
CONTINUOUS
100
AcDbLine
 10
-0.0000000000000002
 20
3.160307444072532
 30
0.0
 11
1.420999999998571
 21
4.581307444071103
 31
0.0
  0
LINE
  5
1C818
330
1C80E
100
AcDbEntity
  8
0
  6
CONTINUOUS
100
AcDbLine
 10
-0.0000000000000001
 20
2.486788234992345
 30
0.0
 11
1.420999999998571
 21
3.907788234990917
 31
0.0
  0
LINE
  5
1C819
330
1C80E
100
AcDbEntity
  8
0
  6
CONTINUOUS
100
AcDbLine
 10
-0.0000000000000006
 20
1.813269025912159
 30
0.0
 11
1.420999999998571
 21
3.234269025910731
 31
0.0
  0
LINE
  5
1C81A
330
1C80E
100
AcDbEntity
  8
0
  6
CONTINUOUS
100
AcDbLine
 10
0.0
 20
1.139749816831973
 30
0.0
 11
1.420999999998571
 21
2.560749816830544
 31
0.0
  0
LINE
  5
1C81B
330
1C80E
100
AcDbEntity
  8
0
  6
CONTINUOUS
100
AcDbLine
 10
0.0000000000000002
 20
0.466230607751787
 30
0.0
 11
1.420999999998571
 21
1.887230607750358
 31
0.0
  0
LINE
  5
1C81C
330
1C80E
100
AcDbEntity
  8
0
  6
CONTINUOUS
100
AcDbLine
 10
0.2072886013284003
 20
-0.0000000000000009
 30
0.0
 11
1.420999999998571
 21
1.213711398670171
 31
0.0
  0
LINE
  5
1C81D
330
1C80E
100
AcDbEntity
  8
0
  6
CONTINUOUS
100
AcDbLine
 10
0.8808078104085864
 20
-0.0000000000000009
 30
0.0
 11
1.420999999998571
 21
0.5401921895899839
 31
0.0
  0
LINE
  5
1C81E
330
1C80E
100
AcDbEntity
  8
0
  6
CONTINUOUS
100
AcDbLine
 10
0.0581249075061505
 20
-0.0000000000000009
 30
0.0
 11
-0.0000000000000002
 21
0.0581249075061496
 31
0.0
  0
LINE
  5
1C81F
330
1C80E
100
AcDbEntity
  8
0
  6
CONTINUOUS
100
AcDbLine
 10
0.7316441165863372
 20
-0.0000000000000009
 30
0.0
 11
-0.0000000000000002
 21
0.7316441165863363
 31
0.0
  0
LINE
  5
1C820
330
1C80E
100
AcDbEntity
  8
0
  6
CONTINUOUS
100
AcDbLine
 10
1.405163325666523
 20
-0.0000000000000009
 30
0.0
 11
-0.0000000000000002
 21
1.405163325666523
 31
0.0
  0
LINE
  5
1C821
330
1C80E
100
AcDbEntity
  8
0
  6
CONTINUOUS
100
AcDbLine
 10
1.420999999998572
 20
0.6576825347481381
 30
0.0
 11
-0.0000000000000001
 21
2.07868253474671
 31
0.0
  0
LINE
  5
1C822
330
1C80E
100
AcDbEntity
  8
0
  6
CONTINUOUS
100
AcDbLine
 10
1.420999999998571
 20
1.331201743828324
 30
0.0
 11
-0.0000000000000001
 21
2.752201743826896
 31
0.0
  0
LINE
  5
1C823
330
1C80E
100
AcDbEntity
  8
0
  6
CONTINUOUS
100
AcDbLine
 10
1.420999999998571
 20
2.004720952908511
 30
0.0
 11
-0.0000000000000002
 21
3.425720952907082
 31
0.0
  0
LINE
  5
1C824
330
1C80E
100
AcDbEntity
  8
0
  6
CONTINUOUS
100
AcDbLine
 10
1.420999999998571
 20
2.678240161988697
 30
0.0
 11
-0.0000000000000001
 21
4.099240161987269
 31
0.0
  0
LINE
  5
1C825
330
1C80E
100
AcDbEntity
  8
0
  6
CONTINUOUS
100
AcDbLine
 10
1.420999999998572
 20
3.351759371068884
 30
0.0
 11
0.0
 21
4.772759371067455
 31
0.0
  0
LINE
  5
1C826
330
1C80E
100
AcDbEntity
  8
0
  6
CONTINUOUS
100
AcDbLine
 10
1.420999999998571
 20
4.02527858014907
 30
0.0
 11
-0.0000000000000003
 21
5.446278580147642
 31
0.0
  0
LINE
  5
1C827
330
1C80E
100
AcDbEntity
  8
0
  6
CONTINUOUS
100
AcDbLine
 10
1.420999999998571
 20
4.698797789229257
 30
0.0
 11
0.0
 21
6.119797789227828
 31
0.0
  0
LINE
  5
1C828
330
1C80E
100
AcDbEntity
  8
0
  6
CONTINUOUS
100
AcDbLine
 10
1.420999999998571
 20
5.372316998309444
 30
0.0
 11
-0.0000000000000001
 21
6.793316998308015
 31
0.0
  0
LINE
  5
1C829
330
1C80E
100
AcDbEntity
  8
0
  6
CONTINUOUS
100
AcDbLine
 10
1.420999999998572
 20
6.045836207389629
 30
0.0
 11
-0.0000000000000004
 21
7.466836207388202
 31
0.0
  0
LINE
  5
1C82A
330
1C80E
100
AcDbEntity
  8
0
  6
CONTINUOUS
100
AcDbLine
 10
1.420999999998571
 20
6.719355416469816
 30
0.0
 11
0.0
 21
8.140355416468388
 31
0.0
  0
LINE
  5
1C82B
330
1C80E
100
AcDbEntity
  8
0
  6
CONTINUOUS
100
AcDbLine
 10
1.420999999998571
 20
7.392874625550003
 30
0.0
 11
0.0507746255573185
 21
8.763099999991255
 31
0.0
  0
LINE
  5
1C82C
330
1C80E
100
AcDbEntity
  8
0
  6
CONTINUOUS
100
AcDbLine
 10
1.420999999998571
 20
8.06639383463019
 30
0.0
 11
0.7242938346375052
 21
8.763099999991255
 31
0.0
  0
LINE
  5
1C82D
330
1C80E
100
AcDbEntity
  8
0
  6
CONTINUOUS
100
AcDbLine
 10
1.420999999998571
 20
8.739913043710375
 30
0.0
 11
1.397813043717691
 21
8.763099999991255
 31
0.0
  0
ENDBLK
  5
1C839
330
1C80E
100
AcDbEntity
  8
0
100
AcDbBlockEnd
  0
ENDSEC
  0
SECTION
  2
ENTITIES
  0
LINE
  5
1ABD5
330
18
100
AcDbEntity
  8
01
100
AcDbLine
 10
2038.614390279099
 20
-591.5974787378657
 30
0.0000000001127424
 11
2064.614390279098
 21
-591.5974787378657
 31
0.0000000001127424
  0
LINE
  5
1ABD6
330
18
100
AcDbEntity
  8
01
100
AcDbLine
 10
2074.114390279098
 20
-586.0974787378657
 30
0.0000000001127424
 11
2029.114390279099
 21
-586.0974787378657
 31
0.0000000001127424
  0
LINE
  5
1ABD7
330
18
100
AcDbEntity
  8
01
100
AcDbLine
 10
2051.614390279098
 20
-563.5974787378657
 30
0.0000000001127424
 11
2051.614390279098
 21
-608.5974787378657
 31
0.0000000001127424
  0
LINE
  5
1ABD8
330
18
100
AcDbEntity
  8
01
100
AcDbLine
 10
2369.114518618845
 20
-586.0974787378657
 30
0.0000000001127424
 11
2414.114518618845
 21
-586.0974787378657
 31
0.0000000001127424
  0
LINE
  5
1ABD9
330
18
100
AcDbEntity
  8
01
100
AcDbLine
 10
2391.614518618845
 20
-563.5974787378657
 30
0.0000000001127424
 11
2391.614518618845
 21
-608.5974787378657
 31
0.0000000001127424
  0
LINE
  5
1ABDA
330
18
100
AcDbEntity
  8
01
100
AcDbLine
 10
2389.114627024684
 20
-330.6435955871164
 30
0.0000000000564898
 11
2389.114627024684
 21
-343.1436185313194
 31
0.0000000000564898
  0
LINE
  5
1ABDB
330
18
100
AcDbEntity
  8
01
100
AcDbLine
 10
2394.114627024684
 20
-330.6435955871145
 30
0.0000000000564898
 11
2394.114627024684
 21
-343.1436185313212
 31
0.0000000000564898
  0
LINE
  5
1ABDC
330
18
100
AcDbEntity
  8
01
100
AcDbLine
 10
2201.614626958589
 20
-566.0974787378675
 30
0.0000000001127424
 11
2201.614626958585
 21
-606.097478737868
 31
0.0000000001127424
  0
LINE
  5
1ABDD
330
18
100
AcDbEntity
  8
01
100
AcDbLine
 10
2201.614626958589
 20
-606.097478737868
 30
0.0000000001127424
 11
2195.81462695859
 21
-606.0974787378675
 31
0.0000000001127424
  0
ARC
  5
1ABDE
330
18
100
AcDbEntity
  8
01
100
AcDbCircle
 10
2195.81462695859
 20
-605.5974787378675
 30
0.0000000001127424
 40
0.5
100
AcDbArc
 50
180.0
 51
270.0
  0
LINE
  5
1ABDF
330
18
100
AcDbEntity
  8
01
100
AcDbLine
 10
2201.614626958589
 20
-566.0974787378675
 30
0.0000000001127424
 11
2195.81462695859
 21
-566.0974787378684
 31
0.0000000001127424
  0
ARC
  5
1ABE0
330
18
100
AcDbEntity
  8
01
100
AcDbCircle
 10
2195.81462695859
 20
-566.5974787378684
 30
0.0000000001127424
 40
0.5
100
AcDbArc
 50
90.0
 51
180.0
  0
LINE
  5
1ABE1
330
18
100
AcDbEntity
  8
01
100
AcDbLine
 10
2200.114626958589
 20
-606.0974787378748
 30
0.0000000001127424
 11
2201.614626958589
 21
-606.0974787378748
 31
0.0000000001127424
  0
LINE
  5
1ABE7
330
18
100
AcDbEntity
  8
01
100
AcDbLine
 10
2371.614626570025
 20
-391.5974787388943
 30
0.0000000001127424
 11
2411.614626570025
 21
-391.5974787388936
 31
0.0000000001127424
  0
LINE
  5
1ABE8
330
18
100
AcDbEntity
  8
01
100
AcDbLine
 10
2411.114626570025
 20
-397.8974787388941
 30
0.0000000001127424
 11
2372.114626570025
 21
-397.8974787388945
 31
0.0000000001127424
  0
CIRCLE
  5
1ABE9
330
18
100
AcDbEntity
  8
01
100
AcDbCircle
 10
2391.614539380264
 20
-586.0975024985539
 30
0.0000000001128561
 40
19.99999999999963
  0
LINE
  5
1ABEA
330
18
100
AcDbEntity
  8
01
100
AcDbLine
 10
2371.614626570025
 20
-391.5974787388943
 30
0.0000000001127424
 11
2371.614626570025
 21
-397.3974787388945
 31
0.0000000001127424
  0
ARC
  5
1ABEB
330
18
100
AcDbEntity
  8
01
100
AcDbCircle
 10
2372.114626570025
 20
-397.3974787388941
 30
0.0000000001127424
 40
0.5
100
AcDbArc
 50
180.0
 51
270.0
  0
CIRCLE
  5
1ABEC
330
18
100
AcDbEntity
  8
01
100
AcDbCircle
 10
2391.614539702722
 20
-591.5975022944258
 30
0.0000000001128561
 40
3.75
  0
CIRCLE
  5
1ABED
330
18
100
AcDbEntity
  8
01
100
AcDbCircle
 10
2391.614539702722
 20
-591.5975024985537
 30
0.0000000001128561
 40
3.5000005
  0
LINE
  5
1ABEE
330
18
100
AcDbEntity
  8
01
100
AcDbLine
 10
2390.614539702722
 20
-594.9516052985537
 30
0.0000000001128561
 11
2390.614539702722
 21
-588.2433984985537
 31
0.0000000001128561
  0
LINE
  5
1ABEF
330
18
100
AcDbEntity
  8
01
100
AcDbLine
 10
2392.614539702722
 20
-594.9516052985537
 30
0.0000000001128561
 11
2392.614539702722
 21
-588.2433984985537
 31
0.0000000001128561
  0
ARC
  5
1ABF0
330
18
100
AcDbEntity
  8
01
100
AcDbCircle
 10
2391.61461702788
 20
-393.7474841167693
 30
0.0000000001126288
 40
6.0
100
AcDbArc
 50
234.314666000001
 51
256.8165179999972
  0
LINE
  5
1ABF1
330
18
100
AcDbEntity
  8
01
100
AcDbLine
 10
2388.11461702788
 20
-398.6208841167695
 30
0.0000000001126288
 11
2388.114617027879
 21
-397.8974787388943
 31
0.0000000001126288
  0
LINE
  5
1ABF2
330
18
100
AcDbEntity
  8
01
100
AcDbLine
 10
2395.11461702788
 20
-398.6208841167695
 30
0.0000000001126288
 11
2395.11461702788
 21
-397.8974787388943
 31
0.0000000001126288
  0
LINE
  5
1ABF3
330
18
100
AcDbEntity
  8
01
100
AcDbLine
 10
2392.61461702788
 20
-399.2980325761719
 30
0.0000000001126288
 11
2392.61461702788
 21
-397.8974787388943
 31
0.0000000001126288
  0
ARC
  5
1ABF4
330
18
100
AcDbEntity
  8
01
100
AcDbCircle
 10
2390.31461402788
 20
-399.2972541167694
 30
0.0000000001126288
 40
0.30000001
100
AcDbArc
 50
256.8165180001134
 51
0.0
  0
ARC
  5
1ABF5
330
18
100
AcDbEntity
  8
01
100
AcDbCircle
 10
2392.91461602788
 20
-399.2972541167694
 30
0.0000000001126288
 40
0.30000001
100
AcDbArc
 50
179.999996999972
 51
283.1834799999916
  0
LINE
  5
1ABF6
330
18
100
AcDbEntity
  8
01
100
AcDbLine
 10
2390.61461702788
 20
-399.2972541167694
 30
0.0000000001126288
 11
2390.61461702788
 21
-397.8974787388943
 31
0.0000000001126288
  0
ARC
  5
1ABF7
330
18
100
AcDbEntity
  8
01
100
AcDbCircle
 10
2391.61461702788
 20
-393.7474841167693
 30
0.0000000001126288
 40
6.0
100
AcDbArc
 50
283.1834825033654
 51
305.6853300000029
  0
LINE
  5
1ABF8
330
18
100
AcDbEntity
  8
01
100
AcDbLine
 10
2411.614626570025
 20
-391.5974787388936
 30
0.0000000001127424
 11
2411.614626570025
 21
-397.3974787388941
 31
0.0000000001127424
  0
ARC
  5
1ABF9
330
18
100
AcDbEntity
  8
01
100
AcDbCircle
 10
2411.114626570025
 20
-397.3974787388941
 30
0.0000000001127424
 40
0.5
100
AcDbArc
 50
270.0
 51
0.0
  0
LINE
  5
1ABFA
330
18
100
AcDbEntity
  8
01
100
AcDbLine
 10
2241.614626958589
 20
-566.0974787378657
 30
0.0000000001127427
 11
2241.614626958584
 21
-606.0974787378657
 31
0.0000000001127427
  0
LINE
  5
1ABFC
330
18
100
AcDbEntity
  8
01
100
AcDbLine
 10
2038.614390279099
 20
-591.5974787378657
 30
0.0000000001127424
 11
2064.614390279098
 21
-591.5974787378657
 31
0.0000000001127424
  0
LINE
  5
1ABFD
330
18
100
AcDbEntity
  8
01
100
AcDbLine
 10
2074.114390279098
 20
-586.0974787378657
 30
0.0000000001127424
 11
2029.114390279099
 21
-586.0974787378657
 31
0.0000000001127424
  0
LINE
  5
1ABFE
330
18
100
AcDbEntity
  8
01
100
AcDbLine
 10
2051.614390279098
 20
-563.5974787378657
 30
0.0000000001127424
 11
2051.614390279098
 21
-608.5974787378657
 31
0.0000000001127424
  0
LINE
  5
1AC02
330
18
100
AcDbEntity
  8
01
100
AcDbLine
 10
2195.31462695859
 20
-605.5974787378657
 30
0.0000000001127427
 11
2195.31462695859
 21
-566.5974787378661
 31
0.0000000001127427
  0
CIRCLE
  5
1AC03
330
18
100
AcDbEntity
  8
01
100
AcDbCircle
 10
2051.614390279096
 20
-586.0974787378657
 30
0.0000000001127424
 40
20.00000000000007
  0
ARC
  5
1AC04
330
18
100
AcDbEntity
  8
01
100
AcDbCircle
 10
2053.614390279098
 20
-582.5662828037716
 30
0.0000000001127424
 40
0.5000000000000013
100
AcDbArc
 50
0.0
 51
77.51311018581228
  0
ARC
  5
1AC05
330
18
100
AcDbEntity
  8
01
100
AcDbCircle
 10
2049.614390279098
 20
-600.62867467196
 30
0.0000000001127424
 40
0.5000000000000029
100
AcDbArc
 50
180.0
 51
257.5131101858123
  0
ARC
  5
1AC06
330
18
100
AcDbEntity
  8
01
100
AcDbCircle
 10
2053.614390279098
 20
-600.62867467196
 30
0.0000000001127424
 40
0.5000000000000013
100
AcDbArc
 50
282.4868898141877
 51
0.0
  0
ARC
  5
1AC07
330
18
100
AcDbEntity
  8
01
100
AcDbCircle
 10
2051.614390279098
 20
-591.5974787378657
 30
0.0000000001127424
 40
9.749999999999995
100
AcDbArc
 50
77.5131101858446
 51
102.4868898141554
  0
ARC
  5
1AC08
330
18
100
AcDbEntity
  8
01
100
AcDbCircle
 10
2049.614390279098
 20
-582.5662828037716
 30
0.0000000001127424
 40
0.5000000000000029
100
AcDbArc
 50
102.4868898141877
 51
180.0
  0
ARC
  5
1AC09
330
18
100
AcDbEntity
  8
01
100
AcDbCircle
 10
2051.614390279098
 20
-591.5974787378657
 30
0.0000000001127424
 40
9.75
100
AcDbArc
 50
257.5131101858446
 51
282.4868898141554
  0
LINE
  5
1AC0A
330
18
100
AcDbEntity
  8
01
100
AcDbLine
 10
2054.114390279098
 20
-582.5662828037716
 30
0.0000000001127424
 11
2054.114390279098
 21
-600.62867467196
 31
0.0000000001127424
  0
LINE
  5
1AC0B
330
18
100
AcDbEntity
  8
01
100
AcDbLine
 10
2049.114390279098
 20
-600.62867467196
 30
0.0000000001127424
 11
2049.114390279098
 21
-582.5662828037716
 31
0.0000000001127424
  0
SPLINE
  5
1AC0C
330
18
100
AcDbEntity
  8
01
100
AcDbSpline
210
0.0
220
0.0
230
1.0
 70
     8
 71
     3
 72
    18
 73
    14
 74
     0
 42
0.0000000001
 43
0.0000000001
 40
0.0
 40
0.0
 40
0.0
 40
0.0
 40
0.2500000000000002
 40
0.2500000000000002
 40
0.375
 40
0.375
 40
0.4999999999999998
 40
0.4999999999999998
 40
0.6249999999999996
 40
0.6249999999999996
 40
0.7499999999999993
 40
0.7499999999999993
 40
1.0
 40
1.0
 40
1.0
 40
1.0
 10
2055.303579468287
 20
-600.622576140463
 30
0.0000000001127424
 10
2055.110318411012
 20
-600.7015754654997
 30
0.0000000001127424
 10
2054.917996799283
 20
-600.7728430000693
 30
0.0000000001127424
 10
2054.638671340824
 20
-600.867100111243
 30
0.0000000001127424
 10
2054.549178198316
 20
-600.8957333364306
 30
0.0000000001127424
 10
2054.377900990524
 20
-600.9480684122314
 30
0.0000000001127424
 10
2054.295251577354
 20
-600.9720005771519
 30
0.0000000001127424
 10
2054.143778437913
 20
-601.0139999934986
 30
0.0000000001127424
 10
2054.075106866957
 20
-601.0320618610581
 30
0.0000000001127424
 10
2053.952738892697
 20
-601.0631329992186
 30
0.0000000001127424
 10
2053.898898656081
 20
-601.0761645318255
 30
0.0000000001127424
 10
2053.76954436885
 20
-601.1067196365861
 30
0.0000000001127424
 10
2053.722498387207
 20
-601.1168474251542
 30
0.0000000001127424
 10
2053.722498387207
 20
-601.1168474251542
 30
0.0000000001127424
  0
SPLINE
  5
1AC0D
330
18
100
AcDbEntity
  8
01
100
AcDbSpline
210
0.0
220
0.0
230
1.0
 70
     8
 71
     3
 72
    18
 73
    14
 74
     0
 42
0.0000000001
 43
0.0000000001
 40
0.0
 40
0.0
 40
0.0
 40
0.0
 40
0.2500000000000002
 40
0.2500000000000002
 40
0.3750000000000002
 40
0.3750000000000002
 40
0.5000000000000002
 40
0.5000000000000002
 40
0.6250000000000002
 40
0.6250000000000002
 40
0.7500000000000001
 40
0.7500000000000001
 40
1.0
 40
1.0
 40
1.0
 40
1.0
 10
2047.925201089909
 20
-582.5723813352683
 30
0.0000000001127424
 10
2048.118462147185
 20
-582.4933820102317
 30
0.0000000001127424
 10
2048.310783758913
 20
-582.4221144756623
 30
0.0000000001127424
 10
2048.590109217373
 20
-582.3278573644886
 30
0.0000000001127424
 10
2048.679602359881
 20
-582.2992241393008
 30
0.0000000001127424
 10
2048.850879567673
 20
-582.2468890635002
 30
0.0000000001127424
 10
2048.933528980842
 20
-582.2229568985795
 30
0.0000000001127424
 10
2049.085002120283
 20
-582.180957482233
 30
0.0000000001127424
 10
2049.153673691239
 20
-582.1628956146735
 30
0.0000000001127424
 10
2049.276041665499
 20
-582.1318244765127
 30
0.0000000001127424
 10
2049.329881902116
 20
-582.1187929439059
 30
0.0000000001127424
 10
2049.459236189346
 20
-582.0882378391454
 30
0.0000000001127424
 10
2049.50628217099
 20
-582.0781100505774
 30
0.0000000001127424
 10
2049.50628217099
 20
-582.0781100505774
 30
0.0000000001127424
  0
SPLINE
  5
1AC0E
330
18
100
AcDbEntity
  8
01
100
AcDbSpline
210
0.0
220
0.0
230
1.0
 70
     8
 71
     3
 72
    16
 73
    12
 74
     0
 42
0.0000000001
 43
0.0000000001
 40
0.0
 40
0.0
 40
0.0
 40
0.0
 40
0.1249999999999998
 40
0.1249999999999998
 40
0.2499999999999997
 40
0.2499999999999997
 40
0.4999999999999998
 40
0.4999999999999998
 40
0.7499999999999999
 40
0.7499999999999999
 40
1.0
 40
1.0
 40
1.0
 40
1.0
 10
2049.50628217099
 20
-601.1168474251542
 30
0.0000000001127424
 10
2049.50628217099
 20
-601.1168474251542
 30
0.0000000001127424
 10
2049.494866648864
 20
-601.1143394691633
 30
0.0000000001127424
 10
2049.450433592522
 20
-601.1043346880031
 30
0.0000000001127424
 10
2049.416737991969
 20
-601.0966780229535
 30
0.0000000001127424
 10
2049.287390670507
 20
-601.0661335184209
 30
0.0000000001127424
 10
2049.1609347902
 20
-601.0350333646438
 30
0.0000000001127424
 10
2048.859988589204
 20
-600.9516303562723
 30
0.0000000001127424
 10
2048.683195154438
 20
-600.8984814267496
 30
0.0000000001127424
 10
2048.313498882434
 20
-600.7737891001461
 30
0.0000000001127424
 10
2048.1184277242
 20
-600.7015613944154
 30
0.0000000001127424
 10
2047.925201089909
 20
-600.622576140463
 30
0.0000000001127424
  0
SPLINE
  5
1AC0F
330
18
100
AcDbEntity
  8
01
100
AcDbSpline
210
0.0
220
0.0
230
1.0
 70
     8
 71
     3
 72
    16
 73
    12
 74
     0
 42
0.0000000001
 43
0.0000000001
 40
0.0
 40
0.0
 40
0.0
 40
0.0
 40
0.1249999999999997
 40
0.1249999999999997
 40
0.2499999999999993
 40
0.2499999999999993
 40
0.4999999999999996
 40
0.4999999999999996
 40
0.7499999999999998
 40
0.7499999999999998
 40
1.0
 40
1.0
 40
1.0
 40
1.0
 10
2053.722498387207
 20
-582.0781100505774
 30
0.0000000001127424
 10
2053.722498387207
 20
-582.0781100505774
 30
0.0000000001127424
 10
2053.733913909333
 20
-582.0806180065683
 30
0.0000000001127424
 10
2053.778346965674
 20
-582.0906227877285
 30
0.0000000001127424
 10
2053.812042566227
 20
-582.0982794527781
 30
0.0000000001127424
 10
2053.941389887689
 20
-582.1288239573107
 30
0.0000000001127424
 10
2054.067845767996
 20
-582.1599241110875
 30
0.0000000001127424
 10
2054.368791968992
 20
-582.2433271194591
 30
0.0000000001127424
 10
2054.545585403759
 20
-582.2964760489817
 30
0.0000000001127424
 10
2054.915281675762
 20
-582.4211683755852
 30
0.0000000001127424
 10
2055.110352833996
 20
-582.493396081316
 30
0.0000000001127424
 10
2055.303579468287
 20
-582.5723813352683
 30
0.0000000001127424
  0
ARC
  5
1AC10
330
18
100
AcDbEntity
  8
01
100
AcDbCircle
 10
2051.614390279098
 20
-591.5974787378657
 30
0.0000000001127424
 40
9.750000000000005
100
AcDbArc
 50
112.2332717982911
 51
247.7667282017089
  0
ARC
  5
1AC11
330
18
100
AcDbEntity
  8
01
100
AcDbCircle
 10
2051.614390279098
 20
-591.5974787378657
 30
0.0000000001127424
 40
9.750000000000009
100
AcDbArc
 50
292.2332717982938
 51
67.76672820170617
  0
CIRCLE
  5
1AC12
330
18
100
AcDbEntity
  8
01
100
AcDbCircle
 10
2051.614390279098
 20
-591.5974787378657
 30
0.0000000001127424
 40
10.3
  0
SPLINE
  5
1AC13
330
18
100
AcDbEntity
  8
01
100
AcDbSpline
210
0.0
220
0.0
230
1.0
 70
    24
 71
     1
 72
     4
 73
     2
 74
     0
 42
0.0000000001
 43
0.0000000001
 40
0.1160848018737504
 40
0.1160848018737504
 40
1.0
 40
1.0
 10
2195.31462695859
 20
-601.347478737873
 30
0.0000000001127427
 10
2180.614602147577
 20
-601.347478737873
 30
0.0000000001127427
  0
SPLINE
  5
1AC14
330
18
100
AcDbEntity
  8
01
100
AcDbSpline
210
0.0
220
0.0
230
1.0
 70
    24
 71
     1
 72
     4
 73
     2
 74
     0
 42
0.0000000001
 43
0.0000000001
 40
0.0
 40
0.0
 40
0.8839151981262495
 40
0.8839151981262495
 10
2180.614602147577
 20
-581.847478737873
 30
0.0000000001127427
 10
2195.314626958589
 20
-581.847478737873
 30
0.0000000001127427
  0
ARC
  5
1AC15
330
18
100
AcDbEntity
  8
01
100
AcDbCircle
 10
2180.614602147577
 20
-600.347478737873
 30
0.0000000001127427
 40
1.0
100
AcDbArc
 50
180.0
 51
270.0
  0
ARC
  5
1AC16
330
18
100
AcDbEntity
  8
01
100
AcDbCircle
 10
2180.614602147577
 20
-582.847478737873
 30
0.0000000001127427
 40
1.0
100
AcDbArc
 50
90.0
 51
180.0
  0
LINE
  5
1AC17
330
18
100
AcDbEntity
  8
01
100
AcDbLine
 10
2194.114602147577
 20
-583.0352068431012
 30
0.0000000001127427
 11
2194.114602147577
 21
-600.1597506326448
 31
0.0000000001127427
  0
SPLINE
  5
1AC18
330
18
100
AcDbEntity
  8
01
100
AcDbSpline
210
0.0
220
0.0
230
1.0
 70
     8
 71
     3
 72
    14
 73
    10
 74
     0
 42
0.0000000001
 43
0.0000000001
 40
0.0
 40
0.0
 40
0.0
 40
0.0
 40
0.25
 40
0.25
 40
0.5
 40
0.5
 40
0.75
 40
0.75
 40
1.0
 40
1.0
 40
1.0
 40
1.0
 10
2193.114602147577
 20
-582.5662828037789
 30
0.0000000001127427
 10
2193.25456982533
 20
-582.5662828037789
 30
0.0000000001127427
 10
2193.392991099475
 20
-582.5759187590857
 30
0.0000000001127427
 10
2193.64304143943
 20
-582.6149996680272
 30
0.0000000001127427
 10
2193.755359002259
 20
-582.6448058029009
 30
0.0000000001127427
 10
2193.936406373346
 20
-582.7257255396848
 30
0.0000000001127427
 10
2194.00420700965
 20
-582.7761150758765
 30
0.0000000001127427
 10
2194.093825926193
 20
-582.8954846648912
 30
0.0000000001127427
 10
2194.114602147577
 20
-582.9622841156026
 30
0.0000000001127427
 10
2194.114602147577
 20
-583.0352068431012
 30
0.0000000001127427
  0
SPLINE
  5
1AC19
330
18
100
AcDbEntity
  8
01
100
AcDbSpline
210
0.0
220
0.0
230
1.0
 70
     8
 71
     3
 72
    14
 73
    10
 74
     0
 42
0.0000000001
 43
0.0000000001
 40
0.0
 40
0.0
 40
0.0
 40
0.0
 40
0.25
 40
0.25
 40
0.5
 40
0.5
 40
0.75
 40
0.75
 40
1.0
 40
1.0
 40
1.0
 40
1.0
 10
2194.114602147577
 20
-600.1597506326448
 30
0.0000000001127427
 10
2194.114602147577
 20
-600.2326673197792
 30
0.0000000001127427
 10
2194.093241740316
 20
-600.3004520156401
 30
0.0000000001127427
 10
2194.00410254864
 20
-600.4187788896038
 30
0.0000000001127427
 10
2193.935169918485
 20
-600.469891744372
 30
0.0000000001127427
 10
2193.755122478119
 20
-600.5501493365257
 30
0.0000000001127427
 10
2193.642416804624
 20
-600.5801121562322
 30
0.0000000001127427
 10
2193.391846191004
 20
-600.6191605317663
 30
0.0000000001127427
 10
2193.254460041687
 20
-600.6286746719672
 30
0.0000000001127427
 10
2193.114602147577
 20
-600.6286746719672
 30
0.0000000001127427
  0
LINE
  5
1AC1A
330
18
100
AcDbEntity
  8
01
100
AcDbLine
 10
2193.114602147577
 20
-600.6286746719672
 30
0.0000000001127427
 11
2180.614602147577
 21
-600.6286746719672
 31
0.0000000001127427
  0
LINE
  5
1AC1B
330
18
100
AcDbEntity
  8
01
100
AcDbLine
 10
2180.614602147577
 20
-582.5662828037789
 30
0.0000000001127427
 11
2193.114602147577
 21
-582.5662828037789
 31
0.0000000001127427
  0
SPLINE
  5
1AC1C
330
18
100
AcDbEntity
  8
01
100
AcDbSpline
210
0.0
220
0.0
230
1.0
 70
     8
 71
     3
 72
    14
 73
    10
 74
     0
 42
0.0000000001
 43
0.0000000001
 40
0.0
 40
0.0
 40
0.0
 40
0.0
 40
0.2500000000000001
 40
0.2500000000000001
 40
0.5000000000000002
 40
0.5000000000000002
 40
0.7500000000000003
 40
0.7500000000000003
 40
1.0
 40
1.0
 40
1.0
 40
1.0
 10
2180.614602147577
 20
-582.5662828037789
 30
0.0000000001127427
 10
2180.477393232649
 20
-582.5662828037789
 30
0.0000000001127427
 10
2180.342389687137
 20
-582.577657613874
 30
0.0000000001127427
 10
2180.095053228484
 20
-582.6206124811943
 30
0.0000000001127427
 10
2179.984551799119
 20
-582.6518568082988
 30
0.0000000001127427
 10
2179.802358125591
 20
-582.72904232569
 30
0.0000000001127427
 10
2179.733365023206
 20
-582.7733829409494
 30
0.0000000001127427
 10
2179.63859748472
 20
-582.8713645923276
 30
0.0000000001127427
 10
2179.614602147577
 20
-582.9238580153444
 30
0.0000000001127427
 10
2179.614602147577
 20
-582.9770089130898
 30
0.0000000001127427
  0
SPLINE
  5
1AC1D
330
18
100
AcDbEntity
  8
01
100
AcDbSpline
210
0.0
220
0.0
230
1.0
 70
     8
 71
     3
 72
    14
 73
    10
 74
     0
 42
0.0000000001
 43
0.0000000001
 40
0.0
 40
0.0
 40
0.0
 40
0.0
 40
0.2500000000000001
 40
0.2500000000000001
 40
0.5000000000000002
 40
0.5000000000000002
 40
0.7500000000000003
 40
0.7500000000000003
 40
1.0
 40
1.0
 40
1.0
 40
1.0
 10
2180.614602147577
 20
-600.6286746719672
 30
0.0000000001127427
 10
2180.477393232649
 20
-600.6286746719672
 30
0.0000000001127427
 10
2180.342389687137
 20
-600.617299861872
 30
0.0000000001127427
 10
2180.095053228484
 20
-600.5743449945517
 30
0.0000000001127427
 10
2179.984551799119
 20
-600.5431006674471
 30
0.0000000001127427
 10
2179.802358125591
 20
-600.4659151500559
 30
0.0000000001127427
 10
2179.733365023206
 20
-600.4215745347965
 30
0.0000000001127427
 10
2179.63859748472
 20
-600.3235928834183
 30
0.0000000001127427
 10
2179.614602147577
 20
-600.2710994604017
 30
0.0000000001127427
 10
2179.614602147577
 20
-600.2179485626564
 30
0.0000000001127427
  0
LINE
  5
1AC1E
330
18
100
AcDbEntity
  8
01
100
AcDbLine
 10
2179.614602147577
 20
-582.9770089130898
 30
0.0000000001127427
 11
2179.614602147577
 21
-600.2179485626564
 31
0.0000000001127427
  0
LINE
  5
1AC1F
330
18
100
AcDbEntity
  8
01
100
AcDbLine
 10
2179.614602147577
 20
-600.2179485626564
 30
0.0000000001127427
 11
2179.614602147577
 21
-600.347478737873
 31
0.0000000001127427
  0
LINE
  5
1AC20
330
18
100
AcDbEntity
  8
01
100
AcDbLine
 10
2372.114626702231
 20
-345.2974787388944
 30
0.0000000001127424
 11
2411.114626702231
 21
-345.2974787388941
 31
0.0000000001127424
  0
LINE
  5
1AC21
330
18
100
AcDbEntity
  8
01
100
AcDbLine
 10
2411.614626702231
 20
-351.5974787388943
 30
0.0000000001127424
 11
2371.614626702231
 21
-351.5974787388948
 31
0.0000000001127424
  0
LINE
  5
1AC22
330
18
100
AcDbEntity
  8
01
100
AcDbLine
 10
2411.614626702231
 20
-351.5974787388943
 30
0.0000000001127424
 11
2411.614626702231
 21
-345.7974787388941
 31
0.0000000001127424
  0
ARC
  5
1AC23
330
18
100
AcDbEntity
  8
01
100
AcDbCircle
 10
2411.114626702231
 20
-345.7974787388944
 30
0.0000000001127424
 40
0.5
100
AcDbArc
 50
0.0
 51
90.0
  0
LINE
  5
1AC24
330
18
100
AcDbEntity
  8
01
100
AcDbLine
 10
2371.614626702231
 20
-351.5974787388948
 30
0.0000000001127424
 11
2371.614626702231
 21
-345.7974787388944
 31
0.0000000001127424
  0
ARC
  5
1AC25
330
18
100
AcDbEntity
  8
01
100
AcDbCircle
 10
2372.114626702231
 20
-345.7974787388944
 30
0.0000000001127424
 40
0.5
100
AcDbArc
 50
90.0
 51
180.0
  0
LINE
  5
1AC26
330
18
100
AcDbEntity
  8
01
100
AcDbLine
 10
2388.114638923445
 20
-344.0974820720946
 30
0.0000000000565071
 11
2382.364638923439
 21
-344.0974820720935
 31
0.0000000000565071
  0
LINE
  5
1AC27
330
18
100
AcDbEntity
  8
01
100
AcDbLine
 10
2389.114638923446
 20
-330.597459127888
 30
0.0000000000565071
 11
2389.114638923445
 21
-343.0974820720946
 31
0.0000000000565071
  0
LINE
  5
1AC28
330
18
100
AcDbEntity
  8
01
100
AcDbLine
 10
2394.114638923446
 20
-330.5974591278898
 30
0.0000000000565071
 11
2394.114638923446
 21
-343.0974820720928
 31
0.0000000000565071
  0
ARC
  5
1AC29
330
18
100
AcDbEntity
  8
01
100
AcDbCircle
 10
2393.114638923447
 20
-330.597459127888
 30
0.0000000000565071
 40
1.0
100
AcDbArc
 50
0.0000000000521102
 51
90.0
  0
ARC
  5
1AC2A
330
18
100
AcDbEntity
  8
01
100
AcDbCircle
 10
2390.114638923447
 20
-330.597459127888
 30
0.0000000000565071
 40
1.0
100
AcDbArc
 50
90.0
 51
180.0
  0
LINE
  5
1AC2B
330
18
100
AcDbEntity
  8
01
100
AcDbLine
 10
2393.114638923446
 20
-329.5974591278862
 30
0.0000000000565071
 11
2390.114638923447
 21
-329.5974591278862
 31
0.0000000000565071
  0
LINE
  5
1AC2C
330
18
100
AcDbEntity
  8
01
100
AcDbLine
 10
2400.864638923438
 20
-344.0974820720928
 30
0.0000000000565071
 11
2395.114638923446
 21
-344.0974820720928
 31
0.0000000000565071
  0
ARC
  5
1AC2D
330
18
100
AcDbEntity
  8
01
100
AcDbCircle
 10
2395.114638923447
 20
-343.0974820720928
 30
0.0000000000565071
 40
1.0
100
AcDbArc
 50
180.0
 51
270.0
  0
ARC
  5
1AC2E
330
18
100
AcDbEntity
  8
01
100
AcDbCircle
 10
2388.114638923445
 20
-343.0974820720946
 30
0.0000000000565071
 40
1.0
100
AcDbArc
 50
270.0
 51
0.0
  0
LINE
  5
1AC2F
330
18
100
AcDbEntity
  8
01
100
AcDbLine
 10
2381.864638923438
 20
-344.5974820720933
 30
0.0000000001127646
 11
2381.864638923438
 21
-345.2974787388941
 31
0.0000000001127424
  0
ARC
  5
1AC30
330
18
100
AcDbEntity
  8
01
100
AcDbCircle
 10
2382.364638923439
 20
-344.5974820720933
 30
0.0000000001127646
 40
0.5
100
AcDbArc
 50
90.0
 51
180.0
  0
LINE
  5
1AC31
330
18
100
AcDbEntity
  8
01
100
AcDbLine
 10
2401.364638923438
 20
-344.5974820720933
 30
0.0000000001127646
 11
2401.364638923438
 21
-345.2974787388941
 31
0.0000000001127424
  0
ARC
  5
1AC32
330
18
100
AcDbEntity
  8
01
100
AcDbCircle
 10
2400.864638923438
 20
-344.5974820720933
 30
0.0000000001127646
 40
0.5
100
AcDbArc
 50
0.0
 51
90.0
  0
LINE
  5
1AC34
330
18
100
AcDbEntity
  8
01
100
AcDbLine
 10
2247.914626958589
 20
-605.5974738736759
 30
0.0000000000564849
 11
2247.914626958589
 21
-566.5974738736763
 31
0.0000000000564849
  0
LINE
  5
1AC35
330
18
100
AcDbEntity
  8
01
100
AcDbLine
 10
2241.614626958584
 20
-606.0974738736761
 30
0.0000000000564849
 11
2247.414626958589
 21
-606.0974738736759
 31
0.0000000000564849
  0
ARC
  5
1AC36
330
18
100
AcDbEntity
  8
01
100
AcDbCircle
 10
2247.414626958589
 20
-605.5974738736759
 30
0.0000000000564849
 40
0.5
100
AcDbArc
 50
270.0
 51
0.0
  0
LINE
  5
1AC37
330
18
100
AcDbEntity
  8
01
100
AcDbLine
 10
2241.614626958589
 20
-566.0974738736759
 30
0.0000000000564849
 11
2247.414626958589
 21
-566.0974738736763
 31
0.0000000000564849
  0
ARC
  5
1AC38
330
18
100
AcDbEntity
  8
01
100
AcDbCircle
 10
2247.414626958589
 20
-566.5974738736763
 30
0.0000000000564849
 40
0.5
100
AcDbArc
 50
0.0
 51
90.0
  0
LINE
  5
1AC39
330
18
100
AcDbEntity
  8
01
100
AcDbLine
 10
2248.656610647549
 20
-588.0974774169274
 30
0.0000000001127388
 11
2247.914626958588
 21
-588.0974774169276
 31
0.0000000001127388
  0
LINE
  5
1AC3A
330
18
100
AcDbEntity
  8
01
100
AcDbLine
 10
2248.656610647549
 20
-595.0974774169274
 30
0.0000000001127388
 11
2247.914626958588
 21
-595.0974774169274
 31
0.0000000001127388
  0
ARC
  5
1AC3B
330
18
100
AcDbEntity
  8
01
100
AcDbCircle
 10
2243.783210647549
 20
-591.5974774169274
 30
0.0000000001127388
 40
6.0
100
AcDbArc
 50
324.3146699999973
 51
35.68533471265765
  0
CIRCLE
  5
1AC59
330
18
100
AcDbEntity
  8
1HIDDEN
100
AcDbCircle
 10
2391.614510618842
 20
-591.5974787378659
 30
0.0000000001127424
 40
4.75
  0
LINE
  5
1ACAB
330
18
100
AcDbEntity
  8
01
100
AcDbLine
 10
2402.926398886383
 20
-591.5974787378659
 30
0.0000000001127424
 11
2380.3026223513
 21
-591.5974787378659
 31
0.0000000001127424
  0
LINE
  5
1ACAC
330
18
100
AcDbEntity
  8
01
100
AcDbLine
 10
2391.614510618842
 20
-580.2855904703242
 30
0.0000000001127424
 11
2391.614510618842
 21
-602.9093670054076
 31
0.0000000001127424
  0
LINE
  5
1ACBC
330
18
100
AcDbEntity
  8
01
  6
BYBLOCK
100
AcDbLine
 10
2409.614510618842
 20
-594.8153597702876
 30
0.0000000001128561
 11
2409.614510618842
 21
-624.2481271649688
 31
0.0000000001127424
  0
LINE
  5
1ACBD
330
18
100
AcDbEntity
  8
01
  6
BYBLOCK
100
AcDbLine
 10
2343.314510618842
 20
-583.5974787378659
 30
0.0000000001127424
 11
2371.771407540859
 21
-583.5974787378659
 31
0.0000000001128561
  0
ARC
  5
1ACBE
330
18
100
AcDbEntity
  8
1HIDDEN
100
AcDbCircle
 10
2408.614510618842
 20
-584.5974787378659
 30
0.0000000001127424
 40
1.0
100
AcDbArc
 50
0.0
 51
90.0
  0
LINE
  5
1ACBF
330
18
100
AcDbEntity
  8
1HIDDEN
100
AcDbLine
 10
2371.771407540859
 20
-583.5974787378659
 30
0.0000000001128561
 11
2408.614510618842
 21
-583.5974787378659
 31
0.0000000001127424
  0
LINE
  5
1ACC0
330
18
100
AcDbEntity
  8
1HIDDEN
100
AcDbLine
 10
2409.614510618842
 20
-584.5974787378659
 30
0.0000000001127424
 11
2409.614510618842
 21
-594.8153597702876
 31
0.0000000001128561
  0
LINE
  5
1ACDA
330
18
100
AcDbEntity
  8
01
  6
BYBLOCK
100
AcDbLine
 10
2033.614510618845
 20
-594.8153597702876
 30
0.0000000001128561
 11
2033.614510618845
 21
-624.2481271649688
 31
0.0000000001127424
  0
LINE
  5
1ACDB
330
18
100
AcDbEntity
  8
01
  6
BYBLOCK
100
AcDbLine
 10
2099.914510618844
 20
-583.5974787378659
 30
0.0000000001127424
 11
2071.457613696827
 21
-583.5974787378659
 31
0.0000000001128561
  0
LINE
  5
1B3C8
330
18
100
AcDbEntity
  8
01
100
AcDbLine
 10
2335.614510618842
 20
-563.5974787378659
 30
0.0000000001127424
 11
2349.614510618842
 21
-563.5974787378659
 31
0.0000000001127424
  0
LINE
  5
1B3C9
330
18
100
AcDbEntity
  8
01
100
AcDbLine
 10
2340.615394800902
 20
-351.5974787388946
 30
0.0000000001127424
 11
2494.369774955935
 21
-351.5974787388946
 31
0.0000000001127424
  0
LINE
  5
1B3CA
330
18
100
AcDbEntity
  8
01
  6
BYBLOCK
100
AcDbLine
 10
2340.615394800902
 20
-351.5974787388946
 30
0.0000000001127424
 11
2340.615394800902
 21
-391.5974787388946
 31
0.0000000001127424
  0
LINE
  5
1B3CE
330
18
100
AcDbEntity
  8
01
  6
BYBLOCK
100
AcDbLine
 10
2342.114510618842
 20
-555.6974787378658
 30
0.0000000001127424
 11
2342.114510618842
 21
-685.4974787378658
 31
0.0000000001127424
  0
LINE
  5
1B3CF
330
18
100
AcDbEntity
  8
01
  6
BYBLOCK
100
AcDbLine
 10
2342.114510618842
 20
-684.5974787378659
 30
0.0000000001127424
 11
2344.614510618842
 21
-684.5974787378659
 31
0.0000000001127424
  0
LINE
  5
1B3D0
330
18
100
AcDbEntity
  8
01
  6
BYBLOCK
100
AcDbLine
 10
2344.614510618842
 20
-684.5974787378659
 30
0.0000000001127424
 11
2344.614510618842
 21
-668.0945350127135
 31
0.0000000001127424
  0
LINE
  5
1B3D1
330
18
100
AcDbEntity
  8
01
  6
BYBLOCK
100
AcDbLine
 10
2340.614510618842
 20
-555.6974787378658
 30
0.0000000001127424
 11
2340.614510618842
 21
-685.4974787378658
 31
0.0000000001127424
  0
LINE
  5
1B3D2
330
18
100
AcDbEntity
  8
01
  6
BYBLOCK
100
AcDbLine
 10
2340.614510618842
 20
-685.4974787378658
 30
0.0000000001127424
 11
2342.114510618842
 21
-685.4974787378658
 31
0.0000000001127424
  0
LINE
  5
1B3D3
330
18
100
AcDbEntity
  8
01
  6
BYBLOCK
100
AcDbLine
 10
2342.114510618842
 20
-556.5974787378659
 30
0.0000000001127424
 11
2344.614510618842
 21
-556.5974787378659
 31
0.0000000001127424
  0
LINE
  5
1B3D4
330
18
100
AcDbEntity
  8
01
  6
BYBLOCK
100
AcDbLine
 10
2340.614510618842
 20
-555.6974787378658
 30
0.0000000001127424
 11
2342.114510618842
 21
-555.6974787378658
 31
0.0000000001127424
  0
LINE
  5
1B3D5
330
18
100
AcDbEntity
  8
01
  6
BYBLOCK
100
AcDbLine
 10
2342.114510618842
 20
-580.5974787378659
 30
0.0000000001127424
 11
2343.314510618842
 21
-580.5974787378659
 31
0.0000000001127424
  0
LINE
  5
1B3D6
330
18
100
AcDbEntity
  8
01
  6
BYBLOCK
100
AcDbLine
 10
2343.314510618842
 20
-574.8974787378656
 30
0.0000000001127424
 11
2343.314510618842
 21
-666.2974787378657
 31
0.0000000001127424
  0
LINE
  5
1B3D7
330
18
100
AcDbEntity
  8
01
  6
BYBLOCK
100
AcDbLine
 10
2343.414510618843
 20
-684.5974787378659
 30
0.0000000001127424
 11
2343.414510618843
 21
-667.9974787378658
 31
0.0000000001127424
  0
LINE
  5
1B3D8
330
18
100
AcDbEntity
  8
01
  6
BYBLOCK
100
AcDbLine
 10
2343.414510618843
 20
-667.9974787378658
 30
0.0000000001127424
 11
2342.465982481418
 21
-667.0489506004419
 31
0.0000000001127424
  0
LINE
  5
1B3D9
330
18
100
AcDbEntity
  8
01
  6
BYBLOCK
100
AcDbLine
 10
2344.263038756266
 20
-667.2460068752896
 30
0.0000000001127424
 11
2343.314510618842
 21
-666.2974787378657
 31
0.0000000001127424
  0
ARC
  5
1B3DA
330
18
100
AcDbEntity
  8
01
  6
BYBLOCK
100
AcDbCircle
 10
2343.414510618843
 20
-668.0945350127135
 30
0.0000000001127424
 40
1.2
100
AcDbArc
 50
0.0
 51
45.00000000003838
  0
ARC
  5
1B3DB
330
18
100
AcDbEntity
  8
01
  6
BYBLOCK
100
AcDbCircle
 10
2343.314510618842
 20
-666.200422463018
 30
0.0000000001127424
 40
1.2
100
AcDbArc
 50
180.0
 51
225.0000000000384
  0
LINE
  5
1B3DC
330
18
100
AcDbEntity
  8
01
  6
BYBLOCK
100
AcDbLine
 10
2344.614510618842
 20
-556.5974787378659
 30
0.0000000001127424
 11
2344.614510618842
 21
-573.100422463018
 31
0.0000000001127424
  0
LINE
  5
1B3DD
330
18
100
AcDbEntity
  8
01
  6
BYBLOCK
100
AcDbLine
 10
2343.414510618843
 20
-556.5974787378659
 30
0.0000000001127424
 11
2343.414510618843
 21
-573.1974787378658
 31
0.0000000001127424
  0
LINE
  5
1B3DE
330
18
100
AcDbEntity
  8
01
  6
BYBLOCK
100
AcDbLine
 10
2343.414510618843
 20
-573.1974787378658
 30
0.0000000001127424
 11
2342.465982481418
 21
-574.1460068752897
 31
0.0000000001127424
  0
LINE
  5
1B3DF
330
18
100
AcDbEntity
  8
01
  6
BYBLOCK
100
AcDbLine
 10
2344.263038756266
 20
-573.948950600442
 30
0.0000000001127424
 11
2343.314510618842
 21
-574.8974787378659
 31
0.0000000001127424
  0
ARC
  5
1B3E0
330
18
100
AcDbEntity
  8
01
  6
BYBLOCK
100
AcDbCircle
 10
2343.414510618843
 20
-573.100422463018
 30
0.0000000001127424
 40
1.2
100
AcDbArc
 50
314.9999999999616
 51
0.0
  0
ARC
  5
1B3E1
330
18
100
AcDbEntity
  8
01
  6
BYBLOCK
100
AcDbCircle
 10
2343.314510618842
 20
-574.9945350127136
 30
0.0000000001127424
 40
1.2
100
AcDbArc
 50
134.9999999999616
 51
180.0
  0
LINE
  5
1B3E3
330
18
100
AcDbEntity
  8
01
  6
BYBLOCK
100
AcDbLine
 10
2343.314510618842
 20
-657.5974787378661
 30
0.0000000001127424
 11
2372.405137906543
 21
-657.5974787378659
 31
0.0000000001127424
  0
ARC
  5
1B3E4
330
18
100
AcDbEntity
  8
01
  6
BYBLOCK
100
AcDbCircle
 10
2343.715394800903
 20
-368.0362281958946
 30
0.0000000001127424
 40
1.6
100
AcDbArc
 50
115.9444797720007
 51
180.0
  0
ARC
  5
1B3E5
330
18
100
AcDbEntity
  8
01
  6
BYBLOCK
100
AcDbCircle
 10
2343.715394800903
 20
-375.1587292818945
 30
0.0000000001127424
 40
1.6
100
AcDbArc
 50
180.0
 51
244.0555202279993
  0
ARC
  5
1B3E6
330
18
100
AcDbEntity
  8
01
  6
BYBLOCK
100
AcDbCircle
 10
2343.015394800902
 20
-376.4362281958945
 30
0.0000000001127424
 40
1.6
100
AcDbArc
 50
0.0
 51
64.05552022799934
  0
ARC
  5
1B3E7
330
18
100
AcDbEntity
  8
01
  6
BYBLOCK
100
AcDbCircle
 10
2343.015394800902
 20
-366.7587292818946
 30
0.0000000001127424
 40
1.6
100
AcDbArc
 50
295.9444797720006
 51
0.0
  0
LINE
  5
1B3E8
330
18
100
AcDbEntity
  8
01
  6
BYBLOCK
100
AcDbLine
 10
2344.615394800902
 20
-366.7587292818946
 30
0.0000000001127424
 11
2344.615394800902
 21
-359.3974787388945
 31
0.0000000001127424
  0
LINE
  5
1B3E9
330
18
100
AcDbEntity
  8
01
  6
BYBLOCK
100
AcDbLine
 10
2343.715394800903
 20
-374.9974787388946
 30
0.0000000001127424
 11
2343.715394800903
 21
-368.1974787388945
 31
0.0000000001127424
  0
LINE
  5
1B3EA
330
18
100
AcDbEntity
  8
01
  6
BYBLOCK
100
AcDbLine
 10
2344.615394800902
 20
-383.5974787388946
 30
0.0000000001127424
 11
2344.615394800902
 21
-376.4362281958945
 31
0.0000000001127424
  0
LINE
  5
1B3EB
330
18
100
AcDbEntity
  8
01
  6
BYBLOCK
100
AcDbLine
 10
2343.015394800902
 20
-366.5974787388946
 30
0.0000000001127424
 11
2343.015394800903
 21
-359.3974787388945
 31
0.0000000001127424
  0
LINE
  5
1B3EC
330
18
100
AcDbEntity
  8
01
  6
BYBLOCK
100
AcDbLine
 10
2343.015394800902
 20
-376.5974787388946
 30
0.0000000001127424
 11
2343.015394800902
 21
-383.6974787388945
 31
0.0000000001127424
  0
ARC
  5
1B3ED
330
18
100
AcDbEntity
  8
01
  6
BYBLOCK
100
AcDbCircle
 10
2408.015394800902
 20
-363.6974787388945
 30
0.0000000001127424
 40
1.6
100
AcDbArc
 50
0.0
 51
90.0
  0
LINE
  5
1B3EE
330
18
100
AcDbEntity
  8
01
  6
BYBLOCK
100
AcDbLine
 10
2342.115394800902
 20
-359.1974787388945
 30
0.0000000001127424
 11
2342.115394800902
 21
-383.9974787388944
 31
0.0000000001127424
  0
LINE
  5
1B3EF
330
18
100
AcDbEntity
  8
01
  6
BYBLOCK
100
AcDbLine
 10
2408.015394800902
 20
-362.0974787388946
 30
0.0000000001127424
 11
2344.615394800902
 21
-362.0974787388946
 31
0.0000000001127424
  0
LINE
  5
1B3F0
330
18
100
AcDbEntity
  8
01
  6
BYBLOCK
100
AcDbLine
 10
2408.015394800902
 20
-379.2974787388946
 30
0.0000000001127424
 11
2408.015394800902
 21
-362.0974787388946
 31
0.0000000001127424
  0
LINE
  5
1B3F1
330
18
100
AcDbEntity
  8
01
  6
BYBLOCK
100
AcDbLine
 10
2409.615394800902
 20
-380.8974787388945
 30
0.0000000001127424
 11
2409.615394800902
 21
-363.6974787388945
 31
0.0000000001127424
  0
LINE
  5
1B3F2
330
18
100
AcDbEntity
  8
01
  6
BYBLOCK
100
AcDbLine
 10
2342.115394800902
 20
-359.3974787388945
 30
0.0000000001127424
 11
2344.615394800902
 21
-359.3974787388945
 31
0.0000000001127424
  0
LINE
  5
1B3F3
330
18
100
AcDbEntity
  8
01
  6
BYBLOCK
100
AcDbLine
 10
2344.615394800902
 20
-383.5974787388946
 30
0.0000000001127424
 11
2343.015394800902
 21
-383.5974787388946
 31
0.0000000001127424
  0
LINE
  5
1B3F4
330
18
100
AcDbEntity
  8
01
  6
BYBLOCK
100
AcDbLine
 10
2343.015394800902
 20
-383.6974787388945
 30
0.0000000001127424
 11
2342.115394800902
 21
-383.6974787388945
 31
0.0000000001127424
  0
ARC
  5
1B3F5
330
18
100
AcDbEntity
  8
01
  6
BYBLOCK
100
AcDbCircle
 10
2339.315989728301
 20
-377.2974787388939
 30
0.0000000001127424
 40
0.3000000000000051
100
AcDbArc
 50
232.8678058729198
 51
270.0
  0
LINE
  5
1B3F6
330
18
100
AcDbEntity
  8
01
  6
BYBLOCK
100
AcDbLine
 10
2340.115394800902
 20
-377.5974787388939
 30
0.0000000001127424
 11
2339.315989728301
 21
-377.5974787388939
 31
0.0000000001127424
  0
LINE
  5
1B3F7
330
18
100
AcDbEntity
  8
01
  6
BYBLOCK
100
AcDbLine
 10
2329.715394800903
 20
-367.9244898726897
 30
0.0000000001127424
 11
2329.715394800903
 21
-368.0951119282388
 31
0.0000000001127424
  0
ARC
  5
1B3F8
330
18
100
AcDbEntity
  8
01
  6
BYBLOCK
100
AcDbCircle
 10
2330.015394800902
 20
-368.0951119282388
 30
0.0000000001127424
 40
0.3
100
AcDbArc
 50
180.0
 51
217.7405295629754
  0
ARC
  5
1B3F9
330
18
100
AcDbEntity
  8
01
  6
BYBLOCK
100
AcDbCircle
 10
2369.317695400186
 20
-337.674408984298
 30
0.0000000001127424
 40
50.00000000000002
100
AcDbArc
 50
217.7405295629802
 51
232.8678058729729
  0
LINE
  5
1B3FA
330
18
100
AcDbEntity
  8
01
  6
BYBLOCK
100
AcDbLine
 10
2329.515394800902
 20
-366.7974787388944
 30
0.0000000001127424
 11
2329.515394800902
 21
-366.0974787388946
 31
0.0000000001127424
  0
ARC
  5
1B3FB
330
18
100
AcDbEntity
  8
01
  6
BYBLOCK
100
AcDbCircle
 10
2330.015394800902
 20
-366.0974787388946
 30
0.0000000001127424
 40
0.5000000000000142
100
AcDbArc
 50
90.0
 51
180.0
  0
LINE
  5
1B3FC
330
18
100
AcDbEntity
  8
01
  6
BYBLOCK
100
AcDbLine
 10
2340.115394800902
 20
-365.5974787388946
 30
0.0000000001127424
 11
2330.015394800902
 21
-365.5974787388946
 31
0.0000000001127424
  0
LINE
  5
1B3FD
330
18
100
AcDbEntity
  8
01
  6
BYBLOCK
100
AcDbLine
 10
2329.515394800902
 20
-367.1761583953348
 30
0.0000000001127424
 11
2329.515394800902
 21
-366.7974787388944
 31
0.0000000001127424
  0
SPLINE
  5
1B3FE
330
18
100
AcDbEntity
  8
01
  6
BYBLOCK
100
AcDbSpline
210
0.0
220
0.0
230
1.0
 70
     8
 71
     3
 72
     8
 73
     4
 74
     0
 42
0.0000000001
 43
0.0000000001
 40
0.0
 40
0.0
 40
0.0
 40
0.0
 40
1.0
 40
1.0
 40
1.0
 40
1.0
 10
2329.541127342167
 20
-367.4528088247839
 30
0.0000000001127424
 10
2329.523659456056
 20
-367.3597226289035
 30
0.0000000001127424
 10
2329.515394800902
 20
-367.2664566180119
 30
0.0000000001127424
 10
2329.515394800902
 20
-367.1761583953344
 30
0.0000000001127424
  0
ARC
  5
1B3FF
330
18
100
AcDbEntity
  8
01
  6
BYBLOCK
100
AcDbCircle
 10
2331.015394800902
 20
-367.1761583953348
 30
0.0000000001127424
 40
1.499999999999998
100
AcDbArc
 50
190.628112987605
 51
225.0000000000384
  0
LINE
  5
1B400
330
18
100
AcDbEntity
  8
01
  6
BYBLOCK
100
AcDbLine
 10
2340.615394800902
 20
-364.7474787388944
 30
0.0000000001127424
 11
2340.115394800902
 21
-364.7474787388944
 31
0.0000000001127424
  0
LINE
  5
1B401
330
18
100
AcDbEntity
  8
01
  6
BYBLOCK
100
AcDbLine
 10
2340.115394800902
 20
-378.4474787388945
 30
0.0000000001127424
 11
2340.615394800902
 21
-378.4474787388945
 31
0.0000000001127424
  0
LINE
  5
1B402
330
18
100
AcDbEntity
  8
01
  6
BYBLOCK
100
AcDbLine
 10
2340.115394800902
 20
-378.4474787388945
 30
0.0000000001127424
 11
2340.115394800902
 21
-364.7474787388944
 31
0.0000000001127424
  0
LINE
  5
1B403
330
18
100
AcDbEntity
  8
01
  6
BYBLOCK
100
AcDbLine
 10
2340.615394800902
 20
-359.1974787388945
 30
0.0000000001127424
 11
2342.115394800902
 21
-359.1974787388945
 31
0.0000000001127424
  0
LINE
  5
1B404
330
18
100
AcDbEntity
  8
01
  6
BYBLOCK
100
AcDbLine
 10
2340.615394800902
 20
-383.9974787388944
 30
0.0000000001127424
 11
2342.115394800902
 21
-383.9974787388944
 31
0.0000000001127424
  0
LINE
  5
1B405
330
18
100
AcDbEntity
  8
01
  6
BYBLOCK
100
AcDbLine
 10
2340.615394800902
 20
-383.9974787388944
 30
0.0000000001127424
 11
2340.615394800902
 21
-359.1974787388945
 31
0.0000000001127424
  0
LINE
  5
1B406
330
18
100
AcDbEntity
  8
01
  6
BYBLOCK
100
AcDbLine
 10
2409.615394800902
 20
-379.2974787388946
 30
0.0000000001127424
 11
2344.615394800902
 21
-379.2974787388946
 31
0.0000000001127424
  0
LINE
  5
1B407
330
18
100
AcDbEntity
  8
01
  6
BYBLOCK
100
AcDbLine
 10
2409.615394800902
 20
-380.8974787388945
 30
0.0000000001127424
 11
2359.215394800903
 21
-380.8974787388945
 31
0.0000000001127424
  0
LINE
  5
1B408
330
18
100
AcDbEntity
  8
01
  6
BYBLOCK
100
AcDbLine
 10
2362.052653101106
 20
-380.8974787388945
 30
0.0000000001127424
 11
2344.615394800902
 21
-380.8974787388945
 31
0.0000000001127424
  0
LINE
  5
1B409
330
18
100
AcDbEntity
  8
01
  6
BYBLOCK
100
AcDbLine
 10
2339.168948191495
 20
-377.4510321294879
 30
0.0000000001127424
 11
2329.954734629122
 21
-368.2368185671148
 31
0.0000000001127424
  0
ARC
  5
1B40A
330
18
100
AcDbEntity
  8
01
  6
BYBLOCK
100
AcDbCircle
 10
2339.522501582089
 20
-377.0974787388946
 30
0.0000000001127424
 40
0.5
100
AcDbArc
 50
224.9999999999908
 51
270.0
  0
LINE
  5
1B40B
330
18
100
AcDbEntity
  8
01
  6
BYBLOCK
100
AcDbLine
 10
2340.115394800902
 20
-377.5974787388946
 30
0.0000000001127424
 11
2339.522501582089
 21
-377.5974787388946
 31
0.0000000001127424
  0
LINE
  5
1B411
330
18
100
AcDbEntity
  8
01
  6
BYBLOCK
100
AcDbLine
 10
2329.614510618842
 20
-610.5658084708498
 30
0.0000000001127424
 11
2329.614510618842
 21
-628.6291490048557
 31
0.0000000001127424
  0
LINE
  5
1B412
330
18
100
AcDbEntity
  8
01
  6
BYBLOCK
100
AcDbLine
 10
2333.907403837656
 20
-609.5974787378527
 30
0.0000000001127424
 11
2340.614510618842
 21
-609.5974787378527
 31
0.0000000001127424
  0
LINE
  5
1B413
330
18
100
AcDbEntity
  8
01
  6
BYBLOCK
100
AcDbLine
 10
2333.907403837656
 20
-629.5974787378527
 30
0.0000000001127424
 11
2340.614510618842
 21
-629.5974787378527
 31
0.0000000001127424
  0
LINE
  5
1B414
330
18
100
AcDbEntity
  8
01
  6
BYBLOCK
100
AcDbLine
 10
2339.407403837657
 20
-614.3474787378527
 30
0.0000000001127424
 11
2339.407403837656
 21
-624.8474787378527
 31
0.0000000001127424
  0
ARC
  5
1B415
330
18
100
AcDbEntity
  8
01
  6
BYBLOCK
100
AcDbCircle
 10
2333.907403837656
 20
-619.5974787378527
 30
0.0000000001127424
 40
10.00000000000009
100
AcDbArc
 50
53.13010235414986
 51
115.4224671781178
  0
ARC
  5
1B416
330
18
100
AcDbEntity
  8
01
  6
BYBLOCK
100
AcDbCircle
 10
2333.907403837656
 20
-619.5974787378525
 30
0.0000000001127424
 40
10.00000000000009
100
AcDbArc
 50
244.5775328218822
 51
306.8698976458437
  0
LINE
  5
1B417
330
18
100
AcDbEntity
  8
01
  6
BYBLOCK
100
AcDbLine
 10
2339.907403837657
 20
-611.5974787378527
 30
0.0000000001127424
 11
2339.907403837657
 21
-627.5974787378527
 31
0.0000000001127424
  0
LINE
  5
1B418
330
18
100
AcDbEntity
  8
01
  6
BYBLOCK
100
AcDbLine
 10
2329.614510618842
 20
-614.3474787378527
 30
0.0000000001127424
 11
2339.407403837657
 21
-614.3474787378527
 31
0.0000000001127424
  0
LINE
  5
1B419
330
18
100
AcDbEntity
  8
01
  6
BYBLOCK
100
AcDbLine
 10
2329.614510618842
 20
-624.8474787378527
 30
0.0000000001127424
 11
2339.407403837657
 21
-624.8474787378527
 31
0.0000000001127424
  0
LINE
  5
1B41A
330
18
100
AcDbEntity
  8
01
  6
BYBLOCK
100
AcDbLine
 10
2215.214626958587
 20
-555.6974787378665
 30
0.0000000001127424
 11
2228.014626958587
 21
-555.6974787378665
 31
0.0000000001127424
  0
LINE
  5
1B41B
330
18
100
AcDbEntity
  8
01
  6
BYBLOCK
100
AcDbLine
 10
2215.214626958587
 20
-685.4974787378665
 30
0.0000000001127424
 11
2228.014626958587
 21
-685.4974787378665
 31
0.0000000001127424
  0
LINE
  5
1B41C
330
18
100
AcDbEntity
  8
01
  6
BYBLOCK
100
AcDbLine
 10
2209.214626958587
 20
-561.6974787378665
 30
0.0000000001127424
 11
2209.214626958587
 21
-679.4974787378665
 31
0.0000000001127424
  0
LINE
  5
1B41D
330
18
100
AcDbEntity
  8
01
  6
BYBLOCK
100
AcDbLine
 10
2234.014626958587
 20
-561.6974787378665
 30
0.0000000001127424
 11
2234.014626958587
 21
-679.4974787378665
 31
0.0000000001127424
  0
ARC
  5
1B41E
330
18
100
AcDbEntity
  8
01
  6
BYBLOCK
100
AcDbCircle
 10
2215.214626958587
 20
-679.4974787378665
 30
0.0000000001127424
 40
6.0
100
AcDbArc
 50
180.0
 51
270.0
  0
ARC
  5
1B41F
330
18
100
AcDbEntity
  8
01
  6
BYBLOCK
100
AcDbCircle
 10
2228.014626958587
 20
-679.4974787378665
 30
0.0000000001127424
 40
6.0
100
AcDbArc
 50
270.0
 51
0.0
  0
ARC
  5
1B420
330
18
100
AcDbEntity
  8
01
  6
BYBLOCK
100
AcDbCircle
 10
2215.214626958587
 20
-561.6974787378665
 30
0.0000000001127424
 40
6.0
100
AcDbArc
 50
90.0
 51
180.0
  0
ARC
  5
1B421
330
18
100
AcDbEntity
  8
01
  6
BYBLOCK
100
AcDbCircle
 10
2228.014626958587
 20
-561.6974787378665
 30
0.0000000001127424
 40
6.0
100
AcDbArc
 50
0.0
 51
90.0
  0
CIRCLE
  5
1B422
330
18
100
AcDbEntity
  8
01
  6
BYBLOCK
100
AcDbCircle
 10
2221.614626958587
 20
-677.5974787378664
 30
0.0000000001127424
 40
2.75
  0
CIRCLE
  5
1B423
330
18
100
AcDbEntity
  8
01
  6
BYBLOCK
100
AcDbCircle
 10
2221.614626958587
 20
-677.5974787378664
 30
0.0000000001127424
 40
4.25
  0
CIRCLE
  5
1B424
330
18
100
AcDbEntity
  8
01
  6
BYBLOCK
100
AcDbCircle
 10
2221.614626958587
 20
-563.5974787378666
 30
0.0000000001127424
 40
2.75
  0
CIRCLE
  5
1B425
330
18
100
AcDbEntity
  8
01
  6
BYBLOCK
100
AcDbCircle
 10
2221.614626958587
 20
-563.5974787378666
 30
0.0000000001127424
 40
4.25
  0
LINE
  5
1B426
330
18
100
AcDbEntity
  8
1CENTER
100
AcDbLine
 10
2227.489652366493
 20
-677.5974787378666
 30
0.0000000001127424
 11
2215.739601550681
 21
-677.5974787378666
 31
0.0000000001127424
  0
LINE
  5
1B427
330
18
100
AcDbEntity
  8
1CENTER
100
AcDbLine
 10
2221.614626958587
 20
-671.7224533299602
 30
0.0000000001127424
 11
2221.614626958587
 21
-683.4725041457727
 31
0.0000000001127424
  0
LINE
  5
1B428
330
18
100
AcDbEntity
  8
1CENTER
100
AcDbLine
 10
2227.489652366493
 20
-563.5974787378666
 30
0.0000000001127424
 11
2215.739601550681
 21
-563.5974787378666
 31
0.0000000001127424
  0
LINE
  5
1B429
330
18
100
AcDbEntity
  8
1CENTER
100
AcDbLine
 10
2221.614626958587
 20
-557.7224533299602
 30
0.0000000001127424
 11
2221.614626958587
 21
-569.4725041457727
 31
0.0000000001127424
  0
ARC
  5
1B42A
330
18
100
AcDbEntity
  8
01
  6
BYBLOCK
100
AcDbCircle
 10
2221.614626958587
 20
-619.5974787378664
 30
0.0000000001127424
 40
10.15
100
AcDbArc
 50
231.9925780701365
 51
308.0074219298635
  0
LINE
  5
1B42B
330
18
100
AcDbEntity
  8
01
  6
BYBLOCK
100
AcDbLine
 10
2215.364626958587
 20
-611.5999791286135
 30
0.0000000001127424
 11
2215.364626958587
 21
-627.5949783471192
 31
0.0000000001127424
  0
LINE
  5
1B42C
330
18
100
AcDbEntity
  8
01
  6
BYBLOCK
100
AcDbLine
 10
2227.864626958587
 20
-611.5999791286135
 30
0.0000000001127424
 11
2227.864626958587
 21
-627.5949783471192
 31
0.0000000001127424
  0
ARC
  5
1B42D
330
18
100
AcDbEntity
  8
01
  6
BYBLOCK
100
AcDbCircle
 10
2221.614626958587
 20
-619.5974787378664
 30
0.0000000001127424
 40
10.15
100
AcDbArc
 50
51.9925780701429
 51
128.0074219298571
  0
LINE
  5
1B42E
330
18
100
AcDbEntity
  8
01
  6
BYBLOCK
100
AcDbLine
 10
2217.114626958587
 20
-614.3474787378664
 30
0.0000000001127424
 11
2217.114626958587
 21
-624.8474787378664
 31
0.0000000001127424
  0
LINE
  5
1B42F
330
18
100
AcDbEntity
  8
01
  6
BYBLOCK
100
AcDbLine
 10
2227.114626958587
 20
-614.3474787378664
 30
0.0000000001127424
 11
2227.114626958587
 21
-624.8474787378664
 31
0.0000000001127424
  0
LINE
  5
1B430
330
18
100
AcDbEntity
  8
01
  6
BYBLOCK
100
AcDbLine
 10
2217.614626958587
 20
-610.268893636148
 30
0.0000000001127424
 11
2217.614626958587
 21
-614.3474787378666
 31
0.0000000001127424
  0
LINE
  5
1B431
330
18
100
AcDbEntity
  8
01
  6
BYBLOCK
100
AcDbLine
 10
2216.114626958587
 20
-614.3474787378666
 30
0.0000000001127424
 11
2216.114626958587
 21
-624.8474787378664
 31
0.0000000001127424
  0
LINE
  5
1B432
330
18
100
AcDbEntity
  8
01
  6
BYBLOCK
100
AcDbLine
 10
2217.614626958587
 20
-624.8474787378664
 30
0.0000000001127424
 11
2217.614626958587
 21
-628.9260638395847
 31
0.0000000001127424
  0
LINE
  5
1B433
330
18
100
AcDbEntity
  8
01
  6
BYBLOCK
100
AcDbLine
 10
2216.114626958587
 20
-614.3474787378664
 30
0.0000000001127424
 11
2227.114626958587
 21
-614.3474787378664
 31
0.0000000001127424
  0
LINE
  5
1B434
330
18
100
AcDbEntity
  8
01
  6
BYBLOCK
100
AcDbLine
 10
2216.114626958587
 20
-624.8474787378664
 30
0.0000000001127424
 11
2227.114626958587
 21
-624.8474787378664
 31
0.0000000001127424
  0
LINE
  5
1B436
330
18
100
AcDbEntity
  8
01
100
AcDbLine
 10
2201.61474329833
 20
-521.5974787378661
 30
0.0000000001127424
 11
2201.61474329833
 21
-711.5974787378664
 31
0.0000000001127424
  0
LINE
  5
1B437
330
18
100
AcDbEntity
  8
01
100
AcDbLine
 10
2335.61451061913
 20
-677.5974787375771
 30
0.0000000001127424
 11
2349.61451061913
 21
-677.5974787375771
 31
0.0000000001127424
  0
LINE
  5
1B43A
330
18
100
AcDbEntity
  8
01
  6
BYBLOCK
100
AcDbLine
 10
2113.614743298333
 20
-610.5658084708498
 30
0.0000000001127424
 11
2113.614743298333
 21
-628.6291490048557
 31
0.0000000001127424
  0
LINE
  5
1B43B
330
18
100
AcDbEntity
  8
01
  6
BYBLOCK
100
AcDbLine
 10
2109.32185007952
 20
-609.5974787378527
 30
0.0000000001127424
 11
2102.614743298333
 21
-609.5974787378527
 31
0.0000000001127424
  0
LINE
  5
1B43C
330
18
100
AcDbEntity
  8
01
  6
BYBLOCK
100
AcDbLine
 10
2109.32185007952
 20
-629.5974787378527
 30
0.0000000001127424
 11
2102.614743298333
 21
-629.5974787378527
 31
0.0000000001127424
  0
ARC
  5
1B43D
330
18
100
AcDbEntity
  8
01
  6
BYBLOCK
100
AcDbCircle
 10
2109.32185007952
 20
-619.5974787378527
 30
0.0000000001127424
 40
10.00000000000009
100
AcDbArc
 50
64.57753282188216
 51
90.0
  0
LINE
  5
1B43E
330
18
100
AcDbEntity
  8
01
  6
CONTINUOUS
100
AcDbLine
 10
2113.114743298333
 20
-627.9122729306835
 30
0.0000000001127424
 11
2102.614743298333
 21
-627.9122729306835
 31
0.0000000001127424
  0
ARC
  5
1B43F
330
18
100
AcDbEntity
  8
01
  6
CONTINUOUS
100
AcDbCircle
 10
2113.153323545247
 20
-627.4501336998767
 30
0.0000000001127424
 40
0.4637468103423796
100
AcDbArc
 50
265.2279066161926
 51
354.2577450626241
  0
LINE
  5
1B440
330
18
100
AcDbEntity
  8
01
  6
CONTINUOUS
100
AcDbLine
 10
2113.614743298333
 20
-612.1141639643047
 30
0.0000000001127424
 11
2113.614743298333
 21
-627.0807935114005
 31
0.0000000001127424
  0
ARC
  5
1B441
330
18
100
AcDbEntity
  8
01
  6
CONTINUOUS
100
AcDbCircle
 10
2113.153323545247
 20
-611.7448237758283
 30
0.0000000001127424
 40
0.4637468103423387
100
AcDbArc
 50
5.742254937375924
 51
94.77209338380747
  0
ARC
  5
1B442
330
18
100
AcDbEntity
  8
01
  6
BYBLOCK
100
AcDbCircle
 10
2109.32185007952
 20
-619.5974787378525
 30
0.0000000001127424
 40
10.00000000000009
100
AcDbArc
 50
270.0
 51
295.4224671781178
  0
LINE
  5
1B443
330
18
100
AcDbEntity
  8
01
  6
CONTINUOUS
100
AcDbLine
 10
2102.614743298333
 20
-611.2826845450215
 30
0.0000000001127424
 11
2113.114743298333
 21
-611.2826845450215
 31
0.0000000001127424
  0
LINE
  5
1B444
330
18
100
AcDbEntity
  8
01
100
AcDbLine
 10
2409.614510618842
 20
-624.2481271649688
 30
0.0000000001127424
 11
2409.614510618842
 21
-656.3974787378659
 31
0.0000000001127424
  0
ARC
  5
1B445
330
18
100
AcDbEntity
  8
01
100
AcDbCircle
 10
2408.614510618842
 20
-656.5974787378659
 30
0.0000000001127424
 40
1.0
100
AcDbArc
 50
270.0
 51
0.0
  0
LINE
  5
1B446
330
18
100
AcDbEntity
  8
01
100
AcDbLine
 10
2372.405137906544
 20
-657.5974787378659
 30
0.0000000001127424
 11
2408.614510618842
 21
-657.5974787378657
 31
0.0000000001127424
  0
LINE
  5
1B447
330
18
100
AcDbEntity
  8
01
100
AcDbLine
 10
2081.614743298333
 20
-641.5974787378659
 30
0.0000000001127424
 11
2021.614743298333
 21
-641.5974787378659
 31
0.0000000001127424
  0
LINE
  5
1B448
330
18
100
AcDbEntity
  8
01
100
AcDbLine
 10
2051.614743298333
 20
-611.5974787378659
 30
0.0000000001127424
 11
2051.614743298333
 21
-671.5974787378659
 31
0.0000000001127424
  0
LINE
  5
1B44E
330
18
100
AcDbEntity
  8
01
100
AcDbLine
 10
2107.614743298333
 20
-563.5974787378659
 30
0.0000000001127424
 11
2093.614743298333
 21
-563.5974787378659
 31
0.0000000001127424
  0
LINE
  5
1B44F
330
18
100
AcDbEntity
  8
01
  6
BYBLOCK
100
AcDbLine
 10
2101.114743298333
 20
-555.6974787378658
 30
0.0000000001127424
 11
2101.114743298333
 21
-685.4974787378658
 31
0.0000000001127424
  0
LINE
  5
1B450
330
18
100
AcDbEntity
  8
01
  6
BYBLOCK
100
AcDbLine
 10
2101.114743298333
 20
-684.5974787378659
 30
0.0000000001127424
 11
2098.614743298333
 21
-684.5974787378659
 31
0.0000000001127424
  0
LINE
  5
1B451
330
18
100
AcDbEntity
  8
01
  6
BYBLOCK
100
AcDbLine
 10
2098.614743298333
 20
-684.5974787378659
 30
0.0000000001127424
 11
2098.614743298333
 21
-668.0945350127135
 31
0.0000000001127424
  0
LINE
  5
1B452
330
18
100
AcDbEntity
  8
01
  6
BYBLOCK
100
AcDbLine
 10
2102.614743298333
 20
-555.6974787378658
 30
0.0000000001127424
 11
2102.614743298333
 21
-685.4974787378658
 31
0.0000000001127424
  0
LINE
  5
1B453
330
18
100
AcDbEntity
  8
01
  6
BYBLOCK
100
AcDbLine
 10
2102.614743298333
 20
-685.4974787378658
 30
0.0000000001127424
 11
2101.114743298333
 21
-685.4974787378658
 31
0.0000000001127424
  0
LINE
  5
1B454
330
18
100
AcDbEntity
  8
01
  6
BYBLOCK
100
AcDbLine
 10
2101.114743298333
 20
-556.5974787378659
 30
0.0000000001127424
 11
2098.614743298333
 21
-556.5974787378659
 31
0.0000000001127424
  0
LINE
  5
1B455
330
18
100
AcDbEntity
  8
01
  6
BYBLOCK
100
AcDbLine
 10
2102.614743298333
 20
-555.6974787378658
 30
0.0000000001127424
 11
2101.114743298333
 21
-555.6974787378658
 31
0.0000000001127424
  0
LINE
  5
1B456
330
18
100
AcDbEntity
  8
01
  6
BYBLOCK
100
AcDbLine
 10
2101.114743298333
 20
-580.5974787378659
 30
0.0000000001127424
 11
2099.914743298334
 21
-580.5974787378659
 31
0.0000000001127424
  0
LINE
  5
1B457
330
18
100
AcDbEntity
  8
01
  6
BYBLOCK
100
AcDbLine
 10
2099.914743298334
 20
-574.8974787378656
 30
0.0000000001127424
 11
2099.914743298334
 21
-666.2974787378657
 31
0.0000000001127424
  0
LINE
  5
1B458
330
18
100
AcDbEntity
  8
01
  6
BYBLOCK
100
AcDbLine
 10
2099.814743298333
 20
-684.5974787378659
 30
0.0000000001127424
 11
2099.814743298333
 21
-667.9974787378658
 31
0.0000000001127424
  0
LINE
  5
1B459
330
18
100
AcDbEntity
  8
01
  6
BYBLOCK
100
AcDbLine
 10
2099.814743298333
 20
-667.9974787378658
 30
0.0000000001127424
 11
2100.763271435758
 21
-667.0489506004419
 31
0.0000000001127424
  0
LINE
  5
1B45A
330
18
100
AcDbEntity
  8
01
  6
BYBLOCK
100
AcDbLine
 10
2098.96621516091
 20
-667.2460068752896
 30
0.0000000001127424
 11
2099.914743298334
 21
-666.2974787378657
 31
0.0000000001127424
  0
ARC
  5
1B45B
330
18
100
AcDbEntity
  8
01
  6
BYBLOCK
100
AcDbCircle
 10
2099.814743298333
 20
-668.0945350127135
 30
0.0000000001127424
 40
1.2
100
AcDbArc
 50
134.9999999999616
 51
180.0
  0
ARC
  5
1B45C
330
18
100
AcDbEntity
  8
01
  6
BYBLOCK
100
AcDbCircle
 10
2099.914743298334
 20
-666.200422463018
 30
0.0000000001127424
 40
1.2
100
AcDbArc
 50
314.9999999999616
 51
0.0
  0
LINE
  5
1B45D
330
18
100
AcDbEntity
  8
01
  6
BYBLOCK
100
AcDbLine
 10
2098.614743298333
 20
-556.5974787378659
 30
0.0000000001127424
 11
2098.614743298333
 21
-573.100422463018
 31
0.0000000001127424
  0
LINE
  5
1B45E
330
18
100
AcDbEntity
  8
01
  6
BYBLOCK
100
AcDbLine
 10
2099.814743298333
 20
-556.5974787378659
 30
0.0000000001127424
 11
2099.814743298333
 21
-573.1974787378658
 31
0.0000000001127424
  0
LINE
  5
1B45F
330
18
100
AcDbEntity
  8
01
  6
BYBLOCK
100
AcDbLine
 10
2099.814743298333
 20
-573.1974787378658
 30
0.0000000001127424
 11
2100.763271435758
 21
-574.1460068752897
 31
0.0000000001127424
  0
LINE
  5
1B460
330
18
100
AcDbEntity
  8
01
  6
BYBLOCK
100
AcDbLine
 10
2098.96621516091
 20
-573.948950600442
 30
0.0000000001127424
 11
2099.914743298334
 21
-574.8974787378659
 31
0.0000000001127424
  0
ARC
  5
1B461
330
18
100
AcDbEntity
  8
01
  6
BYBLOCK
100
AcDbCircle
 10
2099.814743298333
 20
-573.100422463018
 30
0.0000000001127424
 40
1.2
100
AcDbArc
 50
180.0
 51
225.0000000000384
  0
ARC
  5
1B462
330
18
100
AcDbEntity
  8
01
  6
BYBLOCK
100
AcDbCircle
 10
2099.914743298334
 20
-574.9945350127136
 30
0.0000000001127424
 40
1.2
100
AcDbArc
 50
0.0
 51
45.00000000003838
  0
LINE
  5
1B464
330
18
100
AcDbEntity
  8
01
  6
BYBLOCK
100
AcDbLine
 10
2099.914743298334
 20
-657.5974787378661
 30
0.0000000001127424
 11
2070.824116010633
 21
-657.5974787378659
 31
0.0000000001127424
  0
LINE
  5
1B469
330
18
100
AcDbEntity
  8
01
  6
BYBLOCK
100
AcDbLine
 10
2109.32185007952
 20
-609.5974787378527
 30
0.0000000001127424
 11
2102.614743298333
 21
-609.5974787378527
 31
0.0000000001127424
  0
LINE
  5
1B46A
330
18
100
AcDbEntity
  8
01
  6
BYBLOCK
100
AcDbLine
 10
2109.32185007952
 20
-629.5974787378527
 30
0.0000000001127424
 11
2102.614743298333
 21
-629.5974787378527
 31
0.0000000001127424
  0
LINE
  5
1B46B
330
18
100
AcDbEntity
  8
01
100
AcDbLine
 10
2107.614743298046
 20
-677.5974787375771
 30
0.0000000001127424
 11
2093.614743298046
 21
-677.5974787375771
 31
0.0000000001127424
  0
TEXT
  5
1B473
330
18
100
AcDbEntity
  8
1TEXT
100
AcDbText
 10
2033.614755298334
 20
-360.0974787378657
 30
0.0000000001127424
 40
20.0
  1
3-WKC-X-LJ
100
AcDbText
  0
LINE
  5
1B47F
330
18
100
AcDbEntity
  8
01
  6
BYBLOCK
100
AcDbLine
 10
2340.61527846116
 20
-391.5987970509686
 30
0.0000000001127424
 11
2494.36965861619
 21
-391.5987970509686
 31
0.0000000001127424
  0
LINE
  5
1B480
330
18
100
AcDbEntity
  8
01
100
AcDbLine
 10
2241.614510618842
 20
-521.5974787378659
 30
0.0000000001127424
 11
2241.614510618842
 21
-711.5974787378659
 31
0.0000000001127424
  0
LINE
  5
1B481
330
18
100
AcDbEntity
  8
01
100
AcDbLine
 10
2361.614510618842
 20
-641.5974787378659
 30
0.0000000001127424
 11
2421.614510618842
 21
-641.5974787378659
 31
0.0000000001127424
  0
LINE
  5
1B482
330
18
100
AcDbEntity
  8
01
100
AcDbLine
 10
2391.614510618842
 20
-611.5974787378659
 30
0.0000000001127424
 11
2391.614510618842
 21
-671.5974787378659
 31
0.0000000001127424
  0
LINE
  5
1B483
330
18
100
AcDbEntity
  8
01
100
AcDbLine
 10
2240.98633300161
 20
-641.5974787378659
 30
0.0000000001127424
 11
2263.61461838404
 21
-641.5974787378659
 31
0.0000000001127424
  0
LINE
  5
1B484
330
18
100
AcDbEntity
  8
01
100
AcDbLine
 10
2391.614510618842
 20
-388.0989200929366
 30
0.0000000001127424
 11
2391.614510618842
 21
-414.5989200929366
 31
0.0000000001127424
  0
LINE
  5
1B485
330
18
100
AcDbEntity
  8
01
100
AcDbLine
 10
2391.614510618842
 20
-355.0960373848527
 30
0.0000000001127424
 11
2391.614510618842
 21
-328.5960373848527
 31
0.0000000001127424
  0
LINE
  5
1B486
330
18
100
AcDbEntity
  8
01
100
AcDbLine
 10
2202.242920915564
 20
-641.5974787378659
 30
0.0000000001127424
 11
2179.614635533133
 21
-641.5974787378659
 31
0.0000000001127424
  0
LINE
  5
1B489
330
18
100
AcDbEntity
  8
1CENTER
100
AcDbLine
 10
2256.014633660813
 20
-669.6315213227477
 30
0.0000000001127424
 11
2256.014633660813
 21
-656.7979200610713
 31
0.0000000001127424
  0
LINE
  5
1B48A
330
18
100
AcDbEntity
  8
01
100
AcDbLine
 10
2241.614510618842
 20
-619.0974787378664
 30
0.0000000001127424
 11
2243.114633932467
 21
-619.0974787378664
 31
0.0000000001127424
  0
LINE
  5
1B48B
330
18
100
AcDbEntity
  8
01
100
AcDbLine
 10
2241.614510618842
 20
-664.0974787378655
 30
0.0000000001127424
 11
2243.11463366081
 21
-664.0974787378655
 31
0.0000000001127424
  0
LINE
  5
1B48C
330
18
100
AcDbEntity
  8
01
100
AcDbLine
 10
2241.614510618842
 20
-664.0974787378655
 30
0.0000000001127424
 11
2241.614510618842
 21
-619.0974787378664
 31
0.0000000001127424
  0
CIRCLE
  5
1B48D
330
18
100
AcDbEntity
  8
01
100
AcDbCircle
 10
2289.614633592082
 20
-641.5974787378659
 30
0.0000000001127424
 40
11.30000033602118
  0
LINE
  5
1B48E
330
18
100
AcDbEntity
  8
01
100
AcDbLine
 10
2260.512901527933
 20
-666.5974787378659
 30
0.0000000001127424
 11
2261.114633660812
 21
-666.5974787378659
 31
0.0000000001127424
  0
LINE
  5
1B48F
330
18
100
AcDbEntity
  8
01
100
AcDbLine
 10
2243.114633660811
 20
-666.5974787378659
 30
0.0000000001127424
 11
2251.514633660811
 21
-666.5974787378659
 31
0.0000000001127424
  0
LINE
  5
1B490
330
18
100
AcDbEntity
  8
01
100
AcDbLine
 10
2261.114633660812
 20
-616.5974787378659
 30
0.0000000001127424
 11
2243.114633660811
 21
-616.5974787378659
 31
0.0000000001127424
  0
ARC
  5
1B491
330
18
100
AcDbEntity
  8
01
100
AcDbCircle
 10
2261.114633660812
 20
-665.5974787378659
 30
0.0000000001127424
 40
1.0
100
AcDbArc
 50
270.0
 51
0.0
  0
ARC
  5
1B492
330
18
100
AcDbEntity
  8
01
100
AcDbCircle
 10
2261.114633660812
 20
-617.5974787378659
 30
0.0000000001127424
 40
1.0
100
AcDbArc
 50
0.0
 51
90.0
  0
LINE
  5
1B493
330
18
100
AcDbEntity
  8
01
100
AcDbLine
 10
2260.42430788702
 20
-666.5892523184789
 30
0.0000000001127424
 11
2260.424792174866
 21
-666.5893410228587
 31
0.0000000001127424
  0
ARC
  5
1B494
330
18
100
AcDbEntity
  8
01
100
AcDbCircle
 10
2260.514633656182
 20
-666.0974787370155
 30
0.0000000001127424
 40
0.5000000000000058
100
AcDbArc
 50
259.6487061743417
 51
269.801685215615
  0
ARC
  5
1B495
330
18
100
AcDbEntity
  8
01
100
AcDbCircle
 10
2251.5146336745
 20
-666.0974787353512
 30
0.0000000001127424
 40
0.4999999999999971
100
AcDbArc
 50
269.9998316611
 51
280.4077144125455
  0
SPLINE
  5
1B496
330
18
100
AcDbEntity
  8
01
100
AcDbSpline
210
0.0
220
0.0
230
1.0
 70
     8
 71
     3
 72
    38
 73
    34
 74
     0
 42
0.000000001
 43
0.00000001
 40
0.0
 40
0.0
 40
0.0
 40
0.0
 40
0.0173749390782923
 40
0.0513148018401738
 40
0.0847913878656912
 40
0.1182855394880036
 40
0.1518525219173384
 40
0.1857856707372894
 40
0.2195841600796422
 40
0.2532016284348418
 40
0.2868627017109681
 40
0.3205304360710263
 40
0.3538734461692637
 40
0.3870048937965707
 40
0.4202652434062399
 40
0.4530916268067759
 40
0.485807108963845
 40
0.5187451618501332
 40
0.5514133267406173
 40
0.5840804282388982
 40
0.6171404199898658
 40
0.6501687453677067
 40
0.6832559283660443
 40
0.7167935557795256
 40
0.7504120706266938
 40
0.7840196915782218
 40
0.8178810062199995
 40
0.8518724271587522
 40
0.8857974801276438
 40
0.919455054481305
 40
0.9533691011650021
 40
0.9876069557249617
 40
1.0
 40
1.0
 40
1.0
 40
1.0
 10
2251.606982514315
 20
-666.5888763522348
 30
0.0000000001127424
 10
2251.608044108658
 20
-666.5886757746816
 30
0.0000000001127424
 10
2251.611179400419
 20
-666.5880833928982
 30
0.0000000001127424
 10
2251.653747271494
 20
-666.5802097424325
 30
0.0000000001127424
 10
2251.750096112584
 20
-666.5629048460646
 30
0.0000000001127424
 10
2251.8943048077
 20
-666.5376137606859
 30
0.0000000001127424
 10
2252.08428191649
 20
-666.5055081328833
 30
0.0000000001127424
 10
2252.317989308876
 20
-666.4681102792788
 30
0.0000000001127424
 10
2252.593352025558
 20
-666.4268906331768
 30
0.0000000001127424
 10
2252.907180510269
 20
-666.3837722062412
 30
0.0000000001127424
 10
2253.255311557969
 20
-666.340654900127
 30
0.0000000001127424
 10
2253.633787002617
 20
-666.2994158040115
 30
0.0000000001127424
 10
2254.03836992749
 20
-666.2622357157593
 30
0.0000000001127424
 10
2254.463899731109
 20
-666.2304262046296
 30
0.0000000001127424
 10
2254.905034459744
 20
-666.205286341748
 30
0.0000000001127424
 10
2255.357644679107
 20
-666.1884577447877
 30
0.0000000001127424
 10
2255.816332731185
 20
-666.1802311820206
 30
0.0000000001127424
 10
2256.276626354916
 20
-666.1806141407483
 30
0.0000000001127424
 10
2256.733619279689
 20
-666.1902137754091
 30
0.0000000001127424
 10
2257.182656019985
 20
-666.208383630063
 30
0.0000000001127424
 10
2257.620118197893
 20
-666.2339812662462
 30
0.0000000001127424
 10
2258.040657949114
 20
-666.2663479666576
 30
0.0000000001127424
 10
2258.439662186953
 20
-666.304071826989
 30
0.0000000001127424
 10
2258.813858619429
 20
-666.3453266959145
 30
0.0000000001127424
 10
2259.157937966671
 20
-666.3884442201429
 30
0.0000000001127424
 10
2259.466896325098
 20
-666.4313885469851
 30
0.0000000001127424
 10
2259.738605882886
 20
-666.4723676772351
 30
0.0000000001127424
 10
2259.969480430838
 20
-666.5096071888242
 30
0.0000000001127424
 10
2260.154651316245
 20
-666.5409596897448
 30
0.0000000001127424
 10
2260.293614092487
 20
-666.5654331749743
 30
0.0000000001127424
 10
2260.385642318211
 20
-666.582172680201
 30
0.0000000001127424
 10
2260.421437192557
 20
-666.5887059853753
 30
0.0000000001127424
 10
2260.424090743993
 20
-666.5891912474813
 30
0.0000000001127424
 10
2260.424795975528
 20
-666.5893202150733
 30
0.0000000001127424
  0
LINE
  5
1B497
330
18
100
AcDbEntity
  8
01
100
AcDbLine
 10
2243.114633660811
 20
-616.5974787378659
 30
0.0000000001127424
 11
2243.114633660811
 21
-666.5974787378659
 31
0.0000000001127424
  0
SPLINE
  5
1B498
330
18
100
AcDbEntity
  8
01
100
AcDbSpline
210
0.0
220
0.0
230
1.0
 70
     8
 71
     3
 72
    20
 73
    16
 74
     0
 42
0.000000001
 43
0.00000001
 40
0.0
 40
0.0
 40
0.0
 40
0.0
 40
0.1249999999999998
 40
0.1249999999999998
 40
0.2499999999999996
 40
0.2499999999999996
 40
0.3749999999999993
 40
0.3749999999999993
 40
0.4999999999999991
 40
0.4999999999999991
 40
0.6249999999999989
 40
0.6249999999999989
 40
0.7499999999999987
 40
0.7499999999999987
 40
1.0
 40
1.0
 40
1.0
 40
1.0
 10
2265.114633660812
 20
-649.5974787378659
 30
0.0000000001127424
 10
2264.90106820338
 20
-649.5974787378659
 30
0.0000000001127424
 10
2264.687736328846
 20
-649.6205184191754
 30
0.0000000001127424
 10
2264.275181962383
 20
-649.7095980413856
 30
0.0000000001127424
 10
2264.077288475291
 20
-649.7748645302304
 30
0.0000000001127424
 10
2263.697802515157
 20
-649.9449656834636
 30
0.0000000001127424
 10
2263.516189961397
 20
-650.0506893519528
 30
0.0000000001127424
 10
2263.18785737596
 20
-650.2890828479599
 30
0.0000000001127424
 10
2263.038404231092
 20
-650.4228027161757
 30
0.0000000001127424
 10
2262.768277494066
 20
-650.7174369343616
 30
0.0000000001127424
 10
2262.651108945968
 20
-650.8748625467065
 30
0.0000000001127424
 10
2262.452831496674
 20
-651.200635940098
 30
0.0000000001127424
 10
2262.370899189646
 20
-651.3699514279247
 30
0.0000000001127424
 10
2262.174254447516
 20
-651.8947848773082
 30
0.0000000001127424
 10
2262.114633660812
 20
-652.2470557346091
 30
0.0000000001127424
 10
2262.114633660812
 20
-652.5974787378659
 30
0.0000000001127424
  0
SPLINE
  5
1B499
330
18
100
AcDbEntity
  8
01
100
AcDbSpline
210
0.0
220
0.0
230
1.0
 70
     8
 71
     3
 72
    22
 73
    18
 74
     0
 42
0.000000001
 43
0.00000001
 40
0.0
 40
0.0
 40
0.0
 40
0.0
 40
0.125
 40
0.125
 40
0.25
 40
0.25
 40
0.375
 40
0.375
 40
0.5
 40
0.5
 40
0.625
 40
0.625
 40
0.75
 40
0.75
 40
0.875
 40
0.875
 40
1.0
 40
1.0
 40
1.0
 40
1.0
 10
2262.114633660812
 20
-630.5974787378659
 30
0.0000000001127424
 10
2262.114633660812
 20
-630.7726144538115
 30
0.0000000001127424
 10
2262.129853386167
 20
-630.9483734485716
 30
0.0000000001127424
 10
2262.192754381651
 20
-631.3008007579397
 30
0.0000000001127424
 10
2262.241052270236
 20
-631.4788980209755
 30
0.0000000001127424
 10
2262.371440437612
 20
-631.8259985387226
 30
0.0000000001127424
 10
2262.453249954466
 20
-631.995335702703
 30
0.0000000001127424
 10
2262.653467003878
 20
-632.3236380623052
 30
0.0000000001127424
 10
2262.772274646932
 20
-632.4822732017424
 30
0.0000000001127424
 10
2263.039912098021
 20
-632.7733983958155
 30
0.0000000001127424
 10
2263.190628130724
 20
-632.9083951368307
 30
0.0000000001127424
 10
2263.523311115141
 20
-633.148914498071
 30
0.0000000001127424
 10
2263.70110895125
 20
-633.2517148305956
 30
0.0000000001127424
 10
2264.079832760004
 20
-633.4209886875883
 30
0.0000000001127424
 10
2264.282676542374
 20
-633.4874160021504
 30
0.0000000001127424
 10
2264.692419653956
 20
-633.5749987412969
 30
0.0000000001127424
 10
2264.901382022554
 20
-633.5974787378659
 30
0.0000000001127424
 10
2265.114633660812
 20
-633.5974787378659
 30
0.0000000001127424
  0
LINE
  5
1B49A
330
18
100
AcDbEntity
  8
01
100
AcDbLine
 10
2280.314633660812
 20
-649.5974787378659
 30
0.0000000001127424
 11
2265.114633660812
 21
-649.5974787378659
 31
0.0000000001127424
  0
LINE
  5
1B49B
330
18
100
AcDbEntity
  8
01
100
AcDbLine
 10
2280.614633660812
 20
-633.8974787378652
 30
0.0000000001127424
 11
2280.614633660812
 21
-634.7644699693069
 31
0.0000000001127424
  0
ARC
  5
1B49C
330
18
100
AcDbEntity
  8
01
100
AcDbCircle
 10
2280.314633660812
 20
-633.8974787378652
 30
0.0000000001127424
 40
0.3000000000000114
100
AcDbArc
 50
0.0
 51
90.0
  0
LINE
  5
1B49D
330
18
100
AcDbEntity
  8
01
100
AcDbLine
 10
2280.614633660812
 20
-648.4304875064249
 30
0.0000000001127424
 11
2280.614633660812
 21
-649.2974787378657
 31
0.0000000001127424
  0
ARC
  5
1B49E
330
18
100
AcDbEntity
  8
01
100
AcDbCircle
 10
2280.314633660812
 20
-649.2974787378657
 30
0.0000000001127424
 40
0.3000000000000114
100
AcDbArc
 50
270.0
 51
0.0
  0
LINE
  5
1B49F
330
18
100
AcDbEntity
  8
01
100
AcDbLine
 10
2265.114633660812
 20
-633.5974787378659
 30
0.0000000001127424
 11
2280.314633660812
 21
-633.5974787378659
 31
0.0000000001127424
  0
LINE
  5
1B4A0
330
18
100
AcDbEntity
  8
01
100
AcDbLine
 10
2262.114633660812
 20
-652.5974787378659
 30
0.0000000001127424
 11
2262.114633660812
 21
-665.5974787378659
 31
0.0000000001127424
  0
LINE
  5
1B4A1
330
18
100
AcDbEntity
  8
01
100
AcDbLine
 10
2262.114633660812
 20
-617.5974787378659
 30
0.0000000001127424
 11
2262.114633660812
 21
-630.5974787378659
 31
0.0000000001127424
  0
ARC
  5
1B4A2
330
18
100
AcDbEntity
  8
01
100
AcDbCircle
 10
2391.614510618842
 20
-641.5974787378659
 30
0.0000000001127424
 40
25.0
100
AcDbArc
 50
26.10388113734173
 51
153.8961188626583
  0
ARC
  5
1B4A3
330
18
100
AcDbEntity
  8
01
100
AcDbCircle
 10
2391.614510618842
 20
-641.5974787378659
 30
0.0000000001127424
 40
25.00000000000002
100
AcDbArc
 50
206.1038811373417
 51
333.8961188626581
  0
LINE
  5
1B4A4
330
18
100
AcDbEntity
  8
01
100
AcDbLine
 10
2361.614510618842
 20
-651.9974787378658
 30
0.0000000001127424
 11
2361.614510618842
 21
-631.1974787378658
 31
0.0000000001127424
  0
ARC
  5
1B4A5
330
18
100
AcDbEntity
  8
01
100
AcDbCircle
 10
2359.114510592765
 20
-652.3974787117888
 30
0.0000000001127424
 40
0.5
100
AcDbArc
 50
180.0
 51
270.0
  0
ARC
  5
1B4A6
330
18
100
AcDbEntity
  8
01
100
AcDbCircle
 10
2359.114510616514
 20
-630.7974783496907
 30
0.0000000001127424
 40
0.5
100
AcDbArc
 50
90.0
 51
180.0
  0
LINE
  5
1B4A7
330
18
100
AcDbEntity
  8
01
100
AcDbLine
 10
2359.114510616514
 20
-630.2974783496907
 30
0.0000000001127424
 11
2361.114510536886
 21
-630.2974783496907
 31
0.0000000001127424
  0
LINE
  5
1B4A8
330
18
100
AcDbEntity
  8
01
100
AcDbLine
 10
2361.114510536886
 20
-652.8974790738871
 30
0.0000000001127424
 11
2359.114510616514
 21
-652.8974790738871
 31
0.0000000001127424
  0
ARC
  5
1B4A9
330
18
100
AcDbEntity
  8
01
100
AcDbCircle
 10
2361.114510592765
 20
-652.3974787117888
 30
0.0000000001127424
 40
0.5
100
AcDbArc
 50
270.0
 51
0.0
  0
ARC
  5
1B4AA
330
18
100
AcDbEntity
  8
01
100
AcDbCircle
 10
2361.114510592765
 20
-630.7974787117887
 30
0.0000000001127424
 40
0.5
100
AcDbArc
 50
0.0
 51
90.0
  0
LINE
  5
1B4AB
330
18
100
AcDbEntity
  8
01
100
AcDbLine
 10
2358.614510592765
 20
-630.797478431647
 30
0.0000000001127424
 11
2358.614510592765
 21
-652.3974789919307
 31
0.0000000001127424
  0
LINE
  5
1B4AC
330
18
100
AcDbEntity
  8
01
100
AcDbLine
 10
2361.614510618842
 20
-652.3974789919307
 30
0.0000000001127424
 11
2361.614510618842
 21
-630.797478431647
 31
0.0000000001127424
  0
LINE
  5
1B4B1
330
18
100
AcDbEntity
  8
01
100
AcDbLine
 10
2508.114510618842
 20
-641.5974773945222
 30
0.0000000001102344
 11
2508.114510618842
 21
-630.7974773945225
 31
0.0000000001102344
  0
LINE
  5
1B4B2
330
18
100
AcDbEntity
  8
01
100
AcDbLine
 10
2508.114510618842
 20
-652.3974773945224
 30
0.0000000001102344
 11
2508.114510618842
 21
-641.5974773945222
 31
0.0000000001102344
  0
ARC
  5
1B4E8
330
18
100
AcDbEntity
  8
01
100
AcDbCircle
 10
2510.069615990087
 20
-631.2974773945225
 30
0.0000000001102344
 40
1.0
100
AcDbArc
 50
32.82854179139152
 51
90.0
  0
ARC
  5
1B4E9
330
18
100
AcDbEntity
  8
01
100
AcDbCircle
 10
2510.069615990087
 20
-651.8974773945224
 30
0.0000000001102344
 40
1.0
100
AcDbArc
 50
270.0
 51
327.1714582086085
  0
LINE
  5
1B4EA
330
18
100
AcDbEntity
  8
01
100
AcDbLine
 10
2510.069615990087
 20
-630.2974773945225
 30
0.0000000001102344
 11
2508.614510618842
 21
-630.2974773945225
 31
0.0000000001102344
  0
LINE
  5
1B4EB
330
18
100
AcDbEntity
  8
01
100
AcDbLine
 10
2508.614510618842
 20
-652.8974773945224
 30
0.0000000001102344
 11
2510.069615990087
 21
-652.8974773945224
 31
0.0000000001102344
  0
ARC
  5
1B4EC
330
18
100
AcDbEntity
  8
01
100
AcDbCircle
 10
2508.614510618842
 20
-652.3974773945224
 30
0.0000000001102344
 40
0.5
100
AcDbArc
 50
180.0
 51
270.0
  0
ARC
  5
1B4ED
330
18
100
AcDbEntity
  8
01
100
AcDbCircle
 10
2508.614510618842
 20
-630.7974773945225
 30
0.0000000001102344
 40
0.5
100
AcDbArc
 50
90.0
 51
180.0
  0
LINE
  5
1B4EE
330
18
100
AcDbEntity
  8
01
100
AcDbLine
 10
2510.909912638312
 20
-652.4396042643443
 30
0.0000000001102344
 11
2516.454807267066
 21
-643.8450175897747
 31
0.0000000001102344
  0
LINE
  5
1B4EF
330
18
100
AcDbEntity
  8
01
100
AcDbLine
 10
2516.454807267066
 20
-639.3499371992702
 30
0.0000000001102344
 11
2510.909912638312
 21
-630.7553505247001
 31
0.0000000001102344
  0
ARC
  5
1B4F0
330
18
100
AcDbEntity
  8
01
100
AcDbCircle
 10
2515.614510618842
 20
-643.3028907199528
 30
0.0000000001102344
 40
1.0
100
AcDbArc
 50
327.1714582086085
 51
0.0
  0
ARC
  5
1B4F1
330
18
100
AcDbEntity
  8
01
100
AcDbCircle
 10
2515.614510618842
 20
-639.8920640690922
 30
0.0000000001102344
 40
1.0
100
AcDbArc
 50
0.0
 51
32.82854179139152
  0
LINE
  5
1B4F2
330
18
100
AcDbEntity
  8
01
100
AcDbLine
 10
2516.614510618842
 20
-641.5974773945222
 30
0.0000000001102344
 11
2516.614510618842
 21
-643.3028907199528
 31
0.0000000001102344
  0
LINE
  5
1B4F3
330
18
100
AcDbEntity
  8
01
100
AcDbLine
 10
2516.614510618842
 20
-639.8920640690922
 30
0.0000000001102344
 11
2516.614510618842
 21
-641.5974773945222
 31
0.0000000001102344
  0
LINE
  5
1B4F4
330
18
100
AcDbEntity
  8
01
100
AcDbLine
 10
2510.909912638312
 20
-641.5974773945222
 30
0.0000000001102344
 11
2510.909912638312
 21
-652.4396042643443
 31
0.0000000001102344
  0
LINE
  5
1B4F5
330
18
100
AcDbEntity
  8
01
100
AcDbLine
 10
2510.909912638312
 20
-630.7553505247001
 30
0.0000000001102344
 11
2510.909912638312
 21
-641.5974773945222
 31
0.0000000001102344
  0
LINE
  5
1B4F8
330
18
100
AcDbEntity
  8
01
100
AcDbLine
 10
2391.614510618842
 20
-388.0989200929366
 30
0.0000000001127424
 11
2391.614510618842
 21
-414.5989200929366
 31
0.0000000001127424
  0
LINE
  5
1B4FD
330
18
100
AcDbEntity
  8
01
100
AcDbLine
 10
2414.114510618841
 20
-391.5987970509686
 30
0.0000000001127424
 11
2414.114510618841
 21
-393.0989203645931
 31
0.0000000001127424
  0
LINE
  5
1B4FE
330
18
100
AcDbEntity
  8
01
100
AcDbLine
 10
2369.114510618843
 20
-391.5987970509686
 30
0.0000000001127424
 11
2369.114510618843
 21
-393.0989200929362
 31
0.0000000001127424
  0
LINE
  5
1B4FF
330
18
100
AcDbEntity
  8
01
100
AcDbLine
 10
2369.114510618843
 20
-391.5987970509686
 30
0.0000000001127424
 11
2414.114510618841
 21
-391.5987970509686
 31
0.0000000001127424
  0
LINE
  5
1B50A
330
18
100
AcDbEntity
  8
01
100
AcDbLine
 10
2366.614510618842
 20
-393.0989200929366
 30
0.0000000001127424
 11
2366.614510618842
 21
-428.3049049702036
 31
0.0000000001127424
  0
LINE
  5
1B50B
330
18
100
AcDbEntity
  8
01
100
AcDbLine
 10
2416.614510618842
 20
-428.3049049702036
 30
0.0000000001127424
 11
2416.614510618842
 21
-393.0989200929366
 31
0.0000000001127424
  0
LINE
  5
1B50F
330
18
100
AcDbEntity
  8
01
100
AcDbLine
 10
2412.945239626544
 20
-412.0989200929366
 30
0.0000000001127424
 11
2370.283781611141
 21
-412.0989200929366
 31
0.0000000001127424
  0
LINE
  5
1B510
330
18
100
AcDbEntity
  8
01
100
AcDbLine
 10
2416.614510618842
 20
-393.0989200929366
 30
0.0000000001127424
 11
2411.614626570025
 21
-393.0989200929366
 31
0.0000000001127424
  0
SPLINE
  5
1B512
330
18
100
AcDbEntity
  8
01
100
AcDbSpline
210
0.0
220
0.0
230
1.0
 70
     8
 71
     3
 72
    20
 73
    16
 74
     0
 42
0.000000001
 43
0.00000001
 40
0.0
 40
0.0
 40
0.0
 40
0.0
 40
0.1249999999999998
 40
0.1249999999999998
 40
0.2499999999999996
 40
0.2499999999999996
 40
0.3749999999999993
 40
0.3749999999999993
 40
0.4999999999999991
 40
0.4999999999999991
 40
0.6249999999999989
 40
0.6249999999999989
 40
0.7499999999999987
 40
0.7499999999999987
 40
1.0
 40
1.0
 40
1.0
 40
1.0
 10
2414.57099118534
 20
-415.0989200929366
 30
0.0000000001127424
 10
2414.57099118534
 20
-414.8853546355049
 30
0.0000000001127424
 10
2414.561685744016
 20
-414.6720227609708
 30
0.0000000001127424
 10
2414.524958504557
 20
-414.2594683945076
 30
0.0000000001127424
 10
2414.497846261082
 20
-414.0615749074163
 30
0.0000000001127424
 10
2414.424883390815
 20
-413.6820889472829
 30
0.0000000001127424
 10
2414.378585897711
 20
-413.5004763935217
 30
0.0000000001127424
 10
2414.269927778832
 20
-413.1721438080847
 30
0.0000000001127424
 10
2414.207138190208
 20
-413.022690663217
 30
0.0000000001127424
 10
2414.062407054483
 20
-412.7525639261917
 30
0.0000000001127424
 10
2413.982108037828
 20
-412.635395378094
 30
0.0000000001127424
 10
2413.808204269344
 20
-412.4371179287987
 30
0.0000000001127424
 10
2413.714135856279
 20
-412.3551856217714
 30
0.0000000001127424
 10
2413.408858140758
 20
-412.1585408796414
 30
0.0000000001127424
 10
2413.186184855337
 20
-412.0989200929366
 30
0.0000000001127424
 10
2412.945239626544
 20
-412.0989200929366
 30
0.0000000001127424
  0
SPLINE
  5
1B513
330
18
100
AcDbEntity
  8
01
100
AcDbSpline
210
0.0
220
0.0
230
1.0
 70
     8
 71
     3
 72
    22
 73
    18
 74
     0
 42
0.000000001
 43
0.00000001
 40
0.0
 40
0.0
 40
0.0
 40
0.0
 40
0.125
 40
0.125
 40
0.25
 40
0.25
 40
0.375
 40
0.375
 40
0.5
 40
0.5
 40
0.625
 40
0.625
 40
0.75
 40
0.75
 40
0.875
 40
0.875
 40
1.0
 40
1.0
 40
1.0
 40
1.0
 10
2370.283781611141
 20
-412.0989200929366
 30
0.0000000001127424
 10
2370.163361105762
 20
-412.0989200929366
 30
0.0000000001127424
 10
2370.047367191731
 20
-412.1141398182922
 30
0.0000000001127424
 10
2369.824167870355
 20
-412.1770408137763
 30
0.0000000001127424
 10
2369.716165046717
 20
-412.2253387023607
 30
0.0000000001127424
 10
2369.514348199438
 20
-412.3557268697377
 30
0.0000000001127424
 10
2369.420241201797
 20
-412.4375363865906
 30
0.0000000001127424
 10
2369.245056677175
 20
-412.6377534360035
 30
0.0000000001127424
 10
2369.164240845837
 20
-412.7565610790571
 30
0.0000000001127424
 10
2369.021311671241
 20
-413.0241985301464
 30
0.0000000001127424
 10
2368.957907515876
 20
-413.1749145628494
 30
0.0000000001127424
 10
2368.84835578934
 20
-413.5075975472662
 30
0.0000000001127424
 10
2368.803389328095
 20
-413.6853953833747
 30
0.0000000001127424
 10
2368.730800347821
 20
-414.0641191921291
 30
0.0000000001127424
 10
2368.703210023501
 20
-414.2669629744996
 30
0.0000000001127424
 10
2368.667109676213
 20
-414.6767060860814
 30
0.0000000001127424
 10
2368.658030052344
 20
-414.8856684546793
 30
0.0000000001127424
 10
2368.658030052344
 20
-415.0989200929366
 30
0.0000000001127424
  0
LINE
  5
1B515
330
18
100
AcDbEntity
  8
01
100
AcDbLine
 10
2414.57099118534
 20
-430.2989200929369
 30
0.0000000001127424
 11
2414.57099118534
 21
-415.0989200929366
 31
0.0000000001127424
  0
LINE
  5
1B516
330
18
100
AcDbEntity
  8
01
100
AcDbLine
 10
2368.658030052344
 20
-415.0989200929366
 30
0.0000000001127424
 11
2368.658030052344
 21
-430.2989200929369
 31
0.0000000001127424
  0
LINE
  5
1B567
330
18
100
AcDbEntity
  8
01
100
AcDbLine
 10
2414.114510618841
 20
-351.5974787388946
 30
0.0000000001127424
 11
2414.114510618841
 21
-350.0973554252701
 31
0.0000000001127424
  0
LINE
  5
1B568
330
18
100
AcDbEntity
  8
01
100
AcDbLine
 10
2369.114510618843
 20
-351.5974787388946
 30
0.0000000001127424
 11
2369.114510618843
 21
-350.097355696927
 31
0.0000000001127424
  0
LINE
  5
1B569
330
18
100
AcDbEntity
  8
01
100
AcDbLine
 10
2369.114510618843
 20
-351.5974787388946
 30
0.0000000001127424
 11
2414.114510618841
 21
-351.5974787388946
 31
0.0000000001127424
  0
LINE
  5
1B574
330
18
100
AcDbEntity
  8
01
100
AcDbLine
 10
2366.614510618842
 20
-350.0973556969266
 30
0.0000000001127424
 11
2366.614510618842
 21
-314.8913708196596
 31
0.0000000001127424
  0
LINE
  5
1B575
330
18
100
AcDbEntity
  8
01
100
AcDbLine
 10
2416.614510618842
 20
-314.8913708196596
 30
0.0000000001127424
 11
2416.614510618842
 21
-350.0973556969266
 31
0.0000000001127424
  0
LINE
  5
1B579
330
18
100
AcDbEntity
  8
01
100
AcDbLine
 10
2412.945239626544
 20
-331.0973556969266
 30
0.0000000001127424
 11
2394.114627024684
 21
-331.0973556969266
 31
0.0000000001127424
  0
LINE
  5
1B57A
330
18
100
AcDbEntity
  8
01
100
AcDbLine
 10
2416.614510618842
 20
-350.0973556969266
 30
0.0000000001127424
 11
2411.614626702231
 21
-350.0973556969266
 31
0.0000000001127424
  0
SPLINE
  5
1B57C
330
18
100
AcDbEntity
  8
01
100
AcDbSpline
210
0.0
220
0.0
230
1.0
 70
     8
 71
     3
 72
    20
 73
    16
 74
     0
 42
0.000000001
 43
0.00000001
 40
0.0
 40
0.0
 40
0.0
 40
0.0
 40
0.1249999999999998
 40
0.1249999999999998
 40
0.2499999999999996
 40
0.2499999999999996
 40
0.3749999999999993
 40
0.3749999999999993
 40
0.4999999999999991
 40
0.4999999999999991
 40
0.6249999999999989
 40
0.6249999999999989
 40
0.7499999999999987
 40
0.7499999999999987
 40
1.0
 40
1.0
 40
1.0
 40
1.0
 10
2414.57099118534
 20
-328.0973556969266
 30
0.0000000001127424
 10
2414.57099118534
 20
-328.3109211543583
 30
0.0000000001127424
 10
2414.561685744016
 20
-328.5242530288924
 30
0.0000000001127424
 10
2414.524958504557
 20
-328.9368073953556
 30
0.0000000001127424
 10
2414.497846261082
 20
-329.1347008824469
 30
0.0000000001127424
 10
2414.424883390815
 20
-329.5141868425803
 30
0.0000000001127424
 10
2414.378585897711
 20
-329.6957993963415
 30
0.0000000001127424
 10
2414.269927778832
 20
-330.0241319817785
 30
0.0000000001127424
 10
2414.207138190208
 20
-330.1735851266462
 30
0.0000000001127424
 10
2414.062407054483
 20
-330.4437118636715
 30
0.0000000001127424
 10
2413.982108037828
 20
-330.5608804117692
 30
0.0000000001127424
 10
2413.808204269344
 20
-330.7591578610645
 30
0.0000000001127424
 10
2413.714135856279
 20
-330.8410901680918
 30
0.0000000001127424
 10
2413.408858140758
 20
-331.0377349102218
 30
0.0000000001127424
 10
2413.186184855337
 20
-331.0973556969266
 30
0.0000000001127424
 10
2412.945239626544
 20
-331.0973556969266
 30
0.0000000001127424
  0
SPLINE
  5
1B57D
330
18
100
AcDbEntity
  8
01
100
AcDbSpline
210
0.0
220
0.0
230
1.0
 70
     8
 71
     3
 72
    22
 73
    18
 74
     0
 42
0.000000001
 43
0.00000001
 40
0.0
 40
0.0
 40
0.0
 40
0.0
 40
0.125
 40
0.125
 40
0.25
 40
0.25
 40
0.375
 40
0.375
 40
0.5
 40
0.5
 40
0.625
 40
0.625
 40
0.75
 40
0.75
 40
0.875
 40
0.875
 40
1.0
 40
1.0
 40
1.0
 40
1.0
 10
2370.283781611141
 20
-331.0973556969266
 30
0.0000000001127424
 10
2370.163361105762
 20
-331.0973556969266
 30
0.0000000001127424
 10
2370.047367191731
 20
-331.082135971571
 30
0.0000000001127424
 10
2369.824167870355
 20
-331.0192349760869
 30
0.0000000001127424
 10
2369.716165046717
 20
-330.9709370875025
 30
0.0000000001127424
 10
2369.514348199438
 20
-330.8405489201255
 30
0.0000000001127424
 10
2369.420241201797
 20
-330.7587394032726
 30
0.0000000001127424
 10
2369.245056677175
 20
-330.5585223538596
 30
0.0000000001127424
 10
2369.164240845837
 20
-330.4397147108061
 30
0.0000000001127424
 10
2369.021311671241
 20
-330.1720772597168
 30
0.0000000001127424
 10
2368.957907515876
 20
-330.0213612270138
 30
0.0000000001127424
 10
2368.84835578934
 20
-329.688678242597
 30
0.0000000001127424
 10
2368.803389328095
 20
-329.5108804064885
 30
0.0000000001127424
 10
2368.730800347821
 20
-329.1321565977341
 30
0.0000000001127424
 10
2368.703210023501
 20
-328.9293128153636
 30
0.0000000001127424
 10
2368.667109676213
 20
-328.5195697037818
 30
0.0000000001127424
 10
2368.658030052344
 20
-328.3106073351839
 30
0.0000000001127424
 10
2368.658030052344
 20
-328.0973556969266
 30
0.0000000001127424
  0
LINE
  5
1B57F
330
18
100
AcDbEntity
  8
01
100
AcDbLine
 10
2414.57099118534
 20
-312.8973556969263
 30
0.0000000001127424
 11
2414.57099118534
 21
-328.0973556969266
 31
0.0000000001127424
  0
LINE
  5
1B580
330
18
100
AcDbEntity
  8
01
100
AcDbLine
 10
2368.658030052344
 20
-328.0973556969266
 30
0.0000000001127424
 11
2368.658030052344
 21
-312.8973556969263
 31
0.0000000001127424
  0
LINE
  5
1B5D1
330
18
100
AcDbEntity
  8
1CENTER
100
AcDbLine
 10
2187.214620256359
 20
-669.6315213227477
 30
0.0000000001127424
 11
2187.214620256359
 21
-656.7979200610713
 31
0.0000000001127424
  0
LINE
  5
1B5D2
330
18
100
AcDbEntity
  8
01
100
AcDbLine
 10
2201.61474329833
 20
-619.0974787378664
 30
0.0000000001127424
 11
2200.114619984705
 21
-619.0974787378664
 31
0.0000000001127424
  0
LINE
  5
1B5D3
330
18
100
AcDbEntity
  8
01
100
AcDbLine
 10
2201.61474329833
 20
-664.0974787378655
 30
0.0000000001127424
 11
2200.114620256362
 21
-664.0974787378655
 31
0.0000000001127424
  0
LINE
  5
1B5D4
330
18
100
AcDbEntity
  8
01
100
AcDbLine
 10
2201.61474329833
 20
-664.0974787378655
 30
0.0000000001127424
 11
2201.61474329833
 21
-619.0974787378664
 31
0.0000000001127424
  0
CIRCLE
  5
1B5D5
330
18
100
AcDbEntity
  8
01
100
AcDbCircle
 10
2153.61462032509
 20
-641.5974787378659
 30
0.0000000001127424
 40
11.30000033602118
  0
LINE
  5
1B5D6
330
18
100
AcDbEntity
  8
01
100
AcDbLine
 10
2182.71635238924
 20
-666.5974787378659
 30
0.0000000001127424
 11
2182.11462025636
 21
-666.5974787378659
 31
0.0000000001127424
  0
LINE
  5
1B5D7
330
18
100
AcDbEntity
  8
01
100
AcDbLine
 10
2200.114620256361
 20
-666.5974787378659
 30
0.0000000001127424
 11
2191.714620256361
 21
-666.5974787378659
 31
0.0000000001127424
  0
LINE
  5
1B5D8
330
18
100
AcDbEntity
  8
01
100
AcDbLine
 10
2182.11462025636
 20
-616.5974787378659
 30
0.0000000001127424
 11
2200.114620256361
 21
-616.5974787378659
 31
0.0000000001127424
  0
ARC
  5
1B5D9
330
18
100
AcDbEntity
  8
01
100
AcDbCircle
 10
2182.11462025636
 20
-665.5974787378659
 30
0.0000000001127424
 40
1.0
100
AcDbArc
 50
180.0
 51
270.0
  0
ARC
  5
1B5DA
330
18
100
AcDbEntity
  8
01
100
AcDbCircle
 10
2182.11462025636
 20
-617.5974787378659
 30
0.0000000001127424
 40
1.0
100
AcDbArc
 50
90.0
 51
180.0
  0
LINE
  5
1B5DB
330
18
100
AcDbEntity
  8
01
100
AcDbLine
 10
2182.804946030152
 20
-666.5892523184789
 30
0.0000000001127424
 11
2182.804461742307
 21
-666.5893410228587
 31
0.0000000001127424
  0
ARC
  5
1B5DC
330
18
100
AcDbEntity
  8
01
100
AcDbCircle
 10
2182.71462026099
 20
-666.0974787370155
 30
0.0000000001127424
 40
0.5000000000000058
100
AcDbArc
 50
270.198314784385
 51
280.3512938256583
  0
ARC
  5
1B5DD
330
18
100
AcDbEntity
  8
01
100
AcDbCircle
 10
2191.714620242672
 20
-666.0974787353512
 30
0.0000000001127424
 40
0.4999999999999971
100
AcDbArc
 50
259.5922855874545
 51
270.0001683389
  0
SPLINE
  5
1B5DE
330
18
100
AcDbEntity
  8
01
100
AcDbSpline
210
0.0
220
0.0
230
1.0
 70
     8
 71
     3
 72
    38
 73
    34
 74
     0
 42
0.000000001
 43
0.00000001
 40
0.0
 40
0.0
 40
0.0
 40
0.0
 40
0.0173749390782923
 40
0.0513148018401738
 40
0.0847913878656912
 40
0.1182855394880036
 40
0.1518525219173384
 40
0.1857856707372894
 40
0.2195841600796422
 40
0.2532016284348418
 40
0.2868627017109681
 40
0.3205304360710263
 40
0.3538734461692637
 40
0.3870048937965707
 40
0.4202652434062399
 40
0.4530916268067759
 40
0.485807108963845
 40
0.5187451618501332
 40
0.5514133267406173
 40
0.5840804282388982
 40
0.6171404199898658
 40
0.6501687453677067
 40
0.6832559283660443
 40
0.7167935557795256
 40
0.7504120706266938
 40
0.7840196915782218
 40
0.8178810062199995
 40
0.8518724271587522
 40
0.8857974801276438
 40
0.919455054481305
 40
0.9533691011650021
 40
0.9876069557249617
 40
1.0
 40
1.0
 40
1.0
 40
1.0
 10
2191.622271402857
 20
-666.5888763522348
 30
0.0000000001127424
 10
2191.621209808514
 20
-666.5886757746816
 30
0.0000000001127424
 10
2191.618074516753
 20
-666.5880833928982
 30
0.0000000001127424
 10
2191.575506645679
 20
-666.5802097424325
 30
0.0000000001127424
 10
2191.479157804588
 20
-666.5629048460646
 30
0.0000000001127424
 10
2191.334949109472
 20
-666.5376137606859
 30
0.0000000001127424
 10
2191.144972000682
 20
-666.5055081328833
 30
0.0000000001127424
 10
2190.911264608296
 20
-666.4681102792788
 30
0.0000000001127424
 10
2190.635901891614
 20
-666.4268906331768
 30
0.0000000001127424
 10
2190.322073406903
 20
-666.3837722062412
 30
0.0000000001127424
 10
2189.973942359204
 20
-666.340654900127
 30
0.0000000001127424
 10
2189.595466914555
 20
-666.2994158040115
 30
0.0000000001127424
 10
2189.190883989682
 20
-666.2622357157593
 30
0.0000000001127424
 10
2188.765354186063
 20
-666.2304262046296
 30
0.0000000001127424
 10
2188.324219457429
 20
-666.205286341748
 30
0.0000000001127424
 10
2187.871609238066
 20
-666.1884577447877
 30
0.0000000001127424
 10
2187.412921185987
 20
-666.1802311820206
 30
0.0000000001127424
 10
2186.952627562257
 20
-666.1806141407483
 30
0.0000000001127424
 10
2186.495634637483
 20
-666.1902137754091
 30
0.0000000001127424
 10
2186.046597897187
 20
-666.208383630063
 30
0.0000000001127424
 10
2185.609135719279
 20
-666.2339812662462
 30
0.0000000001127424
 10
2185.188595968059
 20
-666.2663479666576
 30
0.0000000001127424
 10
2184.789591730219
 20
-666.304071826989
 30
0.0000000001127424
 10
2184.415395297743
 20
-666.3453266959145
 30
0.0000000001127424
 10
2184.071315950501
 20
-666.3884442201429
 30
0.0000000001127424
 10
2183.762357592074
 20
-666.4313885469851
 30
0.0000000001127424
 10
2183.490648034286
 20
-666.4723676772351
 30
0.0000000001127424
 10
2183.259773486334
 20
-666.5096071888242
 30
0.0000000001127424
 10
2183.074602600927
 20
-666.5409596897448
 30
0.0000000001127424
 10
2182.935639824685
 20
-666.5654331749743
 30
0.0000000001127424
 10
2182.843611598961
 20
-666.582172680201
 30
0.0000000001127424
 10
2182.807816724615
 20
-666.5887059853753
 30
0.0000000001127424
 10
2182.80516317318
 20
-666.5891912474813
 30
0.0000000001127424
 10
2182.804457941644
 20
-666.5893202150733
 30
0.0000000001127424
  0
LINE
  5
1B5DF
330
18
100
AcDbEntity
  8
01
100
AcDbLine
 10
2200.114620256361
 20
-616.5974787378659
 30
0.0000000001127424
 11
2200.114620256361
 21
-666.5974787378659
 31
0.0000000001127424
  0
SPLINE
  5
1B5E0
330
18
100
AcDbEntity
  8
01
100
AcDbSpline
210
0.0
220
0.0
230
1.0
 70
     8
 71
     3
 72
    20
 73
    16
 74
     0
 42
0.000000001
 43
0.00000001
 40
0.0
 40
0.0
 40
0.0
 40
0.0
 40
0.1249999999999998
 40
0.1249999999999998
 40
0.2499999999999996
 40
0.2499999999999996
 40
0.3749999999999993
 40
0.3749999999999993
 40
0.4999999999999991
 40
0.4999999999999991
 40
0.6249999999999989
 40
0.6249999999999989
 40
0.7499999999999987
 40
0.7499999999999987
 40
1.0
 40
1.0
 40
1.0
 40
1.0
 10
2178.11462025636
 20
-649.5974787378659
 30
0.0000000001127424
 10
2178.328185713793
 20
-649.5974787378659
 30
0.0000000001127424
 10
2178.541517588326
 20
-649.6205184191754
 30
0.0000000001127424
 10
2178.954071954789
 20
-649.7095980413856
 30
0.0000000001127424
 10
2179.151965441881
 20
-649.7748645302304
 30
0.0000000001127424
 10
2179.531451402015
 20
-649.9449656834636
 30
0.0000000001127424
 10
2179.713063955775
 20
-650.0506893519528
 30
0.0000000001127424
 10
2180.041396541213
 20
-650.2890828479599
 30
0.0000000001127424
 10
2180.190849686081
 20
-650.4228027161757
 30
0.0000000001127424
 10
2180.460976423106
 20
-650.7174369343616
 30
0.0000000001127424
 10
2180.578144971204
 20
-650.8748625467065
 30
0.0000000001127424
 10
2180.776422420498
 20
-651.200635940098
 30
0.0000000001127424
 10
2180.858354727526
 20
-651.3699514279247
 30
0.0000000001127424
 10
2181.054999469656
 20
-651.8947848773082
 30
0.0000000001127424
 10
2181.11462025636
 20
-652.2470557346091
 30
0.0000000001127424
 10
2181.11462025636
 20
-652.5974787378659
 30
0.0000000001127424
  0
SPLINE
  5
1B5E1
330
18
100
AcDbEntity
  8
01
100
AcDbSpline
210
0.0
220
0.0
230
1.0
 70
     8
 71
     3
 72
    22
 73
    18
 74
     0
 42
0.000000001
 43
0.00000001
 40
0.0
 40
0.0
 40
0.0
 40
0.0
 40
0.125
 40
0.125
 40
0.25
 40
0.25
 40
0.375
 40
0.375
 40
0.5
 40
0.5
 40
0.625
 40
0.625
 40
0.75
 40
0.75
 40
0.875
 40
0.875
 40
1.0
 40
1.0
 40
1.0
 40
1.0
 10
2181.11462025636
 20
-630.5974787378659
 30
0.0000000001127424
 10
2181.11462025636
 20
-630.7726144538115
 30
0.0000000001127424
 10
2181.099400531005
 20
-630.9483734485716
 30
0.0000000001127424
 10
2181.036499535521
 20
-631.3008007579397
 30
0.0000000001127424
 10
2180.988201646936
 20
-631.4788980209755
 30
0.0000000001127424
 10
2180.85781347956
 20
-631.8259985387226
 30
0.0000000001127424
 10
2180.776003962706
 20
-631.995335702703
 30
0.0000000001127424
 10
2180.575786913294
 20
-632.3236380623052
 30
0.0000000001127424
 10
2180.45697927024
 20
-632.4822732017424
 30
0.0000000001127424
 10
2180.189341819151
 20
-632.7733983958155
 30
0.0000000001127424
 10
2180.038625786448
 20
-632.9083951368307
 30
0.0000000001127424
 10
2179.705942802031
 20
-633.148914498071
 30
0.0000000001127424
 10
2179.528144965922
 20
-633.2517148305956
 30
0.0000000001127424
 10
2179.149421157168
 20
-633.4209886875883
 30
0.0000000001127424
 10
2178.946577374798
 20
-633.4874160021504
 30
0.0000000001127424
 10
2178.536834263216
 20
-633.5749987412969
 30
0.0000000001127424
 10
2178.327871894619
 20
-633.5974787378659
 30
0.0000000001127424
 10
2178.11462025636
 20
-633.5974787378659
 30
0.0000000001127424
  0
LINE
  5
1B5E2
330
18
100
AcDbEntity
  8
01
100
AcDbLine
 10
2162.914620256361
 20
-649.5974787378659
 30
0.0000000001127424
 11
2178.11462025636
 21
-649.5974787378659
 31
0.0000000001127424
  0
LINE
  5
1B5E3
330
18
100
AcDbEntity
  8
01
100
AcDbLine
 10
2162.61462025636
 20
-633.8974787378652
 30
0.0000000001127424
 11
2162.61462025636
 21
-634.7644699693069
 31
0.0000000001127424
  0
ARC
  5
1B5E4
330
18
100
AcDbEntity
  8
01
100
AcDbCircle
 10
2162.914620256361
 20
-633.8974787378652
 30
0.0000000001127424
 40
0.3000000000000114
100
AcDbArc
 50
90.0
 51
180.0
  0
LINE
  5
1B5E5
330
18
100
AcDbEntity
  8
01
100
AcDbLine
 10
2162.61462025636
 20
-648.4304875064249
 30
0.0000000001127424
 11
2162.61462025636
 21
-649.2974787378657
 31
0.0000000001127424
  0
ARC
  5
1B5E6
330
18
100
AcDbEntity
  8
01
100
AcDbCircle
 10
2162.914620256361
 20
-649.2974787378657
 30
0.0000000001127424
 40
0.3000000000000114
100
AcDbArc
 50
180.0
 51
270.0
  0
LINE
  5
1B5E7
330
18
100
AcDbEntity
  8
01
100
AcDbLine
 10
2178.11462025636
 20
-633.5974787378659
 30
0.0000000001127424
 11
2162.914620256361
 21
-633.5974787378659
 31
0.0000000001127424
  0
LINE
  5
1B5E8
330
18
100
AcDbEntity
  8
01
100
AcDbLine
 10
2181.11462025636
 20
-652.5974787378659
 30
0.0000000001127424
 11
2181.11462025636
 21
-665.5974787378659
 31
0.0000000001127424
  0
LINE
  5
1B5E9
330
18
100
AcDbEntity
  8
01
100
AcDbLine
 10
2181.11462025636
 20
-617.5974787378659
 30
0.0000000001127424
 11
2181.11462025636
 21
-630.5974787378659
 31
0.0000000001127424
  0
ARC
  5
1B5EB
330
18
100
AcDbEntity
  8
01
100
AcDbCircle
 10
2051.614510618842
 20
-641.5974787378659
 30
0.0000000001127424
 40
25.0
100
AcDbArc
 50
26.10388113734173
 51
153.8961188626583
  0
ARC
  5
1B5EC
330
18
100
AcDbEntity
  8
01
100
AcDbCircle
 10
2051.614510618842
 20
-641.5974787378659
 30
0.0000000001127424
 40
25.00000000000002
100
AcDbArc
 50
206.1038811373419
 51
333.8961188626581
  0
LINE
  5
1B5ED
330
18
100
AcDbEntity
  8
01
100
AcDbLine
 10
2081.614510618842
 20
-651.9974787378658
 30
0.0000000001127424
 11
2081.614510618842
 21
-631.1974787378658
 31
0.0000000001127424
  0
ARC
  5
1B5EE
330
18
100
AcDbEntity
  8
01
100
AcDbCircle
 10
2084.114510644919
 20
-652.3974787117888
 30
0.0000000001127424
 40
0.5
100
AcDbArc
 50
270.0
 51
0.0
  0
ARC
  5
1B5EF
330
18
100
AcDbEntity
  8
01
100
AcDbCircle
 10
2084.114510621171
 20
-630.7974783496907
 30
0.0000000001127424
 40
0.5
100
AcDbArc
 50
0.0
 51
90.0
  0
LINE
  5
1B5F0
330
18
100
AcDbEntity
  8
01
100
AcDbLine
 10
2084.114510621171
 20
-630.2974783496907
 30
0.0000000001127424
 11
2082.114510700799
 21
-630.2974783496907
 31
0.0000000001127424
  0
LINE
  5
1B5F1
330
18
100
AcDbEntity
  8
01
100
AcDbLine
 10
2082.114510700799
 20
-652.8974790738871
 30
0.0000000001127424
 11
2084.114510621171
 21
-652.8974790738871
 31
0.0000000001127424
  0
ARC
  5
1B5F2
330
18
100
AcDbEntity
  8
01
100
AcDbCircle
 10
2082.114510644919
 20
-652.3974787117888
 30
0.0000000001127424
 40
0.5
100
AcDbArc
 50
180.0
 51
270.0
  0
ARC
  5
1B5F3
330
18
100
AcDbEntity
  8
01
100
AcDbCircle
 10
2082.114510644919
 20
-630.7974787117887
 30
0.0000000001127424
 40
0.5
100
AcDbArc
 50
90.0
 51
180.0
  0
LINE
  5
1B5F4
330
18
100
AcDbEntity
  8
01
100
AcDbLine
 10
2084.614510644919
 20
-630.797478431647
 30
0.0000000001127424
 11
2084.614510644919
 21
-652.3974789919307
 31
0.0000000001127424
  0
LINE
  5
1B5F5
330
18
100
AcDbEntity
  8
01
100
AcDbLine
 10
2081.614510618842
 20
-652.3974789919307
 30
0.0000000001127424
 11
2081.614510618842
 21
-630.797478431647
 31
0.0000000001127424
  0
LINE
  5
1B5FA
330
18
100
AcDbEntity
  8
01
100
AcDbLine
 10
1935.114510618842
 20
-641.5974773945222
 30
0.0000000001102344
 11
1935.114510618842
 21
-630.7974773945225
 31
0.0000000001102344
  0
LINE
  5
1B5FB
330
18
100
AcDbEntity
  8
01
100
AcDbLine
 10
1935.114510618842
 20
-652.3974773945224
 30
0.0000000001102344
 11
1935.114510618842
 21
-641.5974773945222
 31
0.0000000001102344
  0
ARC
  5
1B631
330
18
100
AcDbEntity
  8
01
100
AcDbCircle
 10
1933.159405247598
 20
-631.2974773945225
 30
0.0000000001102344
 40
1.0
100
AcDbArc
 50
90.0
 51
147.1714582086085
  0
ARC
  5
1B632
330
18
100
AcDbEntity
  8
01
100
AcDbCircle
 10
1933.159405247598
 20
-651.8974773945224
 30
0.0000000001102344
 40
1.0
100
AcDbArc
 50
212.8285417913915
 51
270.0
  0
LINE
  5
1B633
330
18
100
AcDbEntity
  8
01
100
AcDbLine
 10
1933.159405247598
 20
-630.2974773945225
 30
0.0000000001102344
 11
1934.614510618842
 21
-630.2974773945225
 31
0.0000000001102344
  0
LINE
  5
1B634
330
18
100
AcDbEntity
  8
01
100
AcDbLine
 10
1934.614510618842
 20
-652.8974773945224
 30
0.0000000001102344
 11
1933.159405247598
 21
-652.8974773945224
 31
0.0000000001102344
  0
ARC
  5
1B635
330
18
100
AcDbEntity
  8
01
100
AcDbCircle
 10
1934.614510618842
 20
-652.3974773945224
 30
0.0000000001102344
 40
0.5
100
AcDbArc
 50
270.0
 51
0.0
  0
ARC
  5
1B636
330
18
100
AcDbEntity
  8
01
100
AcDbCircle
 10
1934.614510618842
 20
-630.7974773945225
 30
0.0000000001102344
 40
0.5
100
AcDbArc
 50
0.0
 51
90.0
  0
LINE
  5
1B637
330
18
100
AcDbEntity
  8
01
100
AcDbLine
 10
1932.319108599373
 20
-652.4396042643443
 30
0.0000000001102344
 11
1926.774213970619
 21
-643.8450175897747
 31
0.0000000001102344
  0
LINE
  5
1B638
330
18
100
AcDbEntity
  8
01
100
AcDbLine
 10
1926.774213970619
 20
-639.3499371992702
 30
0.0000000001102344
 11
1932.319108599373
 21
-630.7553505247001
 31
0.0000000001102344
  0
ARC
  5
1B639
330
18
100
AcDbEntity
  8
01
100
AcDbCircle
 10
1927.614510618842
 20
-643.3028907199528
 30
0.0000000001102344
 40
1.0
100
AcDbArc
 50
180.0
 51
212.8285417913915
  0
ARC
  5
1B63A
330
18
100
AcDbEntity
  8
01
100
AcDbCircle
 10
1927.614510618842
 20
-639.8920640690922
 30
0.0000000001102344
 40
1.0
100
AcDbArc
 50
147.1714582086085
 51
180.0
  0
LINE
  5
1B63B
330
18
100
AcDbEntity
  8
01
100
AcDbLine
 10
1926.614510618842
 20
-641.5974773945222
 30
0.0000000001102344
 11
1926.614510618842
 21
-643.3028907199528
 31
0.0000000001102344
  0
LINE
  5
1B63C
330
18
100
AcDbEntity
  8
01
100
AcDbLine
 10
1926.614510618842
 20
-639.8920640690922
 30
0.0000000001102344
 11
1926.614510618842
 21
-641.5974773945222
 31
0.0000000001102344
  0
LINE
  5
1B63D
330
18
100
AcDbEntity
  8
01
100
AcDbLine
 10
1932.319108599373
 20
-641.5974773945222
 30
0.0000000001102344
 11
1932.319108599373
 21
-652.4396042643443
 31
0.0000000001102344
  0
LINE
  5
1B63E
330
18
100
AcDbEntity
  8
01
100
AcDbLine
 10
1932.319108599373
 20
-630.7553505247001
 30
0.0000000001102344
 11
1932.319108599373
 21
-641.5974773945222
 31
0.0000000001102344
  0
LINE
  5
1B6F2
330
18
100
AcDbEntity
  8
01
100
AcDbLine
 10
2371.614626702231
 20
-350.0973556969266
 30
0.0000000001127424
 11
2366.614510618842
 21
-350.0973556969266
 31
0.0000000001127424
  0
LINE
  5
1B6F3
330
18
100
AcDbEntity
  8
01
100
AcDbLine
 10
2389.114638923446
 20
-331.0973556969266
 30
0.0000000001127424
 11
2370.283781611141
 21
-331.0973556969266
 31
0.0000000001127424
  0
LINE
  5
1B6F4
330
18
100
AcDbEntity
  8
01
100
AcDbLine
 10
2371.614626570025
 20
-393.0989200929366
 30
0.0000000001127424
 11
2366.614510618842
 21
-393.0989200929366
 31
0.0000000001127424
  0
ARC
  5
1BAE2
330
18
100
AcDbEntity
  8
01
100
AcDbCircle
 10
2507.114510618842
 20
-429.598918680864
 30
0.0000000001102214
 40
1.0
100
AcDbArc
 50
0.0
 51
90.0
  0
ARC
  5
1BAE3
330
18
100
AcDbEntity
  8
01
100
AcDbCircle
 10
2507.114510618842
 20
-449.598918680864
 30
0.0000000001102214
 40
1.0
100
AcDbArc
 50
270.0
 51
0.0
  0
LINE
  5
1BB0E
330
18
100
AcDbEntity
  8
01
100
AcDbLine
 10
2362.614510618842
 20
-450.5989200242079
 30
0.0000000001127089
 11
2507.114510618842
 21
-450.5989200242079
 31
0.0000000001127089
  0
LINE
  5
1BB0F
330
18
100
AcDbEntity
  8
01
100
AcDbLine
 10
2362.614510618842
 20
-428.5989200242077
 30
0.0000000001121476
 11
2366.72690383253
 21
-428.5989200242077
 31
0.0000000001120929
  0
LINE
  5
1BB10
330
18
100
AcDbEntity
  8
01
100
AcDbLine
 10
2416.504315903261
 20
-428.5989200242077
 30
0.0000000001114317
 11
2507.114510618842
 21
-428.5989200242077
 31
0.0000000001102281
  0
ARC
  5
1BB11
330
18
100
AcDbEntity
  8
01
100
AcDbCircle
 10
2362.614510618842
 20
-429.5989200242077
 30
0.0000000001127295
 40
1.0
100
AcDbArc
 50
90.0
 51
180.0
  0
ARC
  5
1BB12
330
18
100
AcDbEntity
  8
01
100
AcDbCircle
 10
2362.614510618842
 20
-449.5989200242077
 30
0.0000000001127295
 40
1.0
100
AcDbArc
 50
180.0
 51
270.0
  0
LINE
  5
1BB2D
330
18
100
AcDbEntity
  8
01
100
AcDbLine
 10
2361.614510618842
 20
-449.9989200242076
 30
0.0000000001127295
 11
2361.614510618842
 21
-429.1989200242076
 31
0.0000000001127295
  0
ARC
  5
1BB2E
330
18
100
AcDbEntity
  8
01
100
AcDbCircle
 10
2359.114510592765
 20
-450.3989199981306
 30
0.0000000001127295
 40
0.5
100
AcDbArc
 50
180.0
 51
270.0
  0
ARC
  5
1BB2F
330
18
100
AcDbEntity
  8
01
100
AcDbCircle
 10
2359.114510616514
 20
-428.7989196360325
 30
0.0000000001127295
 40
0.5
100
AcDbArc
 50
90.0
 51
180.0
  0
LINE
  5
1BB30
330
18
100
AcDbEntity
  8
01
100
AcDbLine
 10
2359.114510616514
 20
-428.2989196360325
 30
0.0000000001127295
 11
2361.114510536886
 21
-428.2989196360325
 31
0.0000000001127295
  0
LINE
  5
1BB31
330
18
100
AcDbEntity
  8
01
100
AcDbLine
 10
2361.114510536886
 20
-450.8989203602289
 30
0.0000000001127295
 11
2359.114510616514
 21
-450.8989203602289
 31
0.0000000001127295
  0
ARC
  5
1BB32
330
18
100
AcDbEntity
  8
01
100
AcDbCircle
 10
2361.114510592765
 20
-450.3989199981306
 30
0.0000000001127295
 40
0.5
100
AcDbArc
 50
270.0
 51
0.0
  0
ARC
  5
1BB33
330
18
100
AcDbEntity
  8
01
100
AcDbCircle
 10
2361.114510592765
 20
-428.7989199981305
 30
0.0000000001127295
 40
0.5
100
AcDbArc
 50
0.0
 51
90.0
  0
LINE
  5
1BB34
330
18
100
AcDbEntity
  8
01
100
AcDbLine
 10
2358.614510592765
 20
-428.7989197179888
 30
0.0000000001127295
 11
2358.614510592765
 21
-450.3989202782725
 31
0.0000000001127295
  0
LINE
  5
1BB35
330
18
100
AcDbEntity
  8
01
100
AcDbLine
 10
2361.614510618842
 20
-450.3989202782725
 30
0.0000000001127295
 11
2361.614510618842
 21
-428.7989197179888
 31
0.0000000001127295
  0
SPLINE
  5
1BB36
330
18
100
AcDbEntity
  8
01
100
AcDbSpline
210
0.0
220
0.0
230
1.0
 70
     8
 71
     3
 72
    25
 73
    21
 74
     0
 42
0.000000001
 43
0.00000001
 40
0.0
 40
0.0
 40
0.0
 40
0.0
 40
0.0010414547670499
 40
0.0078920961784771
 40
0.0124631917519568
 40
0.0153084684371826
 40
0.0182913233871006
 40
0.0230373513888648
 40
0.0335713171085232
 40
0.0577584301918357
 40
0.1223023187146578
 40
0.2340620789408601
 40
0.3433217029835016
 40
0.4495258120597231
 40
0.5560854677349036
 40
0.663679745446913
 40
0.7725124179311238
 40
0.882590620740218
 40
0.9938134037285269
 40
1.0
 40
1.0
 40
1.0
 40
1.0
 10
2366.615539640534
 20
-428.3050174711893
 30
0.0000000001127424
 10
2366.615383493989
 20
-428.3073882418666
 30
0.0000000001127424
 10
2366.614200222675
 20
-428.3253538326871
 30
0.0000000001127424
 10
2366.619340800791
 20
-428.3534600425505
 30
0.0000000001127424
 10
2366.626452225339
 20
-428.382760680207
 30
0.0000000001127424
 10
2366.631394284715
 20
-428.3976118383157
 30
0.0000000001127424
 10
2366.634813319304
 20
-428.4069739192641
 30
0.0000000001127424
 10
2366.63827867311
 20
-428.4155984753165
 30
0.0000000001127424
 10
2366.641547021001
 20
-428.4231347370287
 30
0.0000000001127424
 10
2366.645822468396
 20
-428.4325937002848
 30
0.0000000001127424
 10
2366.659226818992
 20
-428.461285660891
 30
0.0000000001127424
 10
2366.692671362576
 20
-428.5290139316633
 30
0.0000000001127424
 10
2366.753650291032
 20
-428.6533747026815
 30
0.0000000001127424
 10
2366.834257450473
 20
-428.8208774898922
 30
0.0000000001127424
 10
2366.932824833159
 20
-429.0307963681325
 30
0.0000000001127424
 10
2367.048906388663
 20
-429.2853991884735
 30
0.0000000001127424
 10
2367.180855324914
 20
-429.5836752041819
 30
0.0000000001127424
 10
2367.328051573289
 20
-429.9308769388131
 30
0.0000000001127424
 10
2367.43463661525
 20
-430.1866280089062
 30
0.0000000001127424
 10
2367.493535039115
 20
-430.3371523752207
 30
0.0000000001127424
 10
2367.496638545595
 20
-430.3450838836684
 30
0.0000000001127424
  0
SPLINE
  5
1BB37
330
18
100
AcDbEntity
  8
01
100
AcDbSpline
210
0.0
220
0.0
230
1.0
 70
     8
 71
     3
 72
    17
 73
    13
 74
     0
 42
0.000000001
 43
0.00000001
 40
0.0
 40
0.0
 40
0.0
 40
0.0
 40
0.1002957840704815
 40
0.2142673378537419
 40
0.327482717719165
 40
0.4389475003731197
 40
0.5489209533842896
 40
0.6589014246512871
 40
0.7684931801292328
 40
0.8773363251892716
 40
0.9681621498837771
 40
0.9999999999999999
 40
0.9999999999999999
 40
0.9999999999999999
 40
0.9999999999999999
 10
2415.713245767442
 20
-430.4345201996598
 30
0.0000000001127424
 10
2415.762266955854
 20
-430.3130653215308
 30
0.0000000001127424
 10
2415.866993586556
 20
-430.0535946603536
 30
0.0000000001127424
 10
2416.013761913818
 20
-429.7061683238576
 30
0.0000000001127424
 10
2416.15263295386
 20
-429.3842590290931
 30
0.0000000001127424
 10
2416.272850155354
 20
-429.1106269801821
 30
0.0000000001127424
 10
2416.374534313211
 20
-428.8829512707084
 30
0.0000000001127424
 10
2416.457224539856
 20
-428.7007932388328
 30
0.0000000001127424
 10
2416.520829190964
 20
-428.5630474008067
 30
0.0000000001127424
 10
2416.560034983373
 20
-428.4794466935455
 30
0.0000000001127424
 10
2416.579491234184
 20
-428.4392227816052
 30
0.0000000001127424
 10
2416.578997854125
 20
-428.440130882494
 30
0.0000000001127424
 10
2416.578869795347
 20
-428.4403665837322
 30
0.0000000001127424
  0
SPLINE
  5
1BB38
330
18
100
AcDbEntity
  8
01
100
AcDbSpline
210
0.0
220
0.0
230
1.0
 70
     8
 71
     3
 72
    14
 73
    10
 74
     0
 42
0.000000001
 43
0.00000001
 40
0.0
 40
0.0
 40
0.0
 40
0.0
 40
0.2320265698766933
 40
0.8154186661720276
 40
0.8978231064032898
 40
0.9224631684713309
 40
0.9411167382161877
 40
0.9729043060323125
 40
1.0
 40
1.0
 40
1.0
 40
1.0
 10
2416.549003875562
 20
-428.5032993956936
 30
0.0000000001127424
 10
2416.555027658987
 20
-428.4910751278703
 30
0.0000000001127424
 10
2416.576197240771
 20
-428.4481149782264
 30
0.0000000001127424
 10
2416.582915766337
 20
-428.432435180996
 30
0.0000000001127424
 10
2416.590579717068
 20
-428.4163755026229
 30
0.0000000001127424
 10
2416.597980209361
 20
-428.3970055536365
 30
0.0000000001127424
 10
2416.605123525107
 20
-428.3736483037451
 30
0.0000000001127424
 10
2416.612680919407
 20
-428.3417984785356
 30
0.0000000001127424
 10
2416.612533854581
 20
-428.3167034037813
 30
0.0000000001127424
 10
2416.612466181301
 20
-428.3051556660193
 30
0.0000000001127424
  0
LINE
  5
1BB39
330
18
100
AcDbEntity
  8
01
100
AcDbLine
 10
2366.617342498526
 20
-428.3049049702036
 30
0.0000000001127424
 11
2366.617445678488
 21
-428.3051230742785
 31
0.0000000001127424
  0
LINE
  5
1BB3A
330
18
100
AcDbEntity
  8
01
100
AcDbLine
 10
2415.240555201863
 20
-430.5989200929366
 30
0.0000000001127424
 11
2414.57099118534
 21
-430.5989200929366
 31
0.0000000001127424
  0
LINE
  5
1BB3B
330
18
100
AcDbEntity
  8
01
100
AcDbLine
 10
2368.658030052344
 20
-430.5989200929366
 30
0.0000000001127424
 11
2367.988466035822
 21
-430.5989200929366
 31
0.0000000001127424
  0
LINE
  5
1BB3C
330
18
100
AcDbEntity
  8
01
100
AcDbLine
 10
2414.57099118534
 20
-430.5989200929366
 30
0.0000000001127424
 11
2368.658030052344
 21
-430.5989200929366
 31
0.0000000001127424
  0
SPLINE
  5
1BB3D
330
18
100
AcDbEntity
  8
01
100
AcDbSpline
210
0.0
220
0.0
230
1.0
 70
     8
 71
     3
 72
    10
 73
     6
 74
     0
 42
0.000000001
 43
0.00000001
 40
0.0
 40
0.0
 40
0.0
 40
0.0
 40
0.5
 40
0.5
 40
0.9131629334268441
 40
0.9131629334268441
 40
0.9131629334268441
 40
0.9131629334268441
 10
2367.760494315366
 20
-430.5989200929366
 30
0.0000000001127424
 10
2367.682306017707
 20
-430.5989200929366
 30
0.0000000001127424
 10
2367.609133036047
 20
-430.5646440512696
 30
0.0000000001127424
 10
2367.520832768378
 20
-430.4627294306833
 30
0.0000000001127424
 10
2367.497625029426
 20
-430.4017321429503
 30
0.0000000001127424
 10
2367.494165608176
 20
-430.3387643425835
 30
0.0000000001127424
  0
LINE
  5
1BB3E
330
18
100
AcDbEntity
  8
01
100
AcDbLine
 10
2367.988466035822
 20
-430.5989200929366
 30
0.0000000001127424
 11
2367.760494315366
 21
-430.5989200929366
 31
0.0000000001127424
  0
SPLINE
  5
1BB3F
330
18
100
AcDbEntity
  8
01
100
AcDbSpline
210
0.0
220
0.0
230
1.0
 70
     8
 71
     3
 72
    10
 73
     6
 74
     0
 42
0.000000001
 43
0.00000001
 40
0.0
 40
0.0
 40
0.0
 40
0.0
 40
0.5
 40
0.5
 40
0.7232990038580591
 40
0.7232990038580591
 40
0.7232990038580591
 40
0.7232990038580591
 10
2415.468526922318
 20
-430.5989200929366
 30
0.0000000001127424
 10
2415.546715219978
 20
-430.5989200929366
 30
0.0000000001127424
 10
2415.619888201638
 20
-430.5646440512696
 30
0.0000000001127424
 10
2415.689829165411
 20
-430.4839194173076
 30
0.0000000001127424
 10
2415.706530647445
 20
-430.4546497482152
 30
0.0000000001127424
 10
2415.71786693411
 20
-430.4230708709379
 30
0.0000000001127424
  0
LINE
  5
1BB40
330
18
100
AcDbEntity
  8
01
100
AcDbLine
 10
2415.468526922317
 20
-430.5989200929366
 30
0.0000000001127424
 11
2415.240555201863
 21
-430.5989200929366
 31
0.0000000001127424
  0
LINE
  5
1BB41
330
18
100
AcDbEntity
  8
01
100
AcDbLine
 10
2508.114510618842
 20
-439.598918680864
 30
0.0000000001102214
 11
2508.114510618842
 21
-428.7989186808643
 31
0.0000000001102214
  0
LINE
  5
1BB42
330
18
100
AcDbEntity
  8
01
100
AcDbLine
 10
2508.114510618842
 20
-450.3989186808642
 30
0.0000000001102214
 11
2508.114510618842
 21
-439.598918680864
 31
0.0000000001102214
  0
ARC
  5
1BB43
330
18
100
AcDbEntity
  8
01
100
AcDbCircle
 10
2510.069615990087
 20
-429.2989186808643
 30
0.0000000001102214
 40
1.0
100
AcDbArc
 50
32.82854179139152
 51
90.0
  0
ARC
  5
1BB44
330
18
100
AcDbEntity
  8
01
100
AcDbCircle
 10
2510.069615990087
 20
-449.8989186808642
 30
0.0000000001102214
 40
1.0
100
AcDbArc
 50
270.0
 51
327.1714582086085
  0
LINE
  5
1BB45
330
18
100
AcDbEntity
  8
01
100
AcDbLine
 10
2510.069615990087
 20
-428.2989186808643
 30
0.0000000001102214
 11
2508.614510618842
 21
-428.2989186808643
 31
0.0000000001102214
  0
LINE
  5
1BB46
330
18
100
AcDbEntity
  8
01
100
AcDbLine
 10
2508.614510618842
 20
-450.8989186808642
 30
0.0000000001102214
 11
2510.069615990087
 21
-450.8989186808642
 31
0.0000000001102214
  0
ARC
  5
1BB47
330
18
100
AcDbEntity
  8
01
100
AcDbCircle
 10
2508.614510618842
 20
-450.3989186808642
 30
0.0000000001102214
 40
0.5
100
AcDbArc
 50
180.0
 51
270.0
  0
ARC
  5
1BB48
330
18
100
AcDbEntity
  8
01
100
AcDbCircle
 10
2508.614510618842
 20
-428.7989186808643
 30
0.0000000001102214
 40
0.5
100
AcDbArc
 50
90.0
 51
180.0
  0
LINE
  5
1BB49
330
18
100
AcDbEntity
  8
01
100
AcDbLine
 10
2510.909912638312
 20
-450.4410455506861
 30
0.0000000001102214
 11
2516.454807267066
 21
-441.8464588761165
 31
0.0000000001102214
  0
LINE
  5
1BB4A
330
18
100
AcDbEntity
  8
01
100
AcDbLine
 10
2516.454807267066
 20
-437.351378485612
 30
0.0000000001102214
 11
2510.909912638312
 21
-428.7567918110419
 31
0.0000000001102214
  0
ARC
  5
1BB4B
330
18
100
AcDbEntity
  8
01
100
AcDbCircle
 10
2515.614510618842
 20
-441.3043320062945
 30
0.0000000001102214
 40
1.0
100
AcDbArc
 50
327.1714582086085
 51
0.0
  0
ARC
  5
1BB4C
330
18
100
AcDbEntity
  8
01
100
AcDbCircle
 10
2515.614510618842
 20
-437.8935053554339
 30
0.0000000001102214
 40
1.0
100
AcDbArc
 50
0.0
 51
32.82854179139152
  0
LINE
  5
1BB4D
330
18
100
AcDbEntity
  8
01
100
AcDbLine
 10
2516.614510618842
 20
-439.598918680864
 30
0.0000000001102214
 11
2516.614510618842
 21
-441.3043320062945
 31
0.0000000001102214
  0
LINE
  5
1BB4E
330
18
100
AcDbEntity
  8
01
100
AcDbLine
 10
2516.614510618842
 20
-437.8935053554339
 30
0.0000000001102214
 11
2516.614510618842
 21
-439.598918680864
 31
0.0000000001102214
  0
LINE
  5
1BB4F
330
18
100
AcDbEntity
  8
01
100
AcDbLine
 10
2510.909912638312
 20
-439.598918680864
 30
0.0000000001102214
 11
2510.909912638312
 21
-450.4410455506861
 31
0.0000000001102214
  0
LINE
  5
1BB50
330
18
100
AcDbEntity
  8
01
100
AcDbLine
 10
2510.909912638312
 20
-428.7567918110419
 30
0.0000000001102214
 11
2510.909912638312
 21
-439.598918680864
 31
0.0000000001102214
  0
LINE
  5
1BB51
330
18
100
AcDbEntity
  8
01
100
AcDbLine
 10
2362.614510642591
 20
-652.5974787378661
 30
0.0000000001127219
 11
2507.114510642591
 21
-652.5974787378661
 31
0.0000000001127219
  0
LINE
  5
1BB52
330
18
100
AcDbEntity
  8
01
100
AcDbLine
 10
2362.614510642591
 20
-630.5974787378659
 30
0.0000000001121605
 11
2507.114510642591
 21
-630.5974787378659
 31
0.000000000110241
  0
ARC
  5
1BB53
330
18
100
AcDbEntity
  8
01
100
AcDbCircle
 10
2507.114510642591
 20
-631.5974773125658
 30
0.0000000001102344
 40
1.0
100
AcDbArc
 50
0.0
 51
90.0
  0
ARC
  5
1BB54
330
18
100
AcDbEntity
  8
01
100
AcDbCircle
 10
2507.114510642591
 20
-651.5974773125658
 30
0.0000000001102344
 40
1.0
100
AcDbArc
 50
270.0
 51
0.0
  0
ARC
  5
1BB55
330
18
100
AcDbEntity
  8
01
100
AcDbCircle
 10
2362.614510642591
 20
-631.5974786559095
 30
0.0000000001127424
 40
1.0
100
AcDbArc
 50
90.0
 51
180.0
  0
ARC
  5
1BB56
330
18
100
AcDbEntity
  8
01
100
AcDbCircle
 10
2362.614510642591
 20
-651.5974786559095
 30
0.0000000001127424
 40
1.0
100
AcDbArc
 50
180.0
 51
270.0
  0
ARC
  5
1BB73
330
18
100
AcDbEntity
  8
01
100
AcDbCircle
 10
2507.114510618842
 20
-313.5973571089992
 30
0.0000000001102214
 40
1.0
100
AcDbArc
 50
270.0
 51
0.0
  0
ARC
  5
1BB74
330
18
100
AcDbEntity
  8
01
100
AcDbCircle
 10
2507.114510618842
 20
-293.5973571089992
 30
0.0000000001102214
 40
1.0
100
AcDbArc
 50
0.0
 51
90.0
  0
LINE
  5
1BB9F
330
18
100
AcDbEntity
  8
01
100
AcDbLine
 10
2362.614510618842
 20
-292.5973557656553
 30
0.0000000001127089
 11
2507.114510618842
 21
-292.5973557656553
 31
0.0000000001127089
  0
LINE
  5
1BBA0
330
18
100
AcDbEntity
  8
01
100
AcDbLine
 10
2362.614510618842
 20
-314.5973557656555
 30
0.0000000001121476
 11
2366.72690383253
 21
-314.5973557656555
 31
0.0000000001120929
  0
LINE
  5
1BBA1
330
18
100
AcDbEntity
  8
01
100
AcDbLine
 10
2416.504315903261
 20
-314.5973557656555
 30
0.0000000001114317
 11
2507.114510618842
 21
-314.5973557656555
 31
0.0000000001102281
  0
ARC
  5
1BBA2
330
18
100
AcDbEntity
  8
01
100
AcDbCircle
 10
2362.614510618842
 20
-313.5973557656555
 30
0.0000000001127295
 40
1.0
100
AcDbArc
 50
180.0
 51
270.0
  0
ARC
  5
1BBA3
330
18
100
AcDbEntity
  8
01
100
AcDbCircle
 10
2362.614510618842
 20
-293.5973557656555
 30
0.0000000001127295
 40
1.0
100
AcDbArc
 50
90.0
 51
180.0
  0
LINE
  5
1BBA4
330
18
100
AcDbEntity
  8
01
100
AcDbLine
 10
2361.614510618842
 20
-293.1973557656556
 30
0.0000000001127295
 11
2361.614510618842
 21
-313.9973557656556
 31
0.0000000001127295
  0
ARC
  5
1BBA5
330
18
100
AcDbEntity
  8
01
100
AcDbCircle
 10
2359.114510592765
 20
-292.7973557917326
 30
0.0000000001127295
 40
0.5
100
AcDbArc
 50
90.0
 51
180.0
  0
ARC
  5
1BBA6
330
18
100
AcDbEntity
  8
01
100
AcDbCircle
 10
2359.114510616514
 20
-314.3973561538307
 30
0.0000000001127295
 40
0.5
100
AcDbArc
 50
180.0
 51
270.0
  0
LINE
  5
1BBA7
330
18
100
AcDbEntity
  8
01
100
AcDbLine
 10
2359.114510616514
 20
-314.8973561538307
 30
0.0000000001127295
 11
2361.114510536886
 21
-314.8973561538307
 31
0.0000000001127295
  0
LINE
  5
1BBA8
330
18
100
AcDbEntity
  8
01
100
AcDbLine
 10
2361.114510536886
 20
-292.2973554296343
 30
0.0000000001127295
 11
2359.114510616514
 21
-292.2973554296343
 31
0.0000000001127295
  0
ARC
  5
1BBA9
330
18
100
AcDbEntity
  8
01
100
AcDbCircle
 10
2361.114510592765
 20
-292.7973557917326
 30
0.0000000001127295
 40
0.5
100
AcDbArc
 50
0.0
 51
90.0
  0
ARC
  5
1BBAA
330
18
100
AcDbEntity
  8
01
100
AcDbCircle
 10
2361.114510592765
 20
-314.3973557917327
 30
0.0000000001127295
 40
0.5
100
AcDbArc
 50
270.0
 51
0.0
  0
LINE
  5
1BBAB
330
18
100
AcDbEntity
  8
01
100
AcDbLine
 10
2358.614510592765
 20
-314.3973560718744
 30
0.0000000001127295
 11
2358.614510592765
 21
-292.7973555115907
 31
0.0000000001127295
  0
LINE
  5
1BBAC
330
18
100
AcDbEntity
  8
01
100
AcDbLine
 10
2361.614510618842
 20
-292.7973555115907
 30
0.0000000001127295
 11
2361.614510618842
 21
-314.3973560718744
 31
0.0000000001127295
  0
SPLINE
  5
1BBAD
330
18
100
AcDbEntity
  8
01
100
AcDbSpline
210
0.0
220
0.0
230
1.0
 70
     8
 71
     3
 72
    25
 73
    21
 74
     0
 42
0.000000001
 43
0.00000001
 40
0.0
 40
0.0
 40
0.0
 40
0.0
 40
0.0010414547670499
 40
0.0078920961784771
 40
0.0124631917519568
 40
0.0153084684371826
 40
0.0182913233871006
 40
0.0230373513888648
 40
0.0335713171085232
 40
0.0577584301918357
 40
0.1223023187146578
 40
0.2340620789408601
 40
0.3433217029835016
 40
0.4495258120597231
 40
0.5560854677349036
 40
0.663679745446913
 40
0.7725124179311238
 40
0.882590620740218
 40
0.9938134037285269
 40
1.0
 40
1.0
 40
1.0
 40
1.0
 10
2366.615539640534
 20
-314.8912583186739
 30
0.0000000001127424
 10
2366.615383493989
 20
-314.8888875479965
 30
0.0000000001127424
 10
2366.614200222675
 20
-314.8709219571761
 30
0.0000000001127424
 10
2366.619340800791
 20
-314.8428157473127
 30
0.0000000001127424
 10
2366.626452225339
 20
-314.8135151096562
 30
0.0000000001127424
 10
2366.631394284715
 20
-314.7986639515475
 30
0.0000000001127424
 10
2366.634813319304
 20
-314.789301870599
 30
0.0000000001127424
 10
2366.63827867311
 20
-314.7806773145467
 30
0.0000000001127424
 10
2366.641547021001
 20
-314.7731410528345
 30
0.0000000001127424
 10
2366.645822468396
 20
-314.7636820895784
 30
0.0000000001127424
 10
2366.659226818992
 20
-314.7349901289722
 30
0.0000000001127424
 10
2366.692671362576
 20
-314.6672618581999
 30
0.0000000001127424
 10
2366.753650291032
 20
-314.5429010871817
 30
0.0000000001127424
 10
2366.834257450473
 20
-314.375398299971
 30
0.0000000001127424
 10
2366.932824833159
 20
-314.1654794217307
 30
0.0000000001127424
 10
2367.048906388663
 20
-313.9108766013896
 30
0.0000000001127424
 10
2367.180855324914
 20
-313.6126005856813
 30
0.0000000001127424
 10
2367.328051573289
 20
-313.2653988510501
 30
0.0000000001127424
 10
2367.43463661525
 20
-313.009647780957
 30
0.0000000001127424
 10
2367.493535039115
 20
-312.8591234146425
 30
0.0000000001127424
 10
2367.496638545595
 20
-312.8511919061948
 30
0.0000000001127424
  0
SPLINE
  5
1BBAE
330
18
100
AcDbEntity
  8
01
100
AcDbSpline
210
0.0
220
0.0
230
1.0
 70
     8
 71
     3
 72
    17
 73
    13
 74
     0
 42
0.000000001
 43
0.00000001
 40
0.0
 40
0.0
 40
0.0
 40
0.0
 40
0.1002957840704815
 40
0.2142673378537419
 40
0.327482717719165
 40
0.4389475003731197
 40
0.5489209533842896
 40
0.6589014246512871
 40
0.7684931801292328
 40
0.8773363251892716
 40
0.9681621498837771
 40
0.9999999999999999
 40
0.9999999999999999
 40
0.9999999999999999
 40
0.9999999999999999
 10
2415.713245767442
 20
-312.7617555902034
 30
0.0000000001127424
 10
2415.762266955854
 20
-312.8832104683324
 30
0.0000000001127424
 10
2415.866993586556
 20
-313.1426811295096
 30
0.0000000001127424
 10
2416.013761913818
 20
-313.4901074660056
 30
0.0000000001127424
 10
2416.15263295386
 20
-313.8120167607701
 30
0.0000000001127424
 10
2416.272850155354
 20
-314.0856488096811
 30
0.0000000001127424
 10
2416.374534313211
 20
-314.3133245191548
 30
0.0000000001127424
 10
2416.457224539856
 20
-314.4954825510304
 30
0.0000000001127424
 10
2416.520829190964
 20
-314.6332283890565
 30
0.0000000001127424
 10
2416.560034983373
 20
-314.7168290963177
 30
0.0000000001127424
 10
2416.579491234184
 20
-314.757053008258
 30
0.0000000001127424
 10
2416.578997854125
 20
-314.7561449073692
 30
0.0000000001127424
 10
2416.578869795347
 20
-314.755909206131
 30
0.0000000001127424
  0
SPLINE
  5
1BBAF
330
18
100
AcDbEntity
  8
01
100
AcDbSpline
210
0.0
220
0.0
230
1.0
 70
     8
 71
     3
 72
    14
 73
    10
 74
     0
 42
0.000000001
 43
0.00000001
 40
0.0
 40
0.0
 40
0.0
 40
0.0
 40
0.2320265698766933
 40
0.8154186661720276
 40
0.8978231064032898
 40
0.9224631684713309
 40
0.9411167382161877
 40
0.9729043060323125
 40
1.0
 40
1.0
 40
1.0
 40
1.0
 10
2416.549003875562
 20
-314.6929763941696
 30
0.0000000001127424
 10
2416.555027658987
 20
-314.7052006619929
 30
0.0000000001127424
 10
2416.576197240771
 20
-314.7481608116368
 30
0.0000000001127424
 10
2416.582915766337
 20
-314.7638406088672
 30
0.0000000001127424
 10
2416.590579717068
 20
-314.7799002872403
 30
0.0000000001127424
 10
2416.597980209361
 20
-314.7992702362267
 30
0.0000000001127424
 10
2416.605123525107
 20
-314.8226274861181
 30
0.0000000001127424
 10
2416.612680919407
 20
-314.8544773113276
 30
0.0000000001127424
 10
2416.612533854581
 20
-314.8795723860819
 30
0.0000000001127424
 10
2416.612466181301
 20
-314.8911201238438
 30
0.0000000001127424
  0
LINE
  5
1BBB0
330
18
100
AcDbEntity
  8
01
100
AcDbLine
 10
2366.617342498526
 20
-314.8913708196596
 30
0.0000000001127424
 11
2366.617445678488
 21
-314.8911527155847
 31
0.0000000001127424
  0
LINE
  5
1BBB1
330
18
100
AcDbEntity
  8
01
100
AcDbLine
 10
2415.240555201863
 20
-312.5973556969266
 30
0.0000000001127424
 11
2414.57099118534
 21
-312.5973556969266
 31
0.0000000001127424
  0
LINE
  5
1BBB2
330
18
100
AcDbEntity
  8
01
100
AcDbLine
 10
2368.658030052344
 20
-312.5973556969266
 30
0.0000000001127424
 11
2367.988466035822
 21
-312.5973556969266
 31
0.0000000001127424
  0
LINE
  5
1BBB3
330
18
100
AcDbEntity
  8
01
100
AcDbLine
 10
2414.57099118534
 20
-312.5973556969266
 30
0.0000000001127424
 11
2368.658030052344
 21
-312.5973556969266
 31
0.0000000001127424
  0
SPLINE
  5
1BBB4
330
18
100
AcDbEntity
  8
01
100
AcDbSpline
210
0.0
220
0.0
230
1.0
 70
     8
 71
     3
 72
    10
 73
     6
 74
     0
 42
0.000000001
 43
0.00000001
 40
0.0
 40
0.0
 40
0.0
 40
0.0
 40
0.5
 40
0.5
 40
0.9131629334268441
 40
0.9131629334268441
 40
0.9131629334268441
 40
0.9131629334268441
 10
2367.760494315366
 20
-312.5973556969266
 30
0.0000000001127424
 10
2367.682306017707
 20
-312.5973556969266
 30
0.0000000001127424
 10
2367.609133036047
 20
-312.6316317385936
 30
0.0000000001127424
 10
2367.520832768378
 20
-312.7335463591799
 30
0.0000000001127424
 10
2367.497625029426
 20
-312.7945436469129
 30
0.0000000001127424
 10
2367.494165608176
 20
-312.8575114472796
 30
0.0000000001127424
  0
LINE
  5
1BBB5
330
18
100
AcDbEntity
  8
01
100
AcDbLine
 10
2367.988466035822
 20
-312.5973556969266
 30
0.0000000001127424
 11
2367.760494315366
 21
-312.5973556969266
 31
0.0000000001127424
  0
SPLINE
  5
1BBB6
330
18
100
AcDbEntity
  8
01
100
AcDbSpline
210
0.0
220
0.0
230
1.0
 70
     8
 71
     3
 72
    10
 73
     6
 74
     0
 42
0.000000001
 43
0.00000001
 40
0.0
 40
0.0
 40
0.0
 40
0.0
 40
0.5
 40
0.5
 40
0.7232990038580591
 40
0.7232990038580591
 40
0.7232990038580591
 40
0.7232990038580591
 10
2415.468526922318
 20
-312.5973556969266
 30
0.0000000001127424
 10
2415.546715219978
 20
-312.5973556969266
 30
0.0000000001127424
 10
2415.619888201638
 20
-312.6316317385936
 30
0.0000000001127424
 10
2415.689829165411
 20
-312.7123563725556
 30
0.0000000001127424
 10
2415.706530647445
 20
-312.741626041648
 30
0.0000000001127424
 10
2415.71786693411
 20
-312.7732049189253
 30
0.0000000001127424
  0
LINE
  5
1BBB7
330
18
100
AcDbEntity
  8
01
100
AcDbLine
 10
2415.468526922317
 20
-312.5973556969266
 30
0.0000000001127424
 11
2415.240555201863
 21
-312.5973556969266
 31
0.0000000001127424
  0
LINE
  5
1BBB8
330
18
100
AcDbEntity
  8
01
100
AcDbLine
 10
2508.114510618842
 20
-303.5973571089992
 30
0.0000000001102214
 11
2508.114510618842
 21
-314.3973571089989
 31
0.0000000001102214
  0
LINE
  5
1BBB9
330
18
100
AcDbEntity
  8
01
100
AcDbLine
 10
2508.114510618842
 20
-292.797357108999
 30
0.0000000001102214
 11
2508.114510618842
 21
-303.5973571089992
 31
0.0000000001102214
  0
ARC
  5
1BBBA
330
18
100
AcDbEntity
  8
01
100
AcDbCircle
 10
2510.069615990087
 20
-313.8973571089989
 30
0.0000000001102214
 40
1.0
100
AcDbArc
 50
270.0
 51
327.1714582086085
  0
ARC
  5
1BBBB
330
18
100
AcDbEntity
  8
01
100
AcDbCircle
 10
2510.069615990087
 20
-293.297357108999
 30
0.0000000001102214
 40
1.0
100
AcDbArc
 50
32.82854179139152
 51
90.0
  0
LINE
  5
1BBBC
330
18
100
AcDbEntity
  8
01
100
AcDbLine
 10
2510.069615990087
 20
-314.8973571089989
 30
0.0000000001102214
 11
2508.614510618842
 21
-314.8973571089989
 31
0.0000000001102214
  0
LINE
  5
1BBBD
330
18
100
AcDbEntity
  8
01
100
AcDbLine
 10
2508.614510618842
 20
-292.297357108999
 30
0.0000000001102214
 11
2510.069615990087
 21
-292.297357108999
 31
0.0000000001102214
  0
ARC
  5
1BBBE
330
18
100
AcDbEntity
  8
01
100
AcDbCircle
 10
2508.614510618842
 20
-292.797357108999
 30
0.0000000001102214
 40
0.5
100
AcDbArc
 50
90.0
 51
180.0
  0
ARC
  5
1BBBF
330
18
100
AcDbEntity
  8
01
100
AcDbCircle
 10
2508.614510618842
 20
-314.3973571089989
 30
0.0000000001102214
 40
0.5
100
AcDbArc
 50
180.0
 51
270.0
  0
LINE
  5
1BBC0
330
18
100
AcDbEntity
  8
01
100
AcDbLine
 10
2510.909912638312
 20
-292.7552302391771
 30
0.0000000001102214
 11
2516.454807267066
 21
-301.3498169137467
 31
0.0000000001102214
  0
LINE
  5
1BBC1
330
18
100
AcDbEntity
  8
01
100
AcDbLine
 10
2516.454807267066
 20
-305.8448973042512
 30
0.0000000001102214
 11
2510.909912638312
 21
-314.4394839788213
 31
0.0000000001102214
  0
ARC
  5
1BBC2
330
18
100
AcDbEntity
  8
01
100
AcDbCircle
 10
2515.614510618842
 20
-301.8919437835686
 30
0.0000000001102214
 40
1.0
100
AcDbArc
 50
0.0
 51
32.82854179139152
  0
ARC
  5
1BBC3
330
18
100
AcDbEntity
  8
01
100
AcDbCircle
 10
2515.614510618842
 20
-305.3027704344292
 30
0.0000000001102214
 40
1.0
100
AcDbArc
 50
327.1714582086085
 51
0.0
  0
LINE
  5
1BBC4
330
18
100
AcDbEntity
  8
01
100
AcDbLine
 10
2516.614510618842
 20
-303.5973571089992
 30
0.0000000001102214
 11
2516.614510618842
 21
-301.8919437835686
 31
0.0000000001102214
  0
LINE
  5
1BBC5
330
18
100
AcDbEntity
  8
01
100
AcDbLine
 10
2516.614510618842
 20
-305.3027704344292
 30
0.0000000001102214
 11
2516.614510618842
 21
-303.5973571089992
 31
0.0000000001102214
  0
LINE
  5
1BBC6
330
18
100
AcDbEntity
  8
01
100
AcDbLine
 10
2510.909912638312
 20
-303.5973571089992
 30
0.0000000001102214
 11
2510.909912638312
 21
-292.7552302391771
 31
0.0000000001102214
  0
LINE
  5
1BBC7
330
18
100
AcDbEntity
  8
01
100
AcDbLine
 10
2510.909912638312
 20
-314.4394839788213
 30
0.0000000001102214
 11
2510.909912638312
 21
-303.5973571089992
 31
0.0000000001102214
  0
LINE
  5
1BC05
330
18
100
AcDbEntity
  8
01
100
AcDbLine
 10
2080.614510595094
 20
-652.5974787378661
 30
0.0000000001127219
 11
1936.114510595094
 21
-652.5974787378661
 31
0.0000000001127219
  0
LINE
  5
1BC06
330
18
100
AcDbEntity
  8
01
100
AcDbLine
 10
2080.614510595094
 20
-630.5974787378659
 30
0.0000000001121605
 11
1936.114510595094
 21
-630.5974787378659
 31
0.000000000110241
  0
ARC
  5
1BC07
330
18
100
AcDbEntity
  8
01
100
AcDbCircle
 10
1936.114510595094
 20
-631.5974773125658
 30
0.0000000001102344
 40
1.0
100
AcDbArc
 50
90.0
 51
180.0
  0
ARC
  5
1BC08
330
18
100
AcDbEntity
  8
01
100
AcDbCircle
 10
1936.114510595094
 20
-651.5974773125658
 30
0.0000000001102344
 40
1.0
100
AcDbArc
 50
180.0
 51
270.0
  0
ARC
  5
1BC09
330
18
100
AcDbEntity
  8
01
100
AcDbCircle
 10
2080.614510595094
 20
-631.5974786559095
 30
0.0000000001127424
 40
1.0
100
AcDbArc
 50
0.0
 51
90.0
  0
ARC
  5
1BC0A
330
18
100
AcDbEntity
  8
01
100
AcDbCircle
 10
2080.614510595094
 20
-651.5974786559095
 30
0.0000000001127424
 40
1.0
100
AcDbArc
 50
270.0
 51
0.0
  0
CIRCLE
  5
1C2E2
330
18
100
AcDbEntity
  8
01
100
AcDbCircle
 10
2391.614518618845
 20
-584.1974885337381
 30
0.0000000001127424
 40
2.5
  0
TEXT
  5
1C32C
330
18
100
AcDbEntity
  8
1TEXT
100
AcDbText
 10
2088.314755298334
 20
-398.3474787378657
 30
0.0000000001127424
 40
6.0
  1
表面処理：握り
 72
     1
 11
2112.214755298334
 21
-398.3474787378657
 31
0.0000000001127424
100
AcDbText
  0
TEXT
  5
1C32D
330
18
100
AcDbEntity
  8
1TEXT
100
AcDbText
 10
2091.414755298334
 20
-408.6004117271525
 30
0.0000000001127424
 40
6.0
  1
グレーレザー
 72
     1
 11
2112.214755298334
 21
-408.6004117271525
 31
0.0000000001127424
100
AcDbText
  0
LINE
  5
1C32E
330
18
100
AcDbEntity
  8
1DIM
100
AcDbLine
 10
2033.614755298334
 20
-390.0974787378657
 30
0.0000000001127424
 11
2191.114755298334
 21
-390.0974787378657
 31
0.0000000001127424
  0
LINE
  5
1C32F
330
18
100
AcDbEntity
  8
1DIM
100
AcDbLine
 10
2033.614755298334
 20
-400.5974787378657
 30
0.0000000001127424
 11
2191.114755298334
 21
-400.5974787378657
 31
0.0000000001127424
  0
LINE
  5
1C330
330
18
100
AcDbEntity
  8
1DIM
100
AcDbLine
 10
2138.614755298334
 20
-390.0974787378657
 30
0.0000000001127424
 11
2138.614755298334
 21
-411.0974787378657
 31
0.0000000001127424
  0
TEXT
  5
1C331
330
18
100
AcDbEntity
  8
1TEXT
100
AcDbText
 10
2154.414755298334
 20
-398.3474787378657
 30
0.0000000001127424
 40
6.0
  1
コード
 72
     1
 11
2164.714755298334
 21
-398.3474787378657
 31
0.0000000001127424
100
AcDbText
  0
LINE
  5
1C332
330
18
100
AcDbEntity
  8
1DIM
100
AcDbLine
 10
2191.114755298334
 20
-421.5974787378657
 30
0.0000000001127424
 11
2191.114755298334
 21
-390.0974787378657
 31
0.0000000001127424
  0
TEXT
  5
1C333
330
18
100
AcDbEntity
  8
1TEXT
100
AcDbText
 10
2035.014755298334
 20
-398.3474787378657
 30
0.0000000001127424
 40
6.0
  1
表面処理：脚部
 72
     1
 11
2059.714755298334
 21
-398.3474787378657
 31
0.0000000001127424
100
AcDbText
  0
LINE
  5
1C334
330
18
100
AcDbEntity
  8
1DIM
100
AcDbLine
 10
2086.114755298334
 20
-411.0974787378657
 30
0.0000000001127424
 11
2191.114755298334
 21
-411.0974787378657
 31
0.0000000001127424
  0
LINE
  5
1C335
330
18
100
AcDbEntity
  8
1DIM
100
AcDbLine
 10
2138.614755298334
 20
-411.0974787378657
 30
0.0000000001127424
 11
2138.614755298334
 21
-421.5974787378657
 31
0.0000000001127424
  0
LINE
  5
1C336
330
18
100
AcDbEntity
  8
1DIM
100
AcDbLine
 10
2086.114755298334
 20
-421.5974787378657
 30
0.0000000001127424
 11
2086.114755298334
 21
-411.0974787378657
 31
0.0000000001127424
  0
LINE
  5
1C337
330
18
100
AcDbEntity
  8
1DIM
100
AcDbLine
 10
2033.614755298334
 20
-421.5974787378657
 30
0.0000000001127424
 11
2033.614755298334
 21
-411.0974787378657
 31
0.0000000001127424
  0
LINE
  5
1C338
330
18
100
AcDbEntity
  8
1DIM
100
AcDbLine
 10
2033.614755298334
 20
-411.0974787378657
 30
0.0000000001127424
 11
2033.614755298334
 21
-390.0974787378657
 31
0.0000000001127424
  0
LINE
  5
1C339
330
18
100
AcDbEntity
  8
1DIM
100
AcDbLine
 10
2086.114755298334
 20
-411.0974787378657
 30
0.0000000001127424
 11
2086.114755298334
 21
-390.0974787378657
 31
0.0000000001127424
  0
LINE
  5
1C33A
330
18
100
AcDbEntity
  8
1DIM
100
AcDbLine
 10
2033.614755298334
 20
-421.5974787378657
 30
0.0000000001127424
 11
2191.114755298334
 21
-421.5974787378657
 31
0.0000000001127424
  0
LINE
  5
1C33B
330
18
100
AcDbEntity
  8
1DIM
100
AcDbLine
 10
2033.614755298334
 20
-421.5974787378657
 30
0.0000000001127424
 11
2191.114755298334
 21
-421.5974787378657
 31
0.0000000001127424
  0
TEXT
  5
1C33C
330
18
100
AcDbEntity
  8
1TEXT
100
AcDbText
 10
2046.411867117624
 20
-414.1815510477176
 30
0.0000000001127424
 40
6.0
  1
クローム
 72
     1
 11
2060.611867117624
 21
-414.1815510477176
 31
0.0000000001127424
100
AcDbText
  0
LINE
  5
1C33D
330
18
100
AcDbEntity
  8
1DIM
100
AcDbLine
 10
2033.614755298334
 20
-421.5974787378657
 30
0.0000000001127424
 11
2191.114755298334
 21
-421.5974787378657
 31
0.0000000001127424
  0
TEXT
  5
1C33E
330
18
100
AcDbEntity
  8
1TEXT
100
AcDbText
 10
2087.914755298334
 20
-419.1004117271525
 30
0.0000000001127424
 40
6.0
  1
ブラックレザー
 72
     1
 11
2112.214755298334
 21
-419.1004117271525
 31
0.0000000001127424
100
AcDbText
  0
TEXT
  5
1C33F
330
18
100
AcDbEntity
  8
1TEXT
100
AcDbText
 10
2142.202255298334
 20
-409.1690142133396
 30
0.0000000001127424
 40
6.0
  1
3-WKC-C105-LJ
 41
0.6
 72
     1
 11
2164.714755298334
 21
-409.1690142133396
 31
0.0000000001127424
100
AcDbText
  0
TEXT
  5
1C340
330
18
100
AcDbEntity
  8
1TEXT
100
AcDbText
 10
2142.214755298334
 20
-419.6690142133396
 30
0.0000000001127424
 40
6.0
  1
3-WKC-C104-LJ
 41
0.6
 72
     1
 11
2164.714755298334
 21
-419.6690142133396
 31
0.0000000001127424
100
AcDbText
  0
LINE
  5
1C56D
330
18
100
AcDbEntity
  8
01
100
AcDbLine
 10
2031.614390279095
 20
-586.0974787378657
 30
0.0000000001127424
 11
2031.614390279095
 21
-557.2974787378657
 31
0.0000000001127424
1001
ACAD
1000
DSTYLE
1002
{
1070
     3
1000
φ<>
1070
    40
1040
1.3
1070
    45
1040
0.5
1070
   271
1070
     4
1070
   272
1070
     2
1002
}
  0
LINE
  5
1C56E
330
18
100
AcDbEntity
  8
01
100
AcDbLine
 10
2071.614390279095
 20
-586.0974787378657
 30
0.0000000001127424
 11
2071.614390279095
 21
-557.2974787378657
 31
0.0000000001127424
1001
ACAD
1000
DSTYLE
1002
{
1070
     3
1000
φ<>
1070
    40
1040
1.3
1070
    45
1040
0.5
1070
   271
1070
     4
1070
   272
1070
     2
1002
}
  0
LINE
  5
1C56F
330
18
100
AcDbEntity
  8
01
100
AcDbLine
 10
2034.214390279095
 20
-558.5974787378657
 30
0.0000000001127424
 11
2069.014390279095
 21
-558.5974787378657
 31
0.0000000001127424
1001
ACAD
1000
DSTYLE
1002
{
1070
     3
1000
φ<>
1070
    40
1040
1.3
1070
    45
1040
0.5
1070
   271
1070
     4
1070
   272
1070
     2
1002
}
  0
LINE
  5
1C573
330
18
100
AcDbEntity
  8
01
100
AcDbLine
 10
2201.614626958589
 20
-566.0974787378657
 30
0.0000000001127424
 11
2201.614626958589
 21
-534.2974787378657
 31
0.0000000001127424
1001
ACAD
1000
DSTYLE
1002
{
1070
    40
1040
1.3
1070
    45
1040
0.5
1070
   341
1005
0
1002
}
  0
LINE
  5
1C574
330
18
100
AcDbEntity
  8
01
100
AcDbLine
 10
2179.614241392869
 20
-581.5974837378646
 30
0.0000000001127424
 11
2179.614241392869
 21
-534.2974787378657
 31
0.0000000001127424
1001
ACAD
1000
DSTYLE
1002
{
1070
    40
1040
1.3
1070
    45
1040
0.5
1070
   341
1005
0
1002
}
  0
LINE
  5
1C575
330
18
100
AcDbEntity
  8
01
100
AcDbLine
 10
2199.014626958589
 20
-535.5974787378657
 30
0.0000000001127424
 11
2182.214241392869
 21
-535.5974787378657
 31
0.0000000001127424
1001
ACAD
1000
DSTYLE
1002
{
1070
    40
1040
1.3
1070
    45
1040
0.5
1070
   341
1005
0
1002
}
  0
LINE
  5
1C579
330
18
100
AcDbEntity
  8
01
100
AcDbLine
 10
2371.614510296383
 20
-586.0974787378657
 30
0.0000000001127424
 11
2371.614510296383
 21
-557.2974787378657
 31
0.0000000001127424
1001
ACAD
1000
DSTYLE
1002
{
1070
     3
1000
φ<>
1070
    40
1040
1.3
1070
    45
1040
0.5
1070
   271
1070
     4
1070
   272
1070
     2
1002
}
  0
LINE
  5
1C57A
330
18
100
AcDbEntity
  8
01
100
AcDbLine
 10
2411.614510296383
 20
-586.0974787378657
 30
0.0000000001127424
 11
2411.614510296383
 21
-557.2974787378657
 31
0.0000000001127424
1001
ACAD
1000
DSTYLE
1002
{
1070
     3
1000
φ<>
1070
    40
1040
1.3
1070
    45
1040
0.5
1070
   271
1070
     4
1070
   272
1070
     2
1002
}
  0
LINE
  5
1C57B
330
18
100
AcDbEntity
  8
01
100
AcDbLine
 10
2374.214510296383
 20
-558.5974787378657
 30
0.0000000001127424
 11
2409.014510296383
 21
-558.5974787378657
 31
0.0000000001127424
1001
ACAD
1000
DSTYLE
1002
{
1070
     3
1000
φ<>
1070
    40
1040
1.3
1070
    45
1040
0.5
1070
   271
1070
     4
1070
   272
1070
     2
1002
}
  0
LINE
  5
1C57F
330
18
100
AcDbEntity
  8
01
100
AcDbLine
 10
2031.614390279095
 20
-586.0974787378657
 30
0.0000000001127424
 11
2031.614390279095
 21
-557.2974787378657
 31
0.0000000001127424
1001
ACAD
1000
DSTYLE
1002
{
1070
     3
1000
φ<>
1070
    40
1040
1.3
1070
    45
1040
0.5
1070
   271
1070
     4
1070
   272
1070
     2
1002
}
  0
LINE
  5
1C580
330
18
100
AcDbEntity
  8
01
100
AcDbLine
 10
2071.614390279095
 20
-586.0974787378657
 30
0.0000000001127424
 11
2071.614390279095
 21
-557.2974787378657
 31
0.0000000001127424
1001
ACAD
1000
DSTYLE
1002
{
1070
     3
1000
φ<>
1070
    40
1040
1.3
1070
    45
1040
0.5
1070
   271
1070
     4
1070
   272
1070
     2
1002
}
  0
LINE
  5
1C581
330
18
100
AcDbEntity
  8
01
100
AcDbLine
 10
2034.214390279095
 20
-558.5974787378657
 30
0.0000000001127424
 11
2069.014390279095
 21
-558.5974787378657
 31
0.0000000001127424
1001
ACAD
1000
DSTYLE
1002
{
1070
     3
1000
φ<>
1070
    40
1040
1.3
1070
    45
1040
0.5
1070
   271
1070
     4
1070
   272
1070
     2
1002
}
  0
LINE
  5
1C585
330
18
100
AcDbEntity
  8
01
100
AcDbLine
 10
2201.614626958589
 20
-566.0974787378657
 30
0.0000000001127424
 11
2201.614626958589
 21
-534.2974787378657
 31
0.0000000001127424
1001
ACAD
1000
DSTYLE
1002
{
1070
    40
1040
1.3
1070
    45
1040
0.5
1070
   341
1005
0
1002
}
  0
LINE
  5
1C586
330
18
100
AcDbEntity
  8
01
100
AcDbLine
 10
2179.614602147577
 20
-582.9770089130898
 30
0.0000000001127424
 11
2179.614602147577
 21
-534.2974787378657
 31
0.0000000001127424
1001
ACAD
1000
DSTYLE
1002
{
1070
    40
1040
1.3
1070
    45
1040
0.5
1070
   341
1005
0
1002
}
  0
LINE
  5
1C587
330
18
100
AcDbEntity
  8
01
100
AcDbLine
 10
2199.014626958589
 20
-535.5974787378657
 30
0.0000000001127424
 11
2182.214602147577
 21
-535.5974787378657
 31
0.0000000001127424
1001
ACAD
1000
DSTYLE
1002
{
1070
    40
1040
1.3
1070
    45
1040
0.5
1070
   341
1005
0
1002
}
  0
LINE
  5
1C58B
330
18
100
AcDbEntity
  8
01
100
AcDbLine
 10
2241.614626958588
 20
-566.0974787378657
 30
0.0
 11
2241.614626958588
 21
-534.2974787378657
 31
0.0
1001
ACAD
1000
DSTYLE
1002
{
1070
    40
1040
1.3
1070
    45
1040
0.5
1070
   271
1070
     1
1070
   341
1005
0
1002
}
  0
LINE
  5
1C58C
330
18
100
AcDbEntity
  8
01
100
AcDbLine
 10
2249.783210647549
 20
-591.5974771701735
 30
0.0
 11
2249.783210647549
 21
-534.2974787378657
 31
0.0
1001
ACAD
1000
DSTYLE
1002
{
1070
    40
1040
1.3
1070
    45
1040
0.5
1070
   271
1070
     1
1070
   341
1005
0
1002
}
  0
LINE
  5
1C58D
330
18
100
AcDbEntity
  8
01
100
AcDbLine
 10
2244.214626958588
 20
-535.5974787378657
 30
0.0
 11
2247.183210647549
 21
-535.5974787378657
 31
0.0
1001
ACAD
1000
DSTYLE
1002
{
1070
    40
1040
1.3
1070
    45
1040
0.5
1070
   271
1070
     1
1070
   341
1005
0
1002
}
  0
TEXT
  5
1C591
330
18
100
AcDbEntity
  8
01
  6
CONTINUOUS
100
AcDbText
 10
2282.157229831765
 20
-407.721697859852
 30
0.0000000001127424
 40
4.55
  1
材質：亜鉛ダイキャスト
100
AcDbText
  0
TEXT
  5
1C592
330
18
100
AcDbEntity
  8
01
  6
CONTINUOUS
100
AcDbText
 10
2292.470563165098
 20
-415.3050311931853
 30
0.0000000001127424
 40
4.55
  1
仕上げ：各種メッキ
100
AcDbText
  0
LINE
  5
1C593
330
18
100
AcDbEntity
  8
01
100
AcDbLine
 10
2329.614510618842
 20
-613.5974794359972
 30
0.0000000001127424
 11
2329.614510618842
 21
-510.8759866531779
 31
0.0000000001127424
1001
ACAD
1000
DSTYLE
1002
{
1070
    40
1040
1.3
1070
    45
1040
0.5
1002
}
  0
LINE
  5
1C594
330
18
100
AcDbEntity
  8
01
100
AcDbLine
 10
2340.614510618842
 20
-555.7261613867083
 30
0.0000000001127424
 11
2340.614510618842
 21
-510.8759866531779
 31
0.0000000001127424
1001
ACAD
1000
DSTYLE
1002
{
1070
    40
1040
1.3
1070
    45
1040
0.5
1002
}
  0
LINE
  5
1C595
330
18
100
AcDbEntity
  8
01
100
AcDbLine
 10
2332.214510618842
 20
-512.1759866531779
 30
0.0000000001127424
 11
2338.014510618842
 21
-512.1759866531779
 31
0.0000000001127424
1001
ACAD
1000
DSTYLE
1002
{
1070
    40
1040
1.3
1070
    45
1040
0.5
1002
}
  0
LINE
  5
1C599
330
18
100
AcDbEntity
  8
01
100
AcDbLine
 10
2409.614510618842
 20
-583.5974787378659
 30
0.0000000001127424
 11
2437.914510618843
 21
-583.5974787378659
 31
0.0000000001127424
1001
ACAD
1000
DSTYLE
1002
{
1070
    40
1040
1.3
1070
    45
1040
0.5
1002
}
  0
LINE
  5
1C59A
330
18
100
AcDbEntity
  8
01
100
AcDbLine
 10
2409.614510618842
 20
-657.5974787378664
 30
0.0000000001127424
 11
2437.914510618843
 21
-657.5974787378664
 31
0.0000000001127424
1001
ACAD
1000
DSTYLE
1002
{
1070
    40
1040
1.3
1070
    45
1040
0.5
1002
}
  0
LINE
  5
1C59B
330
18
100
AcDbEntity
  8
01
100
AcDbLine
 10
2436.614510618842
 20
-586.1974787378659
 30
0.0000000001127424
 11
2436.614510618842
 21
-654.9974787378663
 31
0.0000000001127424
1001
ACAD
1000
DSTYLE
1002
{
1070
    40
1040
1.3
1070
    45
1040
0.5
1002
}
  0
LINE
  5
1C59F
330
18
100
AcDbEntity
  8
01
100
AcDbLine
 10
2409.614510618842
 20
-583.5974787378659
 30
0.0000000001127424
 11
2409.614510618842
 21
-500.7961191851297
 31
0.0000000001127424
1001
ACAD
1000
DSTYLE
1002
{
1070
    40
1040
1.3
1070
    45
1040
0.5
1002
}
  0
LINE
  5
1C5A0
330
18
100
AcDbEntity
  8
01
100
AcDbLine
 10
2340.614510618842
 20
-555.7261613867083
 30
0.0000000001127424
 11
2340.614510618842
 21
-500.7961191851297
 31
0.0000000001127424
1001
ACAD
1000
DSTYLE
1002
{
1070
    40
1040
1.3
1070
    45
1040
0.5
1002
}
  0
LINE
  5
1C5A1
330
18
100
AcDbEntity
  8
01
100
AcDbLine
 10
2407.014510618842
 20
-502.0961191851297
 30
0.0000000001127424
 11
2343.214510618842
 21
-502.0961191851297
 31
0.0000000001127424
1001
ACAD
1000
DSTYLE
1002
{
1070
    40
1040
1.3
1070
    45
1040
0.5
1002
}
  0
LINE
  5
1C5A5
330
18
100
AcDbEntity
  8
01
100
AcDbLine
 10
2340.614510618842
 20
-555.7261613867083
 30
0.0000000001127424
 11
2340.614510618842
 21
-510.8759866531779
 31
0.0000000001127424
1001
ACAD
1000
DSTYLE
1002
{
1070
    40
1040
1.3
1070
    45
1040
0.5
1002
}
  0
LINE
  5
1C5A6
330
18
100
AcDbEntity
  8
01
100
AcDbLine
 10
2391.614510618842
 20
-591.5974787378659
 30
0.0000000001127424
 11
2391.614510618842
 21
-510.8759866531779
 31
0.0000000001127424
1001
ACAD
1000
DSTYLE
1002
{
1070
    40
1040
1.3
1070
    45
1040
0.5
1002
}
  0
LINE
  5
1C5A7
330
18
100
AcDbEntity
  8
01
100
AcDbLine
 10
2343.214510618842
 20
-512.1759866531779
 30
0.0000000001127424
 11
2389.014510618842
 21
-512.1759866531779
 31
0.0000000001127424
1001
ACAD
1000
DSTYLE
1002
{
1070
    40
1040
1.3
1070
    45
1040
0.5
1002
}
  0
LINE
  5
1C5AB
330
18
100
AcDbEntity
  8
01
100
AcDbLine
 10
2209.114626958587
 20
-561.5974787378664
 30
0.0000000001127424
 11
2209.114626958587
 21
-510.8759866531781
 31
0.0000000001127424
1001
ACAD
1000
DSTYLE
1002
{
1070
    40
1040
1.3
1070
    45
1040
0.5
1002
}
  0
LINE
  5
1C5AC
330
18
100
AcDbEntity
  8
01
100
AcDbLine
 10
2234.114626958587
 20
-561.5974787378664
 30
0.0000000001127424
 11
2234.114626958587
 21
-510.8759866531781
 31
0.0000000001127424
1001
ACAD
1000
DSTYLE
1002
{
1070
    40
1040
1.3
1070
    45
1040
0.5
1002
}
  0
LINE
  5
1C5AD
330
18
100
AcDbEntity
  8
01
100
AcDbLine
 10
2211.714626958587
 20
-512.1759866531781
 30
0.0000000001127424
 11
2231.514626958587
 21
-512.1759866531781
 31
0.0000000001127424
1001
ACAD
1000
DSTYLE
1002
{
1070
    40
1040
1.3
1070
    45
1040
0.5
1002
}
  0
LINE
  5
1C5B1
330
18
100
AcDbEntity
  8
01
100
AcDbLine
 10
2227.416566561823
 20
-563.5970335934501
 30
0.0000000001691137
 11
2307.702697730031
 21
-563.5970335934501
 31
0.0000000001691137
1001
ACAD
1000
DSTYLE
1002
{
1070
    40
1040
1.3
1070
    45
1040
0.5
1002
}
  0
LINE
  5
1C5B2
330
18
100
AcDbEntity
  8
01
100
AcDbLine
 10
2227.416566561823
 20
-677.5970335934501
 30
0.0000000001691137
 11
2307.702697730031
 21
-677.5970335934501
 31
0.0000000001691137
1001
ACAD
1000
DSTYLE
1002
{
1070
    40
1040
1.3
1070
    45
1040
0.5
1002
}
  0
LINE
  5
1C5B3
330
18
100
AcDbEntity
  8
01
100
AcDbLine
 10
2306.402697730031
 20
-566.1970335934501
 30
0.0000000001691137
 11
2306.402697730031
 21
-674.99703359345
 31
0.0000000001691137
1001
ACAD
1000
DSTYLE
1002
{
1070
    40
1040
1.3
1070
    45
1040
0.5
1002
}
  0
LINE
  5
1C5B7
330
18
100
AcDbEntity
  8
01
100
AcDbLine
 10
2228.014626958587
 20
-555.6974787378665
 30
0.0000000001691137
 11
2317.067031896256
 21
-555.6974787378665
 31
0.0000000001691137
1001
ACAD
1000
DSTYLE
1002
{
1070
    40
1040
1.3
1070
    45
1040
0.5
1002
}
  0
LINE
  5
1C5B8
330
18
100
AcDbEntity
  8
01
100
AcDbLine
 10
2227.941541153917
 20
-685.4970335934499
 30
0.0000000001691137
 11
2317.067031896256
 21
-685.4970335934499
 31
0.0000000001691137
1001
ACAD
1000
DSTYLE
1002
{
1070
    40
1040
1.3
1070
    45
1040
0.5
1002
}
  0
LINE
  5
1C5B9
330
18
100
AcDbEntity
  8
01
100
AcDbLine
 10
2315.767031896256
 20
-558.2974787378665
 30
0.0000000001691137
 11
2315.767031896256
 21
-682.8970335934499
 31
0.0000000001691137
1001
ACAD
1000
DSTYLE
1002
{
1070
    40
1040
1.3
1070
    45
1040
0.5
1002
}
  0
LINE
  5
1C5BD
330
18
100
AcDbEntity
  8
01
100
AcDbLine
 10
2391.614510618842
 20
-616.5974787378659
 30
0.0000000001127424
 11
2355.314510618842
 21
-616.5974787378659
 31
0.0000000001127424
1001
ACAD
1000
DSTYLE
1002
{
1070
     3
1000
φ<>
1070
    40
1040
1.3
1070
    45
1040
0.5
1002
}
  0
LINE
  5
1C5BE
330
18
100
AcDbEntity
  8
01
100
AcDbLine
 10
2391.614510618842
 20
-666.5974787378659
 30
0.0000000001127424
 11
2355.314510618842
 21
-666.5974787378659
 31
0.0000000001127424
1001
ACAD
1000
DSTYLE
1002
{
1070
     3
1000
φ<>
1070
    40
1040
1.3
1070
    45
1040
0.5
1002
}
  0
LINE
  5
1C5BF
330
18
100
AcDbEntity
  8
01
100
AcDbLine
 10
2356.614510618842
 20
-619.1974787378659
 30
0.0000000001127424
 11
2356.614510618842
 21
-663.9974787378659
 31
0.0000000001127424
1001
ACAD
1000
DSTYLE
1002
{
1070
     3
1000
φ<>
1070
    40
1040
1.3
1070
    45
1040
0.5
1002
}
  0
TEXT
  5
1C5C3
330
18
100
AcDbEntity
  8
01
  6
CONTINUOUS
100
AcDbText
 10
2269.879387826211
 20
-435.5175884785632
 30
0.0000000001127424
 40
4.55
  1
材質：亜鉛ダイキャスト
100
AcDbText
  0
TEXT
  5
1C5C4
330
18
100
AcDbEntity
  8
01
  6
CONTINUOUS
100
AcDbText
 10
2280.192721159544
 20
-443.1009218118965
 30
0.0000000001127424
 40
4.55
  1
仕上げ：各種メッキ
100
AcDbText
  0
TEXT
  5
1C5C5
330
18
100
AcDbEntity
  8
01
  6
CONTINUOUS
100
AcDbText
 10
2443.427278297303
 20
-403.4609367740713
 30
0.0000000001127424
 40
4.55
  1
材質：亜鉛ダイキャスト
100
AcDbText
  0
TEXT
  5
1C5C6
330
18
100
AcDbEntity
  8
01
  6
CONTINUOUS
100
AcDbText
 10
2453.740611630636
 20
-411.0442701074047
 30
0.0000000001127424
 40
4.55
  1
仕上げ：各種メッキ
100
AcDbText
  0
LINE
  5
1C5C7
330
18
100
AcDbEntity
  8
01
  6
BYBLOCK
100
AcDbLine
 10
2034.214390279095
 20
-559.2941466318657
 30
0.0000000001127424
 11
2031.614390279095
 21
-558.5974787378657
 31
0.0000000001127424
  0
LINE
  5
1C5C8
330
18
100
AcDbEntity
  8
01
  6
BYBLOCK
100
AcDbLine
 10
2031.614390279095
 20
-558.5974787378657
 30
0.0000000001127424
 11
2034.214390279095
 21
-557.9008108438657
 31
0.0000000001127424
  0
LINE
  5
1C5C9
330
18
100
AcDbEntity
  8
01
  6
BYBLOCK
100
AcDbLine
 10
2031.614390279095
 20
-558.5974787378657
 30
0.0000000001127424
 11
2034.214390279095
 21
-558.5974787378657
 31
0.0000000001127424
  0
LINE
  5
1C5CA
330
18
100
AcDbEntity
  8
01
  6
BYBLOCK
100
AcDbLine
 10
2069.014390279095
 20
-557.9008108438657
 30
0.0000000001127424
 11
2071.614390279095
 21
-558.5974787378657
 31
0.0000000001127424
  0
LINE
  5
1C5CB
330
18
100
AcDbEntity
  8
01
  6
BYBLOCK
100
AcDbLine
 10
2071.614390279095
 20
-558.5974787378657
 30
0.0000000001127424
 11
2069.014390279095
 21
-559.2941466318657
 31
0.0000000001127424
  0
LINE
  5
1C5CC
330
18
100
AcDbEntity
  8
01
  6
BYBLOCK
100
AcDbLine
 10
2071.614390279095
 20
-558.5974787378657
 30
0.0000000001127424
 11
2069.014390279095
 21
-558.5974787378657
 31
0.0000000001127424
  0
TEXT
  5
1C5CD
330
18
100
AcDbEntity
  8
01
  6
CONTINUOUS
100
AcDbText
 10
2044.770431945761
 20
-557.6874787378657
 30
0.0000000001127424
 40
4.55
  1
φ40
100
AcDbText
1001
ACAD
1000
DSTYLE
1002
{
1070
     3
1000
φ<>
1070
    40
1040
1.3
1070
    45
1040
0.5
1070
   271
1070
     4
1070
   272
1070
     2
1002
}
  0
LINE
  5
1C5CE
330
18
100
AcDbEntity
  8
01
  6
BYBLOCK
100
AcDbLine
 10
2199.014626958589
 20
-534.9008108438657
 30
0.0000000001127424
 11
2201.614626958589
 21
-535.5974787378657
 31
0.0000000001127424
  0
LINE
  5
1C5CF
330
18
100
AcDbEntity
  8
01
  6
BYBLOCK
100
AcDbLine
 10
2201.614626958589
 20
-535.5974787378657
 30
0.0000000001127424
 11
2199.014626958589
 21
-536.2941466318657
 31
0.0000000001127424
  0
LINE
  5
1C5D0
330
18
100
AcDbEntity
  8
01
  6
BYBLOCK
100
AcDbLine
 10
2201.614626958589
 20
-535.5974787378657
 30
0.0000000001127424
 11
2199.014626958589
 21
-535.5974787378657
 31
0.0000000001127424
  0
LINE
  5
1C5D1
330
18
100
AcDbEntity
  8
01
  6
BYBLOCK
100
AcDbLine
 10
2182.214241392869
 20
-536.2941466318657
 30
0.0000000001127424
 11
2179.614241392869
 21
-535.5974787378657
 31
0.0000000001127424
  0
LINE
  5
1C5D2
330
18
100
AcDbEntity
  8
01
  6
BYBLOCK
100
AcDbLine
 10
2179.614241392869
 20
-535.5974787378657
 30
0.0000000001127424
 11
2182.214241392869
 21
-534.9008108438657
 31
0.0000000001127424
  0
LINE
  5
1C5D3
330
18
100
AcDbEntity
  8
01
  6
BYBLOCK
100
AcDbLine
 10
2179.614241392869
 20
-535.5974787378657
 30
0.0000000001127424
 11
2182.214241392869
 21
-535.5974787378657
 31
0.0000000001127424
  0
TEXT
  5
1C5D4
330
18
100
AcDbEntity
  8
01
  6
CONTINUOUS
100
AcDbText
 10
2186.822767509062
 20
-534.6874787378657
 30
0.0000000001127424
 40
4.55
  1
22
100
AcDbText
1001
ACAD
1000
DSTYLE
1002
{
1070
    40
1040
1.3
1070
    45
1040
0.5
1070
   341
1005
0
1002
}
  0
LINE
  5
1C5D5
330
18
100
AcDbEntity
  8
01
  6
BYBLOCK
100
AcDbLine
 10
2374.214510296383
 20
-559.2941466318657
 30
0.0000000001127424
 11
2371.614510296383
 21
-558.5974787378657
 31
0.0000000001127424
  0
LINE
  5
1C5D6
330
18
100
AcDbEntity
  8
01
  6
BYBLOCK
100
AcDbLine
 10
2371.614510296383
 20
-558.5974787378657
 30
0.0000000001127424
 11
2374.214510296383
 21
-557.9008108438657
 31
0.0000000001127424
  0
LINE
  5
1C5D7
330
18
100
AcDbEntity
  8
01
  6
BYBLOCK
100
AcDbLine
 10
2371.614510296383
 20
-558.5974787378657
 30
0.0000000001127424
 11
2374.214510296383
 21
-558.5974787378657
 31
0.0000000001127424
  0
LINE
  5
1C5D8
330
18
100
AcDbEntity
  8
01
  6
BYBLOCK
100
AcDbLine
 10
2409.014510296383
 20
-557.9008108438657
 30
0.0000000001127424
 11
2411.614510296383
 21
-558.5974787378657
 31
0.0000000001127424
  0
LINE
  5
1C5D9
330
18
100
AcDbEntity
  8
01
  6
BYBLOCK
100
AcDbLine
 10
2411.614510296383
 20
-558.5974787378657
 30
0.0000000001127424
 11
2409.014510296383
 21
-559.2941466318657
 31
0.0000000001127424
  0
LINE
  5
1C5DA
330
18
100
AcDbEntity
  8
01
  6
BYBLOCK
100
AcDbLine
 10
2411.614510296383
 20
-558.5974787378657
 30
0.0000000001127424
 11
2409.014510296383
 21
-558.5974787378657
 31
0.0000000001127424
  0
TEXT
  5
1C5DB
330
18
100
AcDbEntity
  8
01
  6
CONTINUOUS
100
AcDbText
 10
2384.77055196305
 20
-557.6874787378657
 30
0.0000000001127424
 40
4.55
  1
φ40
100
AcDbText
1001
ACAD
1000
DSTYLE
1002
{
1070
     3
1000
φ<>
1070
    40
1040
1.3
1070
    45
1040
0.5
1070
   271
1070
     4
1070
   272
1070
     2
1002
}
  0
LINE
  5
1C5DC
330
18
100
AcDbEntity
  8
01
  6
BYBLOCK
100
AcDbLine
 10
2034.214390279095
 20
-559.2941466318657
 30
0.0000000001127424
 11
2031.614390279095
 21
-558.5974787378657
 31
0.0000000001127424
  0
LINE
  5
1C5DD
330
18
100
AcDbEntity
  8
01
  6
BYBLOCK
100
AcDbLine
 10
2031.614390279095
 20
-558.5974787378657
 30
0.0000000001127424
 11
2034.214390279095
 21
-557.9008108438657
 31
0.0000000001127424
  0
LINE
  5
1C5DE
330
18
100
AcDbEntity
  8
01
  6
BYBLOCK
100
AcDbLine
 10
2031.614390279095
 20
-558.5974787378657
 30
0.0000000001127424
 11
2034.214390279095
 21
-558.5974787378657
 31
0.0000000001127424
  0
LINE
  5
1C5DF
330
18
100
AcDbEntity
  8
01
  6
BYBLOCK
100
AcDbLine
 10
2069.014390279095
 20
-557.9008108438657
 30
0.0000000001127424
 11
2071.614390279095
 21
-558.5974787378657
 31
0.0000000001127424
  0
LINE
  5
1C5E0
330
18
100
AcDbEntity
  8
01
  6
BYBLOCK
100
AcDbLine
 10
2071.614390279095
 20
-558.5974787378657
 30
0.0000000001127424
 11
2069.014390279095
 21
-559.2941466318657
 31
0.0000000001127424
  0
LINE
  5
1C5E1
330
18
100
AcDbEntity
  8
01
  6
BYBLOCK
100
AcDbLine
 10
2071.614390279095
 20
-558.5974787378657
 30
0.0000000001127424
 11
2069.014390279095
 21
-558.5974787378657
 31
0.0000000001127424
  0
TEXT
  5
1C5E2
330
18
100
AcDbEntity
  8
01
  6
CONTINUOUS
100
AcDbText
 10
2044.770431945761
 20
-557.6874787378657
 30
0.0000000001127424
 40
4.55
  1
φ40
100
AcDbText
1001
ACAD
1000
DSTYLE
1002
{
1070
     3
1000
φ<>
1070
    40
1040
1.3
1070
    45
1040
0.5
1070
   271
1070
     4
1070
   272
1070
     2
1002
}
  0
LINE
  5
1C5E3
330
18
100
AcDbEntity
  8
01
  6
BYBLOCK
100
AcDbLine
 10
2199.014626958589
 20
-534.9008108438657
 30
0.0000000001127424
 11
2201.614626958589
 21
-535.5974787378657
 31
0.0000000001127424
  0
LINE
  5
1C5E4
330
18
100
AcDbEntity
  8
01
  6
BYBLOCK
100
AcDbLine
 10
2201.614626958589
 20
-535.5974787378657
 30
0.0000000001127424
 11
2199.014626958589
 21
-536.2941466318657
 31
0.0000000001127424
  0
LINE
  5
1C5E5
330
18
100
AcDbEntity
  8
01
  6
BYBLOCK
100
AcDbLine
 10
2201.614626958589
 20
-535.5974787378657
 30
0.0000000001127424
 11
2199.014626958589
 21
-535.5974787378657
 31
0.0000000001127424
  0
LINE
  5
1C5E6
330
18
100
AcDbEntity
  8
01
  6
BYBLOCK
100
AcDbLine
 10
2182.214602147577
 20
-536.2941466318657
 30
0.0000000001127424
 11
2179.614602147577
 21
-535.5974787378657
 31
0.0000000001127424
  0
LINE
  5
1C5E7
330
18
100
AcDbEntity
  8
01
  6
BYBLOCK
100
AcDbLine
 10
2179.614602147577
 20
-535.5974787378657
 30
0.0000000001127424
 11
2182.214602147577
 21
-534.9008108438657
 31
0.0000000001127424
  0
LINE
  5
1C5E8
330
18
100
AcDbEntity
  8
01
  6
BYBLOCK
100
AcDbLine
 10
2179.614602147577
 20
-535.5974787378657
 30
0.0000000001127424
 11
2182.214602147577
 21
-535.5974787378657
 31
0.0000000001127424
  0
TEXT
  5
1C5E9
330
18
100
AcDbEntity
  8
01
  6
CONTINUOUS
100
AcDbText
 10
2186.822947886416
 20
-534.6874787378657
 30
0.0000000001127424
 40
4.55
  1
22
100
AcDbText
1001
ACAD
1000
DSTYLE
1002
{
1070
    40
1040
1.3
1070
    45
1040
0.5
1070
   341
1005
0
1002
}
  0
LINE
  5
1C5EA
330
18
100
AcDbEntity
  8
01
  6
BYBLOCK
100
AcDbLine
 10
2244.214626958588
 20
-536.2941466318657
 30
0.0
 11
2241.614626958588
 21
-535.5974787378657
 31
0.0
  0
LINE
  5
1C5EB
330
18
100
AcDbEntity
  8
01
  6
BYBLOCK
100
AcDbLine
 10
2241.614626958588
 20
-535.5974787378657
 30
0.0
 11
2244.214626958588
 21
-534.9008108438657
 31
0.0
  0
LINE
  5
1C5EC
330
18
100
AcDbEntity
  8
01
  6
BYBLOCK
100
AcDbLine
 10
2241.614626958588
 20
-535.5974787378657
 30
0.0
 11
2244.214626958588
 21
-535.5974787378657
 31
0.0
  0
LINE
  5
1C5ED
330
18
100
AcDbEntity
  8
01
  6
BYBLOCK
100
AcDbLine
 10
2247.183210647549
 20
-534.9008108438657
 30
0.0
 11
2249.783210647549
 21
-535.5974787378657
 31
0.0
  0
LINE
  5
1C5EE
330
18
100
AcDbEntity
  8
01
  6
BYBLOCK
100
AcDbLine
 10
2249.783210647549
 20
-535.5974787378657
 30
0.0
 11
2247.183210647549
 21
-536.2941466318657
 31
0.0
  0
LINE
  5
1C5EF
330
18
100
AcDbEntity
  8
01
  6
BYBLOCK
100
AcDbLine
 10
2249.783210647549
 20
-535.5974787378657
 30
0.0
 11
2247.183210647549
 21
-535.5974787378657
 31
0.0
  0
TEXT
  5
1C5F0
330
18
100
AcDbEntity
  8
01
  6
CONTINUOUS
100
AcDbText
 10
2244.182252136402
 20
-534.6874787378657
 30
0.0
 40
4.55
  1
8
100
AcDbText
1001
ACAD
1000
DSTYLE
1002
{
1070
    40
1040
1.3
1070
    45
1040
0.5
1070
   271
1070
     1
1070
   341
1005
0
1002
}
  0
LINE
  5
1C5F1
330
18
100
AcDbEntity
  8
01
  6
BYBLOCK
100
AcDbLine
 10
2332.214510618842
 20
-512.872654547178
 30
0.0000000001127424
 11
2329.614510618842
 21
-512.1759866531779
 31
0.0000000001127424
  0
LINE
  5
1C5F2
330
18
100
AcDbEntity
  8
01
  6
BYBLOCK
100
AcDbLine
 10
2329.614510618842
 20
-512.1759866531779
 30
0.0000000001127424
 11
2332.214510618842
 21
-511.4793187591779
 31
0.0000000001127424
  0
LINE
  5
1C5F3
330
18
100
AcDbEntity
  8
01
  6
BYBLOCK
100
AcDbLine
 10
2329.614510618842
 20
-512.1759866531779
 30
0.0000000001127424
 11
2332.214510618842
 21
-512.1759866531779
 31
0.0000000001127424
  0
LINE
  5
1C5F4
330
18
100
AcDbEntity
  8
01
  6
BYBLOCK
100
AcDbLine
 10
2338.014510618842
 20
-511.4793187591779
 30
0.0000000001127424
 11
2340.614510618842
 21
-512.1759866531779
 31
0.0000000001127424
  0
LINE
  5
1C5F5
330
18
100
AcDbEntity
  8
01
  6
BYBLOCK
100
AcDbLine
 10
2340.614510618842
 20
-512.1759866531779
 30
0.0000000001127424
 11
2338.014510618842
 21
-512.872654547178
 31
0.0000000001127424
  0
LINE
  5
1C5F6
330
18
100
AcDbEntity
  8
01
  6
BYBLOCK
100
AcDbLine
 10
2340.614510618842
 20
-512.1759866531779
 30
0.0000000001127424
 11
2338.014510618842
 21
-512.1759866531779
 31
0.0000000001127424
  0
TEXT
  5
1C5F7
330
18
100
AcDbEntity
  8
01
  6
CONTINUOUS
100
AcDbText
 10
2332.839510618842
 20
-511.2659866531779
 30
0.0000000001127424
 40
4.55
  1
11
100
AcDbText
1001
ACAD
1000
DSTYLE
1002
{
1070
    40
1040
1.3
1070
    45
1040
0.5
1002
}
  0
LINE
  5
1C5F8
330
18
100
AcDbEntity
  8
01
  6
BYBLOCK
100
AcDbLine
 10
2435.917842724843
 20
-586.1974787378659
 30
0.0000000001127424
 11
2436.614510618842
 21
-583.5974787378659
 31
0.0000000001127424
  0
LINE
  5
1C5F9
330
18
100
AcDbEntity
  8
01
  6
BYBLOCK
100
AcDbLine
 10
2436.614510618842
 20
-583.5974787378659
 30
0.0000000001127424
 11
2437.311178512842
 21
-586.1974787378659
 31
0.0000000001127424
  0
LINE
  5
1C5FA
330
18
100
AcDbEntity
  8
01
  6
BYBLOCK
100
AcDbLine
 10
2436.614510618842
 20
-583.5974787378659
 30
0.0000000001127424
 11
2436.614510618842
 21
-586.1974787378659
 31
0.0000000001127424
  0
LINE
  5
1C5FB
330
18
100
AcDbEntity
  8
01
  6
BYBLOCK
100
AcDbLine
 10
2437.311178512842
 20
-654.9974787378663
 30
0.0000000001127424
 11
2436.614510618842
 21
-657.5974787378664
 31
0.0000000001127424
  0
LINE
  5
1C5FC
330
18
100
AcDbEntity
  8
01
  6
BYBLOCK
100
AcDbLine
 10
2436.614510618842
 20
-657.5974787378664
 30
0.0000000001127424
 11
2435.917842724843
 21
-654.9974787378663
 31
0.0000000001127424
  0
LINE
  5
1C5FD
330
18
100
AcDbEntity
  8
01
  6
BYBLOCK
100
AcDbLine
 10
2436.614510618842
 20
-657.5974787378664
 30
0.0000000001127424
 11
2436.614510618842
 21
-654.9974787378663
 31
0.0000000001127424
  0
TEXT
  5
1C5FE
330
18
100
AcDbEntity
  8
01
  6
CONTINUOUS
100
AcDbText
 10
2435.704510618843
 20
-602.6261346518472
 30
0.0000000001127424
 40
4.55
  1
74
 50
90.0
100
AcDbText
1001
ACAD
1000
DSTYLE
1002
{
1070
    40
1040
1.3
1070
    45
1040
0.5
1002
}
  0
LINE
  5
1C5FF
330
18
100
AcDbEntity
  8
01
  6
BYBLOCK
100
AcDbLine
 10
2407.014510618842
 20
-501.3994512911298
 30
0.0000000001127424
 11
2409.614510618842
 21
-502.0961191851297
 31
0.0000000001127424
  0
LINE
  5
1C600
330
18
100
AcDbEntity
  8
01
  6
BYBLOCK
100
AcDbLine
 10
2409.614510618842
 20
-502.0961191851297
 30
0.0000000001127424
 11
2407.014510618842
 21
-502.7927870791297
 31
0.0000000001127424
  0
LINE
  5
1C601
330
18
100
AcDbEntity
  8
01
  6
BYBLOCK
100
AcDbLine
 10
2409.614510618842
 20
-502.0961191851297
 30
0.0000000001127424
 11
2407.014510618842
 21
-502.0961191851297
 31
0.0000000001127424
  0
LINE
  5
1C602
330
18
100
AcDbEntity
  8
01
  6
BYBLOCK
100
AcDbLine
 10
2343.214510618842
 20
-502.7927870791297
 30
0.0000000001127424
 11
2340.614510618842
 21
-502.0961191851297
 31
0.0000000001127424
  0
LINE
  5
1C603
330
18
100
AcDbEntity
  8
01
  6
BYBLOCK
100
AcDbLine
 10
2340.614510618842
 20
-502.0961191851297
 30
0.0000000001127424
 11
2343.214510618842
 21
-501.3994512911298
 31
0.0000000001127424
  0
LINE
  5
1C604
330
18
100
AcDbEntity
  8
01
  6
BYBLOCK
100
AcDbLine
 10
2340.614510618842
 20
-502.0961191851297
 30
0.0000000001127424
 11
2343.214510618842
 21
-502.0961191851297
 31
0.0000000001127424
  0
TEXT
  5
1C605
330
18
100
AcDbEntity
  8
01
  6
CONTINUOUS
100
AcDbText
 10
2371.305992100324
 20
-501.1861191851298
 30
0.0000000001127424
 40
4.55
  1
69
100
AcDbText
1001
ACAD
1000
DSTYLE
1002
{
1070
    40
1040
1.3
1070
    45
1040
0.5
1002
}
  0
LINE
  5
1C606
330
18
100
AcDbEntity
  8
01
  6
BYBLOCK
100
AcDbLine
 10
2343.214510618842
 20
-512.872654547178
 30
0.0000000001127424
 11
2340.614510618842
 21
-512.1759866531779
 31
0.0000000001127424
  0
LINE
  5
1C607
330
18
100
AcDbEntity
  8
01
  6
BYBLOCK
100
AcDbLine
 10
2340.614510618842
 20
-512.1759866531779
 30
0.0000000001127424
 11
2343.214510618842
 21
-511.4793187591779
 31
0.0000000001127424
  0
LINE
  5
1C608
330
18
100
AcDbEntity
  8
01
  6
BYBLOCK
100
AcDbLine
 10
2340.614510618842
 20
-512.1759866531779
 30
0.0000000001127424
 11
2343.214510618842
 21
-512.1759866531779
 31
0.0000000001127424
  0
LINE
  5
1C609
330
18
100
AcDbEntity
  8
01
  6
BYBLOCK
100
AcDbLine
 10
2389.014510618842
 20
-511.4793187591779
 30
0.0000000001127424
 11
2391.614510618842
 21
-512.1759866531779
 31
0.0000000001127424
  0
LINE
  5
1C60A
330
18
100
AcDbEntity
  8
01
  6
BYBLOCK
100
AcDbLine
 10
2391.614510618842
 20
-512.1759866531779
 30
0.0000000001127424
 11
2389.014510618842
 21
-512.872654547178
 31
0.0000000001127424
  0
LINE
  5
1C60B
330
18
100
AcDbEntity
  8
01
  6
BYBLOCK
100
AcDbLine
 10
2391.614510618842
 20
-512.1759866531779
 30
0.0000000001127424
 11
2389.014510618842
 21
-512.1759866531779
 31
0.0000000001127424
  0
TEXT
  5
1C60C
330
18
100
AcDbEntity
  8
01
  6
CONTINUOUS
100
AcDbText
 10
2363.065378674398
 20
-511.2659866531779
 30
0.0000000001127424
 40
4.55
  1
51
100
AcDbText
1001
ACAD
1000
DSTYLE
1002
{
1070
    40
1040
1.3
1070
    45
1040
0.5
1002
}
  0
LINE
  5
1C60D
330
18
100
AcDbEntity
  8
01
  6
BYBLOCK
100
AcDbLine
 10
2211.714626958587
 20
-512.8726545471782
 30
0.0000000001127424
 11
2209.114626958587
 21
-512.1759866531781
 31
0.0000000001127424
  0
LINE
  5
1C60E
330
18
100
AcDbEntity
  8
01
  6
BYBLOCK
100
AcDbLine
 10
2209.114626958587
 20
-512.1759866531781
 30
0.0000000001127424
 11
2211.714626958587
 21
-511.4793187591782
 31
0.0000000001127424
  0
LINE
  5
1C60F
330
18
100
AcDbEntity
  8
01
  6
BYBLOCK
100
AcDbLine
 10
2209.114626958587
 20
-512.1759866531781
 30
0.0000000001127424
 11
2211.714626958587
 21
-512.1759866531781
 31
0.0000000001127424
  0
LINE
  5
1C610
330
18
100
AcDbEntity
  8
01
  6
BYBLOCK
100
AcDbLine
 10
2231.514626958587
 20
-511.4793187591782
 30
0.0000000001127424
 11
2234.114626958587
 21
-512.1759866531781
 31
0.0000000001127424
  0
LINE
  5
1C611
330
18
100
AcDbEntity
  8
01
  6
BYBLOCK
100
AcDbLine
 10
2234.114626958587
 20
-512.1759866531781
 30
0.0000000001127424
 11
2231.514626958587
 21
-512.8726545471782
 31
0.0000000001127424
  0
LINE
  5
1C612
330
18
100
AcDbEntity
  8
01
  6
BYBLOCK
100
AcDbLine
 10
2234.114626958587
 20
-512.1759866531781
 30
0.0000000001127424
 11
2231.514626958587
 21
-512.1759866531781
 31
0.0000000001127424
  0
TEXT
  5
1C613
330
18
100
AcDbEntity
  8
01
  6
CONTINUOUS
100
AcDbText
 10
2217.82296029192
 20
-511.2659866531782
 30
0.0000000001127424
 40
4.55
  1
25
100
AcDbText
1001
ACAD
1000
DSTYLE
1002
{
1070
    40
1040
1.3
1070
    45
1040
0.5
1002
}
  0
LINE
  5
1C614
330
18
100
AcDbEntity
  8
01
  6
BYBLOCK
100
AcDbLine
 10
2305.706029836031
 20
-566.1970335934501
 30
0.0000000001691137
 11
2306.402697730031
 21
-563.5970335934501
 31
0.0000000001691137
  0
LINE
  5
1C615
330
18
100
AcDbEntity
  8
01
  6
BYBLOCK
100
AcDbLine
 10
2306.402697730031
 20
-563.5970335934501
 30
0.0000000001691137
 11
2307.099365624031
 21
-566.1970335934501
 31
0.0000000001691137
  0
LINE
  5
1C616
330
18
100
AcDbEntity
  8
01
  6
BYBLOCK
100
AcDbLine
 10
2306.402697730031
 20
-563.5970335934501
 30
0.0000000001691137
 11
2306.402697730031
 21
-566.1970335934501
 31
0.0000000001691137
  0
LINE
  5
1C617
330
18
100
AcDbEntity
  8
01
  6
BYBLOCK
100
AcDbLine
 10
2307.099365624031
 20
-674.99703359345
 30
0.0000000001691137
 11
2306.402697730031
 21
-677.5970335934501
 31
0.0000000001691137
  0
LINE
  5
1C618
330
18
100
AcDbEntity
  8
01
  6
BYBLOCK
100
AcDbLine
 10
2306.402697730031
 20
-677.5970335934501
 30
0.0000000001691137
 11
2305.706029836031
 21
-674.99703359345
 31
0.0000000001691137
  0
LINE
  5
1C619
330
18
100
AcDbEntity
  8
01
  6
BYBLOCK
100
AcDbLine
 10
2306.402697730031
 20
-677.5970335934501
 30
0.0000000001691137
 11
2306.402697730031
 21
-674.99703359345
 31
0.0000000001691137
  0
TEXT
  5
1C61A
330
18
100
AcDbEntity
  8
01
  6
CONTINUOUS
100
AcDbText
 10
2305.492697730031
 20
-596.0140112455288
 30
0.0000000001691137
 40
4.55
  1
114
 50
90.0
100
AcDbText
1001
ACAD
1000
DSTYLE
1002
{
1070
    40
1040
1.3
1070
    45
1040
0.5
1002
}
  0
LINE
  5
1C61B
330
18
100
AcDbEntity
  8
01
  6
BYBLOCK
100
AcDbLine
 10
2315.070364002256
 20
-558.2974787378665
 30
0.0000000001691137
 11
2315.767031896256
 21
-555.6974787378665
 31
0.0000000001691137
  0
LINE
  5
1C61C
330
18
100
AcDbEntity
  8
01
  6
BYBLOCK
100
AcDbLine
 10
2315.767031896256
 20
-555.6974787378665
 30
0.0000000001691137
 11
2316.463699790255
 21
-558.2974787378665
 31
0.0000000001691137
  0
LINE
  5
1C61D
330
18
100
AcDbEntity
  8
01
  6
BYBLOCK
100
AcDbLine
 10
2315.767031896256
 20
-555.6974787378665
 30
0.0000000001691137
 11
2315.767031896256
 21
-558.2974787378665
 31
0.0000000001691137
  0
LINE
  5
1C61E
330
18
100
AcDbEntity
  8
01
  6
BYBLOCK
100
AcDbLine
 10
2316.463699790255
 20
-682.8970335934499
 30
0.0000000001691137
 11
2315.767031896256
 21
-685.4970335934499
 31
0.0000000001691137
  0
LINE
  5
1C61F
330
18
100
AcDbEntity
  8
01
  6
BYBLOCK
100
AcDbLine
 10
2315.767031896256
 20
-685.4970335934499
 30
0.0000000001691137
 11
2315.070364002256
 21
-682.8970335934499
 31
0.0000000001691137
  0
LINE
  5
1C620
330
18
100
AcDbEntity
  8
01
  6
BYBLOCK
100
AcDbLine
 10
2315.767031896256
 20
-685.4970335934499
 30
0.0000000001691137
 11
2315.767031896256
 21
-682.8970335934499
 31
0.0000000001691137
  0
TEXT
  5
1C621
330
18
100
AcDbEntity
  8
01
  6
CONTINUOUS
100
AcDbText
 10
2314.857031896256
 20
-596.798575248336
 30
0.0000000001691137
 40
4.55
  1
130
 50
90.0
100
AcDbText
1001
ACAD
1000
DSTYLE
1002
{
1070
    40
1040
1.3
1070
    45
1040
0.5
1002
}
  0
LINE
  5
1C622
330
18
100
AcDbEntity
  8
01
  6
BYBLOCK
100
AcDbLine
 10
2355.917842724843
 20
-619.1974787378659
 30
0.0000000001127424
 11
2356.614510618842
 21
-616.5974787378659
 31
0.0000000001127424
  0
LINE
  5
1C623
330
18
100
AcDbEntity
  8
01
  6
BYBLOCK
100
AcDbLine
 10
2356.614510618842
 20
-616.5974787378659
 30
0.0000000001127424
 11
2357.311178512842
 21
-619.1974787378659
 31
0.0000000001127424
  0
LINE
  5
1C624
330
18
100
AcDbEntity
  8
01
  6
BYBLOCK
100
AcDbLine
 10
2356.614510618842
 20
-616.5974787378659
 30
0.0000000001127424
 11
2356.614510618842
 21
-619.1974787378659
 31
0.0000000001127424
  0
LINE
  5
1C625
330
18
100
AcDbEntity
  8
01
  6
BYBLOCK
100
AcDbLine
 10
2357.311178512842
 20
-663.9974787378659
 30
0.0000000001127424
 11
2356.614510618842
 21
-666.5974787378659
 31
0.0000000001127424
  0
LINE
  5
1C626
330
18
100
AcDbEntity
  8
01
  6
BYBLOCK
100
AcDbLine
 10
2356.614510618842
 20
-666.5974787378659
 30
0.0000000001127424
 11
2355.917842724843
 21
-663.9974787378659
 31
0.0000000001127424
  0
LINE
  5
1C627
330
18
100
AcDbEntity
  8
01
  6
BYBLOCK
100
AcDbLine
 10
2356.614510618842
 20
-666.5974787378659
 30
0.0000000001127424
 11
2356.614510618842
 21
-663.9974787378659
 31
0.0000000001127424
  0
TEXT
  5
1C628
330
18
100
AcDbEntity
  8
01
  6
CONTINUOUS
100
AcDbText
 10
2355.704510618843
 20
-649.7969816444647
 30
0.0000000001127424
 40
4.55
  1
φ50
 50
90.0
100
AcDbText
1001
ACAD
1000
DSTYLE
1002
{
1070
     3
1000
φ<>
1070
    40
1040
1.3
1070
    45
1040
0.5
1002
}
  0
LINE
  5
1C629
330
18
100
AcDbEntity
  8
1DIM
100
AcDbLine
 10
2021.614398279098
 20
-641.5974787378657
 30
0.0000000001127424
 11
2006.62054587681
 21
-641.5974787378657
 31
0.0000000001127424
1001
ACAD
1000
DSTYLE
1002
{
1070
    40
1040
1.3
1070
    45
1040
0.5
1070
   341
1005
0
1002
}
  0
LINE
  5
1C62A
330
18
100
AcDbEntity
  8
1DIM
100
AcDbLine
 10
2029.114390279099
 20
-586.0974787378657
 30
0.0000000001127424
 11
2006.62054587681
 21
-586.0974787378657
 31
0.0000000001127424
1001
ACAD
1000
DSTYLE
1002
{
1070
    40
1040
1.3
1070
    45
1040
0.5
1070
   341
1005
0
1002
}
  0
LINE
  5
1C62B
330
18
100
AcDbEntity
  8
1DIM
100
AcDbLine
 10
2007.92054587681
 20
-638.9974787378657
 30
0.0000000001127424
 11
2007.92054587681
 21
-588.6974787378657
 31
0.0000000001127424
1001
ACAD
1000
DSTYLE
1002
{
1070
    40
1040
1.3
1070
    45
1040
0.5
1070
   341
1005
0
1002
}
  0
LINE
  5
1C62F
330
18
100
AcDbEntity
  8
1DIM
100
AcDbLine
 10
2021.614398279098
 20
-641.5974787378657
 30
0.0000000001127424
 11
2006.62054587681
 21
-641.5974787378657
 31
0.0000000001127424
1001
ACAD
1000
DSTYLE
1002
{
1070
    40
1040
1.3
1070
    45
1040
0.5
1070
   341
1005
0
1002
}
  0
LINE
  5
1C630
330
18
100
AcDbEntity
  8
1DIM
100
AcDbLine
 10
2029.114390279099
 20
-586.0974787378657
 30
0.0000000001127424
 11
2006.62054587681
 21
-586.0974787378657
 31
0.0000000001127424
1001
ACAD
1000
DSTYLE
1002
{
1070
    40
1040
1.3
1070
    45
1040
0.5
1070
   341
1005
0
1002
}
  0
LINE
  5
1C631
330
18
100
AcDbEntity
  8
1DIM
100
AcDbLine
 10
2007.92054587681
 20
-638.9974787378657
 30
0.0000000001127424
 11
2007.92054587681
 21
-588.6974787378657
 31
0.0000000001127424
1001
ACAD
1000
DSTYLE
1002
{
1070
    40
1040
1.3
1070
    45
1040
0.5
1070
   341
1005
0
1002
}
  0
SOLID
  5
1C635
330
18
100
AcDbEntity
  8
1DIM
100
AcDbTrace
 10
2363.700184379123
 20
-407.7689094683525
 30
0.0000000001127424
 11
2366.294669978807
 21
-407.3036974190603
 31
0.0000000001127424
 12
2363.991306427525
 22
-408.5852176601804
 32
0.0000000001127424
 13
2363.991306427525
 23
-408.5852176601804
 33
0.0000000001127424
1001
ACAD
1000
DSTYLE
1002
{
1070
    40
1040
1.3
1070
    45
1040
0.5
1002
}
  0
LINE
  5
1C636
330
18
100
AcDbEntity
  8
1DIM
100
AcDbLine
 10
2363.845745403324
 20
-408.1770635642664
 30
0.0000000001127424
 11
2341.307229831764
 21
-416.2150311931854
 31
0.0000000001127424
1001
ACAD
1000
DSTYLE
1002
{
1070
    40
1040
1.3
1070
    45
1040
0.5
1002
}
  0
LINE
  5
1C637
330
18
100
AcDbEntity
  8
1DIM
100
AcDbLine
 10
2408.015394800902
 20
-362.0974787388946
 30
0.0000000001127424
 11
2428.575785560615
 21
-362.0974787388946
 31
0.0000000001127424
1001
ACAD
1000
DSTYLE
1002
{
1070
    45
1040
0.5
1070
    40
1040
1.3
1002
}
  0
LINE
  5
1C638
330
18
100
AcDbEntity
  8
1DIM
100
AcDbLine
 10
2409.615394800902
 20
-380.8974787388945
 30
0.0000000001127424
 11
2428.575785560615
 21
-380.8974787388945
 31
0.0000000001127424
1001
ACAD
1000
DSTYLE
1002
{
1070
    45
1040
0.5
1070
    40
1040
1.3
1002
}
  0
LINE
  5
1C639
330
18
100
AcDbEntity
  8
1DIM
100
AcDbLine
 10
2427.275785560615
 20
-364.6974787388946
 30
0.0000000001127424
 11
2427.275785560615
 21
-378.2974787388945
 31
0.0000000001127424
1001
ACAD
1000
DSTYLE
1002
{
1070
    45
1040
0.5
1070
    40
1040
1.3
1002
}
  0
LINE
  5
1C63D
330
18
100
AcDbEntity
  8
1DIM
100
AcDbLine
 10
2510.069615990087
 20
-652.8974773945224
 30
0.0000000001127424
 11
2532.915368925727
 21
-652.8974773945224
 31
0.0000000001127424
1001
ACAD
1000
DSTYLE
1002
{
1070
     3
1000
φ<>
1070
    45
1040
0.5
1070
    40
1040
1.3
1002
}
  0
LINE
  5
1C63E
330
18
100
AcDbEntity
  8
1DIM
100
AcDbLine
 10
2510.069615990087
 20
-630.2974773945225
 30
0.0000000001127424
 11
2532.915368925727
 21
-630.2974773945225
 31
0.0000000001127424
1001
ACAD
1000
DSTYLE
1002
{
1070
     3
1000
φ<>
1070
    45
1040
0.5
1070
    40
1040
1.3
1002
}
  0
LINE
  5
1C63F
330
18
100
AcDbEntity
  8
1DIM
100
AcDbLine
 10
2531.615368925727
 20
-650.2974773945224
 30
0.0000000001127424
 11
2531.615368925727
 21
-632.8974773945225
 31
0.0000000001127424
1001
ACAD
1000
DSTYLE
1002
{
1070
     3
1000
φ<>
1070
    45
1040
0.5
1070
    40
1040
1.3
1002
}
  0
LINE
  5
1C643
330
18
100
AcDbEntity
  8
1DIM
100
AcDbLine
 10
2391.614510618842
 20
-413.0987970509686
 30
0.0000000001127424
 11
2391.614510618842
 21
-477.3972417595258
 31
0.0000000001127424
1001
ACAD
1000
DSTYLE
1002
{
1070
    45
1040
0.5
1070
    40
1040
1.3
1002
}
  0
LINE
  5
1C644
330
18
100
AcDbEntity
  8
1DIM
100
AcDbLine
 10
2516.614510618842
 20
-441.3043320062945
 30
0.0000000001127424
 11
2516.614510618842
 21
-477.3972417595258
 31
0.0000000001127424
1001
ACAD
1000
DSTYLE
1002
{
1070
    45
1040
0.5
1070
    40
1040
1.3
1002
}
  0
LINE
  5
1C645
330
18
100
AcDbEntity
  8
1DIM
100
AcDbLine
 10
2394.214510618842
 20
-476.0972417595258
 30
0.0000000001127424
 11
2514.014510618842
 21
-476.0972417595258
 31
0.0000000001127424
1001
ACAD
1000
DSTYLE
1002
{
1070
    45
1040
0.5
1070
    40
1040
1.3
1002
}
  0
LINE
  5
1C649
330
18
100
AcDbEntity
  8
1DIM
100
AcDbLine
 10
2358.614510592765
 20
-450.3989199981306
 30
0.0000000001127424
 11
2358.614510592765
 21
-487.3987970509687
 31
0.0000000001127424
1001
ACAD
1000
DSTYLE
1002
{
1070
    45
1040
0.5
1070
    40
1040
1.3
1002
}
  0
LINE
  5
1C64A
330
18
100
AcDbEntity
  8
1DIM
100
AcDbLine
 10
2516.614510618842
 20
-441.3043320062945
 30
0.0000000001127424
 11
2516.614510618842
 21
-487.3987970509687
 31
0.0000000001127424
1001
ACAD
1000
DSTYLE
1002
{
1070
    45
1040
0.5
1070
    40
1040
1.3
1002
}
  0
LINE
  5
1C64B
330
18
100
AcDbEntity
  8
1DIM
100
AcDbLine
 10
2361.214510592765
 20
-486.0987970509686
 30
0.0000000001127424
 11
2514.014510618842
 21
-486.0987970509686
 31
0.0000000001127424
1001
ACAD
1000
DSTYLE
1002
{
1070
    45
1040
0.5
1070
    40
1040
1.3
1002
}
  0
LINE
  5
1C64F
330
18
100
AcDbEntity
  8
1DIM
100
AcDbLine
 10
2510.069615990087
 20
-450.8989186808642
 30
0.0000000001127424
 11
2542.915368925727
 21
-450.8989186808642
 31
0.0000000001127424
1001
ACAD
1000
DSTYLE
1002
{
1070
    45
1040
0.5
1070
    40
1040
1.3
1002
}
  0
LINE
  5
1C650
330
18
100
AcDbEntity
  8
1DIM
100
AcDbLine
 10
2494.36965861619
 20
-391.5987970509686
 30
0.0000000001127424
 11
2542.915368925727
 21
-391.5987970509686
 31
0.0000000001127424
1001
ACAD
1000
DSTYLE
1002
{
1070
    45
1040
0.5
1070
    40
1040
1.3
1002
}
  0
LINE
  5
1C651
330
18
100
AcDbEntity
  8
1DIM
100
AcDbLine
 10
2541.615368925727
 20
-448.2989186808642
 30
0.0000000001127424
 11
2541.615368925727
 21
-394.1987970509687
 31
0.0000000001127424
1001
ACAD
1000
DSTYLE
1002
{
1070
    45
1040
0.5
1070
    40
1040
1.3
1002
}
  0
SOLID
  5
1C655
330
18
100
AcDbEntity
  8
1DIM
100
AcDbTrace
 10
2355.802958659971
 20
-435.4393894369117
 30
0.0000000001127424
 11
2358.416827973254
 21
-435.0995880377715
 31
0.0000000001127424
 12
2356.054454752302
 22
-436.2687631926174
 32
0.0000000001127424
 13
2356.054454752302
 23
-436.2687631926174
 33
0.0000000001127424
1001
ACAD
1000
DSTYLE
1002
{
1070
    40
1040
1.3
1070
    45
1040
0.5
1002
}
  0
LINE
  5
1C656
330
18
100
AcDbEntity
  8
1DIM
100
AcDbLine
 10
2355.928706706137
 20
-435.8540763147645
 30
0.0000000001127424
 11
2329.029387826211
 21
-444.0109218118966
 31
0.0000000001127424
1001
ACAD
1000
DSTYLE
1002
{
1070
    40
1040
1.3
1070
    45
1040
0.5
1002
}
  0
SOLID
  5
1C657
330
18
100
AcDbEntity
  8
1DIM
100
AcDbTrace
 10
2508.672544576923
 20
-425.5744527556564
 30
0.0000000001127424
 11
2509.264718444345
 21
-428.1429363332796
 31
0.0000000001127424
 12
2507.871532274311
 22
-425.9053460952324
 32
0.0000000001127424
 13
2507.871532274311
 23
-425.9053460952324
 33
0.0000000001127424
1001
ACAD
1000
DSTYLE
1002
{
1070
    40
1040
1.3
1070
    45
1040
0.5
1002
}
  0
LINE
  5
1C658
330
18
100
AcDbEntity
  8
1DIM
100
AcDbLine
 10
2508.272038425617
 20
-425.7398994254444
 30
0.0000000001127424
 11
2502.577278297302
 21
-411.9542701074047
 31
0.0000000001127424
1001
ACAD
1000
DSTYLE
1002
{
1070
    40
1040
1.3
1070
    45
1040
0.5
1002
}
  0
TEXT
  5
1C659
330
18
100
AcDbEntity
  8
1DIM
  6
CONTINUOUS
100
AcDbText
 10
2309.34
 20
-469.0066666666667
 30
0.0
 40
4.55
  1
材質：牛革
100
AcDbText
1001
ACADANNOTATIVE
1000
AnnotativeData
1002
{
1070
     1
1070
     0
1002
}
  0
TEXT
  5
1C65A
330
18
100
AcDbEntity
  8
1DIM
  6
CONTINUOUS
100
AcDbText
 10
2287.348333333333
 20
-476.59
 30
0.0
 40
4.55
  1
仕上げ：各種仕上げ
100
AcDbText
1001
ACADANNOTATIVE
1000
AnnotativeData
1002
{
1070
     1
1070
     0
1002
}
  0
SOLID
  5
1C65B
330
18
100
AcDbEntity
  8
1DIM
100
AcDbTrace
 10
2392.654073529614
 20
-451.3277891596051
 30
0.0000000000563712
 11
2395.18577242388
 21
-450.5941145133555
 31
0.0000000000563712
 12
2393.028870652412
 22
-452.1092226038941
 32
0.0000000000563712
 13
2393.028870652412
 23
-452.1092226038941
 33
0.0000000000563712
1001
ACAD
1000
DSTYLE
1002
{
1070
    40
1040
1.3
1070
    45
1040
0.5
1002
}
  0
LINE
  5
1C65C
330
18
100
AcDbEntity
  8
1DIM
100
AcDbLine
 10
2392.841472091013
 20
-451.7185058817496
 30
0.0000000000540155
 11
2339.088333333333
 21
-477.5
 31
0.0
1001
ACAD
1000
DSTYLE
1002
{
1070
    40
1040
1.3
1070
    45
1040
0.5
1002
}
  0
LINE
  5
1C65D
330
18
100
AcDbEntity
  8
1DIM
100
AcDbLine
 10
2339.088333333333
 20
-477.5
 30
0.0
 11
2287.5
 21
-477.5
 31
0.0
1001
ACAD
1000
DSTYLE
1002
{
1070
    40
1040
1.3
1070
    45
1040
0.5
1002
}
  0
LINE
  5
1C65E
330
18
100
AcDbEntity
  8
1DIM
100
AcDbLine
 10
2510.069615990087
 20
-428.2989186808643
 30
0.0000000001127424
 11
2532.915368925727
 21
-428.2989186808643
 31
0.0000000001127424
1001
ACAD
1000
DSTYLE
1002
{
1070
   271
1070
     0
1070
    45
1040
0.5
1070
    40
1040
1.3
1002
}
  0
LINE
  5
1C65F
330
18
100
AcDbEntity
  8
1DIM
100
AcDbLine
 10
2494.36965861619
 20
-391.5987970509686
 30
0.0000000001127424
 11
2532.915368925727
 21
-391.5987970509686
 31
0.0000000001127424
1001
ACAD
1000
DSTYLE
1002
{
1070
   271
1070
     0
1070
    45
1040
0.5
1070
    40
1040
1.3
1002
}
  0
LINE
  5
1C660
330
18
100
AcDbEntity
  8
1DIM
100
AcDbLine
 10
2531.615368925727
 20
-425.6989186808643
 30
0.0000000001127424
 11
2531.615368925727
 21
-394.1987970509687
 31
0.0000000001127424
1001
ACAD
1000
DSTYLE
1002
{
1070
   271
1070
     0
1070
    45
1040
0.5
1070
    40
1040
1.3
1002
}
  0
LINE
  5
1C664
330
18
100
AcDbEntity
  8
0
  6
BYBLOCK
100
AcDbLine
 10
2008.61721377081
 20
-638.9974787378657
 30
0.0000000001127424
 11
2007.92054587681
 21
-641.5974787378657
 31
0.0000000001127424
  0
LINE
  5
1C665
330
18
100
AcDbEntity
  8
0
  6
BYBLOCK
100
AcDbLine
 10
2007.92054587681
 20
-641.5974787378657
 30
0.0000000001127424
 11
2007.22387798281
 21
-638.9974787378657
 31
0.0000000001127424
  0
LINE
  5
1C666
330
18
100
AcDbEntity
  8
0
  6
BYBLOCK
100
AcDbLine
 10
2007.92054587681
 20
-641.5974787378657
 30
0.0000000001127424
 11
2007.92054587681
 21
-638.9974787378657
 31
0.0000000001127424
  0
LINE
  5
1C667
330
18
100
AcDbEntity
  8
0
  6
BYBLOCK
100
AcDbLine
 10
2007.22387798281
 20
-588.6974787378657
 30
0.0000000001127424
 11
2007.92054587681
 21
-586.0974787378657
 31
0.0000000001127424
  0
LINE
  5
1C668
330
18
100
AcDbEntity
  8
0
  6
BYBLOCK
100
AcDbLine
 10
2007.92054587681
 20
-586.0974787378657
 30
0.0000000001127424
 11
2008.61721377081
 21
-588.6974787378657
 31
0.0000000001127424
  0
LINE
  5
1C669
330
18
100
AcDbEntity
  8
0
  6
BYBLOCK
100
AcDbLine
 10
2007.92054587681
 20
-586.0974787378657
 30
0.0000000001127424
 11
2007.92054587681
 21
-588.6974787378657
 31
0.0000000001127424
  0
TEXT
  5
1C66A
330
18
100
AcDbEntity
  8
1DIM
  6
CONTINUOUS
100
AcDbText
 10
2007.01054587681
 20
-620.7040759600877
 30
0.0000000001127424
 40
4.55
  1
55.5
 50
90.0
100
AcDbText
1001
ACAD
1000
DSTYLE
1002
{
1070
    40
1040
1.3
1070
    45
1040
0.5
1070
   341
1005
0
1002
}
  0
LINE
  5
1C66B
330
18
100
AcDbEntity
  8
0
  6
BYBLOCK
100
AcDbLine
 10
2008.61721377081
 20
-638.9974787378657
 30
0.0000000001127424
 11
2007.92054587681
 21
-641.5974787378657
 31
0.0000000001127424
  0
LINE
  5
1C66C
330
18
100
AcDbEntity
  8
0
  6
BYBLOCK
100
AcDbLine
 10
2007.92054587681
 20
-641.5974787378657
 30
0.0000000001127424
 11
2007.22387798281
 21
-638.9974787378657
 31
0.0000000001127424
  0
LINE
  5
1C66D
330
18
100
AcDbEntity
  8
0
  6
BYBLOCK
100
AcDbLine
 10
2007.92054587681
 20
-641.5974787378657
 30
0.0000000001127424
 11
2007.92054587681
 21
-638.9974787378657
 31
0.0000000001127424
  0
LINE
  5
1C66E
330
18
100
AcDbEntity
  8
0
  6
BYBLOCK
100
AcDbLine
 10
2007.22387798281
 20
-588.6974787378657
 30
0.0000000001127424
 11
2007.92054587681
 21
-586.0974787378657
 31
0.0000000001127424
  0
LINE
  5
1C66F
330
18
100
AcDbEntity
  8
0
  6
BYBLOCK
100
AcDbLine
 10
2007.92054587681
 20
-586.0974787378657
 30
0.0000000001127424
 11
2008.61721377081
 21
-588.6974787378657
 31
0.0000000001127424
  0
LINE
  5
1C670
330
18
100
AcDbEntity
  8
0
  6
BYBLOCK
100
AcDbLine
 10
2007.92054587681
 20
-586.0974787378657
 30
0.0000000001127424
 11
2007.92054587681
 21
-588.6974787378657
 31
0.0000000001127424
  0
TEXT
  5
1C671
330
18
100
AcDbEntity
  8
1DIM
  6
CONTINUOUS
100
AcDbText
 10
2007.01054587681
 20
-620.7040759600877
 30
0.0000000001127424
 40
4.55
  1
55.5
 50
90.0
100
AcDbText
1001
ACAD
1000
DSTYLE
1002
{
1070
    40
1040
1.3
1070
    45
1040
0.5
1070
   341
1005
0
1002
}
  0
LINE
  5
1C672
330
18
100
AcDbEntity
  8
0
  6
BYBLOCK
100
AcDbLine
 10
2426.579117666615
 20
-364.6974787388946
 30
0.0000000001127424
 11
2427.275785560615
 21
-362.0974787388946
 31
0.0000000001127424
  0
LINE
  5
1C673
330
18
100
AcDbEntity
  8
0
  6
BYBLOCK
100
AcDbLine
 10
2427.275785560615
 20
-362.0974787388946
 30
0.0000000001127424
 11
2427.972453454615
 21
-364.6974787388946
 31
0.0000000001127424
  0
LINE
  5
1C674
330
18
100
AcDbEntity
  8
0
  6
BYBLOCK
100
AcDbLine
 10
2427.275785560615
 20
-362.0974787388946
 30
0.0000000001127424
 11
2427.275785560615
 21
-364.6974787388946
 31
0.0000000001127424
  0
LINE
  5
1C675
330
18
100
AcDbEntity
  8
0
  6
BYBLOCK
100
AcDbLine
 10
2427.972453454615
 20
-378.2974787388945
 30
0.0000000001127424
 11
2427.275785560615
 21
-380.8974787388945
 31
0.0000000001127424
  0
LINE
  5
1C676
330
18
100
AcDbEntity
  8
0
  6
BYBLOCK
100
AcDbLine
 10
2427.275785560615
 20
-380.8974787388945
 30
0.0000000001127424
 11
2426.579117666615
 21
-378.2974787388945
 31
0.0000000001127424
  0
LINE
  5
1C677
330
18
100
AcDbEntity
  8
0
  6
BYBLOCK
100
AcDbLine
 10
2427.275785560615
 20
-380.8974787388945
 30
0.0000000001127424
 11
2427.275785560615
 21
-378.2974787388945
 31
0.0000000001127424
  0
TEXT
  5
1C678
330
18
100
AcDbEntity
  8
1DIM
  6
CONTINUOUS
100
AcDbText
 10
2426.365785560615
 20
-374.5318653129689
 30
0.0000000001127424
 40
4.55
  1
19
 50
90.0
100
AcDbText
1001
ACAD
1000
DSTYLE
1002
{
1070
    45
1040
0.5
1070
    40
1040
1.3
1002
}
  0
LINE
  5
1C679
330
18
100
AcDbEntity
  8
0
  6
BYBLOCK
100
AcDbLine
 10
2532.312036819727
 20
-650.2974773945224
 30
0.0000000001127424
 11
2531.615368925727
 21
-652.8974773945224
 31
0.0000000001127424
  0
LINE
  5
1C67A
330
18
100
AcDbEntity
  8
0
  6
BYBLOCK
100
AcDbLine
 10
2531.615368925727
 20
-652.8974773945224
 30
0.0000000001127424
 11
2530.918701031727
 21
-650.2974773945224
 31
0.0000000001127424
  0
LINE
  5
1C67B
330
18
100
AcDbEntity
  8
0
  6
BYBLOCK
100
AcDbLine
 10
2531.615368925727
 20
-652.8974773945224
 30
0.0000000001127424
 11
2531.615368925727
 21
-650.2974773945224
 31
0.0000000001127424
  0
LINE
  5
1C67C
330
18
100
AcDbEntity
  8
0
  6
BYBLOCK
100
AcDbLine
 10
2530.918701031727
 20
-632.8974773945225
 30
0.0000000001127424
 11
2531.615368925727
 21
-630.2974773945225
 31
0.0000000001127424
  0
LINE
  5
1C67D
330
18
100
AcDbEntity
  8
0
  6
BYBLOCK
100
AcDbLine
 10
2531.615368925727
 20
-630.2974773945225
 30
0.0000000001127424
 11
2532.312036819727
 21
-632.8974773945225
 31
0.0000000001127424
  0
LINE
  5
1C67E
330
18
100
AcDbEntity
  8
0
  6
BYBLOCK
100
AcDbLine
 10
2531.615368925727
 20
-630.2974773945225
 30
0.0000000001127424
 11
2531.615368925727
 21
-632.8974773945225
 31
0.0000000001127424
  0
TEXT
  5
1C67F
330
18
100
AcDbEntity
  8
1DIM
  6
CONTINUOUS
100
AcDbText
 10
2530.705368925727
 20
-651.7591440611886
 30
0.0000000001127424
 40
4.55
  1
φ22.5
 50
90.0
100
AcDbText
1001
ACAD
1000
DSTYLE
1002
{
1070
     3
1000
φ<>
1070
    45
1040
0.5
1070
    40
1040
1.3
1002
}
  0
LINE
  5
1C680
330
18
100
AcDbEntity
  8
0
  6
BYBLOCK
100
AcDbLine
 10
2394.214510618842
 20
-476.7939096535258
 30
0.0000000001127424
 11
2391.614510618842
 21
-476.0972417595258
 31
0.0000000001127424
  0
LINE
  5
1C681
330
18
100
AcDbEntity
  8
0
  6
BYBLOCK
100
AcDbLine
 10
2391.614510618842
 20
-476.0972417595258
 30
0.0000000001127424
 11
2394.214510618842
 21
-475.4005738655258
 31
0.0000000001127424
  0
LINE
  5
1C682
330
18
100
AcDbEntity
  8
0
  6
BYBLOCK
100
AcDbLine
 10
2391.614510618842
 20
-476.0972417595258
 30
0.0000000001127424
 11
2394.214510618842
 21
-476.0972417595258
 31
0.0000000001127424
  0
LINE
  5
1C683
330
18
100
AcDbEntity
  8
0
  6
BYBLOCK
100
AcDbLine
 10
2514.014510618842
 20
-475.4005738655258
 30
0.0000000001127424
 11
2516.614510618842
 21
-476.0972417595258
 31
0.0000000001127424
  0
LINE
  5
1C684
330
18
100
AcDbEntity
  8
0
  6
BYBLOCK
100
AcDbLine
 10
2516.614510618842
 20
-476.0972417595258
 30
0.0000000001127424
 11
2514.014510618842
 21
-476.7939096535258
 31
0.0000000001127424
  0
LINE
  5
1C685
330
18
100
AcDbEntity
  8
0
  6
BYBLOCK
100
AcDbLine
 10
2516.614510618842
 20
-476.0972417595258
 30
0.0000000001127424
 11
2514.014510618842
 21
-476.0972417595258
 31
0.0000000001127424
  0
TEXT
  5
1C686
330
18
100
AcDbEntity
  8
1DIM
  6
CONTINUOUS
100
AcDbText
 10
2448.806177285509
 20
-475.1872417595258
 30
0.0000000001127424
 40
4.55
  1
125
100
AcDbText
1001
ACAD
1000
DSTYLE
1002
{
1070
    45
1040
0.5
1070
    40
1040
1.3
1002
}
  0
LINE
  5
1C687
330
18
100
AcDbEntity
  8
0
  6
BYBLOCK
100
AcDbLine
 10
2361.214510592765
 20
-486.7954649449686
 30
0.0000000001127424
 11
2358.614510592765
 21
-486.0987970509686
 31
0.0000000001127424
  0
LINE
  5
1C688
330
18
100
AcDbEntity
  8
0
  6
BYBLOCK
100
AcDbLine
 10
2358.614510592765
 20
-486.0987970509686
 30
0.0000000001127424
 11
2361.214510592765
 21
-485.4021291569687
 31
0.0000000001127424
  0
LINE
  5
1C689
330
18
100
AcDbEntity
  8
0
  6
BYBLOCK
100
AcDbLine
 10
2358.614510592765
 20
-486.0987970509686
 30
0.0000000001127424
 11
2361.214510592765
 21
-486.0987970509686
 31
0.0000000001127424
  0
LINE
  5
1C68A
330
18
100
AcDbEntity
  8
0
  6
BYBLOCK
100
AcDbLine
 10
2514.014510618842
 20
-485.4021291569687
 30
0.0000000001127424
 11
2516.614510618842
 21
-486.0987970509686
 31
0.0000000001127424
  0
LINE
  5
1C68B
330
18
100
AcDbEntity
  8
0
  6
BYBLOCK
100
AcDbLine
 10
2516.614510618842
 20
-486.0987970509686
 30
0.0000000001127424
 11
2514.014510618842
 21
-486.7954649449686
 31
0.0000000001127424
  0
LINE
  5
1C68C
330
18
100
AcDbEntity
  8
0
  6
BYBLOCK
100
AcDbLine
 10
2516.614510618842
 20
-486.0987970509686
 30
0.0000000001127424
 11
2514.014510618842
 21
-486.0987970509686
 31
0.0000000001127424
  0
TEXT
  5
1C68D
330
18
100
AcDbEntity
  8
1DIM
  6
CONTINUOUS
100
AcDbText
 10
2432.290378661359
 20
-485.1887970509687
 30
0.0000000001127424
 40
4.55
  1
158
100
AcDbText
1001
ACAD
1000
DSTYLE
1002
{
1070
    45
1040
0.5
1070
    40
1040
1.3
1002
}
  0
LINE
  5
1C68E
330
18
100
AcDbEntity
  8
0
  6
BYBLOCK
100
AcDbLine
 10
2542.312036819727
 20
-448.2989186808642
 30
0.0000000001127424
 11
2541.615368925727
 21
-450.8989186808642
 31
0.0000000001127424
  0
LINE
  5
1C68F
330
18
100
AcDbEntity
  8
0
  6
BYBLOCK
100
AcDbLine
 10
2541.615368925727
 20
-450.8989186808642
 30
0.0000000001127424
 11
2540.918701031727
 21
-448.2989186808642
 31
0.0000000001127424
  0
LINE
  5
1C690
330
18
100
AcDbEntity
  8
0
  6
BYBLOCK
100
AcDbLine
 10
2541.615368925727
 20
-450.8989186808642
 30
0.0000000001127424
 11
2541.615368925727
 21
-448.2989186808642
 31
0.0000000001127424
  0
LINE
  5
1C691
330
18
100
AcDbEntity
  8
0
  6
BYBLOCK
100
AcDbLine
 10
2540.918701031727
 20
-394.1987970509687
 30
0.0000000001127424
 11
2541.615368925727
 21
-391.5987970509686
 31
0.0000000001127424
  0
LINE
  5
1C692
330
18
100
AcDbEntity
  8
0
  6
BYBLOCK
100
AcDbLine
 10
2541.615368925727
 20
-391.5987970509686
 30
0.0000000001127424
 11
2542.312036819727
 21
-394.1987970509687
 31
0.0000000001127424
  0
LINE
  5
1C693
330
18
100
AcDbEntity
  8
0
  6
BYBLOCK
100
AcDbLine
 10
2541.615368925727
 20
-391.5987970509686
 30
0.0000000001127424
 11
2541.615368925727
 21
-394.1987970509687
 31
0.0000000001127424
  0
TEXT
  5
1C694
330
18
100
AcDbEntity
  8
1DIM
  6
CONTINUOUS
100
AcDbText
 10
2540.705368925727
 20
-428.0907097177683
 30
0.0000000001127424
 40
4.55
  1
59.5
 50
90.0
100
AcDbText
1001
ACAD
1000
DSTYLE
1002
{
1070
    45
1040
0.5
1070
    40
1040
1.3
1002
}
  0
LINE
  5
1C695
330
18
100
AcDbEntity
  8
0
  6
BYBLOCK
100
AcDbLine
 10
2532.312036819727
 20
-425.6989186808643
 30
0.0000000001127424
 11
2531.615368925727
 21
-428.2989186808643
 31
0.0000000001127424
  0
LINE
  5
1C696
330
18
100
AcDbEntity
  8
0
  6
BYBLOCK
100
AcDbLine
 10
2531.615368925727
 20
-428.2989186808643
 30
0.0000000001127424
 11
2530.918701031727
 21
-425.6989186808643
 31
0.0000000001127424
  0
LINE
  5
1C697
330
18
100
AcDbEntity
  8
0
  6
BYBLOCK
100
AcDbLine
 10
2531.615368925727
 20
-428.2989186808643
 30
0.0000000001127424
 11
2531.615368925727
 21
-425.6989186808643
 31
0.0000000001127424
  0
LINE
  5
1C698
330
18
100
AcDbEntity
  8
0
  6
BYBLOCK
100
AcDbLine
 10
2530.918701031727
 20
-394.1987970509687
 30
0.0000000001127424
 11
2531.615368925727
 21
-391.5987970509686
 31
0.0000000001127424
  0
LINE
  5
1C699
330
18
100
AcDbEntity
  8
0
  6
BYBLOCK
100
AcDbLine
 10
2531.615368925727
 20
-391.5987970509686
 30
0.0000000001127424
 11
2532.312036819727
 21
-394.1987970509687
 31
0.0000000001127424
  0
LINE
  5
1C69A
330
18
100
AcDbEntity
  8
0
  6
BYBLOCK
100
AcDbLine
 10
2531.615368925727
 20
-391.5987970509686
 30
0.0000000001127424
 11
2531.615368925727
 21
-394.1987970509687
 31
0.0000000001127424
  0
TEXT
  5
1C69B
330
18
100
AcDbEntity
  8
1DIM
  6
CONTINUOUS
100
AcDbText
 10
2530.705368925727
 20
-413.7405245325831
 30
0.0000000001127424
 40
4.55
  1
37
 50
90.0
100
AcDbText
1001
ACAD
1000
DSTYLE
1002
{
1070
   271
1070
     0
1070
    45
1040
0.5
1070
    40
1040
1.3
1002
}
  0
VIEWPORT
  5
57
330
15
100
AcDbEntity
 67
     1
  8
0
100
AcDbViewport
 68
     1
 10
0.0
 20
0.0
 30
0.0
 40
551.872340425532
 41
297.0000000000001
 68
     1
 69
     1
1001
ACAD
1000
MVIEW
1002
{
1070
    16
1010
0.0
1020
0.0
1030
0.0
1010
0.0
1020
0.0
1030
1.0
1040
0.0
1040
297.0000000000001
1040
5.728000000000009
1040
25.339
1040
50.0
1040
0.0
1040
0.0
1070
    16
1070
   100
1070
     0
1070
     1
1070
     0
1070
     0
1070
     0
1070
     0
1040
0.0
1040
0.0
1040
0.0
1040
10.0
1040
10.0
1040
10.0
1040
10.0
1070
     0
1002
{
1002
}
1002
}
  0
ENDSEC
  0
SECTION
  2
OBJECTS
  0
DICTIONARY
  5
C
330
0
100
AcDbDictionary
  3
ACAD_COLOR
350
18D
  3
ACAD_GROUP
350
D
  3
ACAD_LAYOUT
350
18E
  3
ACAD_MATERIAL
350
18C
  3
ACAD_MLEADERSTYLE
350
D9E7
  3
ACAD_MLINESTYLE
350
1B
  3
ACAD_PLOTSETTINGS
350
18F
  3
ACAD_SCALELIST
350
D9C5
  3
ACAD_VISUALSTYLE
350
D9B4
  3
ACDBHEADERROUNDTRIPXREC
350
1C69C
  3
ACDBVARIABLEDICTIONARY
350
37
  3
CONTENTDICTIONARY
350
D8
  3
DRAWINGVARIABLESDICT
350
20
  3
DWGPROPS
350
1C69F
1001
ACAD
1000
TREAT_AS_HARD
1070
     0
  0
DICTIONARY
  5
E6A6
330
2
100
AcDbDictionary
  3
ACAD_LAYERSTATES
360
E6A7
1001
ACAD
1000
TREAT_AS_HARD
1070
     1
  0
DICTIONARY
  5
DA05
330
E
100
AcDbDictionary
  3
ADSK_XREC_LAYER_RECONCILED
360
DA06
1001
ACAD
1000
TREAT_AS_HARD
1070
     1
  0
DICTIONARY
  5
DA07
330
29
100
AcDbDictionary
  3
ADSK_XREC_LAYER_RECONCILED
360
DA08
1001
ACAD
1000
TREAT_AS_HARD
1070
     1
  0
DICTIONARY
  5
DA09
330
31
100
AcDbDictionary
  3
ADSK_XREC_LAYER_RECONCILED
360
DA0A
1001
ACAD
1000
TREAT_AS_HARD
1070
     1
  0
DICTIONARY
  5
DA0F
330
243
100
AcDbDictionary
  3
ADSK_XREC_LAYER_RECONCILED
360
DA10
1001
ACAD
1000
TREAT_AS_HARD
1070
     1
  0
DICTIONARY
  5
DA15
330
24E
100
AcDbDictionary
  3
ADSK_XREC_LAYER_RECONCILED
360
DA16
1001
ACAD
1000
TREAT_AS_HARD
1070
     1
  0
DICTIONARY
  5
DA23
330
2C05
100
AcDbDictionary
  3
ADSK_XREC_LAYER_RECONCILED
360
DA24
1001
ACAD
1000
TREAT_AS_HARD
1070
     1
  0
DICTIONARY
  5
88F
330
18
100
AcDbDictionary
  3
ACAD_SORTENTS
360
890
1001
ACAD
1000
TREAT_AS_HARD
1070
     1
  0
DICTIONARY
  5
18D
102
{ACAD_REACTORS
330
C
102
}
330
C
100
AcDbDictionary
1001
ACAD
1000
TREAT_AS_HARD
1070
     0
  0
DICTIONARY
  5
D
102
{ACAD_REACTORS
330
C
102
}
330
C
100
AcDbDictionary
1001
ACAD
1000
TREAT_AS_HARD
1070
     0
  0
DICTIONARY
  5
18E
102
{ACAD_REACTORS
330
C
102
}
330
C
100
AcDbDictionary
1001
ACAD
1000
TREAT_AS_HARD
1070
     0
  0
DICTIONARY
  5
18C
102
{ACAD_REACTORS
330
C
102
}
330
C
100
AcDbDictionary
  3
BYBLOCK
350
D9A4
  3
BYLAYER
350
D99C
  3
GLOBAL
350
D9AC
1001
ACAD
1000
TREAT_AS_HARD
1070
     0
  0
DICTIONARY
  5
D9E7
102
{ACAD_REACTORS
330
C
102
}
330
C
100
AcDbDictionary
  3
STANDARD
350
D9E8
1001
ACAD
1000
TREAT_AS_HARD
1070
     0
  0
DICTIONARY
  5
1B
102
{ACAD_REACTORS
330
C
102
}
330
C
100
AcDbDictionary
  3
STANDARD
350
1C
1001
ACAD
1000
TREAT_AS_HARD
1070
     0
  0
DICTIONARY
  5
18F
102
{ACAD_REACTORS
330
C
102
}
330
C
100
AcDbDictionary
1001
ACAD
1000
TREAT_AS_HARD
1070
     0
  0
DICTIONARY
  5
D9C5
102
{ACAD_REACTORS
330
C
102
}
330
C
100
AcDbDictionary
  3
A0
350
D9C6
  3
A1
350
D9C7
  3
A2
350
D9C8
  3
A3
350
D9C9
  3
A4
350
D9CA
  3
A5
350
D9CB
  3
A6
350
D9CC
  3
A7
350
D9CD
  3
A8
350
D9CE
  3
A9
350
D9CF
  3
B0
350
D9D0
  3
B1
350
D9D1
  3
B2
350
D9D2
  3
B3
350
D9D3
  3
B4
350
D9D4
  3
B5
350
D9D5
  3
B6
350
D9D6
  3
B7
350
D9D7
  3
B8
350
D9D8
  3
B9
350
D9D9
  3
C0
350
D9DA
  3
C1
350
D9DB
  3
C2
350
D9DC
  3
C3
350
D9DD
  3
C4
350
D9DE
  3
C5
350
D9DF
  3
C6
350
D9E0
  3
C7
350
D9E1
  3
C8
350
D9E2
  3
C9
350
D9E3
  3
D0
350
D9E4
  3
D1
350
D9E5
  3
D2
350
D9E6
1001
ACAD
1000
TREAT_AS_HARD
1070
     0
  0
DICTIONARY
  5
D9B4
102
{ACAD_REACTORS
330
C
102
}
330
C
100
AcDbDictionary
  3
2DWIREFRAME
350
D9BA
  3
3D_HIDDEN
350
D9BC
  3
3DWIREFRAME
350
D9BB
  3
BASIC
350
D9B9
  3
BRIGHTEN
350
D9C0
  3
COLORCHANGE
350
D9C4
  3
CONCEPTUAL
350
D9BD
  3
DIM
350
D9BF
  3
EDGECOLOROFF
350
19C2F
  3
FACEPATTERN
350
D9C3
  3
FLAT
350
D9B5
  3
FLATWITHEDGES
350
D9B6
  3
GOURAUD
350
D9B7
  3
GOURAUDWITHEDGES
350
D9B8
  3
HIDDEN
350
19C7E
  3
JITTEROFF
350
19C2D
  3
LINEPATTERN
350
D9C2
  3
MODELING
350
19C84
  3
OVERHANGOFF
350
19C2E
  3
REALISTIC
350
D9BE
  3
SHADED
350
19C83
  3
SHADED_WITH_EDGES
350
19C82
  3
SHADES_OF_GRAY
350
19C7F
  3
SKETCHY
350
19C80
  3
THICKEN
350
D9C1
  3
WIREFRAME
350
19C7D
  3
X-RAY
350
19C81
1001
ACAD
1000
TREAT_AS_HARD
1070
     0
  0
DICTIONARY
  5
1C69C
102
{ACAD_REACTORS
330
C
102
}
330
C
100
AcDbDictionary
  3
COLORDICT
350
1C69D
  3
MATERIALDICT
350
1C69E
1001
ACAD
1000
TREAT_AS_HARD
1070
     0
  0
DICTIONARY
  5
37
102
{ACAD_REACTORS
330
C
102
}
330
C
100
AcDbDictionary
  3
CANNOSCALE
350
1A4C6
  3
CMLEADERSTYLE
350
DA6A
  3
CTABLESTYLE
350
29E
  3
DIMADEC
350
38
  3
DIMASSOC
350
1CE
  3
HIDETEXT
350
704E
  3
INDEXCTL
350
DA6D
  3
INTERSECTIONCOLOR
350
7052
  3
INTERSECTIONDISPLAY
350
7051
  3
MSLTSCALE
350
1A516
  3
OBSCOLOR
350
704F
  3
OBSLTYPE
350
7050
  3
PROJECTNAME
350
1CF
  3
SORTENTS
350
DA6C
  3
XCLIPFRAME
350
19C7C
1001
ACAD
1000
TREAT_AS_HARD
1070
     0
  0
DICTIONARY
  5
D8
102
{ACAD_REACTORS
330
C
102
}
330
C
100
AcDbDictionary
1001
ACAD
1000
TREAT_AS_HARD
1070
     0
  0
DICTIONARY
  5
20
102
{ACAD_REACTORS
330
C
102
}
330
C
100
AcDbDictionary
1001
DRAWINGVARIABLESXDATA
1000
POLARANG
1000
0.261799387799149410000000
1000
POLARMODE
1000
1
1000
POLARSTYLE
1000
1
1001
ACAD
1000
TREAT_AS_HARD
1070
     0
  0
XRECORD
  5
1C69F
102
{ACAD_REACTORS
330
C
102
}
330
C
100
AcDbXrecord
  1
DWGPROPS COOKIE
  2

  3

  4

  6

  7

  8
3684
  9

300
=
301
=
302
=
303
=
304
=
305
=
306
=
307
=
308
=
309
=
 40
0.0
 41
2451318.246352917
 42
2459198.060451632
  1

 90
        0
  0
DICTIONARY
  5
E6A7
102
{ACAD_REACTORS
330
E6A6
102
}
330
E6A6
100
AcDbDictionary
1001
ACAD
1000
TREAT_AS_HARD
1070
     0
  0
ACAD_PROXY_OBJECT
  5
DA06
102
{ACAD_REACTORS
330
DA05
102
}
330
DA05
100
AcDbZombieObject
 90
      499
 91
      514
 93
       34
310
40C8804040
  0
ACAD_PROXY_OBJECT
  5
DA08
102
{ACAD_REACTORS
330
DA07
102
}
330
DA07
100
AcDbZombieObject
 90
      499
 91
      514
 93
       34
310
40C8804040
  0
ACAD_PROXY_OBJECT
  5
DA0A
102
{ACAD_REACTORS
330
DA09
102
}
330
DA09
100
AcDbZombieObject
 90
      499
 91
      514
 93
       34
310
40C8804040
  0
ACAD_PROXY_OBJECT
  5
DA10
102
{ACAD_REACTORS
330
DA0F
102
}
330
DA0F
100
AcDbZombieObject
 90
      499
 91
      514
 93
       34
310
40C8804040
  0
ACAD_PROXY_OBJECT
  5
DA16
102
{ACAD_REACTORS
330
DA15
102
}
330
DA15
100
AcDbZombieObject
 90
      499
 91
      514
 93
       34
310
40C8804040
  0
ACAD_PROXY_OBJECT
  5
DA24
102
{ACAD_REACTORS
330
DA23
102
}
330
DA23
100
AcDbZombieObject
 90
      499
 91
      514
 93
       34
310
40C8804040
  0
SORTENTSTABLE
  5
890
102
{ACAD_REACTORS
330
88F
102
}
330
88F
100
AcDbSortentsTable
330
18
331
1ABD5
  5
1ABE6
331
1ABD6
  5
1ABE7
331
1ABD7
  5
1ABE8
331
1ABD8
  5
1ABE9
331
1ABD9
  5
1ABEA
331
1ABDA
  5
1ABEB
331
1ABDB
  5
1ABEC
331
1ABDC
  5
1ABED
331
1ABDD
  5
1ABEE
331
1ABDE
  5
1ABF2
331
1ABDF
  5
1ABF3
331
1ABE0
  5
1ABF4
331
1ABE1
  5
1ABF8
331
0
  5
1AC10
331
1ABE7
  5
1AC24
331
1ABE8
  5
1AC25
331
1ABE9
  5
1AC26
331
1ABEA
  5
1AC27
331
1ABEB
  5
1AC28
331
1ABEC
  5
1AC29
331
1ABED
  5
1AC2A
331
1ABEE
  5
1AC2B
331
1ABEF
  5
1AC2C
331
1ABF0
  5
1AC2D
331
1ABF1
  5
1AC2E
331
1ABF2
  5
1AC2F
331
1ABF3
  5
1AC30
331
1ABF4
  5
1AC31
331
1ABF5
  5
1AC32
331
1ABF6
  5
1AC34
331
1ABF7
  5
1AC35
331
1ABF8
  5
1AC36
331
1ABF9
  5
1AC37
331
1ABFA
  5
1AC38
331
1ABFC
  5
1ACDA
331
1ABFD
  5
1ACDB
331
1ABFE
  5
1B3C6
331
0
  5
1ACC0
331
1AC02
  5
1B3E6
331
1AC03
  5
1B3E7
331
1AC04
  5
1B3E8
331
1AC05
  5
1B3E9
331
1AC06
  5
1B3EA
331
1AC07
  5
1B3EB
331
1AC08
  5
1B3EC
331
1AC09
  5
1B3ED
331
1AC0A
  5
1B3EE
331
1AC0B
  5
1B3EF
331
1AC0C
  5
1B3F0
331
1AC0D
  5
1B3F1
331
1AC0E
  5
1B3F2
331
1AC0F
  5
1B3F3
331
1AC10
  5
1B3F4
331
1AC11
  5
1B3F8
331
1AC12
  5
1B3F9
331
1AC13
  5
1B3FA
331
1AC14
  5
1B3FB
331
1AC15
  5
1B3FC
331
1AC16
  5
1B3FD
331
1AC17
  5
1B401
331
1AC18
  5
1B402
331
1AC19
  5
1B403
331
1AC1A
  5
1B407
331
1AC1B
  5
1B408
331
1AC1C
  5
1B409
331
1AC1D
  5
1B411
331
1AC1E
  5
1B412
331
1AC1F
  5
1B413
331
1AC20
  5
1B414
331
1AC21
  5
1B415
331
1AC22
  5
1B416
331
1AC23
  5
1B417
331
1AC24
  5
1B418
331
1AC25
  5
1B419
331
1AC26
  5
1B41A
331
1AC27
  5
1B41B
331
1AC28
  5
1B41C
331
1AC29
  5
1B41D
331
1AC2A
  5
1B41E
331
1AC2B
  5
1B41F
331
1AC2C
  5
1B420
331
1AC2D
  5
1B421
331
1AC2E
  5
1B422
331
1AC2F
  5
1B423
331
1AC30
  5
1B424
331
1AC31
  5
1B425
331
1AC32
  5
1B426
331
1AC34
  5
1B432
331
1AC35
  5
1B433
331
1AC36
  5
1B434
331
1AC37
  5
1B436
331
1AC38
  5
1B437
331
1AC39
  5
1B43A
331
1AC3A
  5
1B43B
331
1AC3B
  5
1B43C
331
1AC59
  5
1B43D
331
1ACAB
  5
1B43E
331
1ACAC
  5
1B43F
331
1ACBC
  5
1B440
331
1ACBD
  5
1B441
331
1ACBE
  5
1B442
331
1ACBF
  5
1B443
331
1ACC0
  5
1B444
331
1ACDA
  5
1B445
331
1ACDB
  5
1B446
331
0
  5
1B42B
331
1B3C8
  5
1B45A
331
1B3C9
  5
1B45B
331
1B3CA
  5
1B45C
331
1B3CE
  5
1B493
331
1B3CF
  5
1B494
331
1B3D0
  5
1B495
331
1B3D1
  5
1B499
331
1B3D2
  5
1B49A
331
1B3D3
  5
1B49B
331
1B3D4
  5
1B49C
331
1B3D5
  5
1B49D
331
1B3D6
  5
1B49E
331
1B3D7
  5
1B49F
331
1B3D8
  5
1B4A0
331
1B3D9
  5
1B4A1
331
1B3DA
  5
1B4A2
331
1B3DB
  5
1B4A3
331
1B3DC
  5
1B4A4
331
1B3DD
  5
1B4A5
331
1B3DE
  5
1B4A6
331
1B3DF
  5
1B4A7
331
1B3E0
  5
1B4A8
331
1B3E1
  5
1B4A9
331
1B3E3
  5
1B4AA
331
1B3E4
  5
1B4AB
331
1B3E5
  5
1B4AC
331
1B3E6
  5
1B4B1
331
1B3E7
  5
1B4B2
331
1B3E8
  5
1B4E8
331
1B3E9
  5
1B4E9
331
1B3EA
  5
1B4EA
331
1B3EB
  5
1B4EB
331
1B3EC
  5
1B4EC
331
1B3ED
  5
1B4ED
331
1B3EE
  5
1B4EE
331
1B3EF
  5
1B4EF
331
1B3F0
  5
1B4F1
331
1B3F1
  5
1B4F2
331
1B3F2
  5
1B4F3
331
1B3F3
  5
1B4F4
331
1B3F4
  5
1B4F5
331
1B3F5
  5
1B4F8
331
1B3F6
  5
1B4F9
331
1B3F7
  5
1B4FA
331
1B3F8
  5
1B4FC
331
1B3F9
  5
1B4FD
331
1B3FA
  5
1B4FE
331
1B3FB
  5
1B4FF
331
1B3FC
  5
1B50A
331
1B3FD
  5
1B50B
331
1B3FE
  5
1B513
331
1B3FF
  5
1B515
331
1B400
  5
1B516
331
1B401
  5
1B57A
331
1B402
  5
1B57C
331
1B403
  5
1B57D
331
1B404
  5
1B57F
331
1B405
  5
1B580
331
1B406
  5
1B5D1
331
1B407
  5
1B5D2
331
1B408
  5
1B5D3
331
1B409
  5
1B5D4
331
1B40A
  5
1B5D8
331
1B40B
  5
1B5D9
331
0
  5
1B4F0
331
1B411
  5
1B5E4
331
1B412
  5
1B5E5
331
1B413
  5
1B5E6
331
1B414
  5
1B5E7
331
1B415
  5
1B5E8
331
1B416
  5
1B5E9
331
1B417
  5
1B5EB
331
1B418
  5
1B5EC
331
1B419
  5
1B5ED
331
1B41A
  5
1B5EE
331
1B41B
  5
1B5EF
331
1B41C
  5
1B5F0
331
1B41D
  5
1B5F1
331
1B41E
  5
1B5F2
331
1B41F
  5
1B5F3
331
1B420
  5
1B5F4
331
1B421
  5
1B5F5
331
1B422
  5
1B5FA
331
1B423
  5
1B5FB
331
1B424
  5
1B631
331
1B425
  5
1B632
331
1B426
  5
1B633
331
1B427
  5
1B634
331
1B428
  5
1B635
331
1B429
  5
1B636
331
1B42A
  5
1B637
331
1B42B
  5
1B638
331
1B42C
  5
1B639
331
1B42D
  5
1B63A
331
1B42E
  5
1B63B
331
1B42F
  5
1B63C
331
1B430
  5
1B63D
331
1B431
  5
1B63E
331
1B432
  5
1B646
331
1B433
  5
1B648
331
1B434
  5
1B6F2
331
1B436
  5
1BB2E
331
1B437
  5
1BB2F
331
1B43A
  5
1BB30
331
1B43B
  5
1BB31
331
1B43C
  5
1BB32
331
1B43D
  5
1BB33
331
1B43E
  5
1BB34
331
1B43F
  5
1BB35
331
1B440
  5
1BB36
331
1B441
  5
1BB37
331
1B442
  5
1BB38
331
1B443
  5
1BB39
331
1B444
  5
1BB3A
331
1B445
  5
1BB3B
331
1B446
  5
1BB3C
331
1B447
  5
1BB3D
331
1B448
  5
1BB3E
331
1B44E
  5
1BB3F
331
1B44F
  5
1BB40
331
1B450
  5
1BB41
331
1B451
  5
1BB42
331
1B452
  5
1BB43
331
1B453
  5
1BB44
331
1B454
  5
1BB45
331
1B455
  5
1BB46
331
1B456
  5
1BB47
331
1B457
  5
1BB48
331
1B458
  5
1BB49
331
1B459
  5
1BB4A
331
1B45A
  5
1BB4B
331
1B45B
  5
1BB4C
331
1B45C
  5
1BB4D
331
1B45D
  5
1BB4E
331
1B45E
  5
1BB4F
331
1B45F
  5
1BB50
331
1B460
  5
1BB51
331
1B461
  5
1BB52
331
1B462
  5
1BB53
331
1B464
  5
1BB54
331
1B469
  5
1BB55
331
1B46A
  5
1BB73
331
1B46B
  5
1BB74
331
1B473
  5
1BBB3
331
1B47F
  5
1BBB7
331
1B480
  5
1BBB8
331
1B481
  5
1BBB9
331
1B482
  5
1BBBA
331
1B483
  5
1BBBB
331
1B484
  5
1BBBC
331
1B485
  5
1BBBD
331
1B486
  5
1BBBE
331
0
  5
1BB56
331
1B489
  5
1C333
331
1B48A
  5
1C334
331
1B48B
  5
1C335
331
1B48C
  5
1C336
331
1B48D
  5
1C337
331
1B48E
  5
1C338
331
1B48F
  5
1C339
331
1B490
  5
1C33A
331
1B491
  5
1C33B
331
1B492
  5
1C33C
331
1B493
  5
1C33D
331
1B494
  5
1C33E
331
1B495
  5
1C33F
331
1B496
  5
1C340
331
1B497
  5
1C378
331
1B498
  5
1C37C
331
1B499
  5
1C444
331
1B49A
  5
1C56D
331
1B49B
  5
1C56E
331
1B49C
  5
1C56F
331
1B49D
  5
1C570
331
1B49E
  5
1C571
331
1B49F
  5
1C572
331
1B4A0
  5
1C573
331
1B4A1
  5
1C574
331
1B4A2
  5
1C575
331
1B4A3
  5
1C576
331
1B4A4
  5
1C577
331
1B4A5
  5
1C57B
331
1B4A6
  5
1C57C
331
1B4A7
  5
1C57D
331
1B4A8
  5
1C581
331
1B4A9
  5
1C582
331
1B4AA
  5
1C583
331
1B4AB
  5
1C587
331
1B4AC
  5
1C588
331
1B4B1
  5
1C589
331
1B4B2
  5
1C58A
331
1B4E8
  5
1C58B
331
1B4E9
  5
1C58C
331
1B4EA
  5
1C58D
331
1B4EB
  5
1C58E
331
1B4EC
  5
1C58F
331
1B4ED
  5
1C590
331
1B4EE
  5
1C591
331
1B4EF
  5
1C592
331
1B4F0
  5
1C593
331
1B4F1
  5
1C594
331
1B4F2
  5
1C595
331
1B4F3
  5
1C596
331
1B4F4
  5
1C597
331
1B4F5
  5
1C598
331
1B4F8
  5
1C599
331
0
  5
1C32F
331
0
  5
1C330
331
0
  5
1C331
331
1B4FD
  5
1C5BA
331
1B4FE
  5
1C5BB
331
1B4FF
  5
1C5BC
331
1B50A
  5
1C5BD
331
1B50B
  5
1C5BE
331
1B50F
  5
1C5BF
331
1B510
  5
1C5C0
331
1B512
  5
1C5C1
331
1B513
  5
1C5C2
331
1B515
  5
1C5C3
331
1B516
  5
1C5C4
331
1B567
  5
1C5C5
331
1B568
  5
1C5C6
331
1B569
  5
1C5C7
331
1B574
  5
1C5C8
331
1B575
  5
1C5C9
331
1B579
  5
1C5CA
331
1B57A
  5
1C5CB
331
1B57C
  5
1C5CC
331
1B57D
  5
1C5CD
331
1B57F
  5
1C5CE
331
1B580
  5
1C5CF
331
1B5D1
  5
1C5D0
331
1B5D2
  5
1C5D1
331
1B5D3
  5
1C5D2
331
1B5D4
  5
1C5D3
331
1B5D5
  5
1C5D4
331
1B5D6
  5
1C5D5
331
1B5D7
  5
1C5D6
331
1B5D8
  5
1C5D7
331
1B5D9
  5
1C5D8
331
1B5DA
  5
1C5D9
331
1B5DB
  5
1C5DA
331
1B5DC
  5
1C5DB
331
1B5DD
  5
1C5DC
331
1B5DE
  5
1C5DD
331
1B5DF
  5
1C5DE
331
1B5E0
  5
1C5DF
331
1B5E1
  5
1C5E0
331
1B5E2
  5
1C5E1
331
1B5E3
  5
1C5E2
331
1B5E4
  5
1C5E3
331
1B5E5
  5
1C5E4
331
1B5E6
  5
1C5E5
331
1B5E7
  5
1C5E6
331
1B5E8
  5
1C5E7
331
1B5E9
  5
1C5E8
331
1B5EB
  5
1C5E9
331
1B5EC
  5
1C5EA
331
1B5ED
  5
1C5EB
331
1B5EE
  5
1C5EC
331
1B5EF
  5
1C5ED
331
1B5F0
  5
1C5EE
331
1B5F1
  5
1C5EF
331
1B5F2
  5
1C5F0
331
1B5F3
  5
1C5F1
331
1B5F4
  5
1C5F2
331
1B5F5
  5
1C5F3
331
1B5FA
  5
1C5F4
331
1B5FB
  5
1C5F5
331
1B631
  5
1C5F6
331
1B632
  5
1C5F7
331
1B633
  5
1C5F8
331
1B634
  5
1C5F9
331
1B635
  5
1C5FA
331
1B636
  5
1C5FB
331
1B637
  5
1C5FC
331
1B638
  5
1C5FD
331
1B639
  5
1C5FE
331
1B63A
  5
1C5FF
331
1B63B
  5
1C600
331
1B63C
  5
1C601
331
1B63D
  5
1C602
331
1B63E
  5
1C603
331
0
  5
1C5A7
331
0
  5
1C5AA
331
1B6F2
  5
1C60C
331
1B6F3
  5
1C60D
331
1B6F4
  5
1C60E
331
1BAE2
  5
1C60F
331
1BAE3
  5
1C610
331
1BB0E
  5
1C611
331
1BB0F
  5
1C612
331
1BB10
  5
1C613
331
1BB11
  5
1C614
331
1BB12
  5
1C615
331
1BB2D
  5
1C616
331
1BB2E
  5
1C617
331
1BB2F
  5
1C618
331
1BB30
  5
1C619
331
1BB31
  5
1C61A
331
1BB32
  5
1C61B
331
1BB33
  5
1C61C
331
1BB34
  5
1C61D
331
1BB35
  5
1C61E
331
1BB36
  5
1C61F
331
1BB37
  5
1C620
331
1BB38
  5
1C621
331
1BB39
  5
1C622
331
1BB3A
  5
1C623
331
1BB3B
  5
1C624
331
1BB3C
  5
1C625
331
1BB3D
  5
1C629
331
1BB3E
  5
1C62A
331
1BB3F
  5
1C62B
331
1BB40
  5
1C62C
331
1BB41
  5
1C62D
331
1BB42
  5
1C62E
331
1BB43
  5
1C62F
331
1BB44
  5
1C630
331
1BB45
  5
1C631
331
1BB46
  5
1C632
331
1BB47
  5
1C633
331
1BB48
  5
1C634
331
1BB49
  5
1C635
331
1BB4A
  5
1C636
331
1BB4B
  5
1C637
331
1BB4C
  5
1C638
331
1BB4D
  5
1C639
331
1BB4E
  5
1C63A
331
1BB4F
  5
1C63B
331
1BB50
  5
1C63C
331
1BB51
  5
1C63D
331
1BB52
  5
1C63E
331
1BB53
  5
1C63F
331
1BB54
  5
1C640
331
1BB55
  5
1C641
331
1BB56
  5
1C642
331
1BB73
  5
1C643
331
1BB74
  5
1C644
331
1BB9F
  5
1C645
331
1BBA0
  5
1C646
331
1BBA1
  5
1C647
331
1BBA2
  5
1C648
331
1BBA3
  5
1C649
331
1BBA4
  5
1C64A
331
1BBA5
  5
1C64B
331
1BBA6
  5
1C64C
331
1BBA7
  5
1C64D
331
1BBA8
  5
1C64E
331
1BBA9
  5
1C64F
331
1BBAA
  5
1C650
331
1BBAB
  5
1C651
331
1BBAC
  5
1C652
331
1BBAD
  5
1C653
331
1BBAE
  5
1C654
331
1BBAF
  5
1C655
331
1BBB0
  5
1C656
331
1BBB1
  5
1C657
331
1BBB2
  5
1C658
331
1BBB3
  5
1C659
331
1BBB4
  5
1C65A
331
1BBB5
  5
1C65B
331
1BBB6
  5
1C65C
331
1BBB7
  5
1C65D
331
1BBB8
  5
1C65E
331
1BBB9
  5
1C65F
331
1BBBA
  5
1C660
331
1BBBB
  5
1C664
331
1BBBC
  5
1C665
331
1BBBD
  5
1C666
331
1BBBE
  5
1C667
331
1BBBF
  5
1C668
331
1BBC0
  5
1C669
331
1BBC1
  5
1C66A
331
1BBC2
  5
1C66B
331
1BBC3
  5
1C66C
331
1BBC4
  5
1C66D
331
1BBC5
  5
1C66E
331
1BBC6
  5
1C66F
331
1BBC7
  5
1C670
331
1BC05
  5
1C671
331
1BC06
  5
1C672
331
1BC07
  5
1C673
331
1BC08
  5
1C674
331
1BC09
  5
1C675
331
1BC0A
  5
1C676
331
1C2E2
  5
1C677
331
1C32C
  5
1C678
331
1C32D
  5
1C679
331
1C32E
  5
1C67A
331
1C32F
  5
1C67B
331
1C330
  5
1C67C
331
1C331
  5
1C67D
331
1C332
  5
1C67E
331
1C333
  5
1C67F
331
1C334
  5
1C680
331
1C335
  5
1C681
331
1C336
  5
1C682
331
1C337
  5
1C683
331
1C338
  5
1C684
331
1C339
  5
1C685
331
1C33A
  5
1C686
331
1C33B
  5
1C687
331
1C33C
  5
1C688
331
1C33D
  5
1C689
331
1C33E
  5
1C68A
331
1C33F
  5
1C68B
331
1C340
  5
1C68C
331
0
  5
1C626
331
0
  5
1C627
331
0
  5
1C628
331
1C56D
  5
1ABD5
331
1C56E
  5
1ABD6
331
1C56F
  5
1ABD7
331
0
  5
1ABD8
331
0
  5
1ABD9
331
0
  5
1ABDA
331
1C573
  5
1ABF9
331
1C574
  5
1ABFA
331
1C575
  5
1ABFC
331
0
  5
1ABEF
331
0
  5
1ABF0
331
0
  5
1ABF1
331
1C579
  5
1AC06
331
1C57A
  5
1AC07
331
1C57B
  5
1AC08
331
0
  5
1ABF5
331
0
  5
1ABF6
331
0
  5
1ABF7
331
1C57F
  5
1AC39
331
1C580
  5
1AC3A
331
1C581
  5
1AC3B
331
0
  5
1AC13
331
0
  5
1AC14
331
0
  5
1AC15
331
1C585
  5
1B3C8
331
1C586
  5
1B3C9
331
1C587
  5
1B3CA
331
0
  5
1AC1C
331
0
  5
1AC1D
331
0
  5
1AC1E
331
1C58B
  5
1B427
331
1C58C
  5
1B428
331
1C58D
  5
1B429
331
0
  5
1B3D9
331
0
  5
1B3DA
331
0
  5
1B3DB
331
1C591
  5
1B447
331
1C592
  5
1B448
331
1C593
  5
1B450
331
1C594
  5
1B451
331
1C595
  5
1B452
331
0
  5
1B3F5
331
0
  5
1B3F6
331
0
  5
1B3F7
331
1C599
  5
1B45D
331
1C59A
  5
1B45E
331
1C59B
  5
1B45F
331
0
  5
1B3FE
331
0
  5
1B3FF
331
0
  5
1B400
331
1C59F
  5
1B473
331
1C5A0
  5
1B47F
331
1C5A1
  5
1B480
331
0
  5
1B404
331
0
  5
1B405
331
0
  5
1B406
331
1C5A5
  5
1B489
331
1C5A6
  5
1B48A
331
1C5A7
  5
1B48B
331
0
  5
1B40A
331
0
  5
1B40B
331
0
  5
1B40C
331
1C5AB
  5
1B6F3
331
1C5AC
  5
1B6F4
331
1C5AD
  5
1BAE2
331
0
  5
1B496
331
0
  5
1B497
331
0
  5
1B498
331
1C5B1
  5
1BB9F
331
1C5B2
  5
1BBA0
331
1C5B3
  5
1BBA1
331
0
  5
1B50F
331
0
  5
1B510
331
0
  5
1B512
331
1C5B7
  5
1BBA9
331
1C5B8
  5
1BBAA
331
1C5B9
  5
1BBAB
331
0
  5
1B567
331
0
  5
1B568
331
0
  5
1B569
331
1C5BD
  5
1BBBF
331
1C5BE
  5
1BBC0
331
1C5BF
  5
1BBC1
331
0
  5
1B5D5
331
0
  5
1B5D6
331
0
  5
1B5D7
331
1C5C3
  5
1C604
331
1C5C4
  5
1C605
331
1C5C5
  5
1C608
331
1C5C6
  5
1C609
331
1C5C7
  5
1ABDB
331
1C5C8
  5
1ABDC
331
1C5C9
  5
1ABDD
331
1C5CA
  5
1ABDE
331
1C5CB
  5
1ABDF
331
1C5CC
  5
1ABE0
331
1C5CD
  5
1ABE1
331
1C5CE
  5
1ABFD
331
1C5CF
  5
1ABFE
331
1C5D0
  5
1AC01
331
1C5D1
  5
1AC02
331
1C5D2
  5
1AC03
331
1C5D3
  5
1AC04
331
1C5D4
  5
1AC05
331
1C5D5
  5
1AC09
331
1C5D6
  5
1AC0A
331
1C5D7
  5
1AC0B
331
1C5D8
  5
1AC0C
331
1C5D9
  5
1AC0D
331
1C5DA
  5
1AC0E
331
1C5DB
  5
1AC0F
331
1C5DC
  5
1AC59
331
1C5DD
  5
1ACAB
331
1C5DE
  5
1ACAC
331
1C5DF
  5
1ACBC
331
1C5E0
  5
1ACBD
331
1C5E1
  5
1ACBE
331
1C5E2
  5
1ACBF
331
1C5E3
  5
1B3CE
331
1C5E4
  5
1B3CF
331
1C5E5
  5
1B3D0
331
1C5E6
  5
1B3D4
331
1C5E7
  5
1B3D5
331
1C5E8
  5
1B3D6
331
1C5E9
  5
1B3D7
331
1C5EA
  5
1B42A
331
1C5EB
  5
1B42C
331
1C5EC
  5
1B42D
331
1C5ED
  5
1B42E
331
1C5EE
  5
1B42F
331
1C5EF
  5
1B430
331
1C5F0
  5
1B431
331
1C5F1
  5
1B453
331
1C5F2
  5
1B454
331
1C5F3
  5
1B455
331
1C5F4
  5
1B456
331
1C5F5
  5
1B457
331
1C5F6
  5
1B458
331
1C5F7
  5
1B459
331
1C5F8
  5
1B460
331
1C5F9
  5
1B461
331
1C5FA
  5
1B462
331
1C5FB
  5
1B464
331
1C5FC
  5
1B469
331
1C5FD
  5
1B46A
331
1C5FE
  5
1B46B
331
1C5FF
  5
1B481
331
1C600
  5
1B482
331
1C601
  5
1B483
331
1C602
  5
1B484
331
1C603
  5
1B485
331
1C604
  5
1B486
331
1C605
  5
1B488
331
1C606
  5
1B48C
331
1C607
  5
1B48D
331
1C608
  5
1B48E
331
1C609
  5
1B48F
331
1C60A
  5
1B490
331
1C60B
  5
1B491
331
1C60C
  5
1B492
331
1C60D
  5
1BAE3
331
1C60E
  5
1BB0E
331
1C60F
  5
1BB0F
331
1C610
  5
1BB10
331
1C611
  5
1BB11
331
1C612
  5
1BB12
331
1C613
  5
1BB2D
331
1C614
  5
1BBA2
331
1C615
  5
1BBA3
331
1C616
  5
1BBA4
331
1C617
  5
1BBA5
331
1C618
  5
1BBA6
331
1C619
  5
1BBA7
331
1C61A
  5
1BBA8
331
1C61B
  5
1BBAC
331
1C61C
  5
1BBAD
331
1C61D
  5
1BBAE
331
1C61E
  5
1BBAF
331
1C61F
  5
1BBB0
331
1C620
  5
1BBB1
331
1C621
  5
1BBB2
331
1C622
  5
1BBC2
331
1C623
  5
1BBC3
331
1C624
  5
1BBC4
331
1C625
  5
1BBC5
331
1C626
  5
1BBC6
331
1C627
  5
1BBC7
331
1C628
  5
1BC05
331
1C629
  5
1AC11
331
1C62A
  5
1AC12
331
1C62B
  5
1AC16
331
0
  5
1AC17
331
0
  5
1AC18
331
0
  5
1AC19
331
1C62F
  5
1B3D8
331
1C630
  5
1B3DC
331
1C631
  5
1B3DD
331
0
  5
1B3D1
331
0
  5
1B3D2
331
0
  5
1B3D3
331
1C635
  5
1B44E
331
1C636
  5
1B44F
331
1C637
  5
1B5DA
331
1C638
  5
1B5DB
331
1C639
  5
1B5DC
331
0
  5
1B574
331
0
  5
1B575
331
0
  5
1B579
331
1C63D
  5
1BC06
331
1C63E
  5
1BC07
331
1C63F
  5
1BC08
331
0
  5
1BBB4
331
0
  5
1BBB5
331
0
  5
1BBB6
331
1C643
  5
1C59A
331
1C644
  5
1C59B
331
1C645
  5
1C59C
331
0
  5
1C578
331
0
  5
1C579
331
0
  5
1C57A
331
1C649
  5
1C5A4
331
1C64A
  5
1C5A5
331
1C64B
  5
1C5A6
331
0
  5
1C57E
331
0
  5
1C57F
331
0
  5
1C580
331
1C64F
  5
1C5B0
331
1C650
  5
1C5B1
331
1C651
  5
1C5B2
331
0
  5
1C584
331
0
  5
1C585
331
0
  5
1C586
331
1C655
  5
1C606
331
1C656
  5
1C607
331
1C657
  5
1C60A
331
1C658
  5
1C60B
331
1C659
  5
1C68D
331
1C65A
  5
1C68E
331
1C65B
  5
1C68F
331
1C65C
  5
1C690
331
1C65D
  5
1C691
331
1C65E
  5
1C692
331
1C65F
  5
1C693
331
1C660
  5
1C694
331
1C664
  5
1AC1A
331
1C665
  5
1AC1B
331
1C666
  5
1AC1F
331
1C667
  5
1AC20
331
1C668
  5
1AC21
331
1C669
  5
1AC22
331
1C66A
  5
1AC23
331
1C66B
  5
1B3DE
331
1C66C
  5
1B3DF
331
1C66D
  5
1B3E0
331
1C66E
  5
1B3E1
331
1C66F
  5
1B3E3
331
1C670
  5
1B3E4
331
1C671
  5
1B3E5
331
1C672
  5
1B5DD
331
1C673
  5
1B5DE
331
1C674
  5
1B5DF
331
1C675
  5
1B5E0
331
1C676
  5
1B5E1
331
1C677
  5
1B5E2
331
1C678
  5
1B5E3
331
1C679
  5
1BC09
331
1C67A
  5
1BC0A
331
1C67B
  5
1C2E2
331
1C67C
  5
1C32C
331
1C67D
  5
1C32D
331
1C67E
  5
1C32E
331
1C67F
  5
1C332
331
1C680
  5
1C59D
331
1C681
  5
1C59E
331
1C682
  5
1C59F
331
1C683
  5
1C5A0
331
1C684
  5
1C5A1
331
1C685
  5
1C5A2
331
1C686
  5
1C5A3
331
1C687
  5
1C5A8
331
1C688
  5
1C5A9
331
1C689
  5
1C5AB
331
1C68A
  5
1C5AC
331
1C68B
  5
1C5AD
331
1C68C
  5
1C5AE
331
1C68D
  5
1C5AF
331
1C68E
  5
1C5B3
331
1C68F
  5
1C5B4
331
1C690
  5
1C5B5
331
1C691
  5
1C5B6
331
1C692
  5
1C5B7
331
1C693
  5
1C5B8
331
1C694
  5
1C5B9
  0
MATERIAL
  5
D9A4
102
{ACAD_REACTORS
330
18C
102
}
102
{ACAD_XDICTIONARY
360
1C83A
102
}
330
18C
100
AcDbMaterial
  1
BYBLOCK
 72
     0
 73
     2
 43
0.0208333333333333
 43
0.0
 43
0.0
 43
0.0
 43
0.0
 43
0.0208333333333333
 43
0.0
 43
0.0
 43
0.0
 43
0.0
 43
1.0
 43
0.0
 43
0.0
 43
0.0
 43
0.0
 43
1.0
 77
     0
 78
     2
 47
0.0208333333333333
 47
0.0
 47
0.0
 47
0.0
 47
0.0
 47
0.0208333333333333
 47
0.0
 47
0.0
 47
0.0
 47
0.0
 47
1.0
 47
0.0
 47
0.0
 47
0.0
 47
0.0
 47
1.0
171
     0
172
     2
 49
0.0208333333333333
 49
0.0
 49
0.0
 49
0.0
 49
0.0
 49
0.0208333333333333
 49
0.0
 49
0.0
 49
0.0
 49
0.0
 49
1.0
 49
0.0
 49
0.0
 49
0.0
 49
0.0
 49
1.0
175
     0
176
     2
142
0.0208333333333333
142
0.0
142
0.0
142
0.0
142
0.0
142
0.0208333333333333
142
0.0
142
0.0
142
0.0
142
0.0
142
1.0
142
0.0
142
0.0
142
0.0
142
0.0
142
1.0
179
     0
270
     2
144
0.0208333333333333
144
0.0
144
0.0
144
0.0
144
0.0
144
0.0208333333333333
144
0.0
144
0.0
144
0.0
144
0.0
144
1.0
144
0.0
144
0.0
144
0.0
144
0.0
144
1.0
274
     2
147
0.0208333333333333
147
0.0
147
0.0
147
0.0
147
0.0
147
0.0208333333333333
147
0.0
147
0.0
147
0.0
147
0.0
147
1.0
147
0.0
147
0.0
147
0.0
147
0.0
147
1.0
  0
MATERIAL
  5
D99C
102
{ACAD_REACTORS
330
18C
102
}
102
{ACAD_XDICTIONARY
360
1C83C
102
}
330
18C
100
AcDbMaterial
  1
BYLAYER
 72
     0
 73
     2
 43
0.0208333333333333
 43
0.0
 43
0.0
 43
0.0
 43
0.0
 43
0.0208333333333333
 43
0.0
 43
0.0
 43
0.0
 43
0.0
 43
1.0
 43
0.0
 43
0.0
 43
0.0
 43
0.0
 43
1.0
 77
     0
 78
     2
 47
0.0208333333333333
 47
0.0
 47
0.0
 47
0.0
 47
0.0
 47
0.0208333333333333
 47
0.0
 47
0.0
 47
0.0
 47
0.0
 47
1.0
 47
0.0
 47
0.0
 47
0.0
 47
0.0
 47
1.0
171
     0
172
     2
 49
0.0208333333333333
 49
0.0
 49
0.0
 49
0.0
 49
0.0
 49
0.0208333333333333
 49
0.0
 49
0.0
 49
0.0
 49
0.0
 49
1.0
 49
0.0
 49
0.0
 49
0.0
 49
0.0
 49
1.0
175
     0
176
     2
142
0.0208333333333333
142
0.0
142
0.0
142
0.0
142
0.0
142
0.0208333333333333
142
0.0
142
0.0
142
0.0
142
0.0
142
1.0
142
0.0
142
0.0
142
0.0
142
0.0
142
1.0
179
     0
270
     2
144
0.0208333333333333
144
0.0
144
0.0
144
0.0
144
0.0
144
0.0208333333333333
144
0.0
144
0.0
144
0.0
144
0.0
144
1.0
144
0.0
144
0.0
144
0.0
144
0.0
144
1.0
274
     2
147
0.0208333333333333
147
0.0
147
0.0
147
0.0
147
0.0
147
0.0208333333333333
147
0.0
147
0.0
147
0.0
147
0.0
147
1.0
147
0.0
147
0.0
147
0.0
147
0.0
147
1.0
  0
MATERIAL
  5
D9AC
102
{ACAD_REACTORS
330
18C
102
}
102
{ACAD_XDICTIONARY
360
1C83E
102
}
330
18C
100
AcDbMaterial
  1
GLOBAL
 72
     0
 73
     2
 43
0.0208333333333333
 43
0.0
 43
0.0
 43
0.0
 43
0.0
 43
0.0208333333333333
 43
0.0
 43
0.0
 43
0.0
 43
0.0
 43
1.0
 43
0.0
 43
0.0
 43
0.0
 43
0.0
 43
1.0
 77
     0
 78
     2
 47
0.0208333333333333
 47
0.0
 47
0.0
 47
0.0
 47
0.0
 47
0.0208333333333333
 47
0.0
 47
0.0
 47
0.0
 47
0.0
 47
1.0
 47
0.0
 47
0.0
 47
0.0
 47
0.0
 47
1.0
171
     0
172
     2
 49
0.0208333333333333
 49
0.0
 49
0.0
 49
0.0
 49
0.0
 49
0.0208333333333333
 49
0.0
 49
0.0
 49
0.0
 49
0.0
 49
1.0
 49
0.0
 49
0.0
 49
0.0
 49
0.0
 49
1.0
175
     0
176
     2
142
0.0208333333333333
142
0.0
142
0.0
142
0.0
142
0.0
142
0.0208333333333333
142
0.0
142
0.0
142
0.0
142
0.0
142
1.0
142
0.0
142
0.0
142
0.0
142
0.0
142
1.0
179
     0
270
     2
144
0.0208333333333333
144
0.0
144
0.0
144
0.0
144
0.0
144
0.0208333333333333
144
0.0
144
0.0
144
0.0
144
0.0
144
1.0
144
0.0
144
0.0
144
0.0
144
0.0
144
1.0
274
     2
147
0.0208333333333333
147
0.0
147
0.0
147
0.0
147
0.0
147
0.0208333333333333
147
0.0
147
0.0
147
0.0
147
0.0
147
1.0
147
0.0
147
0.0
147
0.0
147
0.0
147
1.0
  0
ACAD_PROXY_OBJECT
  5
D9E8
102
{ACAD_REACTORS
330
D9E7
102
}
330
D9E7
100
AcDbZombieObject
 90
      499
 91
      511
 93
      610
310
40901902A4063FBFFFFFE000000000000002040AD7A3703D0AD73F4214DD185B99185C990000000000000104090141901A00000000000004100000000000000041025764000000000000300FC0
340
12
340
0
340
F
340
0
 94
        0
1001
ACAD_MLEADERVER
1070
     2
  0
MLINESTYLE
  5
1C
102
{ACAD_REACTORS
330
1B
102
}
330
1B
100
AcDbMlineStyle
  2
STANDARD
 70
     0
  3

 62
   256
 51
90.0
 52
90.0
 71
     2
 49
0.5
 62
   256
  6
BYLAYER
 49
-0.5
 62
   256
  6
BYLAYER
  0
ACAD_PROXY_OBJECT
  5
D9C6
102
{ACAD_REACTORS
330
D9C5
102
}
330
D9C5
100
AcDbZombieObject
 90
      499
 91
      510
 93
       41
310
903313A31580
  0
ACAD_PROXY_OBJECT
  5
D9C7
102
{ACAD_REACTORS
330
D9C5
102
}
330
D9C5
100
AcDbZombieObject
 90
      499
 91
      510
 93
      105
310
903313A324000000000000004000
  0
ACAD_PROXY_OBJECT
  5
D9C8
102
{ACAD_REACTORS
330
D9C5
102
}
330
D9C5
100
AcDbZombieObject
 90
      499
 91
      510
 93
      105
310
903313A344000000000000104000
  0
ACAD_PROXY_OBJECT
  5
D9C9
102
{ACAD_REACTORS
330
D9C5
102
}
330
D9C5
100
AcDbZombieObject
 90
      499
 91
      510
 93
      105
310
903313A354000000000000144000
  0
ACAD_PROXY_OBJECT
  5
D9CA
102
{ACAD_REACTORS
330
D9C5
102
}
330
D9C5
100
AcDbZombieObject
 90
      499
 91
      510
 93
      105
310
903313A384000000000000204000
  0
ACAD_PROXY_OBJECT
  5
D9CB
102
{ACAD_REACTORS
330
D9C5
102
}
330
D9C5
100
AcDbZombieObject
 90
      499
 91
      510
 93
      113
310
904313A31304000000000000244000
  0
ACAD_PROXY_OBJECT
  5
D9CC
102
{ACAD_REACTORS
330
D9C5
102
}
330
D9C5
100
AcDbZombieObject
 90
      499
 91
      510
 93
      113
310
904313A31364000000000000304000
  0
ACAD_PROXY_OBJECT
  5
D9CD
102
{ACAD_REACTORS
330
D9C5
102
}
330
D9C5
100
AcDbZombieObject
 90
      499
 91
      510
 93
      113
310
904313A32304000000000000344000
  0
ACAD_PROXY_OBJECT
  5
D9CE
102
{ACAD_REACTORS
330
D9C5
102
}
330
D9C5
100
AcDbZombieObject
 90
      499
 91
      510
 93
      113
310
904313A333040000000000003E4000
  0
ACAD_PROXY_OBJECT
  5
D9CF
102
{ACAD_REACTORS
330
D9C5
102
}
330
D9C5
100
AcDbZombieObject
 90
      499
 91
      510
 93
      113
310
904313A34304000000000000444000
  0
ACAD_PROXY_OBJECT
  5
D9D0
102
{ACAD_REACTORS
330
D9C5
102
}
330
D9C5
100
AcDbZombieObject
 90
      499
 91
      510
 93
      113
310
904313A35304000000000000494000
  0
ACAD_PROXY_OBJECT
  5
D9D1
102
{ACAD_REACTORS
330
D9C5
102
}
330
D9C5
100
AcDbZombieObject
 90
      499
 91
      510
 93
      121
310
905313A3130304000000000000594000
  0
ACAD_PROXY_OBJECT
  5
D9D2
102
{ACAD_REACTORS
330
D9C5
102
}
330
D9C5
100
AcDbZombieObject
 90
      499
 91
      510
 93
      105
310
903323A310000000000000010100
  0
ACAD_PROXY_OBJECT
  5
D9D3
102
{ACAD_REACTORS
330
D9C5
102
}
330
D9C5
100
AcDbZombieObject
 90
      499
 91
      510
 93
      105
310
903343A310000000000000410100
  0
ACAD_PROXY_OBJECT
  5
D9D4
102
{ACAD_REACTORS
330
D9C5
102
}
330
D9C5
100
AcDbZombieObject
 90
      499
 91
      510
 93
      105
310
903383A310000000000000810100
  0
ACAD_PROXY_OBJECT
  5
D9D5
102
{ACAD_REACTORS
330
D9C5
102
}
330
D9C5
100
AcDbZombieObject
 90
      499
 91
      510
 93
      113
310
90431303A310000000000000910100
  0
ACAD_PROXY_OBJECT
  5
D9D6
102
{ACAD_REACTORS
330
D9C5
102
}
330
D9C5
100
AcDbZombieObject
 90
      499
 91
      510
 93
      121
310
9053130303A310000000000001650100
  0
ACAD_PROXY_OBJECT
  5
D9D7
102
{ACAD_REACTORS
330
D9C5
102
}
330
D9C5
100
AcDbZombieObject
 90
      499
 91
      510
 93
      257
310
90E312F31323822203D2031272D3022000000000000200FC000000000000284000
  0
ACAD_PROXY_OBJECT
  5
D9D8
102
{ACAD_REACTORS
330
D9C5
102
}
330
D9C5
100
AcDbZombieObject
 90
      499
 91
      510
 93
      249
310
90D312F363422203D2031272D3022000000000000240FC000000000000284000
  0
ACAD_PROXY_OBJECT
  5
D9D9
102
{ACAD_REACTORS
330
D9C5
102
}
330
D9C5
100
AcDbZombieObject
 90
      499
 91
      510
 93
      249
310
90D312F333222203D2031272D3022000000000000280FC000000000000284000
  0
ACAD_PROXY_OBJECT
  5
D9DA
102
{ACAD_REACTORS
330
D9C5
102
}
330
D9C5
100
AcDbZombieObject
 90
      499
 91
      510
 93
      249
310
90D312F313622203D2031272D30220000000000002C0FC000000000000284000
  0
ACAD_PROXY_OBJECT
  5
D9DB
102
{ACAD_REACTORS
330
D9C5
102
}
330
D9C5
100
AcDbZombieObject
 90
      499
 91
      510
 93
      249
310
90D332F333222203D2031272D30220000000000002E0FC000000000000284000
  0
ACAD_PROXY_OBJECT
  5
D9DC
102
{ACAD_REACTORS
330
D9C5
102
}
330
D9C5
100
AcDbZombieObject
 90
      499
 91
      510
 93
      241
310
90C312F3822203D2031272D3022000000000000300FC000000000000284000
  0
ACAD_PROXY_OBJECT
  5
D9DD
102
{ACAD_REACTORS
330
D9C5
102
}
330
D9C5
100
AcDbZombieObject
 90
      499
 91
      510
 93
      249
310
90D332F313622203D2031272D3022000000000000320FC000000000000284000
  0
ACAD_PROXY_OBJECT
  5
D9DE
102
{ACAD_REACTORS
330
D9C5
102
}
330
D9C5
100
AcDbZombieObject
 90
      499
 91
      510
 93
      241
310
90C312F3422203D2031272D3022000000000000340FC000000000000284000
  0
ACAD_PROXY_OBJECT
  5
D9DF
102
{ACAD_REACTORS
330
D9C5
102
}
330
D9C5
100
AcDbZombieObject
 90
      499
 91
      510
 93
      241
310
90C332F3822203D2031272D3022000000000000360FC000000000000284000
  0
ACAD_PROXY_OBJECT
  5
D9E0
102
{ACAD_REACTORS
330
D9C5
102
}
330
D9C5
100
AcDbZombieObject
 90
      499
 91
      510
 93
      241
310
90C312F3222203D2031272D3022000000000000380FC000000000000284000
  0
ACAD_PROXY_OBJECT
  5
D9E1
102
{ACAD_REACTORS
330
D9C5
102
}
330
D9C5
100
AcDbZombieObject
 90
      499
 91
      510
 93
      241
310
90C332F3422203D2031272D30220000000000003A0FC000000000000284000
  0
ACAD_PROXY_OBJECT
  5
D9E2
102
{ACAD_REACTORS
330
D9C5
102
}
330
D9C5
100
AcDbZombieObject
 90
      499
 91
      510
 93
      161
310
90A3122203D2031272D30224000000000000284000
  0
ACAD_PROXY_OBJECT
  5
D9E3
102
{ACAD_REACTORS
330
D9C5
102
}
330
D9C5
100
AcDbZombieObject
 90
      499
 91
      510
 93
      257
310
90E312D312F3222203D2031272D30220000000000003E0FC000000000000284000
  0
ACAD_PROXY_OBJECT
  5
D9E4
102
{ACAD_REACTORS
330
D9C5
102
}
330
D9C5
100
AcDbZombieObject
 90
      499
 91
      510
 93
      225
310
90A3322203D2031272D302200000000000002100000000000000284000
  0
ACAD_PROXY_OBJECT
  5
D9E5
102
{ACAD_REACTORS
330
D9C5
102
}
330
D9C5
100
AcDbZombieObject
 90
      499
 91
      510
 93
      225
310
90A3622203D2031272D302200000000000006100000000000000284000
  0
ACAD_PROXY_OBJECT
  5
D9E6
102
{ACAD_REACTORS
330
D9C5
102
}
330
D9C5
100
AcDbZombieObject
 90
      499
 91
      510
 93
      249
310
90D31272D3022203D2031272D30220000000000000A100000000000000284000
  0
ACAD_PROXY_OBJECT
  5
D9BA
102
{ACAD_REACTORS
330
D9B4
102
}
330
D9B4
100
AcDbZombieObject
 90
      499
 91
      509
 93
      436
310
42CC9915DA5C99599C985B595049028333333333333E3BF0000000000000FB0107901411070040501600405405064090741402480A0340
1001
ACAD
1000
AcDbSavedByObjectVersion
1070
     0
  0
ACAD_PROXY_OBJECT
  5
D9BC
102
{ACAD_REACTORS
330
D9B4
102
}
330
D9B4
100
AcDbZombieObject
 90
      499
 91
      509
 93
      500
310
424CD108121A5919195B90640502408333333333333E3BF0000000000000FB01079024090700405020000000000001110200405405064090740C02480A0340
1001
ACAD
1000
AcDbSavedByObjectVersion
1070
     0
  0
ACAD_PROXY_OBJECT
  5
D9BB
102
{ACAD_REACTORS
330
D9B4
102
}
330
D9B4
100
AcDbZombieObject
 90
      499
 91
      509
 93
      436
310
42CCD915DA5C99599C985B595059028333333333333E3BF0000000000000FB0107901411070040501600405405064090741402480A0340
1001
ACAD
1000
AcDbSavedByObjectVersion
1070
     0
  0
ACAD_PROXY_OBJECT
  5
D9B9
102
{ACAD_REACTORS
330
D9B4
102
}
330
D9B4
100
AcDbZombieObject
 90
      499
 91
      509
 93
      388
310
4150985CDA58D07406404333333333333E3BF0000000000000FB0107A41107004050150841D405064090741402480A0350
1001
ACAD
1000
AcDbSavedByObjectVersion
1070
     0
  0
ACAD_PROXY_OBJECT
  5
D9C0
102
{ACAD_REACTORS
330
D9B4
102
}
330
D9B4
100
AcDbZombieObject
 90
      499
 91
      509
 93
      428
310
42109C9A59DA1D195B90C409028333333333333E3BF0000000000000FB010790141107004050150841D405064090741402480A029950
1001
ACAD
1000
AcDbSavedByObjectVersion
1070
     0
  0
ACAD_PROXY_OBJECT
  5
D9C4
102
{ACAD_REACTORS
330
D9B4
102
}
330
D9B4
100
AcDbZombieObject
 90
      499
 91
      509
 93
      452
310
42D0DBDB1BDC90DA185B99D95104090240C333333333333E3BF0000000000000FB0108901411070040501508421405064090741402480A0350
1001
ACAD
1000
AcDbSavedByObjectVersion
1070
     0
  0
ACAD_PROXY_OBJECT
  5
D9BD
102
{ACAD_REACTORS
330
D9B4
102
}
330
D9B4
100
AcDbZombieObject
 90
      499
 91
      509
 93
      500
310
4290DBDB98D95C1D1D585B10940D028333333333333E3BF0000000000000FB0107902409070040501000000000000111010841D405064090740C02480A0340
1001
ACAD
1000
AcDbSavedByObjectVersion
1070
     0
  0
ACAD_PROXY_OBJECT
  5
D9BF
102
{ACAD_REACTORS
330
D9B4
102
}
330
D9B4
100
AcDbZombieObject
 90
      499
 91
      509
 93
      412
310
40D11A5B50B409028333333333333E3BF0000000000000FB010790141107004050150841D405064090741402480A02677FFFFFD0
1001
ACAD
1000
AcDbSavedByObjectVersion
1070
     0
  0
ACAD_PROXY_OBJECT
  5
19C2F
102
{ACAD_REACTORS
330
D9B4
102
}
330
D9B4
100
AcDbZombieObject
 90
      499
 91
      509
 93
      452
310
43115919D950DBDB1BDC93D999916409028333333333333E3BF0000000000000FB010790141107004050150841D405064090741402480A0350
1001
ACAD
1000
AcDbSavedByObjectVersion
1070
     0
  0
ACAD_PROXY_OBJECT
  5
D9C3
102
{ACAD_REACTORS
330
D9B4
102
}
330
D9B4
100
AcDbZombieObject
 90
      499
 91
      509
 93
      444
310
42D19858D95C185D1D195C9B90F409028333333333333E3BF0000000000000FB010790141107004050150841D405064090741402480A0350
1001
ACAD
1000
AcDbSavedByObjectVersion
1070
     0
  0
ACAD_PROXY_OBJECT
  5
D9B5
102
{ACAD_REACTORS
330
D9B4
102
}
330
D9B4
100
AcDbZombieObject
 90
      499
 91
      509
 93
      388
310
41119B185D240901404333333333333E3BF0000000000000F9010740A41107004050150841D405064090741402480A1B50
1001
ACAD
1000
AcDbSavedByObjectVersion
1070
     0
  0
ACAD_PROXY_OBJECT
  5
D9B6
102
{ACAD_REACTORS
330
D9B4
102
}
330
D9B4
100
AcDbZombieObject
 90
      499
 91
      509
 93
      476
310
43519B185D15DA5D1A115919D95CD0140901404333333333333E3BF0000000000000F9010740901411070040501600405405064090741402480A1B50
1001
ACAD
1000
AcDbSavedByObjectVersion
1070
     0
  0
ACAD_PROXY_OBJECT
  5
D9B7
102
{ACAD_REACTORS
330
D9B4
102
}
330
D9B4
100
AcDbZombieObject
 90
      499
 91
      509
 93
      412
310
41D1DBDD5C985D5910240902404333333333333E3BF0000000000000F9010740A411070040501641D405064090741402480A1B50
1001
ACAD
1000
AcDbSavedByObjectVersion
1070
     0
  0
ACAD_PROXY_OBJECT
  5
D9B8
102
{ACAD_REACTORS
330
D9B4
102
}
330
D9B4
100
AcDbZombieObject
 90
      499
 91
      509
 93
      500
310
4411DBDD5C985D5915DA5D1A115919D95CD0340902404333333333333E3BF0000000000000F9010740901411070040501600405405064090741402480A1B50
1001
ACAD
1000
AcDbSavedByObjectVersion
1070
     0
  0
ACAD_PROXY_OBJECT
  5
19C7E
102
{ACAD_REACTORS
330
D9B4
102
}
330
D9B4
100
AcDbZombieObject
 90
      499
 91
      509
 93
      476
310
41921A5919195B90640502408333333333333E33F0000000000000F901079024090700405020000000000001110200405405064090740C02480A0340
1001
ACAD
1000
AcDbSavedByObjectVersion
1070
     0
  0
ACAD_PROXY_OBJECT
  5
19C2D
102
{ACAD_REACTORS
330
D9B4
102
}
330
D9B4
100
AcDbZombieObject
 90
      499
 91
      509
 93
      428
310
42529A5D1D195C93D999914409028333333333333E3BF0000000000000FB010790141107004050150A41D405064090741402480A0350
1001
ACAD
1000
AcDbSavedByObjectVersion
1070
     0
  0
ACAD_PROXY_OBJECT
  5
D9C2
102
{ACAD_REACTORS
330
D9B4
102
}
330
D9B4
100
AcDbZombieObject
 90
      499
 91
      509
 93
      444
310
42D31A5B995C185D1D195C9B90E409028333333333333E3BF0000000000000FB010790141107004050750841D405064090741402483A0350
1001
ACAD
1000
AcDbSavedByObjectVersion
1070
     0
  0
ACAD_PROXY_OBJECT
  5
19C84
102
{ACAD_REACTORS
330
D9B4
102
}
330
D9B4
100
AcDbZombieObject
 90
      499
 91
      509
 93
      484
310
42135BD9195B1A5B99D0A409038333333333333E33F0000000000000F901074090290700405010000000000201990108421405064090741402480A1B40
1001
ACAD
1000
AcDbSavedByObjectVersion
1070
     0
  0
ACAD_PROXY_OBJECT
  5
19C2E
102
{ACAD_REACTORS
330
D9B4
102
}
330
D9B4
100
AcDbZombieObject
 90
      499
 91
      509
 93
      444
310
42D3DD995C9A185B99D3D999915409028333333333333E3BF0000000000000FB010790141107004050150941D405064090741402480A0350
1001
ACAD
1000
AcDbSavedByObjectVersion
1070
     0
  0
ACAD_PROXY_OBJECT
  5
D9BE
102
{ACAD_REACTORS
330
D9B4
102
}
330
D9B4
100
AcDbZombieObject
 90
      499
 91
      509
 93
      420
310
425499585B1A5CDD1A58D08409028333333333333E3BF0000000000000FB01079019070040501508421405064090741402480A1B40
1001
ACAD
1000
AcDbSavedByObjectVersion
1070
     0
  0
ACAD_PROXY_OBJECT
  5
19C83
102
{ACAD_REACTORS
330
D9B4
102
}
330
D9B4
100
AcDbZombieObject
 90
      499
 91
      509
 93
      420
310
4194DA1859195911B40902404333333333333E33F0000000000000F9010740A41107004050150800405405064090840C02480A0B40
1001
ACAD
1000
AcDbSavedByObjectVersion
1070
     0
  0
ACAD_PROXY_OBJECT
  5
19C82
102
{ACAD_REACTORS
330
D9B4
102
}
330
D9B4
100
AcDbZombieObject
 90
      499
 91
      509
 93
      516
310
4454DA18591959081DDA5D1A08195919D95CD1A40902404333333333333E33F0000000000000F901074090142907004050250800405405064090740C02480A0B40
1001
ACAD
1000
AcDbSavedByObjectVersion
1070
     0
  0
ACAD_PROXY_OBJECT
  5
19C7F
102
{ACAD_REACTORS
330
D9B4
102
}
330
D9B4
100
AcDbZombieObject
 90
      499
 91
      509
 93
      532
310
4394DA1859195CC81BD98811DC985E5174090240C333333333333E33F0000000000000F901079024090741D01000000000000111010841D405064090740C02480A0340
1001
ACAD
1000
AcDbSavedByObjectVersion
1070
     0
  0
ACAD_PROXY_OBJECT
  5
19C80
102
{ACAD_REACTORS
330
D9B4
102
}
330
D9B4
100
AcDbZombieObject
 90
      499
 91
      509
 93
      476
310
41D4DAD95D18DA1E51840502408333333333333E33F0000000000000F901079024090741D01000000000000111010B41D405064090741802480A0340
1001
ACAD
1000
AcDbSavedByObjectVersion
1070
     0
  0
ACAD_PROXY_OBJECT
  5
D9C1
102
{ACAD_REACTORS
330
D9B4
102
}
330
D9B4
100
AcDbZombieObject
 90
      499
 91
      509
 93
      412
310
41D51A1A58DAD95B90D409028333333333333E3BF0000000000000FB010790141107004050150C41D405064090741402480A0350
1001
ACAD
1000
AcDbSavedByObjectVersion
1070
     0
  0
ACAD_PROXY_OBJECT
  5
19C7D
102
{ACAD_REACTORS
330
D9B4
102
}
330
D9B4
100
AcDbZombieObject
 90
      499
 91
      509
 93
      420
310
4255DA5C99599C985B595059028333333333333E33F0000000000000F90107901411070040501600405405064090740C02480A0340
1001
ACAD
1000
AcDbSavedByObjectVersion
1070
     0
  0
ACAD_PROXY_OBJECT
  5
19C81
102
{ACAD_REACTORS
330
D9B4
102
}
330
D9B4
100
AcDbZombieObject
 90
      499
 91
      509
 93
      404
310
41560B54985E51940902404000000000000E03F0000000000000F9010740501907004050150841D405064090740C02480A1B40
1001
ACAD
1000
AcDbSavedByObjectVersion
1070
     0
  0
XRECORD
  5
1C69D
102
{ACAD_REACTORS
330
1C69C
102
}
330
1C69C
100
AcDbXrecord
340
18D
  0
XRECORD
  5
1C69E
102
{ACAD_REACTORS
330
1C69C
102
}
330
1C69C
100
AcDbXrecord
340
18C
  0
DICTIONARYVAR
  5
1A4C6
102
{ACAD_REACTORS
330
37
102
}
330
37
100
DictionaryVariables
280
     0
  1
1:1
  0
DICTIONARYVAR
  5
DA6A
102
{ACAD_REACTORS
330
37
102
}
330
37
100
DictionaryVariables
280
     0
  1
Standard
  0
DICTIONARYVAR
  5
29E
102
{ACAD_REACTORS
330
37
102
}
330
37
100
DictionaryVariables
280
     0
  1
Standard
  0
DICTIONARYVAR
  5
38
102
{ACAD_REACTORS
330
37
102
}
330
37
100
DictionaryVariables
280
     0
  1
-1
  0
DICTIONARYVAR
  5
1CE
102
{ACAD_REACTORS
330
37
102
}
330
37
100
DictionaryVariables
280
     0
  1
2
  0
DICTIONARYVAR
  5
704E
102
{ACAD_REACTORS
330
37
102
}
330
37
100
DictionaryVariables
280
     0
  1
1
  0
DICTIONARYVAR
  5
DA6D
102
{ACAD_REACTORS
330
37
102
}
330
37
100
DictionaryVariables
280
     0
  1
0
  0
DICTIONARYVAR
  5
7052
102
{ACAD_REACTORS
330
37
102
}
330
37
100
DictionaryVariables
280
     0
  1
8
  0
DICTIONARYVAR
  5
7051
102
{ACAD_REACTORS
330
37
102
}
330
37
100
DictionaryVariables
280
     0
  1
1
  0
DICTIONARYVAR
  5
1A516
102
{ACAD_REACTORS
330
37
102
}
330
37
100
DictionaryVariables
280
     0
  1
0
  0
DICTIONARYVAR
  5
704F
102
{ACAD_REACTORS
330
37
102
}
330
37
100
DictionaryVariables
280
     0
  1
8
  0
DICTIONARYVAR
  5
7050
102
{ACAD_REACTORS
330
37
102
}
330
37
100
DictionaryVariables
280
     0
  1
2
  0
DICTIONARYVAR
  5
1CF
102
{ACAD_REACTORS
330
37
102
}
330
37
100
DictionaryVariables
280
     0
  1

  0
DICTIONARYVAR
  5
DA6C
102
{ACAD_REACTORS
330
37
102
}
330
37
100
DictionaryVariables
280
     0
  1
127
  0
DICTIONARYVAR
  5
19C7C
102
{ACAD_REACTORS
330
37
102
}
330
37
100
DictionaryVariables
280
     0
  1
2
  0
DICTIONARY
  5
1C83A
330
D9A4
100
AcDbDictionary
  3
ACAD_XREC_ROUNDTRIP
360
1C83B
1001
ACAD
1000
TREAT_AS_HARD
1070
     1
  0
DICTIONARY
  5
1C83C
330
D99C
100
AcDbDictionary
  3
ACAD_XREC_ROUNDTRIP
360
1C83D
1001
ACAD
1000
TREAT_AS_HARD
1070
     1
  0
DICTIONARY
  5
1C83E
330
D9AC
100
AcDbDictionary
  3
ACAD_XREC_ROUNDTRIP
360
1C83F
1001
ACAD
1000
TREAT_AS_HARD
1070
     1
  0
XRECORD
  5
1C83B
102
{ACAD_REACTORS
330
1C83A
102
}
330
1C83A
100
AcDbXrecord
102
MATERIAL
148
0.0
149
0.0
149
0.0
 93
        0
 94
      127
282
     0
 72
     0
 77
     0
171
     0
175
     0
179
     0
273
     0
  0
XRECORD
  5
1C83D
102
{ACAD_REACTORS
330
1C83C
102
}
330
1C83C
100
AcDbXrecord
102
MATERIAL
148
0.0
149
0.0
149
0.0
 93
        0
 94
      127
282
     0
 72
     0
 77
     0
171
     0
175
     0
179
     0
273
     0
  0
XRECORD
  5
1C83F
102
{ACAD_REACTORS
330
1C83E
102
}
330
1C83E
100
AcDbXrecord
102
MATERIAL
148
0.0
149
0.0
149
0.0
 93
        0
 94
      127
282
     0
 72
     0
 77
     0
171
     0
175
     0
179
     0
273
     0
  0
ENDSEC
  0
EOF
