  0
SECTION
  2
HEADER
  9
$ACADVER
  1
AC1009
  9
$INSBASE
 10
0.0
 20
0.0
 30
0.0
  9
$EXTMIN
 10
536.68843036381168
 20
-2286.5728886528409
 30
-0.0000000000001137
  9
$EXTMAX
 10
1157.9870243085811
 20
-1876.276905065617
 30
0.0000000000562575
  9
$LIMMIN
 10
0.0
 20
0.0
  9
$LIMMAX
 10
420.0
 20
297.0
  9
$ORTHOMODE
 70
     0
  9
$REGENMODE
 70
     1
  9
$FILLMODE
 70
     1
  9
$QTEXTMODE
 70
     0
  9
$MIRRTEXT
 70
     0
  9
$DRAGMODE
 70
     2
  9
$LTSCALE
 40
0.5
  9
$OSMODE
 70
  2175
  9
$ATTMODE
 70
     1
  9
$TEXTSIZE
 40
4.0
  9
$TRACEWID
 40
1.0
  9
$TEXTSTYLE
  7
STANDARD
  9
$CLAYER
  8
1TEXT
  9
$CELTYPE
  6
BYLAYER
  9
$CECOLOR
 62
   256
  9
$DIMSCALE
 40
1.0
  9
$DIMASZ
 40
2.0
  9
$DIMEXO
 40
0.0
  9
$DIMDLI
 40
7.0
  9
$DIMRND
 40
0.0
  9
$DIMDLE
 40
0.0
  9
$DIMEXE
 40
1.0
  9
$DIMTP
 40
0.0
  9
$DIMTM
 40
0.0
  9
$DIMTXT
 40
3.5
  9
$DIMCEN
 40
0.0
  9
$DIMTSZ
 40
0.0
  9
$DIMTOL
 70
     0
  9
$DIMLIM
 70
     0
  9
$DIMTIH
 70
     0
  9
$DIMTOH
 70
     0
  9
$DIMSE1
 70
     0
  9
$DIMSE2
 70
     0
  9
$DIMTAD
 70
     1
  9
$DIMZIN
 70
     8
  9
$DIMBLK
  1

  9
$DIMASO
 70
     1
  9
$DIMSHO
 70
     1
  9
$DIMPOST
  1
 
  9
$DIMAPOST
  1

  9
$DIMALT
 70
     0
  9
$DIMALTD
 70
     2
  9
$DIMALTF
 40
25.399999999999999
  9
$DIMLFAC
 40
1.0
  9
$DIMTOFL
 70
     1
  9
$DIMTVP
 40
0.0
  9
$DIMTIX
 70
     0
  9
$DIMSOXD
 70
     0
  9
$DIMSAH
 70
     1
  9
$DIMBLK1
  1
OPEN30
  9
$DIMBLK2
  1
OPEN30
  9
$DIMSTYLE
  2
NEWX10
  9
$DIMCLRD
 70
   256
  9
$DIMCLRE
 70
   256
  9
$DIMCLRT
 70
   201
  9
$DIMTFAC
 40
0.7
  9
$DIMGAP
 40
0.7
  9
$LUNITS
 70
     2
  9
$LUPREC
 70
     4
  9
$SKETCHINC
 40
1.0
  9
$FILLETRAD
 40
0.0
  9
$AUNITS
 70
     0
  9
$AUPREC
 70
     2
  9
$MENU
  1
acad
  9
$ELEVATION
 40
0.0
  9
$PELEVATION
 40
0.0
  9
$THICKNESS
 40
0.0
  9
$LIMCHECK
 70
     0
  9
$BLIPMODE
 70
     0
  9
$CHAMFERA
 40
10.0
  9
$CHAMFERB
 40
10.0
  9
$SKPOLY
 70
     0
  9
$TDCREATE
 40
2451318.621352917
  9
$TDUPDATE
 40
2456016.824630891
  9
$TDINDWG
 40
0.611848669
  9
$TDUSRTIMER
 40
0.611848669
  9
$USRTIMER
 70
     1
  9
$ANGBASE
 50
0.0
  9
$ANGDIR
 70
     0
  9
$PDMODE
 70
     0
  9
$PDSIZE
 40
0.0
  9
$PLINEWID
 40
0.0
  9
$COORDS
 70
     2
  9
$SPLFRAME
 70
     0
  9
$SPLINETYPE
 70
     6
  9
$SPLINESEGS
 70
     8
  9
$ATTDIA
 70
     0
  9
$ATTREQ
 70
     1
  9
$HANDLING
 70
     1
  9
$HANDSEED
  5
FFB0
  9
$SURFTAB1
 70
     6
  9
$SURFTAB2
 70
     6
  9
$SURFTYPE
 70
     6
  9
$SURFU
 70
     6
  9
$SURFV
 70
     6
  9
$UCSNAME
  2

  9
$UCSORG
 10
0.0
 20
0.0
 30
0.0
  9
$UCSXDIR
 10
1.0
 20
0.0
 30
0.0
  9
$UCSYDIR
 10
0.0
 20
1.0
 30
0.0
  9
$PUCSNAME
  2

  9
$PUCSORG
 10
0.0
 20
0.0
 30
0.0
  9
$PUCSXDIR
 10
1.0
 20
0.0
 30
0.0
  9
$PUCSYDIR
 10
0.0
 20
1.0
 30
0.0
  9
$USERI1
 70
     0
  9
$USERI2
 70
     0
  9
$USERI3
 70
     0
  9
$USERI4
 70
     0
  9
$USERI5
 70
     0
  9
$USERR1
 40
0.0
  9
$USERR2
 40
0.0
  9
$USERR3
 40
0.0
  9
$USERR4
 40
0.0
  9
$USERR5
 40
0.0
  9
$WORLDVIEW
 70
     1
  9
$SHADEDGE
 70
     3
  9
$SHADEDIF
 70
    70
  9
$TILEMODE
 70
     1
  9
$MAXACTVP
 70
    48
  9
$PLIMCHECK
 70
     0
  9
$PEXTMIN
 10
1.0000000000000000E+020
 20
1.0000000000000000E+020
 30
1.0000000000000000E+020
  9
$PEXTMAX
 10
-1.0000000000000000E+020
 20
-1.0000000000000000E+020
 30
-1.0000000000000000E+020
  9
$PLIMMIN
 10
0.0
 20
0.0
  9
$PLIMMAX
 10
420.0
 20
297.0
  9
$UNITMODE
 70
     0
  9
$VISRETAIN
 70
     1
  9
$PLINEGEN
 70
     0
  9
$PSLTSCALE
 70
     1
  0
ENDSEC
  0
SECTION
  2
TABLES
  0
TABLE
  2
VPORT
 70
     1
  0
VPORT
  2
*ACTIVE
 70
     0
 10
0.0
 20
0.0
 11
1.0
 21
1.0
 12
847.34873872984065
 22
-2081.4592098964908
 13
0.0
 23
0.0
 14
10.0
 24
10.0
 15
10.0
 25
10.0
 16
0.0
 26
0.0
 36
1.0
 17
0.0
 27
0.0
 37
0.0
 40
435.51064859939891
 41
1.5395095367847409
 42
50.0
 43
0.0
 44
0.0
 50
0.0
 51
0.0
 71
     0
 72
   100
 73
     1
 74
     1
 75
     0
 76
     0
 77
     0
 78
     0
  0
ENDTAB
  0
TABLE
  2
LTYPE
 70
    12
  0
LTYPE
  2
CONTINUOUS
 70
     0
  3
Solid line
 72
    65
 73
     0
 40
0.0
  0
LTYPE
  2
XREF1|CENTER2
 70
    48
  3
Center (.5x) ___ _ ___ _ ___ _ ___ _ ___ _ ___
 72
    65
 73
     4
 40
28.574999999999999
 49
19.050000000000001
 49
-3.1749999999999989
 49
3.1749999999999989
 49
-3.1749999999999989
  0
LTYPE
  2
A3WAKUDAKE|CENTER2
 70
    48
  3
Center (.5x) ___ _ ___ _ ___ _ ___ _ ___ _ ___
 72
    65
 73
     4
 40
28.574999999999999
 49
19.050000000000001
 49
-3.1749999999999989
 49
3.1749999999999989
 49
-3.1749999999999989
  0
ENDTAB
  0
TABLE
  2
LAYER
 70
    36
  0
LAYER
  2
0
 70
     0
 62
     7
  6
CONTINUOUS
  0
LAYER
  2
1TEXT
 70
     0
 62
     7
  6
CONTINUOUS
  0
LAYER
  2
01
 70
     0
 62
     1
  6
CONTINUOUS
  0
LAYER
  2
A3WAKUDAKE|THICK
 70
    48
 62
     7
  6
CONTINUOUS
  0
LAYER
  2
A3WAKUDAKE|POINT
 70
    48
 62
     7
  6
CONTINUOUS
  0
LAYER
  2
A3WAKUDAKE|1CENTER
 70
    48
 62
     7
  6
A3WAKUDAKE|CENTER2
  0
LAYER
  2
A3WAKUDAKE|0-6
 70
    48
 62
     7
  6
CONTINUOUS
  0
LAYER
  2
A3WAKUDAKE|1DIM
 70
    48
 62
     7
  6
CONTINUOUS
  0
LAYER
  2
XREF1|1CENTER
 70
    48
 62
     7
  6
XREF1|CENTER2
  0
ENDTAB
  0
TABLE
  2
STYLE
 70
     4
  0
STYLE
  2
STANDARD
 70
     0
 40
0.0
 41
1.0
 50
0.0
 71
     0
 42
4.0
  3
romans.shx
  4
extfont2.shx
  0
ENDTAB
  0
TABLE
  2
VIEW
 70
     5
  0
ENDTAB
  0
TABLE
  2
UCS
 70
     0
  0
ENDTAB
  0
TABLE
  2
APPID
 70
     9
  0
APPID
  2
ACAD
 70
     0
  0
APPID
  2
DRAWINGVARIABLESXDATA
 70
     0
  0
APPID
  2
CONTENTTABDATA
 70
     0
  0
APPID
  2
CONTENTCURRENTTAB
 70
     0
  0
APPID
  2
CONTENTBLOCKDESCRIPTION
 70
     0
  0
APPID
  2
CONTENTBLOCKICON
 70
     0
  0
APPID
  2
CONTENTLONGBLOCKNAME
 70
     0
  0
APPID
  2
ACAD_PSEXT
 70
     0
  0
APPID
  2
ACAD_MLEADERVER
 70
     0
  0
ENDTAB
  0
TABLE
  2
DIMSTYLE
 70
     5
  0
DIMSTYLE
  2
NEWX10
 70
     0
  3
 
  4

  5

  6
OPEN30
  7
OPEN30
 40
1.0
 41
2.0
 42
0.0
 43
7.0
 44
1.0
 45
0.0
 46
0.0
 47
0.0
 48
0.0
140
3.5
141
0.0
142
0.0
143
25.399999999999999
144
1.0
145
0.0
146
0.7
147
0.7
 71
     0
 72
     0
 73
     0
 74
     0
 75
     0
 76
     0
 77
     1
 78
     8
170
     0
171
     2
172
     1
173
     1
174
     0
175
     0
176
   256
177
   256
178
   201
  0
ENDTAB
  0
ENDSEC
  0
SECTION
  2
BLOCKS
  0
BLOCK
  8
0
  2
$MODEL_SPACE
 70
     0
 10
0.0
 20
0.0
 30
0.0
  3
$MODEL_SPACE
  1

  0
ENDBLK
  5
1A
  8
0
  0
BLOCK
 67
     1
  8
0
  2
$PAPER_SPACE
 70
     0
 10
0.0
 20
0.0
 30
0.0
  3
$PAPER_SPACE
  1

  0
ENDBLK
  5
17
 67
     1
  8
0
  0
BLOCK
  8
0
  2
_OPEN30
 70
     0
 10
0.0
 20
0.0
 30
0.0
  3
_OPEN30
  1

  0
LINE
  5
44
  8
0
  6
BYBLOCK
 62
     0
 10
-1.0
 20
0.26794919
 30
0.0
 11
0.0
 21
0.0
 31
0.0
  0
LINE
  5
45
  8
0
  6
BYBLOCK
 62
     0
 10
0.0
 20
0.0
 30
0.0
 11
-1.0
 21
-0.26794919
 31
0.0
  0
LINE
  5
46
  8
0
  6
BYBLOCK
 62
     0
 10
0.0
 20
0.0
 30
0.0
 11
-1.0
 21
0.0
 31
0.0
  0
ENDBLK
  5
47
  8
0
  0
BLOCK
  8
0
  2
XREF1
 70
    36
 10
0.0
 20
0.0
 30
0.0
  3
XREF1
  1
D:\ACLT\FORMAT\KAWAJUN(9)図面用.dwg
  0
ENDBLK
  5
5D
  8
0
  0
BLOCK
  8
0
  2
A3WAKUDAKE
 70
    36
 10
0.0
 20
0.0
 30
0.0
  3
A3WAKUDAKE
  1
D:\ACLT\FORMAT\A3WAKUdake.dwg
  0
ENDBLK
  5
6A0
  8
0
  0
BLOCK
  8
0
  2
*U27
 70
     1
 10
0.0
 20
0.0
 30
0.0
  3
*U27
  1

  0
TEXT
  5
FE9F
  8
1TEXT
 62
   201
 10
1043.3489401080969
 20
-1964.070281987202
 30
0.0
 40
3.5
  1
20.5
 50
90.0
  0
ENDBLK
  5
FEA1
  8
0
  0
BLOCK
  8
0
  2
*U28
 70
     1
 10
0.0
 20
0.0
 30
0.0
  3
*U28
  1

  0
TEXT
  5
FEA9
  8
1TEXT
 62
   201
 10
1043.138940108098
 20
-397.31741493210598
 30
0.0
 40
4.5499999999999989
  1
20.5
 50
90.0
  0
ENDBLK
  5
FEAB
  8
0
  0
ENDSEC
  0
SECTION
  2
ENTITIES
  0
LINE
  5
2872
  8
01
 10
854.18766916632421
 20
-2139.2395686528398
 30
0.0
 11
854.18766916632421
 21
-2286.5728886528409
 31
0.0
  0
LINE
  5
2873
  8
01
 10
814.18766916632421
 20
-2139.2395686528398
 30
0.0
 11
814.18766916632421
 21
-2286.5728886528409
 31
0.0
  0
LINE
  5
2874
  8
01
 10
712.78767516632468
 20
-2145.736948652841
 30
0.0
 11
712.78767516632468
 21
-2168.8369186528398
 31
0.0
  0
LINE
  5
2875
  8
01
 10
711.1876691663241
 20
-2145.736948652841
 30
0.0
 11
711.1876691663241
 21
-2168.736948652841
 31
0.0
  0
LINE
  5
2876
  8
01
 10
713.58767816632508
 20
-2145.736948652841
 30
0.0
 11
713.58767816632508
 21
-2275.7369486528401
 31
0.0
  0
LINE
  5
2877
  8
01
 10
715.1876691663241
 20
-2145.736948652841
 30
0.0
 11
715.1876691663241
 21
-2275.7369486528401
 31
0.0
  0
LINE
  5
2879
  8
01
 10
712.18766916632421
 20
-2247.736948652841
 30
0.0
 11
683.39704587862275
 21
-2247.736948652841
 31
0.0
  0
LINE
  5
287A
  8
01
 10
646.18768516632406
 20
-2184.9547713167831
 30
0.0
 11
646.18768516632406
 21
-2214.3875846299188
 31
0.0
  0
LINE
  5
287B
  8
01
 10
721.18766916632228
 20
-2199.736948652841
 30
0.0
 11
715.1876691663241
 21
-2199.736948652841
 31
0.0
  0
LINE
  5
287C
  8
01
 10
726.18766916632421
 20
-2204.736948652841
 30
0.0
 11
716.18766916632421
 21
-2204.736948652841
 31
0.0
  0
POLYLINE
  5
287D
  8
01
 10
726.18766916632421
 20
-2203.3053686528401
 30
0.0
 66
     1
 70
     8
  0
VERTEX
  8
01
  5
FEAC
 10
726.188
 20
-2203.31
 30
0.000000
  70
    32
  0
VERTEX
  8
01
  5
FEAD
 10
726.186
 20
-2203.22
 30
0.000000
  70
    32
  0
VERTEX
  8
01
  5
FEAE
 10
726.182
 20
-2203.13
 30
0.000000
  70
    32
  0
VERTEX
  8
01
  5
FEAF
 10
726.174
 20
-2203.04
 30
0.000000
  70
    32
  0
VERTEX
  8
01
  5
FEB0
 10
726.164
 20
-2202.96
 30
0.000000
  70
    32
  0
VERTEX
  8
01
  5
FEB1
 10
726.150
 20
-2202.87
 30
0.000000
  70
    32
  0
VERTEX
  8
01
  5
FEB2
 10
726.134
 20
-2202.78
 30
0.000000
  70
    32
  0
VERTEX
  8
01
  5
FEB3
 10
726.114
 20
-2202.70
 30
0.000000
  70
    32
  0
VERTEX
  8
01
  5
FEB4
 10
726.092
 20
-2202.61
 30
0.000000
  70
    32
  0
VERTEX
  8
01
  5
FEB5
 10
726.066
 20
-2202.52
 30
0.000000
  70
    32
  0
VERTEX
  8
01
  5
FEB6
 10
726.038
 20
-2202.44
 30
0.000000
  70
    32
  0
VERTEX
  8
01
  5
FEB7
 10
726.007
 20
-2202.35
 30
0.000000
  70
    32
  0
VERTEX
  8
01
  5
FEB8
 10
725.972
 20
-2202.27
 30
0.000000
  70
    32
  0
VERTEX
  8
01
  5
FEB9
 10
725.935
 20
-2202.19
 30
0.000000
  70
    32
  0
VERTEX
  8
01
  5
FEBA
 10
725.895
 20
-2202.10
 30
0.000000
  70
    32
  0
VERTEX
  8
01
  5
FEBB
 10
725.853
 20
-2202.02
 30
0.000000
  70
    32
  0
VERTEX
  8
01
  5
FEBC
 10
725.807
 20
-2201.94
 30
0.000000
  70
    32
  0
VERTEX
  8
01
  5
FEBD
 10
725.759
 20
-2201.86
 30
0.000000
  70
    32
  0
VERTEX
  8
01
  5
FEBE
 10
725.708
 20
-2201.78
 30
0.000000
  70
    32
  0
VERTEX
  8
01
  5
FEBF
 10
725.654
 20
-2201.70
 30
0.000000
  70
    32
  0
VERTEX
  8
01
  5
FEC0
 10
725.597
 20
-2201.62
 30
0.000000
  70
    32
  0
VERTEX
  8
01
  5
FEC1
 10
725.538
 20
-2201.55
 30
0.000000
  70
    32
  0
VERTEX
  8
01
  5
FEC2
 10
725.476
 20
-2201.47
 30
0.000000
  70
    32
  0
VERTEX
  8
01
  5
FEC3
 10
725.412
 20
-2201.40
 30
0.000000
  70
    32
  0
VERTEX
  8
01
  5
FEC4
 10
725.345
 20
-2201.32
 30
0.000000
  70
    32
  0
VERTEX
  8
01
  5
FEC5
 10
725.276
 20
-2201.25
 30
0.000000
  70
    32
  0
VERTEX
  8
01
  5
FEC6
 10
725.204
 20
-2201.18
 30
0.000000
  70
    32
  0
VERTEX
  8
01
  5
FEC7
 10
725.129
 20
-2201.11
 30
0.000000
  70
    32
  0
VERTEX
  8
01
  5
FEC8
 10
725.053
 20
-2201.04
 30
0.000000
  70
    32
  0
VERTEX
  8
01
  5
FEC9
 10
724.974
 20
-2200.97
 30
0.000000
  70
    32
  0
VERTEX
  8
01
  5
FECA
 10
724.892
 20
-2200.91
 30
0.000000
  70
    32
  0
VERTEX
  8
01
  5
FECB
 10
724.809
 20
-2200.84
 30
0.000000
  70
    32
  0
VERTEX
  8
01
  5
FECC
 10
724.723
 20
-2200.78
 30
0.000000
  70
    32
  0
VERTEX
  8
01
  5
FECD
 10
724.635
 20
-2200.72
 30
0.000000
  70
    32
  0
VERTEX
  8
01
  5
FECE
 10
724.545
 20
-2200.66
 30
0.000000
  70
    32
  0
VERTEX
  8
01
  5
FECF
 10
724.454
 20
-2200.60
 30
0.000000
  70
    32
  0
VERTEX
  8
01
  5
FED0
 10
724.360
 20
-2200.55
 30
0.000000
  70
    32
  0
VERTEX
  8
01
  5
FED1
 10
724.264
 20
-2200.49
 30
0.000000
  70
    32
  0
VERTEX
  8
01
  5
FED2
 10
724.166
 20
-2200.44
 30
0.000000
  70
    32
  0
VERTEX
  8
01
  5
FED3
 10
724.067
 20
-2200.39
 30
0.000000
  70
    32
  0
VERTEX
  8
01
  5
FED4
 10
723.966
 20
-2200.34
 30
0.000000
  70
    32
  0
VERTEX
  8
01
  5
FED5
 10
723.863
 20
-2200.29
 30
0.000000
  70
    32
  0
VERTEX
  8
01
  5
FED6
 10
723.758
 20
-2200.24
 30
0.000000
  70
    32
  0
VERTEX
  8
01
  5
FED7
 10
723.652
 20
-2200.20
 30
0.000000
  70
    32
  0
VERTEX
  8
01
  5
FED8
 10
723.545
 20
-2200.16
 30
0.000000
  70
    32
  0
VERTEX
  8
01
  5
FED9
 10
723.436
 20
-2200.12
 30
0.000000
  70
    32
  0
VERTEX
  8
01
  5
FEDA
 10
723.325
 20
-2200.08
 30
0.000000
  70
    32
  0
VERTEX
  8
01
  5
FEDB
 10
723.214
 20
-2200.04
 30
0.000000
  70
    32
  0
VERTEX
  8
01
  5
FEDC
 10
723.101
 20
-2200.01
 30
0.000000
  70
    32
  0
VERTEX
  8
01
  5
FEDD
 10
722.987
 20
-2199.98
 30
0.000000
  70
    32
  0
VERTEX
  8
01
  5
FEDE
 10
722.872
 20
-2199.95
 30
0.000000
  70
    32
  0
VERTEX
  8
01
  5
FEDF
 10
722.756
 20
-2199.92
 30
0.000000
  70
    32
  0
VERTEX
  8
01
  5
FEE0
 10
722.639
 20
-2199.89
 30
0.000000
  70
    32
  0
VERTEX
  8
01
  5
FEE1
 10
722.521
 20
-2199.87
 30
0.000000
  70
    32
  0
VERTEX
  8
01
  5
FEE2
 10
722.403
 20
-2199.84
 30
0.000000
  70
    32
  0
VERTEX
  8
01
  5
FEE3
 10
722.283
 20
-2199.82
 30
0.000000
  70
    32
  0
VERTEX
  8
01
  5
FEE4
 10
722.163
 20
-2199.81
 30
0.000000
  70
    32
  0
VERTEX
  8
01
  5
FEE5
 10
722.042
 20
-2199.79
 30
0.000000
  70
    32
  0
VERTEX
  8
01
  5
FEE6
 10
721.921
 20
-2199.78
 30
0.000000
  70
    32
  0
VERTEX
  8
01
  5
FEE7
 10
721.800
 20
-2199.76
 30
0.000000
  70
    32
  0
VERTEX
  8
01
  5
FEE8
 10
721.678
 20
-2199.75
 30
0.000000
  70
    32
  0
VERTEX
  8
01
  5
FEE9
 10
721.555
 20
-2199.75
 30
0.000000
  70
    32
  0
VERTEX
  8
01
  5
FEEA
 10
721.433
 20
-2199.74
 30
0.000000
  70
    32
  0
VERTEX
  8
01
  5
FEEB
 10
721.310
 20
-2199.74
 30
0.000000
  70
    32
  0
VERTEX
  8
01
  5
FEEC
 10
721.188
 20
-2199.74
 30
0.000000
  70
    32
  0
VERTEX
  8
01
  5
FEED
 10
721.065
 20
-2199.74
 30
0.000000
  70
    32
  0
VERTEX
  8
01
  5
FEEE
 10
720.942
 20
-2199.74
 30
0.000000
  70
    32
  0
VERTEX
  8
01
  5
FEEF
 10
720.820
 20
-2199.75
 30
0.000000
  70
    32
  0
VERTEX
  8
01
  5
FEF0
 10
720.698
 20
-2199.75
 30
0.000000
  70
    32
  0
VERTEX
  8
01
  5
FEF1
 10
720.576
 20
-2199.76
 30
0.000000
  70
    32
  0
VERTEX
  8
01
  5
FEF2
 10
720.454
 20
-2199.78
 30
0.000000
  70
    32
  0
VERTEX
  8
01
  5
FEF3
 10
720.333
 20
-2199.79
 30
0.000000
  70
    32
  0
VERTEX
  8
01
  5
FEF4
 10
720.212
 20
-2199.81
 30
0.000000
  70
    32
  0
VERTEX
  8
01
  5
FEF5
 10
720.092
 20
-2199.82
 30
0.000000
  70
    32
  0
VERTEX
  8
01
  5
FEF6
 10
719.973
 20
-2199.84
 30
0.000000
  70
    32
  0
VERTEX
  8
01
  5
FEF7
 10
719.854
 20
-2199.87
 30
0.000000
  70
    32
  0
VERTEX
  8
01
  5
FEF8
 10
719.736
 20
-2199.89
 30
0.000000
  70
    32
  0
VERTEX
  8
01
  5
FEF9
 10
719.619
 20
-2199.92
 30
0.000000
  70
    32
  0
VERTEX
  8
01
  5
FEFA
 10
719.503
 20
-2199.95
 30
0.000000
  70
    32
  0
VERTEX
  8
01
  5
FEFB
 10
719.388
 20
-2199.98
 30
0.000000
  70
    32
  0
VERTEX
  8
01
  5
FEFC
 10
719.274
 20
-2200.01
 30
0.000000
  70
    32
  0
VERTEX
  8
01
  5
FEFD
 10
719.161
 20
-2200.04
 30
0.000000
  70
    32
  0
VERTEX
  8
01
  5
FEFE
 10
719.050
 20
-2200.08
 30
0.000000
  70
    32
  0
VERTEX
  8
01
  5
FEFF
 10
718.940
 20
-2200.12
 30
0.000000
  70
    32
  0
VERTEX
  8
01
  5
FF00
 10
718.831
 20
-2200.16
 30
0.000000
  70
    32
  0
VERTEX
  8
01
  5
FF01
 10
718.723
 20
-2200.20
 30
0.000000
  70
    32
  0
VERTEX
  8
01
  5
FF02
 10
718.617
 20
-2200.24
 30
0.000000
  70
    32
  0
VERTEX
  8
01
  5
FF03
 10
718.513
 20
-2200.29
 30
0.000000
  70
    32
  0
VERTEX
  8
01
  5
FF04
 10
718.410
 20
-2200.34
 30
0.000000
  70
    32
  0
VERTEX
  8
01
  5
FF05
 10
718.309
 20
-2200.39
 30
0.000000
  70
    32
  0
VERTEX
  8
01
  5
FF06
 10
718.209
 20
-2200.44
 30
0.000000
  70
    32
  0
VERTEX
  8
01
  5
FF07
 10
718.112
 20
-2200.49
 30
0.000000
  70
    32
  0
VERTEX
  8
01
  5
FF08
 10
718.016
 20
-2200.55
 30
0.000000
  70
    32
  0
VERTEX
  8
01
  5
FF09
 10
717.922
 20
-2200.60
 30
0.000000
  70
    32
  0
VERTEX
  8
01
  5
FF0A
 10
717.830
 20
-2200.66
 30
0.000000
  70
    32
  0
VERTEX
  8
01
  5
FF0B
 10
717.740
 20
-2200.72
 30
0.000000
  70
    32
  0
VERTEX
  8
01
  5
FF0C
 10
717.652
 20
-2200.78
 30
0.000000
  70
    32
  0
VERTEX
  8
01
  5
FF0D
 10
717.566
 20
-2200.84
 30
0.000000
  70
    32
  0
VERTEX
  8
01
  5
FF0E
 10
717.483
 20
-2200.91
 30
0.000000
  70
    32
  0
VERTEX
  8
01
  5
FF0F
 10
717.402
 20
-2200.97
 30
0.000000
  70
    32
  0
VERTEX
  8
01
  5
FF10
 10
717.323
 20
-2201.04
 30
0.000000
  70
    32
  0
VERTEX
  8
01
  5
FF11
 10
717.246
 20
-2201.11
 30
0.000000
  70
    32
  0
VERTEX
  8
01
  5
FF12
 10
717.172
 20
-2201.18
 30
0.000000
  70
    32
  0
VERTEX
  8
01
  5
FF13
 10
717.100
 20
-2201.25
 30
0.000000
  70
    32
  0
VERTEX
  8
01
  5
FF14
 10
717.030
 20
-2201.32
 30
0.000000
  70
    32
  0
VERTEX
  8
01
  5
FF15
 10
716.963
 20
-2201.40
 30
0.000000
  70
    32
  0
VERTEX
  8
01
  5
FF16
 10
716.899
 20
-2201.47
 30
0.000000
  70
    32
  0
VERTEX
  8
01
  5
FF17
 10
716.837
 20
-2201.55
 30
0.000000
  70
    32
  0
VERTEX
  8
01
  5
FF18
 10
716.778
 20
-2201.62
 30
0.000000
  70
    32
  0
VERTEX
  8
01
  5
FF19
 10
716.722
 20
-2201.70
 30
0.000000
  70
    32
  0
VERTEX
  8
01
  5
FF1A
 10
716.668
 20
-2201.78
 30
0.000000
  70
    32
  0
VERTEX
  8
01
  5
FF1B
 10
716.617
 20
-2201.86
 30
0.000000
  70
    32
  0
VERTEX
  8
01
  5
FF1C
 10
716.568
 20
-2201.94
 30
0.000000
  70
    32
  0
VERTEX
  8
01
  5
FF1D
 10
716.523
 20
-2202.02
 30
0.000000
  70
    32
  0
VERTEX
  8
01
  5
FF1E
 10
716.480
 20
-2202.10
 30
0.000000
  70
    32
  0
VERTEX
  8
01
  5
FF1F
 10
716.440
 20
-2202.19
 30
0.000000
  70
    32
  0
VERTEX
  8
01
  5
FF20
 10
716.403
 20
-2202.27
 30
0.000000
  70
    32
  0
VERTEX
  8
01
  5
FF21
 10
716.369
 20
-2202.35
 30
0.000000
  70
    32
  0
VERTEX
  8
01
  5
FF22
 10
716.338
 20
-2202.44
 30
0.000000
  70
    32
  0
VERTEX
  8
01
  5
FF23
 10
716.309
 20
-2202.52
 30
0.000000
  70
    32
  0
VERTEX
  8
01
  5
FF24
 10
716.284
 20
-2202.61
 30
0.000000
  70
    32
  0
VERTEX
  8
01
  5
FF25
 10
716.261
 20
-2202.70
 30
0.000000
  70
    32
  0
VERTEX
  8
01
  5
FF26
 10
716.242
 20
-2202.78
 30
0.000000
  70
    32
  0
VERTEX
  8
01
  5
FF27
 10
716.225
 20
-2202.87
 30
0.000000
  70
    32
  0
VERTEX
  8
01
  5
FF28
 10
716.212
 20
-2202.96
 30
0.000000
  70
    32
  0
VERTEX
  8
01
  5
FF29
 10
716.201
 20
-2203.04
 30
0.000000
  70
    32
  0
VERTEX
  8
01
  5
FF2A
 10
716.194
 20
-2203.13
 30
0.000000
  70
    32
  0
VERTEX
  8
01
  5
FF2B
 10
716.189
 20
-2203.22
 30
0.000000
  70
    32
  0
VERTEX
  8
01
  5
FF2C
 10
716.188
 20
-2203.31
 30
0.000000
  70
    32
  0
SEQEND
  8
01
  5
FF2D
  0
LINE
  5
287E
  8
01
 10
721.18766916632421
 20
-2219.7369486528401
 30
0.0
 11
715.1876691663241
 21
-2219.7369486528401
 31
0.0
  0
LINE
  5
287F
  8
01
 10
726.18766916632421
 20
-2214.7369486528401
 30
0.0
 11
716.18766916632421
 21
-2214.7369486528401
 31
0.0
  0
POLYLINE
  5
2880
  8
01
 10
726.18766916632421
 20
-2216.16852865284
 30
0.0
 66
     1
 70
     8
  0
VERTEX
  8
01
  5
FF2E
 10
726.188
 20
-2216.17
 30
0.000000
  70
    32
  0
VERTEX
  8
01
  5
FF2F
 10
726.186
 20
-2216.26
 30
0.000000
  70
    32
  0
VERTEX
  8
01
  5
FF30
 10
726.182
 20
-2216.34
 30
0.000000
  70
    32
  0
VERTEX
  8
01
  5
FF31
 10
726.174
 20
-2216.43
 30
0.000000
  70
    32
  0
VERTEX
  8
01
  5
FF32
 10
726.164
 20
-2216.52
 30
0.000000
  70
    32
  0
VERTEX
  8
01
  5
FF33
 10
726.150
 20
-2216.61
 30
0.000000
  70
    32
  0
VERTEX
  8
01
  5
FF34
 10
726.134
 20
-2216.69
 30
0.000000
  70
    32
  0
VERTEX
  8
01
  5
FF35
 10
726.114
 20
-2216.78
 30
0.000000
  70
    32
  0
VERTEX
  8
01
  5
FF36
 10
726.092
 20
-2216.86
 30
0.000000
  70
    32
  0
VERTEX
  8
01
  5
FF37
 10
726.066
 20
-2216.95
 30
0.000000
  70
    32
  0
VERTEX
  8
01
  5
FF38
 10
726.038
 20
-2217.04
 30
0.000000
  70
    32
  0
VERTEX
  8
01
  5
FF39
 10
726.007
 20
-2217.12
 30
0.000000
  70
    32
  0
VERTEX
  8
01
  5
FF3A
 10
725.972
 20
-2217.20
 30
0.000000
  70
    32
  0
VERTEX
  8
01
  5
FF3B
 10
725.935
 20
-2217.29
 30
0.000000
  70
    32
  0
VERTEX
  8
01
  5
FF3C
 10
725.895
 20
-2217.37
 30
0.000000
  70
    32
  0
VERTEX
  8
01
  5
FF3D
 10
725.853
 20
-2217.45
 30
0.000000
  70
    32
  0
VERTEX
  8
01
  5
FF3E
 10
725.807
 20
-2217.53
 30
0.000000
  70
    32
  0
VERTEX
  8
01
  5
FF3F
 10
725.759
 20
-2217.61
 30
0.000000
  70
    32
  0
VERTEX
  8
01
  5
FF40
 10
725.708
 20
-2217.69
 30
0.000000
  70
    32
  0
VERTEX
  8
01
  5
FF41
 10
725.654
 20
-2217.77
 30
0.000000
  70
    32
  0
VERTEX
  8
01
  5
FF42
 10
725.597
 20
-2217.85
 30
0.000000
  70
    32
  0
VERTEX
  8
01
  5
FF43
 10
725.538
 20
-2217.93
 30
0.000000
  70
    32
  0
VERTEX
  8
01
  5
FF44
 10
725.476
 20
-2218.00
 30
0.000000
  70
    32
  0
VERTEX
  8
01
  5
FF45
 10
725.412
 20
-2218.08
 30
0.000000
  70
    32
  0
VERTEX
  8
01
  5
FF46
 10
725.345
 20
-2218.15
 30
0.000000
  70
    32
  0
VERTEX
  8
01
  5
FF47
 10
725.276
 20
-2218.22
 30
0.000000
  70
    32
  0
VERTEX
  8
01
  5
FF48
 10
725.204
 20
-2218.29
 30
0.000000
  70
    32
  0
VERTEX
  8
01
  5
FF49
 10
725.129
 20
-2218.36
 30
0.000000
  70
    32
  0
VERTEX
  8
01
  5
FF4A
 10
725.053
 20
-2218.43
 30
0.000000
  70
    32
  0
VERTEX
  8
01
  5
FF4B
 10
724.974
 20
-2218.50
 30
0.000000
  70
    32
  0
VERTEX
  8
01
  5
FF4C
 10
724.892
 20
-2218.56
 30
0.000000
  70
    32
  0
VERTEX
  8
01
  5
FF4D
 10
724.809
 20
-2218.63
 30
0.000000
  70
    32
  0
VERTEX
  8
01
  5
FF4E
 10
724.723
 20
-2218.69
 30
0.000000
  70
    32
  0
VERTEX
  8
01
  5
FF4F
 10
724.635
 20
-2218.75
 30
0.000000
  70
    32
  0
VERTEX
  8
01
  5
FF50
 10
724.545
 20
-2218.81
 30
0.000000
  70
    32
  0
VERTEX
  8
01
  5
FF51
 10
724.454
 20
-2218.87
 30
0.000000
  70
    32
  0
VERTEX
  8
01
  5
FF52
 10
724.360
 20
-2218.93
 30
0.000000
  70
    32
  0
VERTEX
  8
01
  5
FF53
 10
724.264
 20
-2218.98
 30
0.000000
  70
    32
  0
VERTEX
  8
01
  5
FF54
 10
724.166
 20
-2219.03
 30
0.000000
  70
    32
  0
VERTEX
  8
01
  5
FF55
 10
724.067
 20
-2219.09
 30
0.000000
  70
    32
  0
VERTEX
  8
01
  5
FF56
 10
723.966
 20
-2219.14
 30
0.000000
  70
    32
  0
VERTEX
  8
01
  5
FF57
 10
723.863
 20
-2219.18
 30
0.000000
  70
    32
  0
VERTEX
  8
01
  5
FF58
 10
723.758
 20
-2219.23
 30
0.000000
  70
    32
  0
VERTEX
  8
01
  5
FF59
 10
723.652
 20
-2219.27
 30
0.000000
  70
    32
  0
VERTEX
  8
01
  5
FF5A
 10
723.545
 20
-2219.32
 30
0.000000
  70
    32
  0
VERTEX
  8
01
  5
FF5B
 10
723.436
 20
-2219.36
 30
0.000000
  70
    32
  0
VERTEX
  8
01
  5
FF5C
 10
723.325
 20
-2219.39
 30
0.000000
  70
    32
  0
VERTEX
  8
01
  5
FF5D
 10
723.214
 20
-2219.43
 30
0.000000
  70
    32
  0
VERTEX
  8
01
  5
FF5E
 10
723.101
 20
-2219.47
 30
0.000000
  70
    32
  0
VERTEX
  8
01
  5
FF5F
 10
722.987
 20
-2219.50
 30
0.000000
  70
    32
  0
VERTEX
  8
01
  5
FF60
 10
722.872
 20
-2219.53
 30
0.000000
  70
    32
  0
VERTEX
  8
01
  5
FF61
 10
722.756
 20
-2219.56
 30
0.000000
  70
    32
  0
VERTEX
  8
01
  5
FF62
 10
722.639
 20
-2219.58
 30
0.000000
  70
    32
  0
VERTEX
  8
01
  5
FF63
 10
722.521
 20
-2219.61
 30
0.000000
  70
    32
  0
VERTEX
  8
01
  5
FF64
 10
722.403
 20
-2219.63
 30
0.000000
  70
    32
  0
VERTEX
  8
01
  5
FF65
 10
722.283
 20
-2219.65
 30
0.000000
  70
    32
  0
VERTEX
  8
01
  5
FF66
 10
722.163
 20
-2219.67
 30
0.000000
  70
    32
  0
VERTEX
  8
01
  5
FF67
 10
722.042
 20
-2219.68
 30
0.000000
  70
    32
  0
VERTEX
  8
01
  5
FF68
 10
721.921
 20
-2219.70
 30
0.000000
  70
    32
  0
VERTEX
  8
01
  5
FF69
 10
721.800
 20
-2219.71
 30
0.000000
  70
    32
  0
VERTEX
  8
01
  5
FF6A
 10
721.678
 20
-2219.72
 30
0.000000
  70
    32
  0
VERTEX
  8
01
  5
FF6B
 10
721.555
 20
-2219.73
 30
0.000000
  70
    32
  0
VERTEX
  8
01
  5
FF6C
 10
721.433
 20
-2219.73
 30
0.000000
  70
    32
  0
VERTEX
  8
01
  5
FF6D
 10
721.310
 20
-2219.74
 30
0.000000
  70
    32
  0
VERTEX
  8
01
  5
FF6E
 10
721.188
 20
-2219.74
 30
0.000000
  70
    32
  0
VERTEX
  8
01
  5
FF6F
 10
721.065
 20
-2219.74
 30
0.000000
  70
    32
  0
VERTEX
  8
01
  5
FF70
 10
720.942
 20
-2219.73
 30
0.000000
  70
    32
  0
VERTEX
  8
01
  5
FF71
 10
720.820
 20
-2219.73
 30
0.000000
  70
    32
  0
VERTEX
  8
01
  5
FF72
 10
720.698
 20
-2219.72
 30
0.000000
  70
    32
  0
VERTEX
  8
01
  5
FF73
 10
720.576
 20
-2219.71
 30
0.000000
  70
    32
  0
VERTEX
  8
01
  5
FF74
 10
720.454
 20
-2219.70
 30
0.000000
  70
    32
  0
VERTEX
  8
01
  5
FF75
 10
720.333
 20
-2219.68
 30
0.000000
  70
    32
  0
VERTEX
  8
01
  5
FF76
 10
720.212
 20
-2219.67
 30
0.000000
  70
    32
  0
VERTEX
  8
01
  5
FF77
 10
720.092
 20
-2219.65
 30
0.000000
  70
    32
  0
VERTEX
  8
01
  5
FF78
 10
719.973
 20
-2219.63
 30
0.000000
  70
    32
  0
VERTEX
  8
01
  5
FF79
 10
719.854
 20
-2219.61
 30
0.000000
  70
    32
  0
VERTEX
  8
01
  5
FF7A
 10
719.736
 20
-2219.58
 30
0.000000
  70
    32
  0
VERTEX
  8
01
  5
FF7B
 10
719.619
 20
-2219.56
 30
0.000000
  70
    32
  0
VERTEX
  8
01
  5
FF7C
 10
719.503
 20
-2219.53
 30
0.000000
  70
    32
  0
VERTEX
  8
01
  5
FF7D
 10
719.388
 20
-2219.50
 30
0.000000
  70
    32
  0
VERTEX
  8
01
  5
FF7E
 10
719.274
 20
-2219.47
 30
0.000000
  70
    32
  0
VERTEX
  8
01
  5
FF7F
 10
719.161
 20
-2219.43
 30
0.000000
  70
    32
  0
VERTEX
  8
01
  5
FF80
 10
719.050
 20
-2219.39
 30
0.000000
  70
    32
  0
VERTEX
  8
01
  5
FF81
 10
718.940
 20
-2219.36
 30
0.000000
  70
    32
  0
VERTEX
  8
01
  5
FF82
 10
718.831
 20
-2219.32
 30
0.000000
  70
    32
  0
VERTEX
  8
01
  5
FF83
 10
718.723
 20
-2219.27
 30
0.000000
  70
    32
  0
VERTEX
  8
01
  5
FF84
 10
718.617
 20
-2219.23
 30
0.000000
  70
    32
  0
VERTEX
  8
01
  5
FF85
 10
718.513
 20
-2219.18
 30
0.000000
  70
    32
  0
VERTEX
  8
01
  5
FF86
 10
718.410
 20
-2219.14
 30
0.000000
  70
    32
  0
VERTEX
  8
01
  5
FF87
 10
718.309
 20
-2219.09
 30
0.000000
  70
    32
  0
VERTEX
  8
01
  5
FF88
 10
718.209
 20
-2219.03
 30
0.000000
  70
    32
  0
VERTEX
  8
01
  5
FF89
 10
718.112
 20
-2218.98
 30
0.000000
  70
    32
  0
VERTEX
  8
01
  5
FF8A
 10
718.016
 20
-2218.93
 30
0.000000
  70
    32
  0
VERTEX
  8
01
  5
FF8B
 10
717.922
 20
-2218.87
 30
0.000000
  70
    32
  0
VERTEX
  8
01
  5
FF8C
 10
717.830
 20
-2218.81
 30
0.000000
  70
    32
  0
VERTEX
  8
01
  5
FF8D
 10
717.740
 20
-2218.75
 30
0.000000
  70
    32
  0
VERTEX
  8
01
  5
FF8E
 10
717.652
 20
-2218.69
 30
0.000000
  70
    32
  0
VERTEX
  8
01
  5
FF8F
 10
717.566
 20
-2218.63
 30
0.000000
  70
    32
  0
VERTEX
  8
01
  5
FF90
 10
717.483
 20
-2218.56
 30
0.000000
  70
    32
  0
VERTEX
  8
01
  5
FF91
 10
717.402
 20
-2218.50
 30
0.000000
  70
    32
  0
VERTEX
  8
01
  5
FF92
 10
717.323
 20
-2218.43
 30
0.000000
  70
    32
  0
VERTEX
  8
01
  5
FF93
 10
717.246
 20
-2218.36
 30
0.000000
  70
    32
  0
VERTEX
  8
01
  5
FF94
 10
717.172
 20
-2218.29
 30
0.000000
  70
    32
  0
VERTEX
  8
01
  5
FF95
 10
717.100
 20
-2218.22
 30
0.000000
  70
    32
  0
VERTEX
  8
01
  5
FF96
 10
717.030
 20
-2218.15
 30
0.000000
  70
    32
  0
VERTEX
  8
01
  5
FF97
 10
716.963
 20
-2218.08
 30
0.000000
  70
    32
  0
VERTEX
  8
01
  5
FF98
 10
716.899
 20
-2218.00
 30
0.000000
  70
    32
  0
VERTEX
  8
01
  5
FF99
 10
716.837
 20
-2217.93
 30
0.000000
  70
    32
  0
VERTEX
  8
01
  5
FF9A
 10
716.778
 20
-2217.85
 30
0.000000
  70
    32
  0
VERTEX
  8
01
  5
FF9B
 10
716.722
 20
-2217.77
 30
0.000000
  70
    32
  0
VERTEX
  8
01
  5
FF9C
 10
716.668
 20
-2217.69
 30
0.000000
  70
    32
  0
VERTEX
  8
01
  5
FF9D
 10
716.617
 20
-2217.61
 30
0.000000
  70
    32
  0
VERTEX
  8
01
  5
FF9E
 10
716.568
 20
-2217.53
 30
0.000000
  70
    32
  0
VERTEX
  8
01
  5
FF9F
 10
716.523
 20
-2217.45
 30
0.000000
  70
    32
  0
VERTEX
  8
01
  5
FFA0
 10
716.480
 20
-2217.37
 30
0.000000
  70
    32
  0
VERTEX
  8
01
  5
FFA1
 10
716.440
 20
-2217.29
 30
0.000000
  70
    32
  0
VERTEX
  8
01
  5
FFA2
 10
716.403
 20
-2217.20
 30
0.000000
  70
    32
  0
VERTEX
  8
01
  5
FFA3
 10
716.369
 20
-2217.12
 30
0.000000
  70
    32
  0
VERTEX
  8
01
  5
FFA4
 10
716.338
 20
-2217.04
 30
0.000000
  70
    32
  0
VERTEX
  8
01
  5
FFA5
 10
716.309
 20
-2216.95
 30
0.000000
  70
    32
  0
VERTEX
  8
01
  5
FFA6
 10
716.284
 20
-2216.86
 30
0.000000
  70
    32
  0
VERTEX
  8
01
  5
FFA7
 10
716.261
 20
-2216.78
 30
0.000000
  70
    32
  0
VERTEX
  8
01
  5
FFA8
 10
716.242
 20
-2216.69
 30
0.000000
  70
    32
  0
VERTEX
  8
01
  5
FFA9
 10
716.225
 20
-2216.61
 30
0.000000
  70
    32
  0
VERTEX
  8
01
  5
FFAA
 10
716.212
 20
-2216.52
 30
0.000000
  70
    32
  0
VERTEX
  8
01
  5
FFAB
 10
716.201
 20
-2216.43
 30
0.000000
  70
    32
  0
VERTEX
  8
01
  5
FFAC
 10
716.194
 20
-2216.34
 30
0.000000
  70
    32
  0
VERTEX
  8
01
  5
FFAD
 10
716.189
 20
-2216.26
 30
0.000000
  70
    32
  0
VERTEX
  8
01
  5
FFAE
 10
716.188
 20
-2216.17
 30
0.000000
  70
    32
  0
SEQEND
  8
01
  5
FFAF
  0
LINE
  5
2881
  8
01
 10
726.18766916632421
 20
-2203.3053686528401
 30
0.0
 11
726.18766916632421
 21
-2216.1685286528409
 31
0.0
  0
LINE
  5
2882
  8
01
 10
716.18766916632421
 20
-2203.3053686528401
 30
0.0
 11
716.18766916632421
 21
-2216.1685286528382
 31
0.0
  0
LINE
  5
2883
  8
01
 10
712.18765416632459
 20
-2169.736948652841
 30
0.0
 11
711.18765416632459
 21
-2168.736948652841
 31
0.0
  0
LINE
  5
2884
  8
01
 10
713.58767116632453
 20
-2169.636968652841
 30
0.0
 11
712.78769016632441
 21
-2168.8369886528399
 31
0.0
  0
LINE
  5
2885
  8
01
 10
713.58767116632453
 20
-2251.8369586528402
 30
0.0
 11
712.78766816632424
 21
-2252.6369386528409
 31
0.0
  0
LINE
  5
2886
  8
01
 10
712.18761616632435
 20
-2251.7369786528402
 30
0.0
 11
711.18763116632397
 21
-2252.7369786528402
 31
0.0
  0
LINE
  5
2887
  8
01
 10
715.1876691663241
 20
-2275.7369486528401
 30
0.0
 11
711.1876691663241
 21
-2275.7369486528401
 31
0.0
  0
LINE
  5
2888
  8
01
 10
712.78767516632468
 20
-2275.7369486528401
 30
0.0
 11
712.78767516632468
 21
-2252.6369386528409
 31
0.0
  0
LINE
  5
2889
  8
01
 10
711.1876691663241
 20
-2275.7369486528401
 30
0.0
 11
711.1876691663241
 21
-2252.736948652841
 31
0.0
  0
LINE
  5
288A
  8
01
 10
712.18766916632421
 20
-2169.736948652841
 30
0.0
 11
712.18766916632421
 21
-2251.7369486528401
 31
0.0
  0
LINE
  5
288B
  8
01
 10
715.1876691663241
 20
-2145.736948652841
 30
0.0
 11
711.1876691663241
 21
-2145.736948652841
 31
0.0
  0
LINE
  5
288E
  8
01
 10
821.6876691663241
 20
-2151.736948652841
 30
0.0
 11
821.6876691663241
 21
-2269.736948652841
 31
0.0
  0
LINE
  5
288F
  8
01
 10
846.6876691663241
 20
-2151.736948652841
 30
0.0
 11
846.6876691663241
 21
-2269.736948652841
 31
0.0
  0
ARC
  5
2890
  8
01
 10
840.68766916632421
 20
-2269.736948652841
 30
0.0
 40
6.0
 50
270.0
 51
0.0
  0
ARC
  5
2891
  8
01
 10
827.6876691663241
 20
-2269.736948652841
 30
0.0
 40
6.0
 50
180.0
 51
270.0
  0
LINE
  5
2892
  8
01
 10
841.9376691663241
 20
-2203.3053686528401
 30
0.0
 11
841.9376691663241
 21
-2216.16852865284
 31
0.0
  0
LINE
  5
2893
  8
01
 10
840.93766916632421
 20
-2204.736948652841
 30
0.0
 11
840.93766916632421
 21
-2214.7369486528401
 31
0.0
  0
LINE
  5
2894
  8
01
 10
827.43766916632421
 20
-2204.736948652841
 30
0.0
 11
827.43766916632421
 21
-2214.7369486528401
 31
0.0
  0
LINE
  5
2895
  8
01
 10
826.43766916632421
 20
-2203.3053686528401
 30
0.0
 11
826.43766916632421
 21
-2216.16852865284
 31
0.0
  0
ARC
  5
2896
  8
01
 10
834.1876691663241
 20
-2209.53693865284
 30
0.0
 40
10.199999999999999
 50
220.5530799999753
 51
319.44692000002459
  0
LINE
  5
2897
  8
01
 10
827.43766916632421
 20
-2214.7369486528401
 30
0.0
 11
840.93766916632421
 21
-2214.7369486528401
 31
0.0
  0
LINE
  5
2898
  8
01
 10
827.43766916632421
 20
-2204.736948652841
 30
0.0
 11
840.93766916632421
 21
-2204.736948652841
 31
0.0
  0
ARC
  5
2899
  8
01
 10
834.1876691663241
 20
-2209.9369586528401
 30
0.0
 40
10.199999999999999
 50
40.553083999977588
 51
139.44692000002459
  0
CIRCLE
  5
289A
  8
01
 10
834.1876691663241
 20
-2267.7369486528401
 30
0.0
 40
4.5
  0
CIRCLE
  5
289B
  8
01
 10
834.1876691663241
 20
-2267.7369486528401
 30
0.0
 40
2.75
  0
LINE
  5
289C
  8
01
 10
827.6876691663241
 20
-2275.7369486528401
 30
0.0
 11
840.68766916632421
 21
-2275.7369486528401
 31
0.0
  0
ARC
  5
289D
  8
01
 10
840.68766916632421
 20
-2151.736948652841
 30
0.0
 40
6.0
 50
0.0
 51
90.0
  0
ARC
  5
289F
  8
01
 10
827.6876691663241
 20
-2151.736948652841
 30
0.0
 40
6.0
 50
90.0
 51
180.0
  0
LINE
  5
28A0
  8
01
 10
827.6876691663241
 20
-2145.736948652841
 30
0.0
 11
840.68766916632421
 21
-2145.736948652841
 31
0.0
  0
CIRCLE
  5
28A1
  8
01
 10
834.1876691663241
 20
-2153.736948652841
 30
0.0
 40
4.5
  0
CIRCLE
  5
28A2
  8
01
 10
834.1876691663241
 20
-2153.736948652841
 30
0.0
 40
2.75
  0
TEXT
  5
28A3
  8
01
 10
649.18768516632406
 20
-1946.7369486528401
 30
0.0
 40
20.0
  1
3-ZJC-X-LW
  0
LINE
  5
28A8
  8
01
 10
955.58767516632406
 20
-2145.736948652841
 30
0.0
 11
955.58767516632406
 21
-2168.8369186528398
 31
0.0
  0
LINE
  5
28A9
  8
01
 10
957.18766516632468
 20
-2145.736948652841
 30
0.0
 11
957.18766516632468
 21
-2168.736948652841
 31
0.0
  0
LINE
  5
28AA
  8
01
 10
954.78767516632468
 20
-2145.736948652841
 30
0.0
 11
954.78767516632468
 21
-2275.7369486528401
 31
0.0
  0
LINE
  5
28AB
  8
01
 10
953.18766516632456
 20
-2145.736948652841
 30
0.0
 11
953.18766516632456
 21
-2275.7369486528401
 31
0.0
  0
LINE
  5
28AD
  8
01
 10
956.18766516632468
 20
-2247.736948652841
 30
0.0
 11
984.97829245402625
 21
-2247.736948652841
 31
0.0
  0
LINE
  5
28AE
  8
01
 10
956.18767516632454
 20
-2169.736948652841
 30
0.0
 11
957.18767516632454
 21
-2168.736948652841
 31
0.0
  0
LINE
  5
28AF
  8
01
 10
954.78766516632504
 20
-2169.636968652841
 30
0.0
 11
955.58767516632406
 21
-2168.8369186528398
 31
0.0
  0
LINE
  5
28B0
  8
01
 10
946.18766516632456
 20
-2199.736948652841
 30
0.0
 11
953.18766516632456
 21
-2199.736948652841
 31
0.0
  0
LINE
  5
28B1
  8
01
 10
946.18766516632456
 20
-2219.7369486528401
 30
0.0
 11
953.18766516632456
 21
-2219.7369486528401
 31
0.0
  0
LINE
  5
28B2
  8
01
 10
942.26976516632431
 20
-2216.543218652841
 30
0.0
 11
953.18766516632456
 21
-2216.543218652841
 31
0.0
  0
LINE
  5
28B3
  8
01
 10
942.26976516632431
 20
-2202.9306686528398
 30
0.0
 11
953.18766516632456
 21
-2202.9306686528398
 31
0.0
  0
LINE
  5
28B4
  8
01
 10
942.18766516632468
 20
-2203.7369486528401
 30
0.0
 11
942.18766516632468
 21
-2215.736948652841
 31
0.0
  0
ARC
  5
28B5
  8
01
 10
946.18766516632456
 20
-2215.736948652841
 30
0.0
 40
4.0
 50
179.999989999999
 51
270.0
  0
ARC
  5
28B6
  8
01
 10
946.18766516632456
 20
-2203.7369486528401
 30
0.0
 40
4.0
 50
90.000002999984659
 51
180.00001000000091
  0
LINE
  5
28B7
  8
01
 10
954.78766516632504
 20
-2251.8369586528402
 30
0.0
 11
955.58767516632406
 21
-2252.6369386528409
 31
0.0
  0
LINE
  5
28B8
  8
01
 10
956.18771516632512
 20
-2251.7369786528402
 30
0.0
 11
957.18769516632403
 21
-2252.736948652841
 31
0.0
  0
LINE
  5
28B9
  8
01
 10
948.18766516632468
 20
-2267.7369486528401
 30
0.0
 11
962.18766516632456
 21
-2267.7369486528401
 31
0.0
  0
LINE
  5
28BA
  8
01
 10
953.18766516632456
 20
-2275.7369486528401
 30
0.0
 11
957.18766516632468
 21
-2275.7369486528401
 31
0.0
  0
LINE
  5
28BB
  8
01
 10
955.58767516632406
 20
-2275.7369486528401
 30
0.0
 11
955.58767516632406
 21
-2252.6369386528409
 31
0.0
  0
LINE
  5
28BC
  8
01
 10
957.18766516632468
 20
-2275.7369486528401
 30
0.0
 11
957.18766516632468
 21
-2252.736948652841
 31
0.0
  0
LINE
  5
28BD
  8
01
 10
956.18766516632468
 20
-2169.736948652841
 30
0.0
 11
956.18766516632468
 21
-2251.7369486528401
 31
0.0
  0
LINE
  5
28BE
  8
01
 10
1022.187665166324
 20
-2184.9547458741108
 30
0.0
 11
1022.187665166325
 21
-2214.3875970799431
 31
0.0
  0
LINE
  5
28C0
  8
01
 10
953.18766516632456
 20
-2145.736948652841
 30
0.0
 11
957.18766516632468
 21
-2145.736948652841
 31
0.0
  0
LINE
  5
28C1
  8
01
 10
948.18766516632468
 20
-2153.736948652841
 30
0.0
 11
962.18766516632456
 21
-2153.736948652841
 31
0.0
  0
LINE
  5
28CB
  8
01
 10
957.18854934838453
 20
-1952.2369486538689
 30
0.0
 11
1023.188549348384
 21
-1952.2369486538689
 31
0.0
  0
LINE
  5
28CC
  8
01
 10
957.18854934838453
 20
-1953.836918653868
 30
0.0
 11
1023.188549348384
 21
-1953.836918653868
 31
0.0
  0
LINE
  5
28CD
  8
01
 10
954.78855934838475
 20
-1971.2369486538689
 30
0.0
 11
1023.188549348384
 21
-1971.2369486538689
 31
0.0
  0
LINE
  5
28CE
  8
01
 10
956.38853934838562
 20
-1956.7369486538689
 30
0.0
 11
957.18854934838453
 21
-1955.9369286538681
 31
0.0
  0
LINE
  5
28CF
  8
01
 10
957.18854934838453
 20
-1951.2369486538689
 30
0.0
 11
957.18854934838453
 21
-1955.9369286538681
 31
0.0
  0
LINE
  5
28D0
  8
01
 10
954.78855934838475
 20
-1956.736918653869
 30
0.0
 11
955.5885493483861
 21
-1955.936958653868
 31
0.0
  0
LINE
  5
28D1
  8
01
 10
942.18854934838475
 20
-1969.4869486538689
 30
0.0
 11
953.18854934838464
 21
-1969.4869486538689
 31
0.0
  0
LINE
  5
28D2
  8
01
 10
942.18854934838475
 20
-1969.4869486538689
 30
0.0
 11
942.18854934838475
 21
-1967.4869486538689
 31
0.0
  0
LINE
  5
28D3
  8
01
 10
953.18854934838464
 20
-1949.2369486538689
 30
0.0
 11
954.78855934838475
 21
-1949.2369486538689
 31
0.0
  0
LINE
  5
28D4
  8
01
 10
954.78855934838475
 20
-1949.2369486538689
 30
0.0
 11
954.78855934838475
 21
-1956.7369486538689
 31
0.0
  0
LINE
  5
28D5
  8
01
 10
955.58855934838596
 20
-1951.2369486538689
 30
0.0
 11
955.58855934838596
 21
-1955.9369286538681
 31
0.0
  0
LINE
  5
28D6
  8
01
 10
954.78855934838475
 20
-1951.2369486538689
 30
0.0
 11
957.18854934838453
 21
-1951.2369486538689
 31
0.0
  0
LINE
  5
28D7
  8
01
 10
957.18854934838453
 20
-1967.5369386538689
 30
0.0
 11
957.18854934838453
 21
-1971.2369486538689
 31
0.0
  0
LINE
  5
28D8
  8
01
 10
956.38855934838512
 20
-1966.736918653869
 30
0.0
 11
957.18854934838453
 21
-1967.5369386538689
 31
0.0
  0
LINE
  5
28D9
  8
01
 10
957.18854934838453
 20
-1969.636938653869
 30
0.0
 11
961.78855934838475
 21
-1969.636938653869
 31
0.0
  0
LINE
  5
28DA
  8
01
 10
954.788549348385
 20
-1966.736918653869
 30
0.0
 11
955.58855934838596
 21
-1967.5369386538689
 31
0.0
  0
LINE
  5
28DB
  8
01
 10
954.78855934838475
 20
-1966.7369486538689
 30
0.0
 11
954.78855934838475
 21
-1974.2369486538689
 31
0.0
  0
LINE
  5
28DC
  8
01
 10
953.18854934838464
 20
-1974.2369486538689
 30
0.0
 11
954.78855934838475
 21
-1974.2369486538689
 31
0.0
  0
LINE
  5
28DD
  8
01
 10
955.58855934838596
 20
-1967.5369386538689
 30
0.0
 11
955.58855934838596
 21
-1971.2369486538689
 31
0.0
  0
LINE
  5
28DE
  8
01
 10
953.18854934838464
 20
-1941.7369486538689
 30
0.0
 11
953.18854934838464
 21
-1981.7369486538689
 31
0.0
  0
LINE
  5
28DF
  8
01
 10
961.78855934838475
 20
-1953.836918653868
 30
0.0
 11
961.78855934838475
 21
-1971.2369486538689
 31
0.0
  0
LINE
  5
28E0
  8
01
 10
956.38854934838525
 20
-1956.7369486538689
 30
0.0
 11
956.38854934838525
 21
-1966.7369486538689
 31
0.0
  0
LINE
  5
28E1
  8
01
 10
954.78855934838475
 20
-1956.7369486538689
 30
0.0
 11
954.78855934838475
 21
-1966.7369486538689
 31
0.0
  0
ARC
  5
28E2
  8
01
 10
985.8580493483845
 20
-1991.8380286538679
 30
0.0
 40
50.0
 50
130.7976899999974
 51
150.85500000002
  0
LINE
  5
28E3
  8
01
 10
985.54989789461649
 20
-1996.236979653868
 30
0.0
 11
1001.172534506068
 21
-1996.236979653868
 31
0.0
  0
LINE
  5
28E4
  8
01
 10
1021.588549348386
 20
-1953.836918653868
 30
0.0
 11
1021.588549348386
 21
-1971.2369486538689
 31
0.0
  0
LINE
  5
28E5
  8
01
 10
1023.188549348384
 20
-1952.2369486538689
 30
0.0
 11
1023.188549348384
 21
-1971.2369486538689
 31
0.0
  0
LINE
  5
28E6
  8
01
 10
985.54989789461649
 20
-1927.2369176538709
 30
0.0
 11
1001.172534506068
 21
-1927.2369176538709
 31
0.0
  0
LINE
  5
28E9
  8
01
 10
720.18767316632375
 20
-2267.7369486528401
 30
0.0
 11
706.18767316632375
 21
-2267.7369486528401
 31
0.0
  0
LINE
  5
28EA
  8
01
 10
720.18767316632375
 20
-2153.736948652841
 30
0.0
 11
706.18767316632375
 21
-2153.736948652841
 31
0.0
  0
LINE
  5
28EB
  8
01
 10
840.68766916632421
 20
-2153.736948652841
 30
0.0
 11
827.6876691663241
 21
-2153.736948652841
 31
0.0
  0
LINE
  5
28EC
  8
01
 10
834.1876691663241
 20
-2147.236948652841
 30
0.0
 11
834.1876691663241
 21
-2160.2369486528401
 31
0.0
  0
LINE
  5
28ED
  8
01
 10
840.68766916632421
 20
-2267.7369486528401
 30
0.0
 11
827.6876691663241
 21
-2267.7369486528401
 31
0.0
  0
LINE
  5
28EE
  8
01
 10
834.1876691663241
 20
-2261.2369486528401
 30
0.0
 11
834.1876691663241
 21
-2274.236948652841
 31
0.0
  0
LINE
  5
28EF
  8
01
 10
694.18767316632375
 20
-2231.736948652841
 30
0.0
 11
634.18767316632375
 21
-2231.736948652841
 31
0.0
  0
LINE
  5
28F0
  8
01
 10
664.18767316632375
 20
-2201.736948652841
 30
0.0
 11
664.18767316632375
 21
-2261.736948652841
 31
0.0
  0
LINE
  5
28F1
  8
01
 10
974.18766516632468
 20
-2231.736948652841
 30
0.0
 11
1034.187665166324
 21
-2231.736948652841
 31
0.0
  0
LINE
  5
28F2
  8
01
 10
1004.187665166324
 20
-2201.736948652841
 30
0.0
 11
1004.187665166324
 21
-2261.736948652841
 31
0.0
  0
POINT
  5
28F7
  8
01
 10
868.68766916632421
 20
-2231.736948652841
 30
0.0
  0
LINE
  5
28F8
  8
01
 10
868.28766915632423
 20
-2233.4869486528401
 30
0.0
 11
868.28766915632423
 21
-2232.6369486328408
 31
0.0
  0
LINE
  5
28F9
  8
01
 10
869.08766917632408
 20
-2233.4869486528401
 30
0.0
 11
869.08766917632408
 21
-2232.6369486328408
 31
0.0
  0
LINE
  5
28FA
  8
01
 10
867.78766918632425
 20
-2232.136948662841
 30
0.0
 11
866.9376691663241
 21
-2232.136948662841
 31
0.0
  0
LINE
  5
28FB
  8
01
 10
867.78766918632425
 20
-2231.336948642841
 30
0.0
 11
866.9376691663241
 21
-2231.336948642841
 31
0.0
  0
LINE
  5
28FC
  8
01
 10
866.9376691663241
 20
-2232.136948662841
 30
0.0
 11
866.9376691663241
 21
-2231.336948642841
 31
0.0
  0
LINE
  5
28FD
  8
01
 10
869.08766917632408
 20
-2233.4869486528401
 30
0.0
 11
868.28766915632423
 21
-2233.4869486528401
 31
0.0
  0
LINE
  5
28FE
  8
01
 10
869.08766917632408
 20
-2229.9869486528401
 30
0.0
 11
869.08766917632408
 21
-2230.8369486728411
 31
0.0
  0
LINE
  5
28FF
  8
01
 10
868.28766915632423
 20
-2229.9869486528401
 30
0.0
 11
868.28766915632423
 21
-2230.8369486728411
 31
0.0
  0
LINE
  5
2900
  8
01
 10
869.58766914632395
 20
-2231.336948642841
 30
0.0
 11
870.43766916632421
 21
-2231.336948642841
 31
0.0
  0
LINE
  5
2901
  8
01
 10
869.58766914632395
 20
-2232.136948662841
 30
0.0
 11
870.43766916632421
 21
-2232.136948662841
 31
0.0
  0
LINE
  5
2902
  8
01
 10
870.43766916632421
 20
-2231.336948642841
 30
0.0
 11
870.43766916632421
 21
-2232.136948662841
 31
0.0
  0
LINE
  5
2903
  8
01
 10
868.28766915632423
 20
-2229.9869486528401
 30
0.0
 11
869.08766917632408
 21
-2229.9869486528401
 31
0.0
  0
CIRCLE
  5
2904
  8
01
 10
868.68766916632421
 20
-2231.736948652841
 30
0.0
 40
2.5
  0
ARC
  5
2905
  8
01
 10
869.58766914632395
 20
-2230.8369486728411
 30
0.0
 40
0.5
 50
179.9999899999998
 51
270.0
  0
ARC
  5
2906
  8
01
 10
869.58766914632395
 20
-2232.6369486328408
 30
0.0
 40
0.5
 50
90.000003000000945
 51
180.0000100000002
  0
ARC
  5
2907
  8
01
 10
867.78766918632425
 20
-2232.6369486328408
 30
0.0
 40
0.5
 50
0.0
 51
90.000003000000945
  0
ARC
  5
2908
  8
01
 10
867.78766918632425
 20
-2230.8369486728411
 30
0.0
 40
0.5
 50
270.0
 51
0.0
  0
POINT
  5
290A
  8
01
 10
799.68766916632421
 20
-2231.736948652841
 30
0.0
 50
180.0
  0
CIRCLE
  5
290B
  8
01
 10
799.68766916632421
 20
-2231.736948652841
 30
0.0
 40
2.5
  0
LINE
  5
597F
  8
01
 10
1004.187781506069
 20
-1911.7369486538689
 30
0.0
 11
1004.187781506069
 21
-1946.7369486538689
 31
0.0
  0
LINE
  5
5981
  8
01
 10
784.18766916632421
 20
-2231.736948652841
 30
0.0
 11
819.18766916632421
 21
-2231.736948652841
 31
0.0
  0
LINE
  5
5982
  8
01
 10
849.1876691663241
 20
-2231.736948652841
 30
0.0
 11
884.18766916632433
 21
-2231.736948652841
 31
0.0
  0
LINE
  5
A5DA
  8
01
 10
953.18854934838464
 20
-1981.7369486538689
 30
0.0
 11
1106.9429295034161
 21
-1981.7369486538689
 31
0.0
  0
LINE
  5
A5DB
  8
01
 10
953.18854934838464
 20
-1941.7369486538689
 30
0.0
 11
1106.9429295034161
 21
-1941.7369486538689
 31
0.0
  0
LINE
  5
CBDF
  8
01
 10
1004.187781506069
 20
-1976.7369486538689
 30
0.0
 11
1004.187781506069
 21
-2003.2369486538689
 31
0.0
  0
ARC
  5
EA7D
  8
01
 10
1029.9925857790249
 20
-2005.2830315471019
 30
0.0
 40
36.0
 50
192.9986187773786
 51
263.99855036955682
  0
ARC
  5
EA7E
  8
01
 10
1023.4348493472
 20
-2014.6277756339571
 30
0.0
 40
10.0
 50
166.99855036956231
 51
275.99855036955103
  0
LINE
  5
EA7F
  8
01
 10
989.68755380329219
 20
-1990.736581791919
 30
0.0
 11
994.91498089658899
 21
-2013.3804440573811
 31
0.0
  0
LINE
  5
EA80
  8
01
 10
989.68755380329219
 20
-1990.736581791919
 30
0.0
 11
1018.687553794011
 21
-1990.7373155158191
 31
0.0
  0
LINE
  5
EA81
  8
01
 10
1013.691006264269
 20
-2012.3780391059761
 30
0.0
 11
1018.687553794011
 21
-1990.7373155158191
 31
0.0
  0
LINE
  5
EA82
  8
01
 10
1024.479897723591
 20
-2024.573062077724
 30
0.0
 11
1037.187131511304
 21
-2023.237783580784
 31
0.0
  0
LINE
  5
EA83
  8
01
 10
1026.228679940642
 20
-2041.085706328641
 30
0.0
 11
1037.1866507956461
 21
-2042.2377835747029
 31
0.0
  0
ARC
  5
EA84
  8
01
 10
1077.0027322090359
 20
-1867.196992242121
 30
0.0
 40
180.0
 50
257.34785282121101
 51
285.8114536109365
  0
ARC
  5
EA85
  8
01
 10
1076.9156560676199
 20
-2198.2589901449842
 30
0.0
 40
180.0
 50
74.221550369581891
 51
102.6234888695592
  0
ARC
  5
EA86
  8
01
 10
1037.687087777593
 20
-2023.097797573814
 30
0.0
 40
0.5
 50
102.6235503695885
 51
179.99855036956279
  0
LINE
  5
EA87
  8
01
 10
1037.1866009761629
 20
-2042.338327721917
 30
0.0
 11
1037.187087777753
 21
-2023.0977849234009
 31
0.0
  0
ARC
  5
EA88
  8
01
 10
1037.6866009760031
 20
-2042.3383403723301
 30
0.0
 40
0.5
 50
179.99855036956279
 51
257.34785282121101
  0
ARC
  5
EA89
  8
01
 10
1123.6868438491099
 20
-2032.740013441605
 30
0.0
 40
8.0
 50
287.22752755331601
 51
74.221550369581891
  0
LINE
  5
EA91
  8
01
 10
1004.187781506069
 20
-1979.608663271438
 30
0.0
 11
1004.187781506069
 21
-2002.2369486538701
 31
0.0
  0
LINE
  5
EAE8
  8
01
 10
985.54989789461649
 20
-1927.2369176538709
 30
0.0
 11
1001.172534506068
 21
-1927.2369176538709
 31
0.0
  0
ARC
  5
EAE9
  8
01
 10
1029.9925857790249
 20
-1918.1908657606371
 30
0.0
 40
36.0
 50
96.001449630443233
 51
167.00138122262129
  0
ARC
  5
EAEA
  8
01
 10
1023.4348493472
 20
-1908.8461216737819
 30
0.0
 40
10.0
 50
84.001449630449017
 51
193.00144963043761
  0
LINE
  5
EAEB
  8
01
 10
989.68755380329219
 20
-1932.7373155158191
 30
0.0
 11
994.91498089658899
 21
-1910.093453250357
 31
0.0
  0
LINE
  5
EAEC
  8
01
 10
989.68755380329219
 20
-1932.7373155158191
 30
0.0
 11
1001.687781506062
 21
-1932.737011900168
 31
0.0
  0
LINE
  5
EAED
  8
01
 10
1013.691006264269
 20
-1911.095858201762
 30
0.0
 11
1018.687553794011
 21
-1932.736581791919
 31
0.0
  0
LINE
  5
EAEE
  8
01
 10
1024.479897723591
 20
-1898.9008352300141
 30
0.0
 11
1037.187131511304
 21
-1900.236113726954
 31
0.0
  0
LINE
  5
EAEF
  8
01
 10
1026.228679940642
 20
-1882.388190979098
 30
0.0
 11
1037.1866507956461
 21
-1881.2361137330349
 31
0.0
  0
ARC
  5
EAF0
  8
01
 10
1077.0027322090359
 20
-2056.276905065617
 30
0.0
 40
180.0
 50
74.18854638906349
 51
102.65214717878899
  0
ARC
  5
EAF1
  8
01
 10
1076.9156560676199
 20
-1725.2149071627539
 30
0.0
 40
180.0
 50
257.37651113044069
 51
285.77844963041809
  0
ARC
  5
EAF2
  8
01
 10
1037.687087777593
 20
-1900.3760997339241
 30
0.0
 40
0.5
 50
180.00144963043721
 51
257.3764496304114
  0
LINE
  5
EAF3
  8
01
 10
1037.1866009761629
 20
-1881.135569585821
 30
0.0
 11
1037.187087777753
 21
-1900.3761123843369
 31
0.0
  0
ARC
  5
EAF4
  8
01
 10
1037.6866009760031
 20
-1881.1355569354091
 30
0.0
 40
0.5
 50
102.65214717878899
 51
180.00144963043721
  0
ARC
  5
EB52
  8
01
 10
1123.6868438491099
 20
-1890.733883866134
 30
0.0
 40
8.0
 50
285.77844963041809
 51
72.772472446683992
  0
ARC
  5
ECA3
  8
01
 10
1004.187665166324
 20
-2231.736948652841
 30
0.0
 40
25.0
 50
19.788475785765371
 51
340.2103986947202
  0
LINE
  5
ECA4
  8
01
 10
1004.187665166324
 20
-2237.736948652841
 30
0.0
 11
1004.187665166324
 21
-2225.736948652841
 31
0.0
  0
LINE
  5
ECA5
  8
01
 10
998.18766516632468
 20
-2231.736948652841
 30
0.0
 11
1010.187665166324
 21
-2231.736948652841
 31
0.0
  0
ARC
  5
ECA6
  8
01
 10
1004.186906326358
 20
-2235.2411486425881
 30
0.0
 40
15.5
 50
44.04720010686173
 51
147.79570010683369
  0
ARC
  5
ECA7
  8
01
 10
1014.563773510515
 20
-2187.4512935069811
 30
0.0
 40
37.0
 50
259.81520010685477
 51
275.99920010683928
  0
ARC
  5
ECA8
  8
01
 10
1014.56253698423
 20
-2276.02279349835
 30
0.0
 40
37.0
 50
83.999200106801524
 51
100.18280010686139
  0
ARC
  5
ECA9
  8
01
 10
1004.187003046568
 20
-2228.313148643264
 30
0.0
 40
15.5
 50
212.2022001068319
 51
315.95120010683229
  0
LINE
  5
ECAA
  8
01
 10
1018.430859795707
 20
-2224.2483474980659
 30
0.0
 11
1037.1870873105561
 21
-2222.2776093492412
 31
0.0
  0
LINE
  5
ECAB
  8
01
 10
1037.1870892761181
 20
-2222.1368175289531
 30
0.0
 11
1037.186822055937
 21
-2241.2776093473899
 31
0.0
  0
LINE
  5
ECAC
  8
01
 10
1018.430650702472
 20
-2239.2255474966069
 30
0.0
 11
1037.186823178384
 21
-2241.1972093473969
 31
0.0
  0
ARC
  5
ECAD
  8
01
 10
998.68685468699857
 20
-2231.7770718572979
 30
0.0
 40
9.0
 50
147.79570010683369
 51
212.2022001068319
  0
ARC
  5
ECAE
  8
01
 10
1076.998607968837
 20
-2397.2792080093582
 30
0.0
 40
180.0
 50
74.187096758630574
 51
102.6506382357996
  0
ARC
  5
ECAF
  8
01
 10
1123.686907968837
 20
-2231.7373680093579
 30
0.0
 40
8.0
 50
285.77699999999959
 51
72.7710228162737
  0
LINE
  5
ECB0
  8
01
 10
1126.048056362368
 20
-2224.0910109164538
 30
0.0
 11
1126.0564371018261
 21
-2224.0963385179921
 31
0.0
  0
ARC
  5
ECB1
  8
01
 10
1076.9199079688369
 20
-2066.2172080093578
 30
0.0
 40
180.0
 50
257.37501838633398
 51
285.77699999999959
  0
ARC
  5
ECB2
  8
01
 10
1037.6868206659401
 20
-2241.3771773536209
 30
0.0
 40
0.5
 50
179.9992001068496
 51
257.37501838633398
  0
LINE
  5
ECFF
  8
01
 10
892.4827526230988
 20
-2239.8373531439902
 30
0.0
 11
863.18758505268897
 21
-2243.786948652546
 31
0.0
  0
LINE
  5
ED00
  8
01
 10
892.17703188249516
 20
-2223.5956155582098
 30
0.0
 11
863.18775328065794
 21
-2219.686848653133
 31
0.0
  0
LINE
  5
ED01
  8
01
 10
863.18775328065794
 20
-2219.686848653133
 30
0.0
 11
863.18758505268897
 21
-2243.786948652546
 31
0.0
  0
ARC
  5
ED02
  8
01
 10
905.18766916530194
 20
-2231.737241828997
 30
0.0
 40
9.5
 50
231.30116788327641
 51
128.69605808923939
  0
ARC
  5
ED03
  8
01
 10
906.2472381733154
 20
-2121.5702492225118
 30
0.0
 40
102.991
 50
262.14793110063488
 51
267.36404545131478
  0
ARC
  5
ED04
  8
01
 10
906.24570015583902
 20
-2341.9044492171438
 30
0.0
 40
102.991
 50
92.734576693619687
 51
97.678600053419714
  0
ARC
  5
ED05
  8
01
 10
905.18766916530194
 20
-2231.737241828997
 30
0.0
 40
14.479798656231189
 50
213.601032042388
 51
146.3977297823954
  0
LINE
  5
ED33
  8
01
 10
694.1876731663242
 20
-2231.736948652841
 30
0.0
 11
634.1876731663242
 21
-2231.736948652841
 31
0.0
  0
LINE
  5
ED34
  8
01
 10
664.18767316632409
 20
-2201.736948652841
 30
0.0
 11
664.18767316632409
 21
-2261.736948652841
 31
0.0
  0
ARC
  5
ED35
  8
01
 10
664.18767316632409
 20
-2231.736948652841
 30
0.0
 40
25.0
 50
199.78960130527989
 51
160.2115242142346
  0
ARC
  5
ED36
  8
01
 10
664.18843200629078
 20
-2235.2411486425881
 30
0.0
 40
15.5
 50
32.204299893166251
 51
135.95279989313821
  0
ARC
  5
ED37
  8
01
 10
653.81156482213373
 20
-2187.4512935069811
 30
0.0
 40
37.0
 50
264.00079989316072
 51
280.18479989314523
  0
ARC
  5
ED38
  8
01
 10
653.81280134841825
 20
-2276.02279349835
 30
0.0
 40
37.0
 50
79.817199893138536
 51
96.000799893198433
  0
ARC
  5
ED39
  8
01
 10
664.18833528608036
 20
-2228.313148643264
 30
0.0
 40
15.5
 50
224.04879989316771
 51
327.79779989316802
  0
LINE
  5
ED3A
  8
01
 10
649.94447853694135
 20
-2224.2483474980659
 30
0.0
 11
631.18825102209303
 21
-2222.2776093492412
 31
0.0
  0
LINE
  5
ED3B
  8
01
 10
631.18824905653025
 20
-2222.1368175289531
 30
0.0
 11
631.18851627671108
 21
-2241.2776093473899
 31
0.0
  0
LINE
  5
ED3C
  8
01
 10
649.9446876301763
 20
-2239.2255474966069
 30
0.0
 11
631.18851515426468
 21
-2241.1972093473969
 31
0.0
  0
ARC
  5
ED3D
  8
01
 10
669.68848364565019
 20
-2231.7770718572979
 30
0.0
 40
9.0
 50
327.79779989316802
 51
32.204299893166251
  0
ARC
  5
ED3E
  8
01
 10
591.37673036381136
 20
-2397.2792080093582
 30
0.0
 40
180.0
 50
77.349361764200381
 51
105.8129032413694
  0
ARC
  5
ED3F
  8
01
 10
544.68843036381168
 20
-2231.7373680093579
 30
0.0
 40
8.0
 50
107.2289771837263
 51
254.22300000000041
  0
LINE
  5
ED40
  8
01
 10
542.32728197028064
 20
-2224.0910109164538
 30
0.0
 11
542.31890123082303
 21
-2224.0963385179921
 31
0.0
  0
ARC
  5
ED41
  8
01
 10
591.4554303638115
 20
-2066.2172080093578
 30
0.0
 40
180.0
 50
254.22300000000041
 51
282.62498161366602
  0
ARC
  5
ED42
  8
01
 10
630.68851766670832
 20
-2241.3771773536209
 30
0.0
 40
0.5
 50
282.62498161366602
 51
0.0007998931504001
  0
LINE
  5
ED49
  8
01
 10
775.89258570954962
 20
-2239.8373531439902
 30
0.0
 11
805.18775327995934
 21
-2243.786948652546
 31
0.0
  0
LINE
  5
ED4A
  8
01
 10
776.19830645015315
 20
-2223.5956155582098
 30
0.0
 11
805.18758505199037
 21
-2219.686848653133
 31
0.0
  0
LINE
  5
ED4B
  8
01
 10
805.18758505199037
 20
-2219.686848653133
 30
0.0
 11
805.18775327995934
 21
-2243.786948652546
 31
0.0
  0
ARC
  5
ED4C
  8
01
 10
763.18766916734648
 20
-2231.737241828997
 30
0.0
 40
9.5
 50
51.3039419107605
 51
308.69883211672362
  0
ARC
  5
ED4D
  8
01
 10
762.12810015933292
 20
-2121.5702492225118
 30
0.0
 40
102.991
 50
272.63595454868522
 51
277.85206889936512
  0
ARC
  5
ED4E
  8
01
 10
762.12963817680918
 20
-2341.9044492171438
 30
0.0
 40
102.991
 50
82.321399946580271
 51
87.265423306380299
  0
ARC
  5
ED4F
  8
01
 10
763.18766916734648
 20
-2231.737241828997
 30
0.0
 40
14.479798656231189
 50
33.602270217604541
 51
326.398967957612
  0
LINE
  5
F192
  8
01
 10
1022.187665166325
 20
-2214.3875970799431
 30
0.0
 11
1022.187665166325
 21
-2247.736948652841
 31
0.0
  0
LINE
  5
F193
  8
01
 10
984.97829245402636
 20
-2247.736948652841
 30
0.0
 11
1022.187665166325
 21
-2247.736948652841
 31
0.0
  0
LINE
  5
F788
  8
01
 10
649.18768516632463
 20
-1987.236948652841
 30
0.0
 11
818.18563127672212
 21
-1987.2369486528421
 31
0.0
  0
TEXT
  5
F789
  8
01
 10
650.88768516632501
 20
-1984.986948652841
 30
0.0
 40
6.0
  1
表面処理：脚部
 72
     1
 11
675.28768516632488
 21
-1984.986948652841
 31
0.0
  0
LINE
  5
F78A
  8
01
 10
649.18768516632463
 20
-1976.736948652841
 30
0.0
 11
818.18563127672212
 21
-1976.736948652841
 31
0.0
  0
TEXT
  5
F78B
  8
01
 10
781.78563127672248
 20
-1984.986948652841
 30
0.0
 40
6.0
  1
コード
 72
     1
 11
791.78563127672248
 21
-1984.986948652841
 31
0.0
  0
TEXT
  5
F78C
  8
01
 10
703.38768516632501
 20
-1984.986948652841
 30
0.0
 40
6.0
  1
表面処理：握り
 72
     1
 11
727.78768516632499
 21
-1984.986948652841
 31
0.0
  0
LINE
  5
F78D
  8
01
 10
649.18768516632372
 20
-2018.736948652841
 30
0.0
 11
818.18563127672076
 21
-2018.7369486528421
 31
0.0
  0
TEXT
  5
F78E
  8
01
 10
658.08768516632495
 20
-2010.98131903287
 30
0.0
 40
6.0
  1
本金メッキ
 72
     1
 11
675.28768516632488
 21
-2010.98131903287
 31
0.0
  0
LINE
  5
F78F
  8
01
 10
701.68768516632463
 20
-1976.736948652841
 30
0.0
 11
701.68768516632417
 21
-2018.736948652841
 31
0.0
  0
LINE
  5
F790
  8
01
 10
701.68768516632315
 20
-2018.736948652841
 30
0.0
 11
701.68768516632269
 21
-2050.236948652841
 31
0.0
  0
LINE
  5
F791
  8
01
 10
765.68563127672132
 20
-1976.736948652841
 30
0.0
 11
765.68563127672439
 21
-2018.736948652841
 31
0.0
  0
LINE
  5
F792
  8
01
 10
765.68563127672451
 20
-2018.736948652841
 30
0.0
 11
765.68563127672667
 21
-2050.236948652841
 31
0.0
  0
LINE
  5
F793
  8
01
 10
818.18563127672212
 20
-1976.736948652841
 30
0.0
 11
818.18563127672155
 21
-2018.7369486528421
 31
0.0
  0
LINE
  5
F794
  8
01
 10
818.18563127672076
 20
-2018.736948652841
 30
0.0
 11
818.1856312767203
 21
-2050.2369486528419
 31
0.0
  0
LINE
  5
F795
  8
01
 10
649.18768516632372
 20
-2050.2369486528401
 30
0.0
 11
649.18768516632372
 21
-1976.736948652841
 31
0.0
  0
LINE
  5
F796
  8
01
 10
701.68768516632463
 20
-1997.7369486528401
 30
0.0
 11
818.18563127672212
 21
-1997.7369486528421
 31
0.0
  0
LINE
  5
F797
  8
01
 10
701.68768516632463
 20
-2008.236948652841
 30
0.0
 11
818.18563127672212
 21
-2008.2369486528421
 31
0.0
  0
TEXT
  5
F798
  8
01
 10
661.68768516632394
 20
-2037.5527075665559
 30
0.0
 40
6.0
  1
クローム
 72
     1
 11
675.28768516632397
 21
-2037.5527075665559
 31
0.0
  0
LINE
  5
F799
  8
01
 10
701.68768516632372
 20
-2039.736948652841
 30
0.0
 11
818.18563127672076
 21
-2039.7369486528421
 31
0.0
  0
LINE
  5
F79A
  8
01
 10
649.18768516632372
 20
-2050.2369486528401
 30
0.0
 11
818.1856312767203
 21
-2050.2369486528419
 31
0.0
  0
TEXT
  5
F79B
  8
01
 10
767.98563127672344
 20
-1995.8084841283151
 30
0.0
 40
6.0
  1
3-ZJC-G1-LW
 41
0.7
 72
     1
 11
791.78563127672328
 21
-1995.8084841283151
 31
0.0
  0
TEXT
  5
F79C
  8
01
 10
767.98563127672344
 20
-2006.308484128316
 30
0.0
 40
6.0
  1
3-ZJC-G2-LW
 41
0.7
 72
     1
 11
791.78563127672328
 21
-2006.308484128316
 31
0.0
  0
TEXT
  5
F79D
  8
01
 10
767.98563127672344
 20
-2016.808484128316
 30
0.0
 40
6.0
  1
3-ZJC-G3-LW
 41
0.7
 72
     1
 11
791.78563127672328
 21
-2016.808484128316
 31
0.0
  0
TEXT
  5
F79E
  8
01
 10
767.98563127672207
 20
-2027.3084841283151
 30
0.0
 40
6.0
  1
3-ZJC-C1-LW
 41
0.7
 72
     1
 11
791.78563127672203
 21
-2027.3084841283151
 31
0.0
  0
TEXT
  5
F79F
  8
01
 10
767.98563127672207
 20
-2037.8084841283151
 30
0.0
 40
6.0
  1
3-ZJC-C2-LW
 41
0.7
 72
     1
 11
791.78563127672203
 21
-2037.8084841283151
 31
0.0
  0
TEXT
  5
F7A0
  8
01
 10
767.98563127672207
 20
-2048.3084841283162
 30
0.0
 40
6.0
  1
3-ZJC-C3-LW
 41
0.7
 72
     1
 11
791.78563127672203
 21
-2048.3084841283162
 31
0.0
  0
LINE
  5
F7A1
  8
01
 10
701.68768516632269
 20
-2029.2369486528401
 30
0.0
 11
818.18563127672076
 21
-2029.2369486528421
 31
0.0
  0
TEXT
  5
F7A2
  8
01
 10
709.18543166062136
 20
-2026.7033190701959
 30
0.0
 40
6.0
  1
ライトブラウン
 72
     1
 11
733.58543166062145
 21
-2026.7033190701959
 31
0.0
  0
TEXT
  5
F7A3
  8
01
 10
716.38543166062163
 20
-2037.2033190701959
 30
0.0
 40
6.0
  1
ミディアム
 72
     1
 11
733.58543166062168
 21
-2037.2033190701959
 31
0.0
  0
TEXT
  5
F7A4
  8
01
 10
709.18543166062136
 20
-2047.703319070195
 30
0.0
 40
6.0
  1
ダークブラウン
 72
     1
 11
733.58543166062145
 21
-2047.703319070195
 31
0.0
  0
TEXT
  5
F7A5
  8
01
 10
709.18543166062284
 20
-1995.2033190701959
 30
0.0
 40
6.0
  1
ライトブラウン
 72
     1
 11
733.58543166062282
 21
-1995.2033190701959
 31
0.0
  0
TEXT
  5
F7A6
  8
01
 10
716.38543166062288
 20
-2005.7033190701959
 30
0.0
 40
6.0
  1
ミディアム
 72
     1
 11
733.58543166062304
 21
-2005.7033190701959
 31
0.0
  0
TEXT
  5
F7A7
  8
01
 10
709.18543166062284
 20
-2016.203319070195
 30
0.0
 40
6.0
  1
ダークブラウン
 72
     1
 11
733.58543166062282
 21
-2016.203319070195
 31
0.0
  0
LINE
  5
F7CE
  8
01
 10
1006.687781506064
 20
-1932.7368853960479
 30
0.0
 11
1018.687553794011
 21
-1932.736581791919
 31
0.0
  0
LINE
  5
F9DF
  8
01
 10
686.68766516632331
 20
-2176.236948652841
 30
0.0
 11
641.6876651663232
 21
-2176.236948652841
 31
0.0
  0
LINE
  5
F9E0
  8
01
 10
664.18766516632331
 20
-2153.736948652841
 30
0.0
 11
664.18766516632331
 21
-2198.7369486528401
 31
0.0
  0
LINE
  5
F9E1
  8
01
 10
981.68767316632545
 20
-2176.236948652841
 30
0.0
 11
1026.6876731663251
 21
-2176.236948652841
 31
0.0
  0
LINE
  5
F9E2
  8
01
 10
1004.187673166325
 20
-2153.736948652841
 30
0.0
 11
1004.187673166325
 21
-2198.7369486528401
 31
0.0
  0
LINE
  5
F9E3
  8
01
 10
805.18766916632421
 20
-2219.7369486528401
 30
0.0
 11
805.18766916632421
 21
-2243.7369486528401
 31
0.0
  0
LINE
  5
F9E4
  8
01
 10
814.1876691663233
 20
-2206.7369486528401
 30
0.0
 11
814.18766916632512
 21
-2256.736948652841
 31
0.0
  0
LINE
  5
F9E5
  8
01
 10
805.68766916632319
 20
-2207.2369486528378
 30
0.0
 11
805.68766916632694
 21
-2256.236948652841
 31
0.0
  0
LINE
  5
F9E6
  8
01
 10
814.18766916632512
 20
-2256.736948652841
 30
0.0
 11
806.18766916632683
 21
-2256.736948652841
 31
0.0
  0
ARC
  5
F9E7
  8
01
 10
806.18766916632683
 20
-2256.236948652841
 30
0.0
 40
0.5
 50
180.0
 51
270.0
  0
LINE
  5
F9E8
  8
01
 10
814.1876691663233
 20
-2206.7369486528401
 30
0.0
 11
806.18766916632376
 21
-2206.7369486528378
 31
0.0
  0
ARC
  5
F9E9
  8
01
 10
806.1876691663233
 20
-2207.2369486528378
 30
0.0
 40
0.5
 50
89.999999999973952
 51
180.0
  0
LINE
  5
F9EA
  8
01
 10
854.18766916632694
 20
-2206.7369486528401
 30
0.0
 11
854.18766916632512
 21
-2256.736948652841
 31
0.0
  0
LINE
  5
F9EB
  8
01
 10
862.68766916632694
 20
-2207.2369486528378
 30
0.0
 11
862.68766916632376
 21
-2256.236948652841
 31
0.0
  0
LINE
  5
F9EC
  8
01
 10
854.18766916632512
 20
-2256.736948652841
 30
0.0
 11
862.18766916632364
 21
-2256.736948652841
 31
0.0
  0
ARC
  5
F9ED
  8
01
 10
862.18766916632364
 20
-2256.236948652841
 30
0.0
 40
0.5
 50
270.0
 51
0.0
  0
LINE
  5
F9EE
  8
01
 10
854.1876691663274
 20
-2206.7369486528401
 30
0.0
 11
862.18766916632694
 21
-2206.7369486528378
 31
0.0
  0
ARC
  5
F9EF
  8
01
 10
862.18766916632694
 20
-2207.2369486528378
 30
0.0
 40
0.5
 50
0.0
 51
90.000000000013031
  0
LINE
  5
F9F0
  8
01
 10
860.48766916632803
 20
-2195.736948652825
 30
0.0000000000562575
 11
860.48766916632803
 21
-2156.736948652826
 31
0.0000000000562575
  0
LINE
  5
F9F1
  8
01
 10
854.18766916632785
 20
-2156.236948652825
 30
0.0000000000562575
 11
854.18766916632364
 21
-2196.2369486528328
 31
0.0000000000562575
  0
LINE
  5
F9F2
  8
01
 10
854.18766916632785
 20
-2196.236948652825
 30
0.0000000000562575
 11
859.98766916632815
 21
-2196.236948652825
 31
0.0000000000562575
  0
ARC
  5
F9F3
  8
01
 10
859.98766916632815
 20
-2195.736948652825
 30
0.0000000000562575
 40
0.5
 50
270.0
 51
0.0
  0
LINE
  5
F9F4
  8
01
 10
854.18766916632785
 20
-2156.236948652825
 30
0.0000000000562575
 11
859.98766916632815
 21
-2156.236948652825
 31
0.0000000000562575
  0
ARC
  5
F9F5
  8
01
 10
859.98766916632815
 20
-2156.736948652826
 30
0.0000000000562575
 40
0.5
 50
0.0
 51
90.0
  0
LINE
  5
F9F6
  8
01
 10
865.4111608484186
 20
-2181.7369486528328
 30
0.0
 11
850.26475747164193
 21
-2181.7369486528328
 31
0.0
  0
LINE
  5
F9F7
  8
01
 10
861.21106916632834
 20
-2178.236947331894
 30
-0.0000000000001137
 11
860.48766916632803
 21
-2178.236947331894
 31
-0.0000000000001137
  0
LINE
  5
F9F8
  8
01
 10
861.21106916632834
 20
-2185.236947331894
 30
-0.0000000000001137
 11
860.48766916632803
 21
-2185.236947331894
 31
-0.0000000000001137
  0
LINE
  5
F9F9
  8
01
 10
807.88766916632801
 20
-2195.7369486528319
 30
0.0
 11
807.88766916632801
 21
-2156.7369486528328
 31
0.0
  0
LINE
  5
F9FA
  8
01
 10
814.18766916632785
 20
-2156.2369486528319
 30
0.0
 11
814.18766916632376
 21
-2196.2369486528328
 31
0.0
  0
LINE
  5
F9FB
  8
01
 10
814.18766916632819
 20
-2196.2369486528328
 30
0.0
 11
808.38766916632812
 21
-2196.2369486528328
 31
0.0
  0
ARC
  5
F9FC
  8
01
 10
808.38766916632812
 20
-2195.7369486528319
 30
0.0
 40
0.5
 50
180.0
 51
270.0
  0
LINE
  5
F9FD
  8
01
 10
814.18766916632785
 20
-2156.2369486528319
 30
0.0
 11
808.38766916632812
 21
-2156.2369486528328
 31
0.0
  0
ARC
  5
F9FE
  8
01
 10
808.38766916632812
 20
-2156.7369486528328
 30
0.0
 40
0.5
 50
90.0
 51
180.0
  0
LINE
  5
F9FF
  8
01
 10
651.78736830585558
 20
-2181.736948652841
 30
0.0
 11
676.38603224106191
 21
-2181.736948652841
 31
0.0
  0
CIRCLE
  5
FA00
  8
01
 10
664.18767316632375
 20
-2181.736948652841
 30
0.0
 40
11.30000000000109
  0
LINE
  5
FA01
  8
01
 10
789.85965212662575
 20
-2181.7369486528401
 30
0.0
 11
816.77159652112914
 21
-2181.7369486528401
 31
0.0
  0
LINE
  5
FA02
  8
01
 10
793.18728360060641
 20
-2192.7369536528322
 30
0.0
 11
807.88766916632801
 21
-2192.7369536528322
 31
0.0
  0
LINE
  5
FA03
  8
01
 10
806.68730654481806
 20
-2171.2369536528322
 30
0.0
 11
806.68730654481351
 21
-2192.2369536528322
 31
0.0
  0
LINE
  5
FA04
  8
01
 10
793.18728360060857
 20
-2170.7369536528322
 30
0.0
 11
807.88766916632801
 21
-2170.7369536528322
 31
0.0
  0
ARC
  5
FA05
  8
01
 10
793.18728360060857
 20
-2171.7369536528308
 30
0.0
 40
1.0
 50
90.0
 51
180.0
  0
LINE
  5
FA06
  8
01
 10
792.18728360060629
 20
-2171.7369536528308
 30
0.0
 11
792.18728360060629
 21
-2191.7369536528299
 31
0.0
  0
ARC
  5
FA07
  8
01
 10
793.18728360060641
 20
-2191.7369536528299
 30
0.0
 40
1.0
 50
180.0
 51
270.0
  0
ARC
  5
FA08
  8
01
 10
807.18730654481351
 20
-2171.2369536528322
 30
0.0
 40
0.5
 50
90.0
 51
179.99999999997391
  0
ARC
  5
FA09
  8
01
 10
807.18730654481351
 20
-2192.2369536528322
 30
0.0
 40
0.5
 50
179.99999999997391
 51
270.0
  0
LINE
  5
FA0A
  8
01
 10
666.68767316632375
 20
-2171.42918968204
 30
0.0
 11
666.68767316632375
 21
-2192.0447076236419
 31
0.0
  0
LINE
  5
FA0B
  8
01
 10
661.68767316632375
 20
-2171.42918968204
 30
0.0
 11
661.68767316632375
 21
-2192.0447076236419
 31
0.0
  0
ARC
  5
FA0C
  8
01
 10
662.18767316632375
 20
-2171.42918968204
 30
0.0
 40
0.5
 50
100.98058072142879
 51
180.0
  0
ARC
  5
FA0D
  8
01
 10
666.18767316632375
 20
-2171.42918968204
 30
0.0
 40
0.5
 50
0.0
 51
79.019419278571178
  0
ARC
  5
FA0E
  8
01
 10
662.18767316632375
 20
-2192.0447076236419
 30
0.0
 40
0.5
 50
180.0
 51
259.01941927857121
  0
ARC
  5
FA0F
  8
01
 10
666.18767316632375
 20
-2192.0447076236419
 30
0.0
 40
0.5
 50
280.98058072142879
 51
0.0
  0
LINE
  5
FA10
  8
01
 10
855.68766916632637
 20
-2196.2369486528328
 30
0.0000000000562575
 11
854.18766916632649
 21
-2196.2369486528328
 31
0.0000000000562575
  0
LINE
  5
FA11
  8
01
 10
812.68766916632956
 20
-2196.2369486528391
 30
0.0
 11
814.18766916632967
 21
-2196.2369486528391
 31
0.0
  0
CIRCLE
  5
FA12
  8
01
 10
664.18767316632193
 20
-2176.236948652841
 30
0.0
 40
20.000000000000071
  0
CIRCLE
  5
FA13
  8
01
 10
664.18767316632375
 20
-2181.736948652841
 30
0.0
 40
11.0
  0
LINE
  5
FA14
  8
01
 10
997.35714519192754
 20
-2181.7369486528241
 30
0.0
 11
1011.542855591926
 21
-2181.7369486528241
 31
0.0
  0
CIRCLE
  5
FA15
  8
01
 10
1004.187665166324
 20
-2174.3369584486959
 30
0.0
 40
2.5
  0
CIRCLE
  5
FA16
  8
01
 10
1004.187665166324
 20
-2181.7369484486958
 30
0.0
 40
3.75
  0
CIRCLE
  5
FA17
  8
01
 10
1004.187665166324
 20
-2181.7369486528241
 30
0.0
 40
3.5000004999999992
  0
LINE
  5
FA18
  8
01
 10
1005.187665166324
 20
-2185.0910514528241
 30
0.0
 11
1005.187665166324
 21
-2178.382844652825
 31
0.0
  0
LINE
  5
FA19
  8
01
 10
1003.187665166324
 20
-2185.0910514528241
 30
0.0
 11
1003.187665166324
 21
-2178.382844652825
 31
0.0
  0
CIRCLE
  5
FA1A
  8
01
 10
1004.1876648438659
 20
-2176.236948652825
 30
0.0
 40
19.99999999999962
  0
LINE
  5
FA1B
  8
01
 10
979.18778150606931
 20
-1981.7369486538689
 30
0.0
 11
979.18778150606931
 21
-1989.7369486538689
 31
0.0
  0
LINE
  5
FA1C
  8
01
 10
1029.1877815060691
 20
-1981.7369486538689
 30
0.0
 11
1029.1877815060691
 21
-1989.7369486538689
 31
0.0
  0
LINE
  5
FA1D
  8
01
 10
984.18778118361115
 20
-1981.7369486538689
 30
0.0
 11
984.18778118361115
 21
-1987.5369486538691
 31
0.0
  0
LINE
  5
FA1E
  8
01
 10
1024.18778118361
 20
-1981.7369486538689
 30
0.0
 11
1024.18778118361
 21
-1987.5369486538691
 31
0.0
  0
LINE
  5
FA1F
  8
01
 10
979.18778150606931
 20
-1981.7369486538689
 30
0.0
 11
1029.1877815060691
 21
-1981.7369486538689
 31
0.0
  0
LINE
  5
FA20
  8
01
 10
984.68778118361115
 20
-1988.0369486538691
 30
0.0
 11
1023.68778118361
 21
-1988.0369486538691
 31
0.0
  0
LINE
  5
FA21
  8
01
 10
979.6877815060692
 20
-1990.2369486538689
 30
0.0
 11
1028.6877815060691
 21
-1990.2369486538689
 31
0.0
  0
ARC
  5
FA22
  8
01
 10
984.68778118361115
 20
-1987.5369486538691
 30
0.0
 40
0.5
 50
180.0
 51
270.0
  0
ARC
  5
FA23
  8
01
 10
1023.68778118361
 20
-1987.5369486538691
 30
0.0
 40
0.5
 50
270.0
 51
0.0
  0
ARC
  5
FA24
  8
01
 10
979.6877815060692
 20
-1989.7369486538689
 30
0.0
 40
0.5
 50
179.99999999997391
 51
270.0
  0
ARC
  5
FA25
  8
01
 10
1028.6877815060691
 20
-1989.7369486538689
 30
0.0
 40
0.5
 50
270.0
 51
0.0
  0
LINE
  5
FA26
  8
01
 10
1005.187782827007
 20
-1989.4367186538691
 30
-0.0000000000001137
 11
1005.187782827007
 21
-1988.0369486538691
 31
-0.0000000000001137
  0
ARC
  5
FA27
  8
01
 10
1002.887783827007
 20
-1989.4367186538691
 30
-0.0000000000001137
 40
0.30000001
 50
256.81652000001918
 51
0.0000029999846689
  0
ARC
  5
FA28
  8
01
 10
1004.187782827007
 20
-1983.886948653869
 30
-0.0000000000001137
 40
6.0
 50
283.18348199999821
 51
305.68533399999433
  0
ARC
  5
FA29
  8
01
 10
1005.487785827007
 20
-1989.4367186538691
 30
-0.0000000000001137
 40
0.30000001
 50
180.0
 51
283.18348199999821
  0
LINE
  5
FA2A
  8
01
 10
1007.687782827007
 20
-1988.760348653869
 30
-0.0000000000001137
 11
1007.687782827007
 21
-1988.0369486538691
 31
-0.0000000000001137
  0
LINE
  5
FA2B
  8
01
 10
1000.687782827007
 20
-1988.760348653869
 30
-0.0000000000001137
 11
1000.687782827007
 21
-1988.0369486538691
 31
-0.0000000000001137
  0
ARC
  5
FA2C
  8
01
 10
1004.187782827007
 20
-1983.886948653869
 30
-0.0000000000001137
 40
6.0
 50
234.3146700000031
 51
256.81651749663911
  0
LINE
  5
FA2D
  8
01
 10
1003.187782827007
 20
-1989.437497113272
 30
-0.0000000000001137
 11
1003.187782827007
 21
-1988.0369486538691
 31
-0.0000000000001137
  0
ARC
  5
FA2E
  8
01
 10
855.42603425408834
 20
-2181.7369473637168
 30
-0.0000000000001137
 40
6.7614049222401134
 50
328.82566316459219
 51
31.174340835420569
  0
LINE
  5
FA2F
  8
01
 10
979.18778150606931
 20
-1941.7369486538689
 30
0.0
 11
979.18778150606931
 21
-1933.7369486538689
 31
0.0
  0
LINE
  5
FA30
  8
01
 10
1029.1877815060691
 20
-1941.7369486538689
 30
0.0
 11
1029.1877815060691
 21
-1933.7369486538689
 31
0.0
  0
LINE
  5
FA31
  8
01
 10
984.18778118361115
 20
-1941.7369486538689
 30
0.0
 11
984.18778118361115
 21
-1935.936948653869
 31
0.0
  0
LINE
  5
FA32
  8
01
 10
1024.18778118361
 20
-1941.7369486538689
 30
0.0
 11
1024.18778118361
 21
-1935.936948653869
 31
0.0
  0
LINE
  5
FA33
  8
01
 10
979.18778150606931
 20
-1941.7369486538689
 30
0.0
 11
1029.1877815060691
 21
-1941.7369486538689
 31
0.0
  0
LINE
  5
FA34
  8
01
 10
984.68778118361115
 20
-1935.436948653869
 30
0.0
 11
1023.68778118361
 21
-1935.436948653869
 31
0.0
  0
LINE
  5
FA35
  8
01
 10
979.6877815060692
 20
-1933.2369486538689
 30
0.0
 11
1001.687781506062
 21
-1933.2369486538689
 31
0.0
  0
LINE
  5
FA36
  8
01
 10
1006.687781506064
 20
-1933.2369486538689
 30
0.0
 11
1028.6877815060691
 21
-1933.2369486538689
 31
0.0
  0
ARC
  5
FA37
  8
01
 10
984.68778118361115
 20
-1935.936948653869
 30
0.0
 40
0.5
 50
89.999999999986969
 51
180.0
  0
ARC
  5
FA38
  8
01
 10
1023.68778118361
 20
-1935.936948653869
 30
0.0
 40
0.5
 50
0.0
 51
90.0
  0
ARC
  5
FA39
  8
01
 10
979.6877815060692
 20
-1933.7369486538689
 30
0.0
 40
0.5
 50
89.999999999986969
 51
180.0
  0
ARC
  5
FA3A
  8
01
 10
1028.6877815060691
 20
-1933.7369486538689
 30
0.0
 40
0.5
 50
0.0
 51
90.0
  0
ARC
  5
FA3B
  8
01
 10
1007.6877815060629
 20
-1933.2369715980769
 30
0.0
 40
1.0
 50
180.0
 51
270.00000000001302
  0
LINE
  5
FA3C
  8
01
 10
1007.687781506064
 20
-1934.2369715980781
 30
0.0
 11
1014.687786506061
 21
-1934.236971598076
 31
0.0
  0
ARC
  5
FA3D
  8
01
 10
1014.687786506061
 20
-1934.736971598076
 30
0.0
 40
0.5
 50
0.0
 51
90.000000000013017
  0
ARC
  5
FA3E
  8
01
 10
1000.687781506061
 20
-1933.2369715980749
 30
0.0
 40
1.0
 50
270.0
 51
0.0
  0
ARC
  5
FA3F
  8
01
 10
993.68778650606191
 20
-1934.7369715980749
 30
0.0
 40
0.5
 50
90.0
 51
180.0
  0
LINE
  5
FA40
  8
01
 10
1001.687781506062
 20
-1920.736948653873
 30
0.0
 11
1001.687781506062
 21
-1933.2369715980749
 31
0.0
  0
ARC
  5
FA41
  8
01
 10
1002.687781506061
 20
-1920.736948653871
 30
0.0
 40
1.0
 50
90.0
 51
179.9999999999479
  0
LINE
  5
FA42
  8
01
 10
1002.687781506062
 20
-1919.7369486538689
 30
0.0
 11
1005.687781506061
 21
-1919.7369486538689
 31
0.0
  0
ARC
  5
FA43
  8
01
 10
1005.687781506061
 20
-1920.736948653871
 30
0.0
 40
1.0
 50
0.0
 51
90.0
  0
LINE
  5
FA44
  8
01
 10
1006.687781506062
 20
-1920.736948653871
 30
0.0
 11
1006.687781506064
 21
-1933.2369715980769
 31
0.0
  0
LINE
  5
FA45
  8
01
 10
993.68778650606191
 20
-1934.236971598076
 30
0.0
 11
1000.687781506062
 21
-1934.236971598076
 31
0.0
  0
LINE
  5
FA46
  8
01
 10
993.1877865060618
 20
-1934.7369715980749
 30
0.0
 11
993.1877865060618
 21
-1935.436948653869
 31
0.0
  0
LINE
  5
FA47
  8
01
 10
1015.187786506061
 20
-1934.736971598076
 30
0.0
 11
1015.187786506061
 21
-1935.436948653869
 31
0.0
  0
LINE
  5
FB9A
  8
01
 10
1022.187665166325
 20
-2173.2369486528401
 30
0.0
 11
1022.187665166325
 21
-2184.9547458741258
 31
0.0
  0
LINE
  5
FB9B
  8
01
 10
1001.187665166324
 20
-2173.2369486528401
 30
0.0
 11
1007.187665166324
 21
-2173.2369486528401
 31
0.0
  0
LINE
  5
FB9C
  8
01
 10
1014.187665166325
 20
-2173.2369486528401
 30
0.0
 11
1022.187665166325
 21
-2173.2369486528401
 31
0.0
  0
LINE
  5
FB9D
  8
01
 10
1001.187665166324
 20
-2174.2369486528401
 30
0.0
 11
1001.187665166324
 21
-2173.2369486528401
 31
0.0
  0
LINE
  5
FB9E
  8
01
 10
1007.187665166324
 20
-2174.236948652841
 30
0.0
 11
1007.187665166324
 21
-2173.2369486528401
 31
0.0
  0
ARC
  5
FB9F
  8
01
 10
997.68766516632445
 20
-2174.236948652841
 30
0.0
 40
3.5
 50
179.99999999997391
 51
0.0
  0
ARC
  5
FBA0
  8
01
 10
1010.687665166325
 20
-2174.236948652841
 30
0.0
 40
3.5
 50
180.0
 51
0.0
  0
CIRCLE
  5
FBA1
  8
01
 10
1004.187665166036
 20
-2181.7369486531302
 30
0.0
 40
6.0
  0
LINE
  5
FBA2
  8
01
 10
994.18766516632445
 20
-2173.2369486528401
 30
0.0
 11
984.41394491058077
 21
-2173.2369486528401
 31
0.0
  0
LINE
  5
FBA3
  8
01
  6
BYBLOCK
 10
984.41394491058077
 20
-2173.2369486528401
 30
0.0
 11
956.18766516632468
 21
-2173.2369486528401
 31
0.0
  0
LINE
  5
FBA4
  8
01
 10
994.18766516632434
 20
-2174.2369486528401
 30
0.0
 11
994.18766516632445
 21
-2173.2369486528401
 31
0.0
  0
LINE
  5
FBA5
  8
01
 10
1014.187665166325
 20
-2174.236948652841
 30
0.0
 11
1014.187665166325
 21
-2173.2369486528401
 31
0.0
  0
LINE
  5
FBA6
  8
01
  6
BYBLOCK
 10
683.96138509960645
 20
-2173.2369486528401
 30
0.0
 11
712.18767316632375
 21
-2173.2369486528401
 31
0.0
  0
LINE
  5
FBA7
  8
01
  6
BYBLOCK
 10
1010.188549348096
 20
-1951.4869486538689
 30
0.0
 11
998.18854934809588
 21
-1951.4869486538689
 31
0.0
  0
LINE
  5
FBA8
  8
01
  6
BYBLOCK
 10
998.18854934809588
 20
-1971.9869486538689
 30
0.0
 11
1010.188549348096
 21
-1971.9869486538689
 31
0.0
  0
LINE
  5
FBA9
  8
01
  6
BYBLOCK
 10
998.18854934809588
 20
-1971.9869486538689
 30
0.0
 11
998.18854934809588
 21
-1971.2369486538689
 31
0.0
  0
LINE
  5
FBAA
  8
01
  6
BYBLOCK
 10
998.18854934809588
 20
-1952.2369486538689
 30
0.0
 11
998.18854934809588
 21
-1951.4869486538689
 31
0.0
  0
LINE
  5
FBAB
  8
01
  6
BYBLOCK
 10
1010.188549348096
 20
-1971.9869486538689
 30
0.0
 11
1010.188549348096
 21
-1971.2369486538689
 31
0.0
  0
LINE
  5
FBAC
  8
01
  6
BYBLOCK
 10
1010.188549348096
 20
-1952.2369486538689
 30
0.0
 11
1010.188549348096
 21
-1951.4869486538689
 31
0.0
  0
TEXT
  5
FD3A
  8
01
 10
1077.4730078236021
 20
-2002.6761341230369
 30
0.0
 40
4.5499999999999989
  1
材質：天然目
  0
TEXT
  5
FD3B
  8
01
 10
1077.4730078236021
 20
-2010.25946745637
 30
0.0
 40
4.5499999999999989
  1
仕上げ：各種仕上げ
  0
SOLID
  5
FD3C
  8
01
 10
1062.6759480803139
 20
-2025.066875833719
 30
0.0
 11
1060.6587802474819
 21
-2026.7635819697259
 31
0.0
 12
1062.0166289101051
 22
-2024.504373084477
 32
0.0
 13
1062.0166289101051
 23
-2024.504373084477
 33
0.0
1001
ACAD
1000
DSTYLE
1002
{
1070
    40
1040
1.3
1002
}
  0
LINE
  5
FD3E
  8
01
 10
1010.188549348096
 20
-1951.4869486538689
 30
0.0
 11
1045.3489401080969
 21
-1951.4869486538689
 31
0.0
  0
LINE
  5
FD3F
  8
01
 10
1010.188549348096
 20
-1971.9869486538689
 30
0.0
 11
1045.3489401080969
 21
-1971.9869486538689
 31
0.0
  0
LINE
  5
FD40
  8
01
 10
1044.0489401080979
 20
-1954.0869486538691
 30
0.0
 11
1044.0489401080979
 21
-1969.386948653869
 31
0.0
  0
TEXT
  5
FD44
  8
01
 10
914.58415959267495
 20
-2012.1536153205359
 30
0.0
 40
4.5499999999999989
  1
材質：亜鉛ダイキャスト
  0
TEXT
  5
FD45
  8
01
 10
925.50415959267502
 20
-2019.7369486538689
 30
0.0
 40
4.5499999999999989
  1
仕上げ：各種メッキ
  0
SOLID
  5
FD46
  8
01
 10
1001.610520805609
 20
-2000.890936793779
 30
0.0
 11
1003.928266406385
 21
-1999.635614879744
 31
0.0
 12
1002.142935783176
 22
-2001.574782831111
 32
0.0
 13
1002.142935783176
 23
-2001.574782831111
 33
0.0
1001
ACAD
1000
DSTYLE
1002
{
1070
    40
1040
1.3
1002
}
  0
LINE
  5
FD48
  8
01
 10
1022.187665166325
 20
-2173.2369486528401
 30
0.0
 11
1050.4876651663251
 21
-2173.236948652841
 31
0.0
  0
LINE
  5
FD49
  8
01
 10
1022.187665166325
 20
-2247.736948652841
 30
0.0
 11
1050.4876651663251
 21
-2247.736948652841
 31
0.0
  0
LINE
  5
FD4A
  8
01
 10
1049.1876651663249
 20
-2175.8369486528409
 30
0.0
 11
1049.1876651663249
 21
-2245.1369486528411
 31
0.0
  0
LINE
  5
FD4E
  8
01
 10
644.18767316632193
 20
-2176.236948652841
 30
0.0
 11
644.18767316632193
 21
-2147.4369486528399
 31
0.0
  0
LINE
  5
FD4F
  8
01
 10
684.18767316632216
 20
-2176.236948652841
 30
0.0
 11
684.18767316632216
 21
-2147.4369486528399
 31
0.0
  0
LINE
  5
FD50
  8
01
 10
646.78767316632195
 20
-2148.736948652841
 30
0.0
 11
681.58767316632213
 21
-2148.736948652841
 31
0.0
  0
LINE
  5
FD54
  8
01
 10
984.18766484386629
 20
-2176.236948652841
 30
0.0
 11
984.18766484386629
 21
-2147.4369486528399
 31
0.0
  0
LINE
  5
FD55
  8
01
 10
1024.1876648438649
 20
-2176.236948652825
 30
0.0
 11
1024.1876648438649
 21
-2147.4369486528399
 31
0.0
  0
LINE
  5
FD56
  8
01
 10
986.78766484386631
 20
-2148.736948652841
 30
0.0
 11
1021.587664843865
 21
-2148.736948652841
 31
0.0
  0
LINE
  5
FD5A
  8
01
 10
792.18728360060629
 20
-2171.7369536528308
 30
0.0
 11
792.18728360060629
 21
-2124.4369486528399
 31
0.0
  0
LINE
  5
FD5B
  8
01
 10
814.18766916632421
 20
-2139.2395686528412
 30
0.0
 11
814.18766916632421
 21
-2124.4369486528399
 31
0.0
  0
LINE
  5
FD5C
  8
01
 10
794.78728360060643
 20
-2125.736948652841
 30
0.0
 11
811.58766916632419
 21
-2125.736948652841
 31
0.0
  0
LINE
  5
FD60
  8
01
 10
854.18766916632421
 20
-2139.2395686528398
 30
0.0
 11
854.18766916632421
 21
-2124.4369486528399
 31
0.0
  0
LINE
  5
FD61
  8
01
 10
862.18743917632833
 20
-2181.7369471276988
 30
0.0
 11
862.18743917632833
 21
-2124.4369486528399
 31
0.0
  0
LINE
  5
FD62
  8
01
 10
856.78766916632424
 20
-2125.736948652841
 30
0.0
 11
859.5874391763283
 21
-2125.736948652841
 31
0.0
  0
LINE
  5
FD66
  8
01
 10
1076.998607968837
 20
-2217.2792080093582
 30
0.0
 11
1147.9869079688369
 21
-2217.2792080093582
 31
0.0
  0
LINE
  5
FD67
  8
01
 10
1076.9199079688369
 20
-2246.2172080093578
 30
0.0
 11
1147.9869079688369
 21
-2246.2172080093578
 31
0.0
  0
LINE
  5
FD68
  8
01
 10
1146.686907968837
 20
-2219.8792080093572
 30
0.0
 11
1146.686907968837
 21
-2243.6172080093579
 31
0.0
  0
LINE
  5
FD6C
  8
01
 10
1004.187665166324
 20
-2206.7374093483199
 30
0.0
 11
967.88766516632461
 21
-2206.7374093483199
 31
0.0
  0
LINE
  5
FD6D
  8
01
 10
1004.187665166324
 20
-2256.7364879573629
 30
0.0
 11
967.88766516632461
 21
-2256.7364879573629
 31
0.0
  0
LINE
  5
FD6E
  8
01
 10
969.18766516632456
 20
-2209.3374093483199
 30
0.0
 11
969.18766516632456
 21
-2254.1364879573621
 31
0.0
  0
LINE
  5
FD72
  8
01
 10
989.68763849485595
 20
-1990.7369486538689
 30
0.0
 11
989.68763849485595
 21
-2073.4285863915961
 31
0.0
  0
LINE
  5
FD73
  8
01
 10
1131.6862042138041
 20
-2032.6388514143171
 30
0.0
 11
1131.6862042138041
 21
-2073.4285863915961
 31
0.0
  0
LINE
  5
FD74
  8
01
 10
992.28763849485597
 20
-2072.128586391595
 30
0.0
 11
1129.086204213804
 21
-2072.128586391595
 31
0.0
  0
LINE
  5
FD78
  8
01
 10
1004.187781506069
 20
-2002.2369486538701
 30
0.0
 11
1004.187781506069
 21
-2063.4285863915961
 31
0.0
  0
LINE
  5
FD79
  8
01
 10
1131.6868438491099
 20
-2032.740013441605
 30
0.0
 11
1131.6868438491099
 21
-2063.4285863915961
 31
0.0
  0
LINE
  5
FD7A
  8
01
 10
1006.787781506069
 20
-2062.1285863915959
 30
0.0
 11
1129.08684384911
 21
-2062.1285863915959
 31
0.0
  0
LINE
  5
FD7E
  8
01
 10
1077.0027322090359
 20
-2047.196992242121
 30
0.0
 11
1157.9870243085811
 21
-2047.196992242121
 31
0.0
  0
LINE
  5
FD7F
  8
01
 10
1106.9429295034161
 20
-1981.7369486538689
 30
0.0
 11
1157.9870243085811
 21
-1981.7369486538689
 31
0.0
  0
LINE
  5
FD80
  8
01
 10
1156.68702430858
 20
-2044.5969922421209
 30
0.0
 11
1156.68702430858
 21
-1984.3369486538691
 31
0.0
  0
LINE
  5
FD84
  8
01
 10
1157.694383798651
 20
-1981.7369486538689
 30
0.0
 11
1145.3870243085821
 21
-1981.7369486538689
 31
0.0
  0
LINE
  5
FD85
  8
01
 10
1076.9156560676199
 20
-2018.258990144984
 30
0.0
 11
1147.987024308582
 21
-2018.258990144984
 31
0.0
  0
LINE
  5
FD86
  8
01
 10
1146.6870243085821
 20
-1984.3369486538691
 30
0.0
 11
1146.6870243085821
 21
-2015.658990144984
 31
0.0
  0
LINE
  5
FD8A
  8
01
 10
840.68766916632421
 20
-2145.736948652841
 30
0.0
 11
895.48766916632394
 21
-2145.736948652841
 31
0.0
  0
LINE
  5
FD8B
  8
01
 10
840.68766916632421
 20
-2275.7369486528401
 30
0.0
 11
895.48766916632394
 21
-2275.7369486528401
 31
0.0
  0
LINE
  5
FD8C
  8
01
 10
894.18766916632387
 20
-2148.33694865284
 30
0.0
 11
894.18766916632387
 21
-2273.1369486528411
 31
0.0
  0
LINE
  5
FD90
  8
01
 10
840.68766916632421
 20
-2153.736948652841
 30
0.0
 11
879.99126020288065
 21
-2153.736948652841
 31
0.0
  0
LINE
  5
FD91
  8
01
 10
840.68766916632421
 20
-2267.7369486528401
 30
0.0
 11
879.99126020288065
 21
-2267.7369486528401
 31
0.0
  0
LINE
  5
FD92
  8
01
 10
878.69126020288058
 20
-2156.3369486528409
 30
0.0
 11
878.69126020288058
 21
-2265.1369486528411
 31
0.0
  0
LINE
  5
FD96
  8
01
 10
634.18767316632375
 20
-2231.736948652841
 30
0.0
 11
619.88768516632422
 21
-2231.736948652841
 31
0.0
  0
LINE
  5
FD97
  8
01
 10
641.68766516632309
 20
-2176.236948652841
 30
0.0
 11
619.88768516632422
 21
-2176.236948652841
 31
0.0
  0
LINE
  5
FD98
  8
01
 10
621.18768516632406
 20
-2229.1369486528411
 30
0.0
 11
621.18768516632406
 21
-2178.8369486528409
 31
0.0
  0
LINE
  5
FD9C
  8
01
 10
634.18767316632375
 20
-2231.736948652841
 30
0.0
 11
629.88768516632422
 21
-2231.736948652841
 31
0.0
  0
LINE
  5
FD9D
  8
01
 10
651.18766516632297
 20
-2181.736948652841
 30
0.0
 11
629.88768516632422
 21
-2181.736948652841
 31
0.0
  0
LINE
  5
FD9E
  8
01
 10
631.18768516632406
 20
-2229.1369486528411
 30
0.0
 11
631.18768516632406
 21
-2184.3369486528409
 31
0.0
  0
LINE
  5
FDA2
  8
01
 10
800.9867072720009
 20
-2230.986948652841
 30
0.0
 11
799.68766916632421
 21
-2230.236948652841
 31
0.0
  0
LINE
  5
FDA3
  8
01
 10
799.68766916632421
 20
-2230.236948652841
 30
0.0
 11
798.38863106064764
 21
-2230.986948652841
 31
0.0
  0
LINE
  5
FDA4
  8
01
 10
798.38863106064764
 20
-2230.986948652841
 30
0.0
 11
798.38863106064764
 21
-2232.486948652841
 31
0.0
  0
LINE
  5
FDA5
  8
01
 10
798.38863106064764
 20
-2232.486948652841
 30
0.0
 11
799.68766916632421
 21
-2233.236948652841
 31
0.0
  0
LINE
  5
FDA6
  8
01
 10
799.68766916632421
 20
-2233.236948652841
 30
0.0
 11
800.9867072720009
 21
-2232.486948652841
 31
0.0
  0
LINE
  5
FDA7
  8
01
 10
800.9867072720009
 20
-2232.486948652841
 30
0.0
 11
800.9867072720009
 21
-2230.986948652841
 31
0.0
  0
CIRCLE
  5
FDA8
  8
01
 10
799.68766916632421
 20
-2231.736948652841
 30
0.0
 40
3.0
  0
CIRCLE
  5
FDA9
  8
01
 10
868.68766916632421
 20
-2231.736948652841
 30
0.0
 40
3.0
  0
LINE
  5
FDAA
  8
01
 10
953.18766516632456
 20
-2145.736948652841
 30
0.0
 11
953.18766516632456
 21
-2124.4369486528399
 31
0.0
  0
LINE
  5
FDAB
  8
01
 10
1004.187673166325
 20
-2153.736948652841
 30
0.0
 11
1004.187673166325
 21
-2124.4369486528399
 31
0.0
  0
LINE
  5
FDAC
  8
01
 10
955.78766516632481
 20
-2125.736948652841
 30
0.0
 11
1001.587673166325
 21
-2125.736948652841
 31
0.0
  0
LINE
  5
FDB0
  8
01
 10
1022.187665166325
 20
-2173.736948652841
 30
0.0
 11
1022.187665166325
 21
-2114.4369486528408
 31
0.0
  0
LINE
  5
FDB1
  8
01
 10
953.18766516632456
 20
-2145.736948652841
 30
0.0
 11
953.18766516632456
 21
-2114.4369486528408
 31
0.0
  0
LINE
  5
FDB2
  8
01
 10
1019.587665166324
 20
-2115.736948652841
 30
0.0
 11
955.78766516632481
 21
-2115.736948652841
 31
0.0
  0
LINE
  5
FDB6
  8
01
 10
942.18766516632468
 20
-2203.7369493509718
 30
0.0
 11
942.18766516632468
 21
-2124.4369486528399
 31
0.0
  0
LINE
  5
FDB7
  8
01
 10
953.18766516632456
 20
-2145.736948652841
 30
0.0
 11
953.18766516632456
 21
-2124.4369486528399
 31
0.0
  0
LINE
  5
FDB8
  8
01
 10
944.78766516632459
 20
-2125.736948652841
 30
0.0
 11
950.58766516632465
 21
-2125.736948652841
 31
0.0
  0
LINE
  5
FDBC
  8
01
 10
821.6876691663241
 20
-2151.736948652841
 30
0.0
 11
821.6876691663241
 21
-2124.4369486528399
 31
0.0
  0
LINE
  5
FDBD
  8
01
 10
846.6876691663241
 20
-2151.736948652841
 30
0.0
 11
846.6876691663241
 21
-2124.4369486528399
 31
0.0
  0
LINE
  5
FDBE
  8
01
 10
824.28766916632424
 20
-2125.736948652841
 30
0.0
 11
844.08766916632408
 21
-2125.736948652841
 31
0.0
  0
TEXT
  5
FDC2
  8
01
 10
829.85433583299096
 20
-2124.8269486528411
 30
0.0
 40
4.5499999999999989
  1
25
  0
LINE
  5
FDC3
  8
01
  6
BYBLOCK
 10
844.08766916632408
 20
-2125.0402807588412
 30
0.0
 11
846.6876691663241
 21
-2125.736948652841
 31
0.0
  0
LINE
  5
FDC4
  8
01
  6
BYBLOCK
 10
846.6876691663241
 20
-2125.736948652841
 30
0.0
 11
844.08766916632408
 21
-2126.4336165468399
 31
0.0
  0
LINE
  5
FDC5
  8
01
  6
BYBLOCK
 10
846.6876691663241
 20
-2125.736948652841
 30
0.0
 11
844.08766916632408
 21
-2125.736948652841
 31
0.0
  0
LINE
  5
FDC6
  8
01
  6
BYBLOCK
 10
824.28766916632424
 20
-2126.4336165468399
 30
0.0
 11
821.6876691663241
 21
-2125.736948652841
 31
0.0
  0
LINE
  5
FDC7
  8
01
  6
BYBLOCK
 10
821.6876691663241
 20
-2125.736948652841
 30
0.0
 11
824.28766916632424
 21
-2125.0402807588412
 31
0.0
  0
LINE
  5
FDC8
  8
01
  6
BYBLOCK
 10
821.6876691663241
 20
-2125.736948652841
 30
0.0
 11
824.28766916632424
 21
-2125.736948652841
 31
0.0
  0
TEXT
  5
FDC9
  8
01
 10
943.67933183299135
 20
-2124.8269486528411
 30
0.0
 40
4.5499999999999989
  1
11
  0
LINE
  5
FDCA
  8
01
  6
BYBLOCK
 10
950.58766516632465
 20
-2125.0402807588412
 30
0.0
 11
953.18766516632456
 21
-2125.736948652841
 31
0.0
  0
LINE
  5
FDCB
  8
01
  6
BYBLOCK
 10
953.18766516632456
 20
-2125.736948652841
 30
0.0
 11
950.58766516632465
 21
-2126.4336165468399
 31
0.0
  0
LINE
  5
FDCC
  8
01
  6
BYBLOCK
 10
953.18766516632456
 20
-2125.736948652841
 30
0.0
 11
950.58766516632465
 21
-2125.736948652841
 31
0.0
  0
LINE
  5
FDCD
  8
01
  6
BYBLOCK
 10
944.78766516632459
 20
-2126.4336165468399
 30
0.0
 11
942.18766516632468
 21
-2125.736948652841
 31
0.0
  0
LINE
  5
FDCE
  8
01
  6
BYBLOCK
 10
942.18766516632468
 20
-2125.736948652841
 30
0.0
 11
944.78766516632459
 21
-2125.0402807588412
 31
0.0
  0
LINE
  5
FDCF
  8
01
  6
BYBLOCK
 10
942.18766516632468
 20
-2125.736948652841
 30
0.0
 11
944.78766516632459
 21
-2125.736948652841
 31
0.0
  0
TEXT
  5
FDD0
  8
01
 10
983.35433183299142
 20
-2114.8269486528411
 30
0.0
 40
4.5499999999999989
  1
69
  0
LINE
  5
FDD1
  8
01
  6
BYBLOCK
 10
955.78766516632481
 20
-2116.4336165468399
 30
0.0
 11
953.18766516632456
 21
-2115.736948652841
 31
0.0
  0
LINE
  5
FDD2
  8
01
  6
BYBLOCK
 10
953.18766516632456
 20
-2115.736948652841
 30
0.0
 11
955.78766516632481
 21
-2115.0402807588412
 31
0.0
  0
LINE
  5
FDD3
  8
01
  6
BYBLOCK
 10
953.18766516632456
 20
-2115.736948652841
 30
0.0
 11
955.78766516632481
 21
-2115.736948652841
 31
0.0
  0
LINE
  5
FDD4
  8
01
  6
BYBLOCK
 10
1019.587665166324
 20
-2115.0402807588412
 30
0.0
 11
1022.187665166325
 21
-2115.736948652841
 31
0.0
  0
LINE
  5
FDD5
  8
01
  6
BYBLOCK
 10
1022.187665166325
 20
-2115.736948652841
 30
0.0
 11
1019.587665166324
 21
-2116.4336165468399
 31
0.0
  0
LINE
  5
FDD6
  8
01
  6
BYBLOCK
 10
1022.187665166325
 20
-2115.736948652841
 30
0.0
 11
1019.587665166324
 21
-2115.736948652841
 31
0.0
  0
TEXT
  5
FDD7
  8
01
 10
975.00433583299184
 20
-2124.8269486528411
 30
0.0
 40
4.5499999999999989
  1
51
  0
LINE
  5
FDD8
  8
01
  6
BYBLOCK
 10
1001.587673166325
 20
-2125.0402807588412
 30
0.0
 11
1004.187673166325
 21
-2125.736948652841
 31
0.0
  0
LINE
  5
FDD9
  8
01
  6
BYBLOCK
 10
1004.187673166325
 20
-2125.736948652841
 30
0.0
 11
1001.587673166325
 21
-2126.4336165468399
 31
0.0
  0
LINE
  5
FDDA
  8
01
  6
BYBLOCK
 10
1004.187673166325
 20
-2125.736948652841
 30
0.0
 11
1001.587673166325
 21
-2125.736948652841
 31
0.0
  0
LINE
  5
FDDB
  8
01
  6
BYBLOCK
 10
955.78766516632481
 20
-2126.4336165468399
 30
0.0
 11
953.18766516632456
 21
-2125.736948652841
 31
0.0
  0
LINE
  5
FDDC
  8
01
  6
BYBLOCK
 10
953.18766516632456
 20
-2125.736948652841
 30
0.0
 11
955.78766516632481
 21
-2125.0402807588412
 31
0.0
  0
LINE
  5
FDDD
  8
01
  6
BYBLOCK
 10
953.18766516632456
 20
-2125.736948652841
 30
0.0
 11
955.78766516632481
 21
-2125.736948652841
 31
0.0
  0
TEXT
  5
FDDE
  8
01
 10
630.27768516632455
 20
-2211.070281986174
 30
0.0
 40
4.5499999999999989
  1
50
 50
90.0
  0
LINE
  5
FDDF
  8
01
  6
BYBLOCK
 10
630.49101727232414
 20
-2184.3369486528409
 30
0.0
 11
631.18768516632406
 21
-2181.736948652841
 31
0.0
  0
LINE
  5
FDE0
  8
01
  6
BYBLOCK
 10
631.18768516632406
 20
-2181.736948652841
 30
0.0
 11
631.8843530603242
 21
-2184.3369486528409
 31
0.0
  0
LINE
  5
FDE1
  8
01
  6
BYBLOCK
 10
631.18768516632406
 20
-2181.736948652841
 30
0.0
 11
631.18768516632406
 21
-2184.3369486528409
 31
0.0
  0
LINE
  5
FDE2
  8
01
  6
BYBLOCK
 10
631.8843530603242
 20
-2229.1369486528411
 30
0.0
 11
631.18768516632406
 21
-2231.736948652841
 31
0.0
  0
LINE
  5
FDE3
  8
01
  6
BYBLOCK
 10
631.18768516632406
 20
-2231.736948652841
 30
0.0
 11
630.49101727232414
 21
-2229.1369486528411
 31
0.0
  0
LINE
  5
FDE4
  8
01
  6
BYBLOCK
 10
631.18768516632406
 20
-2231.736948652841
 30
0.0
 11
631.18768516632406
 21
-2229.1369486528411
 31
0.0
  0
TEXT
  5
FDE5
  8
01
 10
620.27768516632455
 20
-2211.570281986174
 30
0.0
 40
4.5499999999999989
  1
55.5
 50
90.0
  0
LINE
  5
FDE6
  8
01
  6
BYBLOCK
 10
620.49101727232414
 20
-2178.8369486528409
 30
0.0
 11
621.18768516632406
 21
-2176.236948652841
 31
0.0
  0
LINE
  5
FDE7
  8
01
  6
BYBLOCK
 10
621.18768516632406
 20
-2176.236948652841
 30
0.0
 11
621.88435306032409
 21
-2178.8369486528409
 31
0.0
  0
LINE
  5
FDE8
  8
01
  6
BYBLOCK
 10
621.18768516632406
 20
-2176.236948652841
 30
0.0
 11
621.18768516632406
 21
-2178.8369486528409
 31
0.0
  0
LINE
  5
FDE9
  8
01
  6
BYBLOCK
 10
621.88435306032409
 20
-2229.1369486528411
 30
0.0
 11
621.18768516632406
 21
-2231.736948652841
 31
0.0
  0
LINE
  5
FDEA
  8
01
  6
BYBLOCK
 10
621.18768516632406
 20
-2231.736948652841
 30
0.0
 11
620.49101727232414
 21
-2229.1369486528411
 31
0.0
  0
LINE
  5
FDEB
  8
01
  6
BYBLOCK
 10
621.18768516632406
 20
-2231.736948652841
 30
0.0
 11
621.18768516632406
 21
-2229.1369486528411
 31
0.0
  0
TEXT
  5
FDEC
  8
01
 10
877.78126020288107
 20
-2199.856561305859
 30
0.0
 40
4.5499999999999989
  1
114
 50
90.0
  0
LINE
  5
FDED
  8
01
  6
BYBLOCK
 10
879.38792809688073
 20
-2265.1369486528411
 30
0.0
 11
878.69126020288058
 21
-2267.7369486528401
 31
0.0
  0
LINE
  5
FDEE
  8
01
  6
BYBLOCK
 10
878.69126020288058
 20
-2267.7369486528401
 30
0.0
 11
877.99459230888056
 21
-2265.1369486528411
 31
0.0
  0
LINE
  5
FDEF
  8
01
  6
BYBLOCK
 10
878.69126020288058
 20
-2267.7369486528401
 30
0.0
 11
878.69126020288058
 21
-2265.1369486528411
 31
0.0
  0
LINE
  5
FDF0
  8
01
  6
BYBLOCK
 10
877.99459230888056
 20
-2156.3369486528409
 30
0.0
 11
878.69126020288058
 21
-2153.736948652841
 31
0.0
  0
LINE
  5
FDF1
  8
01
  6
BYBLOCK
 10
878.69126020288058
 20
-2153.736948652841
 30
0.0
 11
879.38792809688073
 21
-2156.3369486528409
 31
0.0
  0
LINE
  5
FDF2
  8
01
  6
BYBLOCK
 10
878.69126020288058
 20
-2153.736948652841
 30
0.0
 11
878.69126020288058
 21
-2156.3369486528409
 31
0.0
  0
TEXT
  5
FDF3
  8
01
 10
893.27766916632424
 20
-2199.7482279725259
 30
0.0
 40
4.5499999999999989
  1
130
 50
90.0
  0
LINE
  5
FDF4
  8
01
  6
BYBLOCK
 10
894.88433706032379
 20
-2273.1369486528411
 30
0.0
 11
894.18766916632387
 21
-2275.7369486528401
 31
0.0
  0
LINE
  5
FDF5
  8
01
  6
BYBLOCK
 10
894.18766916632387
 20
-2275.7369486528401
 30
0.0
 11
893.49100127232373
 21
-2273.1369486528411
 31
0.0
  0
LINE
  5
FDF6
  8
01
  6
BYBLOCK
 10
894.18766916632387
 20
-2275.7369486528401
 30
0.0
 11
894.18766916632387
 21
-2273.1369486528411
 31
0.0
  0
LINE
  5
FDF7
  8
01
  6
BYBLOCK
 10
893.49100127232373
 20
-2148.33694865284
 30
0.0
 11
894.18766916632387
 21
-2145.736948652841
 31
0.0
  0
LINE
  5
FDF8
  8
01
  6
BYBLOCK
 10
894.18766916632387
 20
-2145.736948652841
 30
0.0
 11
894.88433706032379
 21
-2148.33694865284
 31
0.0
  0
LINE
  5
FDF9
  8
01
  6
BYBLOCK
 10
894.18766916632387
 20
-2145.736948652841
 30
0.0
 11
894.18766916632387
 21
-2148.33694865284
 31
0.0
  0
TEXT
  5
FDFA
  8
01
 10
1145.777024308582
 20
-2007.5813027327599
 30
0.0
 40
4.5499999999999989
  1
36.5
 50
90.0
  0
LINE
  5
FDFB
  8
01
  6
BYBLOCK
 10
1147.3836922025821
 20
-2015.658990144984
 30
0.0
 11
1146.6870243085821
 21
-2018.258990144984
 31
0.0
  0
LINE
  5
FDFC
  8
01
  6
BYBLOCK
 10
1146.6870243085821
 20
-2018.258990144984
 30
0.0
 11
1145.990356414582
 21
-2015.658990144984
 31
0.0
  0
LINE
  5
FDFD
  8
01
  6
BYBLOCK
 10
1146.6870243085821
 20
-2018.258990144984
 30
0.0
 11
1146.6870243085821
 21
-2015.658990144984
 31
0.0
  0
LINE
  5
FDFE
  8
01
  6
BYBLOCK
 10
1145.990356414582
 20
-1984.3369486538691
 30
0.0
 11
1146.6870243085821
 21
-1981.7369486538689
 31
0.0
  0
LINE
  5
FDFF
  8
01
  6
BYBLOCK
 10
1146.6870243085821
 20
-1981.7369486538689
 30
0.0
 11
1147.3836922025821
 21
-1984.3369486538691
 31
0.0
  0
LINE
  5
FE00
  8
01
  6
BYBLOCK
 10
1146.6870243085821
 20
-1981.7369486538689
 30
0.0
 11
1146.6870243085821
 21
-1984.3369486538691
 31
0.0
  0
TEXT
  5
FE01
  8
01
 10
1155.7770243085811
 20
-2022.158637114662
 30
0.0
 40
4.5499999999999989
  1
65.5
 50
90.0
  0
LINE
  5
FE02
  8
01
  6
BYBLOCK
 10
1155.9903564145809
 20
-1984.3369486538691
 30
0.0
 11
1156.68702430858
 21
-1981.7369486538689
 31
0.0
  0
LINE
  5
FE03
  8
01
  6
BYBLOCK
 10
1156.68702430858
 20
-1981.7369486538689
 30
0.0
 11
1157.3836922025801
 21
-1984.3369486538691
 31
0.0
  0
LINE
  5
FE04
  8
01
  6
BYBLOCK
 10
1156.68702430858
 20
-1981.7369486538689
 30
0.0
 11
1156.68702430858
 21
-1984.3369486538691
 31
0.0
  0
LINE
  5
FE05
  8
01
  6
BYBLOCK
 10
1157.3836922025801
 20
-2044.5969922421209
 30
0.0
 11
1156.68702430858
 21
-2047.196992242121
 31
0.0
  0
LINE
  5
FE06
  8
01
  6
BYBLOCK
 10
1156.68702430858
 20
-2047.196992242121
 30
0.0
 11
1155.9903564145809
 21
-2044.5969922421209
 31
0.0
  0
LINE
  5
FE07
  8
01
  6
BYBLOCK
 10
1156.68702430858
 20
-2047.196992242121
 30
0.0
 11
1156.68702430858
 21
-2044.5969922421209
 31
0.0
  0
TEXT
  5
FE08
  8
01
 10
1057.8623126775899
 20
-2061.2185863915961
 30
0.0
 40
4.5499999999999989
  1
127.5
  0
LINE
  5
FE09
  8
01
  6
BYBLOCK
 10
1129.08684384911
 20
-2061.4319184975961
 30
0.0
 11
1131.6868438491099
 21
-2062.1285863915959
 31
0.0
  0
LINE
  5
FE0A
  8
01
  6
BYBLOCK
 10
1131.6868438491099
 20
-2062.1285863915959
 30
0.0
 11
1129.08684384911
 21
-2062.8252542855948
 31
0.0
  0
LINE
  5
FE0B
  8
01
  6
BYBLOCK
 10
1131.6868438491099
 20
-2062.1285863915959
 30
0.0
 11
1129.08684384911
 21
-2062.1285863915959
 31
0.0
  0
LINE
  5
FE0C
  8
01
  6
BYBLOCK
 10
1006.787781506069
 20
-2062.8252542855948
 30
0.0
 11
1004.187781506069
 21
-2062.1285863915959
 31
0.0
  0
LINE
  5
FE0D
  8
01
  6
BYBLOCK
 10
1004.187781506069
 20
-2062.1285863915959
 30
0.0
 11
1006.787781506069
 21
-2061.4319184975961
 31
0.0
  0
LINE
  5
FE0E
  8
01
  6
BYBLOCK
 10
1004.187781506069
 20
-2062.1285863915959
 30
0.0
 11
1006.787781506069
 21
-2062.1285863915959
 31
0.0
  0
TEXT
  5
FE0F
  8
01
 10
1053.86192135433
 20
-2071.2185863915961
 30
0.0
 40
4.5499999999999989
  1
142
  0
LINE
  5
FE10
  8
01
  6
BYBLOCK
 10
1129.086204213804
 20
-2071.4319184975961
 30
0.0
 11
1131.6862042138041
 21
-2072.128586391595
 31
0.0
  0
LINE
  5
FE11
  8
01
  6
BYBLOCK
 10
1131.6862042138041
 20
-2072.128586391595
 30
0.0
 11
1129.086204213804
 21
-2072.8252542855948
 31
0.0
  0
LINE
  5
FE12
  8
01
  6
BYBLOCK
 10
1131.6862042138041
 20
-2072.128586391595
 30
0.0
 11
1129.086204213804
 21
-2072.128586391595
 31
0.0
  0
LINE
  5
FE13
  8
01
  6
BYBLOCK
 10
992.28763849485597
 20
-2072.8252542855948
 30
0.0
 11
989.68763849485595
 21
-2072.128586391595
 31
0.0
  0
LINE
  5
FE14
  8
01
  6
BYBLOCK
 10
989.68763849485595
 20
-2072.128586391595
 30
0.0
 11
992.28763849485597
 21
-2071.4319184975961
 31
0.0
  0
LINE
  5
FE15
  8
01
  6
BYBLOCK
 10
989.68763849485595
 20
-2072.128586391595
 30
0.0
 11
992.28763849485597
 21
-2072.128586391595
 31
0.0
  0
TEXT
  5
FE16
  8
01
 10
968.27766516632505
 20
-2238.9302819861741
 30
0.0
 40
4.5499999999999989
  1
\U+03C650
 50
90.0
  0
LINE
  5
FE17
  8
01
  6
BYBLOCK
 10
969.88433306032471
 20
-2254.1364879573621
 30
0.0
 11
969.18766516632456
 21
-2256.7364879573629
 31
0.0
  0
LINE
  5
FE18
  8
01
  6
BYBLOCK
 10
969.18766516632456
 20
-2256.7364879573629
 30
0.0
 11
968.49099727232465
 21
-2254.1364879573621
 31
0.0
  0
LINE
  5
FE19
  8
01
  6
BYBLOCK
 10
969.18766516632456
 20
-2256.7364879573629
 30
0.0
 11
969.18766516632456
 21
-2254.1364879573621
 31
0.0
  0
LINE
  5
FE1A
  8
01
  6
BYBLOCK
 10
968.49099727232465
 20
-2209.3374093483199
 30
0.0
 11
969.18766516632456
 21
-2206.7374093483199
 31
0.0
  0
LINE
  5
FE1B
  8
01
  6
BYBLOCK
 10
969.18766516632456
 20
-2206.7374093483199
 30
0.0
 11
969.88433306032471
 21
-2209.3374093483199
 31
0.0
  0
LINE
  5
FE1C
  8
01
  6
BYBLOCK
 10
969.18766516632456
 20
-2206.7374093483199
 30
0.0
 11
969.18766516632456
 21
-2209.3374093483199
 31
0.0
  0
TEXT
  5
FE1D
  8
01
 10
1145.7769079688369
 20
-2238.8332080093569
 30
0.0
 40
4.5499999999999989
  1
\U+03C629
 50
90.0
  0
LINE
  5
FE1E
  8
01
  6
BYBLOCK
 10
1147.383575862837
 20
-2243.6172080093579
 30
0.0
 11
1146.686907968837
 21
-2246.2172080093578
 31
0.0
  0
LINE
  5
FE1F
  8
01
  6
BYBLOCK
 10
1146.686907968837
 20
-2246.2172080093578
 30
0.0
 11
1145.9902400748369
 21
-2243.6172080093579
 31
0.0
  0
LINE
  5
FE20
  8
01
  6
BYBLOCK
 10
1146.686907968837
 20
-2246.2172080093578
 30
0.0
 11
1146.686907968837
 21
-2243.6172080093579
 31
0.0
  0
LINE
  5
FE21
  8
01
  6
BYBLOCK
 10
1145.9902400748369
 20
-2219.8792080093572
 30
0.0
 11
1146.686907968837
 21
-2217.2792080093582
 31
0.0
  0
LINE
  5
FE22
  8
01
  6
BYBLOCK
 10
1146.686907968837
 20
-2217.2792080093582
 30
0.0
 11
1147.383575862837
 21
-2219.8792080093572
 31
0.0
  0
LINE
  5
FE23
  8
01
  6
BYBLOCK
 10
1146.686907968837
 20
-2217.2792080093582
 30
0.0
 11
1146.686907968837
 21
-2219.8792080093572
 31
0.0
  0
TEXT
  5
FE24
  8
01
 10
856.02088750465964
 20
-2124.8269486528411
 30
0.0
 40
4.5499999999999989
  1
8
  0
LINE
  5
FE25
  8
01
  6
BYBLOCK
 10
859.5874391763283
 20
-2125.0402807588412
 30
0.0
 11
862.18743917632833
 21
-2125.736948652841
 31
0.0
  0
LINE
  5
FE26
  8
01
  6
BYBLOCK
 10
862.18743917632833
 20
-2125.736948652841
 30
0.0
 11
859.5874391763283
 21
-2126.4336165468399
 31
0.0
  0
LINE
  5
FE27
  8
01
  6
BYBLOCK
 10
862.18743917632833
 20
-2125.736948652841
 30
0.0
 11
859.5874391763283
 21
-2125.736948652841
 31
0.0
  0
LINE
  5
FE28
  8
01
  6
BYBLOCK
 10
856.78766916632424
 20
-2126.4336165468399
 30
0.0
 11
854.18766916632421
 21
-2125.736948652841
 31
0.0
  0
LINE
  5
FE29
  8
01
  6
BYBLOCK
 10
854.18766916632421
 20
-2125.736948652841
 30
0.0
 11
856.78766916632424
 21
-2125.0402807588412
 31
0.0
  0
LINE
  5
FE2A
  8
01
  6
BYBLOCK
 10
854.18766916632421
 20
-2125.736948652841
 30
0.0
 11
856.78766916632424
 21
-2125.736948652841
 31
0.0
  0
TEXT
  5
FE2B
  8
01
 10
798.85414305013205
 20
-2124.8269486528411
 30
0.0
 40
4.5499999999999989
  1
22
  0
LINE
  5
FE2C
  8
01
  6
BYBLOCK
 10
811.58766916632419
 20
-2125.0402807588412
 30
0.0
 11
814.18766916632421
 21
-2125.736948652841
 31
0.0
  0
LINE
  5
FE2D
  8
01
  6
BYBLOCK
 10
814.18766916632421
 20
-2125.736948652841
 30
0.0
 11
811.58766916632419
 21
-2126.4336165468399
 31
0.0
  0
LINE
  5
FE2E
  8
01
  6
BYBLOCK
 10
814.18766916632421
 20
-2125.736948652841
 30
0.0
 11
811.58766916632419
 21
-2125.736948652841
 31
0.0
  0
LINE
  5
FE2F
  8
01
  6
BYBLOCK
 10
794.78728360060643
 20
-2126.4336165468399
 30
0.0
 11
792.18728360060629
 21
-2125.736948652841
 31
0.0
  0
LINE
  5
FE30
  8
01
  6
BYBLOCK
 10
792.18728360060629
 20
-2125.736948652841
 30
0.0
 11
794.78728360060643
 21
-2125.0402807588412
 31
0.0
  0
LINE
  5
FE31
  8
01
  6
BYBLOCK
 10
792.18728360060629
 20
-2125.736948652841
 30
0.0
 11
794.78728360060643
 21
-2125.736948652841
 31
0.0
  0
TEXT
  5
FE32
  8
01
 10
996.99433151053267
 20
-2147.8269486528411
 30
0.0
 40
4.5499999999999989
  1
\U+03C640
  0
LINE
  5
FE33
  8
01
  6
BYBLOCK
 10
1021.587664843865
 20
-2148.0402807588412
 30
0.0
 11
1024.1876648438649
 21
-2148.736948652841
 31
0.0
  0
LINE
  5
FE34
  8
01
  6
BYBLOCK
 10
1024.1876648438649
 20
-2148.736948652841
 30
0.0
 11
1021.587664843865
 21
-2149.4336165468399
 31
0.0
  0
LINE
  5
FE35
  8
01
  6
BYBLOCK
 10
1024.1876648438649
 20
-2148.736948652841
 30
0.0
 11
1021.587664843865
 21
-2148.736948652841
 31
0.0
  0
LINE
  5
FE36
  8
01
  6
BYBLOCK
 10
986.78766484386631
 20
-2149.4336165468399
 30
0.0
 11
984.18766484386629
 21
-2148.736948652841
 31
0.0
  0
LINE
  5
FE37
  8
01
  6
BYBLOCK
 10
984.18766484386629
 20
-2148.736948652841
 30
0.0
 11
986.78766484386631
 21
-2148.0402807588412
 31
0.0
  0
LINE
  5
FE38
  8
01
  6
BYBLOCK
 10
984.18766484386629
 20
-2148.736948652841
 30
0.0
 11
986.78766484386631
 21
-2148.736948652841
 31
0.0
  0
TEXT
  5
FE39
  8
01
 10
656.99433983298866
 20
-2147.8269486528411
 30
0.0
 40
4.5499999999999989
  1
\U+03C640
  0
LINE
  5
FE3A
  8
01
  6
BYBLOCK
 10
681.58767316632213
 20
-2148.0402807588412
 30
0.0
 11
684.18767316632216
 21
-2148.736948652841
 31
0.0
  0
LINE
  5
FE3B
  8
01
  6
BYBLOCK
 10
684.18767316632216
 20
-2148.736948652841
 30
0.0
 11
681.58767316632213
 21
-2149.4336165468399
 31
0.0
  0
LINE
  5
FE3C
  8
01
  6
BYBLOCK
 10
684.18767316632216
 20
-2148.736948652841
 30
0.0
 11
681.58767316632213
 21
-2148.736948652841
 31
0.0
  0
LINE
  5
FE3D
  8
01
  6
BYBLOCK
 10
646.78767316632195
 20
-2149.4336165468399
 30
0.0
 11
644.18767316632193
 21
-2148.736948652841
 31
0.0
  0
LINE
  5
FE3E
  8
01
  6
BYBLOCK
 10
644.18767316632193
 20
-2148.736948652841
 30
0.0
 11
646.78767316632195
 21
-2148.0402807588412
 31
0.0
  0
LINE
  5
FE3F
  8
01
  6
BYBLOCK
 10
644.18767316632193
 20
-2148.736948652841
 30
0.0
 11
646.78767316632195
 21
-2148.736948652841
 31
0.0
  0
TEXT
  5
FE40
  8
01
 10
1048.2776651663251
 20
-2218.070281986174
 30
0.0
 40
4.5499999999999989
  1
74.5
 50
90.0
  0
LINE
  5
FE41
  8
01
  6
BYBLOCK
 10
1049.884333060324
 20
-2245.1369486528411
 30
0.0
 11
1049.1876651663249
 21
-2247.736948652841
 31
0.0
  0
LINE
  5
FE42
  8
01
  6
BYBLOCK
 10
1049.1876651663249
 20
-2247.736948652841
 30
0.0
 11
1048.490997272324
 21
-2245.1369486528411
 31
0.0
  0
LINE
  5
FE43
  8
01
  6
BYBLOCK
 10
1049.1876651663249
 20
-2247.736948652841
 30
0.0
 11
1049.1876651663249
 21
-2245.1369486528411
 31
0.0
  0
LINE
  5
FE44
  8
01
  6
BYBLOCK
 10
1048.490997272324
 20
-2175.8369486528409
 30
0.0
 11
1049.1876651663249
 21
-2173.236948652841
 31
0.0
  0
LINE
  5
FE45
  8
01
  6
BYBLOCK
 10
1049.1876651663249
 20
-2173.236948652841
 30
0.0
 11
1049.884333060324
 21
-2175.8369486528409
 31
0.0
  0
LINE
  5
FE46
  8
01
  6
BYBLOCK
 10
1049.1876651663249
 20
-2173.236948652841
 30
0.0
 11
1049.1876651663249
 21
-2175.8369486528409
 31
0.0
  0
LINE
  5
FE47
  8
01
 10
1001.876728294392
 20
-2001.232859812445
 30
0.0
 11
976.94082625934175
 21
-2020.646948653869
 31
0.0
1001
ACAD
1000
DSTYLE
1002
{
1070
    40
1040
1.3
1002
}
  0
LINE
  5
FE48
  8
01
 10
976.94082625934175
 20
-2020.646948653869
 30
0.0
 11
973.43082625934176
 21
-2020.646948653869
 31
0.0
1001
ACAD
1000
DSTYLE
1002
{
1070
    40
1040
1.3
1002
}
  0
TEXT
  5
FE49
  8
01
 10
1043.1389401080969
 20
-1969.320281987202
 30
0.0
 40
4.5499999999999989
  1
20.5
 50
90.0
  0
LINE
  5
FE4A
  8
01
  6
BYBLOCK
 10
1044.7456080020979
 20
-1969.386948653869
 30
0.0
 11
1044.0489401080979
 21
-1971.9869486538689
 31
0.0
  0
LINE
  5
FE4B
  8
01
  6
BYBLOCK
 10
1044.0489401080979
 20
-1971.9869486538689
 30
0.0
 11
1043.352272214097
 21
-1969.386948653869
 31
0.0
  0
LINE
  5
FE4C
  8
01
  6
BYBLOCK
 10
1044.0489401080979
 20
-1971.9869486538689
 30
0.0
 11
1044.0489401080979
 21
-1969.386948653869
 31
0.0
  0
LINE
  5
FE4D
  8
01
  6
BYBLOCK
 10
1043.352272214097
 20
-1954.0869486538691
 30
0.0
 11
1044.0489401080979
 21
-1951.4869486538689
 31
0.0
  0
LINE
  5
FE4E
  8
01
  6
BYBLOCK
 10
1044.0489401080979
 20
-1951.4869486538689
 30
0.0
 11
1044.7456080020979
 21
-1954.0869486538691
 31
0.0
  0
LINE
  5
FE4F
  8
01
  6
BYBLOCK
 10
1044.0489401080979
 20
-1951.4869486538689
 30
0.0
 11
1044.0489401080979
 21
-1954.0869486538691
 31
0.0
  0
LINE
  5
FE50
  8
01
 10
1062.34628849521
 20
-2024.785624459098
 30
0.0
 11
1073.9630078236021
 21
-2011.169467456371
 31
0.0
1001
ACAD
1000
DSTYLE
1002
{
1070
    40
1040
1.3
1002
}
  0
LINE
  5
FE51
  8
01
 10
1073.9630078236021
 20
-2011.169467456371
 30
0.0
 11
1077.4730078236021
 21
-2011.169467456371
 31
0.0
1001
ACAD
1000
DSTYLE
1002
{
1070
    40
1040
1.3
1002
}
  0
VIEWPORT
  5
57
 67
     1
  8
0
 10
-1.1987945533406901
 20
10.09791912461025
 30
0.0
 40
413.75333968864351
 41
268.75659409864102
 68
     1
 69
     1
1001
ACAD
1000
MVIEW
1002
{
1070
    16
1010
0.0
1020
0.0
1030
0.0
1010
0.0
1020
0.0
1030
1.0
1040
0.0
1040
268.75659409864102
1040
-1.1987945533406901
1040
10.09791912461025
1040
50.0
1040
0.0
1040
0.0
1070
     0
1070
   100
1070
     1
1070
     1
1070
     0
1070
     0
1070
     0
1070
     0
1040
0.0
1040
0.0
1040
0.0
1040
10.0
1040
10.0
1040
10.0
1040
10.0
1070
     0
1002
{
1002
}
1002
}
  0
ENDSEC
  0
EOF
