  0
SECTION
  2
HEADER
  9
$ACADVER
  1
AC1012
  9
$DWGCODEPAGE
  3
ansi_932
  9
$INSBASE
 10
0.0
 20
0.0
 30
0.0
  9
$EXTMIN
 10
4624.621159609456
 20
496.8400013409073
 30
0.0000000001057481
  9
$EXTMAX
 10
4943.049444991887
 20
736.8386830278047
 30
0.0000000001127424
  9
$LIMMIN
 10
0.0
 20
0.0
  9
$LIMMAX
 10
420.0
 20
297.0
  9
$ORTHOMODE
 70
     0
  9
$REGENMODE
 70
     1
  9
$FILLMODE
 70
     1
  9
$QTEXTMODE
 70
     0
  9
$MIRRTEXT
 70
     0
  9
$DRAGMODE
 70
     2
  9
$LTSCALE
 40
0.5
  9
$OSMODE
 70
 14463
  9
$ATTMODE
 70
     1
  9
$TEXTSIZE
 40
4.0
  9
$TRACEWID
 40
1.0
  9
$TEXTSTYLE
  7
STANDARD
  9
$CLAYER
  8
1TEXT
  9
$CELTYPE
  6
BYLAYER
  9
$CECOLOR
 62
   256
  9
$CELTSCALE
 40
1.0
  9
$DELOBJ
 70
     1
  9
$DISPSILH
 70
     0
  9
$DIMSCALE
 40
1.0
  9
$DIMASZ
 40
2.0
  9
$DIMEXO
 40
0.0
  9
$DIMDLI
 40
7.0
  9
$DIMRND
 40
0.0
  9
$DIMDLE
 40
0.0
  9
$DIMEXE
 40
1.0
  9
$DIMTP
 40
0.0
  9
$DIMTM
 40
0.0
  9
$DIMTXT
 40
3.5
  9
$DIMCEN
 40
0.0
  9
$DIMTSZ
 40
0.0
  9
$DIMTOL
 70
     0
  9
$DIMLIM
 70
     0
  9
$DIMTIH
 70
     0
  9
$DIMTOH
 70
     0
  9
$DIMSE1
 70
     0
  9
$DIMSE2
 70
     0
  9
$DIMTAD
 70
     1
  9
$DIMZIN
 70
     8
  9
$DIMBLK
  1

  9
$DIMASO
 70
     1
  9
$DIMSHO
 70
     1
  9
$DIMPOST
  1
 
  9
$DIMAPOST
  1

  9
$DIMALT
 70
     0
  9
$DIMALTD
 70
     2
  9
$DIMALTF
 40
25.4
  9
$DIMLFAC
 40
1.0
  9
$DIMTOFL
 70
     1
  9
$DIMTVP
 40
0.0
  9
$DIMTIX
 70
     0
  9
$DIMSOXD
 70
     0
  9
$DIMSAH
 70
     1
  9
$DIMBLK1
  1
OPEN30
  9
$DIMBLK2
  1
OPEN30
  9
$DIMSTYLE
  2
NEWX10
  9
$DIMCLRD
 70
   256
  9
$DIMCLRE
 70
   256
  9
$DIMCLRT
 70
   201
  9
$DIMTFAC
 40
0.7
  9
$DIMGAP
 40
0.7
  9
$DIMJUST
 70
     0
  9
$DIMSD1
 70
     0
  9
$DIMSD2
 70
     0
  9
$DIMTOLJ
 70
     1
  9
$DIMTZIN
 70
     8
  9
$DIMALTZ
 70
     0
  9
$DIMALTTZ
 70
     0
  9
$DIMFIT
 70
     2
  9
$DIMUPT
 70
     0
  9
$DIMUNIT
 70
     2
  9
$DIMDEC
 70
     2
  9
$DIMTDEC
 70
     4
  9
$DIMALTU
 70
     2
  9
$DIMALTTD
 70
     2
  9
$DIMTXSTY
  7
STANDARD
  9
$DIMAUNIT
 70
     0
  9
$LUNITS
 70
     2
  9
$LUPREC
 70
     4
  9
$SKETCHINC
 40
1.0
  9
$FILLETRAD
 40
0.0
  9
$AUNITS
 70
     0
  9
$AUPREC
 70
     2
  9
$MENU
  1
acad
  9
$ELEVATION
 40
0.0
  9
$PELEVATION
 40
0.0
  9
$THICKNESS
 40
0.0
  9
$LIMCHECK
 70
     0
  9
$CHAMFERA
 40
10.0
  9
$CHAMFERB
 40
10.0
  9
$CHAMFERC
 40
20.0
  9
$CHAMFERD
 40
0.0
  9
$SKPOLY
 70
     0
  9
$TDCREATE
 40
2451318.621352917
  9
$TDUPDATE
 40
2458159.443564861
  9
$TDINDWG
 40
1.4828288079
  9
$TDUSRTIMER
 40
1.4828288079
  9
$USRTIMER
 70
     1
  9
$ANGBASE
 50
0.0
  9
$ANGDIR
 70
     0
  9
$PDMODE
 70
     0
  9
$PDSIZE
 40
0.0
  9
$PLINEWID
 40
0.0
  9
$COORDS
 70
     2
  9
$SPLFRAME
 70
     0
  9
$SPLINETYPE
 70
     6
  9
$SPLINESEGS
 70
     8
  9
$ATTDIA
 70
     0
  9
$ATTREQ
 70
     1
  9
$HANDLING
 70
     1
  9
$HANDSEED
  5
E962
  9
$SURFTAB1
 70
     6
  9
$SURFTAB2
 70
     6
  9
$SURFTYPE
 70
     6
  9
$SURFU
 70
     6
  9
$SURFV
 70
     6
  9
$UCSNAME
  2

  9
$UCSORG
 10
0.0
 20
0.0
 30
0.0
  9
$UCSXDIR
 10
1.0
 20
0.0
 30
0.0
  9
$UCSYDIR
 10
0.0
 20
1.0
 30
0.0
  9
$PUCSNAME
  2

  9
$PUCSORG
 10
0.0
 20
0.0
 30
0.0
  9
$PUCSXDIR
 10
1.0
 20
0.0
 30
0.0
  9
$PUCSYDIR
 10
0.0
 20
1.0
 30
0.0
  9
$USERI1
 70
     0
  9
$USERI2
 70
     0
  9
$USERI3
 70
     0
  9
$USERI4
 70
     0
  9
$USERI5
 70
     0
  9
$USERR1
 40
0.0
  9
$USERR2
 40
0.0
  9
$USERR3
 40
0.0
  9
$USERR4
 40
0.0
  9
$USERR5
 40
0.0
  9
$WORLDVIEW
 70
     1
  9
$SHADEDGE
 70
     3
  9
$SHADEDIF
 70
    70
  9
$TILEMODE
 70
     1
  9
$MAXACTVP
 70
    48
  9
$PINSBASE
 10
0.0
 20
0.0
 30
0.0
  9
$PLIMCHECK
 70
     0
  9
$PEXTMIN
 10
1.000000000000000E+20
 20
1.000000000000000E+20
 30
1.000000000000000E+20
  9
$PEXTMAX
 10
-1.000000000000000E+20
 20
-1.000000000000000E+20
 30
-1.000000000000000E+20
  9
$PLIMMIN
 10
0.0
 20
0.0
  9
$PLIMMAX
 10
420.0
 20
297.0
  9
$UNITMODE
 70
     0
  9
$VISRETAIN
 70
     1
  9
$PLINEGEN
 70
     0
  9
$PSLTSCALE
 70
     1
  9
$TREEDEPTH
 70
  3020
  9
$PICKSTYLE
 70
     1
  9
$CMLSTYLE
  2
STANDARD
  9
$CMLJUST
 70
     0
  9
$CMLSCALE
 40
20.0
  9
$SAVEIMAGES
 70
     1
  0
ENDSEC
  0
SECTION
  2
CLASSES
  0
CLASS
  1
DICTIONARYVAR
  2
AcDbDictionaryVar
  3
ObjectDBX Classes
 90
        0
280
     0
281
     0
  0
CLASS
  1
IDBUFFER
  2
AcDbIdBuffer
  3
ObjectDBX Classes
 90
    32768
280
     0
281
     0
  0
CLASS
  1
LWPOLYLINE
  2
AcDbPolyline
  3
ObjectDBX Classes
 90
    32768
280
     0
281
     1
  0
CLASS
  1
ACDBDICTIONARYWDFLT
  2
AcDbDictionaryWithDefault
  3
ObjectDBX Classes
 90
    32768
280
     0
281
     0
  0
CLASS
  1
ACDBPLACEHOLDER
  2
AcDbPlaceHolder
  3
ObjectDBX Classes
 90
        0
280
     0
281
     0
  0
CLASS
  1
LAYOUT
  2
AcDbLayout
  3
ObjectDBX Classes
 90
        0
280
     0
281
     0
  0
CLASS
  1
TABLESTYLE
  2
AcDbTableStyle
  3
ObjectDBX Classes
 90
     4095
280
     0
281
     0
  0
CLASS
  1
SORTENTSTABLE
  2
AcDbSortentsTable
  3
ObjectDBX Classes
 90
    32768
280
     0
281
     0
  0
CLASS
  1
MATERIAL
  2
AcDbMaterial
  3
ObjectDBX Classes
 90
     1153
280
     0
281
     0
  0
CLASS
  1
VISUALSTYLE
  2
AcDbVisualStyle
  3
ObjectDBX Classes
 90
     4095
280
     0
281
     0
  0
CLASS
  1
SCALE
  2
AcDbScale
  3
ObjectDBX Classes
 90
     1153
280
     0
281
     0
  0
CLASS
  1
MLEADERSTYLE
  2
AcDbMLeaderStyle
  3
ACDB_MLEADERSTYLE_CLASS
 90
     4095
280
     0
281
     0
  0
CLASS
  1
CELLSTYLEMAP
  2
AcDbCellStyleMap
  3
ObjectDBX Classes
 90
     1152
280
     0
281
     0
  0
CLASS
  1
SUN
  2
AcDbSun
  3
SCENEOE
 90
     1153
280
     0
281
     0
  0
CLASS
  1
XRECORD
  2
AcDbXrecord
  3
ObjectDBX Classes
 90
    32768
280
     0
281
     0
  0
CLASS
  1
HATCH
  2
AcDbHatch
  3
ObjectDBX Classes
 90
    32768
280
     0
281
     1
  0
ENDSEC
  0
SECTION
  2
TABLES
  0
TABLE
  2
VPORT
  5
8
330
0
100
AcDbSymbolTable
 70
     1
  0
VPORT
  5
952D
330
8
100
AcDbSymbolTableRecord
100
AcDbViewportTableRecord
  2
*ACTIVE
 70
     0
 10
0.0
 20
0.0
 11
1.0
 21
1.0
 12
4783.835302300671
 22
616.8393421843559
 13
0.0
 23
0.0
 14
10.0
 24
10.0
 15
10.0
 25
10.0
 16
0.0
 26
0.0
 36
1.0
 17
0.0
 27
0.0
 37
0.0
 40
257.682795074353
 41
1.871481028151775
 42
50.0
 43
0.0
 44
0.0
 50
0.0
 51
0.0
 71
    16
 72
   100
 73
     1
 74
     1
 75
     0
 76
     0
 77
     0
 78
     0
1001
ACAD_NAV_VCDISPLAY
1070
     3
  0
ENDTAB
  0
TABLE
  2
LTYPE
  5
5
330
0
100
AcDbSymbolTable
 70
     2
  0
LTYPE
  5
12
330
5
100
AcDbSymbolTableRecord
100
AcDbLinetypeTableRecord
  2
BYBLOCK
 70
     0
  3

 72
    65
 73
     0
 40
0.0
  0
LTYPE
  5
13
330
5
100
AcDbSymbolTableRecord
100
AcDbLinetypeTableRecord
  2
BYLAYER
 70
     0
  3

 72
    65
 73
     0
 40
0.0
  0
LTYPE
  5
14
330
5
100
AcDbSymbolTableRecord
100
AcDbLinetypeTableRecord
  2
CONTINUOUS
 70
     0
  3
Solid line
 72
    65
 73
     0
 40
0.0
  0
LTYPE
  5
9837
330
5
100
AcDbSymbolTableRecord
100
AcDbLinetypeTableRecord
  2
CENTER2
 70
     0
  3
Center (.5x) ___ _ ___ _ ___ _ ___ _ ___ _ ___
 72
    65
 73
     4
 40
28.575
 49
19.05
 74
     0
 49
-3.175
 74
     0
 49
3.175
 74
     0
 49
-3.175
 74
     0
  0
ENDTAB
  0
TABLE
  2
LAYER
  5
2
102
{ACAD_XDICTIONARY
360
96D9
102
}
330
0
100
AcDbSymbolTable
 70
     5
  0
LAYER
  5
E
102
{ACAD_XDICTIONARY
360
9593
102
}
330
2
100
AcDbSymbolTableRecord
100
AcDbLayerTableRecord
  2
0
 70
     0
 62
     7
  6
CONTINUOUS
  0
LAYER
  5
29
102
{ACAD_XDICTIONARY
360
9595
102
}
330
2
100
AcDbSymbolTableRecord
100
AcDbLayerTableRecord
  2
1CENTER
 70
     0
 62
     7
  6
CENTER2
  0
LAYER
  5
31
102
{ACAD_XDICTIONARY
360
9597
102
}
330
2
100
AcDbSymbolTableRecord
100
AcDbLayerTableRecord
  2
1TEXT
 70
     0
 62
     7
  6
CONTINUOUS
  0
LAYER
  5
243
102
{ACAD_XDICTIONARY
360
959D
102
}
330
2
100
AcDbSymbolTableRecord
100
AcDbLayerTableRecord
  2
01
 70
     0
 62
     1
  6
CONTINUOUS
  0
LAYER
  5
24E
102
{ACAD_XDICTIONARY
360
95A3
102
}
330
2
100
AcDbSymbolTableRecord
100
AcDbLayerTableRecord
  2
1DIM
 70
     0
 62
     7
  6
CONTINUOUS
  0
ENDTAB
  0
TABLE
  2
STYLE
  5
3
330
0
100
AcDbSymbolTable
 70
     1
  0
STYLE
  5
F
330
3
100
AcDbSymbolTableRecord
100
AcDbTextStyleTableRecord
  2
STANDARD
 70
     0
 40
0.0
 41
1.0
 50
0.0
 71
     0
 42
4.0
  3
txt.shx
  4
extfont.shx
  0
ENDTAB
  0
TABLE
  2
VIEW
  5
6
330
0
100
AcDbSymbolTable
 70
     0
  0
ENDTAB
  0
TABLE
  2
UCS
  5
7
330
0
100
AcDbSymbolTable
 70
     0
  0
ENDTAB
  0
TABLE
  2
APPID
  5
9
330
0
100
AcDbSymbolTable
 70
    14
  0
APPID
  5
10
330
9
100
AcDbSymbolTableRecord
100
AcDbRegAppTableRecord
  2
ACAD
 70
     0
  0
APPID
  5
21
330
9
100
AcDbSymbolTableRecord
100
AcDbRegAppTableRecord
  2
DRAWINGVARIABLESXDATA
 70
     0
  0
APPID
  5
64
330
9
100
AcDbSymbolTableRecord
100
AcDbRegAppTableRecord
  2
CONTENTTABDATA
 70
     0
  0
APPID
  5
65
330
9
100
AcDbSymbolTableRecord
100
AcDbRegAppTableRecord
  2
CONTENTCURRENTTAB
 70
     0
  0
APPID
  5
66
330
9
100
AcDbSymbolTableRecord
100
AcDbRegAppTableRecord
  2
CONTENTBLOCKDESCRIPTION
 70
     0
  0
APPID
  5
67
330
9
100
AcDbSymbolTableRecord
100
AcDbRegAppTableRecord
  2
CONTENTBLOCKICON
 70
     0
  0
APPID
  5
68
330
9
100
AcDbSymbolTableRecord
100
AcDbRegAppTableRecord
  2
CONTENTLONGBLOCKNAME
 70
     0
  0
APPID
  5
2AE
330
9
100
AcDbSymbolTableRecord
100
AcDbRegAppTableRecord
  2
ACAD_PSEXT
 70
     0
  0
APPID
  5
9585
330
9
100
AcDbSymbolTableRecord
100
AcDbRegAppTableRecord
  2
ACAD_MLEADERVER
 70
     0
  0
APPID
  5
A2E3
330
9
100
AcDbSymbolTableRecord
100
AcDbRegAppTableRecord
  2
ACADANNOTATIVE
 70
     0
  0
APPID
  5
A2E4
330
9
100
AcDbSymbolTableRecord
100
AcDbRegAppTableRecord
  2
ACDBBLOCKREPETAG
 70
     0
  0
APPID
  5
AEB1
330
9
100
AcDbSymbolTableRecord
100
AcDbRegAppTableRecord
  2
ACAD_NAV_VCDISPLAY
 70
     0
  0
APPID
  5
B6A4
330
9
100
AcDbSymbolTableRecord
100
AcDbRegAppTableRecord
  2
ACAECLAYERSTANDARD
 70
     0
  0
APPID
  5
E1EF
330
9
100
AcDbSymbolTableRecord
100
AcDbRegAppTableRecord
  2
ACAD_EXEMPT_FROM_CAD_STAND
 70
     0
  0
ENDTAB
  0
TABLE
  2
DIMSTYLE
  5
A
330
0
100
AcDbSymbolTable
 70
     1
  0
DIMSTYLE
105
48
330
A
100
AcDbSymbolTableRecord
100
AcDbDimStyleTableRecord
  2
NEWX10
 70
     0
  3
 
  4

  5

  6
OPEN30
  7
OPEN30
 40
1.0
 41
2.0
 42
0.0
 43
7.0
 44
1.0
 45
0.0
 46
0.0
 47
0.0
 48
0.0
140
3.5
141
0.0
142
0.0
143
25.4
144
1.0
145
0.0
146
0.7
147
0.7
 71
     0
 72
     0
 73
     0
 74
     0
 75
     0
 76
     0
 77
     1
 78
     8
170
     0
171
     2
172
     1
173
     1
174
     0
175
     0
176
   256
177
   256
178
   201
179
     2
270
     2
271
     2
272
     4
273
     2
274
     2
340
F
275
     0
280
     0
281
     0
282
     0
283
     1
284
     8
285
     0
286
     0
287
     2
288
     0
  0
ENDTAB
  0
TABLE
  2
BLOCK_RECORD
  5
1
330
0
100
AcDbSymbolTable
 70
     8
  0
BLOCK_RECORD
  5
18
102
{ACAD_XDICTIONARY
360
88F
102
}
330
1
100
AcDbSymbolTableRecord
100
AcDbBlockTableRecord
  2
*MODEL_SPACE
  0
BLOCK_RECORD
  5
15
330
1
100
AcDbSymbolTableRecord
100
AcDbBlockTableRecord
  2
*PAPER_SPACE
  0
BLOCK_RECORD
  5
42
330
1
100
AcDbSymbolTableRecord
100
AcDbBlockTableRecord
  2
_OPEN30
  0
BLOCK_RECORD
  5
A333
330
1
100
AcDbSymbolTableRecord
100
AcDbBlockTableRecord
  2
A3WAKUKAWAJUN2017_HYOUDAI_
  0
BLOCK_RECORD
  5
E7C2
330
1
100
AcDbSymbolTableRecord
100
AcDbBlockTableRecord
  2
*X13
  0
BLOCK_RECORD
  5
E810
330
1
100
AcDbSymbolTableRecord
100
AcDbBlockTableRecord
  2
*X14
  0
BLOCK_RECORD
  5
E862
330
1
100
AcDbSymbolTableRecord
100
AcDbBlockTableRecord
  2
*X15
  0
BLOCK_RECORD
  5
E8B3
330
1
100
AcDbSymbolTableRecord
100
AcDbBlockTableRecord
  2
*X16
  0
BLOCK_RECORD
  5
E8F0
330
1
100
AcDbSymbolTableRecord
100
AcDbBlockTableRecord
  2
*X17
  0
BLOCK_RECORD
  5
E930
330
1
100
AcDbSymbolTableRecord
100
AcDbBlockTableRecord
  2
*X18
  0
ENDTAB
  0
ENDSEC
  0
SECTION
  2
BLOCKS
  0
BLOCK
  5
19
330
18
100
AcDbEntity
  8
0
100
AcDbBlockBegin
  2
*MODEL_SPACE
 70
     0
 10
0.0
 20
0.0
 30
0.0
  3
*MODEL_SPACE
  1

  0
ENDBLK
  5
1A
330
18
100
AcDbEntity
  8
0
100
AcDbBlockEnd
  0
BLOCK
  5
16
330
15
100
AcDbEntity
 67
     1
  8
0
100
AcDbBlockBegin
  2
*PAPER_SPACE
 70
     0
 10
0.0
 20
0.0
 30
0.0
  3
*PAPER_SPACE
  1

  0
ENDBLK
  5
17
330
15
100
AcDbEntity
 67
     1
  8
0
100
AcDbBlockEnd
  0
BLOCK
  5
43
330
42
100
AcDbEntity
  8
0
100
AcDbBlockBegin
  2
_OPEN30
 70
     0
 10
0.0
 20
0.0
 30
0.0
  3
_OPEN30
  1

  0
LINE
  5
44
330
42
100
AcDbEntity
  8
0
  6
BYBLOCK
 62
     0
100
AcDbLine
 10
-1.0
 20
0.26794919
 30
0.0
 11
0.0
 21
0.0
 31
0.0
  0
LINE
  5
45
330
42
100
AcDbEntity
  8
0
  6
BYBLOCK
 62
     0
100
AcDbLine
 10
0.0
 20
0.0
 30
0.0
 11
-1.0
 21
-0.26794919
 31
0.0
  0
LINE
  5
46
330
42
100
AcDbEntity
  8
0
  6
BYBLOCK
 62
     0
100
AcDbLine
 10
0.0
 20
0.0
 30
0.0
 11
-1.0
 21
0.0
 31
0.0
  0
ENDBLK
  5
47
330
42
100
AcDbEntity
  8
0
100
AcDbBlockEnd
  0
BLOCK
  5
AA56
330
A333
100
AcDbEntity
  8
0
100
AcDbBlockBegin
  2
A3WAKUKAWAJUN2017_HYOUDAI_
 70
     0
 10
0.0
 20
0.0
 30
0.0
  3
A3WAKUKAWAJUN2017_HYOUDAI_
  1

  0
LINE
  5
A335
330
A333
100
AcDbEntity
  8
0
100
AcDbLine
 10
13.26299999998673
 20
-0.0001000000000317
 30
0.0
 11
9.236999999990758
 21
8.999899999990987
 31
0.0
1001
ACAD
1000
ASC_BOUNDS
1002
{
1070
    19
1005
A376
1002
}
  0
LINE
  5
A336
330
A333
100
AcDbEntity
  8
0
100
AcDbLine
 10
5.657999999994331
 20
0.9999999999989768
 30
0.0
 11
9.236999999990758
 21
8.999999999991019
 31
0.0
1001
ACAD
1000
ASC_BOUNDS
1002
{
1070
    19
1005
A376
1002
}
  0
LINE
  5
A337
330
A333
100
AcDbEntity
  8
0
100
AcDbLine
 10
18.59199999998134
 20
-0.2368999999997641
 30
0.0
 11
16.46099999998353
 21
5.432899999994561
 31
0.0
1001
ACAD
1000
ASC_BOUNDS
1002
{
1070
    19
1005
A377
1002
}
  0
LINE
  5
A338
330
A333
100
AcDbEntity
  8
0
100
AcDbLine
 10
18.59199999998134
 20
-0.2368999999997641
 30
0.0
 11
22.38199999997767
 21
8.763099999991255
 31
0.0
1001
ACAD
1000
ASC_BOUNDS
1002
{
1070
    19
1005
A377
1002
}
  0
LINE
  5
A339
330
A333
100
AcDbEntity
  8
0
100
AcDbLine
 10
14.32899999998563
 20
-0.2368999999997641
 30
0.0
 11
16.46099999998353
 21
5.432899999994561
 31
0.0
1001
ACAD
1000
ASC_BOUNDS
1002
{
1070
    19
1005
A377
1002
}
  0
LINE
  5
A33A
330
A333
100
AcDbEntity
  8
0
100
AcDbLine
 10
14.32899999998563
 20
-0.2368999999997641
 30
0.0
 11
10.53899999998941
 21
8.763099999991255
 31
0.0
1001
ACAD
1000
ASC_BOUNDS
1002
{
1070
    19
1005
A377
1002
}
  0
LINE
  5
A33B
330
A333
100
AcDbEntity
  8
0
100
AcDbLine
 10
19.53899999998043
 20
-0.0001000000000317
 30
0.0
 11
23.56599999997638
 21
8.999899999990987
 31
0.0
1001
ACAD
1000
ASC_BOUNDS
1002
{
1070
    19
1005
A378
1002
}
  0
LINE
  5
A33C
330
A333
100
AcDbEntity
  8
0
100
AcDbLine
 10
26.97358892824991
 20
1.383099999991202
 30
0.0
 11
23.56599999997638
 21
8.999899999990987
 31
0.0
1001
ACAD
1000
ASC_BOUNDS
1002
{
1070
    19
1005
A378
1002
}
  0
LINE
  5
A33D
330
A333
100
AcDbEntity
  8
0
100
AcDbLine
 10
5.657999999994331
 20
0.9999999999989768
 30
0.0
 11
3.181999999996833
 21
4.668599999995308
 31
0.0
1001
ACAD
1000
ASC_BOUNDS
1002
{
1070
    19
1005
A376
1002
}
  0
LINE
  5
A33E
330
A333
100
AcDbEntity
  8
0
100
AcDbLine
 10
4.617999999995391
 20
-0.0001000000000317
 30
0.0
 11
1.420999999998571
 21
4.736799999995242
 31
0.0
1001
ACAD
1000
ASC_BOUNDS
1002
{
1070
    19
1005
A376
1002
}
  0
LINE
  5
A33F
330
A333
100
AcDbEntity
  8
0
100
AcDbLine
 10
1.420999999998571
 20
8.763099999991255
 30
0.0
 11
1.420999999998571
 21
0.0
 31
0.0
1001
ACAD
1000
ASC_BOUNDS
1002
{
1070
    19
1005
A37B
1002
}
  0
LINE
  5
A340
330
A333
100
AcDbEntity
  8
0
100
AcDbLine
 10
0.0
 20
8.763099999991255
 30
0.0
 11
0.0
 21
0.0
 31
0.0
1001
ACAD
1000
ASC_BOUNDS
1002
{
1070
    19
1005
A37B
1002
}
  0
LINE
  5
A341
330
A333
100
AcDbEntity
  8
0
100
AcDbLine
 10
6.766999999993232
 20
-0.0001000000000317
 30
0.0
 11
7.826999999992154
 21
2.368399999997621
 31
0.0
1001
ACAD
1000
ASC_BOUNDS
1002
{
1070
    19
1005
A376
1002
}
  0
LINE
  5
A342
330
A333
100
AcDbEntity
  8
0
100
AcDbLine
 10
0.0
 20
0.0
 30
0.0
 11
1.420999999998571
 21
0.0
 31
0.0
1001
ACAD
1000
ASC_BOUNDS
1002
{
1070
    19
1005
A37B
1002
}
  0
LINE
  5
A343
330
A333
100
AcDbEntity
  8
0
100
AcDbLine
 10
4.617999999995391
 20
0.0
 30
0.0
 11
6.766999999993232
 21
0.0
 31
0.0
1001
ACAD
1000
ASC_BOUNDS
1002
{
1070
    19
1005
A376
1002
}
  0
LINE
  5
A344
330
A333
100
AcDbEntity
  8
0
100
AcDbLine
 10
11.70599999998831
 20
-0.0001000000000317
 30
0.0
 11
10.64699999998936
 21
2.368399999997621
 31
0.0
1001
ACAD
1000
ASC_BOUNDS
1002
{
1070
    19
1005
A376
1002
}
  0
LINE
  5
A345
330
A333
100
AcDbEntity
  8
0
100
AcDbLine
 10
7.826999999992154
 20
2.368399999997621
 30
0.0
 11
10.64699999998936
 21
2.368399999997621
 31
0.0
1001
ACAD
1000
ASC_BOUNDS
1002
{
1070
    19
1005
A376
1002
}
  0
LINE
  5
A346
330
A333
100
AcDbEntity
  8
0
100
AcDbLine
 10
11.70599999998831
 20
0.0
 30
0.0
 11
13.26299999998673
 21
0.0
 31
0.0
1001
ACAD
1000
ASC_BOUNDS
1002
{
1070
    19
1005
A376
1002
}
  0
LINE
  5
A347
330
A333
100
AcDbEntity
  8
0
100
AcDbLine
 10
22.15599999997789
 20
2.368399999997621
 30
0.0
 11
24.97599999997499
 21
2.368399999997621
 31
0.0
1001
ACAD
1000
ASC_BOUNDS
1002
{
1070
    19
1005
A378
1002
}
  0
LINE
  5
A348
330
A333
100
AcDbEntity
  8
0
100
AcDbLine
 10
19.53899999998043
 20
0.0
 30
0.0
 11
21.09599999997886
 21
0.0
 31
0.0
1001
ACAD
1000
ASC_BOUNDS
1002
{
1070
    19
1005
A378
1002
}
  0
LINE
  5
A349
330
A333
100
AcDbEntity
  8
0
100
AcDbLine
 10
21.09599999997886
 20
-0.0001000000000317
 30
0.0
 11
22.15599999997789
 21
2.368399999997621
 31
0.0
1001
ACAD
1000
ASC_BOUNDS
1002
{
1070
    19
1005
A378
1002
}
  0
LINE
  5
A34A
330
A333
100
AcDbEntity
  8
0
100
AcDbLine
 10
26.02015566812236
 20
0.0330999999912365
 30
0.0
 11
24.97599999997499
 21
2.368399999997621
 31
0.0
1001
ACAD
1000
ASC_BOUNDS
1002
{
1070
    19
1005
A378
1002
}
  0
LINE
  5
A34B
330
A333
100
AcDbEntity
  8
0
100
AcDbLine
 10
14.32399999998563
 20
3.315799999996671
 30
0.0
 11
16.46099999998353
 21
8.999899999990987
 31
0.0
1001
ACAD
1000
ASC_BOUNDS
1002
{
1070
    19
1005
A377
1002
}
  0
LINE
  5
A34C
330
A333
100
AcDbEntity
  8
0
100
AcDbLine
 10
6.432999999993513
 20
8.763099999991255
 30
0.0
 11
3.181999999996833
 21
4.668599999995308
 31
0.0
1001
ACAD
1000
ASC_BOUNDS
1002
{
1070
    19
1005
A376
1002
}
  0
LINE
  5
A34D
330
A333
100
AcDbEntity
  8
0
100
AcDbLine
 10
4.617999999995391
 20
8.763099999991255
 30
0.0
 11
1.420999999998571
 21
4.736799999995242
 31
0.0
1001
ACAD
1000
ASC_BOUNDS
1002
{
1070
    19
1005
A376
1002
}
  0
LINE
  5
A34E
330
A333
100
AcDbEntity
  8
0
100
AcDbLine
 10
0.0
 20
8.763099999991255
 30
0.0
 11
1.420999999998571
 21
8.763099999991255
 31
0.0
1001
ACAD
1000
ASC_BOUNDS
1002
{
1070
    19
1005
A37B
1002
}
  0
LINE
  5
A34F
330
A333
100
AcDbEntity
  8
0
100
AcDbLine
 10
4.617999999995391
 20
8.763099999991255
 30
0.0
 11
6.432999999993513
 21
8.763099999991255
 31
0.0
1001
ACAD
1000
ASC_BOUNDS
1002
{
1070
    19
1005
A376
1002
}
  0
LINE
  5
A350
330
A333
100
AcDbEntity
  8
0
100
AcDbLine
 10
14.32399999998563
 20
3.315799999996671
 30
0.0
 11
12.02999999998792
 21
8.763099999991255
 31
0.0
1001
ACAD
1000
ASC_BOUNDS
1002
{
1070
    19
1005
A377
1002
}
  0
LINE
  5
A351
330
A333
100
AcDbEntity
  8
0
100
AcDbLine
 10
10.06399999998996
 20
3.670999999996297
 30
0.0
 11
9.236999999990758
 21
5.5200999999945
 31
0.0
1001
ACAD
1000
ASC_BOUNDS
1002
{
1070
    19
1005
A376
1002
}
  0
LINE
  5
A352
330
A333
100
AcDbEntity
  8
0
100
AcDbLine
 10
8.409999999991555
 20
3.670999999996297
 30
0.0
 11
9.236999999990758
 21
5.5200999999945
 31
0.0
1001
ACAD
1000
ASC_BOUNDS
1002
{
1070
    19
1005
A376
1002
}
  0
LINE
  5
A353
330
A333
100
AcDbEntity
  8
0
100
AcDbLine
 10
8.409999999991555
 20
3.670999999996297
 30
0.0
 11
10.06399999998996
 21
3.670999999996297
 31
0.0
1001
ACAD
1000
ASC_BOUNDS
1002
{
1070
    19
1005
A376
1002
}
  0
LINE
  5
A354
330
A333
100
AcDbEntity
  8
0
100
AcDbLine
 10
10.53899999998941
 20
8.763099999991255
 30
0.0
 11
12.02999999998792
 21
8.763099999991255
 31
0.0
1001
ACAD
1000
ASC_BOUNDS
1002
{
1070
    19
1005
A377
1002
}
  0
LINE
  5
A355
330
A333
100
AcDbEntity
  8
0
100
AcDbLine
 10
22.7389999999773
 20
3.670999999996297
 30
0.0
 11
23.56599999997638
 21
5.5200999999945
 31
0.0
1001
ACAD
1000
ASC_BOUNDS
1002
{
1070
    19
1005
A378
1002
}
  0
LINE
  5
A356
330
A333
100
AcDbEntity
  8
0
100
AcDbLine
 10
22.7389999999773
 20
3.670999999996297
 30
0.0
 11
24.39299999997559
 21
3.670999999996297
 31
0.0
1001
ACAD
1000
ASC_BOUNDS
1002
{
1070
    19
1005
A378
1002
}
  0
LINE
  5
A357
330
A333
100
AcDbEntity
  8
0
100
AcDbLine
 10
18.59799999998143
 20
3.315799999996671
 30
0.0
 11
20.89099999997916
 21
8.763099999991255
 31
0.0
1001
ACAD
1000
ASC_BOUNDS
1002
{
1070
    19
1005
A377
1002
}
  0
LINE
  5
A358
330
A333
100
AcDbEntity
  8
0
100
AcDbLine
 10
18.59799999998143
 20
3.315799999996671
 30
0.0
 11
16.46099999998353
 21
8.999899999990987
 31
0.0
1001
ACAD
1000
ASC_BOUNDS
1002
{
1070
    19
1005
A377
1002
}
  0
LINE
  5
A359
330
A333
100
AcDbEntity
  8
0
100
AcDbLine
 10
20.89099999997916
 20
8.763099999991255
 30
0.0
 11
22.38199999997767
 21
8.763099999991255
 31
0.0
1001
ACAD
1000
ASC_BOUNDS
1002
{
1070
    19
1005
A377
1002
}
  0
LINE
  5
A35A
330
A333
100
AcDbEntity
  8
0
100
AcDbLine
 10
24.39299999997559
 20
3.670999999996297
 30
0.0
 11
23.56599999997638
 21
5.5200999999945
 31
0.0
1001
ACAD
1000
ASC_BOUNDS
1002
{
1070
    19
1005
A378
1002
}
  0
LINE
  5
A35B
330
A333
100
AcDbEntity
  8
0
100
AcDbLine
 10
44.99999999995498
 20
-0.2368999999997641
 30
0.0
 11
40.02599999995994
 21
5.341799999994635
 31
0.0
1001
ACAD
1000
ASC_BOUNDS
1002
{
1070
    19
1005
A37A
1002
}
  0
LINE
  5
A35C
330
A333
100
AcDbEntity
  8
0
100
AcDbLine
 10
40.02599999995994
 20
5.341799999994635
 30
0.0
 11
40.02599999995994
 21
0.0
 31
0.0
1001
ACAD
1000
ASC_BOUNDS
1002
{
1070
    19
1005
A37A
1002
}
  0
LINE
  5
A35D
330
A333
100
AcDbEntity
  8
0
100
AcDbLine
 10
38.60499999996136
 20
8.999999999991019
 30
0.0
 11
38.60499999996136
 21
0.0
 31
0.0
1001
ACAD
1000
ASC_BOUNDS
1002
{
1070
    19
1005
A37A
1002
}
  0
LINE
  5
A35E
330
A333
100
AcDbEntity
  8
0
100
AcDbLine
 10
44.99999999995498
 20
8.763099999991255
 30
0.0
 11
44.99999999995498
 21
-0.2368999999997641
 31
0.0
1001
ACAD
1000
ASC_BOUNDS
1002
{
1070
    19
1005
A37A
1002
}
  0
LINE
  5
A35F
330
A333
100
AcDbEntity
  8
0
100
AcDbLine
 10
38.60499999996136
 20
0.0
 30
0.0
 11
40.02599999995994
 21
0.0
 31
0.0
1001
ACAD
1000
ASC_BOUNDS
1002
{
1070
    19
1005
A37A
1002
}
  0
LINE
  5
A360
330
A333
100
AcDbEntity
  8
0
100
AcDbLine
 10
43.57899999995641
 20
3.421199999996588
 30
0.0
 11
38.60499999996136
 21
8.999899999990987
 31
0.0
1001
ACAD
1000
ASC_BOUNDS
1002
{
1070
    19
1005
A37A
1002
}
  0
LINE
  5
A361
330
A333
100
AcDbEntity
  8
0
100
AcDbLine
 10
43.57899999995641
 20
8.763099999991255
 30
0.0
 11
43.57899999995641
 21
3.421199999996588
 31
0.0
1001
ACAD
1000
ASC_BOUNDS
1002
{
1070
    19
1005
A37A
1002
}
  0
LINE
  5
A362
330
A333
100
AcDbEntity
  8
0
100
AcDbLine
 10
43.57899999995641
 20
8.763099999991255
 30
0.0
 11
44.99999999995498
 21
8.763099999991255
 31
0.0
1001
ACAD
1000
ASC_BOUNDS
1002
{
1070
    19
1005
A37A
1002
}
  0
LINE
  5
A363
330
A333
100
AcDbEntity
  8
0
100
AcDbLine
 10
37.67199999996831
 20
8.763099999991255
 30
0.0
 11
36.23199999996837
 21
8.763099999991255
 31
0.0
  0
LINE
  5
A364
330
A333
100
AcDbEntity
  8
0
100
AcDbLine
 10
31.64199999996833
 20
8.763099999991255
 30
0.0
 11
31.64199999996833
 21
2.481619422925121
 31
0.0
  0
LINE
  5
A365
330
A333
100
AcDbEntity
  8
0
100
AcDbLine
 10
37.67199999996831
 20
8.763099999991255
 30
0.0
 11
37.67199999996831
 21
2.481619422925121
 31
0.0
  0
LINE
  5
A366
330
A333
100
AcDbEntity
  8
0
100
AcDbLine
 10
36.23199999996837
 20
8.763099999991255
 30
0.0
 11
36.23199999996837
 21
2.481619422925064
 31
0.0
  0
LINE
  5
A367
330
A333
100
AcDbEntity
  8
0
100
AcDbLine
 10
33.08199999996839
 20
8.763099999991255
 30
0.0
 11
33.08199999996839
 21
2.481619422925121
 31
0.0
  0
ARC
  5
A368
330
A333
100
AcDbEntity
  8
0
100
AcDbCircle
 10
34.65699999996832
 20
3.183099999991214
 30
0.0
 40
3.420000000000007
100
AcDbArc
 50
240.0000000000255
 51
299.9999999999766
  0
ARC
  5
A369
330
A333
100
AcDbEntity
  8
0
100
AcDbCircle
 10
34.65699999996832
 20
3.183099999991214
 30
0.0
 40
1.97999999999999
100
AcDbArc
 50
240.000000000026
 51
299.9999999999703
  0
LINE
  5
A36A
330
A333
100
AcDbEntity
  8
0
100
AcDbLine
 10
33.08199999996828
 20
8.763099999991255
 30
0.0
 11
31.64199999996833
 21
8.763099999991255
 31
0.0
  0
ARC
  5
A36B
330
A333
100
AcDbEntity
  8
0
100
AcDbCircle
 10
35.06199999996829
 20
2.481619422925064
 30
0.0
 40
1.17
100
AcDbArc
 50
299.9999999999699
 51
0.0
  0
ARC
  5
A36C
330
A333
100
AcDbEntity
  8
0
100
AcDbCircle
 10
34.25199999996835
 20
2.481619422925121
 30
0.0
 40
1.17
100
AcDbArc
 50
180.0
 51
240.0000000000238
  0
ARC
  5
A36D
330
A333
100
AcDbEntity
  8
0
100
AcDbCircle
 10
35.06199999996841
 20
2.481619422925121
 30
0.0
 40
2.61
100
AcDbArc
 50
299.9999999999756
 51
0.0
  0
ARC
  5
A36E
330
A333
100
AcDbEntity
  8
0
100
AcDbCircle
 10
34.25199999996835
 20
2.481619422925121
 30
0.0
 40
2.61
100
AcDbArc
 50
180.0
 51
240.0000000000244
  0
LINE
  5
A36F
330
A333
100
AcDbEntity
  8
0
100
AcDbLine
 10
29.30199999996933
 20
8.763099999991255
 30
0.0
 11
30.74199999996927
 21
8.763099999991255
 31
0.0
1001
ACAD
1000
ASC_BOUNDS
1002
{
1070
    19
1005
A378
1002
}
  0
LINE
  5
A370
330
A333
100
AcDbEntity
  8
0
100
AcDbLine
 10
30.74199999996927
 20
8.763099999991255
 30
0.0
 11
30.74199999996927
 21
2.373099999991211
 31
0.0
1001
ACAD
1000
ASC_BOUNDS
1002
{
1070
    19
1005
A378
1002
}
  0
LINE
  5
A371
330
A333
100
AcDbEntity
  8
0
100
AcDbLine
 10
26.02015566812236
 20
0.0330999999912365
 30
0.0
 11
28.40199999996923
 21
0.0330999999912365
 31
0.0
1001
ACAD
1000
ASC_BOUNDS
1002
{
1070
    19
1005
A378
1002
}
  0
LINE
  5
A372
330
A333
100
AcDbEntity
  8
0
100
AcDbLine
 10
29.30199999996933
 20
8.763099999991255
 30
0.0
 11
29.30199999996933
 21
2.283099999991236
 31
0.0
1001
ACAD
1000
ASC_BOUNDS
1002
{
1070
    19
1005
A378
1002
}
  0
LINE
  5
A373
330
A333
100
AcDbEntity
  8
0
100
AcDbLine
 10
26.97358892824991
 20
1.383099999991202
 30
0.0
 11
28.40199999996923
 21
1.383099999991202
 31
0.0
1001
ACAD
1000
ASC_BOUNDS
1002
{
1070
    19
1005
A378
1002
}
  0
ARC
  5
A374
330
A333
100
AcDbEntity
  8
0
100
AcDbCircle
 10
28.40199999996923
 20
2.283099999991236
 30
0.0
 40
0.9
100
AcDbArc
 50
270.0
 51
0.0
1001
ACAD
1000
ASC_BOUNDS
1002
{
1070
    19
1005
A378
1002
}
  0
ARC
  5
A375
330
A333
100
AcDbEntity
  8
0
100
AcDbCircle
 10
28.40199999996923
 20
2.373099999991211
 30
0.0
 40
2.34
100
AcDbArc
 50
270.0
 51
0.0
1001
ACAD
1000
ASC_BOUNDS
1002
{
1070
    19
1005
A378
1002
}
  0
INSERT
  5
A376
330
A333
100
AcDbEntity
  8
0
100
AcDbBlockReference
  2
*X13
 10
0.0
 20
0.0
 30
0.0
1001
ACAD
1000
HATCH
1002
{
1070
    19
1000
ANSI37
1040
0.15
1040
0.0
1000
ASC_BOUNDS
1070
     2
1070
     2
1070
    12
1005
A335
1005
A336
1005
A33D
1005
A34C
1005
A34F
1005
A34D
1005
A33E
1005
A343
1005
A341
1005
A345
1005
A344
1005
A346
1070
     2
1070
     3
1005
A351
1005
A353
1005
A352
1000
ASC_SEEDPOINT
1011
3.614004224891801
1021
2.996669441146025
1031
0.0
1000
R14_HATCH_DATA
1000
A376
1011
1.0
1021
0.0
1031
0.0
1011
0.0
1021
1.0
1031
0.0
1011
0.0
1021
0.0
1031
1.0
1040
0.0
1010
0.0
1020
0.0
1030
1.0
1000
ANSI37
1070
     0
1070
     1
1071
        2
1071
        7
1070
     0
1070
     1
1071
       17
1040
13.26299999998673
1040
-0.0001000000000317
1040
9.236999999990758
1040
8.999899999990987
1040
9.236999999990758
1040
8.999999999991019
1040
5.657999999994331
1040
0.9999999999989768
1040
3.181999999996833
1040
4.668599999995308
1040
6.432999999993513
1040
8.763099999991255
1040
4.617999999995391
1040
8.763099999991255
1040
1.420999999998571
1040
4.736799999995242
1040
4.617999999995391
1040
-0.0001000000000317
1040
4.617999999995391
1040
0.0
1040
6.766999999993232
1040
0.0
1040
6.766999999993232
1040
-0.0001000000000317
1040
7.826999999992154
1040
2.368399999997621
1040
10.64699999998936
1040
2.368399999997621
1040
11.70599999998831
1040
-0.0001000000000317
1040
11.70599999998831
1040
0.0
1040
13.26299999998673
1040
0.0
1071
       12
1005
A335
1005
A336
1005
A33D
1005
A34C
1005
A34F
1005
A34D
1005
A33E
1005
A343
1005
A341
1005
A345
1005
A344
1005
A346
1071
       22
1070
     0
1070
     1
1071
        3
1040
9.236999999990758
1040
5.5200999999945
1040
10.06399999998996
1040
3.670999999996297
1040
8.409999999991555
1040
3.670999999996297
1071
        3
1005
A351
1005
A353
1005
A352
1070
     0
1070
     1
1040
0.0
1040
0.15
1070
     0
1070
     2
1040
0.7853981633974483
1040
49.29960901727088
1040
-10.17736998311392
1040
-0.3367596045400932
1040
0.3367596045400932
1070
     0
1040
2.356194490192345
1040
49.29960901727088
1040
-10.17736998311392
1040
-0.3367596045400932
1040
-0.3367596045400932
1070
     0
1040
0.0110235143455945
1071
        2
1040
3.614004224891801
1040
2.996669441146025
1040
0.0
1040
3.614004224891801
1040
2.996669441146025
1040
0.0
1002
}
  0
INSERT
  5
A377
330
A333
100
AcDbEntity
  8
0
100
AcDbBlockReference
  2
*X14
 10
0.0
 20
0.0
 30
0.0
1001
ACAD
1000
HATCH
1002
{
1070
    19
1000
ANSI37
1040
0.15
1040
0.0
1000
ASC_BOUNDS
1070
     1
1070
     2
1070
    10
1005
A337
1005
A338
1005
A359
1005
A357
1005
A358
1005
A34B
1005
A350
1005
A354
1005
A33A
1005
A339
1000
ASC_SEEDPOINT
1011
14.73245321214324
1021
2.798246178283421
1031
0.0
1000
R14_HATCH_DATA
1000
A377
1011
1.0
1021
0.0
1031
0.0
1011
0.0
1021
1.0
1031
0.0
1011
0.0
1021
0.0
1031
1.0
1040
0.0
1010
0.0
1020
0.0
1030
1.0
1000
ANSI37
1070
     0
1070
     1
1071
        1
1071
        7
1070
     0
1070
     1
1071
       10
1040
16.46099999998353
1040
5.432899999994561
1040
18.59199999998134
1040
-0.2368999999997641
1040
22.38199999997767
1040
8.763099999991255
1040
20.89099999997916
1040
8.763099999991255
1040
18.59799999998143
1040
3.315799999996671
1040
16.46099999998353
1040
8.999899999990987
1040
14.32399999998563
1040
3.315799999996671
1040
12.02999999998792
1040
8.763099999991255
1040
10.53899999998941
1040
8.763099999991255
1040
14.32899999998563
1040
-0.2368999999997641
1071
       10
1005
A337
1005
A338
1005
A359
1005
A357
1005
A358
1005
A34B
1005
A350
1005
A354
1005
A33A
1005
A339
1070
     0
1070
     1
1040
0.0
1040
0.15
1070
     0
1070
     2
1040
0.7853981633974483
1040
49.29960901727088
1040
-10.17736998311392
1040
-0.3367596045400932
1040
0.3367596045400932
1070
     0
1040
2.356194490192345
1040
49.29960901727088
1040
-10.17736998311392
1040
-0.3367596045400932
1040
-0.3367596045400932
1070
     0
1040
0.0110235143455945
1071
        1
1040
14.73245321214324
1040
2.798246178283421
1040
0.0
1002
}
  0
INSERT
  5
A378
330
A333
100
AcDbEntity
  8
0
100
AcDbBlockReference
  2
*X15
 10
0.0
 20
0.0
 30
0.0
1001
ACAD
1000
HATCH
1002
{
1070
    19
1000
ANSI37
1040
0.15
1040
0.0
1000
ASC_BOUNDS
1070
     2
1070
     2
1070
    13
1005
A33B
1005
A348
1005
A349
1005
A347
1005
A34A
1005
A371
1005
A375
1005
A370
1005
A36F
1005
A372
1005
A374
1005
A373
1005
A33C
1070
     2
1070
     3
1005
A355
1005
A35A
1005
A356
1000
ASC_SEEDPOINT
1011
21.97929957367762
1021
3.294304244259308
1031
0.0
1000
R14_HATCH_DATA
1000
A378
1011
1.0
1021
0.0
1031
0.0
1011
0.0
1021
1.0
1031
0.0
1011
0.0
1021
0.0
1031
1.0
1040
0.0
1010
0.0
1020
0.0
1030
1.0
1000
ANSI37
1070
     0
1070
     1
1071
        2
1071
        7
1070
     1
1070
     1
1071
       15
1040
23.56599999997638
1040
8.999899999990987
1040
0.0
1040
19.53899999998043
1040
-0.0001000000000317
1040
0.0
1040
19.53899999998043
1040
0.0
1040
0.0
1040
21.09599999997886
1040
0.0
1040
0.0
1040
21.09599999997886
1040
-0.0001000000000317
1040
0.0
1040
22.15599999997789
1040
2.368399999997621
1040
0.0
1040
24.97599999997499
1040
2.368399999997621
1040
0.0
1040
26.02015566812236
1040
0.0330999999912365
1040
0.0
1040
28.40199999996923
1040
0.0330999999912365
1040
0.414213562373095
1040
30.74199999996923
1040
2.373099999991211
1040
0.0
1040
30.74199999996927
1040
8.763099999991255
1040
0.0
1040
29.30199999996933
1040
8.763099999991255
1040
0.0
1040
29.30199999996933
1040
2.283099999991236
1040
-0.414213562373095
1040
28.40199999996923
1040
1.383099999991237
1040
0.0
1040
26.97358892824991
1040
1.383099999991202
1040
0.0
1071
       13
1005
A33B
1005
A348
1005
A349
1005
A347
1005
A34A
1005
A371
1005
A375
1005
A370
1005
A36F
1005
A372
1005
A374
1005
A373
1005
A33C
1071
       22
1070
     0
1070
     1
1071
        3
1040
22.7389999999773
1040
3.670999999996297
1040
23.56599999997638
1040
5.5200999999945
1040
24.39299999997559
1040
3.670999999996297
1071
        3
1005
A355
1005
A35A
1005
A356
1070
     0
1070
     1
1040
0.0
1040
0.15
1070
     0
1070
     2
1040
0.7853981633974483
1040
49.29960901727088
1040
-10.17736998311392
1040
-0.3367596045400932
1040
0.3367596045400932
1070
     0
1040
2.356194490192345
1040
49.29960901727088
1040
-10.17736998311392
1040
-0.3367596045400932
1040
-0.3367596045400932
1070
     0
1040
0.0110235143455945
1071
        2
1040
21.97929957367762
1040
3.294304244259308
1040
0.0
1040
21.97929957367762
1040
3.294304244259308
1040
0.0
1002
}
  0
INSERT
  5
A379
330
A333
100
AcDbEntity
  8
0
100
AcDbBlockReference
  2
*X16
 10
0.0
 20
0.0
 30
0.0
1001
ACAD
1000
HATCH
1002
{
1070
    19
1000
ANSI37
1040
0.15
1040
0.0
1000
R14_HATCH_DATA
1000
A379
1011
1.0
1021
0.0
1031
0.0
1011
0.0
1021
1.0
1031
0.0
1011
0.0
1021
0.0
1031
1.0
1040
0.0
1010
0.0
1020
0.0
1030
1.0
1000
ANSI37
1070
     0
1070
     1
1071
        1
1071
        7
1070
     1
1070
     1
1071
       12
1040
31.64199999996833
1040
2.481619422925121
1040
0.2679491924310942
1040
32.94699999997067
1040
0.2212931190493919
1040
0.2679491924301353
1040
36.36699999995983
1040
0.2212931190459813
1040
0.2679491924321411
1040
37.67199999996831
1040
2.481619422928361
1040
0.0
1040
37.67199999996831
1040
8.763099999991255
1040
0.0
1040
36.23199999996837
1040
8.763099999991255
1040
0.0
1040
36.23199999996837
1040
2.481619422925064
1040
-0.2679491924310291
1040
35.64699999996708
1040
1.468369700498386
1040
-0.267949192430519
1040
33.66699999997093
1040
1.468369700497703
1040
-0.267949192431809
1040
33.08199999996839
1040
2.481619422926997
1040
0.0
1040
33.08199999996839
1040
8.763099999991255
1040
0.0
1040
31.64199999996833
1040
8.763099999991255
1040
0.0
1071
        0
1070
     0
1070
     1
1040
0.0
1040
0.15
1070
     0
1070
     2
1040
0.7853981633974483
1040
49.29960901727088
1040
-10.17736998311392
1040
-0.3367596045400932
1040
0.3367596045400932
1070
     0
1040
2.356194490192345
1040
49.29960901727088
1040
-10.17736998311392
1040
-0.3367596045400932
1040
-0.3367596045400932
1070
     0
1040
0.0110235143455945
1071
        1
1040
32.30357378967278
1040
3.988785755459219
1040
0.0
1002
}
  0
INSERT
  5
A37A
330
A333
100
AcDbEntity
  8
0
100
AcDbBlockReference
  2
*X17
 10
0.0
 20
0.0
 30
0.0
1001
ACAD
1000
HATCH
1002
{
1070
    19
1000
ANSI37
1040
0.15
1040
0.0
1000
ASC_BOUNDS
1070
     1
1070
     2
1070
     8
1005
A35B
1005
A35E
1005
A362
1005
A361
1005
A360
1005
A35D
1005
A35F
1005
A35C
1000
ASC_SEEDPOINT
1011
39.74896370716704
1021
4.484843821435049
1031
0.0
1000
R14_HATCH_DATA
1000
A37A
1011
1.0
1021
0.0
1031
0.0
1011
0.0
1021
1.0
1031
0.0
1011
0.0
1021
0.0
1031
1.0
1040
0.0
1010
0.0
1020
0.0
1030
1.0
1000
ANSI37
1070
     0
1070
     1
1071
        1
1071
        7
1070
     0
1070
     1
1071
        9
1040
40.02599999995994
1040
5.341799999994635
1040
44.99999999995498
1040
-0.2368999999997641
1040
44.99999999995498
1040
8.763099999991255
1040
43.57899999995641
1040
8.763099999991255
1040
43.57899999995641
1040
3.421199999996588
1040
38.60499999996136
1040
8.999899999990987
1040
38.60499999996136
1040
8.999999999991019
1040
38.60499999996136
1040
0.0
1040
40.02599999995994
1040
0.0
1071
        8
1005
A35B
1005
A35E
1005
A362
1005
A361
1005
A360
1005
A35D
1005
A35F
1005
A35C
1070
     0
1070
     1
1040
0.0
1040
0.15
1070
     0
1070
     2
1040
0.7853981633974483
1040
49.29960901727088
1040
-10.17736998311392
1040
-0.3367596045400932
1040
0.3367596045400932
1070
     0
1040
2.356194490192345
1040
49.29960901727088
1040
-10.17736998311392
1040
-0.3367596045400932
1040
-0.3367596045400932
1070
     0
1040
0.0110235143455945
1071
        1
1040
39.74896370716704
1040
4.484843821435049
1040
0.0
1002
}
  0
INSERT
  5
A37B
330
A333
100
AcDbEntity
  8
0
100
AcDbBlockReference
  2
*X18
 10
0.0
 20
0.0
 30
0.0
1001
ACAD
1000
HATCH
1002
{
1070
    19
1000
ANSI37
1040
0.15
1040
0.0
1000
ASC_BOUNDS
1070
     1
1070
     2
1070
     4
1005
A33F
1005
A34E
1005
A340
1005
A342
1000
ASC_SEEDPOINT
1011
1.079051535452663
1021
4.148538732891836
1031
0.0
1000
R14_HATCH_DATA
1000
A37B
1011
1.0
1021
0.0
1031
0.0
1011
0.0
1021
1.0
1031
0.0
1011
0.0
1021
0.0
1031
1.0
1040
0.0
1010
0.0
1020
0.0
1030
1.0
1000
ANSI37
1070
     0
1070
     1
1071
        1
1071
        7
1070
     0
1070
     1
1071
        4
1040
1.420999999998571
1040
0.0
1040
1.420999999998571
1040
8.763099999991255
1040
0.0
1040
8.763099999991255
1040
0.0
1040
0.0
1071
        4
1005
A33F
1005
A34E
1005
A340
1005
A342
1070
     0
1070
     1
1040
0.0
1040
0.15
1070
     0
1070
     2
1040
0.7853981633974483
1040
49.29960901727088
1040
-10.17736998311392
1040
-0.3367596045400932
1040
0.3367596045400932
1070
     0
1040
2.356194490192345
1040
49.29960901727088
1040
-10.17736998311392
1040
-0.3367596045400932
1040
-0.3367596045400932
1070
     0
1040
0.0053004257112761
1071
        1
1040
1.079051535452663
1040
4.148538732891836
1040
0.0
1002
}
  0
ENDBLK
  5
AA57
330
A333
100
AcDbEntity
  8
0
100
AcDbBlockEnd
  0
BLOCK
  5
E950
330
E7C2
100
AcDbEntity
  8
0
100
AcDbBlockBegin
  2
*X13
 70
     1
 10
0.0
 20
0.0
 30
0.0
  3
*X13
  1

  0
LINE
  5
E7C3
330
E7C2
100
AcDbEntity
  8
0
  6
CONTINUOUS
100
AcDbLine
 10
3.418023043697893
 20
7.251849696850613
 30
0.0
 11
4.929273346838536
 21
8.763099999991255
 31
0.0
  0
LINE
  5
E7C4
330
E7C2
100
AcDbEntity
  8
0
  6
CONTINUOUS
100
AcDbLine
 10
1.483656411257782
 20
4.643963855330318
 30
0.0
 11
5.60279255591872
 21
8.763099999991255
 31
0.0
  0
LINE
  5
E7C5
330
E7C2
100
AcDbEntity
  8
0
  6
CONTINUOUS
100
AcDbLine
 10
1.755053947328235
 20
4.241842182320584
 30
0.0
 11
6.276311764998907
 21
8.763099999991255
 31
0.0
  0
LINE
  5
E7C6
330
E7C2
100
AcDbEntity
  8
0
  6
CONTINUOUS
100
AcDbLine
 10
2.026451483398688
 20
3.839720509310849
 30
0.0
 11
4.441040904851878
 21
6.254309930764039
 31
0.0
  0
LINE
  5
E7C7
330
E7C2
100
AcDbEntity
  8
0
  6
CONTINUOUS
100
AcDbLine
 10
2.297849019469139
 20
3.437598836301114
 30
0.0
 11
3.321765168359338
 21
4.461514985191313
 31
0.0
  0
LINE
  5
E7C8
330
E7C2
100
AcDbEntity
  8
0
  6
CONTINUOUS
100
AcDbLine
 10
2.569246555539591
 20
3.03547716329138
 30
0.0
 11
3.593163397972743
 21
4.059394005724531
 31
0.0
  0
LINE
  5
E7C9
330
E7C2
100
AcDbEntity
  8
0
  6
CONTINUOUS
100
AcDbLine
 10
2.840644091610043
 20
2.633355490281646
 30
0.0
 11
3.864561627586149
 21
3.657273026257751
 31
0.0
  0
LINE
  5
E7CA
330
E7C2
100
AcDbEntity
  8
0
  6
CONTINUOUS
100
AcDbLine
 10
3.112041627680496
 20
2.231233817271911
 30
0.0
 11
4.135959857199554
 21
3.25515204679097
 31
0.0
  0
LINE
  5
E7CB
330
E7C2
100
AcDbEntity
  8
0
  6
CONTINUOUS
100
AcDbLine
 10
3.383439163750948
 20
1.829112144262177
 30
0.0
 11
4.40735808681296
 21
2.853031067324189
 31
0.0
  0
LINE
  5
E7CC
330
E7C2
100
AcDbEntity
  8
0
  6
CONTINUOUS
100
AcDbLine
 10
3.654836699821399
 20
1.426990471252442
 30
0.0
 11
4.678756316426365
 21
2.450910087857407
 31
0.0
  0
LINE
  5
E7CD
330
E7C2
100
AcDbEntity
  8
0
  6
CONTINUOUS
100
AcDbLine
 10
3.926234235891853
 20
1.024868798242709
 30
0.0
 11
4.95015454603977
 21
2.048789108390626
 31
0.0
  0
LINE
  5
E7CE
330
E7C2
100
AcDbEntity
  8
0
  6
CONTINUOUS
100
AcDbLine
 10
4.197631771962304
 20
0.6227471252329737
 30
0.0
 11
5.221552775653176
 21
1.646668128923846
 31
0.0
  0
LINE
  5
E7CF
330
E7C2
100
AcDbEntity
  8
0
  6
CONTINUOUS
100
AcDbLine
 10
8.715877546767851
 20
7.835069736359266
 30
0.0
 11
9.435953450375058
 21
8.555145639966472
 31
0.0
  0
LINE
  5
E7D0
330
E7C2
100
AcDbEntity
  8
0
  6
CONTINUOUS
100
AcDbLine
 10
8.170620868422267
 20
6.616293848933497
 30
0.0
 11
9.644120833743461
 21
8.08979381425469
 31
0.0
  0
LINE
  5
E7D1
330
E7C2
100
AcDbEntity
  8
0
  6
CONTINUOUS
100
AcDbLine
 10
7.625364190076684
 20
5.397517961507727
 30
0.0
 11
9.852288217111864
 21
7.624441988542907
 31
0.0
  0
LINE
  5
E7D2
330
E7C2
100
AcDbEntity
  8
0
  6
CONTINUOUS
100
AcDbLine
 10
7.080107511731101
 20
4.178742074081957
 30
0.0
 11
10.06045560048027
 21
7.159090162831124
 31
0.0
  0
LINE
  5
E7D3
330
E7C2
100
AcDbEntity
  8
0
  6
CONTINUOUS
100
AcDbLine
 10
6.534850833385518
 20
2.959966186656187
 30
0.0
 11
10.26862298384867
 21
6.693738337119342
 31
0.0
  0
LINE
  5
E7D4
330
E7C2
100
AcDbEntity
  8
0
  6
CONTINUOUS
100
AcDbLine
 10
4.469029308032756
 20
0.2206254522232385
 30
0.0
 11
5.492951005266582
 21
1.244547149457064
 31
0.0
  0
LINE
  5
E7D5
330
E7C2
100
AcDbEntity
  8
0
  6
CONTINUOUS
100
AcDbLine
 10
5.989594155039935
 20
1.741190299230417
 30
0.0
 11
8.806950407233131
 21
4.558546551423613
 31
0.0
  0
LINE
  5
E7D6
330
E7C2
100
AcDbEntity
  8
0
  6
CONTINUOUS
100
AcDbLine
 10
9.401251593263643
 20
5.152847737454126
 30
0.0
 11
10.47679036721708
 21
6.228386511407559
 31
0.0
  0
LINE
  5
E7D7
330
E7C2
100
AcDbEntity
  8
0
  6
CONTINUOUS
100
AcDbLine
 10
4.921837203428691
 20
-0.0000858614610131
 30
0.0
 11
8.592923064886001
 21
3.670999999996297
 31
0.0
  0
LINE
  5
E7D8
330
E7C2
100
AcDbEntity
  8
0
  6
CONTINUOUS
100
AcDbLine
 10
9.609390446785305
 20
4.6874673818956
 30
0.0
 11
10.68495775058548
 21
5.763034685695775
 31
0.0
  0
LINE
  5
E7D9
330
E7C2
100
AcDbEntity
  8
0
  6
CONTINUOUS
100
AcDbLine
 10
5.595387755019432
 20
-0.0000545189504582
 30
0.0
 11
7.716137258923768
 21
2.120694984953879
 31
0.0
  0
LINE
  5
E7DA
330
E7C2
100
AcDbEntity
  8
0
  6
CONTINUOUS
100
AcDbLine
 10
6.268938306610172
 20
-0.000023176439905
 30
0.0
 11
7.170485805526503
 21
0.9015243224764267
 31
0.0
  0
LINE
  5
E7DB
330
E7C2
100
AcDbEntity
  8
0
  6
CONTINUOUS
100
AcDbLine
 10
7.963842273967511
 20
2.368399999997621
 30
0.0
 11
9.266442273966188
 21
3.670999999996297
 31
0.0
  0
LINE
  5
E7DC
330
E7C2
100
AcDbEntity
  8
0
  6
CONTINUOUS
100
AcDbLine
 10
8.637361483047696
 20
2.368399999997621
 30
0.0
 11
9.939961483046375
 21
3.670999999996297
 31
0.0
  0
LINE
  5
E7DD
330
E7C2
100
AcDbEntity
  8
0
  6
CONTINUOUS
100
AcDbLine
 10
9.817529300306965
 20
4.222087026337075
 30
0.0
 11
10.89312513395388
 21
5.297682859983993
 31
0.0
  0
LINE
  5
E7DE
330
E7C2
100
AcDbEntity
  8
0
  6
CONTINUOUS
100
AcDbLine
 10
10.02566815382863
 20
3.756706670778549
 30
0.0
 11
11.10129251732229
 21
4.832331034272211
 31
0.0
  0
LINE
  5
E7DF
330
E7C2
100
AcDbEntity
  8
0
  6
CONTINUOUS
100
AcDbLine
 10
9.310880692127883
 20
2.368399999997621
 30
0.0
 11
11.30945990069069
 21
4.366979208560428
 31
0.0
  0
LINE
  5
E7E0
330
E7C2
100
AcDbEntity
  8
0
  6
CONTINUOUS
100
AcDbLine
 10
9.98439990120807
 20
2.36839999999762
 30
0.0
 11
11.5176272840591
 21
3.901627382848645
 31
0.0
  0
LINE
  5
E7E1
330
E7C2
100
AcDbEntity
  8
0
  6
CONTINUOUS
100
AcDbLine
 10
10.65037369446246
 20
2.36085458417182
 30
0.0
 11
11.7257946674275
 21
3.436275557136862
 31
0.0
  0
LINE
  5
E7E2
330
E7C2
100
AcDbEntity
  8
0
  6
CONTINUOUS
100
AcDbLine
 10
10.85847197087848
 20
1.895433651507656
 30
0.0
 11
11.9339620507959
 21
2.97092373142508
 31
0.0
  0
LINE
  5
E7E3
330
E7C2
100
AcDbEntity
  8
0
  6
CONTINUOUS
100
AcDbLine
 10
11.0665702472945
 20
1.430012718843491
 30
0.0
 11
12.14212943416431
 21
2.505571905713296
 31
0.0
  0
LINE
  5
E7E4
330
E7C2
100
AcDbEntity
  8
0
  6
CONTINUOUS
100
AcDbLine
 10
11.27466852371052
 20
0.9645917861793256
 30
0.0
 11
12.35029681753271
 21
2.040220080001513
 31
0.0
  0
LINE
  5
E7E5
330
E7C2
100
AcDbEntity
  8
0
  6
CONTINUOUS
100
AcDbLine
 10
11.48276680012654
 20
0.4991708535151611
 30
0.0
 11
12.55846420090111
 21
1.57486825428973
 31
0.0
  0
LINE
  5
E7E6
330
E7C2
100
AcDbEntity
  8
0
  6
CONTINUOUS
100
AcDbLine
 10
11.69086507654257
 20
0.0337499208509957
 30
0.0
 11
12.76663158426952
 21
1.109516428577947
 31
0.0
  0
LINE
  5
E7E7
330
E7C2
100
AcDbEntity
  8
0
  6
CONTINUOUS
100
AcDbLine
 10
12.33057447873954
 20
-0.0000598860322123
 30
0.0
 11
12.97479896763792
 21
0.6441646028661663
 31
0.0
  0
LINE
  5
E7E8
330
E7C2
100
AcDbEntity
  8
0
  6
CONTINUOUS
100
AcDbLine
 10
13.00413694809395
 20
-0.0000166257579952
 30
0.0
 11
13.18296635100632
 21
0.1788127771543824
 31
0.0
  0
LINE
  5
E7E9
330
E7C2
100
AcDbEntity
  8
0
  6
CONTINUOUS
100
AcDbLine
 10
4.772852165289667
 20
-0.000092794222212
 30
0.0
 11
4.296495091028902
 21
0.4762642800385528
 31
0.0
  0
LINE
  5
E7EA
330
E7C2
100
AcDbEntity
  8
0
  6
CONTINUOUS
100
AcDbLine
 10
5.446340034776103
 20
-0.0000614546284616
 30
0.0
 11
2.898195908335625
 21
2.548082671812017
 31
0.0
  0
LINE
  5
E7EB
330
E7C2
100
AcDbEntity
  8
0
  6
CONTINUOUS
100
AcDbLine
 10
6.119827904262539
 20
-0.0000301150347113
 30
0.0
 11
1.499896725642348
 21
4.61990106358548
 31
0.0
  0
LINE
  5
E7EC
330
E7C2
100
AcDbEntity
  8
0
  6
CONTINUOUS
100
AcDbLine
 10
6.775136745476159
 20
0.0181802528318542
 30
0.0
 11
5.699826040202669
 21
1.093490958105344
 31
0.0
  0
LINE
  5
E7ED
330
E7C2
100
AcDbEntity
  8
0
  6
CONTINUOUS
100
AcDbLine
 10
6.983376846288489
 20
0.4834593610997118
 30
0.0
 11
5.908008617934405
 21
1.558827589453796
 31
0.0
  0
LINE
  5
E7EE
330
E7C2
100
AcDbEntity
  8
0
  6
CONTINUOUS
100
AcDbLine
 10
5.377063484962296
 20
1.416253513345719
 30
0.0
 11
1.702276957014131
 21
5.091040041293883
 31
0.0
  0
LINE
  5
E7EF
330
E7C2
100
AcDbEntity
  8
0
  6
CONTINUOUS
100
AcDbLine
 10
3.978745891735324
 20
3.488090315652877
 30
0.0
 11
2.000373521109399
 21
5.466462686278803
 31
0.0
  0
LINE
  5
E7F0
330
E7C2
100
AcDbEntity
  8
0
  6
CONTINUOUS
100
AcDbLine
 10
7.191616947100819
 20
0.948738469367568
 30
0.0
 11
6.11619119566614
 21
2.024164220802247
 31
0.0
  0
LINE
  5
E7F1
330
E7C2
100
AcDbEntity
  8
0
  6
CONTINUOUS
100
AcDbLine
 10
7.399857047913149
 20
1.414017577635424
 30
0.0
 11
6.324373773397875
 21
2.489500852150698
 31
0.0
  0
LINE
  5
E7F2
330
E7C2
100
AcDbEntity
  8
0
  6
CONTINUOUS
100
AcDbLine
 10
7.608097148725479
 20
1.879296685903281
 30
0.0
 11
6.53255635112961
 21
2.95483748349915
 31
0.0
  0
LINE
  5
E7F3
330
E7C2
100
AcDbEntity
  8
0
  6
CONTINUOUS
100
AcDbLine
 10
7.816337249537808
 20
2.344575794171138
 30
0.0
 11
6.740738928861345
 21
3.420174114847601
 31
0.0
  0
LINE
  5
E7F4
330
E7C2
100
AcDbEntity
  8
0
  6
CONTINUOUS
100
AcDbLine
 10
3.310241080789734
 20
4.830114335678653
 30
0.0
 11
2.298470085204666
 21
5.84188533126372
 31
0.0
  0
LINE
  5
E7F5
330
E7C2
100
AcDbEntity
  8
0
  6
CONTINUOUS
100
AcDbLine
 10
3.60832983563551
 20
5.205544789913063
 30
0.0
 11
2.596566649299935
 21
6.217307976248638
 31
0.0
  0
LINE
  5
E7F6
330
E7C2
100
AcDbEntity
  8
0
  6
CONTINUOUS
100
AcDbLine
 10
3.906418590481286
 20
5.580975244147473
 30
0.0
 11
2.894663213395203
 21
6.592730621233557
 31
0.0
  0
LINE
  5
E7F7
330
E7C2
100
AcDbEntity
  8
0
  6
CONTINUOUS
100
AcDbLine
 10
4.204507345327062
 20
5.956405698381884
 30
0.0
 11
3.192759777490472
 21
6.968153266218474
 31
0.0
  0
LINE
  5
E7F8
330
E7C2
100
AcDbEntity
  8
0
  6
CONTINUOUS
100
AcDbLine
 10
8.466032252791512
 20
2.368399999997621
 30
0.0
 11
6.948921506593081
 21
3.885510746196053
 31
0.0
  0
LINE
  5
E7F9
330
E7C2
100
AcDbEntity
  8
0
  6
CONTINUOUS
100
AcDbLine
 10
9.139551461871699
 20
2.36839999999762
 30
0.0
 11
7.157104084324816
 21
4.350847377544504
 31
0.0
  0
LINE
  5
E7FA
330
E7C2
100
AcDbEntity
  8
0
  6
CONTINUOUS
100
AcDbLine
 10
4.502596100172839
 20
6.331836152616295
 30
0.0
 11
3.49085634158574
 21
7.343575911203393
 31
0.0
  0
LINE
  5
E7FB
330
E7C2
100
AcDbEntity
  8
0
  6
CONTINUOUS
100
AcDbLine
 10
4.800684855018615
 20
6.707266606850705
 30
0.0
 11
3.788952905681008
 21
7.718998556188312
 31
0.0
  0
LINE
  5
E7FC
330
E7C2
100
AcDbEntity
  8
0
  6
CONTINUOUS
100
AcDbLine
 10
12.18154012887317
 20
-0.0000694579236642
 30
0.0
 11
11.32140332908496
 21
0.8600673418645499
 31
0.0
  0
LINE
  5
E7FD
330
E7C2
100
AcDbEntity
  8
0
  6
CONTINUOUS
100
AcDbLine
 10
12.85501608323566
 20
-0.0000262032059659
 30
0.0
 11
10.77672456435345
 21
2.078265315676246
 31
0.0
  0
LINE
  5
E7FE
330
E7C2
100
AcDbEntity
  8
0
  6
CONTINUOUS
100
AcDbLine
 10
9.813070670951886
 20
2.36839999999762
 30
0.0
 11
8.51047067095321
 21
3.670999999996297
 31
0.0
  0
LINE
  5
E7FF
330
E7C2
100
AcDbEntity
  8
0
  6
CONTINUOUS
100
AcDbLine
 10
10.48658988003207
 20
2.36839999999762
 30
0.0
 11
9.183989880033396
 21
3.670999999996297
 31
0.0
  0
LINE
  5
E800
330
E7C2
100
AcDbEntity
  8
0
  6
CONTINUOUS
100
AcDbLine
 10
8.441048632286794
 20
3.740422038662712
 30
0.0
 11
7.365286662056551
 21
4.816184008892956
 31
0.0
  0
LINE
  5
E801
330
E7C2
100
AcDbEntity
  8
0
  6
CONTINUOUS
100
AcDbLine
 10
8.649187485808454
 20
4.205802394221237
 30
0.0
 11
7.573469239788285
 21
5.281520640241407
 31
0.0
  0
LINE
  5
E802
330
E7C2
100
AcDbEntity
  8
0
  6
CONTINUOUS
100
AcDbLine
 10
5.098773609864391
 20
7.082697061085115
 30
0.0
 11
4.087049469776277
 21
8.09442120117323
 31
0.0
  0
LINE
  5
E803
330
E7C2
100
AcDbEntity
  8
0
  6
CONTINUOUS
100
AcDbLine
 10
5.396862364710167
 20
7.458127515319526
 30
0.0
 11
4.385146033871544
 21
8.469843846158149
 31
0.0
  0
LINE
  5
E804
330
E7C2
100
AcDbEntity
  8
0
  6
CONTINUOUS
100
AcDbLine
 10
13.04801363231285
 20
0.4804954567970334
 30
0.0
 11
9.85750908911358
 21
3.670999999996297
 31
0.0
  0
LINE
  5
E805
330
E7C2
100
AcDbEntity
  8
0
  6
CONTINUOUS
100
AcDbLine
 10
8.857326339330116
 20
4.671182749779763
 30
0.0
 11
7.781651817520021
 21
5.746857271589858
 31
0.0
  0
LINE
  5
E806
330
E7C2
100
AcDbEntity
  8
0
  6
CONTINUOUS
100
AcDbLine
 10
5.694951119555943
 20
7.833557969553937
 30
0.0
 11
4.765409089118624
 21
8.763099999991255
 31
0.0
  0
LINE
  5
E807
330
E7C2
100
AcDbEntity
  8
0
  6
CONTINUOUS
100
AcDbLine
 10
12.50286117236978
 20
1.699167125820288
 30
0.0
 11
9.68611877250287
 21
4.515909525687196
 31
0.0
  0
LINE
  5
E808
330
E7C2
100
AcDbEntity
  8
0
  6
CONTINUOUS
100
AcDbLine
 10
9.065465192851777
 20
5.136563105338288
 30
0.0
 11
7.989834395251757
 21
6.21219390293831
 31
0.0
  0
LINE
  5
E809
330
E7C2
100
AcDbEntity
  8
0
  6
CONTINUOUS
100
AcDbLine
 10
5.993039874401719
 20
8.208988423788346
 30
0.0
 11
5.43892829819881
 21
8.763099999991255
 31
0.0
  0
LINE
  5
E80A
330
E7C2
100
AcDbEntity
  8
0
  6
CONTINUOUS
100
AcDbLine
 10
11.95770871242671
 20
2.917838794843543
 30
0.0
 11
8.19801697298349
 21
6.677530534286761
 31
0.0
  0
LINE
  5
E80B
330
E7C2
100
AcDbEntity
  8
0
  6
CONTINUOUS
100
AcDbLine
 10
6.291128629247495
 20
8.584418878022756
 30
0.0
 11
6.112447507278997
 21
8.763099999991255
 31
0.0
  0
LINE
  5
E80C
330
E7C2
100
AcDbEntity
  8
0
  6
CONTINUOUS
100
AcDbLine
 10
11.41255625248364
 20
4.136510463866797
 30
0.0
 11
8.406199550715227
 21
7.142867165635211
 31
0.0
  0
LINE
  5
E80D
330
E7C2
100
AcDbEntity
  8
0
  6
CONTINUOUS
100
AcDbLine
 10
10.86740379254057
 20
5.355182132890051
 30
0.0
 11
8.614382128446962
 21
7.608203796983664
 31
0.0
  0
LINE
  5
E80E
330
E7C2
100
AcDbEntity
  8
0
  6
CONTINUOUS
100
AcDbLine
 10
10.3222513325975
 20
6.573853801913305
 30
0.0
 11
8.822564706178696
 21
8.073540428332114
 31
0.0
  0
LINE
  5
E80F
330
E7C2
100
AcDbEntity
  8
0
  6
CONTINUOUS
100
AcDbLine
 10
9.777098872654436
 20
7.792525470936562
 30
0.0
 11
9.030747283910433
 21
8.538877059680566
 31
0.0
  0
ENDBLK
  5
E951
330
E7C2
100
AcDbEntity
  8
0
100
AcDbBlockEnd
  0
BLOCK
  5
E952
330
E810
100
AcDbEntity
  8
0
100
AcDbBlockBegin
  2
*X14
 70
     1
 10
0.0
 20
0.0
 30
0.0
  3
*X14
  1

  0
LINE
  5
E811
330
E810
100
AcDbEntity
  8
0
  6
CONTINUOUS
100
AcDbLine
 10
10.67292308101235
 20
8.445076852443387
 30
0.0
 11
10.99094622856022
 21
8.763099999991255
 31
0.0
  0
LINE
  5
E812
330
E810
100
AcDbEntity
  8
0
  6
CONTINUOUS
100
AcDbLine
 10
10.87250383178748
 20
7.971138394138331
 30
0.0
 11
11.6644654376404
 21
8.763099999991255
 31
0.0
  0
LINE
  5
E813
330
E810
100
AcDbEntity
  8
0
  6
CONTINUOUS
100
AcDbLine
 10
11.07208458256261
 20
7.497199935833273
 30
0.0
 11
12.12126590876355
 21
8.546381262034211
 31
0.0
  0
LINE
  5
E814
330
E810
100
AcDbEntity
  8
0
  6
CONTINUOUS
100
AcDbLine
 10
11.27166533333774
 20
7.023261477528216
 30
0.0
 11
12.32085164573666
 21
8.072447789927136
 31
0.0
  0
LINE
  5
E815
330
E810
100
AcDbEntity
  8
0
  6
CONTINUOUS
100
AcDbLine
 10
11.47124608411287
 20
6.549323019223158
 30
0.0
 11
12.52043738270977
 21
7.59851431782006
 31
0.0
  0
LINE
  5
E816
330
E810
100
AcDbEntity
  8
0
  6
CONTINUOUS
100
AcDbLine
 10
11.670826834888
 20
6.075384560918101
 30
0.0
 11
12.72002311968288
 21
7.124580845712984
 31
0.0
  0
LINE
  5
E817
330
E810
100
AcDbEntity
  8
0
  6
CONTINUOUS
100
AcDbLine
 10
11.87040758566313
 20
5.601446102613043
 30
0.0
 11
12.91960885665599
 21
6.650647373605907
 31
0.0
  0
LINE
  5
E818
330
E810
100
AcDbEntity
  8
0
  6
CONTINUOUS
100
AcDbLine
 10
12.06998833643825
 20
5.127507644307986
 30
0.0
 11
13.1191945936291
 21
6.176713901498832
 31
0.0
  0
LINE
  5
E819
330
E810
100
AcDbEntity
  8
0
  6
CONTINUOUS
100
AcDbLine
 10
12.26956908721338
 20
4.65356918600293
 30
0.0
 11
13.31878033060221
 21
5.702780429391757
 31
0.0
  0
LINE
  5
E81A
330
E810
100
AcDbEntity
  8
0
  6
CONTINUOUS
100
AcDbLine
 10
12.46914983798851
 20
4.179630727697873
 30
0.0
 11
13.51836606757532
 21
5.228846957284683
 31
0.0
  0
LINE
  5
E81B
330
E810
100
AcDbEntity
  8
0
  6
CONTINUOUS
100
AcDbLine
 10
12.66873058876364
 20
3.705692269392816
 30
0.0
 11
13.71795180454843
 21
4.754913485177607
 31
0.0
  0
LINE
  5
E81C
330
E810
100
AcDbEntity
  8
0
  6
CONTINUOUS
100
AcDbLine
 10
12.86831133953877
 20
3.231753811087759
 30
0.0
 11
13.91753754152154
 21
4.280980013070531
 31
0.0
  0
LINE
  5
E81D
330
E810
100
AcDbEntity
  8
0
  6
CONTINUOUS
100
AcDbLine
 10
13.0678920903139
 20
2.757815352782702
 30
0.0
 11
14.11712327849465
 21
3.807046540963456
 31
0.0
  0
LINE
  5
E81E
330
E810
100
AcDbEntity
  8
0
  6
CONTINUOUS
100
AcDbLine
 10
13.26747284108903
 20
2.283876894477644
 30
0.0
 11
14.31670901546777
 21
3.333113068856379
 31
0.0
  0
LINE
  5
E81F
330
E810
100
AcDbEntity
  8
0
  6
CONTINUOUS
100
AcDbLine
 10
16.36767838827179
 20
8.751678487061342
 30
0.0
 11
16.50332410898388
 21
8.887324207773432
 31
0.0
  0
LINE
  5
E820
330
E810
100
AcDbEntity
  8
0
  6
CONTINUOUS
100
AcDbLine
 10
15.96190732182191
 20
7.67238821153127
 30
0.0
 11
16.68735328004734
 21
8.397834169756699
 31
0.0
  0
LINE
  5
E821
330
E810
100
AcDbEntity
  8
0
  6
CONTINUOUS
100
AcDbLine
 10
15.55613625537202
 20
6.593097936001196
 30
0.0
 11
16.87138245111079
 21
7.908344131739965
 31
0.0
  0
LINE
  5
E822
330
E810
100
AcDbEntity
  8
0
  6
CONTINUOUS
100
AcDbLine
 10
15.15036518892213
 20
5.513807660471122
 30
0.0
 11
17.05541162217424
 21
7.418854093723231
 31
0.0
  0
LINE
  5
E823
330
E810
100
AcDbEntity
  8
0
  6
CONTINUOUS
100
AcDbLine
 10
14.74459412247225
 20
4.434517384941048
 30
0.0
 11
17.2394407932377
 21
6.929364055706499
 31
0.0
  0
LINE
  5
E824
330
E810
100
AcDbEntity
  8
0
  6
CONTINUOUS
100
AcDbLine
 10
14.33882305602236
 20
3.355227109410975
 30
0.0
 11
17.42346996430115
 21
6.439874017689766
 31
0.0
  0
LINE
  5
E825
330
E810
100
AcDbEntity
  8
0
  6
CONTINUOUS
100
AcDbLine
 10
13.46705359186416
 20
1.809938436172586
 30
0.0
 11
16.0819338255367
 21
4.424818669845129
 31
0.0
  0
LINE
  5
E826
330
E810
100
AcDbEntity
  8
0
  6
CONTINUOUS
100
AcDbLine
 10
16.63283254238972
 20
4.975717386698149
 30
0.0
 11
17.60749913536461
 21
5.950383979673033
 31
0.0
  0
LINE
  5
E827
330
E810
100
AcDbEntity
  8
0
  6
CONTINUOUS
100
AcDbLine
 10
13.66663434263929
 20
1.335999977867529
 30
0.0
 11
15.67604797733754
 21
3.345413612565779
 31
0.0
  0
LINE
  5
E828
330
E810
100
AcDbEntity
  8
0
  6
CONTINUOUS
100
AcDbLine
 10
13.86621509341442
 20
0.8620615195624723
 30
0.0
 11
15.27016212913838
 21
2.26600855528643
 31
0.0
  0
LINE
  5
E829
330
E810
100
AcDbEntity
  8
0
  6
CONTINUOUS
100
AcDbLine
 10
16.81682257348267
 20
4.486188208710908
 30
0.0
 11
17.79152830642806
 21
5.460893941656299
 31
0.0
  0
LINE
  5
E82A
330
E810
100
AcDbEntity
  8
0
  6
CONTINUOUS
100
AcDbLine
 10
17.00081260457561
 20
3.996659030723667
 30
0.0
 11
17.97555747749151
 21
4.971403903639565
 31
0.0
  0
LINE
  5
E82B
330
E810
100
AcDbEntity
  8
0
  6
CONTINUOUS
100
AcDbLine
 10
20.74362343514722
 20
8.412989070375462
 30
0.0
 11
21.09373436476302
 21
8.763099999991256
 31
0.0
  0
LINE
  5
E82C
330
E810
100
AcDbEntity
  8
0
  6
CONTINUOUS
100
AcDbLine
 10
20.25401257174777
 20
7.249858997895826
 30
0.0
 11
21.7672535738432
 21
8.763099999991255
 31
0.0
  0
LINE
  5
E82D
330
E810
100
AcDbEntity
  8
0
  6
CONTINUOUS
100
AcDbLine
 10
14.06579584418955
 20
0.3881230612574149
 30
0.0
 11
14.86427628093921
 21
1.186603498007082
 31
0.0
  0
LINE
  5
E82E
330
E810
100
AcDbEntity
  8
0
  6
CONTINUOUS
100
AcDbLine
 10
14.26537659496467
 20
-0.0858153970476412
 30
0.0
 11
14.45839043274005
 21
0.1071984407277329
 31
0.0
  0
LINE
  5
E82F
330
E810
100
AcDbEntity
  8
0
  6
CONTINUOUS
100
AcDbLine
 10
17.18480263566856
 20
3.507129852736426
 30
0.0
 11
18.15958664855496
 21
4.481913865622833
 31
0.0
  0
LINE
  5
E830
330
E810
100
AcDbEntity
  8
0
  6
CONTINUOUS
100
AcDbLine
 10
17.3687926667615
 20
3.017600674749186
 30
0.0
 11
18.34361581961842
 21
3.9924238276061
 31
0.0
  0
LINE
  5
E831
330
E810
100
AcDbEntity
  8
0
  6
CONTINUOUS
100
AcDbLine
 10
19.76440170834832
 20
6.086728925416191
 30
0.0
 11
22.33924590259489
 21
8.661573119662755
 31
0.0
  0
LINE
  5
E832
330
E810
100
AcDbEntity
  8
0
  6
CONTINUOUS
100
AcDbLine
 10
19.27479084494887
 20
4.923598852936555
 30
0.0
 11
21.84929622842713
 21
7.498104236414807
 31
0.0
  0
LINE
  5
E833
330
E810
100
AcDbEntity
  8
0
  6
CONTINUOUS
100
AcDbLine
 10
17.55278269785445
 20
2.528071496761945
 30
0.0
 11
18.52764499068187
 21
3.502933789589366
 31
0.0
  0
LINE
  5
E834
330
E810
100
AcDbEntity
  8
0
  6
CONTINUOUS
100
AcDbLine
 10
18.78517998154942
 20
3.760468780456919
 30
0.0
 11
21.35934655425936
 21
6.33463535316686
 31
0.0
  0
LINE
  5
E835
330
E810
100
AcDbEntity
  8
0
  6
CONTINUOUS
100
AcDbLine
 10
17.73677272894739
 20
2.038542318774704
 30
0.0
 11
20.8693968800916
 21
5.171166469918914
 31
0.0
  0
LINE
  5
E836
330
E810
100
AcDbEntity
  8
0
  6
CONTINUOUS
100
AcDbLine
 10
17.92076276004034
 20
1.549013140787464
 30
0.0
 11
20.37944720592384
 21
4.007697586670968
 31
0.0
  0
LINE
  5
E837
330
E810
100
AcDbEntity
  8
0
  6
CONTINUOUS
100
AcDbLine
 10
18.10475279113329
 20
1.059483962800223
 30
0.0
 11
19.88949753175608
 21
2.84422870342302
 31
0.0
  0
LINE
  5
E838
330
E810
100
AcDbEntity
  8
0
  6
CONTINUOUS
100
AcDbLine
 10
18.28874282222623
 20
0.5699547848129822
 30
0.0
 11
19.39954785758832
 21
1.680759820175074
 31
0.0
  0
LINE
  5
E839
330
E810
100
AcDbEntity
  8
0
  6
CONTINUOUS
100
AcDbLine
 10
18.47273285331918
 20
0.0804256068257416
 30
0.0
 11
18.90959818342056
 21
0.517290936927127
 31
0.0
  0
LINE
  5
E83A
330
E810
100
AcDbEntity
  8
0
  6
CONTINUOUS
100
AcDbLine
 10
14.3590401358224
 20
-0.1570118376323384
 30
0.0
 11
14.24903296539946
 21
-0.0470046672093929
 31
0.0
  0
LINE
  5
E83B
330
E810
100
AcDbEntity
  8
0
  6
CONTINUOUS
100
AcDbLine
 10
14.54309291258661
 20
0.332454594683643
 30
0.0
 11
13.75908329123172
 21
1.116464216038529
 31
0.0
  0
LINE
  5
E83C
330
E810
100
AcDbEntity
  8
0
  6
CONTINUOUS
100
AcDbLine
 10
14.72714568935081
 20
0.8219210269996244
 30
0.0
 11
13.26913361706399
 21
2.27993309928645
 31
0.0
  0
LINE
  5
E83D
330
E810
100
AcDbEntity
  8
0
  6
CONTINUOUS
100
AcDbLine
 10
14.91119846611502
 20
1.311387459315606
 30
0.0
 11
12.77918394289625
 21
3.443401982534371
 31
0.0
  0
LINE
  5
E83E
330
E810
100
AcDbEntity
  8
0
  6
CONTINUOUS
100
AcDbLine
 10
15.09525124287922
 20
1.800853891631587
 30
0.0
 11
12.28923426872852
 21
4.606870865782293
 31
0.0
  0
LINE
  5
E83F
330
E810
100
AcDbEntity
  8
0
  6
CONTINUOUS
100
AcDbLine
 10
15.27930401964343
 20
2.290320323947569
 30
0.0
 11
11.79928459456078
 21
5.770339749030213
 31
0.0
  0
LINE
  5
E840
330
E810
100
AcDbEntity
  8
0
  6
CONTINUOUS
100
AcDbLine
 10
15.46335679640763
 20
2.77978675626355
 30
0.0
 11
14.48885470994921
 21
3.754288842721972
 31
0.0
  0
LINE
  5
E841
330
E810
100
AcDbEntity
  8
0
  6
CONTINUOUS
100
AcDbLine
 10
13.88507249233704
 20
4.358071060334137
 30
0.0
 11
11.30933492039305
 21
6.933808632278135
 31
0.0
  0
LINE
  5
E842
330
E810
100
AcDbEntity
  8
0
  6
CONTINUOUS
100
AcDbLine
 10
18.75840522805855
 20
0.1582575336928151
 30
0.0
 11
18.25383727664818
 21
0.6628254851031863
 31
0.0
  0
LINE
  5
E843
330
E810
100
AcDbEntity
  8
0
  6
CONTINUOUS
100
AcDbLine
 10
15.64740957317184
 20
3.269253188579531
 30
0.0
 11
14.67288388101266
 21
4.243778880738705
 31
0.0
  0
LINE
  5
E844
330
E810
100
AcDbEntity
  8
0
  6
CONTINUOUS
100
AcDbLine
 10
13.39509276772158
 20
5.521569994029786
 30
0.0
 11
10.81938524622531
 21
8.097277515526056
 31
0.0
  0
LINE
  5
E845
330
E810
100
AcDbEntity
  8
0
  6
CONTINUOUS
100
AcDbLine
 10
18.95798597883369
 20
0.6321959919978686
 30
0.0
 11
17.84825644852853
 21
1.741925522303024
 31
0.0
  0
LINE
  5
E846
330
E810
100
AcDbEntity
  8
0
  6
CONTINUOUS
100
AcDbLine
 10
19.15756672960882
 20
1.106134450302922
 30
0.0
 11
17.44267562040888
 21
2.821025559502861
 31
0.0
  0
LINE
  5
E847
330
E810
100
AcDbEntity
  8
0
  6
CONTINUOUS
100
AcDbLine
 10
15.83146234993604
 20
3.758719620895513
 30
0.0
 11
14.85691305207612
 21
4.733268918755439
 31
0.0
  0
LINE
  5
E848
330
E810
100
AcDbEntity
  8
0
  6
CONTINUOUS
100
AcDbLine
 10
16.01551512670025
 20
4.248186053211494
 30
0.0
 11
15.04094222313957
 21
5.222758956772172
 31
0.0
  0
LINE
  5
E849
330
E810
100
AcDbEntity
  8
0
  6
CONTINUOUS
100
AcDbLine
 10
12.90511304310612
 20
6.685068927725435
 30
0.0
 11
10.8270819708403
 21
8.763099999991255
 31
0.0
  0
LINE
  5
E84A
330
E810
100
AcDbEntity
  8
0
  6
CONTINUOUS
100
AcDbLine
 10
12.41513331849066
 20
7.848567861421083
 30
0.0
 11
11.50060117992049
 21
8.763099999991255
 31
0.0
  0
LINE
  5
E84B
330
E810
100
AcDbEntity
  8
0
  6
CONTINUOUS
100
AcDbLine
 10
19.35714748038395
 20
1.580072908607975
 30
0.0
 11
17.03709479228923
 21
3.900125596702697
 31
0.0
  0
LINE
  5
E84C
330
E810
100
AcDbEntity
  8
0
  6
CONTINUOUS
100
AcDbLine
 10
19.55672823115909
 20
2.054011366913028
 30
0.0
 11
16.63151396416958
 21
4.979225633902534
 31
0.0
  0
LINE
  5
E84D
330
E810
100
AcDbEntity
  8
0
  6
CONTINUOUS
100
AcDbLine
 10
16.19956790346445
 20
4.737652485527476
 30
0.0
 11
15.22497139420302
 21
5.712248994788904
 31
0.0
  0
LINE
  5
E84E
330
E810
100
AcDbEntity
  8
0
  6
CONTINUOUS
100
AcDbLine
 10
16.38362068022866
 20
5.227118917843457
 30
0.0
 11
15.40900056526648
 21
6.201739032805637
 31
0.0
  0
LINE
  5
E84F
330
E810
100
AcDbEntity
  8
0
  6
CONTINUOUS
100
AcDbLine
 10
19.75630898193422
 20
2.527949825218081
 30
0.0
 11
18.70774536448286
 21
3.576513442669441
 31
0.0
  0
LINE
  5
E850
330
E810
100
AcDbEntity
  8
0
  6
CONTINUOUS
100
AcDbLine
 10
19.95588973270936
 20
3.001888283523134
 30
0.0
 11
18.90726987211446
 21
4.050508144118028
 31
0.0
  0
LINE
  5
E851
330
E810
100
AcDbEntity
  8
0
  6
CONTINUOUS
100
AcDbLine
 10
20.15547048348449
 20
3.475826741828186
 30
0.0
 11
19.10679437974606
 21
4.524502845566614
 31
0.0
  0
LINE
  5
E852
330
E810
100
AcDbEntity
  8
0
  6
CONTINUOUS
100
AcDbLine
 10
20.35505123425962
 20
3.94976520013324
 30
0.0
 11
19.30631888737766
 21
4.998497547015201
 31
0.0
  0
LINE
  5
E853
330
E810
100
AcDbEntity
  8
0
  6
CONTINUOUS
100
AcDbLine
 10
20.55463198503475
 20
4.423703658438292
 30
0.0
 11
19.50584339500926
 21
5.472492248463787
 31
0.0
  0
LINE
  5
E854
330
E810
100
AcDbEntity
  8
0
  6
CONTINUOUS
100
AcDbLine
 10
18.37481191085755
 20
3.909446896294752
 30
0.0
 11
15.59302973632993
 21
6.691229070822371
 31
0.0
  0
LINE
  5
E855
330
E810
100
AcDbEntity
  8
0
  6
CONTINUOUS
100
AcDbLine
 10
17.96904084440766
 20
4.988737171824825
 30
0.0
 11
15.77705890739338
 21
7.180719108839104
 31
0.0
  0
LINE
  5
E856
330
E810
100
AcDbEntity
  8
0
  6
CONTINUOUS
100
AcDbLine
 10
17.56326977795777
 20
6.068027447354899
 30
0.0
 11
15.96108807845684
 21
7.670209146855838
 31
0.0
  0
LINE
  5
E857
330
E810
100
AcDbEntity
  8
0
  6
CONTINUOUS
100
AcDbLine
 10
17.15749871150789
 20
7.147317722884972
 30
0.0
 11
16.14511724952029
 21
8.15969918487257
 31
0.0
  0
LINE
  5
E858
330
E810
100
AcDbEntity
  8
0
  6
CONTINUOUS
100
AcDbLine
 10
16.751727645058
 20
8.226607998415046
 30
0.0
 11
16.32914642058374
 21
8.649189222889303
 31
0.0
  0
LINE
  5
E859
330
E810
100
AcDbEntity
  8
0
  6
CONTINUOUS
100
AcDbLine
 10
20.75421273580989
 20
4.897642116743345
 30
0.0
 11
19.70536790264086
 21
5.946486949912374
 31
0.0
  0
LINE
  5
E85A
330
E810
100
AcDbEntity
  8
0
  6
CONTINUOUS
100
AcDbLine
 10
20.95379348658502
 20
5.371580575048398
 30
0.0
 11
19.90489241027246
 21
6.42048165136096
 31
0.0
  0
LINE
  5
E85B
330
E810
100
AcDbEntity
  8
0
  6
CONTINUOUS
100
AcDbLine
 10
21.15337423736015
 20
5.845519033353452
 30
0.0
 11
20.10441691790406
 21
6.894476352809547
 31
0.0
  0
LINE
  5
E85C
330
E810
100
AcDbEntity
  8
0
  6
CONTINUOUS
100
AcDbLine
 10
21.35295498813529
 20
6.319457491658505
 30
0.0
 11
20.30394142553566
 21
7.368471054258134
 31
0.0
  0
LINE
  5
E85D
330
E810
100
AcDbEntity
  8
0
  6
CONTINUOUS
100
AcDbLine
 10
21.55253573891042
 20
6.793395949963558
 30
0.0
 11
20.50346593316726
 21
7.842465755706721
 31
0.0
  0
LINE
  5
E85E
330
E810
100
AcDbEntity
  8
0
  6
CONTINUOUS
100
AcDbLine
 10
21.75211648968556
 20
7.267334408268612
 30
0.0
 11
20.70299044079886
 21
8.316460457155308
 31
0.0
  0
LINE
  5
E85F
330
E810
100
AcDbEntity
  8
0
  6
CONTINUOUS
100
AcDbLine
 10
21.95169724046069
 20
7.741272866573663
 30
0.0
 11
20.9298701070431
 21
8.763099999991256
 31
0.0
  0
LINE
  5
E860
330
E810
100
AcDbEntity
  8
0
  6
CONTINUOUS
100
AcDbLine
 10
22.15127799123582
 20
8.215211324878716
 30
0.0
 11
21.60338931612328
 21
8.763099999991256
 31
0.0
  0
LINE
  5
E861
330
E810
100
AcDbEntity
  8
0
  6
CONTINUOUS
100
AcDbLine
 10
22.35085874201096
 20
8.689149783183769
 30
0.0
 11
22.27690852520347
 21
8.763099999991255
 31
0.0
  0
ENDBLK
  5
E953
330
E810
100
AcDbEntity
  8
0
100
AcDbBlockEnd
  0
BLOCK
  5
E954
330
E862
100
AcDbEntity
  8
0
100
AcDbBlockBegin
  2
*X15
 70
     1
 10
0.0
 20
0.0
 30
0.0
  3
*X15
  1

  0
LINE
  5
E863
330
E862
100
AcDbEntity
  8
0
  6
CONTINUOUS
100
AcDbLine
 10
23.19462913593892
 20
8.169917934846424
 30
0.0
 11
23.70775465517246
 21
8.683043454079957
 31
0.0
  0
LINE
  5
E864
330
E862
100
AcDbEntity
  8
0
  6
CONTINUOUS
100
AcDbLine
 10
22.64923161835078
 20
6.951001208178088
 30
0.0
 11
23.9159364069932
 21
8.217705996820516
 31
0.0
  0
LINE
  5
E865
330
E862
100
AcDbEntity
  8
0
  6
CONTINUOUS
100
AcDbLine
 10
22.10383410076263
 20
5.732084481509751
 30
0.0
 11
24.12411815881395
 21
7.752368539561078
 31
0.0
  0
LINE
  5
E866
330
E862
100
AcDbEntity
  8
0
  6
CONTINUOUS
100
AcDbLine
 10
21.55843658317447
 20
4.513167754841414
 30
0.0
 11
24.3322999106347
 21
7.287031082301639
 31
0.0
  0
LINE
  5
E867
330
E862
100
AcDbEntity
  8
0
  6
CONTINUOUS
100
AcDbLine
 10
21.01303906558632
 20
3.294251028173077
 30
0.0
 11
24.54048166245544
 21
6.821693625042199
 31
0.0
  0
LINE
  5
E868
330
E862
100
AcDbEntity
  8
0
  6
CONTINUOUS
100
AcDbLine
 10
20.46764154799817
 20
2.075334301504738
 30
0.0
 11
23.28571549467848
 21
4.89340824818505
 31
0.0
  0
LINE
  5
E869
330
E862
100
AcDbEntity
  8
0
  6
CONTINUOUS
100
AcDbLine
 10
19.92224403041002
 20
0.8564175748364002
 30
0.0
 11
22.74075865492779
 21
3.674932199354171
 31
0.0
  0
LINE
  5
E86A
330
E862
100
AcDbEntity
  8
0
  6
CONTINUOUS
100
AcDbLine
 10
23.67305085490148
 20
5.280743608408048
 30
0.0
 11
24.74866341427619
 21
6.356356167782759
 31
0.0
  0
LINE
  5
E86B
330
E862
100
AcDbEntity
  8
0
  6
CONTINUOUS
100
AcDbLine
 10
23.88118970842314
 20
4.815363252849522
 30
0.0
 11
24.95684516609694
 21
5.89101871052332
 31
0.0
  0
LINE
  5
E86C
330
E862
100
AcDbEntity
  8
0
  6
CONTINUOUS
100
AcDbLine
 10
19.73925852647308
 20
-0.0000871381807288
 30
0.0
 11
23.4103456646501
 21
3.670999999996297
 31
0.0
  0
LINE
  5
E86D
330
E862
100
AcDbEntity
  8
0
  6
CONTINUOUS
100
AcDbLine
 10
24.0893285619448
 20
4.349982897290997
 30
0.0
 11
25.16502691791769
 21
5.42568125326388
 31
0.0
  0
LINE
  5
E86E
330
E862
100
AcDbEntity
  8
0
  6
CONTINUOUS
100
AcDbLine
 10
20.41282099582748
 20
-0.0000438779065108
 30
0.0
 11
21.64944178675636
 21
1.236576913022366
 31
0.0
  0
LINE
  5
E86F
330
E862
100
AcDbEntity
  8
0
  6
CONTINUOUS
100
AcDbLine
 10
22.78126487373161
 20
2.36839999999762
 30
0.0
 11
24.08386487373029
 21
3.670999999996297
 31
0.0
  0
LINE
  5
E870
330
E862
100
AcDbEntity
  8
0
  6
CONTINUOUS
100
AcDbLine
 10
24.29746741546646
 20
3.884602541732471
 30
0.0
 11
25.37320866973843
 21
4.960343796004441
 31
0.0
  0
LINE
  5
E871
330
E862
100
AcDbEntity
  8
0
  6
CONTINUOUS
100
AcDbLine
 10
21.08638346518189
 20
-0.0000006176322938
 30
0.0
 11
21.10379033335899
 21
0.0174062505448083
 31
0.0
  0
LINE
  5
E872
330
E862
100
AcDbEntity
  8
0
  6
CONTINUOUS
100
AcDbLine
 10
23.4547840828118
 20
2.36839999999762
 30
0.0
 11
25.58139042155918
 21
4.495006338745002
 31
0.0
  0
LINE
  5
E873
330
E862
100
AcDbEntity
  8
0
  6
CONTINUOUS
100
AcDbLine
 10
29.30199999996933
 20
8.215615917155148
 30
0.0
 11
29.84948408280543
 21
8.763099999991255
 31
0.0
  0
LINE
  5
E874
330
E862
100
AcDbEntity
  8
0
  6
CONTINUOUS
100
AcDbLine
 10
24.12830329189199
 20
2.36839999999762
 30
0.0
 11
25.78957217337993
 21
4.029668881485562
 31
0.0
  0
LINE
  5
E875
330
E862
100
AcDbEntity
  8
0
  6
CONTINUOUS
100
AcDbLine
 10
29.30199999996933
 20
7.54209670807496
 30
0.0
 11
30.52300329188562
 21
8.763099999991255
 31
0.0
  0
LINE
  5
E876
330
E862
100
AcDbEntity
  8
0
  6
CONTINUOUS
100
AcDbLine
 10
24.80182250097217
 20
2.36839999999762
 30
0.0
 11
25.99775392520067
 21
3.564331424226122
 31
0.0
  0
LINE
  5
E877
330
E862
100
AcDbEntity
  8
0
  6
CONTINUOUS
100
AcDbLine
 10
29.30199999996933
 20
6.868577498994774
 30
0.0
 11
30.74199999996926
 21
8.308577498994712
 31
0.0
  0
LINE
  5
E878
330
E862
100
AcDbEntity
  8
0
  6
CONTINUOUS
100
AcDbLine
 10
25.13028238392013
 20
2.023340673865392
 30
0.0
 11
26.20593567702142
 21
3.098993966966683
 31
0.0
  0
LINE
  5
E879
330
E862
100
AcDbEntity
  8
0
  6
CONTINUOUS
100
AcDbLine
 10
25.33838066033617
 20
1.557919741201244
 30
0.0
 11
26.41411742884217
 21
2.633656509707244
 31
0.0
  0
LINE
  5
E87A
330
E862
100
AcDbEntity
  8
0
  6
CONTINUOUS
100
AcDbLine
 10
25.54647893675221
 20
1.092498808537098
 30
0.0
 11
26.62229918066291
 21
2.168319052447804
 31
0.0
  0
LINE
  5
E87B
330
E862
100
AcDbEntity
  8
0
  6
CONTINUOUS
100
AcDbLine
 10
25.75457721316825
 20
0.62707787587295
 30
0.0
 11
26.83048093248366
 21
1.702981595188365
 31
0.0
  0
LINE
  5
E87C
330
E862
100
AcDbEntity
  8
0
  6
CONTINUOUS
100
AcDbLine
 10
29.30199999996933
 20
6.195058289914587
 30
0.0
 11
30.74199999996926
 21
7.635058289914522
 31
0.0
  0
LINE
  5
E87D
330
E862
100
AcDbEntity
  8
0
  6
CONTINUOUS
100
AcDbLine
 10
29.30199999996933
 20
5.521539080834401
 30
0.0
 11
30.74199999996926
 21
6.961539080834331
 31
0.0
  0
LINE
  5
E87E
330
E862
100
AcDbEntity
  8
0
  6
CONTINUOUS
100
AcDbLine
 10
29.30199999996933
 20
4.848019871754214
 30
0.0
 11
30.74199999996925
 21
6.288019871754143
 31
0.0
  0
LINE
  5
E87F
330
E862
100
AcDbEntity
  8
0
  6
CONTINUOUS
100
AcDbLine
 10
29.30199999996933
 20
4.174500662674028
 30
0.0
 11
30.74199999996925
 21
5.614500662673953
 31
0.0
  0
LINE
  5
E880
330
E862
100
AcDbEntity
  8
0
  6
CONTINUOUS
100
AcDbLine
 10
25.96267548958429
 20
0.1616569432088024
 30
0.0
 11
27.18411854636669
 21
1.383099999991207
 31
0.0
  0
LINE
  5
E881
330
E862
100
AcDbEntity
  8
0
  6
CONTINUOUS
100
AcDbLine
 10
29.30199999996933
 20
3.500981453593841
 30
0.0
 11
30.74199999996925
 21
4.940981453593762
 31
0.0
  0
LINE
  5
E882
330
E862
100
AcDbEntity
  8
0
  6
CONTINUOUS
100
AcDbLine
 10
26.50763775544691
 20
0.0330999999912356
 30
0.0
 11
27.85763775544689
 21
1.383099999991223
 31
0.0
  0
LINE
  5
E883
330
E862
100
AcDbEntity
  8
0
  6
CONTINUOUS
100
AcDbLine
 10
29.30199999996933
 20
2.827462244513656
 30
0.0
 11
30.74199999996925
 21
4.267462244513574
 31
0.0
  0
LINE
  5
E884
330
E862
100
AcDbEntity
  8
0
  6
CONTINUOUS
100
AcDbLine
 10
27.18115696452709
 20
0.0330999999912356
 30
0.0
 11
28.55073879889363
 21
1.402681834357775
 31
0.0
  0
LINE
  5
E885
330
E862
100
AcDbEntity
  8
0
  6
CONTINUOUS
100
AcDbLine
 10
29.28241816560272
 20
2.134361201066866
 30
0.0
 11
30.74199999996924
 21
3.593943035433383
 31
0.0
  0
LINE
  5
E886
330
E862
100
AcDbEntity
  8
0
  6
CONTINUOUS
100
AcDbLine
 10
27.85467617360728
 20
0.0330999999912356
 30
0.0
 11
30.74199999996924
 21
2.920423826353195
 31
0.0
  0
LINE
  5
E887
330
E862
100
AcDbEntity
  8
0
  6
CONTINUOUS
100
AcDbLine
 10
28.53897559587887
 20
0.0438802131826428
 30
0.0
 11
30.73121978677781
 21
2.236124404081585
 31
0.0
  0
LINE
  5
E888
330
E862
100
AcDbEntity
  8
0
  6
CONTINUOUS
100
AcDbLine
 10
29.45140055588722
 20
0.2827859641107988
 30
0.0
 11
30.49231403584965
 21
1.323699444073236
 31
0.0
  0
LINE
  5
E889
330
E862
100
AcDbEntity
  8
0
  6
CONTINUOUS
100
AcDbLine
 10
19.59027867740337
 20
-0.0000967065718083
 30
0.0
 11
19.55485265190471
 21
0.035329318926844
 31
0.0
  0
LINE
  5
E88A
330
E862
100
AcDbEntity
  8
0
  6
CONTINUOUS
100
AcDbLine
 10
20.26375463176586
 20
-0.0000534518541091
 30
0.0
 11
19.76305575737534
 21
0.5006454225364014
 31
0.0
  0
LINE
  5
E88B
330
E862
100
AcDbEntity
  8
0
  6
CONTINUOUS
100
AcDbLine
 10
20.93723058612834
 20
-0.0000101971364099
 30
0.0
 11
19.97125886284597
 21
0.965961526145958
 31
0.0
  0
LINE
  5
E88C
330
E862
100
AcDbEntity
  8
0
  6
CONTINUOUS
100
AcDbLine
 10
21.25514828313686
 20
0.355591314935257
 30
0.0
 11
20.1794619683166
 21
1.431277629755512
 31
0.0
  0
LINE
  5
E88D
330
E862
100
AcDbEntity
  8
0
  6
CONTINUOUS
100
AcDbLine
 10
21.46338838394921
 20
0.8208704232030986
 30
0.0
 11
20.38766507378723
 21
1.896593733365069
 31
0.0
  0
LINE
  5
E88E
330
E862
100
AcDbEntity
  8
0
  6
CONTINUOUS
100
AcDbLine
 10
21.67162848476155
 20
1.28614953147094
 30
0.0
 11
20.59586817925786
 21
2.361909836974626
 31
0.0
  0
LINE
  5
E88F
330
E862
100
AcDbEntity
  8
0
  6
CONTINUOUS
100
AcDbLine
 10
21.8798685855739
 20
1.751428639738782
 30
0.0
 11
20.80407128472849
 21
2.827225940584183
 31
0.0
  0
LINE
  5
E890
330
E862
100
AcDbEntity
  8
0
  6
CONTINUOUS
100
AcDbLine
 10
22.08810868638624
 20
2.216707748006623
 30
0.0
 11
21.01227439019912
 21
3.292542044193739
 31
0.0
  0
LINE
  5
E891
330
E862
100
AcDbEntity
  8
0
  6
CONTINUOUS
100
AcDbLine
 10
22.60993564347543
 20
2.36839999999762
 30
0.0
 11
21.22047749566975
 21
3.757858147803296
 31
0.0
  0
LINE
  5
E892
330
E862
100
AcDbEntity
  8
0
  6
CONTINUOUS
100
AcDbLine
 10
23.28345485255561
 20
2.36839999999762
 30
0.0
 11
21.42868060114038
 21
4.223174251412853
 31
0.0
  0
LINE
  5
E893
330
E862
100
AcDbEntity
  8
0
  6
CONTINUOUS
100
AcDbLine
 10
26.29227406164219
 20
0.0330999999912356
 30
0.0
 11
25.80009199592872
 21
0.5252820657046957
 31
0.0
  0
LINE
  5
E894
330
E862
100
AcDbEntity
  8
0
  6
CONTINUOUS
100
AcDbLine
 10
23.9569740616358
 20
2.36839999999762
 30
0.0
 11
21.63688370661101
 21
4.688490355022409
 31
0.0
  0
LINE
  5
E895
330
E862
100
AcDbEntity
  8
0
  6
CONTINUOUS
100
AcDbLine
 10
26.96579327072237
 20
0.0330999999912356
 30
0.0
 11
25.2554132311971
 21
1.743480039516508
 31
0.0
  0
LINE
  5
E896
330
E862
100
AcDbEntity
  8
0
  6
CONTINUOUS
100
AcDbLine
 10
24.63049327071599
 20
2.36839999999762
 30
0.0
 11
23.32789327071731
 21
3.670999999996297
 31
0.0
  0
LINE
  5
E897
330
E862
100
AcDbEntity
  8
0
  6
CONTINUOUS
100
AcDbLine
 10
22.92098674744635
 20
4.077906523267254
 30
0.0
 11
21.84508681208164
 21
5.153806458631966
 31
0.0
  0
LINE
  5
E898
330
E862
100
AcDbEntity
  8
0
  6
CONTINUOUS
100
AcDbLine
 10
27.63931247980256
 20
0.0330999999912356
 30
0.0
 11
24.0014124797975
 21
3.670999999996297
 31
0.0
  0
LINE
  5
E899
330
E862
100
AcDbEntity
  8
0
  6
CONTINUOUS
100
AcDbLine
 10
23.129125600968
 20
4.5432868788258
 30
0.0
 11
22.05328991755227
 21
5.619122562241522
 31
0.0
  0
LINE
  5
E89A
330
E862
100
AcDbEntity
  8
0
  6
CONTINUOUS
100
AcDbLine
 10
28.31283168888275
 20
0.0330999999912356
 30
0.0
 11
24.16488385994816
 21
4.181047828925828
 31
0.0
  0
LINE
  5
E89B
330
E862
100
AcDbEntity
  8
0
  6
CONTINUOUS
100
AcDbLine
 10
23.33726445448964
 20
5.008667234384345
 30
0.0
 11
22.2614930230229
 21
6.084438665851079
 31
0.0
  0
LINE
  5
E89C
330
E862
100
AcDbEntity
  8
0
  6
CONTINUOUS
100
AcDbLine
 10
28.92085740005492
 20
0.0985934978992438
 30
0.0
 11
27.63635089796295
 21
1.383099999991217
 31
0.0
  0
LINE
  5
E89D
330
E862
100
AcDbEntity
  8
0
  6
CONTINUOUS
100
AcDbLine
 10
26.43704649509776
 20
2.582404402856405
 30
0.0
 11
23.61992702019732
 21
5.399523877756844
 31
0.0
  0
LINE
  5
E89E
330
E862
100
AcDbEntity
  8
0
  6
CONTINUOUS
100
AcDbLine
 10
23.54540330801128
 20
5.47404758994289
 30
0.0
 11
22.46969612849353
 21
6.549754769460635
 31
0.0
  0
LINE
  5
E89F
330
E862
100
AcDbEntity
  8
0
  6
CONTINUOUS
100
AcDbLine
 10
29.42225615078443
 20
0.2707139562499279
 30
0.0
 11
28.30987010704312
 21
1.383099999991234
 31
0.0
  0
LINE
  5
E8A0
330
E862
100
AcDbEntity
  8
0
  6
CONTINUOUS
100
AcDbLine
 10
25.89179548232307
 20
3.801174624711282
 30
0.0
 11
22.67789923396416
 21
7.015070873070191
 31
0.0
  0
LINE
  5
E8A1
330
E862
100
AcDbEntity
  8
0
  6
CONTINUOUS
100
AcDbLine
 10
29.83624534690007
 20
0.5302439692144705
 30
0.0
 11
28.85811781497101
 21
1.508371501143527
 31
0.0
  0
LINE
  5
E8A2
330
E862
100
AcDbEntity
  8
0
  6
CONTINUOUS
100
AcDbLine
 10
25.34654446954838
 20
5.01994484656616
 30
0.0
 11
22.88610233943479
 21
7.480386976679748
 31
0.0
  0
LINE
  5
E8A3
330
E862
100
AcDbEntity
  8
0
  6
CONTINUOUS
100
AcDbLine
 10
30.17865975401872
 20
0.8613487711760022
 30
0.0
 11
29.18888744090175
 21
1.851121084292977
 31
0.0
  0
LINE
  5
E8A4
330
E862
100
AcDbEntity
  8
0
  6
CONTINUOUS
100
AcDbLine
 10
24.80129345677369
 20
6.238715068421037
 30
0.0
 11
23.09430544490542
 21
7.945703080289305
 31
0.0
  0
LINE
  5
E8A5
330
E862
100
AcDbEntity
  8
0
  6
CONTINUOUS
100
AcDbLine
 10
30.45496647202376
 20
1.258561262251155
 30
0.0
 11
29.30199999996933
 21
2.411527734305588
 31
0.0
  0
LINE
  5
E8A6
330
E862
100
AcDbEntity
  8
0
  6
CONTINUOUS
100
AcDbLine
 10
24.256042443999
 20
7.457485290275915
 30
0.0
 11
23.30250855037605
 21
8.411019183898862
 31
0.0
  0
LINE
  5
E8A7
330
E862
100
AcDbEntity
  8
0
  6
CONTINUOUS
100
AcDbLine
 10
30.64868582078271
 20
1.738361122572387
 30
0.0
 11
29.30199999996933
 21
3.085046943385775
 31
0.0
  0
LINE
  5
E8A8
330
E862
100
AcDbEntity
  8
0
  6
CONTINUOUS
100
AcDbLine
 10
23.71079143122431
 20
8.676255512130794
 30
0.0
 11
23.51071165584668
 21
8.876335287508416
 31
0.0
  0
LINE
  5
E8A9
330
E862
100
AcDbEntity
  8
0
  6
CONTINUOUS
100
AcDbLine
 10
30.73802122914428
 20
2.322544923291007
 30
0.0
 11
29.30199999996933
 21
3.758566152465961
 31
0.0
  0
LINE
  5
E8AA
330
E862
100
AcDbEntity
  8
0
  6
CONTINUOUS
100
AcDbLine
 10
30.74199999996924
 20
2.992085361546236
 30
0.0
 11
29.30199999996933
 21
4.432085361546148
 31
0.0
  0
LINE
  5
E8AB
330
E862
100
AcDbEntity
  8
0
  6
CONTINUOUS
100
AcDbLine
 10
30.74199999996924
 20
3.665604570626419
 30
0.0
 11
29.30199999996933
 21
5.105604570626333
 31
0.0
  0
LINE
  5
E8AC
330
E862
100
AcDbEntity
  8
0
  6
CONTINUOUS
100
AcDbLine
 10
30.74199999996925
 20
4.339123779706602
 30
0.0
 11
29.30199999996933
 21
5.77912377970652
 31
0.0
  0
LINE
  5
E8AD
330
E862
100
AcDbEntity
  8
0
  6
CONTINUOUS
100
AcDbLine
 10
30.74199999996925
 20
5.012642988786785
 30
0.0
 11
29.30199999996933
 21
6.452642988786707
 31
0.0
  0
LINE
  5
E8AE
330
E862
100
AcDbEntity
  8
0
  6
CONTINUOUS
100
AcDbLine
 10
30.74199999996925
 20
5.68616219786697
 30
0.0
 11
29.30199999996933
 21
7.126162197866894
 31
0.0
  0
LINE
  5
E8AF
330
E862
100
AcDbEntity
  8
0
  6
CONTINUOUS
100
AcDbLine
 10
30.74199999996925
 20
6.359681406947153
 30
0.0
 11
29.30199999996933
 21
7.799681406947081
 31
0.0
  0
LINE
  5
E8B0
330
E862
100
AcDbEntity
  8
0
  6
CONTINUOUS
100
AcDbLine
 10
30.74199999996926
 20
7.033200616027337
 30
0.0
 11
29.30199999996933
 21
8.473200616027269
 31
0.0
  0
LINE
  5
E8B1
330
E862
100
AcDbEntity
  8
0
  6
CONTINUOUS
100
AcDbLine
 10
30.74199999996926
 20
7.706719825107518
 30
0.0
 11
29.68561982508552
 21
8.763099999991255
 31
0.0
  0
LINE
  5
E8B2
330
E862
100
AcDbEntity
  8
0
  6
CONTINUOUS
100
AcDbLine
 10
30.74199999996926
 20
8.380239034187703
 30
0.0
 11
30.35913903416571
 21
8.763099999991255
 31
0.0
  0
ENDBLK
  5
E955
330
E862
100
AcDbEntity
  8
0
100
AcDbBlockEnd
  0
BLOCK
  5
E956
330
E8B3
100
AcDbEntity
  8
0
100
AcDbBlockBegin
  2
*X16
 70
     1
 10
0.0
 20
0.0
 30
0.0
  3
*X16
  1

  0
LINE
  5
E8B4
330
E8B3
100
AcDbEntity
  8
0
  6
CONTINUOUS
100
AcDbLine
 10
31.64199999996833
 20
8.535058289913598
 30
0.0
 11
31.87004171004599
 21
8.763099999991255
 31
0.0
  0
LINE
  5
E8B5
330
E8B3
100
AcDbEntity
  8
0
  6
CONTINUOUS
100
AcDbLine
 10
31.64199999996833
 20
7.861539080833412
 30
0.0
 11
32.54356091912618
 21
8.763099999991255
 31
0.0
  0
LINE
  5
E8B6
330
E8B3
100
AcDbEntity
  8
0
  6
CONTINUOUS
100
AcDbLine
 10
31.64199999996833
 20
7.188019871753226
 30
0.0
 11
33.08199999996839
 21
8.628019871753281
 31
0.0
  0
LINE
  5
E8B7
330
E8B3
100
AcDbEntity
  8
0
  6
CONTINUOUS
100
AcDbLine
 10
31.64199999996833
 20
6.51450066267304
 30
0.0
 11
33.08199999996839
 21
7.954500662673095
 31
0.0
  0
LINE
  5
E8B8
330
E8B3
100
AcDbEntity
  8
0
  6
CONTINUOUS
100
AcDbLine
 10
31.64199999996833
 20
5.840981453592853
 30
0.0
 11
33.08199999996839
 21
7.280981453592908
 31
0.0
  0
LINE
  5
E8B9
330
E8B3
100
AcDbEntity
  8
0
  6
CONTINUOUS
100
AcDbLine
 10
31.64199999996833
 20
5.167462244512667
 30
0.0
 11
33.08199999996839
 21
6.607462244512721
 31
0.0
  0
LINE
  5
E8BA
330
E8B3
100
AcDbEntity
  8
0
  6
CONTINUOUS
100
AcDbLine
 10
31.64199999996833
 20
4.493943035432481
 30
0.0
 11
33.08199999996839
 21
5.933943035432535
 31
0.0
  0
LINE
  5
E8BB
330
E8B3
100
AcDbEntity
  8
0
  6
CONTINUOUS
100
AcDbLine
 10
31.64199999996833
 20
3.820423826352293
 30
0.0
 11
33.08199999996839
 21
5.260423826352348
 31
0.0
  0
LINE
  5
E8BC
330
E8B3
100
AcDbEntity
  8
0
  6
CONTINUOUS
100
AcDbLine
 10
31.64199999996833
 20
3.146904617272106
 30
0.0
 11
33.08199999996839
 21
4.586904617272161
 31
0.0
  0
LINE
  5
E8BD
330
E8B3
100
AcDbEntity
  8
0
  6
CONTINUOUS
100
AcDbLine
 10
36.23199999996837
 20
8.410423826352325
 30
0.0
 11
36.5846761736073
 21
8.763099999991255
 31
0.0
  0
LINE
  5
E8BE
330
E8B3
100
AcDbEntity
  8
0
  6
CONTINUOUS
100
AcDbLine
 10
36.23199999996837
 20
7.73690461727214
 30
0.0
 11
37.25819538268748
 21
8.763099999991255
 31
0.0
  0
LINE
  5
E8BF
330
E8B3
100
AcDbEntity
  8
0
  6
CONTINUOUS
100
AcDbLine
 10
31.64257403601376
 20
2.473959444237348
 30
0.0
 11
33.08199999996839
 21
3.913385408191974
 31
0.0
  0
LINE
  5
E8C0
330
E8B3
100
AcDbEntity
  8
0
  6
CONTINUOUS
100
AcDbLine
 10
36.23199999996837
 20
7.063385408191953
 30
0.0
 11
37.67199999996831
 21
8.503385408191894
 31
0.0
  0
LINE
  5
E8C1
330
E8B3
100
AcDbEntity
  8
0
  6
CONTINUOUS
100
AcDbLine
 10
31.72013636841932
 20
1.87800256756272
 30
0.0
 11
33.08199999996839
 21
3.239866199111788
 31
0.0
  0
LINE
  5
E8C2
330
E8B3
100
AcDbEntity
  8
0
  6
CONTINUOUS
100
AcDbLine
 10
36.23199999996837
 20
6.389866199111767
 30
0.0
 11
37.67199999996831
 21
7.829866199111708
 31
0.0
  0
LINE
  5
E8C3
330
E8B3
100
AcDbEntity
  8
0
  6
CONTINUOUS
100
AcDbLine
 10
31.89042734314753
 20
1.374774333210744
 30
0.0
 11
33.08199999996839
 21
2.566346990031601
 31
0.0
  0
LINE
  5
E8C4
330
E8B3
100
AcDbEntity
  8
0
  6
CONTINUOUS
100
AcDbLine
 10
36.23199999996837
 20
5.71634699003158
 30
0.0
 11
37.67199999996831
 21
7.156346990031521
 31
0.0
  0
LINE
  5
E8C5
330
E8B3
100
AcDbEntity
  8
0
  6
CONTINUOUS
100
AcDbLine
 10
32.14210568064475
 20
0.952933461627778
 30
0.0
 11
33.18745552475986
 21
1.998283305742888
 31
0.0
  0
LINE
  5
E8C6
330
E8B3
100
AcDbEntity
  8
0
  6
CONTINUOUS
100
AcDbLine
 10
36.23199999996837
 20
5.042827780951393
 30
0.0
 11
37.67199999996831
 21
6.482827780951334
 31
0.0
  0
LINE
  5
E8C7
330
E8B3
100
AcDbEntity
  8
0
  6
CONTINUOUS
100
AcDbLine
 10
32.45820639400955
 20
0.5955149659123915
 30
0.0
 11
33.47242681921943
 21
1.60973539112227
 31
0.0
  0
LINE
  5
E8C8
330
E8B3
100
AcDbEntity
  8
0
  6
CONTINUOUS
100
AcDbLine
 10
36.23199999996837
 20
4.369308571871207
 30
0.0
 11
37.67199999996831
 21
5.809308571871147
 31
0.0
  0
LINE
  5
E8C9
330
E8B3
100
AcDbEntity
  8
0
  6
CONTINUOUS
100
AcDbLine
 10
32.83432456621412
 20
0.2981139290367771
 30
0.0
 11
33.89722476612215
 21
1.361014128944803
 31
0.0
  0
LINE
  5
E8CA
330
E8B3
100
AcDbEntity
  8
0
  6
CONTINUOUS
100
AcDbLine
 10
36.23199999996837
 20
3.69578936279102
 30
0.0
 11
37.67199999996831
 21
5.135789362790962
 31
0.0
  0
LINE
  5
E8CB
330
E8B3
100
AcDbEntity
  8
0
  6
CONTINUOUS
100
AcDbLine
 10
33.2711633111245
 20
0.0614334648669672
 30
0.0
 11
34.43247338014423
 21
1.222743533886696
 31
0.0
  0
LINE
  5
E8CC
330
E8B3
100
AcDbEntity
  8
0
  6
CONTINUOUS
100
AcDbLine
 10
36.23199999996837
 20
3.022270153710834
 30
0.0
 11
37.67199999996831
 21
4.462270153710775
 31
0.0
  0
LINE
  5
E8CD
330
E8B3
100
AcDbEntity
  8
0
  6
CONTINUOUS
100
AcDbLine
 10
33.76515245874577
 20
-0.1180965965919523
 30
0.0
 11
35.1587445516215
 21
1.27549549628378
 31
0.0
  0
LINE
  5
E8CE
330
E8B3
100
AcDbEntity
  8
0
  6
CONTINUOUS
100
AcDbLine
 10
36.21639478609585
 20
2.333145730758136
 30
0.0
 11
37.67199999996831
 21
3.788750944630588
 31
0.0
  0
LINE
  5
E8CF
330
E8B3
100
AcDbEntity
  8
0
  6
CONTINUOUS
100
AcDbLine
 10
34.34060583368432
 20
-0.2161624307335863
 30
0.0
 11
37.67199999996831
 21
3.115231735550401
 31
0.0
  0
LINE
  5
E8D0
330
E8B3
100
AcDbEntity
  8
0
  6
CONTINUOUS
100
AcDbLine
 10
35.01698193613905
 20
-0.2133055373590427
 30
0.0
 11
37.66876712070525
 21
2.438479647207154
 31
0.0
  0
LINE
  5
E8D1
330
E8B3
100
AcDbEntity
  8
0
  6
CONTINUOUS
100
AcDbLine
 10
35.90743367693304
 20
0.0036269943547609
 30
0.0
 11
37.51723902192366
 21
1.613432339345381
 31
0.0
  0
LINE
  5
E8D2
330
E8B3
100
AcDbEntity
  8
0
  6
CONTINUOUS
100
AcDbLine
 10
32.55309425579761
 20
0.5074718966376706
 30
0.0
 11
32.27784730925847
 21
0.7827188431768102
 31
0.0
  0
LINE
  5
E8D3
330
E8B3
100
AcDbEntity
  8
0
  6
CONTINUOUS
100
AcDbLine
 10
33.87496468909684
 20
-0.1408793275813673
 30
0.0
 11
31.67993083278052
 21
2.054154528734943
 31
0.0
  0
LINE
  5
E8D4
330
E8B3
100
AcDbEntity
  8
0
  6
CONTINUOUS
100
AcDbLine
 10
34.64362813207632
 20
-0.2360235614806649
 30
0.0
 11
31.64199999996833
 21
2.765604570627322
 31
0.0
  0
LINE
  5
E8D5
330
E8B3
100
AcDbEntity
  8
0
  6
CONTINUOUS
100
AcDbLine
 10
35.25801106796118
 20
-0.1768872882853429
 30
0.0
 11
31.64199999996833
 21
3.439123779707508
 31
0.0
  0
LINE
  5
E8D6
330
E8B3
100
AcDbEntity
  8
0
  6
CONTINUOUS
100
AcDbLine
 10
35.79065650332146
 20
-0.0360135145654361
 30
0.0
 11
34.54143210838231
 21
1.213210880373721
 31
0.0
  0
LINE
  5
E8D7
330
E8B3
100
AcDbEntity
  8
0
  6
CONTINUOUS
100
AcDbLine
 10
33.08199999996839
 20
2.67264298878764
 30
0.0
 11
31.64199999996833
 21
4.112642988787695
 31
0.0
  0
LINE
  5
E8D8
330
E8B3
100
AcDbEntity
  8
0
  6
CONTINUOUS
100
AcDbLine
 10
36.25975597779143
 20
0.1684062200447833
 30
0.0
 11
35.15395110240023
 21
1.274211095435983
 31
0.0
  0
LINE
  5
E8D9
330
E8B3
100
AcDbEntity
  8
0
  6
CONTINUOUS
100
AcDbLine
 10
33.08199999996839
 20
3.346162197867826
 30
0.0
 11
31.64199999996833
 21
4.786162197867881
 31
0.0
  0
LINE
  5
E8DA
330
E8B3
100
AcDbEntity
  8
0
  6
CONTINUOUS
100
AcDbLine
 10
36.67226329638774
 20
0.4294181105286579
 30
0.0
 11
35.63766478748767
 21
1.464016619428737
 31
0.0
  0
LINE
  5
E8DB
330
E8B3
100
AcDbEntity
  8
0
  6
CONTINUOUS
100
AcDbLine
 10
33.08199999996839
 20
4.019681406948012
 30
0.0
 11
31.64199999996833
 21
5.459681406948068
 31
0.0
  0
LINE
  5
E8DC
330
E8B3
100
AcDbEntity
  8
0
  6
CONTINUOUS
100
AcDbLine
 10
37.01677749710036
 20
0.7584231188962329
 30
0.0
 11
35.99563422741351
 21
1.779566388583076
 31
0.0
  0
LINE
  5
E8DD
330
E8B3
100
AcDbEntity
  8
0
  6
CONTINUOUS
100
AcDbLine
 10
33.08199999996839
 20
4.693200616028199
 30
0.0
 11
31.64199999996833
 21
6.133200616028255
 31
0.0
  0
LINE
  5
E8DE
330
E8B3
100
AcDbEntity
  8
0
  6
CONTINUOUS
100
AcDbLine
 10
37.29859977568887
 20
1.1501200493879
 30
0.0
 11
36.20680593341555
 21
2.241913891661226
 31
0.0
  0
LINE
  5
E8DF
330
E8B3
100
AcDbEntity
  8
0
  6
CONTINUOUS
100
AcDbLine
 10
33.08199999996839
 20
5.366719825108386
 30
0.0
 11
31.64199999996833
 21
6.80671982510844
 31
0.0
  0
LINE
  5
E8E0
330
E8B3
100
AcDbEntity
  8
0
  6
CONTINUOUS
100
AcDbLine
 10
37.5148623517228
 20
1.607376682434161
 30
0.0
 11
36.23199999996837
 21
2.890239034188594
 31
0.0
  0
LINE
  5
E8E1
330
E8B3
100
AcDbEntity
  8
0
  6
CONTINUOUS
100
AcDbLine
 10
33.08199999996839
 20
6.040239034188573
 30
0.0
 11
31.64199999996833
 21
7.480239034188627
 31
0.0
  0
LINE
  5
E8E2
330
E8B3
100
AcDbEntity
  8
0
  6
CONTINUOUS
100
AcDbLine
 10
37.64705163358367
 20
2.148706609653477
 30
0.0
 11
36.23199999996837
 21
3.56375824326878
 31
0.0
  0
LINE
  5
E8E3
330
E8B3
100
AcDbEntity
  8
0
  6
CONTINUOUS
100
AcDbLine
 10
33.08199999996839
 20
6.713758243268758
 30
0.0
 11
31.64199999996833
 21
8.153758243268815
 31
0.0
  0
LINE
  5
E8E4
330
E8B3
100
AcDbEntity
  8
0
  6
CONTINUOUS
100
AcDbLine
 10
37.67199999996831
 20
2.797277452349026
 30
0.0
 11
36.23199999996837
 21
4.237277452348967
 31
0.0
  0
LINE
  5
E8E5
330
E8B3
100
AcDbEntity
  8
0
  6
CONTINUOUS
100
AcDbLine
 10
37.67199999996831
 20
3.470796661429213
 30
0.0
 11
36.23199999996837
 21
4.910796661429154
 31
0.0
  0
LINE
  5
E8E6
330
E8B3
100
AcDbEntity
  8
0
  6
CONTINUOUS
100
AcDbLine
 10
37.67199999996831
 20
4.144315870509399
 30
0.0
 11
36.23199999996837
 21
5.58431587050934
 31
0.0
  0
LINE
  5
E8E7
330
E8B3
100
AcDbEntity
  8
0
  6
CONTINUOUS
100
AcDbLine
 10
33.08199999996839
 20
7.387277452348945
 30
0.0
 11
31.70617745232608
 21
8.763099999991255
 31
0.0
  0
LINE
  5
E8E8
330
E8B3
100
AcDbEntity
  8
0
  6
CONTINUOUS
100
AcDbLine
 10
33.08199999996839
 20
8.060796661429132
 30
0.0
 11
32.37969666140626
 21
8.763099999991255
 31
0.0
  0
LINE
  5
E8E9
330
E8B3
100
AcDbEntity
  8
0
  6
CONTINUOUS
100
AcDbLine
 10
33.08199999996839
 20
8.734315870509318
 30
0.0
 11
33.05321587048645
 21
8.763099999991255
 31
0.0
  0
LINE
  5
E8EA
330
E8B3
100
AcDbEntity
  8
0
  6
CONTINUOUS
100
AcDbLine
 10
37.67199999996831
 20
4.817835079589585
 30
0.0
 11
36.23199999996837
 21
6.257835079589526
 31
0.0
  0
LINE
  5
E8EB
330
E8B3
100
AcDbEntity
  8
0
  6
CONTINUOUS
100
AcDbLine
 10
37.67199999996831
 20
5.491354288669771
 30
0.0
 11
36.23199999996837
 21
6.931354288669713
 31
0.0
  0
LINE
  5
E8EC
330
E8B3
100
AcDbEntity
  8
0
  6
CONTINUOUS
100
AcDbLine
 10
37.67199999996831
 20
6.164873497749958
 30
0.0
 11
36.23199999996837
 21
7.6048734977499
 31
0.0
  0
LINE
  5
E8ED
330
E8B3
100
AcDbEntity
  8
0
  6
CONTINUOUS
100
AcDbLine
 10
37.67199999996831
 20
6.838392706830144
 30
0.0
 11
36.23199999996837
 21
8.278392706830086
 31
0.0
  0
LINE
  5
E8EE
330
E8B3
100
AcDbEntity
  8
0
  6
CONTINUOUS
100
AcDbLine
 10
37.67199999996831
 20
7.511911915910332
 30
0.0
 11
36.42081191588738
 21
8.763099999991255
 31
0.0
  0
LINE
  5
E8EF
330
E8B3
100
AcDbEntity
  8
0
  6
CONTINUOUS
100
AcDbLine
 10
37.67199999996831
 20
8.185431124990519
 30
0.0
 11
37.09433112496757
 21
8.763099999991255
 31
0.0
  0
ENDBLK
  5
E957
330
E8B3
100
AcDbEntity
  8
0
100
AcDbBlockEnd
  0
BLOCK
  5
E958
330
E8F0
100
AcDbEntity
  8
0
100
AcDbBlockBegin
  2
*X17
 70
     1
 10
0.0
 20
0.0
 30
0.0
  3
*X17
  1

  0
LINE
  5
E8F1
330
E8F0
100
AcDbEntity
  8
0
  6
CONTINUOUS
100
AcDbLine
 10
38.60499999996136
 20
8.762866199104765
 30
0.0
 11
38.71672554182345
 21
8.874591740966855
 31
0.0
  0
LINE
  5
E8F2
330
E8F0
100
AcDbEntity
  8
0
  6
CONTINUOUS
100
AcDbLine
 10
38.60499999996136
 20
8.089346990024577
 30
0.0
 11
39.03418785440363
 21
8.518534844466847
 31
0.0
  0
LINE
  5
E8F3
330
E8F0
100
AcDbEntity
  8
0
  6
CONTINUOUS
100
AcDbLine
 10
38.60499999996136
 20
7.41582778094439
 30
0.0
 11
39.35165016698382
 21
8.16247794796684
 31
0.0
  0
LINE
  5
E8F4
330
E8F0
100
AcDbEntity
  8
0
  6
CONTINUOUS
100
AcDbLine
 10
38.60499999996136
 20
6.742308571864204
 30
0.0
 11
39.66911247956399
 21
7.806421051466834
 31
0.0
  0
LINE
  5
E8F5
330
E8F0
100
AcDbEntity
  8
0
  6
CONTINUOUS
100
AcDbLine
 10
38.60499999996136
 20
6.068789362784018
 30
0.0
 11
39.98657479214418
 21
7.450364154966827
 31
0.0
  0
LINE
  5
E8F6
330
E8F0
100
AcDbEntity
  8
0
  6
CONTINUOUS
100
AcDbLine
 10
38.60499999996136
 20
5.395270153703832
 30
0.0
 11
40.30403710472435
 21
7.09430725846682
 31
0.0
  0
LINE
  5
E8F7
330
E8F0
100
AcDbEntity
  8
0
  6
CONTINUOUS
100
AcDbLine
 10
38.60499999996136
 20
4.721750944623645
 30
0.0
 11
40.62149941730453
 21
6.738250361966813
 31
0.0
  0
LINE
  5
E8F8
330
E8F0
100
AcDbEntity
  8
0
  6
CONTINUOUS
100
AcDbLine
 10
38.60499999996136
 20
4.048231735543458
 30
0.0
 11
40.93896172988471
 21
6.382193465466806
 31
0.0
  0
LINE
  5
E8F9
330
E8F0
100
AcDbEntity
  8
0
  6
CONTINUOUS
100
AcDbLine
 10
38.60499999996136
 20
3.374712526463272
 30
0.0
 11
40.02599999995994
 21
4.795712526461843
 31
0.0
  0
LINE
  5
E8FA
330
E8F0
100
AcDbEntity
  8
0
  6
CONTINUOUS
100
AcDbLine
 10
38.60499999996136
 20
2.701193317383085
 30
0.0
 11
40.02599999995994
 21
4.122193317381657
 31
0.0
  0
LINE
  5
E8FB
330
E8F0
100
AcDbEntity
  8
0
  6
CONTINUOUS
100
AcDbLine
 10
40.28339754687704
 20
5.053110073378947
 30
0.0
 11
41.25642404246489
 21
6.026136568966799
 31
0.0
  0
LINE
  5
E8FC
330
E8F0
100
AcDbEntity
  8
0
  6
CONTINUOUS
100
AcDbLine
 10
40.60085985945722
 20
4.697053176878939
 30
0.0
 11
41.57388635504507
 21
5.670079672466793
 31
0.0
  0
LINE
  5
E8FD
330
E8F0
100
AcDbEntity
  8
0
  6
CONTINUOUS
100
AcDbLine
 10
43.57899999995641
 20
8.348712526458318
 30
0.0
 11
43.99338747348935
 21
8.763099999991255
 31
0.0
  0
LINE
  5
E8FE
330
E8F0
100
AcDbEntity
  8
0
  6
CONTINUOUS
100
AcDbLine
 10
43.57899999995641
 20
7.675193317378131
 30
0.0
 11
44.66690668256953
 21
8.763099999991255
 31
0.0
  0
LINE
  5
E8FF
330
E8F0
100
AcDbEntity
  8
0
  6
CONTINUOUS
100
AcDbLine
 10
38.60499999996136
 20
2.027674108302898
 30
0.0
 11
40.02599999995994
 21
3.44867410830147
 31
0.0
  0
LINE
  5
E900
330
E8F0
100
AcDbEntity
  8
0
  6
CONTINUOUS
100
AcDbLine
 10
38.60499999996136
 20
1.354154899222712
 30
0.0
 11
40.02599999995994
 21
2.775154899221284
 31
0.0
  0
LINE
  5
E901
330
E8F0
100
AcDbEntity
  8
0
  6
CONTINUOUS
100
AcDbLine
 10
38.60499999996136
 20
0.6806356901425255
 30
0.0
 11
40.02599999995994
 21
2.101635690141098
 31
0.0
  0
LINE
  5
E902
330
E8F0
100
AcDbEntity
  8
0
  6
CONTINUOUS
100
AcDbLine
 10
38.60499999996136
 20
0.0071164810623383
 30
0.0
 11
40.02599999995994
 21
1.428116481060911
 31
0.0
  0
LINE
  5
E903
330
E8F0
100
AcDbEntity
  8
0
  6
CONTINUOUS
100
AcDbLine
 10
40.9183221720374
 20
4.340996280378933
 30
0.0
 11
41.89134866762525
 21
5.314022775966786
 31
0.0
  0
LINE
  5
E904
330
E8F0
100
AcDbEntity
  8
0
  6
CONTINUOUS
100
AcDbLine
 10
41.23578448461758
 20
3.984939383878926
 30
0.0
 11
42.20881098020543
 21
4.957965879466778
 31
0.0
  0
LINE
  5
E905
330
E8F0
100
AcDbEntity
  8
0
  6
CONTINUOUS
100
AcDbLine
 10
41.55324679719776
 20
3.628882487378919
 30
0.0
 11
42.52627329278561
 21
4.601908982966772
 31
0.0
  0
LINE
  5
E906
330
E8F0
100
AcDbEntity
  8
0
  6
CONTINUOUS
100
AcDbLine
 10
41.87070910977793
 20
3.272825590878912
 30
0.0
 11
42.84373560536579
 21
4.245852086466765
 31
0.0
  0
LINE
  5
E907
330
E8F0
100
AcDbEntity
  8
0
  6
CONTINUOUS
100
AcDbLine
 10
43.57899999995641
 20
7.001674108297943
 30
0.0
 11
44.99999999995498
 21
8.422674108296516
 31
0.0
  0
LINE
  5
E908
330
E8F0
100
AcDbEntity
  8
0
  6
CONTINUOUS
100
AcDbLine
 10
43.57899999995641
 20
6.328154899217758
 30
0.0
 11
44.99999999995498
 21
7.749154899216329
 31
0.0
  0
LINE
  5
E909
330
E8F0
100
AcDbEntity
  8
0
  6
CONTINUOUS
100
AcDbLine
 10
43.57899999995641
 20
5.654635690137571
 30
0.0
 11
44.99999999995498
 21
7.075635690136142
 31
0.0
  0
LINE
  5
E90A
330
E8F0
100
AcDbEntity
  8
0
  6
CONTINUOUS
100
AcDbLine
 10
43.57899999995641
 20
4.981116481057384
 30
0.0
 11
44.99999999995498
 21
6.402116481055955
 31
0.0
  0
LINE
  5
E90B
330
E8F0
100
AcDbEntity
  8
0
  6
CONTINUOUS
100
AcDbLine
 10
39.27140272797921
 20
-0.0000000000000009
 30
0.0
 11
40.02599999995994
 21
0.7545972719807246
 31
0.0
  0
LINE
  5
E90C
330
E8F0
100
AcDbEntity
  8
0
  6
CONTINUOUS
100
AcDbLine
 10
39.9449219370594
 20
-0.0000000000000009
 30
0.0
 11
40.02599999995994
 21
0.0810780629005379
 31
0.0
  0
LINE
  5
E90D
330
E8F0
100
AcDbEntity
  8
0
  6
CONTINUOUS
100
AcDbLine
 10
42.18817142235812
 20
2.916768694378905
 30
0.0
 11
43.16119791794597
 21
3.889795189966758
 31
0.0
  0
LINE
  5
E90E
330
E8F0
100
AcDbEntity
  8
0
  6
CONTINUOUS
100
AcDbLine
 10
42.50563373493829
 20
2.560711797878898
 30
0.0
 11
43.47866023052615
 21
3.533738293466751
 31
0.0
  0
LINE
  5
E90F
330
E8F0
100
AcDbEntity
  8
0
  6
CONTINUOUS
100
AcDbLine
 10
43.57899999995641
 20
4.307597271977198
 30
0.0
 11
44.99999999995498
 21
5.728597271975769
 31
0.0
  0
LINE
  5
E910
330
E8F0
100
AcDbEntity
  8
0
  6
CONTINUOUS
100
AcDbLine
 10
43.57899999995641
 20
3.634078062897011
 30
0.0
 11
44.99999999995498
 21
5.055078062895582
 31
0.0
  0
LINE
  5
E911
330
E8F0
100
AcDbEntity
  8
0
  6
CONTINUOUS
100
AcDbLine
 10
42.82309604751848
 20
2.204654901378891
 30
0.0
 11
44.99999999995498
 21
4.381558853815395
 31
0.0
  0
LINE
  5
E912
330
E8F0
100
AcDbEntity
  8
0
  6
CONTINUOUS
100
AcDbLine
 10
43.14055836009865
 20
1.848598004878885
 30
0.0
 11
44.99999999995498
 21
3.70803964473521
 31
0.0
  0
LINE
  5
E913
330
E8F0
100
AcDbEntity
  8
0
  6
CONTINUOUS
100
AcDbLine
 10
43.45802067267883
 20
1.492541108378878
 30
0.0
 11
44.99999999995498
 21
3.034520435655023
 31
0.0
  0
LINE
  5
E914
330
E8F0
100
AcDbEntity
  8
0
  6
CONTINUOUS
100
AcDbLine
 10
43.77548298525902
 20
1.136484211878871
 30
0.0
 11
44.99999999995498
 21
2.361001226574837
 31
0.0
  0
LINE
  5
E915
330
E8F0
100
AcDbEntity
  8
0
  6
CONTINUOUS
100
AcDbLine
 10
44.09294529783919
 20
0.7804273153788639
 30
0.0
 11
44.99999999995498
 21
1.687482017494649
 31
0.0
  0
LINE
  5
E916
330
E8F0
100
AcDbEntity
  8
0
  6
CONTINUOUS
100
AcDbLine
 10
44.41040761041938
 20
0.4243704188788566
 30
0.0
 11
44.99999999995498
 21
1.013962808414463
 31
0.0
  0
LINE
  5
E917
330
E8F0
100
AcDbEntity
  8
0
  6
CONTINUOUS
100
AcDbLine
 10
44.72786992299955
 20
0.0683135223788494
 30
0.0
 11
44.99999999995498
 21
0.340443599334276
 31
0.0
  0
LINE
  5
E918
330
E8F0
100
AcDbEntity
  8
0
  6
CONTINUOUS
100
AcDbLine
 10
39.12223903415696
 20
-0.0000000000000009
 30
0.0
 11
38.60499999996136
 21
0.5172390341955961
 31
0.0
  0
LINE
  5
E919
330
E8F0
100
AcDbEntity
  8
0
  6
CONTINUOUS
100
AcDbLine
 10
39.79575824323715
 20
-0.0000000000000009
 30
0.0
 11
38.60499999996136
 21
1.190758243275783
 31
0.0
  0
LINE
  5
E91A
330
E8F0
100
AcDbEntity
  8
0
  6
CONTINUOUS
100
AcDbLine
 10
40.02599999995994
 20
0.443277452357397
 30
0.0
 11
38.60499999996136
 21
1.864277452355969
 31
0.0
  0
LINE
  5
E91B
330
E8F0
100
AcDbEntity
  8
0
  6
CONTINUOUS
100
AcDbLine
 10
40.02599999995994
 20
1.116796661437583
 30
0.0
 11
38.60499999996136
 21
2.537796661436155
 31
0.0
  0
LINE
  5
E91C
330
E8F0
100
AcDbEntity
  8
0
  6
CONTINUOUS
100
AcDbLine
 10
40.02599999995994
 20
1.79031587051777
 30
0.0
 11
38.60499999996136
 21
3.211315870516341
 31
0.0
  0
LINE
  5
E91D
330
E8F0
100
AcDbEntity
  8
0
  6
CONTINUOUS
100
AcDbLine
 10
40.02599999995994
 20
2.463835079597956
 30
0.0
 11
38.60499999996136
 21
3.884835079596527
 31
0.0
  0
LINE
  5
E91E
330
E8F0
100
AcDbEntity
  8
0
  6
CONTINUOUS
100
AcDbLine
 10
40.02599999995994
 20
3.137354288678143
 30
0.0
 11
38.60499999996136
 21
4.558354288676714
 31
0.0
  0
LINE
  5
E91F
330
E8F0
100
AcDbEntity
  8
0
  6
CONTINUOUS
100
AcDbLine
 10
40.02599999995994
 20
3.810873497758329
 30
0.0
 11
38.60499999996136
 21
5.2318734977569
 31
0.0
  0
LINE
  5
E920
330
E8F0
100
AcDbEntity
  8
0
  6
CONTINUOUS
100
AcDbLine
 10
40.02599999995994
 20
4.484392706838515
 30
0.0
 11
38.60499999996136
 21
5.905392706837086
 31
0.0
  0
LINE
  5
E921
330
E8F0
100
AcDbEntity
  8
0
  6
CONTINUOUS
100
AcDbLine
 10
44.99999999995498
 20
0.183911915923658
 30
0.0
 11
41.53858364506288
 21
3.64532827081576
 31
0.0
  0
LINE
  5
E922
330
E8F0
100
AcDbEntity
  8
0
  6
CONTINUOUS
100
AcDbLine
 10
40.02599999995994
 20
5.157911915918703
 30
0.0
 11
38.60499999996136
 21
6.578911915917274
 31
0.0
  0
LINE
  5
E923
330
E8F0
100
AcDbEntity
  8
0
  6
CONTINUOUS
100
AcDbLine
 10
44.99999999995498
 20
0.8574311250038447
 30
0.0
 11
38.60499999996136
 21
7.25243112499746
 31
0.0
  0
LINE
  5
E924
330
E8F0
100
AcDbEntity
  8
0
  6
CONTINUOUS
100
AcDbLine
 10
44.99999999995498
 20
1.530950334084031
 30
0.0
 11
38.60499999996136
 21
7.925950334077647
 31
0.0
  0
LINE
  5
E925
330
E8F0
100
AcDbEntity
  8
0
  6
CONTINUOUS
100
AcDbLine
 10
44.99999999995498
 20
2.204469543164218
 30
0.0
 11
43.57899999995641
 21
3.625469543162789
 31
0.0
  0
LINE
  5
E926
330
E8F0
100
AcDbEntity
  8
0
  6
CONTINUOUS
100
AcDbLine
 10
41.89876730984767
 20
5.305702233271528
 30
0.0
 11
38.60499999996136
 21
8.599469543157834
 31
0.0
  0
LINE
  5
E927
330
E8F0
100
AcDbEntity
  8
0
  6
CONTINUOUS
100
AcDbLine
 10
44.99999999995498
 20
2.877988752244405
 30
0.0
 11
43.57899999995641
 21
4.298988752242975
 31
0.0
  0
LINE
  5
E928
330
E8F0
100
AcDbEntity
  8
0
  6
CONTINUOUS
100
AcDbLine
 10
44.99999999995498
 20
3.551507961324591
 30
0.0
 11
43.57899999995641
 21
4.972507961323163
 31
0.0
  0
LINE
  5
E929
330
E8F0
100
AcDbEntity
  8
0
  6
CONTINUOUS
100
AcDbLine
 10
44.99999999995498
 20
4.225027170404777
 30
0.0
 11
43.57899999995641
 21
5.646027170403348
 31
0.0
  0
LINE
  5
E92A
330
E8F0
100
AcDbEntity
  8
0
  6
CONTINUOUS
100
AcDbLine
 10
44.99999999995498
 20
4.898546379484964
 30
0.0
 11
43.57899999995641
 21
6.319546379483535
 31
0.0
  0
LINE
  5
E92B
330
E8F0
100
AcDbEntity
  8
0
  6
CONTINUOUS
100
AcDbLine
 10
44.99999999995498
 20
5.572065588565151
 30
0.0
 11
43.57899999995641
 21
6.993065588563722
 31
0.0
  0
LINE
  5
E92C
330
E8F0
100
AcDbEntity
  8
0
  6
CONTINUOUS
100
AcDbLine
 10
44.99999999995498
 20
6.245584797645336
 30
0.0
 11
43.57899999995641
 21
7.666584797643908
 31
0.0
  0
LINE
  5
E92D
330
E8F0
100
AcDbEntity
  8
0
  6
CONTINUOUS
100
AcDbLine
 10
44.99999999995498
 20
6.919104006725522
 30
0.0
 11
43.57899999995641
 21
8.340104006724093
 31
0.0
  0
LINE
  5
E92E
330
E8F0
100
AcDbEntity
  8
0
  6
CONTINUOUS
100
AcDbLine
 10
44.99999999995498
 20
7.592623215805709
 30
0.0
 11
43.82952321576943
 21
8.763099999991255
 31
0.0
  0
LINE
  5
E92F
330
E8F0
100
AcDbEntity
  8
0
  6
CONTINUOUS
100
AcDbLine
 10
44.99999999995498
 20
8.266142424885896
 30
0.0
 11
44.50304242484962
 21
8.763099999991255
 31
0.0
  0
ENDBLK
  5
E959
330
E8F0
100
AcDbEntity
  8
0
100
AcDbBlockEnd
  0
BLOCK
  5
E95A
330
E930
100
AcDbEntity
  8
0
100
AcDbBlockBegin
  2
*X18
 70
     1
 10
0.0
 20
0.0
 30
0.0
  3
*X18
  1

  0
LINE
  5
E931
330
E930
100
AcDbEntity
  8
0
  6
CONTINUOUS
100
AcDbLine
 10
0.0
 20
8.548461116714023
 30
0.0
 11
0.2146388832772324
 21
8.763099999991255
 31
0.0
  0
LINE
  5
E932
330
E930
100
AcDbEntity
  8
0
  6
CONTINUOUS
100
AcDbLine
 10
-0.0000000000000002
 20
7.874941907633837
 30
0.0
 11
0.8881580923574184
 21
8.763099999991255
 31
0.0
  0
LINE
  5
E933
330
E930
100
AcDbEntity
  8
0
  6
CONTINUOUS
100
AcDbLine
 10
0.0
 20
7.20142269855365
 30
0.0
 11
1.420999999998572
 21
8.622422698552223
 31
0.0
  0
LINE
  5
E934
330
E930
100
AcDbEntity
  8
0
  6
CONTINUOUS
100
AcDbLine
 10
-0.0000000000000001
 20
6.527903489473465
 30
0.0
 11
1.420999999998571
 21
7.948903489472036
 31
0.0
  0
LINE
  5
E935
330
E930
100
AcDbEntity
  8
0
  6
CONTINUOUS
100
AcDbLine
 10
-0.0000000000000002
 20
5.854384280393278
 30
0.0
 11
1.420999999998571
 21
7.275384280391849
 31
0.0
  0
LINE
  5
E936
330
E930
100
AcDbEntity
  8
0
  6
CONTINUOUS
100
AcDbLine
 10
-0.0000000000000002
 20
5.180865071313091
 30
0.0
 11
1.420999999998571
 21
6.601865071311663
 31
0.0
  0
LINE
  5
E937
330
E930
100
AcDbEntity
  8
0
  6
CONTINUOUS
100
AcDbLine
 10
0.0
 20
4.507345862232905
 30
0.0
 11
1.420999999998571
 21
5.928345862231477
 31
0.0
  0
LINE
  5
E938
330
E930
100
AcDbEntity
  8
0
  6
CONTINUOUS
100
AcDbLine
 10
-0.0000000000000003
 20
3.833826653152718
 30
0.0
 11
1.420999999998571
 21
5.25482665315129
 31
0.0
  0
LINE
  5
E939
330
E930
100
AcDbEntity
  8
0
  6
CONTINUOUS
100
AcDbLine
 10
-0.0000000000000002
 20
3.160307444072532
 30
0.0
 11
1.420999999998571
 21
4.581307444071103
 31
0.0
  0
LINE
  5
E93A
330
E930
100
AcDbEntity
  8
0
  6
CONTINUOUS
100
AcDbLine
 10
-0.0000000000000001
 20
2.486788234992345
 30
0.0
 11
1.420999999998571
 21
3.907788234990917
 31
0.0
  0
LINE
  5
E93B
330
E930
100
AcDbEntity
  8
0
  6
CONTINUOUS
100
AcDbLine
 10
-0.0000000000000006
 20
1.813269025912159
 30
0.0
 11
1.420999999998571
 21
3.234269025910731
 31
0.0
  0
LINE
  5
E93C
330
E930
100
AcDbEntity
  8
0
  6
CONTINUOUS
100
AcDbLine
 10
0.0
 20
1.139749816831973
 30
0.0
 11
1.420999999998571
 21
2.560749816830544
 31
0.0
  0
LINE
  5
E93D
330
E930
100
AcDbEntity
  8
0
  6
CONTINUOUS
100
AcDbLine
 10
0.0000000000000002
 20
0.466230607751787
 30
0.0
 11
1.420999999998571
 21
1.887230607750358
 31
0.0
  0
LINE
  5
E93E
330
E930
100
AcDbEntity
  8
0
  6
CONTINUOUS
100
AcDbLine
 10
0.2072886013284003
 20
-0.0000000000000009
 30
0.0
 11
1.420999999998571
 21
1.213711398670171
 31
0.0
  0
LINE
  5
E93F
330
E930
100
AcDbEntity
  8
0
  6
CONTINUOUS
100
AcDbLine
 10
0.8808078104085864
 20
-0.0000000000000009
 30
0.0
 11
1.420999999998571
 21
0.5401921895899839
 31
0.0
  0
LINE
  5
E940
330
E930
100
AcDbEntity
  8
0
  6
CONTINUOUS
100
AcDbLine
 10
0.0581249075061505
 20
-0.0000000000000009
 30
0.0
 11
-0.0000000000000002
 21
0.0581249075061496
 31
0.0
  0
LINE
  5
E941
330
E930
100
AcDbEntity
  8
0
  6
CONTINUOUS
100
AcDbLine
 10
0.7316441165863372
 20
-0.0000000000000009
 30
0.0
 11
-0.0000000000000002
 21
0.7316441165863363
 31
0.0
  0
LINE
  5
E942
330
E930
100
AcDbEntity
  8
0
  6
CONTINUOUS
100
AcDbLine
 10
1.405163325666523
 20
-0.0000000000000009
 30
0.0
 11
-0.0000000000000002
 21
1.405163325666523
 31
0.0
  0
LINE
  5
E943
330
E930
100
AcDbEntity
  8
0
  6
CONTINUOUS
100
AcDbLine
 10
1.420999999998572
 20
0.6576825347481381
 30
0.0
 11
-0.0000000000000001
 21
2.07868253474671
 31
0.0
  0
LINE
  5
E944
330
E930
100
AcDbEntity
  8
0
  6
CONTINUOUS
100
AcDbLine
 10
1.420999999998571
 20
1.331201743828324
 30
0.0
 11
-0.0000000000000001
 21
2.752201743826896
 31
0.0
  0
LINE
  5
E945
330
E930
100
AcDbEntity
  8
0
  6
CONTINUOUS
100
AcDbLine
 10
1.420999999998571
 20
2.004720952908511
 30
0.0
 11
-0.0000000000000002
 21
3.425720952907082
 31
0.0
  0
LINE
  5
E946
330
E930
100
AcDbEntity
  8
0
  6
CONTINUOUS
100
AcDbLine
 10
1.420999999998571
 20
2.678240161988697
 30
0.0
 11
-0.0000000000000001
 21
4.099240161987269
 31
0.0
  0
LINE
  5
E947
330
E930
100
AcDbEntity
  8
0
  6
CONTINUOUS
100
AcDbLine
 10
1.420999999998572
 20
3.351759371068884
 30
0.0
 11
0.0
 21
4.772759371067455
 31
0.0
  0
LINE
  5
E948
330
E930
100
AcDbEntity
  8
0
  6
CONTINUOUS
100
AcDbLine
 10
1.420999999998571
 20
4.02527858014907
 30
0.0
 11
-0.0000000000000003
 21
5.446278580147642
 31
0.0
  0
LINE
  5
E949
330
E930
100
AcDbEntity
  8
0
  6
CONTINUOUS
100
AcDbLine
 10
1.420999999998571
 20
4.698797789229257
 30
0.0
 11
0.0
 21
6.119797789227828
 31
0.0
  0
LINE
  5
E94A
330
E930
100
AcDbEntity
  8
0
  6
CONTINUOUS
100
AcDbLine
 10
1.420999999998571
 20
5.372316998309444
 30
0.0
 11
-0.0000000000000001
 21
6.793316998308015
 31
0.0
  0
LINE
  5
E94B
330
E930
100
AcDbEntity
  8
0
  6
CONTINUOUS
100
AcDbLine
 10
1.420999999998572
 20
6.045836207389629
 30
0.0
 11
-0.0000000000000004
 21
7.466836207388202
 31
0.0
  0
LINE
  5
E94C
330
E930
100
AcDbEntity
  8
0
  6
CONTINUOUS
100
AcDbLine
 10
1.420999999998571
 20
6.719355416469816
 30
0.0
 11
0.0
 21
8.140355416468388
 31
0.0
  0
LINE
  5
E94D
330
E930
100
AcDbEntity
  8
0
  6
CONTINUOUS
100
AcDbLine
 10
1.420999999998571
 20
7.392874625550003
 30
0.0
 11
0.0507746255573185
 21
8.763099999991255
 31
0.0
  0
LINE
  5
E94E
330
E930
100
AcDbEntity
  8
0
  6
CONTINUOUS
100
AcDbLine
 10
1.420999999998571
 20
8.06639383463019
 30
0.0
 11
0.7242938346375052
 21
8.763099999991255
 31
0.0
  0
LINE
  5
E94F
330
E930
100
AcDbEntity
  8
0
  6
CONTINUOUS
100
AcDbLine
 10
1.420999999998571
 20
8.739913043710375
 30
0.0
 11
1.397813043717691
 21
8.763099999991255
 31
0.0
  0
ENDBLK
  5
E95B
330
E930
100
AcDbEntity
  8
0
100
AcDbBlockEnd
  0
ENDSEC
  0
SECTION
  2
ENTITIES
  0
LINE
  5
E464
330
18
100
AcDbEntity
  8
01
100
AcDbLine
 10
4626.749444991887
 20
591.8400013409073
 30
0.0000000001127424
 11
4626.749444991887
 21
541.8400013409073
 31
0.0000000001127424
  0
LINE
  5
E465
330
18
100
AcDbEntity
  8
01
100
AcDbLine
 10
4624.621159609456
 20
566.8400013409073
 30
0.0000000001127424
 11
4647.249444991887
 21
566.8400013409073
 31
0.0000000001127424
  0
LINE
  5
E466
330
18
100
AcDbEntity
  8
01
100
AcDbLine
 10
4751.749444991887
 20
726.8386830278046
 30
0.0000000001127424
 11
4801.749444991887
 21
726.8386830278046
 31
0.0000000001127424
  0
LINE
  5
E467
330
18
100
AcDbEntity
  8
01
  6
BYBLOCK
100
AcDbLine
 10
4725.750212834204
 20
726.8386830278046
 30
0.0000000001127424
 11
4879.504592989235
 21
726.8386830278046
 31
0.0000000001127424
  0
LINE
  5
E468
330
18
100
AcDbEntity
  8
01
100
AcDbLine
 10
4776.749444991887
 20
731.8386830278046
 30
0.0000000001127424
 11
4776.749444991887
 21
705.3386830278046
 31
0.0000000001127424
  0
LINE
  5
E46E
330
18
100
AcDbEntity
  8
01
100
AcDbLine
 10
4626.749444991887
 20
686.8400013409073
 30
0.0000000001127424
 11
4626.749444991887
 21
496.8400013409073
 31
0.0000000001127424
  0
LINE
  5
E46F
330
18
100
AcDbEntity
  8
01
100
AcDbLine
 10
4746.749444991887
 20
566.8400013409073
 30
0.0000000001127424
 11
4806.749444991887
 21
566.8400013409073
 31
0.0000000001127424
  0
LINE
  5
E470
330
18
100
AcDbEntity
  8
01
100
AcDbLine
 10
4776.749444991887
 20
596.8400013409073
 30
0.0000000001127424
 11
4776.749444991887
 21
536.8400013409073
 31
0.0000000001127424
  0
TEXT
  5
E471
330
18
100
AcDbEntity
  8
1TEXT
100
AcDbText
 10
4626.749444991887
 20
726.8386830278046
 30
0.0000000001127424
 40
10.0
  1
A4C
 41
1.0171875
100
AcDbText
  0
LINE
  5
E472
330
18
100
AcDbEntity
  8
01
100
AcDbLine
 10
4629.949444991888
 20
591.8399264420145
 30
0.0000000001127424
 11
4655.64681372304
 21
582.8782911410658
 31
0.0000000001127424
  0
LINE
  5
E473
330
18
100
AcDbEntity
  8
01
100
AcDbLine
 10
4655.575201840561
 20
550.7765879963958
 30
0.0000000001127424
 11
4629.949444991888
 21
541.8399264420145
 31
0.0000000001127424
  0
LINE
  5
E474
330
18
100
AcDbEntity
  8
01
100
AcDbLine
 10
4687.97334026565
 20
567.9123798462911
 30
0.0000000001127424
 11
4687.973340265649
 21
565.7674730377166
 31
0.0000000001127424
  0
LINE
  5
E475
330
18
100
AcDbEntity
  8
01
100
AcDbLine
 10
4655.64681372304
 20
582.8782911410658
 30
0.0000000001127424
 11
4668.391566522152
 21
578.5536575996871
 31
0.0000000001127424
  0
LINE
  5
E476
330
18
100
AcDbEntity
  8
01
100
AcDbLine
 10
4668.391566522152
 20
578.5536575996871
 30
0.0000000001127424
 11
4673.486726916564
 21
576.9599978804117
 31
0.0000000001127424
  0
LINE
  5
E477
330
18
100
AcDbEntity
  8
01
100
AcDbLine
 10
4673.486726916564
 20
576.9599978804117
 30
0.0000000001127424
 11
4675.326096342358
 21
576.4371563731879
 31
0.0000000001127424
  0
LINE
  5
E478
330
18
100
AcDbEntity
  8
01
100
AcDbLine
 10
4675.326096342358
 20
576.4371563731879
 30
0.0000000001127424
 11
4676.178245765052
 21
576.1711620330152
 31
0.0000000001127424
  0
LINE
  5
E479
330
18
100
AcDbEntity
  8
01
100
AcDbLine
 10
4676.178245765052
 20
576.1711620330152
 30
0.0000000001127424
 11
4676.676415859425
 21
575.9989353151909
 31
0.0000000001127424
  0
LINE
  5
E47A
330
18
100
AcDbEntity
  8
01
100
AcDbLine
 10
4676.676415859425
 20
575.9989353151909
 30
0.0000000001127424
 11
4677.170256761586
 21
575.8146564334506
 31
0.0000000001127424
  0
LINE
  5
E47B
330
18
100
AcDbEntity
  8
01
100
AcDbLine
 10
4677.170256761586
 20
575.8146564334506
 30
0.0000000001127424
 11
4677.659463985413
 21
575.6184328582299
 31
0.0000000001127424
  0
LINE
  5
E47C
330
18
100
AcDbEntity
  8
01
100
AcDbLine
 10
4677.659463985413
 20
575.6184328582299
 30
0.0000000001127424
 11
4678.143733044788
 21
575.4103720599664
 31
0.0000000001127424
  0
LINE
  5
E47D
330
18
100
AcDbEntity
  8
01
100
AcDbLine
 10
4678.143733044788
 20
575.4103720599664
 30
0.0000000001127424
 11
4678.733448813342
 21
575.1379665638383
 31
0.0000000001127424
  0
LINE
  5
E47E
330
18
100
AcDbEntity
  8
01
100
AcDbLine
 10
4678.733448813342
 20
575.1379665638383
 30
0.0000000001127424
 11
4679.315228873692
 21
574.8488761935778
 31
0.0000000001127424
  0
LINE
  5
E47F
330
18
100
AcDbEntity
  8
01
100
AcDbLine
 10
4679.315228873692
 20
574.8488761935778
 30
0.0000000001127424
 11
4679.889101388864
 21
574.5442342069432
 31
0.0000000001127424
  0
LINE
  5
E480
330
18
100
AcDbEntity
  8
01
100
AcDbLine
 10
4679.889101388864
 20
574.5442342069432
 30
0.0000000001127424
 11
4680.455094521888
 21
574.2251738616933
 31
0.0000000001127424
  0
LINE
  5
E481
330
18
100
AcDbEntity
  8
01
100
AcDbLine
 10
4680.455094521888
 20
574.2251738616933
 30
0.0000000001127424
 11
4681.055327701632
 21
573.8670031089528
 31
0.0000000001127424
  0
LINE
  5
E482
330
18
100
AcDbEntity
  8
01
100
AcDbLine
 10
4681.055327701632
 20
573.8670031089528
 30
0.0000000001127424
 11
4681.646672514785
 21
573.494400704808
 31
0.0000000001127424
  0
LINE
  5
E483
330
18
100
AcDbEntity
  8
01
100
AcDbLine
 10
4681.646672514785
 20
573.494400704808
 30
0.0000000001127424
 11
4682.22932948369
 21
573.1083143681599
 31
0.0000000001127424
  0
LINE
  5
E484
330
18
100
AcDbEntity
  8
01
100
AcDbLine
 10
4682.22932948369
 20
573.1083143681599
 30
0.0000000001127424
 11
4682.803499130692
 21
572.7096918179091
 31
0.0000000001127424
  0
LINE
  5
E485
330
18
100
AcDbEntity
  8
01
100
AcDbLine
 10
4682.803499130692
 20
572.7096918179091
 30
0.0000000001127424
 11
4683.415477071913
 21
572.2652776430677
 31
0.0000000001127424
  0
LINE
  5
E486
330
18
100
AcDbEntity
  8
01
100
AcDbLine
 10
4683.415477071913
 20
572.2652776430677
 30
0.0000000001127424
 11
4684.018078022114
 21
571.8081977525972
 31
0.0000000001127424
  0
LINE
  5
E487
330
18
100
AcDbEntity
  8
01
100
AcDbLine
 10
4684.018078022114
 20
571.8081977525972
 30
0.0000000001127424
 11
4684.611627893098
 21
571.3393552443981
 31
0.0000000001127424
  0
LINE
  5
E488
330
18
100
AcDbEntity
  8
01
100
AcDbLine
 10
4684.611627893098
 20
571.3393552443981
 30
0.0000000001127424
 11
4685.196452596665
 21
570.8596532163701
 31
0.0000000001127424
  0
LINE
  5
E489
330
18
100
AcDbEntity
  8
01
100
AcDbLine
 10
4685.196452596665
 20
570.8596532163701
 30
0.0000000001127424
 11
4685.826647585756
 21
570.3234517277974
 31
0.0000000001127424
  0
LINE
  5
E48A
330
18
100
AcDbEntity
  8
01
100
AcDbLine
 10
4685.826647585756
 20
570.3234517277974
 30
0.0000000001127424
 11
4686.447311444122
 21
569.7762511202291
 31
0.0000000001127424
  0
LINE
  5
E48B
330
18
100
AcDbEntity
  8
01
100
AcDbLine
 10
4686.447311444122
 20
569.7762511202291
 30
0.0000000001127424
 11
4687.662130085223
 21
568.6525193638677
 31
0.0000000001127424
  0
ARC
  5
E48C
330
18
100
AcDbEntity
  8
01
100
AcDbCircle
 10
4686.965852659686
 20
567.9246265057295
 30
0.0000000001127424
 40
1.007309866078339
100
AcDbArc
 50
0.227557102685606
 51
46.18718054045932
  0
LINE
  5
E48D
330
18
100
AcDbEntity
  8
01
100
AcDbLine
 10
4687.662081094733
 20
565.0272868474726
 30
0.0000000001127424
 11
4686.447284841765
 21
563.9035848281724
 31
0.0000000001127424
  0
LINE
  5
E48E
330
18
100
AcDbEntity
  8
01
100
AcDbLine
 10
4686.447284841765
 20
563.9035848281724
 30
0.0000000001127424
 11
4685.826630008989
 21
563.3564096698306
 31
0.0000000001127424
  0
LINE
  5
E48F
330
18
100
AcDbEntity
  8
01
100
AcDbLine
 10
4685.826630008989
 20
563.3564096698306
 30
0.0000000001127424
 11
4685.196441515927
 21
562.8202460139473
 31
0.0000000001127424
  0
LINE
  5
E490
330
18
100
AcDbEntity
  8
01
100
AcDbLine
 10
4685.196441515927
 20
562.8202460139473
 30
0.0000000001127424
 11
4684.611619914936
 21
562.3405881591702
 31
0.0000000001127424
  0
LINE
  5
E491
330
18
100
AcDbEntity
  8
01
100
AcDbLine
 10
4684.611619914936
 20
562.3405881591702
 30
0.0000000001127424
 11
4684.018075394813
 21
561.8717830117944
 31
0.0000000001127424
  0
LINE
  5
E492
330
18
100
AcDbEntity
  8
01
100
AcDbLine
 10
4684.018075394813
 20
561.8717830117944
 30
0.0000000001127424
 11
4683.415487109996
 21
561.4147131404002
 31
0.0000000001127424
  0
LINE
  5
E493
330
18
100
AcDbEntity
  8
01
100
AcDbLine
 10
4683.415487109996
 20
561.4147131404002
 30
0.0000000001127424
 11
4682.803534214925
 21
560.9702611135658
 31
0.0000000001127424
  0
LINE
  5
E494
330
18
100
AcDbEntity
  8
01
100
AcDbLine
 10
4682.803534214925
 20
560.9702611135658
 30
0.0000000001127424
 11
4682.22937746099
 21
560.5715385347221
 31
0.0000000001127424
  0
LINE
  5
E495
330
18
100
AcDbEntity
  8
01
100
AcDbLine
 10
4682.22937746099
 20
560.5715385347221
 30
0.0000000001127424
 11
4681.646734683623
 21
560.185343406054
 31
0.0000000001127424
  0
LINE
  5
E496
330
18
100
AcDbEntity
  8
01
100
AcDbLine
 10
4681.646734683623
 20
560.185343406054
 30
0.0000000001127424
 11
4681.055392411388
 21
559.8126721902722
 31
0.0000000001127424
  0
LINE
  5
E497
330
18
100
AcDbEntity
  8
01
100
AcDbLine
 10
4681.055392411388
 20
559.8126721902722
 30
0.0000000001127424
 11
4680.455137172844
 21
559.4545213500887
 31
0.0000000001127424
  0
LINE
  5
E498
330
18
100
AcDbEntity
  8
01
100
AcDbLine
 10
4680.455137172844
 20
559.4545213500887
 30
0.0000000001127424
 11
4679.889107414861
 21
559.1355878548025
 31
0.0000000001127424
  0
LINE
  5
E499
330
18
100
AcDbEntity
  8
01
100
AcDbLine
 10
4679.889107414861
 20
559.1355878548025
 30
0.0000000001127424
 11
4679.315189198887
 21
558.8311082599553
 31
0.0000000001127424
  0
LINE
  5
E49A
330
18
100
AcDbEntity
  8
01
100
AcDbLine
 10
4679.315189198887
 20
558.8311082599553
 30
0.0000000001127424
 11
4678.733377398074
 21
558.542133166909
 31
0.0000000001127424
  0
LINE
  5
E49B
330
18
100
AcDbEntity
  8
01
100
AcDbLine
 10
4678.733377398074
 20
558.542133166909
 30
0.0000000001127424
 11
4678.143666885571
 21
558.269713177026
 31
0.0000000001127424
  0
LINE
  5
E49C
330
18
100
AcDbEntity
  8
01
100
AcDbLine
 10
4678.143666885571
 20
558.269713177026
 30
0.0000000001127424
 11
4677.659448580813
 21
558.0615176667143
 31
0.0000000001127424
  0
LINE
  5
E49D
330
18
100
AcDbEntity
  8
01
100
AcDbLine
 10
4677.659448580813
 20
558.0615176667143
 30
0.0000000001127424
 11
4677.170301526719
 21
557.8651245370352
 31
0.0000000001127424
  0
LINE
  5
E49E
330
18
100
AcDbEntity
  8
01
100
AcDbLine
 10
4677.170301526719
 20
557.8651245370352
 30
0.0000000001127424
 11
4676.676499879335
 21
557.6807467599529
 31
0.0000000001127424
  0
LINE
  5
E49F
330
18
100
AcDbEntity
  8
01
100
AcDbLine
 10
4676.676499879335
 20
557.6807467599529
 30
0.0000000001127424
 11
4676.178317794708
 21
557.5085973074329
 31
0.0000000001127424
  0
LINE
  5
E4A0
330
18
100
AcDbEntity
  8
01
100
AcDbLine
 10
4676.178317794708
 20
557.5085973074329
 30
0.0000000001127424
 11
4675.326040857731
 21
557.2428477457365
 31
0.0000000001127424
  0
LINE
  5
E4A1
330
18
100
AcDbEntity
  8
01
100
AcDbLine
 10
4675.326040857731
 20
557.2428477457365
 30
0.0000000001127424
 11
4672.088006204865
 21
556.3008232399297
 31
0.0000000001127424
  0
LINE
  5
E4A2
330
18
100
AcDbEntity
  8
01
100
AcDbLine
 10
4672.088006204865
 20
556.3008232399297
 30
0.0000000001127424
 11
4662.734256544632
 21
553.2375143463219
 31
0.0000000001127424
  0
LINE
  5
E4A3
330
18
100
AcDbEntity
  8
01
100
AcDbLine
 10
4662.734256544632
 20
553.2375143463219
 30
0.0000000001127424
 11
4655.575201840561
 21
550.7765879963958
 31
0.0000000001127424
  0
ARC
  5
E4A4
330
18
100
AcDbEntity
  8
01
100
AcDbCircle
 10
4686.965800640181
 20
565.7552559544006
 30
0.0000000001127424
 40
1.007367221664078
100
AcDbArc
 50
313.8137898871981
 51
359.802102451464
  0
LINE
  5
E4A5
330
18
100
AcDbEntity
  8
01
100
AcDbLine
 10
4629.949444991888
 20
541.8399264420145
 30
0.0000000001127424
 11
4627.949444991887
 21
541.8399264420145
 31
0.0000000001127424
  0
LINE
  5
E4A6
330
18
100
AcDbEntity
  8
01
100
AcDbLine
 10
4627.949444991887
 20
591.8399264420145
 30
0.0000000001127424
 11
4629.949444991888
 21
591.8399264420145
 31
0.0000000001127424
  0
LINE
  5
E4A7
330
18
100
AcDbEntity
  8
01
100
AcDbLine
 10
4627.949444991887
 20
541.8399264420145
 30
0.0000000001127424
 11
4627.949444991887
 21
566.8399264420145
 31
0.0000000001127424
  0
LINE
  5
E4A8
330
18
100
AcDbEntity
  8
01
100
AcDbLine
 10
4629.949444991888
 20
541.8399264420145
 30
0.0000000001127424
 11
4629.949444991888
 21
566.8399264420141
 31
0.0000000001127424
  0
LINE
  5
E4A9
330
18
100
AcDbEntity
  8
01
100
AcDbLine
 10
4627.949444991887
 20
566.8399264420145
 30
0.0000000001127424
 11
4627.949444991887
 21
591.8399264420145
 31
0.0000000001127424
  0
LINE
  5
E4AA
330
18
100
AcDbEntity
  8
01
100
AcDbLine
 10
4629.949444991888
 20
591.8399264420145
 30
0.0000000001127424
 11
4629.949444991888
 21
566.8399264420141
 31
0.0000000001127424
  0
LINE
  5
E4AB
330
18
100
AcDbEntity
  8
1CENTER
100
AcDbLine
 10
4640.950735788771
 20
540.6769224789427
 30
0.0000000001057481
 11
4640.950735788771
 21
550.676054995603
 31
0.0000000001057481
  0
LINE
  5
E4AC
330
18
100
AcDbEntity
  8
1DIM
100
AcDbLine
 10
4627.949444991887
 20
544.3400013409073
 30
0.0000000001127424
 11
4626.749444991887
 21
544.3400013409073
 31
0.0000000001127424
  0
POINT
  5
E4AD
330
18
100
AcDbEntity
  8
01
100
AcDbPoint
 10
4640.950735788771
 20
545.6764887372724
 30
0.0000000001057481
  0
LINE
  5
E4AE
330
18
100
AcDbEntity
  8
01
100
AcDbLine
 10
4754.234802681556
 20
716.5126384017399
 30
0.0000000001127424
 11
4754.235371812635
 21
716.5112426540509
 31
0.0000000001127424
  0
ARC
  5
E4AF
330
18
100
AcDbEntity
  8
01
100
AcDbCircle
 10
4732.506804589996
 20
704.5141979467494
 30
0.0000000001127424
 40
24.82072423664555
100
AcDbArc
 50
9.54213783454013
 51
28.90791196739215
  0
LINE
  5
E4B0
330
18
100
AcDbEntity
  8
01
100
AcDbLine
 10
4754.231461305051
 20
716.5215345874085
 30
0.0000000001127424
 11
4754.231470795634
 21
716.5215073796267
 31
0.0000000001127424
  0
LINE
  5
E4B1
330
18
100
AcDbEntity
  8
01
100
AcDbLine
 10
4798.888164246113
 20
690.6582366931184
 30
0.0000000001127424
 11
4798.438679793338
 21
690.7089293950899
 31
0.0000000001127424
  0
LINE
  5
E4B2
330
18
100
AcDbEntity
  8
01
100
AcDbLine
 10
4797.88704173598
 20
690.8152444181001
 30
0.0000000001127424
 11
4797.569588788515
 21
690.8993331422803
 31
0.0000000001127424
  0
LINE
  5
E4B3
330
18
100
AcDbEntity
  8
01
100
AcDbLine
 10
4797.172084821512
 20
691.0294688822946
 30
0.0000000001127424
 11
4796.872181729472
 21
691.1469022542697
 31
0.0000000001127424
  0
LINE
  5
E4B4
330
18
100
AcDbEntity
  8
01
100
AcDbLine
 10
4796.327965202497
 20
691.4060696927436
 30
0.0000000001127424
 11
4796.031099305536
 21
691.5748399947415
 31
0.0000000001127424
  0
LINE
  5
E4B5
330
18
100
AcDbEntity
  8
01
100
AcDbLine
 10
4795.711436207157
 20
691.7809430116017
 30
0.0000000001127424
 11
4795.374320816062
 21
692.0289044562801
 31
0.0000000001127424
  0
LINE
  5
E4B6
330
18
100
AcDbEntity
  8
01
100
AcDbLine
 10
4794.9340927028
 20
692.4080431822081
 30
0.0000000001127424
 11
4794.627418986986
 21
692.7170810796856
 31
0.0000000001127424
  0
LINE
  5
E4B7
330
18
100
AcDbEntity
  8
01
100
AcDbLine
 10
4794.363814821083
 20
693.0193139619255
 30
0.0000000001127424
 11
4794.100652287139
 21
693.3633393913556
 31
0.0000000001127424
  0
LINE
  5
E4B8
330
18
100
AcDbEntity
  8
01
100
AcDbLine
 10
4793.755590645654
 20
693.9008987836928
 30
0.0000000001127424
 11
4793.434169100361
 21
694.5393719438343
 31
0.0000000001127424
  0
LINE
  5
E4B9
330
18
100
AcDbEntity
  8
01
100
AcDbLine
 10
4793.222025250742
 20
695.093199042889
 30
0.0000000001127424
 11
4793.014719333112
 21
695.8807849949126
 31
0.0000000001127424
  0
LINE
  5
E4BA
330
18
100
AcDbEntity
  8
01
100
AcDbLine
 10
4792.932993195184
 20
696.4078568497812
 30
0.0000000001127424
 11
4792.892959788945
 21
697.0197037019211
 31
0.0000000001127424
  0
LINE
  5
E4BB
330
18
100
AcDbEntity
  8
01
100
AcDbLine
 10
4792.908331744134
 20
697.6018255720942
 30
0.0000000001127424
 11
4792.952243115259
 21
698.0228375240963
 31
0.0000000001127424
  0
LINE
  5
E4BC
330
18
100
AcDbEntity
  8
01
100
AcDbLine
 10
4793.020892186005
 20
698.4276590143759
 30
0.0000000001127424
 11
4793.153239621965
 21
698.9634528191682
 31
0.0000000001127424
  0
LINE
  5
E4BD
330
18
100
AcDbEntity
  8
01
100
AcDbLine
 10
4799.391821965958
 20
690.6386830277897
 30
0.0000000001127424
 11
4799.235236498844
 21
690.640561500998
 31
0.0000000001127424
  0
LINE
  5
E4BE
330
18
100
AcDbEntity
  8
01
100
AcDbLine
 10
4754.23678352805
 20
716.5078997240116
 30
0.0000000001127424
 11
4754.234052531589
 21
716.5145280061274
 31
0.0000000001127424
  0
LINE
  5
E4BF
330
18
100
AcDbEntity
  8
01
100
AcDbLine
 10
4754.231461315787
 20
716.5215345911524
 30
0.0000000001127424
 11
4751.749444991887
 21
723.6386830278043
 31
0.0000000001127424
  0
LINE
  5
E4C0
330
18
100
AcDbEntity
  8
01
100
AcDbLine
 10
4801.749444991887
 20
723.6386830278043
 30
0.0000000001127424
 11
4793.254330444196
 21
699.2790562839791
 31
0.0000000001127424
  0
LINE
  5
E4C1
330
18
100
AcDbEntity
  8
01
100
AcDbLine
 10
4892.046618571426
 20
690.6386830277897
 30
0.0000000001127424
 11
4799.391821965958
 21
690.6386830277897
 31
0.0000000001127424
  0
ARC
  5
E4C2
330
18
100
AcDbEntity
  8
01
100
AcDbCircle
 10
4892.046618571426
 20
689.6386830277897
 30
0.0000000001127424
 40
1.0
100
AcDbArc
 50
19.79887635451794
 51
90.0
  0
LINE
  5
E4C3
330
18
100
AcDbEntity
  8
01
100
AcDbLine
 10
4756.975921832101
 20
708.6772080384621
 30
0.0000000001127424
 11
4770.819202697568
 21
668.9055669166569
 31
0.0000000001127424
  0
LINE
  5
E4C4
330
18
100
AcDbEntity
  8
01
100
AcDbLine
 10
4770.819202697568
 20
668.9055669166569
 30
0.0000000001127424
 11
4770.852081210583
 21
668.8177829360852
 31
0.0000000001127424
  0
LINE
  5
E4C5
330
18
100
AcDbEntity
  8
01
100
AcDbLine
 10
4770.852081210583
 20
668.8177829360852
 30
0.0000000001127424
 11
4770.88681877513
 21
668.7307032500412
 31
0.0000000001127424
  0
LINE
  5
E4C6
330
18
100
AcDbEntity
  8
01
100
AcDbLine
 10
4770.88681877513
 20
668.7307032500412
 30
0.0000000001127424
 11
4770.938772715739
 21
668.607685547166
 31
0.0000000001127424
  0
LINE
  5
E4C7
330
18
100
AcDbEntity
  8
01
100
AcDbLine
 10
4770.938772715739
 20
668.607685547166
 30
0.0000000001127424
 11
4770.993818242806
 21
668.4860433977233
 31
0.0000000001127424
  0
LINE
  5
E4C8
330
18
100
AcDbEntity
  8
01
100
AcDbLine
 10
4770.993818242806
 20
668.4860433977233
 30
0.0000000001127424
 11
4771.044807767469
 21
668.3808771293839
 31
0.0000000001127424
  0
LINE
  5
E4C9
330
18
100
AcDbEntity
  8
01
100
AcDbLine
 10
4771.044807767469
 20
668.3808771293839
 30
0.0000000001127424
 11
4771.098383434323
 21
668.2769956525949
 31
0.0000000001127424
  0
LINE
  5
E4CA
330
18
100
AcDbEntity
  8
01
100
AcDbLine
 10
4771.098383434323
 20
668.2769956525949
 30
0.0000000001127424
 11
4771.154441109786
 21
668.1744190282252
 31
0.0000000001127424
  0
LINE
  5
E4CB
330
18
100
AcDbEntity
  8
01
100
AcDbLine
 10
4771.154441109786
 20
668.1744190282252
 30
0.0000000001127424
 11
4771.212876660275
 21
668.073167317144
 31
0.0000000001127424
  0
LINE
  5
E4CC
330
18
100
AcDbEntity
  8
01
100
AcDbLine
 10
4771.212876660275
 20
668.073167317144
 30
0.0000000001127424
 11
4771.273309387243
 21
667.9737330778448
 31
0.0000000001127424
  0
LINE
  5
E4CD
330
18
100
AcDbEntity
  8
01
100
AcDbLine
 10
4771.273309387243
 20
667.9737330778448
 30
0.0000000001127424
 11
4771.335972813684
 21
667.8756918930299
 31
0.0000000001127424
  0
LINE
  5
E4CE
330
18
100
AcDbEntity
  8
01
100
AcDbLine
 10
4771.335972813684
 20
667.8756918930299
 30
0.0000000001127424
 11
4771.400845188515
 21
667.779104437112
 31
0.0000000001127424
  0
LINE
  5
E4CF
330
18
100
AcDbEntity
  8
01
100
AcDbLine
 10
4771.400845188515
 20
667.779104437112
 30
0.0000000001127424
 11
4771.467904760651
 21
667.6840313845046
 31
0.0000000001127424
  0
LINE
  5
E4D0
330
18
100
AcDbEntity
  8
01
100
AcDbLine
 10
4771.467904760651
 20
667.6840313845046
 30
0.0000000001127424
 11
4771.537129779011
 21
667.5905334096219
 31
0.0000000001127424
  0
LINE
  5
E4D1
330
18
100
AcDbEntity
  8
01
100
AcDbLine
 10
4771.537129779011
 20
667.5905334096219
 30
0.0000000001127424
 11
4771.60849849251
 21
667.4986711868755
 31
0.0000000001127424
  0
LINE
  5
E4D2
330
18
100
AcDbEntity
  8
01
100
AcDbLine
 10
4771.60849849251
 20
667.4986711868755
 30
0.0000000001127424
 11
4771.681989150065
 21
667.4085053906806
 31
0.0000000001127424
  0
LINE
  5
E4D3
330
18
100
AcDbEntity
  8
01
100
AcDbLine
 10
4771.681989150065
 20
667.4085053906806
 30
0.0000000001127424
 11
4771.757580000593
 21
667.3200966954487
 31
0.0000000001127424
  0
LINE
  5
E4D4
330
18
100
AcDbEntity
  8
01
100
AcDbLine
 10
4771.757580000593
 20
667.3200966954487
 30
0.0000000001127424
 11
4771.835005112981
 21
667.2337622593245
 31
0.0000000001127424
  0
LINE
  5
E4D5
330
18
100
AcDbEntity
  8
01
100
AcDbLine
 10
4771.835005112981
 20
667.2337622593245
 30
0.0000000001127424
 11
4771.914444433127
 21
667.1492715483291
 31
0.0000000001127424
  0
LINE
  5
E4D6
330
18
100
AcDbEntity
  8
01
100
AcDbLine
 10
4771.914444433127
 20
667.1492715483291
 30
0.0000000001127424
 11
4771.995846340747
 21
667.0666615441069
 31
0.0000000001127424
  0
LINE
  5
E4D7
330
18
100
AcDbEntity
  8
01
100
AcDbLine
 10
4771.995846340747
 20
667.0666615441069
 30
0.0000000001127424
 11
4772.079159215562
 21
666.9859692283012
 31
0.0000000001127424
  0
LINE
  5
E4D8
330
18
100
AcDbEntity
  8
01
100
AcDbLine
 10
4772.079159215562
 20
666.9859692283012
 30
0.0000000001127424
 11
4772.164331437288
 21
666.9072315825556
 31
0.0000000001127424
  0
LINE
  5
E4D9
330
18
100
AcDbEntity
  8
01
100
AcDbLine
 10
4772.164331437288
 20
666.9072315825556
 30
0.0000000001127424
 11
4772.251311385643
 21
666.8304855885149
 31
0.0000000001127424
  0
LINE
  5
E4DA
330
18
100
AcDbEntity
  8
01
100
AcDbLine
 10
4772.251311385643
 20
666.8304855885149
 30
0.0000000001127424
 11
4772.340047440347
 21
666.755768227822
 31
0.0000000001127424
  0
LINE
  5
E4DB
330
18
100
AcDbEntity
  8
01
100
AcDbLine
 10
4772.340047440347
 20
666.755768227822
 30
0.0000000001127424
 11
4772.430487981116
 21
666.683116482121
 31
0.0000000001127424
  0
LINE
  5
E4DC
330
18
100
AcDbEntity
  8
01
100
AcDbLine
 10
4772.430487981116
 20
666.683116482121
 30
0.0000000001127424
 11
4772.522581387669
 21
666.6125673330562
 31
0.0000000001127424
  0
LINE
  5
E4DD
330
18
100
AcDbEntity
  8
01
100
AcDbLine
 10
4772.522581387669
 20
666.6125673330562
 30
0.0000000001127424
 11
4772.616276039724
 21
666.544157762271
 31
0.0000000001127424
  0
LINE
  5
E4DE
330
18
100
AcDbEntity
  8
01
100
AcDbLine
 10
4772.616276039724
 20
666.544157762271
 30
0.0000000001127424
 11
4772.711520316998
 21
666.4779247514089
 31
0.0000000001127424
  0
LINE
  5
E4DF
330
18
100
AcDbEntity
  8
01
100
AcDbLine
 10
4772.711520316998
 20
666.4779247514089
 30
0.0000000001127424
 11
4772.808262599211
 21
666.4139052821142
 31
0.0000000001127424
  0
LINE
  5
E4E0
330
18
100
AcDbEntity
  8
01
100
AcDbLine
 10
4772.808262599211
 20
666.4139052821142
 30
0.0000000001127424
 11
4772.90645126608
 21
666.3521363360305
 31
0.0000000001127424
  0
LINE
  5
E4E1
330
18
100
AcDbEntity
  8
01
100
AcDbLine
 10
4772.90645126608
 20
666.3521363360305
 30
0.0000000001127424
 11
4773.006034697323
 21
666.2926548948021
 31
0.0000000001127424
  0
LINE
  5
E4E2
330
18
100
AcDbEntity
  8
01
100
AcDbLine
 10
4773.006034697323
 20
666.2926548948021
 30
0.0000000001127424
 11
4773.106961272658
 21
666.235497940072
 31
0.0000000001127424
  0
LINE
  5
E4E3
330
18
100
AcDbEntity
  8
01
100
AcDbLine
 10
4773.106961272658
 20
666.235497940072
 30
0.0000000001127424
 11
4773.209179371804
 21
666.1807024534851
 31
0.0000000001127424
  0
LINE
  5
E4E4
330
18
100
AcDbEntity
  8
01
100
AcDbLine
 10
4773.209179371804
 20
666.1807024534851
 30
0.0000000001127424
 11
4773.312083222802
 21
666.1285754125174
 31
0.0000000001127424
  0
LINE
  5
E4E5
330
18
100
AcDbEntity
  8
01
100
AcDbLine
 10
4773.312083222802
 20
666.1285754125174
 30
0.0000000001127424
 11
4773.416159913685
 21
666.0788435480595
 31
0.0000000001127424
  0
LINE
  5
E4E6
330
18
100
AcDbEntity
  8
01
100
AcDbLine
 10
4773.416159913685
 20
666.0788435480595
 30
0.0000000001127424
 11
4773.521355539428
 21
666.0315290406561
 31
0.0000000001127424
  0
LINE
  5
E4E7
330
18
100
AcDbEntity
  8
01
100
AcDbLine
 10
4773.521355539428
 20
666.0315290406561
 30
0.0000000001127424
 11
4773.627616195003
 21
665.9866540708526
 31
0.0000000001127424
  0
LINE
  5
E4E8
330
18
100
AcDbEntity
  8
01
100
AcDbLine
 10
4773.627616195003
 20
665.9866540708526
 30
0.0000000001127424
 11
4773.734887975384
 21
665.944240819194
 31
0.0000000001127424
  0
LINE
  5
E4E9
330
18
100
AcDbEntity
  8
01
100
AcDbLine
 10
4773.734887975384
 20
665.944240819194
 30
0.0000000001127424
 11
4773.843116975547
 21
665.904311466225
 31
0.0000000001127424
  0
LINE
  5
E4EA
330
18
100
AcDbEntity
  8
01
100
AcDbLine
 10
4773.843116975547
 20
665.904311466225
 30
0.0000000001127424
 11
4773.952249290464
 21
665.8668881924905
 31
0.0000000001127424
  0
LINE
  5
E4EB
330
18
100
AcDbEntity
  8
01
100
AcDbLine
 10
4773.952249290464
 20
665.8668881924905
 30
0.0000000001127424
 11
4774.06223101511
 21
665.8319931785359
 31
0.0000000001127424
  0
LINE
  5
E4EC
330
18
100
AcDbEntity
  8
01
100
AcDbLine
 10
4774.06223101511
 20
665.8319931785359
 30
0.0000000001127424
 11
4774.211051155625
 21
665.7891622280849
 31
0.0000000001127424
  0
LINE
  5
E4ED
330
18
100
AcDbEntity
  8
01
100
AcDbLine
 10
4774.211051155625
 20
665.7891622280849
 30
0.0000000001127424
 11
4774.361087470278
 21
665.7508930005029
 31
0.0000000001127424
  0
LINE
  5
E4EE
330
18
100
AcDbEntity
  8
01
100
AcDbLine
 10
4774.361087470278
 20
665.7508930005029
 30
0.0000000001127424
 11
4774.514167785256
 21
665.7168530938256
 31
0.0000000001127424
  0
LINE
  5
E4EF
330
18
100
AcDbEntity
  8
01
100
AcDbLine
 10
4774.514167785256
 20
665.7168530938256
 30
0.0000000001127424
 11
4774.630863872664
 21
665.6944609526913
 31
0.0000000001127424
  0
LINE
  5
E4F0
330
18
100
AcDbEntity
  8
01
100
AcDbLine
 10
4774.630863872664
 20
665.6944609526913
 30
0.0000000001127424
 11
4774.748072611783
 21
665.6748453473301
 31
0.0000000001127424
  0
LINE
  5
E4F1
330
18
100
AcDbEntity
  8
01
100
AcDbLine
 10
4774.748072611783
 20
665.6748453473301
 30
0.0000000001127424
 11
4774.863831897164
 21
665.6580729251641
 31
0.0000000001127424
  0
LINE
  5
E4F2
330
18
100
AcDbEntity
  8
01
100
AcDbLine
 10
4774.863831897164
 20
665.6580729251641
 30
0.0000000001127424
 11
4774.979938675611
 21
665.643943803846
 31
0.0000000001127424
  0
LINE
  5
E4F3
330
18
100
AcDbEntity
  8
01
100
AcDbLine
 10
4774.979938675611
 20
665.643943803846
 30
0.0000000001127424
 11
4775.063892883586
 21
665.6354969763311
 31
0.0000000001127424
  0
LINE
  5
E4F4
330
18
100
AcDbEntity
  8
01
100
AcDbLine
 10
4775.063892883586
 20
665.6354969763311
 30
0.0000000001127424
 11
4775.147982603045
 21
665.6285490190216
 31
0.0000000001127424
  0
LINE
  5
E4F5
330
18
100
AcDbEntity
  8
01
100
AcDbLine
 10
4775.147982603045
 20
665.6285490190216
 30
0.0000000001127424
 11
4775.320497824103
 21
665.6187831062975
 31
0.0000000001127424
  0
LINE
  5
E4F6
330
18
100
AcDbEntity
  8
01
100
AcDbLine
 10
4775.320497824103
 20
665.6187831062975
 30
0.0000000001127424
 11
4775.437114310063
 21
665.6151328250712
 31
0.0000000001127424
  0
LINE
  5
E4F7
330
18
100
AcDbEntity
  8
01
100
AcDbLine
 10
4775.437114310063
 20
665.6151328250712
 30
0.0000000001127424
 11
4786.736000403774
 21
665.6386830334736
 31
0.0000000001127424
  0
LINE
  5
E4F8
330
18
100
AcDbEntity
  8
01
100
AcDbLine
 10
4786.907897340613
 20
665.6386830278002
 30
0.0000000001127424
 11
4898.903792150976
 21
665.6386830278011
 31
0.0000000001127424
  0
ARC
  5
E4F9
330
18
100
AcDbEntity
  8
01
100
AcDbCircle
 10
4898.903792150976
 20
667.6386830278011
 30
0.0000000001127424
 40
2.0
100
AcDbArc
 50
270.0
 51
19.79887635451794
  0
LINE
  5
E4FA
330
18
100
AcDbEntity
  8
01
100
AcDbLine
 10
4786.736000403774
 20
665.6386830334736
 30
0.0000000001127424
 11
4786.907897340613
 21
665.6386830278002
 31
0.0000000001127424
  0
LINE
  5
E4FB
330
18
100
AcDbEntity
  8
01
100
AcDbLine
 10
4801.749444991887
 20
725.6386830278047
 30
0.0000000001127424
 11
4751.749444991887
 21
725.6386830278047
 31
0.0000000001127424
  0
LINE
  5
E4FC
330
18
100
AcDbEntity
  8
01
100
AcDbLine
 10
4751.749444991887
 20
723.6386830278043
 30
0.0000000001127424
 11
4751.749444991887
 21
725.6386830278047
 31
0.0000000001127424
  0
LINE
  5
E4FD
330
18
100
AcDbEntity
  8
01
100
AcDbLine
 10
4751.749444991887
 20
723.6386830278043
 30
0.0000000001127424
 11
4801.749444991887
 21
723.6386830278043
 31
0.0000000001127424
  0
LINE
  5
E4FE
330
18
100
AcDbEntity
  8
01
100
AcDbLine
 10
4801.749444991887
 20
725.6386830278047
 30
0.0000000001127424
 11
4801.749444991887
 21
723.6386830278043
 31
0.0000000001127424
  0
LINE
  5
E4FF
330
18
100
AcDbEntity
  8
01
100
AcDbLine
 10
4793.153239631127
 20
698.9634528504935
 30
0.0000000001127424
 11
4793.254330444196
 21
699.2790562839791
 31
0.0000000001127424
  0
LINE
  5
E500
330
18
100
AcDbEntity
  8
01
100
AcDbLine
 10
4792.952243115264
 20
698.0228375241272
 30
0.0000000001127424
 11
4793.020892149939
 21
698.4276588361181
 31
0.0000000001127424
  0
LINE
  5
E501
330
18
100
AcDbEntity
  8
01
100
AcDbLine
 10
4792.89295978612
 20
697.0197038562146
 30
0.0000000001127424
 11
4792.908331744128
 21
697.6018255720205
 31
0.0000000001127424
  0
LINE
  5
E502
330
18
100
AcDbEntity
  8
01
100
AcDbLine
 10
4793.014719307399
 20
695.8807851252463
 30
0.0000000001127424
 11
4792.932993211692
 21
696.4078567038891
 31
0.0000000001127424
  0
LINE
  5
E503
330
18
100
AcDbEntity
  8
01
100
AcDbLine
 10
4793.43394204527
 20
694.5398923089092
 30
0.0000000001127424
 11
4793.222025250749
 21
695.0931990428694
 31
0.0000000001127424
  0
LINE
  5
E504
330
18
100
AcDbEntity
  8
01
100
AcDbLine
 10
4794.100652200764
 20
693.3633395124011
 30
0.0000000001127424
 11
4793.755590645483
 21
693.9008987839916
 31
0.0000000001127424
  0
LINE
  5
E505
330
18
100
AcDbEntity
  8
01
100
AcDbLine
 10
4794.627418954279
 20
692.7170811149249
 30
0.0000000001127424
 11
4794.363814848247
 21
693.0193139287644
 31
0.0000000001127424
  0
LINE
  5
E506
330
18
100
AcDbEntity
  8
01
100
AcDbLine
 10
4795.374320816063
 20
692.0289044562796
 30
0.0000000001127424
 11
4794.93409281496
 21
692.4080430765002
 31
0.0000000001127424
  0
LINE
  5
E507
330
18
100
AcDbEntity
  8
01
100
AcDbLine
 10
4796.031099305629
 20
691.5748399946851
 30
0.0000000001127424
 11
4795.711722799538
 21
691.7807460829204
 31
0.0000000001127424
  0
LINE
  5
E508
330
18
100
AcDbEntity
  8
01
100
AcDbLine
 10
4796.872181594264
 20
691.1469023111176
 30
0.0000000001127424
 11
4796.327965310521
 21
691.4060696350239
 31
0.0000000001127424
  0
LINE
  5
E509
330
18
100
AcDbEntity
  8
01
100
AcDbLine
 10
4797.569588681547
 20
690.8993331735296
 30
0.0000000001127424
 11
4797.172084821527
 21
691.0294688822892
 31
0.0000000001127424
  0
LINE
  5
E50A
330
18
100
AcDbEntity
  8
01
100
AcDbLine
 10
4798.43821440913
 20
690.7089983716737
 30
0.0000000001127424
 11
4797.88704173634
 21
690.8152444180173
 31
0.0000000001127424
  0
LINE
  5
E50B
330
18
100
AcDbEntity
  8
01
100
AcDbLine
 10
4799.235236436195
 20
690.6405615025096
 30
0.0000000001127424
 11
4798.888164312099
 21
690.6582366879898
 31
0.0000000001127424
  0
LINE
  5
E50C
330
18
100
AcDbEntity
  8
1CENTER
100
AcDbLine
 10
4776.749444991887
 20
733.9974872620987
 30
0.0000000001127424
 11
4776.749444991887
 21
695.3578599972398
 31
0.0000000001127424
  0
LINE
  5
E50D
330
18
100
AcDbEntity
  8
1DIM
100
AcDbLine
 10
4799.249444991887
 20
726.8386830278046
 30
0.0000000001127424
 11
4799.249444991887
 21
725.6386830278047
 31
0.0000000001127424
  0
LINE
  5
E50E
330
18
100
AcDbEntity
  8
1DIM
100
AcDbLine
 10
4754.249444991887
 20
726.8386830278046
 30
0.0000000001127424
 11
4754.249444991887
 21
725.6386830278047
 31
0.0000000001127424
  0
LINE
  5
E50F
330
18
100
AcDbEntity
  8
01
100
AcDbLine
 10
4892.987505983295
 20
689.9774024960625
 30
0.0000000001127424
 11
4900.785566974713
 21
668.3161219643466
 31
0.0000000001127424
  0
ARC
  5
E510
330
18
100
AcDbEntity
  8
01
100
AcDbCircle
 10
4868.520899280007
 20
570.6348161089277
 30
0.0000000001127424
 40
33.41945253087797
100
AcDbArc
 50
336.6079659435723
 51
351.3516122446958
  0
ARC
  5
E511
330
18
100
AcDbEntity
  8
01
100
AcDbCircle
 10
4868.526012551851
 20
563.0462897654593
 30
0.0000000001127424
 40
33.4142082447715
100
AcDbArc
 50
8.647620071718363
 51
23.3949183890493
  0
LINE
  5
E512
330
18
100
AcDbEntity
  8
01
100
AcDbLine
 10
4785.698647645998
 20
577.0675044255518
 30
0.0000000001127424
 11
4785.777662662193
 21
577.0498328208373
 31
0.0000000001127424
  0
LINE
  5
E513
330
18
100
AcDbEntity
  8
01
100
AcDbLine
 10
4785.777662662193
 20
577.0498328208373
 30
0.0000000001127424
 11
4785.857082974732
 21
577.034075047522
 31
0.0000000001127424
  0
LINE
  5
E514
330
18
100
AcDbEntity
  8
01
100
AcDbLine
 10
4785.857082974732
 20
577.034075047522
 30
0.0000000001127424
 11
4786.051266342206
 21
577.0008914409304
 31
0.0000000001127424
  0
LINE
  5
E515
330
18
100
AcDbEntity
  8
01
100
AcDbLine
 10
4786.051266342206
 20
577.0008914409304
 30
0.0000000001127424
 11
4786.270552216433
 21
576.969811317495
 31
0.0000000001127424
  0
LINE
  5
E516
330
18
100
AcDbEntity
  8
01
100
AcDbLine
 10
4786.270552216433
 20
576.969811317495
 30
0.0000000001127424
 11
4786.490548197499
 21
576.944166601907
 31
0.0000000001127424
  0
LINE
  5
E517
330
18
100
AcDbEntity
  8
01
100
AcDbLine
 10
4786.490548197499
 20
576.944166601907
 30
0.0000000001127424
 11
4786.709678413237
 21
576.92346447814
 31
0.0000000001127424
  0
LINE
  5
E518
330
18
100
AcDbEntity
  8
01
100
AcDbLine
 10
4786.709678413237
 20
576.92346447814
 30
0.0000000001127424
 11
4786.929198428336
 21
576.9075356658227
 31
0.0000000001127424
  0
LINE
  5
E519
330
18
100
AcDbEntity
  8
01
100
AcDbLine
 10
4786.929198428336
 20
576.9075356658227
 30
0.0000000001127424
 11
4787.166146357772
 21
576.8955955900051
 31
0.0000000001127424
  0
LINE
  5
E51A
330
18
100
AcDbEntity
  8
01
100
AcDbLine
 10
4787.166146357772
 20
576.8955955900051
 30
0.0000000001127424
 11
4790.770881087666
 21
576.8519570519943
 31
0.0000000001127424
  0
LINE
  5
E51B
330
18
100
AcDbEntity
  8
01
100
AcDbLine
 10
4790.770881087666
 20
576.8519570519943
 30
0.0000000001127424
 11
4794.275450843109
 21
576.8399232429806
 31
0.0000000001127424
  0
LINE
  5
E51C
330
18
100
AcDbEntity
  8
01
100
AcDbLine
 10
4799.662323467339
 20
576.8399264420909
 30
0.0000000001127424
 11
4898.289697497313
 21
576.8399264457489
 31
0.0000000001127424
  0
LINE
  5
E51D
330
18
100
AcDbEntity
  8
01
100
AcDbLine
 10
4794.329493348053
 20
576.8399264418972
 30
0.0000000001127424
 11
4799.662323467339
 21
576.8399264420909
 31
0.0000000001127424
  0
LINE
  5
E51E
330
18
100
AcDbEntity
  8
01
100
AcDbLine
 10
4799.662323467473
 20
556.8399264422465
 30
0.0000000001127424
 11
4898.289697497165
 21
556.839926444592
 31
0.0000000001127424
  0
LINE
  5
E51F
330
18
100
AcDbEntity
  8
01
100
AcDbLine
 10
4791.371020865196
 20
556.8399264420532
 30
0.0000000001127424
 11
4799.662323467473
 21
556.8399264422465
 31
0.0000000001127424
  0
LINE
  5
E520
330
18
100
AcDbEntity
  8
01
100
AcDbLine
 10
4786.907897318501
 20
565.0378250932895
 30
0.0000000001127424
 11
4900.57672587986
 21
565.0378271649597
 31
0.0000000001127424
  0
ARC
  5
E521
330
18
100
AcDbEntity
  8
01
100
AcDbCircle
 10
4900.734268477207
 20
565.9026677435909
 30
0.0000000001127424
 40
0.8790727480850571
100
AcDbArc
 50
259.675989045994
 51
339.4204109298696
  0
ARC
  5
E522
330
18
100
AcDbEntity
  8
01
100
AcDbCircle
 10
4898.334053899009
 20
557.8070471300812
 30
0.0000000001127424
 40
0.9671335052692253
100
AcDbArc
 50
270.278581387894
 51
2.017730309661006
  0
LINE
  5
E523
330
18
100
AcDbEntity
  8
01
100
AcDbLine
 10
4786.907897318498
 20
568.64202779072
 30
0.0000000001127424
 11
4900.576725879876
 21
568.6420255289581
 31
0.0000000001127424
  0
LINE
  5
E524
330
18
100
AcDbEntity
  8
01
100
AcDbLine
 10
4901.564166511705
 20
567.8911470922403
 30
0.0000000001127424
 11
4901.564166511719
 21
565.788705791771
 31
0.0000000001127424
  0
ARC
  5
E525
330
18
100
AcDbEntity
  8
01
100
AcDbCircle
 10
4900.742033228968
 20
567.7908661389488
 30
0.0000000001127424
 40
0.8670633349786758
100
AcDbArc
 50
19.91817561127477
 51
100.9908359470648
  0
LINE
  5
E526
330
18
100
AcDbEntity
  8
01
100
AcDbLine
 10
4901.564166511705
 20
567.8911470922403
 30
0.0000000001127424
 11
4901.560359947413
 21
568.0703523422294
 31
0.0000000001127424
  0
ARC
  5
E527
330
18
100
AcDbEntity
  8
01
100
AcDbCircle
 10
4870.820206485472
 20
563.4310306883622
 30
0.0000000001127424
 40
31.06579656842382
100
AcDbArc
 50
8.25447980073946
 51
23.54076328518316
  0
ARC
  5
E528
330
18
100
AcDbEntity
  8
01
100
AcDbCircle
 10
4898.334005102567
 20
575.8727567929923
 30
0.0000000001127424
 40
0.9671806898997953
100
AcDbArc
 50
357.9852448297105
 51
89.71846052335955
  0
LINE
  5
E529
330
18
100
AcDbEntity
  8
01
100
AcDbLine
 10
4786.736186143544
 20
568.6420365096469
 30
0.0000000001127424
 11
4775.840660395261
 21
568.6532145741071
 31
0.0000000001127424
  0
LINE
  5
E52A
330
18
100
AcDbEntity
  8
01
100
AcDbLine
 10
4775.840660395261
 20
568.6532145741071
 30
0.0000000001127424
 11
4773.02414975394
 21
568.6103980525995
 31
0.0000000001127424
  0
LINE
  5
E52B
330
18
100
AcDbEntity
  8
01
100
AcDbLine
 10
4773.02414975394
 20
568.6103980525995
 30
0.0000000001127424
 11
4772.485989451431
 21
568.5910040146714
 31
0.0000000001127424
  0
LINE
  5
E52C
330
18
100
AcDbEntity
  8
01
100
AcDbLine
 10
4772.485989451431
 20
568.5910040146714
 30
0.0000000001127424
 11
4771.802067001082
 21
568.554536574165
 31
0.0000000001127424
  0
LINE
  5
E52D
330
18
100
AcDbEntity
  8
01
100
AcDbLine
 10
4786.736186143509
 20
565.0378163743626
 30
0.0000000001127424
 11
4775.840660395231
 21
565.0266383099029
 31
0.0000000001127424
  0
LINE
  5
E52E
330
18
100
AcDbEntity
  8
01
100
AcDbLine
 10
4775.840660395231
 20
565.0266383099029
 30
0.0000000001127424
 11
4773.024149753914
 21
565.0694548314109
 31
0.0000000001127424
  0
LINE
  5
E52F
330
18
100
AcDbEntity
  8
01
100
AcDbLine
 10
4773.024149753914
 20
565.0694548314109
 30
0.0000000001127424
 11
4772.485989451407
 21
565.0888488693395
 31
0.0000000001127424
  0
LINE
  5
E530
330
18
100
AcDbEntity
  8
01
100
AcDbLine
 10
4772.485989451407
 20
565.0888488693395
 30
0.0000000001127424
 11
4771.802067001063
 21
565.1253163098459
 31
0.0000000001127424
  0
ARC
  5
E531
330
18
100
AcDbEntity
  8
01
100
AcDbCircle
 10
4776.749444991887
 20
566.8399264420145
 30
0.0000000001127424
 40
24.99999999999994
100
AcDbArc
 50
180.0
 51
336.4218215223881
  0
LINE
  5
E532
330
18
100
AcDbEntity
  8
01
100
AcDbLine
 10
4784.013928859762
 20
556.7063798073491
 30
0.0000000001127424
 11
4785.463091112449
 21
556.8108088187464
 31
0.0000000001127424
  0
LINE
  5
E533
330
18
100
AcDbEntity
  8
01
100
AcDbLine
 10
4783.867178512753
 20
556.6913741590029
 30
0.0000000001127424
 11
4783.95233721278
 21
556.7001847530987
 31
0.0000000001127424
  0
ARC
  5
E534
330
18
100
AcDbEntity
  8
01
100
AcDbCircle
 10
4776.749444991887
 20
566.8399264420145
 30
0.0000000001127424
 40
24.99999999999994
100
AcDbArc
 50
23.57817847840558
 51
180.0
  0
LINE
  5
E535
330
18
100
AcDbEntity
  8
01
100
AcDbLine
 10
4787.593144265553
 20
556.8397759319882
 30
0.0000000001127424
 11
4793.027659197557
 21
556.8399924422879
 31
0.0000000001127424
  0
LINE
  5
E536
330
18
100
AcDbEntity
  8
01
100
AcDbLine
 10
4783.867182868267
 20
556.6913327040816
 30
0.0000000001127424
 11
4782.99128602882
 21
556.5836441415272
 31
0.0000000001127424
  0
LINE
  5
E537
330
18
100
AcDbEntity
  8
01
100
AcDbLine
 10
4784.013927950185
 20
556.7063886584697
 30
0.0000000001127424
 11
4783.952338925656
 21
556.7001679442678
 31
0.0000000001127424
  0
LINE
  5
E538
330
18
100
AcDbEntity
  8
01
100
AcDbLine
 10
4787.593144265553
 20
556.8397759319873
 30
0.0000000001127424
 11
4785.463088851349
 21
556.8108587769111
 31
0.0000000001127424
  0
LINE
  5
E539
330
18
100
AcDbEntity
  8
1CENTER
100
AcDbLine
 10
4776.749444991887
 20
576.8400013409073
 30
0.0000000001127424
 11
4776.749444991887
 21
556.8400013409073
 31
0.0000000001127424
  0
LINE
  5
E53A
330
18
100
AcDbEntity
  8
1CENTER
100
AcDbLine
 10
4766.749444991887
 20
566.8400013409073
 30
0.0000000001127424
 11
4786.749444991887
 21
566.8400013409073
 31
0.0000000001127424
  0
LINE
  5
E53B
330
18
100
AcDbEntity
  8
01
100
AcDbLine
 10
4776.581925911729
 20
547.1217072079457
 30
0.0000000001127424
 11
4776.160662809642
 21
547.117987444472
 31
0.0000000001127424
  0
LINE
  5
E53C
330
18
100
AcDbEntity
  8
01
100
AcDbLine
 10
4776.160662809642
 20
547.117987444472
 30
0.0000000001127424
 11
4775.739544309674
 21
547.106276468915
 31
0.0000000001127424
  0
LINE
  5
E53D
330
18
100
AcDbEntity
  8
01
100
AcDbLine
 10
4775.739544309674
 20
547.106276468915
 30
0.0000000001127424
 11
4775.345388172051
 21
547.0872156504106
 31
0.0000000001127424
  0
LINE
  5
E53E
330
18
100
AcDbEntity
  8
01
100
AcDbLine
 10
4775.345388172051
 20
547.0872156504106
 30
0.0000000001127424
 11
4774.951822110496
 21
547.058596124677
 31
0.0000000001127424
  0
LINE
  5
E53F
330
18
100
AcDbEntity
  8
01
100
AcDbLine
 10
4774.951822110496
 20
547.058596124677
 30
0.0000000001127424
 11
4774.626749502255
 21
547.0259886684303
 31
0.0000000001127424
  0
LINE
  5
E540
330
18
100
AcDbEntity
  8
01
100
AcDbLine
 10
4774.626749502255
 20
547.0259886684303
 30
0.0000000001127424
 11
4774.464656065422
 21
547.0058275580409
 31
0.0000000001127424
  0
LINE
  5
E541
330
18
100
AcDbEntity
  8
01
100
AcDbLine
 10
4774.464656065422
 20
547.0058275580409
 30
0.0000000001127424
 11
4774.302970376979
 21
546.9826138810749
 31
0.0000000001127424
  0
LINE
  5
E542
330
18
100
AcDbEntity
  8
01
100
AcDbLine
 10
4774.302970376979
 20
546.9826138810749
 30
0.0000000001127424
 11
4774.169120132377
 21
546.9607181832416
 31
0.0000000001127424
  0
LINE
  5
E543
330
18
100
AcDbEntity
  8
01
100
AcDbLine
 10
4774.169120132377
 20
546.9607181832416
 30
0.0000000001127424
 11
4774.035775154546
 21
546.9359956926264
 31
0.0000000001127424
  0
LINE
  5
E544
330
18
100
AcDbEntity
  8
01
100
AcDbLine
 10
4774.035775154546
 20
546.9359956926264
 30
0.0000000001127424
 11
4773.903101477285
 21
546.9079724771755
 31
0.0000000001127424
  0
LINE
  5
E545
330
18
100
AcDbEntity
  8
01
100
AcDbLine
 10
4773.903101477285
 20
546.9079724771755
 30
0.0000000001127424
 11
4773.771265134394
 21
546.8761746048344
 31
0.0000000001127424
  0
LINE
  5
E546
330
18
100
AcDbEntity
  8
01
100
AcDbLine
 10
4773.771265134394
 20
546.8761746048344
 30
0.0000000001127424
 11
4773.666236824012
 21
546.8475392716132
 31
0.0000000001127424
  0
LINE
  5
E547
330
18
100
AcDbEntity
  8
01
100
AcDbLine
 10
4773.666236824012
 20
546.8475392716132
 30
0.0000000001127424
 11
4773.614080557678
 21
546.8319901377095
 31
0.0000000001127424
  0
LINE
  5
E548
330
18
100
AcDbEntity
  8
01
100
AcDbLine
 10
4773.614080557678
 20
546.8319901377095
 30
0.0000000001127424
 11
4773.562224535773
 21
546.8155104120851
 31
0.0000000001127424
  0
LINE
  5
E549
330
18
100
AcDbEntity
  8
01
100
AcDbLine
 10
4773.562224535773
 20
546.8155104120851
 30
0.0000000001127424
 11
4773.510714997195
 21
546.7980178845969
 31
0.0000000001127424
  0
LINE
  5
E54A
330
18
100
AcDbEntity
  8
01
100
AcDbLine
 10
4773.510714997195
 20
546.7980178845969
 30
0.0000000001127424
 11
4773.459598180838
 21
546.7794303451019
 31
0.0000000001127424
  0
LINE
  5
E54B
330
18
100
AcDbEntity
  8
01
100
AcDbLine
 10
4773.459598180838
 20
546.7794303451019
 30
0.0000000001127424
 11
4773.408920325597
 21
546.7596655834559
 31
0.0000000001127424
  0
LINE
  5
E54C
330
18
100
AcDbEntity
  8
01
100
AcDbLine
 10
4773.408920325597
 20
546.7596655834559
 30
0.0000000001127424
 11
4773.358727670371
 21
546.738641389516
 31
0.0000000001127424
  0
LINE
  5
E54D
330
18
100
AcDbEntity
  8
01
100
AcDbLine
 10
4773.358727670371
 20
546.738641389516
 30
0.0000000001127424
 11
4773.316203804486
 21
546.719576764689
 31
0.0000000001127424
  0
LINE
  5
E54E
330
18
100
AcDbEntity
  8
01
100
AcDbLine
 10
4773.316203804486
 20
546.719576764689
 30
0.0000000001127424
 11
4773.274181450151
 21
546.6994273004739
 31
0.0000000001127424
  0
LINE
  5
E54F
330
18
100
AcDbEntity
  8
01
100
AcDbLine
 10
4773.274181450151
 20
546.6994273004739
 30
0.0000000001127424
 11
4773.232772839167
 21
546.6780909124695
 31
0.0000000001127424
  0
LINE
  5
E550
330
18
100
AcDbEntity
  8
01
100
AcDbLine
 10
4773.232772839167
 20
546.6780909124695
 30
0.0000000001127424
 11
4773.192090203327
 21
546.6554655162763
 31
0.0000000001127424
  0
LINE
  5
E551
330
18
100
AcDbEntity
  8
01
100
AcDbLine
 10
4773.192090203327
 20
546.6554655162763
 30
0.0000000001127424
 11
4773.159550074091
 21
546.6359945646996
 31
0.0000000001127424
  0
LINE
  5
E552
330
18
100
AcDbEntity
  8
01
100
AcDbLine
 10
4773.159550074091
 20
546.6359945646996
 30
0.0000000001127424
 11
4773.127649494876
 21
546.6155103864517
 31
0.0000000001127424
  0
LINE
  5
E553
330
18
100
AcDbEntity
  8
01
100
AcDbLine
 10
4773.127649494876
 20
546.6155103864517
 30
0.0000000001127424
 11
4773.111964884552
 21
546.6048604941388
 31
0.0000000001127424
  0
LINE
  5
E554
330
18
100
AcDbEntity
  8
01
100
AcDbLine
 10
4773.111964884552
 20
546.6048604941388
 30
0.0000000001127424
 11
4773.096471179362
 21
546.5939238833334
 31
0.0000000001127424
  0
LINE
  5
E555
330
18
100
AcDbEntity
  8
01
100
AcDbLine
 10
4773.096471179362
 20
546.5939238833334
 30
0.0000000001127424
 11
4773.08117871852
 21
546.5826894167603
 31
0.0000000001127424
  0
LINE
  5
E556
330
18
100
AcDbEntity
  8
01
100
AcDbLine
 10
4773.08117871852
 20
546.5826894167603
 30
0.0000000001127424
 11
4773.066097841234
 21
546.5711459571453
 31
0.0000000001127424
  0
LINE
  5
E557
330
18
100
AcDbEntity
  8
01
100
AcDbLine
 10
4773.066097841234
 20
546.5711459571453
 30
0.0000000001127424
 11
4773.052756294697
 21
546.5605166210271
 31
0.0000000001127424
  0
LINE
  5
E558
330
18
100
AcDbEntity
  8
01
100
AcDbLine
 10
4773.052756294697
 20
546.5605166210271
 30
0.0000000001127424
 11
4773.039612892011
 21
546.5496265950169
 31
0.0000000001127424
  0
LINE
  5
E559
330
18
100
AcDbEntity
  8
01
100
AcDbLine
 10
4773.039612892011
 20
546.5496265950169
 30
0.0000000001127424
 11
4773.026687094393
 21
546.5384729443349
 31
0.0000000001127424
  0
LINE
  5
E55A
330
18
100
AcDbEntity
  8
01
100
AcDbLine
 10
4773.026687094393
 20
546.5384729443349
 30
0.0000000001127424
 11
4773.013998363062
 21
546.5270527342013
 31
0.0000000001127424
  0
LINE
  5
E55B
330
18
100
AcDbEntity
  8
01
100
AcDbLine
 10
4773.013998363062
 20
546.5270527342013
 30
0.0000000001127424
 11
4773.001566159237
 21
546.5153630298378
 31
0.0000000001127424
  0
LINE
  5
E55C
330
18
100
AcDbEntity
  8
01
100
AcDbLine
 10
4773.001566159237
 20
546.5153630298378
 30
0.0000000001127424
 11
4772.989409944134
 21
546.503400896464
 31
0.0000000001127424
  0
LINE
  5
E55D
330
18
100
AcDbEntity
  8
01
100
AcDbLine
 10
4772.989409944134
 20
546.503400896464
 30
0.0000000001127424
 11
4772.977549178973
 21
546.4911633993006
 31
0.0000000001127424
  0
LINE
  5
E55E
330
18
100
AcDbEntity
  8
01
100
AcDbLine
 10
4772.977549178973
 20
546.4911633993006
 30
0.0000000001127424
 11
4772.966003324971
 21
546.4786476035679
 31
0.0000000001127424
  0
LINE
  5
E55F
330
18
100
AcDbEntity
  8
01
100
AcDbLine
 10
4772.966003324971
 20
546.4786476035679
 30
0.0000000001127424
 11
4772.954791843346
 21
546.4658505744874
 31
0.0000000001127424
  0
LINE
  5
E560
330
18
100
AcDbEntity
  8
01
100
AcDbLine
 10
4772.954791843346
 20
546.4658505744874
 30
0.0000000001127424
 11
4772.943934195318
 21
546.4527693772789
 31
0.0000000001127424
  0
LINE
  5
E561
330
18
100
AcDbEntity
  8
01
100
AcDbLine
 10
4772.943934195318
 20
546.4527693772789
 30
0.0000000001127424
 11
4772.933449842102
 21
546.439401077163
 31
0.0000000001127424
  0
LINE
  5
E562
330
18
100
AcDbEntity
  8
01
100
AcDbLine
 10
4772.933449842102
 20
546.439401077163
 30
0.0000000001127424
 11
4772.923358244919
 21
546.4257427393604
 31
0.0000000001127424
  0
LINE
  5
E563
330
18
100
AcDbEntity
  8
01
100
AcDbLine
 10
4772.923358244919
 20
546.4257427393604
 30
0.0000000001127424
 11
4772.913678864986
 21
546.4117914290914
 31
0.0000000001127424
  0
LINE
  5
E564
330
18
100
AcDbEntity
  8
01
100
AcDbLine
 10
4772.913678864986
 20
546.4117914290914
 30
0.0000000001127424
 11
4772.904431163521
 21
546.397544211577
 31
0.0000000001127424
  0
LINE
  5
E565
330
18
100
AcDbEntity
  8
01
100
AcDbLine
 10
4772.904431163521
 20
546.397544211577
 30
0.0000000001127424
 11
4772.895634601741
 21
546.3829981520375
 31
0.0000000001127424
  0
LINE
  5
E566
330
18
100
AcDbEntity
  8
01
100
AcDbLine
 10
4772.895634601741
 20
546.3829981520375
 30
0.0000000001127424
 11
4772.887308640867
 21
546.3681503156936
 31
0.0000000001127424
  0
LINE
  5
E567
330
18
100
AcDbEntity
  8
01
100
AcDbLine
 10
4772.887308640867
 20
546.3681503156936
 30
0.0000000001127424
 11
4772.88071505026
 21
546.3554881894738
 31
0.0000000001127424
  0
LINE
  5
E568
330
18
100
AcDbEntity
  8
01
100
AcDbLine
 10
4772.88071505026
 20
546.3554881894738
 30
0.0000000001127424
 11
4772.874481234663
 21
546.3426267123782
 31
0.0000000001127424
  0
LINE
  5
E569
330
18
100
AcDbEntity
  8
01
100
AcDbLine
 10
4772.874481234663
 20
546.3426267123782
 30
0.0000000001127424
 11
4772.868623484908
 21
546.3295801056556
 31
0.0000000001127424
  0
LINE
  5
E56A
330
18
100
AcDbEntity
  8
01
100
AcDbLine
 10
4772.868623484908
 20
546.3295801056556
 30
0.0000000001127424
 11
4772.863158091825
 21
546.3163625905545
 31
0.0000000001127424
  0
LINE
  5
E56B
330
18
100
AcDbEntity
  8
01
100
AcDbLine
 10
4772.863158091825
 20
546.3163625905545
 30
0.0000000001127424
 11
4772.858101346243
 21
546.3029883883237
 31
0.0000000001127424
  0
LINE
  5
E56C
330
18
100
AcDbEntity
  8
01
100
AcDbLine
 10
4772.858101346243
 20
546.3029883883237
 30
0.0000000001127424
 11
4772.853469538993
 21
546.2894717202125
 31
0.0000000001127424
  0
LINE
  5
E56D
330
18
100
AcDbEntity
  8
01
100
AcDbLine
 10
4772.853469538993
 20
546.2894717202125
 30
0.0000000001127424
 11
4772.849278960904
 21
546.2758268074699
 31
0.0000000001127424
  0
LINE
  5
E56E
330
18
100
AcDbEntity
  8
01
100
AcDbLine
 10
4772.849278960904
 20
546.2758268074699
 30
0.0000000001127424
 11
4772.845545902806
 21
546.2620678713447
 31
0.0000000001127424
  0
LINE
  5
E56F
330
18
100
AcDbEntity
  8
01
100
AcDbLine
 10
4772.845545902806
 20
546.2620678713447
 30
0.0000000001127424
 11
4772.842317083192
 21
546.2483673453562
 31
0.0000000001127424
  0
LINE
  5
E570
330
18
100
AcDbEntity
  8
01
100
AcDbLine
 10
4772.842317083192
 20
546.2483673453562
 30
0.0000000001127424
 11
4772.839542431255
 21
546.2345784262807
 31
0.0000000001127424
  0
LINE
  5
E571
330
18
100
AcDbEntity
  8
01
100
AcDbLine
 10
4772.839542431255
 20
546.2345784262807
 30
0.0000000001127424
 11
4772.837213077498
 21
546.2207102538355
 31
0.0000000001127424
  0
LINE
  5
E572
330
18
100
AcDbEntity
  8
01
100
AcDbLine
 10
4772.837213077498
 20
546.2207102538355
 30
0.0000000001127424
 11
4772.835320152424
 21
546.2067719677366
 31
0.0000000001127424
  0
LINE
  5
E573
330
18
100
AcDbEntity
  8
01
100
AcDbLine
 10
4772.835320152424
 20
546.2067719677366
 30
0.0000000001127424
 11
4772.833854786537
 21
546.1927727077014
 31
0.0000000001127424
  0
LINE
  5
E574
330
18
100
AcDbEntity
  8
01
100
AcDbLine
 10
4772.833854786537
 20
546.1927727077014
 30
0.0000000001127424
 11
4772.832808110341
 21
546.1787216134462
 31
0.0000000001127424
  0
LINE
  5
E575
330
18
100
AcDbEntity
  8
01
100
AcDbLine
 10
4772.832808110341
 20
546.1787216134462
 30
0.0000000001127424
 11
4772.832171254337
 21
546.1646278246885
 31
0.0000000001127424
  0
LINE
  5
E576
330
18
100
AcDbEntity
  8
01
100
AcDbLine
 10
4772.832171254337
 20
546.1646278246885
 30
0.0000000001127424
 11
4772.831935349031
 21
546.1505004811452
 31
0.0000000001127424
  0
LINE
  5
E577
330
18
100
AcDbEntity
  8
01
100
AcDbLine
 10
4772.831935349031
 20
546.1505004811452
 30
0.0000000001127424
 11
4772.832047444371
 21
546.1416250718371
 31
0.0000000001127424
  0
LINE
  5
E578
330
18
100
AcDbEntity
  8
01
100
AcDbLine
 10
4772.832047444371
 20
546.1416250718371
 30
0.0000000001127424
 11
4772.832316596974
 21
546.1327584270598
 31
0.0000000001127424
  0
LINE
  5
E579
330
18
100
AcDbEntity
  8
01
100
AcDbLine
 10
4772.832316596974
 20
546.1327584270598
 30
0.0000000001127424
 11
4772.833319233695
 21
546.1150585487048
 31
0.0000000001127424
  0
LINE
  5
E57A
330
18
100
AcDbEntity
  8
01
100
AcDbLine
 10
4772.833319233695
 20
546.1150585487048
 30
0.0000000001127424
 11
4772.834929578643
 21
546.0974150812908
 31
0.0000000001127424
  0
LINE
  5
E57B
330
18
100
AcDbEntity
  8
01
100
AcDbLine
 10
4772.834929578643
 20
546.0974150812908
 30
0.0000000001127424
 11
4772.837133951267
 21
546.0798422600292
 31
0.0000000001127424
  0
LINE
  5
E57C
330
18
100
AcDbEntity
  8
01
100
AcDbLine
 10
4772.837133951267
 20
546.0798422600292
 30
0.0000000001127424
 11
4772.839918671016
 21
546.0623543201314
 31
0.0000000001127424
  0
LINE
  5
E57D
330
18
100
AcDbEntity
  8
01
100
AcDbLine
 10
4772.839918671016
 20
546.0623543201314
 30
0.0000000001127424
 11
4772.843270057338
 21
546.0449654968079
 31
0.0000000001127424
  0
LINE
  5
E57E
330
18
100
AcDbEntity
  8
01
100
AcDbLine
 10
4772.843270057338
 20
546.0449654968079
 30
0.0000000001127424
 11
4772.847174429682
 21
546.0276900252702
 31
0.0000000001127424
  0
LINE
  5
E57F
330
18
100
AcDbEntity
  8
01
100
AcDbLine
 10
4772.847174429682
 20
546.0276900252702
 30
0.0000000001127424
 11
4772.851618107497
 21
546.0105421407302
 31
0.0000000001127424
  0
LINE
  5
E580
330
18
100
AcDbEntity
  8
01
100
AcDbLine
 10
4772.851618107497
 20
546.0105421407302
 30
0.0000000001127424
 11
4772.857123372959
 21
545.9917988551038
 31
0.0000000001127424
  0
LINE
  5
E581
330
18
100
AcDbEntity
  8
01
100
AcDbLine
 10
4772.857123372959
 20
545.9917988551038
 30
0.0000000001127424
 11
4772.863232993942
 21
545.9732340246082
 31
0.0000000001127424
  0
LINE
  5
E582
330
18
100
AcDbEntity
  8
01
100
AcDbLine
 10
4772.863232993942
 20
545.9732340246082
 30
0.0000000001127424
 11
4772.869912390694
 21
545.9548537091773
 31
0.0000000001127424
  0
LINE
  5
E583
330
18
100
AcDbEntity
  8
01
100
AcDbLine
 10
4772.869912390694
 20
545.9548537091773
 30
0.0000000001127424
 11
4772.877126983461
 21
545.9366639687446
 31
0.0000000001127424
  0
LINE
  5
E584
330
18
100
AcDbEntity
  8
01
100
AcDbLine
 10
4772.877126983461
 20
545.9366639687446
 30
0.0000000001127424
 11
4772.884842192493
 21
545.9186708632437
 31
0.0000000001127424
  0
LINE
  5
E585
330
18
100
AcDbEntity
  8
01
100
AcDbLine
 10
4772.884842192493
 20
545.9186708632437
 30
0.0000000001127424
 11
4772.893023438035
 21
545.9008804526088
 31
0.0000000001127424
  0
LINE
  5
E586
330
18
100
AcDbEntity
  8
01
100
AcDbLine
 10
4772.893023438035
 20
545.9008804526088
 30
0.0000000001127424
 11
4772.901636140336
 21
545.883298796773
 31
0.0000000001127424
  0
LINE
  5
E587
330
18
100
AcDbEntity
  8
01
100
AcDbLine
 10
4772.901636140336
 20
545.883298796773
 30
0.0000000001127424
 11
4772.91064571964
 21
545.86593195567
 31
0.0000000001127424
  0
LINE
  5
E588
330
18
100
AcDbEntity
  8
01
100
AcDbLine
 10
4772.91064571964
 20
545.86593195567
 30
0.0000000001127424
 11
4772.921981268204
 21
545.8453064003133
 31
0.0000000001127424
  0
LINE
  5
E589
330
18
100
AcDbEntity
  8
01
100
AcDbLine
 10
4772.921981268204
 20
545.8453064003133
 30
0.0000000001127424
 11
4772.933821869845
 21
545.8249950331488
 31
0.0000000001127424
  0
LINE
  5
E58A
330
18
100
AcDbEntity
  8
01
100
AcDbLine
 10
4772.933821869845
 20
545.8249950331488
 30
0.0000000001127424
 11
4772.946147042364
 21
545.804991649572
 31
0.0000000001127424
  0
LINE
  5
E58B
330
18
100
AcDbEntity
  8
01
100
AcDbLine
 10
4772.946147042364
 20
545.804991649572
 30
0.0000000001127424
 11
4772.958936303559
 21
545.7852900449793
 31
0.0000000001127424
  0
LINE
  5
E58C
330
18
100
AcDbEntity
  8
01
100
AcDbLine
 10
4772.958936303559
 20
545.7852900449793
 30
0.0000000001127424
 11
4772.972169171231
 21
545.7658840147669
 31
0.0000000001127424
  0
LINE
  5
E58D
330
18
100
AcDbEntity
  8
01
100
AcDbLine
 10
4772.972169171231
 20
545.7658840147669
 30
0.0000000001127424
 11
4772.985825163178
 21
545.746767354331
 31
0.0000000001127424
  0
LINE
  5
E58E
330
18
100
AcDbEntity
  8
01
100
AcDbLine
 10
4772.985825163178
 20
545.746767354331
 30
0.0000000001127424
 11
4772.999883797197
 21
545.7279338590679
 31
0.0000000001127424
  0
LINE
  5
E58F
330
18
100
AcDbEntity
  8
01
100
AcDbLine
 10
4772.999883797197
 20
545.7279338590679
 30
0.0000000001127424
 11
4773.01432459109
 21
545.7093773243728
 31
0.0000000001127424
  0
LINE
  5
E590
330
18
100
AcDbEntity
  8
01
100
AcDbLine
 10
4773.01432459109
 20
545.7093773243728
 30
0.0000000001127424
 11
4773.029127062656
 21
545.6910915456428
 31
0.0000000001127424
  0
LINE
  5
E591
330
18
100
AcDbEntity
  8
01
100
AcDbLine
 10
4773.029127062656
 20
545.6910915456428
 30
0.0000000001127424
 11
4773.044270729692
 21
545.673070318273
 31
0.0000000001127424
  0
LINE
  5
E592
330
18
100
AcDbEntity
  8
01
100
AcDbLine
 10
4773.044270729692
 20
545.673070318273
 30
0.0000000001127424
 11
4773.075499721376
 21
545.6377966992004
 31
0.0000000001127424
  0
LINE
  5
E593
330
18
100
AcDbEntity
  8
01
100
AcDbLine
 10
4773.075499721376
 20
545.6377966992004
 30
0.0000000001127424
 11
4773.107847708534
 21
545.603506830324
 31
0.0000000001127424
  0
LINE
  5
E594
330
18
100
AcDbEntity
  8
01
100
AcDbLine
 10
4773.107847708534
 20
545.603506830324
 30
0.0000000001127424
 11
4773.14115083356
 21
545.5701510748122
 31
0.0000000001127424
  0
LINE
  5
E595
330
18
100
AcDbEntity
  8
01
100
AcDbLine
 10
4773.14115083356
 20
545.5701510748122
 30
0.0000000001127424
 11
4773.187186413199
 21
545.5267049165573
 31
0.0000000001127424
  0
LINE
  5
E596
330
18
100
AcDbEntity
  8
01
100
AcDbLine
 10
4773.187186413199
 20
545.5267049165573
 30
0.0000000001127424
 11
4773.234552352187
 21
545.4847879195572
 31
0.0000000001127424
  0
LINE
  5
E597
330
18
100
AcDbEntity
  8
01
100
AcDbLine
 10
4773.234552352187
 20
545.4847879195572
 30
0.0000000001127424
 11
4773.283149100728
 21
545.4443309225121
 31
0.0000000001127424
  0
LINE
  5
E598
330
18
100
AcDbEntity
  8
01
100
AcDbLine
 10
4773.283149100728
 20
545.4443309225121
 30
0.0000000001127424
 11
4773.332877109023
 21
545.4052647641229
 31
0.0000000001127424
  0
LINE
  5
E599
330
18
100
AcDbEntity
  8
01
100
AcDbLine
 10
4773.332877109023
 20
545.4052647641229
 30
0.0000000001127424
 11
4773.383636827273
 21
545.3675202830905
 31
0.0000000001127424
  0
LINE
  5
E59A
330
18
100
AcDbEntity
  8
01
100
AcDbLine
 10
4773.383636827273
 20
545.3675202830905
 30
0.0000000001127424
 11
4773.435328705681
 21
545.3310283181158
 31
0.0000000001127424
  0
LINE
  5
E59B
330
18
100
AcDbEntity
  8
01
100
AcDbLine
 10
4773.435328705681
 20
545.3310283181158
 30
0.0000000001127424
 11
4773.487853194449
 21
545.2957197078995
 31
0.0000000001127424
  0
LINE
  5
E59C
330
18
100
AcDbEntity
  8
01
100
AcDbLine
 10
4773.487853194449
 20
545.2957197078995
 30
0.0000000001127424
 11
4773.541110743778
 21
545.2615252911423
 31
0.0000000001127424
  0
LINE
  5
E59D
330
18
100
AcDbEntity
  8
01
100
AcDbLine
 10
4773.541110743778
 20
545.2615252911423
 30
0.0000000001127424
 11
4773.600226762406
 21
545.2252506422133
 31
0.0000000001127424
  0
LINE
  5
E59E
330
18
100
AcDbEntity
  8
01
100
AcDbLine
 10
4773.600226762406
 20
545.2252506422133
 30
0.0000000001127424
 11
4773.660060326539
 21
545.1901941866395
 31
0.0000000001127424
  0
LINE
  5
E59F
330
18
100
AcDbEntity
  8
01
100
AcDbLine
 10
4773.660060326539
 20
545.1901941866395
 30
0.0000000001127424
 11
4773.720567814868
 21
545.1563185056466
 31
0.0000000001127424
  0
LINE
  5
E5A0
330
18
100
AcDbEntity
  8
01
100
AcDbLine
 10
4773.720567814868
 20
545.1563185056466
 30
0.0000000001127424
 11
4773.781705606082
 21
545.1235861804603
 31
0.0000000001127424
  0
LINE
  5
E5A1
330
18
100
AcDbEntity
  8
01
100
AcDbLine
 10
4773.781705606082
 20
545.1235861804603
 30
0.0000000001127424
 11
4773.905697611936
 21
545.0614019224081
 31
0.0000000001127424
  0
LINE
  5
E5A2
330
18
100
AcDbEntity
  8
01
100
AcDbLine
 10
4773.905697611936
 20
545.0614019224081
 30
0.0000000001127424
 11
4774.031687373631
 21
545.0033420622876
 31
0.0000000001127424
  0
LINE
  5
E5A3
330
18
100
AcDbEntity
  8
01
100
AcDbLine
 10
4774.031687373631
 20
545.0033420622876
 30
0.0000000001127424
 11
4774.172058964392
 21
544.9439769187798
 31
0.0000000001127424
  0
LINE
  5
E5A4
330
18
100
AcDbEntity
  8
01
100
AcDbLine
 10
4774.172058964392
 20
544.9439769187798
 30
0.0000000001127424
 11
4774.314213139003
 21
544.8890327856006
 31
0.0000000001127424
  0
LINE
  5
E5A5
330
18
100
AcDbEntity
  8
01
100
AcDbLine
 10
4774.314213139003
 20
544.8890327856006
 30
0.0000000001127424
 11
4774.457941698672
 21
544.8383122195314
 31
0.0000000001127424
  0
LINE
  5
E5A6
330
18
100
AcDbEntity
  8
01
100
AcDbLine
 10
4774.457941698672
 20
544.8383122195314
 30
0.0000000001127424
 11
4774.603036444603
 21
544.7916177773509
 31
0.0000000001127424
  0
LINE
  5
E5A7
330
18
100
AcDbEntity
  8
01
100
AcDbLine
 10
4774.603036444603
 20
544.7916177773509
 30
0.0000000001127424
 11
4774.756781547089
 21
544.7466892661055
 31
0.0000000001127424
  0
LINE
  5
E5A8
330
18
100
AcDbEntity
  8
01
100
AcDbLine
 10
4774.756781547089
 20
544.7466892661055
 30
0.0000000001127424
 11
4774.911671144051
 21
544.7058872071411
 31
0.0000000001127424
  0
LINE
  5
E5A9
330
18
100
AcDbEntity
  8
01
100
AcDbLine
 10
4774.911671144051
 20
544.7058872071411
 30
0.0000000001127424
 11
4775.067570808349
 21
544.6691095247038
 31
0.0000000001127424
  0
LINE
  5
E5AA
330
18
100
AcDbEntity
  8
01
100
AcDbLine
 10
4775.067570808349
 20
544.6691095247038
 30
0.0000000001127424
 11
4775.22434611284
 21
544.6362541430403
 31
0.0000000001127424
  0
LINE
  5
E5AB
330
18
100
AcDbEntity
  8
01
100
AcDbLine
 10
4775.22434611284
 20
544.6362541430403
 30
0.0000000001127424
 11
4775.386809628817
 21
544.6063789751479
 31
0.0000000001127424
  0
LINE
  5
E5AC
330
18
100
AcDbEntity
  8
01
100
AcDbLine
 10
4775.386809628817
 20
544.6063789751479
 30
0.0000000001127424
 11
4775.549956987579
 21
544.5805034459127
 31
0.0000000001127424
  0
LINE
  5
E5AD
330
18
100
AcDbEntity
  8
01
100
AcDbLine
 10
4775.549956987579
 20
544.5805034459127
 30
0.0000000001127424
 11
4775.7136837017
 21
544.5585641262915
 31
0.0000000001127424
  0
LINE
  5
E5AE
330
18
100
AcDbEntity
  8
01
100
AcDbLine
 10
4775.7136837017
 20
544.5585641262915
 30
0.0000000001127424
 11
4775.877885283749
 21
544.5404975872411
 31
0.0000000001127424
  0
LINE
  5
E5AF
330
18
100
AcDbEntity
  8
01
100
AcDbLine
 10
4775.877885283749
 20
544.5404975872411
 30
0.0000000001127424
 11
4776.053505525326
 21
544.5254307509235
 31
0.0000000001127424
  0
LINE
  5
E5B0
330
18
100
AcDbEntity
  8
01
100
AcDbLine
 10
4776.053505525326
 20
544.5254307509235
 30
0.0000000001127424
 11
4776.229442113631
 21
544.5146934241952
 31
0.0000000001127424
  0
LINE
  5
E5B1
330
18
100
AcDbEntity
  8
01
100
AcDbLine
 10
4776.229442113631
 20
544.5146934241952
 30
0.0000000001127424
 11
4776.405589684347
 21
544.5082778321103
 31
0.0000000001127424
  0
LINE
  5
E5B2
330
18
100
AcDbEntity
  8
01
100
AcDbLine
 10
4776.405589684347
 20
544.5082778321103
 30
0.0000000001127424
 11
4776.581842873155
 21
544.5061761997231
 31
0.0000000001127424
  0
LINE
  5
E5B3
330
18
100
AcDbEntity
  8
01
100
AcDbLine
 10
4776.581842873155
 20
544.5061761997231
 30
0.0000000001127424
 11
4776.749444991887
 21
544.5080690035211
 31
0.0000000001127424
  0
LINE
  5
E5B4
330
18
100
AcDbEntity
  8
01
100
AcDbLine
 10
4776.749444991887
 20
544.5080690035211
 30
0.0000000001127424
 11
4776.916954936087
 21
544.513866705011
 31
0.0000000001127424
  0
LINE
  5
E5B5
330
18
100
AcDbEntity
  8
01
100
AcDbLine
 10
4776.916954936087
 20
544.513866705011
 30
0.0000000001127424
 11
4777.084283379951
 21
544.5235718910667
 31
0.0000000001127424
  0
LINE
  5
E5B6
330
18
100
AcDbEntity
  8
01
100
AcDbLine
 10
4777.084283379951
 20
544.5235718910667
 30
0.0000000001127424
 11
4777.251340997668
 21
544.5371871485631
 31
0.0000000001127424
  0
LINE
  5
E5B7
330
18
100
AcDbEntity
  8
01
100
AcDbLine
 10
4777.251340997668
 20
544.5371871485631
 30
0.0000000001127424
 11
4777.424099173171
 21
544.5554389785839
 31
0.0000000001127424
  0
LINE
  5
E5B8
330
18
100
AcDbEntity
  8
01
100
AcDbLine
 10
4777.424099173171
 20
544.5554389785839
 30
0.0000000001127424
 11
4777.596349504954
 21
544.577965818276
 31
0.0000000001127424
  0
LINE
  5
E5B9
330
18
100
AcDbEntity
  8
01
100
AcDbLine
 10
4777.596349504954
 20
544.577965818276
 30
0.0000000001127424
 11
4777.767971017434
 21
544.6048397766963
 31
0.0000000001127424
  0
LINE
  5
E5BA
330
18
100
AcDbEntity
  8
01
100
AcDbLine
 10
4777.767971017434
 20
544.6048397766963
 30
0.0000000001127424
 11
4777.938842735038
 21
544.6361329629017
 31
0.0000000001127424
  0
LINE
  5
E5BB
330
18
100
AcDbEntity
  8
01
100
AcDbLine
 10
4777.938842735038
 20
544.6361329629017
 30
0.0000000001127424
 11
4778.095621896302
 21
544.6689732015243
 31
0.0000000001127424
  0
LINE
  5
E5BC
330
18
100
AcDbEntity
  8
01
100
AcDbLine
 10
4778.095621896302
 20
544.6689732015243
 30
0.0000000001127424
 11
4778.251526190108
 21
544.7057345127005
 31
0.0000000001127424
  0
LINE
  5
E5BD
330
18
100
AcDbEntity
  8
01
100
AcDbLine
 10
4778.251526190108
 20
544.7057345127005
 30
0.0000000001127424
 11
4778.406421079347
 21
544.7465194276751
 31
0.0000000001127424
  0
LINE
  5
E5BE
330
18
100
AcDbEntity
  8
01
100
AcDbLine
 10
4778.406421079347
 20
544.7465194276751
 30
0.0000000001127424
 11
4778.560172026906
 21
544.7914304776923
 31
0.0000000001127424
  0
LINE
  5
E5BF
330
18
100
AcDbEntity
  8
01
100
AcDbLine
 10
4778.560172026906
 20
544.7914304776923
 30
0.0000000001127424
 11
4778.705290364983
 21
544.8381142032677
 31
0.0000000001127424
  0
LINE
  5
E5C0
330
18
100
AcDbEntity
  8
01
100
AcDbLine
 10
4778.705290364983
 20
544.8381142032677
 30
0.0000000001127424
 11
4778.849042809105
 21
544.8888247448526
 31
0.0000000001127424
  0
LINE
  5
E5C1
330
18
100
AcDbEntity
  8
01
100
AcDbLine
 10
4778.849042809105
 20
544.8888247448526
 30
0.0000000001127424
 11
4778.991221333291
 21
544.9437591816613
 31
0.0000000001127424
  0
LINE
  5
E5C2
330
18
100
AcDbEntity
  8
01
100
AcDbLine
 10
4778.991221333291
 20
544.9437591816613
 30
0.0000000001127424
 11
4779.131617911559
 21
545.0031145929083
 31
0.0000000001127424
  0
LINE
  5
E5C3
330
18
100
AcDbEntity
  8
01
100
AcDbLine
 10
4779.131617911559
 20
545.0031145929083
 30
0.0000000001127424
 11
4779.257659538778
 21
545.0611789521936
 31
0.0000000001127424
  0
LINE
  5
E5C4
330
18
100
AcDbEntity
  8
01
100
AcDbLine
 10
4779.257659538778
 20
545.0611789521936
 30
0.0000000001127424
 11
4779.381703245509
 21
545.1233693179715
 31
0.0000000001127424
  0
LINE
  5
E5C5
330
18
100
AcDbEntity
  8
01
100
AcDbLine
 10
4779.381703245509
 20
545.1233693179715
 30
0.0000000001127424
 11
4779.442866798237
 21
545.156105363134
 31
0.0000000001127424
  0
LINE
  5
E5C6
330
18
100
AcDbEntity
  8
01
100
AcDbLine
 10
4779.442866798237
 20
545.156105363134
 30
0.0000000001127424
 11
4779.503399974296
 21
545.1899852417255
 31
0.0000000001127424
  0
LINE
  5
E5C7
330
18
100
AcDbEntity
  8
01
100
AcDbLine
 10
4779.503399974296
 20
545.1899852417255
 30
0.0000000001127424
 11
4779.563259141506
 21
545.2250463976816
 31
0.0000000001127424
  0
LINE
  5
E5C8
330
18
100
AcDbEntity
  8
01
100
AcDbLine
 10
4779.563259141506
 20
545.2250463976816
 30
0.0000000001127424
 11
4779.622400667684
 21
545.2613262749373
 31
0.0000000001127424
  0
LINE
  5
E5C9
330
18
100
AcDbEntity
  8
01
100
AcDbLine
 10
4779.622400667684
 20
545.2613262749373
 30
0.0000000001127424
 11
4779.67568235105
 21
545.2955265720188
 31
0.0000000001127424
  0
LINE
  5
E5CA
330
18
100
AcDbEntity
  8
01
100
AcDbLine
 10
4779.67568235105
 20
545.2955265720188
 30
0.0000000001127424
 11
4779.728230843415
 21
545.3308415867082
 31
0.0000000001127424
  0
LINE
  5
E5CB
330
18
100
AcDbEntity
  8
01
100
AcDbLine
 10
4779.728230843415
 20
545.3308415867082
 30
0.0000000001127424
 11
4779.779946576014
 21
545.3673405063055
 31
0.0000000001127424
  0
LINE
  5
E5CC
330
18
100
AcDbEntity
  8
01
100
AcDbLine
 10
4779.779946576014
 20
545.3673405063055
 30
0.0000000001127424
 11
4779.830729980074
 21
545.4050925181118
 31
0.0000000001127424
  0
LINE
  5
E5CD
330
18
100
AcDbEntity
  8
01
100
AcDbLine
 10
4779.830729980074
 20
545.4050925181118
 30
0.0000000001127424
 11
4779.88048148683
 21
545.4441668094273
 31
0.0000000001127424
  0
LINE
  5
E5CE
330
18
100
AcDbEntity
  8
01
100
AcDbLine
 10
4779.88048148683
 20
545.4441668094273
 30
0.0000000001127424
 11
4779.92910152751
 21
545.4846325675526
 31
0.0000000001127424
  0
LINE
  5
E5CF
330
18
100
AcDbEntity
  8
01
100
AcDbLine
 10
4779.92910152751
 20
545.4846325675526
 30
0.0000000001127424
 11
4779.976490533347
 21
545.5265589797882
 31
0.0000000001127424
  0
LINE
  5
E5D0
330
18
100
AcDbEntity
  8
01
100
AcDbLine
 10
4779.976490533347
 20
545.5265589797882
 30
0.0000000001127424
 11
4780.02254893557
 21
545.5700152334343
 31
0.0000000001127424
  0
LINE
  5
E5D1
330
18
100
AcDbEntity
  8
01
100
AcDbLine
 10
4780.02254893557
 20
545.5700152334343
 30
0.0000000001127424
 11
4780.055869493022
 21
545.6033796200991
 31
0.0000000001127424
  0
LINE
  5
E5D2
330
18
100
AcDbEntity
  8
01
100
AcDbLine
 10
4780.055869493022
 20
545.6033796200991
 30
0.0000000001127424
 11
4780.08823464182
 21
545.6376786115261
 31
0.0000000001127424
  0
LINE
  5
E5D3
330
18
100
AcDbEntity
  8
01
100
AcDbLine
 10
4780.08823464182
 20
545.6376786115261
 30
0.0000000001127424
 11
4780.119480429933
 21
545.6729619108528
 31
0.0000000001127424
  0
LINE
  5
E5D4
330
18
100
AcDbEntity
  8
01
100
AcDbLine
 10
4780.119480429933
 20
545.6729619108528
 30
0.0000000001127424
 11
4780.134632328723
 21
545.6909882082095
 31
0.0000000001127424
  0
LINE
  5
E5D5
330
18
100
AcDbEntity
  8
01
100
AcDbLine
 10
4780.134632328723
 20
545.6909882082095
 30
0.0000000001127424
 11
4780.149442905328
 21
545.7092792212179
 31
0.0000000001127424
  0
LINE
  5
E5D6
330
18
100
AcDbEntity
  8
01
100
AcDbLine
 10
4780.149442905328
 20
545.7092792212179
 30
0.0000000001127424
 11
4780.163891665747
 21
545.7278411627708
 31
0.0000000001127424
  0
LINE
  5
E5D7
330
18
100
AcDbEntity
  8
01
100
AcDbLine
 10
4780.163891665747
 20
545.7278411627708
 30
0.0000000001127424
 11
4780.177958115974
 21
545.7466802457598
 31
0.0000000001127424
  0
LINE
  5
E5D8
330
18
100
AcDbEntity
  8
01
100
AcDbLine
 10
4780.177958115974
 20
545.7466802457598
 30
0.0000000001127424
 11
4780.191621762007
 21
545.7658026830782
 31
0.0000000001127424
  0
LINE
  5
E5D9
330
18
100
AcDbEntity
  8
01
100
AcDbLine
 10
4780.191621762007
 20
545.7658026830782
 30
0.0000000001127424
 11
4780.20486210984
 21
545.7852146876171
 31
0.0000000001127424
  0
LINE
  5
E5DA
330
18
100
AcDbEntity
  8
01
100
AcDbLine
 10
4780.20486210984
 20
545.7852146876171
 30
0.0000000001127424
 11
4780.21765866547
 21
545.8049224722695
 31
0.0000000001127424
  0
LINE
  5
E5DB
330
18
100
AcDbEntity
  8
01
100
AcDbLine
 10
4780.21765866547
 20
545.8049224722695
 30
0.0000000001127424
 11
4780.229990934893
 21
545.8249322499278
 31
0.0000000001127424
  0
LINE
  5
E5DC
330
18
100
AcDbEntity
  8
01
100
AcDbLine
 10
4780.229990934893
 20
545.8249322499278
 30
0.0000000001127424
 11
4780.241838424105
 21
545.845250233484
 31
0.0000000001127424
  0
LINE
  5
E5DD
330
18
100
AcDbEntity
  8
01
100
AcDbLine
 10
4780.241838424105
 20
545.845250233484
 30
0.0000000001127424
 11
4780.253180639101
 21
545.8658826358305
 31
0.0000000001127424
  0
LINE
  5
E5DE
330
18
100
AcDbEntity
  8
01
100
AcDbLine
 10
4780.253180639101
 20
545.8658826358305
 30
0.0000000001127424
 11
4780.262195098978
 21
545.8832544041243
 31
0.0000000001127424
  0
LINE
  5
E5DF
330
18
100
AcDbEntity
  8
01
100
AcDbLine
 10
4780.262195098978
 20
545.8832544041243
 30
0.0000000001127424
 11
4780.270812531006
 21
545.900841127906
 31
0.0000000001127424
  0
LINE
  5
E5E0
330
18
100
AcDbEntity
  8
01
100
AcDbLine
 10
4780.270812531006
 20
545.900841127906
 30
0.0000000001127424
 11
4780.278998326277
 21
545.918636747032
 31
0.0000000001127424
  0
LINE
  5
E5E1
330
18
100
AcDbEntity
  8
01
100
AcDbLine
 10
4780.278998326277
 20
545.918636747032
 30
0.0000000001127424
 11
4780.286717875888
 21
545.936635201359
 31
0.0000000001127424
  0
LINE
  5
E5E2
330
18
100
AcDbEntity
  8
01
100
AcDbLine
 10
4780.286717875888
 20
545.936635201359
 30
0.0000000001127424
 11
4780.293936570928
 21
545.9548304307427
 31
0.0000000001127424
  0
LINE
  5
E5E3
330
18
100
AcDbEntity
  8
01
100
AcDbLine
 10
4780.293936570928
 20
545.9548304307427
 30
0.0000000001127424
 11
4780.300619802492
 21
545.9732163750391
 31
0.0000000001127424
  0
LINE
  5
E5E4
330
18
100
AcDbEntity
  8
01
100
AcDbLine
 10
4780.300619802492
 20
545.9732163750391
 30
0.0000000001127424
 11
4780.306732961673
 21
545.9917869741053
 31
0.0000000001127424
  0
LINE
  5
E5E5
330
18
100
AcDbEntity
  8
01
100
AcDbLine
 10
4780.306732961673
 20
545.9917869741053
 30
0.0000000001127424
 11
4780.312241439565
 21
546.0105361677965
 31
0.0000000001127424
  0
LINE
  5
E5E6
330
18
100
AcDbEntity
  8
01
100
AcDbLine
 10
4780.312241439565
 20
546.0105361677965
 30
0.0000000001127424
 11
4780.316687552984
 21
546.0276888189273
 31
0.0000000001127424
  0
LINE
  5
E5E7
330
18
100
AcDbEntity
  8
01
100
AcDbLine
 10
4780.316687552984
 20
546.0276888189273
 30
0.0000000001127424
 11
4780.320594096019
 21
546.0449691522567
 31
0.0000000001127424
  0
LINE
  5
E5E8
330
18
100
AcDbEntity
  8
01
100
AcDbLine
 10
4780.320594096019
 20
546.0449691522567
 30
0.0000000001127424
 11
4780.323947371757
 21
546.0623629249121
 31
0.0000000001127424
  0
LINE
  5
E5E9
330
18
100
AcDbEntity
  8
01
100
AcDbLine
 10
4780.323947371757
 20
546.0623629249121
 30
0.0000000001127424
 11
4780.326733683284
 21
546.079855894021
 31
0.0000000001127424
  0
LINE
  5
E5EA
330
18
100
AcDbEntity
  8
01
100
AcDbLine
 10
4780.326733683284
 20
546.079855894021
 30
0.0000000001127424
 11
4780.328939333688
 21
546.0974338167098
 31
0.0000000001127424
  0
LINE
  5
E5EB
330
18
100
AcDbEntity
  8
01
100
AcDbLine
 10
4780.328939333688
 20
546.0974338167098
 30
0.0000000001127424
 11
4780.330550626057
 21
546.1150824501069
 31
0.0000000001127424
  0
LINE
  5
E5EC
330
18
100
AcDbEntity
  8
01
100
AcDbLine
 10
4780.330550626057
 20
546.1150824501069
 30
0.0000000001127424
 11
4780.331553863475
 21
546.1327875513389
 31
0.0000000001127424
  0
LINE
  5
E5ED
330
18
100
AcDbEntity
  8
01
100
AcDbLine
 10
4780.331553863475
 20
546.1327875513389
 30
0.0000000001127424
 11
4780.331823181294
 21
546.1416568264954
 31
0.0000000001127424
  0
LINE
  5
E5EE
330
18
100
AcDbEntity
  8
01
100
AcDbLine
 10
4780.331823181294
 20
546.1416568264954
 30
0.0000000001127424
 11
4780.331935349031
 21
546.1505348775336
 31
0.0000000001127424
  0
LINE
  5
E5EF
330
18
100
AcDbEntity
  8
01
100
AcDbLine
 10
4780.331935349031
 20
546.1505348775336
 30
0.0000000001127424
 11
4780.331699832081
 21
546.1646519947603
 31
0.0000000001127424
  0
LINE
  5
E5F0
330
18
100
AcDbEntity
  8
01
100
AcDbLine
 10
4780.331699832081
 20
546.1646519947603
 30
0.0000000001127424
 11
4780.331063916474
 21
546.1787355249367
 31
0.0000000001127424
  0
LINE
  5
E5F1
330
18
100
AcDbEntity
  8
01
100
AcDbLine
 10
4780.331063916474
 20
546.1787355249367
 30
0.0000000001127424
 11
4780.330018752722
 21
546.1927763737872
 31
0.0000000001127424
  0
LINE
  5
E5F2
330
18
100
AcDbEntity
  8
01
100
AcDbLine
 10
4780.330018752722
 20
546.1927763737872
 30
0.0000000001127424
 11
4780.328555491336
 21
546.2067654470366
 31
0.0000000001127424
  0
LINE
  5
E5F3
330
18
100
AcDbEntity
  8
01
100
AcDbLine
 10
4780.328555491336
 20
546.2067654470366
 30
0.0000000001127424
 11
4780.326665282828
 21
546.220693650409
 31
0.0000000001127424
  0
LINE
  5
E5F4
330
18
100
AcDbEntity
  8
01
100
AcDbLine
 10
4780.326665282828
 20
546.220693650409
 30
0.0000000001127424
 11
4780.324339277708
 21
546.2345518896282
 31
0.0000000001127424
  0
LINE
  5
E5F5
330
18
100
AcDbEntity
  8
01
100
AcDbLine
 10
4780.324339277708
 20
546.2345518896282
 30
0.0000000001127424
 11
4780.321568626488
 21
546.2483310704197
 31
0.0000000001127424
  0
LINE
  5
E5F6
330
18
100
AcDbEntity
  8
01
100
AcDbLine
 10
4780.321568626488
 20
546.2483310704197
 30
0.0000000001127424
 11
4780.318344479679
 21
546.2620220985068
 31
0.0000000001127424
  0
LINE
  5
E5F7
330
18
100
AcDbEntity
  8
01
100
AcDbLine
 10
4780.318344479679
 20
546.2620220985068
 30
0.0000000001127424
 11
4780.314617031294
 21
546.2757710519932
 31
0.0000000001127424
  0
LINE
  5
E5F8
330
18
100
AcDbEntity
  8
01
100
AcDbLine
 10
4780.314617031294
 20
546.2757710519932
 30
0.0000000001127424
 11
4780.310432763714
 21
546.2894062925338
 31
0.0000000001127424
  0
LINE
  5
E5F9
330
18
100
AcDbEntity
  8
01
100
AcDbLine
 10
4780.310432763714
 20
546.2894062925338
 30
0.0000000001127424
 11
4780.305807914832
 21
546.3029136072637
 31
0.0000000001127424
  0
LINE
  5
E5FA
330
18
100
AcDbEntity
  8
01
100
AcDbLine
 10
4780.305807914832
 20
546.3029136072637
 30
0.0000000001127424
 11
4780.300758722542
 21
546.3162787833189
 31
0.0000000001127424
  0
LINE
  5
E5FB
330
18
100
AcDbEntity
  8
01
100
AcDbLine
 10
4780.300758722542
 20
546.3162787833189
 30
0.0000000001127424
 11
4780.295301424739
 21
546.3294876078344
 31
0.0000000001127424
  0
LINE
  5
E5FC
330
18
100
AcDbEntity
  8
01
100
AcDbLine
 10
4780.295301424739
 20
546.3294876078344
 30
0.0000000001127424
 11
4780.289452259313
 21
546.3425258679463
 31
0.0000000001127424
  0
LINE
  5
E5FD
330
18
100
AcDbEntity
  8
01
100
AcDbLine
 10
4780.289452259313
 20
546.3425258679463
 30
0.0000000001127424
 11
4780.283227464161
 21
546.3553793507904
 31
0.0000000001127424
  0
LINE
  5
E5FE
330
18
100
AcDbEntity
  8
01
100
AcDbLine
 10
4780.283227464161
 20
546.3553793507904
 30
0.0000000001127424
 11
4780.276643277175
 21
546.368033843502
 31
0.0000000001127424
  0
LINE
  5
E5FF
330
18
100
AcDbEntity
  8
01
100
AcDbLine
 10
4780.276643277175
 20
546.368033843502
 30
0.0000000001127424
 11
4780.268326657999
 21
546.3828770399227
 31
0.0000000001127424
  0
LINE
  5
E600
330
18
100
AcDbEntity
  8
01
100
AcDbLine
 10
4780.268326657999
 20
546.3828770399227
 30
0.0000000001127424
 11
4780.259539625095
 21
546.3974188063366
 31
0.0000000001127424
  0
LINE
  5
E601
330
18
100
AcDbEntity
  8
01
100
AcDbLine
 10
4780.259539625095
 20
546.3974188063366
 30
0.0000000001127424
 11
4780.250301622304
 21
546.4116620633167
 31
0.0000000001127424
  0
LINE
  5
E602
330
18
100
AcDbEntity
  8
01
100
AcDbLine
 10
4780.250301622304
 20
546.4116620633167
 30
0.0000000001127424
 11
4780.240632093461
 21
546.4256097314351
 31
0.0000000001127424
  0
LINE
  5
E603
330
18
100
AcDbEntity
  8
01
100
AcDbLine
 10
4780.240632093461
 20
546.4256097314351
 30
0.0000000001127424
 11
4780.230550482403
 21
546.4392647312643
 31
0.0000000001127424
  0
LINE
  5
E604
330
18
100
AcDbEntity
  8
01
100
AcDbLine
 10
4780.230550482403
 20
546.4392647312643
 30
0.0000000001127424
 11
4780.220076232968
 21
546.4526299833769
 31
0.0000000001127424
  0
LINE
  5
E605
330
18
100
AcDbEntity
  8
01
100
AcDbLine
 10
4780.220076232968
 20
546.4526299833769
 30
0.0000000001127424
 11
4780.209228788995
 21
546.465708408346
 31
0.0000000001127424
  0
LINE
  5
E606
330
18
100
AcDbEntity
  8
01
100
AcDbLine
 10
4780.209228788995
 20
546.465708408346
 30
0.0000000001127424
 11
4780.198027594319
 21
546.4785029267441
 31
0.0000000001127424
  0
LINE
  5
E607
330
18
100
AcDbEntity
  8
01
100
AcDbLine
 10
4780.198027594319
 20
546.4785029267441
 30
0.0000000001127424
 11
4780.186492092777
 21
546.4910164591438
 31
0.0000000001127424
  0
LINE
  5
E608
330
18
100
AcDbEntity
  8
01
100
AcDbLine
 10
4780.186492092777
 20
546.4910164591438
 30
0.0000000001127424
 11
4780.174641728208
 21
546.5032519261176
 31
0.0000000001127424
  0
LINE
  5
E609
330
18
100
AcDbEntity
  8
01
100
AcDbLine
 10
4780.174641728208
 20
546.5032519261176
 30
0.0000000001127424
 11
4780.16249594445
 21
546.5152122482382
 31
0.0000000001127424
  0
LINE
  5
E60A
330
18
100
AcDbEntity
  8
01
100
AcDbLine
 10
4780.16249594445
 20
546.5152122482382
 30
0.0000000001127424
 11
4780.150074185338
 21
546.526900346078
 31
0.0000000001127424
  0
LINE
  5
E60B
330
18
100
AcDbEntity
  8
01
100
AcDbLine
 10
4780.150074185338
 20
546.526900346078
 30
0.0000000001127424
 11
4780.137395894711
 21
546.5383191402098
 31
0.0000000001127424
  0
LINE
  5
E60C
330
18
100
AcDbEntity
  8
01
100
AcDbLine
 10
4780.137395894711
 20
546.5383191402098
 30
0.0000000001127424
 11
4780.124480516405
 21
546.5494715512064
 31
0.0000000001127424
  0
LINE
  5
E60D
330
18
100
AcDbEntity
  8
01
100
AcDbLine
 10
4780.124480516405
 20
546.5494715512064
 30
0.0000000001127424
 11
4780.111347494259
 21
546.5603604996404
 31
0.0000000001127424
  0
LINE
  5
E60E
330
18
100
AcDbEntity
  8
01
100
AcDbLine
 10
4780.111347494259
 20
546.5603604996404
 30
0.0000000001127424
 11
4780.098016272108
 21
546.570988906084
 31
0.0000000001127424
  0
LINE
  5
E60F
330
18
100
AcDbEntity
  8
01
100
AcDbLine
 10
4780.098016272108
 20
546.570988906084
 30
0.0000000001127424
 11
4780.082940901924
 21
546.5825359264736
 31
0.0000000001127424
  0
LINE
  5
E610
330
18
100
AcDbEntity
  8
01
100
AcDbLine
 10
4780.082940901924
 20
546.5825359264736
 30
0.0000000001127424
 11
4780.067653706225
 21
546.5937738679067
 31
0.0000000001127424
  0
LINE
  5
E611
330
18
100
AcDbEntity
  8
01
100
AcDbLine
 10
4780.067653706225
 20
546.5937738679067
 30
0.0000000001127424
 11
4780.052165046745
 21
546.6047138652389
 31
0.0000000001127424
  0
LINE
  5
E612
330
18
100
AcDbEntity
  8
01
100
AcDbLine
 10
4780.052165046745
 20
546.6047138652389
 30
0.0000000001127424
 11
4780.036485285214
 21
546.6153670533254
 31
0.0000000001127424
  0
LINE
  5
E613
330
18
100
AcDbEntity
  8
01
100
AcDbLine
 10
4780.036485285214
 20
546.6153670533254
 30
0.0000000001127424
 11
4780.004593902934
 21
546.6358575411841
 31
0.0000000001127424
  0
LINE
  5
E614
330
18
100
AcDbEntity
  8
01
100
AcDbLine
 10
4780.004593902934
 20
546.6358575411841
 30
0.0000000001127424
 11
4779.972062453242
 21
546.6553344103268
 31
0.0000000001127424
  0
LINE
  5
E615
330
18
100
AcDbEntity
  8
01
100
AcDbLine
 10
4779.972062453242
 20
546.6553344103268
 30
0.0000000001127424
 11
4779.931290144594
 21
546.6780199205746
 31
0.0000000001127424
  0
LINE
  5
E616
330
18
100
AcDbEntity
  8
01
100
AcDbLine
 10
4779.931290144594
 20
546.6780199205746
 30
0.0000000001127424
 11
4779.889788006941
 21
546.6994097944062
 31
0.0000000001127424
  0
LINE
  5
E617
330
18
100
AcDbEntity
  8
01
100
AcDbLine
 10
4779.889788006941
 20
546.6994097944062
 30
0.0000000001127424
 11
4779.847669008821
 21
546.719606882335
 31
0.0000000001127424
  0
LINE
  5
E618
330
18
100
AcDbEntity
  8
01
100
AcDbLine
 10
4779.847669008821
 20
546.719606882335
 30
0.0000000001127424
 11
4779.805046118771
 21
546.738714034876
 31
0.0000000001127424
  0
LINE
  5
E619
330
18
100
AcDbEntity
  8
01
100
AcDbLine
 10
4779.805046118771
 20
546.738714034876
 30
0.0000000001127424
 11
4779.75483501796
 21
546.7597422085246
 31
0.0000000001127424
  0
LINE
  5
E61A
330
18
100
AcDbEntity
  8
01
100
AcDbLine
 10
4779.75483501796
 20
546.7597422085246
 30
0.0000000001127424
 11
4779.704138585858
 21
546.7795103759404
 31
0.0000000001127424
  0
LINE
  5
E61B
330
18
100
AcDbEntity
  8
01
100
AcDbLine
 10
4779.704138585858
 20
546.7795103759404
 30
0.0000000001127424
 11
4779.653003076966
 21
546.7981007895069
 31
0.0000000001127424
  0
LINE
  5
E61C
330
18
100
AcDbEntity
  8
01
100
AcDbLine
 10
4779.653003076966
 20
546.7981007895069
 30
0.0000000001127424
 11
4779.60147474578
 21
546.8155957016083
 31
0.0000000001127424
  0
LINE
  5
E61D
330
18
100
AcDbEntity
  8
01
100
AcDbLine
 10
4779.60147474578
 20
546.8155957016083
 30
0.0000000001127424
 11
4779.5495998468
 21
546.8320773646283
 31
0.0000000001127424
  0
LINE
  5
E61E
330
18
100
AcDbEntity
  8
01
100
AcDbLine
 10
4779.5495998468
 20
546.8320773646283
 30
0.0000000001127424
 11
4779.497424634522
 21
546.8476280309505
 31
0.0000000001127424
  0
LINE
  5
E61F
330
18
100
AcDbEntity
  8
01
100
AcDbLine
 10
4779.497424634522
 20
546.8476280309505
 30
0.0000000001127424
 11
4779.39235828807
 21
546.8762653830377
 31
0.0000000001127424
  0
LINE
  5
E620
330
18
100
AcDbEntity
  8
01
100
AcDbLine
 10
4779.39235828807
 20
546.8762653830377
 30
0.0000000001127424
 11
4779.260675132564
 21
546.9080189713441
 31
0.0000000001127424
  0
LINE
  5
E621
330
18
100
AcDbEntity
  8
01
100
AcDbLine
 10
4779.260675132564
 20
546.9080189713441
 30
0.0000000001127424
 11
4779.128156938385
 21
546.9360073824901
 31
0.0000000001127424
  0
LINE
  5
E622
330
18
100
AcDbEntity
  8
01
100
AcDbLine
 10
4779.128156938385
 20
546.9360073824901
 30
0.0000000001127424
 11
4778.994969130208
 21
546.9607028730966
 31
0.0000000001127424
  0
LINE
  5
E623
330
18
100
AcDbEntity
  8
01
100
AcDbLine
 10
4778.994969130208
 20
546.9607028730966
 30
0.0000000001127424
 11
4778.861277132711
 21
546.9825776997855
 31
0.0000000001127424
  0
LINE
  5
E624
330
18
100
AcDbEntity
  8
01
100
AcDbLine
 10
4778.861277132711
 20
546.9825776997855
 30
0.0000000001127424
 11
4778.699506826837
 21
547.0058091891015
 31
0.0000000001127424
  0
LINE
  5
E625
330
18
100
AcDbEntity
  8
01
100
AcDbLine
 10
4778.699506826837
 20
547.0058091891015
 30
0.0000000001127424
 11
4778.537328014394
 21
547.0259837688372
 31
0.0000000001127424
  0
LINE
  5
E626
330
18
100
AcDbEntity
  8
01
100
AcDbLine
 10
4778.537328014394
 20
547.0259837688372
 30
0.0000000001127424
 11
4778.212083344235
 21
547.0586084648639
 31
0.0000000001127424
  0
LINE
  5
E627
330
18
100
AcDbEntity
  8
01
100
AcDbLine
 10
4778.212083344235
 20
547.0586084648639
 30
0.0000000001127424
 11
4777.818536821866
 21
547.0872242653695
 31
0.0000000001127424
  0
LINE
  5
E628
330
18
100
AcDbEntity
  8
01
100
AcDbLine
 10
4777.818536821866
 20
547.0872242653695
 30
0.0000000001127424
 11
4777.424400414955
 21
547.1062819832159
 31
0.0000000001127424
  0
LINE
  5
E629
330
18
100
AcDbEntity
  8
01
100
AcDbLine
 10
4777.424400414955
 20
547.1062819832159
 30
0.0000000001127424
 11
4777.00323535216
 21
547.1179903739844
 31
0.0000000001127424
  0
LINE
  5
E62A
330
18
100
AcDbEntity
  8
01
100
AcDbLine
 10
4777.00323535216
 20
547.1179903739844
 30
0.0000000001127424
 11
4776.581925911729
 21
547.1217072079457
 31
0.0000000001127424
  0
LINE
  5
E770
330
18
100
AcDbEntity
  8
01
100
AcDbLine
 10
4776.749444991887
 20
591.8400013409073
 30
0.0000000001127424
 11
4740.449444991887
 21
591.8400013409073
 31
0.0000000001127424
1001
ACAD
1000
DSTYLE
1002
{
1070
     3
1000
φ<>
1070
    40
1040
1.3
1070
    45
1040
0.5
1002
}
  0
LINE
  5
E771
330
18
100
AcDbEntity
  8
01
100
AcDbLine
 10
4776.749444991887
 20
541.8400013409082
 30
0.0000000001127424
 11
4740.449444991887
 21
541.8400013409082
 31
0.0000000001127424
1001
ACAD
1000
DSTYLE
1002
{
1070
     3
1000
φ<>
1070
    40
1040
1.3
1070
    45
1040
0.5
1002
}
  0
LINE
  5
E772
330
18
100
AcDbEntity
  8
01
100
AcDbLine
 10
4741.749444991887
 20
589.2400013409073
 30
0.0000000001127424
 11
4741.749444991887
 21
544.4400013409082
 31
0.0000000001127424
1001
ACAD
1000
DSTYLE
1002
{
1070
     3
1000
φ<>
1070
    40
1040
1.3
1070
    45
1040
0.5
1002
}
  0
LINE
  5
E776
330
18
100
AcDbEntity
  8
01
  6
BYBLOCK
100
AcDbLine
 10
4741.052777097887
 20
589.2400013409073
 30
0.0000000001127424
 11
4741.749444991887
 21
591.8400013409073
 31
0.0000000001127424
  0
LINE
  5
E777
330
18
100
AcDbEntity
  8
01
  6
BYBLOCK
100
AcDbLine
 10
4741.749444991887
 20
591.8400013409073
 30
0.0000000001127424
 11
4742.446112885887
 21
589.2400013409073
 31
0.0000000001127424
  0
LINE
  5
E778
330
18
100
AcDbEntity
  8
01
  6
BYBLOCK
100
AcDbLine
 10
4741.749444991887
 20
591.8400013409073
 30
0.0000000001127424
 11
4741.749444991887
 21
589.2400013409073
 31
0.0000000001127424
  0
LINE
  5
E779
330
18
100
AcDbEntity
  8
01
  6
BYBLOCK
100
AcDbLine
 10
4742.446112885887
 20
544.4400013409082
 30
0.0000000001127424
 11
4741.749444991887
 21
541.8400013409082
 31
0.0000000001127424
  0
LINE
  5
E77A
330
18
100
AcDbEntity
  8
01
  6
BYBLOCK
100
AcDbLine
 10
4741.749444991887
 20
541.8400013409082
 30
0.0000000001127424
 11
4741.052777097887
 21
544.4400013409082
 31
0.0000000001127424
  0
LINE
  5
E77B
330
18
100
AcDbEntity
  8
01
  6
BYBLOCK
100
AcDbLine
 10
4741.749444991887
 20
541.8400013409082
 30
0.0000000001127424
 11
4741.749444991887
 21
544.4400013409082
 31
0.0000000001127424
  0
TEXT
  5
E77C
330
18
100
AcDbEntity
  8
01
  6
CONTINUOUS
100
AcDbText
 10
4740.839444991887
 20
558.640498434308
 30
0.0000000001127424
 40
4.55
  1
φ50
 50
90.0
100
AcDbText
1001
ACAD
1000
DSTYLE
1002
{
1070
     3
1000
φ<>
1070
    40
1040
1.3
1070
    45
1040
0.5
1002
}
  0
LINE
  5
E77D
330
18
100
AcDbEntity
  8
1DIM
100
AcDbLine
 10
4776.749444991887
 20
705.3386830278046
 30
0.0000000001127424
 11
4776.749444991887
 21
640.5386830278046
 31
0.0000000001127424
1001
ACAD
1000
DSTYLE
1002
{
1070
    40
1040
1.3
1070
    45
1040
0.5
1002
}
  0
LINE
  5
E77E
330
18
100
AcDbEntity
  8
1DIM
100
AcDbLine
 10
4900.903792150976
 20
667.6386830278011
 30
0.0000000001127424
 11
4900.903792150976
 21
640.5386830278046
 31
0.0000000001127424
1001
ACAD
1000
DSTYLE
1002
{
1070
    40
1040
1.3
1070
    45
1040
0.5
1002
}
  0
LINE
  5
E77F
330
18
100
AcDbEntity
  8
1DIM
100
AcDbLine
 10
4779.349444991887
 20
641.8386830278046
 30
0.0000000001127424
 11
4898.303792150976
 21
641.8386830278046
 31
0.0000000001127424
1001
ACAD
1000
DSTYLE
1002
{
1070
    40
1040
1.3
1070
    45
1040
0.5
1002
}
  0
LINE
  5
E783
330
18
100
AcDbEntity
  8
1DIM
100
AcDbLine
 10
4751.749444991887
 20
723.6386830278043
 30
0.0000000001127424
 11
4751.749444991887
 21
630.5386830278046
 31
0.0000000001127424
1001
ACAD
1000
DSTYLE
1002
{
1070
    40
1040
1.3
1070
    45
1040
0.5
1002
}
  0
LINE
  5
E784
330
18
100
AcDbEntity
  8
1DIM
100
AcDbLine
 10
4900.903792150976
 20
667.6386830278011
 30
0.0000000001127424
 11
4900.903792150976
 21
630.5386830278046
 31
0.0000000001127424
1001
ACAD
1000
DSTYLE
1002
{
1070
    40
1040
1.3
1070
    45
1040
0.5
1002
}
  0
LINE
  5
E785
330
18
100
AcDbEntity
  8
1DIM
100
AcDbLine
 10
4754.349444991887
 20
631.8386830278046
 30
0.0000000001127424
 11
4898.303792150976
 21
631.8386830278046
 31
0.0000000001127424
1001
ACAD
1000
DSTYLE
1002
{
1070
    40
1040
1.3
1070
    45
1040
0.5
1002
}
  0
LINE
  5
E789
330
18
100
AcDbEntity
  8
1DIM
100
AcDbLine
 10
4892.046618571426
 20
690.6386830277897
 30
0.0000000001127424
 11
4933.049444991887
 21
690.6386830277897
 31
0.0000000001127424
1001
ACAD
1000
DSTYLE
1002
{
1070
    40
1040
1.3
1070
    45
1040
0.5
1002
}
  0
LINE
  5
E78A
330
18
100
AcDbEntity
  8
1DIM
100
AcDbLine
 10
4879.504592989235
 20
726.8386830278046
 30
0.0000000001127424
 11
4933.049444991887
 21
726.8386830278046
 31
0.0000000001127424
1001
ACAD
1000
DSTYLE
1002
{
1070
    40
1040
1.3
1070
    45
1040
0.5
1002
}
  0
LINE
  5
E78B
330
18
100
AcDbEntity
  8
1DIM
100
AcDbLine
 10
4931.749444991887
 20
693.2386830277898
 30
0.0000000001127424
 11
4931.749444991887
 21
724.2386830278045
 31
0.0000000001127424
1001
ACAD
1000
DSTYLE
1002
{
1070
    40
1040
1.3
1070
    45
1040
0.5
1002
}
  0
LINE
  5
E78F
330
18
100
AcDbEntity
  8
1DIM
100
AcDbLine
 10
4898.094467855948
 20
665.6386830278007
 30
0.0000000001127424
 11
4943.049444991887
 21
665.6386830278007
 31
0.0000000001127424
1001
ACAD
1000
DSTYLE
1002
{
1070
    40
1040
1.3
1070
    45
1040
0.5
1002
}
  0
LINE
  5
E790
330
18
100
AcDbEntity
  8
1DIM
100
AcDbLine
 10
4879.504592989235
 20
726.8386830278046
 30
0.0000000001127424
 11
4943.049444991887
 21
726.8386830278046
 31
0.0000000001127424
1001
ACAD
1000
DSTYLE
1002
{
1070
    40
1040
1.3
1070
    45
1040
0.5
1002
}
  0
LINE
  5
E791
330
18
100
AcDbEntity
  8
1DIM
100
AcDbLine
 10
4941.749444991887
 20
668.2386830278007
 30
0.0000000001127424
 11
4941.749444991887
 21
724.2386830278045
 31
0.0000000001127424
1001
ACAD
1000
DSTYLE
1002
{
1070
    40
1040
1.3
1070
    45
1040
0.5
1002
}
  0
LINE
  5
E795
330
18
100
AcDbEntity
  8
1DIM
100
AcDbLine
 10
4911.749444991887
 20
559.3400013409073
 30
0.0000000001127424
 11
4933.049444991887
 21
559.3400013409073
 31
0.0000000001127424
1001
ACAD
1000
DSTYLE
1002
{
1070
    40
1040
1.3
1070
    45
1040
0.5
1002
}
  0
LINE
  5
E796
330
18
100
AcDbEntity
  8
1DIM
100
AcDbLine
 10
4911.749444991887
 20
574.3400013409073
 30
0.0000000001127424
 11
4933.049444991887
 21
574.3400013409073
 31
0.0000000001127424
1001
ACAD
1000
DSTYLE
1002
{
1070
    40
1040
1.3
1070
    45
1040
0.5
1002
}
  0
LINE
  5
E797
330
18
100
AcDbEntity
  8
1DIM
100
AcDbLine
 10
4931.749444991887
 20
561.9400013409073
 30
0.0000000001127424
 11
4931.749444991887
 21
571.7400013409073
 31
0.0000000001127424
1001
ACAD
1000
DSTYLE
1002
{
1070
    40
1040
1.3
1070
    45
1040
0.5
1002
}
  0
LINE
  5
E79B
330
18
100
AcDbEntity
  8
0
  6
BYBLOCK
100
AcDbLine
 10
4779.349444991887
 20
641.1420151338045
 30
0.0000000001127424
 11
4776.749444991887
 21
641.8386830278046
 31
0.0000000001127424
  0
LINE
  5
E79C
330
18
100
AcDbEntity
  8
0
  6
BYBLOCK
100
AcDbLine
 10
4776.749444991887
 20
641.8386830278046
 30
0.0000000001127424
 11
4779.349444991887
 21
642.5353509218046
 31
0.0000000001127424
  0
LINE
  5
E79D
330
18
100
AcDbEntity
  8
0
  6
BYBLOCK
100
AcDbLine
 10
4776.749444991887
 20
641.8386830278046
 30
0.0000000001127424
 11
4779.349444991887
 21
641.8386830278046
 31
0.0000000001127424
  0
LINE
  5
E79E
330
18
100
AcDbEntity
  8
0
  6
BYBLOCK
100
AcDbLine
 10
4898.303792150976
 20
642.5353509218046
 30
0.0000000001127424
 11
4900.903792150976
 21
641.8386830278046
 31
0.0000000001127424
  0
LINE
  5
E79F
330
18
100
AcDbEntity
  8
0
  6
BYBLOCK
100
AcDbLine
 10
4900.903792150976
 20
641.8386830278046
 30
0.0000000001127424
 11
4898.303792150976
 21
641.1420151338045
 31
0.0000000001127424
  0
LINE
  5
E7A0
330
18
100
AcDbEntity
  8
0
  6
BYBLOCK
100
AcDbLine
 10
4900.903792150976
 20
641.8386830278046
 30
0.0000000001127424
 11
4898.303792150976
 21
641.8386830278046
 31
0.0000000001127424
  0
TEXT
  5
E7A1
330
18
100
AcDbEntity
  8
1DIM
  6
CONTINUOUS
100
AcDbText
 10
4833.518285238098
 20
642.7486830278045
 30
0.0000000001127424
 40
4.55
  1
124
100
AcDbText
1001
ACAD
1000
DSTYLE
1002
{
1070
    40
1040
1.3
1070
    45
1040
0.5
1002
}
  0
LINE
  5
E7A2
330
18
100
AcDbEntity
  8
0
  6
BYBLOCK
100
AcDbLine
 10
4754.349444991887
 20
631.1420151338045
 30
0.0000000001127424
 11
4751.749444991887
 21
631.8386830278046
 31
0.0000000001127424
  0
LINE
  5
E7A3
330
18
100
AcDbEntity
  8
0
  6
BYBLOCK
100
AcDbLine
 10
4751.749444991887
 20
631.8386830278046
 30
0.0000000001127424
 11
4754.349444991887
 21
632.5353509218046
 31
0.0000000001127424
  0
LINE
  5
E7A4
330
18
100
AcDbEntity
  8
0
  6
BYBLOCK
100
AcDbLine
 10
4751.749444991887
 20
631.8386830278046
 30
0.0000000001127424
 11
4754.349444991887
 21
631.8386830278046
 31
0.0000000001127424
  0
LINE
  5
E7A5
330
18
100
AcDbEntity
  8
0
  6
BYBLOCK
100
AcDbLine
 10
4898.303792150976
 20
632.5353509218046
 30
0.0000000001127424
 11
4900.903792150976
 21
631.8386830278046
 31
0.0000000001127424
  0
LINE
  5
E7A6
330
18
100
AcDbEntity
  8
0
  6
BYBLOCK
100
AcDbLine
 10
4900.903792150976
 20
631.8386830278046
 30
0.0000000001127424
 11
4898.303792150976
 21
631.1420151338045
 31
0.0000000001127424
  0
LINE
  5
E7A7
330
18
100
AcDbEntity
  8
0
  6
BYBLOCK
100
AcDbLine
 10
4900.903792150976
 20
631.8386830278046
 30
0.0000000001127424
 11
4898.303792150976
 21
631.8386830278046
 31
0.0000000001127424
  0
TEXT
  5
E7A8
330
18
100
AcDbEntity
  8
1DIM
  6
CONTINUOUS
100
AcDbText
 10
4821.017231997357
 20
632.7486830278045
 30
0.0000000001127424
 40
4.55
  1
149
100
AcDbText
1001
ACAD
1000
DSTYLE
1002
{
1070
    40
1040
1.3
1070
    45
1040
0.5
1002
}
  0
LINE
  5
E7A9
330
18
100
AcDbEntity
  8
0
  6
BYBLOCK
100
AcDbLine
 10
4932.446112885887
 20
693.2386830277898
 30
0.0000000001127424
 11
4931.749444991887
 21
690.6386830277897
 31
0.0000000001127424
  0
LINE
  5
E7AA
330
18
100
AcDbEntity
  8
0
  6
BYBLOCK
100
AcDbLine
 10
4931.749444991887
 20
690.6386830277897
 30
0.0000000001127424
 11
4931.052777097887
 21
693.2386830277898
 31
0.0000000001127424
  0
LINE
  5
E7AB
330
18
100
AcDbEntity
  8
0
  6
BYBLOCK
100
AcDbLine
 10
4931.749444991887
 20
690.6386830277897
 30
0.0000000001127424
 11
4931.749444991887
 21
693.2386830277898
 31
0.0000000001127424
  0
LINE
  5
E7AC
330
18
100
AcDbEntity
  8
0
  6
BYBLOCK
100
AcDbLine
 10
4931.052777097887
 20
724.2386830278045
 30
0.0000000001127424
 11
4931.749444991887
 21
726.8386830278046
 31
0.0000000001127424
  0
LINE
  5
E7AD
330
18
100
AcDbEntity
  8
0
  6
BYBLOCK
100
AcDbLine
 10
4931.749444991887
 20
726.8386830278046
 30
0.0000000001127424
 11
4932.446112885887
 21
724.2386830278045
 31
0.0000000001127424
  0
LINE
  5
E7AE
330
18
100
AcDbEntity
  8
0
  6
BYBLOCK
100
AcDbLine
 10
4931.749444991887
 20
726.8386830278046
 30
0.0000000001127424
 11
4931.749444991887
 21
724.2386830278045
 31
0.0000000001127424
  0
TEXT
  5
E7AF
330
18
100
AcDbEntity
  8
1DIM
  6
CONTINUOUS
100
AcDbText
 10
4930.839444991886
 20
704.9470163611313
 30
0.0000000001127424
 40
4.55
  1
36
 50
90.0
100
AcDbText
1001
ACAD
1000
DSTYLE
1002
{
1070
    40
1040
1.3
1070
    45
1040
0.5
1002
}
  0
LINE
  5
E7B0
330
18
100
AcDbEntity
  8
0
  6
BYBLOCK
100
AcDbLine
 10
4942.446112885887
 20
668.2386830278007
 30
0.0000000001127424
 11
4941.749444991887
 21
665.6386830278007
 31
0.0000000001127424
  0
LINE
  5
E7B1
330
18
100
AcDbEntity
  8
0
  6
BYBLOCK
100
AcDbLine
 10
4941.749444991887
 20
665.6386830278007
 30
0.0000000001127424
 11
4941.052777097887
 21
668.2386830278007
 31
0.0000000001127424
  0
LINE
  5
E7B2
330
18
100
AcDbEntity
  8
0
  6
BYBLOCK
100
AcDbLine
 10
4941.749444991887
 20
665.6386830278007
 30
0.0000000001127424
 11
4941.749444991887
 21
668.2386830278007
 31
0.0000000001127424
  0
LINE
  5
E7B3
330
18
100
AcDbEntity
  8
0
  6
BYBLOCK
100
AcDbLine
 10
4941.052777097887
 20
724.2386830278045
 30
0.0000000001127424
 11
4941.749444991887
 21
726.8386830278046
 31
0.0000000001127424
  0
LINE
  5
E7B4
330
18
100
AcDbEntity
  8
0
  6
BYBLOCK
100
AcDbLine
 10
4941.749444991887
 20
726.8386830278046
 30
0.0000000001127424
 11
4942.446112885887
 21
724.2386830278045
 31
0.0000000001127424
  0
LINE
  5
E7B5
330
18
100
AcDbEntity
  8
0
  6
BYBLOCK
100
AcDbLine
 10
4941.749444991887
 20
726.8386830278046
 30
0.0000000001127424
 11
4941.749444991887
 21
724.2386830278045
 31
0.0000000001127424
  0
TEXT
  5
E7B6
330
18
100
AcDbEntity
  8
1DIM
  6
CONTINUOUS
100
AcDbText
 10
4940.839444991886
 20
693.1895510833592
 30
0.0000000001127424
 40
4.55
  1
61
 50
90.0
100
AcDbText
1001
ACAD
1000
DSTYLE
1002
{
1070
    40
1040
1.3
1070
    45
1040
0.5
1002
}
  0
LINE
  5
E7B7
330
18
100
AcDbEntity
  8
0
  6
BYBLOCK
100
AcDbLine
 10
4932.446112885887
 20
561.9400013409073
 30
0.0000000001127424
 11
4931.749444991887
 21
559.3400013409073
 31
0.0000000001127424
  0
LINE
  5
E7B8
330
18
100
AcDbEntity
  8
0
  6
BYBLOCK
100
AcDbLine
 10
4931.749444991887
 20
559.3400013409073
 30
0.0000000001127424
 11
4931.052777097887
 21
561.9400013409073
 31
0.0000000001127424
  0
LINE
  5
E7B9
330
18
100
AcDbEntity
  8
0
  6
BYBLOCK
100
AcDbLine
 10
4931.749444991887
 20
559.3400013409073
 30
0.0000000001127424
 11
4931.749444991887
 21
561.9400013409073
 31
0.0000000001127424
  0
LINE
  5
E7BA
330
18
100
AcDbEntity
  8
0
  6
BYBLOCK
100
AcDbLine
 10
4931.052777097887
 20
571.7400013409073
 30
0.0000000001127424
 11
4931.749444991887
 21
574.3400013409073
 31
0.0000000001127424
  0
LINE
  5
E7BB
330
18
100
AcDbEntity
  8
0
  6
BYBLOCK
100
AcDbLine
 10
4931.749444991887
 20
574.3400013409073
 30
0.0000000001127424
 11
4932.446112885887
 21
571.7400013409073
 31
0.0000000001127424
  0
LINE
  5
E7BC
330
18
100
AcDbEntity
  8
0
  6
BYBLOCK
100
AcDbLine
 10
4931.749444991887
 20
574.3400013409073
 30
0.0000000001127424
 11
4931.749444991887
 21
571.7400013409073
 31
0.0000000001127424
  0
TEXT
  5
E7BD
330
18
100
AcDbEntity
  8
1DIM
  6
CONTINUOUS
100
AcDbText
 10
4930.839444991886
 20
563.8066680075744
 30
0.0000000001127424
 40
4.55
  1
15
 50
90.0
100
AcDbText
1001
ACAD
1000
DSTYLE
1002
{
1070
    40
1040
1.3
1070
    45
1040
0.5
1002
}
  0
VIEWPORT
  5
57
330
15
100
AcDbEntity
 67
     1
  8
0
100
AcDbViewport
 68
     1
 10
0.0
 20
0.0
 30
0.0
 40
555.8298653610772
 41
297.0
 68
     1
 69
     1
1001
ACAD
1000
MVIEW
1002
{
1070
    16
1010
0.0
1020
0.0
1030
0.0
1010
0.0
1020
0.0
1030
1.0
1040
0.0
1040
297.0
1040
5.728000000000009
1040
25.33899999999998
1040
50.0
1040
0.0
1040
0.0
1070
    16
1070
   100
1070
     0
1070
     1
1070
     0
1070
     0
1070
     0
1070
     0
1040
0.0
1040
0.0
1040
0.0
1040
10.0
1040
10.0
1040
10.0
1040
10.0
1070
     0
1002
{
1002
}
1002
}
  0
ENDSEC
  0
SECTION
  2
OBJECTS
  0
DICTIONARY
  5
C
330
0
100
AcDbDictionary
  3
ACAD_CIP_PREVIOUS_PRODUCT_INFO
350
AEA8
  3
ACAD_COLOR
350
18D
  3
ACAD_GROUP
350
D
  3
ACAD_LAYOUT
350
18E
  3
ACAD_MATERIAL
350
18C
  3
ACAD_MLEADERSTYLE
350
9583
  3
ACAD_MLINESTYLE
350
1B
  3
ACAD_PLOTSETTINGS
350
18F
  3
ACAD_SCALELIST
350
9561
  3
ACAD_VISUALSTYLE
350
9550
  3
ACDBHEADERROUNDTRIPXREC
350
E7BE
  3
ACDBVARIABLEDICTIONARY
350
37
  3
CONTENTDICTIONARY
350
D8
  3
DRAWINGVARIABLESDICT
350
20
  3
DWGPROPS
350
E7C1
1001
ACAD
1000
TREAT_AS_HARD
1070
     0
  0
DICTIONARY
  5
96D9
330
2
100
AcDbDictionary
  3
ACAD_LAYERSTATES
360
96DA
1001
ACAD
1000
TREAT_AS_HARD
1070
     1
  0
DICTIONARY
  5
9593
330
E
100
AcDbDictionary
  3
ADSK_XREC_LAYER_RECONCILED
360
9594
1001
ACAD
1000
TREAT_AS_HARD
1070
     1
  0
DICTIONARY
  5
9595
330
29
100
AcDbDictionary
  3
ADSK_XREC_LAYER_RECONCILED
360
9596
1001
ACAD
1000
TREAT_AS_HARD
1070
     1
  0
DICTIONARY
  5
9597
330
31
100
AcDbDictionary
  3
ADSK_XREC_LAYER_RECONCILED
360
9598
1001
ACAD
1000
TREAT_AS_HARD
1070
     1
  0
DICTIONARY
  5
959D
330
243
100
AcDbDictionary
  3
ADSK_XREC_LAYER_RECONCILED
360
959E
1001
ACAD
1000
TREAT_AS_HARD
1070
     1
  0
DICTIONARY
  5
95A3
330
24E
100
AcDbDictionary
  3
ADSK_XREC_LAYER_RECONCILED
360
95A4
1001
ACAD
1000
TREAT_AS_HARD
1070
     1
  0
DICTIONARY
  5
88F
330
18
100
AcDbDictionary
  3
ACAD_SORTENTS
360
890
1001
ACAD
1000
TREAT_AS_HARD
1070
     1
  0
XRECORD
  5
AEA8
102
{ACAD_REACTORS
330
C
102
}
330
C
100
AcDbXrecord
300
ACDLT
300
2012
300
ACDLT_F_S
  0
DICTIONARY
  5
18D
102
{ACAD_REACTORS
330
C
102
}
330
C
100
AcDbDictionary
1001
ACAD
1000
TREAT_AS_HARD
1070
     0
  0
DICTIONARY
  5
D
102
{ACAD_REACTORS
330
C
102
}
330
C
100
AcDbDictionary
1001
ACAD
1000
TREAT_AS_HARD
1070
     0
  0
DICTIONARY
  5
18E
102
{ACAD_REACTORS
330
C
102
}
330
C
100
AcDbDictionary
1001
ACAD
1000
TREAT_AS_HARD
1070
     0
  0
DICTIONARY
  5
18C
102
{ACAD_REACTORS
330
C
102
}
330
C
100
AcDbDictionary
  3
BYBLOCK
350
9540
  3
BYLAYER
350
9538
  3
GLOBAL
350
9548
1001
ACAD
1000
TREAT_AS_HARD
1070
     0
  0
DICTIONARY
  5
9583
102
{ACAD_REACTORS
330
C
102
}
330
C
100
AcDbDictionary
  3
STANDARD
350
9584
1001
ACAD
1000
TREAT_AS_HARD
1070
     0
  0
DICTIONARY
  5
1B
102
{ACAD_REACTORS
330
C
102
}
330
C
100
AcDbDictionary
  3
STANDARD
350
1C
1001
ACAD
1000
TREAT_AS_HARD
1070
     0
  0
DICTIONARY
  5
18F
102
{ACAD_REACTORS
330
C
102
}
330
C
100
AcDbDictionary
1001
ACAD
1000
TREAT_AS_HARD
1070
     0
  0
DICTIONARY
  5
9561
102
{ACAD_REACTORS
330
C
102
}
330
C
100
AcDbDictionary
  3
A0
350
9562
  3
A1
350
9563
  3
A2
350
9564
  3
A3
350
9565
  3
A4
350
9566
  3
A5
350
9567
  3
A6
350
9568
  3
A7
350
9569
  3
A8
350
956A
  3
A9
350
956B
  3
B0
350
956C
  3
B1
350
956D
  3
B2
350
956E
  3
B3
350
956F
  3
B4
350
9570
  3
B5
350
9571
  3
B6
350
9572
  3
B7
350
9573
  3
B8
350
9574
  3
B9
350
9575
  3
C0
350
9576
  3
C1
350
9577
  3
C2
350
9578
  3
C3
350
9579
  3
C4
350
957A
  3
C5
350
957B
  3
C6
350
957C
  3
C7
350
957D
  3
C8
350
957E
  3
C9
350
957F
  3
D0
350
9580
  3
D1
350
9581
  3
D2
350
9582
1001
ACAD
1000
TREAT_AS_HARD
1070
     0
  0
DICTIONARY
  5
9550
102
{ACAD_REACTORS
330
C
102
}
330
C
100
AcDbDictionary
  3
2DWIREFRAME
350
9556
  3
3D_HIDDEN
350
9558
  3
3DWIREFRAME
350
9557
  3
BASIC
350
9555
  3
BRIGHTEN
350
955C
  3
COLORCHANGE
350
9560
  3
CONCEPTUAL
350
9559
  3
DIM
350
955B
  3
EDGECOLOROFF
350
A211
  3
FACEPATTERN
350
955F
  3
FLAT
350
9551
  3
FLATWITHEDGES
350
9552
  3
GOURAUD
350
9553
  3
GOURAUDWITHEDGES
350
9554
  3
HIDDEN
350
A260
  3
JITTEROFF
350
A20F
  3
LINEPATTERN
350
955E
  3
MODELING
350
A266
  3
OVERHANGOFF
350
A210
  3
REALISTIC
350
955A
  3
SHADED
350
A265
  3
SHADED_WITH_EDGES
350
A264
  3
SHADES_OF_GRAY
350
A261
  3
SKETCHY
350
A262
  3
THICKEN
350
955D
  3
WIREFRAME
350
A25F
  3
X-RAY
350
A263
1001
ACAD
1000
TREAT_AS_HARD
1070
     0
  0
DICTIONARY
  5
E7BE
102
{ACAD_REACTORS
330
C
102
}
330
C
100
AcDbDictionary
  3
COLORDICT
350
E7BF
  3
MATERIALDICT
350
E7C0
1001
ACAD
1000
TREAT_AS_HARD
1070
     0
  0
DICTIONARY
  5
37
102
{ACAD_REACTORS
330
C
102
}
330
C
100
AcDbDictionary
  3
CANNOSCALE
350
AAE0
  3
CMLEADERSTYLE
350
9627
  3
CTABLESTYLE
350
29E
  3
DIMADEC
350
38
  3
DIMASSOC
350
1CE
  3
HIDETEXT
350
704E
  3
INDEXCTL
350
962A
  3
INTERSECTIONCOLOR
350
7052
  3
INTERSECTIONDISPLAY
350
7051
  3
MSLTSCALE
350
AB30
  3
OBSCOLOR
350
704F
  3
OBSLTYPE
350
7050
  3
PROJECTNAME
350
1CF
  3
SORTENTS
350
9629
  3
XCLIPFRAME
350
E6D7
1001
ACAD
1000
TREAT_AS_HARD
1070
     0
  0
DICTIONARY
  5
D8
102
{ACAD_REACTORS
330
C
102
}
330
C
100
AcDbDictionary
1001
ACAD
1000
TREAT_AS_HARD
1070
     0
  0
DICTIONARY
  5
20
102
{ACAD_REACTORS
330
C
102
}
330
C
100
AcDbDictionary
1001
DRAWINGVARIABLESXDATA
1000
POLARANG
1000
0.261799387799149410000000
1000
POLARMODE
1000
1
1000
POLARSTYLE
1000
1
1001
ACAD
1000
TREAT_AS_HARD
1070
     0
  0
XRECORD
  5
E7C1
102
{ACAD_REACTORS
330
C
102
}
330
C
100
AcDbXrecord
  1
DWGPROPS COOKIE
  2

  3

  4

  6

  7

  8
3684
  9

300
=
301
=
302
=
303
=
304
=
305
=
306
=
307
=
308
=
309
=
 40
0.0
 41
2451318.246352917
 42
2458159.068564861
  1

 90
        0
  0
DICTIONARY
  5
96DA
102
{ACAD_REACTORS
330
96D9
102
}
330
96D9
100
AcDbDictionary
1001
ACAD
1000
TREAT_AS_HARD
1070
     0
  0
ACAD_PROXY_OBJECT
  5
9594
102
{ACAD_REACTORS
330
9593
102
}
330
9593
100
AcDbZombieObject
 90
      499
 91
      514
 93
       34
310
40C8804040
  0
ACAD_PROXY_OBJECT
  5
9596
102
{ACAD_REACTORS
330
9595
102
}
330
9595
100
AcDbZombieObject
 90
      499
 91
      514
 93
       34
310
40C8804040
  0
ACAD_PROXY_OBJECT
  5
9598
102
{ACAD_REACTORS
330
9597
102
}
330
9597
100
AcDbZombieObject
 90
      499
 91
      514
 93
       34
310
40C8804040
  0
ACAD_PROXY_OBJECT
  5
959E
102
{ACAD_REACTORS
330
959D
102
}
330
959D
100
AcDbZombieObject
 90
      499
 91
      514
 93
       34
310
40C8804040
  0
ACAD_PROXY_OBJECT
  5
95A4
102
{ACAD_REACTORS
330
95A3
102
}
330
95A3
100
AcDbZombieObject
 90
      499
 91
      514
 93
       34
310
40C8804040
  0
SORTENTSTABLE
  5
890
102
{ACAD_REACTORS
330
88F
102
}
330
88F
100
AcDbSortentsTable
330
18
331
E464
  5
E471
331
E465
  5
E472
331
E466
  5
E473
331
E467
  5
E474
331
E468
  5
E475
331
0
  5
E476
331
0
  5
E477
331
0
  5
E478
331
0
  5
E479
331
0
  5
E47A
331
E46E
  5
E4BC
331
E46F
  5
E4BD
331
E470
  5
E4BE
331
E471
  5
E4BF
331
E472
  5
E4C0
331
E473
  5
E4C1
331
E474
  5
E4C2
331
E475
  5
E4C3
331
E476
  5
E4C4
331
E477
  5
E4C5
331
E478
  5
E4C6
331
E479
  5
E4C7
331
E47A
  5
E4C8
331
E47B
  5
E4C9
331
E47C
  5
E4CA
331
E47D
  5
E4CB
331
E47E
  5
E4CC
331
E47F
  5
E4CD
331
E480
  5
E4CE
331
E481
  5
E4CF
331
E482
  5
E4D0
331
E483
  5
E4D1
331
E484
  5
E4D2
331
E485
  5
E4D3
331
E486
  5
E4D4
331
E487
  5
E4D5
331
E488
  5
E4D6
331
E489
  5
E4D7
331
E48A
  5
E4D8
331
E48B
  5
E4D9
331
E48C
  5
E4DA
331
E48D
  5
E4DB
331
E48E
  5
E4DC
331
E48F
  5
E4DD
331
E490
  5
E4DE
331
E491
  5
E4DF
331
E492
  5
E4E0
331
E493
  5
E4E1
331
E494
  5
E4E2
331
E495
  5
E4E3
331
E496
  5
E4E4
331
E497
  5
E4E5
331
E498
  5
E4E6
331
E499
  5
E4E7
331
E49A
  5
E4E8
331
E49B
  5
E4E9
331
E49C
  5
E4EA
331
E49D
  5
E4EB
331
E49E
  5
E4EC
331
E49F
  5
E4ED
331
E4A0
  5
E4EE
331
E4A1
  5
E4EF
331
E4A2
  5
E4F0
331
E4A3
  5
E4F1
331
E4A4
  5
E4F2
331
E4A5
  5
E4F3
331
E4A6
  5
E4F4
331
E4A7
  5
E4F5
331
E4A8
  5
E4F6
331
E4A9
  5
E4F7
331
E4AA
  5
E4F8
331
E4AB
  5
E4F9
331
E4AC
  5
E4FA
331
E4AD
  5
E4FB
331
E4AE
  5
E4FC
331
E4AF
  5
E4FD
331
E4B0
  5
E4FE
331
E4B1
  5
E4FF
331
E4B2
  5
E500
331
E4B3
  5
E501
331
E4B4
  5
E502
331
E4B5
  5
E503
331
E4B6
  5
E504
331
E4B7
  5
E505
331
E4B8
  5
E506
331
E4B9
  5
E507
331
E4BA
  5
E508
331
E4BB
  5
E509
331
E4BC
  5
E50A
331
E4BD
  5
E50B
331
E4BE
  5
E50C
331
E4BF
  5
E50D
331
E4C0
  5
E50E
331
E4C1
  5
E50F
331
E4C2
  5
E510
331
E4C3
  5
E511
331
E4C4
  5
E512
331
E4C5
  5
E513
331
E4C6
  5
E514
331
E4C7
  5
E515
331
E4C8
  5
E516
331
E4C9
  5
E517
331
E4CA
  5
E518
331
E4CB
  5
E519
331
E4CC
  5
E51A
331
E4CD
  5
E51B
331
E4CE
  5
E51C
331
E4CF
  5
E51D
331
E4D0
  5
E51E
331
E4D1
  5
E51F
331
E4D2
  5
E520
331
E4D3
  5
E521
331
E4D4
  5
E522
331
E4D5
  5
E523
331
E4D6
  5
E524
331
E4D7
  5
E525
331
E4D8
  5
E526
331
E4D9
  5
E527
331
E4DA
  5
E528
331
E4DB
  5
E529
331
E4DC
  5
E52A
331
E4DD
  5
E52B
331
E4DE
  5
E52C
331
E4DF
  5
E52D
331
E4E0
  5
E52E
331
E4E1
  5
E52F
331
E4E2
  5
E530
331
E4E3
  5
E531
331
E4E4
  5
E532
331
E4E5
  5
E533
331
E4E6
  5
E534
331
E4E7
  5
E535
331
E4E8
  5
E536
331
E4E9
  5
E537
331
E4EA
  5
E538
331
E4EB
  5
E539
331
E4EC
  5
E53A
331
E4ED
  5
E53B
331
E4EE
  5
E53C
331
E4EF
  5
E53D
331
E4F0
  5
E53E
331
E4F1
  5
E53F
331
E4F2
  5
E540
331
E4F3
  5
E541
331
E4F4
  5
E542
331
E4F5
  5
E543
331
E4F6
  5
E544
331
E4F7
  5
E545
331
E4F8
  5
E546
331
E4F9
  5
E547
331
E4FA
  5
E548
331
E4FB
  5
E549
331
E4FC
  5
E54A
331
E4FD
  5
E54B
331
E4FE
  5
E54C
331
E4FF
  5
E54D
331
E500
  5
E54E
331
E501
  5
E54F
331
E502
  5
E550
331
E503
  5
E551
331
E504
  5
E552
331
E505
  5
E553
331
E506
  5
E554
331
E507
  5
E555
331
E508
  5
E556
331
E509
  5
E557
331
E50A
  5
E558
331
E50B
  5
E559
331
E50C
  5
E55A
331
E50D
  5
E55B
331
E50E
  5
E55C
331
E50F
  5
E55D
331
E510
  5
E55E
331
E511
  5
E55F
331
E512
  5
E560
331
E513
  5
E561
331
E514
  5
E562
331
E515
  5
E563
331
E516
  5
E564
331
E517
  5
E565
331
E518
  5
E566
331
E519
  5
E567
331
E51A
  5
E568
331
E51B
  5
E569
331
E51C
  5
E56A
331
E51D
  5
E56B
331
E51E
  5
E56C
331
E51F
  5
E56D
331
E520
  5
E56E
331
E521
  5
E56F
331
E522
  5
E570
331
E523
  5
E571
331
E524
  5
E572
331
E525
  5
E573
331
E526
  5
E574
331
E527
  5
E575
331
E528
  5
E576
331
E529
  5
E577
331
E52A
  5
E578
331
E52B
  5
E579
331
E52C
  5
E57A
331
E52D
  5
E57B
331
E52E
  5
E57C
331
E52F
  5
E57D
331
E530
  5
E57E
331
E531
  5
E57F
331
E532
  5
E580
331
E533
  5
E581
331
E534
  5
E582
331
E535
  5
E583
331
E536
  5
E584
331
E537
  5
E585
331
E538
  5
E586
331
E539
  5
E587
331
E53A
  5
E588
331
E53B
  5
E589
331
E53C
  5
E58A
331
E53D
  5
E58B
331
E53E
  5
E58C
331
E53F
  5
E58D
331
E540
  5
E58E
331
E541
  5
E58F
331
E542
  5
E590
331
E543
  5
E591
331
E544
  5
E592
331
E545
  5
E593
331
E546
  5
E594
331
E547
  5
E595
331
E548
  5
E596
331
E549
  5
E597
331
E54A
  5
E598
331
E54B
  5
E599
331
E54C
  5
E59A
331
E54D
  5
E59B
331
E54E
  5
E59C
331
E54F
  5
E59D
331
E550
  5
E59E
331
E551
  5
E59F
331
E552
  5
E5A0
331
E553
  5
E5A1
331
E554
  5
E5A2
331
E555
  5
E5A3
331
E556
  5
E5A4
331
E557
  5
E5A5
331
E558
  5
E5A6
331
E559
  5
E5A7
331
E55A
  5
E5A8
331
E55B
  5
E5A9
331
E55C
  5
E5AA
331
E55D
  5
E5AB
331
E55E
  5
E5AC
331
E55F
  5
E5AD
331
E560
  5
E5AE
331
E561
  5
E5AF
331
E562
  5
E5B0
331
E563
  5
E5B1
331
E564
  5
E5B2
331
E565
  5
E5B3
331
E566
  5
E5B4
331
E567
  5
E5B5
331
E568
  5
E5B6
331
E569
  5
E5B7
331
E56A
  5
E5B8
331
E56B
  5
E5B9
331
E56C
  5
E5BA
331
E56D
  5
E5BB
331
E56E
  5
E5BC
331
E56F
  5
E5BD
331
E570
  5
E5BE
331
E571
  5
E5BF
331
E572
  5
E5C0
331
E573
  5
E5C1
331
E574
  5
E5C2
331
E575
  5
E5C3
331
E576
  5
E5C4
331
E577
  5
E5C5
331
E578
  5
E5C6
331
E579
  5
E5C7
331
E57A
  5
E5C8
331
E57B
  5
E5C9
331
E57C
  5
E5CA
331
E57D
  5
E5CB
331
E57E
  5
E5CC
331
E57F
  5
E5CD
331
E580
  5
E5CE
331
E581
  5
E5CF
331
E582
  5
E5D0
331
E583
  5
E5D1
331
E584
  5
E5D2
331
E585
  5
E5D3
331
E586
  5
E5D4
331
E587
  5
E5D5
331
E588
  5
E5D6
331
E589
  5
E5D7
331
E58A
  5
E5D8
331
E58B
  5
E5D9
331
E58C
  5
E5DA
331
E58D
  5
E5DB
331
E58E
  5
E5DC
331
E58F
  5
E5DD
331
E590
  5
E5DE
331
E591
  5
E5DF
331
E592
  5
E5E0
331
E593
  5
E5E1
331
E594
  5
E5E2
331
E595
  5
E5E3
331
E596
  5
E5E4
331
E597
  5
E5E5
331
E598
  5
E5E6
331
E599
  5
E5E7
331
E59A
  5
E5E8
331
E59B
  5
E5E9
331
E59C
  5
E5EA
331
E59D
  5
E5EB
331
E59E
  5
E5EC
331
E59F
  5
E5ED
331
E5A0
  5
E5EE
331
E5A1
  5
E5EF
331
E5A2
  5
E5F0
331
E5A3
  5
E5F1
331
E5A4
  5
E5F2
331
E5A5
  5
E5F3
331
E5A6
  5
E5F4
331
E5A7
  5
E5F5
331
E5A8
  5
E5F6
331
E5A9
  5
E5F7
331
E5AA
  5
E5F8
331
E5AB
  5
E5F9
331
E5AC
  5
E5FA
331
E5AD
  5
E5FB
331
E5AE
  5
E5FC
331
E5AF
  5
E5FD
331
E5B0
  5
E5FE
331
E5B1
  5
E5FF
331
E5B2
  5
E600
331
E5B3
  5
E601
331
E5B4
  5
E602
331
E5B5
  5
E603
331
E5B6
  5
E604
331
E5B7
  5
E605
331
E5B8
  5
E606
331
E5B9
  5
E607
331
E5BA
  5
E608
331
E5BB
  5
E609
331
E5BC
  5
E60A
331
E5BD
  5
E60B
331
E5BE
  5
E60C
331
E5BF
  5
E60D
331
E5C0
  5
E60E
331
E5C1
  5
E60F
331
E5C2
  5
E610
331
E5C3
  5
E611
331
E5C4
  5
E612
331
E5C5
  5
E613
331
E5C6
  5
E614
331
E5C7
  5
E615
331
E5C8
  5
E616
331
E5C9
  5
E617
331
E5CA
  5
E618
331
E5CB
  5
E619
331
E5CC
  5
E61A
331
E5CD
  5
E61B
331
E5CE
  5
E61C
331
E5CF
  5
E61D
331
E5D0
  5
E61E
331
E5D1
  5
E61F
331
E5D2
  5
E620
331
E5D3
  5
E621
331
E5D4
  5
E622
331
E5D5
  5
E623
331
E5D6
  5
E624
331
E5D7
  5
E625
331
E5D8
  5
E626
331
E5D9
  5
E627
331
E5DA
  5
E628
331
E5DB
  5
E629
331
E5DC
  5
E62A
331
E5DD
  5
E770
331
E5DE
  5
E771
331
E5DF
  5
E772
331
E5E0
  5
E773
331
E5E1
  5
E774
331
E5E2
  5
E775
331
E5E3
  5
E776
331
E5E4
  5
E777
331
E5E5
  5
E778
331
E5E6
  5
E779
331
E5E7
  5
E77A
331
E5E8
  5
E77B
331
E5E9
  5
E77C
331
E5EA
  5
E77D
331
E5EB
  5
E77E
331
E5EC
  5
E77F
331
E5ED
  5
E780
331
E5EE
  5
E781
331
E5EF
  5
E782
331
E5F0
  5
E783
331
E5F1
  5
E784
331
E5F2
  5
E785
331
E5F3
  5
E786
331
E5F4
  5
E787
331
E5F5
  5
E788
331
E5F6
  5
E789
331
E5F7
  5
E78A
331
E5F8
  5
E78B
331
E5F9
  5
E78C
331
E5FA
  5
E78D
331
E5FB
  5
E78E
331
E5FC
  5
E78F
331
E5FD
  5
E790
331
E5FE
  5
E791
331
E5FF
  5
E792
331
E600
  5
E793
331
E601
  5
E794
331
E602
  5
E795
331
E603
  5
E796
331
E604
  5
E797
331
E605
  5
E798
331
E606
  5
E799
331
E607
  5
E79A
331
E608
  5
E79B
331
E609
  5
E79C
331
E60A
  5
E79D
331
E60B
  5
E79E
331
E60C
  5
E79F
331
E60D
  5
E7A0
331
E60E
  5
E7A1
331
E60F
  5
E7A2
331
E610
  5
E7A3
331
E611
  5
E7A4
331
E612
  5
E7A5
331
E613
  5
E7A6
331
E614
  5
E7A7
331
E615
  5
E7A8
331
E616
  5
E7A9
331
E617
  5
E7AA
331
E618
  5
E7AB
331
E619
  5
E7AC
331
E61A
  5
E7AD
331
E61B
  5
E7AE
331
E61C
  5
E7AF
331
E61D
  5
E7B0
331
E61E
  5
E7B1
331
E61F
  5
E7B2
331
E620
  5
E7B3
331
E621
  5
E7B4
331
E622
  5
E7B5
331
E623
  5
E7B6
331
E624
  5
E7B7
331
E625
  5
E7B8
331
E626
  5
E7B9
331
E627
  5
E7BA
331
E628
  5
E7BB
331
E629
  5
E7BC
331
E62A
  5
E7BD
331
E770
  5
E464
331
E771
  5
E465
331
E772
  5
E466
331
0
  5
E467
331
0
  5
E468
331
0
  5
E469
331
E776
  5
E46A
331
E777
  5
E46B
331
E778
  5
E46C
331
E779
  5
E46D
331
E77A
  5
E46E
331
E77B
  5
E46F
331
E77C
  5
E470
331
E77D
  5
E47B
331
E77E
  5
E47C
331
E77F
  5
E47D
331
0
  5
E47E
331
0
  5
E47F
331
0
  5
E480
331
E783
  5
E48E
331
E784
  5
E48F
331
E785
  5
E493
331
0
  5
E484
331
0
  5
E485
331
0
  5
E486
331
E789
  5
E49E
331
E78A
  5
E49F
331
E78B
  5
E4A0
331
0
  5
E48A
331
0
  5
E48B
331
0
  5
E48C
331
E78F
  5
E4A8
331
E790
  5
E4A9
331
E791
  5
E4AA
331
0
  5
E490
331
0
  5
E491
331
0
  5
E492
331
E795
  5
E4B2
331
E796
  5
E4B3
331
E797
  5
E4B4
331
0
  5
E496
331
0
  5
E497
331
0
  5
E498
331
E79B
  5
E481
331
E79C
  5
E482
331
E79D
  5
E483
331
E79E
  5
E487
331
E79F
  5
E488
331
E7A0
  5
E489
331
E7A1
  5
E48D
331
E7A2
  5
E494
331
E7A3
  5
E495
331
E7A4
  5
E499
331
E7A5
  5
E49A
331
E7A6
  5
E49B
331
E7A7
  5
E49C
331
E7A8
  5
E49D
331
E7A9
  5
E4A1
331
E7AA
  5
E4A2
331
E7AB
  5
E4A3
331
E7AC
  5
E4A4
331
E7AD
  5
E4A5
331
E7AE
  5
E4A6
331
E7AF
  5
E4A7
331
E7B0
  5
E4AB
331
E7B1
  5
E4AC
331
E7B2
  5
E4AD
331
E7B3
  5
E4AE
331
E7B4
  5
E4AF
331
E7B5
  5
E4B0
331
E7B6
  5
E4B1
331
E7B7
  5
E4B5
331
E7B8
  5
E4B6
331
E7B9
  5
E4B7
331
E7BA
  5
E4B8
331
E7BB
  5
E4B9
331
E7BC
  5
E4BA
331
E7BD
  5
E4BB
  0
MATERIAL
  5
9540
102
{ACAD_REACTORS
330
18C
102
}
102
{ACAD_XDICTIONARY
360
E95C
102
}
330
18C
100
AcDbMaterial
  1
BYBLOCK
 72
     0
 73
     2
 43
0.0208333333333333
 43
0.0
 43
0.0
 43
0.0
 43
0.0
 43
0.0208333333333333
 43
0.0
 43
0.0
 43
0.0
 43
0.0
 43
1.0
 43
0.0
 43
0.0
 43
0.0
 43
0.0
 43
1.0
 77
     0
 78
     2
 47
0.0208333333333333
 47
0.0
 47
0.0
 47
0.0
 47
0.0
 47
0.0208333333333333
 47
0.0
 47
0.0
 47
0.0
 47
0.0
 47
1.0
 47
0.0
 47
0.0
 47
0.0
 47
0.0
 47
1.0
171
     0
172
     2
 49
0.0208333333333333
 49
0.0
 49
0.0
 49
0.0
 49
0.0
 49
0.0208333333333333
 49
0.0
 49
0.0
 49
0.0
 49
0.0
 49
1.0
 49
0.0
 49
0.0
 49
0.0
 49
0.0
 49
1.0
175
     0
176
     2
142
0.0208333333333333
142
0.0
142
0.0
142
0.0
142
0.0
142
0.0208333333333333
142
0.0
142
0.0
142
0.0
142
0.0
142
1.0
142
0.0
142
0.0
142
0.0
142
0.0
142
1.0
179
     0
270
     2
144
0.0208333333333333
144
0.0
144
0.0
144
0.0
144
0.0
144
0.0208333333333333
144
0.0
144
0.0
144
0.0
144
0.0
144
1.0
144
0.0
144
0.0
144
0.0
144
0.0
144
1.0
274
     2
147
0.0208333333333333
147
0.0
147
0.0
147
0.0
147
0.0
147
0.0208333333333333
147
0.0
147
0.0
147
0.0
147
0.0
147
1.0
147
0.0
147
0.0
147
0.0
147
0.0
147
1.0
  0
MATERIAL
  5
9538
102
{ACAD_REACTORS
330
18C
102
}
102
{ACAD_XDICTIONARY
360
E95E
102
}
330
18C
100
AcDbMaterial
  1
BYLAYER
 72
     0
 73
     2
 43
0.0208333333333333
 43
0.0
 43
0.0
 43
0.0
 43
0.0
 43
0.0208333333333333
 43
0.0
 43
0.0
 43
0.0
 43
0.0
 43
1.0
 43
0.0
 43
0.0
 43
0.0
 43
0.0
 43
1.0
 77
     0
 78
     2
 47
0.0208333333333333
 47
0.0
 47
0.0
 47
0.0
 47
0.0
 47
0.0208333333333333
 47
0.0
 47
0.0
 47
0.0
 47
0.0
 47
1.0
 47
0.0
 47
0.0
 47
0.0
 47
0.0
 47
1.0
171
     0
172
     2
 49
0.0208333333333333
 49
0.0
 49
0.0
 49
0.0
 49
0.0
 49
0.0208333333333333
 49
0.0
 49
0.0
 49
0.0
 49
0.0
 49
1.0
 49
0.0
 49
0.0
 49
0.0
 49
0.0
 49
1.0
175
     0
176
     2
142
0.0208333333333333
142
0.0
142
0.0
142
0.0
142
0.0
142
0.0208333333333333
142
0.0
142
0.0
142
0.0
142
0.0
142
1.0
142
0.0
142
0.0
142
0.0
142
0.0
142
1.0
179
     0
270
     2
144
0.0208333333333333
144
0.0
144
0.0
144
0.0
144
0.0
144
0.0208333333333333
144
0.0
144
0.0
144
0.0
144
0.0
144
1.0
144
0.0
144
0.0
144
0.0
144
0.0
144
1.0
274
     2
147
0.0208333333333333
147
0.0
147
0.0
147
0.0
147
0.0
147
0.0208333333333333
147
0.0
147
0.0
147
0.0
147
0.0
147
1.0
147
0.0
147
0.0
147
0.0
147
0.0
147
1.0
  0
MATERIAL
  5
9548
102
{ACAD_REACTORS
330
18C
102
}
102
{ACAD_XDICTIONARY
360
E960
102
}
330
18C
100
AcDbMaterial
  1
GLOBAL
 72
     0
 73
     2
 43
0.0208333333333333
 43
0.0
 43
0.0
 43
0.0
 43
0.0
 43
0.0208333333333333
 43
0.0
 43
0.0
 43
0.0
 43
0.0
 43
1.0
 43
0.0
 43
0.0
 43
0.0
 43
0.0
 43
1.0
 77
     0
 78
     2
 47
0.0208333333333333
 47
0.0
 47
0.0
 47
0.0
 47
0.0
 47
0.0208333333333333
 47
0.0
 47
0.0
 47
0.0
 47
0.0
 47
1.0
 47
0.0
 47
0.0
 47
0.0
 47
0.0
 47
1.0
171
     0
172
     2
 49
0.0208333333333333
 49
0.0
 49
0.0
 49
0.0
 49
0.0
 49
0.0208333333333333
 49
0.0
 49
0.0
 49
0.0
 49
0.0
 49
1.0
 49
0.0
 49
0.0
 49
0.0
 49
0.0
 49
1.0
175
     0
176
     2
142
0.0208333333333333
142
0.0
142
0.0
142
0.0
142
0.0
142
0.0208333333333333
142
0.0
142
0.0
142
0.0
142
0.0
142
1.0
142
0.0
142
0.0
142
0.0
142
0.0
142
1.0
179
     0
270
     2
144
0.0208333333333333
144
0.0
144
0.0
144
0.0
144
0.0
144
0.0208333333333333
144
0.0
144
0.0
144
0.0
144
0.0
144
1.0
144
0.0
144
0.0
144
0.0
144
0.0
144
1.0
274
     2
147
0.0208333333333333
147
0.0
147
0.0
147
0.0
147
0.0
147
0.0208333333333333
147
0.0
147
0.0
147
0.0
147
0.0
147
1.0
147
0.0
147
0.0
147
0.0
147
0.0
147
1.0
  0
ACAD_PROXY_OBJECT
  5
9584
102
{ACAD_REACTORS
330
9583
102
}
330
9583
100
AcDbZombieObject
 90
      499
 91
      511
 93
      610
310
40901902A4063FBFFFFFE000000000000002040AD7A3703D0AD73F4214DD185B99185C990000000000000104090141901A00000000000004100000000000000041025764000000000000300FC0
340
12
340
0
340
F
340
0
 94
        0
1001
ACAD_MLEADERVER
1070
     2
  0
MLINESTYLE
  5
1C
102
{ACAD_REACTORS
330
1B
102
}
330
1B
100
AcDbMlineStyle
  2
STANDARD
 70
     0
  3

 62
   256
 51
90.0
 52
90.0
 71
     2
 49
0.5
 62
   256
  6
BYLAYER
 49
-0.5
 62
   256
  6
BYLAYER
  0
ACAD_PROXY_OBJECT
  5
9562
102
{ACAD_REACTORS
330
9561
102
}
330
9561
100
AcDbZombieObject
 90
      499
 91
      510
 93
       41
310
903313A31580
  0
ACAD_PROXY_OBJECT
  5
9563
102
{ACAD_REACTORS
330
9561
102
}
330
9561
100
AcDbZombieObject
 90
      499
 91
      510
 93
      105
310
903313A324000000000000004000
  0
ACAD_PROXY_OBJECT
  5
9564
102
{ACAD_REACTORS
330
9561
102
}
330
9561
100
AcDbZombieObject
 90
      499
 91
      510
 93
      105
310
903313A344000000000000104000
  0
ACAD_PROXY_OBJECT
  5
9565
102
{ACAD_REACTORS
330
9561
102
}
330
9561
100
AcDbZombieObject
 90
      499
 91
      510
 93
      105
310
903313A354000000000000144000
  0
ACAD_PROXY_OBJECT
  5
9566
102
{ACAD_REACTORS
330
9561
102
}
330
9561
100
AcDbZombieObject
 90
      499
 91
      510
 93
      105
310
903313A384000000000000204000
  0
ACAD_PROXY_OBJECT
  5
9567
102
{ACAD_REACTORS
330
9561
102
}
330
9561
100
AcDbZombieObject
 90
      499
 91
      510
 93
      113
310
904313A31304000000000000244000
  0
ACAD_PROXY_OBJECT
  5
9568
102
{ACAD_REACTORS
330
9561
102
}
330
9561
100
AcDbZombieObject
 90
      499
 91
      510
 93
      113
310
904313A31364000000000000304000
  0
ACAD_PROXY_OBJECT
  5
9569
102
{ACAD_REACTORS
330
9561
102
}
330
9561
100
AcDbZombieObject
 90
      499
 91
      510
 93
      113
310
904313A32304000000000000344000
  0
ACAD_PROXY_OBJECT
  5
956A
102
{ACAD_REACTORS
330
9561
102
}
330
9561
100
AcDbZombieObject
 90
      499
 91
      510
 93
      113
310
904313A333040000000000003E4000
  0
ACAD_PROXY_OBJECT
  5
956B
102
{ACAD_REACTORS
330
9561
102
}
330
9561
100
AcDbZombieObject
 90
      499
 91
      510
 93
      113
310
904313A34304000000000000444000
  0
ACAD_PROXY_OBJECT
  5
956C
102
{ACAD_REACTORS
330
9561
102
}
330
9561
100
AcDbZombieObject
 90
      499
 91
      510
 93
      113
310
904313A35304000000000000494000
  0
ACAD_PROXY_OBJECT
  5
956D
102
{ACAD_REACTORS
330
9561
102
}
330
9561
100
AcDbZombieObject
 90
      499
 91
      510
 93
      121
310
905313A3130304000000000000594000
  0
ACAD_PROXY_OBJECT
  5
956E
102
{ACAD_REACTORS
330
9561
102
}
330
9561
100
AcDbZombieObject
 90
      499
 91
      510
 93
      105
310
903323A310000000000000010100
  0
ACAD_PROXY_OBJECT
  5
956F
102
{ACAD_REACTORS
330
9561
102
}
330
9561
100
AcDbZombieObject
 90
      499
 91
      510
 93
      105
310
903343A310000000000000410100
  0
ACAD_PROXY_OBJECT
  5
9570
102
{ACAD_REACTORS
330
9561
102
}
330
9561
100
AcDbZombieObject
 90
      499
 91
      510
 93
      105
310
903383A310000000000000810100
  0
ACAD_PROXY_OBJECT
  5
9571
102
{ACAD_REACTORS
330
9561
102
}
330
9561
100
AcDbZombieObject
 90
      499
 91
      510
 93
      113
310
90431303A310000000000000910100
  0
ACAD_PROXY_OBJECT
  5
9572
102
{ACAD_REACTORS
330
9561
102
}
330
9561
100
AcDbZombieObject
 90
      499
 91
      510
 93
      121
310
9053130303A310000000000001650100
  0
ACAD_PROXY_OBJECT
  5
9573
102
{ACAD_REACTORS
330
9561
102
}
330
9561
100
AcDbZombieObject
 90
      499
 91
      510
 93
      257
310
90E312F31323822203D2031272D3022000000000000200FC000000000000284000
  0
ACAD_PROXY_OBJECT
  5
9574
102
{ACAD_REACTORS
330
9561
102
}
330
9561
100
AcDbZombieObject
 90
      499
 91
      510
 93
      249
310
90D312F363422203D2031272D3022000000000000240FC000000000000284000
  0
ACAD_PROXY_OBJECT
  5
9575
102
{ACAD_REACTORS
330
9561
102
}
330
9561
100
AcDbZombieObject
 90
      499
 91
      510
 93
      249
310
90D312F333222203D2031272D3022000000000000280FC000000000000284000
  0
ACAD_PROXY_OBJECT
  5
9576
102
{ACAD_REACTORS
330
9561
102
}
330
9561
100
AcDbZombieObject
 90
      499
 91
      510
 93
      249
310
90D312F313622203D2031272D30220000000000002C0FC000000000000284000
  0
ACAD_PROXY_OBJECT
  5
9577
102
{ACAD_REACTORS
330
9561
102
}
330
9561
100
AcDbZombieObject
 90
      499
 91
      510
 93
      249
310
90D332F333222203D2031272D30220000000000002E0FC000000000000284000
  0
ACAD_PROXY_OBJECT
  5
9578
102
{ACAD_REACTORS
330
9561
102
}
330
9561
100
AcDbZombieObject
 90
      499
 91
      510
 93
      241
310
90C312F3822203D2031272D3022000000000000300FC000000000000284000
  0
ACAD_PROXY_OBJECT
  5
9579
102
{ACAD_REACTORS
330
9561
102
}
330
9561
100
AcDbZombieObject
 90
      499
 91
      510
 93
      249
310
90D332F313622203D2031272D3022000000000000320FC000000000000284000
  0
ACAD_PROXY_OBJECT
  5
957A
102
{ACAD_REACTORS
330
9561
102
}
330
9561
100
AcDbZombieObject
 90
      499
 91
      510
 93
      241
310
90C312F3422203D2031272D3022000000000000340FC000000000000284000
  0
ACAD_PROXY_OBJECT
  5
957B
102
{ACAD_REACTORS
330
9561
102
}
330
9561
100
AcDbZombieObject
 90
      499
 91
      510
 93
      241
310
90C332F3822203D2031272D3022000000000000360FC000000000000284000
  0
ACAD_PROXY_OBJECT
  5
957C
102
{ACAD_REACTORS
330
9561
102
}
330
9561
100
AcDbZombieObject
 90
      499
 91
      510
 93
      241
310
90C312F3222203D2031272D3022000000000000380FC000000000000284000
  0
ACAD_PROXY_OBJECT
  5
957D
102
{ACAD_REACTORS
330
9561
102
}
330
9561
100
AcDbZombieObject
 90
      499
 91
      510
 93
      241
310
90C332F3422203D2031272D30220000000000003A0FC000000000000284000
  0
ACAD_PROXY_OBJECT
  5
957E
102
{ACAD_REACTORS
330
9561
102
}
330
9561
100
AcDbZombieObject
 90
      499
 91
      510
 93
      161
310
90A3122203D2031272D30224000000000000284000
  0
ACAD_PROXY_OBJECT
  5
957F
102
{ACAD_REACTORS
330
9561
102
}
330
9561
100
AcDbZombieObject
 90
      499
 91
      510
 93
      257
310
90E312D312F3222203D2031272D30220000000000003E0FC000000000000284000
  0
ACAD_PROXY_OBJECT
  5
9580
102
{ACAD_REACTORS
330
9561
102
}
330
9561
100
AcDbZombieObject
 90
      499
 91
      510
 93
      225
310
90A3322203D2031272D302200000000000002100000000000000284000
  0
ACAD_PROXY_OBJECT
  5
9581
102
{ACAD_REACTORS
330
9561
102
}
330
9561
100
AcDbZombieObject
 90
      499
 91
      510
 93
      225
310
90A3622203D2031272D302200000000000006100000000000000284000
  0
ACAD_PROXY_OBJECT
  5
9582
102
{ACAD_REACTORS
330
9561
102
}
330
9561
100
AcDbZombieObject
 90
      499
 91
      510
 93
      249
310
90D31272D3022203D2031272D30220000000000000A100000000000000284000
  0
ACAD_PROXY_OBJECT
  5
9556
102
{ACAD_REACTORS
330
9550
102
}
330
9550
100
AcDbZombieObject
 90
      499
 91
      509
 93
      436
310
42CC9915DA5C99599C985B595049028333333333333E3BF0000000000000FB0107901411070040501600405405064090741402480A0340
1001
ACAD
1000
AcDbSavedByObjectVersion
1070
     0
  0
ACAD_PROXY_OBJECT
  5
9558
102
{ACAD_REACTORS
330
9550
102
}
330
9550
100
AcDbZombieObject
 90
      499
 91
      509
 93
      500
310
424CD108121A5919195B90640502408333333333333E3BF0000000000000FB01079024090700405020000000000001110200405405064090740C02480A0340
1001
ACAD
1000
AcDbSavedByObjectVersion
1070
     0
  0
ACAD_PROXY_OBJECT
  5
9557
102
{ACAD_REACTORS
330
9550
102
}
330
9550
100
AcDbZombieObject
 90
      499
 91
      509
 93
      436
310
42CCD915DA5C99599C985B595059028333333333333E3BF0000000000000FB0107901411070040501600405405064090741402480A0340
1001
ACAD
1000
AcDbSavedByObjectVersion
1070
     0
  0
ACAD_PROXY_OBJECT
  5
9555
102
{ACAD_REACTORS
330
9550
102
}
330
9550
100
AcDbZombieObject
 90
      499
 91
      509
 93
      388
310
4150985CDA58D07406404333333333333E3BF0000000000000FB0107A41107004050150841D405064090741402480A0350
1001
ACAD
1000
AcDbSavedByObjectVersion
1070
     0
  0
ACAD_PROXY_OBJECT
  5
955C
102
{ACAD_REACTORS
330
9550
102
}
330
9550
100
AcDbZombieObject
 90
      499
 91
      509
 93
      428
310
42109C9A59DA1D195B90C409028333333333333E3BF0000000000000FB010790141107004050150841D405064090741402480A029950
1001
ACAD
1000
AcDbSavedByObjectVersion
1070
     0
  0
ACAD_PROXY_OBJECT
  5
9560
102
{ACAD_REACTORS
330
9550
102
}
330
9550
100
AcDbZombieObject
 90
      499
 91
      509
 93
      452
310
42D0DBDB1BDC90DA185B99D95104090240C333333333333E3BF0000000000000FB0108901411070040501508421405064090741402480A0350
1001
ACAD
1000
AcDbSavedByObjectVersion
1070
     0
  0
ACAD_PROXY_OBJECT
  5
9559
102
{ACAD_REACTORS
330
9550
102
}
330
9550
100
AcDbZombieObject
 90
      499
 91
      509
 93
      500
310
4290DBDB98D95C1D1D585B10940D028333333333333E3BF0000000000000FB0107902409070040501000000000000111010841D405064090740C02480A0340
1001
ACAD
1000
AcDbSavedByObjectVersion
1070
     0
  0
ACAD_PROXY_OBJECT
  5
955B
102
{ACAD_REACTORS
330
9550
102
}
330
9550
100
AcDbZombieObject
 90
      499
 91
      509
 93
      412
310
40D11A5B50B409028333333333333E3BF0000000000000FB010790141107004050150841D405064090741402480A02677FFFFFD0
1001
ACAD
1000
AcDbSavedByObjectVersion
1070
     0
  0
ACAD_PROXY_OBJECT
  5
A211
102
{ACAD_REACTORS
330
9550
102
}
330
9550
100
AcDbZombieObject
 90
      499
 91
      509
 93
      452
310
43115919D950DBDB1BDC93D999916409028333333333333E3BF0000000000000FB010790141107004050150841D405064090741402480A0350
1001
ACAD
1000
AcDbSavedByObjectVersion
1070
     0
  0
ACAD_PROXY_OBJECT
  5
955F
102
{ACAD_REACTORS
330
9550
102
}
330
9550
100
AcDbZombieObject
 90
      499
 91
      509
 93
      444
310
42D19858D95C185D1D195C9B90F409028333333333333E3BF0000000000000FB010790141107004050150841D405064090741402480A0350
1001
ACAD
1000
AcDbSavedByObjectVersion
1070
     0
  0
ACAD_PROXY_OBJECT
  5
9551
102
{ACAD_REACTORS
330
9550
102
}
330
9550
100
AcDbZombieObject
 90
      499
 91
      509
 93
      388
310
41119B185D240901404333333333333E3BF0000000000000F9010740A41107004050150841D405064090741402480A1B50
1001
ACAD
1000
AcDbSavedByObjectVersion
1070
     0
  0
ACAD_PROXY_OBJECT
  5
9552
102
{ACAD_REACTORS
330
9550
102
}
330
9550
100
AcDbZombieObject
 90
      499
 91
      509
 93
      476
310
43519B185D15DA5D1A115919D95CD0140901404333333333333E3BF0000000000000F9010740901411070040501600405405064090741402480A1B50
1001
ACAD
1000
AcDbSavedByObjectVersion
1070
     0
  0
ACAD_PROXY_OBJECT
  5
9553
102
{ACAD_REACTORS
330
9550
102
}
330
9550
100
AcDbZombieObject
 90
      499
 91
      509
 93
      412
310
41D1DBDD5C985D5910240902404333333333333E3BF0000000000000F9010740A411070040501641D405064090741402480A1B50
1001
ACAD
1000
AcDbSavedByObjectVersion
1070
     0
  0
ACAD_PROXY_OBJECT
  5
9554
102
{ACAD_REACTORS
330
9550
102
}
330
9550
100
AcDbZombieObject
 90
      499
 91
      509
 93
      500
310
4411DBDD5C985D5915DA5D1A115919D95CD0340902404333333333333E3BF0000000000000F9010740901411070040501600405405064090741402480A1B50
1001
ACAD
1000
AcDbSavedByObjectVersion
1070
     0
  0
ACAD_PROXY_OBJECT
  5
A260
102
{ACAD_REACTORS
330
9550
102
}
330
9550
100
AcDbZombieObject
 90
      499
 91
      509
 93
      476
310
41921A5919195B90640502408333333333333E3BF0000000000000FB01079024090700405020000000000001110200405405064090740C02480A0340
1001
ACAD
1000
AcDbSavedByObjectVersion
1070
     0
  0
ACAD_PROXY_OBJECT
  5
A20F
102
{ACAD_REACTORS
330
9550
102
}
330
9550
100
AcDbZombieObject
 90
      499
 91
      509
 93
      428
310
42529A5D1D195C93D999914409028333333333333E3BF0000000000000FB010790141107004050150A41D405064090741402480A0350
1001
ACAD
1000
AcDbSavedByObjectVersion
1070
     0
  0
ACAD_PROXY_OBJECT
  5
955E
102
{ACAD_REACTORS
330
9550
102
}
330
9550
100
AcDbZombieObject
 90
      499
 91
      509
 93
      444
310
42D31A5B995C185D1D195C9B90E409028333333333333E3BF0000000000000FB010790141107004050750841D405064090741402483A0350
1001
ACAD
1000
AcDbSavedByObjectVersion
1070
     0
  0
ACAD_PROXY_OBJECT
  5
A266
102
{ACAD_REACTORS
330
9550
102
}
330
9550
100
AcDbZombieObject
 90
      499
 91
      509
 93
      484
310
42135BD9195B1A5B99D0A409028333333333333E3BF0000000000000F901074090290700405010000000000201990108421405064090741402480A1B40
1001
ACAD
1000
AcDbSavedByObjectVersion
1070
     0
  0
ACAD_PROXY_OBJECT
  5
A210
102
{ACAD_REACTORS
330
9550
102
}
330
9550
100
AcDbZombieObject
 90
      499
 91
      509
 93
      444
310
42D3DD995C9A185B99D3D999915409028333333333333E3BF0000000000000FB010790141107004050150941D405064090741402480A0350
1001
ACAD
1000
AcDbSavedByObjectVersion
1070
     0
  0
ACAD_PROXY_OBJECT
  5
955A
102
{ACAD_REACTORS
330
9550
102
}
330
9550
100
AcDbZombieObject
 90
      499
 91
      509
 93
      420
310
425499585B1A5CDD1A58D08409028333333333333E3BF0000000000000FB01079019070040501508421405064090741402480A1B40
1001
ACAD
1000
AcDbSavedByObjectVersion
1070
     0
  0
ACAD_PROXY_OBJECT
  5
A265
102
{ACAD_REACTORS
330
9550
102
}
330
9550
100
AcDbZombieObject
 90
      499
 91
      509
 93
      420
310
4194DA1859195911B40902404333333333333E3BF0000000000000F9010740A41107004050150800405405064090840C02480A0B40
1001
ACAD
1000
AcDbSavedByObjectVersion
1070
     0
  0
ACAD_PROXY_OBJECT
  5
A264
102
{ACAD_REACTORS
330
9550
102
}
330
9550
100
AcDbZombieObject
 90
      499
 91
      509
 93
      516
310
4454DA18591959081DDA5D1A08195919D95CD1A40902404333333333333E3BF0000000000000F901074090142907004050250800405405064090740C02480A0B40
1001
ACAD
1000
AcDbSavedByObjectVersion
1070
     0
  0
ACAD_PROXY_OBJECT
  5
A261
102
{ACAD_REACTORS
330
9550
102
}
330
9550
100
AcDbZombieObject
 90
      499
 91
      509
 93
      532
310
4394DA1859195CC81BD98811DC985E5174090240C333333333333E3BF0000000000000FB01079024090741D01000000000000111010841D405064090740C02480A0340
1001
ACAD
1000
AcDbSavedByObjectVersion
1070
     0
  0
ACAD_PROXY_OBJECT
  5
A262
102
{ACAD_REACTORS
330
9550
102
}
330
9550
100
AcDbZombieObject
 90
      499
 91
      509
 93
      476
310
41D4DAD95D18DA1E51840502408333333333333E3BF0000000000000FB01079024090741D01000000000000111010B41D405064090741802480A0340
1001
ACAD
1000
AcDbSavedByObjectVersion
1070
     0
  0
ACAD_PROXY_OBJECT
  5
955D
102
{ACAD_REACTORS
330
9550
102
}
330
9550
100
AcDbZombieObject
 90
      499
 91
      509
 93
      412
310
41D51A1A58DAD95B90D409028333333333333E3BF0000000000000FB010790141107004050150C41D405064090741402480A0350
1001
ACAD
1000
AcDbSavedByObjectVersion
1070
     0
  0
ACAD_PROXY_OBJECT
  5
A25F
102
{ACAD_REACTORS
330
9550
102
}
330
9550
100
AcDbZombieObject
 90
      499
 91
      509
 93
      420
310
4255DA5C99599C985B595059028333333333333E3BF0000000000000FB0107901411070040501600405405064090740C02480A0340
1001
ACAD
1000
AcDbSavedByObjectVersion
1070
     0
  0
ACAD_PROXY_OBJECT
  5
A263
102
{ACAD_REACTORS
330
9550
102
}
330
9550
100
AcDbZombieObject
 90
      499
 91
      509
 93
      404
310
41560B54985E51940902404000000000000E03F0000000000000FB010740501907004050150841D405064090740C02480A1B40
1001
ACAD
1000
AcDbSavedByObjectVersion
1070
     0
  0
XRECORD
  5
E7BF
102
{ACAD_REACTORS
330
E7BE
102
}
330
E7BE
100
AcDbXrecord
340
18D
  0
XRECORD
  5
E7C0
102
{ACAD_REACTORS
330
E7BE
102
}
330
E7BE
100
AcDbXrecord
340
18C
  0
DICTIONARYVAR
  5
AAE0
102
{ACAD_REACTORS
330
37
102
}
330
37
100
DictionaryVariables
280
     0
  1
1:1
  0
DICTIONARYVAR
  5
9627
102
{ACAD_REACTORS
330
37
102
}
330
37
100
DictionaryVariables
280
     0
  1
Standard
  0
DICTIONARYVAR
  5
29E
102
{ACAD_REACTORS
330
37
102
}
330
37
100
DictionaryVariables
280
     0
  1
Standard
  0
DICTIONARYVAR
  5
38
102
{ACAD_REACTORS
330
37
102
}
330
37
100
DictionaryVariables
280
     0
  1
-1
  0
DICTIONARYVAR
  5
1CE
102
{ACAD_REACTORS
330
37
102
}
330
37
100
DictionaryVariables
280
     0
  1
2
  0
DICTIONARYVAR
  5
704E
102
{ACAD_REACTORS
330
37
102
}
330
37
100
DictionaryVariables
280
     0
  1
1
  0
DICTIONARYVAR
  5
962A
102
{ACAD_REACTORS
330
37
102
}
330
37
100
DictionaryVariables
280
     0
  1
0
  0
DICTIONARYVAR
  5
7052
102
{ACAD_REACTORS
330
37
102
}
330
37
100
DictionaryVariables
280
     0
  1
8
  0
DICTIONARYVAR
  5
7051
102
{ACAD_REACTORS
330
37
102
}
330
37
100
DictionaryVariables
280
     0
  1
1
  0
DICTIONARYVAR
  5
AB30
102
{ACAD_REACTORS
330
37
102
}
330
37
100
DictionaryVariables
280
     0
  1
0
  0
DICTIONARYVAR
  5
704F
102
{ACAD_REACTORS
330
37
102
}
330
37
100
DictionaryVariables
280
     0
  1
8
  0
DICTIONARYVAR
  5
7050
102
{ACAD_REACTORS
330
37
102
}
330
37
100
DictionaryVariables
280
     0
  1
2
  0
DICTIONARYVAR
  5
1CF
102
{ACAD_REACTORS
330
37
102
}
330
37
100
DictionaryVariables
280
     0
  1

  0
DICTIONARYVAR
  5
9629
102
{ACAD_REACTORS
330
37
102
}
330
37
100
DictionaryVariables
280
     0
  1
127
  0
DICTIONARYVAR
  5
E6D7
102
{ACAD_REACTORS
330
37
102
}
330
37
100
DictionaryVariables
280
     0
  1
2
  0
DICTIONARY
  5
E95C
330
9540
100
AcDbDictionary
  3
ACAD_XREC_ROUNDTRIP
360
E95D
1001
ACAD
1000
TREAT_AS_HARD
1070
     1
  0
DICTIONARY
  5
E95E
330
9538
100
AcDbDictionary
  3
ACAD_XREC_ROUNDTRIP
360
E95F
1001
ACAD
1000
TREAT_AS_HARD
1070
     1
  0
DICTIONARY
  5
E960
330
9548
100
AcDbDictionary
  3
ACAD_XREC_ROUNDTRIP
360
E961
1001
ACAD
1000
TREAT_AS_HARD
1070
     1
  0
XRECORD
  5
E95D
102
{ACAD_REACTORS
330
E95C
102
}
330
E95C
100
AcDbXrecord
102
MATERIAL
148
0.0
149
0.0
149
0.0
 93
        0
 94
      127
282
     0
 72
     0
 77
     0
171
     0
175
     0
179
     0
273
     0
  0
XRECORD
  5
E95F
102
{ACAD_REACTORS
330
E95E
102
}
330
E95E
100
AcDbXrecord
102
MATERIAL
148
0.0
149
0.0
149
0.0
 93
        0
 94
      127
282
     0
 72
     0
 77
     0
171
     0
175
     0
179
     0
273
     0
  0
XRECORD
  5
E961
102
{ACAD_REACTORS
330
E960
102
}
330
E960
100
AcDbXrecord
102
MATERIAL
148
0.0
149
0.0
149
0.0
 93
        0
 94
      127
282
     0
 72
     0
 77
     0
171
     0
175
     0
179
     0
273
     0
  0
ENDSEC
  0
EOF
