  0
SECTION
  2
HEADER
  9
$ACADVER
  1
AC1012
  9
$DWGCODEPAGE
  3
ansi_932
  9
$INSBASE
 10
0.0
 20
0.0
 30
0.0
  9
$EXTMIN
 10
5129.351927901542
 20
-725.7602020111572
 30
0.0
  9
$EXTMAX
 10
5929.351927901542
 20
-195.7602020111572
 30
0.0000000002254849
  9
$LIMMIN
 10
0.0
 20
0.0
  9
$LIMMAX
 10
420.0
 20
297.0
  9
$ORTHOMODE
 70
     0
  9
$REGENMODE
 70
     1
  9
$FILLMODE
 70
     1
  9
$QTEXTMODE
 70
     0
  9
$MIRRTEXT
 70
     0
  9
$DRAGMODE
 70
     2
  9
$LTSCALE
 40
0.5
  9
$OSMODE
 70
  2175
  9
$ATTMODE
 70
     1
  9
$TEXTSIZE
 40
4.0
  9
$TRACEWID
 40
1.0
  9
$TEXTSTYLE
  7
STANDARD
  9
$CLAYER
  8
1TEXT
  9
$CELTYPE
  6
BYLAYER
  9
$CECOLOR
 62
   256
  9
$CELTSCALE
 40
1.0
  9
$DELOBJ
 70
     1
  9
$DISPSILH
 70
     0
  9
$DIMSCALE
 40
1.0
  9
$DIMASZ
 40
2.0
  9
$DIMEXO
 40
0.0
  9
$DIMDLI
 40
7.0
  9
$DIMRND
 40
0.0
  9
$DIMDLE
 40
0.0
  9
$DIMEXE
 40
1.0
  9
$DIMTP
 40
0.0
  9
$DIMTM
 40
0.0
  9
$DIMTXT
 40
3.5
  9
$DIMCEN
 40
0.0
  9
$DIMTSZ
 40
0.0
  9
$DIMTOL
 70
     0
  9
$DIMLIM
 70
     0
  9
$DIMTIH
 70
     0
  9
$DIMTOH
 70
     0
  9
$DIMSE1
 70
     0
  9
$DIMSE2
 70
     0
  9
$DIMTAD
 70
     1
  9
$DIMZIN
 70
     8
  9
$DIMBLK
  1

  9
$DIMASO
 70
     1
  9
$DIMSHO
 70
     1
  9
$DIMPOST
  1
 
  9
$DIMAPOST
  1

  9
$DIMALT
 70
     0
  9
$DIMALTD
 70
     2
  9
$DIMALTF
 40
25.4
  9
$DIMLFAC
 40
1.0
  9
$DIMTOFL
 70
     1
  9
$DIMTVP
 40
0.0
  9
$DIMTIX
 70
     0
  9
$DIMSOXD
 70
     0
  9
$DIMSAH
 70
     1
  9
$DIMBLK1
  1
OPEN30
  9
$DIMBLK2
  1
OPEN30
  9
$DIMSTYLE
  2
NEWX10
  9
$DIMCLRD
 70
   256
  9
$DIMCLRE
 70
   256
  9
$DIMCLRT
 70
   201
  9
$DIMTFAC
 40
0.7
  9
$DIMGAP
 40
0.7
  9
$DIMJUST
 70
     0
  9
$DIMSD1
 70
     0
  9
$DIMSD2
 70
     0
  9
$DIMTOLJ
 70
     1
  9
$DIMTZIN
 70
     8
  9
$DIMALTZ
 70
     0
  9
$DIMALTTZ
 70
     0
  9
$DIMFIT
 70
     2
  9
$DIMUPT
 70
     0
  9
$DIMUNIT
 70
     2
  9
$DIMDEC
 70
     2
  9
$DIMTDEC
 70
     4
  9
$DIMALTU
 70
     2
  9
$DIMALTTD
 70
     2
  9
$DIMTXSTY
  7
STANDARD
  9
$DIMAUNIT
 70
     0
  9
$LUNITS
 70
     2
  9
$LUPREC
 70
     4
  9
$SKETCHINC
 40
1.0
  9
$FILLETRAD
 40
0.0
  9
$AUNITS
 70
     0
  9
$AUPREC
 70
     2
  9
$MENU
  1
acad
  9
$ELEVATION
 40
0.0
  9
$PELEVATION
 40
0.0
  9
$THICKNESS
 40
0.0
  9
$LIMCHECK
 70
     0
  9
$CHAMFERA
 40
10.0
  9
$CHAMFERB
 40
10.0
  9
$CHAMFERC
 40
20.0
  9
$CHAMFERD
 40
0.0
  9
$SKPOLY
 70
     0
  9
$TDCREATE
 40
2451318.621352917
  9
$TDUPDATE
 40
2458312.485284838
  9
$TDINDWG
 40
1.5072123958
  9
$TDUSRTIMER
 40
1.5072123958
  9
$USRTIMER
 70
     1
  9
$ANGBASE
 50
0.0
  9
$ANGDIR
 70
     0
  9
$PDMODE
 70
     0
  9
$PDSIZE
 40
0.0
  9
$PLINEWID
 40
0.0
  9
$COORDS
 70
     2
  9
$SPLFRAME
 70
     0
  9
$SPLINETYPE
 70
     6
  9
$SPLINESEGS
 70
     8
  9
$ATTDIA
 70
     0
  9
$ATTREQ
 70
     1
  9
$HANDLING
 70
     1
  9
$HANDSEED
  5
BEB1
  9
$SURFTAB1
 70
     6
  9
$SURFTAB2
 70
     6
  9
$SURFTYPE
 70
     6
  9
$SURFU
 70
     6
  9
$SURFV
 70
     6
  9
$UCSNAME
  2

  9
$UCSORG
 10
0.0
 20
0.0
 30
0.0
  9
$UCSXDIR
 10
1.0
 20
0.0
 30
0.0
  9
$UCSYDIR
 10
0.0
 20
1.0
 30
0.0
  9
$PUCSNAME
  2

  9
$PUCSORG
 10
0.0
 20
0.0
 30
0.0
  9
$PUCSXDIR
 10
1.0
 20
0.0
 30
0.0
  9
$PUCSYDIR
 10
0.0
 20
1.0
 30
0.0
  9
$USERI1
 70
     0
  9
$USERI2
 70
     0
  9
$USERI3
 70
     0
  9
$USERI4
 70
     0
  9
$USERI5
 70
     0
  9
$USERR1
 40
0.0
  9
$USERR2
 40
0.0
  9
$USERR3
 40
0.0
  9
$USERR4
 40
0.0
  9
$USERR5
 40
0.0
  9
$WORLDVIEW
 70
     1
  9
$SHADEDGE
 70
     3
  9
$SHADEDIF
 70
    70
  9
$TILEMODE
 70
     1
  9
$MAXACTVP
 70
    48
  9
$PINSBASE
 10
0.0
 20
0.0
 30
0.0
  9
$PLIMCHECK
 70
     0
  9
$PEXTMIN
 10
1.000000000000000E+20
 20
1.000000000000000E+20
 30
1.000000000000000E+20
  9
$PEXTMAX
 10
-1.000000000000000E+20
 20
-1.000000000000000E+20
 30
-1.000000000000000E+20
  9
$PLIMMIN
 10
0.0
 20
0.0
  9
$PLIMMAX
 10
420.0
 20
297.0
  9
$UNITMODE
 70
     0
  9
$VISRETAIN
 70
     1
  9
$PLINEGEN
 70
     0
  9
$PSLTSCALE
 70
     1
  9
$TREEDEPTH
 70
  3020
  9
$PICKSTYLE
 70
     1
  9
$CMLSTYLE
  2
STANDARD
  9
$CMLJUST
 70
     0
  9
$CMLSCALE
 40
20.0
  9
$SAVEIMAGES
 70
     1
  0
ENDSEC
  0
SECTION
  2
CLASSES
  0
CLASS
  1
DICTIONARYVAR
  2
AcDbDictionaryVar
  3
ObjectDBX Classes
 90
        0
280
     0
281
     0
  0
CLASS
  1
IDBUFFER
  2
AcDbIdBuffer
  3
ObjectDBX Classes
 90
    32768
280
     0
281
     0
  0
CLASS
  1
LWPOLYLINE
  2
AcDbPolyline
  3
ObjectDBX Classes
 90
    32768
280
     0
281
     1
  0
CLASS
  1
ACDBDICTIONARYWDFLT
  2
AcDbDictionaryWithDefault
  3
ObjectDBX Classes
 90
    32768
280
     0
281
     0
  0
CLASS
  1
ACDBPLACEHOLDER
  2
AcDbPlaceHolder
  3
ObjectDBX Classes
 90
        0
280
     0
281
     0
  0
CLASS
  1
LAYOUT
  2
AcDbLayout
  3
ObjectDBX Classes
 90
        0
280
     0
281
     0
  0
CLASS
  1
TABLESTYLE
  2
AcDbTableStyle
  3
ObjectDBX Classes
 90
     4095
280
     0
281
     0
  0
CLASS
  1
SORTENTSTABLE
  2
AcDbSortentsTable
  3
ObjectDBX Classes
 90
    32768
280
     0
281
     0
  0
CLASS
  1
MATERIAL
  2
AcDbMaterial
  3
ObjectDBX Classes
 90
     1153
280
     0
281
     0
  0
CLASS
  1
VISUALSTYLE
  2
AcDbVisualStyle
  3
ObjectDBX Classes
 90
     4095
280
     0
281
     0
  0
CLASS
  1
SCALE
  2
AcDbScale
  3
ObjectDBX Classes
 90
     1153
280
     0
281
     0
  0
CLASS
  1
MLEADERSTYLE
  2
AcDbMLeaderStyle
  3
ACDB_MLEADERSTYLE_CLASS
 90
     4095
280
     0
281
     0
  0
CLASS
  1
CELLSTYLEMAP
  2
AcDbCellStyleMap
  3
ObjectDBX Classes
 90
     1152
280
     0
281
     0
  0
CLASS
  1
SUN
  2
AcDbSun
  3
SCENEOE
 90
     1153
280
     0
281
     0
  0
CLASS
  1
XRECORD
  2
AcDbXrecord
  3
ObjectDBX Classes
 90
    32768
280
     0
281
     0
  0
CLASS
  1
HATCH
  2
AcDbHatch
  3
ObjectDBX Classes
 90
    32768
280
     0
281
     1
  0
ENDSEC
  0
SECTION
  2
TABLES
  0
TABLE
  2
VPORT
  5
8
330
0
100
AcDbSymbolTable
 70
     1
  0
VPORT
  5
952D
330
8
100
AcDbSymbolTableRecord
100
AcDbViewportTableRecord
  2
*ACTIVE
 70
     0
 10
0.0
 20
0.0
 11
1.0
 21
1.0
 12
5529.351927901542
 22
-460.7602020111572
 13
0.0
 23
0.0
 14
10.0
 24
10.0
 15
10.0
 25
10.0
 16
0.0
 26
0.0
 36
1.0
 17
0.0
 27
0.0
 37
0.0
 40
569.0526315789474
 41
1.871481028151775
 42
50.0
 43
0.0
 44
0.0
 50
0.0
 51
0.0
 71
    16
 72
   100
 73
     1
 74
     1
 75
     0
 76
     0
 77
     0
 78
     0
1001
ACAD_NAV_VCDISPLAY
1070
     3
  0
ENDTAB
  0
TABLE
  2
LTYPE
  5
5
330
0
100
AcDbSymbolTable
 70
     2
  0
LTYPE
  5
12
330
5
100
AcDbSymbolTableRecord
100
AcDbLinetypeTableRecord
  2
BYBLOCK
 70
     0
  3

 72
    65
 73
     0
 40
0.0
  0
LTYPE
  5
13
330
5
100
AcDbSymbolTableRecord
100
AcDbLinetypeTableRecord
  2
BYLAYER
 70
     0
  3

 72
    65
 73
     0
 40
0.0
  0
LTYPE
  5
14
330
5
100
AcDbSymbolTableRecord
100
AcDbLinetypeTableRecord
  2
CONTINUOUS
 70
     0
  3
Solid line
 72
    65
 73
     0
 40
0.0
  0
LTYPE
  5
9837
330
5
100
AcDbSymbolTableRecord
100
AcDbLinetypeTableRecord
  2
CENTER2
 70
     0
  3
Center (.5x) ___ _ ___ _ ___ _ ___ _ ___ _ ___
 72
    65
 73
     4
 40
28.575
 49
19.05
 74
     0
 49
-3.175
 74
     0
 49
3.175
 74
     0
 49
-3.175
 74
     0
  0
ENDTAB
  0
TABLE
  2
LAYER
  5
2
102
{ACAD_XDICTIONARY
360
96D9
102
}
330
0
100
AcDbSymbolTable
 70
     5
  0
LAYER
  5
E
102
{ACAD_XDICTIONARY
360
9593
102
}
330
2
100
AcDbSymbolTableRecord
100
AcDbLayerTableRecord
  2
0
 70
     0
 62
     7
  6
CONTINUOUS
  0
LAYER
  5
29
102
{ACAD_XDICTIONARY
360
9595
102
}
330
2
100
AcDbSymbolTableRecord
100
AcDbLayerTableRecord
  2
1CENTER
 70
     0
 62
     7
  6
CENTER2
  0
LAYER
  5
31
102
{ACAD_XDICTIONARY
360
9597
102
}
330
2
100
AcDbSymbolTableRecord
100
AcDbLayerTableRecord
  2
1TEXT
 70
     0
 62
     7
  6
CONTINUOUS
  0
LAYER
  5
243
102
{ACAD_XDICTIONARY
360
959D
102
}
330
2
100
AcDbSymbolTableRecord
100
AcDbLayerTableRecord
  2
01
 70
     0
 62
     1
  6
CONTINUOUS
  0
LAYER
  5
24E
102
{ACAD_XDICTIONARY
360
95A3
102
}
330
2
100
AcDbSymbolTableRecord
100
AcDbLayerTableRecord
  2
1DIM
 70
     0
 62
     7
  6
CONTINUOUS
  0
ENDTAB
  0
TABLE
  2
STYLE
  5
3
330
0
100
AcDbSymbolTable
 70
     1
  0
STYLE
  5
F
330
3
100
AcDbSymbolTableRecord
100
AcDbTextStyleTableRecord
  2
STANDARD
 70
     0
 40
0.0
 41
1.0
 50
0.0
 71
     0
 42
4.0
  3
txt.shx
  4
extfont.shx
  0
ENDTAB
  0
TABLE
  2
VIEW
  5
6
330
0
100
AcDbSymbolTable
 70
     0
  0
ENDTAB
  0
TABLE
  2
UCS
  5
7
330
0
100
AcDbSymbolTable
 70
     0
  0
ENDTAB
  0
TABLE
  2
APPID
  5
9
330
0
100
AcDbSymbolTable
 70
    14
  0
APPID
  5
10
330
9
100
AcDbSymbolTableRecord
100
AcDbRegAppTableRecord
  2
ACAD
 70
     0
  0
APPID
  5
21
330
9
100
AcDbSymbolTableRecord
100
AcDbRegAppTableRecord
  2
DRAWINGVARIABLESXDATA
 70
     0
  0
APPID
  5
64
330
9
100
AcDbSymbolTableRecord
100
AcDbRegAppTableRecord
  2
CONTENTTABDATA
 70
     0
  0
APPID
  5
65
330
9
100
AcDbSymbolTableRecord
100
AcDbRegAppTableRecord
  2
CONTENTCURRENTTAB
 70
     0
  0
APPID
  5
66
330
9
100
AcDbSymbolTableRecord
100
AcDbRegAppTableRecord
  2
CONTENTBLOCKDESCRIPTION
 70
     0
  0
APPID
  5
67
330
9
100
AcDbSymbolTableRecord
100
AcDbRegAppTableRecord
  2
CONTENTBLOCKICON
 70
     0
  0
APPID
  5
68
330
9
100
AcDbSymbolTableRecord
100
AcDbRegAppTableRecord
  2
CONTENTLONGBLOCKNAME
 70
     0
  0
APPID
  5
2AE
330
9
100
AcDbSymbolTableRecord
100
AcDbRegAppTableRecord
  2
ACAD_PSEXT
 70
     0
  0
APPID
  5
9585
330
9
100
AcDbSymbolTableRecord
100
AcDbRegAppTableRecord
  2
ACAD_MLEADERVER
 70
     0
  0
APPID
  5
A2E3
330
9
100
AcDbSymbolTableRecord
100
AcDbRegAppTableRecord
  2
ACADANNOTATIVE
 70
     0
  0
APPID
  5
A2E4
330
9
100
AcDbSymbolTableRecord
100
AcDbRegAppTableRecord
  2
ACDBBLOCKREPETAG
 70
     0
  0
APPID
  5
AEE0
330
9
100
AcDbSymbolTableRecord
100
AcDbRegAppTableRecord
  2
ACAD_NAV_VCDISPLAY
 70
     0
  0
APPID
  5
AF2C
330
9
100
AcDbSymbolTableRecord
100
AcDbRegAppTableRecord
  2
ACAECLAYERSTANDARD
 70
     0
  0
APPID
  5
BBA2
330
9
100
AcDbSymbolTableRecord
100
AcDbRegAppTableRecord
  2
ACAD_EXEMPT_FROM_CAD_STAND
 70
     0
  0
ENDTAB
  0
TABLE
  2
DIMSTYLE
  5
A
330
0
100
AcDbSymbolTable
 70
     1
  0
DIMSTYLE
105
48
330
A
100
AcDbSymbolTableRecord
100
AcDbDimStyleTableRecord
  2
NEWX10
 70
     0
  3
 
  4

  5

  6
OPEN30
  7
OPEN30
 40
1.0
 41
2.0
 42
0.0
 43
7.0
 44
1.0
 45
0.0
 46
0.0
 47
0.0
 48
0.0
140
3.5
141
0.0
142
0.0
143
25.4
144
1.0
145
0.0
146
0.7
147
0.7
 71
     0
 72
     0
 73
     0
 74
     0
 75
     0
 76
     0
 77
     1
 78
     8
170
     0
171
     2
172
     1
173
     1
174
     0
175
     0
176
   256
177
   256
178
   201
179
     2
270
     2
271
     2
272
     4
273
     2
274
     2
340
F
275
     0
280
     0
281
     0
282
     0
283
     1
284
     8
285
     0
286
     0
287
     2
288
     0
  0
ENDTAB
  0
TABLE
  2
BLOCK_RECORD
  5
1
330
0
100
AcDbSymbolTable
 70
     8
  0
BLOCK_RECORD
  5
18
102
{ACAD_XDICTIONARY
360
88F
102
}
330
1
100
AcDbSymbolTableRecord
100
AcDbBlockTableRecord
  2
*MODEL_SPACE
  0
BLOCK_RECORD
  5
15
330
1
100
AcDbSymbolTableRecord
100
AcDbBlockTableRecord
  2
*PAPER_SPACE
  0
BLOCK_RECORD
  5
42
330
1
100
AcDbSymbolTableRecord
100
AcDbBlockTableRecord
  2
_OPEN30
  0
BLOCK_RECORD
  5
A333
330
1
100
AcDbSymbolTableRecord
100
AcDbBlockTableRecord
  2
A3WAKUKAWAJUN2017_HYOUDAI_
  0
BLOCK_RECORD
  5
BD11
330
1
100
AcDbSymbolTableRecord
100
AcDbBlockTableRecord
  2
*X39
  0
BLOCK_RECORD
  5
BD5F
330
1
100
AcDbSymbolTableRecord
100
AcDbBlockTableRecord
  2
*X40
  0
BLOCK_RECORD
  5
BDB1
330
1
100
AcDbSymbolTableRecord
100
AcDbBlockTableRecord
  2
*X41
  0
BLOCK_RECORD
  5
BE02
330
1
100
AcDbSymbolTableRecord
100
AcDbBlockTableRecord
  2
*X42
  0
BLOCK_RECORD
  5
BE3F
330
1
100
AcDbSymbolTableRecord
100
AcDbBlockTableRecord
  2
*X43
  0
BLOCK_RECORD
  5
BE7F
330
1
100
AcDbSymbolTableRecord
100
AcDbBlockTableRecord
  2
*X44
  0
ENDTAB
  0
ENDSEC
  0
SECTION
  2
BLOCKS
  0
BLOCK
  5
19
330
18
100
AcDbEntity
  8
0
100
AcDbBlockBegin
  2
*MODEL_SPACE
 70
     0
 10
0.0
 20
0.0
 30
0.0
  3
*MODEL_SPACE
  1

  0
ENDBLK
  5
1A
330
18
100
AcDbEntity
  8
0
100
AcDbBlockEnd
  0
BLOCK
  5
16
330
15
100
AcDbEntity
 67
     1
  8
0
100
AcDbBlockBegin
  2
*PAPER_SPACE
 70
     0
 10
0.0
 20
0.0
 30
0.0
  3
*PAPER_SPACE
  1

  0
ENDBLK
  5
17
330
15
100
AcDbEntity
 67
     1
  8
0
100
AcDbBlockEnd
  0
BLOCK
  5
43
330
42
100
AcDbEntity
  8
0
100
AcDbBlockBegin
  2
_OPEN30
 70
     0
 10
0.0
 20
0.0
 30
0.0
  3
_OPEN30
  1

  0
LINE
  5
44
330
42
100
AcDbEntity
  8
0
  6
BYBLOCK
 62
     0
100
AcDbLine
 10
-1.0
 20
0.26794919
 30
0.0
 11
0.0
 21
0.0
 31
0.0
  0
LINE
  5
45
330
42
100
AcDbEntity
  8
0
  6
BYBLOCK
 62
     0
100
AcDbLine
 10
0.0
 20
0.0
 30
0.0
 11
-1.0
 21
-0.26794919
 31
0.0
  0
LINE
  5
46
330
42
100
AcDbEntity
  8
0
  6
BYBLOCK
 62
     0
100
AcDbLine
 10
0.0
 20
0.0
 30
0.0
 11
-1.0
 21
0.0
 31
0.0
  0
ENDBLK
  5
47
330
42
100
AcDbEntity
  8
0
100
AcDbBlockEnd
  0
BLOCK
  5
AA56
330
A333
100
AcDbEntity
  8
0
100
AcDbBlockBegin
  2
A3WAKUKAWAJUN2017_HYOUDAI_
 70
     0
 10
0.0
 20
0.0
 30
0.0
  3
A3WAKUKAWAJUN2017_HYOUDAI_
  1

  0
LINE
  5
A335
330
A333
100
AcDbEntity
  8
0
100
AcDbLine
 10
13.26299999998673
 20
-0.0001000000000317
 30
0.0
 11
9.236999999990758
 21
8.999899999990987
 31
0.0
1001
ACAD
1000
ASC_BOUNDS
1002
{
1070
    19
1005
A376
1002
}
  0
LINE
  5
A336
330
A333
100
AcDbEntity
  8
0
100
AcDbLine
 10
5.657999999994331
 20
0.9999999999989768
 30
0.0
 11
9.236999999990758
 21
8.999999999991019
 31
0.0
1001
ACAD
1000
ASC_BOUNDS
1002
{
1070
    19
1005
A376
1002
}
  0
LINE
  5
A337
330
A333
100
AcDbEntity
  8
0
100
AcDbLine
 10
18.59199999998134
 20
-0.2368999999997641
 30
0.0
 11
16.46099999998353
 21
5.432899999994561
 31
0.0
1001
ACAD
1000
ASC_BOUNDS
1002
{
1070
    19
1005
A377
1002
}
  0
LINE
  5
A338
330
A333
100
AcDbEntity
  8
0
100
AcDbLine
 10
18.59199999998134
 20
-0.2368999999997641
 30
0.0
 11
22.38199999997767
 21
8.763099999991255
 31
0.0
1001
ACAD
1000
ASC_BOUNDS
1002
{
1070
    19
1005
A377
1002
}
  0
LINE
  5
A339
330
A333
100
AcDbEntity
  8
0
100
AcDbLine
 10
14.32899999998563
 20
-0.2368999999997641
 30
0.0
 11
16.46099999998353
 21
5.432899999994561
 31
0.0
1001
ACAD
1000
ASC_BOUNDS
1002
{
1070
    19
1005
A377
1002
}
  0
LINE
  5
A33A
330
A333
100
AcDbEntity
  8
0
100
AcDbLine
 10
14.32899999998563
 20
-0.2368999999997641
 30
0.0
 11
10.53899999998941
 21
8.763099999991255
 31
0.0
1001
ACAD
1000
ASC_BOUNDS
1002
{
1070
    19
1005
A377
1002
}
  0
LINE
  5
A33B
330
A333
100
AcDbEntity
  8
0
100
AcDbLine
 10
19.53899999998043
 20
-0.0001000000000317
 30
0.0
 11
23.56599999997638
 21
8.999899999990987
 31
0.0
1001
ACAD
1000
ASC_BOUNDS
1002
{
1070
    19
1005
A378
1002
}
  0
LINE
  5
A33C
330
A333
100
AcDbEntity
  8
0
100
AcDbLine
 10
26.97358892824991
 20
1.383099999991202
 30
0.0
 11
23.56599999997638
 21
8.999899999990987
 31
0.0
1001
ACAD
1000
ASC_BOUNDS
1002
{
1070
    19
1005
A378
1002
}
  0
LINE
  5
A33D
330
A333
100
AcDbEntity
  8
0
100
AcDbLine
 10
5.657999999994331
 20
0.9999999999989768
 30
0.0
 11
3.181999999996833
 21
4.668599999995308
 31
0.0
1001
ACAD
1000
ASC_BOUNDS
1002
{
1070
    19
1005
A376
1002
}
  0
LINE
  5
A33E
330
A333
100
AcDbEntity
  8
0
100
AcDbLine
 10
4.617999999995391
 20
-0.0001000000000317
 30
0.0
 11
1.420999999998571
 21
4.736799999995242
 31
0.0
1001
ACAD
1000
ASC_BOUNDS
1002
{
1070
    19
1005
A376
1002
}
  0
LINE
  5
A33F
330
A333
100
AcDbEntity
  8
0
100
AcDbLine
 10
1.420999999998571
 20
8.763099999991255
 30
0.0
 11
1.420999999998571
 21
0.0
 31
0.0
1001
ACAD
1000
ASC_BOUNDS
1002
{
1070
    19
1005
A37B
1002
}
  0
LINE
  5
A340
330
A333
100
AcDbEntity
  8
0
100
AcDbLine
 10
0.0
 20
8.763099999991255
 30
0.0
 11
0.0
 21
0.0
 31
0.0
1001
ACAD
1000
ASC_BOUNDS
1002
{
1070
    19
1005
A37B
1002
}
  0
LINE
  5
A341
330
A333
100
AcDbEntity
  8
0
100
AcDbLine
 10
6.766999999993232
 20
-0.0001000000000317
 30
0.0
 11
7.826999999992154
 21
2.368399999997621
 31
0.0
1001
ACAD
1000
ASC_BOUNDS
1002
{
1070
    19
1005
A376
1002
}
  0
LINE
  5
A342
330
A333
100
AcDbEntity
  8
0
100
AcDbLine
 10
0.0
 20
0.0
 30
0.0
 11
1.420999999998571
 21
0.0
 31
0.0
1001
ACAD
1000
ASC_BOUNDS
1002
{
1070
    19
1005
A37B
1002
}
  0
LINE
  5
A343
330
A333
100
AcDbEntity
  8
0
100
AcDbLine
 10
4.617999999995391
 20
0.0
 30
0.0
 11
6.766999999993232
 21
0.0
 31
0.0
1001
ACAD
1000
ASC_BOUNDS
1002
{
1070
    19
1005
A376
1002
}
  0
LINE
  5
A344
330
A333
100
AcDbEntity
  8
0
100
AcDbLine
 10
11.70599999998831
 20
-0.0001000000000317
 30
0.0
 11
10.64699999998936
 21
2.368399999997621
 31
0.0
1001
ACAD
1000
ASC_BOUNDS
1002
{
1070
    19
1005
A376
1002
}
  0
LINE
  5
A345
330
A333
100
AcDbEntity
  8
0
100
AcDbLine
 10
7.826999999992154
 20
2.368399999997621
 30
0.0
 11
10.64699999998936
 21
2.368399999997621
 31
0.0
1001
ACAD
1000
ASC_BOUNDS
1002
{
1070
    19
1005
A376
1002
}
  0
LINE
  5
A346
330
A333
100
AcDbEntity
  8
0
100
AcDbLine
 10
11.70599999998831
 20
0.0
 30
0.0
 11
13.26299999998673
 21
0.0
 31
0.0
1001
ACAD
1000
ASC_BOUNDS
1002
{
1070
    19
1005
A376
1002
}
  0
LINE
  5
A347
330
A333
100
AcDbEntity
  8
0
100
AcDbLine
 10
22.15599999997789
 20
2.368399999997621
 30
0.0
 11
24.97599999997499
 21
2.368399999997621
 31
0.0
1001
ACAD
1000
ASC_BOUNDS
1002
{
1070
    19
1005
A378
1002
}
  0
LINE
  5
A348
330
A333
100
AcDbEntity
  8
0
100
AcDbLine
 10
19.53899999998043
 20
0.0
 30
0.0
 11
21.09599999997886
 21
0.0
 31
0.0
1001
ACAD
1000
ASC_BOUNDS
1002
{
1070
    19
1005
A378
1002
}
  0
LINE
  5
A349
330
A333
100
AcDbEntity
  8
0
100
AcDbLine
 10
21.09599999997886
 20
-0.0001000000000317
 30
0.0
 11
22.15599999997789
 21
2.368399999997621
 31
0.0
1001
ACAD
1000
ASC_BOUNDS
1002
{
1070
    19
1005
A378
1002
}
  0
LINE
  5
A34A
330
A333
100
AcDbEntity
  8
0
100
AcDbLine
 10
26.02015566812236
 20
0.0330999999912365
 30
0.0
 11
24.97599999997499
 21
2.368399999997621
 31
0.0
1001
ACAD
1000
ASC_BOUNDS
1002
{
1070
    19
1005
A378
1002
}
  0
LINE
  5
A34B
330
A333
100
AcDbEntity
  8
0
100
AcDbLine
 10
14.32399999998563
 20
3.315799999996671
 30
0.0
 11
16.46099999998353
 21
8.999899999990987
 31
0.0
1001
ACAD
1000
ASC_BOUNDS
1002
{
1070
    19
1005
A377
1002
}
  0
LINE
  5
A34C
330
A333
100
AcDbEntity
  8
0
100
AcDbLine
 10
6.432999999993513
 20
8.763099999991255
 30
0.0
 11
3.181999999996833
 21
4.668599999995308
 31
0.0
1001
ACAD
1000
ASC_BOUNDS
1002
{
1070
    19
1005
A376
1002
}
  0
LINE
  5
A34D
330
A333
100
AcDbEntity
  8
0
100
AcDbLine
 10
4.617999999995391
 20
8.763099999991255
 30
0.0
 11
1.420999999998571
 21
4.736799999995242
 31
0.0
1001
ACAD
1000
ASC_BOUNDS
1002
{
1070
    19
1005
A376
1002
}
  0
LINE
  5
A34E
330
A333
100
AcDbEntity
  8
0
100
AcDbLine
 10
0.0
 20
8.763099999991255
 30
0.0
 11
1.420999999998571
 21
8.763099999991255
 31
0.0
1001
ACAD
1000
ASC_BOUNDS
1002
{
1070
    19
1005
A37B
1002
}
  0
LINE
  5
A34F
330
A333
100
AcDbEntity
  8
0
100
AcDbLine
 10
4.617999999995391
 20
8.763099999991255
 30
0.0
 11
6.432999999993513
 21
8.763099999991255
 31
0.0
1001
ACAD
1000
ASC_BOUNDS
1002
{
1070
    19
1005
A376
1002
}
  0
LINE
  5
A350
330
A333
100
AcDbEntity
  8
0
100
AcDbLine
 10
14.32399999998563
 20
3.315799999996671
 30
0.0
 11
12.02999999998792
 21
8.763099999991255
 31
0.0
1001
ACAD
1000
ASC_BOUNDS
1002
{
1070
    19
1005
A377
1002
}
  0
LINE
  5
A351
330
A333
100
AcDbEntity
  8
0
100
AcDbLine
 10
10.06399999998996
 20
3.670999999996297
 30
0.0
 11
9.236999999990758
 21
5.5200999999945
 31
0.0
1001
ACAD
1000
ASC_BOUNDS
1002
{
1070
    19
1005
A376
1002
}
  0
LINE
  5
A352
330
A333
100
AcDbEntity
  8
0
100
AcDbLine
 10
8.409999999991555
 20
3.670999999996297
 30
0.0
 11
9.236999999990758
 21
5.5200999999945
 31
0.0
1001
ACAD
1000
ASC_BOUNDS
1002
{
1070
    19
1005
A376
1002
}
  0
LINE
  5
A353
330
A333
100
AcDbEntity
  8
0
100
AcDbLine
 10
8.409999999991555
 20
3.670999999996297
 30
0.0
 11
10.06399999998996
 21
3.670999999996297
 31
0.0
1001
ACAD
1000
ASC_BOUNDS
1002
{
1070
    19
1005
A376
1002
}
  0
LINE
  5
A354
330
A333
100
AcDbEntity
  8
0
100
AcDbLine
 10
10.53899999998941
 20
8.763099999991255
 30
0.0
 11
12.02999999998792
 21
8.763099999991255
 31
0.0
1001
ACAD
1000
ASC_BOUNDS
1002
{
1070
    19
1005
A377
1002
}
  0
LINE
  5
A355
330
A333
100
AcDbEntity
  8
0
100
AcDbLine
 10
22.7389999999773
 20
3.670999999996297
 30
0.0
 11
23.56599999997638
 21
5.5200999999945
 31
0.0
1001
ACAD
1000
ASC_BOUNDS
1002
{
1070
    19
1005
A378
1002
}
  0
LINE
  5
A356
330
A333
100
AcDbEntity
  8
0
100
AcDbLine
 10
22.7389999999773
 20
3.670999999996297
 30
0.0
 11
24.39299999997559
 21
3.670999999996297
 31
0.0
1001
ACAD
1000
ASC_BOUNDS
1002
{
1070
    19
1005
A378
1002
}
  0
LINE
  5
A357
330
A333
100
AcDbEntity
  8
0
100
AcDbLine
 10
18.59799999998143
 20
3.315799999996671
 30
0.0
 11
20.89099999997916
 21
8.763099999991255
 31
0.0
1001
ACAD
1000
ASC_BOUNDS
1002
{
1070
    19
1005
A377
1002
}
  0
LINE
  5
A358
330
A333
100
AcDbEntity
  8
0
100
AcDbLine
 10
18.59799999998143
 20
3.315799999996671
 30
0.0
 11
16.46099999998353
 21
8.999899999990987
 31
0.0
1001
ACAD
1000
ASC_BOUNDS
1002
{
1070
    19
1005
A377
1002
}
  0
LINE
  5
A359
330
A333
100
AcDbEntity
  8
0
100
AcDbLine
 10
20.89099999997916
 20
8.763099999991255
 30
0.0
 11
22.38199999997767
 21
8.763099999991255
 31
0.0
1001
ACAD
1000
ASC_BOUNDS
1002
{
1070
    19
1005
A377
1002
}
  0
LINE
  5
A35A
330
A333
100
AcDbEntity
  8
0
100
AcDbLine
 10
24.39299999997559
 20
3.670999999996297
 30
0.0
 11
23.56599999997638
 21
5.5200999999945
 31
0.0
1001
ACAD
1000
ASC_BOUNDS
1002
{
1070
    19
1005
A378
1002
}
  0
LINE
  5
A35B
330
A333
100
AcDbEntity
  8
0
100
AcDbLine
 10
44.99999999995498
 20
-0.2368999999997641
 30
0.0
 11
40.02599999995994
 21
5.341799999994635
 31
0.0
1001
ACAD
1000
ASC_BOUNDS
1002
{
1070
    19
1005
A37A
1002
}
  0
LINE
  5
A35C
330
A333
100
AcDbEntity
  8
0
100
AcDbLine
 10
40.02599999995994
 20
5.341799999994635
 30
0.0
 11
40.02599999995994
 21
0.0
 31
0.0
1001
ACAD
1000
ASC_BOUNDS
1002
{
1070
    19
1005
A37A
1002
}
  0
LINE
  5
A35D
330
A333
100
AcDbEntity
  8
0
100
AcDbLine
 10
38.60499999996136
 20
8.999999999991019
 30
0.0
 11
38.60499999996136
 21
0.0
 31
0.0
1001
ACAD
1000
ASC_BOUNDS
1002
{
1070
    19
1005
A37A
1002
}
  0
LINE
  5
A35E
330
A333
100
AcDbEntity
  8
0
100
AcDbLine
 10
44.99999999995498
 20
8.763099999991255
 30
0.0
 11
44.99999999995498
 21
-0.2368999999997641
 31
0.0
1001
ACAD
1000
ASC_BOUNDS
1002
{
1070
    19
1005
A37A
1002
}
  0
LINE
  5
A35F
330
A333
100
AcDbEntity
  8
0
100
AcDbLine
 10
38.60499999996136
 20
0.0
 30
0.0
 11
40.02599999995994
 21
0.0
 31
0.0
1001
ACAD
1000
ASC_BOUNDS
1002
{
1070
    19
1005
A37A
1002
}
  0
LINE
  5
A360
330
A333
100
AcDbEntity
  8
0
100
AcDbLine
 10
43.57899999995641
 20
3.421199999996588
 30
0.0
 11
38.60499999996136
 21
8.999899999990987
 31
0.0
1001
ACAD
1000
ASC_BOUNDS
1002
{
1070
    19
1005
A37A
1002
}
  0
LINE
  5
A361
330
A333
100
AcDbEntity
  8
0
100
AcDbLine
 10
43.57899999995641
 20
8.763099999991255
 30
0.0
 11
43.57899999995641
 21
3.421199999996588
 31
0.0
1001
ACAD
1000
ASC_BOUNDS
1002
{
1070
    19
1005
A37A
1002
}
  0
LINE
  5
A362
330
A333
100
AcDbEntity
  8
0
100
AcDbLine
 10
43.57899999995641
 20
8.763099999991255
 30
0.0
 11
44.99999999995498
 21
8.763099999991255
 31
0.0
1001
ACAD
1000
ASC_BOUNDS
1002
{
1070
    19
1005
A37A
1002
}
  0
LINE
  5
A363
330
A333
100
AcDbEntity
  8
0
100
AcDbLine
 10
37.67199999996831
 20
8.763099999991255
 30
0.0
 11
36.23199999996837
 21
8.763099999991255
 31
0.0
  0
LINE
  5
A364
330
A333
100
AcDbEntity
  8
0
100
AcDbLine
 10
31.64199999996833
 20
8.763099999991255
 30
0.0
 11
31.64199999996833
 21
2.481619422925121
 31
0.0
  0
LINE
  5
A365
330
A333
100
AcDbEntity
  8
0
100
AcDbLine
 10
37.67199999996831
 20
8.763099999991255
 30
0.0
 11
37.67199999996831
 21
2.481619422925121
 31
0.0
  0
LINE
  5
A366
330
A333
100
AcDbEntity
  8
0
100
AcDbLine
 10
36.23199999996837
 20
8.763099999991255
 30
0.0
 11
36.23199999996837
 21
2.481619422925064
 31
0.0
  0
LINE
  5
A367
330
A333
100
AcDbEntity
  8
0
100
AcDbLine
 10
33.08199999996839
 20
8.763099999991255
 30
0.0
 11
33.08199999996839
 21
2.481619422925121
 31
0.0
  0
ARC
  5
A368
330
A333
100
AcDbEntity
  8
0
100
AcDbCircle
 10
34.65699999996832
 20
3.183099999991214
 30
0.0
 40
3.420000000000007
100
AcDbArc
 50
240.0000000000255
 51
299.9999999999766
  0
ARC
  5
A369
330
A333
100
AcDbEntity
  8
0
100
AcDbCircle
 10
34.65699999996832
 20
3.183099999991214
 30
0.0
 40
1.97999999999999
100
AcDbArc
 50
240.000000000026
 51
299.9999999999703
  0
LINE
  5
A36A
330
A333
100
AcDbEntity
  8
0
100
AcDbLine
 10
33.08199999996828
 20
8.763099999991255
 30
0.0
 11
31.64199999996833
 21
8.763099999991255
 31
0.0
  0
ARC
  5
A36B
330
A333
100
AcDbEntity
  8
0
100
AcDbCircle
 10
35.06199999996829
 20
2.481619422925064
 30
0.0
 40
1.17
100
AcDbArc
 50
299.9999999999699
 51
0.0
  0
ARC
  5
A36C
330
A333
100
AcDbEntity
  8
0
100
AcDbCircle
 10
34.25199999996835
 20
2.481619422925121
 30
0.0
 40
1.17
100
AcDbArc
 50
180.0
 51
240.0000000000238
  0
ARC
  5
A36D
330
A333
100
AcDbEntity
  8
0
100
AcDbCircle
 10
35.06199999996841
 20
2.481619422925121
 30
0.0
 40
2.61
100
AcDbArc
 50
299.9999999999756
 51
0.0
  0
ARC
  5
A36E
330
A333
100
AcDbEntity
  8
0
100
AcDbCircle
 10
34.25199999996835
 20
2.481619422925121
 30
0.0
 40
2.61
100
AcDbArc
 50
180.0
 51
240.0000000000244
  0
LINE
  5
A36F
330
A333
100
AcDbEntity
  8
0
100
AcDbLine
 10
29.30199999996933
 20
8.763099999991255
 30
0.0
 11
30.74199999996927
 21
8.763099999991255
 31
0.0
1001
ACAD
1000
ASC_BOUNDS
1002
{
1070
    19
1005
A378
1002
}
  0
LINE
  5
A370
330
A333
100
AcDbEntity
  8
0
100
AcDbLine
 10
30.74199999996927
 20
8.763099999991255
 30
0.0
 11
30.74199999996927
 21
2.373099999991211
 31
0.0
1001
ACAD
1000
ASC_BOUNDS
1002
{
1070
    19
1005
A378
1002
}
  0
LINE
  5
A371
330
A333
100
AcDbEntity
  8
0
100
AcDbLine
 10
26.02015566812236
 20
0.0330999999912365
 30
0.0
 11
28.40199999996923
 21
0.0330999999912365
 31
0.0
1001
ACAD
1000
ASC_BOUNDS
1002
{
1070
    19
1005
A378
1002
}
  0
LINE
  5
A372
330
A333
100
AcDbEntity
  8
0
100
AcDbLine
 10
29.30199999996933
 20
8.763099999991255
 30
0.0
 11
29.30199999996933
 21
2.283099999991236
 31
0.0
1001
ACAD
1000
ASC_BOUNDS
1002
{
1070
    19
1005
A378
1002
}
  0
LINE
  5
A373
330
A333
100
AcDbEntity
  8
0
100
AcDbLine
 10
26.97358892824991
 20
1.383099999991202
 30
0.0
 11
28.40199999996923
 21
1.383099999991202
 31
0.0
1001
ACAD
1000
ASC_BOUNDS
1002
{
1070
    19
1005
A378
1002
}
  0
ARC
  5
A374
330
A333
100
AcDbEntity
  8
0
100
AcDbCircle
 10
28.40199999996923
 20
2.283099999991236
 30
0.0
 40
0.9
100
AcDbArc
 50
270.0
 51
0.0
1001
ACAD
1000
ASC_BOUNDS
1002
{
1070
    19
1005
A378
1002
}
  0
ARC
  5
A375
330
A333
100
AcDbEntity
  8
0
100
AcDbCircle
 10
28.40199999996923
 20
2.373099999991211
 30
0.0
 40
2.34
100
AcDbArc
 50
270.0
 51
0.0
1001
ACAD
1000
ASC_BOUNDS
1002
{
1070
    19
1005
A378
1002
}
  0
INSERT
  5
A376
330
A333
100
AcDbEntity
  8
0
100
AcDbBlockReference
  2
*X39
 10
0.0
 20
0.0
 30
0.0
1001
ACAD
1000
HATCH
1002
{
1070
    19
1000
ANSI37
1040
0.15
1040
0.0
1000
ASC_BOUNDS
1070
     2
1070
     2
1070
    12
1005
A335
1005
A336
1005
A33D
1005
A34C
1005
A34F
1005
A34D
1005
A33E
1005
A343
1005
A341
1005
A345
1005
A344
1005
A346
1070
     2
1070
     3
1005
A351
1005
A353
1005
A352
1000
ASC_SEEDPOINT
1011
3.614004224891801
1021
2.996669441146025
1031
0.0
1000
R14_HATCH_DATA
1000
A376
1011
1.0
1021
0.0
1031
0.0
1011
0.0
1021
1.0
1031
0.0
1011
0.0
1021
0.0
1031
1.0
1040
0.0
1010
0.0
1020
0.0
1030
1.0
1000
ANSI37
1070
     0
1070
     1
1071
        2
1071
        7
1070
     0
1070
     1
1071
       17
1040
13.26299999998673
1040
-0.0001000000000317
1040
9.236999999990758
1040
8.999899999990987
1040
9.236999999990758
1040
8.999999999991019
1040
5.657999999994331
1040
0.9999999999989768
1040
3.181999999996833
1040
4.668599999995308
1040
6.432999999993513
1040
8.763099999991255
1040
4.617999999995391
1040
8.763099999991255
1040
1.420999999998571
1040
4.736799999995242
1040
4.617999999995391
1040
-0.0001000000000317
1040
4.617999999995391
1040
0.0
1040
6.766999999993232
1040
0.0
1040
6.766999999993232
1040
-0.0001000000000317
1040
7.826999999992154
1040
2.368399999997621
1040
10.64699999998936
1040
2.368399999997621
1040
11.70599999998831
1040
-0.0001000000000317
1040
11.70599999998831
1040
0.0
1040
13.26299999998673
1040
0.0
1071
       12
1005
A335
1005
A336
1005
A33D
1005
A34C
1005
A34F
1005
A34D
1005
A33E
1005
A343
1005
A341
1005
A345
1005
A344
1005
A346
1071
       22
1070
     0
1070
     1
1071
        3
1040
9.236999999990758
1040
5.5200999999945
1040
10.06399999998996
1040
3.670999999996297
1040
8.409999999991555
1040
3.670999999996297
1071
        3
1005
A351
1005
A353
1005
A352
1070
     0
1070
     1
1040
0.0
1040
0.15
1070
     0
1070
     2
1040
0.7853981633974483
1040
49.29960901727088
1040
-10.17736998311392
1040
-0.3367596045400932
1040
0.3367596045400932
1070
     0
1040
2.356194490192345
1040
49.29960901727088
1040
-10.17736998311392
1040
-0.3367596045400932
1040
-0.3367596045400932
1070
     0
1040
0.0110235143455945
1071
        2
1040
3.614004224891801
1040
2.996669441146025
1040
0.0
1040
3.614004224891801
1040
2.996669441146025
1040
0.0
1002
}
  0
INSERT
  5
A377
330
A333
100
AcDbEntity
  8
0
100
AcDbBlockReference
  2
*X40
 10
0.0
 20
0.0
 30
0.0
1001
ACAD
1000
HATCH
1002
{
1070
    19
1000
ANSI37
1040
0.15
1040
0.0
1000
ASC_BOUNDS
1070
     1
1070
     2
1070
    10
1005
A337
1005
A338
1005
A359
1005
A357
1005
A358
1005
A34B
1005
A350
1005
A354
1005
A33A
1005
A339
1000
ASC_SEEDPOINT
1011
14.73245321214324
1021
2.798246178283421
1031
0.0
1000
R14_HATCH_DATA
1000
A377
1011
1.0
1021
0.0
1031
0.0
1011
0.0
1021
1.0
1031
0.0
1011
0.0
1021
0.0
1031
1.0
1040
0.0
1010
0.0
1020
0.0
1030
1.0
1000
ANSI37
1070
     0
1070
     1
1071
        1
1071
        7
1070
     0
1070
     1
1071
       10
1040
16.46099999998353
1040
5.432899999994561
1040
18.59199999998134
1040
-0.2368999999997641
1040
22.38199999997767
1040
8.763099999991255
1040
20.89099999997916
1040
8.763099999991255
1040
18.59799999998143
1040
3.315799999996671
1040
16.46099999998353
1040
8.999899999990987
1040
14.32399999998563
1040
3.315799999996671
1040
12.02999999998792
1040
8.763099999991255
1040
10.53899999998941
1040
8.763099999991255
1040
14.32899999998563
1040
-0.2368999999997641
1071
       10
1005
A337
1005
A338
1005
A359
1005
A357
1005
A358
1005
A34B
1005
A350
1005
A354
1005
A33A
1005
A339
1070
     0
1070
     1
1040
0.0
1040
0.15
1070
     0
1070
     2
1040
0.7853981633974483
1040
49.29960901727088
1040
-10.17736998311392
1040
-0.3367596045400932
1040
0.3367596045400932
1070
     0
1040
2.356194490192345
1040
49.29960901727088
1040
-10.17736998311392
1040
-0.3367596045400932
1040
-0.3367596045400932
1070
     0
1040
0.0110235143455945
1071
        1
1040
14.73245321214324
1040
2.798246178283421
1040
0.0
1002
}
  0
INSERT
  5
A378
330
A333
100
AcDbEntity
  8
0
100
AcDbBlockReference
  2
*X41
 10
0.0
 20
0.0
 30
0.0
1001
ACAD
1000
HATCH
1002
{
1070
    19
1000
ANSI37
1040
0.15
1040
0.0
1000
ASC_BOUNDS
1070
     2
1070
     2
1070
    13
1005
A33B
1005
A348
1005
A349
1005
A347
1005
A34A
1005
A371
1005
A375
1005
A370
1005
A36F
1005
A372
1005
A374
1005
A373
1005
A33C
1070
     2
1070
     3
1005
A355
1005
A35A
1005
A356
1000
ASC_SEEDPOINT
1011
21.97929957367762
1021
3.294304244259308
1031
0.0
1000
R14_HATCH_DATA
1000
A378
1011
1.0
1021
0.0
1031
0.0
1011
0.0
1021
1.0
1031
0.0
1011
0.0
1021
0.0
1031
1.0
1040
0.0
1010
0.0
1020
0.0
1030
1.0
1000
ANSI37
1070
     0
1070
     1
1071
        2
1071
        7
1070
     1
1070
     1
1071
       15
1040
23.56599999997638
1040
8.999899999990987
1040
0.0
1040
19.53899999998043
1040
-0.0001000000000317
1040
0.0
1040
19.53899999998043
1040
0.0
1040
0.0
1040
21.09599999997886
1040
0.0
1040
0.0
1040
21.09599999997886
1040
-0.0001000000000317
1040
0.0
1040
22.15599999997789
1040
2.368399999997621
1040
0.0
1040
24.97599999997499
1040
2.368399999997621
1040
0.0
1040
26.02015566812236
1040
0.0330999999912365
1040
0.0
1040
28.40199999996923
1040
0.0330999999912365
1040
0.414213562373095
1040
30.74199999996923
1040
2.373099999991211
1040
0.0
1040
30.74199999996927
1040
8.763099999991255
1040
0.0
1040
29.30199999996933
1040
8.763099999991255
1040
0.0
1040
29.30199999996933
1040
2.283099999991236
1040
-0.414213562373095
1040
28.40199999996923
1040
1.383099999991237
1040
0.0
1040
26.97358892824991
1040
1.383099999991202
1040
0.0
1071
       13
1005
A33B
1005
A348
1005
A349
1005
A347
1005
A34A
1005
A371
1005
A375
1005
A370
1005
A36F
1005
A372
1005
A374
1005
A373
1005
A33C
1071
       22
1070
     0
1070
     1
1071
        3
1040
22.7389999999773
1040
3.670999999996297
1040
23.56599999997638
1040
5.5200999999945
1040
24.39299999997559
1040
3.670999999996297
1071
        3
1005
A355
1005
A35A
1005
A356
1070
     0
1070
     1
1040
0.0
1040
0.15
1070
     0
1070
     2
1040
0.7853981633974483
1040
49.29960901727088
1040
-10.17736998311392
1040
-0.3367596045400932
1040
0.3367596045400932
1070
     0
1040
2.356194490192345
1040
49.29960901727088
1040
-10.17736998311392
1040
-0.3367596045400932
1040
-0.3367596045400932
1070
     0
1040
0.0110235143455945
1071
        2
1040
21.97929957367762
1040
3.294304244259308
1040
0.0
1040
21.97929957367762
1040
3.294304244259308
1040
0.0
1002
}
  0
INSERT
  5
A379
330
A333
100
AcDbEntity
  8
0
100
AcDbBlockReference
  2
*X42
 10
0.0
 20
0.0
 30
0.0
1001
ACAD
1000
HATCH
1002
{
1070
    19
1000
ANSI37
1040
0.15
1040
0.0
1000
R14_HATCH_DATA
1000
A379
1011
1.0
1021
0.0
1031
0.0
1011
0.0
1021
1.0
1031
0.0
1011
0.0
1021
0.0
1031
1.0
1040
0.0
1010
0.0
1020
0.0
1030
1.0
1000
ANSI37
1070
     0
1070
     1
1071
        1
1071
        7
1070
     1
1070
     1
1071
       12
1040
31.64199999996833
1040
2.481619422925121
1040
0.2679491924310942
1040
32.94699999997067
1040
0.2212931190493919
1040
0.2679491924301353
1040
36.36699999995983
1040
0.2212931190459813
1040
0.2679491924321411
1040
37.67199999996831
1040
2.481619422928361
1040
0.0
1040
37.67199999996831
1040
8.763099999991255
1040
0.0
1040
36.23199999996837
1040
8.763099999991255
1040
0.0
1040
36.23199999996837
1040
2.481619422925064
1040
-0.2679491924310291
1040
35.64699999996708
1040
1.468369700498386
1040
-0.267949192430519
1040
33.66699999997093
1040
1.468369700497703
1040
-0.267949192431809
1040
33.08199999996839
1040
2.481619422926997
1040
0.0
1040
33.08199999996839
1040
8.763099999991255
1040
0.0
1040
31.64199999996833
1040
8.763099999991255
1040
0.0
1071
        0
1070
     0
1070
     1
1040
0.0
1040
0.15
1070
     0
1070
     2
1040
0.7853981633974483
1040
49.29960901727088
1040
-10.17736998311392
1040
-0.3367596045400932
1040
0.3367596045400932
1070
     0
1040
2.356194490192345
1040
49.29960901727088
1040
-10.17736998311392
1040
-0.3367596045400932
1040
-0.3367596045400932
1070
     0
1040
0.0110235143455945
1071
        1
1040
32.30357378967278
1040
3.988785755459219
1040
0.0
1002
}
  0
INSERT
  5
A37A
330
A333
100
AcDbEntity
  8
0
100
AcDbBlockReference
  2
*X43
 10
0.0
 20
0.0
 30
0.0
1001
ACAD
1000
HATCH
1002
{
1070
    19
1000
ANSI37
1040
0.15
1040
0.0
1000
ASC_BOUNDS
1070
     1
1070
     2
1070
     8
1005
A35B
1005
A35E
1005
A362
1005
A361
1005
A360
1005
A35D
1005
A35F
1005
A35C
1000
ASC_SEEDPOINT
1011
39.74896370716704
1021
4.484843821435049
1031
0.0
1000
R14_HATCH_DATA
1000
A37A
1011
1.0
1021
0.0
1031
0.0
1011
0.0
1021
1.0
1031
0.0
1011
0.0
1021
0.0
1031
1.0
1040
0.0
1010
0.0
1020
0.0
1030
1.0
1000
ANSI37
1070
     0
1070
     1
1071
        1
1071
        7
1070
     0
1070
     1
1071
        9
1040
40.02599999995994
1040
5.341799999994635
1040
44.99999999995498
1040
-0.2368999999997641
1040
44.99999999995498
1040
8.763099999991255
1040
43.57899999995641
1040
8.763099999991255
1040
43.57899999995641
1040
3.421199999996588
1040
38.60499999996136
1040
8.999899999990987
1040
38.60499999996136
1040
8.999999999991019
1040
38.60499999996136
1040
0.0
1040
40.02599999995994
1040
0.0
1071
        8
1005
A35B
1005
A35E
1005
A362
1005
A361
1005
A360
1005
A35D
1005
A35F
1005
A35C
1070
     0
1070
     1
1040
0.0
1040
0.15
1070
     0
1070
     2
1040
0.7853981633974483
1040
49.29960901727088
1040
-10.17736998311392
1040
-0.3367596045400932
1040
0.3367596045400932
1070
     0
1040
2.356194490192345
1040
49.29960901727088
1040
-10.17736998311392
1040
-0.3367596045400932
1040
-0.3367596045400932
1070
     0
1040
0.0110235143455945
1071
        1
1040
39.74896370716704
1040
4.484843821435049
1040
0.0
1002
}
  0
INSERT
  5
A37B
330
A333
100
AcDbEntity
  8
0
100
AcDbBlockReference
  2
*X44
 10
0.0
 20
0.0
 30
0.0
1001
ACAD
1000
HATCH
1002
{
1070
    19
1000
ANSI37
1040
0.15
1040
0.0
1000
ASC_BOUNDS
1070
     1
1070
     2
1070
     4
1005
A33F
1005
A34E
1005
A340
1005
A342
1000
ASC_SEEDPOINT
1011
1.079051535452663
1021
4.148538732891836
1031
0.0
1000
R14_HATCH_DATA
1000
A37B
1011
1.0
1021
0.0
1031
0.0
1011
0.0
1021
1.0
1031
0.0
1011
0.0
1021
0.0
1031
1.0
1040
0.0
1010
0.0
1020
0.0
1030
1.0
1000
ANSI37
1070
     0
1070
     1
1071
        1
1071
        7
1070
     0
1070
     1
1071
        4
1040
1.420999999998571
1040
0.0
1040
1.420999999998571
1040
8.763099999991255
1040
0.0
1040
8.763099999991255
1040
0.0
1040
0.0
1071
        4
1005
A33F
1005
A34E
1005
A340
1005
A342
1070
     0
1070
     1
1040
0.0
1040
0.15
1070
     0
1070
     2
1040
0.7853981633974483
1040
49.29960901727088
1040
-10.17736998311392
1040
-0.3367596045400932
1040
0.3367596045400932
1070
     0
1040
2.356194490192345
1040
49.29960901727088
1040
-10.17736998311392
1040
-0.3367596045400932
1040
-0.3367596045400932
1070
     0
1040
0.0053004257112761
1071
        1
1040
1.079051535452663
1040
4.148538732891836
1040
0.0
1002
}
  0
ENDBLK
  5
AA57
330
A333
100
AcDbEntity
  8
0
100
AcDbBlockEnd
  0
BLOCK
  5
BE9F
330
BD11
100
AcDbEntity
  8
0
100
AcDbBlockBegin
  2
*X39
 70
     1
 10
0.0
 20
0.0
 30
0.0
  3
*X39
  1

  0
LINE
  5
BD12
330
BD11
100
AcDbEntity
  8
0
  6
CONTINUOUS
100
AcDbLine
 10
3.418023043697893
 20
7.251849696850613
 30
0.0
 11
4.929273346838536
 21
8.763099999991255
 31
0.0
  0
LINE
  5
BD13
330
BD11
100
AcDbEntity
  8
0
  6
CONTINUOUS
100
AcDbLine
 10
1.483656411257782
 20
4.643963855330318
 30
0.0
 11
5.60279255591872
 21
8.763099999991255
 31
0.0
  0
LINE
  5
BD14
330
BD11
100
AcDbEntity
  8
0
  6
CONTINUOUS
100
AcDbLine
 10
1.755053947328235
 20
4.241842182320584
 30
0.0
 11
6.276311764998907
 21
8.763099999991255
 31
0.0
  0
LINE
  5
BD15
330
BD11
100
AcDbEntity
  8
0
  6
CONTINUOUS
100
AcDbLine
 10
2.026451483398688
 20
3.839720509310849
 30
0.0
 11
4.441040904851878
 21
6.254309930764039
 31
0.0
  0
LINE
  5
BD16
330
BD11
100
AcDbEntity
  8
0
  6
CONTINUOUS
100
AcDbLine
 10
2.297849019469139
 20
3.437598836301114
 30
0.0
 11
3.321765168359338
 21
4.461514985191313
 31
0.0
  0
LINE
  5
BD17
330
BD11
100
AcDbEntity
  8
0
  6
CONTINUOUS
100
AcDbLine
 10
2.569246555539591
 20
3.03547716329138
 30
0.0
 11
3.593163397972743
 21
4.059394005724531
 31
0.0
  0
LINE
  5
BD18
330
BD11
100
AcDbEntity
  8
0
  6
CONTINUOUS
100
AcDbLine
 10
2.840644091610043
 20
2.633355490281646
 30
0.0
 11
3.864561627586149
 21
3.657273026257751
 31
0.0
  0
LINE
  5
BD19
330
BD11
100
AcDbEntity
  8
0
  6
CONTINUOUS
100
AcDbLine
 10
3.112041627680496
 20
2.231233817271911
 30
0.0
 11
4.135959857199554
 21
3.25515204679097
 31
0.0
  0
LINE
  5
BD1A
330
BD11
100
AcDbEntity
  8
0
  6
CONTINUOUS
100
AcDbLine
 10
3.383439163750948
 20
1.829112144262177
 30
0.0
 11
4.40735808681296
 21
2.853031067324189
 31
0.0
  0
LINE
  5
BD1B
330
BD11
100
AcDbEntity
  8
0
  6
CONTINUOUS
100
AcDbLine
 10
3.654836699821399
 20
1.426990471252442
 30
0.0
 11
4.678756316426365
 21
2.450910087857407
 31
0.0
  0
LINE
  5
BD1C
330
BD11
100
AcDbEntity
  8
0
  6
CONTINUOUS
100
AcDbLine
 10
3.926234235891853
 20
1.024868798242709
 30
0.0
 11
4.95015454603977
 21
2.048789108390626
 31
0.0
  0
LINE
  5
BD1D
330
BD11
100
AcDbEntity
  8
0
  6
CONTINUOUS
100
AcDbLine
 10
4.197631771962304
 20
0.6227471252329737
 30
0.0
 11
5.221552775653176
 21
1.646668128923846
 31
0.0
  0
LINE
  5
BD1E
330
BD11
100
AcDbEntity
  8
0
  6
CONTINUOUS
100
AcDbLine
 10
8.715877546767851
 20
7.835069736359266
 30
0.0
 11
9.435953450375058
 21
8.555145639966472
 31
0.0
  0
LINE
  5
BD1F
330
BD11
100
AcDbEntity
  8
0
  6
CONTINUOUS
100
AcDbLine
 10
8.170620868422267
 20
6.616293848933497
 30
0.0
 11
9.644120833743461
 21
8.08979381425469
 31
0.0
  0
LINE
  5
BD20
330
BD11
100
AcDbEntity
  8
0
  6
CONTINUOUS
100
AcDbLine
 10
7.625364190076684
 20
5.397517961507727
 30
0.0
 11
9.852288217111864
 21
7.624441988542907
 31
0.0
  0
LINE
  5
BD21
330
BD11
100
AcDbEntity
  8
0
  6
CONTINUOUS
100
AcDbLine
 10
7.080107511731101
 20
4.178742074081957
 30
0.0
 11
10.06045560048027
 21
7.159090162831124
 31
0.0
  0
LINE
  5
BD22
330
BD11
100
AcDbEntity
  8
0
  6
CONTINUOUS
100
AcDbLine
 10
6.534850833385518
 20
2.959966186656187
 30
0.0
 11
10.26862298384867
 21
6.693738337119342
 31
0.0
  0
LINE
  5
BD23
330
BD11
100
AcDbEntity
  8
0
  6
CONTINUOUS
100
AcDbLine
 10
4.469029308032756
 20
0.2206254522232385
 30
0.0
 11
5.492951005266582
 21
1.244547149457064
 31
0.0
  0
LINE
  5
BD24
330
BD11
100
AcDbEntity
  8
0
  6
CONTINUOUS
100
AcDbLine
 10
5.989594155039935
 20
1.741190299230417
 30
0.0
 11
8.806950407233131
 21
4.558546551423613
 31
0.0
  0
LINE
  5
BD25
330
BD11
100
AcDbEntity
  8
0
  6
CONTINUOUS
100
AcDbLine
 10
9.401251593263643
 20
5.152847737454126
 30
0.0
 11
10.47679036721708
 21
6.228386511407559
 31
0.0
  0
LINE
  5
BD26
330
BD11
100
AcDbEntity
  8
0
  6
CONTINUOUS
100
AcDbLine
 10
4.921837203428691
 20
-0.0000858614610131
 30
0.0
 11
8.592923064886001
 21
3.670999999996297
 31
0.0
  0
LINE
  5
BD27
330
BD11
100
AcDbEntity
  8
0
  6
CONTINUOUS
100
AcDbLine
 10
9.609390446785305
 20
4.6874673818956
 30
0.0
 11
10.68495775058548
 21
5.763034685695775
 31
0.0
  0
LINE
  5
BD28
330
BD11
100
AcDbEntity
  8
0
  6
CONTINUOUS
100
AcDbLine
 10
5.595387755019432
 20
-0.0000545189504582
 30
0.0
 11
7.716137258923768
 21
2.120694984953879
 31
0.0
  0
LINE
  5
BD29
330
BD11
100
AcDbEntity
  8
0
  6
CONTINUOUS
100
AcDbLine
 10
6.268938306610172
 20
-0.000023176439905
 30
0.0
 11
7.170485805526503
 21
0.9015243224764267
 31
0.0
  0
LINE
  5
BD2A
330
BD11
100
AcDbEntity
  8
0
  6
CONTINUOUS
100
AcDbLine
 10
7.963842273967511
 20
2.368399999997621
 30
0.0
 11
9.266442273966188
 21
3.670999999996297
 31
0.0
  0
LINE
  5
BD2B
330
BD11
100
AcDbEntity
  8
0
  6
CONTINUOUS
100
AcDbLine
 10
8.637361483047696
 20
2.368399999997621
 30
0.0
 11
9.939961483046375
 21
3.670999999996297
 31
0.0
  0
LINE
  5
BD2C
330
BD11
100
AcDbEntity
  8
0
  6
CONTINUOUS
100
AcDbLine
 10
9.817529300306965
 20
4.222087026337075
 30
0.0
 11
10.89312513395388
 21
5.297682859983993
 31
0.0
  0
LINE
  5
BD2D
330
BD11
100
AcDbEntity
  8
0
  6
CONTINUOUS
100
AcDbLine
 10
10.02566815382863
 20
3.756706670778549
 30
0.0
 11
11.10129251732229
 21
4.832331034272211
 31
0.0
  0
LINE
  5
BD2E
330
BD11
100
AcDbEntity
  8
0
  6
CONTINUOUS
100
AcDbLine
 10
9.310880692127883
 20
2.368399999997621
 30
0.0
 11
11.30945990069069
 21
4.366979208560428
 31
0.0
  0
LINE
  5
BD2F
330
BD11
100
AcDbEntity
  8
0
  6
CONTINUOUS
100
AcDbLine
 10
9.98439990120807
 20
2.36839999999762
 30
0.0
 11
11.5176272840591
 21
3.901627382848645
 31
0.0
  0
LINE
  5
BD30
330
BD11
100
AcDbEntity
  8
0
  6
CONTINUOUS
100
AcDbLine
 10
10.65037369446246
 20
2.36085458417182
 30
0.0
 11
11.7257946674275
 21
3.436275557136862
 31
0.0
  0
LINE
  5
BD31
330
BD11
100
AcDbEntity
  8
0
  6
CONTINUOUS
100
AcDbLine
 10
10.85847197087848
 20
1.895433651507656
 30
0.0
 11
11.9339620507959
 21
2.97092373142508
 31
0.0
  0
LINE
  5
BD32
330
BD11
100
AcDbEntity
  8
0
  6
CONTINUOUS
100
AcDbLine
 10
11.0665702472945
 20
1.430012718843491
 30
0.0
 11
12.14212943416431
 21
2.505571905713296
 31
0.0
  0
LINE
  5
BD33
330
BD11
100
AcDbEntity
  8
0
  6
CONTINUOUS
100
AcDbLine
 10
11.27466852371052
 20
0.9645917861793256
 30
0.0
 11
12.35029681753271
 21
2.040220080001513
 31
0.0
  0
LINE
  5
BD34
330
BD11
100
AcDbEntity
  8
0
  6
CONTINUOUS
100
AcDbLine
 10
11.48276680012654
 20
0.4991708535151611
 30
0.0
 11
12.55846420090111
 21
1.57486825428973
 31
0.0
  0
LINE
  5
BD35
330
BD11
100
AcDbEntity
  8
0
  6
CONTINUOUS
100
AcDbLine
 10
11.69086507654257
 20
0.0337499208509957
 30
0.0
 11
12.76663158426952
 21
1.109516428577947
 31
0.0
  0
LINE
  5
BD36
330
BD11
100
AcDbEntity
  8
0
  6
CONTINUOUS
100
AcDbLine
 10
12.33057447873954
 20
-0.0000598860322123
 30
0.0
 11
12.97479896763792
 21
0.6441646028661663
 31
0.0
  0
LINE
  5
BD37
330
BD11
100
AcDbEntity
  8
0
  6
CONTINUOUS
100
AcDbLine
 10
13.00413694809395
 20
-0.0000166257579952
 30
0.0
 11
13.18296635100632
 21
0.1788127771543824
 31
0.0
  0
LINE
  5
BD38
330
BD11
100
AcDbEntity
  8
0
  6
CONTINUOUS
100
AcDbLine
 10
4.772852165289667
 20
-0.000092794222212
 30
0.0
 11
4.296495091028902
 21
0.4762642800385528
 31
0.0
  0
LINE
  5
BD39
330
BD11
100
AcDbEntity
  8
0
  6
CONTINUOUS
100
AcDbLine
 10
5.446340034776103
 20
-0.0000614546284616
 30
0.0
 11
2.898195908335625
 21
2.548082671812017
 31
0.0
  0
LINE
  5
BD3A
330
BD11
100
AcDbEntity
  8
0
  6
CONTINUOUS
100
AcDbLine
 10
6.119827904262539
 20
-0.0000301150347113
 30
0.0
 11
1.499896725642348
 21
4.61990106358548
 31
0.0
  0
LINE
  5
BD3B
330
BD11
100
AcDbEntity
  8
0
  6
CONTINUOUS
100
AcDbLine
 10
6.775136745476159
 20
0.0181802528318542
 30
0.0
 11
5.699826040202669
 21
1.093490958105344
 31
0.0
  0
LINE
  5
BD3C
330
BD11
100
AcDbEntity
  8
0
  6
CONTINUOUS
100
AcDbLine
 10
6.983376846288489
 20
0.4834593610997118
 30
0.0
 11
5.908008617934405
 21
1.558827589453796
 31
0.0
  0
LINE
  5
BD3D
330
BD11
100
AcDbEntity
  8
0
  6
CONTINUOUS
100
AcDbLine
 10
5.377063484962296
 20
1.416253513345719
 30
0.0
 11
1.702276957014131
 21
5.091040041293883
 31
0.0
  0
LINE
  5
BD3E
330
BD11
100
AcDbEntity
  8
0
  6
CONTINUOUS
100
AcDbLine
 10
3.978745891735324
 20
3.488090315652877
 30
0.0
 11
2.000373521109399
 21
5.466462686278803
 31
0.0
  0
LINE
  5
BD3F
330
BD11
100
AcDbEntity
  8
0
  6
CONTINUOUS
100
AcDbLine
 10
7.191616947100819
 20
0.948738469367568
 30
0.0
 11
6.11619119566614
 21
2.024164220802247
 31
0.0
  0
LINE
  5
BD40
330
BD11
100
AcDbEntity
  8
0
  6
CONTINUOUS
100
AcDbLine
 10
7.399857047913149
 20
1.414017577635424
 30
0.0
 11
6.324373773397875
 21
2.489500852150698
 31
0.0
  0
LINE
  5
BD41
330
BD11
100
AcDbEntity
  8
0
  6
CONTINUOUS
100
AcDbLine
 10
7.608097148725479
 20
1.879296685903281
 30
0.0
 11
6.53255635112961
 21
2.95483748349915
 31
0.0
  0
LINE
  5
BD42
330
BD11
100
AcDbEntity
  8
0
  6
CONTINUOUS
100
AcDbLine
 10
7.816337249537808
 20
2.344575794171138
 30
0.0
 11
6.740738928861345
 21
3.420174114847601
 31
0.0
  0
LINE
  5
BD43
330
BD11
100
AcDbEntity
  8
0
  6
CONTINUOUS
100
AcDbLine
 10
3.310241080789734
 20
4.830114335678653
 30
0.0
 11
2.298470085204666
 21
5.84188533126372
 31
0.0
  0
LINE
  5
BD44
330
BD11
100
AcDbEntity
  8
0
  6
CONTINUOUS
100
AcDbLine
 10
3.60832983563551
 20
5.205544789913063
 30
0.0
 11
2.596566649299935
 21
6.217307976248638
 31
0.0
  0
LINE
  5
BD45
330
BD11
100
AcDbEntity
  8
0
  6
CONTINUOUS
100
AcDbLine
 10
3.906418590481286
 20
5.580975244147473
 30
0.0
 11
2.894663213395203
 21
6.592730621233557
 31
0.0
  0
LINE
  5
BD46
330
BD11
100
AcDbEntity
  8
0
  6
CONTINUOUS
100
AcDbLine
 10
4.204507345327062
 20
5.956405698381884
 30
0.0
 11
3.192759777490472
 21
6.968153266218474
 31
0.0
  0
LINE
  5
BD47
330
BD11
100
AcDbEntity
  8
0
  6
CONTINUOUS
100
AcDbLine
 10
8.466032252791512
 20
2.368399999997621
 30
0.0
 11
6.948921506593081
 21
3.885510746196053
 31
0.0
  0
LINE
  5
BD48
330
BD11
100
AcDbEntity
  8
0
  6
CONTINUOUS
100
AcDbLine
 10
9.139551461871699
 20
2.36839999999762
 30
0.0
 11
7.157104084324816
 21
4.350847377544504
 31
0.0
  0
LINE
  5
BD49
330
BD11
100
AcDbEntity
  8
0
  6
CONTINUOUS
100
AcDbLine
 10
4.502596100172839
 20
6.331836152616295
 30
0.0
 11
3.49085634158574
 21
7.343575911203393
 31
0.0
  0
LINE
  5
BD4A
330
BD11
100
AcDbEntity
  8
0
  6
CONTINUOUS
100
AcDbLine
 10
4.800684855018615
 20
6.707266606850705
 30
0.0
 11
3.788952905681008
 21
7.718998556188312
 31
0.0
  0
LINE
  5
BD4B
330
BD11
100
AcDbEntity
  8
0
  6
CONTINUOUS
100
AcDbLine
 10
12.18154012887317
 20
-0.0000694579236642
 30
0.0
 11
11.32140332908496
 21
0.8600673418645499
 31
0.0
  0
LINE
  5
BD4C
330
BD11
100
AcDbEntity
  8
0
  6
CONTINUOUS
100
AcDbLine
 10
12.85501608323566
 20
-0.0000262032059659
 30
0.0
 11
10.77672456435345
 21
2.078265315676246
 31
0.0
  0
LINE
  5
BD4D
330
BD11
100
AcDbEntity
  8
0
  6
CONTINUOUS
100
AcDbLine
 10
9.813070670951886
 20
2.36839999999762
 30
0.0
 11
8.51047067095321
 21
3.670999999996297
 31
0.0
  0
LINE
  5
BD4E
330
BD11
100
AcDbEntity
  8
0
  6
CONTINUOUS
100
AcDbLine
 10
10.48658988003207
 20
2.36839999999762
 30
0.0
 11
9.183989880033396
 21
3.670999999996297
 31
0.0
  0
LINE
  5
BD4F
330
BD11
100
AcDbEntity
  8
0
  6
CONTINUOUS
100
AcDbLine
 10
8.441048632286794
 20
3.740422038662712
 30
0.0
 11
7.365286662056551
 21
4.816184008892956
 31
0.0
  0
LINE
  5
BD50
330
BD11
100
AcDbEntity
  8
0
  6
CONTINUOUS
100
AcDbLine
 10
8.649187485808454
 20
4.205802394221237
 30
0.0
 11
7.573469239788285
 21
5.281520640241407
 31
0.0
  0
LINE
  5
BD51
330
BD11
100
AcDbEntity
  8
0
  6
CONTINUOUS
100
AcDbLine
 10
5.098773609864391
 20
7.082697061085115
 30
0.0
 11
4.087049469776277
 21
8.09442120117323
 31
0.0
  0
LINE
  5
BD52
330
BD11
100
AcDbEntity
  8
0
  6
CONTINUOUS
100
AcDbLine
 10
5.396862364710167
 20
7.458127515319526
 30
0.0
 11
4.385146033871544
 21
8.469843846158149
 31
0.0
  0
LINE
  5
BD53
330
BD11
100
AcDbEntity
  8
0
  6
CONTINUOUS
100
AcDbLine
 10
13.04801363231285
 20
0.4804954567970334
 30
0.0
 11
9.85750908911358
 21
3.670999999996297
 31
0.0
  0
LINE
  5
BD54
330
BD11
100
AcDbEntity
  8
0
  6
CONTINUOUS
100
AcDbLine
 10
8.857326339330116
 20
4.671182749779763
 30
0.0
 11
7.781651817520021
 21
5.746857271589858
 31
0.0
  0
LINE
  5
BD55
330
BD11
100
AcDbEntity
  8
0
  6
CONTINUOUS
100
AcDbLine
 10
5.694951119555943
 20
7.833557969553937
 30
0.0
 11
4.765409089118624
 21
8.763099999991255
 31
0.0
  0
LINE
  5
BD56
330
BD11
100
AcDbEntity
  8
0
  6
CONTINUOUS
100
AcDbLine
 10
12.50286117236978
 20
1.699167125820288
 30
0.0
 11
9.68611877250287
 21
4.515909525687196
 31
0.0
  0
LINE
  5
BD57
330
BD11
100
AcDbEntity
  8
0
  6
CONTINUOUS
100
AcDbLine
 10
9.065465192851777
 20
5.136563105338288
 30
0.0
 11
7.989834395251757
 21
6.21219390293831
 31
0.0
  0
LINE
  5
BD58
330
BD11
100
AcDbEntity
  8
0
  6
CONTINUOUS
100
AcDbLine
 10
5.993039874401719
 20
8.208988423788346
 30
0.0
 11
5.43892829819881
 21
8.763099999991255
 31
0.0
  0
LINE
  5
BD59
330
BD11
100
AcDbEntity
  8
0
  6
CONTINUOUS
100
AcDbLine
 10
11.95770871242671
 20
2.917838794843543
 30
0.0
 11
8.19801697298349
 21
6.677530534286761
 31
0.0
  0
LINE
  5
BD5A
330
BD11
100
AcDbEntity
  8
0
  6
CONTINUOUS
100
AcDbLine
 10
6.291128629247495
 20
8.584418878022756
 30
0.0
 11
6.112447507278997
 21
8.763099999991255
 31
0.0
  0
LINE
  5
BD5B
330
BD11
100
AcDbEntity
  8
0
  6
CONTINUOUS
100
AcDbLine
 10
11.41255625248364
 20
4.136510463866797
 30
0.0
 11
8.406199550715227
 21
7.142867165635211
 31
0.0
  0
LINE
  5
BD5C
330
BD11
100
AcDbEntity
  8
0
  6
CONTINUOUS
100
AcDbLine
 10
10.86740379254057
 20
5.355182132890051
 30
0.0
 11
8.614382128446962
 21
7.608203796983664
 31
0.0
  0
LINE
  5
BD5D
330
BD11
100
AcDbEntity
  8
0
  6
CONTINUOUS
100
AcDbLine
 10
10.3222513325975
 20
6.573853801913305
 30
0.0
 11
8.822564706178696
 21
8.073540428332114
 31
0.0
  0
LINE
  5
BD5E
330
BD11
100
AcDbEntity
  8
0
  6
CONTINUOUS
100
AcDbLine
 10
9.777098872654436
 20
7.792525470936562
 30
0.0
 11
9.030747283910433
 21
8.538877059680566
 31
0.0
  0
ENDBLK
  5
BEA0
330
BD11
100
AcDbEntity
  8
0
100
AcDbBlockEnd
  0
BLOCK
  5
BEA1
330
BD5F
100
AcDbEntity
  8
0
100
AcDbBlockBegin
  2
*X40
 70
     1
 10
0.0
 20
0.0
 30
0.0
  3
*X40
  1

  0
LINE
  5
BD60
330
BD5F
100
AcDbEntity
  8
0
  6
CONTINUOUS
100
AcDbLine
 10
10.67292308101235
 20
8.445076852443387
 30
0.0
 11
10.99094622856022
 21
8.763099999991255
 31
0.0
  0
LINE
  5
BD61
330
BD5F
100
AcDbEntity
  8
0
  6
CONTINUOUS
100
AcDbLine
 10
10.87250383178748
 20
7.971138394138331
 30
0.0
 11
11.6644654376404
 21
8.763099999991255
 31
0.0
  0
LINE
  5
BD62
330
BD5F
100
AcDbEntity
  8
0
  6
CONTINUOUS
100
AcDbLine
 10
11.07208458256261
 20
7.497199935833273
 30
0.0
 11
12.12126590876355
 21
8.546381262034211
 31
0.0
  0
LINE
  5
BD63
330
BD5F
100
AcDbEntity
  8
0
  6
CONTINUOUS
100
AcDbLine
 10
11.27166533333774
 20
7.023261477528216
 30
0.0
 11
12.32085164573666
 21
8.072447789927136
 31
0.0
  0
LINE
  5
BD64
330
BD5F
100
AcDbEntity
  8
0
  6
CONTINUOUS
100
AcDbLine
 10
11.47124608411287
 20
6.549323019223158
 30
0.0
 11
12.52043738270977
 21
7.59851431782006
 31
0.0
  0
LINE
  5
BD65
330
BD5F
100
AcDbEntity
  8
0
  6
CONTINUOUS
100
AcDbLine
 10
11.670826834888
 20
6.075384560918101
 30
0.0
 11
12.72002311968288
 21
7.124580845712984
 31
0.0
  0
LINE
  5
BD66
330
BD5F
100
AcDbEntity
  8
0
  6
CONTINUOUS
100
AcDbLine
 10
11.87040758566313
 20
5.601446102613043
 30
0.0
 11
12.91960885665599
 21
6.650647373605907
 31
0.0
  0
LINE
  5
BD67
330
BD5F
100
AcDbEntity
  8
0
  6
CONTINUOUS
100
AcDbLine
 10
12.06998833643825
 20
5.127507644307986
 30
0.0
 11
13.1191945936291
 21
6.176713901498832
 31
0.0
  0
LINE
  5
BD68
330
BD5F
100
AcDbEntity
  8
0
  6
CONTINUOUS
100
AcDbLine
 10
12.26956908721338
 20
4.65356918600293
 30
0.0
 11
13.31878033060221
 21
5.702780429391757
 31
0.0
  0
LINE
  5
BD69
330
BD5F
100
AcDbEntity
  8
0
  6
CONTINUOUS
100
AcDbLine
 10
12.46914983798851
 20
4.179630727697873
 30
0.0
 11
13.51836606757532
 21
5.228846957284683
 31
0.0
  0
LINE
  5
BD6A
330
BD5F
100
AcDbEntity
  8
0
  6
CONTINUOUS
100
AcDbLine
 10
12.66873058876364
 20
3.705692269392816
 30
0.0
 11
13.71795180454843
 21
4.754913485177607
 31
0.0
  0
LINE
  5
BD6B
330
BD5F
100
AcDbEntity
  8
0
  6
CONTINUOUS
100
AcDbLine
 10
12.86831133953877
 20
3.231753811087759
 30
0.0
 11
13.91753754152154
 21
4.280980013070531
 31
0.0
  0
LINE
  5
BD6C
330
BD5F
100
AcDbEntity
  8
0
  6
CONTINUOUS
100
AcDbLine
 10
13.0678920903139
 20
2.757815352782702
 30
0.0
 11
14.11712327849465
 21
3.807046540963456
 31
0.0
  0
LINE
  5
BD6D
330
BD5F
100
AcDbEntity
  8
0
  6
CONTINUOUS
100
AcDbLine
 10
13.26747284108903
 20
2.283876894477644
 30
0.0
 11
14.31670901546777
 21
3.333113068856379
 31
0.0
  0
LINE
  5
BD6E
330
BD5F
100
AcDbEntity
  8
0
  6
CONTINUOUS
100
AcDbLine
 10
16.36767838827179
 20
8.751678487061342
 30
0.0
 11
16.50332410898388
 21
8.887324207773432
 31
0.0
  0
LINE
  5
BD6F
330
BD5F
100
AcDbEntity
  8
0
  6
CONTINUOUS
100
AcDbLine
 10
15.96190732182191
 20
7.67238821153127
 30
0.0
 11
16.68735328004734
 21
8.397834169756699
 31
0.0
  0
LINE
  5
BD70
330
BD5F
100
AcDbEntity
  8
0
  6
CONTINUOUS
100
AcDbLine
 10
15.55613625537202
 20
6.593097936001196
 30
0.0
 11
16.87138245111079
 21
7.908344131739965
 31
0.0
  0
LINE
  5
BD71
330
BD5F
100
AcDbEntity
  8
0
  6
CONTINUOUS
100
AcDbLine
 10
15.15036518892213
 20
5.513807660471122
 30
0.0
 11
17.05541162217424
 21
7.418854093723231
 31
0.0
  0
LINE
  5
BD72
330
BD5F
100
AcDbEntity
  8
0
  6
CONTINUOUS
100
AcDbLine
 10
14.74459412247225
 20
4.434517384941048
 30
0.0
 11
17.2394407932377
 21
6.929364055706499
 31
0.0
  0
LINE
  5
BD73
330
BD5F
100
AcDbEntity
  8
0
  6
CONTINUOUS
100
AcDbLine
 10
14.33882305602236
 20
3.355227109410975
 30
0.0
 11
17.42346996430115
 21
6.439874017689766
 31
0.0
  0
LINE
  5
BD74
330
BD5F
100
AcDbEntity
  8
0
  6
CONTINUOUS
100
AcDbLine
 10
13.46705359186416
 20
1.809938436172586
 30
0.0
 11
16.0819338255367
 21
4.424818669845129
 31
0.0
  0
LINE
  5
BD75
330
BD5F
100
AcDbEntity
  8
0
  6
CONTINUOUS
100
AcDbLine
 10
16.63283254238972
 20
4.975717386698149
 30
0.0
 11
17.60749913536461
 21
5.950383979673033
 31
0.0
  0
LINE
  5
BD76
330
BD5F
100
AcDbEntity
  8
0
  6
CONTINUOUS
100
AcDbLine
 10
13.66663434263929
 20
1.335999977867529
 30
0.0
 11
15.67604797733754
 21
3.345413612565779
 31
0.0
  0
LINE
  5
BD77
330
BD5F
100
AcDbEntity
  8
0
  6
CONTINUOUS
100
AcDbLine
 10
13.86621509341442
 20
0.8620615195624723
 30
0.0
 11
15.27016212913838
 21
2.26600855528643
 31
0.0
  0
LINE
  5
BD78
330
BD5F
100
AcDbEntity
  8
0
  6
CONTINUOUS
100
AcDbLine
 10
16.81682257348267
 20
4.486188208710908
 30
0.0
 11
17.79152830642806
 21
5.460893941656299
 31
0.0
  0
LINE
  5
BD79
330
BD5F
100
AcDbEntity
  8
0
  6
CONTINUOUS
100
AcDbLine
 10
17.00081260457561
 20
3.996659030723667
 30
0.0
 11
17.97555747749151
 21
4.971403903639565
 31
0.0
  0
LINE
  5
BD7A
330
BD5F
100
AcDbEntity
  8
0
  6
CONTINUOUS
100
AcDbLine
 10
20.74362343514722
 20
8.412989070375462
 30
0.0
 11
21.09373436476302
 21
8.763099999991256
 31
0.0
  0
LINE
  5
BD7B
330
BD5F
100
AcDbEntity
  8
0
  6
CONTINUOUS
100
AcDbLine
 10
20.25401257174777
 20
7.249858997895826
 30
0.0
 11
21.7672535738432
 21
8.763099999991255
 31
0.0
  0
LINE
  5
BD7C
330
BD5F
100
AcDbEntity
  8
0
  6
CONTINUOUS
100
AcDbLine
 10
14.06579584418955
 20
0.3881230612574149
 30
0.0
 11
14.86427628093921
 21
1.186603498007082
 31
0.0
  0
LINE
  5
BD7D
330
BD5F
100
AcDbEntity
  8
0
  6
CONTINUOUS
100
AcDbLine
 10
14.26537659496467
 20
-0.0858153970476412
 30
0.0
 11
14.45839043274005
 21
0.1071984407277329
 31
0.0
  0
LINE
  5
BD7E
330
BD5F
100
AcDbEntity
  8
0
  6
CONTINUOUS
100
AcDbLine
 10
17.18480263566856
 20
3.507129852736426
 30
0.0
 11
18.15958664855496
 21
4.481913865622833
 31
0.0
  0
LINE
  5
BD7F
330
BD5F
100
AcDbEntity
  8
0
  6
CONTINUOUS
100
AcDbLine
 10
17.3687926667615
 20
3.017600674749186
 30
0.0
 11
18.34361581961842
 21
3.9924238276061
 31
0.0
  0
LINE
  5
BD80
330
BD5F
100
AcDbEntity
  8
0
  6
CONTINUOUS
100
AcDbLine
 10
19.76440170834832
 20
6.086728925416191
 30
0.0
 11
22.33924590259489
 21
8.661573119662755
 31
0.0
  0
LINE
  5
BD81
330
BD5F
100
AcDbEntity
  8
0
  6
CONTINUOUS
100
AcDbLine
 10
19.27479084494887
 20
4.923598852936555
 30
0.0
 11
21.84929622842713
 21
7.498104236414807
 31
0.0
  0
LINE
  5
BD82
330
BD5F
100
AcDbEntity
  8
0
  6
CONTINUOUS
100
AcDbLine
 10
17.55278269785445
 20
2.528071496761945
 30
0.0
 11
18.52764499068187
 21
3.502933789589366
 31
0.0
  0
LINE
  5
BD83
330
BD5F
100
AcDbEntity
  8
0
  6
CONTINUOUS
100
AcDbLine
 10
18.78517998154942
 20
3.760468780456919
 30
0.0
 11
21.35934655425936
 21
6.33463535316686
 31
0.0
  0
LINE
  5
BD84
330
BD5F
100
AcDbEntity
  8
0
  6
CONTINUOUS
100
AcDbLine
 10
17.73677272894739
 20
2.038542318774704
 30
0.0
 11
20.8693968800916
 21
5.171166469918914
 31
0.0
  0
LINE
  5
BD85
330
BD5F
100
AcDbEntity
  8
0
  6
CONTINUOUS
100
AcDbLine
 10
17.92076276004034
 20
1.549013140787464
 30
0.0
 11
20.37944720592384
 21
4.007697586670968
 31
0.0
  0
LINE
  5
BD86
330
BD5F
100
AcDbEntity
  8
0
  6
CONTINUOUS
100
AcDbLine
 10
18.10475279113329
 20
1.059483962800223
 30
0.0
 11
19.88949753175608
 21
2.84422870342302
 31
0.0
  0
LINE
  5
BD87
330
BD5F
100
AcDbEntity
  8
0
  6
CONTINUOUS
100
AcDbLine
 10
18.28874282222623
 20
0.5699547848129822
 30
0.0
 11
19.39954785758832
 21
1.680759820175074
 31
0.0
  0
LINE
  5
BD88
330
BD5F
100
AcDbEntity
  8
0
  6
CONTINUOUS
100
AcDbLine
 10
18.47273285331918
 20
0.0804256068257416
 30
0.0
 11
18.90959818342056
 21
0.517290936927127
 31
0.0
  0
LINE
  5
BD89
330
BD5F
100
AcDbEntity
  8
0
  6
CONTINUOUS
100
AcDbLine
 10
14.3590401358224
 20
-0.1570118376323384
 30
0.0
 11
14.24903296539946
 21
-0.0470046672093929
 31
0.0
  0
LINE
  5
BD8A
330
BD5F
100
AcDbEntity
  8
0
  6
CONTINUOUS
100
AcDbLine
 10
14.54309291258661
 20
0.332454594683643
 30
0.0
 11
13.75908329123172
 21
1.116464216038529
 31
0.0
  0
LINE
  5
BD8B
330
BD5F
100
AcDbEntity
  8
0
  6
CONTINUOUS
100
AcDbLine
 10
14.72714568935081
 20
0.8219210269996244
 30
0.0
 11
13.26913361706399
 21
2.27993309928645
 31
0.0
  0
LINE
  5
BD8C
330
BD5F
100
AcDbEntity
  8
0
  6
CONTINUOUS
100
AcDbLine
 10
14.91119846611502
 20
1.311387459315606
 30
0.0
 11
12.77918394289625
 21
3.443401982534371
 31
0.0
  0
LINE
  5
BD8D
330
BD5F
100
AcDbEntity
  8
0
  6
CONTINUOUS
100
AcDbLine
 10
15.09525124287922
 20
1.800853891631587
 30
0.0
 11
12.28923426872852
 21
4.606870865782293
 31
0.0
  0
LINE
  5
BD8E
330
BD5F
100
AcDbEntity
  8
0
  6
CONTINUOUS
100
AcDbLine
 10
15.27930401964343
 20
2.290320323947569
 30
0.0
 11
11.79928459456078
 21
5.770339749030213
 31
0.0
  0
LINE
  5
BD8F
330
BD5F
100
AcDbEntity
  8
0
  6
CONTINUOUS
100
AcDbLine
 10
15.46335679640763
 20
2.77978675626355
 30
0.0
 11
14.48885470994921
 21
3.754288842721972
 31
0.0
  0
LINE
  5
BD90
330
BD5F
100
AcDbEntity
  8
0
  6
CONTINUOUS
100
AcDbLine
 10
13.88507249233704
 20
4.358071060334137
 30
0.0
 11
11.30933492039305
 21
6.933808632278135
 31
0.0
  0
LINE
  5
BD91
330
BD5F
100
AcDbEntity
  8
0
  6
CONTINUOUS
100
AcDbLine
 10
18.75840522805855
 20
0.1582575336928151
 30
0.0
 11
18.25383727664818
 21
0.6628254851031863
 31
0.0
  0
LINE
  5
BD92
330
BD5F
100
AcDbEntity
  8
0
  6
CONTINUOUS
100
AcDbLine
 10
15.64740957317184
 20
3.269253188579531
 30
0.0
 11
14.67288388101266
 21
4.243778880738705
 31
0.0
  0
LINE
  5
BD93
330
BD5F
100
AcDbEntity
  8
0
  6
CONTINUOUS
100
AcDbLine
 10
13.39509276772158
 20
5.521569994029786
 30
0.0
 11
10.81938524622531
 21
8.097277515526056
 31
0.0
  0
LINE
  5
BD94
330
BD5F
100
AcDbEntity
  8
0
  6
CONTINUOUS
100
AcDbLine
 10
18.95798597883369
 20
0.6321959919978686
 30
0.0
 11
17.84825644852853
 21
1.741925522303024
 31
0.0
  0
LINE
  5
BD95
330
BD5F
100
AcDbEntity
  8
0
  6
CONTINUOUS
100
AcDbLine
 10
19.15756672960882
 20
1.106134450302922
 30
0.0
 11
17.44267562040888
 21
2.821025559502861
 31
0.0
  0
LINE
  5
BD96
330
BD5F
100
AcDbEntity
  8
0
  6
CONTINUOUS
100
AcDbLine
 10
15.83146234993604
 20
3.758719620895513
 30
0.0
 11
14.85691305207612
 21
4.733268918755439
 31
0.0
  0
LINE
  5
BD97
330
BD5F
100
AcDbEntity
  8
0
  6
CONTINUOUS
100
AcDbLine
 10
16.01551512670025
 20
4.248186053211494
 30
0.0
 11
15.04094222313957
 21
5.222758956772172
 31
0.0
  0
LINE
  5
BD98
330
BD5F
100
AcDbEntity
  8
0
  6
CONTINUOUS
100
AcDbLine
 10
12.90511304310612
 20
6.685068927725435
 30
0.0
 11
10.8270819708403
 21
8.763099999991255
 31
0.0
  0
LINE
  5
BD99
330
BD5F
100
AcDbEntity
  8
0
  6
CONTINUOUS
100
AcDbLine
 10
12.41513331849066
 20
7.848567861421083
 30
0.0
 11
11.50060117992049
 21
8.763099999991255
 31
0.0
  0
LINE
  5
BD9A
330
BD5F
100
AcDbEntity
  8
0
  6
CONTINUOUS
100
AcDbLine
 10
19.35714748038395
 20
1.580072908607975
 30
0.0
 11
17.03709479228923
 21
3.900125596702697
 31
0.0
  0
LINE
  5
BD9B
330
BD5F
100
AcDbEntity
  8
0
  6
CONTINUOUS
100
AcDbLine
 10
19.55672823115909
 20
2.054011366913028
 30
0.0
 11
16.63151396416958
 21
4.979225633902534
 31
0.0
  0
LINE
  5
BD9C
330
BD5F
100
AcDbEntity
  8
0
  6
CONTINUOUS
100
AcDbLine
 10
16.19956790346445
 20
4.737652485527476
 30
0.0
 11
15.22497139420302
 21
5.712248994788904
 31
0.0
  0
LINE
  5
BD9D
330
BD5F
100
AcDbEntity
  8
0
  6
CONTINUOUS
100
AcDbLine
 10
16.38362068022866
 20
5.227118917843457
 30
0.0
 11
15.40900056526648
 21
6.201739032805637
 31
0.0
  0
LINE
  5
BD9E
330
BD5F
100
AcDbEntity
  8
0
  6
CONTINUOUS
100
AcDbLine
 10
19.75630898193422
 20
2.527949825218081
 30
0.0
 11
18.70774536448286
 21
3.576513442669441
 31
0.0
  0
LINE
  5
BD9F
330
BD5F
100
AcDbEntity
  8
0
  6
CONTINUOUS
100
AcDbLine
 10
19.95588973270936
 20
3.001888283523134
 30
0.0
 11
18.90726987211446
 21
4.050508144118028
 31
0.0
  0
LINE
  5
BDA0
330
BD5F
100
AcDbEntity
  8
0
  6
CONTINUOUS
100
AcDbLine
 10
20.15547048348449
 20
3.475826741828186
 30
0.0
 11
19.10679437974606
 21
4.524502845566614
 31
0.0
  0
LINE
  5
BDA1
330
BD5F
100
AcDbEntity
  8
0
  6
CONTINUOUS
100
AcDbLine
 10
20.35505123425962
 20
3.94976520013324
 30
0.0
 11
19.30631888737766
 21
4.998497547015201
 31
0.0
  0
LINE
  5
BDA2
330
BD5F
100
AcDbEntity
  8
0
  6
CONTINUOUS
100
AcDbLine
 10
20.55463198503475
 20
4.423703658438292
 30
0.0
 11
19.50584339500926
 21
5.472492248463787
 31
0.0
  0
LINE
  5
BDA3
330
BD5F
100
AcDbEntity
  8
0
  6
CONTINUOUS
100
AcDbLine
 10
18.37481191085755
 20
3.909446896294752
 30
0.0
 11
15.59302973632993
 21
6.691229070822371
 31
0.0
  0
LINE
  5
BDA4
330
BD5F
100
AcDbEntity
  8
0
  6
CONTINUOUS
100
AcDbLine
 10
17.96904084440766
 20
4.988737171824825
 30
0.0
 11
15.77705890739338
 21
7.180719108839104
 31
0.0
  0
LINE
  5
BDA5
330
BD5F
100
AcDbEntity
  8
0
  6
CONTINUOUS
100
AcDbLine
 10
17.56326977795777
 20
6.068027447354899
 30
0.0
 11
15.96108807845684
 21
7.670209146855838
 31
0.0
  0
LINE
  5
BDA6
330
BD5F
100
AcDbEntity
  8
0
  6
CONTINUOUS
100
AcDbLine
 10
17.15749871150789
 20
7.147317722884972
 30
0.0
 11
16.14511724952029
 21
8.15969918487257
 31
0.0
  0
LINE
  5
BDA7
330
BD5F
100
AcDbEntity
  8
0
  6
CONTINUOUS
100
AcDbLine
 10
16.751727645058
 20
8.226607998415046
 30
0.0
 11
16.32914642058374
 21
8.649189222889303
 31
0.0
  0
LINE
  5
BDA8
330
BD5F
100
AcDbEntity
  8
0
  6
CONTINUOUS
100
AcDbLine
 10
20.75421273580989
 20
4.897642116743345
 30
0.0
 11
19.70536790264086
 21
5.946486949912374
 31
0.0
  0
LINE
  5
BDA9
330
BD5F
100
AcDbEntity
  8
0
  6
CONTINUOUS
100
AcDbLine
 10
20.95379348658502
 20
5.371580575048398
 30
0.0
 11
19.90489241027246
 21
6.42048165136096
 31
0.0
  0
LINE
  5
BDAA
330
BD5F
100
AcDbEntity
  8
0
  6
CONTINUOUS
100
AcDbLine
 10
21.15337423736015
 20
5.845519033353452
 30
0.0
 11
20.10441691790406
 21
6.894476352809547
 31
0.0
  0
LINE
  5
BDAB
330
BD5F
100
AcDbEntity
  8
0
  6
CONTINUOUS
100
AcDbLine
 10
21.35295498813529
 20
6.319457491658505
 30
0.0
 11
20.30394142553566
 21
7.368471054258134
 31
0.0
  0
LINE
  5
BDAC
330
BD5F
100
AcDbEntity
  8
0
  6
CONTINUOUS
100
AcDbLine
 10
21.55253573891042
 20
6.793395949963558
 30
0.0
 11
20.50346593316726
 21
7.842465755706721
 31
0.0
  0
LINE
  5
BDAD
330
BD5F
100
AcDbEntity
  8
0
  6
CONTINUOUS
100
AcDbLine
 10
21.75211648968556
 20
7.267334408268612
 30
0.0
 11
20.70299044079886
 21
8.316460457155308
 31
0.0
  0
LINE
  5
BDAE
330
BD5F
100
AcDbEntity
  8
0
  6
CONTINUOUS
100
AcDbLine
 10
21.95169724046069
 20
7.741272866573663
 30
0.0
 11
20.9298701070431
 21
8.763099999991256
 31
0.0
  0
LINE
  5
BDAF
330
BD5F
100
AcDbEntity
  8
0
  6
CONTINUOUS
100
AcDbLine
 10
22.15127799123582
 20
8.215211324878716
 30
0.0
 11
21.60338931612328
 21
8.763099999991256
 31
0.0
  0
LINE
  5
BDB0
330
BD5F
100
AcDbEntity
  8
0
  6
CONTINUOUS
100
AcDbLine
 10
22.35085874201096
 20
8.689149783183769
 30
0.0
 11
22.27690852520347
 21
8.763099999991255
 31
0.0
  0
ENDBLK
  5
BEA2
330
BD5F
100
AcDbEntity
  8
0
100
AcDbBlockEnd
  0
BLOCK
  5
BEA3
330
BDB1
100
AcDbEntity
  8
0
100
AcDbBlockBegin
  2
*X41
 70
     1
 10
0.0
 20
0.0
 30
0.0
  3
*X41
  1

  0
LINE
  5
BDB2
330
BDB1
100
AcDbEntity
  8
0
  6
CONTINUOUS
100
AcDbLine
 10
23.19462913593892
 20
8.169917934846424
 30
0.0
 11
23.70775465517246
 21
8.683043454079957
 31
0.0
  0
LINE
  5
BDB3
330
BDB1
100
AcDbEntity
  8
0
  6
CONTINUOUS
100
AcDbLine
 10
22.64923161835078
 20
6.951001208178088
 30
0.0
 11
23.9159364069932
 21
8.217705996820516
 31
0.0
  0
LINE
  5
BDB4
330
BDB1
100
AcDbEntity
  8
0
  6
CONTINUOUS
100
AcDbLine
 10
22.10383410076263
 20
5.732084481509751
 30
0.0
 11
24.12411815881395
 21
7.752368539561078
 31
0.0
  0
LINE
  5
BDB5
330
BDB1
100
AcDbEntity
  8
0
  6
CONTINUOUS
100
AcDbLine
 10
21.55843658317447
 20
4.513167754841414
 30
0.0
 11
24.3322999106347
 21
7.287031082301639
 31
0.0
  0
LINE
  5
BDB6
330
BDB1
100
AcDbEntity
  8
0
  6
CONTINUOUS
100
AcDbLine
 10
21.01303906558632
 20
3.294251028173077
 30
0.0
 11
24.54048166245544
 21
6.821693625042199
 31
0.0
  0
LINE
  5
BDB7
330
BDB1
100
AcDbEntity
  8
0
  6
CONTINUOUS
100
AcDbLine
 10
20.46764154799817
 20
2.075334301504738
 30
0.0
 11
23.28571549467848
 21
4.89340824818505
 31
0.0
  0
LINE
  5
BDB8
330
BDB1
100
AcDbEntity
  8
0
  6
CONTINUOUS
100
AcDbLine
 10
19.92224403041002
 20
0.8564175748364002
 30
0.0
 11
22.74075865492779
 21
3.674932199354171
 31
0.0
  0
LINE
  5
BDB9
330
BDB1
100
AcDbEntity
  8
0
  6
CONTINUOUS
100
AcDbLine
 10
23.67305085490148
 20
5.280743608408048
 30
0.0
 11
24.74866341427619
 21
6.356356167782759
 31
0.0
  0
LINE
  5
BDBA
330
BDB1
100
AcDbEntity
  8
0
  6
CONTINUOUS
100
AcDbLine
 10
23.88118970842314
 20
4.815363252849522
 30
0.0
 11
24.95684516609694
 21
5.89101871052332
 31
0.0
  0
LINE
  5
BDBB
330
BDB1
100
AcDbEntity
  8
0
  6
CONTINUOUS
100
AcDbLine
 10
19.73925852647308
 20
-0.0000871381807288
 30
0.0
 11
23.4103456646501
 21
3.670999999996297
 31
0.0
  0
LINE
  5
BDBC
330
BDB1
100
AcDbEntity
  8
0
  6
CONTINUOUS
100
AcDbLine
 10
24.0893285619448
 20
4.349982897290997
 30
0.0
 11
25.16502691791769
 21
5.42568125326388
 31
0.0
  0
LINE
  5
BDBD
330
BDB1
100
AcDbEntity
  8
0
  6
CONTINUOUS
100
AcDbLine
 10
20.41282099582748
 20
-0.0000438779065108
 30
0.0
 11
21.64944178675636
 21
1.236576913022366
 31
0.0
  0
LINE
  5
BDBE
330
BDB1
100
AcDbEntity
  8
0
  6
CONTINUOUS
100
AcDbLine
 10
22.78126487373161
 20
2.36839999999762
 30
0.0
 11
24.08386487373029
 21
3.670999999996297
 31
0.0
  0
LINE
  5
BDBF
330
BDB1
100
AcDbEntity
  8
0
  6
CONTINUOUS
100
AcDbLine
 10
24.29746741546646
 20
3.884602541732471
 30
0.0
 11
25.37320866973843
 21
4.960343796004441
 31
0.0
  0
LINE
  5
BDC0
330
BDB1
100
AcDbEntity
  8
0
  6
CONTINUOUS
100
AcDbLine
 10
21.08638346518189
 20
-0.0000006176322938
 30
0.0
 11
21.10379033335899
 21
0.0174062505448083
 31
0.0
  0
LINE
  5
BDC1
330
BDB1
100
AcDbEntity
  8
0
  6
CONTINUOUS
100
AcDbLine
 10
23.4547840828118
 20
2.36839999999762
 30
0.0
 11
25.58139042155918
 21
4.495006338745002
 31
0.0
  0
LINE
  5
BDC2
330
BDB1
100
AcDbEntity
  8
0
  6
CONTINUOUS
100
AcDbLine
 10
29.30199999996933
 20
8.215615917155148
 30
0.0
 11
29.84948408280543
 21
8.763099999991255
 31
0.0
  0
LINE
  5
BDC3
330
BDB1
100
AcDbEntity
  8
0
  6
CONTINUOUS
100
AcDbLine
 10
24.12830329189199
 20
2.36839999999762
 30
0.0
 11
25.78957217337993
 21
4.029668881485562
 31
0.0
  0
LINE
  5
BDC4
330
BDB1
100
AcDbEntity
  8
0
  6
CONTINUOUS
100
AcDbLine
 10
29.30199999996933
 20
7.54209670807496
 30
0.0
 11
30.52300329188562
 21
8.763099999991255
 31
0.0
  0
LINE
  5
BDC5
330
BDB1
100
AcDbEntity
  8
0
  6
CONTINUOUS
100
AcDbLine
 10
24.80182250097217
 20
2.36839999999762
 30
0.0
 11
25.99775392520067
 21
3.564331424226122
 31
0.0
  0
LINE
  5
BDC6
330
BDB1
100
AcDbEntity
  8
0
  6
CONTINUOUS
100
AcDbLine
 10
29.30199999996933
 20
6.868577498994774
 30
0.0
 11
30.74199999996926
 21
8.308577498994712
 31
0.0
  0
LINE
  5
BDC7
330
BDB1
100
AcDbEntity
  8
0
  6
CONTINUOUS
100
AcDbLine
 10
25.13028238392013
 20
2.023340673865392
 30
0.0
 11
26.20593567702142
 21
3.098993966966683
 31
0.0
  0
LINE
  5
BDC8
330
BDB1
100
AcDbEntity
  8
0
  6
CONTINUOUS
100
AcDbLine
 10
25.33838066033617
 20
1.557919741201244
 30
0.0
 11
26.41411742884217
 21
2.633656509707244
 31
0.0
  0
LINE
  5
BDC9
330
BDB1
100
AcDbEntity
  8
0
  6
CONTINUOUS
100
AcDbLine
 10
25.54647893675221
 20
1.092498808537098
 30
0.0
 11
26.62229918066291
 21
2.168319052447804
 31
0.0
  0
LINE
  5
BDCA
330
BDB1
100
AcDbEntity
  8
0
  6
CONTINUOUS
100
AcDbLine
 10
25.75457721316825
 20
0.62707787587295
 30
0.0
 11
26.83048093248366
 21
1.702981595188365
 31
0.0
  0
LINE
  5
BDCB
330
BDB1
100
AcDbEntity
  8
0
  6
CONTINUOUS
100
AcDbLine
 10
29.30199999996933
 20
6.195058289914587
 30
0.0
 11
30.74199999996926
 21
7.635058289914522
 31
0.0
  0
LINE
  5
BDCC
330
BDB1
100
AcDbEntity
  8
0
  6
CONTINUOUS
100
AcDbLine
 10
29.30199999996933
 20
5.521539080834401
 30
0.0
 11
30.74199999996926
 21
6.961539080834331
 31
0.0
  0
LINE
  5
BDCD
330
BDB1
100
AcDbEntity
  8
0
  6
CONTINUOUS
100
AcDbLine
 10
29.30199999996933
 20
4.848019871754214
 30
0.0
 11
30.74199999996925
 21
6.288019871754143
 31
0.0
  0
LINE
  5
BDCE
330
BDB1
100
AcDbEntity
  8
0
  6
CONTINUOUS
100
AcDbLine
 10
29.30199999996933
 20
4.174500662674028
 30
0.0
 11
30.74199999996925
 21
5.614500662673953
 31
0.0
  0
LINE
  5
BDCF
330
BDB1
100
AcDbEntity
  8
0
  6
CONTINUOUS
100
AcDbLine
 10
25.96267548958429
 20
0.1616569432088024
 30
0.0
 11
27.18411854636669
 21
1.383099999991207
 31
0.0
  0
LINE
  5
BDD0
330
BDB1
100
AcDbEntity
  8
0
  6
CONTINUOUS
100
AcDbLine
 10
29.30199999996933
 20
3.500981453593841
 30
0.0
 11
30.74199999996925
 21
4.940981453593762
 31
0.0
  0
LINE
  5
BDD1
330
BDB1
100
AcDbEntity
  8
0
  6
CONTINUOUS
100
AcDbLine
 10
26.50763775544691
 20
0.0330999999912356
 30
0.0
 11
27.85763775544689
 21
1.383099999991223
 31
0.0
  0
LINE
  5
BDD2
330
BDB1
100
AcDbEntity
  8
0
  6
CONTINUOUS
100
AcDbLine
 10
29.30199999996933
 20
2.827462244513656
 30
0.0
 11
30.74199999996925
 21
4.267462244513574
 31
0.0
  0
LINE
  5
BDD3
330
BDB1
100
AcDbEntity
  8
0
  6
CONTINUOUS
100
AcDbLine
 10
27.18115696452709
 20
0.0330999999912356
 30
0.0
 11
28.55073879889363
 21
1.402681834357775
 31
0.0
  0
LINE
  5
BDD4
330
BDB1
100
AcDbEntity
  8
0
  6
CONTINUOUS
100
AcDbLine
 10
29.28241816560272
 20
2.134361201066866
 30
0.0
 11
30.74199999996924
 21
3.593943035433383
 31
0.0
  0
LINE
  5
BDD5
330
BDB1
100
AcDbEntity
  8
0
  6
CONTINUOUS
100
AcDbLine
 10
27.85467617360728
 20
0.0330999999912356
 30
0.0
 11
30.74199999996924
 21
2.920423826353195
 31
0.0
  0
LINE
  5
BDD6
330
BDB1
100
AcDbEntity
  8
0
  6
CONTINUOUS
100
AcDbLine
 10
28.53897559587887
 20
0.0438802131826428
 30
0.0
 11
30.73121978677781
 21
2.236124404081585
 31
0.0
  0
LINE
  5
BDD7
330
BDB1
100
AcDbEntity
  8
0
  6
CONTINUOUS
100
AcDbLine
 10
29.45140055588722
 20
0.2827859641107988
 30
0.0
 11
30.49231403584965
 21
1.323699444073236
 31
0.0
  0
LINE
  5
BDD8
330
BDB1
100
AcDbEntity
  8
0
  6
CONTINUOUS
100
AcDbLine
 10
19.59027867740337
 20
-0.0000967065718083
 30
0.0
 11
19.55485265190471
 21
0.035329318926844
 31
0.0
  0
LINE
  5
BDD9
330
BDB1
100
AcDbEntity
  8
0
  6
CONTINUOUS
100
AcDbLine
 10
20.26375463176586
 20
-0.0000534518541091
 30
0.0
 11
19.76305575737534
 21
0.5006454225364014
 31
0.0
  0
LINE
  5
BDDA
330
BDB1
100
AcDbEntity
  8
0
  6
CONTINUOUS
100
AcDbLine
 10
20.93723058612834
 20
-0.0000101971364099
 30
0.0
 11
19.97125886284597
 21
0.965961526145958
 31
0.0
  0
LINE
  5
BDDB
330
BDB1
100
AcDbEntity
  8
0
  6
CONTINUOUS
100
AcDbLine
 10
21.25514828313686
 20
0.355591314935257
 30
0.0
 11
20.1794619683166
 21
1.431277629755512
 31
0.0
  0
LINE
  5
BDDC
330
BDB1
100
AcDbEntity
  8
0
  6
CONTINUOUS
100
AcDbLine
 10
21.46338838394921
 20
0.8208704232030986
 30
0.0
 11
20.38766507378723
 21
1.896593733365069
 31
0.0
  0
LINE
  5
BDDD
330
BDB1
100
AcDbEntity
  8
0
  6
CONTINUOUS
100
AcDbLine
 10
21.67162848476155
 20
1.28614953147094
 30
0.0
 11
20.59586817925786
 21
2.361909836974626
 31
0.0
  0
LINE
  5
BDDE
330
BDB1
100
AcDbEntity
  8
0
  6
CONTINUOUS
100
AcDbLine
 10
21.8798685855739
 20
1.751428639738782
 30
0.0
 11
20.80407128472849
 21
2.827225940584183
 31
0.0
  0
LINE
  5
BDDF
330
BDB1
100
AcDbEntity
  8
0
  6
CONTINUOUS
100
AcDbLine
 10
22.08810868638624
 20
2.216707748006623
 30
0.0
 11
21.01227439019912
 21
3.292542044193739
 31
0.0
  0
LINE
  5
BDE0
330
BDB1
100
AcDbEntity
  8
0
  6
CONTINUOUS
100
AcDbLine
 10
22.60993564347543
 20
2.36839999999762
 30
0.0
 11
21.22047749566975
 21
3.757858147803296
 31
0.0
  0
LINE
  5
BDE1
330
BDB1
100
AcDbEntity
  8
0
  6
CONTINUOUS
100
AcDbLine
 10
23.28345485255561
 20
2.36839999999762
 30
0.0
 11
21.42868060114038
 21
4.223174251412853
 31
0.0
  0
LINE
  5
BDE2
330
BDB1
100
AcDbEntity
  8
0
  6
CONTINUOUS
100
AcDbLine
 10
26.29227406164219
 20
0.0330999999912356
 30
0.0
 11
25.80009199592872
 21
0.5252820657046957
 31
0.0
  0
LINE
  5
BDE3
330
BDB1
100
AcDbEntity
  8
0
  6
CONTINUOUS
100
AcDbLine
 10
23.9569740616358
 20
2.36839999999762
 30
0.0
 11
21.63688370661101
 21
4.688490355022409
 31
0.0
  0
LINE
  5
BDE4
330
BDB1
100
AcDbEntity
  8
0
  6
CONTINUOUS
100
AcDbLine
 10
26.96579327072237
 20
0.0330999999912356
 30
0.0
 11
25.2554132311971
 21
1.743480039516508
 31
0.0
  0
LINE
  5
BDE5
330
BDB1
100
AcDbEntity
  8
0
  6
CONTINUOUS
100
AcDbLine
 10
24.63049327071599
 20
2.36839999999762
 30
0.0
 11
23.32789327071731
 21
3.670999999996297
 31
0.0
  0
LINE
  5
BDE6
330
BDB1
100
AcDbEntity
  8
0
  6
CONTINUOUS
100
AcDbLine
 10
22.92098674744635
 20
4.077906523267254
 30
0.0
 11
21.84508681208164
 21
5.153806458631966
 31
0.0
  0
LINE
  5
BDE7
330
BDB1
100
AcDbEntity
  8
0
  6
CONTINUOUS
100
AcDbLine
 10
27.63931247980256
 20
0.0330999999912356
 30
0.0
 11
24.0014124797975
 21
3.670999999996297
 31
0.0
  0
LINE
  5
BDE8
330
BDB1
100
AcDbEntity
  8
0
  6
CONTINUOUS
100
AcDbLine
 10
23.129125600968
 20
4.5432868788258
 30
0.0
 11
22.05328991755227
 21
5.619122562241522
 31
0.0
  0
LINE
  5
BDE9
330
BDB1
100
AcDbEntity
  8
0
  6
CONTINUOUS
100
AcDbLine
 10
28.31283168888275
 20
0.0330999999912356
 30
0.0
 11
24.16488385994816
 21
4.181047828925828
 31
0.0
  0
LINE
  5
BDEA
330
BDB1
100
AcDbEntity
  8
0
  6
CONTINUOUS
100
AcDbLine
 10
23.33726445448964
 20
5.008667234384345
 30
0.0
 11
22.2614930230229
 21
6.084438665851079
 31
0.0
  0
LINE
  5
BDEB
330
BDB1
100
AcDbEntity
  8
0
  6
CONTINUOUS
100
AcDbLine
 10
28.92085740005492
 20
0.0985934978992438
 30
0.0
 11
27.63635089796295
 21
1.383099999991217
 31
0.0
  0
LINE
  5
BDEC
330
BDB1
100
AcDbEntity
  8
0
  6
CONTINUOUS
100
AcDbLine
 10
26.43704649509776
 20
2.582404402856405
 30
0.0
 11
23.61992702019732
 21
5.399523877756844
 31
0.0
  0
LINE
  5
BDED
330
BDB1
100
AcDbEntity
  8
0
  6
CONTINUOUS
100
AcDbLine
 10
23.54540330801128
 20
5.47404758994289
 30
0.0
 11
22.46969612849353
 21
6.549754769460635
 31
0.0
  0
LINE
  5
BDEE
330
BDB1
100
AcDbEntity
  8
0
  6
CONTINUOUS
100
AcDbLine
 10
29.42225615078443
 20
0.2707139562499279
 30
0.0
 11
28.30987010704312
 21
1.383099999991234
 31
0.0
  0
LINE
  5
BDEF
330
BDB1
100
AcDbEntity
  8
0
  6
CONTINUOUS
100
AcDbLine
 10
25.89179548232307
 20
3.801174624711282
 30
0.0
 11
22.67789923396416
 21
7.015070873070191
 31
0.0
  0
LINE
  5
BDF0
330
BDB1
100
AcDbEntity
  8
0
  6
CONTINUOUS
100
AcDbLine
 10
29.83624534690007
 20
0.5302439692144705
 30
0.0
 11
28.85811781497101
 21
1.508371501143527
 31
0.0
  0
LINE
  5
BDF1
330
BDB1
100
AcDbEntity
  8
0
  6
CONTINUOUS
100
AcDbLine
 10
25.34654446954838
 20
5.01994484656616
 30
0.0
 11
22.88610233943479
 21
7.480386976679748
 31
0.0
  0
LINE
  5
BDF2
330
BDB1
100
AcDbEntity
  8
0
  6
CONTINUOUS
100
AcDbLine
 10
30.17865975401872
 20
0.8613487711760022
 30
0.0
 11
29.18888744090175
 21
1.851121084292977
 31
0.0
  0
LINE
  5
BDF3
330
BDB1
100
AcDbEntity
  8
0
  6
CONTINUOUS
100
AcDbLine
 10
24.80129345677369
 20
6.238715068421037
 30
0.0
 11
23.09430544490542
 21
7.945703080289305
 31
0.0
  0
LINE
  5
BDF4
330
BDB1
100
AcDbEntity
  8
0
  6
CONTINUOUS
100
AcDbLine
 10
30.45496647202376
 20
1.258561262251155
 30
0.0
 11
29.30199999996933
 21
2.411527734305588
 31
0.0
  0
LINE
  5
BDF5
330
BDB1
100
AcDbEntity
  8
0
  6
CONTINUOUS
100
AcDbLine
 10
24.256042443999
 20
7.457485290275915
 30
0.0
 11
23.30250855037605
 21
8.411019183898862
 31
0.0
  0
LINE
  5
BDF6
330
BDB1
100
AcDbEntity
  8
0
  6
CONTINUOUS
100
AcDbLine
 10
30.64868582078271
 20
1.738361122572387
 30
0.0
 11
29.30199999996933
 21
3.085046943385775
 31
0.0
  0
LINE
  5
BDF7
330
BDB1
100
AcDbEntity
  8
0
  6
CONTINUOUS
100
AcDbLine
 10
23.71079143122431
 20
8.676255512130794
 30
0.0
 11
23.51071165584668
 21
8.876335287508416
 31
0.0
  0
LINE
  5
BDF8
330
BDB1
100
AcDbEntity
  8
0
  6
CONTINUOUS
100
AcDbLine
 10
30.73802122914428
 20
2.322544923291007
 30
0.0
 11
29.30199999996933
 21
3.758566152465961
 31
0.0
  0
LINE
  5
BDF9
330
BDB1
100
AcDbEntity
  8
0
  6
CONTINUOUS
100
AcDbLine
 10
30.74199999996924
 20
2.992085361546236
 30
0.0
 11
29.30199999996933
 21
4.432085361546148
 31
0.0
  0
LINE
  5
BDFA
330
BDB1
100
AcDbEntity
  8
0
  6
CONTINUOUS
100
AcDbLine
 10
30.74199999996924
 20
3.665604570626419
 30
0.0
 11
29.30199999996933
 21
5.105604570626333
 31
0.0
  0
LINE
  5
BDFB
330
BDB1
100
AcDbEntity
  8
0
  6
CONTINUOUS
100
AcDbLine
 10
30.74199999996925
 20
4.339123779706602
 30
0.0
 11
29.30199999996933
 21
5.77912377970652
 31
0.0
  0
LINE
  5
BDFC
330
BDB1
100
AcDbEntity
  8
0
  6
CONTINUOUS
100
AcDbLine
 10
30.74199999996925
 20
5.012642988786785
 30
0.0
 11
29.30199999996933
 21
6.452642988786707
 31
0.0
  0
LINE
  5
BDFD
330
BDB1
100
AcDbEntity
  8
0
  6
CONTINUOUS
100
AcDbLine
 10
30.74199999996925
 20
5.68616219786697
 30
0.0
 11
29.30199999996933
 21
7.126162197866894
 31
0.0
  0
LINE
  5
BDFE
330
BDB1
100
AcDbEntity
  8
0
  6
CONTINUOUS
100
AcDbLine
 10
30.74199999996925
 20
6.359681406947153
 30
0.0
 11
29.30199999996933
 21
7.799681406947081
 31
0.0
  0
LINE
  5
BDFF
330
BDB1
100
AcDbEntity
  8
0
  6
CONTINUOUS
100
AcDbLine
 10
30.74199999996926
 20
7.033200616027337
 30
0.0
 11
29.30199999996933
 21
8.473200616027269
 31
0.0
  0
LINE
  5
BE00
330
BDB1
100
AcDbEntity
  8
0
  6
CONTINUOUS
100
AcDbLine
 10
30.74199999996926
 20
7.706719825107518
 30
0.0
 11
29.68561982508552
 21
8.763099999991255
 31
0.0
  0
LINE
  5
BE01
330
BDB1
100
AcDbEntity
  8
0
  6
CONTINUOUS
100
AcDbLine
 10
30.74199999996926
 20
8.380239034187703
 30
0.0
 11
30.35913903416571
 21
8.763099999991255
 31
0.0
  0
ENDBLK
  5
BEA4
330
BDB1
100
AcDbEntity
  8
0
100
AcDbBlockEnd
  0
BLOCK
  5
BEA5
330
BE02
100
AcDbEntity
  8
0
100
AcDbBlockBegin
  2
*X42
 70
     1
 10
0.0
 20
0.0
 30
0.0
  3
*X42
  1

  0
LINE
  5
BE03
330
BE02
100
AcDbEntity
  8
0
  6
CONTINUOUS
100
AcDbLine
 10
31.64199999996833
 20
8.535058289913598
 30
0.0
 11
31.87004171004599
 21
8.763099999991255
 31
0.0
  0
LINE
  5
BE04
330
BE02
100
AcDbEntity
  8
0
  6
CONTINUOUS
100
AcDbLine
 10
31.64199999996833
 20
7.861539080833412
 30
0.0
 11
32.54356091912618
 21
8.763099999991255
 31
0.0
  0
LINE
  5
BE05
330
BE02
100
AcDbEntity
  8
0
  6
CONTINUOUS
100
AcDbLine
 10
31.64199999996833
 20
7.188019871753226
 30
0.0
 11
33.08199999996839
 21
8.628019871753281
 31
0.0
  0
LINE
  5
BE06
330
BE02
100
AcDbEntity
  8
0
  6
CONTINUOUS
100
AcDbLine
 10
31.64199999996833
 20
6.51450066267304
 30
0.0
 11
33.08199999996839
 21
7.954500662673095
 31
0.0
  0
LINE
  5
BE07
330
BE02
100
AcDbEntity
  8
0
  6
CONTINUOUS
100
AcDbLine
 10
31.64199999996833
 20
5.840981453592853
 30
0.0
 11
33.08199999996839
 21
7.280981453592908
 31
0.0
  0
LINE
  5
BE08
330
BE02
100
AcDbEntity
  8
0
  6
CONTINUOUS
100
AcDbLine
 10
31.64199999996833
 20
5.167462244512667
 30
0.0
 11
33.08199999996839
 21
6.607462244512721
 31
0.0
  0
LINE
  5
BE09
330
BE02
100
AcDbEntity
  8
0
  6
CONTINUOUS
100
AcDbLine
 10
31.64199999996833
 20
4.493943035432481
 30
0.0
 11
33.08199999996839
 21
5.933943035432535
 31
0.0
  0
LINE
  5
BE0A
330
BE02
100
AcDbEntity
  8
0
  6
CONTINUOUS
100
AcDbLine
 10
31.64199999996833
 20
3.820423826352293
 30
0.0
 11
33.08199999996839
 21
5.260423826352348
 31
0.0
  0
LINE
  5
BE0B
330
BE02
100
AcDbEntity
  8
0
  6
CONTINUOUS
100
AcDbLine
 10
31.64199999996833
 20
3.146904617272106
 30
0.0
 11
33.08199999996839
 21
4.586904617272161
 31
0.0
  0
LINE
  5
BE0C
330
BE02
100
AcDbEntity
  8
0
  6
CONTINUOUS
100
AcDbLine
 10
36.23199999996837
 20
8.410423826352325
 30
0.0
 11
36.5846761736073
 21
8.763099999991255
 31
0.0
  0
LINE
  5
BE0D
330
BE02
100
AcDbEntity
  8
0
  6
CONTINUOUS
100
AcDbLine
 10
36.23199999996837
 20
7.73690461727214
 30
0.0
 11
37.25819538268748
 21
8.763099999991255
 31
0.0
  0
LINE
  5
BE0E
330
BE02
100
AcDbEntity
  8
0
  6
CONTINUOUS
100
AcDbLine
 10
31.64257403601376
 20
2.473959444237348
 30
0.0
 11
33.08199999996839
 21
3.913385408191974
 31
0.0
  0
LINE
  5
BE0F
330
BE02
100
AcDbEntity
  8
0
  6
CONTINUOUS
100
AcDbLine
 10
36.23199999996837
 20
7.063385408191953
 30
0.0
 11
37.67199999996831
 21
8.503385408191894
 31
0.0
  0
LINE
  5
BE10
330
BE02
100
AcDbEntity
  8
0
  6
CONTINUOUS
100
AcDbLine
 10
31.72013636841932
 20
1.87800256756272
 30
0.0
 11
33.08199999996839
 21
3.239866199111788
 31
0.0
  0
LINE
  5
BE11
330
BE02
100
AcDbEntity
  8
0
  6
CONTINUOUS
100
AcDbLine
 10
36.23199999996837
 20
6.389866199111767
 30
0.0
 11
37.67199999996831
 21
7.829866199111708
 31
0.0
  0
LINE
  5
BE12
330
BE02
100
AcDbEntity
  8
0
  6
CONTINUOUS
100
AcDbLine
 10
31.89042734314753
 20
1.374774333210744
 30
0.0
 11
33.08199999996839
 21
2.566346990031601
 31
0.0
  0
LINE
  5
BE13
330
BE02
100
AcDbEntity
  8
0
  6
CONTINUOUS
100
AcDbLine
 10
36.23199999996837
 20
5.71634699003158
 30
0.0
 11
37.67199999996831
 21
7.156346990031521
 31
0.0
  0
LINE
  5
BE14
330
BE02
100
AcDbEntity
  8
0
  6
CONTINUOUS
100
AcDbLine
 10
32.14210568064475
 20
0.952933461627778
 30
0.0
 11
33.18745552475986
 21
1.998283305742888
 31
0.0
  0
LINE
  5
BE15
330
BE02
100
AcDbEntity
  8
0
  6
CONTINUOUS
100
AcDbLine
 10
36.23199999996837
 20
5.042827780951393
 30
0.0
 11
37.67199999996831
 21
6.482827780951334
 31
0.0
  0
LINE
  5
BE16
330
BE02
100
AcDbEntity
  8
0
  6
CONTINUOUS
100
AcDbLine
 10
32.45820639400955
 20
0.5955149659123915
 30
0.0
 11
33.47242681921943
 21
1.60973539112227
 31
0.0
  0
LINE
  5
BE17
330
BE02
100
AcDbEntity
  8
0
  6
CONTINUOUS
100
AcDbLine
 10
36.23199999996837
 20
4.369308571871207
 30
0.0
 11
37.67199999996831
 21
5.809308571871147
 31
0.0
  0
LINE
  5
BE18
330
BE02
100
AcDbEntity
  8
0
  6
CONTINUOUS
100
AcDbLine
 10
32.83432456621412
 20
0.2981139290367771
 30
0.0
 11
33.89722476612215
 21
1.361014128944803
 31
0.0
  0
LINE
  5
BE19
330
BE02
100
AcDbEntity
  8
0
  6
CONTINUOUS
100
AcDbLine
 10
36.23199999996837
 20
3.69578936279102
 30
0.0
 11
37.67199999996831
 21
5.135789362790962
 31
0.0
  0
LINE
  5
BE1A
330
BE02
100
AcDbEntity
  8
0
  6
CONTINUOUS
100
AcDbLine
 10
33.2711633111245
 20
0.0614334648669672
 30
0.0
 11
34.43247338014423
 21
1.222743533886696
 31
0.0
  0
LINE
  5
BE1B
330
BE02
100
AcDbEntity
  8
0
  6
CONTINUOUS
100
AcDbLine
 10
36.23199999996837
 20
3.022270153710834
 30
0.0
 11
37.67199999996831
 21
4.462270153710775
 31
0.0
  0
LINE
  5
BE1C
330
BE02
100
AcDbEntity
  8
0
  6
CONTINUOUS
100
AcDbLine
 10
33.76515245874577
 20
-0.1180965965919523
 30
0.0
 11
35.1587445516215
 21
1.27549549628378
 31
0.0
  0
LINE
  5
BE1D
330
BE02
100
AcDbEntity
  8
0
  6
CONTINUOUS
100
AcDbLine
 10
36.21639478609585
 20
2.333145730758136
 30
0.0
 11
37.67199999996831
 21
3.788750944630588
 31
0.0
  0
LINE
  5
BE1E
330
BE02
100
AcDbEntity
  8
0
  6
CONTINUOUS
100
AcDbLine
 10
34.34060583368432
 20
-0.2161624307335863
 30
0.0
 11
37.67199999996831
 21
3.115231735550401
 31
0.0
  0
LINE
  5
BE1F
330
BE02
100
AcDbEntity
  8
0
  6
CONTINUOUS
100
AcDbLine
 10
35.01698193613905
 20
-0.2133055373590427
 30
0.0
 11
37.66876712070525
 21
2.438479647207154
 31
0.0
  0
LINE
  5
BE20
330
BE02
100
AcDbEntity
  8
0
  6
CONTINUOUS
100
AcDbLine
 10
35.90743367693304
 20
0.0036269943547609
 30
0.0
 11
37.51723902192366
 21
1.613432339345381
 31
0.0
  0
LINE
  5
BE21
330
BE02
100
AcDbEntity
  8
0
  6
CONTINUOUS
100
AcDbLine
 10
32.55309425579761
 20
0.5074718966376706
 30
0.0
 11
32.27784730925847
 21
0.7827188431768102
 31
0.0
  0
LINE
  5
BE22
330
BE02
100
AcDbEntity
  8
0
  6
CONTINUOUS
100
AcDbLine
 10
33.87496468909684
 20
-0.1408793275813673
 30
0.0
 11
31.67993083278052
 21
2.054154528734943
 31
0.0
  0
LINE
  5
BE23
330
BE02
100
AcDbEntity
  8
0
  6
CONTINUOUS
100
AcDbLine
 10
34.64362813207632
 20
-0.2360235614806649
 30
0.0
 11
31.64199999996833
 21
2.765604570627322
 31
0.0
  0
LINE
  5
BE24
330
BE02
100
AcDbEntity
  8
0
  6
CONTINUOUS
100
AcDbLine
 10
35.25801106796118
 20
-0.1768872882853429
 30
0.0
 11
31.64199999996833
 21
3.439123779707508
 31
0.0
  0
LINE
  5
BE25
330
BE02
100
AcDbEntity
  8
0
  6
CONTINUOUS
100
AcDbLine
 10
35.79065650332146
 20
-0.0360135145654361
 30
0.0
 11
34.54143210838231
 21
1.213210880373721
 31
0.0
  0
LINE
  5
BE26
330
BE02
100
AcDbEntity
  8
0
  6
CONTINUOUS
100
AcDbLine
 10
33.08199999996839
 20
2.67264298878764
 30
0.0
 11
31.64199999996833
 21
4.112642988787695
 31
0.0
  0
LINE
  5
BE27
330
BE02
100
AcDbEntity
  8
0
  6
CONTINUOUS
100
AcDbLine
 10
36.25975597779143
 20
0.1684062200447833
 30
0.0
 11
35.15395110240023
 21
1.274211095435983
 31
0.0
  0
LINE
  5
BE28
330
BE02
100
AcDbEntity
  8
0
  6
CONTINUOUS
100
AcDbLine
 10
33.08199999996839
 20
3.346162197867826
 30
0.0
 11
31.64199999996833
 21
4.786162197867881
 31
0.0
  0
LINE
  5
BE29
330
BE02
100
AcDbEntity
  8
0
  6
CONTINUOUS
100
AcDbLine
 10
36.67226329638774
 20
0.4294181105286579
 30
0.0
 11
35.63766478748767
 21
1.464016619428737
 31
0.0
  0
LINE
  5
BE2A
330
BE02
100
AcDbEntity
  8
0
  6
CONTINUOUS
100
AcDbLine
 10
33.08199999996839
 20
4.019681406948012
 30
0.0
 11
31.64199999996833
 21
5.459681406948068
 31
0.0
  0
LINE
  5
BE2B
330
BE02
100
AcDbEntity
  8
0
  6
CONTINUOUS
100
AcDbLine
 10
37.01677749710036
 20
0.7584231188962329
 30
0.0
 11
35.99563422741351
 21
1.779566388583076
 31
0.0
  0
LINE
  5
BE2C
330
BE02
100
AcDbEntity
  8
0
  6
CONTINUOUS
100
AcDbLine
 10
33.08199999996839
 20
4.693200616028199
 30
0.0
 11
31.64199999996833
 21
6.133200616028255
 31
0.0
  0
LINE
  5
BE2D
330
BE02
100
AcDbEntity
  8
0
  6
CONTINUOUS
100
AcDbLine
 10
37.29859977568887
 20
1.1501200493879
 30
0.0
 11
36.20680593341555
 21
2.241913891661226
 31
0.0
  0
LINE
  5
BE2E
330
BE02
100
AcDbEntity
  8
0
  6
CONTINUOUS
100
AcDbLine
 10
33.08199999996839
 20
5.366719825108386
 30
0.0
 11
31.64199999996833
 21
6.80671982510844
 31
0.0
  0
LINE
  5
BE2F
330
BE02
100
AcDbEntity
  8
0
  6
CONTINUOUS
100
AcDbLine
 10
37.5148623517228
 20
1.607376682434161
 30
0.0
 11
36.23199999996837
 21
2.890239034188594
 31
0.0
  0
LINE
  5
BE30
330
BE02
100
AcDbEntity
  8
0
  6
CONTINUOUS
100
AcDbLine
 10
33.08199999996839
 20
6.040239034188573
 30
0.0
 11
31.64199999996833
 21
7.480239034188627
 31
0.0
  0
LINE
  5
BE31
330
BE02
100
AcDbEntity
  8
0
  6
CONTINUOUS
100
AcDbLine
 10
37.64705163358367
 20
2.148706609653477
 30
0.0
 11
36.23199999996837
 21
3.56375824326878
 31
0.0
  0
LINE
  5
BE32
330
BE02
100
AcDbEntity
  8
0
  6
CONTINUOUS
100
AcDbLine
 10
33.08199999996839
 20
6.713758243268758
 30
0.0
 11
31.64199999996833
 21
8.153758243268815
 31
0.0
  0
LINE
  5
BE33
330
BE02
100
AcDbEntity
  8
0
  6
CONTINUOUS
100
AcDbLine
 10
37.67199999996831
 20
2.797277452349026
 30
0.0
 11
36.23199999996837
 21
4.237277452348967
 31
0.0
  0
LINE
  5
BE34
330
BE02
100
AcDbEntity
  8
0
  6
CONTINUOUS
100
AcDbLine
 10
37.67199999996831
 20
3.470796661429213
 30
0.0
 11
36.23199999996837
 21
4.910796661429154
 31
0.0
  0
LINE
  5
BE35
330
BE02
100
AcDbEntity
  8
0
  6
CONTINUOUS
100
AcDbLine
 10
37.67199999996831
 20
4.144315870509399
 30
0.0
 11
36.23199999996837
 21
5.58431587050934
 31
0.0
  0
LINE
  5
BE36
330
BE02
100
AcDbEntity
  8
0
  6
CONTINUOUS
100
AcDbLine
 10
33.08199999996839
 20
7.387277452348945
 30
0.0
 11
31.70617745232608
 21
8.763099999991255
 31
0.0
  0
LINE
  5
BE37
330
BE02
100
AcDbEntity
  8
0
  6
CONTINUOUS
100
AcDbLine
 10
33.08199999996839
 20
8.060796661429132
 30
0.0
 11
32.37969666140626
 21
8.763099999991255
 31
0.0
  0
LINE
  5
BE38
330
BE02
100
AcDbEntity
  8
0
  6
CONTINUOUS
100
AcDbLine
 10
33.08199999996839
 20
8.734315870509318
 30
0.0
 11
33.05321587048645
 21
8.763099999991255
 31
0.0
  0
LINE
  5
BE39
330
BE02
100
AcDbEntity
  8
0
  6
CONTINUOUS
100
AcDbLine
 10
37.67199999996831
 20
4.817835079589585
 30
0.0
 11
36.23199999996837
 21
6.257835079589526
 31
0.0
  0
LINE
  5
BE3A
330
BE02
100
AcDbEntity
  8
0
  6
CONTINUOUS
100
AcDbLine
 10
37.67199999996831
 20
5.491354288669771
 30
0.0
 11
36.23199999996837
 21
6.931354288669713
 31
0.0
  0
LINE
  5
BE3B
330
BE02
100
AcDbEntity
  8
0
  6
CONTINUOUS
100
AcDbLine
 10
37.67199999996831
 20
6.164873497749958
 30
0.0
 11
36.23199999996837
 21
7.6048734977499
 31
0.0
  0
LINE
  5
BE3C
330
BE02
100
AcDbEntity
  8
0
  6
CONTINUOUS
100
AcDbLine
 10
37.67199999996831
 20
6.838392706830144
 30
0.0
 11
36.23199999996837
 21
8.278392706830086
 31
0.0
  0
LINE
  5
BE3D
330
BE02
100
AcDbEntity
  8
0
  6
CONTINUOUS
100
AcDbLine
 10
37.67199999996831
 20
7.511911915910332
 30
0.0
 11
36.42081191588738
 21
8.763099999991255
 31
0.0
  0
LINE
  5
BE3E
330
BE02
100
AcDbEntity
  8
0
  6
CONTINUOUS
100
AcDbLine
 10
37.67199999996831
 20
8.185431124990519
 30
0.0
 11
37.09433112496757
 21
8.763099999991255
 31
0.0
  0
ENDBLK
  5
BEA6
330
BE02
100
AcDbEntity
  8
0
100
AcDbBlockEnd
  0
BLOCK
  5
BEA7
330
BE3F
100
AcDbEntity
  8
0
100
AcDbBlockBegin
  2
*X43
 70
     1
 10
0.0
 20
0.0
 30
0.0
  3
*X43
  1

  0
LINE
  5
BE40
330
BE3F
100
AcDbEntity
  8
0
  6
CONTINUOUS
100
AcDbLine
 10
38.60499999996136
 20
8.762866199104765
 30
0.0
 11
38.71672554182345
 21
8.874591740966855
 31
0.0
  0
LINE
  5
BE41
330
BE3F
100
AcDbEntity
  8
0
  6
CONTINUOUS
100
AcDbLine
 10
38.60499999996136
 20
8.089346990024577
 30
0.0
 11
39.03418785440363
 21
8.518534844466847
 31
0.0
  0
LINE
  5
BE42
330
BE3F
100
AcDbEntity
  8
0
  6
CONTINUOUS
100
AcDbLine
 10
38.60499999996136
 20
7.41582778094439
 30
0.0
 11
39.35165016698382
 21
8.16247794796684
 31
0.0
  0
LINE
  5
BE43
330
BE3F
100
AcDbEntity
  8
0
  6
CONTINUOUS
100
AcDbLine
 10
38.60499999996136
 20
6.742308571864204
 30
0.0
 11
39.66911247956399
 21
7.806421051466834
 31
0.0
  0
LINE
  5
BE44
330
BE3F
100
AcDbEntity
  8
0
  6
CONTINUOUS
100
AcDbLine
 10
38.60499999996136
 20
6.068789362784018
 30
0.0
 11
39.98657479214418
 21
7.450364154966827
 31
0.0
  0
LINE
  5
BE45
330
BE3F
100
AcDbEntity
  8
0
  6
CONTINUOUS
100
AcDbLine
 10
38.60499999996136
 20
5.395270153703832
 30
0.0
 11
40.30403710472435
 21
7.09430725846682
 31
0.0
  0
LINE
  5
BE46
330
BE3F
100
AcDbEntity
  8
0
  6
CONTINUOUS
100
AcDbLine
 10
38.60499999996136
 20
4.721750944623645
 30
0.0
 11
40.62149941730453
 21
6.738250361966813
 31
0.0
  0
LINE
  5
BE47
330
BE3F
100
AcDbEntity
  8
0
  6
CONTINUOUS
100
AcDbLine
 10
38.60499999996136
 20
4.048231735543458
 30
0.0
 11
40.93896172988471
 21
6.382193465466806
 31
0.0
  0
LINE
  5
BE48
330
BE3F
100
AcDbEntity
  8
0
  6
CONTINUOUS
100
AcDbLine
 10
38.60499999996136
 20
3.374712526463272
 30
0.0
 11
40.02599999995994
 21
4.795712526461843
 31
0.0
  0
LINE
  5
BE49
330
BE3F
100
AcDbEntity
  8
0
  6
CONTINUOUS
100
AcDbLine
 10
38.60499999996136
 20
2.701193317383085
 30
0.0
 11
40.02599999995994
 21
4.122193317381657
 31
0.0
  0
LINE
  5
BE4A
330
BE3F
100
AcDbEntity
  8
0
  6
CONTINUOUS
100
AcDbLine
 10
40.28339754687704
 20
5.053110073378947
 30
0.0
 11
41.25642404246489
 21
6.026136568966799
 31
0.0
  0
LINE
  5
BE4B
330
BE3F
100
AcDbEntity
  8
0
  6
CONTINUOUS
100
AcDbLine
 10
40.60085985945722
 20
4.697053176878939
 30
0.0
 11
41.57388635504507
 21
5.670079672466793
 31
0.0
  0
LINE
  5
BE4C
330
BE3F
100
AcDbEntity
  8
0
  6
CONTINUOUS
100
AcDbLine
 10
43.57899999995641
 20
8.348712526458318
 30
0.0
 11
43.99338747348935
 21
8.763099999991255
 31
0.0
  0
LINE
  5
BE4D
330
BE3F
100
AcDbEntity
  8
0
  6
CONTINUOUS
100
AcDbLine
 10
43.57899999995641
 20
7.675193317378131
 30
0.0
 11
44.66690668256953
 21
8.763099999991255
 31
0.0
  0
LINE
  5
BE4E
330
BE3F
100
AcDbEntity
  8
0
  6
CONTINUOUS
100
AcDbLine
 10
38.60499999996136
 20
2.027674108302898
 30
0.0
 11
40.02599999995994
 21
3.44867410830147
 31
0.0
  0
LINE
  5
BE4F
330
BE3F
100
AcDbEntity
  8
0
  6
CONTINUOUS
100
AcDbLine
 10
38.60499999996136
 20
1.354154899222712
 30
0.0
 11
40.02599999995994
 21
2.775154899221284
 31
0.0
  0
LINE
  5
BE50
330
BE3F
100
AcDbEntity
  8
0
  6
CONTINUOUS
100
AcDbLine
 10
38.60499999996136
 20
0.6806356901425255
 30
0.0
 11
40.02599999995994
 21
2.101635690141098
 31
0.0
  0
LINE
  5
BE51
330
BE3F
100
AcDbEntity
  8
0
  6
CONTINUOUS
100
AcDbLine
 10
38.60499999996136
 20
0.0071164810623383
 30
0.0
 11
40.02599999995994
 21
1.428116481060911
 31
0.0
  0
LINE
  5
BE52
330
BE3F
100
AcDbEntity
  8
0
  6
CONTINUOUS
100
AcDbLine
 10
40.9183221720374
 20
4.340996280378933
 30
0.0
 11
41.89134866762525
 21
5.314022775966786
 31
0.0
  0
LINE
  5
BE53
330
BE3F
100
AcDbEntity
  8
0
  6
CONTINUOUS
100
AcDbLine
 10
41.23578448461758
 20
3.984939383878926
 30
0.0
 11
42.20881098020543
 21
4.957965879466778
 31
0.0
  0
LINE
  5
BE54
330
BE3F
100
AcDbEntity
  8
0
  6
CONTINUOUS
100
AcDbLine
 10
41.55324679719776
 20
3.628882487378919
 30
0.0
 11
42.52627329278561
 21
4.601908982966772
 31
0.0
  0
LINE
  5
BE55
330
BE3F
100
AcDbEntity
  8
0
  6
CONTINUOUS
100
AcDbLine
 10
41.87070910977793
 20
3.272825590878912
 30
0.0
 11
42.84373560536579
 21
4.245852086466765
 31
0.0
  0
LINE
  5
BE56
330
BE3F
100
AcDbEntity
  8
0
  6
CONTINUOUS
100
AcDbLine
 10
43.57899999995641
 20
7.001674108297943
 30
0.0
 11
44.99999999995498
 21
8.422674108296516
 31
0.0
  0
LINE
  5
BE57
330
BE3F
100
AcDbEntity
  8
0
  6
CONTINUOUS
100
AcDbLine
 10
43.57899999995641
 20
6.328154899217758
 30
0.0
 11
44.99999999995498
 21
7.749154899216329
 31
0.0
  0
LINE
  5
BE58
330
BE3F
100
AcDbEntity
  8
0
  6
CONTINUOUS
100
AcDbLine
 10
43.57899999995641
 20
5.654635690137571
 30
0.0
 11
44.99999999995498
 21
7.075635690136142
 31
0.0
  0
LINE
  5
BE59
330
BE3F
100
AcDbEntity
  8
0
  6
CONTINUOUS
100
AcDbLine
 10
43.57899999995641
 20
4.981116481057384
 30
0.0
 11
44.99999999995498
 21
6.402116481055955
 31
0.0
  0
LINE
  5
BE5A
330
BE3F
100
AcDbEntity
  8
0
  6
CONTINUOUS
100
AcDbLine
 10
39.27140272797921
 20
-0.0000000000000009
 30
0.0
 11
40.02599999995994
 21
0.7545972719807246
 31
0.0
  0
LINE
  5
BE5B
330
BE3F
100
AcDbEntity
  8
0
  6
CONTINUOUS
100
AcDbLine
 10
39.9449219370594
 20
-0.0000000000000009
 30
0.0
 11
40.02599999995994
 21
0.0810780629005379
 31
0.0
  0
LINE
  5
BE5C
330
BE3F
100
AcDbEntity
  8
0
  6
CONTINUOUS
100
AcDbLine
 10
42.18817142235812
 20
2.916768694378905
 30
0.0
 11
43.16119791794597
 21
3.889795189966758
 31
0.0
  0
LINE
  5
BE5D
330
BE3F
100
AcDbEntity
  8
0
  6
CONTINUOUS
100
AcDbLine
 10
42.50563373493829
 20
2.560711797878898
 30
0.0
 11
43.47866023052615
 21
3.533738293466751
 31
0.0
  0
LINE
  5
BE5E
330
BE3F
100
AcDbEntity
  8
0
  6
CONTINUOUS
100
AcDbLine
 10
43.57899999995641
 20
4.307597271977198
 30
0.0
 11
44.99999999995498
 21
5.728597271975769
 31
0.0
  0
LINE
  5
BE5F
330
BE3F
100
AcDbEntity
  8
0
  6
CONTINUOUS
100
AcDbLine
 10
43.57899999995641
 20
3.634078062897011
 30
0.0
 11
44.99999999995498
 21
5.055078062895582
 31
0.0
  0
LINE
  5
BE60
330
BE3F
100
AcDbEntity
  8
0
  6
CONTINUOUS
100
AcDbLine
 10
42.82309604751848
 20
2.204654901378891
 30
0.0
 11
44.99999999995498
 21
4.381558853815395
 31
0.0
  0
LINE
  5
BE61
330
BE3F
100
AcDbEntity
  8
0
  6
CONTINUOUS
100
AcDbLine
 10
43.14055836009865
 20
1.848598004878885
 30
0.0
 11
44.99999999995498
 21
3.70803964473521
 31
0.0
  0
LINE
  5
BE62
330
BE3F
100
AcDbEntity
  8
0
  6
CONTINUOUS
100
AcDbLine
 10
43.45802067267883
 20
1.492541108378878
 30
0.0
 11
44.99999999995498
 21
3.034520435655023
 31
0.0
  0
LINE
  5
BE63
330
BE3F
100
AcDbEntity
  8
0
  6
CONTINUOUS
100
AcDbLine
 10
43.77548298525902
 20
1.136484211878871
 30
0.0
 11
44.99999999995498
 21
2.361001226574837
 31
0.0
  0
LINE
  5
BE64
330
BE3F
100
AcDbEntity
  8
0
  6
CONTINUOUS
100
AcDbLine
 10
44.09294529783919
 20
0.7804273153788639
 30
0.0
 11
44.99999999995498
 21
1.687482017494649
 31
0.0
  0
LINE
  5
BE65
330
BE3F
100
AcDbEntity
  8
0
  6
CONTINUOUS
100
AcDbLine
 10
44.41040761041938
 20
0.4243704188788566
 30
0.0
 11
44.99999999995498
 21
1.013962808414463
 31
0.0
  0
LINE
  5
BE66
330
BE3F
100
AcDbEntity
  8
0
  6
CONTINUOUS
100
AcDbLine
 10
44.72786992299955
 20
0.0683135223788494
 30
0.0
 11
44.99999999995498
 21
0.340443599334276
 31
0.0
  0
LINE
  5
BE67
330
BE3F
100
AcDbEntity
  8
0
  6
CONTINUOUS
100
AcDbLine
 10
39.12223903415696
 20
-0.0000000000000009
 30
0.0
 11
38.60499999996136
 21
0.5172390341955961
 31
0.0
  0
LINE
  5
BE68
330
BE3F
100
AcDbEntity
  8
0
  6
CONTINUOUS
100
AcDbLine
 10
39.79575824323715
 20
-0.0000000000000009
 30
0.0
 11
38.60499999996136
 21
1.190758243275783
 31
0.0
  0
LINE
  5
BE69
330
BE3F
100
AcDbEntity
  8
0
  6
CONTINUOUS
100
AcDbLine
 10
40.02599999995994
 20
0.443277452357397
 30
0.0
 11
38.60499999996136
 21
1.864277452355969
 31
0.0
  0
LINE
  5
BE6A
330
BE3F
100
AcDbEntity
  8
0
  6
CONTINUOUS
100
AcDbLine
 10
40.02599999995994
 20
1.116796661437583
 30
0.0
 11
38.60499999996136
 21
2.537796661436155
 31
0.0
  0
LINE
  5
BE6B
330
BE3F
100
AcDbEntity
  8
0
  6
CONTINUOUS
100
AcDbLine
 10
40.02599999995994
 20
1.79031587051777
 30
0.0
 11
38.60499999996136
 21
3.211315870516341
 31
0.0
  0
LINE
  5
BE6C
330
BE3F
100
AcDbEntity
  8
0
  6
CONTINUOUS
100
AcDbLine
 10
40.02599999995994
 20
2.463835079597956
 30
0.0
 11
38.60499999996136
 21
3.884835079596527
 31
0.0
  0
LINE
  5
BE6D
330
BE3F
100
AcDbEntity
  8
0
  6
CONTINUOUS
100
AcDbLine
 10
40.02599999995994
 20
3.137354288678143
 30
0.0
 11
38.60499999996136
 21
4.558354288676714
 31
0.0
  0
LINE
  5
BE6E
330
BE3F
100
AcDbEntity
  8
0
  6
CONTINUOUS
100
AcDbLine
 10
40.02599999995994
 20
3.810873497758329
 30
0.0
 11
38.60499999996136
 21
5.2318734977569
 31
0.0
  0
LINE
  5
BE6F
330
BE3F
100
AcDbEntity
  8
0
  6
CONTINUOUS
100
AcDbLine
 10
40.02599999995994
 20
4.484392706838515
 30
0.0
 11
38.60499999996136
 21
5.905392706837086
 31
0.0
  0
LINE
  5
BE70
330
BE3F
100
AcDbEntity
  8
0
  6
CONTINUOUS
100
AcDbLine
 10
44.99999999995498
 20
0.183911915923658
 30
0.0
 11
41.53858364506288
 21
3.64532827081576
 31
0.0
  0
LINE
  5
BE71
330
BE3F
100
AcDbEntity
  8
0
  6
CONTINUOUS
100
AcDbLine
 10
40.02599999995994
 20
5.157911915918703
 30
0.0
 11
38.60499999996136
 21
6.578911915917274
 31
0.0
  0
LINE
  5
BE72
330
BE3F
100
AcDbEntity
  8
0
  6
CONTINUOUS
100
AcDbLine
 10
44.99999999995498
 20
0.8574311250038447
 30
0.0
 11
38.60499999996136
 21
7.25243112499746
 31
0.0
  0
LINE
  5
BE73
330
BE3F
100
AcDbEntity
  8
0
  6
CONTINUOUS
100
AcDbLine
 10
44.99999999995498
 20
1.530950334084031
 30
0.0
 11
38.60499999996136
 21
7.925950334077647
 31
0.0
  0
LINE
  5
BE74
330
BE3F
100
AcDbEntity
  8
0
  6
CONTINUOUS
100
AcDbLine
 10
44.99999999995498
 20
2.204469543164218
 30
0.0
 11
43.57899999995641
 21
3.625469543162789
 31
0.0
  0
LINE
  5
BE75
330
BE3F
100
AcDbEntity
  8
0
  6
CONTINUOUS
100
AcDbLine
 10
41.89876730984767
 20
5.305702233271528
 30
0.0
 11
38.60499999996136
 21
8.599469543157834
 31
0.0
  0
LINE
  5
BE76
330
BE3F
100
AcDbEntity
  8
0
  6
CONTINUOUS
100
AcDbLine
 10
44.99999999995498
 20
2.877988752244405
 30
0.0
 11
43.57899999995641
 21
4.298988752242975
 31
0.0
  0
LINE
  5
BE77
330
BE3F
100
AcDbEntity
  8
0
  6
CONTINUOUS
100
AcDbLine
 10
44.99999999995498
 20
3.551507961324591
 30
0.0
 11
43.57899999995641
 21
4.972507961323163
 31
0.0
  0
LINE
  5
BE78
330
BE3F
100
AcDbEntity
  8
0
  6
CONTINUOUS
100
AcDbLine
 10
44.99999999995498
 20
4.225027170404777
 30
0.0
 11
43.57899999995641
 21
5.646027170403348
 31
0.0
  0
LINE
  5
BE79
330
BE3F
100
AcDbEntity
  8
0
  6
CONTINUOUS
100
AcDbLine
 10
44.99999999995498
 20
4.898546379484964
 30
0.0
 11
43.57899999995641
 21
6.319546379483535
 31
0.0
  0
LINE
  5
BE7A
330
BE3F
100
AcDbEntity
  8
0
  6
CONTINUOUS
100
AcDbLine
 10
44.99999999995498
 20
5.572065588565151
 30
0.0
 11
43.57899999995641
 21
6.993065588563722
 31
0.0
  0
LINE
  5
BE7B
330
BE3F
100
AcDbEntity
  8
0
  6
CONTINUOUS
100
AcDbLine
 10
44.99999999995498
 20
6.245584797645336
 30
0.0
 11
43.57899999995641
 21
7.666584797643908
 31
0.0
  0
LINE
  5
BE7C
330
BE3F
100
AcDbEntity
  8
0
  6
CONTINUOUS
100
AcDbLine
 10
44.99999999995498
 20
6.919104006725522
 30
0.0
 11
43.57899999995641
 21
8.340104006724093
 31
0.0
  0
LINE
  5
BE7D
330
BE3F
100
AcDbEntity
  8
0
  6
CONTINUOUS
100
AcDbLine
 10
44.99999999995498
 20
7.592623215805709
 30
0.0
 11
43.82952321576943
 21
8.763099999991255
 31
0.0
  0
LINE
  5
BE7E
330
BE3F
100
AcDbEntity
  8
0
  6
CONTINUOUS
100
AcDbLine
 10
44.99999999995498
 20
8.266142424885896
 30
0.0
 11
44.50304242484962
 21
8.763099999991255
 31
0.0
  0
ENDBLK
  5
BEA8
330
BE3F
100
AcDbEntity
  8
0
100
AcDbBlockEnd
  0
BLOCK
  5
BEA9
330
BE7F
100
AcDbEntity
  8
0
100
AcDbBlockBegin
  2
*X44
 70
     1
 10
0.0
 20
0.0
 30
0.0
  3
*X44
  1

  0
LINE
  5
BE80
330
BE7F
100
AcDbEntity
  8
0
  6
CONTINUOUS
100
AcDbLine
 10
0.0
 20
8.548461116714023
 30
0.0
 11
0.2146388832772324
 21
8.763099999991255
 31
0.0
  0
LINE
  5
BE81
330
BE7F
100
AcDbEntity
  8
0
  6
CONTINUOUS
100
AcDbLine
 10
-0.0000000000000002
 20
7.874941907633837
 30
0.0
 11
0.8881580923574184
 21
8.763099999991255
 31
0.0
  0
LINE
  5
BE82
330
BE7F
100
AcDbEntity
  8
0
  6
CONTINUOUS
100
AcDbLine
 10
0.0
 20
7.20142269855365
 30
0.0
 11
1.420999999998572
 21
8.622422698552223
 31
0.0
  0
LINE
  5
BE83
330
BE7F
100
AcDbEntity
  8
0
  6
CONTINUOUS
100
AcDbLine
 10
-0.0000000000000001
 20
6.527903489473465
 30
0.0
 11
1.420999999998571
 21
7.948903489472036
 31
0.0
  0
LINE
  5
BE84
330
BE7F
100
AcDbEntity
  8
0
  6
CONTINUOUS
100
AcDbLine
 10
-0.0000000000000002
 20
5.854384280393278
 30
0.0
 11
1.420999999998571
 21
7.275384280391849
 31
0.0
  0
LINE
  5
BE85
330
BE7F
100
AcDbEntity
  8
0
  6
CONTINUOUS
100
AcDbLine
 10
-0.0000000000000002
 20
5.180865071313091
 30
0.0
 11
1.420999999998571
 21
6.601865071311663
 31
0.0
  0
LINE
  5
BE86
330
BE7F
100
AcDbEntity
  8
0
  6
CONTINUOUS
100
AcDbLine
 10
0.0
 20
4.507345862232905
 30
0.0
 11
1.420999999998571
 21
5.928345862231477
 31
0.0
  0
LINE
  5
BE87
330
BE7F
100
AcDbEntity
  8
0
  6
CONTINUOUS
100
AcDbLine
 10
-0.0000000000000003
 20
3.833826653152718
 30
0.0
 11
1.420999999998571
 21
5.25482665315129
 31
0.0
  0
LINE
  5
BE88
330
BE7F
100
AcDbEntity
  8
0
  6
CONTINUOUS
100
AcDbLine
 10
-0.0000000000000002
 20
3.160307444072532
 30
0.0
 11
1.420999999998571
 21
4.581307444071103
 31
0.0
  0
LINE
  5
BE89
330
BE7F
100
AcDbEntity
  8
0
  6
CONTINUOUS
100
AcDbLine
 10
-0.0000000000000001
 20
2.486788234992345
 30
0.0
 11
1.420999999998571
 21
3.907788234990917
 31
0.0
  0
LINE
  5
BE8A
330
BE7F
100
AcDbEntity
  8
0
  6
CONTINUOUS
100
AcDbLine
 10
-0.0000000000000006
 20
1.813269025912159
 30
0.0
 11
1.420999999998571
 21
3.234269025910731
 31
0.0
  0
LINE
  5
BE8B
330
BE7F
100
AcDbEntity
  8
0
  6
CONTINUOUS
100
AcDbLine
 10
0.0
 20
1.139749816831973
 30
0.0
 11
1.420999999998571
 21
2.560749816830544
 31
0.0
  0
LINE
  5
BE8C
330
BE7F
100
AcDbEntity
  8
0
  6
CONTINUOUS
100
AcDbLine
 10
0.0000000000000002
 20
0.466230607751787
 30
0.0
 11
1.420999999998571
 21
1.887230607750358
 31
0.0
  0
LINE
  5
BE8D
330
BE7F
100
AcDbEntity
  8
0
  6
CONTINUOUS
100
AcDbLine
 10
0.2072886013284003
 20
-0.0000000000000009
 30
0.0
 11
1.420999999998571
 21
1.213711398670171
 31
0.0
  0
LINE
  5
BE8E
330
BE7F
100
AcDbEntity
  8
0
  6
CONTINUOUS
100
AcDbLine
 10
0.8808078104085864
 20
-0.0000000000000009
 30
0.0
 11
1.420999999998571
 21
0.5401921895899839
 31
0.0
  0
LINE
  5
BE8F
330
BE7F
100
AcDbEntity
  8
0
  6
CONTINUOUS
100
AcDbLine
 10
0.0581249075061505
 20
-0.0000000000000009
 30
0.0
 11
-0.0000000000000002
 21
0.0581249075061496
 31
0.0
  0
LINE
  5
BE90
330
BE7F
100
AcDbEntity
  8
0
  6
CONTINUOUS
100
AcDbLine
 10
0.7316441165863372
 20
-0.0000000000000009
 30
0.0
 11
-0.0000000000000002
 21
0.7316441165863363
 31
0.0
  0
LINE
  5
BE91
330
BE7F
100
AcDbEntity
  8
0
  6
CONTINUOUS
100
AcDbLine
 10
1.405163325666523
 20
-0.0000000000000009
 30
0.0
 11
-0.0000000000000002
 21
1.405163325666523
 31
0.0
  0
LINE
  5
BE92
330
BE7F
100
AcDbEntity
  8
0
  6
CONTINUOUS
100
AcDbLine
 10
1.420999999998572
 20
0.6576825347481381
 30
0.0
 11
-0.0000000000000001
 21
2.07868253474671
 31
0.0
  0
LINE
  5
BE93
330
BE7F
100
AcDbEntity
  8
0
  6
CONTINUOUS
100
AcDbLine
 10
1.420999999998571
 20
1.331201743828324
 30
0.0
 11
-0.0000000000000001
 21
2.752201743826896
 31
0.0
  0
LINE
  5
BE94
330
BE7F
100
AcDbEntity
  8
0
  6
CONTINUOUS
100
AcDbLine
 10
1.420999999998571
 20
2.004720952908511
 30
0.0
 11
-0.0000000000000002
 21
3.425720952907082
 31
0.0
  0
LINE
  5
BE95
330
BE7F
100
AcDbEntity
  8
0
  6
CONTINUOUS
100
AcDbLine
 10
1.420999999998571
 20
2.678240161988697
 30
0.0
 11
-0.0000000000000001
 21
4.099240161987269
 31
0.0
  0
LINE
  5
BE96
330
BE7F
100
AcDbEntity
  8
0
  6
CONTINUOUS
100
AcDbLine
 10
1.420999999998572
 20
3.351759371068884
 30
0.0
 11
0.0
 21
4.772759371067455
 31
0.0
  0
LINE
  5
BE97
330
BE7F
100
AcDbEntity
  8
0
  6
CONTINUOUS
100
AcDbLine
 10
1.420999999998571
 20
4.02527858014907
 30
0.0
 11
-0.0000000000000003
 21
5.446278580147642
 31
0.0
  0
LINE
  5
BE98
330
BE7F
100
AcDbEntity
  8
0
  6
CONTINUOUS
100
AcDbLine
 10
1.420999999998571
 20
4.698797789229257
 30
0.0
 11
0.0
 21
6.119797789227828
 31
0.0
  0
LINE
  5
BE99
330
BE7F
100
AcDbEntity
  8
0
  6
CONTINUOUS
100
AcDbLine
 10
1.420999999998571
 20
5.372316998309444
 30
0.0
 11
-0.0000000000000001
 21
6.793316998308015
 31
0.0
  0
LINE
  5
BE9A
330
BE7F
100
AcDbEntity
  8
0
  6
CONTINUOUS
100
AcDbLine
 10
1.420999999998572
 20
6.045836207389629
 30
0.0
 11
-0.0000000000000004
 21
7.466836207388202
 31
0.0
  0
LINE
  5
BE9B
330
BE7F
100
AcDbEntity
  8
0
  6
CONTINUOUS
100
AcDbLine
 10
1.420999999998571
 20
6.719355416469816
 30
0.0
 11
0.0
 21
8.140355416468388
 31
0.0
  0
LINE
  5
BE9C
330
BE7F
100
AcDbEntity
  8
0
  6
CONTINUOUS
100
AcDbLine
 10
1.420999999998571
 20
7.392874625550003
 30
0.0
 11
0.0507746255573185
 21
8.763099999991255
 31
0.0
  0
LINE
  5
BE9D
330
BE7F
100
AcDbEntity
  8
0
  6
CONTINUOUS
100
AcDbLine
 10
1.420999999998571
 20
8.06639383463019
 30
0.0
 11
0.7242938346375052
 21
8.763099999991255
 31
0.0
  0
LINE
  5
BE9E
330
BE7F
100
AcDbEntity
  8
0
  6
CONTINUOUS
100
AcDbLine
 10
1.420999999998571
 20
8.739913043710375
 30
0.0
 11
1.397813043717691
 21
8.763099999991255
 31
0.0
  0
ENDBLK
  5
BEAA
330
BE7F
100
AcDbEntity
  8
0
100
AcDbBlockEnd
  0
ENDSEC
  0
SECTION
  2
ENTITIES
  0
LINE
  5
AF9C
330
18
100
AcDbEntity
  8
01
  6
BYBLOCK
100
AcDbLine
 10
5678.352695743859
 20
-415.7615203242599
 30
0.0000000001127424
 11
5832.10707589889
 21
-415.7615203242599
 31
0.0000000001127424
  0
LINE
  5
AFA4
330
18
100
AcDbEntity
  8
01
100
AcDbLine
 10
5579.351927901542
 20
-455.7602020111572
 30
0.0000000000563712
 11
5579.351927901542
 21
-645.7602020111572
 31
0.0000000000563712
  0
LINE
  5
AFA6
330
18
100
AcDbEntity
  8
01
100
AcDbLine
 10
5699.351927901542
 20
-575.7602020111572
 30
0.0000000000563712
 11
5759.351927901542
 21
-575.7602020111572
 31
0.0000000000563712
  0
LINE
  5
AFA7
330
18
100
AcDbEntity
  8
01
100
AcDbLine
 10
5729.351927901542
 20
-545.7602020111572
 30
0.0000000000563712
 11
5729.351927901542
 21
-605.7602020111572
 31
0.0000000000563712
  0
LINE
  5
AFBD
330
18
100
AcDbEntity
  8
01
100
AcDbLine
 10
5129.351927901542
 20
-195.7602020111572
 30
0.0000000000563712
 11
5929.351927901542
 21
-195.7602020111572
 31
0.0000000000563712
  0
LINE
  5
AFBE
330
18
100
AcDbEntity
  8
01
100
AcDbLine
 10
5129.351927901542
 20
-725.7602020111572
 30
0.0000000000563712
 11
5929.351927901542
 21
-725.7602020111572
 31
0.0000000000563712
  0
LINE
  5
AFD5
330
18
100
AcDbEntity
  8
01
100
AcDbLine
 10
5129.351927901542
 20
-725.7602020111572
 30
0.0000000000563712
 11
5929.351927901542
 21
-725.7602020111572
 31
0.0000000000563712
  0
TEXT
  5
AFD6
330
18
100
AcDbEntity
  8
1TEXT
100
AcDbText
 10
5579.351927901542
 20
-415.7615203242603
 30
0.0
 40
10.0
  1
A6C
 41
1.0171875
100
AcDbText
  0
LINE
  5
AFD9
330
18
100
AcDbEntity
  8
01
100
AcDbLine
 10
5129.351927901542
 20
-195.7615203242603
 30
0.0000000000563712
 11
5929.351927901542
 21
-195.7615203242603
 31
0.0000000000563712
  0
LINE
  5
B8BA
330
18
100
AcDbEntity
  8
01
100
AcDbLine
 10
5704.351927901542
 20
-416.9615203242599
 30
0.0000000001127424
 11
5704.351927901542
 21
-418.9615203242599
 31
0.0000000001127424
  0
LINE
  5
B8BB
330
18
100
AcDbEntity
  8
01
100
AcDbLine
 10
5754.351927901542
 20
-416.9615203242599
 30
0.0000000001127424
 11
5754.351927901542
 21
-418.9615203242554
 31
0.0000000001127424
  0
LINE
  5
B8BC
330
18
100
AcDbEntity
  8
01
100
AcDbLine
 10
5754.351927901542
 20
-416.9615203242599
 30
0.0000000001127424
 11
5704.351927901542
 21
-416.9615203242599
 31
0.0000000001127424
  0
LINE
  5
B8BD
330
18
100
AcDbEntity
  8
01
100
AcDbLine
 10
5851.488388527053
 20
-474.9615203242599
 30
0.0000000001127424
 11
5725.17265143837
 21
-474.9615203242608
 31
0.0000000001127424
  0
ARC
  5
B8BE
330
18
100
AcDbEntity
  8
01
100
AcDbCircle
 10
5725.17265143837
 20
-469.9615203242604
 30
0.0000000001127424
 40
5.0
100
AcDbArc
 50
197.0000000000045
 51
270.0
  0
LINE
  5
B8BF
330
18
100
AcDbEntity
  8
01
100
AcDbLine
 10
5704.351927901542
 20
-418.9615203242558
 30
0.0000000001127424
 11
5754.351927901542
 21
-418.9615203242558
 31
0.0000000001127424
  0
LINE
  5
B8C0
330
18
100
AcDbEntity
  8
01
100
AcDbLine
 10
5704.351927901542
 20
-418.9615203242599
 30
0.0000000001127424
 11
5720.391127658555
 21
-471.4233788478739
 31
0.0000000001127424
  0
LINE
  5
B8C1
330
18
100
AcDbEntity
  8
01
100
AcDbLine
 10
5748.291241639276
 20
-452.4606003654037
 30
0.0000000001127424
 11
5847.286685235736
 21
-456.9404665785139
 31
0.0000000001127424
  0
ARC
  5
B8C2
330
18
100
AcDbEntity
  8
01
100
AcDbCircle
 10
5847.255040341644
 20
-457.639750927458
 30
0.0000000001127424
 40
0.7
100
AcDbArc
 50
20.13630342823833
 51
87.40894712382267
  0
ARC
  5
B8C3
330
18
100
AcDbEntity
  8
01
100
AcDbCircle
 10
5748.652897571755
 20
-444.468779234616
 30
0.0000000001127424
 40
8.0
100
AcDbArc
 50
149.5816773994256
 51
267.4089471238227
  0
LINE
  5
B8C4
330
18
100
AcDbEntity
  8
01
100
AcDbLine
 10
5847.912253762765
 20
-457.3987726730472
 30
0.0000000001127424
 11
5853.366141158825
 21
-472.2730110259429
 31
0.0000000001127424
  0
ARC
  5
B8C5
330
18
100
AcDbEntity
  8
01
100
AcDbCircle
 10
5851.488388527053
 20
-472.9615203242599
 30
0.0000000001127424
 40
2.0
100
AcDbArc
 50
270.0
 51
20.13630342823833
  0
LINE
  5
B8C6
330
18
100
AcDbEntity
  8
01
100
AcDbLine
 10
5754.351927901542
 20
-418.9615203242554
 30
0.0000000001127424
 11
5741.754083166014
 21
-440.4183027447286
 31
0.0000000001127424
  0
LINE
  5
B8CC
330
18
100
AcDbEntity
  8
01
100
AcDbLine
 10
5853.058747612729
 20
-578.1732472763315
 30
0.0000000000563712
 11
5848.716471951939
 21
-580.6895320208471
 31
0.0000000000563712
  0
LINE
  5
B8CD
330
18
100
AcDbEntity
  8
01
100
AcDbLine
 10
5848.716491866793
 20
-570.8309261237882
 30
0.0000000000563712
 11
5853.058747613085
 21
-573.3471993550872
 31
0.0000000000563712
  0
LINE
  5
B8CE
330
18
100
AcDbEntity
  8
01
100
AcDbLine
 10
5853.48838852537
 20
-574.048933542663
 30
0.0000000000563712
 11
5853.48838852537
 21
-577.4723265222633
 31
0.0000000000563712
  0
ARC
  5
B8CF
330
18
100
AcDbEntity
  8
01
100
AcDbCircle
 10
5852.68530924556
 20
-574.0596461817183
 30
0.0000000000563712
 40
0.8028962170464549
100
AcDbArc
 50
1.340403826963501
 51
59.24998947672554
  0
ARC
  5
B8D0
330
18
100
AcDbEntity
  8
01
100
AcDbCircle
 10
5852.684221757231
 20
-577.4602897782925
 30
0.0000000000563712
 40
0.8039919716346012
100
AcDbArc
 50
300.5431203755105
 51
358.6438487658464
  0
LINE
  5
B8D1
330
18
100
AcDbEntity
  8
01
100
AcDbLine
 10
5848.694829041766
 20
-580.7019902711434
 30
0.0000000000563712
 11
5848.65870431713
 21
-580.7210234312397
 31
0.0000000000563712
  0
LINE
  5
B8D2
330
18
100
AcDbEntity
  8
01
100
AcDbLine
 10
5848.658701025895
 20
-580.7210250187418
 30
0.0000000000563712
 11
5848.383595618911
 21
-580.7921437228879
 31
0.0000000000563712
  0
LINE
  5
B8D3
330
18
100
AcDbEntity
  8
01
100
AcDbLine
 10
5704.351927901534
 20
-599.997599638823
 30
0.0000000000563712
 11
5704.35192790155
 21
-551.5227018689334
 31
0.0000000000563712
  0
LINE
  5
B8D4
330
18
100
AcDbEntity
  8
01
100
AcDbLine
 10
5753.35192789986
 20
-550.760223315609
 30
0.0000000000563712
 11
5753.694702721406
 21
-550.7602076085163
 31
0.0000000000563712
  0
LINE
  5
B8D5
330
18
100
AcDbEntity
  8
01
100
AcDbLine
 10
5753.35192789986
 20
-600.7602248756812
 30
0.0000000000563712
 11
5753.694733970919
 21
-600.7602398062218
 31
0.0000000000563712
  0
LINE
  5
B8D6
330
18
100
AcDbEntity
  8
01
100
AcDbLine
 10
5753.35192789986
 20
-600.7602249120382
 30
0.0000000000563712
 11
5704.938811686952
 21
-600.7602242445903
 31
0.0000000000563712
  0
ARC
  5
B8D7
330
18
100
AcDbEntity
  8
01
100
AcDbCircle
 10
5705.021420560132
 20
-551.4309107785286
 30
0.0000000000563712
 40
0.6757558909648641
100
AcDbArc
 50
97.02177909346372
 51
187.8068885920723
  0
ARC
  5
B8D8
330
18
100
AcDbEntity
  8
01
100
AcDbCircle
 10
5705.021422307925
 20
-600.0895353737628
 30
0.0000000000563712
 40
0.6757573456104893
100
AcDbArc
 50
172.1933028168512
 51
262.9780867172643
  0
LINE
  5
B8D9
330
18
100
AcDbEntity
  8
01
100
AcDbLine
 10
5704.938811686952
 20
-600.760224180475
 30
0.0000000000563712
 11
5705.246858555956
 21
-599.8522450853563
 31
0.0000000000563712
  0
ARC
  5
B8DA
330
18
100
AcDbEntity
  8
01
100
AcDbCircle
 10
5753.737709489872
 20
-600.1475256237002
 30
0.0000000000563712
 40
0.6142194759953875
100
AcDbArc
 50
265.9878684590749
 51
359.8932476376525
  0
LINE
  5
B8DB
330
18
100
AcDbEntity
  8
01
100
AcDbLine
 10
5704.938811687769
 20
-550.7602232220759
 30
0.0000000000563712
 11
5705.246858047089
 21
-551.6681983232604
 31
0.0000000000563712
  0
LINE
  5
B8DC
330
18
100
AcDbEntity
  8
01
100
AcDbLine
 10
5753.351420014544
 20
-550.7602233156083
 30
0.0000000000563712
 11
5704.938811687769
 21
-550.7602232220759
 31
0.0000000000563712
  0
LINE
  5
B8DD
330
18
100
AcDbEntity
  8
01
100
AcDbLine
 10
5754.351927899756
 20
-551.3719781978887
 30
0.0000000000563712
 11
5754.351927899756
 21
-566.4652481418191
 31
0.0000000000563712
  0
LINE
  5
B8DE
330
18
100
AcDbEntity
  8
01
100
AcDbLine
 10
5754.351927899756
 20
-585.0953505525385
 30
0.0000000000563712
 11
5754.351927899755
 21
-600.1486700246085
 31
0.0000000000563712
  0
LINE
  5
B8DF
330
18
100
AcDbEntity
  8
01
100
AcDbLine
 10
5754.351927899755
 20
-600.1486700246085
 30
0.0000000000563712
 11
5753.764802271809
 21
-599.7425527106745
 31
0.0000000000563712
  0
ARC
  5
B8E0
330
18
100
AcDbEntity
  8
01
100
AcDbCircle
 10
5753.737704153515
 20
-551.3729253305139
 30
0.0000000000563712
 40
0.6142248204144165
100
AcDbArc
 50
0.107154689470757
 51
94.01451973239101
  0
LINE
  5
B8E1
330
18
100
AcDbEntity
  8
01
100
AcDbLine
 10
5753.694702721406
 20
-550.7602076085163
 30
0.0000000000563712
 11
5753.076032973567
 21
-551.167033982407
 31
0.0000000000563712
  0
LINE
  5
B8E2
330
18
100
AcDbEntity
  8
01
100
AcDbLine
 10
5748.291241643276
 20
-585.372776522504
 30
0.0000000000563712
 11
5740.835697536573
 21
-585.7334006384905
 31
0.0000000000563712
  0
LINE
  5
B8E3
330
18
100
AcDbEntity
  8
01
100
AcDbLine
 10
5754.351927899756
 20
-585.0953505525385
 30
0.0000000000563712
 11
5748.293902662078
 21
-585.3729375641758
 31
0.0000000000563712
  0
LINE
  5
B8E4
330
18
100
AcDbEntity
  8
01
100
AcDbLine
 10
5848.383548379527
 20
-580.7912053989266
 30
0.0000000000563712
 11
5754.351927899734
 21
-585.0953505519701
 31
0.0000000000563712
  0
LINE
  5
B8E5
330
18
100
AcDbEntity
  8
01
100
AcDbLine
 10
5741.104414094705
 20
-565.8527511135644
 30
0.0000000000563712
 11
5748.276948413216
 21
-566.1889589958137
 31
0.0000000000563712
  0
LINE
  5
B8E6
330
18
100
AcDbEntity
  8
01
100
AcDbLine
 10
5748.276948413216
 20
-566.1889589956982
 30
0.0000000000563712
 11
5848.375198460331
 21
-570.7414122336036
 31
0.0000000000563712
  0
LINE
  5
B8E7
330
18
100
AcDbEntity
  8
01
100
AcDbLine
 10
5851.491685295482
 20
-573.6308256813363
 30
0.0000000000563712
 11
5851.648042305424
 21
-573.629529919194
 31
0.0000000000563712
  0
LINE
  5
B8E8
330
18
100
AcDbEntity
  8
01
100
AcDbLine
 10
5851.648042305424
 20
-573.629529919194
 30
0.0000000000563712
 11
5851.804300034485
 21
-573.6240490452813
 31
0.0000000000563712
  0
LINE
  5
B8E9
330
18
100
AcDbEntity
  8
01
100
AcDbLine
 10
5851.804300034485
 20
-573.6240490452813
 30
0.0000000000563712
 11
5851.948555788954
 21
-573.6152190262023
 31
0.0000000000563712
  0
LINE
  5
B8EA
330
18
100
AcDbEntity
  8
01
100
AcDbLine
 10
5851.948555788954
 20
-573.6152190262023
 30
0.0000000000563712
 11
5852.092490258708
 21
-573.602269817826
 31
0.0000000000563712
  0
LINE
  5
B8EB
330
18
100
AcDbEntity
  8
01
100
AcDbLine
 10
5852.092490258708
 20
-573.602269817826
 30
0.0000000000563712
 11
5852.22395684025
 21
-573.5861850718322
 31
0.0000000000563712
  0
LINE
  5
B8EC
330
18
100
AcDbEntity
  8
01
100
AcDbLine
 10
5852.22395684025
 20
-573.5861850718322
 30
0.0000000000563712
 11
5852.289448785348
 21
-573.5763647868553
 31
0.0000000000563712
  0
LINE
  5
B8ED
330
18
100
AcDbEntity
  8
01
100
AcDbLine
 10
5852.289448785348
 20
-573.5763647868553
 30
0.0000000000563712
 11
5852.354735620504
 21
-573.5652061314124
 31
0.0000000000563712
  0
LINE
  5
B8EE
330
18
100
AcDbEntity
  8
01
100
AcDbLine
 10
5852.354735620504
 20
-573.5652061314124
 30
0.0000000000563712
 11
5852.407078055227
 21
-573.5551473475491
 31
0.0000000000563712
  0
LINE
  5
B8EF
330
18
100
AcDbEntity
  8
01
100
AcDbLine
 10
5852.407078055227
 20
-573.5551473475491
 30
0.0000000000563712
 11
5852.459168946671
 21
-573.543899218125
 31
0.0000000000563712
  0
LINE
  5
B8F0
330
18
100
AcDbEntity
  8
01
100
AcDbLine
 10
5852.459168946671
 20
-573.543899218125
 30
0.0000000000563712
 11
5852.510910987441
 21
-573.5312130733435
 31
0.0000000000563712
  0
LINE
  5
B8F1
330
18
100
AcDbEntity
  8
01
100
AcDbLine
 10
5852.510910987441
 20
-573.5312130733435
 30
0.0000000000563712
 11
5852.536620780262
 21
-573.5242530358817
 31
0.0000000000563712
  0
LINE
  5
B8F2
330
18
100
AcDbEntity
  8
01
100
AcDbLine
 10
5852.536620780262
 20
-573.5242530358817
 30
0.0000000000563712
 11
5852.582488077789
 21
-573.5105849100034
 31
0.0000000000563712
  0
LINE
  5
B8F3
330
18
100
AcDbEntity
  8
01
100
AcDbLine
 10
5852.582488077789
 20
-573.5105849100034
 30
0.0000000000563712
 11
5852.602656982247
 21
-573.5039720039185
 31
0.0000000000563712
  0
LINE
  5
B8F4
330
18
100
AcDbEntity
  8
01
100
AcDbLine
 10
5852.602656982247
 20
-573.5039720039185
 30
0.0000000000563712
 11
5852.622687491177
 21
-573.4969509611244
 31
0.0000000000563712
  0
LINE
  5
B8F5
330
18
100
AcDbEntity
  8
01
100
AcDbLine
 10
5852.622687491177
 20
-573.4969509611244
 30
0.0000000000563712
 11
5852.642553512243
 21
-573.4894712175937
 31
0.0000000000563712
  0
LINE
  5
B8F6
330
18
100
AcDbEntity
  8
01
100
AcDbLine
 10
5852.642553512243
 20
-573.4894712175937
 30
0.0000000000563712
 11
5852.659041364939
 21
-573.4828083523007
 31
0.0000000000563712
  0
LINE
  5
B8F7
330
18
100
AcDbEntity
  8
01
100
AcDbLine
 10
5852.659041364939
 20
-573.4828083523007
 30
0.0000000000563712
 11
5852.675342034207
 21
-573.4757104250223
 31
0.0000000000563712
  0
LINE
  5
B8F8
330
18
100
AcDbEntity
  8
01
100
AcDbLine
 10
5852.675342034207
 20
-573.4757104250223
 30
0.0000000000563712
 11
5852.691402042879
 21
-573.4680996610834
 31
0.0000000000563712
  0
LINE
  5
B8F9
330
18
100
AcDbEntity
  8
01
100
AcDbLine
 10
5852.691402042879
 20
-573.4680996610834
 30
0.0000000000563712
 11
5852.699325087878
 21
-573.4640776607807
 31
0.0000000000563712
  0
LINE
  5
B8FA
330
18
100
AcDbEntity
  8
01
100
AcDbLine
 10
5852.699325087878
 20
-573.4640776607807
 30
0.0000000000563712
 11
5852.70716791379
 21
-573.4598982858099
 31
0.0000000000563712
  0
LINE
  5
B8FB
330
18
100
AcDbEntity
  8
01
100
AcDbLine
 10
5852.70716791379
 20
-573.4598982858099
 30
0.0000000000563712
 11
5852.713503320633
 21
-573.4563634625881
 31
0.0000000000563712
  0
LINE
  5
B8FC
330
18
100
AcDbEntity
  8
01
100
AcDbLine
 10
5852.713503320633
 20
-573.4563634625881
 30
0.0000000000563712
 11
5852.719770560542
 21
-573.4527084537392
 31
0.0000000000563712
  0
LINE
  5
B8FD
330
18
100
AcDbEntity
  8
01
100
AcDbLine
 10
5852.719770560542
 20
-573.4527084537392
 30
0.0000000000563712
 11
5852.725959347654
 21
-573.4489243660285
 31
0.0000000000563712
  0
LINE
  5
B8FE
330
18
100
AcDbEntity
  8
01
100
AcDbLine
 10
5852.725959347654
 20
-573.4489243660285
 30
0.0000000000563712
 11
5852.732059396102
 21
-573.4450023062222
 31
0.0000000000563712
  0
LINE
  5
B8FF
330
18
100
AcDbEntity
  8
01
100
AcDbLine
 10
5852.732059396102
 20
-573.4450023062222
 30
0.0000000000563712
 11
5852.738060420024
 21
-573.4409333810863
 31
0.0000000000563712
  0
LINE
  5
B900
330
18
100
AcDbEntity
  8
01
100
AcDbLine
 10
5852.738060420024
 20
-573.4409333810863
 30
0.0000000000563712
 11
5852.743952133555
 21
-573.4367086973862
 31
0.0000000000563712
  0
LINE
  5
B901
330
18
100
AcDbEntity
  8
01
100
AcDbLine
 10
5852.743952133555
 20
-573.4367086973862
 30
0.0000000000563712
 11
5852.749724250832
 21
-573.4323193618882
 31
0.0000000000563712
  0
LINE
  5
B902
330
18
100
AcDbEntity
  8
01
100
AcDbLine
 10
5852.749724250832
 20
-573.4323193618882
 30
0.0000000000563712
 11
5852.755366485989
 21
-573.4277564813578
 31
0.0000000000563712
  0
LINE
  5
B903
330
18
100
AcDbEntity
  8
01
100
AcDbLine
 10
5852.755366485989
 20
-573.4277564813578
 30
0.0000000000563712
 11
5852.759314097399
 21
-573.4243795427954
 31
0.0000000000563712
  0
LINE
  5
B904
330
18
100
AcDbEntity
  8
01
100
AcDbLine
 10
5852.759314097399
 20
-573.4243795427954
 30
0.0000000000563712
 11
5852.763167241804
 21
-573.4208971911087
 31
0.0000000000563712
  0
LINE
  5
B905
330
18
100
AcDbEntity
  8
01
100
AcDbLine
 10
5852.763167241804
 20
-573.4208971911087
 30
0.0000000000563712
 11
5852.766903179766
 21
-573.4172973715297
 31
0.0000000000563712
  0
LINE
  5
B906
330
18
100
AcDbEntity
  8
01
100
AcDbLine
 10
5852.766903179766
 20
-573.4172973715297
 30
0.0000000000563712
 11
5852.768720090256
 21
-573.4154496441649
 31
0.0000000000563712
  0
LINE
  5
B907
330
18
100
AcDbEntity
  8
01
100
AcDbLine
 10
5852.768720090256
 20
-573.4154496441649
 30
0.0000000000563712
 11
5852.770499171846
 21
-573.4135680292891
 31
0.0000000000563712
  0
LINE
  5
B908
330
18
100
AcDbEntity
  8
01
100
AcDbLine
 10
5852.770499171846
 20
-573.4135680292891
 30
0.0000000000563712
 11
5852.772237582104
 21
-573.4116510200558
 31
0.0000000000563712
  0
LINE
  5
B909
330
18
100
AcDbEntity
  8
01
100
AcDbLine
 10
5852.772237582104
 20
-573.4116510200558
 30
0.0000000000563712
 11
5852.773932478602
 21
-573.409697109619
 31
0.0000000000563712
  0
LINE
  5
B90A
330
18
100
AcDbEntity
  8
01
100
AcDbLine
 10
5852.773932478602
 20
-573.409697109619
 30
0.0000000000563712
 11
5852.77558101891
 21
-573.4077047911326
 31
0.0000000000563712
  0
LINE
  5
B90B
330
18
100
AcDbEntity
  8
01
100
AcDbLine
 10
5852.77558101891
 20
-573.4077047911326
 30
0.0000000000563712
 11
5852.777180360597
 21
-573.4056725577504
 31
0.0000000000563712
  0
LINE
  5
B90C
330
18
100
AcDbEntity
  8
01
100
AcDbLine
 10
5852.777180360597
 20
-573.4056725577504
 30
0.0000000000563712
 11
5852.778727661233
 21
-573.4035989026268
 31
0.0000000000563712
  0
LINE
  5
B90D
330
18
100
AcDbEntity
  8
01
100
AcDbLine
 10
5852.778727661233
 20
-573.4035989026268
 30
0.0000000000563712
 11
5852.78022007839
 21
-573.4014823189152
 31
0.0000000000563712
  0
LINE
  5
B90E
330
18
100
AcDbEntity
  8
01
100
AcDbLine
 10
5852.78022007839
 20
-573.4014823189152
 30
0.0000000000563712
 11
5852.781654769635
 21
-573.3993212997696
 31
0.0000000000563712
  0
LINE
  5
B90F
330
18
100
AcDbEntity
  8
01
100
AcDbLine
 10
5852.781654769635
 20
-573.3993212997696
 30
0.0000000000563712
 11
5852.783028892541
 21
-573.3971143383444
 31
0.0000000000563712
  0
LINE
  5
B910
330
18
100
AcDbEntity
  8
01
100
AcDbLine
 10
5852.783028892541
 20
-573.3971143383444
 30
0.0000000000563712
 11
5852.784113410946
 21
-573.3952607467031
 31
0.0000000000563712
  0
LINE
  5
B911
330
18
100
AcDbEntity
  8
01
100
AcDbLine
 10
5852.784113410946
 20
-573.3952607467031
 30
0.0000000000563712
 11
5852.785152201941
 21
-573.3933767778274
 31
0.0000000000563712
  0
LINE
  5
B912
330
18
100
AcDbEntity
  8
01
100
AcDbLine
 10
5852.785152201941
 20
-573.3933767778274
 30
0.0000000000563712
 11
5852.786142588408
 21
-573.3914642682341
 31
0.0000000000563712
  0
LINE
  5
B913
330
18
100
AcDbEntity
  8
01
100
AcDbLine
 10
5852.786142588408
 20
-573.3914642682341
 30
0.0000000000563712
 11
5852.787081893232
 21
-573.3895250544406
 31
0.0000000000563712
  0
LINE
  5
B914
330
18
100
AcDbEntity
  8
01
100
AcDbLine
 10
5852.787081893232
 20
-573.3895250544406
 30
0.0000000000563712
 11
5852.787967439295
 21
-573.3875609729637
 31
0.0000000000563712
  0
LINE
  5
B915
330
18
100
AcDbEntity
  8
01
100
AcDbLine
 10
5852.787967439295
 20
-573.3875609729637
 30
0.0000000000563712
 11
5852.788796549481
 21
-573.3855738603202
 31
0.0000000000563712
  0
LINE
  5
B916
330
18
100
AcDbEntity
  8
01
100
AcDbLine
 10
5852.788796549481
 20
-573.3855738603202
 30
0.0000000000563712
 11
5852.789566546671
 21
-573.3835655530272
 31
0.0000000000563712
  0
LINE
  5
B917
330
18
100
AcDbEntity
  8
01
100
AcDbLine
 10
5852.789566546671
 20
-573.3835655530272
 30
0.0000000000563712
 11
5852.790274753751
 21
-573.381537887602
 31
0.0000000000563712
  0
LINE
  5
B918
330
18
100
AcDbEntity
  8
01
100
AcDbLine
 10
5852.790274753751
 20
-573.381537887602
 30
0.0000000000563712
 11
5852.790918493602
 21
-573.3794927005615
 31
0.0000000000563712
  0
LINE
  5
B919
330
18
100
AcDbEntity
  8
01
100
AcDbLine
 10
5852.790918493602
 20
-573.3794927005615
 30
0.0000000000563712
 11
5852.791495089109
 21
-573.3774318284227
 31
0.0000000000563712
  0
LINE
  5
B91A
330
18
100
AcDbEntity
  8
01
100
AcDbLine
 10
5852.791495089109
 20
-573.3774318284227
 30
0.0000000000563712
 11
5852.792001863154
 21
-573.3753571077025
 31
0.0000000000563712
  0
LINE
  5
B91B
330
18
100
AcDbEntity
  8
01
100
AcDbLine
 10
5852.792001863154
 20
-573.3753571077025
 30
0.0000000000563712
 11
5852.792228230529
 21
-573.3743151280362
 31
0.0000000000563712
  0
LINE
  5
B91C
330
18
100
AcDbEntity
  8
01
100
AcDbLine
 10
5852.792228230529
 20
-573.3743151280362
 30
0.0000000000563712
 11
5852.79243613862
 21
-573.3732703749183
 31
0.0000000000563712
  0
LINE
  5
B91D
330
18
100
AcDbEntity
  8
01
100
AcDbLine
 10
5852.79243613862
 20
-573.3732703749183
 30
0.0000000000563712
 11
5852.792625252788
 21
-573.3722230779135
 31
0.0000000000563712
  0
LINE
  5
B91E
330
18
100
AcDbEntity
  8
01
100
AcDbLine
 10
5852.792625252788
 20
-573.3722230779135
 30
0.0000000000563712
 11
5852.792795238391
 21
-573.3711734665867
 31
0.0000000000563712
  0
LINE
  5
B91F
330
18
100
AcDbEntity
  8
01
100
AcDbLine
 10
5852.792795238391
 20
-573.3711734665867
 30
0.0000000000563712
 11
5852.792945760792
 21
-573.3701217705022
 31
0.0000000000563712
  0
LINE
  5
B920
330
18
100
AcDbEntity
  8
01
100
AcDbLine
 10
5852.792945760792
 20
-573.3701217705022
 30
0.0000000000563712
 11
5852.79307648535
 21
-573.3690682192248
 31
0.0000000000563712
  0
LINE
  5
B921
330
18
100
AcDbEntity
  8
01
100
AcDbLine
 10
5852.79307648535
 20
-573.3690682192248
 30
0.0000000000563712
 11
5852.793187077425
 21
-573.3680130423193
 31
0.0000000000563712
  0
LINE
  5
B922
330
18
100
AcDbEntity
  8
01
100
AcDbLine
 10
5852.793187077425
 20
-573.3680130423193
 30
0.0000000000563712
 11
5852.793277202379
 21
-573.3669564693498
 31
0.0000000000563712
  0
LINE
  5
B923
330
18
100
AcDbEntity
  8
01
100
AcDbLine
 10
5852.793277202379
 20
-573.3669564693498
 30
0.0000000000563712
 11
5852.793346525571
 21
-573.3658987298816
 31
0.0000000000563712
  0
LINE
  5
B924
330
18
100
AcDbEntity
  8
01
100
AcDbLine
 10
5852.793346525571
 20
-573.3658987298816
 30
0.0000000000563712
 11
5852.793394712362
 21
-573.3648400534787
 31
0.0000000000563712
  0
LINE
  5
B925
330
18
100
AcDbEntity
  8
01
100
AcDbLine
 10
5852.793394712362
 20
-573.3648400534787
 30
0.0000000000563712
 11
5852.79342142866
 21
-573.3637875231213
 31
0.0000000000563712
  0
LINE
  5
B926
330
18
100
AcDbEntity
  8
01
100
AcDbLine
 10
5852.79342142866
 20
-573.3637875231213
 30
0.0000000000563712
 11
5852.79342724372
 21
-573.3627345492985
 31
0.0000000000563712
  0
LINE
  5
B927
330
18
100
AcDbEntity
  8
01
100
AcDbLine
 10
5852.79342724372
 20
-573.3627345492985
 30
0.0000000000563712
 11
5852.79341245071
 21
-573.3616813868005
 31
0.0000000000563712
  0
LINE
  5
B928
330
18
100
AcDbEntity
  8
01
100
AcDbLine
 10
5852.79341245071
 20
-573.3616813868005
 30
0.0000000000563712
 11
5852.793377342801
 21
-573.3606282904177
 31
0.0000000000563712
  0
LINE
  5
B929
330
18
100
AcDbEntity
  8
01
100
AcDbLine
 10
5852.793377342801
 20
-573.3606282904177
 30
0.0000000000563712
 11
5852.793322213162
 21
-573.3595755149411
 31
0.0000000000563712
  0
LINE
  5
B92A
330
18
100
AcDbEntity
  8
01
100
AcDbLine
 10
5852.793322213162
 20
-573.3595755149411
 30
0.0000000000563712
 11
5852.793247354961
 21
-573.3585233151603
 31
0.0000000000563712
  0
LINE
  5
B92B
330
18
100
AcDbEntity
  8
01
100
AcDbLine
 10
5852.793247354961
 20
-573.3585233151603
 30
0.0000000000563712
 11
5852.793153061368
 21
-573.3574719458663
 31
0.0000000000563712
  0
LINE
  5
B92C
330
18
100
AcDbEntity
  8
01
100
AcDbLine
 10
5852.793153061368
 20
-573.3574719458663
 30
0.0000000000563712
 11
5852.793039625552
 21
-573.3564216618495
 31
0.0000000000563712
  0
LINE
  5
B92D
330
18
100
AcDbEntity
  8
01
100
AcDbLine
 10
5852.793039625552
 20
-573.3564216618495
 30
0.0000000000563712
 11
5852.792907340681
 21
-573.3553727179003
 31
0.0000000000563712
  0
LINE
  5
B92E
330
18
100
AcDbEntity
  8
01
100
AcDbLine
 10
5852.792907340681
 20
-573.3553727179003
 30
0.0000000000563712
 11
5852.792756499925
 21
-573.354325368809
 31
0.0000000000563712
  0
LINE
  5
B92F
330
18
100
AcDbEntity
  8
01
100
AcDbLine
 10
5852.792756499925
 20
-573.354325368809
 30
0.0000000000563712
 11
5852.792400323436
 21
-573.3522364743624
 31
0.0000000000563712
  0
LINE
  5
B930
330
18
100
AcDbEntity
  8
01
100
AcDbLine
 10
5852.792400323436
 20
-573.3522364743624
 30
0.0000000000563712
 11
5852.791973441436
 21
-573.350157016833
 31
0.0000000000563712
  0
LINE
  5
B931
330
18
100
AcDbEntity
  8
01
100
AcDbLine
 10
5852.791973441436
 20
-573.350157016833
 30
0.0000000000563712
 11
5852.791478199279
 21
-573.3480890345447
 31
0.0000000000563712
  0
LINE
  5
B932
330
18
100
AcDbEntity
  8
01
100
AcDbLine
 10
5852.791478199279
 20
-573.3480890345447
 30
0.0000000000563712
 11
5852.790916942317
 21
-573.3460345658209
 31
0.0000000000563712
  0
LINE
  5
B933
330
18
100
AcDbEntity
  8
01
100
AcDbLine
 10
5852.790916942317
 20
-573.3460345658209
 30
0.0000000000563712
 11
5852.790292015904
 21
-573.3439956489854
 31
0.0000000000563712
  0
LINE
  5
B934
330
18
100
AcDbEntity
  8
01
100
AcDbLine
 10
5852.790292015904
 20
-573.3439956489854
 30
0.0000000000563712
 11
5852.789605765392
 21
-573.3419743223615
 31
0.0000000000563712
  0
LINE
  5
B935
330
18
100
AcDbEntity
  8
01
100
AcDbLine
 10
5852.789605765392
 20
-573.3419743223615
 30
0.0000000000563712
 11
5852.788860536136
 21
-573.3399726242731
 31
0.0000000000563712
  0
LINE
  5
B936
330
18
100
AcDbEntity
  8
01
100
AcDbLine
 10
5852.788860536136
 20
-573.3399726242731
 30
0.0000000000563712
 11
5852.788058673487
 21
-573.3379925930433
 31
0.0000000000563712
  0
LINE
  5
B937
330
18
100
AcDbEntity
  8
01
100
AcDbLine
 10
5852.788058673487
 20
-573.3379925930433
 30
0.0000000000563712
 11
5852.787202522799
 21
-573.3360362669962
 31
0.0000000000563712
  0
LINE
  5
B938
330
18
100
AcDbEntity
  8
01
100
AcDbLine
 10
5852.787202522799
 20
-573.3360362669962
 30
0.0000000000563712
 11
5852.786294429424
 21
-573.3341056844549
 31
0.0000000000563712
  0
LINE
  5
B939
330
18
100
AcDbEntity
  8
01
100
AcDbLine
 10
5852.786294429424
 20
-573.3341056844549
 30
0.0000000000563712
 11
5852.785336738715
 21
-573.3322028837435
 31
0.0000000000563712
  0
LINE
  5
B93A
330
18
100
AcDbEntity
  8
01
100
AcDbLine
 10
5852.785336738715
 20
-573.3322028837435
 30
0.0000000000563712
 11
5852.784078115266
 21
-573.3298743358232
 31
0.0000000000563712
  0
LINE
  5
B93B
330
18
100
AcDbEntity
  8
01
100
AcDbLine
 10
5852.784078115266
 20
-573.3298743358232
 30
0.0000000000563712
 11
5852.782749567385
 21
-573.3275907458394
 31
0.0000000000563712
  0
LINE
  5
B93C
330
18
100
AcDbEntity
  8
01
100
AcDbLine
 10
5852.782749567385
 20
-573.3275907458394
 30
0.0000000000563712
 11
5852.781354450369
 21
-573.3253508257772
 31
0.0000000000563712
  0
LINE
  5
B93D
330
18
100
AcDbEntity
  8
01
100
AcDbLine
 10
5852.781354450369
 20
-573.3253508257772
 30
0.0000000000563712
 11
5852.779896119518
 21
-573.3231532876218
 31
0.0000000000563712
  0
LINE
  5
B93E
330
18
100
AcDbEntity
  8
01
100
AcDbLine
 10
5852.779896119518
 20
-573.3231532876218
 30
0.0000000000563712
 11
5852.778377930127
 21
-573.3209968433589
 31
0.0000000000563712
  0
LINE
  5
B93F
330
18
100
AcDbEntity
  8
01
100
AcDbLine
 10
5852.778377930127
 20
-573.3209968433589
 30
0.0000000000563712
 11
5852.776803237497
 21
-573.3188802049733
 31
0.0000000000563712
  0
LINE
  5
B940
330
18
100
AcDbEntity
  8
01
100
AcDbLine
 10
5852.776803237497
 20
-573.3188802049733
 30
0.0000000000563712
 11
5852.775175396925
 21
-573.3168020844503
 31
0.0000000000563712
  0
LINE
  5
B941
330
18
100
AcDbEntity
  8
01
100
AcDbLine
 10
5852.775175396925
 20
-573.3168020844503
 30
0.0000000000563712
 11
5852.773497763708
 21
-573.314761193775
 31
0.0000000000563712
  0
LINE
  5
B942
330
18
100
AcDbEntity
  8
01
100
AcDbLine
 10
5852.773497763708
 20
-573.314761193775
 30
0.0000000000563712
 11
5852.771773693146
 21
-573.3127562449329
 31
0.0000000000563712
  0
LINE
  5
B943
330
18
100
AcDbEntity
  8
01
100
AcDbLine
 10
5852.771773693146
 20
-573.3127562449329
 30
0.0000000000563712
 11
5852.770006540535
 21
-573.3107859499089
 31
0.0000000000563712
  0
LINE
  5
B944
330
18
100
AcDbEntity
  8
01
100
AcDbLine
 10
5852.770006540535
 20
-573.3107859499089
 30
0.0000000000563712
 11
5852.768199661175
 21
-573.3088490206887
 31
0.0000000000563712
  0
LINE
  5
B945
330
18
100
AcDbEntity
  8
01
100
AcDbLine
 10
5852.768199661175
 20
-573.3088490206887
 30
0.0000000000563712
 11
5852.766356410362
 21
-573.3069441692571
 31
0.0000000000563712
  0
LINE
  5
B946
330
18
100
AcDbEntity
  8
01
100
AcDbLine
 10
5852.766356410362
 20
-573.3069441692571
 30
0.0000000000563712
 11
5852.762574215572
 21
-573.3032255477012
 31
0.0000000000563712
  0
LINE
  5
B947
330
18
100
AcDbEntity
  8
01
100
AcDbLine
 10
5852.762574215572
 20
-573.3032255477012
 30
0.0000000000563712
 11
5852.75868679855
 21
-573.2996197811233
 31
0.0000000000563712
  0
LINE
  5
B948
330
18
100
AcDbEntity
  8
01
100
AcDbLine
 10
5852.75868679855
 20
-573.2996197811233
 30
0.0000000000563712
 11
5852.753591052539
 21
-573.2951554728645
 31
0.0000000000563712
  0
LINE
  5
B949
330
18
100
AcDbEntity
  8
01
100
AcDbLine
 10
5852.753591052539
 20
-573.2951554728645
 30
0.0000000000563712
 11
5852.748370253269
 21
-573.2908562156858
 31
0.0000000000563712
  0
LINE
  5
B94A
330
18
100
AcDbEntity
  8
01
100
AcDbLine
 10
5852.748370253269
 20
-573.2908562156858
 30
0.0000000000563712
 11
5852.743027780816
 21
-573.2867190206741
 31
0.0000000000563712
  0
LINE
  5
B94B
330
18
100
AcDbEntity
  8
01
100
AcDbLine
 10
5852.743027780816
 20
-573.2867190206741
 30
0.0000000000563712
 11
5852.737567015258
 21
-573.2827408989167
 31
0.0000000000563712
  0
LINE
  5
B94C
330
18
100
AcDbEntity
  8
01
100
AcDbLine
 10
5852.737567015258
 20
-573.2827408989167
 30
0.0000000000563712
 11
5852.731991336673
 21
-573.2789188615
 31
0.0000000000563712
  0
LINE
  5
B94D
330
18
100
AcDbEntity
  8
01
100
AcDbLine
 10
5852.731991336673
 20
-573.2789188615
 30
0.0000000000563712
 11
5852.726304125138
 21
-573.2752499195108
 31
0.0000000000563712
  0
LINE
  5
B94E
330
18
100
AcDbEntity
  8
01
100
AcDbLine
 10
5725.544336472241
 20
-573.1010081840361
 30
0.0000000000563712
 11
5851.491685295482
 21
-573.6308256813363
 31
0.0000000000563712
  0
LINE
  5
B94F
330
18
100
AcDbEntity
  8
01
100
AcDbLine
 10
5851.491685295482
 20
-577.8896209498819
 30
0.0000000000563712
 11
5725.54435665075
 21
-578.4194478465943
 31
0.0000000000563712
  0
LINE
  5
B950
330
18
100
AcDbEntity
  8
01
100
AcDbLine
 10
5852.780706855395
 20
-578.1961262878169
 30
0.0000000000563712
 11
5852.782305398632
 21
-578.1936984330064
 31
0.0000000000563712
  0
LINE
  5
B951
330
18
100
AcDbEntity
  8
01
100
AcDbLine
 10
5852.782305398632
 20
-578.1936984330064
 30
0.0000000000563712
 11
5852.783819780805
 21
-578.1912268167519
 31
0.0000000000563712
  0
LINE
  5
B952
330
18
100
AcDbEntity
  8
01
100
AcDbLine
 10
5852.783819780805
 20
-578.1912268167519
 30
0.0000000000563712
 11
5852.784543240685
 21
-578.1899744367131
 31
0.0000000000563712
  0
LINE
  5
B953
330
18
100
AcDbEntity
  8
01
100
AcDbLine
 10
5852.784543240685
 20
-578.1899744367131
 30
0.0000000000563712
 11
5852.78524305533
 21
-578.1887109226698
 31
0.0000000000563712
  0
LINE
  5
B954
330
18
100
AcDbEntity
  8
01
100
AcDbLine
 10
5852.78524305533
 20
-578.1887109226698
 30
0.0000000000563712
 11
5852.785918356419
 21
-578.1874362100732
 31
0.0000000000563712
  0
LINE
  5
B955
330
18
100
AcDbEntity
  8
01
100
AcDbLine
 10
5852.785918356419
 20
-578.1874362100732
 30
0.0000000000563712
 11
5852.786568275626
 21
-578.1861502343759
 31
0.0000000000563712
  0
LINE
  5
B956
330
18
100
AcDbEntity
  8
01
100
AcDbLine
 10
5852.786568275626
 20
-578.1861502343759
 30
0.0000000000563712
 11
5852.787191944632
 21
-578.1848529310296
 31
0.0000000000563712
  0
LINE
  5
B957
330
18
100
AcDbEntity
  8
01
100
AcDbLine
 10
5852.787191944632
 20
-578.1848529310296
 30
0.0000000000563712
 11
5852.787788495111
 21
-578.1835442354866
 31
0.0000000000563712
  0
LINE
  5
B958
330
18
100
AcDbEntity
  8
01
100
AcDbLine
 10
5852.787788495111
 20
-578.1835442354866
 30
0.0000000000563712
 11
5852.788357058742
 21
-578.1822240831987
 31
0.0000000000563712
  0
LINE
  5
B959
330
18
100
AcDbEntity
  8
01
100
AcDbLine
 10
5852.788357058742
 20
-578.1822240831987
 30
0.0000000000563712
 11
5852.788896767202
 21
-578.1808924096179
 31
0.0000000000563712
  0
LINE
  5
B95A
330
18
100
AcDbEntity
  8
01
100
AcDbLine
 10
5852.788896767202
 20
-578.1808924096179
 30
0.0000000000563712
 11
5852.789406752168
 21
-578.1795491501962
 31
0.0000000000563712
  0
LINE
  5
B95B
330
18
100
AcDbEntity
  8
01
100
AcDbLine
 10
5852.789406752168
 20
-578.1795491501962
 30
0.0000000000563712
 11
5852.789886145318
 21
-578.1781942403857
 31
0.0000000000563712
  0
LINE
  5
B95C
330
18
100
AcDbEntity
  8
01
100
AcDbLine
 10
5852.789886145318
 20
-578.1781942403857
 30
0.0000000000563712
 11
5852.790334078328
 21
-578.1768276156386
 31
0.0000000000563712
  0
LINE
  5
B95D
330
18
100
AcDbEntity
  8
01
100
AcDbLine
 10
5852.790334078328
 20
-578.1768276156386
 30
0.0000000000563712
 11
5852.790749682875
 21
-578.1754492114067
 31
0.0000000000563712
  0
LINE
  5
B95E
330
18
100
AcDbEntity
  8
01
100
AcDbLine
 10
5852.790749682875
 20
-578.1754492114067
 30
0.0000000000563712
 11
5852.791079244656
 21
-578.1742598371673
 31
0.0000000000563712
  0
LINE
  5
B95F
330
18
100
AcDbEntity
  8
01
100
AcDbLine
 10
5852.791079244656
 20
-578.1742598371673
 30
0.0000000000563712
 11
5852.791384526608
 21
-578.1730623723363
 31
0.0000000000563712
  0
LINE
  5
B960
330
18
100
AcDbEntity
  8
01
100
AcDbLine
 10
5852.791384526608
 20
-578.1730623723363
 30
0.0000000000563712
 11
5852.791665579873
 21
-578.1718574071867
 31
0.0000000000563712
  0
LINE
  5
B961
330
18
100
AcDbEntity
  8
01
100
AcDbLine
 10
5852.791665579873
 20
-578.1718574071867
 30
0.0000000000563712
 11
5852.791922455593
 21
-578.1706455319929
 31
0.0000000000563712
  0
LINE
  5
B962
330
18
100
AcDbEntity
  8
01
100
AcDbLine
 10
5852.791922455593
 20
-578.1706455319929
 30
0.0000000000563712
 11
5852.792155204912
 21
-578.1694273370279
 31
0.0000000000563712
  0
LINE
  5
B963
330
18
100
AcDbEntity
  8
01
100
AcDbLine
 10
5852.792155204912
 20
-578.1694273370279
 30
0.0000000000563712
 11
5852.792363878971
 21
-578.1682034125654
 31
0.0000000000563712
  0
LINE
  5
B964
330
18
100
AcDbEntity
  8
01
100
AcDbLine
 10
5852.792363878971
 20
-578.1682034125654
 30
0.0000000000563712
 11
5852.792548528913
 21
-578.1669743488794
 31
0.0000000000563712
  0
LINE
  5
B965
330
18
100
AcDbEntity
  8
01
100
AcDbLine
 10
5852.792548528913
 20
-578.1669743488794
 30
0.0000000000563712
 11
5852.792709205881
 21
-578.1657407362434
 31
0.0000000000563712
  0
LINE
  5
B966
330
18
100
AcDbEntity
  8
01
100
AcDbLine
 10
5852.792709205881
 20
-578.1657407362434
 30
0.0000000000563712
 11
5852.792845961017
 21
-578.1645031649307
 31
0.0000000000563712
  0
LINE
  5
B967
330
18
100
AcDbEntity
  8
01
100
AcDbLine
 10
5852.792845961017
 20
-578.1645031649307
 30
0.0000000000563712
 11
5852.792958845463
 21
-578.1632622252152
 31
0.0000000000563712
  0
LINE
  5
B968
330
18
100
AcDbEntity
  8
01
100
AcDbLine
 10
5852.792958845463
 20
-578.1632622252152
 30
0.0000000000563712
 11
5852.793047910362
 21
-578.1620185073707
 31
0.0000000000563712
  0
LINE
  5
B969
330
18
100
AcDbEntity
  8
01
100
AcDbLine
 10
5852.793047910362
 20
-578.1620185073707
 30
0.0000000000563712
 11
5852.793113206856
 21
-578.1607726016707
 31
0.0000000000563712
  0
LINE
  5
B96A
330
18
100
AcDbEntity
  8
01
100
AcDbLine
 10
5852.793113206856
 20
-578.1607726016707
 30
0.0000000000563712
 11
5852.793154786088
 21
-578.1595250983885
 31
0.0000000000563712
  0
LINE
  5
B96B
330
18
100
AcDbEntity
  8
01
100
AcDbLine
 10
5852.793154786088
 20
-578.1595250983885
 30
0.0000000000563712
 11
5852.793172699201
 21
-578.1582765877984
 31
0.0000000000563712
  0
LINE
  5
B96C
330
18
100
AcDbEntity
  8
01
100
AcDbLine
 10
5852.793172699201
 20
-578.1582765877984
 30
0.0000000000563712
 11
5852.793166997336
 21
-578.1570276601735
 31
0.0000000000563712
  0
LINE
  5
B96D
330
18
100
AcDbEntity
  8
01
100
AcDbLine
 10
5852.793166997336
 20
-578.1570276601735
 30
0.0000000000563712
 11
5852.793137731636
 21
-578.1557789057874
 31
0.0000000000563712
  0
LINE
  5
B96E
330
18
100
AcDbEntity
  8
01
100
AcDbLine
 10
5852.793137731636
 20
-578.1557789057874
 30
0.0000000000563712
 11
5852.793084953244
 21
-578.1545309149142
 31
0.0000000000563712
  0
LINE
  5
B96F
330
18
100
AcDbEntity
  8
01
100
AcDbLine
 10
5852.793084953244
 20
-578.1545309149142
 30
0.0000000000563712
 11
5852.793008713302
 21
-578.1532842778272
 31
0.0000000000563712
  0
LINE
  5
B970
330
18
100
AcDbEntity
  8
01
100
AcDbLine
 10
5852.793008713302
 20
-578.1532842778272
 30
0.0000000000563712
 11
5852.792909062952
 21
-578.1520395847999
 31
0.0000000000563712
  0
LINE
  5
B971
330
18
100
AcDbEntity
  8
01
100
AcDbLine
 10
5852.792909062952
 20
-578.1520395847999
 30
0.0000000000563712
 11
5852.792786053338
 21
-578.1507974261065
 31
0.0000000000563712
  0
LINE
  5
B972
330
18
100
AcDbEntity
  8
01
100
AcDbLine
 10
5852.792786053338
 20
-578.1507974261065
 30
0.0000000000563712
 11
5852.792639735601
 21
-578.1495583920198
 31
0.0000000000563712
  0
LINE
  5
B973
330
18
100
AcDbEntity
  8
01
100
AcDbLine
 10
5852.792639735601
 20
-578.1495583920198
 30
0.0000000000563712
 11
5852.792470160884
 21
-578.1483230728143
 31
0.0000000000563712
  0
LINE
  5
B974
330
18
100
AcDbEntity
  8
01
100
AcDbLine
 10
5852.792470160884
 20
-578.1483230728143
 30
0.0000000000563712
 11
5852.792277380329
 21
-578.1470920587631
 31
0.0000000000563712
  0
LINE
  5
B975
330
18
100
AcDbEntity
  8
01
100
AcDbLine
 10
5852.792277380329
 20
-578.1470920587631
 30
0.0000000000563712
 11
5852.79206144508
 21
-578.1458659401399
 31
0.0000000000563712
  0
LINE
  5
B976
330
18
100
AcDbEntity
  8
01
100
AcDbLine
 10
5852.79206144508
 20
-578.1458659401399
 30
0.0000000000563712
 11
5852.791822406278
 21
-578.1446453072185
 31
0.0000000000563712
  0
LINE
  5
B977
330
18
100
AcDbEntity
  8
01
100
AcDbLine
 10
5852.791822406278
 20
-578.1446453072185
 30
0.0000000000563712
 11
5852.791560315065
 21
-578.1434307502725
 31
0.0000000000563712
  0
LINE
  5
B978
330
18
100
AcDbEntity
  8
01
100
AcDbLine
 10
5852.791560315065
 20
-578.1434307502725
 30
0.0000000000563712
 11
5852.791275222584
 21
-578.1422228595752
 31
0.0000000000563712
  0
LINE
  5
B979
330
18
100
AcDbEntity
  8
01
100
AcDbLine
 10
5852.791275222584
 20
-578.1422228595752
 30
0.0000000000563712
 11
5852.790967179978
 21
-578.1410222254008
 31
0.0000000000563712
  0
LINE
  5
B97A
330
18
100
AcDbEntity
  8
01
100
AcDbLine
 10
5852.790967179978
 20
-578.1410222254008
 30
0.0000000000563712
 11
5852.790636238389
 21
-578.1398294380226
 31
0.0000000000563712
  0
LINE
  5
B97B
330
18
100
AcDbEntity
  8
01
100
AcDbLine
 10
5852.790636238389
 20
-578.1398294380226
 30
0.0000000000563712
 11
5852.79028244896
 21
-578.1386450877142
 31
0.0000000000563712
  0
LINE
  5
B97C
330
18
100
AcDbEntity
  8
01
100
AcDbLine
 10
5852.79028244896
 20
-578.1386450877142
 30
0.0000000000563712
 11
5852.789905862834
 21
-578.1374697647493
 31
0.0000000000563712
  0
LINE
  5
B97D
330
18
100
AcDbEntity
  8
01
100
AcDbLine
 10
5852.789905862834
 20
-578.1374697647493
 30
0.0000000000563712
 11
5852.789506531151
 21
-578.1363040594015
 31
0.0000000000563712
  0
LINE
  5
B97E
330
18
100
AcDbEntity
  8
01
100
AcDbLine
 10
5852.789506531151
 20
-578.1363040594015
 30
0.0000000000563712
 11
5852.789007188508
 21
-578.1349439689459
 31
0.0000000000563712
  0
LINE
  5
B97F
330
18
100
AcDbEntity
  8
01
100
AcDbLine
 10
5852.789007188508
 20
-578.1349439689459
 30
0.0000000000563712
 11
5852.788477155969
 21
-578.1335978681057
 31
0.0000000000563712
  0
LINE
  5
B980
330
18
100
AcDbEntity
  8
01
100
AcDbLine
 10
5852.788477155969
 20
-578.1335978681057
 30
0.0000000000563712
 11
5852.787917228872
 21
-578.1322655845174
 31
0.0000000000563712
  0
LINE
  5
B981
330
18
100
AcDbEntity
  8
01
100
AcDbLine
 10
5852.787917228872
 20
-578.1322655845174
 30
0.0000000000563712
 11
5852.787328202548
 21
-578.1309469458186
 31
0.0000000000563712
  0
LINE
  5
B982
330
18
100
AcDbEntity
  8
01
100
AcDbLine
 10
5852.787328202548
 20
-578.1309469458186
 30
0.0000000000563712
 11
5852.786710872335
 21
-578.1296417796464
 31
0.0000000000563712
  0
LINE
  5
B983
330
18
100
AcDbEntity
  8
01
100
AcDbLine
 10
5852.786710872335
 20
-578.1296417796464
 30
0.0000000000563712
 11
5852.786066033565
 21
-578.1283499136377
 31
0.0000000000563712
  0
LINE
  5
B984
330
18
100
AcDbEntity
  8
01
100
AcDbLine
 10
5852.786066033565
 20
-578.1283499136377
 30
0.0000000000563712
 11
5852.785394481573
 21
-578.1270711754296
 31
0.0000000000563712
  0
LINE
  5
B985
330
18
100
AcDbEntity
  8
01
100
AcDbLine
 10
5852.785394481573
 20
-578.1270711754296
 30
0.0000000000563712
 11
5852.784697011695
 21
-578.1258053926595
 31
0.0000000000563712
  0
LINE
  5
B986
330
18
100
AcDbEntity
  8
01
100
AcDbLine
 10
5852.784697011695
 20
-578.1258053926595
 30
0.0000000000563712
 11
5852.783974419264
 21
-578.1245523929642
 31
0.0000000000563712
  0
LINE
  5
B987
330
18
100
AcDbEntity
  8
01
100
AcDbLine
 10
5852.783974419264
 20
-578.1245523929642
 30
0.0000000000563712
 11
5852.783227499616
 21
-578.123312003981
 31
0.0000000000563712
  0
LINE
  5
B988
330
18
100
AcDbEntity
  8
01
100
AcDbLine
 10
5852.783227499616
 20
-578.123312003981
 30
0.0000000000563712
 11
5852.782457048084
 21
-578.1220840533472
 31
0.0000000000563712
  0
LINE
  5
B989
330
18
100
AcDbEntity
  8
01
100
AcDbLine
 10
5852.782457048084
 20
-578.1220840533472
 30
0.0000000000563712
 11
5852.781663860003
 21
-578.1208683686993
 31
0.0000000000563712
  0
LINE
  5
B98A
330
18
100
AcDbEntity
  8
01
100
AcDbLine
 10
5852.781663860003
 20
-578.1208683686993
 30
0.0000000000563712
 11
5852.780012455534
 21
-578.1184731079113
 31
0.0000000000563712
  0
LINE
  5
B98B
330
18
100
AcDbEntity
  8
01
100
AcDbLine
 10
5852.780012455534
 20
-578.1184731079113
 30
0.0000000000563712
 11
5852.778279648885
 21
-578.1161248427136
 31
0.0000000000563712
  0
LINE
  5
B98C
330
18
100
AcDbEntity
  8
01
100
AcDbLine
 10
5852.778279648885
 20
-578.1161248427136
 30
0.0000000000563712
 11
5852.776471802733
 21
-578.1138221942033
 31
0.0000000000563712
  0
LINE
  5
B98D
330
18
100
AcDbEntity
  8
01
100
AcDbLine
 10
5852.776471802733
 20
-578.1138221942033
 30
0.0000000000563712
 11
5852.774595279753
 21
-578.1115637834773
 31
0.0000000000563712
  0
LINE
  5
B98E
330
18
100
AcDbEntity
  8
01
100
AcDbLine
 10
5852.774595279753
 20
-578.1115637834773
 30
0.0000000000563712
 11
5852.772656442624
 21
-578.1093482316326
 31
0.0000000000563712
  0
LINE
  5
B98F
330
18
100
AcDbEntity
  8
01
100
AcDbLine
 10
5852.772656442624
 20
-578.1093482316326
 30
0.0000000000563712
 11
5852.77066165402
 21
-578.1071741597659
 31
0.0000000000563712
  0
LINE
  5
B990
330
18
100
AcDbEntity
  8
01
100
AcDbLine
 10
5852.77066165402
 20
-578.1071741597659
 30
0.0000000000563712
 11
5852.768617276619
 21
-578.1050401889743
 31
0.0000000000563712
  0
LINE
  5
B991
330
18
100
AcDbEntity
  8
01
100
AcDbLine
 10
5852.768617276619
 20
-578.1050401889743
 30
0.0000000000563712
 11
5852.766529673097
 21
-578.1029449403545
 31
0.0000000000563712
  0
LINE
  5
B992
330
18
100
AcDbEntity
  8
01
100
AcDbLine
 10
5852.766529673097
 20
-578.1029449403545
 30
0.0000000000563712
 11
5852.762250238399
 21
-578.0988650940185
 31
0.0000000000563712
  0
LINE
  5
B993
330
18
100
AcDbEntity
  8
01
100
AcDbLine
 10
5852.762250238399
 20
-578.0988650940185
 30
0.0000000000563712
 11
5852.758462319734
 21
-578.095447277153
 31
0.0000000000563712
  0
LINE
  5
B994
330
18
100
AcDbEntity
  8
01
100
AcDbLine
 10
5852.758462319734
 20
-578.095447277153
 30
0.0000000000563712
 11
5852.754605206464
 21
-578.0921294366033
 31
0.0000000000563712
  0
LINE
  5
B995
330
18
100
AcDbEntity
  8
01
100
AcDbLine
 10
5852.754605206464
 20
-578.0921294366033
 30
0.0000000000563712
 11
5852.750682003828
 21
-578.0889079562558
 31
0.0000000000563712
  0
LINE
  5
B996
330
18
100
AcDbEntity
  8
01
100
AcDbLine
 10
5852.750682003828
 20
-578.0889079562558
 30
0.0000000000563712
 11
5852.746695817064
 21
-578.0857792199979
 31
0.0000000000563712
  0
LINE
  5
B997
330
18
100
AcDbEntity
  8
01
100
AcDbLine
 10
5852.746695817064
 20
-578.0857792199979
 30
0.0000000000563712
 11
5852.742649751409
 21
-578.0827396117163
 31
0.0000000000563712
  0
LINE
  5
B998
330
18
100
AcDbEntity
  8
01
100
AcDbLine
 10
5852.742649751409
 20
-578.0827396117163
 30
0.0000000000563712
 11
5852.738546912101
 21
-578.0797855152985
 31
0.0000000000563712
  0
LINE
  5
B999
330
18
100
AcDbEntity
  8
01
100
AcDbLine
 10
5852.738546912101
 20
-578.0797855152985
 30
0.0000000000563712
 11
5852.734390404378
 21
-578.0769133146307
 31
0.0000000000563712
  0
LINE
  5
B99A
330
18
100
AcDbEntity
  8
01
100
AcDbLine
 10
5852.734390404378
 20
-578.0769133146307
 30
0.0000000000563712
 11
5852.730183333477
 21
-578.0741193936008
 31
0.0000000000563712
  0
LINE
  5
B99B
330
18
100
AcDbEntity
  8
01
100
AcDbLine
 10
5852.730183333477
 20
-578.0741193936008
 30
0.0000000000563712
 11
5852.721629923093
 21
-578.0687519260005
 31
0.0000000000563712
  0
LINE
  5
B99C
330
18
100
AcDbEntity
  8
01
100
AcDbLine
 10
5852.721629923093
 20
-578.0687519260005
 30
0.0000000000563712
 11
5852.712911522851
 21
-578.0636541835938
 31
0.0000000000563712
  0
LINE
  5
B99D
330
18
100
AcDbEntity
  8
01
100
AcDbLine
 10
5852.712911522851
 20
-578.0636541835938
 30
0.0000000000563712
 11
5852.704052974653
 21
-578.0587972374763
 31
0.0000000000563712
  0
LINE
  5
B99E
330
18
100
AcDbEntity
  8
01
100
AcDbLine
 10
5852.704052974653
 20
-578.0587972374763
 30
0.0000000000563712
 11
5852.695079120399
 21
-578.054152158744
 31
0.0000000000563712
  0
LINE
  5
B99F
330
18
100
AcDbEntity
  8
01
100
AcDbLine
 10
5852.695079120399
 20
-578.054152158744
 30
0.0000000000563712
 11
5852.682656176004
 21
-578.0480976389124
 31
0.0000000000563712
  0
LINE
  5
B9A0
330
18
100
AcDbEntity
  8
01
100
AcDbLine
 10
5852.682656176004
 20
-578.0480976389124
 30
0.0000000000563712
 11
5852.670080368249
 21
-578.042359832134
 31
0.0000000000563712
  0
LINE
  5
B9A1
330
18
100
AcDbEntity
  8
01
100
AcDbLine
 10
5852.670080368249
 20
-578.042359832134
 30
0.0000000000563712
 11
5852.65736805611
 21
-578.036913246546
 31
0.0000000000563712
  0
LINE
  5
B9A2
330
18
100
AcDbEntity
  8
01
100
AcDbLine
 10
5852.65736805611
 20
-578.036913246546
 30
0.0000000000563712
 11
5852.644535598569
 21
-578.0317323902857
 31
0.0000000000563712
  0
LINE
  5
B9A3
330
18
100
AcDbEntity
  8
01
100
AcDbLine
 10
5852.644535598569
 20
-578.0317323902857
 30
0.0000000000563712
 11
5852.618575683195
 21
-578.0220658982971
 31
0.0000000000563712
  0
LINE
  5
B9A4
330
18
100
AcDbEntity
  8
01
100
AcDbLine
 10
5852.618575683195
 20
-578.0220658982971
 30
0.0000000000563712
 11
5852.592331493961
 21
-578.0131564212666
 31
0.0000000000563712
  0
LINE
  5
B9A5
330
18
100
AcDbEntity
  8
01
100
AcDbLine
 10
5852.592331493961
 20
-578.0131564212666
 30
0.0000000000563712
 11
5852.556607873834
 21
-578.0020314441238
 31
0.0000000000563712
  0
LINE
  5
B9A6
330
18
100
AcDbEntity
  8
01
100
AcDbLine
 10
5852.556607873834
 20
-578.0020314441238
 30
0.0000000000563712
 11
5852.520632360774
 21
-577.9918394580366
 31
0.0000000000563712
  0
LINE
  5
B9A7
330
18
100
AcDbEntity
  8
01
100
AcDbLine
 10
5852.520632360774
 20
-577.9918394580366
 30
0.0000000000563712
 11
5852.484433040694
 21
-577.9825040103092
 31
0.0000000000563712
  0
LINE
  5
B9A8
330
18
100
AcDbEntity
  8
01
100
AcDbLine
 10
5852.484433040694
 20
-577.9825040103092
 30
0.0000000000563712
 11
5852.448037999508
 21
-577.973948648246
 31
0.0000000000563712
  0
LINE
  5
B9A9
330
18
100
AcDbEntity
  8
01
100
AcDbLine
 10
5852.448037999508
 20
-577.973948648246
 30
0.0000000000563712
 11
5852.374773097473
 21
-577.9588723703298
 31
0.0000000000563712
  0
LINE
  5
B9AA
330
18
100
AcDbEntity
  8
01
100
AcDbLine
 10
5852.374773097473
 20
-577.9588723703298
 30
0.0000000000563712
 11
5852.301062341974
 21
-577.9459990027215
 31
0.0000000000563712
  0
LINE
  5
B9AB
330
18
100
AcDbEntity
  8
01
100
AcDbLine
 10
5852.301062341974
 20
-577.9459990027215
 30
0.0000000000563712
 11
5852.208838997227
 21
-577.932274052175
 31
0.0000000000563712
  0
LINE
  5
B9AC
330
18
100
AcDbEntity
  8
01
100
AcDbLine
 10
5852.208838997227
 20
-577.932274052175
 30
0.0000000000563712
 11
5852.11632681791
 21
-577.9208176074997
 31
0.0000000000563712
  0
LINE
  5
B9AD
330
18
100
AcDbEntity
  8
01
100
AcDbLine
 10
5852.11632681791
 20
-577.9208176074997
 30
0.0000000000563712
 11
5852.023580576923
 21
-577.9114259215473
 31
0.0000000000563712
  0
LINE
  5
B9AE
330
18
100
AcDbEntity
  8
01
100
AcDbLine
 10
5852.023580576923
 20
-577.9114259215473
 30
0.0000000000563712
 11
5851.930655047167
 21
-577.9038952471694
 31
0.0000000000563712
  0
LINE
  5
B9AF
330
18
100
AcDbEntity
  8
01
100
AcDbLine
 10
5851.930655047167
 20
-577.9038952471694
 30
0.0000000000563712
 11
5851.821035195655
 21
-577.897170956637
 31
0.0000000000563712
  0
LINE
  5
B9B0
330
18
100
AcDbEntity
  8
01
100
AcDbLine
 10
5851.821035195655
 20
-577.897170956637
 30
0.0000000000563712
 11
5851.711297203942
 21
-577.8926287254276
 31
0.0000000000563712
  0
LINE
  5
B9B1
330
18
100
AcDbEntity
  8
01
100
AcDbLine
 10
5851.711297203942
 20
-577.8926287254276
 30
0.0000000000563712
 11
5851.60149569592
 21
-577.8901511807674
 31
0.0000000000563712
  0
LINE
  5
B9B2
330
18
100
AcDbEntity
  8
01
100
AcDbLine
 10
5851.60149569592
 20
-577.8901511807674
 30
0.0000000000563712
 11
5851.491685295482
 21
-577.8896209498819
 31
0.0000000000563712
  0
LINE
  5
B9B3
330
18
100
AcDbEntity
  8
01
100
AcDbLine
 10
5741.754080987467
 20
-591.1539387575126
 30
0.0000000000563712
 11
5740.52942705875
 21
-590.2897693958446
 31
0.0000000000563712
  0
LINE
  5
B9B4
330
18
100
AcDbEntity
  8
01
100
AcDbLine
 10
5740.52942705875
 20
-590.2897693958446
 30
0.0000000000563712
 11
5739.137655218503
 21
-589.350230085206
 31
0.0000000000563712
  0
LINE
  5
B9B5
330
18
100
AcDbEntity
  8
01
100
AcDbLine
 10
5848.375198460329
 20
-570.7414122337107
 30
0.0000000000563712
 11
5848.630112118141
 21
-570.7869208106988
 31
0.0000000000563712
  0
LINE
  5
B9B6
330
18
100
AcDbEntity
  8
01
100
AcDbLine
 10
5720.688209178745
 20
-578.5782505307859
 30
0.0000000000563712
 11
5720.554417313951
 21
-578.6046744255034
 31
0.0000000000563712
  0
LINE
  5
B9B7
330
18
100
AcDbEntity
  8
01
100
AcDbLine
 10
5720.554417313951
 20
-578.6046744255034
 30
0.0000000000563712
 11
5720.420632500282
 21
-578.6335364850529
 31
0.0000000000563712
  0
LINE
  5
B9B8
330
18
100
AcDbEntity
  8
01
100
AcDbLine
 10
5720.420632500282
 20
-578.6335364850529
 30
0.0000000000563712
 11
5720.153101462035
 21
-578.6985671297848
 31
0.0000000000563712
  0
LINE
  5
B9B9
330
18
100
AcDbEntity
  8
01
100
AcDbLine
 10
5720.153101462035
 20
-578.6985671297848
 30
0.0000000000563712
 11
5719.885650935439
 21
-578.7733265272539
 31
0.0000000000563712
  0
LINE
  5
B9BA
330
18
100
AcDbEntity
  8
01
100
AcDbLine
 10
5719.885650935439
 20
-578.7733265272539
 30
0.0000000000563712
 11
5719.618315791933
 21
-578.8577987397323
 31
0.0000000000563712
  0
LINE
  5
B9BB
330
18
100
AcDbEntity
  8
01
100
AcDbLine
 10
5719.618315791933
 20
-578.8577987397323
 30
0.0000000000563712
 11
5719.351130902955
 21
-578.9519678294923
 31
0.0000000000563712
  0
LINE
  5
B9BC
330
18
100
AcDbEntity
  8
01
100
AcDbLine
 10
5719.351130902955
 20
-578.9519678294923
 30
0.0000000000563712
 11
5719.084131139942
 21
-579.055817858806
 31
0.0000000000563712
  0
LINE
  5
B9BD
330
18
100
AcDbEntity
  8
01
100
AcDbLine
 10
5719.084131139942
 20
-579.055817858806
 30
0.0000000000563712
 11
5718.817351374331
 21
-579.169332889946
 31
0.0000000000563712
  0
LINE
  5
B9BE
330
18
100
AcDbEntity
  8
01
100
AcDbLine
 10
5718.817351374331
 20
-579.169332889946
 30
0.0000000000563712
 11
5718.550826477562
 21
-579.2924969851838
 31
0.0000000000563712
  0
LINE
  5
B9BF
330
18
100
AcDbEntity
  8
01
100
AcDbLine
 10
5718.550826477562
 20
-579.2924969851838
 30
0.0000000000563712
 11
5718.28459132107
 21
-579.4252942067922
 31
0.0000000000563712
  0
LINE
  5
B9C0
330
18
100
AcDbEntity
  8
01
100
AcDbLine
 10
5718.28459132107
 20
-579.4252942067922
 30
0.0000000000563712
 11
5718.018680776296
 21
-579.5677086170431
 31
0.0000000000563712
  0
LINE
  5
B9C1
330
18
100
AcDbEntity
  8
01
100
AcDbLine
 10
5718.018680776296
 20
-579.5677086170431
 30
0.0000000000563712
 11
5717.753129714675
 21
-579.7197242782088
 31
0.0000000000563712
  0
LINE
  5
B9C2
330
18
100
AcDbEntity
  8
01
100
AcDbLine
 10
5717.753129714675
 20
-579.7197242782088
 30
0.0000000000563712
 11
5717.487973007646
 21
-579.8813252525617
 31
0.0000000000563712
  0
LINE
  5
B9C3
330
18
100
AcDbEntity
  8
01
100
AcDbLine
 10
5717.487973007646
 20
-579.8813252525617
 30
0.0000000000563712
 11
5717.223245526648
 21
-580.0524956023735
 31
0.0000000000563712
  0
LINE
  5
B9C4
330
18
100
AcDbEntity
  8
01
100
AcDbLine
 10
5717.223245526648
 20
-580.0524956023735
 30
0.0000000000563712
 11
5716.958982143115
 21
-580.2332193899169
 31
0.0000000000563712
  0
LINE
  5
B9C5
330
18
100
AcDbEntity
  8
01
100
AcDbLine
 10
5716.958982143115
 20
-580.2332193899169
 30
0.0000000000563712
 11
5716.695217728489
 21
-580.4234806774639
 31
0.0000000000563712
  0
LINE
  5
B9C6
330
18
100
AcDbEntity
  8
01
100
AcDbLine
 10
5716.695217728489
 20
-580.4234806774639
 30
0.0000000000563712
 11
5716.431987154206
 21
-580.6232635272866
 31
0.0000000000563712
  0
LINE
  5
B9C7
330
18
100
AcDbEntity
  8
01
100
AcDbLine
 10
5716.431987154206
 20
-580.6232635272866
 30
0.0000000000563712
 11
5716.169383373469
 21
-580.8325013616384
 31
0.0000000000563712
  0
LINE
  5
B9C8
330
18
100
AcDbEntity
  8
01
100
AcDbLine
 10
5716.169383373469
 20
-580.8325013616384
 30
0.0000000000563712
 11
5715.907372826852
 21
-581.051213230078
 31
0.0000000000563712
  0
LINE
  5
B9C9
330
18
100
AcDbEntity
  8
01
100
AcDbLine
 10
5715.907372826852
 20
-581.051213230078
 30
0.0000000000563712
 11
5715.645980295737
 21
-581.279371871872
 31
0.0000000000563712
  0
LINE
  5
B9CA
330
18
100
AcDbEntity
  8
01
100
AcDbLine
 10
5715.645980295737
 20
-581.279371871872
 30
0.0000000000563712
 11
5715.385230561507
 21
-581.5169500262868
 31
0.0000000000563712
  0
LINE
  5
B9CB
330
18
100
AcDbEntity
  8
01
100
AcDbLine
 10
5715.385230561507
 20
-581.5169500262868
 30
0.0000000000563712
 11
5715.125148405543
 21
-581.7639204325887
 31
0.0000000000563712
  0
LINE
  5
B9CC
330
18
100
AcDbEntity
  8
01
100
AcDbLine
 10
5715.125148405543
 20
-581.7639204325887
 30
0.0000000000563712
 11
5714.865758609228
 21
-582.0202558300443
 31
0.0000000000563712
  0
LINE
  5
B9CD
330
18
100
AcDbEntity
  8
01
100
AcDbLine
 10
5714.865758609228
 20
-582.0202558300443
 30
0.0000000000563712
 11
5714.607085953944
 21
-582.2859289579199
 31
0.0000000000563712
  0
LINE
  5
B9CE
330
18
100
AcDbEntity
  8
01
100
AcDbLine
 10
5714.607085953944
 20
-582.2859289579199
 30
0.0000000000563712
 11
5714.349155221073
 21
-582.560912555482
 31
0.0000000000563712
  0
LINE
  5
B9CF
330
18
100
AcDbEntity
  8
01
100
AcDbLine
 10
5714.349155221073
 20
-582.560912555482
 30
0.0000000000563712
 11
5713.835618648099
 21
-583.1387021167313
 31
0.0000000000563712
  0
LINE
  5
B9D0
330
18
100
AcDbEntity
  8
01
100
AcDbLine
 10
5713.835618648099
 20
-583.1387021167313
 30
0.0000000000563712
 11
5713.325347141364
 21
-583.7534064279234
 31
0.0000000000563712
  0
LINE
  5
B9D1
330
18
100
AcDbEntity
  8
01
100
AcDbLine
 10
5713.325347141364
 20
-583.7534064279234
 30
0.0000000000563712
 11
5712.818538951926
 21
-584.4048074031898
 31
0.0000000000563712
  0
LINE
  5
B9D2
330
18
100
AcDbEntity
  8
01
100
AcDbLine
 10
5712.818538951926
 20
-584.4048074031898
 30
0.0000000000563712
 11
5712.315392330842
 21
-585.092686956662
 31
0.0000000000563712
  0
LINE
  5
B9D3
330
18
100
AcDbEntity
  8
01
100
AcDbLine
 10
5712.315392330842
 20
-585.092686956662
 30
0.0000000000563712
 11
5711.816169875411
 21
-585.8167134460009
 31
0.0000000000563712
  0
LINE
  5
B9D4
330
18
100
AcDbEntity
  8
01
100
AcDbLine
 10
5711.816169875411
 20
-585.8167134460009
 30
0.0000000000563712
 11
5711.321013501441
 21
-586.5766546102291
 31
0.0000000000563712
  0
LINE
  5
B9D5
330
18
100
AcDbEntity
  8
01
100
AcDbLine
 10
5711.321013501441
 20
-586.5766546102291
 30
0.0000000000563712
 11
5710.830130446345
 21
-587.3721737948222
 31
0.0000000000563712
  0
LINE
  5
B9D6
330
18
100
AcDbEntity
  8
01
100
AcDbLine
 10
5710.830130446345
 20
-587.3721737948222
 30
0.0000000000563712
 11
5710.343727947537
 21
-588.2029343452557
 31
0.0000000000563712
  0
LINE
  5
B9D7
330
18
100
AcDbEntity
  8
01
100
AcDbLine
 10
5710.343727947537
 20
-588.2029343452557
 30
0.0000000000563712
 11
5709.862013242432
 21
-589.0685996070058
 31
0.0000000000563712
  0
LINE
  5
B9D8
330
18
100
AcDbEntity
  8
01
100
AcDbLine
 10
5709.862013242432
 20
-589.0685996070058
 30
0.0000000000563712
 11
5709.385193568443
 21
-589.9688329255478
 31
0.0000000000563712
  0
LINE
  5
B9D9
330
18
100
AcDbEntity
  8
01
100
AcDbLine
 10
5709.385193568443
 20
-589.9688329255478
 30
0.0000000000563712
 11
5708.913476162984
 21
-590.9032976463575
 31
0.0000000000563712
  0
LINE
  5
B9DA
330
18
100
AcDbEntity
  8
01
100
AcDbLine
 10
5708.913476162984
 20
-590.9032976463575
 30
0.0000000000563712
 11
5708.447068263469
 21
-591.8716571149109
 31
0.0000000000563712
  0
LINE
  5
B9DB
330
18
100
AcDbEntity
  8
01
100
AcDbLine
 10
5708.447068263469
 20
-591.8716571149109
 30
0.0000000000563712
 11
5707.616520692544
 21
-593.7104855888122
 31
0.0000000000563712
  0
LINE
  5
B9DC
330
18
100
AcDbEntity
  8
01
100
AcDbLine
 10
5707.616520692544
 20
-593.7104855888122
 30
0.0000000000563712
 11
5706.805410040853
 21
-595.6558751286643
 31
0.0000000000563712
  0
LINE
  5
B9DD
330
18
100
AcDbEntity
  8
01
100
AcDbLine
 10
5706.805410040853
 20
-595.6558751286643
 30
0.0000000000563712
 11
5706.015076073591
 21
-597.7043026542513
 31
0.0000000000563712
  0
LINE
  5
B9DE
330
18
100
AcDbEntity
  8
01
100
AcDbLine
 10
5706.015076073591
 20
-597.7043026542513
 30
0.0000000000563712
 11
5705.246858555956
 21
-599.8522450853563
 31
0.0000000000563712
  0
LINE
  5
B9DF
330
18
100
AcDbEntity
  8
01
100
AcDbLine
 10
5705.246858047089
 20
-551.6681983232604
 30
0.0000000000563712
 11
5706.015077527568
 21
-553.8161327129096
 31
0.0000000000563712
  0
LINE
  5
B9E0
330
18
100
AcDbEntity
  8
01
100
AcDbLine
 10
5706.015077527568
 20
-553.8161327129096
 30
0.0000000000563712
 11
5706.805413060453
 21
-555.8645540873324
 31
0.0000000000563712
  0
LINE
  5
B9E1
330
18
100
AcDbEntity
  8
01
100
AcDbLine
 10
5706.805413060453
 20
-555.8645540873324
 30
0.0000000000563712
 11
5707.616524875327
 21
-557.8099399695211
 31
0.0000000000563712
  0
LINE
  5
B9E2
330
18
100
AcDbEntity
  8
01
100
AcDbLine
 10
5707.616524875327
 20
-557.8099399695211
 30
0.0000000000563712
 11
5708.447073201771
 21
-559.6487678824681
 31
0.0000000000563712
  0
LINE
  5
B9E3
330
18
100
AcDbEntity
  8
01
100
AcDbLine
 10
5708.447073201771
 20
-559.6487678824681
 30
0.0000000000563712
 11
5708.913481149307
 21
-560.6171281081372
 31
0.0000000000563712
  0
LINE
  5
B9E4
330
18
100
AcDbEntity
  8
01
100
AcDbLine
 10
5708.913481149307
 20
-560.6171281081372
 30
0.0000000000563712
 11
5709.385198483534
 21
-561.5515943312523
 31
0.0000000000563712
  0
LINE
  5
B9E5
330
18
100
AcDbEntity
  8
01
100
AcDbLine
 10
5709.385198483534
 20
-561.5515943312523
 30
0.0000000000563712
 11
5709.862017978225
 21
-562.4518294867653
 31
0.0000000000563712
  0
LINE
  5
B9E6
330
18
100
AcDbEntity
  8
01
100
AcDbLine
 10
5709.862017978225
 20
-562.4518294867653
 30
0.0000000000563712
 11
5710.343732407152
 21
-563.3174965096284
 31
0.0000000000563712
  0
LINE
  5
B9E7
330
18
100
AcDbEntity
  8
01
100
AcDbLine
 10
5710.343732407152
 20
-563.3174965096284
 30
0.0000000000563712
 11
5710.830134544088
 21
-564.148258334794
 31
0.0000000000563712
  0
LINE
  5
B9E8
330
18
100
AcDbEntity
  8
01
100
AcDbLine
 10
5710.830134544088
 20
-564.148258334794
 30
0.0000000000563712
 11
5711.321017162806
 21
-564.9437778972144
 31
0.0000000000563712
  0
LINE
  5
B9E9
330
18
100
AcDbEntity
  8
01
100
AcDbLine
 10
5711.321017162806
 20
-564.9437778972144
 30
0.0000000000563712
 11
5711.816173037078
 21
-565.7037181318422
 31
0.0000000000563712
  0
LINE
  5
B9EA
330
18
100
AcDbEntity
  8
01
100
AcDbLine
 10
5711.816173037078
 20
-565.7037181318422
 30
0.0000000000563712
 11
5712.315394940676
 21
-566.4277419736288
 31
0.0000000000563712
  0
LINE
  5
B9EB
330
18
100
AcDbEntity
  8
01
100
AcDbLine
 10
5712.315394940676
 20
-566.4277419736288
 30
0.0000000000563712
 11
5712.818540813932
 21
-567.1156167136837
 31
0.0000000000563712
  0
LINE
  5
B9EC
330
18
100
AcDbEntity
  8
01
100
AcDbLine
 10
5712.818540813932
 20
-567.1156167136837
 30
0.0000000000563712
 11
5713.325348231411
 21
-567.7670113820639
 31
0.0000000000563712
  0
LINE
  5
B9ED
330
18
100
AcDbEntity
  8
01
100
AcDbLine
 10
5713.325348231411
 20
-567.7670113820639
 30
0.0000000000563712
 11
5713.83561896127
 21
-568.3817085060011
 31
0.0000000000563712
  0
LINE
  5
B9EE
330
18
100
AcDbEntity
  8
01
100
AcDbLine
 10
5713.83561896127
 20
-568.3817085060011
 30
0.0000000000563712
 11
5714.349154771664
 21
-568.9594906127274
 31
0.0000000000563712
  0
LINE
  5
B9EF
330
18
100
AcDbEntity
  8
01
100
AcDbLine
 10
5714.349154771664
 20
-568.9594906127274
 30
0.0000000000563712
 11
5714.607085134611
 21
-569.2344705743965
 31
0.0000000000563712
  0
LINE
  5
B9F0
330
18
100
AcDbEntity
  8
01
100
AcDbLine
 10
5714.607085134611
 20
-569.2344705743965
 30
0.0000000000563712
 11
5714.865757430752
 21
-569.5001402294749
 31
0.0000000000563712
  0
LINE
  5
B9F1
330
18
100
AcDbEntity
  8
01
100
AcDbLine
 10
5714.865757430752
 20
-569.5001402294749
 30
0.0000000000563712
 11
5715.125146881105
 21
-569.7564723938665
 31
0.0000000000563712
  0
LINE
  5
B9F2
330
18
100
AcDbEntity
  8
01
100
AcDbLine
 10
5715.125146881105
 20
-569.7564723938665
 30
0.0000000000563712
 11
5715.38522870669
 21
-570.0034398834755
 31
0.0000000000563712
  0
LINE
  5
B9F3
330
18
100
AcDbEntity
  8
01
100
AcDbLine
 10
5715.38522870669
 20
-570.0034398834755
 30
0.0000000000563712
 11
5715.645978128527
 21
-570.2410155142059
 31
0.0000000000563712
  0
LINE
  5
B9F4
330
18
100
AcDbEntity
  8
01
100
AcDbLine
 10
5715.645978128527
 20
-570.2410155142059
 30
0.0000000000563712
 11
5715.907370367636
 21
-570.4691721019615
 31
0.0000000000563712
  0
LINE
  5
B9F5
330
18
100
AcDbEntity
  8
01
100
AcDbLine
 10
5715.907370367636
 20
-570.4691721019615
 30
0.0000000000563712
 11
5716.169380645035
 21
-570.6878824626463
 31
0.0000000000563712
  0
LINE
  5
B9F6
330
18
100
AcDbEntity
  8
01
100
AcDbLine
 10
5716.169380645035
 20
-570.6878824626463
 30
0.0000000000563712
 11
5716.431984181745
 21
-570.8971194121646
 31
0.0000000000563712
  0
LINE
  5
B9F7
330
18
100
AcDbEntity
  8
01
100
AcDbLine
 10
5716.431984181745
 20
-570.8971194121646
 30
0.0000000000563712
 11
5716.69521465241
 21
-571.0969021579892
 31
0.0000000000563712
  0
LINE
  5
B9F8
330
18
100
AcDbEntity
  8
01
100
AcDbLine
 10
5716.69521465241
 20
-571.0969021579892
 30
0.0000000000563712
 11
5716.958978931162
 21
-571.2871640489577
 31
0.0000000000563712
  0
LINE
  5
B9F9
330
18
100
AcDbEntity
  8
01
100
AcDbLine
 10
5716.958978931162
 20
-571.2871640489577
 30
0.0000000000563712
 11
5717.223242086171
 21
-571.4678891637811
 31
0.0000000000563712
  0
LINE
  5
B9FA
330
18
100
AcDbEntity
  8
01
100
AcDbLine
 10
5717.223242086171
 20
-571.4678891637811
 30
0.0000000000563712
 11
5717.487969185606
 21
-571.6390615811708
 31
0.0000000000563712
  0
LINE
  5
B9FB
330
18
100
AcDbEntity
  8
01
100
AcDbLine
 10
5717.487969185606
 20
-571.6390615811708
 30
0.0000000000563712
 11
5717.753125297635
 21
-571.8006653798373
 31
0.0000000000563712
  0
LINE
  5
B9FC
330
18
100
AcDbEntity
  8
01
100
AcDbLine
 10
5717.753125297635
 20
-571.8006653798373
 30
0.0000000000563712
 11
5718.018675490428
 21
-571.9526846384915
 31
0.0000000000563712
  0
LINE
  5
B9FD
330
18
100
AcDbEntity
  8
01
100
AcDbLine
 10
5718.018675490428
 20
-571.9526846384915
 30
0.0000000000563712
 11
5718.284584832155
 21
-572.0951034358447
 31
0.0000000000563712
  0
LINE
  5
B9FE
330
18
100
AcDbEntity
  8
01
100
AcDbLine
 10
5718.284584832155
 20
-572.0951034358447
 30
0.0000000000563712
 11
5718.550818390983
 21
-572.2279058506081
 31
0.0000000000563712
  0
LINE
  5
B9FF
330
18
100
AcDbEntity
  8
01
100
AcDbLine
 10
5718.550818390983
 20
-572.2279058506081
 30
0.0000000000563712
 11
5718.817341235082
 21
-572.3510759614919
 31
0.0000000000563712
  0
LINE
  5
BA00
330
18
100
AcDbEntity
  8
01
100
AcDbLine
 10
5718.817341235082
 20
-572.3510759614919
 30
0.0000000000563712
 11
5719.084118432623
 21
-572.4645978472079
 31
0.0000000000563712
  0
LINE
  5
BA01
330
18
100
AcDbEntity
  8
01
100
AcDbLine
 10
5719.084118432623
 20
-572.4645978472079
 30
0.0000000000563712
 11
5719.351115051772
 21
-572.5684555864666
 31
0.0000000000563712
  0
LINE
  5
BA02
330
18
100
AcDbEntity
  8
01
100
AcDbLine
 10
5719.351115051772
 20
-572.5684555864666
 30
0.0000000000563712
 11
5719.618296160701
 21
-572.6626332579792
 31
0.0000000000563712
  0
LINE
  5
BA03
330
18
100
AcDbEntity
  8
01
100
AcDbLine
 10
5719.618296160701
 20
-572.6626332579792
 30
0.0000000000563712
 11
5719.885626827577
 21
-572.7471149404564
 31
0.0000000000563712
  0
LINE
  5
BA04
330
18
100
AcDbEntity
  8
01
100
AcDbLine
 10
5719.885626827577
 20
-572.7471149404564
 30
0.0000000000563712
 11
5720.153072120569
 21
-572.8218847126095
 31
0.0000000000563712
  0
LINE
  5
BA05
330
18
100
AcDbEntity
  8
01
100
AcDbLine
 10
5720.153072120569
 20
-572.8218847126095
 30
0.0000000000563712
 11
5720.420597107848
 21
-572.8869266531494
 31
0.0000000000563712
  0
LINE
  5
BA06
330
18
100
AcDbEntity
  8
01
100
AcDbLine
 10
5720.420597107848
 20
-572.8869266531494
 30
0.0000000000563712
 11
5720.554378570648
 21
-572.9157947111614
 31
0.0000000000563712
  0
LINE
  5
BA07
330
18
100
AcDbEntity
  8
01
100
AcDbLine
 10
5720.554378570648
 20
-572.9157947111614
 30
0.0000000000563712
 11
5720.688166857582
 21
-572.942224840787
 31
0.0000000000563712
  0
LINE
  5
BA08
330
18
100
AcDbEntity
  8
01
100
AcDbLine
 10
5720.815715258747
 20
-578.5583287271963
 30
0.0000000000563712
 11
5720.688209178745
 21
-578.5782505307859
 31
0.0000000000563712
  0
ARC
  5
BA09
330
18
100
AcDbEntity
  8
01
100
AcDbCircle
 10
5724.081296159071
 20
-613.0270838333224
 30
0.0000000000563712
 40
34.62310062924252
100
AcDbArc
 50
88.19635333196631
 51
95.41206666747233
  0
LINE
  5
BA0A
330
18
100
AcDbEntity
  8
01
100
AcDbLine
 10
5725.54435665075
 20
-578.4194478465943
 30
0.0000000000563712
 11
5725.171036576371
 21
-578.4211369021148
 31
0.0000000000563712
  0
LINE
  5
BA0B
330
18
100
AcDbEntity
  8
01
100
AcDbLine
 10
5741.107213090263
 20
-565.8487314312649
 30
0.0000000000563712
 11
5740.917210040001
 21
-565.8362650364381
 31
0.0000000000563712
  0
LINE
  5
BA0C
330
18
100
AcDbEntity
  8
01
100
AcDbLine
 10
5736.782443758515
 20
-562.8966622006599
 30
0.0000000000563712
 11
5740.307214200565
 21
-560.3091756787621
 31
0.0000000000563712
  0
LINE
  5
BA0D
330
18
100
AcDbEntity
  8
01
100
AcDbLine
 10
5740.307214200565
 20
-560.3091756787621
 30
0.0000000000563712
 11
5741.132843320611
 21
-559.7177643323139
 31
0.0000000000563712
  0
LINE
  5
BA0E
330
18
100
AcDbEntity
  8
01
100
AcDbLine
 10
5725.17109763176
 20
-573.0993099106211
 30
0.0000000000563712
 11
5725.544336472241
 21
-573.1010081840361
 31
0.0000000000563712
  0
ARC
  5
BA0F
330
18
100
AcDbEntity
  8
01
100
AcDbCircle
 10
5724.081722014544
 20
-538.4800545692267
 30
0.0000000000563712
 40
34.63639097290663
100
AcDbArc
 50
264.5893381600407
 51
271.8023506076161
  0
LINE
  5
BA10
330
18
100
AcDbEntity
  8
01
100
AcDbLine
 10
5720.688166857582
 20
-572.942224840787
 30
0.0000000000563712
 11
5720.815733056016
 21
-572.9621208610083
 31
0.0000000000563712
  0
ARC
  5
BA11
330
18
100
AcDbEntity
  8
01
100
AcDbCircle
 10
6304.849997649966
 20
-1334.470706991857
 30
0.0000000000563712
 40
958.1331599755888
100
AcDbArc
 50
125.1615926286367
 51
126.0399701558955
  0
ARC
  5
BA12
330
18
100
AcDbEntity
  8
01
100
AcDbCircle
 10
6078.263149850252
 20
-133.2563315873942
 30
0.0000000000563712
 40
568.2504483755547
100
AcDbArc
 50
233.6878241805115
 51
235.1766535937072
  0
LINE
  5
BA13
330
18
100
AcDbEntity
  8
01
100
AcDbLine
 10
5583.01299730678
 20
-550.9700325669705
 30
0.0000000000633656
 11
5582.981271593612
 21
-550.960670254907
 31
0.0000000000633656
  0
LINE
  5
BA14
330
18
100
AcDbEntity
  8
01
100
AcDbLine
 10
5582.981283480296
 20
-600.559805749655
 30
0.0000000000633656
 11
5583.01300315252
 21
-600.5504451101729
 31
0.0000000000633656
  0
ARC
  5
BA15
330
18
100
AcDbEntity
  8
01
100
AcDbCircle
 10
5580.78863650021
 20
-596.0799891790452
 30
0.0000000000633656
 40
4.679862817662976
100
AcDbArc
 50
268.7350581862649
 51
305.781216661144
  0
LINE
  5
BA16
330
18
100
AcDbEntity
  8
01
100
AcDbLine
 10
5580.630974783484
 20
-600.7602248239887
 30
0.0000000000633656
 11
5580.551938667816
 21
-600.7602546711114
 31
0.0000000000633656
  0
LINE
  5
BA17
330
18
100
AcDbEntity
  8
01
100
AcDbLine
 10
5583.551927901086
 20
-600.3540226187838
 30
0.0000000000633656
 11
5583.013005270512
 21
-600.5504523428895
 31
0.0000000000633656
  0
ARC
  5
BA18
330
18
100
AcDbEntity
  8
01
100
AcDbCircle
 10
5580.783644026336
 20
-555.4530907203784
 30
0.0000000000633656
 40
4.693147754739354
100
AcDbArc
 50
54.28888663542762
 51
91.42447436764667
  0
LINE
  5
BA19
330
18
100
AcDbEntity
  8
01
100
AcDbLine
 10
5580.551938690453
 20
-550.7602232349941
 30
0.0000000000633656
 11
5580.630969895918
 21
-550.7602530810436
 31
0.0000000000633656
  0
LINE
  5
BA1A
330
18
100
AcDbEntity
  8
01
100
AcDbLine
 10
5583.012999721476
 20
-550.9700243465707
 30
0.0000000000633656
 11
5583.551927901086
 21
-551.1664552803463
 31
0.0000000000633656
  0
ARC
  5
BA1B
330
18
100
AcDbEntity
  8
01
100
AcDbCircle
 10
5675.988518830442
 20
-394.9793879186532
 30
0.0000000000633656
 40
179.813562218521
100
AcDbArc
 50
246.3755920143838
 51
251.2921814198053
  0
ARC
  5
BA1C
330
18
100
AcDbEntity
  8
01
100
AcDbCircle
 10
5676.754436482774
 20
-758.5408577044359
 30
0.0000000000633656
 40
181.952694249713
100
AcDbArc
 50
108.7382359662032
 51
113.5930263095929
  0
LINE
  5
BA1D
330
18
100
AcDbEntity
  8
01
100
AcDbLine
 10
5629.490584694954
 20
-581.7951541165514
 30
0.0000000000633656
 11
5618.478267683432
 21
-586.1622966736736
 31
0.0000000000633656
  0
LINE
  5
BA1E
330
18
100
AcDbEntity
  8
01
100
AcDbLine
 10
5618.487964630482
 20
-565.3620596691462
 30
0.0000000000633656
 11
5629.49058469521
 21
-569.7253237826753
 31
0.0000000000633656
  0
LINE
  5
BA1F
330
18
100
AcDbEntity
  8
01
100
AcDbLine
 10
5601.322277328763
 20
-558.6216406461431
 30
0.0000000000633656
 11
5603.925420250774
 21
-559.7211665412437
 31
0.0000000000633656
  0
LINE
  5
BA20
330
18
100
AcDbEntity
  8
01
100
AcDbLine
 10
5583.552133282409
 20
-551.1665415500688
 30
0.0000000000633656
 11
5593.562253000814
 21
-555.310317033337
 31
0.0000000000633656
  0
LINE
  5
BA21
330
18
100
AcDbEntity
  8
01
100
AcDbLine
 10
5603.925420250774
 20
-591.7993113578827
 30
0.0000000000633656
 11
5601.322277328675
 21
-592.8988372530212
 31
0.0000000000633656
  0
LINE
  5
BA22
330
18
100
AcDbEntity
  8
01
100
AcDbLine
 10
5593.56225299901
 20
-596.2101608665675
 30
0.0000000000633656
 11
5583.552133146384
 21
-600.3539364043431
 31
0.0000000000633656
  0
ARC
  5
BA23
330
18
100
AcDbEntity
  8
01
100
AcDbCircle
 10
5581.078720465459
 20
-592.12958965608
 30
0.0000000000633656
 40
8.64224213343412
100
AcDbArc
 50
267.030237053129
 51
282.7176692020558
  0
LINE
  5
BA24
330
18
100
AcDbEntity
  8
01
100
AcDbLine
 10
5580.551927901541
 20
-600.1486856585627
 30
0.0000000000633656
 11
5580.551932986578
 21
-600.7596677767488
 31
0.0000000000633656
  0
LINE
  5
BA25
330
18
100
AcDbEntity
  8
01
100
AcDbLine
 10
5583.523037020897
 20
-551.6423850771339
 30
0.0000000000633656
 11
5583.551916843515
 21
-551.6682139572149
 31
0.0000000000633656
  0
LINE
  5
BA26
330
18
100
AcDbEntity
  8
01
100
AcDbLine
 10
5580.551927901542
 20
-551.371792240564
 30
0.0000000000633656
 11
5580.551927901542
 21
-600.1486856585627
 31
0.0000000000633656
  0
LINE
  5
BA28
330
18
100
AcDbEntity
  8
01
100
AcDbLine
 10
5580.551927901542
 20
-551.371792240564
 30
0.0000000000633656
 11
5580.551938690448
 21
-550.7602232424706
 31
0.0000000000633656
  0
ARC
  5
BA29
330
18
100
AcDbEntity
  8
01
100
AcDbCircle
 10
5581.0787182378
 20
-559.3909415595876
 30
0.0000000000633656
 40
8.642294960908108
100
AcDbArc
 50
77.28247340119415
 51
92.96976450419162
  0
LINE
  5
BA2A
330
18
100
AcDbEntity
  8
01
100
AcDbLine
 10
5638.551927901603
 20
-577.2051383000262
 30
0.0000000000633656
 11
5638.551927901603
 21
-574.3153395991003
 31
0.0000000000633656
  0
LINE
  5
BA2B
330
18
100
AcDbEntity
  8
01
100
AcDbLine
 10
5638.551927901603
 20
-574.2857129265406
 30
0.0000000000633656
 11
5638.551927901609
 21
-573.7522798148448
 31
0.0000000000633656
  0
LINE
  5
BA2C
330
18
100
AcDbEntity
  8
01
100
AcDbLine
 10
5638.551927901609
 20
-577.7681977901238
 30
0.0000000000633656
 11
5638.551927901603
 21
-577.2347649768842
 31
0.0000000000633656
  0
ARC
  5
BA2D
330
18
100
AcDbEntity
  8
01
100
AcDbCircle
 10
5637.851934109832
 20
-573.7522814338008
 30
0.0000000000633656
 40
0.6999937874513273
100
AcDbArc
 50
0.0629756049712522
 51
68.493546259502
  0
ARC
  5
BA2E
330
18
100
AcDbEntity
  8
01
100
AcDbCircle
 10
5637.851934338029
 20
-577.7681965364236
 30
0.0000000000633656
 40
0.6999935588452183
100
AcDbArc
 50
291.5043234268025
 51
359.937038415432
  0
ARC
  5
BA2F
330
18
100
AcDbEntity
  8
01
100
AcDbCircle
 10
5639.394838943972
 20
-661.9536378256184
 30
0.0000000000633656
 40
83.51654270612124
100
AcDbArc
 50
93.33184957466825
 51
131.987492783491
  0
ARC
  5
BA30
330
18
100
AcDbEntity
  8
01
100
AcDbCircle
 10
5639.395102374723
 20
-489.5663134914748
 30
0.0000000000633656
 40
83.51710848540584
100
AcDbArc
 50
228.0375342980625
 51
266.6680382828214
  0
LINE
  5
BA31
330
18
100
AcDbEntity
  8
01
100
AcDbLine
 10
5634.928223216103
 20
-578.5583443611506
 30
0.0000000000633656
 11
5634.540942983631
 21
-578.5782661647404
 31
0.0000000000633656
  0
LINE
  5
BA32
330
18
100
AcDbEntity
  8
01
100
AcDbLine
 10
5638.102611865098
 20
-578.4214022452288
 30
0.0000000000633656
 11
5634.928223216103
 21
-578.5583443611506
 31
0.0000000000633656
  0
LINE
  5
BA33
330
18
100
AcDbEntity
  8
01
100
AcDbLine
 10
5638.108531980208
 20
-578.4194634810524
 30
0.0000000000633656
 11
5619.547100851256
 21
-585.6677164940352
 31
0.0000000000633656
  0
LINE
  5
BA34
330
18
100
AcDbEntity
  8
01
100
AcDbLine
 10
5618.477992689824
 20
-586.161609132856
 30
0.0000000000633656
 11
5618.303037074878
 21
-586.2323644324238
 31
0.0000000000633656
  0
LINE
  5
BA35
330
18
100
AcDbEntity
  8
01
100
AcDbLine
 10
5618.487703090183
 20
-565.3627135773099
 30
0.0000000000633656
 11
5618.314713401546
 21
-565.2927735494279
 31
0.0000000000633656
  0
LINE
  5
BA36
330
18
100
AcDbEntity
  8
01
100
AcDbLine
 10
5619.547114526285
 20
-565.8527667478161
 30
0.0000000000633656
 11
5638.108556050782
 21
-573.1010238194008
 31
0.0000000000633656
  0
LINE
  5
BA37
330
18
100
AcDbEntity
  8
01
100
AcDbLine
 10
5634.928275865573
 20
-572.9621364949626
 30
0.0000000000633656
 11
5638.102493287276
 21
-573.099082526473
 31
0.0000000000633656
  0
LINE
  5
BA38
330
18
100
AcDbEntity
  8
01
100
AcDbLine
 10
5634.541010343859
 20
-572.9422404747411
 30
0.0000000000633656
 11
5634.928275865573
 21
-572.9621364949626
 31
0.0000000000633656
  0
LINE
  5
BA39
330
18
100
AcDbEntity
  8
01
100
AcDbLine
 10
5601.32227731067
 20
-558.621640638466
 30
0.0000000000633656
 11
5593.562252985635
 21
-555.3103170268882
 31
0.0000000000633656
  0
LINE
  5
BA3A
330
18
100
AcDbEntity
  8
01
100
AcDbLine
 10
5601.322277310582
 20
-592.8988372606982
 30
0.0000000000633656
 11
5593.562252983831
 21
-596.2101608730168
 31
0.0000000000633656
  0
LINE
  5
BA3B
330
18
100
AcDbEntity
  8
1CENTER
100
AcDbLine
 10
5729.351927901542
 20
-446.0118511808794
 30
0.0000000001127424
 11
5729.351927901542
 21
-404.8624534916914
 31
0.0000000001127424
  0
LINE
  5
BA3C
330
18
100
AcDbEntity
  8
1DIM
100
AcDbLine
 10
5751.851927901542
 20
-416.9615203242599
 30
0.0000000001127424
 11
5751.851927901542
 21
-415.7615203242599
 31
0.0000000001127424
  0
LINE
  5
BA3D
330
18
100
AcDbEntity
  8
1DIM
100
AcDbLine
 10
5706.851927901542
 20
-416.9615203242599
 30
0.0000000001127424
 11
5706.851927901542
 21
-415.7615203242599
 31
0.0000000001127424
  0
LINE
  5
BA3E
330
18
100
AcDbEntity
  8
1CENTER
100
AcDbLine
 10
5598.611763727376
 20
-575.7602020111572
 30
0.0000000000633656
 11
5573.611763727376
 21
-575.7602020111572
 31
0.0000000000633656
  0
LINE
  5
BA3F
330
18
100
AcDbEntity
  8
1CENTER
100
AcDbLine
 10
5593.55321514378
 20
-587.1427817832887
 30
0.0000000000563712
 11
5593.55321514378
 21
-597.1427817832887
 31
0.0000000000563712
  0
LINE
  5
BA40
330
18
100
AcDbEntity
  8
1DIM
100
AcDbLine
 10
5580.551927901542
 20
-598.2602020111572
 30
0.0000000000633656
 11
5579.351927901542
 21
-598.2602020111572
 31
0.0000000000633656
  0
LINE
  5
BA41
330
18
100
AcDbEntity
  8
1DIM
100
AcDbLine
 10
5580.551927901542
 20
-553.2602020111572
 30
0.0000000000633656
 11
5579.351927901542
 21
-553.2602020111572
 31
0.0000000000633656
  0
LINE
  5
BA42
330
18
100
AcDbEntity
  8
1CENTER
100
AcDbLine
 10
5729.351927901542
 20
-565.7602020111572
 30
0.0000000000563712
 11
5729.351927901542
 21
-585.7602020111572
 31
0.0000000000563712
  0
LINE
  5
BA43
330
18
100
AcDbEntity
  8
1CENTER
100
AcDbLine
 10
5719.351927901542
 20
-575.7602020111572
 30
0.0000000000563712
 11
5739.351927901542
 21
-575.7602020111572
 31
0.0000000000563712
  0
POINT
  5
BA46
330
18
100
AcDbEntity
  8
01
100
AcDbPoint
 10
5593.55321514378
 20
-592.1428189637395
 30
0.0000000000563712
  0
SPLINE
  5
BA47
330
18
100
AcDbEntity
  8
01
100
AcDbSpline
210
0.0
220
0.0
230
1.0
 70
  1064
 71
     3
 72
     9
 73
     5
 74
     3
 42
0.000000001
 43
0.0000000001
 44
0.0000000001
 40
0.0
 40
0.0
 40
0.0
 40
0.0
 40
5.691504059037158
 40
7.402728698750808
 40
7.402728698750808
 40
7.402728698750808
 40
7.402728698750808
 10
5740.917210040001
 20
-565.8362650364381
 30
0.0000000000563712
 10
5737.883719890475
 20
-565.4999120360527
 30
0.0000000000563712
 10
5733.938171516207
 20
-565.062430136183
 30
0.0000000000563712
 10
5736.24840670979
 20
-563.3033041174587
 30
0.0000000000563712
 10
5736.782443758515
 20
-562.8966622006599
 30
0.0000000000563712
 11
5740.917210040001
 21
-565.8362650364381
 31
0.0000000000563712
 11
5735.514613924548
 21
-564.0459651544829
 31
0.0000000000563712
 11
5736.782443758515
 21
-562.8966622006599
 31
0.0000000000563712
  0
SPLINE
  5
BA48
330
18
100
AcDbEntity
  8
01
100
AcDbSpline
210
0.0
220
0.0
230
1.0
 70
  1064
 71
     3
 72
     9
 73
     5
 74
     3
 42
0.000000001
 43
0.0000000001
 44
0.0000000001
 40
0.0
 40
0.0
 40
0.0
 40
0.0
 40
4.327037085123464
 40
8.113897239110372
 40
8.113897239110372
 40
8.113897239110372
 40
8.113897239110372
 10
5740.835697536573
 20
-585.7334006384905
 30
0.0000000000563712
 10
5738.782635085873
 20
-585.7945714551258
 30
0.0000000000563712
 10
5734.932809576467
 20
-585.9092766703686
 30
0.0000000000563712
 10
5737.799659501968
 20
-588.2553073884429
 30
0.0000000000563712
 10
5739.137655218503
 20
-589.350230085206
 30
0.0000000000563712
 11
5740.835697536573
 21
-585.7334006384905
 31
0.0000000000563712
 11
5736.586700289849
 21
-586.5514913017837
 31
0.0000000000563712
 11
5739.137655218503
 21
-589.350230085206
 31
0.0000000000563712
  0
LINE
  5
BA49
330
18
100
AcDbEntity
  8
01
100
AcDbLine
 10
5729.26820988075
 20
-590.8160794264904
 30
0.0000000000563712
 11
5728.846946778664
 21
-590.8197991899642
 31
0.0000000000563712
  0
LINE
  5
BA4A
330
18
100
AcDbEntity
  8
01
100
AcDbLine
 10
5728.846946778664
 20
-590.8197991899642
 30
0.0000000000563712
 11
5728.425828278695
 21
-590.8315101655214
 31
0.0000000000563712
  0
LINE
  5
BA4B
330
18
100
AcDbEntity
  8
01
100
AcDbLine
 10
5728.425828278695
 20
-590.8315101655214
 30
0.0000000000563712
 11
5728.031672141072
 21
-590.8505709840258
 31
0.0000000000563712
  0
LINE
  5
BA4C
330
18
100
AcDbEntity
  8
01
100
AcDbLine
 10
5728.031672141072
 20
-590.8505709840258
 30
0.0000000000563712
 11
5727.638106079517
 21
-590.8791905097594
 31
0.0000000000563712
  0
LINE
  5
BA4D
330
18
100
AcDbEntity
  8
01
100
AcDbLine
 10
5727.638106079517
 20
-590.8791905097594
 30
0.0000000000563712
 11
5727.313033471276
 21
-590.9117979660061
 31
0.0000000000563712
  0
LINE
  5
BA4E
330
18
100
AcDbEntity
  8
01
100
AcDbLine
 10
5727.313033471276
 20
-590.9117979660061
 30
0.0000000000563712
 11
5727.150940034443
 21
-590.9319590763953
 31
0.0000000000563712
  0
LINE
  5
BA4F
330
18
100
AcDbEntity
  8
01
100
AcDbLine
 10
5727.150940034443
 20
-590.9319590763953
 30
0.0000000000563712
 11
5726.989254346
 21
-590.9551727533615
 31
0.0000000000563712
  0
LINE
  5
BA50
330
18
100
AcDbEntity
  8
01
100
AcDbLine
 10
5726.989254346
 20
-590.9551727533615
 30
0.0000000000563712
 11
5726.855404101399
 21
-590.9770684511946
 31
0.0000000000563712
  0
LINE
  5
BA51
330
18
100
AcDbEntity
  8
01
100
AcDbLine
 10
5726.855404101399
 20
-590.9770684511946
 30
0.0000000000563712
 11
5726.722059123567
 21
-591.0017909418098
 31
0.0000000000563712
  0
LINE
  5
BA52
330
18
100
AcDbEntity
  8
01
100
AcDbLine
 10
5726.722059123567
 20
-591.0017909418098
 30
0.0000000000563712
 11
5726.589385446306
 21
-591.0298141572607
 31
0.0000000000563712
  0
LINE
  5
BA53
330
18
100
AcDbEntity
  8
01
100
AcDbLine
 10
5726.589385446306
 20
-591.0298141572607
 30
0.0000000000563712
 11
5726.457549103415
 21
-591.0616120296017
 31
0.0000000000563712
  0
LINE
  5
BA54
330
18
100
AcDbEntity
  8
01
100
AcDbLine
 10
5726.457549103415
 20
-591.0616120296017
 30
0.0000000000563712
 11
5726.352520793033
 21
-591.090247362823
 31
0.0000000000563712
  0
LINE
  5
BA55
330
18
100
AcDbEntity
  8
01
100
AcDbLine
 10
5726.352520793033
 20
-591.090247362823
 30
0.0000000000563712
 11
5726.300364526699
 21
-591.105796496727
 31
0.0000000000563712
  0
LINE
  5
BA56
330
18
100
AcDbEntity
  8
01
100
AcDbLine
 10
5726.300364526699
 20
-591.105796496727
 30
0.0000000000563712
 11
5726.248508504794
 21
-591.1222762223513
 31
0.0000000000563712
  0
LINE
  5
BA57
330
18
100
AcDbEntity
  8
01
100
AcDbLine
 10
5726.248508504794
 20
-591.1222762223513
 30
0.0000000000563712
 11
5726.196998966216
 21
-591.1397687498393
 31
0.0000000000563712
  0
LINE
  5
BA58
330
18
100
AcDbEntity
  8
01
100
AcDbLine
 10
5726.196998966216
 20
-591.1397687498393
 30
0.0000000000563712
 11
5726.145882149859
 21
-591.1583562893345
 31
0.0000000000563712
  0
LINE
  5
BA59
330
18
100
AcDbEntity
  8
01
100
AcDbLine
 10
5726.145882149859
 20
-591.1583562893345
 30
0.0000000000563712
 11
5726.095204294618
 21
-591.1781210509803
 31
0.0000000000563712
  0
LINE
  5
BA5A
330
18
100
AcDbEntity
  8
01
100
AcDbLine
 10
5726.095204294618
 20
-591.1781210509803
 30
0.0000000000563712
 11
5726.045011639392
 21
-591.1991452449201
 31
0.0000000000563712
  0
LINE
  5
BA5B
330
18
100
AcDbEntity
  8
01
100
AcDbLine
 10
5726.045011639392
 20
-591.1991452449201
 30
0.0000000000563712
 11
5726.002487773507
 21
-591.2182098697472
 31
0.0000000000563712
  0
LINE
  5
BA5C
330
18
100
AcDbEntity
  8
01
100
AcDbLine
 10
5726.002487773507
 20
-591.2182098697472
 30
0.0000000000563712
 11
5725.960465419173
 21
-591.2383593339625
 31
0.0000000000563712
  0
LINE
  5
BA5D
330
18
100
AcDbEntity
  8
01
100
AcDbLine
 10
5725.960465419173
 20
-591.2383593339625
 30
0.0000000000563712
 11
5725.919056808188
 21
-591.2596957219666
 31
0.0000000000563712
  0
LINE
  5
BA5E
330
18
100
AcDbEntity
  8
01
100
AcDbLine
 10
5725.919056808188
 20
-591.2596957219666
 30
0.0000000000563712
 11
5725.878374172348
 21
-591.2823211181599
 31
0.0000000000563712
  0
LINE
  5
BA5F
330
18
100
AcDbEntity
  8
01
100
AcDbLine
 10
5725.878374172348
 20
-591.2823211181599
 30
0.0000000000563712
 11
5725.845834043113
 21
-591.3017920697368
 31
0.0000000000563712
  0
LINE
  5
BA60
330
18
100
AcDbEntity
  8
01
100
AcDbLine
 10
5725.845834043113
 20
-591.3017920697368
 30
0.0000000000563712
 11
5725.813933463897
 21
-591.3222762479847
 31
0.0000000000563712
  0
LINE
  5
BA61
330
18
100
AcDbEntity
  8
01
100
AcDbLine
 10
5725.813933463897
 20
-591.3222762479847
 30
0.0000000000563712
 11
5725.798248853573
 21
-591.3329261402976
 31
0.0000000000563712
  0
LINE
  5
BA62
330
18
100
AcDbEntity
  8
01
100
AcDbLine
 10
5725.798248853573
 20
-591.3329261402976
 30
0.0000000000563712
 11
5725.782755148383
 21
-591.343862751103
 31
0.0000000000563712
  0
LINE
  5
BA63
330
18
100
AcDbEntity
  8
01
100
AcDbLine
 10
5725.782755148383
 20
-591.343862751103
 30
0.0000000000563712
 11
5725.767462687541
 21
-591.3550972176758
 31
0.0000000000563712
  0
LINE
  5
BA64
330
18
100
AcDbEntity
  8
01
100
AcDbLine
 10
5725.767462687541
 20
-591.3550972176758
 30
0.0000000000563712
 11
5725.752381810255
 21
-591.3666406772911
 31
0.0000000000563712
  0
LINE
  5
BA65
330
18
100
AcDbEntity
  8
01
100
AcDbLine
 10
5725.752381810255
 20
-591.3666406772911
 30
0.0000000000563712
 11
5725.739040263718
 21
-591.3772700134091
 31
0.0000000000563712
  0
LINE
  5
BA66
330
18
100
AcDbEntity
  8
01
100
AcDbLine
 10
5725.739040263718
 20
-591.3772700134091
 30
0.0000000000563712
 11
5725.725896861032
 21
-591.3881600394195
 31
0.0000000000563712
  0
LINE
  5
BA67
330
18
100
AcDbEntity
  8
01
100
AcDbLine
 10
5725.725896861032
 20
-591.3881600394195
 30
0.0000000000563712
 11
5725.712971063414
 21
-591.3993136901015
 31
0.0000000000563712
  0
LINE
  5
BA68
330
18
100
AcDbEntity
  8
01
100
AcDbLine
 10
5725.712971063414
 20
-591.3993136901015
 30
0.0000000000563712
 11
5725.700282332084
 21
-591.4107339002348
 31
0.0000000000563712
  0
LINE
  5
BA69
330
18
100
AcDbEntity
  8
01
100
AcDbLine
 10
5725.700282332084
 20
-591.4107339002348
 30
0.0000000000563712
 11
5725.687850128258
 21
-591.4224236045986
 31
0.0000000000563712
  0
LINE
  5
BA6A
330
18
100
AcDbEntity
  8
01
100
AcDbLine
 10
5725.687850128258
 20
-591.4224236045986
 30
0.0000000000563712
 11
5725.675693913155
 21
-591.4343857379724
 31
0.0000000000563712
  0
LINE
  5
BA6B
330
18
100
AcDbEntity
  8
01
100
AcDbLine
 10
5725.675693913155
 20
-591.4343857379724
 30
0.0000000000563712
 11
5725.663833147994
 21
-591.4466232351358
 31
0.0000000000563712
  0
LINE
  5
BA6C
330
18
100
AcDbEntity
  8
01
100
AcDbLine
 10
5725.663833147994
 20
-591.4466232351358
 30
0.0000000000563712
 11
5725.652287293992
 21
-591.4591390308683
 31
0.0000000000563712
  0
LINE
  5
BA6D
330
18
100
AcDbEntity
  8
01
100
AcDbLine
 10
5725.652287293992
 20
-591.4591390308683
 30
0.0000000000563712
 11
5725.641075812367
 21
-591.471936059949
 31
0.0000000000563712
  0
LINE
  5
BA6E
330
18
100
AcDbEntity
  8
01
100
AcDbLine
 10
5725.641075812367
 20
-591.471936059949
 30
0.0000000000563712
 11
5725.630218164339
 21
-591.4850172571576
 31
0.0000000000563712
  0
LINE
  5
BA6F
330
18
100
AcDbEntity
  8
01
100
AcDbLine
 10
5725.630218164339
 20
-591.4850172571576
 30
0.0000000000563712
 11
5725.619733811123
 21
-591.4983855572734
 31
0.0000000000563712
  0
LINE
  5
BA70
330
18
100
AcDbEntity
  8
01
100
AcDbLine
 10
5725.619733811123
 20
-591.4983855572734
 30
0.0000000000563712
 11
5725.60964221394
 21
-591.512043895076
 31
0.0000000000563712
  0
LINE
  5
BA71
330
18
100
AcDbEntity
  8
01
100
AcDbLine
 10
5725.60964221394
 20
-591.512043895076
 30
0.0000000000563712
 11
5725.599962834007
 21
-591.5259952053448
 31
0.0000000000563712
  0
LINE
  5
BA72
330
18
100
AcDbEntity
  8
01
100
AcDbLine
 10
5725.599962834007
 20
-591.5259952053448
 30
0.0000000000563712
 11
5725.590715132542
 21
-591.5402424228591
 31
0.0000000000563712
  0
LINE
  5
BA73
330
18
100
AcDbEntity
  8
01
100
AcDbLine
 10
5725.590715132542
 20
-591.5402424228591
 30
0.0000000000563712
 11
5725.581918570762
 21
-591.5547884823989
 31
0.0000000000563712
  0
LINE
  5
BA74
330
18
100
AcDbEntity
  8
01
100
AcDbLine
 10
5725.581918570762
 20
-591.5547884823989
 30
0.0000000000563712
 11
5725.573592609888
 21
-591.5696363187428
 31
0.0000000000563712
  0
LINE
  5
BA75
330
18
100
AcDbEntity
  8
01
100
AcDbLine
 10
5725.573592609888
 20
-591.5696363187428
 30
0.0000000000563712
 11
5725.566999019281
 21
-591.5822984449624
 31
0.0000000000563712
  0
LINE
  5
BA76
330
18
100
AcDbEntity
  8
01
100
AcDbLine
 10
5725.566999019281
 20
-591.5822984449624
 30
0.0000000000563712
 11
5725.560765203684
 21
-591.595159922058
 31
0.0000000000563712
  0
LINE
  5
BA77
330
18
100
AcDbEntity
  8
01
100
AcDbLine
 10
5725.560765203684
 20
-591.595159922058
 30
0.0000000000563712
 11
5725.554907453929
 21
-591.6082065287808
 31
0.0000000000563712
  0
LINE
  5
BA78
330
18
100
AcDbEntity
  8
01
100
AcDbLine
 10
5725.554907453929
 20
-591.6082065287808
 30
0.0000000000563712
 11
5725.549442060847
 21
-591.6214240438819
 31
0.0000000000563712
  0
LINE
  5
BA79
330
18
100
AcDbEntity
  8
01
100
AcDbLine
 10
5725.549442060847
 20
-591.6214240438819
 30
0.0000000000563712
 11
5725.544385315264
 21
-591.6347982461125
 31
0.0000000000563712
  0
LINE
  5
BA7A
330
18
100
AcDbEntity
  8
01
100
AcDbLine
 10
5725.544385315264
 20
-591.6347982461125
 30
0.0000000000563712
 11
5725.539753508014
 21
-591.6483149142236
 31
0.0000000000563712
  0
LINE
  5
BA7B
330
18
100
AcDbEntity
  8
01
100
AcDbLine
 10
5725.539753508014
 20
-591.6483149142236
 30
0.0000000000563712
 11
5725.535562929925
 21
-591.6619598269663
 31
0.0000000000563712
  0
LINE
  5
BA7C
330
18
100
AcDbEntity
  8
01
100
AcDbLine
 10
5725.535562929925
 20
-591.6619598269663
 30
0.0000000000563712
 11
5725.531829871828
 21
-591.6757187630915
 31
0.0000000000563712
  0
LINE
  5
BA7D
330
18
100
AcDbEntity
  8
01
100
AcDbLine
 10
5725.531829871828
 20
-591.6757187630915
 30
0.0000000000563712
 11
5725.528601052213
 21
-591.68941928908
 31
0.0000000000563712
  0
LINE
  5
BA7E
330
18
100
AcDbEntity
  8
01
100
AcDbLine
 10
5725.528601052213
 20
-591.68941928908
 30
0.0000000000563712
 11
5725.525826400276
 21
-591.7032082081555
 31
0.0000000000563712
  0
LINE
  5
BA7F
330
18
100
AcDbEntity
  8
01
100
AcDbLine
 10
5725.525826400276
 20
-591.7032082081555
 30
0.0000000000563712
 11
5725.523497046519
 21
-591.7170763806009
 31
0.0000000000563712
  0
LINE
  5
BA80
330
18
100
AcDbEntity
  8
01
100
AcDbLine
 10
5725.523497046519
 20
-591.7170763806009
 30
0.0000000000563712
 11
5725.521604121445
 21
-591.7310146666996
 31
0.0000000000563712
  0
LINE
  5
BA81
330
18
100
AcDbEntity
  8
01
100
AcDbLine
 10
5725.521604121445
 20
-591.7310146666996
 30
0.0000000000563712
 11
5725.520138755558
 21
-591.745013926735
 31
0.0000000000563712
  0
LINE
  5
BA82
330
18
100
AcDbEntity
  8
01
100
AcDbLine
 10
5725.520138755558
 20
-591.745013926735
 30
0.0000000000563712
 11
5725.519092079362
 21
-591.75906502099
 31
0.0000000000563712
  0
LINE
  5
BA83
330
18
100
AcDbEntity
  8
01
100
AcDbLine
 10
5725.519092079362
 20
-591.75906502099
 30
0.0000000000563712
 11
5725.518455223359
 21
-591.7731588097477
 31
0.0000000000563712
  0
LINE
  5
BA84
330
18
100
AcDbEntity
  8
01
100
AcDbLine
 10
5725.518455223359
 20
-591.7731588097477
 30
0.0000000000563712
 11
5725.518219318053
 21
-591.7872861532912
 31
0.0000000000563712
  0
LINE
  5
BA85
330
18
100
AcDbEntity
  8
01
100
AcDbLine
 10
5725.518219318053
 20
-591.7872861532912
 30
0.0000000000563712
 11
5725.518331413392
 21
-591.7961615625993
 31
0.0000000000563712
  0
LINE
  5
BA86
330
18
100
AcDbEntity
  8
01
100
AcDbLine
 10
5725.518331413392
 20
-591.7961615625993
 30
0.0000000000563712
 11
5725.518600565995
 21
-591.8050282073764
 31
0.0000000000563712
  0
LINE
  5
BA87
330
18
100
AcDbEntity
  8
01
100
AcDbLine
 10
5725.518600565995
 20
-591.8050282073764
 30
0.0000000000563712
 11
5725.519603202716
 21
-591.8227280857313
 31
0.0000000000563712
  0
LINE
  5
BA88
330
18
100
AcDbEntity
  8
01
100
AcDbLine
 10
5725.519603202716
 20
-591.8227280857313
 30
0.0000000000563712
 11
5725.521213547664
 21
-591.8403715531454
 31
0.0000000000563712
  0
LINE
  5
BA89
330
18
100
AcDbEntity
  8
01
100
AcDbLine
 10
5725.521213547664
 20
-591.8403715531454
 30
0.0000000000563712
 11
5725.523417920288
 21
-591.857944374407
 31
0.0000000000563712
  0
LINE
  5
BA8A
330
18
100
AcDbEntity
  8
01
100
AcDbLine
 10
5725.523417920288
 20
-591.857944374407
 30
0.0000000000563712
 11
5725.526202640037
 21
-591.875432314305
 31
0.0000000000563712
  0
LINE
  5
BA8B
330
18
100
AcDbEntity
  8
01
100
AcDbLine
 10
5725.526202640037
 20
-591.875432314305
 30
0.0000000000563712
 11
5725.529554026359
 21
-591.8928211376285
 31
0.0000000000563712
  0
LINE
  5
BA8C
330
18
100
AcDbEntity
  8
01
100
AcDbLine
 10
5725.529554026359
 20
-591.8928211376285
 30
0.0000000000563712
 11
5725.533458398703
 21
-591.910096609166
 31
0.0000000000563712
  0
LINE
  5
BA8D
330
18
100
AcDbEntity
  8
01
100
AcDbLine
 10
5725.533458398703
 20
-591.910096609166
 30
0.0000000000563712
 11
5725.537902076519
 21
-591.9272444937062
 31
0.0000000000563712
  0
LINE
  5
BA8E
330
18
100
AcDbEntity
  8
01
100
AcDbLine
 10
5725.537902076519
 20
-591.9272444937062
 30
0.0000000000563712
 11
5725.54340734198
 21
-591.9459877793324
 31
0.0000000000563712
  0
LINE
  5
BA8F
330
18
100
AcDbEntity
  8
01
100
AcDbLine
 10
5725.54340734198
 20
-591.9459877793324
 30
0.0000000000563712
 11
5725.549516962963
 21
-591.9645526098279
 31
0.0000000000563712
  0
LINE
  5
BA90
330
18
100
AcDbEntity
  8
01
100
AcDbLine
 10
5725.549516962963
 20
-591.9645526098279
 30
0.0000000000563712
 11
5725.556196359715
 21
-591.9829329252589
 31
0.0000000000563712
  0
LINE
  5
BA91
330
18
100
AcDbEntity
  8
01
100
AcDbLine
 10
5725.556196359715
 20
-591.9829329252589
 30
0.0000000000563712
 11
5725.563410952483
 21
-592.0011226656916
 31
0.0000000000563712
  0
LINE
  5
BA92
330
18
100
AcDbEntity
  8
01
100
AcDbLine
 10
5725.563410952483
 20
-592.0011226656916
 30
0.0000000000563712
 11
5725.571126161514
 21
-592.0191157711924
 31
0.0000000000563712
  0
LINE
  5
BA93
330
18
100
AcDbEntity
  8
01
100
AcDbLine
 10
5725.571126161514
 20
-592.0191157711924
 30
0.0000000000563712
 11
5725.579307407056
 21
-592.0369061818276
 31
0.0000000000563712
  0
LINE
  5
BA94
330
18
100
AcDbEntity
  8
01
100
AcDbLine
 10
5725.579307407056
 20
-592.0369061818276
 30
0.0000000000563712
 11
5725.587920109357
 21
-592.0544878376634
 31
0.0000000000563712
  0
LINE
  5
BA95
330
18
100
AcDbEntity
  8
01
100
AcDbLine
 10
5725.587920109357
 20
-592.0544878376634
 30
0.0000000000563712
 11
5725.596929688661
 21
-592.0718546787662
 31
0.0000000000563712
  0
LINE
  5
BA96
330
18
100
AcDbEntity
  8
01
100
AcDbLine
 10
5725.596929688661
 20
-592.0718546787662
 30
0.0000000000563712
 11
5725.608265237225
 21
-592.0924802341228
 31
0.0000000000563712
  0
LINE
  5
BA97
330
18
100
AcDbEntity
  8
01
100
AcDbLine
 10
5725.608265237225
 20
-592.0924802341228
 30
0.0000000000563712
 11
5725.620105838866
 21
-592.1127916012877
 31
0.0000000000563712
  0
LINE
  5
BA98
330
18
100
AcDbEntity
  8
01
100
AcDbLine
 10
5725.620105838866
 20
-592.1127916012877
 30
0.0000000000563712
 11
5725.632431011385
 21
-592.1327949848644
 31
0.0000000000563712
  0
LINE
  5
BA99
330
18
100
AcDbEntity
  8
01
100
AcDbLine
 10
5725.632431011385
 20
-592.1327949848644
 30
0.0000000000563712
 11
5725.64522027258
 21
-592.1524965894569
 31
0.0000000000563712
  0
LINE
  5
BA9A
330
18
100
AcDbEntity
  8
01
100
AcDbLine
 10
5725.64522027258
 20
-592.1524965894569
 30
0.0000000000563712
 11
5725.658453140252
 21
-592.1719026196693
 31
0.0000000000563712
  0
LINE
  5
BA9B
330
18
100
AcDbEntity
  8
01
100
AcDbLine
 10
5725.658453140252
 20
-592.1719026196693
 30
0.0000000000563712
 11
5725.672109132199
 21
-592.1910192801051
 31
0.0000000000563712
  0
LINE
  5
BA9C
330
18
100
AcDbEntity
  8
01
100
AcDbLine
 10
5725.672109132199
 20
-592.1910192801051
 30
0.0000000000563712
 11
5725.686167766218
 21
-592.2098527753685
 31
0.0000000000563712
  0
LINE
  5
BA9D
330
18
100
AcDbEntity
  8
01
100
AcDbLine
 10
5725.686167766218
 20
-592.2098527753685
 30
0.0000000000563712
 11
5725.700608560112
 21
-592.2284093100634
 31
0.0000000000563712
  0
LINE
  5
BA9E
330
18
100
AcDbEntity
  8
01
100
AcDbLine
 10
5725.700608560112
 20
-592.2284093100634
 30
0.0000000000563712
 11
5725.715411031677
 21
-592.2466950887936
 31
0.0000000000563712
  0
LINE
  5
BA9F
330
18
100
AcDbEntity
  8
01
100
AcDbLine
 10
5725.715411031677
 20
-592.2466950887936
 30
0.0000000000563712
 11
5725.730554698714
 21
-592.2647163161632
 31
0.0000000000563712
  0
LINE
  5
BAA0
330
18
100
AcDbEntity
  8
01
100
AcDbLine
 10
5725.730554698714
 20
-592.2647163161632
 30
0.0000000000563712
 11
5725.761783690397
 21
-592.2999899352358
 31
0.0000000000563712
  0
LINE
  5
BAA1
330
18
100
AcDbEntity
  8
01
100
AcDbLine
 10
5725.761783690397
 20
-592.2999899352358
 30
0.0000000000563712
 11
5725.794131677555
 21
-592.3342798041122
 31
0.0000000000563712
  0
LINE
  5
BAA2
330
18
100
AcDbEntity
  8
01
100
AcDbLine
 10
5725.794131677555
 20
-592.3342798041122
 30
0.0000000000563712
 11
5725.827434802582
 21
-592.367635559624
 31
0.0000000000563712
  0
LINE
  5
BAA3
330
18
100
AcDbEntity
  8
01
100
AcDbLine
 10
5725.827434802582
 20
-592.367635559624
 30
0.0000000000563712
 11
5725.87347038222
 21
-592.4110817178789
 31
0.0000000000563712
  0
LINE
  5
BAA4
330
18
100
AcDbEntity
  8
01
100
AcDbLine
 10
5725.87347038222
 20
-592.4110817178789
 30
0.0000000000563712
 11
5725.920836321208
 21
-592.4529987148792
 31
0.0000000000563712
  0
LINE
  5
BAA5
330
18
100
AcDbEntity
  8
01
100
AcDbLine
 10
5725.920836321208
 20
-592.4529987148792
 30
0.0000000000563712
 11
5725.969433069749
 21
-592.4934557119243
 31
0.0000000000563712
  0
LINE
  5
BAA6
330
18
100
AcDbEntity
  8
01
100
AcDbLine
 10
5725.969433069749
 20
-592.4934557119243
 30
0.0000000000563712
 11
5726.019161078044
 21
-592.5325218703133
 31
0.0000000000563712
  0
LINE
  5
BAA7
330
18
100
AcDbEntity
  8
01
100
AcDbLine
 10
5726.019161078044
 20
-592.5325218703133
 30
0.0000000000563712
 11
5726.069920796294
 21
-592.5702663513457
 31
0.0000000000563712
  0
LINE
  5
BAA8
330
18
100
AcDbEntity
  8
01
100
AcDbLine
 10
5726.069920796294
 20
-592.5702663513457
 30
0.0000000000563712
 11
5726.121612674702
 21
-592.6067583163203
 31
0.0000000000563712
  0
LINE
  5
BAA9
330
18
100
AcDbEntity
  8
01
100
AcDbLine
 10
5726.121612674702
 20
-592.6067583163203
 30
0.0000000000563712
 11
5726.17413716347
 21
-592.6420669265367
 31
0.0000000000563712
  0
LINE
  5
BAAA
330
18
100
AcDbEntity
  8
01
100
AcDbLine
 10
5726.17413716347
 20
-592.6420669265367
 30
0.0000000000563712
 11
5726.227394712799
 21
-592.6762613432938
 31
0.0000000000563712
  0
LINE
  5
BAAB
330
18
100
AcDbEntity
  8
01
100
AcDbLine
 10
5726.227394712799
 20
-592.6762613432938
 30
0.0000000000563712
 11
5726.286510731427
 21
-592.7125359922229
 31
0.0000000000563712
  0
LINE
  5
BAAC
330
18
100
AcDbEntity
  8
01
100
AcDbLine
 10
5726.286510731427
 20
-592.7125359922229
 30
0.0000000000563712
 11
5726.34634429556
 21
-592.7475924477967
 31
0.0000000000563712
  0
LINE
  5
BAAD
330
18
100
AcDbEntity
  8
01
100
AcDbLine
 10
5726.34634429556
 20
-592.7475924477967
 30
0.0000000000563712
 11
5726.406851783889
 21
-592.7814681287896
 31
0.0000000000563712
  0
LINE
  5
BAAE
330
18
100
AcDbEntity
  8
01
100
AcDbLine
 10
5726.406851783889
 20
-592.7814681287896
 30
0.0000000000563712
 11
5726.467989575103
 21
-592.8142004539761
 31
0.0000000000563712
  0
LINE
  5
BAAF
330
18
100
AcDbEntity
  8
01
100
AcDbLine
 10
5726.467989575103
 20
-592.8142004539761
 30
0.0000000000563712
 11
5726.591981580958
 21
-592.8763847120283
 31
0.0000000000563712
  0
LINE
  5
BAB0
330
18
100
AcDbEntity
  8
01
100
AcDbLine
 10
5726.591981580958
 20
-592.8763847120283
 30
0.0000000000563712
 11
5726.717971342652
 21
-592.9344445721488
 31
0.0000000000563712
  0
LINE
  5
BAB1
330
18
100
AcDbEntity
  8
01
100
AcDbLine
 10
5726.717971342652
 20
-592.9344445721488
 30
0.0000000000563712
 11
5726.858342933413
 21
-592.9938097156567
 31
0.0000000000563712
  0
LINE
  5
BAB2
330
18
100
AcDbEntity
  8
01
100
AcDbLine
 10
5726.858342933413
 20
-592.9938097156567
 30
0.0000000000563712
 11
5727.000497108024
 21
-593.0487538488355
 31
0.0000000000563712
  0
LINE
  5
BAB3
330
18
100
AcDbEntity
  8
01
100
AcDbLine
 10
5727.000497108024
 20
-593.0487538488355
 30
0.0000000000563712
 11
5727.144225667693
 21
-593.0994744149048
 31
0.0000000000563712
  0
LINE
  5
BAB4
330
18
100
AcDbEntity
  8
01
100
AcDbLine
 10
5727.144225667693
 20
-593.0994744149048
 30
0.0000000000563712
 11
5727.289320413624
 21
-593.1461688570853
 31
0.0000000000563712
  0
LINE
  5
BAB5
330
18
100
AcDbEntity
  8
01
100
AcDbLine
 10
5727.289320413624
 20
-593.1461688570853
 30
0.0000000000563712
 11
5727.44306551611
 21
-593.1910973683307
 31
0.0000000000563712
  0
LINE
  5
BAB6
330
18
100
AcDbEntity
  8
01
100
AcDbLine
 10
5727.44306551611
 20
-593.1910973683307
 30
0.0000000000563712
 11
5727.597955113072
 21
-593.231899427295
 31
0.0000000000563712
  0
LINE
  5
BAB7
330
18
100
AcDbEntity
  8
01
100
AcDbLine
 10
5727.597955113072
 20
-593.231899427295
 30
0.0000000000563712
 11
5727.75385477737
 21
-593.2686771097324
 31
0.0000000000563712
  0
LINE
  5
BAB8
330
18
100
AcDbEntity
  8
01
100
AcDbLine
 10
5727.75385477737
 20
-593.2686771097324
 30
0.0000000000563712
 11
5727.910630081861
 21
-593.3015324913961
 31
0.0000000000563712
  0
LINE
  5
BAB9
330
18
100
AcDbEntity
  8
01
100
AcDbLine
 10
5727.910630081861
 20
-593.3015324913961
 30
0.0000000000563712
 11
5728.073093597838
 21
-593.3314076592883
 31
0.0000000000563712
  0
LINE
  5
BABA
330
18
100
AcDbEntity
  8
01
100
AcDbLine
 10
5728.073093597838
 20
-593.3314076592883
 30
0.0000000000563712
 11
5728.2362409566
 21
-593.3572831885235
 31
0.0000000000563712
  0
LINE
  5
BABB
330
18
100
AcDbEntity
  8
01
100
AcDbLine
 10
5728.2362409566
 20
-593.3572831885235
 30
0.0000000000563712
 11
5728.399967670721
 21
-593.3792225081447
 31
0.0000000000563712
  0
LINE
  5
BABC
330
18
100
AcDbEntity
  8
01
100
AcDbLine
 10
5728.399967670721
 20
-593.3792225081447
 30
0.0000000000563712
 11
5728.564169252771
 21
-593.397289047195
 31
0.0000000000563712
  0
LINE
  5
BABD
330
18
100
AcDbEntity
  8
01
100
AcDbLine
 10
5728.564169252771
 20
-593.397289047195
 30
0.0000000000563712
 11
5728.739789494347
 21
-593.4123558835129
 31
0.0000000000563712
  0
LINE
  5
BABE
330
18
100
AcDbEntity
  8
01
100
AcDbLine
 10
5728.739789494347
 20
-593.4123558835129
 30
0.0000000000563712
 11
5728.915726082652
 21
-593.4230932102412
 31
0.0000000000563712
  0
LINE
  5
BABF
330
18
100
AcDbEntity
  8
01
100
AcDbLine
 10
5728.915726082652
 20
-593.4230932102412
 30
0.0000000000563712
 11
5729.091873653368
 21
-593.4295088023259
 31
0.0000000000563712
  0
LINE
  5
BAC0
330
18
100
AcDbEntity
  8
01
100
AcDbLine
 10
5729.091873653368
 20
-593.4295088023259
 30
0.0000000000563712
 11
5729.268126842176
 21
-593.4316104347133
 31
0.0000000000563712
  0
LINE
  5
BAC1
330
18
100
AcDbEntity
  8
01
100
AcDbLine
 10
5729.268126842176
 20
-593.4316104347133
 30
0.0000000000563712
 11
5729.435728960908
 21
-593.4297176309151
 31
0.0000000000563712
  0
LINE
  5
BAC2
330
18
100
AcDbEntity
  8
01
100
AcDbLine
 10
5729.435728960908
 20
-593.4297176309151
 30
0.0000000000563712
 11
5729.603238905108
 21
-593.4239199294254
 31
0.0000000000563712
  0
LINE
  5
BAC3
330
18
100
AcDbEntity
  8
01
100
AcDbLine
 10
5729.603238905108
 20
-593.4239199294254
 30
0.0000000000563712
 11
5729.770567348972
 21
-593.4142147433697
 31
0.0000000000563712
  0
LINE
  5
BAC4
330
18
100
AcDbEntity
  8
01
100
AcDbLine
 10
5729.770567348972
 20
-593.4142147433697
 30
0.0000000000563712
 11
5729.937624966689
 21
-593.400599485873
 31
0.0000000000563712
  0
LINE
  5
BAC5
330
18
100
AcDbEntity
  8
01
100
AcDbLine
 10
5729.937624966689
 20
-593.400599485873
 30
0.0000000000563712
 11
5730.110383142192
 21
-593.3823476558523
 31
0.0000000000563712
  0
LINE
  5
BAC6
330
18
100
AcDbEntity
  8
01
100
AcDbLine
 10
5730.110383142192
 20
-593.3823476558523
 30
0.0000000000563712
 11
5730.282633473975
 21
-593.3598208161602
 31
0.0000000000563712
  0
LINE
  5
BAC7
330
18
100
AcDbEntity
  8
01
100
AcDbLine
 10
5730.282633473975
 20
-593.3598208161602
 30
0.0000000000563712
 11
5730.454254986455
 21
-593.3329468577399
 31
0.0000000000563712
  0
LINE
  5
BAC8
330
18
100
AcDbEntity
  8
01
100
AcDbLine
 10
5730.454254986455
 20
-593.3329468577399
 30
0.0000000000563712
 11
5730.625126704059
 21
-593.3016536715345
 31
0.0000000000563712
  0
LINE
  5
BAC9
330
18
100
AcDbEntity
  8
01
100
AcDbLine
 10
5730.625126704059
 20
-593.3016536715345
 30
0.0000000000563712
 11
5730.781905865323
 21
-593.2688134329119
 31
0.0000000000563712
  0
LINE
  5
BACA
330
18
100
AcDbEntity
  8
01
100
AcDbLine
 10
5730.781905865323
 20
-593.2688134329119
 30
0.0000000000563712
 11
5730.937810159129
 21
-593.2320521217357
 31
0.0000000000563712
  0
LINE
  5
BACB
330
18
100
AcDbEntity
  8
01
100
AcDbLine
 10
5730.937810159129
 20
-593.2320521217357
 30
0.0000000000563712
 11
5731.092705048368
 21
-593.191267206761
 31
0.0000000000563712
  0
LINE
  5
BACC
330
18
100
AcDbEntity
  8
01
100
AcDbLine
 10
5731.092705048368
 20
-593.191267206761
 30
0.0000000000563712
 11
5731.246455995927
 21
-593.1463561567441
 31
0.0000000000563712
  0
LINE
  5
BACD
330
18
100
AcDbEntity
  8
01
100
AcDbLine
 10
5731.246455995927
 20
-593.1463561567441
 30
0.0000000000563712
 11
5731.391574334004
 21
-593.0996724311688
 31
0.0000000000563712
  0
LINE
  5
BACE
330
18
100
AcDbEntity
  8
01
100
AcDbLine
 10
5731.391574334004
 20
-593.0996724311688
 30
0.0000000000563712
 11
5731.535326778127
 21
-593.0489618895838
 31
0.0000000000563712
  0
LINE
  5
BACF
330
18
100
AcDbEntity
  8
01
100
AcDbLine
 10
5731.535326778127
 20
-593.0489618895838
 30
0.0000000000563712
 11
5731.677505302312
 21
-592.9940274527751
 31
0.0000000000563712
  0
LINE
  5
BAD0
330
18
100
AcDbEntity
  8
01
100
AcDbLine
 10
5731.677505302312
 20
-592.9940274527751
 30
0.0000000000563712
 11
5731.81790188058
 21
-592.9346720415278
 31
0.0000000000563712
  0
LINE
  5
BAD1
330
18
100
AcDbEntity
  8
01
100
AcDbLine
 10
5731.81790188058
 20
-592.9346720415278
 30
0.0000000000563712
 11
5731.943943507799
 21
-592.8766076822428
 31
0.0000000000563712
  0
LINE
  5
BAD2
330
18
100
AcDbEntity
  8
01
100
AcDbLine
 10
5731.943943507799
 20
-592.8766076822428
 30
0.0000000000563712
 11
5732.06798721453
 21
-592.8144173164646
 31
0.0000000000563712
  0
LINE
  5
BAD3
330
18
100
AcDbEntity
  8
01
100
AcDbLine
 10
5732.06798721453
 20
-592.8144173164646
 30
0.0000000000563712
 11
5732.129150767259
 21
-592.7816812713024
 31
0.0000000000563712
  0
LINE
  5
BAD4
330
18
100
AcDbEntity
  8
01
100
AcDbLine
 10
5732.129150767259
 20
-592.7816812713024
 30
0.0000000000563712
 11
5732.189683943318
 21
-592.7478013927109
 31
0.0000000000563712
  0
LINE
  5
BAD5
330
18
100
AcDbEntity
  8
01
100
AcDbLine
 10
5732.189683943318
 20
-592.7478013927109
 30
0.0000000000563712
 11
5732.249543110527
 21
-592.7127402367548
 31
0.0000000000563712
  0
LINE
  5
BAD6
330
18
100
AcDbEntity
  8
01
100
AcDbLine
 10
5732.249543110527
 20
-592.7127402367548
 30
0.0000000000563712
 11
5732.308684636705
 21
-592.6764603594988
 31
0.0000000000563712
  0
LINE
  5
BAD7
330
18
100
AcDbEntity
  8
01
100
AcDbLine
 10
5732.308684636705
 20
-592.6764603594988
 30
0.0000000000563712
 11
5732.361966320071
 21
-592.6422600624176
 31
0.0000000000563712
  0
LINE
  5
BAD8
330
18
100
AcDbEntity
  8
01
100
AcDbLine
 10
5732.361966320071
 20
-592.6422600624176
 30
0.0000000000563712
 11
5732.414514812436
 21
-592.6069450477282
 31
0.0000000000563712
  0
LINE
  5
BAD9
330
18
100
AcDbEntity
  8
01
100
AcDbLine
 10
5732.414514812436
 20
-592.6069450477282
 30
0.0000000000563712
 11
5732.466230545035
 21
-592.5704461281307
 31
0.0000000000563712
  0
LINE
  5
BADA
330
18
100
AcDbEntity
  8
01
100
AcDbLine
 10
5732.466230545035
 20
-592.5704461281307
 30
0.0000000000563712
 11
5732.517013949096
 21
-592.5326941163244
 31
0.0000000000563712
  0
LINE
  5
BADB
330
18
100
AcDbEntity
  8
01
100
AcDbLine
 10
5732.517013949096
 20
-592.5326941163244
 30
0.0000000000563712
 11
5732.566765455851
 21
-592.4936198250089
 31
0.0000000000563712
  0
LINE
  5
BADC
330
18
100
AcDbEntity
  8
01
100
AcDbLine
 10
5732.566765455851
 20
-592.4936198250089
 30
0.0000000000563712
 11
5732.615385496531
 21
-592.4531540668836
 31
0.0000000000563712
  0
LINE
  5
BADD
330
18
100
AcDbEntity
  8
01
100
AcDbLine
 10
5732.615385496531
 20
-592.4531540668836
 30
0.0000000000563712
 11
5732.662774502368
 21
-592.4112276546482
 31
0.0000000000563712
  0
LINE
  5
BADE
330
18
100
AcDbEntity
  8
01
100
AcDbLine
 10
5732.662774502368
 20
-592.4112276546482
 30
0.0000000000563712
 11
5732.708832904591
 21
-592.3677714010021
 31
0.0000000000563712
  0
LINE
  5
BADF
330
18
100
AcDbEntity
  8
01
100
AcDbLine
 10
5732.708832904591
 20
-592.3677714010021
 30
0.0000000000563712
 11
5732.742153462043
 21
-592.3344070143371
 31
0.0000000000563712
  0
LINE
  5
BAE0
330
18
100
AcDbEntity
  8
01
100
AcDbLine
 10
5732.742153462043
 20
-592.3344070143371
 30
0.0000000000563712
 11
5732.774518610841
 21
-592.3001080229103
 31
0.0000000000563712
  0
LINE
  5
BAE1
330
18
100
AcDbEntity
  8
01
100
AcDbLine
 10
5732.774518610841
 20
-592.3001080229103
 30
0.0000000000563712
 11
5732.805764398954
 21
-592.2648247235836
 31
0.0000000000563712
  0
LINE
  5
BAE2
330
18
100
AcDbEntity
  8
01
100
AcDbLine
 10
5732.805764398954
 20
-592.2648247235836
 30
0.0000000000563712
 11
5732.820916297744
 21
-592.2467984262269
 31
0.0000000000563712
  0
LINE
  5
BAE3
330
18
100
AcDbEntity
  8
01
100
AcDbLine
 10
5732.820916297744
 20
-592.2467984262269
 30
0.0000000000563712
 11
5732.835726874349
 21
-592.2285074132183
 31
0.0000000000563712
  0
LINE
  5
BAE4
330
18
100
AcDbEntity
  8
01
100
AcDbLine
 10
5732.835726874349
 20
-592.2285074132183
 30
0.0000000000563712
 11
5732.850175634768
 21
-592.2099454716656
 31
0.0000000000563712
  0
LINE
  5
BAE5
330
18
100
AcDbEntity
  8
01
100
AcDbLine
 10
5732.850175634768
 20
-592.2099454716656
 30
0.0000000000563712
 11
5732.864242084996
 21
-592.1911063886764
 31
0.0000000000563712
  0
LINE
  5
BAE6
330
18
100
AcDbEntity
  8
01
100
AcDbLine
 10
5732.864242084996
 20
-592.1911063886764
 30
0.0000000000563712
 11
5732.877905731028
 21
-592.1719839513582
 31
0.0000000000563712
  0
LINE
  5
BAE7
330
18
100
AcDbEntity
  8
01
100
AcDbLine
 10
5732.877905731028
 20
-592.1719839513582
 30
0.0000000000563712
 11
5732.891146078861
 21
-592.1525719468191
 31
0.0000000000563712
  0
LINE
  5
BAE8
330
18
100
AcDbEntity
  8
01
100
AcDbLine
 10
5732.891146078861
 20
-592.1525719468191
 30
0.0000000000563712
 11
5732.903942634491
 21
-592.1328641621667
 31
0.0000000000563712
  0
LINE
  5
BAE9
330
18
100
AcDbEntity
  8
01
100
AcDbLine
 10
5732.903942634491
 20
-592.1328641621667
 30
0.0000000000563712
 11
5732.916274903914
 21
-592.1128543845084
 31
0.0000000000563712
  0
LINE
  5
BAEA
330
18
100
AcDbEntity
  8
01
100
AcDbLine
 10
5732.916274903914
 20
-592.1128543845084
 30
0.0000000000563712
 11
5732.928122393126
 21
-592.0925364009522
 31
0.0000000000563712
  0
LINE
  5
BAEB
330
18
100
AcDbEntity
  8
01
100
AcDbLine
 10
5732.928122393126
 20
-592.0925364009522
 30
0.0000000000563712
 11
5732.939464608122
 21
-592.0719039986056
 31
0.0000000000563712
  0
LINE
  5
BAEC
330
18
100
AcDbEntity
  8
01
100
AcDbLine
 10
5732.939464608122
 20
-592.0719039986056
 30
0.0000000000563712
 11
5732.948479067999
 21
-592.0545322303121
 31
0.0000000000563712
  0
LINE
  5
BAED
330
18
100
AcDbEntity
  8
01
100
AcDbLine
 10
5732.948479067999
 20
-592.0545322303121
 30
0.0000000000563712
 11
5732.957096500027
 21
-592.0369455065304
 31
0.0000000000563712
  0
LINE
  5
BAEE
330
18
100
AcDbEntity
  8
01
100
AcDbLine
 10
5732.957096500027
 20
-592.0369455065304
 30
0.0000000000563712
 11
5732.965282295298
 21
-592.0191498874042
 31
0.0000000000563712
  0
LINE
  5
BAEF
330
18
100
AcDbEntity
  8
01
100
AcDbLine
 10
5732.965282295298
 20
-592.0191498874042
 30
0.0000000000563712
 11
5732.973001844909
 21
-592.0011514330774
 31
0.0000000000563712
  0
LINE
  5
BAF0
330
18
100
AcDbEntity
  8
01
100
AcDbLine
 10
5732.973001844909
 20
-592.0011514330774
 30
0.0000000000563712
 11
5732.980220539949
 21
-591.9829562036937
 31
0.0000000000563712
  0
LINE
  5
BAF1
330
18
100
AcDbEntity
  8
01
100
AcDbLine
 10
5732.980220539949
 20
-591.9829562036937
 30
0.0000000000563712
 11
5732.986903771513
 21
-591.9645702593971
 31
0.0000000000563712
  0
LINE
  5
BAF2
330
18
100
AcDbEntity
  8
01
100
AcDbLine
 10
5732.986903771513
 20
-591.9645702593971
 30
0.0000000000563712
 11
5732.993016930694
 21
-591.9459996603312
 31
0.0000000000563712
  0
LINE
  5
BAF3
330
18
100
AcDbEntity
  8
01
100
AcDbLine
 10
5732.993016930694
 20
-591.9459996603312
 30
0.0000000000563712
 11
5732.998525408586
 21
-591.9272504666399
 31
0.0000000000563712
  0
LINE
  5
BAF4
330
18
100
AcDbEntity
  8
01
100
AcDbLine
 10
5732.998525408586
 20
-591.9272504666399
 30
0.0000000000563712
 11
5733.002971522005
 21
-591.9100978155088
 31
0.0000000000563712
  0
LINE
  5
BAF5
330
18
100
AcDbEntity
  8
01
100
AcDbLine
 10
5733.002971522005
 20
-591.9100978155088
 30
0.0000000000563712
 11
5733.00687806504
 21
-591.8928174821795
 31
0.0000000000563712
  0
LINE
  5
BAF6
330
18
100
AcDbEntity
  8
01
100
AcDbLine
 10
5733.00687806504
 20
-591.8928174821795
 30
0.0000000000563712
 11
5733.010231340778
 21
-591.8754237095241
 31
0.0000000000563712
  0
LINE
  5
BAF7
330
18
100
AcDbEntity
  8
01
100
AcDbLine
 10
5733.010231340778
 20
-591.8754237095241
 30
0.0000000000563712
 11
5733.013017652305
 21
-591.8579307404154
 31
0.0000000000563712
  0
LINE
  5
BAF8
330
18
100
AcDbEntity
  8
01
100
AcDbLine
 10
5733.013017652305
 20
-591.8579307404154
 30
0.0000000000563712
 11
5733.015223302709
 21
-591.8403528177264
 31
0.0000000000563712
  0
LINE
  5
BAF9
330
18
100
AcDbEntity
  8
01
100
AcDbLine
 10
5733.015223302709
 20
-591.8403528177264
 30
0.0000000000563712
 11
5733.016834595078
 21
-591.8227041843293
 31
0.0000000000563712
  0
LINE
  5
BAFA
330
18
100
AcDbEntity
  8
01
100
AcDbLine
 10
5733.016834595078
 20
-591.8227041843293
 30
0.0000000000563712
 11
5733.017837832496
 21
-591.8049990830973
 31
0.0000000000563712
  0
LINE
  5
BAFB
330
18
100
AcDbEntity
  8
01
100
AcDbLine
 10
5733.017837832496
 20
-591.8049990830973
 30
0.0000000000563712
 11
5733.018107150315
 21
-591.7961298079408
 31
0.0000000000563712
  0
LINE
  5
BAFC
330
18
100
AcDbEntity
  8
01
100
AcDbLine
 10
5733.018107150315
 20
-591.7961298079408
 30
0.0000000000563712
 11
5733.018219318053
 21
-591.7872517569026
 31
0.0000000000563712
  0
LINE
  5
BAFD
330
18
100
AcDbEntity
  8
01
100
AcDbLine
 10
5733.018219318053
 20
-591.7872517569026
 30
0.0000000000563712
 11
5733.017983801102
 21
-591.7731346396761
 31
0.0000000000563712
  0
LINE
  5
BAFE
330
18
100
AcDbEntity
  8
01
100
AcDbLine
 10
5733.017983801102
 20
-591.7731346396761
 30
0.0000000000563712
 11
5733.017347885495
 21
-591.7590511094995
 31
0.0000000000563712
  0
LINE
  5
BAFF
330
18
100
AcDbEntity
  8
01
100
AcDbLine
 10
5733.017347885495
 20
-591.7590511094995
 30
0.0000000000563712
 11
5733.016302721743
 21
-591.745010260649
 31
0.0000000000563712
  0
LINE
  5
BB00
330
18
100
AcDbEntity
  8
01
100
AcDbLine
 10
5733.016302721743
 20
-591.745010260649
 30
0.0000000000563712
 11
5733.014839460358
 21
-591.7310211873996
 31
0.0000000000563712
  0
LINE
  5
BB01
330
18
100
AcDbEntity
  8
01
100
AcDbLine
 10
5733.014839460358
 20
-591.7310211873996
 30
0.0000000000563712
 11
5733.012949251849
 21
-591.7170929840274
 31
0.0000000000563712
  0
LINE
  5
BB02
330
18
100
AcDbEntity
  8
01
100
AcDbLine
 10
5733.012949251849
 20
-591.7170929840274
 30
0.0000000000563712
 11
5733.010623246729
 21
-591.703234744808
 31
0.0000000000563712
  0
LINE
  5
BB03
330
18
100
AcDbEntity
  8
01
100
AcDbLine
 10
5733.010623246729
 20
-591.703234744808
 30
0.0000000000563712
 11
5733.00785259551
 21
-591.6894555640167
 31
0.0000000000563712
  0
LINE
  5
BB04
330
18
100
AcDbEntity
  8
01
100
AcDbLine
 10
5733.00785259551
 20
-591.6894555640167
 30
0.0000000000563712
 11
5733.0046284487
 21
-591.6757645359296
 31
0.0000000000563712
  0
LINE
  5
BB05
330
18
100
AcDbEntity
  8
01
100
AcDbLine
 10
5733.0046284487
 20
-591.6757645359296
 30
0.0000000000563712
 11
5733.000901000315
 21
-591.662015582443
 31
0.0000000000563712
  0
LINE
  5
BB06
330
18
100
AcDbEntity
  8
01
100
AcDbLine
 10
5733.000901000315
 20
-591.662015582443
 30
0.0000000000563712
 11
5732.996716732735
 21
-591.6483803419023
 31
0.0000000000563712
  0
LINE
  5
BB07
330
18
100
AcDbEntity
  8
01
100
AcDbLine
 10
5732.996716732735
 20
-591.6483803419023
 30
0.0000000000563712
 11
5732.992091883853
 21
-591.6348730271725
 31
0.0000000000563712
  0
LINE
  5
BB08
330
18
100
AcDbEntity
  8
01
100
AcDbLine
 10
5732.992091883853
 20
-591.6348730271725
 30
0.0000000000563712
 11
5732.987042691563
 21
-591.6215078511175
 31
0.0000000000563712
  0
LINE
  5
BB09
330
18
100
AcDbEntity
  8
01
100
AcDbLine
 10
5732.987042691563
 20
-591.6215078511175
 30
0.0000000000563712
 11
5732.98158539376
 21
-591.6082990266018
 31
0.0000000000563712
  0
LINE
  5
BB0A
330
18
100
AcDbEntity
  8
01
100
AcDbLine
 10
5732.98158539376
 20
-591.6082990266018
 30
0.0000000000563712
 11
5732.975736228334
 21
-591.5952607664899
 31
0.0000000000563712
  0
LINE
  5
BB0B
330
18
100
AcDbEntity
  8
01
100
AcDbLine
 10
5732.975736228334
 20
-591.5952607664899
 30
0.0000000000563712
 11
5732.969511433183
 21
-591.582407283646
 31
0.0000000000563712
  0
LINE
  5
BB0C
330
18
100
AcDbEntity
  8
01
100
AcDbLine
 10
5732.969511433183
 20
-591.582407283646
 30
0.0000000000563712
 11
5732.962927246196
 21
-591.5697527909344
 31
0.0000000000563712
  0
LINE
  5
BB0D
330
18
100
AcDbEntity
  8
01
100
AcDbLine
 10
5732.962927246196
 20
-591.5697527909344
 30
0.0000000000563712
 11
5732.95461062702
 21
-591.5549095945134
 31
0.0000000000563712
  0
LINE
  5
BB0E
330
18
100
AcDbEntity
  8
01
100
AcDbLine
 10
5732.95461062702
 20
-591.5549095945134
 30
0.0000000000563712
 11
5732.945823594117
 21
-591.5403678280995
 31
0.0000000000563712
  0
LINE
  5
BB0F
330
18
100
AcDbEntity
  8
01
100
AcDbLine
 10
5732.945823594117
 20
-591.5403678280995
 30
0.0000000000563712
 11
5732.936585591325
 21
-591.5261245711197
 31
0.0000000000563712
  0
LINE
  5
BB10
330
18
100
AcDbEntity
  8
01
100
AcDbLine
 10
5732.936585591325
 20
-591.5261245711197
 30
0.0000000000563712
 11
5732.926916062482
 21
-591.5121769030013
 31
0.0000000000563712
  0
LINE
  5
BB11
330
18
100
AcDbEntity
  8
01
100
AcDbLine
 10
5732.926916062482
 20
-591.5121769030013
 30
0.0000000000563712
 11
5732.916834451425
 21
-591.4985219031721
 31
0.0000000000563712
  0
LINE
  5
BB12
330
18
100
AcDbEntity
  8
01
100
AcDbLine
 10
5732.916834451425
 20
-591.4985219031721
 30
0.0000000000563712
 11
5732.90636020199
 21
-591.4851566510592
 31
0.0000000000563712
  0
LINE
  5
BB13
330
18
100
AcDbEntity
  8
01
100
AcDbLine
 10
5732.90636020199
 20
-591.4851566510592
 30
0.0000000000563712
 11
5732.895512758017
 21
-591.4720782260902
 31
0.0000000000563712
  0
LINE
  5
BB14
330
18
100
AcDbEntity
  8
01
100
AcDbLine
 10
5732.895512758017
 20
-591.4720782260902
 30
0.0000000000563712
 11
5732.88431156334
 21
-591.4592837076921
 31
0.0000000000563712
  0
LINE
  5
BB15
330
18
100
AcDbEntity
  8
01
100
AcDbLine
 10
5732.88431156334
 20
-591.4592837076921
 30
0.0000000000563712
 11
5732.872776061799
 21
-591.4467701752924
 31
0.0000000000563712
  0
LINE
  5
BB16
330
18
100
AcDbEntity
  8
01
100
AcDbLine
 10
5732.872776061799
 20
-591.4467701752924
 30
0.0000000000563712
 11
5732.86092569723
 21
-591.4345347083186
 31
0.0000000000563712
  0
LINE
  5
BB17
330
18
100
AcDbEntity
  8
01
100
AcDbLine
 10
5732.86092569723
 20
-591.4345347083186
 30
0.0000000000563712
 11
5732.848779913471
 21
-591.422574386198
 31
0.0000000000563712
  0
LINE
  5
BB18
330
18
100
AcDbEntity
  8
01
100
AcDbLine
 10
5732.848779913471
 20
-591.422574386198
 30
0.0000000000563712
 11
5732.836358154359
 21
-591.4108862883581
 31
0.0000000000563712
  0
LINE
  5
BB19
330
18
100
AcDbEntity
  8
01
100
AcDbLine
 10
5732.836358154359
 20
-591.4108862883581
 30
0.0000000000563712
 11
5732.823679863732
 21
-591.3994674942264
 31
0.0000000000563712
  0
LINE
  5
BB1A
330
18
100
AcDbEntity
  8
01
100
AcDbLine
 10
5732.823679863732
 20
-591.3994674942264
 30
0.0000000000563712
 11
5732.810764485426
 21
-591.3883150832298
 31
0.0000000000563712
  0
LINE
  5
BB1B
330
18
100
AcDbEntity
  8
01
100
AcDbLine
 10
5732.810764485426
 20
-591.3883150832298
 30
0.0000000000563712
 11
5732.79763146328
 21
-591.377426134796
 31
0.0000000000563712
  0
LINE
  5
BB1C
330
18
100
AcDbEntity
  8
01
100
AcDbLine
 10
5732.79763146328
 20
-591.377426134796
 30
0.0000000000563712
 11
5732.784300241129
 21
-591.3667977283524
 31
0.0000000000563712
  0
LINE
  5
BB1D
330
18
100
AcDbEntity
  8
01
100
AcDbLine
 10
5732.784300241129
 20
-591.3667977283524
 30
0.0000000000563712
 11
5732.769224870945
 21
-591.3552507079628
 31
0.0000000000563712
  0
LINE
  5
BB1E
330
18
100
AcDbEntity
  8
01
100
AcDbLine
 10
5732.769224870945
 20
-591.3552507079628
 30
0.0000000000563712
 11
5732.753937675247
 21
-591.3440127665297
 31
0.0000000000563712
  0
LINE
  5
BB1F
330
18
100
AcDbEntity
  8
01
100
AcDbLine
 10
5732.753937675247
 20
-591.3440127665297
 30
0.0000000000563712
 11
5732.738449015766
 21
-591.3330727691975
 31
0.0000000000563712
  0
LINE
  5
BB20
330
18
100
AcDbEntity
  8
01
100
AcDbLine
 10
5732.738449015766
 20
-591.3330727691975
 30
0.0000000000563712
 11
5732.722769254236
 21
-591.3224195811108
 31
0.0000000000563712
  0
LINE
  5
BB21
330
18
100
AcDbEntity
  8
01
100
AcDbLine
 10
5732.722769254236
 20
-591.3224195811108
 30
0.0000000000563712
 11
5732.690877871955
 21
-591.301929093252
 31
0.0000000000563712
  0
LINE
  5
BB22
330
18
100
AcDbEntity
  8
01
100
AcDbLine
 10
5732.690877871955
 20
-591.301929093252
 30
0.0000000000563712
 11
5732.658346422263
 21
-591.2824522241096
 31
0.0000000000563712
  0
LINE
  5
BB23
330
18
100
AcDbEntity
  8
01
100
AcDbLine
 10
5732.658346422263
 20
-591.2824522241096
 30
0.0000000000563712
 11
5732.617574113615
 21
-591.2597667138616
 31
0.0000000000563712
  0
LINE
  5
BB24
330
18
100
AcDbEntity
  8
01
100
AcDbLine
 10
5732.617574113615
 20
-591.2597667138616
 30
0.0000000000563712
 11
5732.576071975962
 21
-591.2383768400302
 31
0.0000000000563712
  0
LINE
  5
BB25
330
18
100
AcDbEntity
  8
01
100
AcDbLine
 10
5732.576071975962
 20
-591.2383768400302
 30
0.0000000000563712
 11
5732.533952977842
 21
-591.2181797521012
 31
0.0000000000563712
  0
LINE
  5
BB26
330
18
100
AcDbEntity
  8
01
100
AcDbLine
 10
5732.533952977842
 20
-591.2181797521012
 30
0.0000000000563712
 11
5732.491330087792
 21
-591.1990725995604
 31
0.0000000000563712
  0
LINE
  5
BB27
330
18
100
AcDbEntity
  8
01
100
AcDbLine
 10
5732.491330087792
 20
-591.1990725995604
 30
0.0000000000563712
 11
5732.441118986981
 21
-591.1780444259118
 31
0.0000000000563712
  0
LINE
  5
BB28
330
18
100
AcDbEntity
  8
01
100
AcDbLine
 10
5732.441118986981
 20
-591.1780444259118
 30
0.0000000000563712
 11
5732.390422554879
 21
-591.158276258496
 31
0.0000000000563712
  0
LINE
  5
BB29
330
18
100
AcDbEntity
  8
01
100
AcDbLine
 10
5732.390422554879
 20
-591.158276258496
 30
0.0000000000563712
 11
5732.339287045987
 21
-591.1396858449293
 31
0.0000000000563712
  0
LINE
  5
BB2A
330
18
100
AcDbEntity
  8
01
100
AcDbLine
 10
5732.339287045987
 20
-591.1396858449293
 30
0.0000000000563712
 11
5732.287758714801
 21
-591.1221909328278
 31
0.0000000000563712
  0
LINE
  5
BB2B
330
18
100
AcDbEntity
  8
01
100
AcDbLine
 10
5732.287758714801
 20
-591.1221909328278
 30
0.0000000000563712
 11
5732.235883815821
 21
-591.1057092698079
 31
0.0000000000563712
  0
LINE
  5
BB2C
330
18
100
AcDbEntity
  8
01
100
AcDbLine
 10
5732.235883815821
 20
-591.1057092698079
 30
0.0000000000563712
 11
5732.183708603543
 21
-591.0901586034856
 31
0.0000000000563712
  0
LINE
  5
BB2D
330
18
100
AcDbEntity
  8
01
100
AcDbLine
 10
5732.183708603543
 20
-591.0901586034856
 30
0.0000000000563712
 11
5732.078642257091
 21
-591.0615212513985
 31
0.0000000000563712
  0
LINE
  5
BB2E
330
18
100
AcDbEntity
  8
01
100
AcDbLine
 10
5732.078642257091
 20
-591.0615212513985
 30
0.0000000000563712
 11
5731.946959101585
 21
-591.0297676630921
 31
0.0000000000563712
  0
LINE
  5
BB2F
330
18
100
AcDbEntity
  8
01
100
AcDbLine
 10
5731.946959101585
 20
-591.0297676630921
 30
0.0000000000563712
 11
5731.814440907406
 21
-591.0017792519461
 31
0.0000000000563712
  0
LINE
  5
BB30
330
18
100
AcDbEntity
  8
01
100
AcDbLine
 10
5731.814440907406
 20
-591.0017792519461
 30
0.0000000000563712
 11
5731.681253099229
 21
-590.9770837613396
 31
0.0000000000563712
  0
LINE
  5
BB31
330
18
100
AcDbEntity
  8
01
100
AcDbLine
 10
5731.681253099229
 20
-590.9770837613396
 30
0.0000000000563712
 11
5731.547561101732
 21
-590.955208934651
 31
0.0000000000563712
  0
LINE
  5
BB32
330
18
100
AcDbEntity
  8
01
100
AcDbLine
 10
5731.547561101732
 20
-590.955208934651
 30
0.0000000000563712
 11
5731.385790795858
 21
-590.9319774453347
 31
0.0000000000563712
  0
LINE
  5
BB33
330
18
100
AcDbEntity
  8
01
100
AcDbLine
 10
5731.385790795858
 20
-590.9319774453347
 30
0.0000000000563712
 11
5731.223611983415
 21
-590.9118028655989
 31
0.0000000000563712
  0
LINE
  5
BB34
330
18
100
AcDbEntity
  8
01
100
AcDbLine
 10
5731.223611983415
 20
-590.9118028655989
 30
0.0000000000563712
 11
5730.898367313256
 21
-590.8791781695722
 31
0.0000000000563712
  0
LINE
  5
BB35
330
18
100
AcDbEntity
  8
01
100
AcDbLine
 10
5730.898367313256
 20
-590.8791781695722
 30
0.0000000000563712
 11
5730.504820790887
 21
-590.8505623690669
 31
0.0000000000563712
  0
LINE
  5
BB36
330
18
100
AcDbEntity
  8
01
100
AcDbLine
 10
5730.504820790887
 20
-590.8505623690669
 30
0.0000000000563712
 11
5730.110684383976
 21
-590.8315046512203
 31
0.0000000000563712
  0
LINE
  5
BB37
330
18
100
AcDbEntity
  8
01
100
AcDbLine
 10
5730.110684383976
 20
-590.8315046512203
 30
0.0000000000563712
 11
5729.689519321181
 21
-590.819796260452
 31
0.0000000000563712
  0
LINE
  5
BB38
330
18
100
AcDbEntity
  8
01
100
AcDbLine
 10
5729.689519321181
 20
-590.819796260452
 30
0.0000000000563712
 11
5729.26820988075
 21
-590.8160794264904
 31
0.0000000000563712
  0
LINE
  5
BCCC
330
18
100
AcDbEntity
  8
1DIM
100
AcDbLine
 10
5851.488388527053
 20
-474.9615203242599
 30
0.0000000002254849
 11
5879.788388527052
 21
-474.9615203242599
 31
0.0000000002254849
1001
ACAD
1000
DSTYLE
1002
{
1070
    40
1040
1.3
1002
}
  0
LINE
  5
BCCD
330
18
100
AcDbEntity
  8
1DIM
100
AcDbLine
 10
5832.107075898889
 20
-415.7615203242599
 30
0.0000000002254849
 11
5879.788388527052
 21
-415.7615203242599
 31
0.0000000002254849
1001
ACAD
1000
DSTYLE
1002
{
1070
    40
1040
1.3
1002
}
  0
LINE
  5
BCCE
330
18
100
AcDbEntity
  8
1DIM
100
AcDbLine
 10
5878.488388527052
 20
-472.3615203242599
 30
0.0000000002254849
 11
5878.488388527052
 21
-418.3615203242599
 31
0.0000000002254849
1001
ACAD
1000
DSTYLE
1002
{
1070
    40
1040
1.3
1002
}
  0
LINE
  5
BCD2
330
18
100
AcDbEntity
  8
1DIM
100
AcDbLine
 10
5847.286685235736
 20
-456.9404665785139
 30
0.0000000002254849
 11
5869.788388527052
 21
-456.9404665785139
 31
0.0000000002254849
1001
ACAD
1000
DSTYLE
1002
{
1070
    40
1040
1.3
1002
}
  0
LINE
  5
BCD3
330
18
100
AcDbEntity
  8
1DIM
100
AcDbLine
 10
5832.107075898889
 20
-415.7615203242599
 30
0.0000000002254849
 11
5869.788388527052
 21
-415.7615203242599
 31
0.0000000002254849
1001
ACAD
1000
DSTYLE
1002
{
1070
    40
1040
1.3
1002
}
  0
LINE
  5
BCD4
330
18
100
AcDbEntity
  8
1DIM
100
AcDbLine
 10
5868.488388527052
 20
-454.3404665785139
 30
0.0000000002254849
 11
5868.488388527052
 21
-418.3615203242599
 31
0.0000000002254849
1001
ACAD
1000
DSTYLE
1002
{
1070
    40
1040
1.3
1002
}
  0
LINE
  5
BCD8
330
18
100
AcDbEntity
  8
1DIM
100
AcDbLine
 10
5729.351927901542
 20
-446.0118511808794
 30
0.0000000002254849
 11
5729.351927901542
 21
-491.2615203242599
 31
0.0000000002254849
1001
ACAD
1000
DSTYLE
1002
{
1070
    40
1040
1.3
1002
}
  0
LINE
  5
BCD9
330
18
100
AcDbEntity
  8
1DIM
100
AcDbLine
 10
5853.488388527053
 20
-472.9615203242599
 30
0.0000000002254849
 11
5853.488388527053
 21
-491.2615203242599
 31
0.0000000002254849
1001
ACAD
1000
DSTYLE
1002
{
1070
    40
1040
1.3
1002
}
  0
LINE
  5
BCDA
330
18
100
AcDbEntity
  8
1DIM
100
AcDbLine
 10
5731.951927901542
 20
-489.9615203242599
 30
0.0000000002254849
 11
5850.888388527052
 21
-489.9615203242599
 31
0.0000000002254849
1001
ACAD
1000
DSTYLE
1002
{
1070
    40
1040
1.3
1002
}
  0
LINE
  5
BCDE
330
18
100
AcDbEntity
  8
1DIM
100
AcDbLine
 10
5704.351927901542
 20
-418.9615203242599
 30
0.0000000002254849
 11
5704.351927901542
 21
-501.2615203242599
 31
0.0000000002254849
1001
ACAD
1000
DSTYLE
1002
{
1070
    40
1040
1.3
1002
}
  0
LINE
  5
BCDF
330
18
100
AcDbEntity
  8
1DIM
100
AcDbLine
 10
5853.488388527053
 20
-472.9615203242599
 30
0.0000000002254849
 11
5853.488388527053
 21
-501.2615203242599
 31
0.0000000002254849
1001
ACAD
1000
DSTYLE
1002
{
1070
    40
1040
1.3
1002
}
  0
LINE
  5
BCE0
330
18
100
AcDbEntity
  8
1DIM
100
AcDbLine
 10
5706.951927901542
 20
-499.9615203242599
 30
0.0000000002254849
 11
5850.888388527052
 21
-499.9615203242599
 31
0.0000000002254849
1001
ACAD
1000
DSTYLE
1002
{
1070
    40
1040
1.3
1002
}
  0
LINE
  5
BCE4
330
18
100
AcDbEntity
  8
1DIM
100
AcDbLine
 10
5705.530857756382
 20
-600.7602242527526
 30
0.0000000000563712
 11
5693.051927901542
 21
-600.7602242527526
 31
0.0000000000563712
1001
ACAD
1000
DSTYLE
1002
{
1070
     3
1000
□<>
1070
    40
1040
1.3
1002
}
  0
LINE
  5
BCE5
330
18
100
AcDbEntity
  8
1DIM
100
AcDbLine
 10
5705.530857852981
 20
-550.7602232232198
 30
0.0000000000563712
 11
5693.051927901542
 21
-550.7602232232198
 31
0.0000000000563712
1001
ACAD
1000
DSTYLE
1002
{
1070
     3
1000
□<>
1070
    40
1040
1.3
1002
}
  0
LINE
  5
BCE6
330
18
100
AcDbEntity
  8
1DIM
100
AcDbLine
 10
5694.351927901542
 20
-598.1602242527525
 30
0.0000000000563712
 11
5694.351927901542
 21
-553.3602232232198
 31
0.0000000000563712
1001
ACAD
1000
DSTYLE
1002
{
1070
     3
1000
□<>
1070
    40
1040
1.3
1002
}
  0
LINE
  5
BCEA
330
18
100
AcDbEntity
  8
0
  6
BYBLOCK
100
AcDbLine
 10
5879.185056421052
 20
-472.3615203242599
 30
0.0000000002254849
 11
5878.488388527052
 21
-474.9615203242599
 31
0.0000000002254849
  0
LINE
  5
BCEB
330
18
100
AcDbEntity
  8
0
  6
BYBLOCK
100
AcDbLine
 10
5878.488388527052
 20
-474.9615203242599
 30
0.0000000002254849
 11
5877.791720633052
 21
-472.3615203242599
 31
0.0000000002254849
  0
LINE
  5
BCEC
330
18
100
AcDbEntity
  8
0
  6
BYBLOCK
100
AcDbLine
 10
5878.488388527052
 20
-474.9615203242599
 30
0.0000000002254849
 11
5878.488388527052
 21
-472.3615203242599
 31
0.0000000002254849
  0
LINE
  5
BCED
330
18
100
AcDbEntity
  8
0
  6
BYBLOCK
100
AcDbLine
 10
5877.791720633052
 20
-418.3615203242599
 30
0.0000000002254849
 11
5878.488388527052
 21
-415.7615203242599
 31
0.0000000002254849
  0
LINE
  5
BCEE
330
18
100
AcDbEntity
  8
0
  6
BYBLOCK
100
AcDbLine
 10
5878.488388527052
 20
-415.7615203242599
 30
0.0000000002254849
 11
5879.185056421052
 21
-418.3615203242599
 31
0.0000000002254849
  0
LINE
  5
BCEF
330
18
100
AcDbEntity
  8
0
  6
BYBLOCK
100
AcDbLine
 10
5878.488388527052
 20
-415.7615203242599
 30
0.0000000002254849
 11
5878.488388527052
 21
-418.3615203242599
 31
0.0000000002254849
  0
TEXT
  5
BCF0
330
18
100
AcDbEntity
  8
1DIM
  6
CONTINUOUS
100
AcDbText
 10
5877.578388527051
 20
-449.170038842778
 30
0.0000000002254849
 40
4.55
  1
59
 50
90.0
100
AcDbText
1001
ACAD
1000
DSTYLE
1002
{
1070
    40
1040
1.3
1002
}
  0
LINE
  5
BCF1
330
18
100
AcDbEntity
  8
0
  6
BYBLOCK
100
AcDbLine
 10
5869.185056421052
 20
-454.3404665785139
 30
0.0000000002254849
 11
5868.488388527052
 21
-456.9404665785139
 31
0.0000000002254849
  0
LINE
  5
BCF2
330
18
100
AcDbEntity
  8
0
  6
BYBLOCK
100
AcDbLine
 10
5868.488388527052
 20
-456.9404665785139
 30
0.0000000002254849
 11
5867.791720633052
 21
-454.3404665785139
 31
0.0000000002254849
  0
LINE
  5
BCF3
330
18
100
AcDbEntity
  8
0
  6
BYBLOCK
100
AcDbLine
 10
5868.488388527052
 20
-456.9404665785139
 30
0.0000000002254849
 11
5868.488388527052
 21
-454.3404665785139
 31
0.0000000002254849
  0
LINE
  5
BCF4
330
18
100
AcDbEntity
  8
0
  6
BYBLOCK
100
AcDbLine
 10
5867.791720633052
 20
-418.3615203242599
 30
0.0000000002254849
 11
5868.488388527052
 21
-415.7615203242599
 31
0.0000000002254849
  0
LINE
  5
BCF5
330
18
100
AcDbEntity
  8
0
  6
BYBLOCK
100
AcDbLine
 10
5868.488388527052
 20
-415.7615203242599
 30
0.0000000002254849
 11
5869.185056421052
 21
-418.3615203242599
 31
0.0000000002254849
  0
LINE
  5
BCF6
330
18
100
AcDbEntity
  8
0
  6
BYBLOCK
100
AcDbLine
 10
5868.488388527052
 20
-415.7615203242599
 30
0.0000000002254849
 11
5868.488388527052
 21
-418.3615203242599
 31
0.0000000002254849
  0
TEXT
  5
BCF7
330
18
100
AcDbEntity
  8
1DIM
  6
CONTINUOUS
100
AcDbText
 10
5867.578388527051
 20
-439.3843267847205
 30
0.0000000002254849
 40
4.55
  1
41
 50
90.0
100
AcDbText
1001
ACAD
1000
DSTYLE
1002
{
1070
    40
1040
1.3
1002
}
  0
LINE
  5
BCF8
330
18
100
AcDbEntity
  8
0
  6
BYBLOCK
100
AcDbLine
 10
5731.951927901542
 20
-490.6581882182599
 30
0.0000000002254849
 11
5729.351927901542
 21
-489.9615203242599
 31
0.0000000002254849
  0
LINE
  5
BCF9
330
18
100
AcDbEntity
  8
0
  6
BYBLOCK
100
AcDbLine
 10
5729.351927901542
 20
-489.9615203242599
 30
0.0000000002254849
 11
5731.951927901542
 21
-489.26485243026
 31
0.0000000002254849
  0
LINE
  5
BCFA
330
18
100
AcDbEntity
  8
0
  6
BYBLOCK
100
AcDbLine
 10
5729.351927901542
 20
-489.9615203242599
 30
0.0000000002254849
 11
5731.951927901542
 21
-489.9615203242599
 31
0.0000000002254849
  0
LINE
  5
BCFB
330
18
100
AcDbEntity
  8
0
  6
BYBLOCK
100
AcDbLine
 10
5850.888388527052
 20
-489.26485243026
 30
0.0000000002254849
 11
5853.488388527053
 21
-489.9615203242599
 31
0.0000000002254849
  0
LINE
  5
BCFC
330
18
100
AcDbEntity
  8
0
  6
BYBLOCK
100
AcDbLine
 10
5853.488388527053
 20
-489.9615203242599
 30
0.0000000002254849
 11
5850.888388527052
 21
-490.6581882182599
 31
0.0000000002254849
  0
LINE
  5
BCFD
330
18
100
AcDbEntity
  8
0
  6
BYBLOCK
100
AcDbLine
 10
5853.488388527053
 20
-489.9615203242599
 30
0.0000000002254849
 11
5850.888388527052
 21
-489.9615203242599
 31
0.0000000002254849
  0
TEXT
  5
BCFE
330
18
100
AcDbEntity
  8
1DIM
  6
CONTINUOUS
100
AcDbText
 10
5786.111824880964
 20
-489.05152032426
 30
0.0000000002254849
 40
4.55
  1
124
100
AcDbText
1001
ACAD
1000
DSTYLE
1002
{
1070
    40
1040
1.3
1002
}
  0
LINE
  5
BCFF
330
18
100
AcDbEntity
  8
0
  6
BYBLOCK
100
AcDbLine
 10
5706.951927901542
 20
-500.6581882182599
 30
0.0000000002254849
 11
5704.351927901542
 21
-499.9615203242599
 31
0.0000000002254849
  0
LINE
  5
BD00
330
18
100
AcDbEntity
  8
0
  6
BYBLOCK
100
AcDbLine
 10
5704.351927901542
 20
-499.9615203242599
 30
0.0000000002254849
 11
5706.951927901542
 21
-499.26485243026
 31
0.0000000002254849
  0
LINE
  5
BD01
330
18
100
AcDbEntity
  8
0
  6
BYBLOCK
100
AcDbLine
 10
5704.351927901542
 20
-499.9615203242599
 30
0.0000000002254849
 11
5706.951927901542
 21
-499.9615203242599
 31
0.0000000002254849
  0
LINE
  5
BD02
330
18
100
AcDbEntity
  8
0
  6
BYBLOCK
100
AcDbLine
 10
5850.888388527052
 20
-499.26485243026
 30
0.0000000002254849
 11
5853.488388527053
 21
-499.9615203242599
 31
0.0000000002254849
  0
LINE
  5
BD03
330
18
100
AcDbEntity
  8
0
  6
BYBLOCK
100
AcDbLine
 10
5853.488388527053
 20
-499.9615203242599
 30
0.0000000002254849
 11
5850.888388527052
 21
-500.6581882182599
 31
0.0000000002254849
  0
LINE
  5
BD04
330
18
100
AcDbEntity
  8
0
  6
BYBLOCK
100
AcDbLine
 10
5853.488388527053
 20
-499.9615203242599
 30
0.0000000002254849
 11
5850.888388527052
 21
-499.9615203242599
 31
0.0000000002254849
  0
TEXT
  5
BD05
330
18
100
AcDbEntity
  8
1DIM
  6
CONTINUOUS
100
AcDbText
 10
5773.610771640224
 20
-499.05152032426
 30
0.0000000002254849
 40
4.55
  1
149
100
AcDbText
1001
ACAD
1000
DSTYLE
1002
{
1070
    40
1040
1.3
1002
}
  0
LINE
  5
BD06
330
18
100
AcDbEntity
  8
0
  6
BYBLOCK
100
AcDbLine
 10
5695.048595795542
 20
-598.1602242527525
 30
0.0000000000563712
 11
5694.351927901542
 21
-600.7602242527526
 31
0.0000000000563712
  0
LINE
  5
BD07
330
18
100
AcDbEntity
  8
0
  6
BYBLOCK
100
AcDbLine
 10
5694.351927901542
 20
-600.7602242527526
 30
0.0000000000563712
 11
5693.655260007542
 21
-598.1602242527525
 31
0.0000000000563712
  0
LINE
  5
BD08
330
18
100
AcDbEntity
  8
0
  6
BYBLOCK
100
AcDbLine
 10
5694.351927901542
 20
-600.7602242527526
 30
0.0000000000563712
 11
5694.351927901542
 21
-598.1602242527525
 31
0.0000000000563712
  0
LINE
  5
BD09
330
18
100
AcDbEntity
  8
0
  6
BYBLOCK
100
AcDbLine
 10
5693.655260007542
 20
-553.3602232232198
 30
0.0000000000563712
 11
5694.351927901542
 21
-550.7602232232198
 31
0.0000000000563712
  0
LINE
  5
BD0A
330
18
100
AcDbEntity
  8
0
  6
BYBLOCK
100
AcDbLine
 10
5694.351927901542
 20
-550.7602232232198
 30
0.0000000000563712
 11
5695.048595795542
 21
-553.3602232232198
 31
0.0000000000563712
  0
LINE
  5
BD0B
330
18
100
AcDbEntity
  8
0
  6
BYBLOCK
100
AcDbLine
 10
5694.351927901542
 20
-550.7602232232198
 30
0.0000000000563712
 11
5694.351927901542
 21
-553.3602232232198
 31
0.0000000000563712
  0
TEXT
  5
BD0C
330
18
100
AcDbEntity
  8
1DIM
  6
CONTINUOUS
100
AcDbText
 10
5693.441927901541
 20
-582.1649806824298
 30
0.0000000000563712
 40
4.55
  1
□50
 50
90.0
100
AcDbText
1001
ACAD
1000
DSTYLE
1002
{
1070
     3
1000
□<>
1070
    40
1040
1.3
1002
}
  0
VIEWPORT
  5
57
330
15
100
AcDbEntity
 67
     1
  8
0
100
AcDbViewport
 68
     1
 10
0.0
 20
0.0
 30
0.0
 40
555.8298653610772
 41
297.0
 68
     1
 69
     1
1001
ACAD
1000
MVIEW
1002
{
1070
    16
1010
0.0
1020
0.0
1030
0.0
1010
0.0
1020
0.0
1030
1.0
1040
0.0
1040
297.0
1040
5.728000000000009
1040
25.33900000000001
1040
50.0
1040
0.0
1040
0.0
1070
    16
1070
   100
1070
     0
1070
     1
1070
     0
1070
     0
1070
     0
1070
     0
1040
0.0
1040
0.0
1040
0.0
1040
10.0
1040
10.0
1040
10.0
1040
10.0
1070
     0
1002
{
1002
}
1002
}
  0
ENDSEC
  0
SECTION
  2
OBJECTS
  0
DICTIONARY
  5
C
330
0
100
AcDbDictionary
  3
ACAD_CIP_PREVIOUS_PRODUCT_INFO
350
AEA8
  3
ACAD_COLOR
350
18D
  3
ACAD_GROUP
350
D
  3
ACAD_LAYOUT
350
18E
  3
ACAD_MATERIAL
350
18C
  3
ACAD_MLEADERSTYLE
350
9583
  3
ACAD_MLINESTYLE
350
1B
  3
ACAD_PLOTSETTINGS
350
18F
  3
ACAD_SCALELIST
350
9561
  3
ACAD_VISUALSTYLE
350
9550
  3
ACDBHEADERROUNDTRIPXREC
350
BD0D
  3
ACDBVARIABLEDICTIONARY
350
37
  3
AEC_PROPERTY_SET_DEFS
350
AF85
  3
CONTENTDICTIONARY
350
D8
  3
DRAWINGVARIABLESDICT
350
20
  3
DWGPROPS
350
BD10
1001
ACAD
1000
TREAT_AS_HARD
1070
     0
  0
DICTIONARY
  5
96D9
330
2
100
AcDbDictionary
  3
ACAD_LAYERSTATES
360
96DA
1001
ACAD
1000
TREAT_AS_HARD
1070
     1
  0
DICTIONARY
  5
9593
330
E
100
AcDbDictionary
  3
ADSK_XREC_LAYER_RECONCILED
360
9594
1001
ACAD
1000
TREAT_AS_HARD
1070
     1
  0
DICTIONARY
  5
9595
330
29
100
AcDbDictionary
  3
ADSK_XREC_LAYER_RECONCILED
360
9596
1001
ACAD
1000
TREAT_AS_HARD
1070
     1
  0
DICTIONARY
  5
9597
330
31
100
AcDbDictionary
  3
ADSK_XREC_LAYER_RECONCILED
360
9598
1001
ACAD
1000
TREAT_AS_HARD
1070
     1
  0
DICTIONARY
  5
959D
330
243
100
AcDbDictionary
  3
ADSK_XREC_LAYER_RECONCILED
360
959E
1001
ACAD
1000
TREAT_AS_HARD
1070
     1
  0
DICTIONARY
  5
95A3
330
24E
100
AcDbDictionary
  3
ADSK_XREC_LAYER_RECONCILED
360
95A4
1001
ACAD
1000
TREAT_AS_HARD
1070
     1
  0
DICTIONARY
  5
88F
330
18
100
AcDbDictionary
  3
ACAD_SORTENTS
360
890
1001
ACAD
1000
TREAT_AS_HARD
1070
     1
  0
XRECORD
  5
AEA8
102
{ACAD_REACTORS
330
C
102
}
330
C
100
AcDbXrecord
300
ACDLT
300
2012
300
ACDLT_F_S
  0
DICTIONARY
  5
18D
102
{ACAD_REACTORS
330
C
102
}
330
C
100
AcDbDictionary
1001
ACAD
1000
TREAT_AS_HARD
1070
     0
  0
DICTIONARY
  5
D
102
{ACAD_REACTORS
330
C
102
}
330
C
100
AcDbDictionary
1001
ACAD
1000
TREAT_AS_HARD
1070
     0
  0
DICTIONARY
  5
18E
102
{ACAD_REACTORS
330
C
102
}
330
C
100
AcDbDictionary
1001
ACAD
1000
TREAT_AS_HARD
1070
     0
  0
DICTIONARY
  5
18C
102
{ACAD_REACTORS
330
C
102
}
330
C
100
AcDbDictionary
  3
BYBLOCK
350
9540
  3
BYLAYER
350
9538
  3
GLOBAL
350
9548
1001
ACAD
1000
TREAT_AS_HARD
1070
     0
  0
DICTIONARY
  5
9583
102
{ACAD_REACTORS
330
C
102
}
330
C
100
AcDbDictionary
  3
STANDARD
350
9584
1001
ACAD
1000
TREAT_AS_HARD
1070
     0
  0
DICTIONARY
  5
1B
102
{ACAD_REACTORS
330
C
102
}
330
C
100
AcDbDictionary
  3
STANDARD
350
1C
1001
ACAD
1000
TREAT_AS_HARD
1070
     0
  0
DICTIONARY
  5
18F
102
{ACAD_REACTORS
330
C
102
}
330
C
100
AcDbDictionary
1001
ACAD
1000
TREAT_AS_HARD
1070
     0
  0
DICTIONARY
  5
9561
102
{ACAD_REACTORS
330
C
102
}
330
C
100
AcDbDictionary
  3
A0
350
9562
  3
A1
350
9563
  3
A2
350
9564
  3
A3
350
9565
  3
A4
350
9566
  3
A5
350
9567
  3
A6
350
9568
  3
A7
350
9569
  3
A8
350
956A
  3
A9
350
956B
  3
B0
350
956C
  3
B1
350
956D
  3
B2
350
956E
  3
B3
350
956F
  3
B4
350
9570
  3
B5
350
9571
  3
B6
350
9572
  3
B7
350
9573
  3
B8
350
9574
  3
B9
350
9575
  3
C0
350
9576
  3
C1
350
9577
  3
C2
350
9578
  3
C3
350
9579
  3
C4
350
957A
  3
C5
350
957B
  3
C6
350
957C
  3
C7
350
957D
  3
C8
350
957E
  3
C9
350
957F
  3
D0
350
9580
  3
D1
350
9581
  3
D2
350
9582
1001
ACAD
1000
TREAT_AS_HARD
1070
     0
  0
DICTIONARY
  5
9550
102
{ACAD_REACTORS
330
C
102
}
330
C
100
AcDbDictionary
  3
2DWIREFRAME
350
9556
  3
3D_HIDDEN
350
9558
  3
3DWIREFRAME
350
9557
  3
BASIC
350
9555
  3
BRIGHTEN
350
955C
  3
COLORCHANGE
350
9560
  3
CONCEPTUAL
350
9559
  3
DIM
350
955B
  3
EDGECOLOROFF
350
A211
  3
FACEPATTERN
350
955F
  3
FLAT
350
9551
  3
FLATWITHEDGES
350
9552
  3
GOURAUD
350
9553
  3
GOURAUDWITHEDGES
350
9554
  3
HIDDEN
350
A260
  3
JITTEROFF
350
A20F
  3
LINEPATTERN
350
955E
  3
MODELING
350
A266
  3
OVERHANGOFF
350
A210
  3
REALISTIC
350
955A
  3
SHADED
350
A265
  3
SHADED_WITH_EDGES
350
A264
  3
SHADES_OF_GRAY
350
A261
  3
SKETCHY
350
A262
  3
THICKEN
350
955D
  3
WIREFRAME
350
A25F
  3
X-RAY
350
A263
1001
ACAD
1000
TREAT_AS_HARD
1070
     0
  0
DICTIONARY
  5
BD0D
102
{ACAD_REACTORS
330
C
102
}
330
C
100
AcDbDictionary
  3
COLORDICT
350
BD0E
  3
MATERIALDICT
350
BD0F
1001
ACAD
1000
TREAT_AS_HARD
1070
     0
  0
DICTIONARY
  5
37
102
{ACAD_REACTORS
330
C
102
}
330
C
100
AcDbDictionary
  3
CANNOSCALE
350
AAE0
  3
CMLEADERSTYLE
350
9627
  3
CTABLESTYLE
350
29E
  3
DIMADEC
350
38
  3
DIMASSOC
350
1CE
  3
HIDETEXT
350
704E
  3
INDEXCTL
350
962A
  3
INTERSECTIONCOLOR
350
7052
  3
INTERSECTIONDISPLAY
350
7051
  3
MSLTSCALE
350
AB30
  3
OBSCOLOR
350
704F
  3
OBSLTYPE
350
7050
  3
PROJECTNAME
350
1CF
  3
SORTENTS
350
9629
  3
XCLIPFRAME
350
BC37
1001
ACAD
1000
TREAT_AS_HARD
1070
     0
  0
DICTIONARY
  5
AF85
102
{ACAD_REACTORS
330
C
102
}
330
C
100
AcDbDictionary
1001
ACAD
1000
TREAT_AS_HARD
1070
     0
  0
DICTIONARY
  5
D8
102
{ACAD_REACTORS
330
C
102
}
330
C
100
AcDbDictionary
1001
ACAD
1000
TREAT_AS_HARD
1070
     0
  0
DICTIONARY
  5
20
102
{ACAD_REACTORS
330
C
102
}
330
C
100
AcDbDictionary
1001
DRAWINGVARIABLESXDATA
1000
POLARANG
1000
0.261799387799149410000000
1000
POLARMODE
1000
1
1000
POLARSTYLE
1000
1
1001
ACAD
1000
TREAT_AS_HARD
1070
     0
  0
XRECORD
  5
BD10
102
{ACAD_REACTORS
330
C
102
}
330
C
100
AcDbXrecord
  1
DWGPROPS COOKIE
  2

  3

  4

  6

  7

  8
3684
  9

300
=
301
=
302
=
303
=
304
=
305
=
306
=
307
=
308
=
309
=
 40
0.0
 41
2451318.246352917
 42
2458312.110284838
  1

 90
        0
  0
DICTIONARY
  5
96DA
102
{ACAD_REACTORS
330
96D9
102
}
330
96D9
100
AcDbDictionary
1001
ACAD
1000
TREAT_AS_HARD
1070
     0
  0
ACAD_PROXY_OBJECT
  5
9594
102
{ACAD_REACTORS
330
9593
102
}
330
9593
100
AcDbZombieObject
 90
      499
 91
      514
 93
       34
310
40C8804040
  0
ACAD_PROXY_OBJECT
  5
9596
102
{ACAD_REACTORS
330
9595
102
}
330
9595
100
AcDbZombieObject
 90
      499
 91
      514
 93
       34
310
40C8804040
  0
ACAD_PROXY_OBJECT
  5
9598
102
{ACAD_REACTORS
330
9597
102
}
330
9597
100
AcDbZombieObject
 90
      499
 91
      514
 93
       34
310
40C8804040
  0
ACAD_PROXY_OBJECT
  5
959E
102
{ACAD_REACTORS
330
959D
102
}
330
959D
100
AcDbZombieObject
 90
      499
 91
      514
 93
       34
310
40C8804040
  0
ACAD_PROXY_OBJECT
  5
95A4
102
{ACAD_REACTORS
330
95A3
102
}
330
95A3
100
AcDbZombieObject
 90
      499
 91
      514
 93
       34
310
40C8804040
  0
SORTENTSTABLE
  5
890
102
{ACAD_REACTORS
330
88F
102
}
330
88F
100
AcDbSortentsTable
330
18
331
B8CC
  5
B900
331
B8CD
  5
B901
331
B8CE
  5
B902
331
B8CF
  5
B903
331
B8D0
  5
B904
331
B8D1
  5
B905
331
B8D2
  5
B906
331
B8D3
  5
B907
331
B8D4
  5
B908
331
B8D5
  5
B909
331
B8D6
  5
B90A
331
B8D7
  5
B90B
331
B8D8
  5
B90C
331
B8D9
  5
B90D
331
B8DA
  5
B90E
331
B8DB
  5
B90F
331
B8DC
  5
B910
331
B8DD
  5
B911
331
B8DE
  5
B912
331
B8DF
  5
B913
331
B8E0
  5
B914
331
B8E1
  5
B915
331
B8E2
  5
B916
331
B8E3
  5
B917
331
B8E4
  5
B918
331
B8E5
  5
B919
331
B8E6
  5
B91A
331
B8E7
  5
B91B
331
B8E8
  5
B91C
331
B8E9
  5
B91D
331
B8EA
  5
B91E
331
B8EB
  5
B91F
331
B8EC
  5
B920
331
B8ED
  5
B921
331
B8EE
  5
B922
331
B8EF
  5
B923
331
B8F0
  5
B924
331
B8F1
  5
B925
331
B8F2
  5
B926
331
B8F3
  5
B927
331
B8F4
  5
B928
331
B8F5
  5
B929
331
B8F6
  5
B92A
331
B8F7
  5
B92B
331
B8F8
  5
B92C
331
B8F9
  5
B92D
331
B8FA
  5
B92E
331
B8FB
  5
B92F
331
B8FC
  5
B930
331
B8FD
  5
B931
331
B8FE
  5
B932
331
B8FF
  5
B933
331
B900
  5
B934
331
B901
  5
B935
331
B902
  5
B936
331
B903
  5
B937
331
B904
  5
B938
331
B905
  5
B939
331
B906
  5
B93A
331
B907
  5
B93B
331
B908
  5
B93C
331
B909
  5
B93D
331
B90A
  5
B93E
331
B90B
  5
B93F
331
B90C
  5
B940
331
B90D
  5
B941
331
B90E
  5
B942
331
B90F
  5
B943
331
B910
  5
B944
331
B911
  5
B945
331
B912
  5
B946
331
B913
  5
B947
331
B914
  5
B948
331
B915
  5
B949
331
B916
  5
B94A
331
B917
  5
B94B
331
B918
  5
B94C
331
B919
  5
B94D
331
B91A
  5
B94E
331
B91B
  5
B94F
331
B91C
  5
B950
331
B91D
  5
B951
331
B91E
  5
B952
331
B91F
  5
B953
331
B920
  5
B954
331
B921
  5
B955
331
B922
  5
B956
331
B923
  5
B957
331
B924
  5
B958
331
B925
  5
B959
331
B926
  5
B95A
331
B927
  5
B95B
331
B928
  5
B95C
331
B929
  5
B95D
331
B92A
  5
B95E
331
B92B
  5
B95F
331
B92C
  5
B960
331
B92D
  5
B961
331
B92E
  5
B962
331
B92F
  5
B963
331
B930
  5
B964
331
B931
  5
B965
331
B932
  5
B966
331
B933
  5
B967
331
B934
  5
B968
331
B935
  5
B969
331
B936
  5
B96A
331
B937
  5
B96B
331
B938
  5
B96C
331
B939
  5
B96D
331
B93A
  5
B96E
331
B93B
  5
B96F
331
B93C
  5
B970
331
B93D
  5
B971
331
B93E
  5
B972
331
B93F
  5
B973
331
B940
  5
B974
331
B941
  5
B975
331
B942
  5
B976
331
B943
  5
B977
331
B944
  5
B978
331
B945
  5
B979
331
B946
  5
B97A
331
B947
  5
B97B
331
B948
  5
B97C
331
B949
  5
B97D
331
B94A
  5
B97E
331
B94B
  5
B97F
331
B94C
  5
B980
331
B94D
  5
B981
331
B94E
  5
B982
331
B94F
  5
B983
331
B950
  5
B984
331
B951
  5
B985
331
B952
  5
B986
331
B953
  5
B987
331
B954
  5
B988
331
B955
  5
B989
331
B956
  5
B98A
331
B957
  5
B98B
331
B958
  5
B98C
331
B959
  5
B98D
331
B95A
  5
B98E
331
B95B
  5
B98F
331
B95C
  5
B990
331
B95D
  5
B991
331
B95E
  5
B992
331
B95F
  5
B993
331
B960
  5
B994
331
B961
  5
B995
331
B962
  5
B996
331
B963
  5
B997
331
B964
  5
B998
331
B965
  5
B999
331
B966
  5
B99A
331
B967
  5
B99B
331
B968
  5
B99C
331
B969
  5
B99D
331
B96A
  5
B99E
331
B96B
  5
B99F
331
B96C
  5
B9A0
331
B96D
  5
B9A1
331
B96E
  5
B9A2
331
B96F
  5
B9A3
331
B970
  5
B9A4
331
B971
  5
B9A5
331
B972
  5
B9A6
331
B973
  5
B9A7
331
B974
  5
B9A8
331
B975
  5
B9A9
331
B976
  5
B9AA
331
B977
  5
B9AB
331
B978
  5
B9AC
331
B979
  5
B9AD
331
B97A
  5
B9AE
331
B97B
  5
B9AF
331
B97C
  5
B9B0
331
B97D
  5
B9B1
331
B97E
  5
B9B2
331
B97F
  5
B9B3
331
B980
  5
B9B4
331
B981
  5
B9B5
331
B982
  5
B9B6
331
B983
  5
B9B7
331
B984
  5
B9B8
331
B985
  5
B9B9
331
B986
  5
B9BA
331
B987
  5
B9BB
331
B988
  5
B9BC
331
B989
  5
B9BD
331
B98A
  5
B9BE
331
B98B
  5
B9BF
331
B98C
  5
B9C0
331
B98D
  5
B9C1
331
B98E
  5
B9C2
331
B98F
  5
B9C3
331
B990
  5
B9C4
331
B991
  5
B9C5
331
B992
  5
B9C6
331
B993
  5
B9C7
331
B994
  5
B9C8
331
B995
  5
B9C9
331
B996
  5
B9CA
331
B997
  5
B9CB
331
B998
  5
B9CC
331
B999
  5
B9CD
331
B99A
  5
B9CE
331
B99B
  5
B9CF
331
B99C
  5
B9D0
331
B99D
  5
B9D1
331
B99E
  5
B9D2
331
B99F
  5
B9D3
331
B9A0
  5
B9D4
331
B9A1
  5
B9D5
331
B9A2
  5
B9D6
331
B9A3
  5
B9D7
331
B9A4
  5
B9D8
331
B9A5
  5
B9D9
331
B9A6
  5
B9DA
331
B9A7
  5
B9DB
331
B9A8
  5
B9DC
331
B9A9
  5
B9DD
331
B9AA
  5
B9DE
331
B9AB
  5
B9DF
331
B9AC
  5
B9E0
331
B9AD
  5
B9E1
331
B9AE
  5
B9E2
331
B9AF
  5
B9E3
331
B9B0
  5
B9E4
331
B9B1
  5
B9E5
331
B9B2
  5
B9E6
331
B9B3
  5
B9E7
331
B9B4
  5
B9E8
331
B9B5
  5
B9E9
331
B9B6
  5
B9EA
331
B9B7
  5
B9EB
331
B9B8
  5
B9EC
331
B9B9
  5
B9ED
331
B9BA
  5
B9EE
331
B9BB
  5
B9EF
331
B9BC
  5
B9F0
331
B9BD
  5
B9F1
331
B9BE
  5
B9F2
331
B9BF
  5
B9F3
331
B9C0
  5
B9F4
331
B9C1
  5
B9F5
331
B9C2
  5
B9F6
331
B9C3
  5
B9F7
331
B9C4
  5
B9F8
331
B9C5
  5
B9F9
331
B9C6
  5
B9FA
331
B9C7
  5
B9FB
331
B9C8
  5
B9FC
331
B9C9
  5
B9FD
331
B9CA
  5
B9FE
331
B9CB
  5
B9FF
331
B9CC
  5
BA00
331
B9CD
  5
BA01
331
B9CE
  5
BA02
331
B9CF
  5
BA03
331
B9D0
  5
BA04
331
B9D1
  5
BA05
331
B9D2
  5
BA06
331
B9D3
  5
BA07
331
B9D4
  5
BA08
331
B9D5
  5
BA09
331
B9D6
  5
BA0A
331
B9D7
  5
BA0B
331
B9D8
  5
BA0C
331
B9D9
  5
BA0D
331
B9DA
  5
BA0E
331
B9DB
  5
BA0F
331
B9DC
  5
BA10
331
B9DD
  5
BA11
331
B9DE
  5
BA12
331
B9DF
  5
BA13
331
B9E0
  5
BA14
331
B9E1
  5
BA15
331
B9E2
  5
BA16
331
B9E3
  5
BA17
331
B9E4
  5
BA18
331
B9E5
  5
BA19
331
B9E6
  5
BA1A
331
B9E7
  5
BA1B
331
B9E8
  5
BA1C
331
B9E9
  5
BA1D
331
B9EA
  5
BA1E
331
B9EB
  5
BA1F
331
B9EC
  5
BA20
331
B9ED
  5
BA21
331
B9EE
  5
BA22
331
B9EF
  5
BA23
331
B9F0
  5
BA24
331
B9F1
  5
BA25
331
B9F2
  5
BA26
331
B9F3
  5
BA28
331
B9F4
  5
BA29
331
B9F5
  5
BA2A
331
B9F6
  5
BA2B
331
B9F7
  5
BA2C
331
B9F8
  5
BA2D
331
B9F9
  5
BA2E
331
B9FA
  5
BA2F
331
B9FB
  5
BA30
331
B9FC
  5
BA31
331
B9FD
  5
BA32
331
B9FE
  5
BA33
331
B9FF
  5
BA34
331
BA00
  5
BA35
331
BA01
  5
BA36
331
BA02
  5
BA37
331
BA03
  5
BA38
331
BA04
  5
BA39
331
BA05
  5
BA3A
331
BA06
  5
BA3B
331
BA07
  5
BA3C
331
BA08
  5
BA3D
331
BA09
  5
BA3E
331
BA0A
  5
BA3F
331
BA0B
  5
BA40
331
BA0C
  5
BA41
331
BA0D
  5
BA42
331
BA0E
  5
BA43
331
BA0F
  5
BA46
331
BA10
  5
BA47
331
BA11
  5
BA48
331
BA12
  5
BA49
331
BA13
  5
BA4A
331
BA14
  5
BA4B
331
BA15
  5
BA4C
331
BA16
  5
BA4D
331
BA17
  5
BA4E
331
BA18
  5
BA4F
331
BA19
  5
BA50
331
BA1A
  5
BA51
331
BA1B
  5
BA52
331
BA1C
  5
BA53
331
BA1D
  5
BA54
331
BA1E
  5
BA55
331
BA1F
  5
BA56
331
BA20
  5
BA57
331
BA21
  5
BA58
331
BA22
  5
BA59
331
BA23
  5
BA5A
331
BA24
  5
BA5B
331
BA25
  5
BA5C
331
BA26
  5
BA5D
331
BA28
  5
BA5E
331
BA29
  5
BA5F
331
BA2A
  5
BA60
331
BA2B
  5
BA64
331
BA2C
  5
BA65
331
BA2D
  5
BA66
331
BA2E
  5
BA67
331
BA2F
  5
BA68
331
BA30
  5
BA69
331
BA31
  5
BA6A
331
BA32
  5
BA6B
331
BA33
  5
BA6C
331
BA34
  5
BA6D
331
BA35
  5
BA6E
331
BA36
  5
BA6F
331
BA37
  5
BA70
331
BA38
  5
BA71
331
BA39
  5
BA72
331
BA3A
  5
BA73
331
BA3B
  5
BA74
331
BA3C
  5
BA75
331
BA3D
  5
BA76
331
BA3E
  5
BA77
331
BA3F
  5
BA78
331
BA40
  5
BA79
331
BA41
  5
BA7A
331
BA42
  5
BA7B
331
BA43
  5
BA7C
331
BA46
  5
BA87
331
BA47
  5
BA88
331
BA48
  5
BA89
331
BA49
  5
BA8A
331
BA4A
  5
BA8B
331
BA4B
  5
BA8C
331
BA4C
  5
BA8D
331
BA4D
  5
BA8E
331
BA4E
  5
BA8F
331
BA4F
  5
BA90
331
BA50
  5
BA91
331
BA51
  5
BA92
331
BA52
  5
BA93
331
BA53
  5
BA94
331
BA54
  5
BA95
331
BA55
  5
BA96
331
BA56
  5
BA97
331
BA57
  5
BA98
331
BA58
  5
BA99
331
BA59
  5
BA9A
331
BA5A
  5
BA9B
331
BA5B
  5
BA9C
331
BA5C
  5
BA9D
331
BA5D
  5
BA9E
331
BA5E
  5
BA9F
331
BA5F
  5
BAA0
331
BA60
  5
BAA1
331
BA61
  5
BAA2
331
BA62
  5
BAA3
331
BA63
  5
BAA4
331
BA64
  5
BAA5
331
BA65
  5
BAA6
331
BA66
  5
BAA7
331
BA67
  5
BAA8
331
BA68
  5
BAA9
331
BA69
  5
BAAA
331
BA6A
  5
BAAB
331
BA6B
  5
BAAC
331
BA6C
  5
BAAD
331
BA6D
  5
BAAE
331
BA6E
  5
BAAF
331
BA6F
  5
BAB0
331
BA70
  5
BAB1
331
BA71
  5
BAB2
331
BA72
  5
BAB3
331
BA73
  5
BAB4
331
BA74
  5
BAB5
331
BA75
  5
BAB6
331
BA76
  5
BAB7
331
BA77
  5
BAB8
331
BA78
  5
BAB9
331
BA79
  5
BABA
331
BA7A
  5
BABB
331
BA7B
  5
BABC
331
BA7C
  5
BABD
331
BA7D
  5
BABE
331
BA7E
  5
BABF
331
BA7F
  5
BAC0
331
BA80
  5
BAC1
331
BA81
  5
BAC2
331
BA82
  5
BAC3
331
BA83
  5
BAC4
331
BA84
  5
BAC5
331
BA85
  5
BAC6
331
BA86
  5
BAC7
331
BA87
  5
BAC8
331
BA88
  5
BAC9
331
BA89
  5
BACA
331
BA8A
  5
BACB
331
BA8B
  5
BACC
331
BA8C
  5
BACD
331
BA8D
  5
BACE
331
BA8E
  5
BACF
331
BA8F
  5
BAD0
331
BA90
  5
BAD1
331
BA91
  5
BAD2
331
BA92
  5
BAD3
331
BA93
  5
BAD4
331
BA94
  5
BAD5
331
BA95
  5
BAD6
331
BA96
  5
BAD7
331
BA97
  5
BAD8
331
BA98
  5
BAD9
331
BA99
  5
BADA
331
BA9A
  5
BADB
331
BA9B
  5
BADC
331
BA9C
  5
BADD
331
BA9D
  5
BADE
331
BA9E
  5
BADF
331
BA9F
  5
BAE0
331
BAA0
  5
BAE1
331
BAA1
  5
BAE2
331
BAA2
  5
BAE3
331
BAA3
  5
BAE4
331
BAA4
  5
BAE5
331
BAA5
  5
BAE6
331
BAA6
  5
BAE7
331
BAA7
  5
BAE8
331
BAA8
  5
BAE9
331
BAA9
  5
BAEA
331
BAAA
  5
BAEB
331
BAAB
  5
BAEC
331
BAAC
  5
BAED
331
BAAD
  5
BAEE
331
BAAE
  5
BAEF
331
BAAF
  5
BAF0
331
BAB0
  5
BAF1
331
BAB1
  5
BAF2
331
BAB2
  5
BAF3
331
BAB3
  5
BAF4
331
BAB4
  5
BAF5
331
BAB5
  5
BAF6
331
BAB6
  5
BAF7
331
BAB7
  5
BAF8
331
BAB8
  5
BAF9
331
BAB9
  5
BAFA
331
BABA
  5
BAFB
331
BABB
  5
BAFC
331
BABC
  5
BAFD
331
BABD
  5
BAFE
331
BABE
  5
BAFF
331
BABF
  5
BB00
331
BAC0
  5
BB01
331
BAC1
  5
BB02
331
BAC2
  5
BB03
331
BAC3
  5
BB04
331
BAC4
  5
BB05
331
BAC5
  5
BB06
331
BAC6
  5
BB07
331
BAC7
  5
BB08
331
BAC8
  5
BB09
331
BAC9
  5
BB0A
331
BACA
  5
BB0B
331
BACB
  5
BB0C
331
BACC
  5
BB0D
331
BACD
  5
BB0E
331
BACE
  5
BB0F
331
BACF
  5
BB10
331
BAD0
  5
BB11
331
BAD1
  5
BB12
331
BAD2
  5
BB13
331
BAD3
  5
BB14
331
BAD4
  5
BB15
331
BAD5
  5
BB16
331
BAD6
  5
BB17
331
BAD7
  5
BB18
331
BAD8
  5
BB19
331
BAD9
  5
BB1A
331
BADA
  5
BB1B
331
BADB
  5
BB1C
331
BADC
  5
BB1D
331
BADD
  5
BB1E
331
BADE
  5
BB1F
331
BADF
  5
BB20
331
BAE0
  5
BB21
331
BAE1
  5
BB22
331
BAE2
  5
BB23
331
BAE3
  5
BB24
331
BAE4
  5
BB25
331
BAE5
  5
BB26
331
BAE6
  5
BB27
331
BAE7
  5
BB28
331
BAE8
  5
BB29
331
BAE9
  5
BB2A
331
BAEA
  5
BB2B
331
BAEB
  5
BB2C
331
BAEC
  5
BB2D
331
BAED
  5
BB2E
331
BAEE
  5
BB2F
331
BAEF
  5
BB30
331
BAF0
  5
BB31
331
BAF1
  5
BB32
331
BAF2
  5
BB33
331
BAF3
  5
BB34
331
BAF4
  5
BB35
331
BAF5
  5
BB36
331
BAF6
  5
BB37
331
BAF7
  5
BB38
331
BAF8
  5
BCCC
331
BAF9
  5
BCCD
331
BAFA
  5
BCCE
331
BAFB
  5
BCCF
331
BAFC
  5
BCD0
331
BAFD
  5
BCD1
331
BAFE
  5
BCD2
331
BAFF
  5
BCD3
331
BB00
  5
BCD4
331
BB01
  5
BCD5
331
BB02
  5
BCD6
331
BB03
  5
BCD7
331
BB04
  5
BCD8
331
BB05
  5
BCD9
331
BB06
  5
BCDA
331
BB07
  5
BCDB
331
BB08
  5
BCDC
331
BB09
  5
BCDD
331
BB0A
  5
BCDE
331
BB0B
  5
BCDF
331
BB0C
  5
BCE0
331
BB0D
  5
BCE1
331
BB0E
  5
BCE2
331
BB0F
  5
BCE3
331
BB10
  5
BCE4
331
BB11
  5
BCE5
331
BB12
  5
BCE6
331
BB13
  5
BCE7
331
BB14
  5
BCE8
331
BB15
  5
BCE9
331
BB16
  5
BCEA
331
BB17
  5
BCEB
331
BB18
  5
BCEC
331
BB19
  5
BCED
331
BB1A
  5
BCEE
331
BB1B
  5
BCEF
331
BB1C
  5
BCF0
331
BB1D
  5
BCF1
331
BB1E
  5
BCF2
331
BB1F
  5
BCF3
331
BB20
  5
BCF4
331
BB21
  5
BCF5
331
BB22
  5
BCF6
331
BB23
  5
BCF7
331
BB24
  5
BCF8
331
BB25
  5
BCF9
331
BB26
  5
BCFA
331
BB27
  5
BCFB
331
BB28
  5
BCFC
331
BB29
  5
BCFD
331
BB2A
  5
BCFE
331
BB2B
  5
BCFF
331
BB2C
  5
BD00
331
BB2D
  5
BD01
331
BB2E
  5
BD02
331
BB2F
  5
BD03
331
BB30
  5
BD04
331
BB31
  5
BD05
331
BB32
  5
BD06
331
BB33
  5
BD07
331
BB34
  5
BD08
331
BB35
  5
BD09
331
BB36
  5
BD0A
331
BB37
  5
BD0B
331
BB38
  5
BD0C
331
BCCC
  5
B8CC
331
BCCD
  5
B8CD
331
BCCE
  5
B8CE
331
0
  5
B8CF
331
0
  5
B8D0
331
0
  5
B8D1
331
BCD2
  5
B8DF
331
BCD3
  5
B8E0
331
BCD4
  5
B8E4
331
0
  5
B8D5
331
0
  5
B8D6
331
0
  5
B8D7
331
BCD8
  5
B8EC
331
BCD9
  5
B8ED
331
BCDA
  5
B8EE
331
0
  5
B8DB
331
0
  5
B8DC
331
0
  5
B8DD
331
BCDE
  5
B8F6
331
BCDF
  5
B8F7
331
BCE0
  5
B8F8
331
0
  5
B8E1
331
0
  5
B8E2
331
0
  5
B8E3
331
BCE4
  5
BA7D
331
BCE5
  5
BA7E
331
BCE6
  5
BA7F
331
0
  5
BA61
331
0
  5
BA62
331
0
  5
BA63
331
BCEA
  5
B8D2
331
BCEB
  5
B8D3
331
BCEC
  5
B8D4
331
BCED
  5
B8D8
331
BCEE
  5
B8D9
331
BCEF
  5
B8DA
331
BCF0
  5
B8DE
331
BCF1
  5
B8E5
331
BCF2
  5
B8E6
331
BCF3
  5
B8E7
331
BCF4
  5
B8E8
331
BCF5
  5
B8E9
331
BCF6
  5
B8EA
331
BCF7
  5
B8EB
331
BCF8
  5
B8EF
331
BCF9
  5
B8F0
331
BCFA
  5
B8F1
331
BCFB
  5
B8F2
331
BCFC
  5
B8F3
331
BCFD
  5
B8F4
331
BCFE
  5
B8F5
331
BCFF
  5
B8F9
331
BD00
  5
B8FA
331
BD01
  5
B8FB
331
BD02
  5
B8FC
331
BD03
  5
B8FD
331
BD04
  5
B8FE
331
BD05
  5
B8FF
331
BD06
  5
BA80
331
BD07
  5
BA81
331
BD08
  5
BA82
331
BD09
  5
BA83
331
BD0A
  5
BA84
331
BD0B
  5
BA85
331
BD0C
  5
BA86
  0
MATERIAL
  5
9540
102
{ACAD_REACTORS
330
18C
102
}
102
{ACAD_XDICTIONARY
360
BEAB
102
}
330
18C
100
AcDbMaterial
  1
BYBLOCK
 72
     0
 73
     2
 43
0.0208333333333333
 43
0.0
 43
0.0
 43
0.0
 43
0.0
 43
0.0208333333333333
 43
0.0
 43
0.0
 43
0.0
 43
0.0
 43
1.0
 43
0.0
 43
0.0
 43
0.0
 43
0.0
 43
1.0
 77
     0
 78
     2
 47
0.0208333333333333
 47
0.0
 47
0.0
 47
0.0
 47
0.0
 47
0.0208333333333333
 47
0.0
 47
0.0
 47
0.0
 47
0.0
 47
1.0
 47
0.0
 47
0.0
 47
0.0
 47
0.0
 47
1.0
171
     0
172
     2
 49
0.0208333333333333
 49
0.0
 49
0.0
 49
0.0
 49
0.0
 49
0.0208333333333333
 49
0.0
 49
0.0
 49
0.0
 49
0.0
 49
1.0
 49
0.0
 49
0.0
 49
0.0
 49
0.0
 49
1.0
175
     0
176
     2
142
0.0208333333333333
142
0.0
142
0.0
142
0.0
142
0.0
142
0.0208333333333333
142
0.0
142
0.0
142
0.0
142
0.0
142
1.0
142
0.0
142
0.0
142
0.0
142
0.0
142
1.0
179
     0
270
     2
144
0.0208333333333333
144
0.0
144
0.0
144
0.0
144
0.0
144
0.0208333333333333
144
0.0
144
0.0
144
0.0
144
0.0
144
1.0
144
0.0
144
0.0
144
0.0
144
0.0
144
1.0
274
     2
147
0.0208333333333333
147
0.0
147
0.0
147
0.0
147
0.0
147
0.0208333333333333
147
0.0
147
0.0
147
0.0
147
0.0
147
1.0
147
0.0
147
0.0
147
0.0
147
0.0
147
1.0
  0
MATERIAL
  5
9538
102
{ACAD_REACTORS
330
18C
102
}
102
{ACAD_XDICTIONARY
360
BEAD
102
}
330
18C
100
AcDbMaterial
  1
BYLAYER
 72
     0
 73
     2
 43
0.0208333333333333
 43
0.0
 43
0.0
 43
0.0
 43
0.0
 43
0.0208333333333333
 43
0.0
 43
0.0
 43
0.0
 43
0.0
 43
1.0
 43
0.0
 43
0.0
 43
0.0
 43
0.0
 43
1.0
 77
     0
 78
     2
 47
0.0208333333333333
 47
0.0
 47
0.0
 47
0.0
 47
0.0
 47
0.0208333333333333
 47
0.0
 47
0.0
 47
0.0
 47
0.0
 47
1.0
 47
0.0
 47
0.0
 47
0.0
 47
0.0
 47
1.0
171
     0
172
     2
 49
0.0208333333333333
 49
0.0
 49
0.0
 49
0.0
 49
0.0
 49
0.0208333333333333
 49
0.0
 49
0.0
 49
0.0
 49
0.0
 49
1.0
 49
0.0
 49
0.0
 49
0.0
 49
0.0
 49
1.0
175
     0
176
     2
142
0.0208333333333333
142
0.0
142
0.0
142
0.0
142
0.0
142
0.0208333333333333
142
0.0
142
0.0
142
0.0
142
0.0
142
1.0
142
0.0
142
0.0
142
0.0
142
0.0
142
1.0
179
     0
270
     2
144
0.0208333333333333
144
0.0
144
0.0
144
0.0
144
0.0
144
0.0208333333333333
144
0.0
144
0.0
144
0.0
144
0.0
144
1.0
144
0.0
144
0.0
144
0.0
144
0.0
144
1.0
274
     2
147
0.0208333333333333
147
0.0
147
0.0
147
0.0
147
0.0
147
0.0208333333333333
147
0.0
147
0.0
147
0.0
147
0.0
147
1.0
147
0.0
147
0.0
147
0.0
147
0.0
147
1.0
  0
MATERIAL
  5
9548
102
{ACAD_REACTORS
330
18C
102
}
102
{ACAD_XDICTIONARY
360
BEAF
102
}
330
18C
100
AcDbMaterial
  1
GLOBAL
 72
     0
 73
     2
 43
0.0208333333333333
 43
0.0
 43
0.0
 43
0.0
 43
0.0
 43
0.0208333333333333
 43
0.0
 43
0.0
 43
0.0
 43
0.0
 43
1.0
 43
0.0
 43
0.0
 43
0.0
 43
0.0
 43
1.0
 77
     0
 78
     2
 47
0.0208333333333333
 47
0.0
 47
0.0
 47
0.0
 47
0.0
 47
0.0208333333333333
 47
0.0
 47
0.0
 47
0.0
 47
0.0
 47
1.0
 47
0.0
 47
0.0
 47
0.0
 47
0.0
 47
1.0
171
     0
172
     2
 49
0.0208333333333333
 49
0.0
 49
0.0
 49
0.0
 49
0.0
 49
0.0208333333333333
 49
0.0
 49
0.0
 49
0.0
 49
0.0
 49
1.0
 49
0.0
 49
0.0
 49
0.0
 49
0.0
 49
1.0
175
     0
176
     2
142
0.0208333333333333
142
0.0
142
0.0
142
0.0
142
0.0
142
0.0208333333333333
142
0.0
142
0.0
142
0.0
142
0.0
142
1.0
142
0.0
142
0.0
142
0.0
142
0.0
142
1.0
179
     0
270
     2
144
0.0208333333333333
144
0.0
144
0.0
144
0.0
144
0.0
144
0.0208333333333333
144
0.0
144
0.0
144
0.0
144
0.0
144
1.0
144
0.0
144
0.0
144
0.0
144
0.0
144
1.0
274
     2
147
0.0208333333333333
147
0.0
147
0.0
147
0.0
147
0.0
147
0.0208333333333333
147
0.0
147
0.0
147
0.0
147
0.0
147
1.0
147
0.0
147
0.0
147
0.0
147
0.0
147
1.0
  0
ACAD_PROXY_OBJECT
  5
9584
102
{ACAD_REACTORS
330
9583
102
}
330
9583
100
AcDbZombieObject
 90
      499
 91
      511
 93
      610
310
40901902A4063FBFFFFFE000000000000002040AD7A3703D0AD73F4214DD185B99185C990000000000000104090141901A00000000000004100000000000000041025764000000000000300FC0
340
12
340
0
340
F
340
0
 94
        0
1001
ACAD_MLEADERVER
1070
     2
  0
MLINESTYLE
  5
1C
102
{ACAD_REACTORS
330
1B
102
}
330
1B
100
AcDbMlineStyle
  2
STANDARD
 70
     0
  3

 62
   256
 51
90.0
 52
90.0
 71
     2
 49
0.5
 62
   256
  6
BYLAYER
 49
-0.5
 62
   256
  6
BYLAYER
  0
ACAD_PROXY_OBJECT
  5
9562
102
{ACAD_REACTORS
330
9561
102
}
330
9561
100
AcDbZombieObject
 90
      499
 91
      510
 93
       41
310
903313A31580
  0
ACAD_PROXY_OBJECT
  5
9563
102
{ACAD_REACTORS
330
9561
102
}
330
9561
100
AcDbZombieObject
 90
      499
 91
      510
 93
      105
310
903313A324000000000000004000
  0
ACAD_PROXY_OBJECT
  5
9564
102
{ACAD_REACTORS
330
9561
102
}
330
9561
100
AcDbZombieObject
 90
      499
 91
      510
 93
      105
310
903313A344000000000000104000
  0
ACAD_PROXY_OBJECT
  5
9565
102
{ACAD_REACTORS
330
9561
102
}
330
9561
100
AcDbZombieObject
 90
      499
 91
      510
 93
      105
310
903313A354000000000000144000
  0
ACAD_PROXY_OBJECT
  5
9566
102
{ACAD_REACTORS
330
9561
102
}
330
9561
100
AcDbZombieObject
 90
      499
 91
      510
 93
      105
310
903313A384000000000000204000
  0
ACAD_PROXY_OBJECT
  5
9567
102
{ACAD_REACTORS
330
9561
102
}
330
9561
100
AcDbZombieObject
 90
      499
 91
      510
 93
      113
310
904313A31304000000000000244000
  0
ACAD_PROXY_OBJECT
  5
9568
102
{ACAD_REACTORS
330
9561
102
}
330
9561
100
AcDbZombieObject
 90
      499
 91
      510
 93
      113
310
904313A31364000000000000304000
  0
ACAD_PROXY_OBJECT
  5
9569
102
{ACAD_REACTORS
330
9561
102
}
330
9561
100
AcDbZombieObject
 90
      499
 91
      510
 93
      113
310
904313A32304000000000000344000
  0
ACAD_PROXY_OBJECT
  5
956A
102
{ACAD_REACTORS
330
9561
102
}
330
9561
100
AcDbZombieObject
 90
      499
 91
      510
 93
      113
310
904313A333040000000000003E4000
  0
ACAD_PROXY_OBJECT
  5
956B
102
{ACAD_REACTORS
330
9561
102
}
330
9561
100
AcDbZombieObject
 90
      499
 91
      510
 93
      113
310
904313A34304000000000000444000
  0
ACAD_PROXY_OBJECT
  5
956C
102
{ACAD_REACTORS
330
9561
102
}
330
9561
100
AcDbZombieObject
 90
      499
 91
      510
 93
      113
310
904313A35304000000000000494000
  0
ACAD_PROXY_OBJECT
  5
956D
102
{ACAD_REACTORS
330
9561
102
}
330
9561
100
AcDbZombieObject
 90
      499
 91
      510
 93
      121
310
905313A3130304000000000000594000
  0
ACAD_PROXY_OBJECT
  5
956E
102
{ACAD_REACTORS
330
9561
102
}
330
9561
100
AcDbZombieObject
 90
      499
 91
      510
 93
      105
310
903323A310000000000000010100
  0
ACAD_PROXY_OBJECT
  5
956F
102
{ACAD_REACTORS
330
9561
102
}
330
9561
100
AcDbZombieObject
 90
      499
 91
      510
 93
      105
310
903343A310000000000000410100
  0
ACAD_PROXY_OBJECT
  5
9570
102
{ACAD_REACTORS
330
9561
102
}
330
9561
100
AcDbZombieObject
 90
      499
 91
      510
 93
      105
310
903383A310000000000000810100
  0
ACAD_PROXY_OBJECT
  5
9571
102
{ACAD_REACTORS
330
9561
102
}
330
9561
100
AcDbZombieObject
 90
      499
 91
      510
 93
      113
310
90431303A310000000000000910100
  0
ACAD_PROXY_OBJECT
  5
9572
102
{ACAD_REACTORS
330
9561
102
}
330
9561
100
AcDbZombieObject
 90
      499
 91
      510
 93
      121
310
9053130303A310000000000001650100
  0
ACAD_PROXY_OBJECT
  5
9573
102
{ACAD_REACTORS
330
9561
102
}
330
9561
100
AcDbZombieObject
 90
      499
 91
      510
 93
      257
310
90E312F31323822203D2031272D3022000000000000200FC000000000000284000
  0
ACAD_PROXY_OBJECT
  5
9574
102
{ACAD_REACTORS
330
9561
102
}
330
9561
100
AcDbZombieObject
 90
      499
 91
      510
 93
      249
310
90D312F363422203D2031272D3022000000000000240FC000000000000284000
  0
ACAD_PROXY_OBJECT
  5
9575
102
{ACAD_REACTORS
330
9561
102
}
330
9561
100
AcDbZombieObject
 90
      499
 91
      510
 93
      249
310
90D312F333222203D2031272D3022000000000000280FC000000000000284000
  0
ACAD_PROXY_OBJECT
  5
9576
102
{ACAD_REACTORS
330
9561
102
}
330
9561
100
AcDbZombieObject
 90
      499
 91
      510
 93
      249
310
90D312F313622203D2031272D30220000000000002C0FC000000000000284000
  0
ACAD_PROXY_OBJECT
  5
9577
102
{ACAD_REACTORS
330
9561
102
}
330
9561
100
AcDbZombieObject
 90
      499
 91
      510
 93
      249
310
90D332F333222203D2031272D30220000000000002E0FC000000000000284000
  0
ACAD_PROXY_OBJECT
  5
9578
102
{ACAD_REACTORS
330
9561
102
}
330
9561
100
AcDbZombieObject
 90
      499
 91
      510
 93
      241
310
90C312F3822203D2031272D3022000000000000300FC000000000000284000
  0
ACAD_PROXY_OBJECT
  5
9579
102
{ACAD_REACTORS
330
9561
102
}
330
9561
100
AcDbZombieObject
 90
      499
 91
      510
 93
      249
310
90D332F313622203D2031272D3022000000000000320FC000000000000284000
  0
ACAD_PROXY_OBJECT
  5
957A
102
{ACAD_REACTORS
330
9561
102
}
330
9561
100
AcDbZombieObject
 90
      499
 91
      510
 93
      241
310
90C312F3422203D2031272D3022000000000000340FC000000000000284000
  0
ACAD_PROXY_OBJECT
  5
957B
102
{ACAD_REACTORS
330
9561
102
}
330
9561
100
AcDbZombieObject
 90
      499
 91
      510
 93
      241
310
90C332F3822203D2031272D3022000000000000360FC000000000000284000
  0
ACAD_PROXY_OBJECT
  5
957C
102
{ACAD_REACTORS
330
9561
102
}
330
9561
100
AcDbZombieObject
 90
      499
 91
      510
 93
      241
310
90C312F3222203D2031272D3022000000000000380FC000000000000284000
  0
ACAD_PROXY_OBJECT
  5
957D
102
{ACAD_REACTORS
330
9561
102
}
330
9561
100
AcDbZombieObject
 90
      499
 91
      510
 93
      241
310
90C332F3422203D2031272D30220000000000003A0FC000000000000284000
  0
ACAD_PROXY_OBJECT
  5
957E
102
{ACAD_REACTORS
330
9561
102
}
330
9561
100
AcDbZombieObject
 90
      499
 91
      510
 93
      161
310
90A3122203D2031272D30224000000000000284000
  0
ACAD_PROXY_OBJECT
  5
957F
102
{ACAD_REACTORS
330
9561
102
}
330
9561
100
AcDbZombieObject
 90
      499
 91
      510
 93
      257
310
90E312D312F3222203D2031272D30220000000000003E0FC000000000000284000
  0
ACAD_PROXY_OBJECT
  5
9580
102
{ACAD_REACTORS
330
9561
102
}
330
9561
100
AcDbZombieObject
 90
      499
 91
      510
 93
      225
310
90A3322203D2031272D302200000000000002100000000000000284000
  0
ACAD_PROXY_OBJECT
  5
9581
102
{ACAD_REACTORS
330
9561
102
}
330
9561
100
AcDbZombieObject
 90
      499
 91
      510
 93
      225
310
90A3622203D2031272D302200000000000006100000000000000284000
  0
ACAD_PROXY_OBJECT
  5
9582
102
{ACAD_REACTORS
330
9561
102
}
330
9561
100
AcDbZombieObject
 90
      499
 91
      510
 93
      249
310
90D31272D3022203D2031272D30220000000000000A100000000000000284000
  0
ACAD_PROXY_OBJECT
  5
9556
102
{ACAD_REACTORS
330
9550
102
}
330
9550
100
AcDbZombieObject
 90
      499
 91
      509
 93
      436
310
42CC9915DA5C99599C985B595049028333333333333E3BF0000000000000FB0107901411070040501600405405064090741402480A0340
1001
ACAD
1000
AcDbSavedByObjectVersion
1070
     0
  0
ACAD_PROXY_OBJECT
  5
9558
102
{ACAD_REACTORS
330
9550
102
}
330
9550
100
AcDbZombieObject
 90
      499
 91
      509
 93
      500
310
424CD108121A5919195B90640502408333333333333E3BF0000000000000FB01079024090700405020000000000001110200405405064090740C02480A0340
1001
ACAD
1000
AcDbSavedByObjectVersion
1070
     0
  0
ACAD_PROXY_OBJECT
  5
9557
102
{ACAD_REACTORS
330
9550
102
}
330
9550
100
AcDbZombieObject
 90
      499
 91
      509
 93
      436
310
42CCD915DA5C99599C985B595059028333333333333E3BF0000000000000FB0107901411070040501600405405064090741402480A0340
1001
ACAD
1000
AcDbSavedByObjectVersion
1070
     0
  0
ACAD_PROXY_OBJECT
  5
9555
102
{ACAD_REACTORS
330
9550
102
}
330
9550
100
AcDbZombieObject
 90
      499
 91
      509
 93
      388
310
4150985CDA58D07406404333333333333E3BF0000000000000FB0107A41107004050150841D405064090741402480A0350
1001
ACAD
1000
AcDbSavedByObjectVersion
1070
     0
  0
ACAD_PROXY_OBJECT
  5
955C
102
{ACAD_REACTORS
330
9550
102
}
330
9550
100
AcDbZombieObject
 90
      499
 91
      509
 93
      428
310
42109C9A59DA1D195B90C409028333333333333E3BF0000000000000FB010790141107004050150841D405064090741402480A029950
1001
ACAD
1000
AcDbSavedByObjectVersion
1070
     0
  0
ACAD_PROXY_OBJECT
  5
9560
102
{ACAD_REACTORS
330
9550
102
}
330
9550
100
AcDbZombieObject
 90
      499
 91
      509
 93
      452
310
42D0DBDB1BDC90DA185B99D95104090240C333333333333E3BF0000000000000FB0108901411070040501508421405064090741402480A0350
1001
ACAD
1000
AcDbSavedByObjectVersion
1070
     0
  0
ACAD_PROXY_OBJECT
  5
9559
102
{ACAD_REACTORS
330
9550
102
}
330
9550
100
AcDbZombieObject
 90
      499
 91
      509
 93
      500
310
4290DBDB98D95C1D1D585B10940D028333333333333E3BF0000000000000FB0107902409070040501000000000000111010841D405064090740C02480A0340
1001
ACAD
1000
AcDbSavedByObjectVersion
1070
     0
  0
ACAD_PROXY_OBJECT
  5
955B
102
{ACAD_REACTORS
330
9550
102
}
330
9550
100
AcDbZombieObject
 90
      499
 91
      509
 93
      412
310
40D11A5B50B409028333333333333E3BF0000000000000FB010790141107004050150841D405064090741402480A02677FFFFFD0
1001
ACAD
1000
AcDbSavedByObjectVersion
1070
     0
  0
ACAD_PROXY_OBJECT
  5
A211
102
{ACAD_REACTORS
330
9550
102
}
330
9550
100
AcDbZombieObject
 90
      499
 91
      509
 93
      452
310
43115919D950DBDB1BDC93D999916409028333333333333E3BF0000000000000FB010790141107004050150841D405064090741402480A0350
1001
ACAD
1000
AcDbSavedByObjectVersion
1070
     0
  0
ACAD_PROXY_OBJECT
  5
955F
102
{ACAD_REACTORS
330
9550
102
}
330
9550
100
AcDbZombieObject
 90
      499
 91
      509
 93
      444
310
42D19858D95C185D1D195C9B90F409028333333333333E3BF0000000000000FB010790141107004050150841D405064090741402480A0350
1001
ACAD
1000
AcDbSavedByObjectVersion
1070
     0
  0
ACAD_PROXY_OBJECT
  5
9551
102
{ACAD_REACTORS
330
9550
102
}
330
9550
100
AcDbZombieObject
 90
      499
 91
      509
 93
      388
310
41119B185D240901404333333333333E3BF0000000000000F9010740A41107004050150841D405064090741402480A1B50
1001
ACAD
1000
AcDbSavedByObjectVersion
1070
     0
  0
ACAD_PROXY_OBJECT
  5
9552
102
{ACAD_REACTORS
330
9550
102
}
330
9550
100
AcDbZombieObject
 90
      499
 91
      509
 93
      476
310
43519B185D15DA5D1A115919D95CD0140901404333333333333E3BF0000000000000F9010740901411070040501600405405064090741402480A1B50
1001
ACAD
1000
AcDbSavedByObjectVersion
1070
     0
  0
ACAD_PROXY_OBJECT
  5
9553
102
{ACAD_REACTORS
330
9550
102
}
330
9550
100
AcDbZombieObject
 90
      499
 91
      509
 93
      412
310
41D1DBDD5C985D5910240902404333333333333E3BF0000000000000F9010740A411070040501641D405064090741402480A1B50
1001
ACAD
1000
AcDbSavedByObjectVersion
1070
     0
  0
ACAD_PROXY_OBJECT
  5
9554
102
{ACAD_REACTORS
330
9550
102
}
330
9550
100
AcDbZombieObject
 90
      499
 91
      509
 93
      500
310
4411DBDD5C985D5915DA5D1A115919D95CD0340902404333333333333E3BF0000000000000F9010740901411070040501600405405064090741402480A1B50
1001
ACAD
1000
AcDbSavedByObjectVersion
1070
     0
  0
ACAD_PROXY_OBJECT
  5
A260
102
{ACAD_REACTORS
330
9550
102
}
330
9550
100
AcDbZombieObject
 90
      499
 91
      509
 93
      476
310
41921A5919195B90640502408333333333333E3BF0000000000000FB01079024090700405020000000000001110200405405064090740C02480A0340
1001
ACAD
1000
AcDbSavedByObjectVersion
1070
     0
  0
ACAD_PROXY_OBJECT
  5
A20F
102
{ACAD_REACTORS
330
9550
102
}
330
9550
100
AcDbZombieObject
 90
      499
 91
      509
 93
      428
310
42529A5D1D195C93D999914409028333333333333E3BF0000000000000FB010790141107004050150A41D405064090741402480A0350
1001
ACAD
1000
AcDbSavedByObjectVersion
1070
     0
  0
ACAD_PROXY_OBJECT
  5
955E
102
{ACAD_REACTORS
330
9550
102
}
330
9550
100
AcDbZombieObject
 90
      499
 91
      509
 93
      444
310
42D31A5B995C185D1D195C9B90E409028333333333333E3BF0000000000000FB010790141107004050750841D405064090741402483A0350
1001
ACAD
1000
AcDbSavedByObjectVersion
1070
     0
  0
ACAD_PROXY_OBJECT
  5
A266
102
{ACAD_REACTORS
330
9550
102
}
330
9550
100
AcDbZombieObject
 90
      499
 91
      509
 93
      484
310
42135BD9195B1A5B99D0A409028333333333333E3BF0000000000000F901074090290700405010000000000201990108421405064090741402480A1B40
1001
ACAD
1000
AcDbSavedByObjectVersion
1070
     0
  0
ACAD_PROXY_OBJECT
  5
A210
102
{ACAD_REACTORS
330
9550
102
}
330
9550
100
AcDbZombieObject
 90
      499
 91
      509
 93
      444
310
42D3DD995C9A185B99D3D999915409028333333333333E3BF0000000000000FB010790141107004050150941D405064090741402480A0350
1001
ACAD
1000
AcDbSavedByObjectVersion
1070
     0
  0
ACAD_PROXY_OBJECT
  5
955A
102
{ACAD_REACTORS
330
9550
102
}
330
9550
100
AcDbZombieObject
 90
      499
 91
      509
 93
      420
310
425499585B1A5CDD1A58D08409028333333333333E3BF0000000000000FB01079019070040501508421405064090741402480A1B40
1001
ACAD
1000
AcDbSavedByObjectVersion
1070
     0
  0
ACAD_PROXY_OBJECT
  5
A265
102
{ACAD_REACTORS
330
9550
102
}
330
9550
100
AcDbZombieObject
 90
      499
 91
      509
 93
      420
310
4194DA1859195911B40902404333333333333E3BF0000000000000F9010740A41107004050150800405405064090840C02480A0B40
1001
ACAD
1000
AcDbSavedByObjectVersion
1070
     0
  0
ACAD_PROXY_OBJECT
  5
A264
102
{ACAD_REACTORS
330
9550
102
}
330
9550
100
AcDbZombieObject
 90
      499
 91
      509
 93
      516
310
4454DA18591959081DDA5D1A08195919D95CD1A40902404333333333333E3BF0000000000000F901074090142907004050250800405405064090740C02480A0B40
1001
ACAD
1000
AcDbSavedByObjectVersion
1070
     0
  0
ACAD_PROXY_OBJECT
  5
A261
102
{ACAD_REACTORS
330
9550
102
}
330
9550
100
AcDbZombieObject
 90
      499
 91
      509
 93
      532
310
4394DA1859195CC81BD98811DC985E5174090240C333333333333E3BF0000000000000FB01079024090741D01000000000000111010841D405064090740C02480A0340
1001
ACAD
1000
AcDbSavedByObjectVersion
1070
     0
  0
ACAD_PROXY_OBJECT
  5
A262
102
{ACAD_REACTORS
330
9550
102
}
330
9550
100
AcDbZombieObject
 90
      499
 91
      509
 93
      476
310
41D4DAD95D18DA1E51840502408333333333333E3BF0000000000000FB01079024090741D01000000000000111010B41D405064090741802480A0340
1001
ACAD
1000
AcDbSavedByObjectVersion
1070
     0
  0
ACAD_PROXY_OBJECT
  5
955D
102
{ACAD_REACTORS
330
9550
102
}
330
9550
100
AcDbZombieObject
 90
      499
 91
      509
 93
      412
310
41D51A1A58DAD95B90D409028333333333333E3BF0000000000000FB010790141107004050150C41D405064090741402480A0350
1001
ACAD
1000
AcDbSavedByObjectVersion
1070
     0
  0
ACAD_PROXY_OBJECT
  5
A25F
102
{ACAD_REACTORS
330
9550
102
}
330
9550
100
AcDbZombieObject
 90
      499
 91
      509
 93
      420
310
4255DA5C99599C985B595059028333333333333E3BF0000000000000FB0107901411070040501600405405064090740C02480A0340
1001
ACAD
1000
AcDbSavedByObjectVersion
1070
     0
  0
ACAD_PROXY_OBJECT
  5
A263
102
{ACAD_REACTORS
330
9550
102
}
330
9550
100
AcDbZombieObject
 90
      499
 91
      509
 93
      404
310
41560B54985E51940902404000000000000E03F0000000000000FB010740501907004050150841D405064090740C02480A1B40
1001
ACAD
1000
AcDbSavedByObjectVersion
1070
     0
  0
XRECORD
  5
BD0E
102
{ACAD_REACTORS
330
BD0D
102
}
330
BD0D
100
AcDbXrecord
340
18D
  0
XRECORD
  5
BD0F
102
{ACAD_REACTORS
330
BD0D
102
}
330
BD0D
100
AcDbXrecord
340
18C
  0
DICTIONARYVAR
  5
AAE0
102
{ACAD_REACTORS
330
37
102
}
330
37
100
DictionaryVariables
280
     0
  1
1:1
  0
DICTIONARYVAR
  5
9627
102
{ACAD_REACTORS
330
37
102
}
330
37
100
DictionaryVariables
280
     0
  1
Standard
  0
DICTIONARYVAR
  5
29E
102
{ACAD_REACTORS
330
37
102
}
330
37
100
DictionaryVariables
280
     0
  1
Standard
  0
DICTIONARYVAR
  5
38
102
{ACAD_REACTORS
330
37
102
}
330
37
100
DictionaryVariables
280
     0
  1
-1
  0
DICTIONARYVAR
  5
1CE
102
{ACAD_REACTORS
330
37
102
}
330
37
100
DictionaryVariables
280
     0
  1
2
  0
DICTIONARYVAR
  5
704E
102
{ACAD_REACTORS
330
37
102
}
330
37
100
DictionaryVariables
280
     0
  1
1
  0
DICTIONARYVAR
  5
962A
102
{ACAD_REACTORS
330
37
102
}
330
37
100
DictionaryVariables
280
     0
  1
0
  0
DICTIONARYVAR
  5
7052
102
{ACAD_REACTORS
330
37
102
}
330
37
100
DictionaryVariables
280
     0
  1
8
  0
DICTIONARYVAR
  5
7051
102
{ACAD_REACTORS
330
37
102
}
330
37
100
DictionaryVariables
280
     0
  1
1
  0
DICTIONARYVAR
  5
AB30
102
{ACAD_REACTORS
330
37
102
}
330
37
100
DictionaryVariables
280
     0
  1
0
  0
DICTIONARYVAR
  5
704F
102
{ACAD_REACTORS
330
37
102
}
330
37
100
DictionaryVariables
280
     0
  1
8
  0
DICTIONARYVAR
  5
7050
102
{ACAD_REACTORS
330
37
102
}
330
37
100
DictionaryVariables
280
     0
  1
2
  0
DICTIONARYVAR
  5
1CF
102
{ACAD_REACTORS
330
37
102
}
330
37
100
DictionaryVariables
280
     0
  1

  0
DICTIONARYVAR
  5
9629
102
{ACAD_REACTORS
330
37
102
}
330
37
100
DictionaryVariables
280
     0
  1
127
  0
DICTIONARYVAR
  5
BC37
102
{ACAD_REACTORS
330
37
102
}
330
37
100
DictionaryVariables
280
     0
  1
2
  0
DICTIONARY
  5
BEAB
330
9540
100
AcDbDictionary
  3
ACAD_XREC_ROUNDTRIP
360
BEAC
1001
ACAD
1000
TREAT_AS_HARD
1070
     1
  0
DICTIONARY
  5
BEAD
330
9538
100
AcDbDictionary
  3
ACAD_XREC_ROUNDTRIP
360
BEAE
1001
ACAD
1000
TREAT_AS_HARD
1070
     1
  0
DICTIONARY
  5
BEAF
330
9548
100
AcDbDictionary
  3
ACAD_XREC_ROUNDTRIP
360
BEB0
1001
ACAD
1000
TREAT_AS_HARD
1070
     1
  0
XRECORD
  5
BEAC
102
{ACAD_REACTORS
330
BEAB
102
}
330
BEAB
100
AcDbXrecord
102
MATERIAL
148
0.0
149
0.0
149
0.0
 93
        0
 94
      127
282
     0
 72
     0
 77
     0
171
     0
175
     0
179
     0
273
     0
  0
XRECORD
  5
BEAE
102
{ACAD_REACTORS
330
BEAD
102
}
330
BEAD
100
AcDbXrecord
102
MATERIAL
148
0.0
149
0.0
149
0.0
 93
        0
 94
      127
282
     0
 72
     0
 77
     0
171
     0
175
     0
179
     0
273
     0
  0
XRECORD
  5
BEB0
102
{ACAD_REACTORS
330
BEAF
102
}
330
BEAF
100
AcDbXrecord
102
MATERIAL
148
0.0
149
0.0
149
0.0
 93
        0
 94
      127
282
     0
 72
     0
 77
     0
171
     0
175
     0
179
     0
273
     0
  0
ENDSEC
  0
EOF
