  0
SECTION
  2
HEADER
  9
$ACADVER
  1
AC1009
  9
$INSBASE
 10
0.0
 20
0.0
 30
0.0
  9
$EXTMIN
 10
473.22274205283168
 20
332.44068940159161
 30
0.0
  9
$EXTMAX
 10
739.74533904451323
 20
513.08315791168127
 30
0.0
  9
$LIMMIN
 10
0.0
 20
0.0
  9
$LIMMAX
 10
420.0
 20
297.0
  9
$ORTHOMODE
 70
     0
  9
$REGENMODE
 70
     1
  9
$FILLMODE
 70
     1
  9
$QTEXTMODE
 70
     0
  9
$MIRRTEXT
 70
     1
  9
$DRAGMODE
 70
     2
  9
$LTSCALE
 40
0.5
  9
$OSMODE
 70
    63
  9
$ATTMODE
 70
     1
  9
$TEXTSIZE
 40
4.0
  9
$TRACEWID
 40
1.0
  9
$TEXTSTYLE
  7
STANDARD
  9
$CLAYER
  8
1TEXT
  9
$CELTYPE
  6
BYLAYER
  9
$CECOLOR
 62
   256
  9
$DIMSCALE
 40
1.0
  9
$DIMASZ
 40
2.0
  9
$DIMEXO
 40
0.0
  9
$DIMDLI
 40
7.0
  9
$DIMRND
 40
0.0
  9
$DIMDLE
 40
0.0
  9
$DIMEXE
 40
1.0
  9
$DIMTP
 40
0.0
  9
$DIMTM
 40
0.0
  9
$DIMTXT
 40
3.5
  9
$DIMCEN
 40
0.0
  9
$DIMTSZ
 40
0.0
  9
$DIMTOL
 70
     0
  9
$DIMLIM
 70
     0
  9
$DIMTIH
 70
     0
  9
$DIMTOH
 70
     0
  9
$DIMSE1
 70
     0
  9
$DIMSE2
 70
     0
  9
$DIMTAD
 70
     1
  9
$DIMZIN
 70
     8
  9
$DIMBLK
  1

  9
$DIMASO
 70
     1
  9
$DIMSHO
 70
     1
  9
$DIMPOST
  1
 
  9
$DIMAPOST
  1

  9
$DIMALT
 70
     0
  9
$DIMALTD
 70
     2
  9
$DIMALTF
 40
25.399999999999999
  9
$DIMLFAC
 40
1.0
  9
$DIMTOFL
 70
     1
  9
$DIMTVP
 40
0.0
  9
$DIMTIX
 70
     0
  9
$DIMSOXD
 70
     0
  9
$DIMSAH
 70
     1
  9
$DIMBLK1
  1
OPEN30
  9
$DIMBLK2
  1
OPEN30
  9
$DIMSTYLE
  2
NEWX10
  9
$DIMCLRD
 70
   256
  9
$DIMCLRE
 70
   256
  9
$DIMCLRT
 70
   201
  9
$DIMTFAC
 40
0.7
  9
$DIMGAP
 40
0.7
  9
$LUNITS
 70
     2
  9
$LUPREC
 70
     4
  9
$SKETCHINC
 40
1.0
  9
$FILLETRAD
 40
0.0
  9
$AUNITS
 70
     0
  9
$AUPREC
 70
     2
  9
$MENU
  1
acad
  9
$ELEVATION
 40
0.0
  9
$PELEVATION
 40
0.0
  9
$THICKNESS
 40
0.0
  9
$LIMCHECK
 70
     0
  9
$BLIPMODE
 70
     0
  9
$CHAMFERA
 40
10.0
  9
$CHAMFERB
 40
10.0
  9
$SKPOLY
 70
     0
  9
$TDCREATE
 40
2452052.6948773032
  9
$TDUPDATE
 40
2457014.660436736
  9
$TDINDWG
 40
0.8510917361
  9
$TDUSRTIMER
 40
0.8510917361
  9
$USRTIMER
 70
     1
  9
$ANGBASE
 50
0.0
  9
$ANGDIR
 70
     0
  9
$PDMODE
 70
     0
  9
$PDSIZE
 40
0.0
  9
$PLINEWID
 40
0.0
  9
$COORDS
 70
     0
  9
$SPLFRAME
 70
     0
  9
$SPLINETYPE
 70
     6
  9
$SPLINESEGS
 70
     8
  9
$ATTDIA
 70
     0
  9
$ATTREQ
 70
     1
  9
$HANDLING
 70
     1
  9
$HANDSEED
  5
2051
  9
$SURFTAB1
 70
     6
  9
$SURFTAB2
 70
     6
  9
$SURFTYPE
 70
     6
  9
$SURFU
 70
     6
  9
$SURFV
 70
     6
  9
$UCSNAME
  2

  9
$UCSORG
 10
0.0
 20
0.0
 30
0.0
  9
$UCSXDIR
 10
1.0
 20
0.0
 30
0.0
  9
$UCSYDIR
 10
0.0
 20
1.0
 30
0.0
  9
$PUCSNAME
  2

  9
$PUCSORG
 10
0.0
 20
0.0
 30
0.0
  9
$PUCSXDIR
 10
1.0
 20
0.0
 30
0.0
  9
$PUCSYDIR
 10
0.0
 20
1.0
 30
0.0
  9
$USERI1
 70
     0
  9
$USERI2
 70
     0
  9
$USERI3
 70
     0
  9
$USERI4
 70
     0
  9
$USERI5
 70
     0
  9
$USERR1
 40
0.0
  9
$USERR2
 40
0.0
  9
$USERR3
 40
0.0
  9
$USERR4
 40
0.0
  9
$USERR5
 40
0.0
  9
$WORLDVIEW
 70
     1
  9
$SHADEDGE
 70
     3
  9
$SHADEDIF
 70
    70
  9
$TILEMODE
 70
     1
  9
$MAXACTVP
 70
    48
  9
$PLIMCHECK
 70
     0
  9
$PEXTMIN
 10
1.0000000000000000E+020
 20
1.0000000000000000E+020
 30
1.0000000000000000E+020
  9
$PEXTMAX
 10
-1.0000000000000000E+020
 20
-1.0000000000000000E+020
 30
-1.0000000000000000E+020
  9
$PLIMMIN
 10
0.0
 20
0.0
  9
$PLIMMAX
 10
420.0
 20
297.0
  9
$UNITMODE
 70
     0
  9
$VISRETAIN
 70
     1
  9
$PLINEGEN
 70
     0
  9
$PSLTSCALE
 70
     1
  0
ENDSEC
  0
SECTION
  2
TABLES
  0
TABLE
  2
VPORT
 70
     1
  0
VPORT
  2
*ACTIVE
 70
     0
 10
0.0
 20
0.0
 11
1.0
 21
1.0
 12
606.48936569915554
 22
422.75183794992171
 13
0.0
 23
0.0
 14
10.0
 24
10.0
 15
10.0
 25
10.0
 16
0.0
 26
0.0
 36
1.0
 17
0.0
 27
0.0
 37
0.0
 40
191.61832413526821
 41
2.1749379652605461
 42
50.0
 43
0.0
 44
0.0
 50
0.0
 51
0.0
 71
     0
 72
   100
 73
     1
 74
     1
 75
     0
 76
     0
 77
     0
 78
     0
  0
ENDTAB
  0
TABLE
  2
LTYPE
 70
    12
  0
LTYPE
  2
CONTINUOUS
 70
     0
  3
Solid line
 72
    65
 73
     0
 40
0.0
  0
LTYPE
  2
A3WAKUDAKE|CENTER2
 70
    48
  3
Center (.5x) ___ _ ___ _ ___ _ ___ _ ___ _ ___
 72
    65
 73
     4
 40
28.574999999999999
 49
19.050000000000001
 49
-3.1749999999999989
 49
3.1749999999999989
 49
-3.1749999999999989
  0
LTYPE
  2
XREF1|CENTER2
 70
    48
  3
Center (.5x) ___ _ ___ _ ___ _ ___ _ ___ _ ___
 72
    65
 73
     4
 40
28.574999999999999
 49
19.050000000000001
 49
-3.1749999999999989
 49
3.1749999999999989
 49
-3.1749999999999989
  0
ENDTAB
  0
TABLE
  2
LAYER
 70
    37
  0
LAYER
  2
0
 70
     0
 62
     7
  6
CONTINUOUS
  0
LAYER
  2
1TEXT
 70
     0
 62
     7
  6
CONTINUOUS
  0
LAYER
  2
A3WAKUDAKE|THICK
 70
    48
 62
     7
  6
CONTINUOUS
  0
LAYER
  2
A3WAKUDAKE|POINT
 70
    48
 62
     7
  6
CONTINUOUS
  0
LAYER
  2
A3WAKUDAKE|1CENTER
 70
    48
 62
     7
  6
A3WAKUDAKE|CENTER2
  0
LAYER
  2
A3WAKUDAKE|0-6
 70
    48
 62
     7
  6
CONTINUOUS
  0
LAYER
  2
01
 70
     0
 62
     1
  6
CONTINUOUS
  0
LAYER
  2
A3WAKUDAKE|1DIM
 70
    48
 62
     7
  6
CONTINUOUS
  0
LAYER
  2
XREF1|1CENTER
 70
    48
 62
     7
  6
XREF1|CENTER2
  0
ENDTAB
  0
TABLE
  2
STYLE
 70
     5
  0
STYLE
  2
STANDARD
 70
     0
 40
0.0
 41
1.0
 50
0.0
 71
     0
 42
4.0
  3
romans.shx
  4
extfont.shx
  0
ENDTAB
  0
TABLE
  2
VIEW
 70
     5
  0
ENDTAB
  0
TABLE
  2
UCS
 70
     0
  0
ENDTAB
  0
TABLE
  2
APPID
 70
    14
  0
APPID
  2
ACAD
 70
     0
  0
APPID
  2
CONTENTBLOCKICON
 70
     0
  0
APPID
  2
DRAWINGVARIABLESXDATA
 70
     0
  0
APPID
  2
CONTENTTABDATA
 70
     0
  0
APPID
  2
CONTENTCURRENTTAB
 70
     0
  0
APPID
  2
CONTENTBLOCKDESCRIPTION
 70
     0
  0
APPID
  2
CONTENTLONGBLOCKNAME
 70
     0
  0
APPID
  2
ACAD_PSEXT
 70
     0
  0
APPID
  2
ACAD_MLEADERVER
 70
     0
  0
APPID
  2
ACADANNOTATIVE
 70
     0
  0
APPID
  2
ACDBBLOCKREPETAG
 70
     0
  0
APPID
  2
ACAD_DSTYLE_DIMRADIAL_EXTENSION
 70
     0
  0
APPID
  2
ACAD_NAV_VCDISPLAY
 70
     0
  0
APPID
  2
ACLAYERTOOLS
 70
     0
  0
ENDTAB
  0
TABLE
  2
DIMSTYLE
 70
     5
  0
DIMSTYLE
  2
NEWX10
 70
     0
  3
 
  4

  5

  6
OPEN30
  7
OPEN30
 40
1.0
 41
2.0
 42
0.0
 43
7.0
 44
1.0
 45
0.0
 46
0.0
 47
0.0
 48
0.0
140
3.5
141
0.0
142
0.0
143
25.399999999999999
144
1.0
145
0.0
146
0.7
147
0.7
 71
     0
 72
     0
 73
     0
 74
     0
 75
     0
 76
     0
 77
     1
 78
     8
170
     0
171
     2
172
     1
173
     1
174
     0
175
     0
176
   256
177
   256
178
   201
  0
ENDTAB
  0
ENDSEC
  0
SECTION
  2
BLOCKS
  0
BLOCK
  8
0
  2
$MODEL_SPACE
 70
     0
 10
0.0
 20
0.0
 30
0.0
  3
$MODEL_SPACE
  1

  0
ENDBLK
  5
1A
  8
0
  0
BLOCK
 67
     1
  8
0
  2
$PAPER_SPACE
 70
     0
 10
0.0
 20
0.0
 30
0.0
  3
$PAPER_SPACE
  1

  0
ENDBLK
  5
17
 67
     1
  8
0
  0
BLOCK
  8
0
  2
_OPEN30
 70
     0
 10
0.0
 20
0.0
 30
0.0
  3
_OPEN30
  1

  0
LINE
  5
21
  8
0
  6
BYBLOCK
 62
     0
 10
-1.0
 20
0.26794919
 30
0.0
 11
0.0
 21
0.0
 31
0.0
  0
LINE
  5
22
  8
0
  6
BYBLOCK
 62
     0
 10
0.0
 20
0.0
 30
0.0
 11
-1.0
 21
-0.26794919
 31
0.0
  0
LINE
  5
23
  8
0
  6
BYBLOCK
 62
     0
 10
0.0
 20
0.0
 30
0.0
 11
-1.0
 21
0.0
 31
0.0
  0
ENDBLK
  5
25
  8
0
  0
BLOCK
  8
0
  2
A3WAKUDAKE
 70
    36
 10
0.0
 20
0.0
 30
0.0
  3
A3WAKUDAKE
  1
D:\ACLT\FORMAT\A3WAKUdake.dwg
  0
ENDBLK
  5
107A
  8
0
  0
BLOCK
  8
0
  2
XREF1
 70
    36
 10
0.0
 20
0.0
 30
0.0
  3
XREF1
  1
D:\ACLT\FORMAT\KAWAJUN(9)図面用.dwg
  0
ENDBLK
  5
107D
  8
0
  0
ENDSEC
  0
SECTION
  2
ENTITIES
  0
LINE
  5
EA9
  8
01
 10
563.68108991300062
 20
430.48610880314402
 30
0.0
 11
563.68108991300062
 21
379.14046356435512
 31
0.0
  0
LINE
  5
EED
  8
01
 10
535.29716334638692
 20
381.8797624364687
 30
0.0
 11
610.63833347954801
 21
381.8797624364687
 31
0.0
  0
TEXT
  5
F6C
  8
01
 10
472.88613491949832
 20
506.08315791168138
 30
0.0
 40
7.0
  1
AC-561-X
 41
1.0098214000000001
  0
ARC
  5
12D1
  8
01
 10
578.98250491300053
 20
412.87498190534382
 30
0.0
 40
3.0
 50
270.0
 51
345.52249
  0
LINE
  5
12D9
  8
01
 10
578.18109491300049
 20
405.82499190534378
 30
0.0
 11
578.18109491300049
 21
381.8797624364687
 31
0.0
  0
LINE
  5
12DD
  8
01
 10
549.21043491300054
 20
406.12498190534382
 30
0.0
 11
577.88109491300054
 21
406.12498190534382
 31
0.0
  0
LINE
  5
12E9
  8
01
 10
548.3796749130006
 20
409.87498190534387
 30
0.0
 11
578.98250491300053
 21
409.87498190534387
 31
0.0
  0
LINE
  5
12EA
  8
01
 10
578.68109491300061
 20
409.62498190534382
 30
0.0
 11
548.68108277012345
 21
409.62498190534382
 31
0.0
  0
ARC
  5
12F1
  8
01
 10
577.88109491300054
 20
405.82499190534378
 30
0.0
 40
0.30000001
 50
0.0
 51
90.000003000000007
  0
ARC
  5
12F2
  8
01
 10
578.15176491300065
 20
406.4249719053438
 30
0.0
 40
0.30000001
 50
270.0
 51
355.91438000000011
  0
LINE
  5
12F3
  8
01
 10
578.45099491300061
 20
406.40358190534391
 30
0.0
 11
578.68109491300061
 21
409.62495190534389
 31
0.0
  0
ARC
  5
12F7
  8
01
 10
578.19327491300055
 20
422.87498190534382
 30
0.0
 40
4.0
 50
12.373628000000011
 51
90.000003000000007
  0
LINE
  5
12F9
  8
01
 10
549.16891491300055
 20
426.87498190534382
 30
0.0
 11
578.19327491300055
 21
426.87498190534382
 31
0.0
  0
ARC
  5
1310
  8
01
 10
557.68109491300049
 20
418.37498190534387
 30
0.0
 40
25.0
 50
345.52249
 51
12.373628000000011
  0
ARC
  5
1364
  8
01
 10
563.68108991300062
 20
335.6967879053438
 30
0.0
 40
91.578193999999996
 50
84.929255999999995
 51
95.070741999999981
  0
LINE
  5
154C
  8
01
 10
544.68108991300062
 20
418.37976243646858
 30
0.0
 11
582.68108991300062
 21
418.37976243646858
 31
0.0
  0
ARC
  5
1602
  8
01
 10
548.3796749130006
 20
412.87498190534382
 30
0.0
 40
3.0
 50
194.47751
 51
270.0
  0
LINE
  5
1603
  8
01
 10
549.18108491300063
 20
405.82499190534378
 30
0.0
 11
549.18108491300063
 21
381.8797624364687
 31
0.0
  0
ARC
  5
1604
  8
01
 10
549.4810849130007
 20
405.82499190534378
 30
0.0
 40
0.30000001
 50
89.999997000000008
 51
180.0
  0
ARC
  5
1605
  8
01
 10
549.21041491300059
 20
406.4249719053438
 30
0.0
 40
0.30000001
 50
184.08561999999989
 51
270.0
  0
LINE
  5
1606
  8
01
 10
548.91118491300062
 20
406.40358190534391
 30
0.0
 11
548.68108277012345
 21
409.62498190534382
 31
0.0
  0
ARC
  5
1607
  8
01
 10
549.16890491300046
 20
422.87498190534382
 30
0.0
 40
4.0
 50
89.999997000000008
 51
167.62637199999989
  0
ARC
  5
1608
  8
01
 10
569.68108491300063
 20
418.37498190534387
 30
0.0
 40
25.0
 50
167.62637199999989
 51
194.47751
  0
LINE
  5
17C3
  8
01
 10
474.55649111440829
 20
490.8865048920548
 30
0.0
 11
474.55649111440817
 21
469.88650489205492
 31
0.0
  0
LINE
  5
17C4
  8
01
 10
500.80649111440829
 20
490.8865048920548
 30
0.0
 11
500.80649111440817
 21
469.88650489205492
 31
0.0
  0
LINE
  5
17C5
  8
01
 10
527.05649111440835
 20
490.8865048920548
 30
0.0
 11
527.05649111440835
 21
469.88650489205492
 31
0.0
  0
TEXT
  5
17C6
  8
01
 10
502.79080934645617
 20
481.3507371543177
 30
0.0
 40
3.0
  1
AC-561-XC
 41
0.8
 72
     1
 11
513.64795220359895
 21
481.3507371543177
 31
0.0
  0
TEXT
  5
17C7
  8
01
 10
508.75649111440839
 20
486.7615048920548
 30
0.0
 40
3.0
  1
コード
 72
     1
 11
513.85649111440841
 21
486.7615048920548
 31
0.0
  0
LINE
  5
17C8
  8
01
 10
474.55649111440829
 20
485.6365048920548
 30
0.0
 11
527.05649111440835
 21
485.6365048920548
 31
0.0
  0
LINE
  5
17C9
  8
01
 10
474.55649111440829
 20
480.3865048920548
 30
0.0
 11
527.05649111440835
 21
480.3865048920548
 31
0.0
  0
TEXT
  5
17CA
  8
01
 10
480.6064911144083
 20
481.52808362706639
 30
0.0
 40
3.0
  1
クローム
 72
     1
 11
487.60649111440841
 21
481.52808362706639
 31
0.0
  0
TEXT
  5
17CB
  8
01
 10
480.8064911144084
 20
486.7615048920548
 30
0.0
 40
3.0
  1
表面処理
 72
     1
 11
487.60649111440841
 21
486.7615048920548
 31
0.0
  0
TEXT
  5
17CD
  8
01
 10
475.30649111440829
 20
471.15331968337659
 30
0.0
 40
3.0
  1
ダークアンバー
 72
     1
 11
487.60649111440841
 21
471.15331968337659
 31
0.0
  0
LINE
  5
17CF
  8
01
 10
474.55649111440829
 20
490.8865048920548
 30
0.0
 11
527.05649111440835
 21
490.8865048920548
 31
0.0
  0
TEXT
  5
17D9
  8
01
 10
475.40649111440842
 20
476.40331968337648
 30
0.0
 40
3.0
  1
サテンニッケル
 72
     1
 11
487.60649111440841
 21
476.40331968337648
 31
0.0
  0
LINE
  5
17DA
  8
01
 10
474.55649111440829
 20
469.88650489205492
 30
0.0
 11
527.05649111440835
 21
469.88650489205492
 31
0.0
  0
LINE
  5
17DD
  8
01
 10
474.55649111440829
 20
475.1365048920548
 30
0.0
 11
527.05649111440835
 21
475.1365048920548
 31
0.0
  0
TEXT
  5
17E6
  8
01
 10
502.79080934645617
 20
476.10073715431759
 30
0.0
 40
3.0
  1
AC-561-XN
 41
0.8
 72
     1
 11
513.64795220359895
 21
476.10073715431759
 31
0.0
  0
TEXT
  5
17E8
  8
01
 10
502.73366648931329
 20
470.85073715431759
 30
0.0
 40
3.0
  1
AC-561-4Q
 41
0.8
 72
     1
 11
513.64795220359895
 21
470.85073715431759
 31
0.0
  0
CIRCLE
  5
18C5
  8
01
 10
563.68108991300062
 20
484.43544667280361
 30
0.0
 40
19.0
  0
CIRCLE
  5
18CD
  8
01
 10
563.68108991300062
 20
484.43544667280361
 30
0.0
 40
8.5500000000000007
  0
LINE
  5
18CF
  8
01
 10
558.68108991300062
 20
401.12976643646863
 30
0.0
 11
558.68108991300062
 21
384.87976243646858
 31
0.0
  0
LINE
  5
18D0
  8
01
 10
568.68108991300062
 20
401.12976643646863
 30
0.0
 11
568.68108991300062
 21
384.87976243646858
 31
0.0
  0
LINE
  5
18D1
  8
01
 10
568.68108991300062
 20
384.87976243646858
 30
0.0
 11
576.93109191300084
 21
384.87976243646858
 31
0.0
  0
LINE
  5
18D2
  8
01
 10
550.43108991300062
 20
384.87976243646858
 30
0.0
 11
550.43108991300062
 21
381.8797624364687
 31
0.0
  0
LINE
  5
18D3
  8
01
 10
550.43108991300062
 20
384.87976243646858
 30
0.0
 11
558.68108991300062
 21
384.87976243646858
 31
0.0
  0
LINE
  5
18D4
  8
01
 10
576.93109191300084
 20
384.87976243646858
 30
0.0
 11
576.93109191300084
 21
381.8797624364687
 31
0.0
  0
LINE
  5
18D5
  8
01
 10
567.93108991300062
 20
401.87976943646851
 30
0.0
 11
568.68108991300062
 21
401.12976943646839
 31
0.0
  0
LINE
  5
18D6
  8
01
 10
558.68108991300062
 20
401.12976943646839
 30
0.0
 11
559.43108591300063
 21
401.87976643646863
 31
0.0
  0
LINE
  5
18D7
  8
01
 10
559.43108991300062
 20
401.87976643646863
 30
0.0
 11
567.93108991300062
 21
401.87976643646863
 31
0.0
  0
CIRCLE
  5
18DA
  8
01
 10
563.68108991300062
 20
484.43544667280361
 30
0.0
 40
17.510640891017491
  0
CIRCLE
  5
19A8
  8
01
 10
563.68108991300062
 20
484.43544667280361
 30
0.0
 40
9.125
  0
LINE
  5
19B9
  8
01
 10
554.55608991300062
 20
481.43544667280361
 30
0.0
 11
554.55608991300062
 21
487.43544667280361
 31
0.0
  0
LINE
  5
19BA
  8
01
 10
551.55608991300062
 20
484.43544667280361
 30
0.0
 11
557.55608991300062
 21
484.43544667280361
 31
0.0
  0
LINE
  5
19BC
  8
01
 10
568.24358991300051
 20
489.33792848233668
 30
0.0
 11
568.24358991300051
 21
495.33792848233662
 31
0.0
  0
LINE
  5
19BD
  8
01
 10
565.24358991300062
 20
492.33792848233668
 30
0.0
 11
571.24358991300062
 21
492.33792848233668
 31
0.0
  0
LINE
  5
19BE
  8
01
 10
568.24358991300051
 20
479.53296486327059
 30
0.0
 11
568.24358991300051
 21
473.53296486327059
 31
0.0
  0
LINE
  5
19BF
  8
01
 10
565.24358991300062
 20
476.53296486327071
 30
0.0
 11
571.24358991300062
 21
476.53296486327071
 31
0.0
  0
ARC
  5
19DD
  8
01
 10
668.98250491300053
 20
412.87498190534382
 30
0.0
 40
3.0
 50
270.0
 51
345.52249
  0
LINE
  5
19DE
  8
01
 10
668.18109491300061
 20
405.82499190534378
 30
0.0
 11
668.18109491300061
 21
381.8797624364687
 31
0.0
  0
LINE
  5
19DF
  8
01
 10
639.21043491300054
 20
406.12498190534382
 30
0.0
 11
667.88109491300054
 21
406.12498190534382
 31
0.0
  0
LINE
  5
19E0
  8
01
 10
638.37967491300071
 20
409.87498190534387
 30
0.0
 11
668.98250491300053
 21
409.87498190534387
 31
0.0
  0
LINE
  5
19E1
  8
01
 10
668.68109491300061
 20
409.62498190534382
 30
0.0
 11
638.68108277012357
 21
409.62498190534382
 31
0.0
  0
ARC
  5
19E2
  8
01
 10
667.88109491300054
 20
405.82499190534378
 30
0.0
 40
0.30000001
 50
0.0
 51
90.000003000000149
  0
ARC
  5
19E3
  8
01
 10
668.15176491300065
 20
406.4249719053438
 30
0.0
 40
0.30000001
 50
270.0
 51
355.91438000000011
  0
LINE
  5
19E4
  8
01
 10
668.4509949130005
 20
406.40358190534391
 30
0.0
 11
668.68109491300061
 21
409.62495190534389
 31
0.0
  0
ARC
  5
19E5
  8
01
 10
668.19327491300055
 20
422.87498190534382
 30
0.0
 40
4.0
 50
12.37362800000008
 51
90.000003000000149
  0
LINE
  5
19E6
  8
01
 10
639.16891491300055
 20
426.87498190534382
 30
0.0
 11
668.19327491300055
 21
426.87498190534382
 31
0.0
  0
ARC
  5
19E7
  8
01
 10
647.68109491300061
 20
418.37498190534387
 30
0.0
 40
25.0
 50
345.52249
 51
12.37362800000008
  0
ARC
  5
19E8
  8
01
 10
653.68108991300062
 20
335.6967879053438
 30
0.0
 40
91.578193999999996
 50
84.929255999999867
 51
95.070742000000365
  0
LINE
  5
19E9
  8
01
 10
634.68108991300062
 20
418.37976243646858
 30
0.0
 11
672.68108991300062
 21
418.37976243646858
 31
0.0
  0
ARC
  5
19EA
  8
01
 10
638.37967491300071
 20
412.87498190534382
 30
0.0
 40
3.0
 50
194.47751
 51
270.0
  0
LINE
  5
19EB
  8
01
 10
639.18108491300063
 20
405.82499190534378
 30
0.0
 11
639.18108491300063
 21
381.8797624364687
 31
0.0
  0
ARC
  5
19EC
  8
01
 10
639.48108491300059
 20
405.82499190534378
 30
0.0
 40
0.30000001
 50
89.999996999999865
 51
180.0
  0
ARC
  5
19ED
  8
01
 10
639.21041491300048
 20
406.4249719053438
 30
0.0
 40
0.30000001
 50
184.08561999999989
 51
270.0
  0
LINE
  5
19EE
  8
01
 10
638.91118491300062
 20
406.40358190534391
 30
0.0
 11
638.68108277012357
 21
409.62498190534382
 31
0.0
  0
ARC
  5
19EF
  8
01
 10
639.16890491300057
 20
422.87498190534382
 30
0.0
 40
4.0
 50
89.999996999999865
 51
167.62637199999989
  0
ARC
  5
19F0
  8
01
 10
659.68108491300063
 20
418.37498190534387
 30
0.0
 40
25.0
 50
167.62637199999989
 51
194.47751
  0
LINE
  5
1A0F
  8
01
 10
627.40930502608296
 20
381.8797624364687
 30
0.0
 11
680.46300678020134
 21
381.8797624364687
 31
0.0
  0
LINE
  5
1A10
  8
01
 10
535.29716334638692
 20
369.87976243646858
 30
0.0
 11
610.63833347954801
 21
369.87976243646858
 31
0.0
  0
LINE
  5
1A12
  8
01
 10
648.68108991300062
 20
401.87976643646863
 30
0.0
 11
648.68108991300062
 21
351.87976243646858
 31
0.0
  0
LINE
  5
1A13
  8
01
 10
658.68108991300062
 20
401.87976643646863
 30
0.0
 11
658.68108991300062
 21
351.87976243646858
 31
0.0
  0
LINE
  5
1A15
  8
01
 10
653.18108991300062
 20
368.87976243646858
 30
0.0
 11
654.18108991300051
 21
368.87976243646858
 31
0.0
  0
LINE
  5
1A16
  8
01
 10
648.68108991300062
 20
351.87976243646858
 30
0.0
 11
658.68108991300062
 21
351.87976243646858
 31
0.0
  0
LINE
  5
1A17
  8
01
 10
653.18108991300062
 20
368.87976243646858
 30
0.0
 11
653.18108991300062
 21
351.87976243646858
 31
0.0
  0
LINE
  5
1A18
  8
01
 10
654.18108991300051
 20
368.87976243646858
 30
0.0
 11
654.18108991300051
 21
351.87976243646858
 31
0.0
  0
LINE
  5
1A19
  8
01
 10
649.43108991300062
 20
401.87976643646863
 30
0.0
 11
649.43108991300062
 21
381.8797624364687
 31
0.0
  0
LINE
  5
1A1A
  8
01
 10
657.93108991300062
 20
401.87976643646863
 30
0.0
 11
657.93108991300062
 21
381.8797624364687
 31
0.0
  0
LINE
  5
1A1B
  8
01
 10
648.68108991300062
 20
381.8797624364687
 30
0.0
 11
658.68108991300062
 21
381.8797624364687
 31
0.0
  0
LINE
  5
1A1C
  8
01
 10
650.43108991300062
 20
403.37976643646863
 30
0.0
 11
650.43108991300062
 21
401.87976643646863
 31
0.0
  0
ARC
  5
1A1D
  8
01
 10
652.43108991300062
 20
403.37976643646863
 30
0.0
 40
2.0
 50
90.0
 51
180.0
  0
LINE
  5
1A1F
  8
01
 10
656.93108991300062
 20
403.37976643646863
 30
0.0
 11
656.93108991300062
 21
401.87976643646863
 31
0.0
  0
ARC
  5
1A20
  8
01
 10
654.93108991300062
 20
403.37976643646863
 30
0.0
 40
2.0
 50
0.0
 51
89.999999999999588
  0
LINE
  5
1A21
  8
01
 10
652.43108991300062
 20
405.37976643646863
 30
0.0
 11
654.93108991300062
 21
405.37976643646863
 31
0.0
  0
LINE
  5
1A23
  8
01
 10
648.68108991300062
 20
401.87976643646863
 30
0.0
 11
658.68108991300062
 21
401.87976643646863
 31
0.0
  0
TEXT
  5
1A53
  8
01
 10
651.55220784980577
 20
333.47523412879463
 30
0.0
 40
4.0
  1
コンクリート
  0
LINE
  5
1B49
  8
01
 10
563.68108991300062
 20
484.43544667280361
 30
0.0
 11
570.30300410696077
 21
495.90493850010409
 31
0.0
  0
LINE
  5
1B4A
  8
01
 10
563.68108991300062
 20
484.43544667280372
 30
0.0
 11
570.27373654934888
 21
473.01664774230028
 31
0.0
  0
LINE
  5
1B4B
  8
01
 10
563.68108991300062
 20
484.43544667280372
 30
0.0
 11
550.38390112325033
 21
484.43544667280372
 31
0.0
  0
LINE
  5
1ED4
  8
01
 10
627.40930502608296
 20
378.20719766641389
 30
0.0
 11
631.08186979613765
 21
381.8797624364687
 31
0.0
1001
ACAD
1010
0.0
1020
0.0
1030
0.0
  0
LINE
  5
1ED7
  8
01
 10
627.40930502608296
 20
371.47200557561212
 30
0.0
 11
637.81706188693965
 21
381.8797624364687
 31
0.0
1001
ACAD
1010
0.0
1020
0.0
1030
0.0
  0
LINE
  5
1ED8
  8
01
 10
627.40930502608296
 20
364.73681348481023
 30
0.0
 11
644.55225397774143
 21
381.8797624364687
 31
0.0
1001
ACAD
1010
0.0
1020
0.0
1030
0.0
  0
LINE
  5
1ED9
  8
01
 10
627.40930502608296
 20
358.00162139400828
 30
0.0
 11
648.68108991300039
 21
379.27340628092583
 31
0.0
1001
ACAD
1010
0.0
1020
0.0
1030
0.0
  0
LINE
  5
1EDA
  8
01
 10
627.40930502608296
 20
351.26642930320651
 30
0.0
 11
648.68108991300051
 21
372.53821419012399
 31
0.0
1001
ACAD
1010
0.0
1020
0.0
1030
0.0
  0
LINE
  5
1EDB
  8
01
 10
627.40930502608296
 20
344.53123721240462
 30
0.0
 11
648.68108991300051
 21
365.80302209932211
 31
0.0
1001
ACAD
1010
0.0
1020
0.0
1030
0.0
  0
LINE
  5
1EDC
  8
01
 10
658.68108991300062
 20
375.80302209932211
 30
0.0
 11
664.75783025014721
 21
381.8797624364687
 31
0.0
1001
ACAD
1010
0.0
1020
0.0
1030
0.0
  0
LINE
  5
1EDD
  8
01
 10
627.40930502608296
 20
337.79604512160279
 30
0.0
 11
635.43942324633383
 21
345.8261633418536
 31
0.0
1001
ACAD
1010
0.0
1020
0.0
1030
0.0
  0
LINE
  5
1EDE
  8
01
 10
658.68108991300039
 20
369.06783000852027
 30
0.0
 11
671.49302234094887
 21
381.8797624364687
 31
0.0
1001
ACAD
1010
0.0
1020
0.0
1030
0.0
  0
LINE
  5
1EDF
  8
01
 10
635.4535105911724
 20
345.84025068669217
 30
0.0
 11
648.68108991300051
 21
359.06783000852022
 31
0.0
1001
ACAD
1010
0.0
1020
0.0
1030
0.0
  0
LINE
  5
1EE0
  8
01
 10
628.7891413968739
 20
332.44068940159173
 30
0.0
 11
636.93870268197429
 21
340.59025068669217
 31
0.0
1001
ACAD
1010
0.0
1020
0.0
1030
0.0
  0
LINE
  5
1EE1
  8
01
 10
658.68108991300039
 20
362.33263791771827
 30
0.0
 11
678.22821443175098
 21
381.8797624364687
 31
0.0
1001
ACAD
1010
0.0
1020
0.0
1030
0.0
  0
LINE
  5
1EE2
  8
01
 10
642.18870268197418
 20
345.84025068669217
 30
0.0
 11
648.68108991300051
 21
352.33263791771827
 31
0.0
1001
ACAD
1010
0.0
1020
0.0
1030
0.0
  0
LINE
  5
1EE3
  8
01
 10
635.52433348767579
 20
332.44068940159178
 30
0.0
 11
643.67389477277629
 21
340.59025068669217
 31
0.0
1001
ACAD
1010
0.0
1020
0.0
1030
0.0
  0
LINE
  5
1EE4
  8
01
 10
658.68108991300039
 20
355.5974458269165
 30
0.0
 11
680.46300678020134
 21
377.37936269411728
 31
0.0
1001
ACAD
1010
0.0
1020
0.0
1030
0.0
  0
LINE
  5
1EE5
  8
01
 10
646.85608991300035
 20
343.77244582691651
 30
0.0
 11
654.96340652255265
 21
351.87976243646858
 31
0.0
1001
ACAD
1010
0.0
1020
0.0
1030
0.0
  0
LINE
  5
1EE6
  8
01
 10
642.25952557847756
 20
332.44068940159173
 30
0.0
 11
680.46300678020134
 21
370.64417060331539
 31
0.0
1001
ACAD
1010
0.0
1020
0.0
1030
0.0
  0
LINE
  5
1EE7
  8
01
 10
648.99471766927945
 20
332.44068940159173
 30
0.0
 11
651.21887451647251
 21
334.66484624878473
 31
0.0
1001
ACAD
1010
0.0
1020
0.0
1030
0.0
  0
LINE
  5
1EE8
  8
01
 10
654.62926239648243
 20
338.07523412879459
 30
0.0
 11
680.46300678020145
 21
363.90897851251361
 31
0.0
1001
ACAD
1010
0.0
1020
0.0
1030
0.0
  0
LINE
  5
1EE9
  8
01
 10
655.72990976008134
 20
332.44068940159173
 30
0.0
 11
656.16445448728427
 21
332.8752341287946
 31
0.0
1001
ACAD
1010
0.0
1020
0.0
1030
0.0
  0
LINE
  5
1EEA
  8
01
 10
661.36445448728432
 20
338.0752341287947
 30
0.0
 11
680.46300678020134
 21
357.17378642171172
 31
0.0
1001
ACAD
1010
0.0
1020
0.0
1030
0.0
  0
LINE
  5
1EEB
  8
01
 10
662.46510185088323
 20
332.44068940159161
 30
0.0
 11
662.89964657808605
 21
332.8752341287946
 31
0.0
1001
ACAD
1010
0.0
1020
0.0
1030
0.0
  0
LINE
  5
1EEC
  8
01
 10
668.09964657808609
 20
338.07523412879459
 30
0.0
 11
680.46300678020134
 21
350.43859433090972
 31
0.0
1001
ACAD
1010
0.0
1020
0.0
1030
0.0
  0
LINE
  5
1EED
  8
01
 10
669.200293941685
 20
332.44068940159161
 30
0.0
 11
669.63483866888794
 21
332.8752341287946
 31
0.0
1001
ACAD
1010
0.0
1020
0.0
1030
0.0
  0
LINE
  5
1EEE
  8
01
 10
674.83483866888798
 20
338.0752341287947
 30
0.0
 11
680.46300678020134
 21
343.70340224010789
 31
0.0
1001
ACAD
1010
0.0
1020
0.0
1030
0.0
  0
LINE
  5
1EEF
  8
01
 10
675.93548603248689
 20
332.44068940159173
 30
0.0
 11
676.37003075968983
 21
332.8752341287946
 31
0.0
1001
ACAD
1010
0.0
1020
0.0
1030
0.0
  0
LINE
  5
1EF0
  8
01
 10
679.35220784980595
 20
335.85741121891073
 30
0.0
 11
680.46300678020134
 21
336.96821014930612
 31
0.0
1001
ACAD
1010
0.0
1020
0.0
1030
0.0
  0
LINE
  5
1EF1
  8
01
 10
627.40930502608296
 20
375.96213266641388
 30
0.0
 11
633.32693479613783
 21
381.8797624364687
 31
0.0
1001
ACAD
1010
0.0
1020
0.0
1030
0.0
  0
LINE
  5
1EF2
  8
01
 10
627.40930502608296
 20
369.22694057561222
 30
0.0
 11
640.06212688693961
 21
381.8797624364687
 31
0.0
1001
ACAD
1010
0.0
1020
0.0
1030
0.0
  0
LINE
  5
1EF3
  8
01
 10
627.40930502608296
 20
362.49174848481027
 30
0.0
 11
646.79731897774138
 21
381.8797624364687
 31
0.0
1001
ACAD
1010
0.0
1020
0.0
1030
0.0
  0
LINE
  5
1EF4
  8
01
 10
627.40930502608296
 20
355.75655639400838
 30
0.0
 11
648.68108991300051
 21
377.02834128092582
 31
0.0
1001
ACAD
1010
0.0
1020
0.0
1030
0.0
  0
LINE
  5
1EF5
  8
01
 10
627.40930502608296
 20
349.0213643032065
 30
0.0
 11
648.68108991300051
 21
370.29314919012398
 31
0.0
1001
ACAD
1010
0.0
1020
0.0
1030
0.0
  0
LINE
  5
1EF6
  8
01
 10
658.68108991300062
 20
380.2931491901241
 30
0.0
 11
660.26770315934505
 21
381.8797624364687
 31
0.0
1001
ACAD
1010
0.0
1020
0.0
1030
0.0
  0
LINE
  5
1EF7
  8
01
 10
627.40930502608296
 20
342.28617221240472
 30
0.0
 11
648.68108991300062
 21
363.5579570993221
 31
0.0
1001
ACAD
1010
0.0
1020
0.0
1030
0.0
  0
LINE
  5
1EF8
  8
01
 10
658.68108991300062
 20
373.55795709932232
 30
0.0
 11
667.00289525014705
 21
381.8797624364687
 31
0.0
1001
ACAD
1010
0.0
1020
0.0
1030
0.0
  0
LINE
  5
1EF9
  8
01
 10
627.40930502608296
 20
335.55098012160272
 30
0.0
 11
635.43942324633394
 21
343.58109834185359
 31
0.0
1001
ACAD
1010
0.0
1020
0.0
1030
0.0
  0
LINE
  5
1EFA
  8
01
 10
658.68108991300062
 20
366.82276500852032
 30
0.0
 11
673.73808734094905
 21
381.8797624364687
 31
0.0
1001
ACAD
1010
0.0
1020
0.0
1030
0.0
  0
LINE
  5
1EFB
  8
01
 10
637.69857559117247
 20
345.84025068669217
 30
0.0
 11
648.68108991300062
 21
356.82276500852032
 31
0.0
1001
ACAD
1010
0.0
1020
0.0
1030
0.0
  0
LINE
  5
1EFC
  8
01
 10
631.03420639687386
 20
332.44068940159173
 30
0.0
 11
639.18376768197436
 21
340.59025068669217
 31
0.0
1001
ACAD
1010
0.0
1020
0.0
1030
0.0
  0
LINE
  5
1EFD
  8
01
 10
658.68108991300039
 20
360.08757291771838
 30
0.0
 11
680.46300678020134
 21
381.86948978491921
 31
0.0
1001
ACAD
1010
0.0
1020
0.0
1030
0.0
  0
LINE
  5
1EFE
  8
01
 10
644.43376768197425
 20
345.84025068669217
 30
0.0
 11
650.47327943175083
 21
351.8797624364687
 31
0.0
1001
ACAD
1010
0.0
1020
0.0
1030
0.0
  0
LINE
  5
1EFF
  8
01
 10
637.76939848767574
 20
332.44068940159178
 30
0.0
 11
645.91895977277625
 21
340.59025068669217
 31
0.0
1001
ACAD
1010
0.0
1020
0.0
1030
0.0
  0
LINE
  5
1F00
  8
01
 10
658.68108991300062
 20
353.3523808269166
 30
0.0
 11
680.46300678020134
 21
375.13429769411732
 31
0.0
1001
ACAD
1010
0.0
1020
0.0
1030
0.0
  0
LINE
  5
1F01
  8
01
 10
646.85608991300035
 20
341.52738082691639
 30
0.0
 11
657.20847152255271
 21
351.87976243646858
 31
0.0
1001
ACAD
1010
0.0
1020
0.0
1030
0.0
  0
LINE
  5
1F02
  8
01
 10
644.50459057847763
 20
332.44068940159173
 30
0.0
 11
680.46300678020134
 21
368.39910560331538
 31
0.0
1001
ACAD
1010
0.0
1020
0.0
1030
0.0
  0
LINE
  5
1F03
  8
01
 10
651.23978266927952
 20
332.44068940159178
 30
0.0
 11
651.67432739648245
 21
332.8752341287946
 31
0.0
1001
ACAD
1010
0.0
1020
0.0
1030
0.0
  0
LINE
  5
1F04
  8
01
 10
656.87432739648227
 20
338.07523412879459
 30
0.0
 11
680.46300678020134
 21
361.6639135125136
 31
0.0
1001
ACAD
1010
0.0
1020
0.0
1030
0.0
  0
LINE
  5
1F05
  8
01
 10
657.97497476008118
 20
332.44068940159173
 30
0.0
 11
658.40951948728423
 21
332.8752341287946
 31
0.0
1001
ACAD
1010
0.0
1020
0.0
1030
0.0
  0
LINE
  5
1F06
  8
01
 10
663.60951948728439
 20
338.0752341287947
 30
0.0
 11
680.46300678020134
 21
354.92872142171183
 31
0.0
1001
ACAD
1010
0.0
1020
0.0
1030
0.0
  0
LINE
  5
1F07
  8
01
 10
664.71016685088307
 20
332.44068940159161
 30
0.0
 11
665.14471157808612
 21
332.8752341287946
 31
0.0
1001
ACAD
1010
0.0
1020
0.0
1030
0.0
  0
LINE
  5
1F08
  8
01
 10
670.34471157808605
 20
338.07523412879459
 30
0.0
 11
680.46300678020134
 21
348.19352933090988
 31
0.0
1001
ACAD
1010
0.0
1020
0.0
1030
0.0
  0
LINE
  5
1F09
  8
01
 10
671.44535894168507
 20
332.44068940159161
 30
0.0
 11
671.87990366888789
 21
332.8752341287946
 31
0.0
1001
ACAD
1010
0.0
1020
0.0
1030
0.0
  0
LINE
  5
1F0A
  8
01
 10
677.07990366888805
 20
338.0752341287947
 30
0.0
 11
680.46300678020134
 21
341.45833724010799
 31
0.0
1001
ACAD
1010
0.0
1020
0.0
1030
0.0
  0
LINE
  5
1F0B
  8
01
 10
678.18055103248685
 20
332.44068940159173
 30
0.0
 11
678.61509575968978
 21
332.8752341287946
 31
0.0
1001
ACAD
1010
0.0
1020
0.0
1030
0.0
  0
LINE
  5
1F0C
  8
01
 10
679.35220784980595
 20
333.61234621891072
 30
0.0
 11
680.46300678020134
 21
334.72314514930622
 31
0.0
1001
ACAD
1010
0.0
1020
0.0
1030
0.0
  0
TEXT
  5
1F0D
  8
01
 10
554.67627697351281
 20
345.22369319074733
 30
0.0
 40
3.5
  1
フローリング床材
  0
SOLID
  5
1F0E
  8
01
 10
595.49471618529628
 20
366.5844271117661
 30
0.0
 11
596.32535239048821
 21
368.43406345595253
 31
0.0
 12
596.13949749720507
 22
366.41501192868691
 32
0.0
 13
596.13949749720507
 23
366.41501192868691
 33
0.0
1001
ACAD
1000
DSTYLE
1002
{
1070
   341
1005
0
1002
}
  0
LINE
  5
1F10
  8
01
 10
535.29716334638692
 20
380.387745257944
 30
0.0
 11
536.78918052491144
 21
381.8797624364687
 31
0.0
1001
ACAD
1010
0.0
1020
0.0
1030
0.0
  0
LINE
  5
1F11
  8
01
 10
535.29716334638692
 20
378.14268122767669
 30
0.0
 11
539.0342445551787
 21
381.87976243646858
 31
0.0
1001
ACAD
1010
0.0
1020
0.0
1030
0.0
  0
LINE
  5
1F12
  8
01
 10
535.29716334638692
 20
375.89761719740937
 30
0.0
 11
541.27930858544607
 21
381.87976243646858
 31
0.0
1001
ACAD
1010
0.0
1020
0.0
1030
0.0
  0
LINE
  5
1F13
  8
01
 10
535.29716334638692
 20
373.65255316714212
 30
0.0
 11
543.52437261571345
 21
381.8797624364687
 31
0.0
1001
ACAD
1010
0.0
1020
0.0
1030
0.0
  0
LINE
  5
1F14
  8
01
 10
535.29716334638692
 20
371.4074891368748
 30
0.0
 11
545.7694366459807
 21
381.87976243646858
 31
0.0
1001
ACAD
1010
0.0
1020
0.0
1030
0.0
  0
LINE
  5
1F15
  8
01
 10
536.01450067624796
 20
369.87976243646858
 30
0.0
 11
548.01450067624785
 21
381.87976243646858
 31
0.0
1001
ACAD
1010
0.0
1020
0.0
1030
0.0
  0
LINE
  5
1F16
  8
01
 10
538.25956470651545
 20
369.8797624364687
 30
0.0
 11
550.25956470651533
 21
381.8797624364687
 31
0.0
1001
ACAD
1010
0.0
1020
0.0
1030
0.0
  0
LINE
  5
1F17
  8
01
 10
540.50462873678248
 20
369.87976243646858
 30
0.0
 11
552.50462873678259
 21
381.8797624364687
 31
0.0
1001
ACAD
1010
0.0
1020
0.0
1030
0.0
  0
LINE
  5
1F18
  8
01
 10
542.74969276704996
 20
369.8797624364687
 30
0.0
 11
552.96859551291107
 21
380.09866518232991
 31
0.0
1001
ACAD
1010
0.0
1020
0.0
1030
0.0
  0
LINE
  5
1F19
  8
01
 10
553.06199610957594
 20
380.19206577899479
 30
0.0
 11
553.30608991299948
 21
380.43615958241821
 31
0.0
1001
ACAD
1010
0.0
1020
0.0
1030
0.0
  0
LINE
  5
1F1A
  8
01
 10
544.99475679731711
 20
369.87976243646858
 30
0.0
 11
553.3060899129996
 21
378.19109555215113
 31
0.0
1001
ACAD
1010
0.0
1020
0.0
1030
0.0
  0
LINE
  5
1F1B
  8
01
 10
556.04668133193229
 20
380.93168697108388
 30
0.0
 11
556.99475679731722
 21
381.8797624364687
 31
0.0
1001
ACAD
1010
0.0
1020
0.0
1030
0.0
  0
LINE
  5
1F1C
  8
01
 10
555.80608991300016
 20
380.69109555215169
 30
0.0
 11
555.91105209165562
 21
380.79605773080698
 31
0.0
1001
ACAD
1010
0.0
1020
0.0
1030
0.0
  0
LINE
  5
1F1D
  8
01
 10
547.23982082758437
 20
369.87976243646858
 30
0.0
 11
553.30608991299982
 21
375.94603152188398
 31
0.0
1001
ACAD
1010
0.0
1020
0.0
1030
0.0
  0
LINE
  5
1F1E
  8
01
 10
555.80608991300005
 20
378.44603152188438
 30
0.0
 11
559.23982082758437
 21
381.87976243646858
 31
0.0
1001
ACAD
1010
0.0
1020
0.0
1030
0.0
  0
LINE
  5
1F1F
  8
01
 10
549.48488485785174
 20
369.87976243646858
 30
0.0
 11
553.21428620517463
 21
373.60916378379147
 31
0.0
1001
ACAD
1010
0.0
1020
0.0
1030
0.0
  0
LINE
  5
1F20
  8
01
 10
555.80608991300039
 20
376.20096749161729
 30
0.0
 11
561.48488485785174
 21
381.8797624364687
 31
0.0
1001
ACAD
1010
0.0
1020
0.0
1030
0.0
  0
LINE
  5
1F21
  8
01
 10
551.72994888811911
 20
369.87976243646858
 30
0.0
 11
553.30608991300005
 21
371.45590346134952
 31
0.0
1001
ACAD
1010
0.0
1020
0.0
1030
0.0
  0
LINE
  5
1F22
  8
01
 10
556.30074749892106
 20
374.45056104727058
 30
0.0
 11
563.72994888811911
 21
381.8797624364687
 31
0.0
1001
ACAD
1010
0.0
1020
0.0
1030
0.0
  0
LINE
  5
1F23
  8
01
 10
555.80608991300039
 20
373.95590346134998
 30
0.0
 11
556.2979542699544
 21
374.44776781830399
 31
0.0
1001
ACAD
1010
0.0
1020
0.0
1030
0.0
  0
LINE
  5
1F24
  8
01
 10
555.80608991300051
 20
371.71083943108277
 30
0.0
 11
565.97501291838626
 21
381.8797624364687
 31
0.0
1001
ACAD
1010
0.0
1020
0.0
1030
0.0
  0
LINE
  5
1F25
  8
01
 10
556.22007694865363
 20
369.87976243646858
 30
0.0
 11
566.9935899129996
 21
380.65327540081472
 31
0.0
1001
ACAD
1010
0.0
1020
0.0
1030
0.0
  0
LINE
  5
1F26
  8
01
 10
558.46514097892089
 20
369.8797624364687
 30
0.0
 11
566.99358991299982
 21
378.40821137054752
 31
0.0
1001
ACAD
1010
0.0
1020
0.0
1030
0.0
  0
LINE
  5
1F27
  8
01
 10
569.55325183409036
 20
380.96787329163823
 30
0.0
 11
570.46514097892089
 21
381.8797624364687
 31
0.0
1001
ACAD
1010
0.0
1020
0.0
1030
0.0
  0
LINE
  5
1F28
  8
01
 10
560.71020500918814
 20
369.8797624364687
 30
0.0
 11
566.99358991299994
 21
376.16314734028037
 31
0.0
1001
ACAD
1010
0.0
1020
0.0
1030
0.0
  0
LINE
  5
1F29
  8
01
 10
569.49358991300039
 20
378.66314734028077
 30
0.0
 11
572.71020500918826
 21
381.8797624364687
 31
0.0
1001
ACAD
1010
0.0
1020
0.0
1030
0.0
  0
LINE
  5
1F2A
  8
01
 10
562.95526903945552
 20
369.87976243646858
 30
0.0
 11
566.72682117892737
 21
373.65131457594038
 31
0.0
1001
ACAD
1010
0.0
1020
0.0
1030
0.0
  0
LINE
  5
1F2B
  8
01
 10
569.49358991300062
 20
376.41808331001369
 30
0.0
 11
574.95526903945563
 21
381.8797624364687
 31
0.0
1001
ACAD
1010
0.0
1020
0.0
1030
0.0
  0
LINE
  5
1F2C
  8
01
 10
566.86087157110114
 20
373.78536496811421
 30
0.0
 11
566.99358991300005
 21
373.91808331001317
 31
0.0
1001
ACAD
1010
0.0
1020
0.0
1030
0.0
  0
LINE
  5
1F2D
  8
01
 10
565.20033306972266
 20
369.87976243646858
 30
0.0
 11
566.99358991300016
 21
371.67301927974597
 31
0.0
1001
ACAD
1010
0.0
1020
0.0
1030
0.0
  0
LINE
  5
1F2E
  8
01
 10
569.8073180010789
 20
374.48674736782482
 30
0.0
 11
577.20033306972266
 21
381.8797624364687
 31
0.0
1001
ACAD
1010
0.0
1020
0.0
1030
0.0
  0
LINE
  5
1F2F
  8
01
 10
569.49358991300039
 20
374.1730192797462
 30
0.0
 11
569.70992755318082
 21
374.38935691992668
 31
0.0
1001
ACAD
1010
0.0
1020
0.0
1030
0.0
  0
LINE
  5
1F30
  8
01
 10
569.49358991300051
 20
371.92795524947911
 30
0.0
 11
579.44539709999015
 21
381.8797624364687
 31
0.0
1001
ACAD
1010
0.0
1020
0.0
1030
0.0
  0
LINE
  5
1F31
  8
01
 10
569.69046113025729
 20
369.87976243646858
 30
0.0
 11
581.6904611302574
 21
381.8797624364687
 31
0.0
1001
ACAD
1010
0.0
1020
0.0
1030
0.0
  0
LINE
  5
1F32
  8
01
 10
571.93552516052466
 20
369.87976243646858
 30
0.0
 11
583.93552516052466
 21
381.8797624364687
 31
0.0
1001
ACAD
1010
0.0
1020
0.0
1030
0.0
  0
LINE
  5
1F33
  8
01
 10
574.18058919079192
 20
369.87976243646858
 30
0.0
 11
586.18058919079203
 21
381.8797624364687
 31
0.0
1001
ACAD
1010
0.0
1020
0.0
1030
0.0
  0
LINE
  5
1F34
  8
01
 10
576.42565322105929
 20
369.8797624364687
 30
0.0
 11
588.42565322105918
 21
381.87976243646858
 31
0.0
1001
ACAD
1010
0.0
1020
0.0
1030
0.0
  0
LINE
  5
1F35
  8
01
 10
578.67071725132644
 20
369.87976243646858
 30
0.0
 11
590.67071725132655
 21
381.8797624364687
 31
0.0
1001
ACAD
1010
0.0
1020
0.0
1030
0.0
  0
LINE
  5
1F36
  8
01
 10
580.91578128159381
 20
369.87976243646858
 30
0.0
 11
592.91578128159392
 21
381.8797624364687
 31
0.0
1001
ACAD
1010
0.0
1020
0.0
1030
0.0
  0
LINE
  5
1F37
  8
01
 10
583.16084531186118
 20
369.8797624364687
 30
0.0
 11
595.16084531186118
 21
381.8797624364687
 31
0.0
1001
ACAD
1010
0.0
1020
0.0
1030
0.0
  0
LINE
  5
1F38
  8
01
 10
585.40590934212833
 20
369.87976243646858
 30
0.0
 11
597.40590934212844
 21
381.8797624364687
 31
0.0
1001
ACAD
1010
0.0
1020
0.0
1030
0.0
  0
LINE
  5
1F39
  8
01
 10
587.65097337239558
 20
369.8797624364687
 30
0.0
 11
599.65097337239581
 21
381.8797624364687
 31
0.0
1001
ACAD
1010
0.0
1020
0.0
1030
0.0
  0
LINE
  5
1F3A
  8
01
 10
589.89603740266296
 20
369.87976243646858
 30
0.0
 11
601.89603740266296
 21
381.8797624364687
 31
0.0
1001
ACAD
1010
0.0
1020
0.0
1030
0.0
  0
LINE
  5
1F3B
  8
01
 10
592.14110143293033
 20
369.8797624364687
 30
0.0
 11
604.14110143293033
 21
381.8797624364687
 31
0.0
1001
ACAD
1010
0.0
1020
0.0
1030
0.0
  0
LINE
  5
1F3C
  8
01
 10
594.38616546319759
 20
369.8797624364687
 30
0.0
 11
606.3861654631977
 21
381.8797624364687
 31
0.0
1001
ACAD
1010
0.0
1020
0.0
1030
0.0
  0
LINE
  5
1F3D
  8
01
 10
596.63122949346484
 20
369.87976243646858
 30
0.0
 11
608.63122949346484
 21
381.8797624364687
 31
0.0
1001
ACAD
1010
0.0
1020
0.0
1030
0.0
  0
LINE
  5
1F3E
  8
01
 10
598.87629352373199
 20
369.8797624364687
 30
0.0
 11
610.6383334795479
 21
381.64180239228449
 31
0.0
1001
ACAD
1010
0.0
1020
0.0
1030
0.0
  0
LINE
  5
1F3F
  8
01
 10
601.12135755399936
 20
369.8797624364687
 30
0.0
 11
610.63833347954801
 21
379.39673836201717
 31
0.0
1001
ACAD
1010
0.0
1020
0.0
1030
0.0
  0
LINE
  5
1F40
  8
01
 10
603.36642158426673
 20
369.8797624364687
 30
0.0
 11
610.63833347954801
 21
377.15167433174997
 31
0.0
1001
ACAD
1010
0.0
1020
0.0
1030
0.0
  0
LINE
  5
1F41
  8
01
 10
605.6114856145341
 20
369.8797624364687
 30
0.0
 11
610.6383334795479
 21
374.9066103014826
 31
0.0
1001
ACAD
1010
0.0
1020
0.0
1030
0.0
  0
LINE
  5
1F42
  8
01
 10
607.85654964480125
 20
369.87976243646858
 30
0.0
 11
610.63833347954801
 21
372.6615462712154
 31
0.0
1001
ACAD
1010
0.0
1020
0.0
1030
0.0
  0
LINE
  5
1F43
  8
01
 10
610.10161367506862
 20
369.8797624364687
 30
0.0
 11
610.63833347954801
 21
370.41648224094803
 31
0.0
1001
ACAD
1010
0.0
1020
0.0
1030
0.0
  0
LINE
  5
1F44
  8
01
 10
570.30300410696077
 20
495.90493850010409
 30
0.0
 11
576.0800224486029
 21
505.91102778408589
 31
0.0
  0
LINE
  5
1F45
  8
01
 10
550.38390112325033
 20
484.43544667280372
 30
0.0
 11
538.88322484179605
 21
484.43544667280378
 31
0.0
  0
ARC
  5
1F46
  8
01
 10
563.68108991300073
 20
484.43544667280372
 30
0.0
 40
23.797865071204619
 50
64.816621509668892
 51
175.18337849033139
  0
LINE
  5
1F4A
  8
01
 10
557.38305369896409
 20
487.76716767653159
 30
0.0
 11
569.97912612703772
 21
481.1037256690762
 31
0.0
  0
LINE
  5
1F4B
  8
01
 10
571.74699594150411
 20
480.16850573820528
 30
0.0
 11
597.48742375773202
 21
466.55157482740401
 31
0.0
  0
LINE
  5
1F4F
  8
01
 10
648.68108991300062
 20
401.87976643646863
 30
0.0
 11
623.29164264473116
 21
401.87976643646863
 31
0.0
  0
LINE
  5
1F50
  8
01
 10
648.68108991300062
 20
351.87976243646858
 30
0.0
 11
623.29164264473116
 21
351.8797624364687
 31
0.0
  0
LINE
  5
1F51
  8
01
 10
624.29164264473116
 20
399.87976643646869
 30
0.0
 11
624.29164264473116
 21
353.8797624364687
 31
0.0
  0
LINE
  5
1F55
  8
01
 10
648.68108991300062
 20
381.8797624364687
 30
0.0
 11
632.26820209489983
 21
381.8797624364687
 31
0.0
  0
LINE
  5
1F56
  8
01
 10
648.68108991300062
 20
401.87976643646863
 30
0.0
 11
632.26820209489983
 21
401.87976643646863
 31
0.0
  0
LINE
  5
1F57
  8
01
 10
633.26820209489983
 20
383.8797624364687
 30
0.0
 11
633.26820209489983
 21
399.87976643646869
 31
0.0
  0
LINE
  5
1F5B
  8
01
 10
648.68108991300062
 20
351.87976243646858
 30
0.0
 11
648.68108991300062
 21
339.76525068669218
 31
0.0
  0
LINE
  5
1F5C
  8
01
 10
658.68108991300062
 20
351.87976243646858
 30
0.0
 11
658.68108991300062
 21
339.76525068669218
 31
0.0
  0
LINE
  5
1F5D
  8
01
 10
656.68108991300062
 20
340.76525068669218
 30
0.0
 11
650.68108991300062
 21
340.76525068669218
 31
0.0
  0
LINE
  5
1F5E
  8
01
 10
648.68108991300062
 20
340.76525068669218
 30
0.0
 11
635.61442324633379
 21
340.76525068669218
 31
0.0
  0
TEXT
  5
1F62
  8
01
 10
682.34533904451405
 20
414.92647535434583
 30
0.0
 40
3.5
  1
コンクリート用オールアンカー
  0
TEXT
  5
1F63
  8
01
 10
682.14533904451412
 20
409.0931420210124
 30
0.0
 40
3.5
  1
M10-50
  0
TEXT
  5
1F64
  8
01
 10
682.645339044514
 20
403.2598086876792
 30
0.0
 40
3.5
  1
AC-1050（オプション）
  0
SOLID
  5
1F65
  8
01
 10
662.7181760562039
 20
391.07936453518232
 30
0.0
 11
660.85242572399989
 21
390.28558445922192
 31
0.0
 12
662.35988250009768
 22
391.64156571989918
 32
0.0
 13
662.35988250009768
 23
391.64156571989918
 33
0.0
1001
ACAD
1000
DSTYLE
1002
{
1070
   341
1005
0
1002
}
  0
LINE
  5
1F67
  8
01
  6
BYBLOCK
 10
566.99358991299948
 20
381.92976243646859
 30
0.0
 11
566.99358991300028
 21
368.79643201167352
 31
0.0
1001
ACDBBLOCKREPETAG
1070
     1
1071
        0
1005
1F67
  0
LINE
  5
1F68
  8
01
  6
BYBLOCK
 10
569.49358991300051
 20
381.92976243646859
 30
0.0
 11
569.49358991300073
 21
368.79642619468842
 31
0.0
1001
ACDBBLOCKREPETAG
1070
     1
1071
        1
1005
1F68
  0
LINE
  5
1F69
  8
01
 10
568.24358991300028
 20
362.5995933014583
 30
0.0
 11
568.24358991300073
 21
385.8797624364687
 31
0.0
1001
ACDBBLOCKREPETAG
1070
     1
1071
        2
1005
1F69
  0
LINE
  5
1F6A
  8
01
  6
BYBLOCK
 10
571.74358991300051
 20
384.17976243646859
 30
0.0
 11
571.74358991300016
 21
384.37976243646858
 31
0.0
1001
ACDBBLOCKREPETAG
1070
     1
1071
        3
1005
1F6A
  0
LINE
  5
1F6B
  8
01
  6
BYBLOCK
 10
564.74358991300039
 20
384.17976243646882
 30
0.0
 11
564.74358991300039
 21
384.37976243646858
 31
0.0
1001
ACDBBLOCKREPETAG
1070
     1
1071
        4
1005
1F6B
  0
LINE
  5
1F6C
  8
01
  6
BYBLOCK
 10
564.74358991300039
 20
384.37976243646858
 30
0.0
 11
571.74358991300016
 21
384.37976243646858
 31
0.0
1001
ACDBBLOCKREPETAG
1070
     1
1071
        5
1005
1F6C
  0
LINE
  5
1F6D
  8
01
  6
BYBLOCK
 10
564.74358991300039
 20
384.17976243646859
 30
0.0
 11
571.74358991300016
 21
384.17976243646859
 31
0.0
1001
ACDBBLOCKREPETAG
1070
     1
1071
        6
1005
1F6D
  0
LINE
  5
1F6E
  8
01
 10
564.74358991300039
 20
384.17976243646882
 30
0.0
 11
566.99358991299948
 21
381.92976243646859
 31
0.0
1001
ACDBBLOCKREPETAG
1070
     1
1071
        7
1005
1F6E
  0
LINE
  5
1F6F
  8
01
 10
571.74358991300051
 20
384.17976243646859
 30
0.0
 11
569.49358991300051
 21
381.92976243646859
 31
0.0
1001
ACDBBLOCKREPETAG
1070
     1
1071
        8
1005
1F6F
  0
LINE
  5
1F70
  8
01
 10
568.24358991300051
 20
364.37976243646858
 30
0.0
 11
566.99358991299982
 21
368.79643201167539
 31
0.0
1001
ACDBBLOCKREPETAG
1070
     1
1071
        9
1005
1F70
  0
LINE
  5
1F71
  8
01
 10
568.24358991300051
 20
364.37976243646858
 30
0.0
 11
569.49358991300073
 21
368.79642619468768
 31
0.0
1001
ACDBBLOCKREPETAG
1070
     1
1071
       10
1005
1F71
  0
LINE
  5
1F72
  8
01
 10
569.79077377094166
 20
368.07975883654223
 30
0.0
 11
566.92281106961127
 21
367.27976550970112
 31
0.0
1001
ACDBBLOCKREPETAG
1070
     1
1071
       11
1005
1F72
  0
LINE
  5
1F73
  8
01
 10
569.3379602628936
 20
366.4797598901464
 30
0.0
 11
567.37562517401796
 21
365.67976445609548
 31
0.0
1001
ACDBBLOCKREPETAG
1070
     1
1071
       12
1005
1F73
  0
LINE
  5
1F74
  8
01
 10
566.92281106961127
 20
367.27976550970112
 30
0.0
 11
567.47456053341455
 21
367.09700136707312
 31
0.0
1001
ACDBBLOCKREPETAG
1070
     1
1071
       13
1005
1F74
  0
LINE
  5
1F75
  8
01
 10
568.88078842226241
 20
366.63119568658692
 30
0.0
 11
569.3379602628936
 21
366.4797598901464
 31
0.0
1001
ACDBBLOCKREPETAG
1070
     1
1071
       14
1005
1F75
  0
LINE
  5
1F76
  8
01
 10
567.37562517401796
 20
365.67976445609548
 30
0.0
 11
567.9639017490606
 21
365.36799459984343
 31
0.0
1001
ACDBBLOCKREPETAG
1070
     1
1071
       15
1005
1F76
  0
LINE
  5
1F77
  8
01
 10
569.49358991300051
 20
369.72675964097931
 30
0.0
 11
569.99358991300051
 21
369.6267584775822
 31
0.0
1001
ACDBBLOCKREPETAG
1070
     1
1071
       16
1005
1F77
  0
LINE
  5
1F78
  8
01
 10
569.32267531579191
 20
368.19252834889232
 30
0.0
 11
569.79077377094166
 21
368.07975883654223
 31
0.0
1001
ACDBBLOCKREPETAG
1070
     1
1071
       17
1005
1F78
  0
LINE
  5
1F79
  8
01
 10
569.99358991300051
 20
369.6267584775822
 30
0.0
 11
566.49358991300039
 21
368.88476820268397
 31
0.0
1001
ACDBBLOCKREPETAG
1070
     1
1071
       18
1005
1F79
  0
LINE
  5
1F7A
  8
01
 10
566.49358991300039
 20
368.88476820268397
 30
0.0
 11
567.00334524785922
 21
368.76196313913931
 31
0.0
1001
ACDBBLOCKREPETAG
1070
     1
1071
       19
1005
1F7A
  0
LINE
  5
1F7B
  8
01
 10
569.99358991300028
 20
371.2343365023961
 30
0.0
 11
566.49358991300073
 21
370.4923462274981
 31
0.0
1001
ACDBBLOCKREPETAG
1070
     1
1071
       20
1005
1F7B
  0
LINE
  5
1F7C
  8
01
 10
566.49358991300073
 20
370.4923462274981
 30
0.0
 11
566.99358991299982
 21
370.37189131987191
 31
0.0
1001
ACDBBLOCKREPETAG
1070
     1
1071
       21
1005
1F7C
  0
LINE
  5
1F7D
  8
01
 10
569.49358991300051
 20
371.33433766579338
 30
0.0
 11
569.99358991300051
 21
371.23433650239627
 31
0.0
1001
ACDBBLOCKREPETAG
1070
     1
1071
       22
1005
1F7D
  0
LINE
  5
1F7E
  8
01
 10
569.99358991300028
 20
372.84191452721012
 30
0.0
 11
566.49358991300073
 21
372.09992425231218
 31
0.0
1001
ACDBBLOCKREPETAG
1070
     1
1071
       23
1005
1F7E
  0
LINE
  5
1F7F
  8
01
 10
566.49358991300073
 20
372.09992425231218
 30
0.0
 11
566.99358991299982
 21
371.97946934468592
 31
0.0
1001
ACDBBLOCKREPETAG
1070
     1
1071
       24
1005
1F7F
  0
LINE
  5
1F80
  8
01
 10
569.49358991300051
 20
372.94191569060752
 30
0.0
 11
569.99358991300051
 21
372.84191452721012
 31
0.0
1001
ACDBBLOCKREPETAG
1070
     1
1071
       25
1005
1F80
  0
LINE
  5
1F81
  8
01
 10
569.99358991300028
 20
374.44949255202391
 30
0.0
 11
566.49358991300073
 21
373.70750227712603
 31
0.0
1001
ACDBBLOCKREPETAG
1070
     1
1071
       26
1005
1F81
  0
LINE
  5
1F82
  8
01
 10
566.49358991300073
 20
373.70750227712603
 30
0.0
 11
566.99358991299982
 21
373.5870473695
 31
0.0
1001
ACDBBLOCKREPETAG
1070
     1
1071
       27
1005
1F82
  0
LINE
  5
1F83
  8
01
 10
569.49358991300051
 20
374.54949371542131
 30
0.0
 11
569.99358991300051
 21
374.44949255202391
 31
0.0
1001
ACDBBLOCKREPETAG
1070
     1
1071
       28
1005
1F83
  0
LINE
  5
1F84
  8
01
 10
569.99358991300028
 20
376.0570705768381
 30
0.0
 11
566.49358991300073
 21
375.3150803019401
 31
0.0
1001
ACDBBLOCKREPETAG
1070
     1
1071
       29
1005
1F84
  0
LINE
  5
1F85
  8
01
 10
566.49358991300073
 20
375.3150803019401
 30
0.0
 11
566.99358991299982
 21
375.1946253943139
 31
0.0
1001
ACDBBLOCKREPETAG
1070
     1
1071
       30
1005
1F85
  0
LINE
  5
1F86
  8
01
 10
569.49358991300051
 20
376.15707174023538
 30
0.0
 11
569.99358991300051
 21
376.0570705768381
 31
0.0
1001
ACDBBLOCKREPETAG
1070
     1
1071
       31
1005
1F86
  0
LINE
  5
1F87
  8
01
 10
569.99358991300028
 20
377.66464860165189
 30
0.0
 11
566.49358991300073
 21
376.92265832675389
 31
0.0
1001
ACDBBLOCKREPETAG
1070
     1
1071
       32
1005
1F87
  0
LINE
  5
1F88
  8
01
 10
566.49358991300073
 20
376.92265832675389
 30
0.0
 11
566.99358991299982
 21
376.80220341912769
 31
0.0
1001
ACDBBLOCKREPETAG
1070
     1
1071
       33
1005
1F88
  0
LINE
  5
1F89
  8
01
 10
569.49358991300051
 20
377.76464976504923
 30
0.0
 11
569.99358991300051
 21
377.66464860165212
 31
0.0
1001
ACDBBLOCKREPETAG
1070
     1
1071
       34
1005
1F89
  0
LINE
  5
1F8A
  8
01
 10
569.99358991300028
 20
379.27222662646602
 30
0.0
 11
566.49358991300073
 21
378.53023635156802
 31
0.0
1001
ACDBBLOCKREPETAG
1070
     1
1071
       32
1005
1F87
  0
LINE
  5
1F8B
  8
01
 10
566.49358991300073
 20
378.53023635156802
 30
0.0
 11
566.99358991299982
 21
378.40978144394182
 31
0.0
1001
ACDBBLOCKREPETAG
1070
     1
1071
       33
1005
1F88
  0
LINE
  5
1F8C
  8
01
 10
569.49358991300051
 20
379.3722277898633
 30
0.0
 11
569.99358991300051
 21
379.27222662646602
 31
0.0
1001
ACDBBLOCKREPETAG
1070
     1
1071
       34
1005
1F89
  0
LINE
  5
1F8D
  8
01
 10
569.99358991300028
 20
380.87980465127981
 30
0.0
 11
566.49358991300073
 21
380.13781437638193
 31
0.0
1001
ACDBBLOCKREPETAG
1070
     1
1071
       32
1005
1F87
  0
LINE
  5
1F8E
  8
01
 10
566.49358991300073
 20
380.13781437638193
 30
0.0
 11
566.99358991299982
 21
380.01735946875579
 31
0.0
1001
ACDBBLOCKREPETAG
1070
     1
1071
       33
1005
1F88
  0
LINE
  5
1F8F
  8
01
 10
569.49358991300051
 20
380.97980581467709
 30
0.0
 11
569.99358991300051
 21
380.87980465127981
 31
0.0
1001
ACDBBLOCKREPETAG
1070
     1
1071
       34
1005
1F89
  0
LINE
  5
1F90
  8
01
  6
BYBLOCK
 10
553.30608991299948
 20
381.92976243646859
 30
0.0
 11
553.30608991300005
 21
368.79643201167352
 31
0.0
1001
ACDBBLOCKREPETAG
1070
     1
1071
        0
1005
1F90
  0
LINE
  5
1F91
  8
01
  6
BYBLOCK
 10
555.80608991300039
 20
381.92976243646859
 30
0.0
 11
555.80608991300062
 21
368.79642619468842
 31
0.0
1001
ACDBBLOCKREPETAG
1070
     1
1071
        1
1005
1F91
  0
LINE
  5
1F92
  8
01
 10
554.55608991300005
 20
362.5995933014583
 30
0.0
 11
554.55608991300062
 21
385.8797624364687
 31
0.0
1001
ACDBBLOCKREPETAG
1070
     1
1071
        2
1005
1F92
  0
LINE
  5
1F93
  8
01
  6
BYBLOCK
 10
558.05608991300039
 20
384.17976243646859
 30
0.0
 11
558.05608991300005
 21
384.37976243646858
 31
0.0
1001
ACDBBLOCKREPETAG
1070
     1
1071
        3
1005
1F93
  0
LINE
  5
1F94
  8
01
  6
BYBLOCK
 10
551.05608991300039
 20
384.17976243646882
 30
0.0
 11
551.05608991300039
 21
384.37976243646858
 31
0.0
1001
ACDBBLOCKREPETAG
1070
     1
1071
        4
1005
1F94
  0
LINE
  5
1F95
  8
01
  6
BYBLOCK
 10
551.05608991300039
 20
384.37976243646858
 30
0.0
 11
558.05608991300005
 21
384.37976243646858
 31
0.0
1001
ACDBBLOCKREPETAG
1070
     1
1071
        5
1005
1F95
  0
LINE
  5
1F96
  8
01
  6
BYBLOCK
 10
551.05608991300039
 20
384.17976243646859
 30
0.0
 11
558.05608991300005
 21
384.17976243646859
 31
0.0
1001
ACDBBLOCKREPETAG
1070
     1
1071
        6
1005
1F96
  0
LINE
  5
1F97
  8
01
 10
551.05608991300039
 20
384.17976243646882
 30
0.0
 11
553.30608991299948
 21
381.92976243646859
 31
0.0
1001
ACDBBLOCKREPETAG
1070
     1
1071
        7
1005
1F97
  0
LINE
  5
1F98
  8
01
 10
558.05608991300039
 20
384.17976243646859
 30
0.0
 11
555.80608991300039
 21
381.92976243646859
 31
0.0
1001
ACDBBLOCKREPETAG
1070
     1
1071
        8
1005
1F98
  0
LINE
  5
1F99
  8
01
 10
554.55608991300039
 20
364.37976243646858
 30
0.0
 11
553.3060899129996
 21
368.79643201167539
 31
0.0
1001
ACDBBLOCKREPETAG
1070
     1
1071
        9
1005
1F99
  0
LINE
  5
1F9A
  8
01
 10
554.55608991300039
 20
364.37976243646858
 30
0.0
 11
555.80608991300062
 21
368.79642619468768
 31
0.0
1001
ACDBBLOCKREPETAG
1070
     1
1071
       10
1005
1F9A
  0
LINE
  5
1F9B
  8
01
 10
556.10327377094166
 20
368.07975883654223
 30
0.0
 11
553.23531106961104
 21
367.27976550970112
 31
0.0
1001
ACDBBLOCKREPETAG
1070
     1
1071
       11
1005
1F9B
  0
LINE
  5
1F9C
  8
01
 10
555.65046026289338
 20
366.4797598901464
 30
0.0
 11
553.68812517401796
 21
365.67976445609548
 31
0.0
1001
ACDBBLOCKREPETAG
1070
     1
1071
       12
1005
1F9C
  0
LINE
  5
1F9D
  8
01
 10
553.23531106961104
 20
367.27976550970112
 30
0.0
 11
553.78706053341455
 21
367.09700136707312
 31
0.0
1001
ACDBBLOCKREPETAG
1070
     1
1071
       13
1005
1F9D
  0
LINE
  5
1F9E
  8
01
 10
555.19328842226219
 20
366.63119568658692
 30
0.0
 11
555.65046026289338
 21
366.4797598901464
 31
0.0
1001
ACDBBLOCKREPETAG
1070
     1
1071
       14
1005
1F9E
  0
LINE
  5
1F9F
  8
01
 10
553.68812517401796
 20
365.67976445609548
 30
0.0
 11
554.27640174906037
 21
365.36799459984343
 31
0.0
1001
ACDBBLOCKREPETAG
1070
     1
1071
       15
1005
1F9F
  0
LINE
  5
1FA0
  8
01
 10
555.80608991300039
 20
369.72675964097931
 30
0.0
 11
556.30608991300039
 21
369.6267584775822
 31
0.0
1001
ACDBBLOCKREPETAG
1070
     1
1071
       16
1005
1FA0
  0
LINE
  5
1FA1
  8
01
 10
555.6351753157918
 20
368.19252834889232
 30
0.0
 11
556.10327377094166
 21
368.07975883654223
 31
0.0
1001
ACDBBLOCKREPETAG
1070
     1
1071
       17
1005
1FA1
  0
LINE
  5
1FA2
  8
01
 10
556.30608991300039
 20
369.6267584775822
 30
0.0
 11
552.80608991300039
 21
368.88476820268397
 31
0.0
1001
ACDBBLOCKREPETAG
1070
     1
1071
       18
1005
1FA2
  0
LINE
  5
1FA3
  8
01
 10
552.80608991300039
 20
368.88476820268397
 30
0.0
 11
553.31584524785899
 21
368.76196313913931
 31
0.0
1001
ACDBBLOCKREPETAG
1070
     1
1071
       19
1005
1FA3
  0
LINE
  5
1FA4
  8
01
 10
556.30608991300005
 20
371.2343365023961
 30
0.0
 11
552.80608991300051
 21
370.4923462274981
 31
0.0
1001
ACDBBLOCKREPETAG
1070
     1
1071
       20
1005
1FA4
  0
LINE
  5
1FA5
  8
01
 10
552.80608991300051
 20
370.4923462274981
 30
0.0
 11
553.3060899129996
 21
370.37189131987191
 31
0.0
1001
ACDBBLOCKREPETAG
1070
     1
1071
       21
1005
1FA5
  0
LINE
  5
1FA6
  8
01
 10
555.80608991300039
 20
371.33433766579338
 30
0.0
 11
556.30608991300039
 21
371.23433650239627
 31
0.0
1001
ACDBBLOCKREPETAG
1070
     1
1071
       22
1005
1FA6
  0
LINE
  5
1FA7
  8
01
 10
556.30608991300005
 20
372.84191452721012
 30
0.0
 11
552.80608991300051
 21
372.09992425231218
 31
0.0
1001
ACDBBLOCKREPETAG
1070
     1
1071
       23
1005
1FA7
  0
LINE
  5
1FA8
  8
01
 10
552.80608991300051
 20
372.09992425231218
 30
0.0
 11
553.3060899129996
 21
371.97946934468592
 31
0.0
1001
ACDBBLOCKREPETAG
1070
     1
1071
       24
1005
1FA8
  0
LINE
  5
1FA9
  8
01
 10
555.80608991300039
 20
372.94191569060752
 30
0.0
 11
556.30608991300039
 21
372.84191452721012
 31
0.0
1001
ACDBBLOCKREPETAG
1070
     1
1071
       25
1005
1FA9
  0
LINE
  5
1FAA
  8
01
 10
556.30608991300005
 20
374.44949255202391
 30
0.0
 11
552.80608991300051
 21
373.70750227712603
 31
0.0
1001
ACDBBLOCKREPETAG
1070
     1
1071
       26
1005
1FAA
  0
LINE
  5
1FAB
  8
01
 10
552.80608991300051
 20
373.70750227712603
 30
0.0
 11
553.3060899129996
 21
373.5870473695
 31
0.0
1001
ACDBBLOCKREPETAG
1070
     1
1071
       27
1005
1FAB
  0
LINE
  5
1FAC
  8
01
 10
555.80608991300039
 20
374.54949371542131
 30
0.0
 11
556.30608991300039
 21
374.44949255202391
 31
0.0
1001
ACDBBLOCKREPETAG
1070
     1
1071
       28
1005
1FAC
  0
LINE
  5
1FAD
  8
01
 10
556.30608991300005
 20
376.0570705768381
 30
0.0
 11
552.80608991300051
 21
375.3150803019401
 31
0.0
1001
ACDBBLOCKREPETAG
1070
     1
1071
       29
1005
1FAD
  0
LINE
  5
1FAE
  8
01
 10
552.80608991300051
 20
375.3150803019401
 30
0.0
 11
553.3060899129996
 21
375.1946253943139
 31
0.0
1001
ACDBBLOCKREPETAG
1070
     1
1071
       30
1005
1FAE
  0
LINE
  5
1FAF
  8
01
 10
555.80608991300039
 20
376.15707174023538
 30
0.0
 11
556.30608991300039
 21
376.0570705768381
 31
0.0
1001
ACDBBLOCKREPETAG
1070
     1
1071
       31
1005
1FAF
  0
LINE
  5
1FB0
  8
01
 10
556.30608991300005
 20
377.66464860165189
 30
0.0
 11
552.80608991300051
 21
376.92265832675389
 31
0.0
1001
ACDBBLOCKREPETAG
1070
     1
1071
       32
1005
1FB0
  0
LINE
  5
1FB1
  8
01
 10
552.80608991300051
 20
376.92265832675389
 30
0.0
 11
553.3060899129996
 21
376.80220341912769
 31
0.0
1001
ACDBBLOCKREPETAG
1070
     1
1071
       33
1005
1FB1
  0
LINE
  5
1FB2
  8
01
 10
555.80608991300039
 20
377.76464976504923
 30
0.0
 11
556.30608991300039
 21
377.66464860165212
 31
0.0
1001
ACDBBLOCKREPETAG
1070
     1
1071
       34
1005
1FB2
  0
LINE
  5
1FB3
  8
01
 10
556.30608991300005
 20
379.27222662646602
 30
0.0
 11
552.80608991300051
 21
378.53023635156802
 31
0.0
1001
ACDBBLOCKREPETAG
1070
     1
1071
       32
1005
1FB0
  0
LINE
  5
1FB4
  8
01
 10
552.80608991300051
 20
378.53023635156802
 30
0.0
 11
553.3060899129996
 21
378.40978144394182
 31
0.0
1001
ACDBBLOCKREPETAG
1070
     1
1071
       33
1005
1FB1
  0
LINE
  5
1FB5
  8
01
 10
555.80608991300039
 20
379.3722277898633
 30
0.0
 11
556.30608991300039
 21
379.27222662646602
 31
0.0
1001
ACDBBLOCKREPETAG
1070
     1
1071
       34
1005
1FB2
  0
LINE
  5
1FB6
  8
01
 10
556.30608991300005
 20
380.87980465127981
 30
0.0
 11
552.80608991300051
 21
380.13781437638193
 31
0.0
1001
ACDBBLOCKREPETAG
1070
     1
1071
       32
1005
1FB0
  0
LINE
  5
1FB7
  8
01
 10
552.80608991300051
 20
380.13781437638193
 30
0.0
 11
553.3060899129996
 21
380.01735946875579
 31
0.0
1001
ACDBBLOCKREPETAG
1070
     1
1071
       33
1005
1FB1
  0
LINE
  5
1FB8
  8
01
 10
555.80608991300039
 20
380.97980581467709
 30
0.0
 11
556.30608991300039
 21
380.87980465127981
 31
0.0
1001
ACDBBLOCKREPETAG
1070
     1
1071
       34
1005
1FB2
  0
LINE
  5
1FB9
  8
01
 10
578.43109491300061
 20
409.87498190534387
 30
0.0
 11
595.13310989196816
 21
409.87498190534387
 31
0.0
  0
LINE
  5
1FBA
  8
01
 10
578.19327491300055
 20
426.87498190534382
 30
0.0
 11
595.13310989196816
 21
426.87498190534382
 31
0.0
  0
LINE
  5
1FBB
  8
01
 10
594.13310989196827
 20
411.87498190534382
 30
0.0
 11
594.13310989196827
 21
424.87498190534382
 31
0.0
  0
LINE
  5
1FBF
  8
01
  6
CONTINUOUS
 10
544.68108991300062
 20
418.37976243646858
 30
0.0
 11
544.68108991300062
 21
438.83043651641862
 31
0.0
  0
LINE
  5
1FC0
  8
01
  6
CONTINUOUS
 10
582.68108991300062
 20
418.37976243646858
 30
0.0
 11
582.68108991300062
 21
438.83043651641862
 31
0.0
  0
LINE
  5
1FC1
  8
01
  6
CONTINUOUS
 10
546.68108991300062
 20
437.8304365164185
 30
0.0
 11
580.68108991300062
 21
437.8304365164185
 31
0.0
  0
TEXT
  5
1FC7
  8
01
 10
585.95416778365222
 20
457.13454911334043
 30
0.0
 40
3.5
  1
材質：エラストマー
  0
TEXT
  5
1FC8
  8
01
 10
585.95416778365222
 20
451.301215780007
 30
0.0
 40
3.5
  1
仕上げ：ブラック
  0
LINE
  5
1FC9
  8
01
  6
CONTINUOUS
 10
549.18107991300042
 20
381.8797624364687
 30
0.0
 11
549.18107991300042
 21
355.1916565033037
 31
0.0
  0
LINE
  5
1FCA
  8
01
  6
CONTINUOUS
 10
578.18108991300062
 20
381.8797624364687
 30
0.0
 11
578.18108991300062
 21
355.1916565033037
 31
0.0
  0
LINE
  5
1FCB
  8
01
  6
CONTINUOUS
 10
551.18107991300042
 20
356.19165650330359
 30
0.0
 11
576.18108991300062
 21
356.19165650330359
 31
0.0
  0
LINE
  5
1FCF
  8
01
 10
578.18108991300062
 20
381.8797624364687
 30
0.0
 11
604.59564965857521
 21
381.8797624364687
 31
0.0
  0
LINE
  5
1FD0
  8
01
 10
563.68108991300062
 20
427.27976843646871
 30
0.0
 11
604.59564965857521
 21
427.27976843646871
 31
0.0
  0
LINE
  5
1FD1
  8
01
 10
603.59564965857521
 20
383.8797624364687
 30
0.0
 11
603.59564965857521
 21
425.2797684364686
 31
0.0
  0
TEXT
  5
1FD7
  8
01
 10
486.94380367530118
 20
414.31228850941937
 30
0.0
 40
3.5
  1
本体：亜鉛ダイキャスト
  0
TEXT
  5
1FD8
  8
01
 10
486.94380367530118
 20
408.14562184275269
 30
0.0
 40
3.5
  1
仕上げ：各種メッキ/塗装
  0
LINE
  5
1FD9
  8
01
 10
550.6875497755957
 20
393.77312563350381
 30
0.0
 11
538.57713700863474
 21
405.9456218427527
 31
0.0
  0
LINE
  5
1FDA
  8
01
 10
538.57713700863474
 20
405.9456218427527
 30
0.0
 11
486.9438036753013
 21
405.9456218427527
 31
0.0
  0
LINE
  5
1FDB
  8
01
  6
BYBLOCK
 10
551.06745473120736
 20
394.15109295800193
 30
0.0
 11
552.09814304702184
 21
392.3553010242494
 31
0.0
  0
LINE
  5
1FDC
  8
01
  6
BYBLOCK
 10
552.09814304702184
 20
392.3553010242494
 30
0.0
 11
550.30764481998392
 21
393.39515830900581
 31
0.0
  0
LINE
  5
1FDD
  8
01
  6
BYBLOCK
 10
552.09814304702184
 20
392.3553010242494
 30
0.0
 11
550.6875497755957
 21
393.77312563350381
 31
0.0
  0
TEXT
  5
1FDE
  8
01
 10
602.89564965857505
 20
398.74643210313531
 30
0.0
 40
3.5
  1
45.5
 50
90.0
  0
LINE
  5
1FDF
  8
01
  6
BYBLOCK
 10
603.05975127857505
 20
425.2797684364686
 30
0.0
 11
603.59564965857521
 21
427.27976843646871
 31
0.0
  0
LINE
  5
1FE0
  8
01
  6
BYBLOCK
 10
603.59564965857521
 20
427.27976843646871
 30
0.0
 11
604.13154803857515
 21
425.2797684364686
 31
0.0
  0
LINE
  5
1FE1
  8
01
  6
BYBLOCK
 10
603.59564965857521
 20
427.27976843646871
 30
0.0
 11
603.59564965857521
 21
425.2797684364686
 31
0.0
  0
LINE
  5
1FE2
  8
01
  6
BYBLOCK
 10
604.13154803857515
 20
383.8797624364687
 30
0.0
 11
603.59564965857521
 21
381.8797624364687
 31
0.0
  0
LINE
  5
1FE3
  8
01
  6
BYBLOCK
 10
603.59564965857521
 20
381.8797624364687
 30
0.0
 11
603.05975127857505
 21
383.8797624364687
 31
0.0
  0
LINE
  5
1FE4
  8
01
  6
BYBLOCK
 10
603.59564965857521
 20
381.8797624364687
 30
0.0
 11
603.59564965857521
 21
383.8797624364687
 31
0.0
  0
TEXT
  5
1FE5
  8
01
 10
558.23108491300047
 20
356.89165650330369
 30
0.0
 40
3.5
  1
\U+03C629
  0
LINE
  5
1FE6
  8
01
  6
BYBLOCK
 10
576.18108991300062
 20
356.72755488330358
 30
0.0
 11
578.18108991300062
 21
356.19165650330359
 31
0.0
  0
LINE
  5
1FE7
  8
01
  6
BYBLOCK
 10
578.18108991300062
 20
356.19165650330359
 30
0.0
 11
576.18108991300062
 21
355.65575812330371
 31
0.0
  0
LINE
  5
1FE8
  8
01
  6
BYBLOCK
 10
578.18108991300062
 20
356.19165650330359
 30
0.0
 11
576.18108991300062
 21
356.19165650330359
 31
0.0
  0
LINE
  5
1FE9
  8
01
  6
BYBLOCK
 10
551.18107991300042
 20
355.65575812330371
 30
0.0
 11
549.18107991300042
 21
356.19165650330359
 31
0.0
  0
LINE
  5
1FEA
  8
01
  6
BYBLOCK
 10
549.18107991300042
 20
356.19165650330359
 30
0.0
 11
551.18107991300042
 21
356.72755488330358
 31
0.0
  0
LINE
  5
1FEB
  8
01
  6
BYBLOCK
 10
549.18107991300042
 20
356.19165650330359
 30
0.0
 11
551.18107991300042
 21
356.19165650330359
 31
0.0
  0
LINE
  5
1FEC
  8
01
 10
572.98482645314709
 20
426.41893426714518
 30
0.0
 11
583.25416778365206
 21
450.60121578000701
 31
0.0
  0
LINE
  5
1FED
  8
01
 10
583.25416778365206
 20
450.60121578000701
 30
0.0
 11
622.3541677836522
 21
450.60121578000701
 31
0.0
  0
LINE
  5
1FEE
  8
01
  6
BYBLOCK
 10
573.47808996557637
 20
426.20946307343979
 30
0.0
 11
572.2030693084231
 21
424.57804976053632
 31
0.0
  0
LINE
  5
1FEF
  8
01
  6
BYBLOCK
 10
572.2030693084231
 20
424.57804976053632
 30
0.0
 11
572.4915629407177
 21
426.62840546085067
 31
0.0
  0
LINE
  5
1FF0
  8
01
  6
BYBLOCK
 10
572.2030693084231
 20
424.57804976053632
 30
0.0
 11
572.98482645314709
 21
426.41893426714518
 31
0.0
  0
TEXT
  5
1FF1
  8
01
 10
558.1477565796672
 20
438.5304365164186
 30
0.0
 40
3.5
  1
\U+03C638
  0
LINE
  5
1FF2
  8
01
  6
BYBLOCK
 10
580.68108991300062
 20
438.36633489641849
 30
0.0
 11
582.68108991300062
 21
437.8304365164185
 31
0.0
  0
LINE
  5
1FF3
  8
01
  6
BYBLOCK
 10
582.68108991300062
 20
437.8304365164185
 30
0.0
 11
580.68108991300062
 21
437.29453813641862
 31
0.0
  0
LINE
  5
1FF4
  8
01
  6
BYBLOCK
 10
582.68108991300062
 20
437.8304365164185
 30
0.0
 11
580.68108991300062
 21
437.8304365164185
 31
0.0
  0
LINE
  5
1FF5
  8
01
  6
BYBLOCK
 10
546.68108991300062
 20
437.29453813641862
 30
0.0
 11
544.68108991300062
 21
437.8304365164185
 31
0.0
  0
LINE
  5
1FF6
  8
01
  6
BYBLOCK
 10
544.68108991300062
 20
437.8304365164185
 30
0.0
 11
546.68108991300062
 21
438.36633489641849
 31
0.0
  0
LINE
  5
1FF7
  8
01
  6
BYBLOCK
 10
544.68108991300062
 20
437.8304365164185
 30
0.0
 11
546.68108991300062
 21
437.8304365164185
 31
0.0
  0
TEXT
  5
1FF8
  8
01
 10
593.43310989196812
 20
414.79164857201062
 30
0.0
 40
3.5
  1
17
 50
90.0
  0
LINE
  5
1FF9
  8
01
  6
BYBLOCK
 10
593.59721151196823
 20
424.87498190534382
 30
0.0
 11
594.13310989196827
 21
426.87498190534382
 31
0.0
  0
LINE
  5
1FFA
  8
01
  6
BYBLOCK
 10
594.13310989196827
 20
426.87498190534382
 30
0.0
 11
594.66900827196821
 21
424.87498190534382
 31
0.0
  0
LINE
  5
1FFB
  8
01
  6
BYBLOCK
 10
594.13310989196827
 20
426.87498190534382
 30
0.0
 11
594.13310989196827
 21
424.87498190534382
 31
0.0
  0
LINE
  5
1FFC
  8
01
  6
BYBLOCK
 10
594.66900827196821
 20
411.87498190534382
 30
0.0
 11
594.13310989196827
 21
409.87498190534387
 31
0.0
  0
LINE
  5
1FFD
  8
01
  6
BYBLOCK
 10
594.13310989196827
 20
409.87498190534387
 30
0.0
 11
593.59721151196823
 21
411.87498190534382
 31
0.0
  0
LINE
  5
1FFE
  8
01
  6
BYBLOCK
 10
594.13310989196827
 20
409.87498190534387
 30
0.0
 11
594.13310989196827
 21
411.87498190534382
 31
0.0
  0
LINE
  5
1FFF
  8
01
 10
662.53902927815068
 20
391.36046512754081
 30
0.0
 11
680.11200571118059
 21
402.55980868767909
 31
0.0
1001
ACAD
1000
DSTYLE
1002
{
1070
   341
1005
0
1002
}
  0
LINE
  5
2000
  8
01
 10
680.11200571118059
 20
402.55980868767909
 30
0.0
 11
682.81200571118075
 21
402.55980868767909
 31
0.0
1001
ACAD
1000
DSTYLE
1002
{
1070
   341
1005
0
1002
}
  0
TEXT
  5
2001
  8
01
 10
635.61442324633379
 20
341.46525068669217
 30
0.0
 40
3.5
  1
\U+03C610
  0
LINE
  5
2002
  8
01
  6
BYBLOCK
 10
650.68108991300062
 20
340.22935230669219
 30
0.0
 11
648.68108991300062
 21
340.76525068669218
 31
0.0
  0
LINE
  5
2003
  8
01
  6
BYBLOCK
 10
648.68108991300062
 20
340.76525068669218
 30
0.0
 11
650.68108991300062
 21
341.30114906669218
 31
0.0
  0
LINE
  5
2004
  8
01
  6
BYBLOCK
 10
648.68108991300062
 20
340.76525068669218
 30
0.0
 11
650.68108991300062
 21
340.76525068669218
 31
0.0
  0
LINE
  5
2005
  8
01
  6
BYBLOCK
 10
656.68108991300062
 20
341.30114906669218
 30
0.0
 11
658.68108991300062
 21
340.76525068669218
 31
0.0
  0
LINE
  5
2006
  8
01
  6
BYBLOCK
 10
658.68108991300062
 20
340.76525068669218
 30
0.0
 11
656.68108991300062
 21
340.22935230669219
 31
0.0
  0
LINE
  5
2007
  8
01
  6
BYBLOCK
 10
658.68108991300062
 20
340.76525068669218
 30
0.0
 11
656.68108991300062
 21
340.76525068669218
 31
0.0
  0
TEXT
  5
2008
  8
01
 10
632.56820209489956
 20
388.54643110313538
 30
0.0
 40
3.5
  1
20
 50
90.0
  0
LINE
  5
2009
  8
01
  6
BYBLOCK
 10
632.73230371489979
 20
399.87976643646869
 30
0.0
 11
633.26820209489983
 21
401.87976643646863
 31
0.0
  0
LINE
  5
200A
  8
01
  6
BYBLOCK
 10
633.26820209489983
 20
401.87976643646863
 30
0.0
 11
633.80410047489988
 21
399.87976643646869
 31
0.0
  0
LINE
  5
200B
  8
01
  6
BYBLOCK
 10
633.26820209489983
 20
401.87976643646863
 30
0.0
 11
633.26820209489983
 21
399.87976643646869
 31
0.0
  0
LINE
  5
200C
  8
01
  6
BYBLOCK
 10
633.80410047489988
 20
383.8797624364687
 30
0.0
 11
633.26820209489983
 21
381.8797624364687
 31
0.0
  0
LINE
  5
200D
  8
01
  6
BYBLOCK
 10
633.26820209489983
 20
381.8797624364687
 30
0.0
 11
632.73230371489979
 21
383.8797624364687
 31
0.0
  0
LINE
  5
200E
  8
01
  6
BYBLOCK
 10
633.26820209489983
 20
381.8797624364687
 30
0.0
 11
633.26820209489983
 21
383.8797624364687
 31
0.0
  0
TEXT
  5
200F
  8
01
 10
623.59164264473088
 20
373.54643110313538
 30
0.0
 40
3.5
  1
50
 50
90.0
  0
LINE
  5
2010
  8
01
  6
BYBLOCK
 10
624.8275410247312
 20
353.8797624364687
 30
0.0
 11
624.29164264473116
 21
351.8797624364687
 31
0.0
  0
LINE
  5
2011
  8
01
  6
BYBLOCK
 10
624.29164264473116
 20
351.8797624364687
 30
0.0
 11
623.75574426473111
 21
353.8797624364687
 31
0.0
  0
LINE
  5
2012
  8
01
  6
BYBLOCK
 10
624.29164264473116
 20
351.8797624364687
 30
0.0
 11
624.29164264473116
 21
353.8797624364687
 31
0.0
  0
LINE
  5
2013
  8
01
  6
BYBLOCK
 10
623.75574426473111
 20
399.87976643646869
 30
0.0
 11
624.29164264473116
 21
401.87976643646863
 31
0.0
  0
LINE
  5
2014
  8
01
  6
BYBLOCK
 10
624.29164264473116
 20
401.87976643646863
 30
0.0
 11
624.8275410247312
 21
399.87976643646869
 31
0.0
  0
LINE
  5
2015
  8
01
  6
BYBLOCK
 10
624.29164264473116
 20
401.87976643646863
 30
0.0
 11
624.29164264473116
 21
399.87976643646869
 31
0.0
  0
TEXT
  5
2016
  8
01
 10
581.5798129373527
 20
475.75876562763222
 30
0.0
 40
3.5
  1
\U+220518.25
 50
332.12073426711538
  0
LINE
  5
2017
  8
01
  6
BYBLOCK
 10
570.22971754998639
 20
481.577424953888
 30
0.0
 11
571.74699594150411
 21
480.16850573820528
 31
0.0
  0
LINE
  5
2018
  8
01
  6
BYBLOCK
 10
571.74699594150411
 20
480.16850573820528
 30
0.0
 11
569.72853470408893
 21
480.63002638426451
 31
0.0
  0
LINE
  5
2019
  8
01
  6
BYBLOCK
 10
571.74699594150411
 20
480.16850573820528
 30
0.0
 11
569.9791261270376
 21
481.10372566907631
 31
0.0
  0
LINE
  5
201A
  8
01
  6
BYBLOCK
 10
557.1324622760153
 20
487.2934683917199
 30
0.0
 11
555.61518388449747
 21
488.7023876074025
 31
0.0
  0
LINE
  5
201B
  8
01
  6
BYBLOCK
 10
555.61518388449747
 20
488.7023876074025
 30
0.0
 11
557.63364512191265
 21
488.24086696134327
 31
0.0
  0
LINE
  5
201C
  8
01
  6
BYBLOCK
 10
555.61518388449747
 20
488.7023876074025
 30
0.0
 11
557.38305369896409
 21
487.76716767653159
 31
0.0
  0
TEXT
  5
201D
  8
01
 10
549.91896163270917
 20
505.54838494979867
 30
0.0
 40
3.5
  1
120\U+00B0
 50
19.51974699742836
  0
LINE
  5
201E
  8
01
  6
BYBLOCK
 10
540.50269103933238
 20
486.41116140519722
 30
0.0
 11
539.88322484179605
 21
484.43544667280378
 31
0.0
  0
LINE
  5
201F
  8
01
  6
BYBLOCK
 10
539.88322484179605
 20
484.43544667280378
 30
0.0
 11
539.43184094861886
 21
486.45619892250357
 31
0.0
  0
LINE
  5
2020
  8
01
  6
BYBLOCK
 10
539.88322484179605
 20
484.43544667280378
 30
0.0
 11
539.96726599397573
 21
486.4336801638504
 31
0.0
  0
LINE
  5
2021
  8
01
  6
BYBLOCK
 10
574.05569161219682
 20
506.44628842350193
 30
0.0
 11
575.5800224486029
 21
505.04500238030141
 31
0.0
  0
LINE
  5
2022
  8
01
  6
BYBLOCK
 10
575.5800224486029
 20
505.04500238030141
 30
0.0
 11
573.55927020095066
 21
505.49638628264569
 31
0.0
  0
LINE
  5
2023
  8
01
  6
BYBLOCK
 10
575.5800224486029
 20
505.04500238030141
 30
0.0
 11
573.8074809065738
 21
505.97133735307381
 31
0.0
  0
LINE
  5
2024
  8
01
 10
595.81710684125073
 20
366.49971952022651
 30
0.0
 11
590.0429436401796
 21
344.52369319074728
 31
0.0
1001
ACAD
1000
DSTYLE
1002
{
1070
   341
1005
0
1002
}
  0
LINE
  5
2025
  8
01
 10
590.0429436401796
 20
344.52369319074728
 30
0.0
 11
587.34294364017956
 21
344.52369319074728
 31
0.0
1001
ACAD
1000
DSTYLE
1002
{
1070
   341
1005
0
1002
}
  0
VIEWPORT
  5
1076
 67
     1
  8
0
 10
-3.7462653884696229
 20
9.2162530290966203
 30
0.0
 40
588.07109302331946
 41
270.38522588522272
 68
     1
 69
     1
1001
ACAD
1000
MVIEW
1002
{
1070
    16
1010
0.0
1020
0.0
1030
0.0
1010
0.0
1020
0.0
1030
1.0
1040
0.0
1040
270.38522588522272
1040
-3.7462653884696229
1040
9.2162530290966203
1040
50.0
1040
0.0
1040
0.0
1070
     0
1070
   100
1070
     1
1070
     1
1070
     0
1070
     0
1070
     0
1070
     0
1040
0.0
1040
0.0
1040
0.0
1040
10.0
1040
10.0
1040
10.0
1040
10.0
1070
     0
1002
{
1002
}
1002
}
  0
ENDSEC
  0
EOF
