  0
SECTION
  2
HEADER
  9
$ACADVER
  1
AC1012
  9
$DWGCODEPAGE
  3
ansi_932
  9
$INSBASE
 10
0.0
 20
0.0
 30
0.0
  9
$EXTMIN
 10
-1099.171578878948
 20
-1127.891681809046
 30
0.0
  9
$EXTMAX
 10
-520.5797518323691
 20
-747.307757503626
 30
0.0
  9
$LIMMIN
 10
0.0
 20
0.0
  9
$LIMMAX
 10
420.0
 20
297.0
  9
$ORTHOMODE
 70
     0
  9
$REGENMODE
 70
     1
  9
$FILLMODE
 70
     1
  9
$QTEXTMODE
 70
     0
  9
$MIRRTEXT
 70
     1
  9
$DRAGMODE
 70
     2
  9
$LTSCALE
 40
0.5
  9
$OSMODE
 70
 14463
  9
$ATTMODE
 70
     1
  9
$TEXTSIZE
 40
4.0
  9
$TRACEWID
 40
1.0
  9
$TEXTSTYLE
  7
STANDARD
  9
$CLAYER
  8
1TEXT
  9
$CELTYPE
  6
BYLAYER
  9
$CECOLOR
 62
   256
  9
$CELTSCALE
 40
1.0
  9
$DELOBJ
 70
     1
  9
$DISPSILH
 70
     0
  9
$DIMSCALE
 40
1.3
  9
$DIMASZ
 40
2.0
  9
$DIMEXO
 40
0.0
  9
$DIMDLI
 40
7.0
  9
$DIMRND
 40
0.0
  9
$DIMDLE
 40
0.0
  9
$DIMEXE
 40
1.0
  9
$DIMTP
 40
0.0
  9
$DIMTM
 40
0.0
  9
$DIMTXT
 40
3.5
  9
$DIMCEN
 40
0.0
  9
$DIMTSZ
 40
0.0
  9
$DIMTOL
 70
     0
  9
$DIMLIM
 70
     0
  9
$DIMTIH
 70
     0
  9
$DIMTOH
 70
     0
  9
$DIMSE1
 70
     0
  9
$DIMSE2
 70
     0
  9
$DIMTAD
 70
     1
  9
$DIMZIN
 70
     8
  9
$DIMBLK
  1

  9
$DIMASO
 70
     1
  9
$DIMSHO
 70
     1
  9
$DIMPOST
  1
 
  9
$DIMAPOST
  1

  9
$DIMALT
 70
     0
  9
$DIMALTD
 70
     2
  9
$DIMALTF
 40
25.4
  9
$DIMLFAC
 40
1.0
  9
$DIMTOFL
 70
     1
  9
$DIMTVP
 40
0.0
  9
$DIMTIX
 70
     0
  9
$DIMSOXD
 70
     0
  9
$DIMSAH
 70
     1
  9
$DIMBLK1
  1
OPEN30
  9
$DIMBLK2
  1
OPEN30
  9
$DIMSTYLE
  2
NEWX10
  9
$DIMCLRD
 70
   256
  9
$DIMCLRE
 70
   256
  9
$DIMCLRT
 70
   201
  9
$DIMTFAC
 40
0.7
  9
$DIMGAP
 40
0.7
  9
$DIMJUST
 70
     0
  9
$DIMSD1
 70
     0
  9
$DIMSD2
 70
     0
  9
$DIMTOLJ
 70
     1
  9
$DIMTZIN
 70
     8
  9
$DIMALTZ
 70
     0
  9
$DIMALTTZ
 70
     0
  9
$DIMFIT
 70
     2
  9
$DIMUPT
 70
     0
  9
$DIMUNIT
 70
     2
  9
$DIMDEC
 70
     2
  9
$DIMTDEC
 70
     4
  9
$DIMALTU
 70
     2
  9
$DIMALTTD
 70
     2
  9
$DIMTXSTY
  7
STANDARD
  9
$DIMAUNIT
 70
     0
  9
$LUNITS
 70
     2
  9
$LUPREC
 70
     4
  9
$SKETCHINC
 40
1.0
  9
$FILLETRAD
 40
0.0
  9
$AUNITS
 70
     0
  9
$AUPREC
 70
     2
  9
$MENU
  1
acad
  9
$ELEVATION
 40
0.0
  9
$PELEVATION
 40
0.0
  9
$THICKNESS
 40
0.0
  9
$LIMCHECK
 70
     0
  9
$CHAMFERA
 40
10.0
  9
$CHAMFERB
 40
10.0
  9
$CHAMFERC
 40
20.0
  9
$CHAMFERD
 40
0.0
  9
$SKPOLY
 70
     0
  9
$TDCREATE
 40
2451283.684294988
  9
$TDUPDATE
 40
2458240.72209081
  9
$TDINDWG
 40
0.4362036227
  9
$TDUSRTIMER
 40
0.4362036227
  9
$USRTIMER
 70
     1
  9
$ANGBASE
 50
0.0
  9
$ANGDIR
 70
     0
  9
$PDMODE
 70
     0
  9
$PDSIZE
 40
0.0
  9
$PLINEWID
 40
0.0
  9
$COORDS
 70
     2
  9
$SPLFRAME
 70
     0
  9
$SPLINETYPE
 70
     6
  9
$SPLINESEGS
 70
     8
  9
$ATTDIA
 70
     0
  9
$ATTREQ
 70
     1
  9
$HANDLING
 70
     1
  9
$HANDSEED
  5
2189
  9
$SURFTAB1
 70
     6
  9
$SURFTAB2
 70
     6
  9
$SURFTYPE
 70
     6
  9
$SURFU
 70
     6
  9
$SURFV
 70
     6
  9
$UCSNAME
  2

  9
$UCSORG
 10
0.0
 20
0.0
 30
0.0
  9
$UCSXDIR
 10
1.0
 20
0.0
 30
0.0
  9
$UCSYDIR
 10
0.0
 20
1.0
 30
0.0
  9
$PUCSNAME
  2

  9
$PUCSORG
 10
0.0
 20
0.0
 30
0.0
  9
$PUCSXDIR
 10
1.0
 20
0.0
 30
0.0
  9
$PUCSYDIR
 10
0.0
 20
1.0
 30
0.0
  9
$USERI1
 70
     0
  9
$USERI2
 70
     0
  9
$USERI3
 70
     0
  9
$USERI4
 70
     0
  9
$USERI5
 70
     0
  9
$USERR1
 40
0.0
  9
$USERR2
 40
0.0
  9
$USERR3
 40
0.0
  9
$USERR4
 40
0.0
  9
$USERR5
 40
0.0
  9
$WORLDVIEW
 70
     1
  9
$SHADEDGE
 70
     3
  9
$SHADEDIF
 70
    70
  9
$TILEMODE
 70
     1
  9
$MAXACTVP
 70
    48
  9
$PINSBASE
 10
0.0
 20
0.0
 30
0.0
  9
$PLIMCHECK
 70
     0
  9
$PEXTMIN
 10
1.000000000000000E+20
 20
1.000000000000000E+20
 30
1.000000000000000E+20
  9
$PEXTMAX
 10
-1.000000000000000E+20
 20
-1.000000000000000E+20
 30
-1.000000000000000E+20
  9
$PLIMMIN
 10
0.0
 20
0.0
  9
$PLIMMAX
 10
420.0
 20
297.0
  9
$UNITMODE
 70
     0
  9
$VISRETAIN
 70
     1
  9
$PLINEGEN
 70
     0
  9
$PSLTSCALE
 70
     1
  9
$TREEDEPTH
 70
  3020
  9
$PICKSTYLE
 70
     0
  9
$CMLSTYLE
  2
STANDARD
  9
$CMLJUST
 70
     0
  9
$CMLSCALE
 40
20.0
  9
$SAVEIMAGES
 70
     1
  0
ENDSEC
  0
SECTION
  2
CLASSES
  0
CLASS
  1
DICTIONARYVAR
  2
AcDbDictionaryVar
  3
ObjectDBX Classes
 90
        0
280
     0
281
     0
  0
CLASS
  1
HATCH
  2
AcDbHatch
  3
ObjectDBX Classes
 90
    32768
280
     0
281
     1
  0
CLASS
  1
LWPOLYLINE
  2
AcDbPolyline
  3
ObjectDBX Classes
 90
    32768
280
     0
281
     1
  0
CLASS
  1
IDBUFFER
  2
AcDbIdBuffer
  3
ObjectDBX Classes
 90
    32768
280
     0
281
     0
  0
CLASS
  1
ACDBDICTIONARYWDFLT
  2
AcDbDictionaryWithDefault
  3
ObjectDBX Classes
 90
    32768
280
     0
281
     0
  0
CLASS
  1
TABLESTYLE
  2
AcDbTableStyle
  3
ObjectDBX Classes
 90
     4095
280
     0
281
     0
  0
CLASS
  1
ACDBPLACEHOLDER
  2
AcDbPlaceHolder
  3
ObjectDBX Classes
 90
        0
280
     0
281
     0
  0
CLASS
  1
LAYOUT
  2
AcDbLayout
  3
ObjectDBX Classes
 90
        0
280
     0
281
     0
  0
CLASS
  1
MATERIAL
  2
AcDbMaterial
  3
ObjectDBX Classes
 90
     1153
280
     0
281
     0
  0
CLASS
  1
VISUALSTYLE
  2
AcDbVisualStyle
  3
ObjectDBX Classes
 90
     4095
280
     0
281
     0
  0
CLASS
  1
SCALE
  2
AcDbScale
  3
ObjectDBX Classes
 90
     1153
280
     0
281
     0
  0
CLASS
  1
MLEADERSTYLE
  2
AcDbMLeaderStyle
  3
ACDB_MLEADERSTYLE_CLASS
 90
     4095
280
     0
281
     0
  0
CLASS
  1
CELLSTYLEMAP
  2
AcDbCellStyleMap
  3
ObjectDBX Classes
 90
     1152
280
     0
281
     0
  0
CLASS
  1
SORTENTSTABLE
  2
AcDbSortentsTable
  3
ObjectDBX Classes
 90
    32768
280
     0
281
     0
  0
CLASS
  1
SUN
  2
AcDbSun
  3
SCENEOE
 90
     1153
280
     0
281
     0
  0
CLASS
  1
XRECORD
  2
AcDbXrecord
  3
ObjectDBX Classes
 90
    32768
280
     0
281
     0
  0
ENDSEC
  0
SECTION
  2
TABLES
  0
TABLE
  2
VPORT
  5
8
330
0
100
AcDbSymbolTable
 70
     1
  0
VPORT
  5
14D5
330
8
100
AcDbSymbolTableRecord
100
AcDbViewportTableRecord
  2
*ACTIVE
 70
     0
 10
0.0
 20
0.0
 11
1.0
 21
1.0
 12
-809.8756653556585
 22
-937.5997196563358
 13
0.0
 23
0.0
 14
10.0
 24
10.0
 15
10.0
 25
10.0
 16
0.0
 26
0.0
 36
1.0
 17
0.0
 27
0.0
 37
0.0
 40
408.6269503068717
 41
1.871481028151775
 42
50.0
 43
0.0
 44
0.0
 50
0.0
 51
0.0
 71
    16
 72
   100
 73
     1
 74
     1
 75
     0
 76
     0
 77
     0
 78
     0
1001
ACAD_NAV_VCDISPLAY
1070
     3
  0
ENDTAB
  0
TABLE
  2
LTYPE
  5
5
330
0
100
AcDbSymbolTable
 70
     5
  0
LTYPE
  5
12
330
5
100
AcDbSymbolTableRecord
100
AcDbLinetypeTableRecord
  2
BYBLOCK
 70
     0
  3

 72
    65
 73
     0
 40
0.0
  0
LTYPE
  5
13
330
5
100
AcDbSymbolTableRecord
100
AcDbLinetypeTableRecord
  2
BYLAYER
 70
     0
  3

 72
    65
 73
     0
 40
0.0
  0
LTYPE
  5
14
330
5
100
AcDbSymbolTableRecord
100
AcDbLinetypeTableRecord
  2
CONTINUOUS
 70
     0
  3
Solid line
 72
    65
 73
     0
 40
0.0
  0
LTYPE
  5
26
330
5
100
AcDbSymbolTableRecord
100
AcDbLinetypeTableRecord
  2
CENTER2
 70
     0
  3
Center (.5x) ___ _ ___ _ ___ _ ___ _ ___ _ ___
 72
    65
 73
     4
 40
28.575
 49
19.05
 74
     0
 49
-3.175
 74
     0
 49
3.175
 74
     0
 49
-3.175
 74
     0
  0
LTYPE
  5
27
330
5
100
AcDbSymbolTableRecord
100
AcDbLinetypeTableRecord
  2
HIDDEN
 70
     0
  3
Hidden __ __ __ __ __ __ __ __ __ __ __ __ __ _
 72
    65
 73
     2
 40
9.524999999999999
 49
6.35
 74
     0
 49
-3.175
 74
     0
  0
LTYPE
  5
EF3
330
5
100
AcDbSymbolTableRecord
100
AcDbLinetypeTableRecord
  2
A3WAKUDAKE|CENTER2
 70
    48
  3
Center (.5x) ___ _ ___ _ ___ _ ___ _ ___ _ ___
 72
    65
 73
     4
 40
28.575
 49
19.05
 74
     0
 49
-3.175
 74
     0
 49
3.175
 74
     0
 49
-3.175
 74
     0
  0
LTYPE
  5
1368
330
5
100
AcDbSymbolTableRecord
100
AcDbLinetypeTableRecord
  2
XREF1|CENTER2
 70
    48
  3
Center (.5x) ___ _ ___ _ ___ _ ___ _ ___ _ ___
 72
    65
 73
     4
 40
28.575
 49
19.05
 74
     0
 49
-3.175
 74
     0
 49
3.175
 74
     0
 49
-3.175
 74
     0
  0
ENDTAB
  0
TABLE
  2
LAYER
  5
2
102
{ACAD_XDICTIONARY
360
14A1
102
}
330
0
100
AcDbSymbolTable
 70
    11
  0
LAYER
  5
E
102
{ACAD_XDICTIONARY
360
1418
102
}
330
2
100
AcDbSymbolTableRecord
100
AcDbLayerTableRecord
  2
0
 70
     0
 62
     7
  6
CONTINUOUS
  0
LAYER
  5
29
102
{ACAD_XDICTIONARY
360
141A
102
}
330
2
100
AcDbSymbolTableRecord
100
AcDbLayerTableRecord
  2
1CENTER
 70
     0
 62
     7
  6
CENTER2
  0
LAYER
  5
2A
102
{ACAD_XDICTIONARY
360
141C
102
}
330
2
100
AcDbSymbolTableRecord
100
AcDbLayerTableRecord
  2
1DIM
 70
     0
 62
     7
  6
CONTINUOUS
  0
LAYER
  5
2E
102
{ACAD_XDICTIONARY
360
1424
102
}
330
2
100
AcDbSymbolTableRecord
100
AcDbLayerTableRecord
  2
1HATCH
 70
     0
 62
     7
  6
CONTINUOUS
  0
LAYER
  5
2F
102
{ACAD_XDICTIONARY
360
1426
102
}
330
2
100
AcDbSymbolTableRecord
100
AcDbLayerTableRecord
  2
1HIDDEN
 70
     0
 62
     7
  6
HIDDEN
  0
LAYER
  5
31
102
{ACAD_XDICTIONARY
360
142A
102
}
330
2
100
AcDbSymbolTableRecord
100
AcDbLayerTableRecord
  2
1TEXT
 70
     0
 62
     7
  6
CONTINUOUS
  0
LAYER
  5
211
102
{ACAD_XDICTIONARY
360
1436
102
}
330
2
100
AcDbSymbolTableRecord
100
AcDbLayerTableRecord
  2
01
 70
     0
 62
     1
  6
CONTINUOUS
  0
LAYER
  5
EDC
102
{ACAD_XDICTIONARY
360
144C
102
}
330
2
100
AcDbSymbolTableRecord
100
AcDbLayerTableRecord
  2
A3WAKUDAKE|THICK
 70
    48
 62
     7
  6
CONTINUOUS
  0
LAYER
  5
EDD
102
{ACAD_XDICTIONARY
360
144E
102
}
330
2
100
AcDbSymbolTableRecord
100
AcDbLayerTableRecord
  2
A3WAKUDAKE|POINT
 70
    48
 62
     7
  6
CONTINUOUS
  0
LAYER
  5
EE1
102
{ACAD_XDICTIONARY
360
1450
102
}
330
2
100
AcDbSymbolTableRecord
100
AcDbLayerTableRecord
  2
A3WAKUDAKE|1CENTER
 70
    48
 62
     7
  6
A3WAKUDAKE|CENTER2
  0
LAYER
  5
EF2
102
{ACAD_XDICTIONARY
360
1452
102
}
330
2
100
AcDbSymbolTableRecord
100
AcDbLayerTableRecord
  2
A3WAKUDAKE|0-6
 70
    48
 62
     7
  6
CONTINUOUS
  0
ENDTAB
  0
TABLE
  2
STYLE
  5
3
330
0
100
AcDbSymbolTable
 70
     3
  0
STYLE
  5
F
330
3
100
AcDbSymbolTableRecord
100
AcDbTextStyleTableRecord
  2
STANDARD
 70
     0
 40
0.0
 41
1.0
 50
0.0
 71
     0
 42
4.0
  3
txt.shx
  4
extfont.shx
  0
STYLE
  5
15C6
330
3
100
AcDbSymbolTableRecord
100
AcDbTextStyleTableRecord
  2
A3WAKUDAKE|STANDARD
 70
    48
 40
0.0
 41
1.0
 50
0.0
 71
     0
 42
4.0
  3
romans.shx
  4
extfont.shx
  0
STYLE
  5
15EE
330
3
100
AcDbSymbolTableRecord
100
AcDbTextStyleTableRecord
  2
XREF1|STANDARD
 70
    48
 40
0.0
 41
1.0
 50
0.0
 71
     0
 42
4.0
  3
romans.shx
  4
extfont.shx
  0
ENDTAB
  0
TABLE
  2
VIEW
  5
6
330
0
100
AcDbSymbolTable
 70
     0
  0
ENDTAB
  0
TABLE
  2
UCS
  5
7
330
0
100
AcDbSymbolTable
 70
     0
  0
ENDTAB
  0
TABLE
  2
APPID
  5
9
330
0
100
AcDbSymbolTable
 70
    14
  0
APPID
  5
10
330
9
100
AcDbSymbolTableRecord
100
AcDbRegAppTableRecord
  2
ACAD
 70
     0
  0
APPID
  5
21
330
9
100
AcDbSymbolTableRecord
100
AcDbRegAppTableRecord
  2
DRAWINGVARIABLESXDATA
 70
     0
  0
APPID
  5
4C
330
9
100
AcDbSymbolTableRecord
100
AcDbRegAppTableRecord
  2
CONTENTTABDATA
 70
     0
  0
APPID
  5
4D
330
9
100
AcDbSymbolTableRecord
100
AcDbRegAppTableRecord
  2
CONTENTCURRENTTAB
 70
     0
  0
APPID
  5
25C
330
9
100
AcDbSymbolTableRecord
100
AcDbRegAppTableRecord
  2
CONTENTBLOCKICON
 70
     0
  0
APPID
  5
25D
330
9
100
AcDbSymbolTableRecord
100
AcDbRegAppTableRecord
  2
CONTENTBLOCKDESCRIPTION
 70
     0
  0
APPID
  5
1366
330
9
100
AcDbSymbolTableRecord
100
AcDbRegAppTableRecord
  2
CONTENTLONGBLOCKNAME
 70
     0
  0
APPID
  5
1383
330
9
100
AcDbSymbolTableRecord
100
AcDbRegAppTableRecord
  2
ACAD_PSEXT
 70
     0
  0
APPID
  5
1405
330
9
100
AcDbSymbolTableRecord
100
AcDbRegAppTableRecord
  2
ACAD_MLEADERVER
 70
     0
  0
APPID
  5
14F6
330
9
100
AcDbSymbolTableRecord
100
AcDbRegAppTableRecord
  2
ACAD_NAV_VCDISPLAY
 70
     0
  0
APPID
  5
151B
330
9
100
AcDbSymbolTableRecord
100
AcDbRegAppTableRecord
  2
ACAD_EXEMPT_FROM_CAD_STAND
 70
     0
  0
APPID
  5
156A
330
9
100
AcDbSymbolTableRecord
100
AcDbRegAppTableRecord
  2
ACLAYERTOOLS
 70
     0
  0
APPID
  5
1624
330
9
100
AcDbSymbolTableRecord
100
AcDbRegAppTableRecord
  2
ACADANNOTATIVE
 70
     0
  0
APPID
  5
1625
330
9
100
AcDbSymbolTableRecord
100
AcDbRegAppTableRecord
  2
ACDBBLOCKREPETAG
 70
     0
  0
ENDTAB
  0
TABLE
  2
DIMSTYLE
  5
A
330
0
100
AcDbSymbolTable
 70
     1
  0
DIMSTYLE
105
48
330
A
100
AcDbSymbolTableRecord
100
AcDbDimStyleTableRecord
  2
NEWX10
 70
     0
  3
 
  4

  5

  6
OPEN30
  7
OPEN30
 40
1.0
 41
2.0
 42
0.0
 43
7.0
 44
1.0
 45
0.0
 46
0.0
 47
0.0
 48
0.0
140
3.5
141
0.0
142
0.0
143
25.4
144
1.0
145
0.0
146
0.7
147
0.7
 71
     0
 72
     0
 73
     0
 74
     0
 75
     0
 76
     0
 77
     1
 78
     8
170
     0
171
     2
172
     1
173
     1
174
     0
175
     0
176
   256
177
   256
178
   201
270
     2
271
     2
272
     4
273
     2
274
     2
340
F
275
     0
280
     0
281
     0
282
     0
283
     1
284
     8
285
     0
286
     0
287
     2
288
     0
  0
ENDTAB
  0
TABLE
  2
BLOCK_RECORD
  5
1
330
0
100
AcDbSymbolTable
 70
    10
  0
BLOCK_RECORD
  5
18
330
1
100
AcDbSymbolTableRecord
100
AcDbBlockTableRecord
  2
*MODEL_SPACE
  0
BLOCK_RECORD
  5
15
330
1
100
AcDbSymbolTableRecord
100
AcDbBlockTableRecord
  2
*PAPER_SPACE
  0
BLOCK_RECORD
  5
42
330
1
100
AcDbSymbolTableRecord
100
AcDbBlockTableRecord
  2
_OPEN30
  0
BLOCK_RECORD
  5
ED9
330
1
100
AcDbSymbolTableRecord
100
AcDbBlockTableRecord
  2
A3WAKUDAKE
  0
BLOCK_RECORD
  5
1363
330
1
100
AcDbSymbolTableRecord
100
AcDbBlockTableRecord
  2
XREF1
  0
BLOCK_RECORD
  5
1676
330
1
100
AcDbSymbolTableRecord
100
AcDbBlockTableRecord
  2
A3WAKUKAWAJUN2017_HYOUDAI_
  0
BLOCK_RECORD
  5
1FE9
330
1
100
AcDbSymbolTableRecord
100
AcDbBlockTableRecord
  2
*X29
  0
BLOCK_RECORD
  5
2037
330
1
100
AcDbSymbolTableRecord
100
AcDbBlockTableRecord
  2
*X30
  0
BLOCK_RECORD
  5
2089
330
1
100
AcDbSymbolTableRecord
100
AcDbBlockTableRecord
  2
*X31
  0
BLOCK_RECORD
  5
20DA
330
1
100
AcDbSymbolTableRecord
100
AcDbBlockTableRecord
  2
*X32
  0
BLOCK_RECORD
  5
2117
330
1
100
AcDbSymbolTableRecord
100
AcDbBlockTableRecord
  2
*X33
  0
BLOCK_RECORD
  5
2157
330
1
100
AcDbSymbolTableRecord
100
AcDbBlockTableRecord
  2
*X34
  0
ENDTAB
  0
ENDSEC
  0
SECTION
  2
BLOCKS
  0
BLOCK
  5
19
330
18
100
AcDbEntity
  8
0
100
AcDbBlockBegin
  2
*MODEL_SPACE
 70
     0
 10
0.0
 20
0.0
 30
0.0
  3
*MODEL_SPACE
  1

  0
ENDBLK
  5
1A
330
18
100
AcDbEntity
  8
0
100
AcDbBlockEnd
  0
BLOCK
  5
16
330
15
100
AcDbEntity
 67
     1
  8
0
100
AcDbBlockBegin
  2
*PAPER_SPACE
 70
     0
 10
0.0
 20
0.0
 30
0.0
  3
*PAPER_SPACE
  1

  0
ENDBLK
  5
17
330
15
100
AcDbEntity
 67
     1
  8
0
100
AcDbBlockEnd
  0
BLOCK
  5
43
330
42
100
AcDbEntity
  8
0
100
AcDbBlockBegin
  2
_OPEN30
 70
     0
 10
0.0
 20
0.0
 30
0.0
  3
_OPEN30
  1

  0
LINE
  5
44
330
42
100
AcDbEntity
  8
0
  6
BYBLOCK
 62
     0
100
AcDbLine
 10
-1.0
 20
0.26794919
 30
0.0
 11
0.0
 21
0.0
 31
0.0
  0
LINE
  5
45
330
42
100
AcDbEntity
  8
0
  6
BYBLOCK
 62
     0
100
AcDbLine
 10
0.0
 20
0.0
 30
0.0
 11
-1.0
 21
-0.26794919
 31
0.0
  0
LINE
  5
46
330
42
100
AcDbEntity
  8
0
  6
BYBLOCK
 62
     0
100
AcDbLine
 10
0.0
 20
0.0
 30
0.0
 11
-1.0
 21
0.0
 31
0.0
  0
ENDBLK
  5
47
330
42
100
AcDbEntity
  8
0
100
AcDbBlockEnd
  0
BLOCK
  5
EDA
330
ED9
100
AcDbEntity
  8
0
100
AcDbBlockBegin
  2
A3WAKUDAKE
 70
    36
 10
0.0
 20
0.0
 30
0.0
  3
A3WAKUDAKE
  1
D:\ACLT\FORMAT\A3WAKUdake.dwg
  0
ENDBLK
  5
EDB
330
ED9
100
AcDbEntity
  8
0
100
AcDbBlockEnd
  0
BLOCK
  5
1364
330
1363
100
AcDbEntity
  8
0
100
AcDbBlockBegin
  2
XREF1
 70
    36
 10
0.0
 20
0.0
 30
0.0
  3
XREF1
  1
D:\ACLT\FORMAT\KAWAJUN(9)図面用.dwg
  0
ENDBLK
  5
1365
330
1363
100
AcDbEntity
  8
0
100
AcDbBlockEnd
  0
BLOCK
  5
1D88
330
1676
100
AcDbEntity
  8
0
100
AcDbBlockBegin
  2
A3WAKUKAWAJUN2017_HYOUDAI_
 70
     0
 10
0.0
 20
0.0
 30
0.0
  3
A3WAKUKAWAJUN2017_HYOUDAI_
  1

  0
LINE
  5
1678
330
1676
100
AcDbEntity
  8
0
100
AcDbLine
 10
13.26299999998673
 20
-0.0001000000000317
 30
0.0
 11
9.236999999990758
 21
8.999899999990987
 31
0.0
1001
ACAD
1000
ASC_BOUNDS
1002
{
1070
    19
1005
16B9
1002
}
  0
LINE
  5
1679
330
1676
100
AcDbEntity
  8
0
100
AcDbLine
 10
5.657999999994331
 20
0.9999999999989768
 30
0.0
 11
9.236999999990758
 21
8.999999999991019
 31
0.0
1001
ACAD
1000
ASC_BOUNDS
1002
{
1070
    19
1005
16B9
1002
}
  0
LINE
  5
167A
330
1676
100
AcDbEntity
  8
0
100
AcDbLine
 10
18.59199999998134
 20
-0.2368999999997641
 30
0.0
 11
16.46099999998353
 21
5.432899999994561
 31
0.0
1001
ACAD
1000
ASC_BOUNDS
1002
{
1070
    19
1005
16BA
1002
}
  0
LINE
  5
167B
330
1676
100
AcDbEntity
  8
0
100
AcDbLine
 10
18.59199999998134
 20
-0.2368999999997641
 30
0.0
 11
22.38199999997767
 21
8.763099999991255
 31
0.0
1001
ACAD
1000
ASC_BOUNDS
1002
{
1070
    19
1005
16BA
1002
}
  0
LINE
  5
167C
330
1676
100
AcDbEntity
  8
0
100
AcDbLine
 10
14.32899999998563
 20
-0.2368999999997641
 30
0.0
 11
16.46099999998353
 21
5.432899999994561
 31
0.0
1001
ACAD
1000
ASC_BOUNDS
1002
{
1070
    19
1005
16BA
1002
}
  0
LINE
  5
167D
330
1676
100
AcDbEntity
  8
0
100
AcDbLine
 10
14.32899999998563
 20
-0.2368999999997641
 30
0.0
 11
10.53899999998941
 21
8.763099999991255
 31
0.0
1001
ACAD
1000
ASC_BOUNDS
1002
{
1070
    19
1005
16BA
1002
}
  0
LINE
  5
167E
330
1676
100
AcDbEntity
  8
0
100
AcDbLine
 10
19.53899999998043
 20
-0.0001000000000317
 30
0.0
 11
23.56599999997638
 21
8.999899999990987
 31
0.0
1001
ACAD
1000
ASC_BOUNDS
1002
{
1070
    19
1005
16BB
1002
}
  0
LINE
  5
167F
330
1676
100
AcDbEntity
  8
0
100
AcDbLine
 10
26.97358892824991
 20
1.383099999991202
 30
0.0
 11
23.56599999997638
 21
8.999899999990987
 31
0.0
1001
ACAD
1000
ASC_BOUNDS
1002
{
1070
    19
1005
16BB
1002
}
  0
LINE
  5
1680
330
1676
100
AcDbEntity
  8
0
100
AcDbLine
 10
5.657999999994331
 20
0.9999999999989768
 30
0.0
 11
3.181999999996833
 21
4.668599999995308
 31
0.0
1001
ACAD
1000
ASC_BOUNDS
1002
{
1070
    19
1005
16B9
1002
}
  0
LINE
  5
1681
330
1676
100
AcDbEntity
  8
0
100
AcDbLine
 10
4.617999999995391
 20
-0.0001000000000317
 30
0.0
 11
1.420999999998571
 21
4.736799999995242
 31
0.0
1001
ACAD
1000
ASC_BOUNDS
1002
{
1070
    19
1005
16B9
1002
}
  0
LINE
  5
1682
330
1676
100
AcDbEntity
  8
0
100
AcDbLine
 10
1.420999999998571
 20
8.763099999991255
 30
0.0
 11
1.420999999998571
 21
0.0
 31
0.0
1001
ACAD
1000
ASC_BOUNDS
1002
{
1070
    19
1005
16BE
1002
}
  0
LINE
  5
1683
330
1676
100
AcDbEntity
  8
0
100
AcDbLine
 10
0.0
 20
8.763099999991255
 30
0.0
 11
0.0
 21
0.0
 31
0.0
1001
ACAD
1000
ASC_BOUNDS
1002
{
1070
    19
1005
16BE
1002
}
  0
LINE
  5
1684
330
1676
100
AcDbEntity
  8
0
100
AcDbLine
 10
6.766999999993232
 20
-0.0001000000000317
 30
0.0
 11
7.826999999992154
 21
2.368399999997621
 31
0.0
1001
ACAD
1000
ASC_BOUNDS
1002
{
1070
    19
1005
16B9
1002
}
  0
LINE
  5
1685
330
1676
100
AcDbEntity
  8
0
100
AcDbLine
 10
0.0
 20
0.0
 30
0.0
 11
1.420999999998571
 21
0.0
 31
0.0
1001
ACAD
1000
ASC_BOUNDS
1002
{
1070
    19
1005
16BE
1002
}
  0
LINE
  5
1686
330
1676
100
AcDbEntity
  8
0
100
AcDbLine
 10
4.617999999995391
 20
0.0
 30
0.0
 11
6.766999999993232
 21
0.0
 31
0.0
1001
ACAD
1000
ASC_BOUNDS
1002
{
1070
    19
1005
16B9
1002
}
  0
LINE
  5
1687
330
1676
100
AcDbEntity
  8
0
100
AcDbLine
 10
11.70599999998831
 20
-0.0001000000000317
 30
0.0
 11
10.64699999998936
 21
2.368399999997621
 31
0.0
1001
ACAD
1000
ASC_BOUNDS
1002
{
1070
    19
1005
16B9
1002
}
  0
LINE
  5
1688
330
1676
100
AcDbEntity
  8
0
100
AcDbLine
 10
7.826999999992154
 20
2.368399999997621
 30
0.0
 11
10.64699999998936
 21
2.368399999997621
 31
0.0
1001
ACAD
1000
ASC_BOUNDS
1002
{
1070
    19
1005
16B9
1002
}
  0
LINE
  5
1689
330
1676
100
AcDbEntity
  8
0
100
AcDbLine
 10
11.70599999998831
 20
0.0
 30
0.0
 11
13.26299999998673
 21
0.0
 31
0.0
1001
ACAD
1000
ASC_BOUNDS
1002
{
1070
    19
1005
16B9
1002
}
  0
LINE
  5
168A
330
1676
100
AcDbEntity
  8
0
100
AcDbLine
 10
22.15599999997789
 20
2.368399999997621
 30
0.0
 11
24.97599999997499
 21
2.368399999997621
 31
0.0
1001
ACAD
1000
ASC_BOUNDS
1002
{
1070
    19
1005
16BB
1002
}
  0
LINE
  5
168B
330
1676
100
AcDbEntity
  8
0
100
AcDbLine
 10
19.53899999998043
 20
0.0
 30
0.0
 11
21.09599999997886
 21
0.0
 31
0.0
1001
ACAD
1000
ASC_BOUNDS
1002
{
1070
    19
1005
16BB
1002
}
  0
LINE
  5
168C
330
1676
100
AcDbEntity
  8
0
100
AcDbLine
 10
21.09599999997886
 20
-0.0001000000000317
 30
0.0
 11
22.15599999997789
 21
2.368399999997621
 31
0.0
1001
ACAD
1000
ASC_BOUNDS
1002
{
1070
    19
1005
16BB
1002
}
  0
LINE
  5
168D
330
1676
100
AcDbEntity
  8
0
100
AcDbLine
 10
26.02015566812236
 20
0.0330999999912365
 30
0.0
 11
24.97599999997499
 21
2.368399999997621
 31
0.0
1001
ACAD
1000
ASC_BOUNDS
1002
{
1070
    19
1005
16BB
1002
}
  0
LINE
  5
168E
330
1676
100
AcDbEntity
  8
0
100
AcDbLine
 10
14.32399999998563
 20
3.315799999996671
 30
0.0
 11
16.46099999998353
 21
8.999899999990987
 31
0.0
1001
ACAD
1000
ASC_BOUNDS
1002
{
1070
    19
1005
16BA
1002
}
  0
LINE
  5
168F
330
1676
100
AcDbEntity
  8
0
100
AcDbLine
 10
6.432999999993513
 20
8.763099999991255
 30
0.0
 11
3.181999999996833
 21
4.668599999995308
 31
0.0
1001
ACAD
1000
ASC_BOUNDS
1002
{
1070
    19
1005
16B9
1002
}
  0
LINE
  5
1690
330
1676
100
AcDbEntity
  8
0
100
AcDbLine
 10
4.617999999995391
 20
8.763099999991255
 30
0.0
 11
1.420999999998571
 21
4.736799999995242
 31
0.0
1001
ACAD
1000
ASC_BOUNDS
1002
{
1070
    19
1005
16B9
1002
}
  0
LINE
  5
1691
330
1676
100
AcDbEntity
  8
0
100
AcDbLine
 10
0.0
 20
8.763099999991255
 30
0.0
 11
1.420999999998571
 21
8.763099999991255
 31
0.0
1001
ACAD
1000
ASC_BOUNDS
1002
{
1070
    19
1005
16BE
1002
}
  0
LINE
  5
1692
330
1676
100
AcDbEntity
  8
0
100
AcDbLine
 10
4.617999999995391
 20
8.763099999991255
 30
0.0
 11
6.432999999993513
 21
8.763099999991255
 31
0.0
1001
ACAD
1000
ASC_BOUNDS
1002
{
1070
    19
1005
16B9
1002
}
  0
LINE
  5
1693
330
1676
100
AcDbEntity
  8
0
100
AcDbLine
 10
14.32399999998563
 20
3.315799999996671
 30
0.0
 11
12.02999999998792
 21
8.763099999991255
 31
0.0
1001
ACAD
1000
ASC_BOUNDS
1002
{
1070
    19
1005
16BA
1002
}
  0
LINE
  5
1694
330
1676
100
AcDbEntity
  8
0
100
AcDbLine
 10
10.06399999998996
 20
3.670999999996297
 30
0.0
 11
9.236999999990758
 21
5.5200999999945
 31
0.0
1001
ACAD
1000
ASC_BOUNDS
1002
{
1070
    19
1005
16B9
1002
}
  0
LINE
  5
1695
330
1676
100
AcDbEntity
  8
0
100
AcDbLine
 10
8.409999999991555
 20
3.670999999996297
 30
0.0
 11
9.236999999990758
 21
5.5200999999945
 31
0.0
1001
ACAD
1000
ASC_BOUNDS
1002
{
1070
    19
1005
16B9
1002
}
  0
LINE
  5
1696
330
1676
100
AcDbEntity
  8
0
100
AcDbLine
 10
8.409999999991555
 20
3.670999999996297
 30
0.0
 11
10.06399999998996
 21
3.670999999996297
 31
0.0
1001
ACAD
1000
ASC_BOUNDS
1002
{
1070
    19
1005
16B9
1002
}
  0
LINE
  5
1697
330
1676
100
AcDbEntity
  8
0
100
AcDbLine
 10
10.53899999998941
 20
8.763099999991255
 30
0.0
 11
12.02999999998792
 21
8.763099999991255
 31
0.0
1001
ACAD
1000
ASC_BOUNDS
1002
{
1070
    19
1005
16BA
1002
}
  0
LINE
  5
1698
330
1676
100
AcDbEntity
  8
0
100
AcDbLine
 10
22.7389999999773
 20
3.670999999996297
 30
0.0
 11
23.56599999997638
 21
5.5200999999945
 31
0.0
1001
ACAD
1000
ASC_BOUNDS
1002
{
1070
    19
1005
16BB
1002
}
  0
LINE
  5
1699
330
1676
100
AcDbEntity
  8
0
100
AcDbLine
 10
22.7389999999773
 20
3.670999999996297
 30
0.0
 11
24.39299999997559
 21
3.670999999996297
 31
0.0
1001
ACAD
1000
ASC_BOUNDS
1002
{
1070
    19
1005
16BB
1002
}
  0
LINE
  5
169A
330
1676
100
AcDbEntity
  8
0
100
AcDbLine
 10
18.59799999998143
 20
3.315799999996671
 30
0.0
 11
20.89099999997916
 21
8.763099999991255
 31
0.0
1001
ACAD
1000
ASC_BOUNDS
1002
{
1070
    19
1005
16BA
1002
}
  0
LINE
  5
169B
330
1676
100
AcDbEntity
  8
0
100
AcDbLine
 10
18.59799999998143
 20
3.315799999996671
 30
0.0
 11
16.46099999998353
 21
8.999899999990987
 31
0.0
1001
ACAD
1000
ASC_BOUNDS
1002
{
1070
    19
1005
16BA
1002
}
  0
LINE
  5
169C
330
1676
100
AcDbEntity
  8
0
100
AcDbLine
 10
20.89099999997916
 20
8.763099999991255
 30
0.0
 11
22.38199999997767
 21
8.763099999991255
 31
0.0
1001
ACAD
1000
ASC_BOUNDS
1002
{
1070
    19
1005
16BA
1002
}
  0
LINE
  5
169D
330
1676
100
AcDbEntity
  8
0
100
AcDbLine
 10
24.39299999997559
 20
3.670999999996297
 30
0.0
 11
23.56599999997638
 21
5.5200999999945
 31
0.0
1001
ACAD
1000
ASC_BOUNDS
1002
{
1070
    19
1005
16BB
1002
}
  0
LINE
  5
169E
330
1676
100
AcDbEntity
  8
0
100
AcDbLine
 10
44.99999999995498
 20
-0.2368999999997641
 30
0.0
 11
40.02599999995994
 21
5.341799999994635
 31
0.0
1001
ACAD
1000
ASC_BOUNDS
1002
{
1070
    19
1005
16BD
1002
}
  0
LINE
  5
169F
330
1676
100
AcDbEntity
  8
0
100
AcDbLine
 10
40.02599999995994
 20
5.341799999994635
 30
0.0
 11
40.02599999995994
 21
0.0
 31
0.0
1001
ACAD
1000
ASC_BOUNDS
1002
{
1070
    19
1005
16BD
1002
}
  0
LINE
  5
16A0
330
1676
100
AcDbEntity
  8
0
100
AcDbLine
 10
38.60499999996136
 20
8.999999999991019
 30
0.0
 11
38.60499999996136
 21
0.0
 31
0.0
1001
ACAD
1000
ASC_BOUNDS
1002
{
1070
    19
1005
16BD
1002
}
  0
LINE
  5
16A1
330
1676
100
AcDbEntity
  8
0
100
AcDbLine
 10
44.99999999995498
 20
8.763099999991255
 30
0.0
 11
44.99999999995498
 21
-0.2368999999997641
 31
0.0
1001
ACAD
1000
ASC_BOUNDS
1002
{
1070
    19
1005
16BD
1002
}
  0
LINE
  5
16A2
330
1676
100
AcDbEntity
  8
0
100
AcDbLine
 10
38.60499999996136
 20
0.0
 30
0.0
 11
40.02599999995994
 21
0.0
 31
0.0
1001
ACAD
1000
ASC_BOUNDS
1002
{
1070
    19
1005
16BD
1002
}
  0
LINE
  5
16A3
330
1676
100
AcDbEntity
  8
0
100
AcDbLine
 10
43.57899999995641
 20
3.421199999996588
 30
0.0
 11
38.60499999996136
 21
8.999899999990987
 31
0.0
1001
ACAD
1000
ASC_BOUNDS
1002
{
1070
    19
1005
16BD
1002
}
  0
LINE
  5
16A4
330
1676
100
AcDbEntity
  8
0
100
AcDbLine
 10
43.57899999995641
 20
8.763099999991255
 30
0.0
 11
43.57899999995641
 21
3.421199999996588
 31
0.0
1001
ACAD
1000
ASC_BOUNDS
1002
{
1070
    19
1005
16BD
1002
}
  0
LINE
  5
16A5
330
1676
100
AcDbEntity
  8
0
100
AcDbLine
 10
43.57899999995641
 20
8.763099999991255
 30
0.0
 11
44.99999999995498
 21
8.763099999991255
 31
0.0
1001
ACAD
1000
ASC_BOUNDS
1002
{
1070
    19
1005
16BD
1002
}
  0
LINE
  5
16A6
330
1676
100
AcDbEntity
  8
0
100
AcDbLine
 10
37.67199999996831
 20
8.763099999991255
 30
0.0
 11
36.23199999996837
 21
8.763099999991255
 31
0.0
  0
LINE
  5
16A7
330
1676
100
AcDbEntity
  8
0
100
AcDbLine
 10
31.64199999996833
 20
8.763099999991255
 30
0.0
 11
31.64199999996833
 21
2.481619422925121
 31
0.0
  0
LINE
  5
16A8
330
1676
100
AcDbEntity
  8
0
100
AcDbLine
 10
37.67199999996831
 20
8.763099999991255
 30
0.0
 11
37.67199999996831
 21
2.481619422925121
 31
0.0
  0
LINE
  5
16A9
330
1676
100
AcDbEntity
  8
0
100
AcDbLine
 10
36.23199999996837
 20
8.763099999991255
 30
0.0
 11
36.23199999996837
 21
2.481619422925064
 31
0.0
  0
LINE
  5
16AA
330
1676
100
AcDbEntity
  8
0
100
AcDbLine
 10
33.08199999996839
 20
8.763099999991255
 30
0.0
 11
33.08199999996839
 21
2.481619422925121
 31
0.0
  0
ARC
  5
16AB
330
1676
100
AcDbEntity
  8
0
100
AcDbCircle
 10
34.65699999996832
 20
3.183099999991214
 30
0.0
 40
3.420000000000007
100
AcDbArc
 50
240.0000000000255
 51
299.9999999999766
  0
ARC
  5
16AC
330
1676
100
AcDbEntity
  8
0
100
AcDbCircle
 10
34.65699999996832
 20
3.183099999991214
 30
0.0
 40
1.97999999999999
100
AcDbArc
 50
240.000000000026
 51
299.9999999999703
  0
LINE
  5
16AD
330
1676
100
AcDbEntity
  8
0
100
AcDbLine
 10
33.08199999996828
 20
8.763099999991255
 30
0.0
 11
31.64199999996833
 21
8.763099999991255
 31
0.0
  0
ARC
  5
16AE
330
1676
100
AcDbEntity
  8
0
100
AcDbCircle
 10
35.06199999996829
 20
2.481619422925064
 30
0.0
 40
1.17
100
AcDbArc
 50
299.9999999999699
 51
0.0
  0
ARC
  5
16AF
330
1676
100
AcDbEntity
  8
0
100
AcDbCircle
 10
34.25199999996835
 20
2.481619422925121
 30
0.0
 40
1.17
100
AcDbArc
 50
180.0
 51
240.0000000000238
  0
ARC
  5
16B0
330
1676
100
AcDbEntity
  8
0
100
AcDbCircle
 10
35.06199999996841
 20
2.481619422925121
 30
0.0
 40
2.61
100
AcDbArc
 50
299.9999999999756
 51
0.0
  0
ARC
  5
16B1
330
1676
100
AcDbEntity
  8
0
100
AcDbCircle
 10
34.25199999996835
 20
2.481619422925121
 30
0.0
 40
2.61
100
AcDbArc
 50
180.0
 51
240.0000000000244
  0
LINE
  5
16B2
330
1676
100
AcDbEntity
  8
0
100
AcDbLine
 10
29.30199999996933
 20
8.763099999991255
 30
0.0
 11
30.74199999996927
 21
8.763099999991255
 31
0.0
1001
ACAD
1000
ASC_BOUNDS
1002
{
1070
    19
1005
16BB
1002
}
  0
LINE
  5
16B3
330
1676
100
AcDbEntity
  8
0
100
AcDbLine
 10
30.74199999996927
 20
8.763099999991255
 30
0.0
 11
30.74199999996927
 21
2.373099999991211
 31
0.0
1001
ACAD
1000
ASC_BOUNDS
1002
{
1070
    19
1005
16BB
1002
}
  0
LINE
  5
16B4
330
1676
100
AcDbEntity
  8
0
100
AcDbLine
 10
26.02015566812236
 20
0.0330999999912365
 30
0.0
 11
28.40199999996923
 21
0.0330999999912365
 31
0.0
1001
ACAD
1000
ASC_BOUNDS
1002
{
1070
    19
1005
16BB
1002
}
  0
LINE
  5
16B5
330
1676
100
AcDbEntity
  8
0
100
AcDbLine
 10
29.30199999996933
 20
8.763099999991255
 30
0.0
 11
29.30199999996933
 21
2.283099999991236
 31
0.0
1001
ACAD
1000
ASC_BOUNDS
1002
{
1070
    19
1005
16BB
1002
}
  0
LINE
  5
16B6
330
1676
100
AcDbEntity
  8
0
100
AcDbLine
 10
26.97358892824991
 20
1.383099999991202
 30
0.0
 11
28.40199999996923
 21
1.383099999991202
 31
0.0
1001
ACAD
1000
ASC_BOUNDS
1002
{
1070
    19
1005
16BB
1002
}
  0
ARC
  5
16B7
330
1676
100
AcDbEntity
  8
0
100
AcDbCircle
 10
28.40199999996923
 20
2.283099999991236
 30
0.0
 40
0.9
100
AcDbArc
 50
270.0
 51
0.0
1001
ACAD
1000
ASC_BOUNDS
1002
{
1070
    19
1005
16BB
1002
}
  0
ARC
  5
16B8
330
1676
100
AcDbEntity
  8
0
100
AcDbCircle
 10
28.40199999996923
 20
2.373099999991211
 30
0.0
 40
2.34
100
AcDbArc
 50
270.0
 51
0.0
1001
ACAD
1000
ASC_BOUNDS
1002
{
1070
    19
1005
16BB
1002
}
  0
INSERT
  5
16B9
330
1676
100
AcDbEntity
  8
0
100
AcDbBlockReference
  2
*X29
 10
0.0
 20
0.0
 30
0.0
1001
ACAD
1000
HATCH
1002
{
1070
    19
1000
ANSI37
1040
0.15
1040
0.0
1000
ASC_BOUNDS
1070
     2
1070
     2
1070
    12
1005
1678
1005
1679
1005
1680
1005
168F
1005
1692
1005
1690
1005
1681
1005
1686
1005
1684
1005
1688
1005
1687
1005
1689
1070
     2
1070
     3
1005
1694
1005
1696
1005
1695
1000
ASC_SEEDPOINT
1011
3.614004224891801
1021
2.996669441146025
1031
0.0
1000
R14_HATCH_DATA
1000
16B9
1011
1.0
1021
0.0
1031
0.0
1011
0.0
1021
1.0
1031
0.0
1011
0.0
1021
0.0
1031
1.0
1040
0.0
1010
0.0
1020
0.0
1030
1.0
1000
ANSI37
1070
     0
1070
     1
1071
        2
1071
        7
1070
     0
1070
     1
1071
       17
1040
13.26299999998673
1040
-0.0001000000000317
1040
9.236999999990758
1040
8.999899999990987
1040
9.236999999990758
1040
8.999999999991019
1040
5.657999999994331
1040
0.9999999999989768
1040
3.181999999996833
1040
4.668599999995308
1040
6.432999999993513
1040
8.763099999991255
1040
4.617999999995391
1040
8.763099999991255
1040
1.420999999998571
1040
4.736799999995242
1040
4.617999999995391
1040
-0.0001000000000317
1040
4.617999999995391
1040
0.0
1040
6.766999999993232
1040
0.0
1040
6.766999999993232
1040
-0.0001000000000317
1040
7.826999999992154
1040
2.368399999997621
1040
10.64699999998936
1040
2.368399999997621
1040
11.70599999998831
1040
-0.0001000000000317
1040
11.70599999998831
1040
0.0
1040
13.26299999998673
1040
0.0
1071
       12
1005
1678
1005
1679
1005
1680
1005
168F
1005
1692
1005
1690
1005
1681
1005
1686
1005
1684
1005
1688
1005
1687
1005
1689
1071
       22
1070
     0
1070
     1
1071
        3
1040
9.236999999990758
1040
5.5200999999945
1040
10.06399999998996
1040
3.670999999996297
1040
8.409999999991555
1040
3.670999999996297
1071
        3
1005
1694
1005
1696
1005
1695
1070
     0
1070
     1
1040
0.0
1040
0.15
1070
     0
1070
     2
1040
0.7853981633974483
1040
49.29960901727088
1040
-10.17736998311392
1040
-0.3367596045400932
1040
0.3367596045400932
1070
     0
1040
2.356194490192345
1040
49.29960901727088
1040
-10.17736998311392
1040
-0.3367596045400932
1040
-0.3367596045400932
1070
     0
1040
0.0110235143455945
1071
        2
1040
3.614004224891801
1040
2.996669441146025
1040
0.0
1040
3.614004224891801
1040
2.996669441146025
1040
0.0
1002
}
  0
INSERT
  5
16BA
330
1676
100
AcDbEntity
  8
0
100
AcDbBlockReference
  2
*X30
 10
0.0
 20
0.0
 30
0.0
1001
ACAD
1000
HATCH
1002
{
1070
    19
1000
ANSI37
1040
0.15
1040
0.0
1000
ASC_BOUNDS
1070
     1
1070
     2
1070
    10
1005
167A
1005
167B
1005
169C
1005
169A
1005
169B
1005
168E
1005
1693
1005
1697
1005
167D
1005
167C
1000
ASC_SEEDPOINT
1011
14.73245321214324
1021
2.798246178283421
1031
0.0
1000
R14_HATCH_DATA
1000
16BA
1011
1.0
1021
0.0
1031
0.0
1011
0.0
1021
1.0
1031
0.0
1011
0.0
1021
0.0
1031
1.0
1040
0.0
1010
0.0
1020
0.0
1030
1.0
1000
ANSI37
1070
     0
1070
     1
1071
        1
1071
        7
1070
     0
1070
     1
1071
       10
1040
16.46099999998353
1040
5.432899999994561
1040
18.59199999998134
1040
-0.2368999999997641
1040
22.38199999997767
1040
8.763099999991255
1040
20.89099999997916
1040
8.763099999991255
1040
18.59799999998143
1040
3.315799999996671
1040
16.46099999998353
1040
8.999899999990987
1040
14.32399999998563
1040
3.315799999996671
1040
12.02999999998792
1040
8.763099999991255
1040
10.53899999998941
1040
8.763099999991255
1040
14.32899999998563
1040
-0.2368999999997641
1071
       10
1005
167A
1005
167B
1005
169C
1005
169A
1005
169B
1005
168E
1005
1693
1005
1697
1005
167D
1005
167C
1070
     0
1070
     1
1040
0.0
1040
0.15
1070
     0
1070
     2
1040
0.7853981633974483
1040
49.29960901727088
1040
-10.17736998311392
1040
-0.3367596045400932
1040
0.3367596045400932
1070
     0
1040
2.356194490192345
1040
49.29960901727088
1040
-10.17736998311392
1040
-0.3367596045400932
1040
-0.3367596045400932
1070
     0
1040
0.0110235143455945
1071
        1
1040
14.73245321214324
1040
2.798246178283421
1040
0.0
1002
}
  0
INSERT
  5
16BB
330
1676
100
AcDbEntity
  8
0
100
AcDbBlockReference
  2
*X31
 10
0.0
 20
0.0
 30
0.0
1001
ACAD
1000
HATCH
1002
{
1070
    19
1000
ANSI37
1040
0.15
1040
0.0
1000
ASC_BOUNDS
1070
     2
1070
     2
1070
    13
1005
167E
1005
168B
1005
168C
1005
168A
1005
168D
1005
16B4
1005
16B8
1005
16B3
1005
16B2
1005
16B5
1005
16B7
1005
16B6
1005
167F
1070
     2
1070
     3
1005
1698
1005
169D
1005
1699
1000
ASC_SEEDPOINT
1011
21.97929957367762
1021
3.294304244259308
1031
0.0
1000
R14_HATCH_DATA
1000
16BB
1011
1.0
1021
0.0
1031
0.0
1011
0.0
1021
1.0
1031
0.0
1011
0.0
1021
0.0
1031
1.0
1040
0.0
1010
0.0
1020
0.0
1030
1.0
1000
ANSI37
1070
     0
1070
     1
1071
        2
1071
        7
1070
     1
1070
     1
1071
       15
1040
23.56599999997638
1040
8.999899999990987
1040
0.0
1040
19.53899999998043
1040
-0.0001000000000317
1040
0.0
1040
19.53899999998043
1040
0.0
1040
0.0
1040
21.09599999997886
1040
0.0
1040
0.0
1040
21.09599999997886
1040
-0.0001000000000317
1040
0.0
1040
22.15599999997789
1040
2.368399999997621
1040
0.0
1040
24.97599999997499
1040
2.368399999997621
1040
0.0
1040
26.02015566812236
1040
0.0330999999912365
1040
0.0
1040
28.40199999996923
1040
0.0330999999912365
1040
0.414213562373095
1040
30.74199999996923
1040
2.373099999991211
1040
0.0
1040
30.74199999996927
1040
8.763099999991255
1040
0.0
1040
29.30199999996933
1040
8.763099999991255
1040
0.0
1040
29.30199999996933
1040
2.283099999991236
1040
-0.414213562373095
1040
28.40199999996923
1040
1.383099999991237
1040
0.0
1040
26.97358892824991
1040
1.383099999991202
1040
0.0
1071
       13
1005
167E
1005
168B
1005
168C
1005
168A
1005
168D
1005
16B4
1005
16B8
1005
16B3
1005
16B2
1005
16B5
1005
16B7
1005
16B6
1005
167F
1071
       22
1070
     0
1070
     1
1071
        3
1040
22.7389999999773
1040
3.670999999996297
1040
23.56599999997638
1040
5.5200999999945
1040
24.39299999997559
1040
3.670999999996297
1071
        3
1005
1698
1005
169D
1005
1699
1070
     0
1070
     1
1040
0.0
1040
0.15
1070
     0
1070
     2
1040
0.7853981633974483
1040
49.29960901727088
1040
-10.17736998311392
1040
-0.3367596045400932
1040
0.3367596045400932
1070
     0
1040
2.356194490192345
1040
49.29960901727088
1040
-10.17736998311392
1040
-0.3367596045400932
1040
-0.3367596045400932
1070
     0
1040
0.0110235143455945
1071
        2
1040
21.97929957367762
1040
3.294304244259308
1040
0.0
1040
21.97929957367762
1040
3.294304244259308
1040
0.0
1002
}
  0
INSERT
  5
16BC
330
1676
100
AcDbEntity
  8
0
100
AcDbBlockReference
  2
*X32
 10
0.0
 20
0.0
 30
0.0
1001
ACAD
1000
HATCH
1002
{
1070
    19
1000
ANSI37
1040
0.15
1040
0.0
1000
R14_HATCH_DATA
1000
16BC
1011
1.0
1021
0.0
1031
0.0
1011
0.0
1021
1.0
1031
0.0
1011
0.0
1021
0.0
1031
1.0
1040
0.0
1010
0.0
1020
0.0
1030
1.0
1000
ANSI37
1070
     0
1070
     1
1071
        1
1071
        7
1070
     1
1070
     1
1071
       12
1040
31.64199999996833
1040
2.481619422925121
1040
0.2679491924310942
1040
32.94699999997067
1040
0.2212931190493919
1040
0.2679491924301353
1040
36.36699999995983
1040
0.2212931190459813
1040
0.2679491924321411
1040
37.67199999996831
1040
2.481619422928361
1040
0.0
1040
37.67199999996831
1040
8.763099999991255
1040
0.0
1040
36.23199999996837
1040
8.763099999991255
1040
0.0
1040
36.23199999996837
1040
2.481619422925064
1040
-0.2679491924310291
1040
35.64699999996708
1040
1.468369700498386
1040
-0.267949192430519
1040
33.66699999997093
1040
1.468369700497703
1040
-0.267949192431809
1040
33.08199999996839
1040
2.481619422926997
1040
0.0
1040
33.08199999996839
1040
8.763099999991255
1040
0.0
1040
31.64199999996833
1040
8.763099999991255
1040
0.0
1071
        0
1070
     0
1070
     1
1040
0.0
1040
0.15
1070
     0
1070
     2
1040
0.7853981633974483
1040
49.29960901727088
1040
-10.17736998311392
1040
-0.3367596045400932
1040
0.3367596045400932
1070
     0
1040
2.356194490192345
1040
49.29960901727088
1040
-10.17736998311392
1040
-0.3367596045400932
1040
-0.3367596045400932
1070
     0
1040
0.0110235143455945
1071
        1
1040
32.30357378967278
1040
3.988785755459219
1040
0.0
1002
}
  0
INSERT
  5
16BD
330
1676
100
AcDbEntity
  8
0
100
AcDbBlockReference
  2
*X33
 10
0.0
 20
0.0
 30
0.0
1001
ACAD
1000
HATCH
1002
{
1070
    19
1000
ANSI37
1040
0.15
1040
0.0
1000
ASC_BOUNDS
1070
     1
1070
     2
1070
     8
1005
169E
1005
16A1
1005
16A5
1005
16A4
1005
16A3
1005
16A0
1005
16A2
1005
169F
1000
ASC_SEEDPOINT
1011
39.74896370716704
1021
4.484843821435049
1031
0.0
1000
R14_HATCH_DATA
1000
16BD
1011
1.0
1021
0.0
1031
0.0
1011
0.0
1021
1.0
1031
0.0
1011
0.0
1021
0.0
1031
1.0
1040
0.0
1010
0.0
1020
0.0
1030
1.0
1000
ANSI37
1070
     0
1070
     1
1071
        1
1071
        7
1070
     0
1070
     1
1071
        9
1040
40.02599999995994
1040
5.341799999994635
1040
44.99999999995498
1040
-0.2368999999997641
1040
44.99999999995498
1040
8.763099999991255
1040
43.57899999995641
1040
8.763099999991255
1040
43.57899999995641
1040
3.421199999996588
1040
38.60499999996136
1040
8.999899999990987
1040
38.60499999996136
1040
8.999999999991019
1040
38.60499999996136
1040
0.0
1040
40.02599999995994
1040
0.0
1071
        8
1005
169E
1005
16A1
1005
16A5
1005
16A4
1005
16A3
1005
16A0
1005
16A2
1005
169F
1070
     0
1070
     1
1040
0.0
1040
0.15
1070
     0
1070
     2
1040
0.7853981633974483
1040
49.29960901727088
1040
-10.17736998311392
1040
-0.3367596045400932
1040
0.3367596045400932
1070
     0
1040
2.356194490192345
1040
49.29960901727088
1040
-10.17736998311392
1040
-0.3367596045400932
1040
-0.3367596045400932
1070
     0
1040
0.0110235143455945
1071
        1
1040
39.74896370716704
1040
4.484843821435049
1040
0.0
1002
}
  0
INSERT
  5
16BE
330
1676
100
AcDbEntity
  8
0
100
AcDbBlockReference
  2
*X34
 10
0.0
 20
0.0
 30
0.0
1001
ACAD
1000
HATCH
1002
{
1070
    19
1000
ANSI37
1040
0.15
1040
0.0
1000
ASC_BOUNDS
1070
     1
1070
     2
1070
     4
1005
1682
1005
1691
1005
1683
1005
1685
1000
ASC_SEEDPOINT
1011
1.079051535452663
1021
4.148538732891836
1031
0.0
1000
R14_HATCH_DATA
1000
16BE
1011
1.0
1021
0.0
1031
0.0
1011
0.0
1021
1.0
1031
0.0
1011
0.0
1021
0.0
1031
1.0
1040
0.0
1010
0.0
1020
0.0
1030
1.0
1000
ANSI37
1070
     0
1070
     1
1071
        1
1071
        7
1070
     0
1070
     1
1071
        4
1040
1.420999999998571
1040
0.0
1040
1.420999999998571
1040
8.763099999991255
1040
0.0
1040
8.763099999991255
1040
0.0
1040
0.0
1071
        4
1005
1682
1005
1691
1005
1683
1005
1685
1070
     0
1070
     1
1040
0.0
1040
0.15
1070
     0
1070
     2
1040
0.7853981633974483
1040
49.29960901727088
1040
-10.17736998311392
1040
-0.3367596045400932
1040
0.3367596045400932
1070
     0
1040
2.356194490192345
1040
49.29960901727088
1040
-10.17736998311392
1040
-0.3367596045400932
1040
-0.3367596045400932
1070
     0
1040
0.0053004257112761
1071
        1
1040
1.079051535452663
1040
4.148538732891836
1040
0.0
1002
}
  0
ENDBLK
  5
1D89
330
1676
100
AcDbEntity
  8
0
100
AcDbBlockEnd
  0
BLOCK
  5
2177
330
1FE9
100
AcDbEntity
  8
0
100
AcDbBlockBegin
  2
*X29
 70
     1
 10
0.0
 20
0.0
 30
0.0
  3
*X29
  1

  0
LINE
  5
1FEA
330
1FE9
100
AcDbEntity
  8
0
  6
CONTINUOUS
100
AcDbLine
 10
3.418023043697893
 20
7.251849696850613
 30
0.0
 11
4.929273346838536
 21
8.763099999991255
 31
0.0
  0
LINE
  5
1FEB
330
1FE9
100
AcDbEntity
  8
0
  6
CONTINUOUS
100
AcDbLine
 10
1.483656411257782
 20
4.643963855330318
 30
0.0
 11
5.60279255591872
 21
8.763099999991255
 31
0.0
  0
LINE
  5
1FEC
330
1FE9
100
AcDbEntity
  8
0
  6
CONTINUOUS
100
AcDbLine
 10
1.755053947328235
 20
4.241842182320584
 30
0.0
 11
6.276311764998907
 21
8.763099999991255
 31
0.0
  0
LINE
  5
1FED
330
1FE9
100
AcDbEntity
  8
0
  6
CONTINUOUS
100
AcDbLine
 10
2.026451483398688
 20
3.839720509310849
 30
0.0
 11
4.441040904851878
 21
6.254309930764039
 31
0.0
  0
LINE
  5
1FEE
330
1FE9
100
AcDbEntity
  8
0
  6
CONTINUOUS
100
AcDbLine
 10
2.297849019469139
 20
3.437598836301114
 30
0.0
 11
3.321765168359338
 21
4.461514985191313
 31
0.0
  0
LINE
  5
1FEF
330
1FE9
100
AcDbEntity
  8
0
  6
CONTINUOUS
100
AcDbLine
 10
2.569246555539591
 20
3.03547716329138
 30
0.0
 11
3.593163397972743
 21
4.059394005724531
 31
0.0
  0
LINE
  5
1FF0
330
1FE9
100
AcDbEntity
  8
0
  6
CONTINUOUS
100
AcDbLine
 10
2.840644091610043
 20
2.633355490281646
 30
0.0
 11
3.864561627586149
 21
3.657273026257751
 31
0.0
  0
LINE
  5
1FF1
330
1FE9
100
AcDbEntity
  8
0
  6
CONTINUOUS
100
AcDbLine
 10
3.112041627680496
 20
2.231233817271911
 30
0.0
 11
4.135959857199554
 21
3.25515204679097
 31
0.0
  0
LINE
  5
1FF2
330
1FE9
100
AcDbEntity
  8
0
  6
CONTINUOUS
100
AcDbLine
 10
3.383439163750948
 20
1.829112144262177
 30
0.0
 11
4.40735808681296
 21
2.853031067324189
 31
0.0
  0
LINE
  5
1FF3
330
1FE9
100
AcDbEntity
  8
0
  6
CONTINUOUS
100
AcDbLine
 10
3.654836699821399
 20
1.426990471252442
 30
0.0
 11
4.678756316426365
 21
2.450910087857407
 31
0.0
  0
LINE
  5
1FF4
330
1FE9
100
AcDbEntity
  8
0
  6
CONTINUOUS
100
AcDbLine
 10
3.926234235891853
 20
1.024868798242709
 30
0.0
 11
4.95015454603977
 21
2.048789108390626
 31
0.0
  0
LINE
  5
1FF5
330
1FE9
100
AcDbEntity
  8
0
  6
CONTINUOUS
100
AcDbLine
 10
4.197631771962304
 20
0.6227471252329737
 30
0.0
 11
5.221552775653176
 21
1.646668128923846
 31
0.0
  0
LINE
  5
1FF6
330
1FE9
100
AcDbEntity
  8
0
  6
CONTINUOUS
100
AcDbLine
 10
8.715877546767851
 20
7.835069736359266
 30
0.0
 11
9.435953450375058
 21
8.555145639966472
 31
0.0
  0
LINE
  5
1FF7
330
1FE9
100
AcDbEntity
  8
0
  6
CONTINUOUS
100
AcDbLine
 10
8.170620868422267
 20
6.616293848933497
 30
0.0
 11
9.644120833743461
 21
8.08979381425469
 31
0.0
  0
LINE
  5
1FF8
330
1FE9
100
AcDbEntity
  8
0
  6
CONTINUOUS
100
AcDbLine
 10
7.625364190076684
 20
5.397517961507727
 30
0.0
 11
9.852288217111864
 21
7.624441988542907
 31
0.0
  0
LINE
  5
1FF9
330
1FE9
100
AcDbEntity
  8
0
  6
CONTINUOUS
100
AcDbLine
 10
7.080107511731101
 20
4.178742074081957
 30
0.0
 11
10.06045560048027
 21
7.159090162831124
 31
0.0
  0
LINE
  5
1FFA
330
1FE9
100
AcDbEntity
  8
0
  6
CONTINUOUS
100
AcDbLine
 10
6.534850833385518
 20
2.959966186656187
 30
0.0
 11
10.26862298384867
 21
6.693738337119342
 31
0.0
  0
LINE
  5
1FFB
330
1FE9
100
AcDbEntity
  8
0
  6
CONTINUOUS
100
AcDbLine
 10
4.469029308032756
 20
0.2206254522232385
 30
0.0
 11
5.492951005266582
 21
1.244547149457064
 31
0.0
  0
LINE
  5
1FFC
330
1FE9
100
AcDbEntity
  8
0
  6
CONTINUOUS
100
AcDbLine
 10
5.989594155039935
 20
1.741190299230417
 30
0.0
 11
8.806950407233131
 21
4.558546551423613
 31
0.0
  0
LINE
  5
1FFD
330
1FE9
100
AcDbEntity
  8
0
  6
CONTINUOUS
100
AcDbLine
 10
9.401251593263643
 20
5.152847737454126
 30
0.0
 11
10.47679036721708
 21
6.228386511407559
 31
0.0
  0
LINE
  5
1FFE
330
1FE9
100
AcDbEntity
  8
0
  6
CONTINUOUS
100
AcDbLine
 10
4.921837203428691
 20
-0.0000858614610131
 30
0.0
 11
8.592923064886001
 21
3.670999999996297
 31
0.0
  0
LINE
  5
1FFF
330
1FE9
100
AcDbEntity
  8
0
  6
CONTINUOUS
100
AcDbLine
 10
9.609390446785305
 20
4.6874673818956
 30
0.0
 11
10.68495775058548
 21
5.763034685695775
 31
0.0
  0
LINE
  5
2000
330
1FE9
100
AcDbEntity
  8
0
  6
CONTINUOUS
100
AcDbLine
 10
5.595387755019432
 20
-0.0000545189504582
 30
0.0
 11
7.716137258923768
 21
2.120694984953879
 31
0.0
  0
LINE
  5
2001
330
1FE9
100
AcDbEntity
  8
0
  6
CONTINUOUS
100
AcDbLine
 10
6.268938306610172
 20
-0.000023176439905
 30
0.0
 11
7.170485805526503
 21
0.9015243224764267
 31
0.0
  0
LINE
  5
2002
330
1FE9
100
AcDbEntity
  8
0
  6
CONTINUOUS
100
AcDbLine
 10
7.963842273967511
 20
2.368399999997621
 30
0.0
 11
9.266442273966188
 21
3.670999999996297
 31
0.0
  0
LINE
  5
2003
330
1FE9
100
AcDbEntity
  8
0
  6
CONTINUOUS
100
AcDbLine
 10
8.637361483047696
 20
2.368399999997621
 30
0.0
 11
9.939961483046375
 21
3.670999999996297
 31
0.0
  0
LINE
  5
2004
330
1FE9
100
AcDbEntity
  8
0
  6
CONTINUOUS
100
AcDbLine
 10
9.817529300306965
 20
4.222087026337075
 30
0.0
 11
10.89312513395388
 21
5.297682859983993
 31
0.0
  0
LINE
  5
2005
330
1FE9
100
AcDbEntity
  8
0
  6
CONTINUOUS
100
AcDbLine
 10
10.02566815382863
 20
3.756706670778549
 30
0.0
 11
11.10129251732229
 21
4.832331034272211
 31
0.0
  0
LINE
  5
2006
330
1FE9
100
AcDbEntity
  8
0
  6
CONTINUOUS
100
AcDbLine
 10
9.310880692127883
 20
2.368399999997621
 30
0.0
 11
11.30945990069069
 21
4.366979208560428
 31
0.0
  0
LINE
  5
2007
330
1FE9
100
AcDbEntity
  8
0
  6
CONTINUOUS
100
AcDbLine
 10
9.98439990120807
 20
2.36839999999762
 30
0.0
 11
11.5176272840591
 21
3.901627382848645
 31
0.0
  0
LINE
  5
2008
330
1FE9
100
AcDbEntity
  8
0
  6
CONTINUOUS
100
AcDbLine
 10
10.65037369446246
 20
2.36085458417182
 30
0.0
 11
11.7257946674275
 21
3.436275557136862
 31
0.0
  0
LINE
  5
2009
330
1FE9
100
AcDbEntity
  8
0
  6
CONTINUOUS
100
AcDbLine
 10
10.85847197087848
 20
1.895433651507656
 30
0.0
 11
11.9339620507959
 21
2.97092373142508
 31
0.0
  0
LINE
  5
200A
330
1FE9
100
AcDbEntity
  8
0
  6
CONTINUOUS
100
AcDbLine
 10
11.0665702472945
 20
1.430012718843491
 30
0.0
 11
12.14212943416431
 21
2.505571905713296
 31
0.0
  0
LINE
  5
200B
330
1FE9
100
AcDbEntity
  8
0
  6
CONTINUOUS
100
AcDbLine
 10
11.27466852371052
 20
0.9645917861793256
 30
0.0
 11
12.35029681753271
 21
2.040220080001513
 31
0.0
  0
LINE
  5
200C
330
1FE9
100
AcDbEntity
  8
0
  6
CONTINUOUS
100
AcDbLine
 10
11.48276680012654
 20
0.4991708535151611
 30
0.0
 11
12.55846420090111
 21
1.57486825428973
 31
0.0
  0
LINE
  5
200D
330
1FE9
100
AcDbEntity
  8
0
  6
CONTINUOUS
100
AcDbLine
 10
11.69086507654257
 20
0.0337499208509957
 30
0.0
 11
12.76663158426952
 21
1.109516428577947
 31
0.0
  0
LINE
  5
200E
330
1FE9
100
AcDbEntity
  8
0
  6
CONTINUOUS
100
AcDbLine
 10
12.33057447873954
 20
-0.0000598860322123
 30
0.0
 11
12.97479896763792
 21
0.6441646028661663
 31
0.0
  0
LINE
  5
200F
330
1FE9
100
AcDbEntity
  8
0
  6
CONTINUOUS
100
AcDbLine
 10
13.00413694809395
 20
-0.0000166257579952
 30
0.0
 11
13.18296635100632
 21
0.1788127771543824
 31
0.0
  0
LINE
  5
2010
330
1FE9
100
AcDbEntity
  8
0
  6
CONTINUOUS
100
AcDbLine
 10
4.772852165289667
 20
-0.000092794222212
 30
0.0
 11
4.296495091028902
 21
0.4762642800385528
 31
0.0
  0
LINE
  5
2011
330
1FE9
100
AcDbEntity
  8
0
  6
CONTINUOUS
100
AcDbLine
 10
5.446340034776103
 20
-0.0000614546284616
 30
0.0
 11
2.898195908335625
 21
2.548082671812017
 31
0.0
  0
LINE
  5
2012
330
1FE9
100
AcDbEntity
  8
0
  6
CONTINUOUS
100
AcDbLine
 10
6.119827904262539
 20
-0.0000301150347113
 30
0.0
 11
1.499896725642348
 21
4.61990106358548
 31
0.0
  0
LINE
  5
2013
330
1FE9
100
AcDbEntity
  8
0
  6
CONTINUOUS
100
AcDbLine
 10
6.775136745476159
 20
0.0181802528318542
 30
0.0
 11
5.699826040202669
 21
1.093490958105344
 31
0.0
  0
LINE
  5
2014
330
1FE9
100
AcDbEntity
  8
0
  6
CONTINUOUS
100
AcDbLine
 10
6.983376846288489
 20
0.4834593610997118
 30
0.0
 11
5.908008617934405
 21
1.558827589453796
 31
0.0
  0
LINE
  5
2015
330
1FE9
100
AcDbEntity
  8
0
  6
CONTINUOUS
100
AcDbLine
 10
5.377063484962296
 20
1.416253513345719
 30
0.0
 11
1.702276957014131
 21
5.091040041293883
 31
0.0
  0
LINE
  5
2016
330
1FE9
100
AcDbEntity
  8
0
  6
CONTINUOUS
100
AcDbLine
 10
3.978745891735324
 20
3.488090315652877
 30
0.0
 11
2.000373521109399
 21
5.466462686278803
 31
0.0
  0
LINE
  5
2017
330
1FE9
100
AcDbEntity
  8
0
  6
CONTINUOUS
100
AcDbLine
 10
7.191616947100819
 20
0.948738469367568
 30
0.0
 11
6.11619119566614
 21
2.024164220802247
 31
0.0
  0
LINE
  5
2018
330
1FE9
100
AcDbEntity
  8
0
  6
CONTINUOUS
100
AcDbLine
 10
7.399857047913149
 20
1.414017577635424
 30
0.0
 11
6.324373773397875
 21
2.489500852150698
 31
0.0
  0
LINE
  5
2019
330
1FE9
100
AcDbEntity
  8
0
  6
CONTINUOUS
100
AcDbLine
 10
7.608097148725479
 20
1.879296685903281
 30
0.0
 11
6.53255635112961
 21
2.95483748349915
 31
0.0
  0
LINE
  5
201A
330
1FE9
100
AcDbEntity
  8
0
  6
CONTINUOUS
100
AcDbLine
 10
7.816337249537808
 20
2.344575794171138
 30
0.0
 11
6.740738928861345
 21
3.420174114847601
 31
0.0
  0
LINE
  5
201B
330
1FE9
100
AcDbEntity
  8
0
  6
CONTINUOUS
100
AcDbLine
 10
3.310241080789734
 20
4.830114335678653
 30
0.0
 11
2.298470085204666
 21
5.84188533126372
 31
0.0
  0
LINE
  5
201C
330
1FE9
100
AcDbEntity
  8
0
  6
CONTINUOUS
100
AcDbLine
 10
3.60832983563551
 20
5.205544789913063
 30
0.0
 11
2.596566649299935
 21
6.217307976248638
 31
0.0
  0
LINE
  5
201D
330
1FE9
100
AcDbEntity
  8
0
  6
CONTINUOUS
100
AcDbLine
 10
3.906418590481286
 20
5.580975244147473
 30
0.0
 11
2.894663213395203
 21
6.592730621233557
 31
0.0
  0
LINE
  5
201E
330
1FE9
100
AcDbEntity
  8
0
  6
CONTINUOUS
100
AcDbLine
 10
4.204507345327062
 20
5.956405698381884
 30
0.0
 11
3.192759777490472
 21
6.968153266218474
 31
0.0
  0
LINE
  5
201F
330
1FE9
100
AcDbEntity
  8
0
  6
CONTINUOUS
100
AcDbLine
 10
8.466032252791512
 20
2.368399999997621
 30
0.0
 11
6.948921506593081
 21
3.885510746196053
 31
0.0
  0
LINE
  5
2020
330
1FE9
100
AcDbEntity
  8
0
  6
CONTINUOUS
100
AcDbLine
 10
9.139551461871699
 20
2.36839999999762
 30
0.0
 11
7.157104084324816
 21
4.350847377544504
 31
0.0
  0
LINE
  5
2021
330
1FE9
100
AcDbEntity
  8
0
  6
CONTINUOUS
100
AcDbLine
 10
4.502596100172839
 20
6.331836152616295
 30
0.0
 11
3.49085634158574
 21
7.343575911203393
 31
0.0
  0
LINE
  5
2022
330
1FE9
100
AcDbEntity
  8
0
  6
CONTINUOUS
100
AcDbLine
 10
4.800684855018615
 20
6.707266606850705
 30
0.0
 11
3.788952905681008
 21
7.718998556188312
 31
0.0
  0
LINE
  5
2023
330
1FE9
100
AcDbEntity
  8
0
  6
CONTINUOUS
100
AcDbLine
 10
12.18154012887317
 20
-0.0000694579236642
 30
0.0
 11
11.32140332908496
 21
0.8600673418645499
 31
0.0
  0
LINE
  5
2024
330
1FE9
100
AcDbEntity
  8
0
  6
CONTINUOUS
100
AcDbLine
 10
12.85501608323566
 20
-0.0000262032059659
 30
0.0
 11
10.77672456435345
 21
2.078265315676246
 31
0.0
  0
LINE
  5
2025
330
1FE9
100
AcDbEntity
  8
0
  6
CONTINUOUS
100
AcDbLine
 10
9.813070670951886
 20
2.36839999999762
 30
0.0
 11
8.51047067095321
 21
3.670999999996297
 31
0.0
  0
LINE
  5
2026
330
1FE9
100
AcDbEntity
  8
0
  6
CONTINUOUS
100
AcDbLine
 10
10.48658988003207
 20
2.36839999999762
 30
0.0
 11
9.183989880033396
 21
3.670999999996297
 31
0.0
  0
LINE
  5
2027
330
1FE9
100
AcDbEntity
  8
0
  6
CONTINUOUS
100
AcDbLine
 10
8.441048632286794
 20
3.740422038662712
 30
0.0
 11
7.365286662056551
 21
4.816184008892956
 31
0.0
  0
LINE
  5
2028
330
1FE9
100
AcDbEntity
  8
0
  6
CONTINUOUS
100
AcDbLine
 10
8.649187485808454
 20
4.205802394221237
 30
0.0
 11
7.573469239788285
 21
5.281520640241407
 31
0.0
  0
LINE
  5
2029
330
1FE9
100
AcDbEntity
  8
0
  6
CONTINUOUS
100
AcDbLine
 10
5.098773609864391
 20
7.082697061085115
 30
0.0
 11
4.087049469776277
 21
8.09442120117323
 31
0.0
  0
LINE
  5
202A
330
1FE9
100
AcDbEntity
  8
0
  6
CONTINUOUS
100
AcDbLine
 10
5.396862364710167
 20
7.458127515319526
 30
0.0
 11
4.385146033871544
 21
8.469843846158149
 31
0.0
  0
LINE
  5
202B
330
1FE9
100
AcDbEntity
  8
0
  6
CONTINUOUS
100
AcDbLine
 10
13.04801363231285
 20
0.4804954567970334
 30
0.0
 11
9.85750908911358
 21
3.670999999996297
 31
0.0
  0
LINE
  5
202C
330
1FE9
100
AcDbEntity
  8
0
  6
CONTINUOUS
100
AcDbLine
 10
8.857326339330116
 20
4.671182749779763
 30
0.0
 11
7.781651817520021
 21
5.746857271589858
 31
0.0
  0
LINE
  5
202D
330
1FE9
100
AcDbEntity
  8
0
  6
CONTINUOUS
100
AcDbLine
 10
5.694951119555943
 20
7.833557969553937
 30
0.0
 11
4.765409089118624
 21
8.763099999991255
 31
0.0
  0
LINE
  5
202E
330
1FE9
100
AcDbEntity
  8
0
  6
CONTINUOUS
100
AcDbLine
 10
12.50286117236978
 20
1.699167125820288
 30
0.0
 11
9.68611877250287
 21
4.515909525687196
 31
0.0
  0
LINE
  5
202F
330
1FE9
100
AcDbEntity
  8
0
  6
CONTINUOUS
100
AcDbLine
 10
9.065465192851777
 20
5.136563105338288
 30
0.0
 11
7.989834395251757
 21
6.21219390293831
 31
0.0
  0
LINE
  5
2030
330
1FE9
100
AcDbEntity
  8
0
  6
CONTINUOUS
100
AcDbLine
 10
5.993039874401719
 20
8.208988423788346
 30
0.0
 11
5.43892829819881
 21
8.763099999991255
 31
0.0
  0
LINE
  5
2031
330
1FE9
100
AcDbEntity
  8
0
  6
CONTINUOUS
100
AcDbLine
 10
11.95770871242671
 20
2.917838794843543
 30
0.0
 11
8.19801697298349
 21
6.677530534286761
 31
0.0
  0
LINE
  5
2032
330
1FE9
100
AcDbEntity
  8
0
  6
CONTINUOUS
100
AcDbLine
 10
6.291128629247495
 20
8.584418878022756
 30
0.0
 11
6.112447507278997
 21
8.763099999991255
 31
0.0
  0
LINE
  5
2033
330
1FE9
100
AcDbEntity
  8
0
  6
CONTINUOUS
100
AcDbLine
 10
11.41255625248364
 20
4.136510463866797
 30
0.0
 11
8.406199550715227
 21
7.142867165635211
 31
0.0
  0
LINE
  5
2034
330
1FE9
100
AcDbEntity
  8
0
  6
CONTINUOUS
100
AcDbLine
 10
10.86740379254057
 20
5.355182132890051
 30
0.0
 11
8.614382128446962
 21
7.608203796983664
 31
0.0
  0
LINE
  5
2035
330
1FE9
100
AcDbEntity
  8
0
  6
CONTINUOUS
100
AcDbLine
 10
10.3222513325975
 20
6.573853801913305
 30
0.0
 11
8.822564706178696
 21
8.073540428332114
 31
0.0
  0
LINE
  5
2036
330
1FE9
100
AcDbEntity
  8
0
  6
CONTINUOUS
100
AcDbLine
 10
9.777098872654436
 20
7.792525470936562
 30
0.0
 11
9.030747283910433
 21
8.538877059680566
 31
0.0
  0
ENDBLK
  5
2178
330
1FE9
100
AcDbEntity
  8
0
100
AcDbBlockEnd
  0
BLOCK
  5
2179
330
2037
100
AcDbEntity
  8
0
100
AcDbBlockBegin
  2
*X30
 70
     1
 10
0.0
 20
0.0
 30
0.0
  3
*X30
  1

  0
LINE
  5
2038
330
2037
100
AcDbEntity
  8
0
  6
CONTINUOUS
100
AcDbLine
 10
10.67292308101235
 20
8.445076852443387
 30
0.0
 11
10.99094622856022
 21
8.763099999991255
 31
0.0
  0
LINE
  5
2039
330
2037
100
AcDbEntity
  8
0
  6
CONTINUOUS
100
AcDbLine
 10
10.87250383178748
 20
7.971138394138331
 30
0.0
 11
11.6644654376404
 21
8.763099999991255
 31
0.0
  0
LINE
  5
203A
330
2037
100
AcDbEntity
  8
0
  6
CONTINUOUS
100
AcDbLine
 10
11.07208458256261
 20
7.497199935833273
 30
0.0
 11
12.12126590876355
 21
8.546381262034211
 31
0.0
  0
LINE
  5
203B
330
2037
100
AcDbEntity
  8
0
  6
CONTINUOUS
100
AcDbLine
 10
11.27166533333774
 20
7.023261477528216
 30
0.0
 11
12.32085164573666
 21
8.072447789927136
 31
0.0
  0
LINE
  5
203C
330
2037
100
AcDbEntity
  8
0
  6
CONTINUOUS
100
AcDbLine
 10
11.47124608411287
 20
6.549323019223158
 30
0.0
 11
12.52043738270977
 21
7.59851431782006
 31
0.0
  0
LINE
  5
203D
330
2037
100
AcDbEntity
  8
0
  6
CONTINUOUS
100
AcDbLine
 10
11.670826834888
 20
6.075384560918101
 30
0.0
 11
12.72002311968288
 21
7.124580845712984
 31
0.0
  0
LINE
  5
203E
330
2037
100
AcDbEntity
  8
0
  6
CONTINUOUS
100
AcDbLine
 10
11.87040758566313
 20
5.601446102613043
 30
0.0
 11
12.91960885665599
 21
6.650647373605907
 31
0.0
  0
LINE
  5
203F
330
2037
100
AcDbEntity
  8
0
  6
CONTINUOUS
100
AcDbLine
 10
12.06998833643825
 20
5.127507644307986
 30
0.0
 11
13.1191945936291
 21
6.176713901498832
 31
0.0
  0
LINE
  5
2040
330
2037
100
AcDbEntity
  8
0
  6
CONTINUOUS
100
AcDbLine
 10
12.26956908721338
 20
4.65356918600293
 30
0.0
 11
13.31878033060221
 21
5.702780429391757
 31
0.0
  0
LINE
  5
2041
330
2037
100
AcDbEntity
  8
0
  6
CONTINUOUS
100
AcDbLine
 10
12.46914983798851
 20
4.179630727697873
 30
0.0
 11
13.51836606757532
 21
5.228846957284683
 31
0.0
  0
LINE
  5
2042
330
2037
100
AcDbEntity
  8
0
  6
CONTINUOUS
100
AcDbLine
 10
12.66873058876364
 20
3.705692269392816
 30
0.0
 11
13.71795180454843
 21
4.754913485177607
 31
0.0
  0
LINE
  5
2043
330
2037
100
AcDbEntity
  8
0
  6
CONTINUOUS
100
AcDbLine
 10
12.86831133953877
 20
3.231753811087759
 30
0.0
 11
13.91753754152154
 21
4.280980013070531
 31
0.0
  0
LINE
  5
2044
330
2037
100
AcDbEntity
  8
0
  6
CONTINUOUS
100
AcDbLine
 10
13.0678920903139
 20
2.757815352782702
 30
0.0
 11
14.11712327849465
 21
3.807046540963456
 31
0.0
  0
LINE
  5
2045
330
2037
100
AcDbEntity
  8
0
  6
CONTINUOUS
100
AcDbLine
 10
13.26747284108903
 20
2.283876894477644
 30
0.0
 11
14.31670901546777
 21
3.333113068856379
 31
0.0
  0
LINE
  5
2046
330
2037
100
AcDbEntity
  8
0
  6
CONTINUOUS
100
AcDbLine
 10
16.36767838827179
 20
8.751678487061342
 30
0.0
 11
16.50332410898388
 21
8.887324207773432
 31
0.0
  0
LINE
  5
2047
330
2037
100
AcDbEntity
  8
0
  6
CONTINUOUS
100
AcDbLine
 10
15.96190732182191
 20
7.67238821153127
 30
0.0
 11
16.68735328004734
 21
8.397834169756699
 31
0.0
  0
LINE
  5
2048
330
2037
100
AcDbEntity
  8
0
  6
CONTINUOUS
100
AcDbLine
 10
15.55613625537202
 20
6.593097936001196
 30
0.0
 11
16.87138245111079
 21
7.908344131739965
 31
0.0
  0
LINE
  5
2049
330
2037
100
AcDbEntity
  8
0
  6
CONTINUOUS
100
AcDbLine
 10
15.15036518892213
 20
5.513807660471122
 30
0.0
 11
17.05541162217424
 21
7.418854093723231
 31
0.0
  0
LINE
  5
204A
330
2037
100
AcDbEntity
  8
0
  6
CONTINUOUS
100
AcDbLine
 10
14.74459412247225
 20
4.434517384941048
 30
0.0
 11
17.2394407932377
 21
6.929364055706499
 31
0.0
  0
LINE
  5
204B
330
2037
100
AcDbEntity
  8
0
  6
CONTINUOUS
100
AcDbLine
 10
14.33882305602236
 20
3.355227109410975
 30
0.0
 11
17.42346996430115
 21
6.439874017689766
 31
0.0
  0
LINE
  5
204C
330
2037
100
AcDbEntity
  8
0
  6
CONTINUOUS
100
AcDbLine
 10
13.46705359186416
 20
1.809938436172586
 30
0.0
 11
16.0819338255367
 21
4.424818669845129
 31
0.0
  0
LINE
  5
204D
330
2037
100
AcDbEntity
  8
0
  6
CONTINUOUS
100
AcDbLine
 10
16.63283254238972
 20
4.975717386698149
 30
0.0
 11
17.60749913536461
 21
5.950383979673033
 31
0.0
  0
LINE
  5
204E
330
2037
100
AcDbEntity
  8
0
  6
CONTINUOUS
100
AcDbLine
 10
13.66663434263929
 20
1.335999977867529
 30
0.0
 11
15.67604797733754
 21
3.345413612565779
 31
0.0
  0
LINE
  5
204F
330
2037
100
AcDbEntity
  8
0
  6
CONTINUOUS
100
AcDbLine
 10
13.86621509341442
 20
0.8620615195624723
 30
0.0
 11
15.27016212913838
 21
2.26600855528643
 31
0.0
  0
LINE
  5
2050
330
2037
100
AcDbEntity
  8
0
  6
CONTINUOUS
100
AcDbLine
 10
16.81682257348267
 20
4.486188208710908
 30
0.0
 11
17.79152830642806
 21
5.460893941656299
 31
0.0
  0
LINE
  5
2051
330
2037
100
AcDbEntity
  8
0
  6
CONTINUOUS
100
AcDbLine
 10
17.00081260457561
 20
3.996659030723667
 30
0.0
 11
17.97555747749151
 21
4.971403903639565
 31
0.0
  0
LINE
  5
2052
330
2037
100
AcDbEntity
  8
0
  6
CONTINUOUS
100
AcDbLine
 10
20.74362343514722
 20
8.412989070375462
 30
0.0
 11
21.09373436476302
 21
8.763099999991256
 31
0.0
  0
LINE
  5
2053
330
2037
100
AcDbEntity
  8
0
  6
CONTINUOUS
100
AcDbLine
 10
20.25401257174777
 20
7.249858997895826
 30
0.0
 11
21.7672535738432
 21
8.763099999991255
 31
0.0
  0
LINE
  5
2054
330
2037
100
AcDbEntity
  8
0
  6
CONTINUOUS
100
AcDbLine
 10
14.06579584418955
 20
0.3881230612574149
 30
0.0
 11
14.86427628093921
 21
1.186603498007082
 31
0.0
  0
LINE
  5
2055
330
2037
100
AcDbEntity
  8
0
  6
CONTINUOUS
100
AcDbLine
 10
14.26537659496467
 20
-0.0858153970476412
 30
0.0
 11
14.45839043274005
 21
0.1071984407277329
 31
0.0
  0
LINE
  5
2056
330
2037
100
AcDbEntity
  8
0
  6
CONTINUOUS
100
AcDbLine
 10
17.18480263566856
 20
3.507129852736426
 30
0.0
 11
18.15958664855496
 21
4.481913865622833
 31
0.0
  0
LINE
  5
2057
330
2037
100
AcDbEntity
  8
0
  6
CONTINUOUS
100
AcDbLine
 10
17.3687926667615
 20
3.017600674749186
 30
0.0
 11
18.34361581961842
 21
3.9924238276061
 31
0.0
  0
LINE
  5
2058
330
2037
100
AcDbEntity
  8
0
  6
CONTINUOUS
100
AcDbLine
 10
19.76440170834832
 20
6.086728925416191
 30
0.0
 11
22.33924590259489
 21
8.661573119662755
 31
0.0
  0
LINE
  5
2059
330
2037
100
AcDbEntity
  8
0
  6
CONTINUOUS
100
AcDbLine
 10
19.27479084494887
 20
4.923598852936555
 30
0.0
 11
21.84929622842713
 21
7.498104236414807
 31
0.0
  0
LINE
  5
205A
330
2037
100
AcDbEntity
  8
0
  6
CONTINUOUS
100
AcDbLine
 10
17.55278269785445
 20
2.528071496761945
 30
0.0
 11
18.52764499068187
 21
3.502933789589366
 31
0.0
  0
LINE
  5
205B
330
2037
100
AcDbEntity
  8
0
  6
CONTINUOUS
100
AcDbLine
 10
18.78517998154942
 20
3.760468780456919
 30
0.0
 11
21.35934655425936
 21
6.33463535316686
 31
0.0
  0
LINE
  5
205C
330
2037
100
AcDbEntity
  8
0
  6
CONTINUOUS
100
AcDbLine
 10
17.73677272894739
 20
2.038542318774704
 30
0.0
 11
20.8693968800916
 21
5.171166469918914
 31
0.0
  0
LINE
  5
205D
330
2037
100
AcDbEntity
  8
0
  6
CONTINUOUS
100
AcDbLine
 10
17.92076276004034
 20
1.549013140787464
 30
0.0
 11
20.37944720592384
 21
4.007697586670968
 31
0.0
  0
LINE
  5
205E
330
2037
100
AcDbEntity
  8
0
  6
CONTINUOUS
100
AcDbLine
 10
18.10475279113329
 20
1.059483962800223
 30
0.0
 11
19.88949753175608
 21
2.84422870342302
 31
0.0
  0
LINE
  5
205F
330
2037
100
AcDbEntity
  8
0
  6
CONTINUOUS
100
AcDbLine
 10
18.28874282222623
 20
0.5699547848129822
 30
0.0
 11
19.39954785758832
 21
1.680759820175074
 31
0.0
  0
LINE
  5
2060
330
2037
100
AcDbEntity
  8
0
  6
CONTINUOUS
100
AcDbLine
 10
18.47273285331918
 20
0.0804256068257416
 30
0.0
 11
18.90959818342056
 21
0.517290936927127
 31
0.0
  0
LINE
  5
2061
330
2037
100
AcDbEntity
  8
0
  6
CONTINUOUS
100
AcDbLine
 10
14.3590401358224
 20
-0.1570118376323384
 30
0.0
 11
14.24903296539946
 21
-0.0470046672093929
 31
0.0
  0
LINE
  5
2062
330
2037
100
AcDbEntity
  8
0
  6
CONTINUOUS
100
AcDbLine
 10
14.54309291258661
 20
0.332454594683643
 30
0.0
 11
13.75908329123172
 21
1.116464216038529
 31
0.0
  0
LINE
  5
2063
330
2037
100
AcDbEntity
  8
0
  6
CONTINUOUS
100
AcDbLine
 10
14.72714568935081
 20
0.8219210269996244
 30
0.0
 11
13.26913361706399
 21
2.27993309928645
 31
0.0
  0
LINE
  5
2064
330
2037
100
AcDbEntity
  8
0
  6
CONTINUOUS
100
AcDbLine
 10
14.91119846611502
 20
1.311387459315606
 30
0.0
 11
12.77918394289625
 21
3.443401982534371
 31
0.0
  0
LINE
  5
2065
330
2037
100
AcDbEntity
  8
0
  6
CONTINUOUS
100
AcDbLine
 10
15.09525124287922
 20
1.800853891631587
 30
0.0
 11
12.28923426872852
 21
4.606870865782293
 31
0.0
  0
LINE
  5
2066
330
2037
100
AcDbEntity
  8
0
  6
CONTINUOUS
100
AcDbLine
 10
15.27930401964343
 20
2.290320323947569
 30
0.0
 11
11.79928459456078
 21
5.770339749030213
 31
0.0
  0
LINE
  5
2067
330
2037
100
AcDbEntity
  8
0
  6
CONTINUOUS
100
AcDbLine
 10
15.46335679640763
 20
2.77978675626355
 30
0.0
 11
14.48885470994921
 21
3.754288842721972
 31
0.0
  0
LINE
  5
2068
330
2037
100
AcDbEntity
  8
0
  6
CONTINUOUS
100
AcDbLine
 10
13.88507249233704
 20
4.358071060334137
 30
0.0
 11
11.30933492039305
 21
6.933808632278135
 31
0.0
  0
LINE
  5
2069
330
2037
100
AcDbEntity
  8
0
  6
CONTINUOUS
100
AcDbLine
 10
18.75840522805855
 20
0.1582575336928151
 30
0.0
 11
18.25383727664818
 21
0.6628254851031863
 31
0.0
  0
LINE
  5
206A
330
2037
100
AcDbEntity
  8
0
  6
CONTINUOUS
100
AcDbLine
 10
15.64740957317184
 20
3.269253188579531
 30
0.0
 11
14.67288388101266
 21
4.243778880738705
 31
0.0
  0
LINE
  5
206B
330
2037
100
AcDbEntity
  8
0
  6
CONTINUOUS
100
AcDbLine
 10
13.39509276772158
 20
5.521569994029786
 30
0.0
 11
10.81938524622531
 21
8.097277515526056
 31
0.0
  0
LINE
  5
206C
330
2037
100
AcDbEntity
  8
0
  6
CONTINUOUS
100
AcDbLine
 10
18.95798597883369
 20
0.6321959919978686
 30
0.0
 11
17.84825644852853
 21
1.741925522303024
 31
0.0
  0
LINE
  5
206D
330
2037
100
AcDbEntity
  8
0
  6
CONTINUOUS
100
AcDbLine
 10
19.15756672960882
 20
1.106134450302922
 30
0.0
 11
17.44267562040888
 21
2.821025559502861
 31
0.0
  0
LINE
  5
206E
330
2037
100
AcDbEntity
  8
0
  6
CONTINUOUS
100
AcDbLine
 10
15.83146234993604
 20
3.758719620895513
 30
0.0
 11
14.85691305207612
 21
4.733268918755439
 31
0.0
  0
LINE
  5
206F
330
2037
100
AcDbEntity
  8
0
  6
CONTINUOUS
100
AcDbLine
 10
16.01551512670025
 20
4.248186053211494
 30
0.0
 11
15.04094222313957
 21
5.222758956772172
 31
0.0
  0
LINE
  5
2070
330
2037
100
AcDbEntity
  8
0
  6
CONTINUOUS
100
AcDbLine
 10
12.90511304310612
 20
6.685068927725435
 30
0.0
 11
10.8270819708403
 21
8.763099999991255
 31
0.0
  0
LINE
  5
2071
330
2037
100
AcDbEntity
  8
0
  6
CONTINUOUS
100
AcDbLine
 10
12.41513331849066
 20
7.848567861421083
 30
0.0
 11
11.50060117992049
 21
8.763099999991255
 31
0.0
  0
LINE
  5
2072
330
2037
100
AcDbEntity
  8
0
  6
CONTINUOUS
100
AcDbLine
 10
19.35714748038395
 20
1.580072908607975
 30
0.0
 11
17.03709479228923
 21
3.900125596702697
 31
0.0
  0
LINE
  5
2073
330
2037
100
AcDbEntity
  8
0
  6
CONTINUOUS
100
AcDbLine
 10
19.55672823115909
 20
2.054011366913028
 30
0.0
 11
16.63151396416958
 21
4.979225633902534
 31
0.0
  0
LINE
  5
2074
330
2037
100
AcDbEntity
  8
0
  6
CONTINUOUS
100
AcDbLine
 10
16.19956790346445
 20
4.737652485527476
 30
0.0
 11
15.22497139420302
 21
5.712248994788904
 31
0.0
  0
LINE
  5
2075
330
2037
100
AcDbEntity
  8
0
  6
CONTINUOUS
100
AcDbLine
 10
16.38362068022866
 20
5.227118917843457
 30
0.0
 11
15.40900056526648
 21
6.201739032805637
 31
0.0
  0
LINE
  5
2076
330
2037
100
AcDbEntity
  8
0
  6
CONTINUOUS
100
AcDbLine
 10
19.75630898193422
 20
2.527949825218081
 30
0.0
 11
18.70774536448286
 21
3.576513442669441
 31
0.0
  0
LINE
  5
2077
330
2037
100
AcDbEntity
  8
0
  6
CONTINUOUS
100
AcDbLine
 10
19.95588973270936
 20
3.001888283523134
 30
0.0
 11
18.90726987211446
 21
4.050508144118028
 31
0.0
  0
LINE
  5
2078
330
2037
100
AcDbEntity
  8
0
  6
CONTINUOUS
100
AcDbLine
 10
20.15547048348449
 20
3.475826741828186
 30
0.0
 11
19.10679437974606
 21
4.524502845566614
 31
0.0
  0
LINE
  5
2079
330
2037
100
AcDbEntity
  8
0
  6
CONTINUOUS
100
AcDbLine
 10
20.35505123425962
 20
3.94976520013324
 30
0.0
 11
19.30631888737766
 21
4.998497547015201
 31
0.0
  0
LINE
  5
207A
330
2037
100
AcDbEntity
  8
0
  6
CONTINUOUS
100
AcDbLine
 10
20.55463198503475
 20
4.423703658438292
 30
0.0
 11
19.50584339500926
 21
5.472492248463787
 31
0.0
  0
LINE
  5
207B
330
2037
100
AcDbEntity
  8
0
  6
CONTINUOUS
100
AcDbLine
 10
18.37481191085755
 20
3.909446896294752
 30
0.0
 11
15.59302973632993
 21
6.691229070822371
 31
0.0
  0
LINE
  5
207C
330
2037
100
AcDbEntity
  8
0
  6
CONTINUOUS
100
AcDbLine
 10
17.96904084440766
 20
4.988737171824825
 30
0.0
 11
15.77705890739338
 21
7.180719108839104
 31
0.0
  0
LINE
  5
207D
330
2037
100
AcDbEntity
  8
0
  6
CONTINUOUS
100
AcDbLine
 10
17.56326977795777
 20
6.068027447354899
 30
0.0
 11
15.96108807845684
 21
7.670209146855838
 31
0.0
  0
LINE
  5
207E
330
2037
100
AcDbEntity
  8
0
  6
CONTINUOUS
100
AcDbLine
 10
17.15749871150789
 20
7.147317722884972
 30
0.0
 11
16.14511724952029
 21
8.15969918487257
 31
0.0
  0
LINE
  5
207F
330
2037
100
AcDbEntity
  8
0
  6
CONTINUOUS
100
AcDbLine
 10
16.751727645058
 20
8.226607998415046
 30
0.0
 11
16.32914642058374
 21
8.649189222889303
 31
0.0
  0
LINE
  5
2080
330
2037
100
AcDbEntity
  8
0
  6
CONTINUOUS
100
AcDbLine
 10
20.75421273580989
 20
4.897642116743345
 30
0.0
 11
19.70536790264086
 21
5.946486949912374
 31
0.0
  0
LINE
  5
2081
330
2037
100
AcDbEntity
  8
0
  6
CONTINUOUS
100
AcDbLine
 10
20.95379348658502
 20
5.371580575048398
 30
0.0
 11
19.90489241027246
 21
6.42048165136096
 31
0.0
  0
LINE
  5
2082
330
2037
100
AcDbEntity
  8
0
  6
CONTINUOUS
100
AcDbLine
 10
21.15337423736015
 20
5.845519033353452
 30
0.0
 11
20.10441691790406
 21
6.894476352809547
 31
0.0
  0
LINE
  5
2083
330
2037
100
AcDbEntity
  8
0
  6
CONTINUOUS
100
AcDbLine
 10
21.35295498813529
 20
6.319457491658505
 30
0.0
 11
20.30394142553566
 21
7.368471054258134
 31
0.0
  0
LINE
  5
2084
330
2037
100
AcDbEntity
  8
0
  6
CONTINUOUS
100
AcDbLine
 10
21.55253573891042
 20
6.793395949963558
 30
0.0
 11
20.50346593316726
 21
7.842465755706721
 31
0.0
  0
LINE
  5
2085
330
2037
100
AcDbEntity
  8
0
  6
CONTINUOUS
100
AcDbLine
 10
21.75211648968556
 20
7.267334408268612
 30
0.0
 11
20.70299044079886
 21
8.316460457155308
 31
0.0
  0
LINE
  5
2086
330
2037
100
AcDbEntity
  8
0
  6
CONTINUOUS
100
AcDbLine
 10
21.95169724046069
 20
7.741272866573663
 30
0.0
 11
20.9298701070431
 21
8.763099999991256
 31
0.0
  0
LINE
  5
2087
330
2037
100
AcDbEntity
  8
0
  6
CONTINUOUS
100
AcDbLine
 10
22.15127799123582
 20
8.215211324878716
 30
0.0
 11
21.60338931612328
 21
8.763099999991256
 31
0.0
  0
LINE
  5
2088
330
2037
100
AcDbEntity
  8
0
  6
CONTINUOUS
100
AcDbLine
 10
22.35085874201096
 20
8.689149783183769
 30
0.0
 11
22.27690852520347
 21
8.763099999991255
 31
0.0
  0
ENDBLK
  5
217A
330
2037
100
AcDbEntity
  8
0
100
AcDbBlockEnd
  0
BLOCK
  5
217B
330
2089
100
AcDbEntity
  8
0
100
AcDbBlockBegin
  2
*X31
 70
     1
 10
0.0
 20
0.0
 30
0.0
  3
*X31
  1

  0
LINE
  5
208A
330
2089
100
AcDbEntity
  8
0
  6
CONTINUOUS
100
AcDbLine
 10
23.19462913593892
 20
8.169917934846424
 30
0.0
 11
23.70775465517246
 21
8.683043454079957
 31
0.0
  0
LINE
  5
208B
330
2089
100
AcDbEntity
  8
0
  6
CONTINUOUS
100
AcDbLine
 10
22.64923161835078
 20
6.951001208178088
 30
0.0
 11
23.9159364069932
 21
8.217705996820516
 31
0.0
  0
LINE
  5
208C
330
2089
100
AcDbEntity
  8
0
  6
CONTINUOUS
100
AcDbLine
 10
22.10383410076263
 20
5.732084481509751
 30
0.0
 11
24.12411815881395
 21
7.752368539561078
 31
0.0
  0
LINE
  5
208D
330
2089
100
AcDbEntity
  8
0
  6
CONTINUOUS
100
AcDbLine
 10
21.55843658317447
 20
4.513167754841414
 30
0.0
 11
24.3322999106347
 21
7.287031082301639
 31
0.0
  0
LINE
  5
208E
330
2089
100
AcDbEntity
  8
0
  6
CONTINUOUS
100
AcDbLine
 10
21.01303906558632
 20
3.294251028173077
 30
0.0
 11
24.54048166245544
 21
6.821693625042199
 31
0.0
  0
LINE
  5
208F
330
2089
100
AcDbEntity
  8
0
  6
CONTINUOUS
100
AcDbLine
 10
20.46764154799817
 20
2.075334301504738
 30
0.0
 11
23.28571549467848
 21
4.89340824818505
 31
0.0
  0
LINE
  5
2090
330
2089
100
AcDbEntity
  8
0
  6
CONTINUOUS
100
AcDbLine
 10
19.92224403041002
 20
0.8564175748364002
 30
0.0
 11
22.74075865492779
 21
3.674932199354171
 31
0.0
  0
LINE
  5
2091
330
2089
100
AcDbEntity
  8
0
  6
CONTINUOUS
100
AcDbLine
 10
23.67305085490148
 20
5.280743608408048
 30
0.0
 11
24.74866341427619
 21
6.356356167782759
 31
0.0
  0
LINE
  5
2092
330
2089
100
AcDbEntity
  8
0
  6
CONTINUOUS
100
AcDbLine
 10
23.88118970842314
 20
4.815363252849522
 30
0.0
 11
24.95684516609694
 21
5.89101871052332
 31
0.0
  0
LINE
  5
2093
330
2089
100
AcDbEntity
  8
0
  6
CONTINUOUS
100
AcDbLine
 10
19.73925852647308
 20
-0.0000871381807288
 30
0.0
 11
23.4103456646501
 21
3.670999999996297
 31
0.0
  0
LINE
  5
2094
330
2089
100
AcDbEntity
  8
0
  6
CONTINUOUS
100
AcDbLine
 10
24.0893285619448
 20
4.349982897290997
 30
0.0
 11
25.16502691791769
 21
5.42568125326388
 31
0.0
  0
LINE
  5
2095
330
2089
100
AcDbEntity
  8
0
  6
CONTINUOUS
100
AcDbLine
 10
20.41282099582748
 20
-0.0000438779065108
 30
0.0
 11
21.64944178675636
 21
1.236576913022366
 31
0.0
  0
LINE
  5
2096
330
2089
100
AcDbEntity
  8
0
  6
CONTINUOUS
100
AcDbLine
 10
22.78126487373161
 20
2.36839999999762
 30
0.0
 11
24.08386487373029
 21
3.670999999996297
 31
0.0
  0
LINE
  5
2097
330
2089
100
AcDbEntity
  8
0
  6
CONTINUOUS
100
AcDbLine
 10
24.29746741546646
 20
3.884602541732471
 30
0.0
 11
25.37320866973843
 21
4.960343796004441
 31
0.0
  0
LINE
  5
2098
330
2089
100
AcDbEntity
  8
0
  6
CONTINUOUS
100
AcDbLine
 10
21.08638346518189
 20
-0.0000006176322938
 30
0.0
 11
21.10379033335899
 21
0.0174062505448083
 31
0.0
  0
LINE
  5
2099
330
2089
100
AcDbEntity
  8
0
  6
CONTINUOUS
100
AcDbLine
 10
23.4547840828118
 20
2.36839999999762
 30
0.0
 11
25.58139042155918
 21
4.495006338745002
 31
0.0
  0
LINE
  5
209A
330
2089
100
AcDbEntity
  8
0
  6
CONTINUOUS
100
AcDbLine
 10
29.30199999996933
 20
8.215615917155148
 30
0.0
 11
29.84948408280543
 21
8.763099999991255
 31
0.0
  0
LINE
  5
209B
330
2089
100
AcDbEntity
  8
0
  6
CONTINUOUS
100
AcDbLine
 10
24.12830329189199
 20
2.36839999999762
 30
0.0
 11
25.78957217337993
 21
4.029668881485562
 31
0.0
  0
LINE
  5
209C
330
2089
100
AcDbEntity
  8
0
  6
CONTINUOUS
100
AcDbLine
 10
29.30199999996933
 20
7.54209670807496
 30
0.0
 11
30.52300329188562
 21
8.763099999991255
 31
0.0
  0
LINE
  5
209D
330
2089
100
AcDbEntity
  8
0
  6
CONTINUOUS
100
AcDbLine
 10
24.80182250097217
 20
2.36839999999762
 30
0.0
 11
25.99775392520067
 21
3.564331424226122
 31
0.0
  0
LINE
  5
209E
330
2089
100
AcDbEntity
  8
0
  6
CONTINUOUS
100
AcDbLine
 10
29.30199999996933
 20
6.868577498994774
 30
0.0
 11
30.74199999996926
 21
8.308577498994712
 31
0.0
  0
LINE
  5
209F
330
2089
100
AcDbEntity
  8
0
  6
CONTINUOUS
100
AcDbLine
 10
25.13028238392013
 20
2.023340673865392
 30
0.0
 11
26.20593567702142
 21
3.098993966966683
 31
0.0
  0
LINE
  5
20A0
330
2089
100
AcDbEntity
  8
0
  6
CONTINUOUS
100
AcDbLine
 10
25.33838066033617
 20
1.557919741201244
 30
0.0
 11
26.41411742884217
 21
2.633656509707244
 31
0.0
  0
LINE
  5
20A1
330
2089
100
AcDbEntity
  8
0
  6
CONTINUOUS
100
AcDbLine
 10
25.54647893675221
 20
1.092498808537098
 30
0.0
 11
26.62229918066291
 21
2.168319052447804
 31
0.0
  0
LINE
  5
20A2
330
2089
100
AcDbEntity
  8
0
  6
CONTINUOUS
100
AcDbLine
 10
25.75457721316825
 20
0.62707787587295
 30
0.0
 11
26.83048093248366
 21
1.702981595188365
 31
0.0
  0
LINE
  5
20A3
330
2089
100
AcDbEntity
  8
0
  6
CONTINUOUS
100
AcDbLine
 10
29.30199999996933
 20
6.195058289914587
 30
0.0
 11
30.74199999996926
 21
7.635058289914522
 31
0.0
  0
LINE
  5
20A4
330
2089
100
AcDbEntity
  8
0
  6
CONTINUOUS
100
AcDbLine
 10
29.30199999996933
 20
5.521539080834401
 30
0.0
 11
30.74199999996926
 21
6.961539080834331
 31
0.0
  0
LINE
  5
20A5
330
2089
100
AcDbEntity
  8
0
  6
CONTINUOUS
100
AcDbLine
 10
29.30199999996933
 20
4.848019871754214
 30
0.0
 11
30.74199999996925
 21
6.288019871754143
 31
0.0
  0
LINE
  5
20A6
330
2089
100
AcDbEntity
  8
0
  6
CONTINUOUS
100
AcDbLine
 10
29.30199999996933
 20
4.174500662674028
 30
0.0
 11
30.74199999996925
 21
5.614500662673953
 31
0.0
  0
LINE
  5
20A7
330
2089
100
AcDbEntity
  8
0
  6
CONTINUOUS
100
AcDbLine
 10
25.96267548958429
 20
0.1616569432088024
 30
0.0
 11
27.18411854636669
 21
1.383099999991207
 31
0.0
  0
LINE
  5
20A8
330
2089
100
AcDbEntity
  8
0
  6
CONTINUOUS
100
AcDbLine
 10
29.30199999996933
 20
3.500981453593841
 30
0.0
 11
30.74199999996925
 21
4.940981453593762
 31
0.0
  0
LINE
  5
20A9
330
2089
100
AcDbEntity
  8
0
  6
CONTINUOUS
100
AcDbLine
 10
26.50763775544691
 20
0.0330999999912356
 30
0.0
 11
27.85763775544689
 21
1.383099999991223
 31
0.0
  0
LINE
  5
20AA
330
2089
100
AcDbEntity
  8
0
  6
CONTINUOUS
100
AcDbLine
 10
29.30199999996933
 20
2.827462244513656
 30
0.0
 11
30.74199999996925
 21
4.267462244513574
 31
0.0
  0
LINE
  5
20AB
330
2089
100
AcDbEntity
  8
0
  6
CONTINUOUS
100
AcDbLine
 10
27.18115696452709
 20
0.0330999999912356
 30
0.0
 11
28.55073879889363
 21
1.402681834357775
 31
0.0
  0
LINE
  5
20AC
330
2089
100
AcDbEntity
  8
0
  6
CONTINUOUS
100
AcDbLine
 10
29.28241816560272
 20
2.134361201066866
 30
0.0
 11
30.74199999996924
 21
3.593943035433383
 31
0.0
  0
LINE
  5
20AD
330
2089
100
AcDbEntity
  8
0
  6
CONTINUOUS
100
AcDbLine
 10
27.85467617360728
 20
0.0330999999912356
 30
0.0
 11
30.74199999996924
 21
2.920423826353195
 31
0.0
  0
LINE
  5
20AE
330
2089
100
AcDbEntity
  8
0
  6
CONTINUOUS
100
AcDbLine
 10
28.53897559587887
 20
0.0438802131826428
 30
0.0
 11
30.73121978677781
 21
2.236124404081585
 31
0.0
  0
LINE
  5
20AF
330
2089
100
AcDbEntity
  8
0
  6
CONTINUOUS
100
AcDbLine
 10
29.45140055588722
 20
0.2827859641107988
 30
0.0
 11
30.49231403584965
 21
1.323699444073236
 31
0.0
  0
LINE
  5
20B0
330
2089
100
AcDbEntity
  8
0
  6
CONTINUOUS
100
AcDbLine
 10
19.59027867740337
 20
-0.0000967065718083
 30
0.0
 11
19.55485265190471
 21
0.035329318926844
 31
0.0
  0
LINE
  5
20B1
330
2089
100
AcDbEntity
  8
0
  6
CONTINUOUS
100
AcDbLine
 10
20.26375463176586
 20
-0.0000534518541091
 30
0.0
 11
19.76305575737534
 21
0.5006454225364014
 31
0.0
  0
LINE
  5
20B2
330
2089
100
AcDbEntity
  8
0
  6
CONTINUOUS
100
AcDbLine
 10
20.93723058612834
 20
-0.0000101971364099
 30
0.0
 11
19.97125886284597
 21
0.965961526145958
 31
0.0
  0
LINE
  5
20B3
330
2089
100
AcDbEntity
  8
0
  6
CONTINUOUS
100
AcDbLine
 10
21.25514828313686
 20
0.355591314935257
 30
0.0
 11
20.1794619683166
 21
1.431277629755512
 31
0.0
  0
LINE
  5
20B4
330
2089
100
AcDbEntity
  8
0
  6
CONTINUOUS
100
AcDbLine
 10
21.46338838394921
 20
0.8208704232030986
 30
0.0
 11
20.38766507378723
 21
1.896593733365069
 31
0.0
  0
LINE
  5
20B5
330
2089
100
AcDbEntity
  8
0
  6
CONTINUOUS
100
AcDbLine
 10
21.67162848476155
 20
1.28614953147094
 30
0.0
 11
20.59586817925786
 21
2.361909836974626
 31
0.0
  0
LINE
  5
20B6
330
2089
100
AcDbEntity
  8
0
  6
CONTINUOUS
100
AcDbLine
 10
21.8798685855739
 20
1.751428639738782
 30
0.0
 11
20.80407128472849
 21
2.827225940584183
 31
0.0
  0
LINE
  5
20B7
330
2089
100
AcDbEntity
  8
0
  6
CONTINUOUS
100
AcDbLine
 10
22.08810868638624
 20
2.216707748006623
 30
0.0
 11
21.01227439019912
 21
3.292542044193739
 31
0.0
  0
LINE
  5
20B8
330
2089
100
AcDbEntity
  8
0
  6
CONTINUOUS
100
AcDbLine
 10
22.60993564347543
 20
2.36839999999762
 30
0.0
 11
21.22047749566975
 21
3.757858147803296
 31
0.0
  0
LINE
  5
20B9
330
2089
100
AcDbEntity
  8
0
  6
CONTINUOUS
100
AcDbLine
 10
23.28345485255561
 20
2.36839999999762
 30
0.0
 11
21.42868060114038
 21
4.223174251412853
 31
0.0
  0
LINE
  5
20BA
330
2089
100
AcDbEntity
  8
0
  6
CONTINUOUS
100
AcDbLine
 10
26.29227406164219
 20
0.0330999999912356
 30
0.0
 11
25.80009199592872
 21
0.5252820657046957
 31
0.0
  0
LINE
  5
20BB
330
2089
100
AcDbEntity
  8
0
  6
CONTINUOUS
100
AcDbLine
 10
23.9569740616358
 20
2.36839999999762
 30
0.0
 11
21.63688370661101
 21
4.688490355022409
 31
0.0
  0
LINE
  5
20BC
330
2089
100
AcDbEntity
  8
0
  6
CONTINUOUS
100
AcDbLine
 10
26.96579327072237
 20
0.0330999999912356
 30
0.0
 11
25.2554132311971
 21
1.743480039516508
 31
0.0
  0
LINE
  5
20BD
330
2089
100
AcDbEntity
  8
0
  6
CONTINUOUS
100
AcDbLine
 10
24.63049327071599
 20
2.36839999999762
 30
0.0
 11
23.32789327071731
 21
3.670999999996297
 31
0.0
  0
LINE
  5
20BE
330
2089
100
AcDbEntity
  8
0
  6
CONTINUOUS
100
AcDbLine
 10
22.92098674744635
 20
4.077906523267254
 30
0.0
 11
21.84508681208164
 21
5.153806458631966
 31
0.0
  0
LINE
  5
20BF
330
2089
100
AcDbEntity
  8
0
  6
CONTINUOUS
100
AcDbLine
 10
27.63931247980256
 20
0.0330999999912356
 30
0.0
 11
24.0014124797975
 21
3.670999999996297
 31
0.0
  0
LINE
  5
20C0
330
2089
100
AcDbEntity
  8
0
  6
CONTINUOUS
100
AcDbLine
 10
23.129125600968
 20
4.5432868788258
 30
0.0
 11
22.05328991755227
 21
5.619122562241522
 31
0.0
  0
LINE
  5
20C1
330
2089
100
AcDbEntity
  8
0
  6
CONTINUOUS
100
AcDbLine
 10
28.31283168888275
 20
0.0330999999912356
 30
0.0
 11
24.16488385994816
 21
4.181047828925828
 31
0.0
  0
LINE
  5
20C2
330
2089
100
AcDbEntity
  8
0
  6
CONTINUOUS
100
AcDbLine
 10
23.33726445448964
 20
5.008667234384345
 30
0.0
 11
22.2614930230229
 21
6.084438665851079
 31
0.0
  0
LINE
  5
20C3
330
2089
100
AcDbEntity
  8
0
  6
CONTINUOUS
100
AcDbLine
 10
28.92085740005492
 20
0.0985934978992438
 30
0.0
 11
27.63635089796295
 21
1.383099999991217
 31
0.0
  0
LINE
  5
20C4
330
2089
100
AcDbEntity
  8
0
  6
CONTINUOUS
100
AcDbLine
 10
26.43704649509776
 20
2.582404402856405
 30
0.0
 11
23.61992702019732
 21
5.399523877756844
 31
0.0
  0
LINE
  5
20C5
330
2089
100
AcDbEntity
  8
0
  6
CONTINUOUS
100
AcDbLine
 10
23.54540330801128
 20
5.47404758994289
 30
0.0
 11
22.46969612849353
 21
6.549754769460635
 31
0.0
  0
LINE
  5
20C6
330
2089
100
AcDbEntity
  8
0
  6
CONTINUOUS
100
AcDbLine
 10
29.42225615078443
 20
0.2707139562499279
 30
0.0
 11
28.30987010704312
 21
1.383099999991234
 31
0.0
  0
LINE
  5
20C7
330
2089
100
AcDbEntity
  8
0
  6
CONTINUOUS
100
AcDbLine
 10
25.89179548232307
 20
3.801174624711282
 30
0.0
 11
22.67789923396416
 21
7.015070873070191
 31
0.0
  0
LINE
  5
20C8
330
2089
100
AcDbEntity
  8
0
  6
CONTINUOUS
100
AcDbLine
 10
29.83624534690007
 20
0.5302439692144705
 30
0.0
 11
28.85811781497101
 21
1.508371501143527
 31
0.0
  0
LINE
  5
20C9
330
2089
100
AcDbEntity
  8
0
  6
CONTINUOUS
100
AcDbLine
 10
25.34654446954838
 20
5.01994484656616
 30
0.0
 11
22.88610233943479
 21
7.480386976679748
 31
0.0
  0
LINE
  5
20CA
330
2089
100
AcDbEntity
  8
0
  6
CONTINUOUS
100
AcDbLine
 10
30.17865975401872
 20
0.8613487711760022
 30
0.0
 11
29.18888744090175
 21
1.851121084292977
 31
0.0
  0
LINE
  5
20CB
330
2089
100
AcDbEntity
  8
0
  6
CONTINUOUS
100
AcDbLine
 10
24.80129345677369
 20
6.238715068421037
 30
0.0
 11
23.09430544490542
 21
7.945703080289305
 31
0.0
  0
LINE
  5
20CC
330
2089
100
AcDbEntity
  8
0
  6
CONTINUOUS
100
AcDbLine
 10
30.45496647202376
 20
1.258561262251155
 30
0.0
 11
29.30199999996933
 21
2.411527734305588
 31
0.0
  0
LINE
  5
20CD
330
2089
100
AcDbEntity
  8
0
  6
CONTINUOUS
100
AcDbLine
 10
24.256042443999
 20
7.457485290275915
 30
0.0
 11
23.30250855037605
 21
8.411019183898862
 31
0.0
  0
LINE
  5
20CE
330
2089
100
AcDbEntity
  8
0
  6
CONTINUOUS
100
AcDbLine
 10
30.64868582078271
 20
1.738361122572387
 30
0.0
 11
29.30199999996933
 21
3.085046943385775
 31
0.0
  0
LINE
  5
20CF
330
2089
100
AcDbEntity
  8
0
  6
CONTINUOUS
100
AcDbLine
 10
23.71079143122431
 20
8.676255512130794
 30
0.0
 11
23.51071165584668
 21
8.876335287508416
 31
0.0
  0
LINE
  5
20D0
330
2089
100
AcDbEntity
  8
0
  6
CONTINUOUS
100
AcDbLine
 10
30.73802122914428
 20
2.322544923291007
 30
0.0
 11
29.30199999996933
 21
3.758566152465961
 31
0.0
  0
LINE
  5
20D1
330
2089
100
AcDbEntity
  8
0
  6
CONTINUOUS
100
AcDbLine
 10
30.74199999996924
 20
2.992085361546236
 30
0.0
 11
29.30199999996933
 21
4.432085361546148
 31
0.0
  0
LINE
  5
20D2
330
2089
100
AcDbEntity
  8
0
  6
CONTINUOUS
100
AcDbLine
 10
30.74199999996924
 20
3.665604570626419
 30
0.0
 11
29.30199999996933
 21
5.105604570626333
 31
0.0
  0
LINE
  5
20D3
330
2089
100
AcDbEntity
  8
0
  6
CONTINUOUS
100
AcDbLine
 10
30.74199999996925
 20
4.339123779706602
 30
0.0
 11
29.30199999996933
 21
5.77912377970652
 31
0.0
  0
LINE
  5
20D4
330
2089
100
AcDbEntity
  8
0
  6
CONTINUOUS
100
AcDbLine
 10
30.74199999996925
 20
5.012642988786785
 30
0.0
 11
29.30199999996933
 21
6.452642988786707
 31
0.0
  0
LINE
  5
20D5
330
2089
100
AcDbEntity
  8
0
  6
CONTINUOUS
100
AcDbLine
 10
30.74199999996925
 20
5.68616219786697
 30
0.0
 11
29.30199999996933
 21
7.126162197866894
 31
0.0
  0
LINE
  5
20D6
330
2089
100
AcDbEntity
  8
0
  6
CONTINUOUS
100
AcDbLine
 10
30.74199999996925
 20
6.359681406947153
 30
0.0
 11
29.30199999996933
 21
7.799681406947081
 31
0.0
  0
LINE
  5
20D7
330
2089
100
AcDbEntity
  8
0
  6
CONTINUOUS
100
AcDbLine
 10
30.74199999996926
 20
7.033200616027337
 30
0.0
 11
29.30199999996933
 21
8.473200616027269
 31
0.0
  0
LINE
  5
20D8
330
2089
100
AcDbEntity
  8
0
  6
CONTINUOUS
100
AcDbLine
 10
30.74199999996926
 20
7.706719825107518
 30
0.0
 11
29.68561982508552
 21
8.763099999991255
 31
0.0
  0
LINE
  5
20D9
330
2089
100
AcDbEntity
  8
0
  6
CONTINUOUS
100
AcDbLine
 10
30.74199999996926
 20
8.380239034187703
 30
0.0
 11
30.35913903416571
 21
8.763099999991255
 31
0.0
  0
ENDBLK
  5
217C
330
2089
100
AcDbEntity
  8
0
100
AcDbBlockEnd
  0
BLOCK
  5
217D
330
20DA
100
AcDbEntity
  8
0
100
AcDbBlockBegin
  2
*X32
 70
     1
 10
0.0
 20
0.0
 30
0.0
  3
*X32
  1

  0
LINE
  5
20DB
330
20DA
100
AcDbEntity
  8
0
  6
CONTINUOUS
100
AcDbLine
 10
31.64199999996833
 20
8.535058289913598
 30
0.0
 11
31.87004171004599
 21
8.763099999991255
 31
0.0
  0
LINE
  5
20DC
330
20DA
100
AcDbEntity
  8
0
  6
CONTINUOUS
100
AcDbLine
 10
31.64199999996833
 20
7.861539080833412
 30
0.0
 11
32.54356091912618
 21
8.763099999991255
 31
0.0
  0
LINE
  5
20DD
330
20DA
100
AcDbEntity
  8
0
  6
CONTINUOUS
100
AcDbLine
 10
31.64199999996833
 20
7.188019871753226
 30
0.0
 11
33.08199999996839
 21
8.628019871753281
 31
0.0
  0
LINE
  5
20DE
330
20DA
100
AcDbEntity
  8
0
  6
CONTINUOUS
100
AcDbLine
 10
31.64199999996833
 20
6.51450066267304
 30
0.0
 11
33.08199999996839
 21
7.954500662673095
 31
0.0
  0
LINE
  5
20DF
330
20DA
100
AcDbEntity
  8
0
  6
CONTINUOUS
100
AcDbLine
 10
31.64199999996833
 20
5.840981453592853
 30
0.0
 11
33.08199999996839
 21
7.280981453592908
 31
0.0
  0
LINE
  5
20E0
330
20DA
100
AcDbEntity
  8
0
  6
CONTINUOUS
100
AcDbLine
 10
31.64199999996833
 20
5.167462244512667
 30
0.0
 11
33.08199999996839
 21
6.607462244512721
 31
0.0
  0
LINE
  5
20E1
330
20DA
100
AcDbEntity
  8
0
  6
CONTINUOUS
100
AcDbLine
 10
31.64199999996833
 20
4.493943035432481
 30
0.0
 11
33.08199999996839
 21
5.933943035432535
 31
0.0
  0
LINE
  5
20E2
330
20DA
100
AcDbEntity
  8
0
  6
CONTINUOUS
100
AcDbLine
 10
31.64199999996833
 20
3.820423826352293
 30
0.0
 11
33.08199999996839
 21
5.260423826352348
 31
0.0
  0
LINE
  5
20E3
330
20DA
100
AcDbEntity
  8
0
  6
CONTINUOUS
100
AcDbLine
 10
31.64199999996833
 20
3.146904617272106
 30
0.0
 11
33.08199999996839
 21
4.586904617272161
 31
0.0
  0
LINE
  5
20E4
330
20DA
100
AcDbEntity
  8
0
  6
CONTINUOUS
100
AcDbLine
 10
36.23199999996837
 20
8.410423826352325
 30
0.0
 11
36.5846761736073
 21
8.763099999991255
 31
0.0
  0
LINE
  5
20E5
330
20DA
100
AcDbEntity
  8
0
  6
CONTINUOUS
100
AcDbLine
 10
36.23199999996837
 20
7.73690461727214
 30
0.0
 11
37.25819538268748
 21
8.763099999991255
 31
0.0
  0
LINE
  5
20E6
330
20DA
100
AcDbEntity
  8
0
  6
CONTINUOUS
100
AcDbLine
 10
31.64257403601376
 20
2.473959444237348
 30
0.0
 11
33.08199999996839
 21
3.913385408191974
 31
0.0
  0
LINE
  5
20E7
330
20DA
100
AcDbEntity
  8
0
  6
CONTINUOUS
100
AcDbLine
 10
36.23199999996837
 20
7.063385408191953
 30
0.0
 11
37.67199999996831
 21
8.503385408191894
 31
0.0
  0
LINE
  5
20E8
330
20DA
100
AcDbEntity
  8
0
  6
CONTINUOUS
100
AcDbLine
 10
31.72013636841932
 20
1.87800256756272
 30
0.0
 11
33.08199999996839
 21
3.239866199111788
 31
0.0
  0
LINE
  5
20E9
330
20DA
100
AcDbEntity
  8
0
  6
CONTINUOUS
100
AcDbLine
 10
36.23199999996837
 20
6.389866199111767
 30
0.0
 11
37.67199999996831
 21
7.829866199111708
 31
0.0
  0
LINE
  5
20EA
330
20DA
100
AcDbEntity
  8
0
  6
CONTINUOUS
100
AcDbLine
 10
31.89042734314753
 20
1.374774333210744
 30
0.0
 11
33.08199999996839
 21
2.566346990031601
 31
0.0
  0
LINE
  5
20EB
330
20DA
100
AcDbEntity
  8
0
  6
CONTINUOUS
100
AcDbLine
 10
36.23199999996837
 20
5.71634699003158
 30
0.0
 11
37.67199999996831
 21
7.156346990031521
 31
0.0
  0
LINE
  5
20EC
330
20DA
100
AcDbEntity
  8
0
  6
CONTINUOUS
100
AcDbLine
 10
32.14210568064475
 20
0.952933461627778
 30
0.0
 11
33.18745552475986
 21
1.998283305742888
 31
0.0
  0
LINE
  5
20ED
330
20DA
100
AcDbEntity
  8
0
  6
CONTINUOUS
100
AcDbLine
 10
36.23199999996837
 20
5.042827780951393
 30
0.0
 11
37.67199999996831
 21
6.482827780951334
 31
0.0
  0
LINE
  5
20EE
330
20DA
100
AcDbEntity
  8
0
  6
CONTINUOUS
100
AcDbLine
 10
32.45820639400955
 20
0.5955149659123915
 30
0.0
 11
33.47242681921943
 21
1.60973539112227
 31
0.0
  0
LINE
  5
20EF
330
20DA
100
AcDbEntity
  8
0
  6
CONTINUOUS
100
AcDbLine
 10
36.23199999996837
 20
4.369308571871207
 30
0.0
 11
37.67199999996831
 21
5.809308571871147
 31
0.0
  0
LINE
  5
20F0
330
20DA
100
AcDbEntity
  8
0
  6
CONTINUOUS
100
AcDbLine
 10
32.83432456621412
 20
0.2981139290367771
 30
0.0
 11
33.89722476612215
 21
1.361014128944803
 31
0.0
  0
LINE
  5
20F1
330
20DA
100
AcDbEntity
  8
0
  6
CONTINUOUS
100
AcDbLine
 10
36.23199999996837
 20
3.69578936279102
 30
0.0
 11
37.67199999996831
 21
5.135789362790962
 31
0.0
  0
LINE
  5
20F2
330
20DA
100
AcDbEntity
  8
0
  6
CONTINUOUS
100
AcDbLine
 10
33.2711633111245
 20
0.0614334648669672
 30
0.0
 11
34.43247338014423
 21
1.222743533886696
 31
0.0
  0
LINE
  5
20F3
330
20DA
100
AcDbEntity
  8
0
  6
CONTINUOUS
100
AcDbLine
 10
36.23199999996837
 20
3.022270153710834
 30
0.0
 11
37.67199999996831
 21
4.462270153710775
 31
0.0
  0
LINE
  5
20F4
330
20DA
100
AcDbEntity
  8
0
  6
CONTINUOUS
100
AcDbLine
 10
33.76515245874577
 20
-0.1180965965919523
 30
0.0
 11
35.1587445516215
 21
1.27549549628378
 31
0.0
  0
LINE
  5
20F5
330
20DA
100
AcDbEntity
  8
0
  6
CONTINUOUS
100
AcDbLine
 10
36.21639478609585
 20
2.333145730758136
 30
0.0
 11
37.67199999996831
 21
3.788750944630588
 31
0.0
  0
LINE
  5
20F6
330
20DA
100
AcDbEntity
  8
0
  6
CONTINUOUS
100
AcDbLine
 10
34.34060583368432
 20
-0.2161624307335863
 30
0.0
 11
37.67199999996831
 21
3.115231735550401
 31
0.0
  0
LINE
  5
20F7
330
20DA
100
AcDbEntity
  8
0
  6
CONTINUOUS
100
AcDbLine
 10
35.01698193613905
 20
-0.2133055373590427
 30
0.0
 11
37.66876712070525
 21
2.438479647207154
 31
0.0
  0
LINE
  5
20F8
330
20DA
100
AcDbEntity
  8
0
  6
CONTINUOUS
100
AcDbLine
 10
35.90743367693304
 20
0.0036269943547609
 30
0.0
 11
37.51723902192366
 21
1.613432339345381
 31
0.0
  0
LINE
  5
20F9
330
20DA
100
AcDbEntity
  8
0
  6
CONTINUOUS
100
AcDbLine
 10
32.55309425579761
 20
0.5074718966376706
 30
0.0
 11
32.27784730925847
 21
0.7827188431768102
 31
0.0
  0
LINE
  5
20FA
330
20DA
100
AcDbEntity
  8
0
  6
CONTINUOUS
100
AcDbLine
 10
33.87496468909684
 20
-0.1408793275813673
 30
0.0
 11
31.67993083278052
 21
2.054154528734943
 31
0.0
  0
LINE
  5
20FB
330
20DA
100
AcDbEntity
  8
0
  6
CONTINUOUS
100
AcDbLine
 10
34.64362813207632
 20
-0.2360235614806649
 30
0.0
 11
31.64199999996833
 21
2.765604570627322
 31
0.0
  0
LINE
  5
20FC
330
20DA
100
AcDbEntity
  8
0
  6
CONTINUOUS
100
AcDbLine
 10
35.25801106796118
 20
-0.1768872882853429
 30
0.0
 11
31.64199999996833
 21
3.439123779707508
 31
0.0
  0
LINE
  5
20FD
330
20DA
100
AcDbEntity
  8
0
  6
CONTINUOUS
100
AcDbLine
 10
35.79065650332146
 20
-0.0360135145654361
 30
0.0
 11
34.54143210838231
 21
1.213210880373721
 31
0.0
  0
LINE
  5
20FE
330
20DA
100
AcDbEntity
  8
0
  6
CONTINUOUS
100
AcDbLine
 10
33.08199999996839
 20
2.67264298878764
 30
0.0
 11
31.64199999996833
 21
4.112642988787695
 31
0.0
  0
LINE
  5
20FF
330
20DA
100
AcDbEntity
  8
0
  6
CONTINUOUS
100
AcDbLine
 10
36.25975597779143
 20
0.1684062200447833
 30
0.0
 11
35.15395110240023
 21
1.274211095435983
 31
0.0
  0
LINE
  5
2100
330
20DA
100
AcDbEntity
  8
0
  6
CONTINUOUS
100
AcDbLine
 10
33.08199999996839
 20
3.346162197867826
 30
0.0
 11
31.64199999996833
 21
4.786162197867881
 31
0.0
  0
LINE
  5
2101
330
20DA
100
AcDbEntity
  8
0
  6
CONTINUOUS
100
AcDbLine
 10
36.67226329638774
 20
0.4294181105286579
 30
0.0
 11
35.63766478748767
 21
1.464016619428737
 31
0.0
  0
LINE
  5
2102
330
20DA
100
AcDbEntity
  8
0
  6
CONTINUOUS
100
AcDbLine
 10
33.08199999996839
 20
4.019681406948012
 30
0.0
 11
31.64199999996833
 21
5.459681406948068
 31
0.0
  0
LINE
  5
2103
330
20DA
100
AcDbEntity
  8
0
  6
CONTINUOUS
100
AcDbLine
 10
37.01677749710036
 20
0.7584231188962329
 30
0.0
 11
35.99563422741351
 21
1.779566388583076
 31
0.0
  0
LINE
  5
2104
330
20DA
100
AcDbEntity
  8
0
  6
CONTINUOUS
100
AcDbLine
 10
33.08199999996839
 20
4.693200616028199
 30
0.0
 11
31.64199999996833
 21
6.133200616028255
 31
0.0
  0
LINE
  5
2105
330
20DA
100
AcDbEntity
  8
0
  6
CONTINUOUS
100
AcDbLine
 10
37.29859977568887
 20
1.1501200493879
 30
0.0
 11
36.20680593341555
 21
2.241913891661226
 31
0.0
  0
LINE
  5
2106
330
20DA
100
AcDbEntity
  8
0
  6
CONTINUOUS
100
AcDbLine
 10
33.08199999996839
 20
5.366719825108386
 30
0.0
 11
31.64199999996833
 21
6.80671982510844
 31
0.0
  0
LINE
  5
2107
330
20DA
100
AcDbEntity
  8
0
  6
CONTINUOUS
100
AcDbLine
 10
37.5148623517228
 20
1.607376682434161
 30
0.0
 11
36.23199999996837
 21
2.890239034188594
 31
0.0
  0
LINE
  5
2108
330
20DA
100
AcDbEntity
  8
0
  6
CONTINUOUS
100
AcDbLine
 10
33.08199999996839
 20
6.040239034188573
 30
0.0
 11
31.64199999996833
 21
7.480239034188627
 31
0.0
  0
LINE
  5
2109
330
20DA
100
AcDbEntity
  8
0
  6
CONTINUOUS
100
AcDbLine
 10
37.64705163358367
 20
2.148706609653477
 30
0.0
 11
36.23199999996837
 21
3.56375824326878
 31
0.0
  0
LINE
  5
210A
330
20DA
100
AcDbEntity
  8
0
  6
CONTINUOUS
100
AcDbLine
 10
33.08199999996839
 20
6.713758243268758
 30
0.0
 11
31.64199999996833
 21
8.153758243268815
 31
0.0
  0
LINE
  5
210B
330
20DA
100
AcDbEntity
  8
0
  6
CONTINUOUS
100
AcDbLine
 10
37.67199999996831
 20
2.797277452349026
 30
0.0
 11
36.23199999996837
 21
4.237277452348967
 31
0.0
  0
LINE
  5
210C
330
20DA
100
AcDbEntity
  8
0
  6
CONTINUOUS
100
AcDbLine
 10
37.67199999996831
 20
3.470796661429213
 30
0.0
 11
36.23199999996837
 21
4.910796661429154
 31
0.0
  0
LINE
  5
210D
330
20DA
100
AcDbEntity
  8
0
  6
CONTINUOUS
100
AcDbLine
 10
37.67199999996831
 20
4.144315870509399
 30
0.0
 11
36.23199999996837
 21
5.58431587050934
 31
0.0
  0
LINE
  5
210E
330
20DA
100
AcDbEntity
  8
0
  6
CONTINUOUS
100
AcDbLine
 10
33.08199999996839
 20
7.387277452348945
 30
0.0
 11
31.70617745232608
 21
8.763099999991255
 31
0.0
  0
LINE
  5
210F
330
20DA
100
AcDbEntity
  8
0
  6
CONTINUOUS
100
AcDbLine
 10
33.08199999996839
 20
8.060796661429132
 30
0.0
 11
32.37969666140626
 21
8.763099999991255
 31
0.0
  0
LINE
  5
2110
330
20DA
100
AcDbEntity
  8
0
  6
CONTINUOUS
100
AcDbLine
 10
33.08199999996839
 20
8.734315870509318
 30
0.0
 11
33.05321587048645
 21
8.763099999991255
 31
0.0
  0
LINE
  5
2111
330
20DA
100
AcDbEntity
  8
0
  6
CONTINUOUS
100
AcDbLine
 10
37.67199999996831
 20
4.817835079589585
 30
0.0
 11
36.23199999996837
 21
6.257835079589526
 31
0.0
  0
LINE
  5
2112
330
20DA
100
AcDbEntity
  8
0
  6
CONTINUOUS
100
AcDbLine
 10
37.67199999996831
 20
5.491354288669771
 30
0.0
 11
36.23199999996837
 21
6.931354288669713
 31
0.0
  0
LINE
  5
2113
330
20DA
100
AcDbEntity
  8
0
  6
CONTINUOUS
100
AcDbLine
 10
37.67199999996831
 20
6.164873497749958
 30
0.0
 11
36.23199999996837
 21
7.6048734977499
 31
0.0
  0
LINE
  5
2114
330
20DA
100
AcDbEntity
  8
0
  6
CONTINUOUS
100
AcDbLine
 10
37.67199999996831
 20
6.838392706830144
 30
0.0
 11
36.23199999996837
 21
8.278392706830086
 31
0.0
  0
LINE
  5
2115
330
20DA
100
AcDbEntity
  8
0
  6
CONTINUOUS
100
AcDbLine
 10
37.67199999996831
 20
7.511911915910332
 30
0.0
 11
36.42081191588738
 21
8.763099999991255
 31
0.0
  0
LINE
  5
2116
330
20DA
100
AcDbEntity
  8
0
  6
CONTINUOUS
100
AcDbLine
 10
37.67199999996831
 20
8.185431124990519
 30
0.0
 11
37.09433112496757
 21
8.763099999991255
 31
0.0
  0
ENDBLK
  5
217E
330
20DA
100
AcDbEntity
  8
0
100
AcDbBlockEnd
  0
BLOCK
  5
217F
330
2117
100
AcDbEntity
  8
0
100
AcDbBlockBegin
  2
*X33
 70
     1
 10
0.0
 20
0.0
 30
0.0
  3
*X33
  1

  0
LINE
  5
2118
330
2117
100
AcDbEntity
  8
0
  6
CONTINUOUS
100
AcDbLine
 10
38.60499999996136
 20
8.762866199104765
 30
0.0
 11
38.71672554182345
 21
8.874591740966855
 31
0.0
  0
LINE
  5
2119
330
2117
100
AcDbEntity
  8
0
  6
CONTINUOUS
100
AcDbLine
 10
38.60499999996136
 20
8.089346990024577
 30
0.0
 11
39.03418785440363
 21
8.518534844466847
 31
0.0
  0
LINE
  5
211A
330
2117
100
AcDbEntity
  8
0
  6
CONTINUOUS
100
AcDbLine
 10
38.60499999996136
 20
7.41582778094439
 30
0.0
 11
39.35165016698382
 21
8.16247794796684
 31
0.0
  0
LINE
  5
211B
330
2117
100
AcDbEntity
  8
0
  6
CONTINUOUS
100
AcDbLine
 10
38.60499999996136
 20
6.742308571864204
 30
0.0
 11
39.66911247956399
 21
7.806421051466834
 31
0.0
  0
LINE
  5
211C
330
2117
100
AcDbEntity
  8
0
  6
CONTINUOUS
100
AcDbLine
 10
38.60499999996136
 20
6.068789362784018
 30
0.0
 11
39.98657479214418
 21
7.450364154966827
 31
0.0
  0
LINE
  5
211D
330
2117
100
AcDbEntity
  8
0
  6
CONTINUOUS
100
AcDbLine
 10
38.60499999996136
 20
5.395270153703832
 30
0.0
 11
40.30403710472435
 21
7.09430725846682
 31
0.0
  0
LINE
  5
211E
330
2117
100
AcDbEntity
  8
0
  6
CONTINUOUS
100
AcDbLine
 10
38.60499999996136
 20
4.721750944623645
 30
0.0
 11
40.62149941730453
 21
6.738250361966813
 31
0.0
  0
LINE
  5
211F
330
2117
100
AcDbEntity
  8
0
  6
CONTINUOUS
100
AcDbLine
 10
38.60499999996136
 20
4.048231735543458
 30
0.0
 11
40.93896172988471
 21
6.382193465466806
 31
0.0
  0
LINE
  5
2120
330
2117
100
AcDbEntity
  8
0
  6
CONTINUOUS
100
AcDbLine
 10
38.60499999996136
 20
3.374712526463272
 30
0.0
 11
40.02599999995994
 21
4.795712526461843
 31
0.0
  0
LINE
  5
2121
330
2117
100
AcDbEntity
  8
0
  6
CONTINUOUS
100
AcDbLine
 10
38.60499999996136
 20
2.701193317383085
 30
0.0
 11
40.02599999995994
 21
4.122193317381657
 31
0.0
  0
LINE
  5
2122
330
2117
100
AcDbEntity
  8
0
  6
CONTINUOUS
100
AcDbLine
 10
40.28339754687704
 20
5.053110073378947
 30
0.0
 11
41.25642404246489
 21
6.026136568966799
 31
0.0
  0
LINE
  5
2123
330
2117
100
AcDbEntity
  8
0
  6
CONTINUOUS
100
AcDbLine
 10
40.60085985945722
 20
4.697053176878939
 30
0.0
 11
41.57388635504507
 21
5.670079672466793
 31
0.0
  0
LINE
  5
2124
330
2117
100
AcDbEntity
  8
0
  6
CONTINUOUS
100
AcDbLine
 10
43.57899999995641
 20
8.348712526458318
 30
0.0
 11
43.99338747348935
 21
8.763099999991255
 31
0.0
  0
LINE
  5
2125
330
2117
100
AcDbEntity
  8
0
  6
CONTINUOUS
100
AcDbLine
 10
43.57899999995641
 20
7.675193317378131
 30
0.0
 11
44.66690668256953
 21
8.763099999991255
 31
0.0
  0
LINE
  5
2126
330
2117
100
AcDbEntity
  8
0
  6
CONTINUOUS
100
AcDbLine
 10
38.60499999996136
 20
2.027674108302898
 30
0.0
 11
40.02599999995994
 21
3.44867410830147
 31
0.0
  0
LINE
  5
2127
330
2117
100
AcDbEntity
  8
0
  6
CONTINUOUS
100
AcDbLine
 10
38.60499999996136
 20
1.354154899222712
 30
0.0
 11
40.02599999995994
 21
2.775154899221284
 31
0.0
  0
LINE
  5
2128
330
2117
100
AcDbEntity
  8
0
  6
CONTINUOUS
100
AcDbLine
 10
38.60499999996136
 20
0.6806356901425255
 30
0.0
 11
40.02599999995994
 21
2.101635690141098
 31
0.0
  0
LINE
  5
2129
330
2117
100
AcDbEntity
  8
0
  6
CONTINUOUS
100
AcDbLine
 10
38.60499999996136
 20
0.0071164810623383
 30
0.0
 11
40.02599999995994
 21
1.428116481060911
 31
0.0
  0
LINE
  5
212A
330
2117
100
AcDbEntity
  8
0
  6
CONTINUOUS
100
AcDbLine
 10
40.9183221720374
 20
4.340996280378933
 30
0.0
 11
41.89134866762525
 21
5.314022775966786
 31
0.0
  0
LINE
  5
212B
330
2117
100
AcDbEntity
  8
0
  6
CONTINUOUS
100
AcDbLine
 10
41.23578448461758
 20
3.984939383878926
 30
0.0
 11
42.20881098020543
 21
4.957965879466778
 31
0.0
  0
LINE
  5
212C
330
2117
100
AcDbEntity
  8
0
  6
CONTINUOUS
100
AcDbLine
 10
41.55324679719776
 20
3.628882487378919
 30
0.0
 11
42.52627329278561
 21
4.601908982966772
 31
0.0
  0
LINE
  5
212D
330
2117
100
AcDbEntity
  8
0
  6
CONTINUOUS
100
AcDbLine
 10
41.87070910977793
 20
3.272825590878912
 30
0.0
 11
42.84373560536579
 21
4.245852086466765
 31
0.0
  0
LINE
  5
212E
330
2117
100
AcDbEntity
  8
0
  6
CONTINUOUS
100
AcDbLine
 10
43.57899999995641
 20
7.001674108297943
 30
0.0
 11
44.99999999995498
 21
8.422674108296516
 31
0.0
  0
LINE
  5
212F
330
2117
100
AcDbEntity
  8
0
  6
CONTINUOUS
100
AcDbLine
 10
43.57899999995641
 20
6.328154899217758
 30
0.0
 11
44.99999999995498
 21
7.749154899216329
 31
0.0
  0
LINE
  5
2130
330
2117
100
AcDbEntity
  8
0
  6
CONTINUOUS
100
AcDbLine
 10
43.57899999995641
 20
5.654635690137571
 30
0.0
 11
44.99999999995498
 21
7.075635690136142
 31
0.0
  0
LINE
  5
2131
330
2117
100
AcDbEntity
  8
0
  6
CONTINUOUS
100
AcDbLine
 10
43.57899999995641
 20
4.981116481057384
 30
0.0
 11
44.99999999995498
 21
6.402116481055955
 31
0.0
  0
LINE
  5
2132
330
2117
100
AcDbEntity
  8
0
  6
CONTINUOUS
100
AcDbLine
 10
39.27140272797921
 20
-0.0000000000000009
 30
0.0
 11
40.02599999995994
 21
0.7545972719807246
 31
0.0
  0
LINE
  5
2133
330
2117
100
AcDbEntity
  8
0
  6
CONTINUOUS
100
AcDbLine
 10
39.9449219370594
 20
-0.0000000000000009
 30
0.0
 11
40.02599999995994
 21
0.0810780629005379
 31
0.0
  0
LINE
  5
2134
330
2117
100
AcDbEntity
  8
0
  6
CONTINUOUS
100
AcDbLine
 10
42.18817142235812
 20
2.916768694378905
 30
0.0
 11
43.16119791794597
 21
3.889795189966758
 31
0.0
  0
LINE
  5
2135
330
2117
100
AcDbEntity
  8
0
  6
CONTINUOUS
100
AcDbLine
 10
42.50563373493829
 20
2.560711797878898
 30
0.0
 11
43.47866023052615
 21
3.533738293466751
 31
0.0
  0
LINE
  5
2136
330
2117
100
AcDbEntity
  8
0
  6
CONTINUOUS
100
AcDbLine
 10
43.57899999995641
 20
4.307597271977198
 30
0.0
 11
44.99999999995498
 21
5.728597271975769
 31
0.0
  0
LINE
  5
2137
330
2117
100
AcDbEntity
  8
0
  6
CONTINUOUS
100
AcDbLine
 10
43.57899999995641
 20
3.634078062897011
 30
0.0
 11
44.99999999995498
 21
5.055078062895582
 31
0.0
  0
LINE
  5
2138
330
2117
100
AcDbEntity
  8
0
  6
CONTINUOUS
100
AcDbLine
 10
42.82309604751848
 20
2.204654901378891
 30
0.0
 11
44.99999999995498
 21
4.381558853815395
 31
0.0
  0
LINE
  5
2139
330
2117
100
AcDbEntity
  8
0
  6
CONTINUOUS
100
AcDbLine
 10
43.14055836009865
 20
1.848598004878885
 30
0.0
 11
44.99999999995498
 21
3.70803964473521
 31
0.0
  0
LINE
  5
213A
330
2117
100
AcDbEntity
  8
0
  6
CONTINUOUS
100
AcDbLine
 10
43.45802067267883
 20
1.492541108378878
 30
0.0
 11
44.99999999995498
 21
3.034520435655023
 31
0.0
  0
LINE
  5
213B
330
2117
100
AcDbEntity
  8
0
  6
CONTINUOUS
100
AcDbLine
 10
43.77548298525902
 20
1.136484211878871
 30
0.0
 11
44.99999999995498
 21
2.361001226574837
 31
0.0
  0
LINE
  5
213C
330
2117
100
AcDbEntity
  8
0
  6
CONTINUOUS
100
AcDbLine
 10
44.09294529783919
 20
0.7804273153788639
 30
0.0
 11
44.99999999995498
 21
1.687482017494649
 31
0.0
  0
LINE
  5
213D
330
2117
100
AcDbEntity
  8
0
  6
CONTINUOUS
100
AcDbLine
 10
44.41040761041938
 20
0.4243704188788566
 30
0.0
 11
44.99999999995498
 21
1.013962808414463
 31
0.0
  0
LINE
  5
213E
330
2117
100
AcDbEntity
  8
0
  6
CONTINUOUS
100
AcDbLine
 10
44.72786992299955
 20
0.0683135223788494
 30
0.0
 11
44.99999999995498
 21
0.340443599334276
 31
0.0
  0
LINE
  5
213F
330
2117
100
AcDbEntity
  8
0
  6
CONTINUOUS
100
AcDbLine
 10
39.12223903415696
 20
-0.0000000000000009
 30
0.0
 11
38.60499999996136
 21
0.5172390341955961
 31
0.0
  0
LINE
  5
2140
330
2117
100
AcDbEntity
  8
0
  6
CONTINUOUS
100
AcDbLine
 10
39.79575824323715
 20
-0.0000000000000009
 30
0.0
 11
38.60499999996136
 21
1.190758243275783
 31
0.0
  0
LINE
  5
2141
330
2117
100
AcDbEntity
  8
0
  6
CONTINUOUS
100
AcDbLine
 10
40.02599999995994
 20
0.443277452357397
 30
0.0
 11
38.60499999996136
 21
1.864277452355969
 31
0.0
  0
LINE
  5
2142
330
2117
100
AcDbEntity
  8
0
  6
CONTINUOUS
100
AcDbLine
 10
40.02599999995994
 20
1.116796661437583
 30
0.0
 11
38.60499999996136
 21
2.537796661436155
 31
0.0
  0
LINE
  5
2143
330
2117
100
AcDbEntity
  8
0
  6
CONTINUOUS
100
AcDbLine
 10
40.02599999995994
 20
1.79031587051777
 30
0.0
 11
38.60499999996136
 21
3.211315870516341
 31
0.0
  0
LINE
  5
2144
330
2117
100
AcDbEntity
  8
0
  6
CONTINUOUS
100
AcDbLine
 10
40.02599999995994
 20
2.463835079597956
 30
0.0
 11
38.60499999996136
 21
3.884835079596527
 31
0.0
  0
LINE
  5
2145
330
2117
100
AcDbEntity
  8
0
  6
CONTINUOUS
100
AcDbLine
 10
40.02599999995994
 20
3.137354288678143
 30
0.0
 11
38.60499999996136
 21
4.558354288676714
 31
0.0
  0
LINE
  5
2146
330
2117
100
AcDbEntity
  8
0
  6
CONTINUOUS
100
AcDbLine
 10
40.02599999995994
 20
3.810873497758329
 30
0.0
 11
38.60499999996136
 21
5.2318734977569
 31
0.0
  0
LINE
  5
2147
330
2117
100
AcDbEntity
  8
0
  6
CONTINUOUS
100
AcDbLine
 10
40.02599999995994
 20
4.484392706838515
 30
0.0
 11
38.60499999996136
 21
5.905392706837086
 31
0.0
  0
LINE
  5
2148
330
2117
100
AcDbEntity
  8
0
  6
CONTINUOUS
100
AcDbLine
 10
44.99999999995498
 20
0.183911915923658
 30
0.0
 11
41.53858364506288
 21
3.64532827081576
 31
0.0
  0
LINE
  5
2149
330
2117
100
AcDbEntity
  8
0
  6
CONTINUOUS
100
AcDbLine
 10
40.02599999995994
 20
5.157911915918703
 30
0.0
 11
38.60499999996136
 21
6.578911915917274
 31
0.0
  0
LINE
  5
214A
330
2117
100
AcDbEntity
  8
0
  6
CONTINUOUS
100
AcDbLine
 10
44.99999999995498
 20
0.8574311250038447
 30
0.0
 11
38.60499999996136
 21
7.25243112499746
 31
0.0
  0
LINE
  5
214B
330
2117
100
AcDbEntity
  8
0
  6
CONTINUOUS
100
AcDbLine
 10
44.99999999995498
 20
1.530950334084031
 30
0.0
 11
38.60499999996136
 21
7.925950334077647
 31
0.0
  0
LINE
  5
214C
330
2117
100
AcDbEntity
  8
0
  6
CONTINUOUS
100
AcDbLine
 10
44.99999999995498
 20
2.204469543164218
 30
0.0
 11
43.57899999995641
 21
3.625469543162789
 31
0.0
  0
LINE
  5
214D
330
2117
100
AcDbEntity
  8
0
  6
CONTINUOUS
100
AcDbLine
 10
41.89876730984767
 20
5.305702233271528
 30
0.0
 11
38.60499999996136
 21
8.599469543157834
 31
0.0
  0
LINE
  5
214E
330
2117
100
AcDbEntity
  8
0
  6
CONTINUOUS
100
AcDbLine
 10
44.99999999995498
 20
2.877988752244405
 30
0.0
 11
43.57899999995641
 21
4.298988752242975
 31
0.0
  0
LINE
  5
214F
330
2117
100
AcDbEntity
  8
0
  6
CONTINUOUS
100
AcDbLine
 10
44.99999999995498
 20
3.551507961324591
 30
0.0
 11
43.57899999995641
 21
4.972507961323163
 31
0.0
  0
LINE
  5
2150
330
2117
100
AcDbEntity
  8
0
  6
CONTINUOUS
100
AcDbLine
 10
44.99999999995498
 20
4.225027170404777
 30
0.0
 11
43.57899999995641
 21
5.646027170403348
 31
0.0
  0
LINE
  5
2151
330
2117
100
AcDbEntity
  8
0
  6
CONTINUOUS
100
AcDbLine
 10
44.99999999995498
 20
4.898546379484964
 30
0.0
 11
43.57899999995641
 21
6.319546379483535
 31
0.0
  0
LINE
  5
2152
330
2117
100
AcDbEntity
  8
0
  6
CONTINUOUS
100
AcDbLine
 10
44.99999999995498
 20
5.572065588565151
 30
0.0
 11
43.57899999995641
 21
6.993065588563722
 31
0.0
  0
LINE
  5
2153
330
2117
100
AcDbEntity
  8
0
  6
CONTINUOUS
100
AcDbLine
 10
44.99999999995498
 20
6.245584797645336
 30
0.0
 11
43.57899999995641
 21
7.666584797643908
 31
0.0
  0
LINE
  5
2154
330
2117
100
AcDbEntity
  8
0
  6
CONTINUOUS
100
AcDbLine
 10
44.99999999995498
 20
6.919104006725522
 30
0.0
 11
43.57899999995641
 21
8.340104006724093
 31
0.0
  0
LINE
  5
2155
330
2117
100
AcDbEntity
  8
0
  6
CONTINUOUS
100
AcDbLine
 10
44.99999999995498
 20
7.592623215805709
 30
0.0
 11
43.82952321576943
 21
8.763099999991255
 31
0.0
  0
LINE
  5
2156
330
2117
100
AcDbEntity
  8
0
  6
CONTINUOUS
100
AcDbLine
 10
44.99999999995498
 20
8.266142424885896
 30
0.0
 11
44.50304242484962
 21
8.763099999991255
 31
0.0
  0
ENDBLK
  5
2180
330
2117
100
AcDbEntity
  8
0
100
AcDbBlockEnd
  0
BLOCK
  5
2181
330
2157
100
AcDbEntity
  8
0
100
AcDbBlockBegin
  2
*X34
 70
     1
 10
0.0
 20
0.0
 30
0.0
  3
*X34
  1

  0
LINE
  5
2158
330
2157
100
AcDbEntity
  8
0
  6
CONTINUOUS
100
AcDbLine
 10
0.0
 20
8.548461116714023
 30
0.0
 11
0.2146388832772324
 21
8.763099999991255
 31
0.0
  0
LINE
  5
2159
330
2157
100
AcDbEntity
  8
0
  6
CONTINUOUS
100
AcDbLine
 10
-0.0000000000000002
 20
7.874941907633837
 30
0.0
 11
0.8881580923574184
 21
8.763099999991255
 31
0.0
  0
LINE
  5
215A
330
2157
100
AcDbEntity
  8
0
  6
CONTINUOUS
100
AcDbLine
 10
0.0
 20
7.20142269855365
 30
0.0
 11
1.420999999998572
 21
8.622422698552223
 31
0.0
  0
LINE
  5
215B
330
2157
100
AcDbEntity
  8
0
  6
CONTINUOUS
100
AcDbLine
 10
-0.0000000000000001
 20
6.527903489473465
 30
0.0
 11
1.420999999998571
 21
7.948903489472036
 31
0.0
  0
LINE
  5
215C
330
2157
100
AcDbEntity
  8
0
  6
CONTINUOUS
100
AcDbLine
 10
-0.0000000000000002
 20
5.854384280393278
 30
0.0
 11
1.420999999998571
 21
7.275384280391849
 31
0.0
  0
LINE
  5
215D
330
2157
100
AcDbEntity
  8
0
  6
CONTINUOUS
100
AcDbLine
 10
-0.0000000000000002
 20
5.180865071313091
 30
0.0
 11
1.420999999998571
 21
6.601865071311663
 31
0.0
  0
LINE
  5
215E
330
2157
100
AcDbEntity
  8
0
  6
CONTINUOUS
100
AcDbLine
 10
0.0
 20
4.507345862232905
 30
0.0
 11
1.420999999998571
 21
5.928345862231477
 31
0.0
  0
LINE
  5
215F
330
2157
100
AcDbEntity
  8
0
  6
CONTINUOUS
100
AcDbLine
 10
-0.0000000000000003
 20
3.833826653152718
 30
0.0
 11
1.420999999998571
 21
5.25482665315129
 31
0.0
  0
LINE
  5
2160
330
2157
100
AcDbEntity
  8
0
  6
CONTINUOUS
100
AcDbLine
 10
-0.0000000000000002
 20
3.160307444072532
 30
0.0
 11
1.420999999998571
 21
4.581307444071103
 31
0.0
  0
LINE
  5
2161
330
2157
100
AcDbEntity
  8
0
  6
CONTINUOUS
100
AcDbLine
 10
-0.0000000000000001
 20
2.486788234992345
 30
0.0
 11
1.420999999998571
 21
3.907788234990917
 31
0.0
  0
LINE
  5
2162
330
2157
100
AcDbEntity
  8
0
  6
CONTINUOUS
100
AcDbLine
 10
-0.0000000000000006
 20
1.813269025912159
 30
0.0
 11
1.420999999998571
 21
3.234269025910731
 31
0.0
  0
LINE
  5
2163
330
2157
100
AcDbEntity
  8
0
  6
CONTINUOUS
100
AcDbLine
 10
0.0
 20
1.139749816831973
 30
0.0
 11
1.420999999998571
 21
2.560749816830544
 31
0.0
  0
LINE
  5
2164
330
2157
100
AcDbEntity
  8
0
  6
CONTINUOUS
100
AcDbLine
 10
0.0000000000000002
 20
0.466230607751787
 30
0.0
 11
1.420999999998571
 21
1.887230607750358
 31
0.0
  0
LINE
  5
2165
330
2157
100
AcDbEntity
  8
0
  6
CONTINUOUS
100
AcDbLine
 10
0.2072886013284003
 20
-0.0000000000000009
 30
0.0
 11
1.420999999998571
 21
1.213711398670171
 31
0.0
  0
LINE
  5
2166
330
2157
100
AcDbEntity
  8
0
  6
CONTINUOUS
100
AcDbLine
 10
0.8808078104085864
 20
-0.0000000000000009
 30
0.0
 11
1.420999999998571
 21
0.5401921895899839
 31
0.0
  0
LINE
  5
2167
330
2157
100
AcDbEntity
  8
0
  6
CONTINUOUS
100
AcDbLine
 10
0.0581249075061505
 20
-0.0000000000000009
 30
0.0
 11
-0.0000000000000002
 21
0.0581249075061496
 31
0.0
  0
LINE
  5
2168
330
2157
100
AcDbEntity
  8
0
  6
CONTINUOUS
100
AcDbLine
 10
0.7316441165863372
 20
-0.0000000000000009
 30
0.0
 11
-0.0000000000000002
 21
0.7316441165863363
 31
0.0
  0
LINE
  5
2169
330
2157
100
AcDbEntity
  8
0
  6
CONTINUOUS
100
AcDbLine
 10
1.405163325666523
 20
-0.0000000000000009
 30
0.0
 11
-0.0000000000000002
 21
1.405163325666523
 31
0.0
  0
LINE
  5
216A
330
2157
100
AcDbEntity
  8
0
  6
CONTINUOUS
100
AcDbLine
 10
1.420999999998572
 20
0.6576825347481381
 30
0.0
 11
-0.0000000000000001
 21
2.07868253474671
 31
0.0
  0
LINE
  5
216B
330
2157
100
AcDbEntity
  8
0
  6
CONTINUOUS
100
AcDbLine
 10
1.420999999998571
 20
1.331201743828324
 30
0.0
 11
-0.0000000000000001
 21
2.752201743826896
 31
0.0
  0
LINE
  5
216C
330
2157
100
AcDbEntity
  8
0
  6
CONTINUOUS
100
AcDbLine
 10
1.420999999998571
 20
2.004720952908511
 30
0.0
 11
-0.0000000000000002
 21
3.425720952907082
 31
0.0
  0
LINE
  5
216D
330
2157
100
AcDbEntity
  8
0
  6
CONTINUOUS
100
AcDbLine
 10
1.420999999998571
 20
2.678240161988697
 30
0.0
 11
-0.0000000000000001
 21
4.099240161987269
 31
0.0
  0
LINE
  5
216E
330
2157
100
AcDbEntity
  8
0
  6
CONTINUOUS
100
AcDbLine
 10
1.420999999998572
 20
3.351759371068884
 30
0.0
 11
0.0
 21
4.772759371067455
 31
0.0
  0
LINE
  5
216F
330
2157
100
AcDbEntity
  8
0
  6
CONTINUOUS
100
AcDbLine
 10
1.420999999998571
 20
4.02527858014907
 30
0.0
 11
-0.0000000000000003
 21
5.446278580147642
 31
0.0
  0
LINE
  5
2170
330
2157
100
AcDbEntity
  8
0
  6
CONTINUOUS
100
AcDbLine
 10
1.420999999998571
 20
4.698797789229257
 30
0.0
 11
0.0
 21
6.119797789227828
 31
0.0
  0
LINE
  5
2171
330
2157
100
AcDbEntity
  8
0
  6
CONTINUOUS
100
AcDbLine
 10
1.420999999998571
 20
5.372316998309444
 30
0.0
 11
-0.0000000000000001
 21
6.793316998308015
 31
0.0
  0
LINE
  5
2172
330
2157
100
AcDbEntity
  8
0
  6
CONTINUOUS
100
AcDbLine
 10
1.420999999998572
 20
6.045836207389629
 30
0.0
 11
-0.0000000000000004
 21
7.466836207388202
 31
0.0
  0
LINE
  5
2173
330
2157
100
AcDbEntity
  8
0
  6
CONTINUOUS
100
AcDbLine
 10
1.420999999998571
 20
6.719355416469816
 30
0.0
 11
0.0
 21
8.140355416468388
 31
0.0
  0
LINE
  5
2174
330
2157
100
AcDbEntity
  8
0
  6
CONTINUOUS
100
AcDbLine
 10
1.420999999998571
 20
7.392874625550003
 30
0.0
 11
0.0507746255573185
 21
8.763099999991255
 31
0.0
  0
LINE
  5
2175
330
2157
100
AcDbEntity
  8
0
  6
CONTINUOUS
100
AcDbLine
 10
1.420999999998571
 20
8.06639383463019
 30
0.0
 11
0.7242938346375052
 21
8.763099999991255
 31
0.0
  0
LINE
  5
2176
330
2157
100
AcDbEntity
  8
0
  6
CONTINUOUS
100
AcDbLine
 10
1.420999999998571
 20
8.739913043710375
 30
0.0
 11
1.397813043717691
 21
8.763099999991255
 31
0.0
  0
ENDBLK
  5
2182
330
2157
100
AcDbEntity
  8
0
100
AcDbBlockEnd
  0
ENDSEC
  0
SECTION
  2
ENTITIES
  0
LINE
  5
1054
330
18
100
AcDbEntity
  8
01
100
AcDbLine
 10
-976.8415171393441
 20
-977.2579208876639
 30
0.0
 11
-671.8415171393441
 21
-977.2579208876639
 31
0.0
  0
LINE
  5
1055
330
18
100
AcDbEntity
  8
01
100
AcDbLine
 10
-1021.841517139344
 20
-985.7579208876639
 30
0.0
 11
-671.8415171393441
 21
-985.7579208876639
 31
0.0
  0
LINE
  5
1056
330
18
100
AcDbEntity
  8
1CENTER
100
AcDbLine
 10
-1061.158908748303
 20
-836.0579208876638
 30
0.0
 11
-606.3565337146714
 21
-836.0579208876638
 31
0.0
  0
LINE
  5
1057
330
18
100
AcDbEntity
  8
01
100
AcDbLine
 10
-1016.841517139344
 20
-823.5579208876638
 30
0.0
 11
-671.8415171393441
 21
-823.5579208876638
 31
0.0
  0
LINE
  5
1058
330
18
100
AcDbEntity
  8
01
100
AcDbLine
 10
-1016.841517139344
 20
-848.5579208876638
 30
0.0
 11
-671.8415171393441
 21
-848.5579208876638
 31
0.0
  0
LINE
  5
1059
330
18
100
AcDbEntity
  8
1CENTER
100
AcDbLine
 10
-1011.841517139344
 20
-808.3092419604633
 30
0.0
 11
-1011.841517139344
 21
-865.8202672999435
 31
0.0
  0
LINE
  5
1067
330
18
100
AcDbEntity
  8
01
100
AcDbLine
 10
-978.8415171393441
 20
-978.5579208876638
 30
0.0
 11
-1044.841517139344
 21
-978.5579208876638
 31
0.0
  0
LINE
  5
1068
330
18
100
AcDbEntity
  8
01
100
AcDbLine
 10
-978.8415171393441
 20
-976.5579208876638
 30
0.0
 11
-1044.841517139344
 21
-976.5579208876638
 31
0.0
  0
LINE
  5
1069
330
18
100
AcDbEntity
  8
01
100
AcDbLine
 10
-1016.841517139344
 20
-979.7579208876639
 30
0.0
 11
-976.8415171393441
 21
-979.7579208876639
 31
0.0
  0
LINE
  5
106A
330
18
100
AcDbEntity
  8
01
100
AcDbLine
 10
-1042.841517139344
 20
-827.0579208876638
 30
0.0
 11
-980.8415171393441
 21
-827.0579208876638
 31
0.0
  0
LINE
  5
106B
330
18
100
AcDbEntity
  8
01
100
AcDbLine
 10
-1042.841517139344
 20
-845.0579208876638
 30
0.0
 11
-980.8415171393441
 21
-845.0579208876638
 31
0.0
  0
LINE
  5
106C
330
18
100
AcDbEntity
  8
1CENTER
100
AcDbLine
 10
-1039.341517139344
 20
-970.7073184474875
 30
0.0
 11
-1039.341517139344
 21
-989.9771088398184
 31
0.0
  0
LINE
  5
106E
330
18
100
AcDbEntity
  8
01
100
AcDbLine
 10
-1044.841517139344
 20
-976.5579208876638
 30
0.0
 11
-1044.841517139344
 21
-978.5579208876638
 31
0.0
  0
LINE
  5
106F
330
18
100
AcDbEntity
  8
01
100
AcDbLine
 10
-1021.841517139344
 20
-983.5579208876638
 30
0.0
 11
-1016.841517139344
 21
-983.5579208876638
 31
0.0
  0
LINE
  5
1070
330
18
100
AcDbEntity
  8
01
100
AcDbLine
 10
-1016.841517139344
 20
-985.7579208876639
 30
0.0
 11
-1016.841517139344
 21
-979.7579208876639
 31
0.0
  0
LINE
  5
1071
330
18
100
AcDbEntity
  8
01
100
AcDbLine
 10
-1021.841517139344
 20
-985.7579208876639
 30
0.0
 11
-1021.841517139344
 21
-983.5579208876638
 31
0.0
  0
CIRCLE
  5
1076
330
18
100
AcDbEntity
  8
1HIDDEN
100
AcDbCircle
 10
-1039.341517139344
 20
-836.0579208876638
 30
0.0
 40
4.25
  0
LINE
  5
1077
330
18
100
AcDbEntity
  8
01
100
AcDbLine
 10
-1044.841517139344
 20
-829.0579208876638
 30
0.0
 11
-1044.841517139344
 21
-843.0579208876638
 31
0.0
  0
ARC
  5
1078
330
18
100
AcDbEntity
  8
01
100
AcDbCircle
 10
-1042.841517139344
 20
-829.0579208876638
 30
0.0
 40
2.0
100
AcDbArc
 50
90.0
 51
180.0
  0
ARC
  5
1079
330
18
100
AcDbEntity
  8
01
100
AcDbCircle
 10
-1042.841517139344
 20
-843.0579208876638
 30
0.0
 40
2.0
100
AcDbArc
 50
180.0
 51
270.0
  0
LINE
  5
107A
330
18
100
AcDbEntity
  8
1CENTER
100
AcDbLine
 10
-1039.341517139344
 20
-825.7579208876634
 30
0.0
 11
-1039.341517139344
 21
-846.3579208876638
 31
0.0
  0
CIRCLE
  5
107B
330
18
100
AcDbEntity
  8
01
100
AcDbCircle
 10
-1039.341517139344
 20
-836.0579208876638
 30
0.0
 40
2.6
  0
ARC
  5
107C
330
18
100
AcDbEntity
  8
1HATCH
100
AcDbCircle
 10
-1011.841517139344
 20
-836.0579208876638
 30
0.0
 40
9.5
100
AcDbArc
 50
108.6717180640077
 51
251.3282819359919
  0
ARC
  5
107D
330
18
100
AcDbEntity
  8
1HATCH
100
AcDbCircle
 10
-1011.841517139344
 20
-836.0579208876638
 30
0.0
 40
9.5
100
AcDbArc
 50
288.6717180640081
 51
71.32828193599195
  0
CIRCLE
  5
107E
330
18
100
AcDbEntity
  8
1HATCH
100
AcDbCircle
 10
-1011.841517139344
 20
-836.0579208876638
 30
0.0
 40
3.75
  0
ARC
  5
107F
330
18
100
AcDbEntity
  8
01
100
AcDbCircle
 10
-1003.716517139344
 20
-836.0579208876638
 30
0.0
 40
18.1250000000001
100
AcDbArc
 50
136.3971810272965
 51
150.2278750700692
  0
LINE
  5
1080
330
18
100
AcDbEntity
  8
1CENTER
100
AcDbLine
 10
-984.3415171393441
 20
-970.9992840686291
 30
0.0
 11
-984.3415171393441
 21
-991.1449812238761
 31
0.0
  0
LINE
  5
1081
330
18
100
AcDbEntity
  8
01
100
AcDbLine
 10
-978.8415171393441
 20
-976.5579208876638
 30
0.0
 11
-978.8415171393441
 21
-978.5579208876638
 31
0.0
  0
LINE
  5
1082
330
18
100
AcDbEntity
  8
01
100
AcDbLine
 10
-976.8415171393441
 20
-977.2579208876639
 30
0.0
 11
-976.8415171393441
 21
-979.7579208876639
 31
0.0
  0
CIRCLE
  5
1083
330
18
100
AcDbEntity
  8
1HIDDEN
100
AcDbCircle
 10
-984.3415171393441
 20
-836.0579208876638
 30
0.0
 40
4.25
  0
LINE
  5
1084
330
18
100
AcDbEntity
  8
01
100
AcDbLine
 10
-978.8415171393441
 20
-829.0579208876638
 30
0.0
 11
-978.8415171393441
 21
-843.0579208876638
 31
0.0
  0
ARC
  5
1085
330
18
100
AcDbEntity
  8
01
100
AcDbCircle
 10
-980.8415171393441
 20
-829.0579208876638
 30
0.0
 40
2.0
100
AcDbArc
 50
0.0
 51
90.0
  0
ARC
  5
1086
330
18
100
AcDbEntity
  8
01
100
AcDbCircle
 10
-980.8415171393441
 20
-843.0579208876638
 30
0.0
 40
2.0
100
AcDbArc
 50
270.0
 51
0.0
  0
LINE
  5
1087
330
18
100
AcDbEntity
  8
1CENTER
100
AcDbLine
 10
-984.3415171393441
 20
-825.7579208876634
 30
0.0
 11
-984.3415171393441
 21
-846.3579208876638
 31
0.0
  0
CIRCLE
  5
1088
330
18
100
AcDbEntity
  8
01
100
AcDbCircle
 10
-984.3415171393441
 20
-836.0579208876638
 30
0.0
 40
2.6
  0
LINE
  5
1089
330
18
100
AcDbEntity
  8
01
100
AcDbLine
 10
-976.8415171393441
 20
-823.5579208876638
 30
0.0
 11
-976.8415171393441
 21
-848.5579208876638
 31
0.0
  0
LINE
  5
109D
330
18
100
AcDbEntity
  8
01
100
AcDbLine
 10
-671.8415171393441
 20
-979.5579208876638
 30
0.0
 11
-646.0415171393441
 21
-979.5579208876638
 31
0.0
  0
LINE
  5
109E
330
18
100
AcDbEntity
  8
01
100
AcDbLine
 10
-661.8415171393441
 20
-985.6579208876639
 30
0.0
 11
-649.8415171393441
 21
-985.6579208876639
 31
0.0
  0
LINE
  5
109F
330
18
100
AcDbEntity
  8
01
100
AcDbLine
 10
-671.8415171393441
 20
-983.7579208876639
 30
0.0
 11
-646.0415171393441
 21
-983.7579208876639
 31
0.0
  0
LINE
  5
10A0
330
18
100
AcDbEntity
  8
01
100
AcDbLine
 10
-667.3415171393442
 20
-979.1579208876639
 30
0.0
 11
-640.3415171393441
 21
-979.1579208876639
 31
0.0
  0
LINE
  5
10A1
330
18
100
AcDbEntity
  8
01
100
AcDbLine
 10
-667.3415171393441
 20
-977.1579208876639
 30
0.0
 11
-640.3415171393441
 21
-977.1579208876639
 31
0.0
  0
LINE
  5
10A2
330
18
100
AcDbEntity
  8
1CENTER
100
AcDbLine
 10
-655.8415171393441
 20
-960.5013623035293
 30
0.0
 11
-655.8415171393441
 21
-993.6667874444202
 31
0.0
  0
LINE
  5
10A3
330
18
100
AcDbEntity
  8
01
100
AcDbLine
 10
-671.8415171393441
 20
-977.2579208876639
 30
0.0
 11
-671.8415171393441
 21
-985.7579208876639
 31
0.0
  0
LINE
  5
10A4
330
18
100
AcDbEntity
  8
01
100
AcDbLine
 10
-661.8415171393441
 20
-983.7579208876639
 30
0.0
 11
-661.8415171393441
 21
-985.6579208876639
 31
0.0
  0
LINE
  5
10A5
330
18
100
AcDbEntity
  8
01
100
AcDbLine
 10
-667.3415171393441
 20
-977.1579208876639
 30
0.0
 11
-667.3415171393441
 21
-979.1579208876639
 31
0.0
  0
LINE
  5
10A9
330
18
100
AcDbEntity
  8
01
100
AcDbLine
 10
-636.3415171393441
 20
-984.0579208876638
 30
0.0
 11
-617.8415171393441
 21
-984.0579208876638
 31
0.0
  0
LINE
  5
10AA
330
18
100
AcDbEntity
  8
01
100
AcDbLine
 10
-636.341517139344
 20
-986.0579208876638
 30
0.0
 11
-617.8415171393441
 21
-986.0579208876638
 31
0.0
  0
LINE
  5
10AB
330
18
100
AcDbEntity
  8
01
100
AcDbLine
 10
-646.0415171393441
 20
-979.5579208876638
 30
0.0
 11
-646.0415171393441
 21
-983.7579208876639
 31
0.0
  0
LINE
  5
10AC
330
18
100
AcDbEntity
  8
01
100
AcDbLine
 10
-649.8415171393441
 20
-983.7579208876639
 30
0.0
 11
-649.8415171393441
 21
-985.6579208876639
 31
0.0
  0
LINE
  5
10AD
330
18
100
AcDbEntity
  8
1CENTER
100
AcDbLine
 10
-631.8415171393441
 20
-974.040953470364
 30
0.0
 11
-631.8415171393441
 21
-993.6667874444202
 31
0.0
  0
LINE
  5
10AE
330
18
100
AcDbEntity
  8
1CENTER
100
AcDbLine
 10
-623.3415171393441
 20
-974.040953470364
 30
0.0
 11
-623.3415171393441
 21
-994.4845305266708
 31
0.0
  0
ARC
  5
10AF
330
18
100
AcDbEntity
  8
01
100
AcDbCircle
 10
-636.341517139344
 20
-983.0579208876638
 30
0.0
 40
3.0
100
AcDbArc
 50
180.0
 51
270.0
  0
ARC
  5
10B0
330
18
100
AcDbEntity
  8
01
100
AcDbCircle
 10
-640.3415171393441
 20
-980.1579208876639
 30
0.0
 40
3.0
100
AcDbArc
 50
0.0
 51
90.0
  0
ARC
  5
10B1
330
18
100
AcDbEntity
  8
01
100
AcDbCircle
 10
-640.3415171393441
 20
-980.1579208876639
 30
0.0
 40
1.0
100
AcDbArc
 50
0.0
 51
90.0
  0
ARC
  5
10B2
330
18
100
AcDbEntity
  8
01
100
AcDbCircle
 10
-636.3415171393441
 20
-983.0579208876638
 30
0.0
 40
1.0
100
AcDbArc
 50
180.0
 51
270.0
  0
LINE
  5
10B3
330
18
100
AcDbEntity
  8
01
100
AcDbLine
 10
-639.341517139344
 20
-983.0579208876638
 30
0.0
 11
-639.3415171393441
 21
-980.1579208876639
 31
0.0
  0
LINE
  5
10B4
330
18
100
AcDbEntity
  8
01
100
AcDbLine
 10
-637.3415171393441
 20
-983.0579208876638
 30
0.0
 11
-637.3415171393441
 21
-980.1579208876639
 31
0.0
  0
LINE
  5
10B5
330
18
100
AcDbEntity
  8
01
100
AcDbLine
 10
-617.8415171393441
 20
-984.0579208876638
 30
0.0
 11
-617.8415171393441
 21
-986.0579208876638
 31
0.0
  0
CIRCLE
  5
10B7
330
18
100
AcDbEntity
  8
1HATCH
100
AcDbCircle
 10
-655.8415171393441
 20
-835.6252064100793
 30
0.0
 40
3.5
  0
LINE
  5
10B8
330
18
100
AcDbEntity
  8
01
100
AcDbLine
 10
-656.3415171393441
 20
-847.0579208876638
 30
0.0
 11
-617.8415171393441
 21
-847.0579208876638
 31
0.0
  0
LINE
  5
10B9
330
18
100
AcDbEntity
  8
01
100
AcDbLine
 10
-656.3415171393441
 20
-825.0579208876638
 30
0.0
 11
-617.8415171393441
 21
-825.0579208876638
 31
0.0
  0
LINE
  5
10BA
330
18
100
AcDbEntity
  8
1CENTER
100
AcDbLine
 10
-655.8415171393441
 20
-807.6150528377669
 30
0.0
 11
-655.8415171393441
 21
-870.9065675785517
 31
0.0
  0
ARC
  5
10BB
330
18
100
AcDbEntity
  8
01
100
AcDbCircle
 10
-656.3415171393441
 20
-836.0579208876638
 30
0.0
 40
10.99999999999997
100
AcDbArc
 50
90.0
 51
270.0
  0
LINE
  5
10BC
330
18
100
AcDbEntity
  8
01
100
AcDbLine
 10
-671.8415171393441
 20
-825.7579208876634
 30
0.0
 11
-660.2028640546056
 21
-825.7579208876639
 31
0.0
  0
LINE
  5
10BD
330
18
100
AcDbEntity
  8
01
100
AcDbLine
 10
-671.8415171393441
 20
-846.3579208876638
 30
0.0
 11
-660.2028640546056
 21
-846.3579208876638
 31
0.0
  0
LINE
  5
10BE
330
18
100
AcDbEntity
  8
01
100
AcDbLine
 10
-671.8415171393441
 20
-823.5579208876638
 30
0.0
 11
-671.8415171393441
 21
-848.5579208876638
 31
0.0
  0
CIRCLE
  5
10C0
330
18
100
AcDbEntity
  8
01
100
AcDbCircle
 10
-623.3415171393441
 20
-830.5579208876638
 30
0.0
 40
4.0
  0
LINE
  5
10C1
330
18
100
AcDbEntity
  8
1CENTER
100
AcDbLine
 10
-616.9952125160587
 20
-830.5579208876638
 30
0.0
 11
-629.6878217626295
 21
-830.5579208876638
 31
0.0
  0
LINE
  5
10C3
330
18
100
AcDbEntity
  8
01
100
AcDbLine
 10
-637.3415171393441
 20
-825.0579208876638
 30
0.0
 11
-637.3415171393441
 21
-847.0579208876638
 31
0.0
  0
LINE
  5
10C4
330
18
100
AcDbEntity
  8
1HIDDEN
100
AcDbLine
 10
-639.3415171393441
 20
-825.0579208876638
 30
0.0
 11
-639.3415171393441
 21
-847.0579208876638
 31
0.0
  0
CIRCLE
  5
10C5
330
18
100
AcDbEntity
  8
01
100
AcDbCircle
 10
-623.3415171393441
 20
-830.5579208876638
 30
0.0
 40
2.5
  0
CIRCLE
  5
10C6
330
18
100
AcDbEntity
  8
01
100
AcDbCircle
 10
-631.8415171393441
 20
-841.5579208876638
 30
0.0
 40
2.5
  0
CIRCLE
  5
10C7
330
18
100
AcDbEntity
  8
01
100
AcDbCircle
 10
-631.8415171393441
 20
-841.5579208876638
 30
0.0
 40
4.0
  0
POINT
  5
10C8
330
18
100
AcDbEntity
  8
1CENTER
100
AcDbPoint
 10
-631.8415171393441
 20
-841.5579208876638
 30
0.0
  0
LINE
  5
10C9
330
18
100
AcDbEntity
  8
1CENTER
100
AcDbLine
 10
-625.8041863005542
 20
-841.5579208876638
 30
0.0
 11
-637.878847978134
 21
-841.5579208876638
 31
0.0
  0
LINE
  5
10CA
330
18
100
AcDbEntity
  8
1CENTER
100
AcDbLine
 10
-631.8415171393441
 20
-835.5205900488739
 30
0.0
 11
-631.8415171393441
 21
-847.5952517264537
 31
0.0
  0
POINT
  5
10CB
330
18
100
AcDbEntity
  8
1CENTER
100
AcDbPoint
 10
-623.3415171393441
 20
-830.5579208876638
 30
0.0
  0
LINE
  5
10CC
330
18
100
AcDbEntity
  8
1CENTER
100
AcDbLine
 10
-623.3415171393441
 20
-824.2116162643783
 30
0.0
 11
-623.3415171393441
 21
-836.9042255109493
 31
0.0
  0
LINE
  5
10CE
330
18
100
AcDbEntity
  8
01
100
AcDbLine
 10
-617.8415171393441
 20
-825.0579208876638
 30
0.0
 11
-617.8415171393441
 21
-847.0579208876638
 31
0.0
  0
ARC
  5
12E0
330
18
100
AcDbEntity
  8
01
100
AcDbCircle
 10
-1003.716517139344
 20
-836.0579208876638
 30
0.0
 40
18.1250000000001
100
AcDbArc
 50
209.7721249299308
 51
223.6028189727032
  0
LINE
  5
130C
330
18
100
AcDbEntity
  8
1CENTER
100
AcDbLine
 10
-1011.841517139344
 20
-962.3067599167907
 30
0.0
 11
-1011.841517139344
 21
-1000.923230916355
 31
0.0
  0
TEXT
  5
139E
330
18
100
AcDbEntity
  8
1TEXT
100
AcDbText
 10
-1066.859086230705
 20
-754.807757503626
 30
0.0
 40
7.5
  1
AC-701-X
100
AcDbText
  0
LINE
  5
150B
330
18
100
AcDbEntity
  8
1DIM
100
AcDbLine
 10
-881.9829714100232
 20
-1071.891681809046
 30
0.0
 11
-881.982971410023
 21
-1127.891681809046
 31
0.0
  0
LINE
  5
150C
330
18
100
AcDbEntity
  8
1DIM
100
AcDbLine
 10
-811.9829714100232
 20
-1071.891681809046
 30
0.0
 11
-811.982971410023
 21
-1127.891681809046
 31
0.0
  0
LINE
  5
150D
330
18
100
AcDbEntity
  8
1DIM
100
AcDbLine
 10
-741.9829714100232
 20
-1071.891681809046
 30
0.0
 11
-741.9829714100232
 21
-1127.891681809046
 31
0.0
  0
TEXT
  5
150E
330
18
100
AcDbEntity
  8
1TEXT
100
AcDbText
 10
-803.3251936322437
 20
-1124.891681809047
 30
0.0
 40
8.0
  1
AC-701-4Q
 41
0.8
 72
     1
 11
-777.1829714100214
 21
-1124.891681809047
 31
0.0
100
AcDbText
  0
TEXT
  5
150F
330
18
100
AcDbEntity
  8
1TEXT
100
AcDbText
 10
-879.5829714100231
 20
-1124.891681809046
 30
0.0
 40
8.0
  1
ダークアンバー
 72
     1
 11
-847.1829714100231
 21
-1124.891681809046
 31
0.0
100
AcDbText
  0
LINE
  5
1510
330
18
100
AcDbEntity
  8
1DIM
100
AcDbLine
 10
-881.9829714100232
 20
-1127.891681809046
 30
0.0
 11
-741.9829714100231
 21
-1127.891681809046
 31
0.0
  0
LINE
  5
1511
330
18
100
AcDbEntity
  8
1DIM
100
AcDbLine
 10
-881.9829714100232
 20
-1113.891681809046
 30
0.0
 11
-741.9829714100231
 21
-1113.891681809046
 31
0.0
  0
LINE
  5
1512
330
18
100
AcDbEntity
  8
1DIM
100
AcDbLine
 10
-881.9829714100232
 20
-1099.891681809046
 30
0.0
 11
-741.9829714100231
 21
-1099.891681809046
 31
0.0
  0
LINE
  5
1513
330
18
100
AcDbEntity
  8
1DIM
100
AcDbLine
 10
-881.9829714100232
 20
-1085.891681809046
 30
0.0
 11
-741.9829714100232
 21
-1085.891681809046
 31
0.0
  0
LINE
  5
1514
330
18
100
AcDbEntity
  8
1DIM
100
AcDbLine
 10
-881.9829714100232
 20
-1071.891681809046
 30
0.0
 11
-741.9829714100232
 21
-1071.891681809046
 31
0.0
  0
TEXT
  5
1515
330
18
100
AcDbEntity
  8
1TEXT
100
AcDbText
 10
-790.9163047433566
 20
-1082.891681809046
 30
0.0
 40
8.0
  1
コード
 72
     1
 11
-777.1829714100232
 21
-1082.891681809046
 31
0.0
100
AcDbText
  0
TEXT
  5
1516
330
18
100
AcDbEntity
  8
1TEXT
100
AcDbText
 10
-803.316304743355
 20
-1110.891681809047
 30
0.0
 40
8.0
  1
AC-701-XN
 41
0.8
 72
     1
 11
-777.1829714100217
 21
-1110.891681809047
 31
0.0
100
AcDbText
  0
TEXT
  5
1517
330
18
100
AcDbEntity
  8
1TEXT
100
AcDbText
 10
-803.3163047433566
 20
-1096.891681809046
 30
0.0
 40
8.0
  1
AC-701-XC
 41
0.8
 72
     1
 11
-777.1829714100232
 21
-1096.891681809046
 31
0.0
100
AcDbText
  0
TEXT
  5
1518
330
18
100
AcDbEntity
  8
1TEXT
100
AcDbText
 10
-866.1163047433565
 20
-1096.891681809046
 30
0.0
 40
8.0
  1
クローム
 72
     1
 11
-847.1829714100232
 21
-1096.891681809046
 31
0.0
100
AcDbText
  0
TEXT
  5
1519
330
18
100
AcDbEntity
  8
1TEXT
100
AcDbText
 10
-882.24963807669
 20
-1110.891681809046
 30
0.0
 40
8.0
  1
SUSヘアライン
 72
     1
 11
-847.1829714100232
 21
-1110.891681809046
 31
0.0
100
AcDbText
  0
TEXT
  5
151A
330
18
100
AcDbEntity
  8
1TEXT
100
AcDbText
 10
-865.7163047433565
 20
-1082.891681809046
 30
0.0
 40
8.0
  1
表面処理
 72
     1
 11
-847.1829714100232
 21
-1082.891681809046
 31
0.0
100
AcDbText
  0
LINE
  5
1E45
330
18
100
AcDbEntity
  8
1CENTER
100
AcDbLine
 10
-1039.341517139344
 20
-1002.28641394516
 30
0.0
 11
-1039.341517139344
 21
-1031.036910902194
 31
0.0
  0
LINE
  5
1E47
330
18
100
AcDbEntity
  8
01
100
AcDbLine
 10
-1041.341470603446
 20
-1014.11304663026
 30
0.0
 11
-1037.341470603446
 21
-1013.313055937437
 31
0.0
  0
LINE
  5
1E48
330
18
100
AcDbEntity
  8
01
100
AcDbLine
 10
-1037.341470603446
 20
-1013.313055937437
 30
0.0
 11
-1037.841470603446
 21
-1013.21305477404
 31
0.0
  0
LINE
  5
1E49
330
18
100
AcDbEntity
  8
01
100
AcDbLine
 10
-1040.420556006237
 20
-1007.82581719622
 30
0.0
 11
-1040.888654461387
 21
-1007.71304768387
 31
0.0
  0
LINE
  5
1E4A
330
18
100
AcDbEntity
  8
01
100
AcDbLine
 10
-1038.473505864464
 20
-1005.313053303423
 30
0.0
 11
-1039.061782439506
 21
-1005.001283447171
 31
0.0
  0
LINE
  5
1E4B
330
18
100
AcDbEntity
  8
01
100
AcDbLine
 10
-1039.978669112708
 20
-1006.264484533915
 30
0.0
 11
-1040.435840953339
 21
-1006.113048737474
 31
0.0
  0
LINE
  5
1E4C
330
18
100
AcDbEntity
  8
01
100
AcDbLine
 10
-1038.020691760057
 20
-1006.913054357029
 30
0.0
 11
-1038.57244122386
 21
-1006.730290214401
 31
0.0
  0
LINE
  5
1E4D
330
18
100
AcDbEntity
  8
01
100
AcDbLine
 10
-1040.435840953339
 20
-1006.113048737474
 30
0.0
 11
-1038.473505864464
 21
-1005.313053303423
 31
0.0
  0
LINE
  5
1E4E
330
18
100
AcDbEntity
  8
01
100
AcDbLine
 10
-1040.888654461387
 20
-1007.71304768387
 30
0.0
 11
-1038.020691760057
 21
-1006.913054357029
 31
0.0
  0
LINE
  5
1E4F
330
18
100
AcDbEntity
  8
01
100
AcDbLine
 10
-1041.341470603446
 20
-1012.51304663026
 30
0.0
 11
-1037.341470603446
 21
-1011.713055937437
 31
0.0
  0
LINE
  5
1E50
330
18
100
AcDbEntity
  8
01
100
AcDbLine
 10
-1041.341470603446
 20
-1010.91304663026
 30
0.0
 11
-1037.341470603446
 21
-1010.113055937437
 31
0.0
  0
LINE
  5
1E51
330
18
100
AcDbEntity
  8
01
100
AcDbLine
 10
-1040.841470603446
 20
-1011.013047793657
 30
0.0
 11
-1041.341470603446
 21
-1010.91304663026
 31
0.0
  0
LINE
  5
1E52
330
18
100
AcDbEntity
  8
01
100
AcDbLine
 10
-1037.341470603446
 20
-1010.113055937437
 30
0.0
 11
-1037.841470603446
 21
-1010.01305477404
 31
0.0
  0
LINE
  5
1E53
330
18
100
AcDbEntity
  8
01
100
AcDbLine
 10
-1037.341470603446
 20
-1011.713055937437
 30
0.0
 11
-1037.841470603446
 21
-1011.61305477404
 31
0.0
  0
LINE
  5
1E54
330
18
100
AcDbEntity
  8
01
100
AcDbLine
 10
-1037.56787765565
 20
-1008.513055410634
 30
0.0
 11
-1038.104471390921
 21
-1008.383784713005
 31
0.0
  0
LINE
  5
1E55
330
18
100
AcDbEntity
  8
01
100
AcDbLine
 10
-1041.341470603446
 20
-1009.31304663026
 30
0.0
 11
-1037.56787765565
 21
-1008.513055410634
 31
0.0
  0
LINE
  5
1E56
330
18
100
AcDbEntity
  8
01
100
AcDbLine
 10
-1040.841470603446
 20
-1009.413047793657
 30
0.0
 11
-1041.341470603446
 21
-1009.31304663026
 31
0.0
  0
LINE
  5
1E57
330
18
100
AcDbEntity
  8
01
100
AcDbLine
 10
-1040.841470603446
 20
-1012.613047793657
 30
0.0
 11
-1041.341470603446
 21
-1012.51304663026
 31
0.0
  0
LINE
  5
1E58
330
18
100
AcDbEntity
  8
01
100
AcDbLine
 10
-1041.341470603446
 20
-1025.313046630264
 30
0.0
 11
-1037.341470603446
 21
-1024.513055937446
 31
0.0
  0
LINE
  5
1E59
330
18
100
AcDbEntity
  8
01
100
AcDbLine
 10
-1041.341470603446
 20
-1017.31304663026
 30
0.0
 11
-1037.341470603446
 21
-1016.513055937437
 31
0.0
  0
LINE
  5
1E5A
330
18
100
AcDbEntity
  8
01
100
AcDbLine
 10
-1041.341470603446
 20
-1015.71304663026
 30
0.0
 11
-1037.341470603446
 21
-1014.913055937437
 31
0.0
  0
LINE
  5
1E5B
330
18
100
AcDbEntity
  8
01
100
AcDbLine
 10
-1040.841470603446
 20
-1014.213047793657
 30
0.0
 11
-1041.341470603446
 21
-1014.11304663026
 31
0.0
  0
LINE
  5
1E5C
330
18
100
AcDbEntity
  8
01
100
AcDbLine
 10
-1040.841470603446
 20
-1015.813047793657
 30
0.0
 11
-1041.341470603446
 21
-1015.71304663026
 31
0.0
  0
LINE
  5
1E5D
330
18
100
AcDbEntity
  8
01
100
AcDbLine
 10
-1037.341470603446
 20
-1014.913055937437
 30
0.0
 11
-1037.841470603446
 21
-1014.81305477404
 31
0.0
  0
LINE
  5
1E5E
330
18
100
AcDbEntity
  8
01
100
AcDbLine
 10
-1037.341470603446
 20
-1016.513055937437
 30
0.0
 11
-1037.841470603446
 21
-1016.41305477404
 31
0.0
  0
LINE
  5
1E5F
330
18
100
AcDbEntity
  8
01
100
AcDbLine
 10
-1041.341470603446
 20
-1023.71304663026
 30
0.0
 11
-1037.341470603446
 21
-1022.913055937442
 31
0.0
  0
LINE
  5
1E60
330
18
100
AcDbEntity
  8
01
100
AcDbLine
 10
-1041.341470603446
 20
-1020.51304663026
 30
0.0
 11
-1037.341470603446
 21
-1019.713055937442
 31
0.0
  0
LINE
  5
1E61
330
18
100
AcDbEntity
  8
01
100
AcDbLine
 10
-1041.341470603446
 20
-1018.91304663026
 30
0.0
 11
-1037.341470603446
 21
-1018.113055937437
 31
0.0
  0
LINE
  5
1E62
330
18
100
AcDbEntity
  8
01
100
AcDbLine
 10
-1040.841470603446
 20
-1017.413047793657
 30
0.0
 11
-1041.341470603446
 21
-1017.31304663026
 31
0.0
  0
LINE
  5
1E63
330
18
100
AcDbEntity
  8
01
100
AcDbLine
 10
-1040.841470603446
 20
-1019.013047793658
 30
0.0
 11
-1041.341470603446
 21
-1018.91304663026
 31
0.0
  0
LINE
  5
1E64
330
18
100
AcDbEntity
  8
01
100
AcDbLine
 10
-1037.341470603446
 20
-1019.713055937442
 30
0.0
 11
-1037.841470603446
 21
-1019.613054774044
 31
0.0
  0
LINE
  5
1E65
330
18
100
AcDbEntity
  8
01
100
AcDbLine
 10
-1037.341470603446
 20
-1018.113055937437
 30
0.0
 11
-1037.841470603446
 21
-1018.01305477404
 31
0.0
  0
LINE
  5
1E66
330
18
100
AcDbEntity
  8
01
100
AcDbLine
 10
-1037.341470603446
 20
-1022.913055937442
 30
0.0
 11
-1037.841470603446
 21
-1022.813054774044
 31
0.0
  0
LINE
  5
1E67
330
18
100
AcDbEntity
  8
01
100
AcDbLine
 10
-1040.841470603446
 20
-1022.213047793658
 30
0.0
 11
-1041.341470603446
 21
-1022.11304663026
 31
0.0
  0
LINE
  5
1E68
330
18
100
AcDbEntity
  8
01
100
AcDbLine
 10
-1037.341470603446
 20
-1021.313055937442
 30
0.0
 11
-1037.841470603446
 21
-1021.213054774044
 31
0.0
  0
LINE
  5
1E69
330
18
100
AcDbEntity
  8
01
100
AcDbLine
 10
-1041.341470603446
 20
-1022.11304663026
 30
0.0
 11
-1037.341470603446
 21
-1021.313055937442
 31
0.0
  0
LINE
  5
1E6A
330
18
100
AcDbEntity
  8
01
100
AcDbLine
 10
-1040.841470603446
 20
-1020.613047793657
 30
0.0
 11
-1041.341470603446
 21
-1020.51304663026
 31
0.0
  0
LINE
  5
1E6B
330
18
100
AcDbEntity
  8
01
100
AcDbLine
 10
-1037.341470603446
 20
-1024.513055937446
 30
0.0
 11
-1037.841470603446
 21
-1024.413054774048
 31
0.0
  0
LINE
  5
1E6C
330
18
100
AcDbEntity
  8
01
100
AcDbLine
 10
-1040.841470603446
 20
-1023.813047793657
 30
0.0
 11
-1041.341470603446
 21
-1023.71304663026
 31
0.0
  0
LINE
  5
1E6D
330
18
100
AcDbEntity
  8
01
100
AcDbLine
 10
-1043.341517139344
 20
-1028.713041976453
 30
0.0
 11
-1035.341517139344
 21
-1028.713060590813
 31
0.0
  0
LINE
  5
1E6E
330
18
100
AcDbEntity
  8
01
100
AcDbLine
 10
-1037.841470603446
 20
-1026.213054774048
 30
0.0
 11
-1037.341470603446
 21
-1026.113055937446
 31
0.0
  0
LINE
  5
1E6F
330
18
100
AcDbEntity
  8
01
100
AcDbLine
 10
-1037.341470603446
 20
-1026.113055937446
 30
0.0
 11
-1037.841470603446
 21
-1026.013054774048
 31
0.0
  0
LINE
  5
1E70
330
18
100
AcDbEntity
  8
01
100
AcDbLine
 10
-1040.841470603446
 20
-1025.413047793662
 30
0.0
 11
-1041.341470603446
 21
-1025.313046630264
 31
0.0
  0
LINE
  5
1E71
330
18
100
AcDbEntity
  8
1CENTER
100
AcDbLine
 10
-984.3415171393441
 20
-1002.28641394516
 30
0.0
 11
-984.3415171393441
 21
-1031.036910902194
 31
0.0
  0
LINE
  5
1E73
330
18
100
AcDbEntity
  8
01
100
AcDbLine
 10
-986.3414706034462
 20
-1014.11304663026
 30
0.0
 11
-982.3414706034462
 21
-1013.313055937437
 31
0.0
  0
LINE
  5
1E74
330
18
100
AcDbEntity
  8
01
100
AcDbLine
 10
-982.3414706034462
 20
-1013.313055937437
 30
0.0
 11
-982.8414706034462
 21
-1013.21305477404
 31
0.0
  0
LINE
  5
1E75
330
18
100
AcDbEntity
  8
01
100
AcDbLine
 10
-985.4205560062375
 20
-1007.82581719622
 30
0.0
 11
-985.8886544613874
 21
-1007.71304768387
 31
0.0
  0
LINE
  5
1E76
330
18
100
AcDbEntity
  8
01
100
AcDbLine
 10
-983.4735058644637
 20
-1005.313053303423
 30
0.0
 11
-984.0617824395061
 21
-1005.001283447171
 31
0.0
  0
LINE
  5
1E77
330
18
100
AcDbEntity
  8
01
100
AcDbLine
 10
-984.9786691127081
 20
-1006.264484533915
 30
0.0
 11
-985.4358409533392
 21
-1006.113048737474
 31
0.0
  0
LINE
  5
1E78
330
18
100
AcDbEntity
  8
01
100
AcDbLine
 10
-983.0206917600569
 20
-1006.913054357029
 30
0.0
 11
-983.5724412238602
 21
-1006.730290214401
 31
0.0
  0
LINE
  5
1E79
330
18
100
AcDbEntity
  8
01
100
AcDbLine
 10
-985.4358409533392
 20
-1006.113048737474
 30
0.0
 11
-983.4735058644637
 21
-1005.313053303423
 31
0.0
  0
LINE
  5
1E7A
330
18
100
AcDbEntity
  8
01
100
AcDbLine
 10
-985.8886544613874
 20
-1007.71304768387
 30
0.0
 11
-983.0206917600569
 21
-1006.913054357029
 31
0.0
  0
LINE
  5
1E7B
330
18
100
AcDbEntity
  8
01
100
AcDbLine
 10
-986.3414706034462
 20
-1012.51304663026
 30
0.0
 11
-982.3414706034462
 21
-1011.713055937437
 31
0.0
  0
LINE
  5
1E7C
330
18
100
AcDbEntity
  8
01
100
AcDbLine
 10
-986.3414706034462
 20
-1010.91304663026
 30
0.0
 11
-982.3414706034462
 21
-1010.113055937437
 31
0.0
  0
LINE
  5
1E7D
330
18
100
AcDbEntity
  8
01
100
AcDbLine
 10
-985.8414706034462
 20
-1011.013047793657
 30
0.0
 11
-986.3414706034462
 21
-1010.91304663026
 31
0.0
  0
LINE
  5
1E7E
330
18
100
AcDbEntity
  8
01
100
AcDbLine
 10
-982.3414706034462
 20
-1010.113055937437
 30
0.0
 11
-982.8414706034462
 21
-1010.01305477404
 31
0.0
  0
LINE
  5
1E7F
330
18
100
AcDbEntity
  8
01
100
AcDbLine
 10
-982.3414706034462
 20
-1011.713055937437
 30
0.0
 11
-982.8414706034462
 21
-1011.61305477404
 31
0.0
  0
LINE
  5
1E80
330
18
100
AcDbEntity
  8
01
100
AcDbLine
 10
-982.5678776556501
 20
-1008.513055410634
 30
0.0
 11
-983.1044713909213
 21
-1008.383784713005
 31
0.0
  0
LINE
  5
1E81
330
18
100
AcDbEntity
  8
01
100
AcDbLine
 10
-986.3414706034462
 20
-1009.31304663026
 30
0.0
 11
-982.5678776556501
 21
-1008.513055410634
 31
0.0
  0
LINE
  5
1E82
330
18
100
AcDbEntity
  8
01
100
AcDbLine
 10
-985.8414706034462
 20
-1009.413047793657
 30
0.0
 11
-986.3414706034462
 21
-1009.31304663026
 31
0.0
  0
LINE
  5
1E83
330
18
100
AcDbEntity
  8
01
100
AcDbLine
 10
-985.8414706034462
 20
-1012.613047793657
 30
0.0
 11
-986.3414706034462
 21
-1012.51304663026
 31
0.0
  0
LINE
  5
1E84
330
18
100
AcDbEntity
  8
01
100
AcDbLine
 10
-986.3414706034462
 20
-1025.313046630264
 30
0.0
 11
-982.3414706034462
 21
-1024.513055937446
 31
0.0
  0
LINE
  5
1E85
330
18
100
AcDbEntity
  8
01
100
AcDbLine
 10
-986.3414706034462
 20
-1017.31304663026
 30
0.0
 11
-982.3414706034462
 21
-1016.513055937437
 31
0.0
  0
LINE
  5
1E86
330
18
100
AcDbEntity
  8
01
100
AcDbLine
 10
-986.3414706034462
 20
-1015.71304663026
 30
0.0
 11
-982.3414706034462
 21
-1014.913055937437
 31
0.0
  0
LINE
  5
1E87
330
18
100
AcDbEntity
  8
01
100
AcDbLine
 10
-985.8414706034462
 20
-1014.213047793657
 30
0.0
 11
-986.3414706034462
 21
-1014.11304663026
 31
0.0
  0
LINE
  5
1E88
330
18
100
AcDbEntity
  8
01
100
AcDbLine
 10
-985.8414706034462
 20
-1015.813047793657
 30
0.0
 11
-986.3414706034462
 21
-1015.71304663026
 31
0.0
  0
LINE
  5
1E89
330
18
100
AcDbEntity
  8
01
100
AcDbLine
 10
-982.3414706034462
 20
-1014.913055937437
 30
0.0
 11
-982.8414706034462
 21
-1014.81305477404
 31
0.0
  0
LINE
  5
1E8A
330
18
100
AcDbEntity
  8
01
100
AcDbLine
 10
-982.3414706034462
 20
-1016.513055937437
 30
0.0
 11
-982.8414706034462
 21
-1016.41305477404
 31
0.0
  0
LINE
  5
1E8B
330
18
100
AcDbEntity
  8
01
100
AcDbLine
 10
-986.3414706034462
 20
-1023.71304663026
 30
0.0
 11
-982.3414706034462
 21
-1022.913055937442
 31
0.0
  0
LINE
  5
1E8C
330
18
100
AcDbEntity
  8
01
100
AcDbLine
 10
-986.3414706034462
 20
-1020.51304663026
 30
0.0
 11
-982.3414706034462
 21
-1019.713055937442
 31
0.0
  0
LINE
  5
1E8D
330
18
100
AcDbEntity
  8
01
100
AcDbLine
 10
-986.3414706034462
 20
-1018.91304663026
 30
0.0
 11
-982.3414706034462
 21
-1018.113055937437
 31
0.0
  0
LINE
  5
1E8E
330
18
100
AcDbEntity
  8
01
100
AcDbLine
 10
-985.8414706034462
 20
-1017.413047793657
 30
0.0
 11
-986.3414706034462
 21
-1017.31304663026
 31
0.0
  0
LINE
  5
1E8F
330
18
100
AcDbEntity
  8
01
100
AcDbLine
 10
-985.8414706034462
 20
-1019.013047793658
 30
0.0
 11
-986.3414706034462
 21
-1018.91304663026
 31
0.0
  0
LINE
  5
1E90
330
18
100
AcDbEntity
  8
01
100
AcDbLine
 10
-982.3414706034462
 20
-1019.713055937442
 30
0.0
 11
-982.8414706034462
 21
-1019.613054774044
 31
0.0
  0
LINE
  5
1E91
330
18
100
AcDbEntity
  8
01
100
AcDbLine
 10
-982.3414706034462
 20
-1018.113055937437
 30
0.0
 11
-982.8414706034462
 21
-1018.01305477404
 31
0.0
  0
LINE
  5
1E92
330
18
100
AcDbEntity
  8
01
100
AcDbLine
 10
-982.3414706034462
 20
-1022.913055937442
 30
0.0
 11
-982.8414706034462
 21
-1022.813054774044
 31
0.0
  0
LINE
  5
1E93
330
18
100
AcDbEntity
  8
01
100
AcDbLine
 10
-985.8414706034462
 20
-1022.213047793658
 30
0.0
 11
-986.3414706034462
 21
-1022.11304663026
 31
0.0
  0
LINE
  5
1E94
330
18
100
AcDbEntity
  8
01
100
AcDbLine
 10
-982.3414706034462
 20
-1021.313055937442
 30
0.0
 11
-982.8414706034462
 21
-1021.213054774044
 31
0.0
  0
LINE
  5
1E95
330
18
100
AcDbEntity
  8
01
100
AcDbLine
 10
-986.3414706034462
 20
-1022.11304663026
 30
0.0
 11
-982.3414706034462
 21
-1021.313055937442
 31
0.0
  0
LINE
  5
1E96
330
18
100
AcDbEntity
  8
01
100
AcDbLine
 10
-985.8414706034462
 20
-1020.613047793657
 30
0.0
 11
-986.3414706034462
 21
-1020.51304663026
 31
0.0
  0
LINE
  5
1E97
330
18
100
AcDbEntity
  8
01
100
AcDbLine
 10
-982.3414706034462
 20
-1024.513055937446
 30
0.0
 11
-982.8414706034462
 21
-1024.413054774048
 31
0.0
  0
LINE
  5
1E98
330
18
100
AcDbEntity
  8
01
100
AcDbLine
 10
-985.8414706034462
 20
-1023.813047793657
 30
0.0
 11
-986.3414706034462
 21
-1023.71304663026
 31
0.0
  0
LINE
  5
1E99
330
18
100
AcDbEntity
  8
01
100
AcDbLine
 10
-988.3415171393441
 20
-1028.713041976453
 30
0.0
 11
-980.3415171393441
 21
-1028.713060590813
 31
0.0
  0
LINE
  5
1E9A
330
18
100
AcDbEntity
  8
01
100
AcDbLine
 10
-982.8414706034462
 20
-1026.213054774048
 30
0.0
 11
-982.3414706034462
 21
-1026.113055937446
 31
0.0
  0
LINE
  5
1E9B
330
18
100
AcDbEntity
  8
01
100
AcDbLine
 10
-982.3414706034462
 20
-1026.113055937446
 30
0.0
 11
-982.8414706034462
 21
-1026.013054774048
 31
0.0
  0
LINE
  5
1E9C
330
18
100
AcDbEntity
  8
01
100
AcDbLine
 10
-985.8414706034462
 20
-1025.413047793662
 30
0.0
 11
-986.3414706034462
 21
-1025.313046630264
 31
0.0
  0
LINE
  5
1E9D
330
18
100
AcDbEntity
  8
1CENTER
100
AcDbLine
 10
-631.8415171393441
 20
-969.9679945849036
 30
0.0
 11
-631.8415171393441
 21
-941.2174976278686
 31
0.0
  0
LINE
  5
1E9F
330
18
100
AcDbEntity
  8
01
100
AcDbLine
 10
-629.841563675242
 20
-958.1413618998033
 30
0.0
 11
-633.841563675242
 21
-958.9413525926259
 31
0.0
  0
LINE
  5
1EA0
330
18
100
AcDbEntity
  8
01
100
AcDbLine
 10
-633.841563675242
 20
-958.9413525926259
 30
0.0
 11
-633.341563675242
 21
-959.0413537560232
 31
0.0
  0
LINE
  5
1EA1
330
18
100
AcDbEntity
  8
01
100
AcDbLine
 10
-630.7624782724507
 20
-964.4285913338431
 30
0.0
 11
-630.2943798173008
 21
-964.5413608461931
 31
0.0
  0
LINE
  5
1EA2
330
18
100
AcDbEntity
  8
01
100
AcDbLine
 10
-632.7095284142245
 20
-966.9413552266399
 30
0.0
 11
-632.121251839182
 21
-967.253125082892
 31
0.0
  0
LINE
  5
1EA3
330
18
100
AcDbEntity
  8
01
100
AcDbLine
 10
-631.2043651659801
 20
-965.9899239961485
 30
0.0
 11
-630.747193325349
 21
-966.1413597925889
 31
0.0
  0
LINE
  5
1EA4
330
18
100
AcDbEntity
  8
01
100
AcDbLine
 10
-633.1623425186312
 20
-965.3413541730342
 30
0.0
 11
-632.610593054828
 21
-965.5241183156622
 31
0.0
  0
LINE
  5
1EA5
330
18
100
AcDbEntity
  8
01
100
AcDbLine
 10
-630.747193325349
 20
-966.1413597925889
 30
0.0
 11
-632.7095284142245
 21
-966.9413552266399
 31
0.0
  0
LINE
  5
1EA6
330
18
100
AcDbEntity
  8
01
100
AcDbLine
 10
-630.2943798173008
 20
-964.5413608461931
 30
0.0
 11
-633.1623425186312
 21
-965.3413541730342
 31
0.0
  0
LINE
  5
1EA7
330
18
100
AcDbEntity
  8
01
100
AcDbLine
 10
-629.841563675242
 20
-959.7413618998035
 30
0.0
 11
-633.841563675242
 21
-960.541352592626
 31
0.0
  0
LINE
  5
1EA8
330
18
100
AcDbEntity
  8
01
100
AcDbLine
 10
-629.841563675242
 20
-961.3413618998034
 30
0.0
 11
-633.841563675242
 21
-962.1413525926259
 31
0.0
  0
LINE
  5
1EA9
330
18
100
AcDbEntity
  8
01
100
AcDbLine
 10
-630.341563675242
 20
-961.2413607364062
 30
0.0
 11
-629.841563675242
 21
-961.3413618998034
 31
0.0
  0
LINE
  5
1EAA
330
18
100
AcDbEntity
  8
01
100
AcDbLine
 10
-633.841563675242
 20
-962.1413525926259
 30
0.0
 11
-633.341563675242
 21
-962.241353756023
 31
0.0
  0
LINE
  5
1EAB
330
18
100
AcDbEntity
  8
01
100
AcDbLine
 10
-633.841563675242
 20
-960.541352592626
 30
0.0
 11
-633.341563675242
 21
-960.6413537560229
 31
0.0
  0
LINE
  5
1EAC
330
18
100
AcDbEntity
  8
01
100
AcDbLine
 10
-633.615156623038
 20
-963.7413531194286
 30
0.0
 11
-633.0785628877669
 21
-963.8706238170585
 31
0.0
  0
LINE
  5
1EAD
330
18
100
AcDbEntity
  8
01
100
AcDbLine
 10
-629.841563675242
 20
-962.9413618998033
 30
0.0
 11
-633.615156623038
 21
-963.7413531194286
 31
0.0
  0
LINE
  5
1EAE
330
18
100
AcDbEntity
  8
01
100
AcDbLine
 10
-630.341563675242
 20
-962.8413607364062
 30
0.0
 11
-629.841563675242
 21
-962.9413618998033
 31
0.0
  0
LINE
  5
1EAF
330
18
100
AcDbEntity
  8
01
100
AcDbLine
 10
-630.341563675242
 20
-959.6413607364061
 30
0.0
 11
-629.841563675242
 21
-959.7413618998035
 31
0.0
  0
LINE
  5
1EB0
330
18
100
AcDbEntity
  8
01
100
AcDbLine
 10
-629.841563675242
 20
-946.941361899799
 30
0.0
 11
-633.841563675242
 21
-947.7413525926172
 31
0.0
  0
LINE
  5
1EB1
330
18
100
AcDbEntity
  8
01
100
AcDbLine
 10
-629.841563675242
 20
-954.9413618998033
 30
0.0
 11
-633.841563675242
 21
-955.7413525926258
 31
0.0
  0
LINE
  5
1EB2
330
18
100
AcDbEntity
  8
01
100
AcDbLine
 10
-629.841563675242
 20
-956.5413618998034
 30
0.0
 11
-633.841563675242
 21
-957.341352592626
 31
0.0
  0
LINE
  5
1EB3
330
18
100
AcDbEntity
  8
01
100
AcDbLine
 10
-630.341563675242
 20
-958.0413607364062
 30
0.0
 11
-629.841563675242
 21
-958.1413618998033
 31
0.0
  0
LINE
  5
1EB4
330
18
100
AcDbEntity
  8
01
100
AcDbLine
 10
-630.341563675242
 20
-956.4413607364063
 30
0.0
 11
-629.841563675242
 21
-956.5413618998034
 31
0.0
  0
LINE
  5
1EB5
330
18
100
AcDbEntity
  8
01
100
AcDbLine
 10
-633.841563675242
 20
-957.341352592626
 30
0.0
 11
-633.341563675242
 21
-957.4413537560231
 31
0.0
  0
LINE
  5
1EB6
330
18
100
AcDbEntity
  8
01
100
AcDbLine
 10
-633.841563675242
 20
-955.7413525926258
 30
0.0
 11
-633.341563675242
 21
-955.8413537560232
 31
0.0
  0
LINE
  5
1EB7
330
18
100
AcDbEntity
  8
01
100
AcDbLine
 10
-629.841563675242
 20
-948.5413618998034
 30
0.0
 11
-633.841563675242
 21
-949.3413525926217
 31
0.0
  0
LINE
  5
1EB8
330
18
100
AcDbEntity
  8
01
100
AcDbLine
 10
-629.841563675242
 20
-951.7413618998035
 30
0.0
 11
-633.841563675242
 21
-952.5413525926217
 31
0.0
  0
LINE
  5
1EB9
330
18
100
AcDbEntity
  8
01
100
AcDbLine
 10
-629.841563675242
 20
-953.3413618998034
 30
0.0
 11
-633.841563675242
 21
-954.1413525926259
 31
0.0
  0
LINE
  5
1EBA
330
18
100
AcDbEntity
  8
01
100
AcDbLine
 10
-630.341563675242
 20
-954.8413607364062
 30
0.0
 11
-629.841563675242
 21
-954.9413618998033
 31
0.0
  0
LINE
  5
1EBB
330
18
100
AcDbEntity
  8
01
100
AcDbLine
 10
-630.341563675242
 20
-953.2413607364056
 30
0.0
 11
-629.841563675242
 21
-953.3413618998034
 31
0.0
  0
LINE
  5
1EBC
330
18
100
AcDbEntity
  8
01
100
AcDbLine
 10
-633.841563675242
 20
-952.5413525926217
 30
0.0
 11
-633.341563675242
 21
-952.6413537560193
 31
0.0
  0
LINE
  5
1EBD
330
18
100
AcDbEntity
  8
01
100
AcDbLine
 10
-633.841563675242
 20
-954.1413525926259
 30
0.0
 11
-633.341563675242
 21
-954.241353756023
 31
0.0
  0
LINE
  5
1EBE
330
18
100
AcDbEntity
  8
01
100
AcDbLine
 10
-633.841563675242
 20
-949.3413525926217
 30
0.0
 11
-633.341563675242
 21
-949.4413537560192
 31
0.0
  0
LINE
  5
1EBF
330
18
100
AcDbEntity
  8
01
100
AcDbLine
 10
-630.341563675242
 20
-950.0413607364055
 30
0.0
 11
-629.841563675242
 21
-950.1413618998033
 31
0.0
  0
LINE
  5
1EC0
330
18
100
AcDbEntity
  8
01
100
AcDbLine
 10
-633.841563675242
 20
-950.9413525926216
 30
0.0
 11
-633.341563675242
 21
-951.0413537560191
 31
0.0
  0
LINE
  5
1EC1
330
18
100
AcDbEntity
  8
01
100
AcDbLine
 10
-629.841563675242
 20
-950.1413618998033
 30
0.0
 11
-633.841563675242
 21
-950.9413525926216
 31
0.0
  0
LINE
  5
1EC2
330
18
100
AcDbEntity
  8
01
100
AcDbLine
 10
-630.341563675242
 20
-951.6413607364057
 30
0.0
 11
-629.841563675242
 21
-951.7413618998035
 31
0.0
  0
LINE
  5
1EC3
330
18
100
AcDbEntity
  8
01
100
AcDbLine
 10
-633.841563675242
 20
-947.7413525926172
 30
0.0
 11
-633.341563675242
 21
-947.841353756015
 31
0.0
  0
LINE
  5
1EC4
330
18
100
AcDbEntity
  8
01
100
AcDbLine
 10
-630.341563675242
 20
-948.4413607364056
 30
0.0
 11
-629.841563675242
 21
-948.5413618998034
 31
0.0
  0
LINE
  5
1EC5
330
18
100
AcDbEntity
  8
01
100
AcDbLine
 10
-627.8415171393441
 20
-943.5413665536098
 30
0.0
 11
-635.8415171393441
 21
-943.5413479392506
 31
0.0
  0
LINE
  5
1EC6
330
18
100
AcDbEntity
  8
01
100
AcDbLine
 10
-633.341563675242
 20
-946.0413537560148
 30
0.0
 11
-633.841563675242
 21
-946.1413525926171
 31
0.0
  0
LINE
  5
1EC7
330
18
100
AcDbEntity
  8
01
100
AcDbLine
 10
-633.841563675242
 20
-946.1413525926171
 30
0.0
 11
-633.341563675242
 21
-946.2413537560149
 31
0.0
  0
LINE
  5
1EC8
330
18
100
AcDbEntity
  8
01
100
AcDbLine
 10
-630.341563675242
 20
-946.8413607364014
 30
0.0
 11
-629.841563675242
 21
-946.941361899799
 31
0.0
  0
LINE
  5
1EC9
330
18
100
AcDbEntity
  8
1CENTER
100
AcDbLine
 10
-623.3415171393441
 20
-969.9679945849037
 30
0.0
 11
-623.3415171393441
 21
-941.2174976278687
 31
0.0
  0
LINE
  5
1ECB
330
18
100
AcDbEntity
  8
01
100
AcDbLine
 10
-621.341563675242
 20
-958.1413618998035
 30
0.0
 11
-625.341563675242
 21
-958.9413525926261
 31
0.0
  0
LINE
  5
1ECC
330
18
100
AcDbEntity
  8
01
100
AcDbLine
 10
-625.341563675242
 20
-958.9413525926261
 30
0.0
 11
-624.841563675242
 21
-959.0413537560232
 31
0.0
  0
LINE
  5
1ECD
330
18
100
AcDbEntity
  8
01
100
AcDbLine
 10
-622.2624782724507
 20
-964.4285913338433
 30
0.0
 11
-621.7943798173008
 21
-964.5413608461934
 31
0.0
  0
LINE
  5
1ECE
330
18
100
AcDbEntity
  8
01
100
AcDbLine
 10
-624.2095284142245
 20
-966.9413552266401
 30
0.0
 11
-623.621251839182
 21
-967.2531250828922
 31
0.0
  0
LINE
  5
1ECF
330
18
100
AcDbEntity
  8
01
100
AcDbLine
 10
-622.7043651659801
 20
-965.9899239961487
 30
0.0
 11
-622.247193325349
 21
-966.1413597925891
 31
0.0
  0
LINE
  5
1ED0
330
18
100
AcDbEntity
  8
01
100
AcDbLine
 10
-624.6623425186312
 20
-965.3413541730345
 30
0.0
 11
-624.110593054828
 21
-965.5241183156625
 31
0.0
  0
LINE
  5
1ED1
330
18
100
AcDbEntity
  8
01
100
AcDbLine
 10
-622.247193325349
 20
-966.1413597925891
 30
0.0
 11
-624.2095284142245
 21
-966.9413552266401
 31
0.0
  0
LINE
  5
1ED2
330
18
100
AcDbEntity
  8
01
100
AcDbLine
 10
-621.7943798173008
 20
-964.5413608461934
 30
0.0
 11
-624.6623425186312
 21
-965.3413541730345
 31
0.0
  0
LINE
  5
1ED3
330
18
100
AcDbEntity
  8
01
100
AcDbLine
 10
-621.341563675242
 20
-959.7413618998035
 30
0.0
 11
-625.341563675242
 21
-960.541352592626
 31
0.0
  0
LINE
  5
1ED4
330
18
100
AcDbEntity
  8
01
100
AcDbLine
 10
-621.341563675242
 20
-961.3413618998036
 30
0.0
 11
-625.341563675242
 21
-962.1413525926262
 31
0.0
  0
LINE
  5
1ED5
330
18
100
AcDbEntity
  8
01
100
AcDbLine
 10
-621.841563675242
 20
-961.2413607364065
 30
0.0
 11
-621.341563675242
 21
-961.3413618998036
 31
0.0
  0
LINE
  5
1ED6
330
18
100
AcDbEntity
  8
01
100
AcDbLine
 10
-625.341563675242
 20
-962.1413525926262
 30
0.0
 11
-624.841563675242
 21
-962.2413537560233
 31
0.0
  0
LINE
  5
1ED7
330
18
100
AcDbEntity
  8
01
100
AcDbLine
 10
-625.341563675242
 20
-960.541352592626
 30
0.0
 11
-624.841563675242
 21
-960.6413537560231
 31
0.0
  0
LINE
  5
1ED8
330
18
100
AcDbEntity
  8
01
100
AcDbLine
 10
-625.115156623038
 20
-963.7413531194288
 30
0.0
 11
-624.5785628877669
 21
-963.8706238170587
 31
0.0
  0
LINE
  5
1ED9
330
18
100
AcDbEntity
  8
01
100
AcDbLine
 10
-621.341563675242
 20
-962.9413618998035
 30
0.0
 11
-625.115156623038
 21
-963.7413531194288
 31
0.0
  0
LINE
  5
1EDA
330
18
100
AcDbEntity
  8
01
100
AcDbLine
 10
-621.841563675242
 20
-962.8413607364064
 30
0.0
 11
-621.341563675242
 21
-962.9413618998035
 31
0.0
  0
LINE
  5
1EDB
330
18
100
AcDbEntity
  8
01
100
AcDbLine
 10
-621.841563675242
 20
-959.6413607364063
 30
0.0
 11
-621.341563675242
 21
-959.7413618998035
 31
0.0
  0
LINE
  5
1EDC
330
18
100
AcDbEntity
  8
01
100
AcDbLine
 10
-621.341563675242
 20
-946.9413618997992
 30
0.0
 11
-625.341563675242
 21
-947.7413525926174
 31
0.0
  0
LINE
  5
1EDD
330
18
100
AcDbEntity
  8
01
100
AcDbLine
 10
-621.341563675242
 20
-954.9413618998035
 30
0.0
 11
-625.341563675242
 21
-955.7413525926261
 31
0.0
  0
LINE
  5
1EDE
330
18
100
AcDbEntity
  8
01
100
AcDbLine
 10
-621.341563675242
 20
-956.5413618998036
 30
0.0
 11
-625.341563675242
 21
-957.3413525926262
 31
0.0
  0
LINE
  5
1EDF
330
18
100
AcDbEntity
  8
01
100
AcDbLine
 10
-621.841563675242
 20
-958.0413607364064
 30
0.0
 11
-621.341563675242
 21
-958.1413618998035
 31
0.0
  0
LINE
  5
1EE0
330
18
100
AcDbEntity
  8
01
100
AcDbLine
 10
-621.841563675242
 20
-956.4413607364065
 30
0.0
 11
-621.341563675242
 21
-956.5413618998036
 31
0.0
  0
LINE
  5
1EE1
330
18
100
AcDbEntity
  8
01
100
AcDbLine
 10
-625.341563675242
 20
-957.3413525926262
 30
0.0
 11
-624.841563675242
 21
-957.4413537560233
 31
0.0
  0
LINE
  5
1EE2
330
18
100
AcDbEntity
  8
01
100
AcDbLine
 10
-625.341563675242
 20
-955.7413525926261
 30
0.0
 11
-624.841563675242
 21
-955.8413537560232
 31
0.0
  0
LINE
  5
1EE3
330
18
100
AcDbEntity
  8
01
100
AcDbLine
 10
-621.341563675242
 20
-948.5413618998034
 30
0.0
 11
-625.341563675242
 21
-949.3413525926217
 31
0.0
  0
LINE
  5
1EE4
330
18
100
AcDbEntity
  8
01
100
AcDbLine
 10
-621.341563675242
 20
-951.7413618998035
 30
0.0
 11
-625.341563675242
 21
-952.5413525926217
 31
0.0
  0
LINE
  5
1EE5
330
18
100
AcDbEntity
  8
01
100
AcDbLine
 10
-621.341563675242
 20
-953.3413618998036
 30
0.0
 11
-625.341563675242
 21
-954.1413525926262
 31
0.0
  0
LINE
  5
1EE6
330
18
100
AcDbEntity
  8
01
100
AcDbLine
 10
-621.841563675242
 20
-954.8413607364064
 30
0.0
 11
-621.341563675242
 21
-954.9413618998035
 31
0.0
  0
LINE
  5
1EE7
330
18
100
AcDbEntity
  8
01
100
AcDbLine
 10
-621.841563675242
 20
-953.2413607364058
 30
0.0
 11
-621.341563675242
 21
-953.3413618998036
 31
0.0
  0
LINE
  5
1EE8
330
18
100
AcDbEntity
  8
01
100
AcDbLine
 10
-625.341563675242
 20
-952.5413525926217
 30
0.0
 11
-624.841563675242
 21
-952.6413537560195
 31
0.0
  0
LINE
  5
1EE9
330
18
100
AcDbEntity
  8
01
100
AcDbLine
 10
-625.341563675242
 20
-954.1413525926262
 30
0.0
 11
-624.841563675242
 21
-954.2413537560233
 31
0.0
  0
LINE
  5
1EEA
330
18
100
AcDbEntity
  8
01
100
AcDbLine
 10
-625.341563675242
 20
-949.3413525926217
 30
0.0
 11
-624.841563675242
 21
-949.4413537560195
 31
0.0
  0
LINE
  5
1EEB
330
18
100
AcDbEntity
  8
01
100
AcDbLine
 10
-621.841563675242
 20
-950.0413607364057
 30
0.0
 11
-621.341563675242
 21
-950.1413618998033
 31
0.0
  0
LINE
  5
1EEC
330
18
100
AcDbEntity
  8
01
100
AcDbLine
 10
-625.341563675242
 20
-950.9413525926216
 30
0.0
 11
-624.841563675242
 21
-951.0413537560194
 31
0.0
  0
LINE
  5
1EED
330
18
100
AcDbEntity
  8
01
100
AcDbLine
 10
-621.341563675242
 20
-950.1413618998033
 30
0.0
 11
-625.341563675242
 21
-950.9413525926216
 31
0.0
  0
LINE
  5
1EEE
330
18
100
AcDbEntity
  8
01
100
AcDbLine
 10
-621.841563675242
 20
-951.6413607364059
 30
0.0
 11
-621.341563675242
 21
-951.7413618998035
 31
0.0
  0
LINE
  5
1EEF
330
18
100
AcDbEntity
  8
01
100
AcDbLine
 10
-625.341563675242
 20
-947.7413525926174
 30
0.0
 11
-624.841563675242
 21
-947.841353756015
 31
0.0
  0
LINE
  5
1EF0
330
18
100
AcDbEntity
  8
01
100
AcDbLine
 10
-621.841563675242
 20
-948.4413607364058
 30
0.0
 11
-621.341563675242
 21
-948.5413618998034
 31
0.0
  0
LINE
  5
1EF1
330
18
100
AcDbEntity
  8
01
100
AcDbLine
 10
-619.3415171393441
 20
-943.5413665536099
 30
0.0
 11
-627.3415171393441
 21
-943.5413479392507
 31
0.0
  0
LINE
  5
1EF2
330
18
100
AcDbEntity
  8
01
100
AcDbLine
 10
-624.841563675242
 20
-946.041353756015
 30
0.0
 11
-625.341563675242
 21
-946.1413525926173
 31
0.0
  0
LINE
  5
1EF3
330
18
100
AcDbEntity
  8
01
100
AcDbLine
 10
-625.341563675242
 20
-946.1413525926173
 30
0.0
 11
-624.841563675242
 21
-946.2413537560149
 31
0.0
  0
LINE
  5
1EF4
330
18
100
AcDbEntity
  8
01
100
AcDbLine
 10
-621.841563675242
 20
-946.8413607364014
 30
0.0
 11
-621.341563675242
 21
-946.9413618997992
 31
0.0
  0
LINE
  5
1EF5
330
18
100
AcDbEntity
  8
01
100
AcDbLine
 10
-1040.841470603446
 20
-1009.313047793657
 30
0.0
 11
-1040.841470603446
 21
-1026.213012891781
 31
0.0
  0
LINE
  5
1EF6
330
18
100
AcDbEntity
  8
01
100
AcDbLine
 10
-1040.841470603446
 20
-1026.213012891781
 30
0.0
 11
-1043.341517139344
 21
-1028.713041976453
 31
0.0
  0
LINE
  5
1EF7
330
18
100
AcDbEntity
  8
01
100
AcDbLine
 10
-1043.341517139344
 20
-1028.713041976453
 30
0.0
 11
-1043.341517139344
 21
-1029.013041976454
 31
0.0
  0
LINE
  5
1EF8
330
18
100
AcDbEntity
  8
01
100
AcDbLine
 10
-1043.341517139344
 20
-1029.013041976454
 30
0.0
 11
-1035.341517139344
 21
-1029.013060590814
 31
0.0
  0
LINE
  5
1EF9
330
18
100
AcDbEntity
  8
01
100
AcDbLine
 10
-1035.341517139344
 20
-1029.013060590814
 30
0.0
 11
-1035.341517139344
 21
-1028.713060590813
 31
0.0
  0
LINE
  5
1EFA
330
18
100
AcDbEntity
  8
01
100
AcDbLine
 10
-1035.341517139344
 20
-1028.713060590813
 30
0.0
 11
-1037.841470603446
 21
-1026.213078042147
 31
0.0
  0
LINE
  5
1EFB
330
18
100
AcDbEntity
  8
01
100
AcDbLine
 10
-1037.841470603446
 20
-1026.213078042147
 30
0.0
 11
-1037.841470603446
 21
-1009.313054774042
 31
0.0
  0
LINE
  5
1EFC
330
18
100
AcDbEntity
  8
01
100
AcDbLine
 10
-1037.841470603446
 20
-1009.313054774042
 30
0.0
 11
-1039.341470603446
 21
-1004.013051283796
 31
0.0
  0
LINE
  5
1EFD
330
18
100
AcDbEntity
  8
01
100
AcDbLine
 10
-1039.341470603446
 20
-1004.013051283796
 30
0.0
 11
-1040.841470603446
 21
-1009.313047793657
 31
0.0
  0
LINE
  5
1EFE
330
18
100
AcDbEntity
  8
01
100
AcDbLine
 10
-985.8414706034462
 20
-1009.313047793657
 30
0.0
 11
-985.8414706034462
 21
-1026.213012891781
 31
0.0
  0
LINE
  5
1EFF
330
18
100
AcDbEntity
  8
01
100
AcDbLine
 10
-985.8414706034462
 20
-1026.213012891781
 30
0.0
 11
-988.3415171393441
 21
-1028.713041976453
 31
0.0
  0
LINE
  5
1F00
330
18
100
AcDbEntity
  8
01
100
AcDbLine
 10
-988.3415171393441
 20
-1028.713041976453
 30
0.0
 11
-988.3415171393441
 21
-1029.013041976454
 31
0.0
  0
LINE
  5
1F01
330
18
100
AcDbEntity
  8
01
100
AcDbLine
 10
-988.3415171393441
 20
-1029.013041976454
 30
0.0
 11
-980.3415171393441
 21
-1029.013060590814
 31
0.0
  0
LINE
  5
1F02
330
18
100
AcDbEntity
  8
01
100
AcDbLine
 10
-980.3415171393441
 20
-1029.013060590814
 30
0.0
 11
-980.3415171393441
 21
-1028.713060590813
 31
0.0
  0
LINE
  5
1F03
330
18
100
AcDbEntity
  8
01
100
AcDbLine
 10
-980.3415171393441
 20
-1028.713060590813
 30
0.0
 11
-982.8414706034462
 21
-1026.213078042147
 31
0.0
  0
LINE
  5
1F04
330
18
100
AcDbEntity
  8
01
100
AcDbLine
 10
-982.8414706034462
 20
-1026.213078042147
 30
0.0
 11
-982.8414706034462
 21
-1009.313054774042
 31
0.0
  0
LINE
  5
1F05
330
18
100
AcDbEntity
  8
01
100
AcDbLine
 10
-982.8414706034462
 20
-1009.313054774042
 30
0.0
 11
-984.3414706034462
 21
-1004.013051283796
 31
0.0
  0
LINE
  5
1F06
330
18
100
AcDbEntity
  8
01
100
AcDbLine
 10
-984.3414706034462
 20
-1004.013051283796
 30
0.0
 11
-985.8414706034462
 21
-1009.313047793657
 31
0.0
  0
LINE
  5
1F07
330
18
100
AcDbEntity
  8
01
100
AcDbLine
 10
-630.341563675242
 20
-962.9413607364058
 30
0.0
 11
-630.341563675242
 21
-946.0413956382819
 31
0.0
  0
LINE
  5
1F08
330
18
100
AcDbEntity
  8
01
100
AcDbLine
 10
-630.341563675242
 20
-946.0413956382819
 30
0.0
 11
-627.8415171393441
 21
-943.5413665536098
 31
0.0
  0
LINE
  5
1F09
330
18
100
AcDbEntity
  8
01
100
AcDbLine
 10
-627.8415171393441
 20
-943.5413665536098
 30
0.0
 11
-627.8415171393441
 21
-943.2413665536087
 31
0.0
  0
LINE
  5
1F0A
330
18
100
AcDbEntity
  8
01
100
AcDbLine
 10
-627.8415171393441
 20
-943.2413665536087
 30
0.0
 11
-635.8415171393441
 21
-943.2413479392496
 31
0.0
  0
LINE
  5
1F0B
330
18
100
AcDbEntity
  8
01
100
AcDbLine
 10
-635.8415171393441
 20
-943.2413479392496
 30
0.0
 11
-635.8415171393441
 21
-943.5413479392507
 31
0.0
  0
LINE
  5
1F0C
330
18
100
AcDbEntity
  8
01
100
AcDbLine
 10
-635.8415171393441
 20
-943.5413479392507
 30
0.0
 11
-633.341563675242
 21
-946.0413304879166
 31
0.0
  0
LINE
  5
1F0D
330
18
100
AcDbEntity
  8
01
100
AcDbLine
 10
-633.341563675242
 20
-946.0413304879166
 30
0.0
 11
-633.341563675242
 21
-962.9413537560213
 31
0.0
  0
LINE
  5
1F0E
330
18
100
AcDbEntity
  8
01
100
AcDbLine
 10
-633.341563675242
 20
-962.9413537560213
 30
0.0
 11
-631.841563675242
 21
-968.2413572462667
 31
0.0
  0
LINE
  5
1F0F
330
18
100
AcDbEntity
  8
01
100
AcDbLine
 10
-631.841563675242
 20
-968.2413572462667
 30
0.0
 11
-630.341563675242
 21
-962.9413607364058
 31
0.0
  0
LINE
  5
1F10
330
18
100
AcDbEntity
  8
01
100
AcDbLine
 10
-621.841563675242
 20
-962.9413607364061
 30
0.0
 11
-621.841563675242
 21
-946.041395638282
 31
0.0
  0
LINE
  5
1F11
330
18
100
AcDbEntity
  8
01
100
AcDbLine
 10
-621.841563675242
 20
-946.041395638282
 30
0.0
 11
-619.3415171393441
 21
-943.5413665536098
 31
0.0
  0
LINE
  5
1F12
330
18
100
AcDbEntity
  8
01
100
AcDbLine
 10
-619.3415171393441
 20
-943.5413665536098
 30
0.0
 11
-619.3415171393441
 21
-943.2413665536089
 31
0.0
  0
LINE
  5
1F13
330
18
100
AcDbEntity
  8
01
100
AcDbLine
 10
-619.3415171393441
 20
-943.2413665536089
 30
0.0
 11
-627.3415171393441
 21
-943.2413479392496
 31
0.0
  0
LINE
  5
1F14
330
18
100
AcDbEntity
  8
01
100
AcDbLine
 10
-627.3415171393441
 20
-943.2413479392496
 30
0.0
 11
-627.3415171393441
 21
-943.5413479392507
 31
0.0
  0
LINE
  5
1F15
330
18
100
AcDbEntity
  8
01
100
AcDbLine
 10
-627.3415171393441
 20
-943.5413479392507
 30
0.0
 11
-624.841563675242
 21
-946.0413304879168
 31
0.0
  0
LINE
  5
1F16
330
18
100
AcDbEntity
  8
01
100
AcDbLine
 10
-624.841563675242
 20
-946.0413304879168
 30
0.0
 11
-624.841563675242
 21
-962.9413537560213
 31
0.0
  0
LINE
  5
1F17
330
18
100
AcDbEntity
  8
01
100
AcDbLine
 10
-624.841563675242
 20
-962.9413537560213
 30
0.0
 11
-623.341563675242
 21
-968.241357246267
 31
0.0
  0
LINE
  5
1F18
330
18
100
AcDbEntity
  8
01
100
AcDbLine
 10
-623.341563675242
 20
-968.241357246267
 30
0.0
 11
-621.841563675242
 21
-962.9413607364061
 31
0.0
  0
LINE
  5
1F19
330
18
100
AcDbEntity
  8
1DIM
100
AcDbLine
 10
-617.8415171393441
 20
-825.0579208876638
 30
0.0
 11
-551.4857700434895
 21
-825.0579208876638
 31
0.0
1001
ACAD
1000
DSTYLE
1002
{
1070
    40
1040
2.0
1002
}
  0
LINE
  5
1F1A
330
18
100
AcDbEntity
  8
1DIM
100
AcDbLine
 10
-617.8415171393441
 20
-847.0579208876638
 30
0.0
 11
-551.4857700434895
 21
-847.0579208876638
 31
0.0
1001
ACAD
1000
DSTYLE
1002
{
1070
    40
1040
2.0
1002
}
  0
LINE
  5
1F1B
330
18
100
AcDbEntity
  8
1DIM
100
AcDbLine
 10
-553.4857700434895
 20
-829.0579208876638
 30
0.0
 11
-553.4857700434895
 21
-843.0579208876638
 31
0.0
1001
ACAD
1000
DSTYLE
1002
{
1070
    40
1040
2.0
1002
}
  0
LINE
  5
1F1F
330
18
100
AcDbEntity
  8
1DIM
100
AcDbLine
 10
-616.9952125160587
 20
-830.5579208876638
 30
0.0
 11
-569.6863723469814
 21
-830.5579208876638
 31
0.0
1001
ACAD
1000
DSTYLE
1002
{
1070
    40
1040
2.0
1002
}
  0
LINE
  5
1F20
330
18
100
AcDbEntity
  8
1DIM
100
AcDbLine
 10
-617.8415171393441
 20
-825.0579208876638
 30
0.0
 11
-569.6863723469814
 21
-825.0579208876638
 31
0.0
1001
ACAD
1000
DSTYLE
1002
{
1070
    40
1040
2.0
1002
}
  0
LINE
  5
1F21
330
18
100
AcDbEntity
  8
1DIM
100
AcDbLine
 10
-571.6863723469814
 20
-834.5579208876638
 30
0.0
 11
-571.6863723469814
 21
-838.5579208876638
 31
0.0
1001
ACAD
1000
DSTYLE
1002
{
1070
    40
1040
2.0
1002
}
  0
LINE
  5
1F22
330
18
100
AcDbEntity
  8
1DIM
100
AcDbLine
 10
-571.6863723469814
 20
-821.0579208876638
 30
0.0
 11
-571.6863723469814
 21
-797.8320443095574
 31
0.0
1001
ACAD
1000
DSTYLE
1002
{
1070
    40
1040
2.0
1002
}
  0
LINE
  5
1F23
330
18
100
AcDbEntity
  8
1DIM
100
AcDbLine
 10
-571.6863723469814
 20
-830.5579208876638
 30
0.0
 11
-571.6863723469814
 21
-825.0579208876638
 31
0.0
1001
ACAD
1000
DSTYLE
1002
{
1070
    40
1040
2.0
1002
}
  0
LINE
  5
1F27
330
18
100
AcDbEntity
  8
1DIM
100
AcDbLine
 10
-625.8041863005542
 20
-841.5579208876638
 30
0.0
 11
-569.6863723469814
 21
-841.5579208876638
 31
0.0
1001
ACAD
1000
DSTYLE
1002
{
1070
    40
1040
2.0
1002
}
  0
LINE
  5
1F28
330
18
100
AcDbEntity
  8
1DIM
100
AcDbLine
 10
-617.8415171393441
 20
-847.0579208876638
 30
0.0
 11
-569.6863723469814
 21
-847.0579208876638
 31
0.0
1001
ACAD
1000
DSTYLE
1002
{
1070
    40
1040
2.0
1002
}
  0
LINE
  5
1F29
330
18
100
AcDbEntity
  8
1DIM
100
AcDbLine
 10
-571.6863723469814
 20
-837.5579208876638
 30
0.0
 11
-571.6863723469814
 21
-833.5579208876638
 31
0.0
1001
ACAD
1000
DSTYLE
1002
{
1070
    40
1040
2.0
1002
}
  0
LINE
  5
1F2A
330
18
100
AcDbEntity
  8
1DIM
100
AcDbLine
 10
-571.6863723469814
 20
-851.0579208876638
 30
0.0
 11
-571.6863723469814
 21
-872.5245875543305
 31
0.0
1001
ACAD
1000
DSTYLE
1002
{
1070
    40
1040
2.0
1002
}
  0
LINE
  5
1F2B
330
18
100
AcDbEntity
  8
1DIM
100
AcDbLine
 10
-571.6863723469814
 20
-841.5579208876638
 30
0.0
 11
-571.6863723469814
 21
-847.0579208876638
 31
0.0
1001
ACAD
1000
DSTYLE
1002
{
1070
    40
1040
2.0
1002
}
  0
LINE
  5
1F2F
330
18
100
AcDbEntity
  8
1DIM
100
AcDbLine
 10
-1011.841517139344
 20
-865.8202672999435
 30
0.0
 11
-1011.841517139344
 21
-887.5901284102101
 31
0.0
1001
ACAD
1000
DSTYLE
1002
{
1070
    40
1040
2.0
1002
}
  0
LINE
  5
1F30
330
18
100
AcDbEntity
  8
1DIM
100
AcDbLine
 10
-655.8415171393441
 20
-870.9065675785517
 30
0.0
 11
-655.8415171393441
 21
-887.5901284102101
 31
0.0
1001
ACAD
1000
DSTYLE
1002
{
1070
    40
1040
2.0
1002
}
  0
LINE
  5
1F31
330
18
100
AcDbEntity
  8
1DIM
100
AcDbLine
 10
-1007.841517139344
 20
-885.5901284102101
 30
0.0
 11
-659.8415171393441
 21
-885.5901284102101
 31
0.0
1001
ACAD
1000
DSTYLE
1002
{
1070
    40
1040
2.0
1002
}
  0
LINE
  5
1F35
330
18
100
AcDbEntity
  8
1DIM
100
AcDbLine
 10
-1044.841517139344
 20
-976.5579208876638
 30
0.0
 11
-1058.712317622374
 21
-976.5579208876638
 31
0.0
1001
ACAD
1000
DSTYLE
1002
{
1070
    40
1040
2.0
1002
}
  0
LINE
  5
1F36
330
18
100
AcDbEntity
  8
1DIM
100
AcDbLine
 10
-1044.841517139344
 20
-978.5579208876638
 30
0.0
 11
-1058.712317622374
 21
-978.5579208876638
 31
0.0
1001
ACAD
1000
DSTYLE
1002
{
1070
    40
1040
2.0
1002
}
  0
LINE
  5
1F37
330
18
100
AcDbEntity
  8
1DIM
100
AcDbLine
 10
-1056.712317622374
 20
-972.5579208876638
 30
0.0
 11
-1056.712317622374
 21
-968.5579208876638
 31
0.0
1001
ACAD
1000
DSTYLE
1002
{
1070
    40
1040
2.0
1002
}
  0
LINE
  5
1F38
330
18
100
AcDbEntity
  8
1DIM
100
AcDbLine
 10
-1056.712317622374
 20
-982.5579208876638
 30
0.0
 11
-1056.712317622374
 21
-994.0245875543305
 31
0.0
1001
ACAD
1000
DSTYLE
1002
{
1070
    40
1040
2.0
1002
}
  0
LINE
  5
1F39
330
18
100
AcDbEntity
  8
1DIM
100
AcDbLine
 10
-1056.712317622374
 20
-976.5579208876638
 30
0.0
 11
-1056.712317622374
 21
-978.5579208876638
 31
0.0
1001
ACAD
1000
DSTYLE
1002
{
1070
    40
1040
2.0
1002
}
  0
LINE
  5
1F3D
330
18
100
AcDbEntity
  8
1DIM
100
AcDbLine
 10
-1016.841517139344
 20
-823.5579208876638
 30
0.0
 11
-1092.761856656725
 21
-823.5579208876638
 31
0.0
1001
ACAD
1000
DSTYLE
1002
{
1070
    40
1040
2.0
1002
}
  0
LINE
  5
1F3E
330
18
100
AcDbEntity
  8
1DIM
100
AcDbLine
 10
-1016.841517139344
 20
-848.5579208876638
 30
0.0
 11
-1092.761856656725
 21
-848.5579208876638
 31
0.0
1001
ACAD
1000
DSTYLE
1002
{
1070
    40
1040
2.0
1002
}
  0
LINE
  5
1F3F
330
18
100
AcDbEntity
  8
1DIM
100
AcDbLine
 10
-1090.761856656725
 20
-827.5579208876638
 30
0.0
 11
-1090.761856656725
 21
-844.5579208876638
 31
0.0
1001
ACAD
1000
DSTYLE
1002
{
1070
    40
1040
2.0
1002
}
  0
LINE
  5
1F43
330
18
100
AcDbEntity
  8
1DIM
100
AcDbLine
 10
-1042.841517139344
 20
-827.0579208876638
 30
0.0
 11
-1077.290333403993
 21
-827.0579208876638
 31
0.0
1001
ACAD
1000
DSTYLE
1002
{
1070
    40
1040
2.0
1002
}
  0
LINE
  5
1F44
330
18
100
AcDbEntity
  8
1DIM
100
AcDbLine
 10
-1042.841517139344
 20
-845.0579208876638
 30
0.0
 11
-1077.290333403993
 21
-845.0579208876638
 31
0.0
1001
ACAD
1000
DSTYLE
1002
{
1070
    40
1040
2.0
1002
}
  0
LINE
  5
1F45
330
18
100
AcDbEntity
  8
1DIM
100
AcDbLine
 10
-1075.290333403993
 20
-831.0579208876638
 30
0.0
 11
-1075.290333403993
 21
-841.0579208876638
 31
0.0
1001
ACAD
1000
DSTYLE
1002
{
1070
    40
1040
2.0
1002
}
  0
LINE
  5
1F49
330
18
100
AcDbEntity
  8
1DIM
100
AcDbLine
 10
-640.3415171393441
 20
-977.1579208876639
 30
0.0
 11
-590.9169540950152
 21
-977.1579208876639
 31
0.0
1001
ACAD
1000
DSTYLE
1002
{
1070
    40
1040
2.0
1002
}
  0
LINE
  5
1F4A
330
18
100
AcDbEntity
  8
1DIM
100
AcDbLine
 10
-617.8415171393441
 20
-986.0579208876638
 30
0.0
 11
-590.9169540950152
 21
-986.0579208876638
 31
0.0
1001
ACAD
1000
DSTYLE
1002
{
1070
    40
1040
2.0
1002
}
  0
LINE
  5
1F4B
330
18
100
AcDbEntity
  8
1DIM
100
AcDbLine
 10
-592.9169540950152
 20
-973.1579208876639
 30
0.0
 11
-592.9169540950152
 21
-969.1579208876639
 31
0.0
1001
ACAD
1000
DSTYLE
1002
{
1070
    40
1040
2.0
1002
}
  0
LINE
  5
1F4C
330
18
100
AcDbEntity
  8
1DIM
100
AcDbLine
 10
-592.9169540950152
 20
-990.0579208876638
 30
0.0
 11
-592.9169540950152
 21
-1011.191254220997
 31
0.0
1001
ACAD
1000
DSTYLE
1002
{
1070
    40
1040
2.0
1002
}
  0
LINE
  5
1F4D
330
18
100
AcDbEntity
  8
1DIM
100
AcDbLine
 10
-592.9169540950152
 20
-977.1579208876639
 30
0.0
 11
-592.9169540950152
 21
-986.0579208876638
 31
0.0
1001
ACAD
1000
DSTYLE
1002
{
1070
    40
1040
2.0
1002
}
  0
LINE
  5
1F51
330
18
100
AcDbEntity
  8
1DIM
100
AcDbLine
 10
-655.8415171393441
 20
-870.9065675785517
 30
0.0
 11
-655.8415171393441
 21
-887.5901284102101
 31
0.0
1001
ACAD
1000
DSTYLE
1002
{
1070
    40
1040
2.0
1002
}
  0
LINE
  5
1F52
330
18
100
AcDbEntity
  8
1DIM
100
AcDbLine
 10
-617.8415171393441
 20
-847.0579208876638
 30
0.0
 11
-617.8415171393441
 21
-887.5901284102101
 31
0.0
1001
ACAD
1000
DSTYLE
1002
{
1070
    40
1040
2.0
1002
}
  0
LINE
  5
1F53
330
18
100
AcDbEntity
  8
1DIM
100
AcDbLine
 10
-651.8415171393441
 20
-885.5901284102101
 30
0.0
 11
-621.8415171393441
 21
-885.5901284102101
 31
0.0
1001
ACAD
1000
DSTYLE
1002
{
1070
    40
1040
2.0
1002
}
  0
LINE
  5
1F57
330
18
100
AcDbEntity
  8
1DIM
100
AcDbLine
 10
-623.3415171393441
 20
-824.2116162643783
 30
0.0
 11
-623.3415171393441
 21
-787.7616914007704
 31
0.0
1001
ACAD
1000
DSTYLE
1002
{
1070
    40
1040
2.0
1002
}
  0
LINE
  5
1F58
330
18
100
AcDbEntity
  8
1DIM
100
AcDbLine
 10
-617.8415171393441
 20
-825.0579208876638
 30
0.0
 11
-617.8415171393441
 21
-787.7616914007704
 31
0.0
1001
ACAD
1000
DSTYLE
1002
{
1070
    40
1040
2.0
1002
}
  0
LINE
  5
1F59
330
18
100
AcDbEntity
  8
1DIM
100
AcDbLine
 10
-627.3415171393441
 20
-789.7616914007704
 30
0.0
 11
-631.3415171393441
 21
-789.7616914007704
 31
0.0
1001
ACAD
1000
DSTYLE
1002
{
1070
    40
1040
2.0
1002
}
  0
LINE
  5
1F5A
330
18
100
AcDbEntity
  8
1DIM
100
AcDbLine
 10
-613.8415171393441
 20
-789.7616914007704
 30
0.0
 11
-592.3748504726774
 21
-789.7616914007704
 31
0.0
1001
ACAD
1000
DSTYLE
1002
{
1070
    40
1040
2.0
1002
}
  0
LINE
  5
1F5B
330
18
100
AcDbEntity
  8
1DIM
100
AcDbLine
 10
-623.3415171393441
 20
-789.7616914007704
 30
0.0
 11
-617.8415171393441
 21
-789.7616914007704
 31
0.0
1001
ACAD
1000
DSTYLE
1002
{
1070
    40
1040
2.0
1002
}
  0
LINE
  5
1F5F
330
18
100
AcDbEntity
  8
1DIM
100
AcDbLine
 10
-623.3415171393441
 20
-824.2116162643783
 30
0.0
 11
-623.3415171393441
 21
-787.7616914007704
 31
0.0
1001
ACAD
1000
DSTYLE
1002
{
1070
    40
1040
2.0
1002
}
  0
LINE
  5
1F60
330
18
100
AcDbEntity
  8
1DIM
100
AcDbLine
 10
-631.8415171393441
 20
-836.0579208876638
 30
0.0
 11
-631.8415171393441
 21
-787.7616914007704
 31
0.0
1001
ACAD
1000
DSTYLE
1002
{
1070
    40
1040
2.0
1002
}
  0
LINE
  5
1F61
330
18
100
AcDbEntity
  8
1DIM
100
AcDbLine
 10
-619.3415171393441
 20
-789.7616914007704
 30
0.0
 11
-615.3415171393441
 21
-789.7616914007704
 31
0.0
1001
ACAD
1000
DSTYLE
1002
{
1070
    40
1040
2.0
1002
}
  0
LINE
  5
1F62
330
18
100
AcDbEntity
  8
1DIM
100
AcDbLine
 10
-635.8415171393441
 20
-789.7616914007704
 30
0.0
 11
-657.3081838060108
 21
-789.7616914007704
 31
0.0
1001
ACAD
1000
DSTYLE
1002
{
1070
    40
1040
2.0
1002
}
  0
LINE
  5
1F63
330
18
100
AcDbEntity
  8
1DIM
100
AcDbLine
 10
-623.3415171393441
 20
-789.7616914007704
 30
0.0
 11
-631.8415171393441
 21
-789.7616914007704
 31
0.0
1001
ACAD
1000
DSTYLE
1002
{
1070
    40
1040
2.0
1002
}
  0
LINE
  5
1F68
330
18
100
AcDbEntity
  8
1DIM
100
AcDbLine
 10
-616.2640532859738
 20
-945.7087572132799
 30
0.0
 11
-593.1464184990358
 21
-925.3841547278629
 31
0.0
1001
ACAD
1000
DSTYLE
1002
{
1070
    40
1040
2.0
1002
}
  0
LINE
  5
1F69
330
18
100
AcDbEntity
  8
1DIM
100
AcDbLine
 10
-593.1464184990358
 20
-925.3841547278629
 30
0.0
 11
-520.5797518323691
 21
-925.3841547278629
 31
0.0
1001
ACAD
1000
DSTYLE
1002
{
1070
    40
1040
2.0
1002
}
  0
TEXT
  5
1F6A
330
18
100
AcDbEntity
  8
1TEXT
  6
CONTINUOUS
100
AcDbText
 10
-589.6130851657025
 20
-923.9841547278628
 30
0.0
 40
7.0
  1
φ4-25タッピン
100
AcDbText
  0
LINE
  5
1F6B
330
18
100
AcDbEntity
  8
1DIM
100
AcDbLine
 10
-636.341517139344
 20
-986.0579208876638
 30
0.0
 11
-798.4179560759221
 21
-986.0579208876638
 31
0.0
1001
ACAD
1000
DSTYLE
1002
{
1070
    40
1040
2.0
1002
}
  0
LINE
  5
1F6C
330
18
100
AcDbEntity
  8
1DIM
100
AcDbLine
 10
-978.8415171393441
 20
-976.5579208876638
 30
0.0
 11
-794.4179560759221
 21
-976.557920887664
 31
0.0
1001
ACAD
1000
DSTYLE
1002
{
1070
    40
1040
2.0
1002
}
  0
LINE
  5
1F6D
330
18
100
AcDbEntity
  8
1DIM
100
AcDbLine
 10
-796.4179560759221
 20
-990.0579208876638
 30
0.0
 11
-796.4179560759221
 21
-994.0579208876638
 31
0.0
1001
ACAD
1000
DSTYLE
1002
{
1070
    40
1040
2.0
1002
}
  0
LINE
  5
1F6E
330
18
100
AcDbEntity
  8
1DIM
100
AcDbLine
 10
-796.4179560759221
 20
-972.557920887664
 30
0.0
 11
-796.4179560759221
 21
-942.7245875543306
 31
0.0
1001
ACAD
1000
DSTYLE
1002
{
1070
    40
1040
2.0
1002
}
  0
LINE
  5
1F6F
330
18
100
AcDbEntity
  8
1DIM
100
AcDbLine
 10
-796.4179560759221
 20
-986.0579208876638
 30
0.0
 11
-796.4179560759221
 21
-976.557920887664
 31
0.0
1001
ACAD
1000
DSTYLE
1002
{
1070
    40
1040
2.0
1002
}
  0
LINE
  5
1F73
330
18
100
AcDbEntity
  8
1DIM
100
AcDbLine
 10
-1044.841517139344
 20
-829.0579208876638
 30
0.0
 11
-1044.841517139344
 21
-796.7649739142271
 31
0.0
1001
ACAD
1000
DSTYLE
1002
{
1070
    40
1040
2.0
1002
}
  0
LINE
  5
1F74
330
18
100
AcDbEntity
  8
1DIM
100
AcDbLine
 10
-978.8415171393441
 20
-829.0579208876638
 30
0.0
 11
-978.8415171393441
 21
-796.7649739142271
 31
0.0
1001
ACAD
1000
DSTYLE
1002
{
1070
    40
1040
2.0
1002
}
  0
LINE
  5
1F75
330
18
100
AcDbEntity
  8
1DIM
100
AcDbLine
 10
-1040.841517139344
 20
-798.7649739142271
 30
0.0
 11
-982.8415171393441
 21
-798.7649739142271
 31
0.0
1001
ACAD
1000
DSTYLE
1002
{
1070
    40
1040
2.0
1002
}
  0
LINE
  5
1F79
330
18
100
AcDbEntity
  8
1DIM
100
AcDbLine
 10
-1039.341517139344
 20
-970.7073184474875
 30
0.0
 11
-1039.341517139344
 21
-952.7505765656724
 31
0.0
1001
ACAD
1000
DSTYLE
1002
{
1070
    40
1040
2.0
1002
}
  0
LINE
  5
1F7A
330
18
100
AcDbEntity
  8
1DIM
100
AcDbLine
 10
-984.3415171393441
 20
-970.9992840686291
 30
0.0
 11
-984.3415171393441
 21
-952.7505765656724
 31
0.0
1001
ACAD
1000
DSTYLE
1002
{
1070
    40
1040
2.0
1002
}
  0
LINE
  5
1F7B
330
18
100
AcDbEntity
  8
1DIM
100
AcDbLine
 10
-1035.341517139344
 20
-954.7505765656724
 30
0.0
 11
-988.3415171393441
 21
-954.7505765656724
 31
0.0
1001
ACAD
1000
DSTYLE
1002
{
1070
    40
1040
2.0
1002
}
  0
LINE
  5
1F7F
330
18
100
AcDbEntity
  8
0
  6
BYBLOCK
100
AcDbLine
 10
-554.5575668034895
 20
-829.0579208876638
 30
0.0
 11
-553.4857700434895
 21
-825.0579208876638
 31
0.0
  0
LINE
  5
1F80
330
18
100
AcDbEntity
  8
0
  6
BYBLOCK
100
AcDbLine
 10
-553.4857700434895
 20
-825.0579208876638
 30
0.0
 11
-552.4139732834896
 21
-829.0579208876638
 31
0.0
  0
LINE
  5
1F81
330
18
100
AcDbEntity
  8
0
  6
BYBLOCK
100
AcDbLine
 10
-553.4857700434895
 20
-825.0579208876638
 30
0.0
 11
-553.4857700434895
 21
-829.0579208876638
 31
0.0
  0
LINE
  5
1F82
330
18
100
AcDbEntity
  8
0
  6
BYBLOCK
100
AcDbLine
 10
-552.4139732834896
 20
-843.0579208876638
 30
0.0
 11
-553.4857700434895
 21
-847.0579208876638
 31
0.0
  0
LINE
  5
1F83
330
18
100
AcDbEntity
  8
0
  6
BYBLOCK
100
AcDbLine
 10
-553.4857700434895
 20
-847.0579208876638
 30
0.0
 11
-554.5575668034895
 21
-843.0579208876638
 31
0.0
  0
LINE
  5
1F84
330
18
100
AcDbEntity
  8
0
  6
BYBLOCK
100
AcDbLine
 10
-553.4857700434895
 20
-847.0579208876638
 30
0.0
 11
-553.4857700434895
 21
-843.0579208876638
 31
0.0
  0
TEXT
  5
1F85
330
18
100
AcDbEntity
  8
1DIM
  6
CONTINUOUS
100
AcDbText
 10
-554.8857700434896
 20
-841.5647351505635
 30
0.0
 40
7.0
  1
22
 50
90.0
100
AcDbText
1001
ACAD
1000
DSTYLE
1002
{
1070
    40
1040
2.0
1002
}
  0
LINE
  5
1F86
330
18
100
AcDbEntity
  8
0
  6
BYBLOCK
100
AcDbLine
 10
-572.7581691069814
 20
-834.5579208876638
 30
0.0
 11
-571.6863723469814
 21
-830.5579208876638
 31
0.0
  0
LINE
  5
1F87
330
18
100
AcDbEntity
  8
0
  6
BYBLOCK
100
AcDbLine
 10
-571.6863723469814
 20
-830.5579208876638
 30
0.0
 11
-570.6145755869815
 21
-834.5579208876638
 31
0.0
  0
LINE
  5
1F88
330
18
100
AcDbEntity
  8
0
  6
BYBLOCK
100
AcDbLine
 10
-571.6863723469814
 20
-830.5579208876638
 30
0.0
 11
-571.6863723469814
 21
-834.5579208876638
 31
0.0
  0
LINE
  5
1F89
330
18
100
AcDbEntity
  8
0
  6
BYBLOCK
100
AcDbLine
 10
-570.6145755869815
 20
-821.0579208876638
 30
0.0
 11
-571.6863723469814
 21
-825.0579208876638
 31
0.0
  0
LINE
  5
1F8A
330
18
100
AcDbEntity
  8
0
  6
BYBLOCK
100
AcDbLine
 10
-571.6863723469814
 20
-825.0579208876638
 30
0.0
 11
-572.7581691069814
 21
-821.0579208876638
 31
0.0
  0
LINE
  5
1F8B
330
18
100
AcDbEntity
  8
0
  6
BYBLOCK
100
AcDbLine
 10
-571.6863723469814
 20
-825.0579208876638
 30
0.0
 11
-571.6863723469814
 21
-821.0579208876638
 31
0.0
  0
TEXT
  5
1F8C
330
18
100
AcDbEntity
  8
1DIM
  6
CONTINUOUS
100
AcDbText
 10
-573.0863723469815
 20
-813.5896831984463
 30
0.0
 40
7.0
  1
5.5
 50
90.0
100
AcDbText
1001
ACAD
1000
DSTYLE
1002
{
1070
    40
1040
2.0
1002
}
  0
LINE
  5
1F8D
330
18
100
AcDbEntity
  8
0
  6
BYBLOCK
100
AcDbLine
 10
-570.6145755869815
 20
-837.5579208876638
 30
0.0
 11
-571.6863723469814
 21
-841.5579208876638
 31
0.0
  0
LINE
  5
1F8E
330
18
100
AcDbEntity
  8
0
  6
BYBLOCK
100
AcDbLine
 10
-571.6863723469814
 20
-841.5579208876638
 30
0.0
 11
-572.7581691069814
 21
-837.5579208876638
 31
0.0
  0
LINE
  5
1F8F
330
18
100
AcDbEntity
  8
0
  6
BYBLOCK
100
AcDbLine
 10
-571.6863723469814
 20
-841.5579208876638
 30
0.0
 11
-571.6863723469814
 21
-837.5579208876638
 31
0.0
  0
LINE
  5
1F90
330
18
100
AcDbEntity
  8
0
  6
BYBLOCK
100
AcDbLine
 10
-572.7581691069814
 20
-851.0579208876638
 30
0.0
 11
-571.6863723469814
 21
-847.0579208876638
 31
0.0
  0
LINE
  5
1F91
330
18
100
AcDbEntity
  8
0
  6
BYBLOCK
100
AcDbLine
 10
-571.6863723469814
 20
-847.0579208876638
 30
0.0
 11
-570.6145755869815
 21
-851.0579208876638
 31
0.0
  0
LINE
  5
1F92
330
18
100
AcDbEntity
  8
0
  6
BYBLOCK
100
AcDbLine
 10
-571.6863723469814
 20
-847.0579208876638
 30
0.0
 11
-571.6863723469814
 21
-851.0579208876638
 31
0.0
  0
TEXT
  5
1F93
330
18
100
AcDbEntity
  8
1DIM
  6
CONTINUOUS
100
AcDbText
 10
-573.0863723469813
 20
-870.8155597765527
 30
0.0
 40
7.0
  1
5.5
 50
90.0
100
AcDbText
1001
ACAD
1000
DSTYLE
1002
{
1070
    40
1040
2.0
1002
}
  0
LINE
  5
1F94
330
18
100
AcDbEntity
  8
0
  6
BYBLOCK
100
AcDbLine
 10
-1007.841517139344
 20
-886.6619251702101
 30
0.0
 11
-1011.841517139344
 21
-885.5901284102101
 31
0.0
  0
LINE
  5
1F95
330
18
100
AcDbEntity
  8
0
  6
BYBLOCK
100
AcDbLine
 10
-1011.841517139344
 20
-885.5901284102101
 30
0.0
 11
-1007.841517139344
 21
-884.5183316502101
 31
0.0
  0
LINE
  5
1F96
330
18
100
AcDbEntity
  8
0
  6
BYBLOCK
100
AcDbLine
 10
-1011.841517139344
 20
-885.5901284102101
 30
0.0
 11
-1007.841517139344
 21
-885.5901284102101
 31
0.0
  0
LINE
  5
1F97
330
18
100
AcDbEntity
  8
0
  6
BYBLOCK
100
AcDbLine
 10
-659.8415171393441
 20
-884.5183316502101
 30
0.0
 11
-655.8415171393441
 21
-885.5901284102101
 31
0.0
  0
LINE
  5
1F98
330
18
100
AcDbEntity
  8
0
  6
BYBLOCK
100
AcDbLine
 10
-655.8415171393441
 20
-885.5901284102101
 30
0.0
 11
-659.8415171393441
 21
-886.6619251702101
 31
0.0
  0
LINE
  5
1F99
330
18
100
AcDbEntity
  8
0
  6
BYBLOCK
100
AcDbLine
 10
-655.8415171393441
 20
-885.5901284102101
 30
0.0
 11
-659.8415171393441
 21
-885.5901284102101
 31
0.0
  0
TEXT
  5
1F9A
330
18
100
AcDbEntity
  8
1DIM
  6
CONTINUOUS
100
AcDbText
 10
-879.8811004726774
 20
-884.19012841021
 30
0.0
 40
7.0
  1
MIN356   MAX588
100
AcDbText
1001
ACAD
1000
DSTYLE
1002
{
1070
    40
1040
2.0
1002
}
  0
LINE
  5
1F9B
330
18
100
AcDbEntity
  8
0
  6
BYBLOCK
100
AcDbLine
 10
-1055.640520862374
 20
-972.5579208876638
 30
0.0
 11
-1056.712317622374
 21
-976.5579208876638
 31
0.0
  0
LINE
  5
1F9C
330
18
100
AcDbEntity
  8
0
  6
BYBLOCK
100
AcDbLine
 10
-1056.712317622374
 20
-976.5579208876638
 30
0.0
 11
-1057.784114382374
 21
-972.5579208876638
 31
0.0
  0
LINE
  5
1F9D
330
18
100
AcDbEntity
  8
0
  6
BYBLOCK
100
AcDbLine
 10
-1056.712317622374
 20
-976.5579208876638
 30
0.0
 11
-1056.712317622374
 21
-972.5579208876638
 31
0.0
  0
LINE
  5
1F9E
330
18
100
AcDbEntity
  8
0
  6
BYBLOCK
100
AcDbLine
 10
-1057.784114382374
 20
-982.5579208876638
 30
0.0
 11
-1056.712317622374
 21
-978.5579208876638
 31
0.0
  0
LINE
  5
1F9F
330
18
100
AcDbEntity
  8
0
  6
BYBLOCK
100
AcDbLine
 10
-1056.712317622374
 20
-978.5579208876638
 30
0.0
 11
-1055.640520862374
 21
-982.5579208876638
 31
0.0
  0
LINE
  5
1FA0
330
18
100
AcDbEntity
  8
0
  6
BYBLOCK
100
AcDbLine
 10
-1056.712317622374
 20
-978.5579208876638
 30
0.0
 11
-1056.712317622374
 21
-982.5579208876638
 31
0.0
  0
TEXT
  5
1FA1
330
18
100
AcDbEntity
  8
1DIM
  6
CONTINUOUS
100
AcDbText
 10
-1058.112317622374
 20
-992.6245875543304
 30
0.0
 40
7.0
  1
2
 50
90.0
100
AcDbText
1001
ACAD
1000
DSTYLE
1002
{
1070
    40
1040
2.0
1002
}
  0
LINE
  5
1FA2
330
18
100
AcDbEntity
  8
0
  6
BYBLOCK
100
AcDbLine
 10
-1091.833653416725
 20
-827.5579208876638
 30
0.0
 11
-1090.761856656725
 21
-823.5579208876638
 31
0.0
  0
LINE
  5
1FA3
330
18
100
AcDbEntity
  8
0
  6
BYBLOCK
100
AcDbLine
 10
-1090.761856656725
 20
-823.5579208876638
 30
0.0
 11
-1089.690059896725
 21
-827.5579208876638
 31
0.0
  0
LINE
  5
1FA4
330
18
100
AcDbEntity
  8
0
  6
BYBLOCK
100
AcDbLine
 10
-1090.761856656725
 20
-823.5579208876638
 30
0.0
 11
-1090.761856656725
 21
-827.5579208876638
 31
0.0
  0
LINE
  5
1FA5
330
18
100
AcDbEntity
  8
0
  6
BYBLOCK
100
AcDbLine
 10
-1089.690059896725
 20
-844.5579208876638
 30
0.0
 11
-1090.761856656725
 21
-848.5579208876638
 31
0.0
  0
LINE
  5
1FA6
330
18
100
AcDbEntity
  8
0
  6
BYBLOCK
100
AcDbLine
 10
-1090.761856656725
 20
-848.5579208876638
 30
0.0
 11
-1091.833653416725
 21
-844.5579208876638
 31
0.0
  0
LINE
  5
1FA7
330
18
100
AcDbEntity
  8
0
  6
BYBLOCK
100
AcDbLine
 10
-1090.761856656725
 20
-848.5579208876638
 30
0.0
 11
-1090.761856656725
 21
-844.5579208876638
 31
0.0
  0
TEXT
  5
1FA8
330
18
100
AcDbEntity
  8
1DIM
  6
CONTINUOUS
100
AcDbText
 10
-1092.161856656726
 20
-841.8912542209971
 30
0.0
 40
7.0
  1
25
 50
90.0
100
AcDbText
1001
ACAD
1000
DSTYLE
1002
{
1070
    40
1040
2.0
1002
}
  0
LINE
  5
1FA9
330
18
100
AcDbEntity
  8
0
  6
BYBLOCK
100
AcDbLine
 10
-1076.362130163993
 20
-831.0579208876638
 30
0.0
 11
-1075.290333403993
 21
-827.0579208876638
 31
0.0
  0
LINE
  5
1FAA
330
18
100
AcDbEntity
  8
0
  6
BYBLOCK
100
AcDbLine
 10
-1075.290333403993
 20
-827.0579208876638
 30
0.0
 11
-1074.218536643993
 21
-831.0579208876638
 31
0.0
  0
LINE
  5
1FAB
330
18
100
AcDbEntity
  8
0
  6
BYBLOCK
100
AcDbLine
 10
-1075.290333403993
 20
-827.0579208876638
 30
0.0
 11
-1075.290333403993
 21
-831.0579208876638
 31
0.0
  0
LINE
  5
1FAC
330
18
100
AcDbEntity
  8
0
  6
BYBLOCK
100
AcDbLine
 10
-1074.218536643993
 20
-841.0579208876638
 30
0.0
 11
-1075.290333403993
 21
-845.0579208876638
 31
0.0
  0
LINE
  5
1FAD
330
18
100
AcDbEntity
  8
0
  6
BYBLOCK
100
AcDbLine
 10
-1075.290333403993
 20
-845.0579208876638
 30
0.0
 11
-1076.362130163993
 21
-841.0579208876638
 31
0.0
  0
LINE
  5
1FAE
330
18
100
AcDbEntity
  8
0
  6
BYBLOCK
100
AcDbLine
 10
-1075.290333403993
 20
-845.0579208876638
 30
0.0
 11
-1075.290333403993
 21
-841.0579208876638
 31
0.0
  0
TEXT
  5
1FAF
330
18
100
AcDbEntity
  8
1DIM
  6
CONTINUOUS
100
AcDbText
 10
-1076.690333403993
 20
-840.7245875543306
 30
0.0
 40
7.0
  1
18
 50
90.0
100
AcDbText
1001
ACAD
1000
DSTYLE
1002
{
1070
    40
1040
2.0
1002
}
  0
LINE
  5
1FB0
330
18
100
AcDbEntity
  8
0
  6
BYBLOCK
100
AcDbLine
 10
-591.8451573350152
 20
-973.1579208876639
 30
0.0
 11
-592.9169540950152
 21
-977.1579208876639
 31
0.0
  0
LINE
  5
1FB1
330
18
100
AcDbEntity
  8
0
  6
BYBLOCK
100
AcDbLine
 10
-592.9169540950152
 20
-977.1579208876639
 30
0.0
 11
-593.9887508550152
 21
-973.1579208876639
 31
0.0
  0
LINE
  5
1FB2
330
18
100
AcDbEntity
  8
0
  6
BYBLOCK
100
AcDbLine
 10
-592.9169540950152
 20
-977.1579208876639
 30
0.0
 11
-592.9169540950152
 21
-973.1579208876639
 31
0.0
  0
LINE
  5
1FB3
330
18
100
AcDbEntity
  8
0
  6
BYBLOCK
100
AcDbLine
 10
-593.9887508550152
 20
-990.0579208876638
 30
0.0
 11
-592.9169540950152
 21
-986.0579208876638
 31
0.0
  0
LINE
  5
1FB4
330
18
100
AcDbEntity
  8
0
  6
BYBLOCK
100
AcDbLine
 10
-592.9169540950152
 20
-986.0579208876638
 30
0.0
 11
-591.8451573350152
 21
-990.0579208876638
 31
0.0
  0
LINE
  5
1FB5
330
18
100
AcDbEntity
  8
0
  6
BYBLOCK
100
AcDbLine
 10
-592.9169540950152
 20
-986.0579208876638
 30
0.0
 11
-592.9169540950152
 21
-990.0579208876638
 31
0.0
  0
TEXT
  5
1FB6
330
18
100
AcDbEntity
  8
1DIM
  6
CONTINUOUS
100
AcDbText
 10
-594.3169540950151
 20
-1009.626207924701
 30
0.0
 40
7.0
  1
8.9
 50
90.0
100
AcDbText
1001
ACAD
1000
DSTYLE
1002
{
1070
    40
1040
2.0
1002
}
  0
LINE
  5
1FB7
330
18
100
AcDbEntity
  8
0
  6
BYBLOCK
100
AcDbLine
 10
-651.8415171393441
 20
-886.6619251702101
 30
0.0
 11
-655.8415171393441
 21
-885.5901284102101
 31
0.0
  0
LINE
  5
1FB8
330
18
100
AcDbEntity
  8
0
  6
BYBLOCK
100
AcDbLine
 10
-655.8415171393441
 20
-885.5901284102101
 30
0.0
 11
-651.8415171393441
 21
-884.5183316502101
 31
0.0
  0
LINE
  5
1FB9
330
18
100
AcDbEntity
  8
0
  6
BYBLOCK
100
AcDbLine
 10
-655.8415171393441
 20
-885.5901284102101
 30
0.0
 11
-651.8415171393441
 21
-885.5901284102101
 31
0.0
  0
LINE
  5
1FBA
330
18
100
AcDbEntity
  8
0
  6
BYBLOCK
100
AcDbLine
 10
-621.8415171393441
 20
-884.5183316502101
 30
0.0
 11
-617.8415171393441
 21
-885.5901284102101
 31
0.0
  0
LINE
  5
1FBB
330
18
100
AcDbEntity
  8
0
  6
BYBLOCK
100
AcDbLine
 10
-617.8415171393441
 20
-885.5901284102101
 30
0.0
 11
-621.8415171393441
 21
-886.6619251702101
 31
0.0
  0
LINE
  5
1FBC
330
18
100
AcDbEntity
  8
0
  6
BYBLOCK
100
AcDbLine
 10
-617.8415171393441
 20
-885.5901284102101
 30
0.0
 11
-621.8415171393441
 21
-885.5901284102101
 31
0.0
  0
TEXT
  5
1FBD
330
18
100
AcDbEntity
  8
1DIM
  6
CONTINUOUS
100
AcDbText
 10
-642.6748504726775
 20
-884.1901284102101
 30
0.0
 40
7.0
  1
38
100
AcDbText
1001
ACAD
1000
DSTYLE
1002
{
1070
    40
1040
2.0
1002
}
  0
LINE
  5
1FBE
330
18
100
AcDbEntity
  8
0
  6
BYBLOCK
100
AcDbLine
 10
-627.3415171393441
 20
-788.6898946407704
 30
0.0
 11
-623.3415171393441
 21
-789.7616914007704
 31
0.0
  0
LINE
  5
1FBF
330
18
100
AcDbEntity
  8
0
  6
BYBLOCK
100
AcDbLine
 10
-623.3415171393441
 20
-789.7616914007704
 30
0.0
 11
-627.3415171393441
 21
-790.8334881607703
 31
0.0
  0
LINE
  5
1FC0
330
18
100
AcDbEntity
  8
0
  6
BYBLOCK
100
AcDbLine
 10
-623.3415171393441
 20
-789.7616914007704
 30
0.0
 11
-627.3415171393441
 21
-789.7616914007704
 31
0.0
  0
LINE
  5
1FC1
330
18
100
AcDbEntity
  8
0
  6
BYBLOCK
100
AcDbLine
 10
-613.8415171393441
 20
-790.8334881607703
 30
0.0
 11
-617.8415171393441
 21
-789.7616914007704
 31
0.0
  0
LINE
  5
1FC2
330
18
100
AcDbEntity
  8
0
  6
BYBLOCK
100
AcDbLine
 10
-617.8415171393441
 20
-789.7616914007704
 30
0.0
 11
-613.8415171393441
 21
-788.6898946407704
 31
0.0
  0
LINE
  5
1FC3
330
18
100
AcDbEntity
  8
0
  6
BYBLOCK
100
AcDbLine
 10
-617.8415171393441
 20
-789.7616914007704
 30
0.0
 11
-613.8415171393441
 21
-789.7616914007704
 31
0.0
  0
TEXT
  5
1FC4
330
18
100
AcDbEntity
  8
1DIM
  6
CONTINUOUS
100
AcDbText
 10
-608.1324893615663
 20
-788.3616914007704
 30
0.0
 40
7.0
  1
5.5
100
AcDbText
1001
ACAD
1000
DSTYLE
1002
{
1070
    40
1040
2.0
1002
}
  0
LINE
  5
1FC5
330
18
100
AcDbEntity
  8
0
  6
BYBLOCK
100
AcDbLine
 10
-619.3415171393441
 20
-790.8334881607703
 30
0.0
 11
-623.3415171393441
 21
-789.7616914007704
 31
0.0
  0
LINE
  5
1FC6
330
18
100
AcDbEntity
  8
0
  6
BYBLOCK
100
AcDbLine
 10
-623.3415171393441
 20
-789.7616914007704
 30
0.0
 11
-619.3415171393441
 21
-788.6898946407704
 31
0.0
  0
LINE
  5
1FC7
330
18
100
AcDbEntity
  8
0
  6
BYBLOCK
100
AcDbLine
 10
-623.3415171393441
 20
-789.7616914007704
 30
0.0
 11
-619.3415171393441
 21
-789.7616914007704
 31
0.0
  0
LINE
  5
1FC8
330
18
100
AcDbEntity
  8
0
  6
BYBLOCK
100
AcDbLine
 10
-635.8415171393441
 20
-788.6898946407704
 30
0.0
 11
-631.8415171393441
 21
-789.7616914007704
 31
0.0
  0
LINE
  5
1FC9
330
18
100
AcDbEntity
  8
0
  6
BYBLOCK
100
AcDbLine
 10
-631.8415171393441
 20
-789.7616914007704
 30
0.0
 11
-635.8415171393441
 21
-790.8334881607703
 31
0.0
  0
LINE
  5
1FCA
330
18
100
AcDbEntity
  8
0
  6
BYBLOCK
100
AcDbLine
 10
-631.8415171393441
 20
-789.7616914007704
 30
0.0
 11
-635.8415171393441
 21
-789.7616914007704
 31
0.0
  0
TEXT
  5
1FCB
330
18
100
AcDbEntity
  8
1DIM
  6
CONTINUOUS
100
AcDbText
 10
-655.5748504726774
 20
-788.3616914007703
 30
0.0
 40
7.0
  1
8.5
100
AcDbText
1001
ACAD
1000
DSTYLE
1002
{
1070
    40
1040
2.0
1002
}
  0
LINE
  5
1FCC
330
18
100
AcDbEntity
  8
0
  6
BYBLOCK
100
AcDbLine
 10
-615.5563657173716
 20
-946.5136960929425
 30
0.0
 11
-619.2681261091184
 21
-948.349883199151
 31
0.0
  0
LINE
  5
1FCD
330
18
100
AcDbEntity
  8
0
  6
BYBLOCK
100
AcDbLine
 10
-619.2681261091184
 20
-948.349883199151
 30
0.0
 11
-616.9717408545758
 21
-944.9038183336173
 31
0.0
  0
LINE
  5
1FCE
330
18
100
AcDbEntity
  8
0
  6
BYBLOCK
100
AcDbLine
 10
-619.2681261091184
 20
-948.349883199151
 30
0.0
 11
-616.2640532859738
 21
-945.7087572132799
 31
0.0
  0
LINE
  5
1FCF
330
18
100
AcDbEntity
  8
0
  6
BYBLOCK
100
AcDbLine
 10
-797.4897528359221
 20
-990.0579208876638
 30
0.0
 11
-796.4179560759221
 21
-986.0579208876638
 31
0.0
  0
LINE
  5
1FD0
330
18
100
AcDbEntity
  8
0
  6
BYBLOCK
100
AcDbLine
 10
-796.4179560759221
 20
-986.0579208876638
 30
0.0
 11
-795.3461593159221
 21
-990.0579208876638
 31
0.0
  0
LINE
  5
1FD1
330
18
100
AcDbEntity
  8
0
  6
BYBLOCK
100
AcDbLine
 10
-796.4179560759221
 20
-986.0579208876638
 30
0.0
 11
-796.4179560759221
 21
-990.0579208876638
 31
0.0
  0
LINE
  5
1FD2
330
18
100
AcDbEntity
  8
0
  6
BYBLOCK
100
AcDbLine
 10
-795.3461593159221
 20
-972.557920887664
 30
0.0
 11
-796.4179560759221
 21
-976.557920887664
 31
0.0
  0
LINE
  5
1FD3
330
18
100
AcDbEntity
  8
0
  6
BYBLOCK
100
AcDbLine
 10
-796.4179560759221
 20
-976.557920887664
 30
0.0
 11
-797.4897528359221
 21
-972.557920887664
 31
0.0
  0
LINE
  5
1FD4
330
18
100
AcDbEntity
  8
0
  6
BYBLOCK
100
AcDbLine
 10
-796.4179560759221
 20
-976.557920887664
 30
0.0
 11
-796.4179560759221
 21
-972.557920887664
 31
0.0
  0
TEXT
  5
1FD5
330
18
100
AcDbEntity
  8
1DIM
  6
CONTINUOUS
100
AcDbText
 10
-797.8179560759223
 20
-958.4611616284046
 30
0.0
 40
7.0
  1
9.5
 50
90.0
100
AcDbText
1001
ACAD
1000
DSTYLE
1002
{
1070
    40
1040
2.0
1002
}
  0
LINE
  5
1FD6
330
18
100
AcDbEntity
  8
0
  6
BYBLOCK
100
AcDbLine
 10
-1040.841517139344
 20
-799.8367706742271
 30
0.0
 11
-1044.841517139344
 21
-798.7649739142271
 31
0.0
  0
LINE
  5
1FD7
330
18
100
AcDbEntity
  8
0
  6
BYBLOCK
100
AcDbLine
 10
-1044.841517139344
 20
-798.7649739142271
 30
0.0
 11
-1040.841517139344
 21
-797.6931771542271
 31
0.0
  0
LINE
  5
1FD8
330
18
100
AcDbEntity
  8
0
  6
BYBLOCK
100
AcDbLine
 10
-1044.841517139344
 20
-798.7649739142271
 30
0.0
 11
-1040.841517139344
 21
-798.7649739142271
 31
0.0
  0
LINE
  5
1FD9
330
18
100
AcDbEntity
  8
0
  6
BYBLOCK
100
AcDbLine
 10
-982.8415171393441
 20
-797.6931771542271
 30
0.0
 11
-978.8415171393441
 21
-798.7649739142271
 31
0.0
  0
LINE
  5
1FDA
330
18
100
AcDbEntity
  8
0
  6
BYBLOCK
100
AcDbLine
 10
-978.8415171393441
 20
-798.7649739142271
 30
0.0
 11
-982.8415171393441
 21
-799.8367706742271
 31
0.0
  0
LINE
  5
1FDB
330
18
100
AcDbEntity
  8
0
  6
BYBLOCK
100
AcDbLine
 10
-978.8415171393441
 20
-798.7649739142271
 30
0.0
 11
-982.8415171393441
 21
-798.7649739142271
 31
0.0
  0
TEXT
  5
1FDC
330
18
100
AcDbEntity
  8
1DIM
  6
CONTINUOUS
100
AcDbText
 10
-1017.699156028233
 20
-797.3649739142271
 30
0.0
 40
7.0
  1
66
100
AcDbText
1001
ACAD
1000
DSTYLE
1002
{
1070
    40
1040
2.0
1002
}
  0
LINE
  5
1FDD
330
18
100
AcDbEntity
  8
0
  6
BYBLOCK
100
AcDbLine
 10
-1035.341517139344
 20
-955.8223733256724
 30
0.0
 11
-1039.341517139344
 21
-954.7505765656724
 31
0.0
  0
LINE
  5
1FDE
330
18
100
AcDbEntity
  8
0
  6
BYBLOCK
100
AcDbLine
 10
-1039.341517139344
 20
-954.7505765656724
 30
0.0
 11
-1035.341517139344
 21
-953.6787798056724
 31
0.0
  0
LINE
  5
1FDF
330
18
100
AcDbEntity
  8
0
  6
BYBLOCK
100
AcDbLine
 10
-1039.341517139344
 20
-954.7505765656724
 30
0.0
 11
-1035.341517139344
 21
-954.7505765656724
 31
0.0
  0
LINE
  5
1FE0
330
18
100
AcDbEntity
  8
0
  6
BYBLOCK
100
AcDbLine
 10
-988.3415171393441
 20
-953.6787798056724
 30
0.0
 11
-984.3415171393441
 21
-954.7505765656724
 31
0.0
  0
LINE
  5
1FE1
330
18
100
AcDbEntity
  8
0
  6
BYBLOCK
100
AcDbLine
 10
-984.3415171393441
 20
-954.7505765656724
 30
0.0
 11
-988.3415171393441
 21
-955.8223733256724
 31
0.0
  0
LINE
  5
1FE2
330
18
100
AcDbEntity
  8
0
  6
BYBLOCK
100
AcDbLine
 10
-984.3415171393441
 20
-954.7505765656724
 30
0.0
 11
-988.3415171393441
 21
-954.7505765656724
 31
0.0
  0
TEXT
  5
1FE3
330
18
100
AcDbEntity
  8
1DIM
  6
CONTINUOUS
100
AcDbText
 10
-1017.699156028233
 20
-953.3505765656724
 30
0.0
 40
7.0
  1
55
100
AcDbText
1001
ACAD
1000
DSTYLE
1002
{
1070
    40
1040
2.0
1002
}
  0
VIEWPORT
  5
ED8
330
15
100
AcDbEntity
 67
     1
  8
0
100
AcDbViewport
 68
     1
 10
0.0
 20
0.0
 30
0.0
 40
555.8298653610772
 41
297.0
 68
     1
 69
     1
1001
ACAD
1000
MVIEW
1002
{
1070
    16
1010
0.0
1020
0.0
1030
0.0
1010
0.0
1020
0.0
1030
1.0
1040
0.0
1040
297.0
1040
-4.171999999925333
1040
12.83903210976956
1040
50.0
1040
0.0
1040
0.0
1070
    16
1070
   100
1070
     0
1070
     1
1070
     0
1070
     0
1070
     0
1070
     0
1040
0.0
1040
0.0
1040
0.0
1040
10.0
1040
10.0
1040
10.0
1040
10.0
1070
     0
1002
{
1002
}
1002
}
  0
ENDSEC
  0
SECTION
  2
OBJECTS
  0
DICTIONARY
  5
C
330
0
100
AcDbDictionary
  3
ACAD_CIP_PREVIOUS_PRODUCT_INFO
350
14EE
  3
ACAD_COLOR
350
1378
  3
ACAD_GROUP
350
D
  3
ACAD_LAYOUT
350
137B
  3
ACAD_MATERIAL
350
1377
  3
ACAD_MLEADERSTYLE
350
1403
  3
ACAD_MLINESTYLE
350
1B
  3
ACAD_PLOTSETTINGS
350
137C
  3
ACAD_SCALELIST
350
13E1
  3
ACAD_VISUALSTYLE
350
13D0
  3
ACDBHEADERROUNDTRIPXREC
350
1FE5
  3
ACDBVARIABLEDICTIONARY
350
37
  3
CONTENTDICTIONARY
350
4B
  3
DRAWINGVARIABLESDICT
350
20
  3
DWGPROPS
350
1FE8
1001
ACAD
1000
TREAT_AS_HARD
1070
     0
  0
DICTIONARY
  5
14A1
330
2
100
AcDbDictionary
  3
ACAD_LAYERSTATES
360
14A2
1001
ACAD
1000
TREAT_AS_HARD
1070
     1
  0
DICTIONARY
  5
1418
330
E
100
AcDbDictionary
  3
ADSK_XREC_LAYER_RECONCILED
360
1419
1001
ACAD
1000
TREAT_AS_HARD
1070
     1
  0
DICTIONARY
  5
141A
330
29
100
AcDbDictionary
  3
ADSK_XREC_LAYER_RECONCILED
360
141B
1001
ACAD
1000
TREAT_AS_HARD
1070
     1
  0
DICTIONARY
  5
141C
330
2A
100
AcDbDictionary
  3
ADSK_XREC_LAYER_RECONCILED
360
141D
1001
ACAD
1000
TREAT_AS_HARD
1070
     1
  0
DICTIONARY
  5
1424
330
2E
100
AcDbDictionary
  3
ADSK_XREC_LAYER_RECONCILED
360
1425
1001
ACAD
1000
TREAT_AS_HARD
1070
     1
  0
DICTIONARY
  5
1426
330
2F
100
AcDbDictionary
  3
ADSK_XREC_LAYER_RECONCILED
360
1427
1001
ACAD
1000
TREAT_AS_HARD
1070
     1
  0
DICTIONARY
  5
142A
330
31
100
AcDbDictionary
  3
ADSK_XREC_LAYER_RECONCILED
360
142B
1001
ACAD
1000
TREAT_AS_HARD
1070
     1
  0
DICTIONARY
  5
1436
330
211
100
AcDbDictionary
  3
ADSK_XREC_LAYER_RECONCILED
360
1437
1001
ACAD
1000
TREAT_AS_HARD
1070
     1
  0
DICTIONARY
  5
144C
330
EDC
100
AcDbDictionary
  3
ADSK_XREC_LAYER_RECONCILED
360
144D
1001
ACAD
1000
TREAT_AS_HARD
1070
     1
  0
DICTIONARY
  5
144E
330
EDD
100
AcDbDictionary
  3
ADSK_XREC_LAYER_RECONCILED
360
144F
1001
ACAD
1000
TREAT_AS_HARD
1070
     1
  0
DICTIONARY
  5
1450
330
EE1
100
AcDbDictionary
  3
ADSK_XREC_LAYER_RECONCILED
360
1451
1001
ACAD
1000
TREAT_AS_HARD
1070
     1
  0
DICTIONARY
  5
1452
330
EF2
100
AcDbDictionary
  3
ADSK_XREC_LAYER_RECONCILED
360
1453
1001
ACAD
1000
TREAT_AS_HARD
1070
     1
  0
XRECORD
  5
14EE
102
{ACAD_REACTORS
330
C
102
}
330
C
100
AcDbXrecord
300
ACDLT
300
2012
300
ACDLT_F_S
  0
DICTIONARY
  5
1378
102
{ACAD_REACTORS
330
C
102
}
330
C
100
AcDbDictionary
1001
ACAD
1000
TREAT_AS_HARD
1070
     0
  0
DICTIONARY
  5
D
102
{ACAD_REACTORS
330
C
102
}
330
C
100
AcDbDictionary
1001
ACAD
1000
TREAT_AS_HARD
1070
     0
  0
DICTIONARY
  5
137B
102
{ACAD_REACTORS
330
C
102
}
330
C
100
AcDbDictionary
1001
ACAD
1000
TREAT_AS_HARD
1070
     0
  0
DICTIONARY
  5
1377
102
{ACAD_REACTORS
330
C
102
}
330
C
100
AcDbDictionary
  3
BYBLOCK
350
13C0
  3
BYLAYER
350
13B8
  3
GLOBAL
350
13C8
1001
ACAD
1000
TREAT_AS_HARD
1070
     0
  0
DICTIONARY
  5
1403
102
{ACAD_REACTORS
330
C
102
}
330
C
100
AcDbDictionary
  3
STANDARD
350
1404
1001
ACAD
1000
TREAT_AS_HARD
1070
     0
  0
DICTIONARY
  5
1B
102
{ACAD_REACTORS
330
C
102
}
330
C
100
AcDbDictionary
  3
STANDARD
350
1C
1001
ACAD
1000
TREAT_AS_HARD
1070
     0
  0
DICTIONARY
  5
137C
102
{ACAD_REACTORS
330
C
102
}
330
C
100
AcDbDictionary
1001
ACAD
1000
TREAT_AS_HARD
1070
     0
  0
DICTIONARY
  5
13E1
102
{ACAD_REACTORS
330
C
102
}
330
C
100
AcDbDictionary
  3
A0
350
13E2
  3
A1
350
13E3
  3
A2
350
13E4
  3
A3
350
13E5
  3
A4
350
13E6
  3
A5
350
13E7
  3
A6
350
13E8
  3
A7
350
13E9
  3
A8
350
13EA
  3
A9
350
13EB
  3
B0
350
13EC
  3
B1
350
13ED
  3
B2
350
13EE
  3
B3
350
13EF
  3
B4
350
13F0
  3
B5
350
13F1
  3
B6
350
13F2
  3
B7
350
13F3
  3
B8
350
13F4
  3
B9
350
13F5
  3
C0
350
13F6
  3
C1
350
13F7
  3
C2
350
13F8
  3
C3
350
13F9
  3
C4
350
13FA
  3
C5
350
13FB
  3
C6
350
13FC
  3
C7
350
13FD
  3
C8
350
13FE
  3
C9
350
13FF
  3
D0
350
1400
  3
D1
350
1401
  3
D2
350
1402
1001
ACAD
1000
TREAT_AS_HARD
1070
     0
  0
DICTIONARY
  5
13D0
102
{ACAD_REACTORS
330
C
102
}
330
C
100
AcDbDictionary
  3
2DWIREFRAME
350
13D6
  3
3D_HIDDEN
350
13D8
  3
3DWIREFRAME
350
13D7
  3
BASIC
350
13D5
  3
BRIGHTEN
350
13DC
  3
COLORCHANGE
350
13E0
  3
CONCEPTUAL
350
13D9
  3
DIM
350
13DB
  3
EDGECOLOROFF
350
14EA
  3
FACEPATTERN
350
13DF
  3
FLAT
350
13D1
  3
FLATWITHEDGES
350
13D2
  3
GOURAUD
350
13D3
  3
GOURAUDWITHEDGES
350
13D4
  3
HIDDEN
350
14E2
  3
JITTEROFF
350
14E8
  3
LINEPATTERN
350
13DE
  3
MODELING
350
15B8
  3
OVERHANGOFF
350
14E9
  3
REALISTIC
350
13DA
  3
SHADED
350
14E7
  3
SHADED_WITH_EDGES
350
14E6
  3
SHADES_OF_GRAY
350
14E3
  3
SKETCHY
350
14E4
  3
THICKEN
350
13DD
  3
WIREFRAME
350
14E1
  3
X-RAY
350
14E5
1001
ACAD
1000
TREAT_AS_HARD
1070
     0
  0
DICTIONARY
  5
1FE5
102
{ACAD_REACTORS
330
C
102
}
330
C
100
AcDbDictionary
  3
COLORDICT
350
1FE6
  3
MATERIALDICT
350
1FE7
1001
ACAD
1000
TREAT_AS_HARD
1070
     0
  0
DICTIONARY
  5
37
102
{ACAD_REACTORS
330
C
102
}
330
C
100
AcDbDictionary
  3
CANNOSCALE
350
1DCF
  3
CMLEADERSTYLE
350
148C
  3
CTABLESTYLE
350
1390
  3
DIMADEC
350
38
  3
DIMASSOC
350
1391
  3
HIDETEXT
350
1FE4
  3
INDEXCTL
350
148E
  3
MSLTSCALE
350
1E1F
  3
PROJECTNAME
350
1392
  3
SORTENTS
350
21F
  3
XCLIPFRAME
350
15B7
1001
ACAD
1000
TREAT_AS_HARD
1070
     0
  0
DICTIONARY
  5
4B
102
{ACAD_REACTORS
330
C
102
}
330
C
100
AcDbDictionary
1001
CONTENTTABDATA
1070
     8
1000
Child
1000
D:\ACLT\TABset\CHILDREN.dwg
1070
     0
1070
     0
1070
     1
1000
PK
1000
D:\ACLT\TABset\PK.dwg
1070
     0
1070
     0
1070
     1
1000
Lev1
1000
D:\ACLT\TABset\Lever01.dwg
1070
     0
1070
     0
1070
     1
1000
Lev2
1000
D:\ACLT\TABset\Lever02.dwg
1070
     0
1070
     0
1070
     1
1000
Format
1000
D:\ACLT\FORMAT
1070
     1
1070
     0
1070
     1
1000
Joint
1000
D:\ACLT\TABset\JOINTPARTS.dwg
1070
     0
1070
     0
1070
     1
1000
Isome1
1000
D:\ACLT\TABset\ISOME01.dwg
1070
     0
1070
     0
1070
     1
1000
Region
1000
D:\ACLT\TABSET\REGION.dwg
1070
     0
1070
     0
1070
     1
1001
CONTENTCURRENTTAB
1070
     0
1001
ACAD
1000
TREAT_AS_HARD
1070
     0
  0
DICTIONARY
  5
20
102
{ACAD_REACTORS
330
C
102
}
330
C
100
AcDbDictionary
1001
DRAWINGVARIABLESXDATA
1000
POLARANG
1000
0.261799387799149410000000
1000
POLARMODE
1000
1
1000
POLARSTYLE
1000
1
1001
ACAD
1000
TREAT_AS_HARD
1070
     0
  0
XRECORD
  5
1FE8
102
{ACAD_REACTORS
330
C
102
}
330
C
100
AcDbXrecord
  1
DWGPROPS COOKIE
  2

  3

  4

  6

  7

  8
3684
  9

300
=
301
=
302
=
303
=
304
=
305
=
306
=
307
=
308
=
309
=
 40
0.0
 41
2451283.309294988
 42
2458240.34709081
  1

 90
        0
  0
DICTIONARY
  5
14A2
102
{ACAD_REACTORS
330
14A1
102
}
330
14A1
100
AcDbDictionary
1001
ACAD
1000
TREAT_AS_HARD
1070
     0
  0
ACAD_PROXY_OBJECT
  5
1419
102
{ACAD_REACTORS
330
1418
102
}
330
1418
100
AcDbZombieObject
 90
      499
 91
      515
 93
       34
310
40C8804040
  0
ACAD_PROXY_OBJECT
  5
141B
102
{ACAD_REACTORS
330
141A
102
}
330
141A
100
AcDbZombieObject
 90
      499
 91
      515
 93
       34
310
40C8804040
  0
ACAD_PROXY_OBJECT
  5
141D
102
{ACAD_REACTORS
330
141C
102
}
330
141C
100
AcDbZombieObject
 90
      499
 91
      515
 93
       34
310
40C8804040
  0
ACAD_PROXY_OBJECT
  5
1425
102
{ACAD_REACTORS
330
1424
102
}
330
1424
100
AcDbZombieObject
 90
      499
 91
      515
 93
       34
310
40C8804040
  0
ACAD_PROXY_OBJECT
  5
1427
102
{ACAD_REACTORS
330
1426
102
}
330
1426
100
AcDbZombieObject
 90
      499
 91
      515
 93
       34
310
40C8804040
  0
ACAD_PROXY_OBJECT
  5
142B
102
{ACAD_REACTORS
330
142A
102
}
330
142A
100
AcDbZombieObject
 90
      499
 91
      515
 93
       34
310
40C8804040
  0
ACAD_PROXY_OBJECT
  5
1437
102
{ACAD_REACTORS
330
1436
102
}
330
1436
100
AcDbZombieObject
 90
      499
 91
      515
 93
       34
310
40C8804040
  0
ACAD_PROXY_OBJECT
  5
144D
102
{ACAD_REACTORS
330
144C
102
}
330
144C
100
AcDbZombieObject
 90
      499
 91
      515
 93
       34
310
40C8804040
  0
ACAD_PROXY_OBJECT
  5
144F
102
{ACAD_REACTORS
330
144E
102
}
330
144E
100
AcDbZombieObject
 90
      499
 91
      515
 93
       34
310
40C8804040
  0
ACAD_PROXY_OBJECT
  5
1451
102
{ACAD_REACTORS
330
1450
102
}
330
1450
100
AcDbZombieObject
 90
      499
 91
      515
 93
       34
310
40C8804040
  0
ACAD_PROXY_OBJECT
  5
1453
102
{ACAD_REACTORS
330
1452
102
}
330
1452
100
AcDbZombieObject
 90
      499
 91
      515
 93
       34
310
40C8804040
  0
MATERIAL
  5
13C0
102
{ACAD_REACTORS
330
1377
102
}
102
{ACAD_XDICTIONARY
360
2183
102
}
330
1377
100
AcDbMaterial
  1
BYBLOCK
 72
     0
 73
     2
 43
0.0208333333333333
 43
0.0
 43
0.0
 43
0.0
 43
0.0
 43
0.0208333333333333
 43
0.0
 43
0.0
 43
0.0
 43
0.0
 43
1.0
 43
0.0
 43
0.0
 43
0.0
 43
0.0
 43
1.0
 77
     0
 78
     2
 47
0.0208333333333333
 47
0.0
 47
0.0
 47
0.0
 47
0.0
 47
0.0208333333333333
 47
0.0
 47
0.0
 47
0.0
 47
0.0
 47
1.0
 47
0.0
 47
0.0
 47
0.0
 47
0.0
 47
1.0
171
     0
172
     2
 49
0.0208333333333333
 49
0.0
 49
0.0
 49
0.0
 49
0.0
 49
0.0208333333333333
 49
0.0
 49
0.0
 49
0.0
 49
0.0
 49
1.0
 49
0.0
 49
0.0
 49
0.0
 49
0.0
 49
1.0
175
     0
176
     2
142
0.0208333333333333
142
0.0
142
0.0
142
0.0
142
0.0
142
0.0208333333333333
142
0.0
142
0.0
142
0.0
142
0.0
142
1.0
142
0.0
142
0.0
142
0.0
142
0.0
142
1.0
179
     0
270
     2
144
0.0208333333333333
144
0.0
144
0.0
144
0.0
144
0.0
144
0.0208333333333333
144
0.0
144
0.0
144
0.0
144
0.0
144
1.0
144
0.0
144
0.0
144
0.0
144
0.0
144
1.0
274
     2
147
0.0208333333333333
147
0.0
147
0.0
147
0.0
147
0.0
147
0.0208333333333333
147
0.0
147
0.0
147
0.0
147
0.0
147
1.0
147
0.0
147
0.0
147
0.0
147
0.0
147
1.0
  0
MATERIAL
  5
13B8
102
{ACAD_REACTORS
330
1377
102
}
102
{ACAD_XDICTIONARY
360
2185
102
}
330
1377
100
AcDbMaterial
  1
BYLAYER
 72
     0
 73
     2
 43
0.0208333333333333
 43
0.0
 43
0.0
 43
0.0
 43
0.0
 43
0.0208333333333333
 43
0.0
 43
0.0
 43
0.0
 43
0.0
 43
1.0
 43
0.0
 43
0.0
 43
0.0
 43
0.0
 43
1.0
 77
     0
 78
     2
 47
0.0208333333333333
 47
0.0
 47
0.0
 47
0.0
 47
0.0
 47
0.0208333333333333
 47
0.0
 47
0.0
 47
0.0
 47
0.0
 47
1.0
 47
0.0
 47
0.0
 47
0.0
 47
0.0
 47
1.0
171
     0
172
     2
 49
0.0208333333333333
 49
0.0
 49
0.0
 49
0.0
 49
0.0
 49
0.0208333333333333
 49
0.0
 49
0.0
 49
0.0
 49
0.0
 49
1.0
 49
0.0
 49
0.0
 49
0.0
 49
0.0
 49
1.0
175
     0
176
     2
142
0.0208333333333333
142
0.0
142
0.0
142
0.0
142
0.0
142
0.0208333333333333
142
0.0
142
0.0
142
0.0
142
0.0
142
1.0
142
0.0
142
0.0
142
0.0
142
0.0
142
1.0
179
     0
270
     2
144
0.0208333333333333
144
0.0
144
0.0
144
0.0
144
0.0
144
0.0208333333333333
144
0.0
144
0.0
144
0.0
144
0.0
144
1.0
144
0.0
144
0.0
144
0.0
144
0.0
144
1.0
274
     2
147
0.0208333333333333
147
0.0
147
0.0
147
0.0
147
0.0
147
0.0208333333333333
147
0.0
147
0.0
147
0.0
147
0.0
147
1.0
147
0.0
147
0.0
147
0.0
147
0.0
147
1.0
  0
MATERIAL
  5
13C8
102
{ACAD_REACTORS
330
1377
102
}
102
{ACAD_XDICTIONARY
360
2187
102
}
330
1377
100
AcDbMaterial
  1
GLOBAL
 72
     0
 73
     2
 43
0.0208333333333333
 43
0.0
 43
0.0
 43
0.0
 43
0.0
 43
0.0208333333333333
 43
0.0
 43
0.0
 43
0.0
 43
0.0
 43
1.0
 43
0.0
 43
0.0
 43
0.0
 43
0.0
 43
1.0
 77
     0
 78
     2
 47
0.0208333333333333
 47
0.0
 47
0.0
 47
0.0
 47
0.0
 47
0.0208333333333333
 47
0.0
 47
0.0
 47
0.0
 47
0.0
 47
1.0
 47
0.0
 47
0.0
 47
0.0
 47
0.0
 47
1.0
171
     0
172
     2
 49
0.0208333333333333
 49
0.0
 49
0.0
 49
0.0
 49
0.0
 49
0.0208333333333333
 49
0.0
 49
0.0
 49
0.0
 49
0.0
 49
1.0
 49
0.0
 49
0.0
 49
0.0
 49
0.0
 49
1.0
175
     0
176
     2
142
0.0208333333333333
142
0.0
142
0.0
142
0.0
142
0.0
142
0.0208333333333333
142
0.0
142
0.0
142
0.0
142
0.0
142
1.0
142
0.0
142
0.0
142
0.0
142
0.0
142
1.0
179
     0
270
     2
144
0.0208333333333333
144
0.0
144
0.0
144
0.0
144
0.0
144
0.0208333333333333
144
0.0
144
0.0
144
0.0
144
0.0
144
1.0
144
0.0
144
0.0
144
0.0
144
0.0
144
1.0
274
     2
147
0.0208333333333333
147
0.0
147
0.0
147
0.0
147
0.0
147
0.0208333333333333
147
0.0
147
0.0
147
0.0
147
0.0
147
1.0
147
0.0
147
0.0
147
0.0
147
0.0
147
1.0
  0
ACAD_PROXY_OBJECT
  5
1404
102
{ACAD_REACTORS
330
1403
102
}
330
1403
100
AcDbZombieObject
 90
      499
 91
      511
 93
      610
310
40901902A4063FBFFFFFE000000000000002040AD7A3703D0AD73F4214DD185B99185C990000000000000104090141901A00000000000004100000000000000041025764000000000000300FC0
340
12
340
0
340
F
340
0
 94
        0
1001
ACAD
1000
AcRTDxfName
1000
MLEADERSTYLE
1000
AcRTDxfName
1000
MLEADERSTYLE
1000
AcRTDxfName
1000
MLEADERSTYLE
1000
AcRTDxfName
1000
MLEADERSTYLE
1001
ACAD_MLEADERVER
1070
     2
  0
MLINESTYLE
  5
1C
102
{ACAD_REACTORS
330
1B
102
}
330
1B
100
AcDbMlineStyle
  2
STANDARD
 70
     0
  3

 62
   256
 51
90.0
 52
90.0
 71
     2
 49
0.5
 62
   256
  6
BYLAYER
 49
-0.5
 62
   256
  6
BYLAYER
  0
ACAD_PROXY_OBJECT
  5
13E2
102
{ACAD_REACTORS
330
13E1
102
}
330
13E1
100
AcDbZombieObject
 90
      499
 91
      510
 93
       41
310
903313A31580
1001
ACAD
1000
AcRTDxfName
1000
SCALE
1000
AcRTDxfName
1000
SCALE
1000
AcRTDxfName
1000
SCALE
1000
AcRTDxfName
1000
SCALE
  0
ACAD_PROXY_OBJECT
  5
13E3
102
{ACAD_REACTORS
330
13E1
102
}
330
13E1
100
AcDbZombieObject
 90
      499
 91
      510
 93
      105
310
903313A324000000000000004000
1001
ACAD
1000
AcRTDxfName
1000
SCALE
1000
AcRTDxfName
1000
SCALE
1000
AcRTDxfName
1000
SCALE
1000
AcRTDxfName
1000
SCALE
  0
ACAD_PROXY_OBJECT
  5
13E4
102
{ACAD_REACTORS
330
13E1
102
}
330
13E1
100
AcDbZombieObject
 90
      499
 91
      510
 93
      105
310
903313A344000000000000104000
1001
ACAD
1000
AcRTDxfName
1000
SCALE
1000
AcRTDxfName
1000
SCALE
1000
AcRTDxfName
1000
SCALE
1000
AcRTDxfName
1000
SCALE
  0
ACAD_PROXY_OBJECT
  5
13E5
102
{ACAD_REACTORS
330
13E1
102
}
330
13E1
100
AcDbZombieObject
 90
      499
 91
      510
 93
      105
310
903313A354000000000000144000
1001
ACAD
1000
AcRTDxfName
1000
SCALE
1000
AcRTDxfName
1000
SCALE
1000
AcRTDxfName
1000
SCALE
1000
AcRTDxfName
1000
SCALE
  0
ACAD_PROXY_OBJECT
  5
13E6
102
{ACAD_REACTORS
330
13E1
102
}
330
13E1
100
AcDbZombieObject
 90
      499
 91
      510
 93
      105
310
903313A384000000000000204000
1001
ACAD
1000
AcRTDxfName
1000
SCALE
1000
AcRTDxfName
1000
SCALE
1000
AcRTDxfName
1000
SCALE
1000
AcRTDxfName
1000
SCALE
  0
ACAD_PROXY_OBJECT
  5
13E7
102
{ACAD_REACTORS
330
13E1
102
}
330
13E1
100
AcDbZombieObject
 90
      499
 91
      510
 93
      113
310
904313A31304000000000000244000
1001
ACAD
1000
AcRTDxfName
1000
SCALE
1000
AcRTDxfName
1000
SCALE
1000
AcRTDxfName
1000
SCALE
1000
AcRTDxfName
1000
SCALE
  0
ACAD_PROXY_OBJECT
  5
13E8
102
{ACAD_REACTORS
330
13E1
102
}
330
13E1
100
AcDbZombieObject
 90
      499
 91
      510
 93
      113
310
904313A31364000000000000304000
1001
ACAD
1000
AcRTDxfName
1000
SCALE
1000
AcRTDxfName
1000
SCALE
1000
AcRTDxfName
1000
SCALE
1000
AcRTDxfName
1000
SCALE
  0
ACAD_PROXY_OBJECT
  5
13E9
102
{ACAD_REACTORS
330
13E1
102
}
330
13E1
100
AcDbZombieObject
 90
      499
 91
      510
 93
      113
310
904313A32304000000000000344000
1001
ACAD
1000
AcRTDxfName
1000
SCALE
1000
AcRTDxfName
1000
SCALE
1000
AcRTDxfName
1000
SCALE
1000
AcRTDxfName
1000
SCALE
  0
ACAD_PROXY_OBJECT
  5
13EA
102
{ACAD_REACTORS
330
13E1
102
}
330
13E1
100
AcDbZombieObject
 90
      499
 91
      510
 93
      113
310
904313A333040000000000003E4000
1001
ACAD
1000
AcRTDxfName
1000
SCALE
1000
AcRTDxfName
1000
SCALE
1000
AcRTDxfName
1000
SCALE
1000
AcRTDxfName
1000
SCALE
  0
ACAD_PROXY_OBJECT
  5
13EB
102
{ACAD_REACTORS
330
13E1
102
}
330
13E1
100
AcDbZombieObject
 90
      499
 91
      510
 93
      113
310
904313A34304000000000000444000
1001
ACAD
1000
AcRTDxfName
1000
SCALE
1000
AcRTDxfName
1000
SCALE
1000
AcRTDxfName
1000
SCALE
1000
AcRTDxfName
1000
SCALE
  0
ACAD_PROXY_OBJECT
  5
13EC
102
{ACAD_REACTORS
330
13E1
102
}
330
13E1
100
AcDbZombieObject
 90
      499
 91
      510
 93
      113
310
904313A35304000000000000494000
1001
ACAD
1000
AcRTDxfName
1000
SCALE
1000
AcRTDxfName
1000
SCALE
1000
AcRTDxfName
1000
SCALE
1000
AcRTDxfName
1000
SCALE
  0
ACAD_PROXY_OBJECT
  5
13ED
102
{ACAD_REACTORS
330
13E1
102
}
330
13E1
100
AcDbZombieObject
 90
      499
 91
      510
 93
      121
310
905313A3130304000000000000594000
1001
ACAD
1000
AcRTDxfName
1000
SCALE
1000
AcRTDxfName
1000
SCALE
1000
AcRTDxfName
1000
SCALE
1000
AcRTDxfName
1000
SCALE
  0
ACAD_PROXY_OBJECT
  5
13EE
102
{ACAD_REACTORS
330
13E1
102
}
330
13E1
100
AcDbZombieObject
 90
      499
 91
      510
 93
      105
310
903323A310000000000000010100
1001
ACAD
1000
AcRTDxfName
1000
SCALE
1000
AcRTDxfName
1000
SCALE
1000
AcRTDxfName
1000
SCALE
1000
AcRTDxfName
1000
SCALE
  0
ACAD_PROXY_OBJECT
  5
13EF
102
{ACAD_REACTORS
330
13E1
102
}
330
13E1
100
AcDbZombieObject
 90
      499
 91
      510
 93
      105
310
903343A310000000000000410100
1001
ACAD
1000
AcRTDxfName
1000
SCALE
1000
AcRTDxfName
1000
SCALE
1000
AcRTDxfName
1000
SCALE
1000
AcRTDxfName
1000
SCALE
  0
ACAD_PROXY_OBJECT
  5
13F0
102
{ACAD_REACTORS
330
13E1
102
}
330
13E1
100
AcDbZombieObject
 90
      499
 91
      510
 93
      105
310
903383A310000000000000810100
1001
ACAD
1000
AcRTDxfName
1000
SCALE
1000
AcRTDxfName
1000
SCALE
1000
AcRTDxfName
1000
SCALE
1000
AcRTDxfName
1000
SCALE
  0
ACAD_PROXY_OBJECT
  5
13F1
102
{ACAD_REACTORS
330
13E1
102
}
330
13E1
100
AcDbZombieObject
 90
      499
 91
      510
 93
      113
310
90431303A310000000000000910100
1001
ACAD
1000
AcRTDxfName
1000
SCALE
1000
AcRTDxfName
1000
SCALE
1000
AcRTDxfName
1000
SCALE
1000
AcRTDxfName
1000
SCALE
  0
ACAD_PROXY_OBJECT
  5
13F2
102
{ACAD_REACTORS
330
13E1
102
}
330
13E1
100
AcDbZombieObject
 90
      499
 91
      510
 93
      121
310
9053130303A310000000000001650100
1001
ACAD
1000
AcRTDxfName
1000
SCALE
1000
AcRTDxfName
1000
SCALE
1000
AcRTDxfName
1000
SCALE
1000
AcRTDxfName
1000
SCALE
  0
ACAD_PROXY_OBJECT
  5
13F3
102
{ACAD_REACTORS
330
13E1
102
}
330
13E1
100
AcDbZombieObject
 90
      499
 91
      510
 93
      257
310
90E312F31323822203D2031272D3022000000000000200FC000000000000284000
1001
ACAD
1000
AcRTDxfName
1000
SCALE
1000
AcRTDxfName
1000
SCALE
1000
AcRTDxfName
1000
SCALE
1000
AcRTDxfName
1000
SCALE
  0
ACAD_PROXY_OBJECT
  5
13F4
102
{ACAD_REACTORS
330
13E1
102
}
330
13E1
100
AcDbZombieObject
 90
      499
 91
      510
 93
      249
310
90D312F363422203D2031272D3022000000000000240FC000000000000284000
1001
ACAD
1000
AcRTDxfName
1000
SCALE
1000
AcRTDxfName
1000
SCALE
1000
AcRTDxfName
1000
SCALE
1000
AcRTDxfName
1000
SCALE
  0
ACAD_PROXY_OBJECT
  5
13F5
102
{ACAD_REACTORS
330
13E1
102
}
330
13E1
100
AcDbZombieObject
 90
      499
 91
      510
 93
      249
310
90D312F333222203D2031272D3022000000000000280FC000000000000284000
1001
ACAD
1000
AcRTDxfName
1000
SCALE
1000
AcRTDxfName
1000
SCALE
1000
AcRTDxfName
1000
SCALE
1000
AcRTDxfName
1000
SCALE
  0
ACAD_PROXY_OBJECT
  5
13F6
102
{ACAD_REACTORS
330
13E1
102
}
330
13E1
100
AcDbZombieObject
 90
      499
 91
      510
 93
      249
310
90D312F313622203D2031272D30220000000000002C0FC000000000000284000
1001
ACAD
1000
AcRTDxfName
1000
SCALE
1000
AcRTDxfName
1000
SCALE
1000
AcRTDxfName
1000
SCALE
1000
AcRTDxfName
1000
SCALE
  0
ACAD_PROXY_OBJECT
  5
13F7
102
{ACAD_REACTORS
330
13E1
102
}
330
13E1
100
AcDbZombieObject
 90
      499
 91
      510
 93
      249
310
90D332F333222203D2031272D30220000000000002E0FC000000000000284000
1001
ACAD
1000
AcRTDxfName
1000
SCALE
1000
AcRTDxfName
1000
SCALE
1000
AcRTDxfName
1000
SCALE
1000
AcRTDxfName
1000
SCALE
  0
ACAD_PROXY_OBJECT
  5
13F8
102
{ACAD_REACTORS
330
13E1
102
}
330
13E1
100
AcDbZombieObject
 90
      499
 91
      510
 93
      241
310
90C312F3822203D2031272D3022000000000000300FC000000000000284000
1001
ACAD
1000
AcRTDxfName
1000
SCALE
1000
AcRTDxfName
1000
SCALE
1000
AcRTDxfName
1000
SCALE
1000
AcRTDxfName
1000
SCALE
  0
ACAD_PROXY_OBJECT
  5
13F9
102
{ACAD_REACTORS
330
13E1
102
}
330
13E1
100
AcDbZombieObject
 90
      499
 91
      510
 93
      249
310
90D332F313622203D2031272D3022000000000000320FC000000000000284000
1001
ACAD
1000
AcRTDxfName
1000
SCALE
1000
AcRTDxfName
1000
SCALE
1000
AcRTDxfName
1000
SCALE
1000
AcRTDxfName
1000
SCALE
  0
ACAD_PROXY_OBJECT
  5
13FA
102
{ACAD_REACTORS
330
13E1
102
}
330
13E1
100
AcDbZombieObject
 90
      499
 91
      510
 93
      241
310
90C312F3422203D2031272D3022000000000000340FC000000000000284000
1001
ACAD
1000
AcRTDxfName
1000
SCALE
1000
AcRTDxfName
1000
SCALE
1000
AcRTDxfName
1000
SCALE
1000
AcRTDxfName
1000
SCALE
  0
ACAD_PROXY_OBJECT
  5
13FB
102
{ACAD_REACTORS
330
13E1
102
}
330
13E1
100
AcDbZombieObject
 90
      499
 91
      510
 93
      241
310
90C332F3822203D2031272D3022000000000000360FC000000000000284000
1001
ACAD
1000
AcRTDxfName
1000
SCALE
1000
AcRTDxfName
1000
SCALE
1000
AcRTDxfName
1000
SCALE
1000
AcRTDxfName
1000
SCALE
  0
ACAD_PROXY_OBJECT
  5
13FC
102
{ACAD_REACTORS
330
13E1
102
}
330
13E1
100
AcDbZombieObject
 90
      499
 91
      510
 93
      241
310
90C312F3222203D2031272D3022000000000000380FC000000000000284000
1001
ACAD
1000
AcRTDxfName
1000
SCALE
1000
AcRTDxfName
1000
SCALE
1000
AcRTDxfName
1000
SCALE
1000
AcRTDxfName
1000
SCALE
  0
ACAD_PROXY_OBJECT
  5
13FD
102
{ACAD_REACTORS
330
13E1
102
}
330
13E1
100
AcDbZombieObject
 90
      499
 91
      510
 93
      241
310
90C332F3422203D2031272D30220000000000003A0FC000000000000284000
1001
ACAD
1000
AcRTDxfName
1000
SCALE
1000
AcRTDxfName
1000
SCALE
1000
AcRTDxfName
1000
SCALE
1000
AcRTDxfName
1000
SCALE
  0
ACAD_PROXY_OBJECT
  5
13FE
102
{ACAD_REACTORS
330
13E1
102
}
330
13E1
100
AcDbZombieObject
 90
      499
 91
      510
 93
      161
310
90A3122203D2031272D30224000000000000284000
1001
ACAD
1000
AcRTDxfName
1000
SCALE
1000
AcRTDxfName
1000
SCALE
1000
AcRTDxfName
1000
SCALE
1000
AcRTDxfName
1000
SCALE
  0
ACAD_PROXY_OBJECT
  5
13FF
102
{ACAD_REACTORS
330
13E1
102
}
330
13E1
100
AcDbZombieObject
 90
      499
 91
      510
 93
      257
310
90E312D312F3222203D2031272D30220000000000003E0FC000000000000284000
1001
ACAD
1000
AcRTDxfName
1000
SCALE
1000
AcRTDxfName
1000
SCALE
1000
AcRTDxfName
1000
SCALE
1000
AcRTDxfName
1000
SCALE
  0
ACAD_PROXY_OBJECT
  5
1400
102
{ACAD_REACTORS
330
13E1
102
}
330
13E1
100
AcDbZombieObject
 90
      499
 91
      510
 93
      225
310
90A3322203D2031272D302200000000000002100000000000000284000
1001
ACAD
1000
AcRTDxfName
1000
SCALE
1000
AcRTDxfName
1000
SCALE
1000
AcRTDxfName
1000
SCALE
1000
AcRTDxfName
1000
SCALE
  0
ACAD_PROXY_OBJECT
  5
1401
102
{ACAD_REACTORS
330
13E1
102
}
330
13E1
100
AcDbZombieObject
 90
      499
 91
      510
 93
      225
310
90A3622203D2031272D302200000000000006100000000000000284000
1001
ACAD
1000
AcRTDxfName
1000
SCALE
1000
AcRTDxfName
1000
SCALE
1000
AcRTDxfName
1000
SCALE
1000
AcRTDxfName
1000
SCALE
  0
ACAD_PROXY_OBJECT
  5
1402
102
{ACAD_REACTORS
330
13E1
102
}
330
13E1
100
AcDbZombieObject
 90
      499
 91
      510
 93
      249
310
90D31272D3022203D2031272D30220000000000000A100000000000000284000
1001
ACAD
1000
AcRTDxfName
1000
SCALE
1000
AcRTDxfName
1000
SCALE
1000
AcRTDxfName
1000
SCALE
1000
AcRTDxfName
1000
SCALE
  0
ACAD_PROXY_OBJECT
  5
13D6
102
{ACAD_REACTORS
330
13D0
102
}
330
13D0
100
AcDbZombieObject
 90
      499
 91
      509
 93
      436
310
42CC9915DA5C99599C985B595049028333333333333E3BF0000000000000FB0107901411070040501600405405064090741402480A0340
1001
ACAD
1000
AcRTDxfName
1000
VISUALSTYLE
1000
AcRTDxfName
1000
VISUALSTYLE
1000
AcRTDxfName
1000
VISUALSTYLE
1000
AcRTDxfName
1000
VISUALSTYLE
1000
AcDbSavedByObjectVersion
1070
     0
  0
ACAD_PROXY_OBJECT
  5
13D8
102
{ACAD_REACTORS
330
13D0
102
}
330
13D0
100
AcDbZombieObject
 90
      499
 91
      509
 93
      500
310
424CD108121A5919195B90640502408333333333333E3BF0000000000000FB01079024090700405020000000000001110200405405064090740C02480A0340
1001
ACAD
1000
AcRTDxfName
1000
VISUALSTYLE
1000
AcRTDxfName
1000
VISUALSTYLE
1000
AcRTDxfName
1000
VISUALSTYLE
1000
AcRTDxfName
1000
VISUALSTYLE
1000
AcDbSavedByObjectVersion
1070
     0
  0
ACAD_PROXY_OBJECT
  5
13D7
102
{ACAD_REACTORS
330
13D0
102
}
330
13D0
100
AcDbZombieObject
 90
      499
 91
      509
 93
      436
310
42CCD915DA5C99599C985B595059028333333333333E3BF0000000000000FB0107901411070040501600405405064090741402480A0340
1001
ACAD
1000
AcRTDxfName
1000
VISUALSTYLE
1000
AcRTDxfName
1000
VISUALSTYLE
1000
AcRTDxfName
1000
VISUALSTYLE
1000
AcRTDxfName
1000
VISUALSTYLE
1000
AcDbSavedByObjectVersion
1070
     0
  0
ACAD_PROXY_OBJECT
  5
13D5
102
{ACAD_REACTORS
330
13D0
102
}
330
13D0
100
AcDbZombieObject
 90
      499
 91
      509
 93
      388
310
4150985CDA58D07406404333333333333E3BF0000000000000FB0107A41107004050150841D405064090741402480A0350
1001
ACAD
1000
AcRTDxfName
1000
VISUALSTYLE
1000
AcRTDxfName
1000
VISUALSTYLE
1000
AcRTDxfName
1000
VISUALSTYLE
1000
AcRTDxfName
1000
VISUALSTYLE
1000
AcDbSavedByObjectVersion
1070
     0
  0
ACAD_PROXY_OBJECT
  5
13DC
102
{ACAD_REACTORS
330
13D0
102
}
330
13D0
100
AcDbZombieObject
 90
      499
 91
      509
 93
      428
310
42109C9A59DA1D195B90C409028333333333333E3BF0000000000000FB010790141107004050150841D405064090741402480A029950
1001
ACAD
1000
AcRTDxfName
1000
VISUALSTYLE
1000
AcRTDxfName
1000
VISUALSTYLE
1000
AcRTDxfName
1000
VISUALSTYLE
1000
AcRTDxfName
1000
VISUALSTYLE
1000
AcDbSavedByObjectVersion
1070
     0
  0
ACAD_PROXY_OBJECT
  5
13E0
102
{ACAD_REACTORS
330
13D0
102
}
330
13D0
100
AcDbZombieObject
 90
      499
 91
      509
 93
      452
310
42D0DBDB1BDC90DA185B99D95104090240C333333333333E3BF0000000000000FB0108901411070040501508421405064090741402480A0350
1001
ACAD
1000
AcRTDxfName
1000
VISUALSTYLE
1000
AcRTDxfName
1000
VISUALSTYLE
1000
AcRTDxfName
1000
VISUALSTYLE
1000
AcRTDxfName
1000
VISUALSTYLE
1000
AcDbSavedByObjectVersion
1070
     0
  0
ACAD_PROXY_OBJECT
  5
13D9
102
{ACAD_REACTORS
330
13D0
102
}
330
13D0
100
AcDbZombieObject
 90
      499
 91
      509
 93
      500
310
4290DBDB98D95C1D1D585B10940D028333333333333E3BF0000000000000FB0107902409070040501000000000000111010841D405064090740C02480A0340
1001
ACAD
1000
AcRTDxfName
1000
VISUALSTYLE
1000
AcRTDxfName
1000
VISUALSTYLE
1000
AcRTDxfName
1000
VISUALSTYLE
1000
AcRTDxfName
1000
VISUALSTYLE
1000
AcDbSavedByObjectVersion
1070
     0
  0
ACAD_PROXY_OBJECT
  5
13DB
102
{ACAD_REACTORS
330
13D0
102
}
330
13D0
100
AcDbZombieObject
 90
      499
 91
      509
 93
      412
310
40D11A5B50B409028333333333333E3BF0000000000000FB010790141107004050150841D405064090741402480A02677FFFFFD0
1001
ACAD
1000
AcRTDxfName
1000
VISUALSTYLE
1000
AcRTDxfName
1000
VISUALSTYLE
1000
AcRTDxfName
1000
VISUALSTYLE
1000
AcRTDxfName
1000
VISUALSTYLE
1000
AcDbSavedByObjectVersion
1070
     0
  0
ACAD_PROXY_OBJECT
  5
14EA
102
{ACAD_REACTORS
330
13D0
102
}
330
13D0
100
AcDbZombieObject
 90
      499
 91
      509
 93
      452
310
43115919D950DBDB1BDC93D999916409028333333333333E3BF0000000000000FB010790141107004050150841D405064090741402480A0350
1001
ACAD
1000
AcDbSavedByObjectVersion
1070
     0
  0
ACAD_PROXY_OBJECT
  5
13DF
102
{ACAD_REACTORS
330
13D0
102
}
330
13D0
100
AcDbZombieObject
 90
      499
 91
      509
 93
      444
310
42D19858D95C185D1D195C9B90F409028333333333333E3BF0000000000000FB010790141107004050150841D405064090741402480A0350
1001
ACAD
1000
AcRTDxfName
1000
VISUALSTYLE
1000
AcRTDxfName
1000
VISUALSTYLE
1000
AcRTDxfName
1000
VISUALSTYLE
1000
AcRTDxfName
1000
VISUALSTYLE
1000
AcDbSavedByObjectVersion
1070
     0
  0
ACAD_PROXY_OBJECT
  5
13D1
102
{ACAD_REACTORS
330
13D0
102
}
330
13D0
100
AcDbZombieObject
 90
      499
 91
      509
 93
      388
310
41119B185D240901404333333333333E3BF0000000000000F9010740A41107004050150841D405064090741402480A1B50
1001
ACAD
1000
AcRTDxfName
1000
VISUALSTYLE
1000
AcRTDxfName
1000
VISUALSTYLE
1000
AcRTDxfName
1000
VISUALSTYLE
1000
AcRTDxfName
1000
VISUALSTYLE
1000
AcDbSavedByObjectVersion
1070
     0
  0
ACAD_PROXY_OBJECT
  5
13D2
102
{ACAD_REACTORS
330
13D0
102
}
330
13D0
100
AcDbZombieObject
 90
      499
 91
      509
 93
      476
310
43519B185D15DA5D1A115919D95CD0140901404333333333333E3BF0000000000000F9010740901411070040501600405405064090741402480A1B50
1001
ACAD
1000
AcRTDxfName
1000
VISUALSTYLE
1000
AcRTDxfName
1000
VISUALSTYLE
1000
AcRTDxfName
1000
VISUALSTYLE
1000
AcRTDxfName
1000
VISUALSTYLE
1000
AcDbSavedByObjectVersion
1070
     0
  0
ACAD_PROXY_OBJECT
  5
13D3
102
{ACAD_REACTORS
330
13D0
102
}
330
13D0
100
AcDbZombieObject
 90
      499
 91
      509
 93
      412
310
41D1DBDD5C985D5910240902404333333333333E3BF0000000000000F9010740A411070040501641D405064090741402480A1B50
1001
ACAD
1000
AcRTDxfName
1000
VISUALSTYLE
1000
AcRTDxfName
1000
VISUALSTYLE
1000
AcRTDxfName
1000
VISUALSTYLE
1000
AcRTDxfName
1000
VISUALSTYLE
1000
AcDbSavedByObjectVersion
1070
     0
  0
ACAD_PROXY_OBJECT
  5
13D4
102
{ACAD_REACTORS
330
13D0
102
}
330
13D0
100
AcDbZombieObject
 90
      499
 91
      509
 93
      500
310
4411DBDD5C985D5915DA5D1A115919D95CD0340902404333333333333E3BF0000000000000F9010740901411070040501600405405064090741402480A1B50
1001
ACAD
1000
AcRTDxfName
1000
VISUALSTYLE
1000
AcRTDxfName
1000
VISUALSTYLE
1000
AcRTDxfName
1000
VISUALSTYLE
1000
AcRTDxfName
1000
VISUALSTYLE
1000
AcDbSavedByObjectVersion
1070
     0
  0
ACAD_PROXY_OBJECT
  5
14E2
102
{ACAD_REACTORS
330
13D0
102
}
330
13D0
100
AcDbZombieObject
 90
      499
 91
      509
 93
      476
310
41921A5919195B90640502408333333333333E3BF0000000000000FB01079024090700405020000000000001110200405405064090740C02480A0340
1001
ACAD
1000
AcDbSavedByObjectVersion
1070
     0
  0
ACAD_PROXY_OBJECT
  5
14E8
102
{ACAD_REACTORS
330
13D0
102
}
330
13D0
100
AcDbZombieObject
 90
      499
 91
      509
 93
      428
310
42529A5D1D195C93D999914409028333333333333E3BF0000000000000FB010790141107004050150A41D405064090741402480A0350
1001
ACAD
1000
AcDbSavedByObjectVersion
1070
     0
  0
ACAD_PROXY_OBJECT
  5
13DE
102
{ACAD_REACTORS
330
13D0
102
}
330
13D0
100
AcDbZombieObject
 90
      499
 91
      509
 93
      444
310
42D31A5B995C185D1D195C9B90E409028333333333333E3BF0000000000000FB010790141107004050750841D405064090741402483A0350
1001
ACAD
1000
AcRTDxfName
1000
VISUALSTYLE
1000
AcRTDxfName
1000
VISUALSTYLE
1000
AcRTDxfName
1000
VISUALSTYLE
1000
AcRTDxfName
1000
VISUALSTYLE
1000
AcDbSavedByObjectVersion
1070
     0
  0
ACAD_PROXY_OBJECT
  5
15B8
102
{ACAD_REACTORS
330
13D0
102
}
330
13D0
100
AcDbZombieObject
 90
      499
 91
      509
 93
      484
310
42135BD9195B1A5B99D0A409038333333333333E33F0000000000000F901074090290700405010000000000201990108421405064090741402480A1B40
1001
ACAD
1000
AcDbSavedByObjectVersion
1070
     0
  0
ACAD_PROXY_OBJECT
  5
14E9
102
{ACAD_REACTORS
330
13D0
102
}
330
13D0
100
AcDbZombieObject
 90
      499
 91
      509
 93
      444
310
42D3DD995C9A185B99D3D999915409028333333333333E3BF0000000000000FB010790141107004050150941D405064090741402480A0350
1001
ACAD
1000
AcDbSavedByObjectVersion
1070
     0
  0
ACAD_PROXY_OBJECT
  5
13DA
102
{ACAD_REACTORS
330
13D0
102
}
330
13D0
100
AcDbZombieObject
 90
      499
 91
      509
 93
      420
310
425499585B1A5CDD1A58D08409028333333333333E3BF0000000000000FB01079019070040501508421405064090741402480A1B40
1001
ACAD
1000
AcRTDxfName
1000
VISUALSTYLE
1000
AcRTDxfName
1000
VISUALSTYLE
1000
AcRTDxfName
1000
VISUALSTYLE
1000
AcRTDxfName
1000
VISUALSTYLE
1000
AcDbSavedByObjectVersion
1070
     0
  0
ACAD_PROXY_OBJECT
  5
14E7
102
{ACAD_REACTORS
330
13D0
102
}
330
13D0
100
AcDbZombieObject
 90
      499
 91
      509
 93
      420
310
4194DA1859195911B40902404333333333333E3BF0000000000000F9010740A41107004050150800405405064090840C02480A0B40
1001
ACAD
1000
AcDbSavedByObjectVersion
1070
     0
  0
ACAD_PROXY_OBJECT
  5
14E6
102
{ACAD_REACTORS
330
13D0
102
}
330
13D0
100
AcDbZombieObject
 90
      499
 91
      509
 93
      516
310
4454DA18591959081DDA5D1A08195919D95CD1A40902404333333333333E3BF0000000000000F901074090142907004050250800405405064090740C02480A0B40
1001
ACAD
1000
AcDbSavedByObjectVersion
1070
     0
  0
ACAD_PROXY_OBJECT
  5
14E3
102
{ACAD_REACTORS
330
13D0
102
}
330
13D0
100
AcDbZombieObject
 90
      499
 91
      509
 93
      532
310
4394DA1859195CC81BD98811DC985E5174090240C333333333333E3BF0000000000000FB01079024090741D01000000000000111010841D405064090740C02480A0340
1001
ACAD
1000
AcDbSavedByObjectVersion
1070
     0
  0
ACAD_PROXY_OBJECT
  5
14E4
102
{ACAD_REACTORS
330
13D0
102
}
330
13D0
100
AcDbZombieObject
 90
      499
 91
      509
 93
      476
310
41D4DAD95D18DA1E51840502408333333333333E3BF0000000000000FB01079024090741D01000000000000111010B41D405064090741802480A0340
1001
ACAD
1000
AcDbSavedByObjectVersion
1070
     0
  0
ACAD_PROXY_OBJECT
  5
13DD
102
{ACAD_REACTORS
330
13D0
102
}
330
13D0
100
AcDbZombieObject
 90
      499
 91
      509
 93
      412
310
41D51A1A58DAD95B90D409028333333333333E3BF0000000000000FB010790141107004050150C41D405064090741402480A0350
1001
ACAD
1000
AcRTDxfName
1000
VISUALSTYLE
1000
AcRTDxfName
1000
VISUALSTYLE
1000
AcRTDxfName
1000
VISUALSTYLE
1000
AcRTDxfName
1000
VISUALSTYLE
1000
AcDbSavedByObjectVersion
1070
     0
  0
ACAD_PROXY_OBJECT
  5
14E1
102
{ACAD_REACTORS
330
13D0
102
}
330
13D0
100
AcDbZombieObject
 90
      499
 91
      509
 93
      420
310
4255DA5C99599C985B595059028333333333333E3BF0000000000000FB0107901411070040501600405405064090740C02480A0340
1001
ACAD
1000
AcDbSavedByObjectVersion
1070
     0
  0
ACAD_PROXY_OBJECT
  5
14E5
102
{ACAD_REACTORS
330
13D0
102
}
330
13D0
100
AcDbZombieObject
 90
      499
 91
      509
 93
      404
310
41560B54985E51940902404000000000000E03F0000000000000FB010740501907004050150841D405064090740C02480A1B40
1001
ACAD
1000
AcDbSavedByObjectVersion
1070
     0
  0
XRECORD
  5
1FE6
102
{ACAD_REACTORS
330
1FE5
102
}
330
1FE5
100
AcDbXrecord
340
1378
  0
XRECORD
  5
1FE7
102
{ACAD_REACTORS
330
1FE5
102
}
330
1FE5
100
AcDbXrecord
340
1377
  0
DICTIONARYVAR
  5
1DCF
102
{ACAD_REACTORS
330
37
102
}
330
37
100
DictionaryVariables
280
     0
  1
1:1
  0
DICTIONARYVAR
  5
148C
102
{ACAD_REACTORS
330
37
102
}
330
37
100
DictionaryVariables
280
     0
  1
Standard
  0
DICTIONARYVAR
  5
1390
102
{ACAD_REACTORS
330
37
102
}
330
37
100
DictionaryVariables
280
     0
  1
Standard
  0
DICTIONARYVAR
  5
38
102
{ACAD_REACTORS
330
37
102
}
330
37
100
DictionaryVariables
280
     0
  1
-1
  0
DICTIONARYVAR
  5
1391
102
{ACAD_REACTORS
330
37
102
}
330
37
100
DictionaryVariables
280
     0
  1
2
  0
DICTIONARYVAR
  5
1FE4
102
{ACAD_REACTORS
330
37
102
}
330
37
100
DictionaryVariables
280
     0
  1
1
  0
DICTIONARYVAR
  5
148E
102
{ACAD_REACTORS
330
37
102
}
330
37
100
DictionaryVariables
280
     0
  1
0
  0
DICTIONARYVAR
  5
1E1F
102
{ACAD_REACTORS
330
37
102
}
330
37
100
DictionaryVariables
280
     0
  1
0
  0
DICTIONARYVAR
  5
1392
102
{ACAD_REACTORS
330
37
102
}
330
37
100
DictionaryVariables
280
     0
  1

  0
DICTIONARYVAR
  5
21F
102
{ACAD_REACTORS
330
37
102
}
330
37
100
DictionaryVariables
280
     0
  1
96
  0
DICTIONARYVAR
  5
15B7
102
{ACAD_REACTORS
330
37
102
}
330
37
100
DictionaryVariables
280
     0
  1
2
  0
DICTIONARY
  5
2183
330
13C0
100
AcDbDictionary
  3
ACAD_XREC_ROUNDTRIP
360
2184
1001
ACAD
1000
TREAT_AS_HARD
1070
     1
  0
DICTIONARY
  5
2185
330
13B8
100
AcDbDictionary
  3
ACAD_XREC_ROUNDTRIP
360
2186
1001
ACAD
1000
TREAT_AS_HARD
1070
     1
  0
DICTIONARY
  5
2187
330
13C8
100
AcDbDictionary
  3
ACAD_XREC_ROUNDTRIP
360
2188
1001
ACAD
1000
TREAT_AS_HARD
1070
     1
  0
XRECORD
  5
2184
102
{ACAD_REACTORS
330
2183
102
}
330
2183
100
AcDbXrecord
102
MATERIAL
148
0.0
149
0.0
149
0.0
 93
        0
 94
      127
282
     0
 72
     0
 77
     0
171
     0
175
     0
179
     0
273
     0
  0
XRECORD
  5
2186
102
{ACAD_REACTORS
330
2185
102
}
330
2185
100
AcDbXrecord
102
MATERIAL
148
0.0
149
0.0
149
0.0
 93
        0
 94
      127
282
     0
 72
     0
 77
     0
171
     0
175
     0
179
     0
273
     0
  0
XRECORD
  5
2188
102
{ACAD_REACTORS
330
2187
102
}
330
2187
100
AcDbXrecord
102
MATERIAL
148
0.0
149
0.0
149
0.0
 93
        0
 94
      127
282
     0
 72
     0
 77
     0
171
     0
175
     0
179
     0
273
     0
  0
ENDSEC
  0
EOF
