  0
SECTION
  2
HEADER
  9
$ACADVER
  1
AC1012
  9
$DWGCODEPAGE
  3
ansi_932
  9
$INSBASE
 10
0.0
 20
0.0
 30
0.0
  9
$EXTMIN
 10
-738.7863151461779
 20
-127.1938632920665
 30
0.0
  9
$EXTMAX
 10
-444.0496482670409
 20
106.9592253062135
 30
0.0
  9
$LIMMIN
 10
0.0
 20
0.0
  9
$LIMMAX
 10
12.0
 20
9.0
  9
$ORTHOMODE
 70
     0
  9
$REGENMODE
 70
     1
  9
$FILLMODE
 70
     1
  9
$QTEXTMODE
 70
     0
  9
$MIRRTEXT
 70
     1
  9
$DRAGMODE
 70
     2
  9
$LTSCALE
 40
0.5
  9
$OSMODE
 70
 16383
  9
$ATTMODE
 70
     1
  9
$TEXTSIZE
 40
4.0
  9
$TRACEWID
 40
0.05
  9
$TEXTSTYLE
  7
STANDARD
  9
$CLAYER
  8
1TEXT
  9
$CELTYPE
  6
BYLAYER
  9
$CECOLOR
 62
     1
  9
$CELTSCALE
 40
1.0
  9
$DELOBJ
 70
     1
  9
$DISPSILH
 70
     0
  9
$DIMSCALE
 40
1.0
  9
$DIMASZ
 40
2.0
  9
$DIMEXO
 40
0.0
  9
$DIMDLI
 40
7.0
  9
$DIMRND
 40
0.0
  9
$DIMDLE
 40
0.0
  9
$DIMEXE
 40
1.0
  9
$DIMTP
 40
0.0
  9
$DIMTM
 40
0.0
  9
$DIMTXT
 40
3.5
  9
$DIMCEN
 40
0.0
  9
$DIMTSZ
 40
0.0
  9
$DIMTOL
 70
     0
  9
$DIMLIM
 70
     0
  9
$DIMTIH
 70
     0
  9
$DIMTOH
 70
     0
  9
$DIMSE1
 70
     0
  9
$DIMSE2
 70
     0
  9
$DIMTAD
 70
     1
  9
$DIMZIN
 70
     8
  9
$DIMBLK
  1

  9
$DIMASO
 70
     1
  9
$DIMSHO
 70
     1
  9
$DIMPOST
  1
 
  9
$DIMAPOST
  1

  9
$DIMALT
 70
     0
  9
$DIMALTD
 70
     2
  9
$DIMALTF
 40
25.4
  9
$DIMLFAC
 40
1.0
  9
$DIMTOFL
 70
     1
  9
$DIMTVP
 40
0.0
  9
$DIMTIX
 70
     0
  9
$DIMSOXD
 70
     0
  9
$DIMSAH
 70
     1
  9
$DIMBLK1
  1
OPEN30
  9
$DIMBLK2
  1
OPEN30
  9
$DIMSTYLE
  2
NEWX10
  9
$DIMCLRD
 70
   256
  9
$DIMCLRE
 70
   256
  9
$DIMCLRT
 70
   201
  9
$DIMTFAC
 40
0.7
  9
$DIMGAP
 40
0.7
  9
$DIMJUST
 70
     0
  9
$DIMSD1
 70
     0
  9
$DIMSD2
 70
     0
  9
$DIMTOLJ
 70
     1
  9
$DIMTZIN
 70
     8
  9
$DIMALTZ
 70
     0
  9
$DIMALTTZ
 70
     0
  9
$DIMFIT
 70
     2
  9
$DIMUPT
 70
     0
  9
$DIMUNIT
 70
     2
  9
$DIMDEC
 70
     2
  9
$DIMTDEC
 70
     4
  9
$DIMALTU
 70
     2
  9
$DIMALTTD
 70
     2
  9
$DIMTXSTY
  7
STANDARD
  9
$DIMAUNIT
 70
     0
  9
$LUNITS
 70
     2
  9
$LUPREC
 70
     4
  9
$SKETCHINC
 40
0.1
  9
$FILLETRAD
 40
0.0
  9
$AUNITS
 70
     0
  9
$AUPREC
 70
     2
  9
$MENU
  1
acad
  9
$ELEVATION
 40
0.0
  9
$PELEVATION
 40
0.0
  9
$THICKNESS
 40
0.0
  9
$LIMCHECK
 70
     0
  9
$CHAMFERA
 40
0.0
  9
$CHAMFERB
 40
0.0
  9
$CHAMFERC
 40
0.0
  9
$CHAMFERD
 40
0.0
  9
$SKPOLY
 70
     0
  9
$TDCREATE
 40
2451035.497968322
  9
$TDUPDATE
 40
2458726.386151123
  9
$TDINDWG
 40
0.5359726273
  9
$TDUSRTIMER
 40
0.5359726273
  9
$USRTIMER
 70
     1
  9
$ANGBASE
 50
0.0
  9
$ANGDIR
 70
     0
  9
$PDMODE
 70
     0
  9
$PDSIZE
 40
0.0
  9
$PLINEWID
 40
0.0
  9
$COORDS
 70
     2
  9
$SPLFRAME
 70
     0
  9
$SPLINETYPE
 70
     6
  9
$SPLINESEGS
 70
     8
  9
$ATTDIA
 70
     0
  9
$ATTREQ
 70
     1
  9
$HANDLING
 70
     1
  9
$HANDSEED
  5
4017
  9
$SURFTAB1
 70
     6
  9
$SURFTAB2
 70
     6
  9
$SURFTYPE
 70
     6
  9
$SURFU
 70
     6
  9
$SURFV
 70
     6
  9
$UCSNAME
  2

  9
$UCSORG
 10
0.0
 20
0.0
 30
0.0
  9
$UCSXDIR
 10
1.0
 20
0.0
 30
0.0
  9
$UCSYDIR
 10
0.0
 20
1.0
 30
0.0
  9
$PUCSNAME
  2

  9
$PUCSORG
 10
0.0
 20
0.0
 30
0.0
  9
$PUCSXDIR
 10
1.0
 20
0.0
 30
0.0
  9
$PUCSYDIR
 10
0.0
 20
1.0
 30
0.0
  9
$USERI1
 70
     0
  9
$USERI2
 70
     0
  9
$USERI3
 70
     0
  9
$USERI4
 70
     0
  9
$USERI5
 70
     0
  9
$USERR1
 40
0.0
  9
$USERR2
 40
0.0
  9
$USERR3
 40
0.0
  9
$USERR4
 40
0.0
  9
$USERR5
 40
0.0
  9
$WORLDVIEW
 70
     1
  9
$SHADEDGE
 70
     3
  9
$SHADEDIF
 70
    70
  9
$TILEMODE
 70
     1
  9
$MAXACTVP
 70
    48
  9
$PINSBASE
 10
0.0
 20
0.0
 30
0.0
  9
$PLIMCHECK
 70
     0
  9
$PEXTMIN
 10
1.000000000000000E+20
 20
1.000000000000000E+20
 30
1.000000000000000E+20
  9
$PEXTMAX
 10
-1.000000000000000E+20
 20
-1.000000000000000E+20
 30
-1.000000000000000E+20
  9
$PLIMMIN
 10
0.0
 20
0.0
  9
$PLIMMAX
 10
12.0
 20
9.0
  9
$UNITMODE
 70
     0
  9
$VISRETAIN
 70
     1
  9
$PLINEGEN
 70
     0
  9
$PSLTSCALE
 70
     1
  9
$TREEDEPTH
 70
  3020
  9
$PICKSTYLE
 70
     1
  9
$CMLSTYLE
  2
STANDARD
  9
$CMLJUST
 70
     0
  9
$CMLSCALE
 40
1.0
  9
$SAVEIMAGES
 70
     1
  0
ENDSEC
  0
SECTION
  2
CLASSES
  0
CLASS
  1
DICTIONARYVAR
  2
AcDbDictionaryVar
  3
ObjectDBX Classes
 90
        0
280
     0
281
     0
  0
CLASS
  1
IDBUFFER
  2
AcDbIdBuffer
  3
ObjectDBX Classes
 90
    32768
280
     0
281
     0
  0
CLASS
  1
HATCH
  2
AcDbHatch
  3
ObjectDBX Classes
 90
    32768
280
     0
281
     1
  0
CLASS
  1
LWPOLYLINE
  2
AcDbPolyline
  3
ObjectDBX Classes
 90
    32768
280
     0
281
     1
  0
CLASS
  1
ACDBDICTIONARYWDFLT
  2
AcDbDictionaryWithDefault
  3
ObjectDBX Classes
 90
    32768
280
     0
281
     0
  0
CLASS
  1
TABLESTYLE
  2
AcDbTableStyle
  3
ObjectDBX Classes
 90
     4095
280
     0
281
     0
  0
CLASS
  1
ACDBPLACEHOLDER
  2
AcDbPlaceHolder
  3
ObjectDBX Classes
 90
        0
280
     0
281
     0
  0
CLASS
  1
LAYOUT
  2
AcDbLayout
  3
ObjectDBX Classes
 90
        0
280
     0
281
     0
  0
CLASS
  1
SORTENTSTABLE
  2
AcDbSortentsTable
  3
ObjectDBX Classes
 90
    32768
280
     0
281
     0
  0
CLASS
  1
MATERIAL
  2
AcDbMaterial
  3
ObjectDBX Classes
 90
     1153
280
     0
281
     0
  0
CLASS
  1
VISUALSTYLE
  2
AcDbVisualStyle
  3
ObjectDBX Classes
 90
     4095
280
     0
281
     0
  0
CLASS
  1
SCALE
  2
AcDbScale
  3
ObjectDBX Classes
 90
     1153
280
     0
281
     0
  0
CLASS
  1
MLEADERSTYLE
  2
AcDbMLeaderStyle
  3
ACDB_MLEADERSTYLE_CLASS
 90
     4095
280
     0
281
     0
  0
CLASS
  1
CELLSTYLEMAP
  2
AcDbCellStyleMap
  3
ObjectDBX Classes
 90
     1152
280
     0
281
     0
  0
CLASS
  1
SUN
  2
AcDbSun
  3
SCENEOE
 90
     1153
280
     0
281
     0
  0
CLASS
  1
XRECORD
  2
AcDbXrecord
  3
ObjectDBX Classes
 90
    32768
280
     0
281
     0
  0
ENDSEC
  0
SECTION
  2
TABLES
  0
TABLE
  2
VPORT
  5
8
330
0
100
AcDbSymbolTable
 70
     1
  0
VPORT
  5
1C43
330
8
100
AcDbSymbolTableRecord
100
AcDbViewportTableRecord
  2
*ACTIVE
 70
     0
 10
0.0
 20
0.0
 11
1.0
 21
1.0
 12
-591.4179817066095
 22
-10.11731899292651
 13
0.0
 23
0.0
 14
1.0
 24
1.0
 15
0.0
 25
0.0
 16
0.0
 26
0.0
 36
1.0
 17
0.0
 27
0.0
 37
0.0
 40
251.4064740739428
 41
2.152122641509434
 42
50.0
 43
0.0
 44
0.0
 50
0.0
 51
0.0
 71
    16
 72
   100
 73
     1
 74
     1
 75
     0
 76
     0
 77
     0
 78
     0
1001
ACAD_NAV_VCDISPLAY
1070
     3
  0
ENDTAB
  0
TABLE
  2
LTYPE
  5
5
330
0
100
AcDbSymbolTable
 70
     4
  0
LTYPE
  5
12
330
5
100
AcDbSymbolTableRecord
100
AcDbLinetypeTableRecord
  2
BYBLOCK
 70
     0
  3

 72
    65
 73
     0
 40
0.0
  0
LTYPE
  5
13
330
5
100
AcDbSymbolTableRecord
100
AcDbLinetypeTableRecord
  2
BYLAYER
 70
     0
  3

 72
    65
 73
     0
 40
0.0
  0
LTYPE
  5
14
330
5
100
AcDbSymbolTableRecord
100
AcDbLinetypeTableRecord
  2
CONTINUOUS
 70
     0
  3
Solid line
 72
    65
 73
     0
 40
0.0
  0
LTYPE
  5
C86
330
5
100
AcDbSymbolTableRecord
100
AcDbLinetypeTableRecord
  2
HIDDEN
 70
     0
  3
Hidden __ __ __ __ __ __ __ __ __ __ __ __ __ _
 72
    65
 73
     2
 40
9.524999999999999
 49
6.35
 74
     0
 49
-3.175
 74
     0
  0
LTYPE
  5
C87
330
5
100
AcDbSymbolTableRecord
100
AcDbLinetypeTableRecord
  2
PHANTOM2
 70
     0
  3
Phantom (0.5x) ___ _ _ ___ _ _ ___ _ _ ___ _ _
 72
    65
 73
     6
 40
31.75
 49
15.875
 74
     0
 49
-3.175
 74
     0
 49
3.175
 74
     0
 49
-3.175
 74
     0
 49
3.175
 74
     0
 49
-3.175
 74
     0
  0
LTYPE
  5
19AD
330
5
100
AcDbSymbolTableRecord
100
AcDbLinetypeTableRecord
  2
CENTER2
 70
     0
  3
Center (.5x) ___ _ ___ _ ___ _ ___ _ ___ _ ___
 72
    65
 73
     4
 40
28.575
 49
19.05
 74
     0
 49
-3.175
 74
     0
 49
3.175
 74
     0
 49
-3.175
 74
     0
  0
ENDTAB
  0
TABLE
  2
LAYER
  5
2
102
{ACAD_XDICTIONARY
360
2386
102
}
330
0
100
AcDbSymbolTable
 70
     7
  0
LAYER
  5
E
102
{ACAD_XDICTIONARY
360
222F
102
}
330
2
100
AcDbSymbolTableRecord
100
AcDbLayerTableRecord
  2
0
 70
     0
 62
     7
  6
CONTINUOUS
  0
LAYER
  5
C88
102
{ACAD_XDICTIONARY
360
2231
102
}
330
2
100
AcDbSymbolTableRecord
100
AcDbLayerTableRecord
  2
1CENTER
 70
     0
 62
     7
  6
CENTER2
  0
LAYER
  5
C89
102
{ACAD_XDICTIONARY
360
2233
102
}
330
2
100
AcDbSymbolTableRecord
100
AcDbLayerTableRecord
  2
1DIM
 70
     0
 62
     7
  6
CONTINUOUS
  0
LAYER
  5
C8A
102
{ACAD_XDICTIONARY
360
2235
102
}
330
2
100
AcDbSymbolTableRecord
100
AcDbLayerTableRecord
  2
1HIDDEN
 70
     0
 62
     7
  6
HIDDEN
  0
LAYER
  5
C8B
102
{ACAD_XDICTIONARY
360
2237
102
}
330
2
100
AcDbSymbolTableRecord
100
AcDbLayerTableRecord
  2
1PHANTOM
 70
     0
 62
     7
  6
PHANTOM2
  0
LAYER
  5
C8C
102
{ACAD_XDICTIONARY
360
2239
102
}
330
2
100
AcDbSymbolTableRecord
100
AcDbLayerTableRecord
  2
1TEXT
 70
     0
 62
     7
  6
CONTINUOUS
  0
LAYER
  5
23FD
330
2
100
AcDbSymbolTableRecord
100
AcDbLayerTableRecord
  2
01
 70
     0
 62
     1
  6
CONTINUOUS
  0
ENDTAB
  0
TABLE
  2
STYLE
  5
3
330
0
100
AcDbSymbolTable
 70
     1
  0
STYLE
  5
F
330
3
100
AcDbSymbolTableRecord
100
AcDbTextStyleTableRecord
  2
STANDARD
 70
     0
 40
0.0
 41
1.0
 50
0.0
 71
     0
 42
4.0
  3
txt.shx
  4
extfont.shx
  0
ENDTAB
  0
TABLE
  2
VIEW
  5
6
330
0
100
AcDbSymbolTable
 70
     0
  0
ENDTAB
  0
TABLE
  2
UCS
  5
7
330
0
100
AcDbSymbolTable
 70
     0
  0
ENDTAB
  0
TABLE
  2
APPID
  5
9
330
0
100
AcDbSymbolTable
 70
    15
  0
APPID
  5
10
330
9
100
AcDbSymbolTableRecord
100
AcDbRegAppTableRecord
  2
ACAD
 70
     0
  0
APPID
  5
C6D
330
9
100
AcDbSymbolTableRecord
100
AcDbRegAppTableRecord
  2
CONTENTTABDATA
 70
     0
  0
APPID
  5
C6E
330
9
100
AcDbSymbolTableRecord
100
AcDbRegAppTableRecord
  2
CONTENTCURRENTTAB
 70
     0
  0
APPID
  5
C80
330
9
100
AcDbSymbolTableRecord
100
AcDbRegAppTableRecord
  2
DRAWINGVARIABLESXDATA
 70
     0
  0
APPID
  5
CB3
330
9
100
AcDbSymbolTableRecord
100
AcDbRegAppTableRecord
  2
CONTENTBLOCKDESCRIPTION
 70
     0
  0
APPID
  5
CB4
330
9
100
AcDbSymbolTableRecord
100
AcDbRegAppTableRecord
  2
CONTENTBLOCKICON
 70
     0
  0
APPID
  5
14AF
330
9
100
AcDbSymbolTableRecord
100
AcDbRegAppTableRecord
  2
CONTENTLONGBLOCKNAME
 70
     0
  0
APPID
  5
19C4
330
9
100
AcDbSymbolTableRecord
100
AcDbRegAppTableRecord
  2
ACAD_PSEXT
 70
     0
  0
APPID
  5
1CA4
330
9
100
AcDbSymbolTableRecord
100
AcDbRegAppTableRecord
  2
ACAD_MLEADERVER
 70
     0
  0
APPID
  5
2C02
330
9
100
AcDbSymbolTableRecord
100
AcDbRegAppTableRecord
  2
ACAD_NAV_VCDISPLAY
 70
     0
  0
APPID
  5
2C03
330
9
100
AcDbSymbolTableRecord
100
AcDbRegAppTableRecord
  2
ACAD_EXEMPT_FROM_CAD_STAND
 70
     0
  0
APPID
  5
3A54
330
9
100
AcDbSymbolTableRecord
100
AcDbRegAppTableRecord
  2
ACDBBLOCKREPETAG
 70
     0
  0
APPID
  5
3A55
330
9
100
AcDbSymbolTableRecord
100
AcDbRegAppTableRecord
  2
ACADANNOTATIVE
 70
     0
  0
APPID
  5
3A56
330
9
100
AcDbSymbolTableRecord
100
AcDbRegAppTableRecord
  2
ACLAYERTOOLS
 70
     0
  0
APPID
  5
3A57
330
9
100
AcDbSymbolTableRecord
100
AcDbRegAppTableRecord
  2
ACAD_DSTYLE_DIMJOGGED_JOGA
 70
     0
  0
ENDTAB
  0
TABLE
  2
DIMSTYLE
  5
A
330
0
100
AcDbSymbolTable
 70
     1
  0
DIMSTYLE
105
CA1
330
A
100
AcDbSymbolTableRecord
100
AcDbDimStyleTableRecord
  2
NEWX10
 70
     0
  3
 
  4

  5

  6
OPEN30
  7
OPEN30
 40
1.0
 41
2.0
 42
0.0
 43
7.0
 44
1.0
 45
0.0
 46
0.0
 47
0.0
 48
0.0
140
3.5
141
0.0
142
0.0
143
25.4
144
1.0
145
0.0
146
0.7
147
0.7
 71
     0
 72
     0
 73
     0
 74
     0
 75
     0
 76
     0
 77
     1
 78
     8
170
     0
171
     2
172
     1
173
     1
174
     0
175
     0
176
   256
177
   256
178
   201
270
     2
271
     2
272
     4
273
     2
274
     2
340
F
275
     0
280
     0
281
     0
282
     0
283
     1
284
     8
285
     0
286
     0
287
     2
288
     0
  0
ENDTAB
  0
TABLE
  2
BLOCK_RECORD
  5
1
330
0
100
AcDbSymbolTable
 70
     8
  0
BLOCK_RECORD
  5
18
102
{ACAD_XDICTIONARY
360
1B66
102
}
330
1
100
AcDbSymbolTableRecord
100
AcDbBlockTableRecord
  2
*MODEL_SPACE
  0
BLOCK_RECORD
  5
15
330
1
100
AcDbSymbolTableRecord
100
AcDbBlockTableRecord
  2
*PAPER_SPACE
  0
BLOCK_RECORD
  5
C9B
330
1
100
AcDbSymbolTableRecord
100
AcDbBlockTableRecord
  2
_OPEN30
  0
BLOCK_RECORD
  5
35FE
330
1
100
AcDbSymbolTableRecord
100
AcDbBlockTableRecord
  2
A3WAKUKAWAJUN2017_HYOUDAI_
  0
BLOCK_RECORD
  5
3E77
330
1
100
AcDbSymbolTableRecord
100
AcDbBlockTableRecord
  2
*X35
  0
BLOCK_RECORD
  5
3EC5
330
1
100
AcDbSymbolTableRecord
100
AcDbBlockTableRecord
  2
*X36
  0
BLOCK_RECORD
  5
3F17
330
1
100
AcDbSymbolTableRecord
100
AcDbBlockTableRecord
  2
*X37
  0
BLOCK_RECORD
  5
3F68
330
1
100
AcDbSymbolTableRecord
100
AcDbBlockTableRecord
  2
*X38
  0
BLOCK_RECORD
  5
3FA5
330
1
100
AcDbSymbolTableRecord
100
AcDbBlockTableRecord
  2
*X39
  0
BLOCK_RECORD
  5
3FE5
330
1
100
AcDbSymbolTableRecord
100
AcDbBlockTableRecord
  2
*X40
  0
ENDTAB
  0
ENDSEC
  0
SECTION
  2
BLOCKS
  0
BLOCK
  5
19
330
18
100
AcDbEntity
  8
0
100
AcDbBlockBegin
  2
*MODEL_SPACE
 70
     0
 10
0.0
 20
0.0
 30
0.0
  3
*MODEL_SPACE
  1

  0
ENDBLK
  5
1A
330
18
100
AcDbEntity
  8
0
100
AcDbBlockEnd
  0
BLOCK
  5
16
330
15
100
AcDbEntity
 67
     1
  8
0
100
AcDbBlockBegin
  2
*PAPER_SPACE
 70
     0
 10
0.0
 20
0.0
 30
0.0
  3
*PAPER_SPACE
  1

  0
ENDBLK
  5
17
330
15
100
AcDbEntity
 67
     1
  8
0
100
AcDbBlockEnd
  0
BLOCK
  5
C9C
330
C9B
100
AcDbEntity
  8
0
100
AcDbBlockBegin
  2
_OPEN30
 70
     0
 10
0.0
 20
0.0
 30
0.0
  3
_OPEN30
  1

  0
LINE
  5
C9D
330
C9B
100
AcDbEntity
  8
0
  6
BYBLOCK
 62
     0
100
AcDbLine
 10
-1.0
 20
0.26794919
 30
0.0
 11
0.0
 21
0.0
 31
0.0
  0
LINE
  5
C9E
330
C9B
100
AcDbEntity
  8
0
  6
BYBLOCK
 62
     0
100
AcDbLine
 10
0.0
 20
0.0
 30
0.0
 11
-1.0
 21
-0.26794919
 31
0.0
  0
LINE
  5
C9F
330
C9B
100
AcDbEntity
  8
0
  6
BYBLOCK
 62
     0
100
AcDbLine
 10
0.0
 20
0.0
 30
0.0
 11
-1.0
 21
0.0
 31
0.0
  0
ENDBLK
  5
CA0
330
C9B
100
AcDbEntity
  8
0
100
AcDbBlockEnd
  0
BLOCK
  5
35FF
330
35FE
100
AcDbEntity
  8
0
100
AcDbBlockBegin
  2
A3WAKUKAWAJUN2017_HYOUDAI_
 70
     0
 10
0.0
 20
0.0
 30
0.0
  3
A3WAKUKAWAJUN2017_HYOUDAI_
  1

  0
LINE
  5
3600
330
35FE
100
AcDbEntity
  8
0
100
AcDbLine
 10
13.26299999998673
 20
-0.0001000000000317
 30
0.0
 11
9.236999999990758
 21
8.999899999990987
 31
0.0
1001
ACAD
1000
ASC_BOUNDS
1002
{
1070
    19
1005
3641
1002
}
  0
LINE
  5
3601
330
35FE
100
AcDbEntity
  8
0
100
AcDbLine
 10
5.657999999994331
 20
0.9999999999989768
 30
0.0
 11
9.236999999990758
 21
8.999999999991019
 31
0.0
1001
ACAD
1000
ASC_BOUNDS
1002
{
1070
    19
1005
3641
1002
}
  0
LINE
  5
3602
330
35FE
100
AcDbEntity
  8
0
100
AcDbLine
 10
18.59199999998134
 20
-0.2368999999997641
 30
0.0
 11
16.46099999998353
 21
5.432899999994561
 31
0.0
1001
ACAD
1000
ASC_BOUNDS
1002
{
1070
    19
1005
3642
1002
}
  0
LINE
  5
3603
330
35FE
100
AcDbEntity
  8
0
100
AcDbLine
 10
18.59199999998134
 20
-0.2368999999997641
 30
0.0
 11
22.38199999997767
 21
8.763099999991255
 31
0.0
1001
ACAD
1000
ASC_BOUNDS
1002
{
1070
    19
1005
3642
1002
}
  0
LINE
  5
3604
330
35FE
100
AcDbEntity
  8
0
100
AcDbLine
 10
14.32899999998563
 20
-0.2368999999997641
 30
0.0
 11
16.46099999998353
 21
5.432899999994561
 31
0.0
1001
ACAD
1000
ASC_BOUNDS
1002
{
1070
    19
1005
3642
1002
}
  0
LINE
  5
3605
330
35FE
100
AcDbEntity
  8
0
100
AcDbLine
 10
14.32899999998563
 20
-0.2368999999997641
 30
0.0
 11
10.53899999998941
 21
8.763099999991255
 31
0.0
1001
ACAD
1000
ASC_BOUNDS
1002
{
1070
    19
1005
3642
1002
}
  0
LINE
  5
3606
330
35FE
100
AcDbEntity
  8
0
100
AcDbLine
 10
19.53899999998043
 20
-0.0001000000000317
 30
0.0
 11
23.56599999997638
 21
8.999899999990987
 31
0.0
1001
ACAD
1000
ASC_BOUNDS
1002
{
1070
    19
1005
3643
1002
}
  0
LINE
  5
3607
330
35FE
100
AcDbEntity
  8
0
100
AcDbLine
 10
26.97358892824991
 20
1.383099999991202
 30
0.0
 11
23.56599999997638
 21
8.999899999990987
 31
0.0
1001
ACAD
1000
ASC_BOUNDS
1002
{
1070
    19
1005
3643
1002
}
  0
LINE
  5
3608
330
35FE
100
AcDbEntity
  8
0
100
AcDbLine
 10
5.657999999994331
 20
0.9999999999989768
 30
0.0
 11
3.181999999996833
 21
4.668599999995308
 31
0.0
1001
ACAD
1000
ASC_BOUNDS
1002
{
1070
    19
1005
3641
1002
}
  0
LINE
  5
3609
330
35FE
100
AcDbEntity
  8
0
100
AcDbLine
 10
4.617999999995391
 20
-0.0001000000000317
 30
0.0
 11
1.420999999998571
 21
4.736799999995242
 31
0.0
1001
ACAD
1000
ASC_BOUNDS
1002
{
1070
    19
1005
3641
1002
}
  0
LINE
  5
360A
330
35FE
100
AcDbEntity
  8
0
100
AcDbLine
 10
1.420999999998571
 20
8.763099999991255
 30
0.0
 11
1.420999999998571
 21
0.0
 31
0.0
1001
ACAD
1000
ASC_BOUNDS
1002
{
1070
    19
1005
3646
1002
}
  0
LINE
  5
360B
330
35FE
100
AcDbEntity
  8
0
100
AcDbLine
 10
0.0
 20
8.763099999991255
 30
0.0
 11
0.0
 21
0.0
 31
0.0
1001
ACAD
1000
ASC_BOUNDS
1002
{
1070
    19
1005
3646
1002
}
  0
LINE
  5
360C
330
35FE
100
AcDbEntity
  8
0
100
AcDbLine
 10
6.766999999993232
 20
-0.0001000000000317
 30
0.0
 11
7.826999999992154
 21
2.368399999997621
 31
0.0
1001
ACAD
1000
ASC_BOUNDS
1002
{
1070
    19
1005
3641
1002
}
  0
LINE
  5
360D
330
35FE
100
AcDbEntity
  8
0
100
AcDbLine
 10
0.0
 20
0.0
 30
0.0
 11
1.420999999998571
 21
0.0
 31
0.0
1001
ACAD
1000
ASC_BOUNDS
1002
{
1070
    19
1005
3646
1002
}
  0
LINE
  5
360E
330
35FE
100
AcDbEntity
  8
0
100
AcDbLine
 10
4.617999999995391
 20
0.0
 30
0.0
 11
6.766999999993232
 21
0.0
 31
0.0
1001
ACAD
1000
ASC_BOUNDS
1002
{
1070
    19
1005
3641
1002
}
  0
LINE
  5
360F
330
35FE
100
AcDbEntity
  8
0
100
AcDbLine
 10
11.70599999998831
 20
-0.0001000000000317
 30
0.0
 11
10.64699999998936
 21
2.368399999997621
 31
0.0
1001
ACAD
1000
ASC_BOUNDS
1002
{
1070
    19
1005
3641
1002
}
  0
LINE
  5
3610
330
35FE
100
AcDbEntity
  8
0
100
AcDbLine
 10
7.826999999992154
 20
2.368399999997621
 30
0.0
 11
10.64699999998936
 21
2.368399999997621
 31
0.0
1001
ACAD
1000
ASC_BOUNDS
1002
{
1070
    19
1005
3641
1002
}
  0
LINE
  5
3611
330
35FE
100
AcDbEntity
  8
0
100
AcDbLine
 10
11.70599999998831
 20
0.0
 30
0.0
 11
13.26299999998673
 21
0.0
 31
0.0
1001
ACAD
1000
ASC_BOUNDS
1002
{
1070
    19
1005
3641
1002
}
  0
LINE
  5
3612
330
35FE
100
AcDbEntity
  8
0
100
AcDbLine
 10
22.15599999997789
 20
2.368399999997621
 30
0.0
 11
24.97599999997499
 21
2.368399999997621
 31
0.0
1001
ACAD
1000
ASC_BOUNDS
1002
{
1070
    19
1005
3643
1002
}
  0
LINE
  5
3613
330
35FE
100
AcDbEntity
  8
0
100
AcDbLine
 10
19.53899999998043
 20
0.0
 30
0.0
 11
21.09599999997886
 21
0.0
 31
0.0
1001
ACAD
1000
ASC_BOUNDS
1002
{
1070
    19
1005
3643
1002
}
  0
LINE
  5
3614
330
35FE
100
AcDbEntity
  8
0
100
AcDbLine
 10
21.09599999997886
 20
-0.0001000000000317
 30
0.0
 11
22.15599999997789
 21
2.368399999997621
 31
0.0
1001
ACAD
1000
ASC_BOUNDS
1002
{
1070
    19
1005
3643
1002
}
  0
LINE
  5
3615
330
35FE
100
AcDbEntity
  8
0
100
AcDbLine
 10
26.02015566812236
 20
0.0330999999912365
 30
0.0
 11
24.97599999997499
 21
2.368399999997621
 31
0.0
1001
ACAD
1000
ASC_BOUNDS
1002
{
1070
    19
1005
3643
1002
}
  0
LINE
  5
3616
330
35FE
100
AcDbEntity
  8
0
100
AcDbLine
 10
14.32399999998563
 20
3.315799999996671
 30
0.0
 11
16.46099999998353
 21
8.999899999990987
 31
0.0
1001
ACAD
1000
ASC_BOUNDS
1002
{
1070
    19
1005
3642
1002
}
  0
LINE
  5
3617
330
35FE
100
AcDbEntity
  8
0
100
AcDbLine
 10
6.432999999993513
 20
8.763099999991255
 30
0.0
 11
3.181999999996833
 21
4.668599999995308
 31
0.0
1001
ACAD
1000
ASC_BOUNDS
1002
{
1070
    19
1005
3641
1002
}
  0
LINE
  5
3618
330
35FE
100
AcDbEntity
  8
0
100
AcDbLine
 10
4.617999999995391
 20
8.763099999991255
 30
0.0
 11
1.420999999998571
 21
4.736799999995242
 31
0.0
1001
ACAD
1000
ASC_BOUNDS
1002
{
1070
    19
1005
3641
1002
}
  0
LINE
  5
3619
330
35FE
100
AcDbEntity
  8
0
100
AcDbLine
 10
0.0
 20
8.763099999991255
 30
0.0
 11
1.420999999998571
 21
8.763099999991255
 31
0.0
1001
ACAD
1000
ASC_BOUNDS
1002
{
1070
    19
1005
3646
1002
}
  0
LINE
  5
361A
330
35FE
100
AcDbEntity
  8
0
100
AcDbLine
 10
4.617999999995391
 20
8.763099999991255
 30
0.0
 11
6.432999999993513
 21
8.763099999991255
 31
0.0
1001
ACAD
1000
ASC_BOUNDS
1002
{
1070
    19
1005
3641
1002
}
  0
LINE
  5
361B
330
35FE
100
AcDbEntity
  8
0
100
AcDbLine
 10
14.32399999998563
 20
3.315799999996671
 30
0.0
 11
12.02999999998792
 21
8.763099999991255
 31
0.0
1001
ACAD
1000
ASC_BOUNDS
1002
{
1070
    19
1005
3642
1002
}
  0
LINE
  5
361C
330
35FE
100
AcDbEntity
  8
0
100
AcDbLine
 10
10.06399999998996
 20
3.670999999996297
 30
0.0
 11
9.236999999990758
 21
5.5200999999945
 31
0.0
1001
ACAD
1000
ASC_BOUNDS
1002
{
1070
    19
1005
3641
1002
}
  0
LINE
  5
361D
330
35FE
100
AcDbEntity
  8
0
100
AcDbLine
 10
8.409999999991555
 20
3.670999999996297
 30
0.0
 11
9.236999999990758
 21
5.5200999999945
 31
0.0
1001
ACAD
1000
ASC_BOUNDS
1002
{
1070
    19
1005
3641
1002
}
  0
LINE
  5
361E
330
35FE
100
AcDbEntity
  8
0
100
AcDbLine
 10
8.409999999991555
 20
3.670999999996297
 30
0.0
 11
10.06399999998996
 21
3.670999999996297
 31
0.0
1001
ACAD
1000
ASC_BOUNDS
1002
{
1070
    19
1005
3641
1002
}
  0
LINE
  5
361F
330
35FE
100
AcDbEntity
  8
0
100
AcDbLine
 10
10.53899999998941
 20
8.763099999991255
 30
0.0
 11
12.02999999998792
 21
8.763099999991255
 31
0.0
1001
ACAD
1000
ASC_BOUNDS
1002
{
1070
    19
1005
3642
1002
}
  0
LINE
  5
3620
330
35FE
100
AcDbEntity
  8
0
100
AcDbLine
 10
22.7389999999773
 20
3.670999999996297
 30
0.0
 11
23.56599999997638
 21
5.5200999999945
 31
0.0
1001
ACAD
1000
ASC_BOUNDS
1002
{
1070
    19
1005
3643
1002
}
  0
LINE
  5
3621
330
35FE
100
AcDbEntity
  8
0
100
AcDbLine
 10
22.7389999999773
 20
3.670999999996297
 30
0.0
 11
24.39299999997559
 21
3.670999999996297
 31
0.0
1001
ACAD
1000
ASC_BOUNDS
1002
{
1070
    19
1005
3643
1002
}
  0
LINE
  5
3622
330
35FE
100
AcDbEntity
  8
0
100
AcDbLine
 10
18.59799999998143
 20
3.315799999996671
 30
0.0
 11
20.89099999997916
 21
8.763099999991255
 31
0.0
1001
ACAD
1000
ASC_BOUNDS
1002
{
1070
    19
1005
3642
1002
}
  0
LINE
  5
3623
330
35FE
100
AcDbEntity
  8
0
100
AcDbLine
 10
18.59799999998143
 20
3.315799999996671
 30
0.0
 11
16.46099999998353
 21
8.999899999990987
 31
0.0
1001
ACAD
1000
ASC_BOUNDS
1002
{
1070
    19
1005
3642
1002
}
  0
LINE
  5
3624
330
35FE
100
AcDbEntity
  8
0
100
AcDbLine
 10
20.89099999997916
 20
8.763099999991255
 30
0.0
 11
22.38199999997767
 21
8.763099999991255
 31
0.0
1001
ACAD
1000
ASC_BOUNDS
1002
{
1070
    19
1005
3642
1002
}
  0
LINE
  5
3625
330
35FE
100
AcDbEntity
  8
0
100
AcDbLine
 10
24.39299999997559
 20
3.670999999996297
 30
0.0
 11
23.56599999997638
 21
5.5200999999945
 31
0.0
1001
ACAD
1000
ASC_BOUNDS
1002
{
1070
    19
1005
3643
1002
}
  0
LINE
  5
3626
330
35FE
100
AcDbEntity
  8
0
100
AcDbLine
 10
44.99999999995498
 20
-0.2368999999997641
 30
0.0
 11
40.02599999995994
 21
5.341799999994635
 31
0.0
1001
ACAD
1000
ASC_BOUNDS
1002
{
1070
    19
1005
3645
1002
}
  0
LINE
  5
3627
330
35FE
100
AcDbEntity
  8
0
100
AcDbLine
 10
40.02599999995994
 20
5.341799999994635
 30
0.0
 11
40.02599999995994
 21
0.0
 31
0.0
1001
ACAD
1000
ASC_BOUNDS
1002
{
1070
    19
1005
3645
1002
}
  0
LINE
  5
3628
330
35FE
100
AcDbEntity
  8
0
100
AcDbLine
 10
38.60499999996136
 20
8.999999999991019
 30
0.0
 11
38.60499999996136
 21
0.0
 31
0.0
1001
ACAD
1000
ASC_BOUNDS
1002
{
1070
    19
1005
3645
1002
}
  0
LINE
  5
3629
330
35FE
100
AcDbEntity
  8
0
100
AcDbLine
 10
44.99999999995498
 20
8.763099999991255
 30
0.0
 11
44.99999999995498
 21
-0.2368999999997641
 31
0.0
1001
ACAD
1000
ASC_BOUNDS
1002
{
1070
    19
1005
3645
1002
}
  0
LINE
  5
362A
330
35FE
100
AcDbEntity
  8
0
100
AcDbLine
 10
38.60499999996136
 20
0.0
 30
0.0
 11
40.02599999995994
 21
0.0
 31
0.0
1001
ACAD
1000
ASC_BOUNDS
1002
{
1070
    19
1005
3645
1002
}
  0
LINE
  5
362B
330
35FE
100
AcDbEntity
  8
0
100
AcDbLine
 10
43.57899999995641
 20
3.421199999996588
 30
0.0
 11
38.60499999996136
 21
8.999899999990987
 31
0.0
1001
ACAD
1000
ASC_BOUNDS
1002
{
1070
    19
1005
3645
1002
}
  0
LINE
  5
362C
330
35FE
100
AcDbEntity
  8
0
100
AcDbLine
 10
43.57899999995641
 20
8.763099999991255
 30
0.0
 11
43.57899999995641
 21
3.421199999996588
 31
0.0
1001
ACAD
1000
ASC_BOUNDS
1002
{
1070
    19
1005
3645
1002
}
  0
LINE
  5
362D
330
35FE
100
AcDbEntity
  8
0
100
AcDbLine
 10
43.57899999995641
 20
8.763099999991255
 30
0.0
 11
44.99999999995498
 21
8.763099999991255
 31
0.0
1001
ACAD
1000
ASC_BOUNDS
1002
{
1070
    19
1005
3645
1002
}
  0
LINE
  5
362E
330
35FE
100
AcDbEntity
  8
0
100
AcDbLine
 10
37.67199999996831
 20
8.763099999991255
 30
0.0
 11
36.23199999996837
 21
8.763099999991255
 31
0.0
  0
LINE
  5
362F
330
35FE
100
AcDbEntity
  8
0
100
AcDbLine
 10
31.64199999996833
 20
8.763099999991255
 30
0.0
 11
31.64199999996833
 21
2.481619422925121
 31
0.0
  0
LINE
  5
3630
330
35FE
100
AcDbEntity
  8
0
100
AcDbLine
 10
37.67199999996831
 20
8.763099999991255
 30
0.0
 11
37.67199999996831
 21
2.481619422925121
 31
0.0
  0
LINE
  5
3631
330
35FE
100
AcDbEntity
  8
0
100
AcDbLine
 10
36.23199999996837
 20
8.763099999991255
 30
0.0
 11
36.23199999996837
 21
2.481619422925064
 31
0.0
  0
LINE
  5
3632
330
35FE
100
AcDbEntity
  8
0
100
AcDbLine
 10
33.08199999996839
 20
8.763099999991255
 30
0.0
 11
33.08199999996839
 21
2.481619422925121
 31
0.0
  0
ARC
  5
3633
330
35FE
100
AcDbEntity
  8
0
100
AcDbCircle
 10
34.65699999996832
 20
3.183099999991214
 30
0.0
 40
3.420000000000007
100
AcDbArc
 50
240.0000000000255
 51
299.9999999999766
  0
ARC
  5
3634
330
35FE
100
AcDbEntity
  8
0
100
AcDbCircle
 10
34.65699999996832
 20
3.183099999991214
 30
0.0
 40
1.97999999999999
100
AcDbArc
 50
240.000000000026
 51
299.9999999999703
  0
LINE
  5
3635
330
35FE
100
AcDbEntity
  8
0
100
AcDbLine
 10
33.08199999996828
 20
8.763099999991255
 30
0.0
 11
31.64199999996833
 21
8.763099999991255
 31
0.0
  0
ARC
  5
3636
330
35FE
100
AcDbEntity
  8
0
100
AcDbCircle
 10
35.06199999996829
 20
2.481619422925064
 30
0.0
 40
1.17
100
AcDbArc
 50
299.9999999999699
 51
0.0
  0
ARC
  5
3637
330
35FE
100
AcDbEntity
  8
0
100
AcDbCircle
 10
34.25199999996835
 20
2.481619422925121
 30
0.0
 40
1.17
100
AcDbArc
 50
180.0
 51
240.0000000000238
  0
ARC
  5
3638
330
35FE
100
AcDbEntity
  8
0
100
AcDbCircle
 10
35.06199999996841
 20
2.481619422925121
 30
0.0
 40
2.61
100
AcDbArc
 50
299.9999999999756
 51
0.0
  0
ARC
  5
3639
330
35FE
100
AcDbEntity
  8
0
100
AcDbCircle
 10
34.25199999996835
 20
2.481619422925121
 30
0.0
 40
2.61
100
AcDbArc
 50
180.0
 51
240.0000000000244
  0
LINE
  5
363A
330
35FE
100
AcDbEntity
  8
0
100
AcDbLine
 10
29.30199999996933
 20
8.763099999991255
 30
0.0
 11
30.74199999996927
 21
8.763099999991255
 31
0.0
1001
ACAD
1000
ASC_BOUNDS
1002
{
1070
    19
1005
3643
1002
}
  0
LINE
  5
363B
330
35FE
100
AcDbEntity
  8
0
100
AcDbLine
 10
30.74199999996927
 20
8.763099999991255
 30
0.0
 11
30.74199999996927
 21
2.373099999991211
 31
0.0
1001
ACAD
1000
ASC_BOUNDS
1002
{
1070
    19
1005
3643
1002
}
  0
LINE
  5
363C
330
35FE
100
AcDbEntity
  8
0
100
AcDbLine
 10
26.02015566812236
 20
0.0330999999912365
 30
0.0
 11
28.40199999996923
 21
0.0330999999912365
 31
0.0
1001
ACAD
1000
ASC_BOUNDS
1002
{
1070
    19
1005
3643
1002
}
  0
LINE
  5
363D
330
35FE
100
AcDbEntity
  8
0
100
AcDbLine
 10
29.30199999996933
 20
8.763099999991255
 30
0.0
 11
29.30199999996933
 21
2.283099999991236
 31
0.0
1001
ACAD
1000
ASC_BOUNDS
1002
{
1070
    19
1005
3643
1002
}
  0
LINE
  5
363E
330
35FE
100
AcDbEntity
  8
0
100
AcDbLine
 10
26.97358892824991
 20
1.383099999991202
 30
0.0
 11
28.40199999996923
 21
1.383099999991202
 31
0.0
1001
ACAD
1000
ASC_BOUNDS
1002
{
1070
    19
1005
3643
1002
}
  0
ARC
  5
363F
330
35FE
100
AcDbEntity
  8
0
100
AcDbCircle
 10
28.40199999996923
 20
2.283099999991236
 30
0.0
 40
0.9
100
AcDbArc
 50
270.0
 51
0.0
1001
ACAD
1000
ASC_BOUNDS
1002
{
1070
    19
1005
3643
1002
}
  0
ARC
  5
3640
330
35FE
100
AcDbEntity
  8
0
100
AcDbCircle
 10
28.40199999996923
 20
2.373099999991211
 30
0.0
 40
2.34
100
AcDbArc
 50
270.0
 51
0.0
1001
ACAD
1000
ASC_BOUNDS
1002
{
1070
    19
1005
3643
1002
}
  0
INSERT
  5
3641
330
35FE
100
AcDbEntity
  8
0
100
AcDbBlockReference
  2
*X35
 10
0.0
 20
0.0
 30
0.0
1001
ACAD
1000
HATCH
1002
{
1070
    19
1000
ANSI37
1040
0.15
1040
0.0
1000
ASC_BOUNDS
1070
     2
1070
     2
1070
    12
1005
3600
1005
3601
1005
3608
1005
3617
1005
361A
1005
3618
1005
3609
1005
360E
1005
360C
1005
3610
1005
360F
1005
3611
1070
     2
1070
     3
1005
361C
1005
361E
1005
361D
1000
ASC_SEEDPOINT
1011
3.614004224891801
1021
2.996669441146025
1031
0.0
1000
R14_HATCH_DATA
1000
3641
1011
1.0
1021
0.0
1031
0.0
1011
0.0
1021
1.0
1031
0.0
1011
0.0
1021
0.0
1031
1.0
1040
0.0
1010
0.0
1020
0.0
1030
1.0
1000
ANSI37
1070
     0
1070
     1
1071
        2
1071
        7
1070
     0
1070
     1
1071
       17
1040
13.26299999998673
1040
-0.0001000000000317
1040
9.236999999990758
1040
8.999899999990987
1040
9.236999999990758
1040
8.999999999991019
1040
5.657999999994331
1040
0.9999999999989768
1040
3.181999999996833
1040
4.668599999995308
1040
6.432999999993513
1040
8.763099999991255
1040
4.617999999995391
1040
8.763099999991255
1040
1.420999999998571
1040
4.736799999995242
1040
4.617999999995391
1040
-0.0001000000000317
1040
4.617999999995391
1040
0.0
1040
6.766999999993232
1040
0.0
1040
6.766999999993232
1040
-0.0001000000000317
1040
7.826999999992154
1040
2.368399999997621
1040
10.64699999998936
1040
2.368399999997621
1040
11.70599999998831
1040
-0.0001000000000317
1040
11.70599999998831
1040
0.0
1040
13.26299999998673
1040
0.0
1071
       12
1005
3600
1005
3601
1005
3608
1005
3617
1005
361A
1005
3618
1005
3609
1005
360E
1005
360C
1005
3610
1005
360F
1005
3611
1071
       22
1070
     0
1070
     1
1071
        3
1040
9.236999999990758
1040
5.5200999999945
1040
10.06399999998996
1040
3.670999999996297
1040
8.409999999991555
1040
3.670999999996297
1071
        3
1005
361C
1005
361E
1005
361D
1070
     0
1070
     1
1040
0.0
1040
0.15
1070
     0
1070
     2
1040
0.7853981633974483
1040
49.29960901727088
1040
-10.17736998311392
1040
-0.3367596045400932
1040
0.3367596045400932
1070
     0
1040
2.356194490192345
1040
49.29960901727088
1040
-10.17736998311392
1040
-0.3367596045400932
1040
-0.3367596045400932
1070
     0
1040
0.0110235143455945
1071
        2
1040
3.614004224891801
1040
2.996669441146025
1040
0.0
1040
3.614004224891801
1040
2.996669441146025
1040
0.0
1002
}
  0
INSERT
  5
3642
330
35FE
100
AcDbEntity
  8
0
100
AcDbBlockReference
  2
*X36
 10
0.0
 20
0.0
 30
0.0
1001
ACAD
1000
HATCH
1002
{
1070
    19
1000
ANSI37
1040
0.15
1040
0.0
1000
ASC_BOUNDS
1070
     1
1070
     2
1070
    10
1005
3602
1005
3603
1005
3624
1005
3622
1005
3623
1005
3616
1005
361B
1005
361F
1005
3605
1005
3604
1000
ASC_SEEDPOINT
1011
14.73245321214324
1021
2.798246178283421
1031
0.0
1000
R14_HATCH_DATA
1000
3642
1011
1.0
1021
0.0
1031
0.0
1011
0.0
1021
1.0
1031
0.0
1011
0.0
1021
0.0
1031
1.0
1040
0.0
1010
0.0
1020
0.0
1030
1.0
1000
ANSI37
1070
     0
1070
     1
1071
        1
1071
        7
1070
     0
1070
     1
1071
       10
1040
16.46099999998353
1040
5.432899999994561
1040
18.59199999998134
1040
-0.2368999999997641
1040
22.38199999997767
1040
8.763099999991255
1040
20.89099999997916
1040
8.763099999991255
1040
18.59799999998143
1040
3.315799999996671
1040
16.46099999998353
1040
8.999899999990987
1040
14.32399999998563
1040
3.315799999996671
1040
12.02999999998792
1040
8.763099999991255
1040
10.53899999998941
1040
8.763099999991255
1040
14.32899999998563
1040
-0.2368999999997641
1071
       10
1005
3602
1005
3603
1005
3624
1005
3622
1005
3623
1005
3616
1005
361B
1005
361F
1005
3605
1005
3604
1070
     0
1070
     1
1040
0.0
1040
0.15
1070
     0
1070
     2
1040
0.7853981633974483
1040
49.29960901727088
1040
-10.17736998311392
1040
-0.3367596045400932
1040
0.3367596045400932
1070
     0
1040
2.356194490192345
1040
49.29960901727088
1040
-10.17736998311392
1040
-0.3367596045400932
1040
-0.3367596045400932
1070
     0
1040
0.0110235143455945
1071
        1
1040
14.73245321214324
1040
2.798246178283421
1040
0.0
1002
}
  0
INSERT
  5
3643
330
35FE
100
AcDbEntity
  8
0
100
AcDbBlockReference
  2
*X37
 10
0.0
 20
0.0
 30
0.0
1001
ACAD
1000
HATCH
1002
{
1070
    19
1000
ANSI37
1040
0.15
1040
0.0
1000
ASC_BOUNDS
1070
     2
1070
     2
1070
    13
1005
3606
1005
3613
1005
3614
1005
3612
1005
3615
1005
363C
1005
3640
1005
363B
1005
363A
1005
363D
1005
363F
1005
363E
1005
3607
1070
     2
1070
     3
1005
3620
1005
3625
1005
3621
1000
ASC_SEEDPOINT
1011
21.97929957367762
1021
3.294304244259308
1031
0.0
1000
R14_HATCH_DATA
1000
3643
1011
1.0
1021
0.0
1031
0.0
1011
0.0
1021
1.0
1031
0.0
1011
0.0
1021
0.0
1031
1.0
1040
0.0
1010
0.0
1020
0.0
1030
1.0
1000
ANSI37
1070
     0
1070
     1
1071
        2
1071
        7
1070
     1
1070
     1
1071
       15
1040
23.56599999997638
1040
8.999899999990987
1040
0.0
1040
19.53899999998043
1040
-0.0001000000000317
1040
0.0
1040
19.53899999998043
1040
0.0
1040
0.0
1040
21.09599999997886
1040
0.0
1040
0.0
1040
21.09599999997886
1040
-0.0001000000000317
1040
0.0
1040
22.15599999997789
1040
2.368399999997621
1040
0.0
1040
24.97599999997499
1040
2.368399999997621
1040
0.0
1040
26.02015566812236
1040
0.0330999999912365
1040
0.0
1040
28.40199999996923
1040
0.0330999999912365
1040
0.414213562373095
1040
30.74199999996923
1040
2.373099999991211
1040
0.0
1040
30.74199999996927
1040
8.763099999991255
1040
0.0
1040
29.30199999996933
1040
8.763099999991255
1040
0.0
1040
29.30199999996933
1040
2.283099999991236
1040
-0.414213562373095
1040
28.40199999996923
1040
1.383099999991237
1040
0.0
1040
26.97358892824991
1040
1.383099999991202
1040
0.0
1071
       13
1005
3606
1005
3613
1005
3614
1005
3612
1005
3615
1005
363C
1005
3640
1005
363B
1005
363A
1005
363D
1005
363F
1005
363E
1005
3607
1071
       22
1070
     0
1070
     1
1071
        3
1040
22.7389999999773
1040
3.670999999996297
1040
23.56599999997638
1040
5.5200999999945
1040
24.39299999997559
1040
3.670999999996297
1071
        3
1005
3620
1005
3625
1005
3621
1070
     0
1070
     1
1040
0.0
1040
0.15
1070
     0
1070
     2
1040
0.7853981633974483
1040
49.29960901727088
1040
-10.17736998311392
1040
-0.3367596045400932
1040
0.3367596045400932
1070
     0
1040
2.356194490192345
1040
49.29960901727088
1040
-10.17736998311392
1040
-0.3367596045400932
1040
-0.3367596045400932
1070
     0
1040
0.0110235143455945
1071
        2
1040
21.97929957367762
1040
3.294304244259308
1040
0.0
1040
21.97929957367762
1040
3.294304244259308
1040
0.0
1002
}
  0
INSERT
  5
3644
330
35FE
100
AcDbEntity
  8
0
100
AcDbBlockReference
  2
*X38
 10
0.0
 20
0.0
 30
0.0
1001
ACAD
1000
HATCH
1002
{
1070
    19
1000
ANSI37
1040
0.15
1040
0.0
1000
R14_HATCH_DATA
1000
3644
1011
1.0
1021
0.0
1031
0.0
1011
0.0
1021
1.0
1031
0.0
1011
0.0
1021
0.0
1031
1.0
1040
0.0
1010
0.0
1020
0.0
1030
1.0
1000
ANSI37
1070
     0
1070
     1
1071
        1
1071
        7
1070
     1
1070
     1
1071
       12
1040
31.64199999996833
1040
2.481619422925121
1040
0.2679491924310942
1040
32.94699999997067
1040
0.2212931190493919
1040
0.2679491924301353
1040
36.36699999995983
1040
0.2212931190459813
1040
0.2679491924321411
1040
37.67199999996831
1040
2.481619422928361
1040
0.0
1040
37.67199999996831
1040
8.763099999991255
1040
0.0
1040
36.23199999996837
1040
8.763099999991255
1040
0.0
1040
36.23199999996837
1040
2.481619422925064
1040
-0.2679491924310291
1040
35.64699999996708
1040
1.468369700498386
1040
-0.267949192430519
1040
33.66699999997093
1040
1.468369700497703
1040
-0.267949192431809
1040
33.08199999996839
1040
2.481619422926997
1040
0.0
1040
33.08199999996839
1040
8.763099999991255
1040
0.0
1040
31.64199999996833
1040
8.763099999991255
1040
0.0
1071
        0
1070
     0
1070
     1
1040
0.0
1040
0.15
1070
     0
1070
     2
1040
0.7853981633974483
1040
49.29960901727088
1040
-10.17736998311392
1040
-0.3367596045400932
1040
0.3367596045400932
1070
     0
1040
2.356194490192345
1040
49.29960901727088
1040
-10.17736998311392
1040
-0.3367596045400932
1040
-0.3367596045400932
1070
     0
1040
0.0110235143455945
1071
        1
1040
32.30357378967278
1040
3.988785755459219
1040
0.0
1002
}
  0
INSERT
  5
3645
330
35FE
100
AcDbEntity
  8
0
100
AcDbBlockReference
  2
*X39
 10
0.0
 20
0.0
 30
0.0
1001
ACAD
1000
HATCH
1002
{
1070
    19
1000
ANSI37
1040
0.15
1040
0.0
1000
ASC_BOUNDS
1070
     1
1070
     2
1070
     8
1005
3626
1005
3629
1005
362D
1005
362C
1005
362B
1005
3628
1005
362A
1005
3627
1000
ASC_SEEDPOINT
1011
39.74896370716704
1021
4.484843821435049
1031
0.0
1000
R14_HATCH_DATA
1000
3645
1011
1.0
1021
0.0
1031
0.0
1011
0.0
1021
1.0
1031
0.0
1011
0.0
1021
0.0
1031
1.0
1040
0.0
1010
0.0
1020
0.0
1030
1.0
1000
ANSI37
1070
     0
1070
     1
1071
        1
1071
        7
1070
     0
1070
     1
1071
        9
1040
40.02599999995994
1040
5.341799999994635
1040
44.99999999995498
1040
-0.2368999999997641
1040
44.99999999995498
1040
8.763099999991255
1040
43.57899999995641
1040
8.763099999991255
1040
43.57899999995641
1040
3.421199999996588
1040
38.60499999996136
1040
8.999899999990987
1040
38.60499999996136
1040
8.999999999991019
1040
38.60499999996136
1040
0.0
1040
40.02599999995994
1040
0.0
1071
        8
1005
3626
1005
3629
1005
362D
1005
362C
1005
362B
1005
3628
1005
362A
1005
3627
1070
     0
1070
     1
1040
0.0
1040
0.15
1070
     0
1070
     2
1040
0.7853981633974483
1040
49.29960901727088
1040
-10.17736998311392
1040
-0.3367596045400932
1040
0.3367596045400932
1070
     0
1040
2.356194490192345
1040
49.29960901727088
1040
-10.17736998311392
1040
-0.3367596045400932
1040
-0.3367596045400932
1070
     0
1040
0.0110235143455945
1071
        1
1040
39.74896370716704
1040
4.484843821435049
1040
0.0
1002
}
  0
INSERT
  5
3646
330
35FE
100
AcDbEntity
  8
0
100
AcDbBlockReference
  2
*X40
 10
0.0
 20
0.0
 30
0.0
1001
ACAD
1000
HATCH
1002
{
1070
    19
1000
ANSI37
1040
0.15
1040
0.0
1000
ASC_BOUNDS
1070
     1
1070
     2
1070
     4
1005
360A
1005
3619
1005
360B
1005
360D
1000
ASC_SEEDPOINT
1011
1.079051535452663
1021
4.148538732891836
1031
0.0
1000
R14_HATCH_DATA
1000
3646
1011
1.0
1021
0.0
1031
0.0
1011
0.0
1021
1.0
1031
0.0
1011
0.0
1021
0.0
1031
1.0
1040
0.0
1010
0.0
1020
0.0
1030
1.0
1000
ANSI37
1070
     0
1070
     1
1071
        1
1071
        7
1070
     0
1070
     1
1071
        4
1040
1.420999999998571
1040
0.0
1040
1.420999999998571
1040
8.763099999991255
1040
0.0
1040
8.763099999991255
1040
0.0
1040
0.0
1071
        4
1005
360A
1005
3619
1005
360B
1005
360D
1070
     0
1070
     1
1040
0.0
1040
0.15
1070
     0
1070
     2
1040
0.7853981633974483
1040
49.29960901727088
1040
-10.17736998311392
1040
-0.3367596045400932
1040
0.3367596045400932
1070
     0
1040
2.356194490192345
1040
49.29960901727088
1040
-10.17736998311392
1040
-0.3367596045400932
1040
-0.3367596045400932
1070
     0
1040
0.0053004257112761
1071
        1
1040
1.079051535452663
1040
4.148538732891836
1040
0.0
1002
}
  0
ENDBLK
  5
3647
330
35FE
100
AcDbEntity
  8
0
100
AcDbBlockEnd
  0
BLOCK
  5
4005
330
3E77
100
AcDbEntity
  8
0
100
AcDbBlockBegin
  2
*X35
 70
     1
 10
0.0
 20
0.0
 30
0.0
  3
*X35
  1

  0
LINE
  5
3E78
330
3E77
100
AcDbEntity
  8
0
  6
CONTINUOUS
100
AcDbLine
 10
3.418023043697893
 20
7.251849696850613
 30
0.0
 11
4.929273346838536
 21
8.763099999991255
 31
0.0
  0
LINE
  5
3E79
330
3E77
100
AcDbEntity
  8
0
  6
CONTINUOUS
100
AcDbLine
 10
1.483656411257782
 20
4.643963855330318
 30
0.0
 11
5.60279255591872
 21
8.763099999991255
 31
0.0
  0
LINE
  5
3E7A
330
3E77
100
AcDbEntity
  8
0
  6
CONTINUOUS
100
AcDbLine
 10
1.755053947328235
 20
4.241842182320584
 30
0.0
 11
6.276311764998907
 21
8.763099999991255
 31
0.0
  0
LINE
  5
3E7B
330
3E77
100
AcDbEntity
  8
0
  6
CONTINUOUS
100
AcDbLine
 10
2.026451483398688
 20
3.839720509310849
 30
0.0
 11
4.441040904851878
 21
6.254309930764039
 31
0.0
  0
LINE
  5
3E7C
330
3E77
100
AcDbEntity
  8
0
  6
CONTINUOUS
100
AcDbLine
 10
2.297849019469139
 20
3.437598836301114
 30
0.0
 11
3.321765168359338
 21
4.461514985191313
 31
0.0
  0
LINE
  5
3E7D
330
3E77
100
AcDbEntity
  8
0
  6
CONTINUOUS
100
AcDbLine
 10
2.569246555539591
 20
3.03547716329138
 30
0.0
 11
3.593163397972743
 21
4.059394005724531
 31
0.0
  0
LINE
  5
3E7E
330
3E77
100
AcDbEntity
  8
0
  6
CONTINUOUS
100
AcDbLine
 10
2.840644091610043
 20
2.633355490281646
 30
0.0
 11
3.864561627586149
 21
3.657273026257751
 31
0.0
  0
LINE
  5
3E7F
330
3E77
100
AcDbEntity
  8
0
  6
CONTINUOUS
100
AcDbLine
 10
3.112041627680496
 20
2.231233817271911
 30
0.0
 11
4.135959857199554
 21
3.25515204679097
 31
0.0
  0
LINE
  5
3E80
330
3E77
100
AcDbEntity
  8
0
  6
CONTINUOUS
100
AcDbLine
 10
3.383439163750948
 20
1.829112144262177
 30
0.0
 11
4.40735808681296
 21
2.853031067324189
 31
0.0
  0
LINE
  5
3E81
330
3E77
100
AcDbEntity
  8
0
  6
CONTINUOUS
100
AcDbLine
 10
3.654836699821399
 20
1.426990471252442
 30
0.0
 11
4.678756316426365
 21
2.450910087857407
 31
0.0
  0
LINE
  5
3E82
330
3E77
100
AcDbEntity
  8
0
  6
CONTINUOUS
100
AcDbLine
 10
3.926234235891853
 20
1.024868798242709
 30
0.0
 11
4.95015454603977
 21
2.048789108390626
 31
0.0
  0
LINE
  5
3E83
330
3E77
100
AcDbEntity
  8
0
  6
CONTINUOUS
100
AcDbLine
 10
4.197631771962304
 20
0.6227471252329737
 30
0.0
 11
5.221552775653176
 21
1.646668128923846
 31
0.0
  0
LINE
  5
3E84
330
3E77
100
AcDbEntity
  8
0
  6
CONTINUOUS
100
AcDbLine
 10
8.715877546767851
 20
7.835069736359266
 30
0.0
 11
9.435953450375058
 21
8.555145639966472
 31
0.0
  0
LINE
  5
3E85
330
3E77
100
AcDbEntity
  8
0
  6
CONTINUOUS
100
AcDbLine
 10
8.170620868422267
 20
6.616293848933497
 30
0.0
 11
9.644120833743461
 21
8.08979381425469
 31
0.0
  0
LINE
  5
3E86
330
3E77
100
AcDbEntity
  8
0
  6
CONTINUOUS
100
AcDbLine
 10
7.625364190076684
 20
5.397517961507727
 30
0.0
 11
9.852288217111864
 21
7.624441988542907
 31
0.0
  0
LINE
  5
3E87
330
3E77
100
AcDbEntity
  8
0
  6
CONTINUOUS
100
AcDbLine
 10
7.080107511731101
 20
4.178742074081957
 30
0.0
 11
10.06045560048027
 21
7.159090162831124
 31
0.0
  0
LINE
  5
3E88
330
3E77
100
AcDbEntity
  8
0
  6
CONTINUOUS
100
AcDbLine
 10
6.534850833385518
 20
2.959966186656187
 30
0.0
 11
10.26862298384867
 21
6.693738337119342
 31
0.0
  0
LINE
  5
3E89
330
3E77
100
AcDbEntity
  8
0
  6
CONTINUOUS
100
AcDbLine
 10
4.469029308032756
 20
0.2206254522232385
 30
0.0
 11
5.492951005266582
 21
1.244547149457064
 31
0.0
  0
LINE
  5
3E8A
330
3E77
100
AcDbEntity
  8
0
  6
CONTINUOUS
100
AcDbLine
 10
5.989594155039935
 20
1.741190299230417
 30
0.0
 11
8.806950407233131
 21
4.558546551423613
 31
0.0
  0
LINE
  5
3E8B
330
3E77
100
AcDbEntity
  8
0
  6
CONTINUOUS
100
AcDbLine
 10
9.401251593263643
 20
5.152847737454126
 30
0.0
 11
10.47679036721708
 21
6.228386511407559
 31
0.0
  0
LINE
  5
3E8C
330
3E77
100
AcDbEntity
  8
0
  6
CONTINUOUS
100
AcDbLine
 10
4.921837203428691
 20
-0.0000858614610131
 30
0.0
 11
8.592923064886001
 21
3.670999999996297
 31
0.0
  0
LINE
  5
3E8D
330
3E77
100
AcDbEntity
  8
0
  6
CONTINUOUS
100
AcDbLine
 10
9.609390446785305
 20
4.6874673818956
 30
0.0
 11
10.68495775058548
 21
5.763034685695775
 31
0.0
  0
LINE
  5
3E8E
330
3E77
100
AcDbEntity
  8
0
  6
CONTINUOUS
100
AcDbLine
 10
5.595387755019432
 20
-0.0000545189504582
 30
0.0
 11
7.716137258923768
 21
2.120694984953879
 31
0.0
  0
LINE
  5
3E8F
330
3E77
100
AcDbEntity
  8
0
  6
CONTINUOUS
100
AcDbLine
 10
6.268938306610172
 20
-0.000023176439905
 30
0.0
 11
7.170485805526503
 21
0.9015243224764267
 31
0.0
  0
LINE
  5
3E90
330
3E77
100
AcDbEntity
  8
0
  6
CONTINUOUS
100
AcDbLine
 10
7.963842273967511
 20
2.368399999997621
 30
0.0
 11
9.266442273966188
 21
3.670999999996297
 31
0.0
  0
LINE
  5
3E91
330
3E77
100
AcDbEntity
  8
0
  6
CONTINUOUS
100
AcDbLine
 10
8.637361483047696
 20
2.368399999997621
 30
0.0
 11
9.939961483046375
 21
3.670999999996297
 31
0.0
  0
LINE
  5
3E92
330
3E77
100
AcDbEntity
  8
0
  6
CONTINUOUS
100
AcDbLine
 10
9.817529300306965
 20
4.222087026337075
 30
0.0
 11
10.89312513395388
 21
5.297682859983993
 31
0.0
  0
LINE
  5
3E93
330
3E77
100
AcDbEntity
  8
0
  6
CONTINUOUS
100
AcDbLine
 10
10.02566815382863
 20
3.756706670778549
 30
0.0
 11
11.10129251732229
 21
4.832331034272211
 31
0.0
  0
LINE
  5
3E94
330
3E77
100
AcDbEntity
  8
0
  6
CONTINUOUS
100
AcDbLine
 10
9.310880692127883
 20
2.368399999997621
 30
0.0
 11
11.30945990069069
 21
4.366979208560428
 31
0.0
  0
LINE
  5
3E95
330
3E77
100
AcDbEntity
  8
0
  6
CONTINUOUS
100
AcDbLine
 10
9.98439990120807
 20
2.36839999999762
 30
0.0
 11
11.5176272840591
 21
3.901627382848645
 31
0.0
  0
LINE
  5
3E96
330
3E77
100
AcDbEntity
  8
0
  6
CONTINUOUS
100
AcDbLine
 10
10.65037369446246
 20
2.36085458417182
 30
0.0
 11
11.7257946674275
 21
3.436275557136862
 31
0.0
  0
LINE
  5
3E97
330
3E77
100
AcDbEntity
  8
0
  6
CONTINUOUS
100
AcDbLine
 10
10.85847197087848
 20
1.895433651507656
 30
0.0
 11
11.9339620507959
 21
2.97092373142508
 31
0.0
  0
LINE
  5
3E98
330
3E77
100
AcDbEntity
  8
0
  6
CONTINUOUS
100
AcDbLine
 10
11.0665702472945
 20
1.430012718843491
 30
0.0
 11
12.14212943416431
 21
2.505571905713296
 31
0.0
  0
LINE
  5
3E99
330
3E77
100
AcDbEntity
  8
0
  6
CONTINUOUS
100
AcDbLine
 10
11.27466852371052
 20
0.9645917861793256
 30
0.0
 11
12.35029681753271
 21
2.040220080001513
 31
0.0
  0
LINE
  5
3E9A
330
3E77
100
AcDbEntity
  8
0
  6
CONTINUOUS
100
AcDbLine
 10
11.48276680012654
 20
0.4991708535151611
 30
0.0
 11
12.55846420090111
 21
1.57486825428973
 31
0.0
  0
LINE
  5
3E9B
330
3E77
100
AcDbEntity
  8
0
  6
CONTINUOUS
100
AcDbLine
 10
11.69086507654257
 20
0.0337499208509957
 30
0.0
 11
12.76663158426952
 21
1.109516428577947
 31
0.0
  0
LINE
  5
3E9C
330
3E77
100
AcDbEntity
  8
0
  6
CONTINUOUS
100
AcDbLine
 10
12.33057447873954
 20
-0.0000598860322123
 30
0.0
 11
12.97479896763792
 21
0.6441646028661663
 31
0.0
  0
LINE
  5
3E9D
330
3E77
100
AcDbEntity
  8
0
  6
CONTINUOUS
100
AcDbLine
 10
13.00413694809395
 20
-0.0000166257579952
 30
0.0
 11
13.18296635100632
 21
0.1788127771543824
 31
0.0
  0
LINE
  5
3E9E
330
3E77
100
AcDbEntity
  8
0
  6
CONTINUOUS
100
AcDbLine
 10
4.772852165289667
 20
-0.000092794222212
 30
0.0
 11
4.296495091028902
 21
0.4762642800385528
 31
0.0
  0
LINE
  5
3E9F
330
3E77
100
AcDbEntity
  8
0
  6
CONTINUOUS
100
AcDbLine
 10
5.446340034776103
 20
-0.0000614546284616
 30
0.0
 11
2.898195908335625
 21
2.548082671812017
 31
0.0
  0
LINE
  5
3EA0
330
3E77
100
AcDbEntity
  8
0
  6
CONTINUOUS
100
AcDbLine
 10
6.119827904262539
 20
-0.0000301150347113
 30
0.0
 11
1.499896725642348
 21
4.61990106358548
 31
0.0
  0
LINE
  5
3EA1
330
3E77
100
AcDbEntity
  8
0
  6
CONTINUOUS
100
AcDbLine
 10
6.775136745476159
 20
0.0181802528318542
 30
0.0
 11
5.699826040202669
 21
1.093490958105344
 31
0.0
  0
LINE
  5
3EA2
330
3E77
100
AcDbEntity
  8
0
  6
CONTINUOUS
100
AcDbLine
 10
6.983376846288489
 20
0.4834593610997118
 30
0.0
 11
5.908008617934405
 21
1.558827589453796
 31
0.0
  0
LINE
  5
3EA3
330
3E77
100
AcDbEntity
  8
0
  6
CONTINUOUS
100
AcDbLine
 10
5.377063484962296
 20
1.416253513345719
 30
0.0
 11
1.702276957014131
 21
5.091040041293883
 31
0.0
  0
LINE
  5
3EA4
330
3E77
100
AcDbEntity
  8
0
  6
CONTINUOUS
100
AcDbLine
 10
3.978745891735324
 20
3.488090315652877
 30
0.0
 11
2.000373521109399
 21
5.466462686278803
 31
0.0
  0
LINE
  5
3EA5
330
3E77
100
AcDbEntity
  8
0
  6
CONTINUOUS
100
AcDbLine
 10
7.191616947100819
 20
0.948738469367568
 30
0.0
 11
6.11619119566614
 21
2.024164220802247
 31
0.0
  0
LINE
  5
3EA6
330
3E77
100
AcDbEntity
  8
0
  6
CONTINUOUS
100
AcDbLine
 10
7.399857047913149
 20
1.414017577635424
 30
0.0
 11
6.324373773397875
 21
2.489500852150698
 31
0.0
  0
LINE
  5
3EA7
330
3E77
100
AcDbEntity
  8
0
  6
CONTINUOUS
100
AcDbLine
 10
7.608097148725479
 20
1.879296685903281
 30
0.0
 11
6.53255635112961
 21
2.95483748349915
 31
0.0
  0
LINE
  5
3EA8
330
3E77
100
AcDbEntity
  8
0
  6
CONTINUOUS
100
AcDbLine
 10
7.816337249537808
 20
2.344575794171138
 30
0.0
 11
6.740738928861345
 21
3.420174114847601
 31
0.0
  0
LINE
  5
3EA9
330
3E77
100
AcDbEntity
  8
0
  6
CONTINUOUS
100
AcDbLine
 10
3.310241080789734
 20
4.830114335678653
 30
0.0
 11
2.298470085204666
 21
5.84188533126372
 31
0.0
  0
LINE
  5
3EAA
330
3E77
100
AcDbEntity
  8
0
  6
CONTINUOUS
100
AcDbLine
 10
3.60832983563551
 20
5.205544789913063
 30
0.0
 11
2.596566649299935
 21
6.217307976248638
 31
0.0
  0
LINE
  5
3EAB
330
3E77
100
AcDbEntity
  8
0
  6
CONTINUOUS
100
AcDbLine
 10
3.906418590481286
 20
5.580975244147473
 30
0.0
 11
2.894663213395203
 21
6.592730621233557
 31
0.0
  0
LINE
  5
3EAC
330
3E77
100
AcDbEntity
  8
0
  6
CONTINUOUS
100
AcDbLine
 10
4.204507345327062
 20
5.956405698381884
 30
0.0
 11
3.192759777490472
 21
6.968153266218474
 31
0.0
  0
LINE
  5
3EAD
330
3E77
100
AcDbEntity
  8
0
  6
CONTINUOUS
100
AcDbLine
 10
8.466032252791512
 20
2.368399999997621
 30
0.0
 11
6.948921506593081
 21
3.885510746196053
 31
0.0
  0
LINE
  5
3EAE
330
3E77
100
AcDbEntity
  8
0
  6
CONTINUOUS
100
AcDbLine
 10
9.139551461871699
 20
2.36839999999762
 30
0.0
 11
7.157104084324816
 21
4.350847377544504
 31
0.0
  0
LINE
  5
3EAF
330
3E77
100
AcDbEntity
  8
0
  6
CONTINUOUS
100
AcDbLine
 10
4.502596100172839
 20
6.331836152616295
 30
0.0
 11
3.49085634158574
 21
7.343575911203393
 31
0.0
  0
LINE
  5
3EB0
330
3E77
100
AcDbEntity
  8
0
  6
CONTINUOUS
100
AcDbLine
 10
4.800684855018615
 20
6.707266606850705
 30
0.0
 11
3.788952905681008
 21
7.718998556188312
 31
0.0
  0
LINE
  5
3EB1
330
3E77
100
AcDbEntity
  8
0
  6
CONTINUOUS
100
AcDbLine
 10
12.18154012887317
 20
-0.0000694579236642
 30
0.0
 11
11.32140332908496
 21
0.8600673418645499
 31
0.0
  0
LINE
  5
3EB2
330
3E77
100
AcDbEntity
  8
0
  6
CONTINUOUS
100
AcDbLine
 10
12.85501608323566
 20
-0.0000262032059659
 30
0.0
 11
10.77672456435345
 21
2.078265315676246
 31
0.0
  0
LINE
  5
3EB3
330
3E77
100
AcDbEntity
  8
0
  6
CONTINUOUS
100
AcDbLine
 10
9.813070670951886
 20
2.36839999999762
 30
0.0
 11
8.51047067095321
 21
3.670999999996297
 31
0.0
  0
LINE
  5
3EB4
330
3E77
100
AcDbEntity
  8
0
  6
CONTINUOUS
100
AcDbLine
 10
10.48658988003207
 20
2.36839999999762
 30
0.0
 11
9.183989880033396
 21
3.670999999996297
 31
0.0
  0
LINE
  5
3EB5
330
3E77
100
AcDbEntity
  8
0
  6
CONTINUOUS
100
AcDbLine
 10
8.441048632286794
 20
3.740422038662712
 30
0.0
 11
7.365286662056551
 21
4.816184008892956
 31
0.0
  0
LINE
  5
3EB6
330
3E77
100
AcDbEntity
  8
0
  6
CONTINUOUS
100
AcDbLine
 10
8.649187485808454
 20
4.205802394221237
 30
0.0
 11
7.573469239788285
 21
5.281520640241407
 31
0.0
  0
LINE
  5
3EB7
330
3E77
100
AcDbEntity
  8
0
  6
CONTINUOUS
100
AcDbLine
 10
5.098773609864391
 20
7.082697061085115
 30
0.0
 11
4.087049469776277
 21
8.09442120117323
 31
0.0
  0
LINE
  5
3EB8
330
3E77
100
AcDbEntity
  8
0
  6
CONTINUOUS
100
AcDbLine
 10
5.396862364710167
 20
7.458127515319526
 30
0.0
 11
4.385146033871544
 21
8.469843846158149
 31
0.0
  0
LINE
  5
3EB9
330
3E77
100
AcDbEntity
  8
0
  6
CONTINUOUS
100
AcDbLine
 10
13.04801363231285
 20
0.4804954567970334
 30
0.0
 11
9.85750908911358
 21
3.670999999996297
 31
0.0
  0
LINE
  5
3EBA
330
3E77
100
AcDbEntity
  8
0
  6
CONTINUOUS
100
AcDbLine
 10
8.857326339330116
 20
4.671182749779763
 30
0.0
 11
7.781651817520021
 21
5.746857271589858
 31
0.0
  0
LINE
  5
3EBB
330
3E77
100
AcDbEntity
  8
0
  6
CONTINUOUS
100
AcDbLine
 10
5.694951119555943
 20
7.833557969553937
 30
0.0
 11
4.765409089118624
 21
8.763099999991255
 31
0.0
  0
LINE
  5
3EBC
330
3E77
100
AcDbEntity
  8
0
  6
CONTINUOUS
100
AcDbLine
 10
12.50286117236978
 20
1.699167125820288
 30
0.0
 11
9.68611877250287
 21
4.515909525687196
 31
0.0
  0
LINE
  5
3EBD
330
3E77
100
AcDbEntity
  8
0
  6
CONTINUOUS
100
AcDbLine
 10
9.065465192851777
 20
5.136563105338288
 30
0.0
 11
7.989834395251757
 21
6.21219390293831
 31
0.0
  0
LINE
  5
3EBE
330
3E77
100
AcDbEntity
  8
0
  6
CONTINUOUS
100
AcDbLine
 10
5.993039874401719
 20
8.208988423788346
 30
0.0
 11
5.43892829819881
 21
8.763099999991255
 31
0.0
  0
LINE
  5
3EBF
330
3E77
100
AcDbEntity
  8
0
  6
CONTINUOUS
100
AcDbLine
 10
11.95770871242671
 20
2.917838794843543
 30
0.0
 11
8.19801697298349
 21
6.677530534286761
 31
0.0
  0
LINE
  5
3EC0
330
3E77
100
AcDbEntity
  8
0
  6
CONTINUOUS
100
AcDbLine
 10
6.291128629247495
 20
8.584418878022756
 30
0.0
 11
6.112447507278997
 21
8.763099999991255
 31
0.0
  0
LINE
  5
3EC1
330
3E77
100
AcDbEntity
  8
0
  6
CONTINUOUS
100
AcDbLine
 10
11.41255625248364
 20
4.136510463866797
 30
0.0
 11
8.406199550715227
 21
7.142867165635211
 31
0.0
  0
LINE
  5
3EC2
330
3E77
100
AcDbEntity
  8
0
  6
CONTINUOUS
100
AcDbLine
 10
10.86740379254057
 20
5.355182132890051
 30
0.0
 11
8.614382128446962
 21
7.608203796983664
 31
0.0
  0
LINE
  5
3EC3
330
3E77
100
AcDbEntity
  8
0
  6
CONTINUOUS
100
AcDbLine
 10
10.3222513325975
 20
6.573853801913305
 30
0.0
 11
8.822564706178696
 21
8.073540428332114
 31
0.0
  0
LINE
  5
3EC4
330
3E77
100
AcDbEntity
  8
0
  6
CONTINUOUS
100
AcDbLine
 10
9.777098872654436
 20
7.792525470936562
 30
0.0
 11
9.030747283910433
 21
8.538877059680566
 31
0.0
  0
ENDBLK
  5
4006
330
3E77
100
AcDbEntity
  8
0
100
AcDbBlockEnd
  0
BLOCK
  5
4007
330
3EC5
100
AcDbEntity
  8
0
100
AcDbBlockBegin
  2
*X36
 70
     1
 10
0.0
 20
0.0
 30
0.0
  3
*X36
  1

  0
LINE
  5
3EC6
330
3EC5
100
AcDbEntity
  8
0
  6
CONTINUOUS
100
AcDbLine
 10
10.67292308101235
 20
8.445076852443387
 30
0.0
 11
10.99094622856022
 21
8.763099999991255
 31
0.0
  0
LINE
  5
3EC7
330
3EC5
100
AcDbEntity
  8
0
  6
CONTINUOUS
100
AcDbLine
 10
10.87250383178748
 20
7.971138394138331
 30
0.0
 11
11.6644654376404
 21
8.763099999991255
 31
0.0
  0
LINE
  5
3EC8
330
3EC5
100
AcDbEntity
  8
0
  6
CONTINUOUS
100
AcDbLine
 10
11.07208458256261
 20
7.497199935833273
 30
0.0
 11
12.12126590876355
 21
8.546381262034211
 31
0.0
  0
LINE
  5
3EC9
330
3EC5
100
AcDbEntity
  8
0
  6
CONTINUOUS
100
AcDbLine
 10
11.27166533333774
 20
7.023261477528216
 30
0.0
 11
12.32085164573666
 21
8.072447789927136
 31
0.0
  0
LINE
  5
3ECA
330
3EC5
100
AcDbEntity
  8
0
  6
CONTINUOUS
100
AcDbLine
 10
11.47124608411287
 20
6.549323019223158
 30
0.0
 11
12.52043738270977
 21
7.59851431782006
 31
0.0
  0
LINE
  5
3ECB
330
3EC5
100
AcDbEntity
  8
0
  6
CONTINUOUS
100
AcDbLine
 10
11.670826834888
 20
6.075384560918101
 30
0.0
 11
12.72002311968288
 21
7.124580845712984
 31
0.0
  0
LINE
  5
3ECC
330
3EC5
100
AcDbEntity
  8
0
  6
CONTINUOUS
100
AcDbLine
 10
11.87040758566313
 20
5.601446102613043
 30
0.0
 11
12.91960885665599
 21
6.650647373605907
 31
0.0
  0
LINE
  5
3ECD
330
3EC5
100
AcDbEntity
  8
0
  6
CONTINUOUS
100
AcDbLine
 10
12.06998833643825
 20
5.127507644307986
 30
0.0
 11
13.1191945936291
 21
6.176713901498832
 31
0.0
  0
LINE
  5
3ECE
330
3EC5
100
AcDbEntity
  8
0
  6
CONTINUOUS
100
AcDbLine
 10
12.26956908721338
 20
4.65356918600293
 30
0.0
 11
13.31878033060221
 21
5.702780429391757
 31
0.0
  0
LINE
  5
3ECF
330
3EC5
100
AcDbEntity
  8
0
  6
CONTINUOUS
100
AcDbLine
 10
12.46914983798851
 20
4.179630727697873
 30
0.0
 11
13.51836606757532
 21
5.228846957284683
 31
0.0
  0
LINE
  5
3ED0
330
3EC5
100
AcDbEntity
  8
0
  6
CONTINUOUS
100
AcDbLine
 10
12.66873058876364
 20
3.705692269392816
 30
0.0
 11
13.71795180454843
 21
4.754913485177607
 31
0.0
  0
LINE
  5
3ED1
330
3EC5
100
AcDbEntity
  8
0
  6
CONTINUOUS
100
AcDbLine
 10
12.86831133953877
 20
3.231753811087759
 30
0.0
 11
13.91753754152154
 21
4.280980013070531
 31
0.0
  0
LINE
  5
3ED2
330
3EC5
100
AcDbEntity
  8
0
  6
CONTINUOUS
100
AcDbLine
 10
13.0678920903139
 20
2.757815352782702
 30
0.0
 11
14.11712327849465
 21
3.807046540963456
 31
0.0
  0
LINE
  5
3ED3
330
3EC5
100
AcDbEntity
  8
0
  6
CONTINUOUS
100
AcDbLine
 10
13.26747284108903
 20
2.283876894477644
 30
0.0
 11
14.31670901546777
 21
3.333113068856379
 31
0.0
  0
LINE
  5
3ED4
330
3EC5
100
AcDbEntity
  8
0
  6
CONTINUOUS
100
AcDbLine
 10
16.36767838827179
 20
8.751678487061342
 30
0.0
 11
16.50332410898388
 21
8.887324207773432
 31
0.0
  0
LINE
  5
3ED5
330
3EC5
100
AcDbEntity
  8
0
  6
CONTINUOUS
100
AcDbLine
 10
15.96190732182191
 20
7.67238821153127
 30
0.0
 11
16.68735328004734
 21
8.397834169756699
 31
0.0
  0
LINE
  5
3ED6
330
3EC5
100
AcDbEntity
  8
0
  6
CONTINUOUS
100
AcDbLine
 10
15.55613625537202
 20
6.593097936001196
 30
0.0
 11
16.87138245111079
 21
7.908344131739965
 31
0.0
  0
LINE
  5
3ED7
330
3EC5
100
AcDbEntity
  8
0
  6
CONTINUOUS
100
AcDbLine
 10
15.15036518892213
 20
5.513807660471122
 30
0.0
 11
17.05541162217424
 21
7.418854093723231
 31
0.0
  0
LINE
  5
3ED8
330
3EC5
100
AcDbEntity
  8
0
  6
CONTINUOUS
100
AcDbLine
 10
14.74459412247225
 20
4.434517384941048
 30
0.0
 11
17.2394407932377
 21
6.929364055706499
 31
0.0
  0
LINE
  5
3ED9
330
3EC5
100
AcDbEntity
  8
0
  6
CONTINUOUS
100
AcDbLine
 10
14.33882305602236
 20
3.355227109410975
 30
0.0
 11
17.42346996430115
 21
6.439874017689766
 31
0.0
  0
LINE
  5
3EDA
330
3EC5
100
AcDbEntity
  8
0
  6
CONTINUOUS
100
AcDbLine
 10
13.46705359186416
 20
1.809938436172586
 30
0.0
 11
16.0819338255367
 21
4.424818669845129
 31
0.0
  0
LINE
  5
3EDB
330
3EC5
100
AcDbEntity
  8
0
  6
CONTINUOUS
100
AcDbLine
 10
16.63283254238972
 20
4.975717386698149
 30
0.0
 11
17.60749913536461
 21
5.950383979673033
 31
0.0
  0
LINE
  5
3EDC
330
3EC5
100
AcDbEntity
  8
0
  6
CONTINUOUS
100
AcDbLine
 10
13.66663434263929
 20
1.335999977867529
 30
0.0
 11
15.67604797733754
 21
3.345413612565779
 31
0.0
  0
LINE
  5
3EDD
330
3EC5
100
AcDbEntity
  8
0
  6
CONTINUOUS
100
AcDbLine
 10
13.86621509341442
 20
0.8620615195624723
 30
0.0
 11
15.27016212913838
 21
2.26600855528643
 31
0.0
  0
LINE
  5
3EDE
330
3EC5
100
AcDbEntity
  8
0
  6
CONTINUOUS
100
AcDbLine
 10
16.81682257348267
 20
4.486188208710908
 30
0.0
 11
17.79152830642806
 21
5.460893941656299
 31
0.0
  0
LINE
  5
3EDF
330
3EC5
100
AcDbEntity
  8
0
  6
CONTINUOUS
100
AcDbLine
 10
17.00081260457561
 20
3.996659030723667
 30
0.0
 11
17.97555747749151
 21
4.971403903639565
 31
0.0
  0
LINE
  5
3EE0
330
3EC5
100
AcDbEntity
  8
0
  6
CONTINUOUS
100
AcDbLine
 10
20.74362343514722
 20
8.412989070375462
 30
0.0
 11
21.09373436476302
 21
8.763099999991256
 31
0.0
  0
LINE
  5
3EE1
330
3EC5
100
AcDbEntity
  8
0
  6
CONTINUOUS
100
AcDbLine
 10
20.25401257174777
 20
7.249858997895826
 30
0.0
 11
21.7672535738432
 21
8.763099999991255
 31
0.0
  0
LINE
  5
3EE2
330
3EC5
100
AcDbEntity
  8
0
  6
CONTINUOUS
100
AcDbLine
 10
14.06579584418955
 20
0.3881230612574149
 30
0.0
 11
14.86427628093921
 21
1.186603498007082
 31
0.0
  0
LINE
  5
3EE3
330
3EC5
100
AcDbEntity
  8
0
  6
CONTINUOUS
100
AcDbLine
 10
14.26537659496467
 20
-0.0858153970476412
 30
0.0
 11
14.45839043274005
 21
0.1071984407277329
 31
0.0
  0
LINE
  5
3EE4
330
3EC5
100
AcDbEntity
  8
0
  6
CONTINUOUS
100
AcDbLine
 10
17.18480263566856
 20
3.507129852736426
 30
0.0
 11
18.15958664855496
 21
4.481913865622833
 31
0.0
  0
LINE
  5
3EE5
330
3EC5
100
AcDbEntity
  8
0
  6
CONTINUOUS
100
AcDbLine
 10
17.3687926667615
 20
3.017600674749186
 30
0.0
 11
18.34361581961842
 21
3.9924238276061
 31
0.0
  0
LINE
  5
3EE6
330
3EC5
100
AcDbEntity
  8
0
  6
CONTINUOUS
100
AcDbLine
 10
19.76440170834832
 20
6.086728925416191
 30
0.0
 11
22.33924590259489
 21
8.661573119662755
 31
0.0
  0
LINE
  5
3EE7
330
3EC5
100
AcDbEntity
  8
0
  6
CONTINUOUS
100
AcDbLine
 10
19.27479084494887
 20
4.923598852936555
 30
0.0
 11
21.84929622842713
 21
7.498104236414807
 31
0.0
  0
LINE
  5
3EE8
330
3EC5
100
AcDbEntity
  8
0
  6
CONTINUOUS
100
AcDbLine
 10
17.55278269785445
 20
2.528071496761945
 30
0.0
 11
18.52764499068187
 21
3.502933789589366
 31
0.0
  0
LINE
  5
3EE9
330
3EC5
100
AcDbEntity
  8
0
  6
CONTINUOUS
100
AcDbLine
 10
18.78517998154942
 20
3.760468780456919
 30
0.0
 11
21.35934655425936
 21
6.33463535316686
 31
0.0
  0
LINE
  5
3EEA
330
3EC5
100
AcDbEntity
  8
0
  6
CONTINUOUS
100
AcDbLine
 10
17.73677272894739
 20
2.038542318774704
 30
0.0
 11
20.8693968800916
 21
5.171166469918914
 31
0.0
  0
LINE
  5
3EEB
330
3EC5
100
AcDbEntity
  8
0
  6
CONTINUOUS
100
AcDbLine
 10
17.92076276004034
 20
1.549013140787464
 30
0.0
 11
20.37944720592384
 21
4.007697586670968
 31
0.0
  0
LINE
  5
3EEC
330
3EC5
100
AcDbEntity
  8
0
  6
CONTINUOUS
100
AcDbLine
 10
18.10475279113329
 20
1.059483962800223
 30
0.0
 11
19.88949753175608
 21
2.84422870342302
 31
0.0
  0
LINE
  5
3EED
330
3EC5
100
AcDbEntity
  8
0
  6
CONTINUOUS
100
AcDbLine
 10
18.28874282222623
 20
0.5699547848129822
 30
0.0
 11
19.39954785758832
 21
1.680759820175074
 31
0.0
  0
LINE
  5
3EEE
330
3EC5
100
AcDbEntity
  8
0
  6
CONTINUOUS
100
AcDbLine
 10
18.47273285331918
 20
0.0804256068257416
 30
0.0
 11
18.90959818342056
 21
0.517290936927127
 31
0.0
  0
LINE
  5
3EEF
330
3EC5
100
AcDbEntity
  8
0
  6
CONTINUOUS
100
AcDbLine
 10
14.3590401358224
 20
-0.1570118376323384
 30
0.0
 11
14.24903296539946
 21
-0.0470046672093929
 31
0.0
  0
LINE
  5
3EF0
330
3EC5
100
AcDbEntity
  8
0
  6
CONTINUOUS
100
AcDbLine
 10
14.54309291258661
 20
0.332454594683643
 30
0.0
 11
13.75908329123172
 21
1.116464216038529
 31
0.0
  0
LINE
  5
3EF1
330
3EC5
100
AcDbEntity
  8
0
  6
CONTINUOUS
100
AcDbLine
 10
14.72714568935081
 20
0.8219210269996244
 30
0.0
 11
13.26913361706399
 21
2.27993309928645
 31
0.0
  0
LINE
  5
3EF2
330
3EC5
100
AcDbEntity
  8
0
  6
CONTINUOUS
100
AcDbLine
 10
14.91119846611502
 20
1.311387459315606
 30
0.0
 11
12.77918394289625
 21
3.443401982534371
 31
0.0
  0
LINE
  5
3EF3
330
3EC5
100
AcDbEntity
  8
0
  6
CONTINUOUS
100
AcDbLine
 10
15.09525124287922
 20
1.800853891631587
 30
0.0
 11
12.28923426872852
 21
4.606870865782293
 31
0.0
  0
LINE
  5
3EF4
330
3EC5
100
AcDbEntity
  8
0
  6
CONTINUOUS
100
AcDbLine
 10
15.27930401964343
 20
2.290320323947569
 30
0.0
 11
11.79928459456078
 21
5.770339749030213
 31
0.0
  0
LINE
  5
3EF5
330
3EC5
100
AcDbEntity
  8
0
  6
CONTINUOUS
100
AcDbLine
 10
15.46335679640763
 20
2.77978675626355
 30
0.0
 11
14.48885470994921
 21
3.754288842721972
 31
0.0
  0
LINE
  5
3EF6
330
3EC5
100
AcDbEntity
  8
0
  6
CONTINUOUS
100
AcDbLine
 10
13.88507249233704
 20
4.358071060334137
 30
0.0
 11
11.30933492039305
 21
6.933808632278135
 31
0.0
  0
LINE
  5
3EF7
330
3EC5
100
AcDbEntity
  8
0
  6
CONTINUOUS
100
AcDbLine
 10
18.75840522805855
 20
0.1582575336928151
 30
0.0
 11
18.25383727664818
 21
0.6628254851031863
 31
0.0
  0
LINE
  5
3EF8
330
3EC5
100
AcDbEntity
  8
0
  6
CONTINUOUS
100
AcDbLine
 10
15.64740957317184
 20
3.269253188579531
 30
0.0
 11
14.67288388101266
 21
4.243778880738705
 31
0.0
  0
LINE
  5
3EF9
330
3EC5
100
AcDbEntity
  8
0
  6
CONTINUOUS
100
AcDbLine
 10
13.39509276772158
 20
5.521569994029786
 30
0.0
 11
10.81938524622531
 21
8.097277515526056
 31
0.0
  0
LINE
  5
3EFA
330
3EC5
100
AcDbEntity
  8
0
  6
CONTINUOUS
100
AcDbLine
 10
18.95798597883369
 20
0.6321959919978686
 30
0.0
 11
17.84825644852853
 21
1.741925522303024
 31
0.0
  0
LINE
  5
3EFB
330
3EC5
100
AcDbEntity
  8
0
  6
CONTINUOUS
100
AcDbLine
 10
19.15756672960882
 20
1.106134450302922
 30
0.0
 11
17.44267562040888
 21
2.821025559502861
 31
0.0
  0
LINE
  5
3EFC
330
3EC5
100
AcDbEntity
  8
0
  6
CONTINUOUS
100
AcDbLine
 10
15.83146234993604
 20
3.758719620895513
 30
0.0
 11
14.85691305207612
 21
4.733268918755439
 31
0.0
  0
LINE
  5
3EFD
330
3EC5
100
AcDbEntity
  8
0
  6
CONTINUOUS
100
AcDbLine
 10
16.01551512670025
 20
4.248186053211494
 30
0.0
 11
15.04094222313957
 21
5.222758956772172
 31
0.0
  0
LINE
  5
3EFE
330
3EC5
100
AcDbEntity
  8
0
  6
CONTINUOUS
100
AcDbLine
 10
12.90511304310612
 20
6.685068927725435
 30
0.0
 11
10.8270819708403
 21
8.763099999991255
 31
0.0
  0
LINE
  5
3EFF
330
3EC5
100
AcDbEntity
  8
0
  6
CONTINUOUS
100
AcDbLine
 10
12.41513331849066
 20
7.848567861421083
 30
0.0
 11
11.50060117992049
 21
8.763099999991255
 31
0.0
  0
LINE
  5
3F00
330
3EC5
100
AcDbEntity
  8
0
  6
CONTINUOUS
100
AcDbLine
 10
19.35714748038395
 20
1.580072908607975
 30
0.0
 11
17.03709479228923
 21
3.900125596702697
 31
0.0
  0
LINE
  5
3F01
330
3EC5
100
AcDbEntity
  8
0
  6
CONTINUOUS
100
AcDbLine
 10
19.55672823115909
 20
2.054011366913028
 30
0.0
 11
16.63151396416958
 21
4.979225633902534
 31
0.0
  0
LINE
  5
3F02
330
3EC5
100
AcDbEntity
  8
0
  6
CONTINUOUS
100
AcDbLine
 10
16.19956790346445
 20
4.737652485527476
 30
0.0
 11
15.22497139420302
 21
5.712248994788904
 31
0.0
  0
LINE
  5
3F03
330
3EC5
100
AcDbEntity
  8
0
  6
CONTINUOUS
100
AcDbLine
 10
16.38362068022866
 20
5.227118917843457
 30
0.0
 11
15.40900056526648
 21
6.201739032805637
 31
0.0
  0
LINE
  5
3F04
330
3EC5
100
AcDbEntity
  8
0
  6
CONTINUOUS
100
AcDbLine
 10
19.75630898193422
 20
2.527949825218081
 30
0.0
 11
18.70774536448286
 21
3.576513442669441
 31
0.0
  0
LINE
  5
3F05
330
3EC5
100
AcDbEntity
  8
0
  6
CONTINUOUS
100
AcDbLine
 10
19.95588973270936
 20
3.001888283523134
 30
0.0
 11
18.90726987211446
 21
4.050508144118028
 31
0.0
  0
LINE
  5
3F06
330
3EC5
100
AcDbEntity
  8
0
  6
CONTINUOUS
100
AcDbLine
 10
20.15547048348449
 20
3.475826741828186
 30
0.0
 11
19.10679437974606
 21
4.524502845566614
 31
0.0
  0
LINE
  5
3F07
330
3EC5
100
AcDbEntity
  8
0
  6
CONTINUOUS
100
AcDbLine
 10
20.35505123425962
 20
3.94976520013324
 30
0.0
 11
19.30631888737766
 21
4.998497547015201
 31
0.0
  0
LINE
  5
3F08
330
3EC5
100
AcDbEntity
  8
0
  6
CONTINUOUS
100
AcDbLine
 10
20.55463198503475
 20
4.423703658438292
 30
0.0
 11
19.50584339500926
 21
5.472492248463787
 31
0.0
  0
LINE
  5
3F09
330
3EC5
100
AcDbEntity
  8
0
  6
CONTINUOUS
100
AcDbLine
 10
18.37481191085755
 20
3.909446896294752
 30
0.0
 11
15.59302973632993
 21
6.691229070822371
 31
0.0
  0
LINE
  5
3F0A
330
3EC5
100
AcDbEntity
  8
0
  6
CONTINUOUS
100
AcDbLine
 10
17.96904084440766
 20
4.988737171824825
 30
0.0
 11
15.77705890739338
 21
7.180719108839104
 31
0.0
  0
LINE
  5
3F0B
330
3EC5
100
AcDbEntity
  8
0
  6
CONTINUOUS
100
AcDbLine
 10
17.56326977795777
 20
6.068027447354899
 30
0.0
 11
15.96108807845684
 21
7.670209146855838
 31
0.0
  0
LINE
  5
3F0C
330
3EC5
100
AcDbEntity
  8
0
  6
CONTINUOUS
100
AcDbLine
 10
17.15749871150789
 20
7.147317722884972
 30
0.0
 11
16.14511724952029
 21
8.15969918487257
 31
0.0
  0
LINE
  5
3F0D
330
3EC5
100
AcDbEntity
  8
0
  6
CONTINUOUS
100
AcDbLine
 10
16.751727645058
 20
8.226607998415046
 30
0.0
 11
16.32914642058374
 21
8.649189222889303
 31
0.0
  0
LINE
  5
3F0E
330
3EC5
100
AcDbEntity
  8
0
  6
CONTINUOUS
100
AcDbLine
 10
20.75421273580989
 20
4.897642116743345
 30
0.0
 11
19.70536790264086
 21
5.946486949912374
 31
0.0
  0
LINE
  5
3F0F
330
3EC5
100
AcDbEntity
  8
0
  6
CONTINUOUS
100
AcDbLine
 10
20.95379348658502
 20
5.371580575048398
 30
0.0
 11
19.90489241027246
 21
6.42048165136096
 31
0.0
  0
LINE
  5
3F10
330
3EC5
100
AcDbEntity
  8
0
  6
CONTINUOUS
100
AcDbLine
 10
21.15337423736015
 20
5.845519033353452
 30
0.0
 11
20.10441691790406
 21
6.894476352809547
 31
0.0
  0
LINE
  5
3F11
330
3EC5
100
AcDbEntity
  8
0
  6
CONTINUOUS
100
AcDbLine
 10
21.35295498813529
 20
6.319457491658505
 30
0.0
 11
20.30394142553566
 21
7.368471054258134
 31
0.0
  0
LINE
  5
3F12
330
3EC5
100
AcDbEntity
  8
0
  6
CONTINUOUS
100
AcDbLine
 10
21.55253573891042
 20
6.793395949963558
 30
0.0
 11
20.50346593316726
 21
7.842465755706721
 31
0.0
  0
LINE
  5
3F13
330
3EC5
100
AcDbEntity
  8
0
  6
CONTINUOUS
100
AcDbLine
 10
21.75211648968556
 20
7.267334408268612
 30
0.0
 11
20.70299044079886
 21
8.316460457155308
 31
0.0
  0
LINE
  5
3F14
330
3EC5
100
AcDbEntity
  8
0
  6
CONTINUOUS
100
AcDbLine
 10
21.95169724046069
 20
7.741272866573663
 30
0.0
 11
20.9298701070431
 21
8.763099999991256
 31
0.0
  0
LINE
  5
3F15
330
3EC5
100
AcDbEntity
  8
0
  6
CONTINUOUS
100
AcDbLine
 10
22.15127799123582
 20
8.215211324878716
 30
0.0
 11
21.60338931612328
 21
8.763099999991256
 31
0.0
  0
LINE
  5
3F16
330
3EC5
100
AcDbEntity
  8
0
  6
CONTINUOUS
100
AcDbLine
 10
22.35085874201096
 20
8.689149783183769
 30
0.0
 11
22.27690852520347
 21
8.763099999991255
 31
0.0
  0
ENDBLK
  5
4008
330
3EC5
100
AcDbEntity
  8
0
100
AcDbBlockEnd
  0
BLOCK
  5
4009
330
3F17
100
AcDbEntity
  8
0
100
AcDbBlockBegin
  2
*X37
 70
     1
 10
0.0
 20
0.0
 30
0.0
  3
*X37
  1

  0
LINE
  5
3F18
330
3F17
100
AcDbEntity
  8
0
  6
CONTINUOUS
100
AcDbLine
 10
23.19462913593892
 20
8.169917934846424
 30
0.0
 11
23.70775465517246
 21
8.683043454079957
 31
0.0
  0
LINE
  5
3F19
330
3F17
100
AcDbEntity
  8
0
  6
CONTINUOUS
100
AcDbLine
 10
22.64923161835078
 20
6.951001208178088
 30
0.0
 11
23.9159364069932
 21
8.217705996820516
 31
0.0
  0
LINE
  5
3F1A
330
3F17
100
AcDbEntity
  8
0
  6
CONTINUOUS
100
AcDbLine
 10
22.10383410076263
 20
5.732084481509751
 30
0.0
 11
24.12411815881395
 21
7.752368539561078
 31
0.0
  0
LINE
  5
3F1B
330
3F17
100
AcDbEntity
  8
0
  6
CONTINUOUS
100
AcDbLine
 10
21.55843658317447
 20
4.513167754841414
 30
0.0
 11
24.3322999106347
 21
7.287031082301639
 31
0.0
  0
LINE
  5
3F1C
330
3F17
100
AcDbEntity
  8
0
  6
CONTINUOUS
100
AcDbLine
 10
21.01303906558632
 20
3.294251028173077
 30
0.0
 11
24.54048166245544
 21
6.821693625042199
 31
0.0
  0
LINE
  5
3F1D
330
3F17
100
AcDbEntity
  8
0
  6
CONTINUOUS
100
AcDbLine
 10
20.46764154799817
 20
2.075334301504738
 30
0.0
 11
23.28571549467848
 21
4.89340824818505
 31
0.0
  0
LINE
  5
3F1E
330
3F17
100
AcDbEntity
  8
0
  6
CONTINUOUS
100
AcDbLine
 10
19.92224403041002
 20
0.8564175748364002
 30
0.0
 11
22.74075865492779
 21
3.674932199354171
 31
0.0
  0
LINE
  5
3F1F
330
3F17
100
AcDbEntity
  8
0
  6
CONTINUOUS
100
AcDbLine
 10
23.67305085490148
 20
5.280743608408048
 30
0.0
 11
24.74866341427619
 21
6.356356167782759
 31
0.0
  0
LINE
  5
3F20
330
3F17
100
AcDbEntity
  8
0
  6
CONTINUOUS
100
AcDbLine
 10
23.88118970842314
 20
4.815363252849522
 30
0.0
 11
24.95684516609694
 21
5.89101871052332
 31
0.0
  0
LINE
  5
3F21
330
3F17
100
AcDbEntity
  8
0
  6
CONTINUOUS
100
AcDbLine
 10
19.73925852647308
 20
-0.0000871381807288
 30
0.0
 11
23.4103456646501
 21
3.670999999996297
 31
0.0
  0
LINE
  5
3F22
330
3F17
100
AcDbEntity
  8
0
  6
CONTINUOUS
100
AcDbLine
 10
24.0893285619448
 20
4.349982897290997
 30
0.0
 11
25.16502691791769
 21
5.42568125326388
 31
0.0
  0
LINE
  5
3F23
330
3F17
100
AcDbEntity
  8
0
  6
CONTINUOUS
100
AcDbLine
 10
20.41282099582748
 20
-0.0000438779065108
 30
0.0
 11
21.64944178675636
 21
1.236576913022366
 31
0.0
  0
LINE
  5
3F24
330
3F17
100
AcDbEntity
  8
0
  6
CONTINUOUS
100
AcDbLine
 10
22.78126487373161
 20
2.36839999999762
 30
0.0
 11
24.08386487373029
 21
3.670999999996297
 31
0.0
  0
LINE
  5
3F25
330
3F17
100
AcDbEntity
  8
0
  6
CONTINUOUS
100
AcDbLine
 10
24.29746741546646
 20
3.884602541732471
 30
0.0
 11
25.37320866973843
 21
4.960343796004441
 31
0.0
  0
LINE
  5
3F26
330
3F17
100
AcDbEntity
  8
0
  6
CONTINUOUS
100
AcDbLine
 10
21.08638346518189
 20
-0.0000006176322938
 30
0.0
 11
21.10379033335899
 21
0.0174062505448083
 31
0.0
  0
LINE
  5
3F27
330
3F17
100
AcDbEntity
  8
0
  6
CONTINUOUS
100
AcDbLine
 10
23.4547840828118
 20
2.36839999999762
 30
0.0
 11
25.58139042155918
 21
4.495006338745002
 31
0.0
  0
LINE
  5
3F28
330
3F17
100
AcDbEntity
  8
0
  6
CONTINUOUS
100
AcDbLine
 10
29.30199999996933
 20
8.215615917155148
 30
0.0
 11
29.84948408280543
 21
8.763099999991255
 31
0.0
  0
LINE
  5
3F29
330
3F17
100
AcDbEntity
  8
0
  6
CONTINUOUS
100
AcDbLine
 10
24.12830329189199
 20
2.36839999999762
 30
0.0
 11
25.78957217337993
 21
4.029668881485562
 31
0.0
  0
LINE
  5
3F2A
330
3F17
100
AcDbEntity
  8
0
  6
CONTINUOUS
100
AcDbLine
 10
29.30199999996933
 20
7.54209670807496
 30
0.0
 11
30.52300329188562
 21
8.763099999991255
 31
0.0
  0
LINE
  5
3F2B
330
3F17
100
AcDbEntity
  8
0
  6
CONTINUOUS
100
AcDbLine
 10
24.80182250097217
 20
2.36839999999762
 30
0.0
 11
25.99775392520067
 21
3.564331424226122
 31
0.0
  0
LINE
  5
3F2C
330
3F17
100
AcDbEntity
  8
0
  6
CONTINUOUS
100
AcDbLine
 10
29.30199999996933
 20
6.868577498994774
 30
0.0
 11
30.74199999996926
 21
8.308577498994712
 31
0.0
  0
LINE
  5
3F2D
330
3F17
100
AcDbEntity
  8
0
  6
CONTINUOUS
100
AcDbLine
 10
25.13028238392013
 20
2.023340673865392
 30
0.0
 11
26.20593567702142
 21
3.098993966966683
 31
0.0
  0
LINE
  5
3F2E
330
3F17
100
AcDbEntity
  8
0
  6
CONTINUOUS
100
AcDbLine
 10
25.33838066033617
 20
1.557919741201244
 30
0.0
 11
26.41411742884217
 21
2.633656509707244
 31
0.0
  0
LINE
  5
3F2F
330
3F17
100
AcDbEntity
  8
0
  6
CONTINUOUS
100
AcDbLine
 10
25.54647893675221
 20
1.092498808537098
 30
0.0
 11
26.62229918066291
 21
2.168319052447804
 31
0.0
  0
LINE
  5
3F30
330
3F17
100
AcDbEntity
  8
0
  6
CONTINUOUS
100
AcDbLine
 10
25.75457721316825
 20
0.62707787587295
 30
0.0
 11
26.83048093248366
 21
1.702981595188365
 31
0.0
  0
LINE
  5
3F31
330
3F17
100
AcDbEntity
  8
0
  6
CONTINUOUS
100
AcDbLine
 10
29.30199999996933
 20
6.195058289914587
 30
0.0
 11
30.74199999996926
 21
7.635058289914522
 31
0.0
  0
LINE
  5
3F32
330
3F17
100
AcDbEntity
  8
0
  6
CONTINUOUS
100
AcDbLine
 10
29.30199999996933
 20
5.521539080834401
 30
0.0
 11
30.74199999996926
 21
6.961539080834331
 31
0.0
  0
LINE
  5
3F33
330
3F17
100
AcDbEntity
  8
0
  6
CONTINUOUS
100
AcDbLine
 10
29.30199999996933
 20
4.848019871754214
 30
0.0
 11
30.74199999996925
 21
6.288019871754143
 31
0.0
  0
LINE
  5
3F34
330
3F17
100
AcDbEntity
  8
0
  6
CONTINUOUS
100
AcDbLine
 10
29.30199999996933
 20
4.174500662674028
 30
0.0
 11
30.74199999996925
 21
5.614500662673953
 31
0.0
  0
LINE
  5
3F35
330
3F17
100
AcDbEntity
  8
0
  6
CONTINUOUS
100
AcDbLine
 10
25.96267548958429
 20
0.1616569432088024
 30
0.0
 11
27.18411854636669
 21
1.383099999991207
 31
0.0
  0
LINE
  5
3F36
330
3F17
100
AcDbEntity
  8
0
  6
CONTINUOUS
100
AcDbLine
 10
29.30199999996933
 20
3.500981453593841
 30
0.0
 11
30.74199999996925
 21
4.940981453593762
 31
0.0
  0
LINE
  5
3F37
330
3F17
100
AcDbEntity
  8
0
  6
CONTINUOUS
100
AcDbLine
 10
26.50763775544691
 20
0.0330999999912356
 30
0.0
 11
27.85763775544689
 21
1.383099999991223
 31
0.0
  0
LINE
  5
3F38
330
3F17
100
AcDbEntity
  8
0
  6
CONTINUOUS
100
AcDbLine
 10
29.30199999996933
 20
2.827462244513656
 30
0.0
 11
30.74199999996925
 21
4.267462244513574
 31
0.0
  0
LINE
  5
3F39
330
3F17
100
AcDbEntity
  8
0
  6
CONTINUOUS
100
AcDbLine
 10
27.18115696452709
 20
0.0330999999912356
 30
0.0
 11
28.55073879889363
 21
1.402681834357775
 31
0.0
  0
LINE
  5
3F3A
330
3F17
100
AcDbEntity
  8
0
  6
CONTINUOUS
100
AcDbLine
 10
29.28241816560272
 20
2.134361201066866
 30
0.0
 11
30.74199999996924
 21
3.593943035433383
 31
0.0
  0
LINE
  5
3F3B
330
3F17
100
AcDbEntity
  8
0
  6
CONTINUOUS
100
AcDbLine
 10
27.85467617360728
 20
0.0330999999912356
 30
0.0
 11
30.74199999996924
 21
2.920423826353195
 31
0.0
  0
LINE
  5
3F3C
330
3F17
100
AcDbEntity
  8
0
  6
CONTINUOUS
100
AcDbLine
 10
28.53897559587887
 20
0.0438802131826428
 30
0.0
 11
30.73121978677781
 21
2.236124404081585
 31
0.0
  0
LINE
  5
3F3D
330
3F17
100
AcDbEntity
  8
0
  6
CONTINUOUS
100
AcDbLine
 10
29.45140055588722
 20
0.2827859641107988
 30
0.0
 11
30.49231403584965
 21
1.323699444073236
 31
0.0
  0
LINE
  5
3F3E
330
3F17
100
AcDbEntity
  8
0
  6
CONTINUOUS
100
AcDbLine
 10
19.59027867740337
 20
-0.0000967065718083
 30
0.0
 11
19.55485265190471
 21
0.035329318926844
 31
0.0
  0
LINE
  5
3F3F
330
3F17
100
AcDbEntity
  8
0
  6
CONTINUOUS
100
AcDbLine
 10
20.26375463176586
 20
-0.0000534518541091
 30
0.0
 11
19.76305575737534
 21
0.5006454225364014
 31
0.0
  0
LINE
  5
3F40
330
3F17
100
AcDbEntity
  8
0
  6
CONTINUOUS
100
AcDbLine
 10
20.93723058612834
 20
-0.0000101971364099
 30
0.0
 11
19.97125886284597
 21
0.965961526145958
 31
0.0
  0
LINE
  5
3F41
330
3F17
100
AcDbEntity
  8
0
  6
CONTINUOUS
100
AcDbLine
 10
21.25514828313686
 20
0.355591314935257
 30
0.0
 11
20.1794619683166
 21
1.431277629755512
 31
0.0
  0
LINE
  5
3F42
330
3F17
100
AcDbEntity
  8
0
  6
CONTINUOUS
100
AcDbLine
 10
21.46338838394921
 20
0.8208704232030986
 30
0.0
 11
20.38766507378723
 21
1.896593733365069
 31
0.0
  0
LINE
  5
3F43
330
3F17
100
AcDbEntity
  8
0
  6
CONTINUOUS
100
AcDbLine
 10
21.67162848476155
 20
1.28614953147094
 30
0.0
 11
20.59586817925786
 21
2.361909836974626
 31
0.0
  0
LINE
  5
3F44
330
3F17
100
AcDbEntity
  8
0
  6
CONTINUOUS
100
AcDbLine
 10
21.8798685855739
 20
1.751428639738782
 30
0.0
 11
20.80407128472849
 21
2.827225940584183
 31
0.0
  0
LINE
  5
3F45
330
3F17
100
AcDbEntity
  8
0
  6
CONTINUOUS
100
AcDbLine
 10
22.08810868638624
 20
2.216707748006623
 30
0.0
 11
21.01227439019912
 21
3.292542044193739
 31
0.0
  0
LINE
  5
3F46
330
3F17
100
AcDbEntity
  8
0
  6
CONTINUOUS
100
AcDbLine
 10
22.60993564347543
 20
2.36839999999762
 30
0.0
 11
21.22047749566975
 21
3.757858147803296
 31
0.0
  0
LINE
  5
3F47
330
3F17
100
AcDbEntity
  8
0
  6
CONTINUOUS
100
AcDbLine
 10
23.28345485255561
 20
2.36839999999762
 30
0.0
 11
21.42868060114038
 21
4.223174251412853
 31
0.0
  0
LINE
  5
3F48
330
3F17
100
AcDbEntity
  8
0
  6
CONTINUOUS
100
AcDbLine
 10
26.29227406164219
 20
0.0330999999912356
 30
0.0
 11
25.80009199592872
 21
0.5252820657046957
 31
0.0
  0
LINE
  5
3F49
330
3F17
100
AcDbEntity
  8
0
  6
CONTINUOUS
100
AcDbLine
 10
23.9569740616358
 20
2.36839999999762
 30
0.0
 11
21.63688370661101
 21
4.688490355022409
 31
0.0
  0
LINE
  5
3F4A
330
3F17
100
AcDbEntity
  8
0
  6
CONTINUOUS
100
AcDbLine
 10
26.96579327072237
 20
0.0330999999912356
 30
0.0
 11
25.2554132311971
 21
1.743480039516508
 31
0.0
  0
LINE
  5
3F4B
330
3F17
100
AcDbEntity
  8
0
  6
CONTINUOUS
100
AcDbLine
 10
24.63049327071599
 20
2.36839999999762
 30
0.0
 11
23.32789327071731
 21
3.670999999996297
 31
0.0
  0
LINE
  5
3F4C
330
3F17
100
AcDbEntity
  8
0
  6
CONTINUOUS
100
AcDbLine
 10
22.92098674744635
 20
4.077906523267254
 30
0.0
 11
21.84508681208164
 21
5.153806458631966
 31
0.0
  0
LINE
  5
3F4D
330
3F17
100
AcDbEntity
  8
0
  6
CONTINUOUS
100
AcDbLine
 10
27.63931247980256
 20
0.0330999999912356
 30
0.0
 11
24.0014124797975
 21
3.670999999996297
 31
0.0
  0
LINE
  5
3F4E
330
3F17
100
AcDbEntity
  8
0
  6
CONTINUOUS
100
AcDbLine
 10
23.129125600968
 20
4.5432868788258
 30
0.0
 11
22.05328991755227
 21
5.619122562241522
 31
0.0
  0
LINE
  5
3F4F
330
3F17
100
AcDbEntity
  8
0
  6
CONTINUOUS
100
AcDbLine
 10
28.31283168888275
 20
0.0330999999912356
 30
0.0
 11
24.16488385994816
 21
4.181047828925828
 31
0.0
  0
LINE
  5
3F50
330
3F17
100
AcDbEntity
  8
0
  6
CONTINUOUS
100
AcDbLine
 10
23.33726445448964
 20
5.008667234384345
 30
0.0
 11
22.2614930230229
 21
6.084438665851079
 31
0.0
  0
LINE
  5
3F51
330
3F17
100
AcDbEntity
  8
0
  6
CONTINUOUS
100
AcDbLine
 10
28.92085740005492
 20
0.0985934978992438
 30
0.0
 11
27.63635089796295
 21
1.383099999991217
 31
0.0
  0
LINE
  5
3F52
330
3F17
100
AcDbEntity
  8
0
  6
CONTINUOUS
100
AcDbLine
 10
26.43704649509776
 20
2.582404402856405
 30
0.0
 11
23.61992702019732
 21
5.399523877756844
 31
0.0
  0
LINE
  5
3F53
330
3F17
100
AcDbEntity
  8
0
  6
CONTINUOUS
100
AcDbLine
 10
23.54540330801128
 20
5.47404758994289
 30
0.0
 11
22.46969612849353
 21
6.549754769460635
 31
0.0
  0
LINE
  5
3F54
330
3F17
100
AcDbEntity
  8
0
  6
CONTINUOUS
100
AcDbLine
 10
29.42225615078443
 20
0.2707139562499279
 30
0.0
 11
28.30987010704312
 21
1.383099999991234
 31
0.0
  0
LINE
  5
3F55
330
3F17
100
AcDbEntity
  8
0
  6
CONTINUOUS
100
AcDbLine
 10
25.89179548232307
 20
3.801174624711282
 30
0.0
 11
22.67789923396416
 21
7.015070873070191
 31
0.0
  0
LINE
  5
3F56
330
3F17
100
AcDbEntity
  8
0
  6
CONTINUOUS
100
AcDbLine
 10
29.83624534690007
 20
0.5302439692144705
 30
0.0
 11
28.85811781497101
 21
1.508371501143527
 31
0.0
  0
LINE
  5
3F57
330
3F17
100
AcDbEntity
  8
0
  6
CONTINUOUS
100
AcDbLine
 10
25.34654446954838
 20
5.01994484656616
 30
0.0
 11
22.88610233943479
 21
7.480386976679748
 31
0.0
  0
LINE
  5
3F58
330
3F17
100
AcDbEntity
  8
0
  6
CONTINUOUS
100
AcDbLine
 10
30.17865975401872
 20
0.8613487711760022
 30
0.0
 11
29.18888744090175
 21
1.851121084292977
 31
0.0
  0
LINE
  5
3F59
330
3F17
100
AcDbEntity
  8
0
  6
CONTINUOUS
100
AcDbLine
 10
24.80129345677369
 20
6.238715068421037
 30
0.0
 11
23.09430544490542
 21
7.945703080289305
 31
0.0
  0
LINE
  5
3F5A
330
3F17
100
AcDbEntity
  8
0
  6
CONTINUOUS
100
AcDbLine
 10
30.45496647202376
 20
1.258561262251155
 30
0.0
 11
29.30199999996933
 21
2.411527734305588
 31
0.0
  0
LINE
  5
3F5B
330
3F17
100
AcDbEntity
  8
0
  6
CONTINUOUS
100
AcDbLine
 10
24.256042443999
 20
7.457485290275915
 30
0.0
 11
23.30250855037605
 21
8.411019183898862
 31
0.0
  0
LINE
  5
3F5C
330
3F17
100
AcDbEntity
  8
0
  6
CONTINUOUS
100
AcDbLine
 10
30.64868582078271
 20
1.738361122572387
 30
0.0
 11
29.30199999996933
 21
3.085046943385775
 31
0.0
  0
LINE
  5
3F5D
330
3F17
100
AcDbEntity
  8
0
  6
CONTINUOUS
100
AcDbLine
 10
23.71079143122431
 20
8.676255512130794
 30
0.0
 11
23.51071165584668
 21
8.876335287508416
 31
0.0
  0
LINE
  5
3F5E
330
3F17
100
AcDbEntity
  8
0
  6
CONTINUOUS
100
AcDbLine
 10
30.73802122914428
 20
2.322544923291007
 30
0.0
 11
29.30199999996933
 21
3.758566152465961
 31
0.0
  0
LINE
  5
3F5F
330
3F17
100
AcDbEntity
  8
0
  6
CONTINUOUS
100
AcDbLine
 10
30.74199999996924
 20
2.992085361546236
 30
0.0
 11
29.30199999996933
 21
4.432085361546148
 31
0.0
  0
LINE
  5
3F60
330
3F17
100
AcDbEntity
  8
0
  6
CONTINUOUS
100
AcDbLine
 10
30.74199999996924
 20
3.665604570626419
 30
0.0
 11
29.30199999996933
 21
5.105604570626333
 31
0.0
  0
LINE
  5
3F61
330
3F17
100
AcDbEntity
  8
0
  6
CONTINUOUS
100
AcDbLine
 10
30.74199999996925
 20
4.339123779706602
 30
0.0
 11
29.30199999996933
 21
5.77912377970652
 31
0.0
  0
LINE
  5
3F62
330
3F17
100
AcDbEntity
  8
0
  6
CONTINUOUS
100
AcDbLine
 10
30.74199999996925
 20
5.012642988786785
 30
0.0
 11
29.30199999996933
 21
6.452642988786707
 31
0.0
  0
LINE
  5
3F63
330
3F17
100
AcDbEntity
  8
0
  6
CONTINUOUS
100
AcDbLine
 10
30.74199999996925
 20
5.68616219786697
 30
0.0
 11
29.30199999996933
 21
7.126162197866894
 31
0.0
  0
LINE
  5
3F64
330
3F17
100
AcDbEntity
  8
0
  6
CONTINUOUS
100
AcDbLine
 10
30.74199999996925
 20
6.359681406947153
 30
0.0
 11
29.30199999996933
 21
7.799681406947081
 31
0.0
  0
LINE
  5
3F65
330
3F17
100
AcDbEntity
  8
0
  6
CONTINUOUS
100
AcDbLine
 10
30.74199999996926
 20
7.033200616027337
 30
0.0
 11
29.30199999996933
 21
8.473200616027269
 31
0.0
  0
LINE
  5
3F66
330
3F17
100
AcDbEntity
  8
0
  6
CONTINUOUS
100
AcDbLine
 10
30.74199999996926
 20
7.706719825107518
 30
0.0
 11
29.68561982508552
 21
8.763099999991255
 31
0.0
  0
LINE
  5
3F67
330
3F17
100
AcDbEntity
  8
0
  6
CONTINUOUS
100
AcDbLine
 10
30.74199999996926
 20
8.380239034187703
 30
0.0
 11
30.35913903416571
 21
8.763099999991255
 31
0.0
  0
ENDBLK
  5
400A
330
3F17
100
AcDbEntity
  8
0
100
AcDbBlockEnd
  0
BLOCK
  5
400B
330
3F68
100
AcDbEntity
  8
0
100
AcDbBlockBegin
  2
*X38
 70
     1
 10
0.0
 20
0.0
 30
0.0
  3
*X38
  1

  0
LINE
  5
3F69
330
3F68
100
AcDbEntity
  8
0
  6
CONTINUOUS
100
AcDbLine
 10
31.64199999996833
 20
8.535058289913598
 30
0.0
 11
31.87004171004599
 21
8.763099999991255
 31
0.0
  0
LINE
  5
3F6A
330
3F68
100
AcDbEntity
  8
0
  6
CONTINUOUS
100
AcDbLine
 10
31.64199999996833
 20
7.861539080833412
 30
0.0
 11
32.54356091912618
 21
8.763099999991255
 31
0.0
  0
LINE
  5
3F6B
330
3F68
100
AcDbEntity
  8
0
  6
CONTINUOUS
100
AcDbLine
 10
31.64199999996833
 20
7.188019871753226
 30
0.0
 11
33.08199999996839
 21
8.628019871753281
 31
0.0
  0
LINE
  5
3F6C
330
3F68
100
AcDbEntity
  8
0
  6
CONTINUOUS
100
AcDbLine
 10
31.64199999996833
 20
6.51450066267304
 30
0.0
 11
33.08199999996839
 21
7.954500662673095
 31
0.0
  0
LINE
  5
3F6D
330
3F68
100
AcDbEntity
  8
0
  6
CONTINUOUS
100
AcDbLine
 10
31.64199999996833
 20
5.840981453592853
 30
0.0
 11
33.08199999996839
 21
7.280981453592908
 31
0.0
  0
LINE
  5
3F6E
330
3F68
100
AcDbEntity
  8
0
  6
CONTINUOUS
100
AcDbLine
 10
31.64199999996833
 20
5.167462244512667
 30
0.0
 11
33.08199999996839
 21
6.607462244512721
 31
0.0
  0
LINE
  5
3F6F
330
3F68
100
AcDbEntity
  8
0
  6
CONTINUOUS
100
AcDbLine
 10
31.64199999996833
 20
4.493943035432481
 30
0.0
 11
33.08199999996839
 21
5.933943035432535
 31
0.0
  0
LINE
  5
3F70
330
3F68
100
AcDbEntity
  8
0
  6
CONTINUOUS
100
AcDbLine
 10
31.64199999996833
 20
3.820423826352293
 30
0.0
 11
33.08199999996839
 21
5.260423826352348
 31
0.0
  0
LINE
  5
3F71
330
3F68
100
AcDbEntity
  8
0
  6
CONTINUOUS
100
AcDbLine
 10
31.64199999996833
 20
3.146904617272106
 30
0.0
 11
33.08199999996839
 21
4.586904617272161
 31
0.0
  0
LINE
  5
3F72
330
3F68
100
AcDbEntity
  8
0
  6
CONTINUOUS
100
AcDbLine
 10
36.23199999996837
 20
8.410423826352325
 30
0.0
 11
36.5846761736073
 21
8.763099999991255
 31
0.0
  0
LINE
  5
3F73
330
3F68
100
AcDbEntity
  8
0
  6
CONTINUOUS
100
AcDbLine
 10
36.23199999996837
 20
7.73690461727214
 30
0.0
 11
37.25819538268748
 21
8.763099999991255
 31
0.0
  0
LINE
  5
3F74
330
3F68
100
AcDbEntity
  8
0
  6
CONTINUOUS
100
AcDbLine
 10
31.64257403601376
 20
2.473959444237348
 30
0.0
 11
33.08199999996839
 21
3.913385408191974
 31
0.0
  0
LINE
  5
3F75
330
3F68
100
AcDbEntity
  8
0
  6
CONTINUOUS
100
AcDbLine
 10
36.23199999996837
 20
7.063385408191953
 30
0.0
 11
37.67199999996831
 21
8.503385408191894
 31
0.0
  0
LINE
  5
3F76
330
3F68
100
AcDbEntity
  8
0
  6
CONTINUOUS
100
AcDbLine
 10
31.72013636841932
 20
1.87800256756272
 30
0.0
 11
33.08199999996839
 21
3.239866199111788
 31
0.0
  0
LINE
  5
3F77
330
3F68
100
AcDbEntity
  8
0
  6
CONTINUOUS
100
AcDbLine
 10
36.23199999996837
 20
6.389866199111767
 30
0.0
 11
37.67199999996831
 21
7.829866199111708
 31
0.0
  0
LINE
  5
3F78
330
3F68
100
AcDbEntity
  8
0
  6
CONTINUOUS
100
AcDbLine
 10
31.89042734314753
 20
1.374774333210744
 30
0.0
 11
33.08199999996839
 21
2.566346990031601
 31
0.0
  0
LINE
  5
3F79
330
3F68
100
AcDbEntity
  8
0
  6
CONTINUOUS
100
AcDbLine
 10
36.23199999996837
 20
5.71634699003158
 30
0.0
 11
37.67199999996831
 21
7.156346990031521
 31
0.0
  0
LINE
  5
3F7A
330
3F68
100
AcDbEntity
  8
0
  6
CONTINUOUS
100
AcDbLine
 10
32.14210568064475
 20
0.952933461627778
 30
0.0
 11
33.18745552475986
 21
1.998283305742888
 31
0.0
  0
LINE
  5
3F7B
330
3F68
100
AcDbEntity
  8
0
  6
CONTINUOUS
100
AcDbLine
 10
36.23199999996837
 20
5.042827780951393
 30
0.0
 11
37.67199999996831
 21
6.482827780951334
 31
0.0
  0
LINE
  5
3F7C
330
3F68
100
AcDbEntity
  8
0
  6
CONTINUOUS
100
AcDbLine
 10
32.45820639400955
 20
0.5955149659123915
 30
0.0
 11
33.47242681921943
 21
1.60973539112227
 31
0.0
  0
LINE
  5
3F7D
330
3F68
100
AcDbEntity
  8
0
  6
CONTINUOUS
100
AcDbLine
 10
36.23199999996837
 20
4.369308571871207
 30
0.0
 11
37.67199999996831
 21
5.809308571871147
 31
0.0
  0
LINE
  5
3F7E
330
3F68
100
AcDbEntity
  8
0
  6
CONTINUOUS
100
AcDbLine
 10
32.83432456621412
 20
0.2981139290367771
 30
0.0
 11
33.89722476612215
 21
1.361014128944803
 31
0.0
  0
LINE
  5
3F7F
330
3F68
100
AcDbEntity
  8
0
  6
CONTINUOUS
100
AcDbLine
 10
36.23199999996837
 20
3.69578936279102
 30
0.0
 11
37.67199999996831
 21
5.135789362790962
 31
0.0
  0
LINE
  5
3F80
330
3F68
100
AcDbEntity
  8
0
  6
CONTINUOUS
100
AcDbLine
 10
33.2711633111245
 20
0.0614334648669672
 30
0.0
 11
34.43247338014423
 21
1.222743533886696
 31
0.0
  0
LINE
  5
3F81
330
3F68
100
AcDbEntity
  8
0
  6
CONTINUOUS
100
AcDbLine
 10
36.23199999996837
 20
3.022270153710834
 30
0.0
 11
37.67199999996831
 21
4.462270153710775
 31
0.0
  0
LINE
  5
3F82
330
3F68
100
AcDbEntity
  8
0
  6
CONTINUOUS
100
AcDbLine
 10
33.76515245874577
 20
-0.1180965965919523
 30
0.0
 11
35.1587445516215
 21
1.27549549628378
 31
0.0
  0
LINE
  5
3F83
330
3F68
100
AcDbEntity
  8
0
  6
CONTINUOUS
100
AcDbLine
 10
36.21639478609585
 20
2.333145730758136
 30
0.0
 11
37.67199999996831
 21
3.788750944630588
 31
0.0
  0
LINE
  5
3F84
330
3F68
100
AcDbEntity
  8
0
  6
CONTINUOUS
100
AcDbLine
 10
34.34060583368432
 20
-0.2161624307335863
 30
0.0
 11
37.67199999996831
 21
3.115231735550401
 31
0.0
  0
LINE
  5
3F85
330
3F68
100
AcDbEntity
  8
0
  6
CONTINUOUS
100
AcDbLine
 10
35.01698193613905
 20
-0.2133055373590427
 30
0.0
 11
37.66876712070525
 21
2.438479647207154
 31
0.0
  0
LINE
  5
3F86
330
3F68
100
AcDbEntity
  8
0
  6
CONTINUOUS
100
AcDbLine
 10
35.90743367693304
 20
0.0036269943547609
 30
0.0
 11
37.51723902192366
 21
1.613432339345381
 31
0.0
  0
LINE
  5
3F87
330
3F68
100
AcDbEntity
  8
0
  6
CONTINUOUS
100
AcDbLine
 10
32.55309425579761
 20
0.5074718966376706
 30
0.0
 11
32.27784730925847
 21
0.7827188431768102
 31
0.0
  0
LINE
  5
3F88
330
3F68
100
AcDbEntity
  8
0
  6
CONTINUOUS
100
AcDbLine
 10
33.87496468909684
 20
-0.1408793275813673
 30
0.0
 11
31.67993083278052
 21
2.054154528734943
 31
0.0
  0
LINE
  5
3F89
330
3F68
100
AcDbEntity
  8
0
  6
CONTINUOUS
100
AcDbLine
 10
34.64362813207632
 20
-0.2360235614806649
 30
0.0
 11
31.64199999996833
 21
2.765604570627322
 31
0.0
  0
LINE
  5
3F8A
330
3F68
100
AcDbEntity
  8
0
  6
CONTINUOUS
100
AcDbLine
 10
35.25801106796118
 20
-0.1768872882853429
 30
0.0
 11
31.64199999996833
 21
3.439123779707508
 31
0.0
  0
LINE
  5
3F8B
330
3F68
100
AcDbEntity
  8
0
  6
CONTINUOUS
100
AcDbLine
 10
35.79065650332146
 20
-0.0360135145654361
 30
0.0
 11
34.54143210838231
 21
1.213210880373721
 31
0.0
  0
LINE
  5
3F8C
330
3F68
100
AcDbEntity
  8
0
  6
CONTINUOUS
100
AcDbLine
 10
33.08199999996839
 20
2.67264298878764
 30
0.0
 11
31.64199999996833
 21
4.112642988787695
 31
0.0
  0
LINE
  5
3F8D
330
3F68
100
AcDbEntity
  8
0
  6
CONTINUOUS
100
AcDbLine
 10
36.25975597779143
 20
0.1684062200447833
 30
0.0
 11
35.15395110240023
 21
1.274211095435983
 31
0.0
  0
LINE
  5
3F8E
330
3F68
100
AcDbEntity
  8
0
  6
CONTINUOUS
100
AcDbLine
 10
33.08199999996839
 20
3.346162197867826
 30
0.0
 11
31.64199999996833
 21
4.786162197867881
 31
0.0
  0
LINE
  5
3F8F
330
3F68
100
AcDbEntity
  8
0
  6
CONTINUOUS
100
AcDbLine
 10
36.67226329638774
 20
0.4294181105286579
 30
0.0
 11
35.63766478748767
 21
1.464016619428737
 31
0.0
  0
LINE
  5
3F90
330
3F68
100
AcDbEntity
  8
0
  6
CONTINUOUS
100
AcDbLine
 10
33.08199999996839
 20
4.019681406948012
 30
0.0
 11
31.64199999996833
 21
5.459681406948068
 31
0.0
  0
LINE
  5
3F91
330
3F68
100
AcDbEntity
  8
0
  6
CONTINUOUS
100
AcDbLine
 10
37.01677749710036
 20
0.7584231188962329
 30
0.0
 11
35.99563422741351
 21
1.779566388583076
 31
0.0
  0
LINE
  5
3F92
330
3F68
100
AcDbEntity
  8
0
  6
CONTINUOUS
100
AcDbLine
 10
33.08199999996839
 20
4.693200616028199
 30
0.0
 11
31.64199999996833
 21
6.133200616028255
 31
0.0
  0
LINE
  5
3F93
330
3F68
100
AcDbEntity
  8
0
  6
CONTINUOUS
100
AcDbLine
 10
37.29859977568887
 20
1.1501200493879
 30
0.0
 11
36.20680593341555
 21
2.241913891661226
 31
0.0
  0
LINE
  5
3F94
330
3F68
100
AcDbEntity
  8
0
  6
CONTINUOUS
100
AcDbLine
 10
33.08199999996839
 20
5.366719825108386
 30
0.0
 11
31.64199999996833
 21
6.80671982510844
 31
0.0
  0
LINE
  5
3F95
330
3F68
100
AcDbEntity
  8
0
  6
CONTINUOUS
100
AcDbLine
 10
37.5148623517228
 20
1.607376682434161
 30
0.0
 11
36.23199999996837
 21
2.890239034188594
 31
0.0
  0
LINE
  5
3F96
330
3F68
100
AcDbEntity
  8
0
  6
CONTINUOUS
100
AcDbLine
 10
33.08199999996839
 20
6.040239034188573
 30
0.0
 11
31.64199999996833
 21
7.480239034188627
 31
0.0
  0
LINE
  5
3F97
330
3F68
100
AcDbEntity
  8
0
  6
CONTINUOUS
100
AcDbLine
 10
37.64705163358367
 20
2.148706609653477
 30
0.0
 11
36.23199999996837
 21
3.56375824326878
 31
0.0
  0
LINE
  5
3F98
330
3F68
100
AcDbEntity
  8
0
  6
CONTINUOUS
100
AcDbLine
 10
33.08199999996839
 20
6.713758243268758
 30
0.0
 11
31.64199999996833
 21
8.153758243268815
 31
0.0
  0
LINE
  5
3F99
330
3F68
100
AcDbEntity
  8
0
  6
CONTINUOUS
100
AcDbLine
 10
37.67199999996831
 20
2.797277452349026
 30
0.0
 11
36.23199999996837
 21
4.237277452348967
 31
0.0
  0
LINE
  5
3F9A
330
3F68
100
AcDbEntity
  8
0
  6
CONTINUOUS
100
AcDbLine
 10
37.67199999996831
 20
3.470796661429213
 30
0.0
 11
36.23199999996837
 21
4.910796661429154
 31
0.0
  0
LINE
  5
3F9B
330
3F68
100
AcDbEntity
  8
0
  6
CONTINUOUS
100
AcDbLine
 10
37.67199999996831
 20
4.144315870509399
 30
0.0
 11
36.23199999996837
 21
5.58431587050934
 31
0.0
  0
LINE
  5
3F9C
330
3F68
100
AcDbEntity
  8
0
  6
CONTINUOUS
100
AcDbLine
 10
33.08199999996839
 20
7.387277452348945
 30
0.0
 11
31.70617745232608
 21
8.763099999991255
 31
0.0
  0
LINE
  5
3F9D
330
3F68
100
AcDbEntity
  8
0
  6
CONTINUOUS
100
AcDbLine
 10
33.08199999996839
 20
8.060796661429132
 30
0.0
 11
32.37969666140626
 21
8.763099999991255
 31
0.0
  0
LINE
  5
3F9E
330
3F68
100
AcDbEntity
  8
0
  6
CONTINUOUS
100
AcDbLine
 10
33.08199999996839
 20
8.734315870509318
 30
0.0
 11
33.05321587048645
 21
8.763099999991255
 31
0.0
  0
LINE
  5
3F9F
330
3F68
100
AcDbEntity
  8
0
  6
CONTINUOUS
100
AcDbLine
 10
37.67199999996831
 20
4.817835079589585
 30
0.0
 11
36.23199999996837
 21
6.257835079589526
 31
0.0
  0
LINE
  5
3FA0
330
3F68
100
AcDbEntity
  8
0
  6
CONTINUOUS
100
AcDbLine
 10
37.67199999996831
 20
5.491354288669771
 30
0.0
 11
36.23199999996837
 21
6.931354288669713
 31
0.0
  0
LINE
  5
3FA1
330
3F68
100
AcDbEntity
  8
0
  6
CONTINUOUS
100
AcDbLine
 10
37.67199999996831
 20
6.164873497749958
 30
0.0
 11
36.23199999996837
 21
7.6048734977499
 31
0.0
  0
LINE
  5
3FA2
330
3F68
100
AcDbEntity
  8
0
  6
CONTINUOUS
100
AcDbLine
 10
37.67199999996831
 20
6.838392706830144
 30
0.0
 11
36.23199999996837
 21
8.278392706830086
 31
0.0
  0
LINE
  5
3FA3
330
3F68
100
AcDbEntity
  8
0
  6
CONTINUOUS
100
AcDbLine
 10
37.67199999996831
 20
7.511911915910332
 30
0.0
 11
36.42081191588738
 21
8.763099999991255
 31
0.0
  0
LINE
  5
3FA4
330
3F68
100
AcDbEntity
  8
0
  6
CONTINUOUS
100
AcDbLine
 10
37.67199999996831
 20
8.185431124990519
 30
0.0
 11
37.09433112496757
 21
8.763099999991255
 31
0.0
  0
ENDBLK
  5
400C
330
3F68
100
AcDbEntity
  8
0
100
AcDbBlockEnd
  0
BLOCK
  5
400D
330
3FA5
100
AcDbEntity
  8
0
100
AcDbBlockBegin
  2
*X39
 70
     1
 10
0.0
 20
0.0
 30
0.0
  3
*X39
  1

  0
LINE
  5
3FA6
330
3FA5
100
AcDbEntity
  8
0
  6
CONTINUOUS
100
AcDbLine
 10
38.60499999996136
 20
8.762866199104765
 30
0.0
 11
38.71672554182345
 21
8.874591740966855
 31
0.0
  0
LINE
  5
3FA7
330
3FA5
100
AcDbEntity
  8
0
  6
CONTINUOUS
100
AcDbLine
 10
38.60499999996136
 20
8.089346990024577
 30
0.0
 11
39.03418785440363
 21
8.518534844466847
 31
0.0
  0
LINE
  5
3FA8
330
3FA5
100
AcDbEntity
  8
0
  6
CONTINUOUS
100
AcDbLine
 10
38.60499999996136
 20
7.41582778094439
 30
0.0
 11
39.35165016698382
 21
8.16247794796684
 31
0.0
  0
LINE
  5
3FA9
330
3FA5
100
AcDbEntity
  8
0
  6
CONTINUOUS
100
AcDbLine
 10
38.60499999996136
 20
6.742308571864204
 30
0.0
 11
39.66911247956399
 21
7.806421051466834
 31
0.0
  0
LINE
  5
3FAA
330
3FA5
100
AcDbEntity
  8
0
  6
CONTINUOUS
100
AcDbLine
 10
38.60499999996136
 20
6.068789362784018
 30
0.0
 11
39.98657479214418
 21
7.450364154966827
 31
0.0
  0
LINE
  5
3FAB
330
3FA5
100
AcDbEntity
  8
0
  6
CONTINUOUS
100
AcDbLine
 10
38.60499999996136
 20
5.395270153703832
 30
0.0
 11
40.30403710472435
 21
7.09430725846682
 31
0.0
  0
LINE
  5
3FAC
330
3FA5
100
AcDbEntity
  8
0
  6
CONTINUOUS
100
AcDbLine
 10
38.60499999996136
 20
4.721750944623645
 30
0.0
 11
40.62149941730453
 21
6.738250361966813
 31
0.0
  0
LINE
  5
3FAD
330
3FA5
100
AcDbEntity
  8
0
  6
CONTINUOUS
100
AcDbLine
 10
38.60499999996136
 20
4.048231735543458
 30
0.0
 11
40.93896172988471
 21
6.382193465466806
 31
0.0
  0
LINE
  5
3FAE
330
3FA5
100
AcDbEntity
  8
0
  6
CONTINUOUS
100
AcDbLine
 10
38.60499999996136
 20
3.374712526463272
 30
0.0
 11
40.02599999995994
 21
4.795712526461843
 31
0.0
  0
LINE
  5
3FAF
330
3FA5
100
AcDbEntity
  8
0
  6
CONTINUOUS
100
AcDbLine
 10
38.60499999996136
 20
2.701193317383085
 30
0.0
 11
40.02599999995994
 21
4.122193317381657
 31
0.0
  0
LINE
  5
3FB0
330
3FA5
100
AcDbEntity
  8
0
  6
CONTINUOUS
100
AcDbLine
 10
40.28339754687704
 20
5.053110073378947
 30
0.0
 11
41.25642404246489
 21
6.026136568966799
 31
0.0
  0
LINE
  5
3FB1
330
3FA5
100
AcDbEntity
  8
0
  6
CONTINUOUS
100
AcDbLine
 10
40.60085985945722
 20
4.697053176878939
 30
0.0
 11
41.57388635504507
 21
5.670079672466793
 31
0.0
  0
LINE
  5
3FB2
330
3FA5
100
AcDbEntity
  8
0
  6
CONTINUOUS
100
AcDbLine
 10
43.57899999995641
 20
8.348712526458318
 30
0.0
 11
43.99338747348935
 21
8.763099999991255
 31
0.0
  0
LINE
  5
3FB3
330
3FA5
100
AcDbEntity
  8
0
  6
CONTINUOUS
100
AcDbLine
 10
43.57899999995641
 20
7.675193317378131
 30
0.0
 11
44.66690668256953
 21
8.763099999991255
 31
0.0
  0
LINE
  5
3FB4
330
3FA5
100
AcDbEntity
  8
0
  6
CONTINUOUS
100
AcDbLine
 10
38.60499999996136
 20
2.027674108302898
 30
0.0
 11
40.02599999995994
 21
3.44867410830147
 31
0.0
  0
LINE
  5
3FB5
330
3FA5
100
AcDbEntity
  8
0
  6
CONTINUOUS
100
AcDbLine
 10
38.60499999996136
 20
1.354154899222712
 30
0.0
 11
40.02599999995994
 21
2.775154899221284
 31
0.0
  0
LINE
  5
3FB6
330
3FA5
100
AcDbEntity
  8
0
  6
CONTINUOUS
100
AcDbLine
 10
38.60499999996136
 20
0.6806356901425255
 30
0.0
 11
40.02599999995994
 21
2.101635690141098
 31
0.0
  0
LINE
  5
3FB7
330
3FA5
100
AcDbEntity
  8
0
  6
CONTINUOUS
100
AcDbLine
 10
38.60499999996136
 20
0.0071164810623383
 30
0.0
 11
40.02599999995994
 21
1.428116481060911
 31
0.0
  0
LINE
  5
3FB8
330
3FA5
100
AcDbEntity
  8
0
  6
CONTINUOUS
100
AcDbLine
 10
40.9183221720374
 20
4.340996280378933
 30
0.0
 11
41.89134866762525
 21
5.314022775966786
 31
0.0
  0
LINE
  5
3FB9
330
3FA5
100
AcDbEntity
  8
0
  6
CONTINUOUS
100
AcDbLine
 10
41.23578448461758
 20
3.984939383878926
 30
0.0
 11
42.20881098020543
 21
4.957965879466778
 31
0.0
  0
LINE
  5
3FBA
330
3FA5
100
AcDbEntity
  8
0
  6
CONTINUOUS
100
AcDbLine
 10
41.55324679719776
 20
3.628882487378919
 30
0.0
 11
42.52627329278561
 21
4.601908982966772
 31
0.0
  0
LINE
  5
3FBB
330
3FA5
100
AcDbEntity
  8
0
  6
CONTINUOUS
100
AcDbLine
 10
41.87070910977793
 20
3.272825590878912
 30
0.0
 11
42.84373560536579
 21
4.245852086466765
 31
0.0
  0
LINE
  5
3FBC
330
3FA5
100
AcDbEntity
  8
0
  6
CONTINUOUS
100
AcDbLine
 10
43.57899999995641
 20
7.001674108297943
 30
0.0
 11
44.99999999995498
 21
8.422674108296516
 31
0.0
  0
LINE
  5
3FBD
330
3FA5
100
AcDbEntity
  8
0
  6
CONTINUOUS
100
AcDbLine
 10
43.57899999995641
 20
6.328154899217758
 30
0.0
 11
44.99999999995498
 21
7.749154899216329
 31
0.0
  0
LINE
  5
3FBE
330
3FA5
100
AcDbEntity
  8
0
  6
CONTINUOUS
100
AcDbLine
 10
43.57899999995641
 20
5.654635690137571
 30
0.0
 11
44.99999999995498
 21
7.075635690136142
 31
0.0
  0
LINE
  5
3FBF
330
3FA5
100
AcDbEntity
  8
0
  6
CONTINUOUS
100
AcDbLine
 10
43.57899999995641
 20
4.981116481057384
 30
0.0
 11
44.99999999995498
 21
6.402116481055955
 31
0.0
  0
LINE
  5
3FC0
330
3FA5
100
AcDbEntity
  8
0
  6
CONTINUOUS
100
AcDbLine
 10
39.27140272797921
 20
-0.0000000000000009
 30
0.0
 11
40.02599999995994
 21
0.7545972719807246
 31
0.0
  0
LINE
  5
3FC1
330
3FA5
100
AcDbEntity
  8
0
  6
CONTINUOUS
100
AcDbLine
 10
39.9449219370594
 20
-0.0000000000000009
 30
0.0
 11
40.02599999995994
 21
0.0810780629005379
 31
0.0
  0
LINE
  5
3FC2
330
3FA5
100
AcDbEntity
  8
0
  6
CONTINUOUS
100
AcDbLine
 10
42.18817142235812
 20
2.916768694378905
 30
0.0
 11
43.16119791794597
 21
3.889795189966758
 31
0.0
  0
LINE
  5
3FC3
330
3FA5
100
AcDbEntity
  8
0
  6
CONTINUOUS
100
AcDbLine
 10
42.50563373493829
 20
2.560711797878898
 30
0.0
 11
43.47866023052615
 21
3.533738293466751
 31
0.0
  0
LINE
  5
3FC4
330
3FA5
100
AcDbEntity
  8
0
  6
CONTINUOUS
100
AcDbLine
 10
43.57899999995641
 20
4.307597271977198
 30
0.0
 11
44.99999999995498
 21
5.728597271975769
 31
0.0
  0
LINE
  5
3FC5
330
3FA5
100
AcDbEntity
  8
0
  6
CONTINUOUS
100
AcDbLine
 10
43.57899999995641
 20
3.634078062897011
 30
0.0
 11
44.99999999995498
 21
5.055078062895582
 31
0.0
  0
LINE
  5
3FC6
330
3FA5
100
AcDbEntity
  8
0
  6
CONTINUOUS
100
AcDbLine
 10
42.82309604751848
 20
2.204654901378891
 30
0.0
 11
44.99999999995498
 21
4.381558853815395
 31
0.0
  0
LINE
  5
3FC7
330
3FA5
100
AcDbEntity
  8
0
  6
CONTINUOUS
100
AcDbLine
 10
43.14055836009865
 20
1.848598004878885
 30
0.0
 11
44.99999999995498
 21
3.70803964473521
 31
0.0
  0
LINE
  5
3FC8
330
3FA5
100
AcDbEntity
  8
0
  6
CONTINUOUS
100
AcDbLine
 10
43.45802067267883
 20
1.492541108378878
 30
0.0
 11
44.99999999995498
 21
3.034520435655023
 31
0.0
  0
LINE
  5
3FC9
330
3FA5
100
AcDbEntity
  8
0
  6
CONTINUOUS
100
AcDbLine
 10
43.77548298525902
 20
1.136484211878871
 30
0.0
 11
44.99999999995498
 21
2.361001226574837
 31
0.0
  0
LINE
  5
3FCA
330
3FA5
100
AcDbEntity
  8
0
  6
CONTINUOUS
100
AcDbLine
 10
44.09294529783919
 20
0.7804273153788639
 30
0.0
 11
44.99999999995498
 21
1.687482017494649
 31
0.0
  0
LINE
  5
3FCB
330
3FA5
100
AcDbEntity
  8
0
  6
CONTINUOUS
100
AcDbLine
 10
44.41040761041938
 20
0.4243704188788566
 30
0.0
 11
44.99999999995498
 21
1.013962808414463
 31
0.0
  0
LINE
  5
3FCC
330
3FA5
100
AcDbEntity
  8
0
  6
CONTINUOUS
100
AcDbLine
 10
44.72786992299955
 20
0.0683135223788494
 30
0.0
 11
44.99999999995498
 21
0.340443599334276
 31
0.0
  0
LINE
  5
3FCD
330
3FA5
100
AcDbEntity
  8
0
  6
CONTINUOUS
100
AcDbLine
 10
39.12223903415696
 20
-0.0000000000000009
 30
0.0
 11
38.60499999996136
 21
0.5172390341955961
 31
0.0
  0
LINE
  5
3FCE
330
3FA5
100
AcDbEntity
  8
0
  6
CONTINUOUS
100
AcDbLine
 10
39.79575824323715
 20
-0.0000000000000009
 30
0.0
 11
38.60499999996136
 21
1.190758243275783
 31
0.0
  0
LINE
  5
3FCF
330
3FA5
100
AcDbEntity
  8
0
  6
CONTINUOUS
100
AcDbLine
 10
40.02599999995994
 20
0.443277452357397
 30
0.0
 11
38.60499999996136
 21
1.864277452355969
 31
0.0
  0
LINE
  5
3FD0
330
3FA5
100
AcDbEntity
  8
0
  6
CONTINUOUS
100
AcDbLine
 10
40.02599999995994
 20
1.116796661437583
 30
0.0
 11
38.60499999996136
 21
2.537796661436155
 31
0.0
  0
LINE
  5
3FD1
330
3FA5
100
AcDbEntity
  8
0
  6
CONTINUOUS
100
AcDbLine
 10
40.02599999995994
 20
1.79031587051777
 30
0.0
 11
38.60499999996136
 21
3.211315870516341
 31
0.0
  0
LINE
  5
3FD2
330
3FA5
100
AcDbEntity
  8
0
  6
CONTINUOUS
100
AcDbLine
 10
40.02599999995994
 20
2.463835079597956
 30
0.0
 11
38.60499999996136
 21
3.884835079596527
 31
0.0
  0
LINE
  5
3FD3
330
3FA5
100
AcDbEntity
  8
0
  6
CONTINUOUS
100
AcDbLine
 10
40.02599999995994
 20
3.137354288678143
 30
0.0
 11
38.60499999996136
 21
4.558354288676714
 31
0.0
  0
LINE
  5
3FD4
330
3FA5
100
AcDbEntity
  8
0
  6
CONTINUOUS
100
AcDbLine
 10
40.02599999995994
 20
3.810873497758329
 30
0.0
 11
38.60499999996136
 21
5.2318734977569
 31
0.0
  0
LINE
  5
3FD5
330
3FA5
100
AcDbEntity
  8
0
  6
CONTINUOUS
100
AcDbLine
 10
40.02599999995994
 20
4.484392706838515
 30
0.0
 11
38.60499999996136
 21
5.905392706837086
 31
0.0
  0
LINE
  5
3FD6
330
3FA5
100
AcDbEntity
  8
0
  6
CONTINUOUS
100
AcDbLine
 10
44.99999999995498
 20
0.183911915923658
 30
0.0
 11
41.53858364506288
 21
3.64532827081576
 31
0.0
  0
LINE
  5
3FD7
330
3FA5
100
AcDbEntity
  8
0
  6
CONTINUOUS
100
AcDbLine
 10
40.02599999995994
 20
5.157911915918703
 30
0.0
 11
38.60499999996136
 21
6.578911915917274
 31
0.0
  0
LINE
  5
3FD8
330
3FA5
100
AcDbEntity
  8
0
  6
CONTINUOUS
100
AcDbLine
 10
44.99999999995498
 20
0.8574311250038447
 30
0.0
 11
38.60499999996136
 21
7.25243112499746
 31
0.0
  0
LINE
  5
3FD9
330
3FA5
100
AcDbEntity
  8
0
  6
CONTINUOUS
100
AcDbLine
 10
44.99999999995498
 20
1.530950334084031
 30
0.0
 11
38.60499999996136
 21
7.925950334077647
 31
0.0
  0
LINE
  5
3FDA
330
3FA5
100
AcDbEntity
  8
0
  6
CONTINUOUS
100
AcDbLine
 10
44.99999999995498
 20
2.204469543164218
 30
0.0
 11
43.57899999995641
 21
3.625469543162789
 31
0.0
  0
LINE
  5
3FDB
330
3FA5
100
AcDbEntity
  8
0
  6
CONTINUOUS
100
AcDbLine
 10
41.89876730984767
 20
5.305702233271528
 30
0.0
 11
38.60499999996136
 21
8.599469543157834
 31
0.0
  0
LINE
  5
3FDC
330
3FA5
100
AcDbEntity
  8
0
  6
CONTINUOUS
100
AcDbLine
 10
44.99999999995498
 20
2.877988752244405
 30
0.0
 11
43.57899999995641
 21
4.298988752242975
 31
0.0
  0
LINE
  5
3FDD
330
3FA5
100
AcDbEntity
  8
0
  6
CONTINUOUS
100
AcDbLine
 10
44.99999999995498
 20
3.551507961324591
 30
0.0
 11
43.57899999995641
 21
4.972507961323163
 31
0.0
  0
LINE
  5
3FDE
330
3FA5
100
AcDbEntity
  8
0
  6
CONTINUOUS
100
AcDbLine
 10
44.99999999995498
 20
4.225027170404777
 30
0.0
 11
43.57899999995641
 21
5.646027170403348
 31
0.0
  0
LINE
  5
3FDF
330
3FA5
100
AcDbEntity
  8
0
  6
CONTINUOUS
100
AcDbLine
 10
44.99999999995498
 20
4.898546379484964
 30
0.0
 11
43.57899999995641
 21
6.319546379483535
 31
0.0
  0
LINE
  5
3FE0
330
3FA5
100
AcDbEntity
  8
0
  6
CONTINUOUS
100
AcDbLine
 10
44.99999999995498
 20
5.572065588565151
 30
0.0
 11
43.57899999995641
 21
6.993065588563722
 31
0.0
  0
LINE
  5
3FE1
330
3FA5
100
AcDbEntity
  8
0
  6
CONTINUOUS
100
AcDbLine
 10
44.99999999995498
 20
6.245584797645336
 30
0.0
 11
43.57899999995641
 21
7.666584797643908
 31
0.0
  0
LINE
  5
3FE2
330
3FA5
100
AcDbEntity
  8
0
  6
CONTINUOUS
100
AcDbLine
 10
44.99999999995498
 20
6.919104006725522
 30
0.0
 11
43.57899999995641
 21
8.340104006724093
 31
0.0
  0
LINE
  5
3FE3
330
3FA5
100
AcDbEntity
  8
0
  6
CONTINUOUS
100
AcDbLine
 10
44.99999999995498
 20
7.592623215805709
 30
0.0
 11
43.82952321576943
 21
8.763099999991255
 31
0.0
  0
LINE
  5
3FE4
330
3FA5
100
AcDbEntity
  8
0
  6
CONTINUOUS
100
AcDbLine
 10
44.99999999995498
 20
8.266142424885896
 30
0.0
 11
44.50304242484962
 21
8.763099999991255
 31
0.0
  0
ENDBLK
  5
400E
330
3FA5
100
AcDbEntity
  8
0
100
AcDbBlockEnd
  0
BLOCK
  5
400F
330
3FE5
100
AcDbEntity
  8
0
100
AcDbBlockBegin
  2
*X40
 70
     1
 10
0.0
 20
0.0
 30
0.0
  3
*X40
  1

  0
LINE
  5
3FE6
330
3FE5
100
AcDbEntity
  8
0
  6
CONTINUOUS
100
AcDbLine
 10
0.0
 20
8.548461116714023
 30
0.0
 11
0.2146388832772324
 21
8.763099999991255
 31
0.0
  0
LINE
  5
3FE7
330
3FE5
100
AcDbEntity
  8
0
  6
CONTINUOUS
100
AcDbLine
 10
-0.0000000000000002
 20
7.874941907633837
 30
0.0
 11
0.8881580923574184
 21
8.763099999991255
 31
0.0
  0
LINE
  5
3FE8
330
3FE5
100
AcDbEntity
  8
0
  6
CONTINUOUS
100
AcDbLine
 10
0.0
 20
7.20142269855365
 30
0.0
 11
1.420999999998572
 21
8.622422698552223
 31
0.0
  0
LINE
  5
3FE9
330
3FE5
100
AcDbEntity
  8
0
  6
CONTINUOUS
100
AcDbLine
 10
-0.0000000000000001
 20
6.527903489473465
 30
0.0
 11
1.420999999998571
 21
7.948903489472036
 31
0.0
  0
LINE
  5
3FEA
330
3FE5
100
AcDbEntity
  8
0
  6
CONTINUOUS
100
AcDbLine
 10
-0.0000000000000002
 20
5.854384280393278
 30
0.0
 11
1.420999999998571
 21
7.275384280391849
 31
0.0
  0
LINE
  5
3FEB
330
3FE5
100
AcDbEntity
  8
0
  6
CONTINUOUS
100
AcDbLine
 10
-0.0000000000000002
 20
5.180865071313091
 30
0.0
 11
1.420999999998571
 21
6.601865071311663
 31
0.0
  0
LINE
  5
3FEC
330
3FE5
100
AcDbEntity
  8
0
  6
CONTINUOUS
100
AcDbLine
 10
0.0
 20
4.507345862232905
 30
0.0
 11
1.420999999998571
 21
5.928345862231477
 31
0.0
  0
LINE
  5
3FED
330
3FE5
100
AcDbEntity
  8
0
  6
CONTINUOUS
100
AcDbLine
 10
-0.0000000000000003
 20
3.833826653152718
 30
0.0
 11
1.420999999998571
 21
5.25482665315129
 31
0.0
  0
LINE
  5
3FEE
330
3FE5
100
AcDbEntity
  8
0
  6
CONTINUOUS
100
AcDbLine
 10
-0.0000000000000002
 20
3.160307444072532
 30
0.0
 11
1.420999999998571
 21
4.581307444071103
 31
0.0
  0
LINE
  5
3FEF
330
3FE5
100
AcDbEntity
  8
0
  6
CONTINUOUS
100
AcDbLine
 10
-0.0000000000000001
 20
2.486788234992345
 30
0.0
 11
1.420999999998571
 21
3.907788234990917
 31
0.0
  0
LINE
  5
3FF0
330
3FE5
100
AcDbEntity
  8
0
  6
CONTINUOUS
100
AcDbLine
 10
-0.0000000000000006
 20
1.813269025912159
 30
0.0
 11
1.420999999998571
 21
3.234269025910731
 31
0.0
  0
LINE
  5
3FF1
330
3FE5
100
AcDbEntity
  8
0
  6
CONTINUOUS
100
AcDbLine
 10
0.0
 20
1.139749816831973
 30
0.0
 11
1.420999999998571
 21
2.560749816830544
 31
0.0
  0
LINE
  5
3FF2
330
3FE5
100
AcDbEntity
  8
0
  6
CONTINUOUS
100
AcDbLine
 10
0.0000000000000002
 20
0.466230607751787
 30
0.0
 11
1.420999999998571
 21
1.887230607750358
 31
0.0
  0
LINE
  5
3FF3
330
3FE5
100
AcDbEntity
  8
0
  6
CONTINUOUS
100
AcDbLine
 10
0.2072886013284003
 20
-0.0000000000000009
 30
0.0
 11
1.420999999998571
 21
1.213711398670171
 31
0.0
  0
LINE
  5
3FF4
330
3FE5
100
AcDbEntity
  8
0
  6
CONTINUOUS
100
AcDbLine
 10
0.8808078104085864
 20
-0.0000000000000009
 30
0.0
 11
1.420999999998571
 21
0.5401921895899839
 31
0.0
  0
LINE
  5
3FF5
330
3FE5
100
AcDbEntity
  8
0
  6
CONTINUOUS
100
AcDbLine
 10
0.0581249075061505
 20
-0.0000000000000009
 30
0.0
 11
-0.0000000000000002
 21
0.0581249075061496
 31
0.0
  0
LINE
  5
3FF6
330
3FE5
100
AcDbEntity
  8
0
  6
CONTINUOUS
100
AcDbLine
 10
0.7316441165863372
 20
-0.0000000000000009
 30
0.0
 11
-0.0000000000000002
 21
0.7316441165863363
 31
0.0
  0
LINE
  5
3FF7
330
3FE5
100
AcDbEntity
  8
0
  6
CONTINUOUS
100
AcDbLine
 10
1.405163325666523
 20
-0.0000000000000009
 30
0.0
 11
-0.0000000000000002
 21
1.405163325666523
 31
0.0
  0
LINE
  5
3FF8
330
3FE5
100
AcDbEntity
  8
0
  6
CONTINUOUS
100
AcDbLine
 10
1.420999999998572
 20
0.6576825347481381
 30
0.0
 11
-0.0000000000000001
 21
2.07868253474671
 31
0.0
  0
LINE
  5
3FF9
330
3FE5
100
AcDbEntity
  8
0
  6
CONTINUOUS
100
AcDbLine
 10
1.420999999998571
 20
1.331201743828324
 30
0.0
 11
-0.0000000000000001
 21
2.752201743826896
 31
0.0
  0
LINE
  5
3FFA
330
3FE5
100
AcDbEntity
  8
0
  6
CONTINUOUS
100
AcDbLine
 10
1.420999999998571
 20
2.004720952908511
 30
0.0
 11
-0.0000000000000002
 21
3.425720952907082
 31
0.0
  0
LINE
  5
3FFB
330
3FE5
100
AcDbEntity
  8
0
  6
CONTINUOUS
100
AcDbLine
 10
1.420999999998571
 20
2.678240161988697
 30
0.0
 11
-0.0000000000000001
 21
4.099240161987269
 31
0.0
  0
LINE
  5
3FFC
330
3FE5
100
AcDbEntity
  8
0
  6
CONTINUOUS
100
AcDbLine
 10
1.420999999998572
 20
3.351759371068884
 30
0.0
 11
0.0
 21
4.772759371067455
 31
0.0
  0
LINE
  5
3FFD
330
3FE5
100
AcDbEntity
  8
0
  6
CONTINUOUS
100
AcDbLine
 10
1.420999999998571
 20
4.02527858014907
 30
0.0
 11
-0.0000000000000003
 21
5.446278580147642
 31
0.0
  0
LINE
  5
3FFE
330
3FE5
100
AcDbEntity
  8
0
  6
CONTINUOUS
100
AcDbLine
 10
1.420999999998571
 20
4.698797789229257
 30
0.0
 11
0.0
 21
6.119797789227828
 31
0.0
  0
LINE
  5
3FFF
330
3FE5
100
AcDbEntity
  8
0
  6
CONTINUOUS
100
AcDbLine
 10
1.420999999998571
 20
5.372316998309444
 30
0.0
 11
-0.0000000000000001
 21
6.793316998308015
 31
0.0
  0
LINE
  5
4000
330
3FE5
100
AcDbEntity
  8
0
  6
CONTINUOUS
100
AcDbLine
 10
1.420999999998572
 20
6.045836207389629
 30
0.0
 11
-0.0000000000000004
 21
7.466836207388202
 31
0.0
  0
LINE
  5
4001
330
3FE5
100
AcDbEntity
  8
0
  6
CONTINUOUS
100
AcDbLine
 10
1.420999999998571
 20
6.719355416469816
 30
0.0
 11
0.0
 21
8.140355416468388
 31
0.0
  0
LINE
  5
4002
330
3FE5
100
AcDbEntity
  8
0
  6
CONTINUOUS
100
AcDbLine
 10
1.420999999998571
 20
7.392874625550003
 30
0.0
 11
0.0507746255573185
 21
8.763099999991255
 31
0.0
  0
LINE
  5
4003
330
3FE5
100
AcDbEntity
  8
0
  6
CONTINUOUS
100
AcDbLine
 10
1.420999999998571
 20
8.06639383463019
 30
0.0
 11
0.7242938346375052
 21
8.763099999991255
 31
0.0
  0
LINE
  5
4004
330
3FE5
100
AcDbEntity
  8
0
  6
CONTINUOUS
100
AcDbLine
 10
1.420999999998571
 20
8.739913043710375
 30
0.0
 11
1.397813043717691
 21
8.763099999991255
 31
0.0
  0
ENDBLK
  5
4010
330
3FE5
100
AcDbEntity
  8
0
100
AcDbBlockEnd
  0
ENDSEC
  0
SECTION
  2
ENTITIES
  0
LINE
  5
D4A
330
18
100
AcDbEntity
  8
1CENTER
100
AcDbLine
 10
-591.861049997726
 20
59.14716225385656
 30
0.0
 11
-591.861049997726
 21
-13.56595274614344
 31
0.0
  0
LINE
  5
D4B
330
18
100
AcDbEntity
  8
1CENTER
100
AcDbLine
 10
-599.861049997726
 20
81.53800125385656
 30
0.0
 11
-599.861049997726
 21
-30.68232374614344
 31
0.0
  0
LINE
  5
D4C
330
18
100
AcDbEntity
  8
1CENTER
100
AcDbLine
 10
-583.861049997726
 20
81.28356125385655
 30
0.0
 11
-583.861049997726
 21
-30.90001774614343
 31
0.0
  0
LINE
  5
D4F
330
18
100
AcDbEntity
  8
1HIDDEN
100
AcDbLine
 10
-623.861049997726
 20
74.72203025385654
 30
0.0
 11
-623.861049997726
 21
-27.27796974614344
 31
0.0
  0
LINE
  5
D50
330
18
100
AcDbEntity
  8
1HIDDEN
100
AcDbLine
 10
-616.861049997726
 20
74.72203025385654
 30
0.0
 11
-616.861049997726
 21
-27.27796974614344
 31
0.0
  0
LINE
  5
D51
330
18
100
AcDbEntity
  8
01
100
AcDbLine
 10
-575.861049997726
 20
74.72203025385654
 30
0.0
 11
-575.861049997726
 21
25.22203225385657
 31
0.0
  0
LINE
  5
D52
330
18
100
AcDbEntity
  8
1CENTER
100
AcDbLine
 10
-620.361049997726
 20
81.32957425385656
 30
0.0
 11
-620.361049997726
 21
-34.82272074614345
 31
0.0
  0
LINE
  5
D5C
330
18
100
AcDbEntity
  8
01
100
AcDbLine
 10
-664.861049997726
 20
-56.77796974614344
 30
0.0
 11
-626.1705250170371
 21
-56.77796974614345
 31
0.0
  0
LINE
  5
D5D
330
18
100
AcDbEntity
  8
01
100
AcDbLine
 10
-664.861049997726
 20
-58.77796974614344
 30
0.0
 11
-626.1705250170371
 21
-58.77796974614345
 31
0.0
  0
LINE
  5
D5E
330
18
100
AcDbEntity
  8
1CENTER
100
AcDbLine
 10
-666.370729997726
 20
-57.77796974614344
 30
0.0
 11
-574.3415799977261
 21
-57.77796974614344
 31
0.0
  0
LINE
  5
D5F
330
18
100
AcDbEntity
  8
1CENTER
100
AcDbLine
 10
-632.8263499977261
 20
14.97202925385656
 30
0.0
 11
-664.861049997726
 21
14.97202925385656
 31
0.0
  0
LINE
  5
D60
330
18
100
AcDbEntity
  8
1CENTER
100
AcDbLine
 10
-631.808619997726
 20
-20.02796774614343
 30
0.0
 11
-664.861049997726
 21
-20.02796774614343
 31
0.0
  0
LINE
  5
D61
330
18
100
AcDbEntity
  8
1PHANTOM
100
AcDbLine
 10
-664.861049997726
 20
22.22203225385657
 30
0.0
 11
-625.861049997726
 21
22.22203225385657
 31
0.0
  0
LINE
  5
D62
330
18
100
AcDbEntity
  8
1PHANTOM
100
AcDbLine
 10
-664.861049997726
 20
-27.27796974614344
 30
0.0
 11
-625.361049997726
 21
-27.27796974614344
 31
0.0
  0
LINE
  5
D63
330
18
100
AcDbEntity
  8
1PHANTOM
100
AcDbLine
 10
-664.861049997726
 20
22.22203225385657
 30
0.0
 11
-664.861049997726
 21
-27.27796974614344
 31
0.0
  0
LINE
  5
D64
330
18
100
AcDbEntity
  8
01
100
AcDbLine
 10
-664.861049997726
 20
-56.77796974614344
 30
0.0
 11
-664.861049997726
 21
-58.77796974614344
 31
0.0
  0
LINE
  5
D67
330
18
100
AcDbEntity
  8
1CENTER
100
AcDbLine
 10
-640.861049997726
 20
26.20000225385657
 30
0.0
 11
-640.861049997726
 21
-30.68232374614344
 31
0.0
  0
LINE
  5
D68
330
18
100
AcDbEntity
  8
1CENTER
100
AcDbLine
 10
-656.861049997726
 20
26.63538525385655
 30
0.0
 11
-656.861049997726
 21
-30.90001774614343
 31
0.0
  0
LINE
  5
D69
330
18
100
AcDbEntity
  8
01
100
AcDbLine
 10
-575.861049997726
 20
22.22203225385657
 30
0.0
 11
-575.861049997726
 21
-27.27796974614344
 31
0.0
  0
LINE
  5
D6A
330
18
100
AcDbEntity
  8
01
100
AcDbLine
 10
-625.861049997726
 20
-27.27796974614344
 30
0.0
 11
-575.861049997726
 21
-27.27796974614344
 31
0.0
  0
LINE
  5
D6B
330
18
100
AcDbEntity
  8
01
100
AcDbLine
 10
-614.5515749784149
 20
-58.77796974614344
 30
0.0
 11
-575.861049997726
 21
-58.77796974614344
 31
0.0
  0
LINE
  5
D6C
330
18
100
AcDbEntity
  8
01
100
AcDbLine
 10
-614.5515749784149
 20
-56.77796974614344
 30
0.0
 11
-575.861049997726
 21
-56.77796974614344
 31
0.0
  0
CIRCLE
  5
D6D
330
18
100
AcDbEntity
  8
1HIDDEN
 48
0.5
100
AcDbCircle
 10
-620.361049997726
 20
-57.77796974614344
 30
0.0
 40
3.5
  0
LINE
  5
D77
330
18
100
AcDbEntity
  8
01
100
AcDbLine
 10
-625.861049997726
 20
-29.27796974614345
 30
0.0
 11
-614.8610499977259
 21
-29.27796974614344
 31
0.0
  0
LINE
  5
D7F
330
18
100
AcDbEntity
  8
01
100
AcDbLine
 10
-575.861049997726
 20
-56.77796974614344
 30
0.0
 11
-575.861049997726
 21
-58.77796974614344
 31
0.0
  0
LINE
  5
D83
330
18
100
AcDbEntity
  8
01
100
AcDbLine
 10
-625.861049997726
 20
22.22203225385657
 30
0.0
 11
-575.861049997726
 21
22.22203225385657
 31
0.0
  0
LINE
  5
D85
330
18
100
AcDbEntity
  8
1CENTER
100
AcDbLine
 10
-608.913479997726
 20
-20.02796774614343
 30
0.0
 11
-575.861049997726
 21
-20.02796774614343
 31
0.0
  0
LINE
  5
D86
330
18
100
AcDbEntity
  8
1CENTER
100
AcDbLine
 10
-607.645749997726
 20
14.97202925385656
 30
0.0
 11
-575.861049997726
 21
14.97202925385656
 31
0.0
  0
LINE
  5
D87
330
18
100
AcDbEntity
  8
01
100
AcDbLine
 10
-625.861049997726
 20
25.22203225385657
 30
0.0
 11
-575.861049997726
 21
25.22203225385657
 31
0.0
  0
LINE
  5
D96
330
18
100
AcDbEntity
  8
1CENTER
100
AcDbLine
 10
-607.1368699977261
 20
32.47203225385657
 30
0.0
 11
-575.861049997726
 21
32.47203225385657
 31
0.0
  0
LINE
  5
D97
330
18
100
AcDbEntity
  8
1CENTER
100
AcDbLine
 10
-607.900179997726
 20
67.47203025385654
 30
0.0
 11
-575.861049997726
 21
67.47203025385654
 31
0.0
  0
LINE
  5
D98
330
18
100
AcDbEntity
  8
01
100
AcDbLine
 10
-625.861049997726
 20
74.72203025385654
 30
0.0
 11
-575.861049997726
 21
74.72203025385654
 31
0.0
  0
LINE
  5
D9F
330
18
100
AcDbEntity
  8
01
100
AcDbLine
 10
-625.861049997726
 20
76.72203025385654
 30
0.0
 11
-614.861049997726
 21
76.72203025385654
 31
0.0
  0
POINT
  5
F59
330
18
100
AcDbEntity
  8
1PHANTOM
100
AcDbPoint
 10
-656.861049997726
 20
-20.02796774614343
 30
0.0
  0
POINT
  5
F5A
330
18
100
AcDbEntity
  8
1PHANTOM
100
AcDbPoint
 10
-656.861049997726
 20
-20.02796774614343
 30
0.0
  0
CIRCLE
  5
F5B
330
18
100
AcDbEntity
  8
1PHANTOM
100
AcDbCircle
 10
-656.861049997726
 20
-20.02796774614343
 30
0.0
 40
2.9000001
  0
CIRCLE
  5
F5C
330
18
100
AcDbEntity
  8
1PHANTOM
100
AcDbCircle
 10
-656.861049997726
 20
-20.02796774614343
 30
0.0
 40
3.75
  0
POINT
  5
F5D
330
18
100
AcDbEntity
  8
1PHANTOM
100
AcDbPoint
 10
-656.861049997726
 20
14.97202925385656
 30
0.0
  0
POINT
  5
F5E
330
18
100
AcDbEntity
  8
1PHANTOM
100
AcDbPoint
 10
-656.861049997726
 20
14.97202925385656
 30
0.0
  0
CIRCLE
  5
F5F
330
18
100
AcDbEntity
  8
1PHANTOM
100
AcDbCircle
 10
-656.861049997726
 20
14.97202925385656
 30
0.0
 40
2.9000001
  0
CIRCLE
  5
F60
330
18
100
AcDbEntity
  8
1PHANTOM
100
AcDbCircle
 10
-656.861049997726
 20
14.97202925385656
 30
0.0
 40
3.75
  0
POINT
  5
F61
330
18
100
AcDbEntity
  8
1PHANTOM
100
AcDbPoint
 10
-640.861049997726
 20
-20.02796774614343
 30
0.0
  0
POINT
  5
F62
330
18
100
AcDbEntity
  8
1PHANTOM
100
AcDbPoint
 10
-640.861049997726
 20
-20.02796774614343
 30
0.0
  0
CIRCLE
  5
F63
330
18
100
AcDbEntity
  8
1PHANTOM
100
AcDbCircle
 10
-640.861049997726
 20
-20.02796774614343
 30
0.0
 40
2.9000001
  0
CIRCLE
  5
F64
330
18
100
AcDbEntity
  8
1PHANTOM
100
AcDbCircle
 10
-640.861049997726
 20
-20.02796774614343
 30
0.0
 40
3.75
  0
POINT
  5
F65
330
18
100
AcDbEntity
  8
1PHANTOM
100
AcDbPoint
 10
-640.861049997726
 20
14.97202925385656
 30
0.0
  0
POINT
  5
F66
330
18
100
AcDbEntity
  8
1PHANTOM
100
AcDbPoint
 10
-640.861049997726
 20
14.97202925385656
 30
0.0
  0
CIRCLE
  5
F67
330
18
100
AcDbEntity
  8
1PHANTOM
100
AcDbCircle
 10
-640.861049997726
 20
14.97202925385656
 30
0.0
 40
2.9000001
  0
CIRCLE
  5
F68
330
18
100
AcDbEntity
  8
1PHANTOM
100
AcDbCircle
 10
-640.861049997726
 20
14.97202925385656
 30
0.0
 40
3.75
  0
LINE
  5
1B65
330
18
100
AcDbEntity
  8
1HIDDEN
 48
0.5
100
AcDbLine
 10
-623.8610499977261
 20
47.22203225385656
 30
0.0
 11
-616.8610499977261
 21
47.22203225385658
 31
0.0
  0
LINE
  5
1F12
330
18
100
AcDbEntity
  8
01
100
AcDbLine
 10
-632.4850052575556
 20
-83.99582591511859
 30
0.0
 11
-634.4850174730946
 21
-81.99579973867623
 31
0.0
  0
LINE
  5
1F13
330
18
100
AcDbEntity
  8
01
100
AcDbLine
 10
-632.4849889699914
 20
-76.99582591511904
 30
0.0
 11
-634.4849860613286
 21
-78.99579973867623
 31
0.0
  0
LINE
  5
1F14
330
18
100
AcDbEntity
  8
1CENTER
100
AcDbLine
 10
-658.9491344524567
 20
-80.49584627457403
 30
0.0
 11
-630.1986374954217
 21
-80.49584627457403
 31
0.0
  0
LINE
  5
1F15
330
18
100
AcDbEntity
  8
01
100
AcDbLine
 10
-647.1431015051066
 20
-82.39279985162767
 30
0.0
 11
-647.9024926928585
 21
-78.59579973867602
 31
0.0
  0
LINE
  5
1F16
330
18
100
AcDbEntity
  8
01
100
AcDbLine
 10
-652.0851650307579
 20
-81.8457997386763
 30
0.0
 11
-637.4850159026707
 21
-81.84579973867619
 31
0.0
  0
LINE
  5
1F17
330
18
100
AcDbEntity
  8
01
100
AcDbLine
 10
-637.4850174732591
 20
-81.99579973867628
 30
0.0
 11
-634.4850174730946
 21
-81.99579973867628
 31
0.0
  0
LINE
  5
1F18
330
18
100
AcDbEntity
  8
01
100
AcDbLine
 10
-652.0851580503733
 20
-79.14579973867615
 30
0.0
 11
-637.4849876320814
 21
-79.14579973867615
 31
0.0
  0
LINE
  5
1F19
330
18
100
AcDbEntity
  8
01
100
AcDbLine
 10
-637.484986061493
 20
-78.99579973867617
 30
0.0
 11
-634.4849860613285
 21
-78.99579973867617
 31
0.0
  0
LINE
  5
1F1A
330
18
100
AcDbEntity
  8
01
100
AcDbLine
 10
-655.122499660142
 20
-81.5901700885691
 30
0.0
 11
-655.922495094193
 21
-79.62783499969379
 31
0.0
  0
LINE
  5
1F1B
330
18
100
AcDbEntity
  8
01
100
AcDbLine
 10
-655.922495094193
 20
-79.62783499969379
 30
0.0
 11
-656.2260578346186
 21
-80.20062561965551
 31
0.0
  0
LINE
  5
1F1C
330
18
100
AcDbEntity
  8
01
100
AcDbLine
 10
-651.9437014894963
 20
-82.3957997386762
 30
0.0
 11
-652.7224929869817
 21
-78.7222067908802
 31
0.0
  0
LINE
  5
1F1D
330
18
100
AcDbEntity
  8
01
100
AcDbLine
 10
-653.5225007137462
 20
-82.04298359661749
 30
0.0
 11
-654.3224940405873
 21
-79.17502089528699
 31
0.0
  0
LINE
  5
1F1E
330
18
100
AcDbEntity
  8
01
100
AcDbLine
 10
-648.7431015051067
 20
-82.39279985162767
 30
0.0
 11
-649.5024926928586
 21
-78.59579973867602
 31
0.0
  0
LINE
  5
1F1F
330
18
100
AcDbEntity
  8
01
100
AcDbLine
 10
-650.3431015051067
 20
-82.39279985162756
 30
0.0
 11
-651.1024926928585
 21
-78.59579973867602
 31
0.0
  0
LINE
  5
1F20
330
18
100
AcDbEntity
  8
01
100
AcDbLine
 10
-653.3946428487895
 20
-81.5122544321668
 30
0.0
 11
-653.5225007137462
 21
-82.04298359661749
 31
0.0
  0
LINE
  5
1F21
330
18
100
AcDbEntity
  8
01
100
AcDbLine
 10
-651.8337002097596
 20
-81.84579973867619
 30
0.0
 11
-651.9437014894963
 21
-82.3957997386762
 31
0.0
  0
LINE
  5
1F22
330
18
100
AcDbEntity
  8
01
100
AcDbLine
 10
-654.9642567757553
 20
-81.11244822608802
 30
0.0
 11
-655.122499660142
 21
-81.5901700885691
 31
0.0
  0
LINE
  5
1F23
330
18
100
AcDbEntity
  8
01
100
AcDbLine
 10
-650.2337002097597
 20
-81.84579973867625
 30
0.0
 11
-650.3431015051067
 21
-82.39279985162756
 31
0.0
  0
LINE
  5
1F24
330
18
100
AcDbEntity
  8
01
100
AcDbLine
 10
-648.6337002097596
 20
-81.84579973867625
 30
0.0
 11
-648.7431015051067
 21
-82.39279985162767
 31
0.0
  0
LINE
  5
1F25
330
18
100
AcDbEntity
  8
01
100
AcDbLine
 10
-654.3224940405873
 20
-79.17502089528699
 30
0.0
 11
-654.5181046423787
 21
-79.7655527310215
 31
0.0
  0
LINE
  5
1F26
330
18
100
AcDbEntity
  8
01
100
AcDbLine
 10
-652.7224929869817
 20
-78.7222067908802
 30
0.0
 11
-652.8728815432247
 21
-79.3464592983392
 31
0.0
  0
LINE
  5
1F27
330
18
100
AcDbEntity
  8
01
100
AcDbLine
 10
-649.5024926928586
 20
-78.59579973867602
 30
0.0
 11
-649.6124939725952
 21
-79.14579973867615
 31
0.0
  0
LINE
  5
1F28
330
18
100
AcDbEntity
  8
01
100
AcDbLine
 10
-651.1024926928585
 20
-78.59579973867602
 30
0.0
 11
-651.2124939725954
 21
-79.14579973867615
 31
0.0
  0
LINE
  5
1F29
330
18
100
AcDbEntity
  8
01
100
AcDbLine
 10
-647.9024926928585
 20
-78.59579973867602
 30
0.0
 11
-648.0124939725954
 21
-79.14579973867615
 31
0.0
  0
LINE
  5
1F2A
330
18
100
AcDbEntity
  8
01
100
AcDbLine
 10
-643.9431015051066
 20
-82.3927998516279
 30
0.0
 11
-644.7024926928584
 21
-78.59579973867602
 31
0.0
  0
LINE
  5
1F2B
330
18
100
AcDbEntity
  8
01
100
AcDbLine
 10
-642.3431015051067
 20
-82.39279985162756
 30
0.0
 11
-643.1024926928585
 21
-78.59579973867602
 31
0.0
  0
LINE
  5
1F2C
330
18
100
AcDbEntity
  8
01
100
AcDbLine
 10
-640.7431015051066
 20
-82.39279985162744
 30
0.0
 11
-641.5024926928543
 21
-78.59579973867625
 31
0.0
  0
LINE
  5
1F2D
330
18
100
AcDbEntity
  8
01
100
AcDbLine
 10
-645.5431015051067
 20
-82.39279985162767
 30
0.0
 11
-646.3024926928586
 21
-78.59579973867602
 31
0.0
  0
LINE
  5
1F2E
330
18
100
AcDbEntity
  8
01
100
AcDbLine
 10
-645.4337002097598
 20
-81.84579973867625
 30
0.0
 11
-645.5431015051067
 21
-82.39279985162767
 31
0.0
  0
LINE
  5
1F2F
330
18
100
AcDbEntity
  8
01
100
AcDbLine
 10
-647.0337002097596
 20
-81.84579973867625
 30
0.0
 11
-647.1431015051066
 21
-82.39279985162767
 31
0.0
  0
LINE
  5
1F30
330
18
100
AcDbEntity
  8
01
100
AcDbLine
 10
-643.8337002097595
 20
-81.8457997386763
 30
0.0
 11
-643.9431015051066
 21
-82.3927998516279
 31
0.0
  0
LINE
  5
1F31
330
18
100
AcDbEntity
  8
01
100
AcDbLine
 10
-640.6337002097589
 20
-81.84579973867619
 30
0.0
 11
-640.7431015051066
 21
-82.39279985162744
 31
0.0
  0
LINE
  5
1F32
330
18
100
AcDbEntity
  8
01
100
AcDbLine
 10
-642.2337002097589
 20
-81.84579973867625
 30
0.0
 11
-642.3431015051067
 21
-82.39279985162756
 31
0.0
  0
LINE
  5
1F33
330
18
100
AcDbEntity
  8
01
100
AcDbLine
 10
-644.7024926928584
 20
-78.59579973867602
 30
0.0
 11
-644.8124939725955
 21
-79.14579973867615
 31
0.0
  0
LINE
  5
1F34
330
18
100
AcDbEntity
  8
01
100
AcDbLine
 10
-646.3024926928586
 20
-78.59579973867602
 30
0.0
 11
-646.4124939725955
 21
-79.14579973867615
 31
0.0
  0
LINE
  5
1F35
330
18
100
AcDbEntity
  8
01
100
AcDbLine
 10
-641.5024926928543
 20
-78.59579973867625
 30
0.0
 11
-641.6124939725917
 21
-79.14579973867615
 31
0.0
  0
LINE
  5
1F36
330
18
100
AcDbEntity
  8
01
100
AcDbLine
 10
-643.1024926928585
 20
-78.59579973867602
 30
0.0
 11
-643.2124939725954
 21
-79.14579973867615
 31
0.0
  0
LINE
  5
1F37
330
18
100
AcDbEntity
  8
01
100
AcDbLine
 10
-637.9224878066942
 20
-80.49584627457398
 30
0.0
 11
-638.3024926928542
 21
-78.59579973867625
 31
0.0
  0
LINE
  5
1F38
330
18
100
AcDbEntity
  8
01
100
AcDbLine
 10
-639.1431015051064
 20
-82.39279985162744
 30
0.0
 11
-639.9024926928541
 21
-78.59579973867625
 31
0.0
  0
LINE
  5
1F39
330
18
100
AcDbEntity
  8
01
100
AcDbLine
 10
-639.0337002097588
 20
-81.84579973867619
 30
0.0
 11
-639.1431015051064
 21
-82.39279985162744
 31
0.0
  0
LINE
  5
1F3A
330
18
100
AcDbEntity
  8
01
100
AcDbLine
 10
-638.3024926928542
 20
-78.59579973867625
 30
0.0
 11
-638.4124939725916
 21
-79.14579973867615
 31
0.0
  0
LINE
  5
1F3B
330
18
100
AcDbEntity
  8
01
100
AcDbLine
 10
-639.9024926928541
 20
-78.59579973867625
 30
0.0
 11
-640.0124939725915
 21
-79.14579973867615
 31
0.0
  0
LINE
  5
1F3C
330
18
100
AcDbEntity
  8
01
100
AcDbLine
 10
-632.4850052575556
 20
-83.99582591511859
 30
0.0
 11
-632.4849889699914
 21
-76.99582591511904
 31
0.0
  0
LINE
  5
1F3D
330
18
100
AcDbEntity
  8
01
100
AcDbLine
 10
-632.3850052575553
 20
-83.99582591511864
 30
0.0
 11
-632.3849889699911
 21
-76.99582591511887
 31
0.0
  0
LINE
  5
1F3E
330
18
100
AcDbEntity
  8
01
100
AcDbLine
 10
-632.4850052575556
 20
-83.99582591511859
 30
0.0
 11
-632.3850052575553
 21
-83.99582591511864
 31
0.0
  0
LINE
  5
1F3F
330
18
100
AcDbEntity
  8
01
100
AcDbLine
 10
-632.4849889699914
 20
-76.99582591511904
 30
0.0
 11
-632.3849889699911
 21
-76.99582591511887
 31
0.0
  0
LINE
  5
1F40
330
18
100
AcDbEntity
  8
01
100
AcDbLine
 10
-634.4849860613285
 20
-78.99579973867617
 30
0.0
 11
-634.4850174730946
 21
-81.99579973867628
 31
0.0
  0
LINE
  5
1F41
330
18
100
AcDbEntity
  8
01
100
AcDbLine
 10
-637.484986061493
 20
-78.99579973867617
 30
0.0
 11
-637.4850174732591
 21
-81.99579973867628
 31
0.0
  0
LINE
  5
1F42
330
18
100
AcDbEntity
  8
01
100
AcDbLine
 10
-657.3849971138882
 20
-80.49584627457403
 30
0.0
 11
-652.0851580503733
 21
-79.14579973867615
 31
0.0
  0
LINE
  5
1F43
330
18
100
AcDbEntity
  8
01
100
AcDbLine
 10
-657.3849971138882
 20
-80.49584627457403
 30
0.0
 11
-652.0851650307579
 21
-81.8457997386763
 31
0.0
  0
LINE
  5
1FDE
330
18
100
AcDbEntity
  8
01
100
AcDbLine
 10
-594.4850052575556
 20
-83.99582591511859
 30
0.0
 11
-596.4850174730946
 21
-81.99579973867623
 31
0.0
  0
LINE
  5
1FDF
330
18
100
AcDbEntity
  8
01
100
AcDbLine
 10
-594.4849889699914
 20
-76.99582591511904
 30
0.0
 11
-596.4849860613286
 21
-78.99579973867623
 31
0.0
  0
LINE
  5
1FE0
330
18
100
AcDbEntity
  8
1CENTER
100
AcDbLine
 10
-620.9491344524567
 20
-80.49584627457403
 30
0.0
 11
-592.1986374954217
 21
-80.49584627457403
 31
0.0
  0
LINE
  5
1FE1
330
18
100
AcDbEntity
  8
01
100
AcDbLine
 10
-609.1431015051066
 20
-82.39279985162767
 30
0.0
 11
-609.9024926928585
 21
-78.59579973867602
 31
0.0
  0
LINE
  5
1FE2
330
18
100
AcDbEntity
  8
01
100
AcDbLine
 10
-614.0851650307579
 20
-81.8457997386763
 30
0.0
 11
-599.4850159026707
 21
-81.84579973867619
 31
0.0
  0
LINE
  5
1FE3
330
18
100
AcDbEntity
  8
01
100
AcDbLine
 10
-599.4850174732591
 20
-81.99579973867628
 30
0.0
 11
-596.4850174730946
 21
-81.99579973867628
 31
0.0
  0
LINE
  5
1FE4
330
18
100
AcDbEntity
  8
01
100
AcDbLine
 10
-614.0851580503733
 20
-79.14579973867615
 30
0.0
 11
-599.4849876320814
 21
-79.14579973867615
 31
0.0
  0
LINE
  5
1FE5
330
18
100
AcDbEntity
  8
01
100
AcDbLine
 10
-599.484986061493
 20
-78.99579973867617
 30
0.0
 11
-596.4849860613285
 21
-78.99579973867617
 31
0.0
  0
LINE
  5
1FE6
330
18
100
AcDbEntity
  8
01
100
AcDbLine
 10
-617.122499660142
 20
-81.5901700885691
 30
0.0
 11
-617.922495094193
 21
-79.62783499969379
 31
0.0
  0
LINE
  5
1FE7
330
18
100
AcDbEntity
  8
01
100
AcDbLine
 10
-617.922495094193
 20
-79.62783499969379
 30
0.0
 11
-618.2260578346186
 21
-80.20062561965551
 31
0.0
  0
LINE
  5
1FE8
330
18
100
AcDbEntity
  8
01
100
AcDbLine
 10
-613.9437014894963
 20
-82.3957997386762
 30
0.0
 11
-614.7224929869817
 21
-78.7222067908802
 31
0.0
  0
LINE
  5
1FE9
330
18
100
AcDbEntity
  8
01
100
AcDbLine
 10
-615.5225007137462
 20
-82.04298359661749
 30
0.0
 11
-616.3224940405873
 21
-79.17502089528699
 31
0.0
  0
LINE
  5
1FEA
330
18
100
AcDbEntity
  8
01
100
AcDbLine
 10
-610.7431015051067
 20
-82.39279985162767
 30
0.0
 11
-611.5024926928586
 21
-78.59579973867602
 31
0.0
  0
LINE
  5
1FEB
330
18
100
AcDbEntity
  8
01
100
AcDbLine
 10
-612.3431015051067
 20
-82.39279985162756
 30
0.0
 11
-613.1024926928585
 21
-78.59579973867602
 31
0.0
  0
LINE
  5
1FEC
330
18
100
AcDbEntity
  8
01
100
AcDbLine
 10
-615.3946428487895
 20
-81.5122544321668
 30
0.0
 11
-615.5225007137462
 21
-82.04298359661749
 31
0.0
  0
LINE
  5
1FED
330
18
100
AcDbEntity
  8
01
100
AcDbLine
 10
-613.8337002097596
 20
-81.84579973867619
 30
0.0
 11
-613.9437014894963
 21
-82.3957997386762
 31
0.0
  0
LINE
  5
1FEE
330
18
100
AcDbEntity
  8
01
100
AcDbLine
 10
-616.9642567757553
 20
-81.11244822608802
 30
0.0
 11
-617.122499660142
 21
-81.5901700885691
 31
0.0
  0
LINE
  5
1FEF
330
18
100
AcDbEntity
  8
01
100
AcDbLine
 10
-612.2337002097597
 20
-81.84579973867625
 30
0.0
 11
-612.3431015051067
 21
-82.39279985162756
 31
0.0
  0
LINE
  5
1FF0
330
18
100
AcDbEntity
  8
01
100
AcDbLine
 10
-610.6337002097596
 20
-81.84579973867625
 30
0.0
 11
-610.7431015051067
 21
-82.39279985162767
 31
0.0
  0
LINE
  5
1FF1
330
18
100
AcDbEntity
  8
01
100
AcDbLine
 10
-616.3224940405873
 20
-79.17502089528699
 30
0.0
 11
-616.5181046423787
 21
-79.7655527310215
 31
0.0
  0
LINE
  5
1FF2
330
18
100
AcDbEntity
  8
01
100
AcDbLine
 10
-614.7224929869817
 20
-78.7222067908802
 30
0.0
 11
-614.8728815432247
 21
-79.3464592983392
 31
0.0
  0
LINE
  5
1FF3
330
18
100
AcDbEntity
  8
01
100
AcDbLine
 10
-611.5024926928586
 20
-78.59579973867602
 30
0.0
 11
-611.6124939725952
 21
-79.14579973867615
 31
0.0
  0
LINE
  5
1FF4
330
18
100
AcDbEntity
  8
01
100
AcDbLine
 10
-613.1024926928585
 20
-78.59579973867602
 30
0.0
 11
-613.2124939725954
 21
-79.14579973867615
 31
0.0
  0
LINE
  5
1FF5
330
18
100
AcDbEntity
  8
01
100
AcDbLine
 10
-609.9024926928585
 20
-78.59579973867602
 30
0.0
 11
-610.0124939725954
 21
-79.14579973867615
 31
0.0
  0
LINE
  5
1FF6
330
18
100
AcDbEntity
  8
01
100
AcDbLine
 10
-605.9431015051066
 20
-82.3927998516279
 30
0.0
 11
-606.7024926928584
 21
-78.59579973867602
 31
0.0
  0
LINE
  5
1FF7
330
18
100
AcDbEntity
  8
01
100
AcDbLine
 10
-604.3431015051067
 20
-82.39279985162756
 30
0.0
 11
-605.1024926928585
 21
-78.59579973867602
 31
0.0
  0
LINE
  5
1FF8
330
18
100
AcDbEntity
  8
01
100
AcDbLine
 10
-602.7431015051066
 20
-82.39279985162744
 30
0.0
 11
-603.5024926928543
 21
-78.59579973867625
 31
0.0
  0
LINE
  5
1FF9
330
18
100
AcDbEntity
  8
01
100
AcDbLine
 10
-607.5431015051067
 20
-82.39279985162767
 30
0.0
 11
-608.3024926928586
 21
-78.59579973867602
 31
0.0
  0
LINE
  5
1FFA
330
18
100
AcDbEntity
  8
01
100
AcDbLine
 10
-607.4337002097598
 20
-81.84579973867625
 30
0.0
 11
-607.5431015051067
 21
-82.39279985162767
 31
0.0
  0
LINE
  5
1FFB
330
18
100
AcDbEntity
  8
01
100
AcDbLine
 10
-609.0337002097596
 20
-81.84579973867625
 30
0.0
 11
-609.1431015051066
 21
-82.39279985162767
 31
0.0
  0
LINE
  5
1FFC
330
18
100
AcDbEntity
  8
01
100
AcDbLine
 10
-605.8337002097595
 20
-81.8457997386763
 30
0.0
 11
-605.9431015051066
 21
-82.3927998516279
 31
0.0
  0
LINE
  5
1FFD
330
18
100
AcDbEntity
  8
01
100
AcDbLine
 10
-602.6337002097589
 20
-81.84579973867619
 30
0.0
 11
-602.7431015051066
 21
-82.39279985162744
 31
0.0
  0
LINE
  5
1FFE
330
18
100
AcDbEntity
  8
01
100
AcDbLine
 10
-604.2337002097589
 20
-81.84579973867625
 30
0.0
 11
-604.3431015051067
 21
-82.39279985162756
 31
0.0
  0
LINE
  5
1FFF
330
18
100
AcDbEntity
  8
01
100
AcDbLine
 10
-606.7024926928584
 20
-78.59579973867602
 30
0.0
 11
-606.8124939725955
 21
-79.14579973867615
 31
0.0
  0
LINE
  5
2000
330
18
100
AcDbEntity
  8
01
100
AcDbLine
 10
-608.3024926928586
 20
-78.59579973867602
 30
0.0
 11
-608.4124939725955
 21
-79.14579973867615
 31
0.0
  0
LINE
  5
2001
330
18
100
AcDbEntity
  8
01
100
AcDbLine
 10
-603.5024926928543
 20
-78.59579973867625
 30
0.0
 11
-603.6124939725917
 21
-79.14579973867615
 31
0.0
  0
LINE
  5
2002
330
18
100
AcDbEntity
  8
01
100
AcDbLine
 10
-605.1024926928585
 20
-78.59579973867602
 30
0.0
 11
-605.2124939725954
 21
-79.14579973867615
 31
0.0
  0
LINE
  5
2003
330
18
100
AcDbEntity
  8
01
100
AcDbLine
 10
-599.9224878066942
 20
-80.49584627457398
 30
0.0
 11
-600.3024926928542
 21
-78.59579973867625
 31
0.0
  0
LINE
  5
2004
330
18
100
AcDbEntity
  8
01
100
AcDbLine
 10
-601.1431015051064
 20
-82.39279985162744
 30
0.0
 11
-601.9024926928541
 21
-78.59579973867625
 31
0.0
  0
LINE
  5
2005
330
18
100
AcDbEntity
  8
01
100
AcDbLine
 10
-601.0337002097588
 20
-81.84579973867619
 30
0.0
 11
-601.1431015051064
 21
-82.39279985162744
 31
0.0
  0
LINE
  5
2006
330
18
100
AcDbEntity
  8
01
100
AcDbLine
 10
-600.3024926928542
 20
-78.59579973867625
 30
0.0
 11
-600.4124939725916
 21
-79.14579973867615
 31
0.0
  0
LINE
  5
2007
330
18
100
AcDbEntity
  8
01
100
AcDbLine
 10
-601.9024926928541
 20
-78.59579973867625
 30
0.0
 11
-602.0124939725915
 21
-79.14579973867615
 31
0.0
  0
LINE
  5
2008
330
18
100
AcDbEntity
  8
01
100
AcDbLine
 10
-594.4850052575556
 20
-83.99582591511859
 30
0.0
 11
-594.4849889699914
 21
-76.99582591511904
 31
0.0
  0
LINE
  5
2009
330
18
100
AcDbEntity
  8
01
100
AcDbLine
 10
-594.3850052575553
 20
-83.99582591511864
 30
0.0
 11
-594.3849889699911
 21
-76.99582591511887
 31
0.0
  0
LINE
  5
200A
330
18
100
AcDbEntity
  8
01
100
AcDbLine
 10
-594.4850052575556
 20
-83.99582591511859
 30
0.0
 11
-594.3850052575553
 21
-83.99582591511864
 31
0.0
  0
LINE
  5
200B
330
18
100
AcDbEntity
  8
01
100
AcDbLine
 10
-594.4849889699914
 20
-76.99582591511904
 30
0.0
 11
-594.3849889699911
 21
-76.99582591511887
 31
0.0
  0
LINE
  5
200C
330
18
100
AcDbEntity
  8
01
100
AcDbLine
 10
-596.4849860613285
 20
-78.99579973867617
 30
0.0
 11
-596.4850174730946
 21
-81.99579973867628
 31
0.0
  0
LINE
  5
200D
330
18
100
AcDbEntity
  8
01
100
AcDbLine
 10
-599.484986061493
 20
-78.99579973867617
 30
0.0
 11
-599.4850174732591
 21
-81.99579973867628
 31
0.0
  0
LINE
  5
200E
330
18
100
AcDbEntity
  8
01
100
AcDbLine
 10
-619.3849971138882
 20
-80.49584627457403
 30
0.0
 11
-614.0851580503733
 21
-79.14579973867615
 31
0.0
  0
LINE
  5
200F
330
18
100
AcDbEntity
  8
01
100
AcDbLine
 10
-619.3849971138882
 20
-80.49584627457403
 30
0.0
 11
-614.0851650307579
 21
-81.8457997386763
 31
0.0
  0
LINE
  5
2010
330
18
100
AcDbEntity
  8
01
100
AcDbLine
 10
-632.4850052575556
 20
-93.49582591511859
 30
0.0
 11
-634.4850174730946
 21
-91.49579973867623
 31
0.0
  0
LINE
  5
2011
330
18
100
AcDbEntity
  8
01
100
AcDbLine
 10
-632.4849889699914
 20
-86.49582591511904
 30
0.0
 11
-634.4849860613286
 21
-88.49579973867623
 31
0.0
  0
LINE
  5
2012
330
18
100
AcDbEntity
  8
1CENTER
100
AcDbLine
 10
-658.9491344524567
 20
-89.99584627457403
 30
0.0
 11
-630.1986374954217
 21
-89.99584627457403
 31
0.0
  0
LINE
  5
2013
330
18
100
AcDbEntity
  8
01
100
AcDbLine
 10
-647.1431015051066
 20
-91.89279985162767
 30
0.0
 11
-647.9024926928585
 21
-88.09579973867602
 31
0.0
  0
LINE
  5
2014
330
18
100
AcDbEntity
  8
01
100
AcDbLine
 10
-652.0851650307579
 20
-91.3457997386763
 30
0.0
 11
-637.4850159026707
 21
-91.34579973867619
 31
0.0
  0
LINE
  5
2015
330
18
100
AcDbEntity
  8
01
100
AcDbLine
 10
-637.4850174732591
 20
-91.49579973867628
 30
0.0
 11
-634.4850174730946
 21
-91.49579973867628
 31
0.0
  0
LINE
  5
2016
330
18
100
AcDbEntity
  8
01
100
AcDbLine
 10
-652.0851580503733
 20
-88.64579973867615
 30
0.0
 11
-637.4849876320814
 21
-88.64579973867615
 31
0.0
  0
LINE
  5
2017
330
18
100
AcDbEntity
  8
01
100
AcDbLine
 10
-637.484986061493
 20
-88.49579973867617
 30
0.0
 11
-634.4849860613285
 21
-88.49579973867617
 31
0.0
  0
LINE
  5
2018
330
18
100
AcDbEntity
  8
01
100
AcDbLine
 10
-655.122499660142
 20
-91.0901700885691
 30
0.0
 11
-655.922495094193
 21
-89.12783499969379
 31
0.0
  0
LINE
  5
2019
330
18
100
AcDbEntity
  8
01
100
AcDbLine
 10
-655.922495094193
 20
-89.12783499969379
 30
0.0
 11
-656.2260578346186
 21
-89.70062561965551
 31
0.0
  0
LINE
  5
201A
330
18
100
AcDbEntity
  8
01
100
AcDbLine
 10
-651.9437014894963
 20
-91.8957997386762
 30
0.0
 11
-652.7224929869817
 21
-88.2222067908802
 31
0.0
  0
LINE
  5
201B
330
18
100
AcDbEntity
  8
01
100
AcDbLine
 10
-653.5225007137462
 20
-91.54298359661749
 30
0.0
 11
-654.3224940405873
 21
-88.67502089528699
 31
0.0
  0
LINE
  5
201C
330
18
100
AcDbEntity
  8
01
100
AcDbLine
 10
-648.7431015051067
 20
-91.89279985162767
 30
0.0
 11
-649.5024926928586
 21
-88.09579973867602
 31
0.0
  0
LINE
  5
201D
330
18
100
AcDbEntity
  8
01
100
AcDbLine
 10
-650.3431015051067
 20
-91.89279985162756
 30
0.0
 11
-651.1024926928585
 21
-88.09579973867602
 31
0.0
  0
LINE
  5
201E
330
18
100
AcDbEntity
  8
01
100
AcDbLine
 10
-653.3946428487895
 20
-91.0122544321668
 30
0.0
 11
-653.5225007137462
 21
-91.54298359661749
 31
0.0
  0
LINE
  5
201F
330
18
100
AcDbEntity
  8
01
100
AcDbLine
 10
-651.8337002097596
 20
-91.34579973867619
 30
0.0
 11
-651.9437014894963
 21
-91.8957997386762
 31
0.0
  0
LINE
  5
2020
330
18
100
AcDbEntity
  8
01
100
AcDbLine
 10
-654.9642567757553
 20
-90.61244822608802
 30
0.0
 11
-655.122499660142
 21
-91.0901700885691
 31
0.0
  0
LINE
  5
2021
330
18
100
AcDbEntity
  8
01
100
AcDbLine
 10
-650.2337002097597
 20
-91.34579973867625
 30
0.0
 11
-650.3431015051067
 21
-91.89279985162756
 31
0.0
  0
LINE
  5
2022
330
18
100
AcDbEntity
  8
01
100
AcDbLine
 10
-648.6337002097596
 20
-91.34579973867625
 30
0.0
 11
-648.7431015051067
 21
-91.89279985162767
 31
0.0
  0
LINE
  5
2023
330
18
100
AcDbEntity
  8
01
100
AcDbLine
 10
-654.3224940405873
 20
-88.67502089528699
 30
0.0
 11
-654.5181046423787
 21
-89.2655527310215
 31
0.0
  0
LINE
  5
2024
330
18
100
AcDbEntity
  8
01
100
AcDbLine
 10
-652.7224929869817
 20
-88.2222067908802
 30
0.0
 11
-652.8728815432247
 21
-88.8464592983392
 31
0.0
  0
LINE
  5
2025
330
18
100
AcDbEntity
  8
01
100
AcDbLine
 10
-649.5024926928586
 20
-88.09579973867602
 30
0.0
 11
-649.6124939725952
 21
-88.64579973867615
 31
0.0
  0
LINE
  5
2026
330
18
100
AcDbEntity
  8
01
100
AcDbLine
 10
-651.1024926928585
 20
-88.09579973867602
 30
0.0
 11
-651.2124939725954
 21
-88.64579973867615
 31
0.0
  0
LINE
  5
2027
330
18
100
AcDbEntity
  8
01
100
AcDbLine
 10
-647.9024926928585
 20
-88.09579973867602
 30
0.0
 11
-648.0124939725954
 21
-88.64579973867615
 31
0.0
  0
LINE
  5
2028
330
18
100
AcDbEntity
  8
01
100
AcDbLine
 10
-643.9431015051066
 20
-91.8927998516279
 30
0.0
 11
-644.7024926928584
 21
-88.09579973867602
 31
0.0
  0
LINE
  5
2029
330
18
100
AcDbEntity
  8
01
100
AcDbLine
 10
-642.3431015051067
 20
-91.89279985162756
 30
0.0
 11
-643.1024926928585
 21
-88.09579973867602
 31
0.0
  0
LINE
  5
202A
330
18
100
AcDbEntity
  8
01
100
AcDbLine
 10
-640.7431015051066
 20
-91.89279985162744
 30
0.0
 11
-641.5024926928543
 21
-88.09579973867625
 31
0.0
  0
LINE
  5
202B
330
18
100
AcDbEntity
  8
01
100
AcDbLine
 10
-645.5431015051067
 20
-91.89279985162767
 30
0.0
 11
-646.3024926928586
 21
-88.09579973867602
 31
0.0
  0
LINE
  5
202C
330
18
100
AcDbEntity
  8
01
100
AcDbLine
 10
-645.4337002097598
 20
-91.34579973867625
 30
0.0
 11
-645.5431015051067
 21
-91.89279985162767
 31
0.0
  0
LINE
  5
202D
330
18
100
AcDbEntity
  8
01
100
AcDbLine
 10
-647.0337002097596
 20
-91.34579973867625
 30
0.0
 11
-647.1431015051066
 21
-91.89279985162767
 31
0.0
  0
LINE
  5
202E
330
18
100
AcDbEntity
  8
01
100
AcDbLine
 10
-643.8337002097595
 20
-91.3457997386763
 30
0.0
 11
-643.9431015051066
 21
-91.8927998516279
 31
0.0
  0
LINE
  5
202F
330
18
100
AcDbEntity
  8
01
100
AcDbLine
 10
-640.6337002097589
 20
-91.34579973867619
 30
0.0
 11
-640.7431015051066
 21
-91.89279985162744
 31
0.0
  0
LINE
  5
2030
330
18
100
AcDbEntity
  8
01
100
AcDbLine
 10
-642.2337002097589
 20
-91.34579973867625
 30
0.0
 11
-642.3431015051067
 21
-91.89279985162756
 31
0.0
  0
LINE
  5
2031
330
18
100
AcDbEntity
  8
01
100
AcDbLine
 10
-644.7024926928584
 20
-88.09579973867602
 30
0.0
 11
-644.8124939725955
 21
-88.64579973867615
 31
0.0
  0
LINE
  5
2032
330
18
100
AcDbEntity
  8
01
100
AcDbLine
 10
-646.3024926928586
 20
-88.09579973867602
 30
0.0
 11
-646.4124939725955
 21
-88.64579973867615
 31
0.0
  0
LINE
  5
2033
330
18
100
AcDbEntity
  8
01
100
AcDbLine
 10
-641.5024926928543
 20
-88.09579973867625
 30
0.0
 11
-641.6124939725917
 21
-88.64579973867615
 31
0.0
  0
LINE
  5
2034
330
18
100
AcDbEntity
  8
01
100
AcDbLine
 10
-643.1024926928585
 20
-88.09579973867602
 30
0.0
 11
-643.2124939725954
 21
-88.64579973867615
 31
0.0
  0
LINE
  5
2035
330
18
100
AcDbEntity
  8
01
100
AcDbLine
 10
-637.9224878066942
 20
-89.99584627457398
 30
0.0
 11
-638.3024926928542
 21
-88.09579973867625
 31
0.0
  0
LINE
  5
2036
330
18
100
AcDbEntity
  8
01
100
AcDbLine
 10
-639.1431015051064
 20
-91.89279985162744
 30
0.0
 11
-639.9024926928541
 21
-88.09579973867625
 31
0.0
  0
LINE
  5
2037
330
18
100
AcDbEntity
  8
01
100
AcDbLine
 10
-639.0337002097588
 20
-91.34579973867619
 30
0.0
 11
-639.1431015051064
 21
-91.89279985162744
 31
0.0
  0
LINE
  5
2038
330
18
100
AcDbEntity
  8
01
100
AcDbLine
 10
-638.3024926928542
 20
-88.09579973867625
 30
0.0
 11
-638.4124939725916
 21
-88.64579973867615
 31
0.0
  0
LINE
  5
2039
330
18
100
AcDbEntity
  8
01
100
AcDbLine
 10
-639.9024926928541
 20
-88.09579973867625
 30
0.0
 11
-640.0124939725915
 21
-88.64579973867615
 31
0.0
  0
LINE
  5
203A
330
18
100
AcDbEntity
  8
01
100
AcDbLine
 10
-632.4850052575556
 20
-93.49582591511859
 30
0.0
 11
-632.4849889699914
 21
-86.49582591511904
 31
0.0
  0
LINE
  5
203B
330
18
100
AcDbEntity
  8
01
100
AcDbLine
 10
-632.3850052575553
 20
-93.49582591511864
 30
0.0
 11
-632.3849889699911
 21
-86.49582591511887
 31
0.0
  0
LINE
  5
203C
330
18
100
AcDbEntity
  8
01
100
AcDbLine
 10
-632.4850052575556
 20
-93.49582591511859
 30
0.0
 11
-632.3850052575553
 21
-93.49582591511864
 31
0.0
  0
LINE
  5
203D
330
18
100
AcDbEntity
  8
01
100
AcDbLine
 10
-632.4849889699914
 20
-86.49582591511904
 30
0.0
 11
-632.3849889699911
 21
-86.49582591511887
 31
0.0
  0
LINE
  5
203E
330
18
100
AcDbEntity
  8
01
100
AcDbLine
 10
-634.4849860613285
 20
-88.49579973867617
 30
0.0
 11
-634.4850174730946
 21
-91.49579973867628
 31
0.0
  0
LINE
  5
203F
330
18
100
AcDbEntity
  8
01
100
AcDbLine
 10
-637.484986061493
 20
-88.49579973867617
 30
0.0
 11
-637.4850174732591
 21
-91.49579973867628
 31
0.0
  0
LINE
  5
2040
330
18
100
AcDbEntity
  8
01
100
AcDbLine
 10
-657.3849971138882
 20
-89.99584627457403
 30
0.0
 11
-652.0851580503733
 21
-88.64579973867615
 31
0.0
  0
LINE
  5
2041
330
18
100
AcDbEntity
  8
01
100
AcDbLine
 10
-657.3849971138882
 20
-89.99584627457403
 30
0.0
 11
-652.0851650307579
 21
-91.3457997386763
 31
0.0
  0
LINE
  5
2042
330
18
100
AcDbEntity
  8
01
100
AcDbLine
 10
-594.4850052575556
 20
-93.49582591511859
 30
0.0
 11
-596.4850174730946
 21
-91.49579973867623
 31
0.0
  0
LINE
  5
2043
330
18
100
AcDbEntity
  8
01
100
AcDbLine
 10
-594.4849889699914
 20
-86.49582591511904
 30
0.0
 11
-596.4849860613286
 21
-88.49579973867623
 31
0.0
  0
LINE
  5
2044
330
18
100
AcDbEntity
  8
1CENTER
100
AcDbLine
 10
-620.9491344524567
 20
-89.99584627457403
 30
0.0
 11
-592.1986374954217
 21
-89.99584627457403
 31
0.0
  0
LINE
  5
2045
330
18
100
AcDbEntity
  8
01
100
AcDbLine
 10
-609.1431015051066
 20
-91.89279985162767
 30
0.0
 11
-609.9024926928585
 21
-88.09579973867602
 31
0.0
  0
LINE
  5
2046
330
18
100
AcDbEntity
  8
01
100
AcDbLine
 10
-614.0851650307579
 20
-91.3457997386763
 30
0.0
 11
-599.4850159026707
 21
-91.34579973867619
 31
0.0
  0
LINE
  5
2047
330
18
100
AcDbEntity
  8
01
100
AcDbLine
 10
-599.4850174732591
 20
-91.49579973867628
 30
0.0
 11
-596.4850174730946
 21
-91.49579973867628
 31
0.0
  0
LINE
  5
2048
330
18
100
AcDbEntity
  8
01
100
AcDbLine
 10
-614.0851580503733
 20
-88.64579973867615
 30
0.0
 11
-599.4849876320814
 21
-88.64579973867615
 31
0.0
  0
LINE
  5
2049
330
18
100
AcDbEntity
  8
01
100
AcDbLine
 10
-599.484986061493
 20
-88.49579973867617
 30
0.0
 11
-596.4849860613285
 21
-88.49579973867617
 31
0.0
  0
LINE
  5
204A
330
18
100
AcDbEntity
  8
01
100
AcDbLine
 10
-617.122499660142
 20
-91.0901700885691
 30
0.0
 11
-617.922495094193
 21
-89.12783499969379
 31
0.0
  0
LINE
  5
204B
330
18
100
AcDbEntity
  8
01
100
AcDbLine
 10
-617.922495094193
 20
-89.12783499969379
 30
0.0
 11
-618.2260578346186
 21
-89.70062561965551
 31
0.0
  0
LINE
  5
204C
330
18
100
AcDbEntity
  8
01
100
AcDbLine
 10
-613.9437014894963
 20
-91.8957997386762
 30
0.0
 11
-614.7224929869817
 21
-88.2222067908802
 31
0.0
  0
LINE
  5
204D
330
18
100
AcDbEntity
  8
01
100
AcDbLine
 10
-615.5225007137462
 20
-91.54298359661749
 30
0.0
 11
-616.3224940405873
 21
-88.67502089528699
 31
0.0
  0
LINE
  5
204E
330
18
100
AcDbEntity
  8
01
100
AcDbLine
 10
-610.7431015051067
 20
-91.89279985162767
 30
0.0
 11
-611.5024926928586
 21
-88.09579973867602
 31
0.0
  0
LINE
  5
204F
330
18
100
AcDbEntity
  8
01
100
AcDbLine
 10
-612.3431015051067
 20
-91.89279985162756
 30
0.0
 11
-613.1024926928585
 21
-88.09579973867602
 31
0.0
  0
LINE
  5
2050
330
18
100
AcDbEntity
  8
01
100
AcDbLine
 10
-615.3946428487895
 20
-91.0122544321668
 30
0.0
 11
-615.5225007137462
 21
-91.54298359661749
 31
0.0
  0
LINE
  5
2051
330
18
100
AcDbEntity
  8
01
100
AcDbLine
 10
-613.8337002097596
 20
-91.34579973867619
 30
0.0
 11
-613.9437014894963
 21
-91.8957997386762
 31
0.0
  0
LINE
  5
2052
330
18
100
AcDbEntity
  8
01
100
AcDbLine
 10
-616.9642567757553
 20
-90.61244822608802
 30
0.0
 11
-617.122499660142
 21
-91.0901700885691
 31
0.0
  0
LINE
  5
2053
330
18
100
AcDbEntity
  8
01
100
AcDbLine
 10
-612.2337002097597
 20
-91.34579973867625
 30
0.0
 11
-612.3431015051067
 21
-91.89279985162756
 31
0.0
  0
LINE
  5
2054
330
18
100
AcDbEntity
  8
01
100
AcDbLine
 10
-610.6337002097596
 20
-91.34579973867625
 30
0.0
 11
-610.7431015051067
 21
-91.89279985162767
 31
0.0
  0
LINE
  5
2055
330
18
100
AcDbEntity
  8
01
100
AcDbLine
 10
-616.3224940405873
 20
-88.67502089528699
 30
0.0
 11
-616.5181046423787
 21
-89.2655527310215
 31
0.0
  0
LINE
  5
2056
330
18
100
AcDbEntity
  8
01
100
AcDbLine
 10
-614.7224929869817
 20
-88.2222067908802
 30
0.0
 11
-614.8728815432247
 21
-88.8464592983392
 31
0.0
  0
LINE
  5
2057
330
18
100
AcDbEntity
  8
01
100
AcDbLine
 10
-611.5024926928586
 20
-88.09579973867602
 30
0.0
 11
-611.6124939725952
 21
-88.64579973867615
 31
0.0
  0
LINE
  5
2058
330
18
100
AcDbEntity
  8
01
100
AcDbLine
 10
-613.1024926928585
 20
-88.09579973867602
 30
0.0
 11
-613.2124939725954
 21
-88.64579973867615
 31
0.0
  0
LINE
  5
2059
330
18
100
AcDbEntity
  8
01
100
AcDbLine
 10
-609.9024926928585
 20
-88.09579973867602
 30
0.0
 11
-610.0124939725954
 21
-88.64579973867615
 31
0.0
  0
LINE
  5
205A
330
18
100
AcDbEntity
  8
01
100
AcDbLine
 10
-605.9431015051066
 20
-91.8927998516279
 30
0.0
 11
-606.7024926928584
 21
-88.09579973867602
 31
0.0
  0
LINE
  5
205B
330
18
100
AcDbEntity
  8
01
100
AcDbLine
 10
-604.3431015051067
 20
-91.89279985162756
 30
0.0
 11
-605.1024926928585
 21
-88.09579973867602
 31
0.0
  0
LINE
  5
205C
330
18
100
AcDbEntity
  8
01
100
AcDbLine
 10
-602.7431015051066
 20
-91.89279985162744
 30
0.0
 11
-603.5024926928543
 21
-88.09579973867625
 31
0.0
  0
LINE
  5
205D
330
18
100
AcDbEntity
  8
01
100
AcDbLine
 10
-607.5431015051067
 20
-91.89279985162767
 30
0.0
 11
-608.3024926928586
 21
-88.09579973867602
 31
0.0
  0
LINE
  5
205E
330
18
100
AcDbEntity
  8
01
100
AcDbLine
 10
-607.4337002097598
 20
-91.34579973867625
 30
0.0
 11
-607.5431015051067
 21
-91.89279985162767
 31
0.0
  0
LINE
  5
205F
330
18
100
AcDbEntity
  8
01
100
AcDbLine
 10
-609.0337002097596
 20
-91.34579973867625
 30
0.0
 11
-609.1431015051066
 21
-91.89279985162767
 31
0.0
  0
LINE
  5
2060
330
18
100
AcDbEntity
  8
01
100
AcDbLine
 10
-605.8337002097595
 20
-91.3457997386763
 30
0.0
 11
-605.9431015051066
 21
-91.8927998516279
 31
0.0
  0
LINE
  5
2061
330
18
100
AcDbEntity
  8
01
100
AcDbLine
 10
-602.6337002097589
 20
-91.34579973867619
 30
0.0
 11
-602.7431015051066
 21
-91.89279985162744
 31
0.0
  0
LINE
  5
2062
330
18
100
AcDbEntity
  8
01
100
AcDbLine
 10
-604.2337002097589
 20
-91.34579973867625
 30
0.0
 11
-604.3431015051067
 21
-91.89279985162756
 31
0.0
  0
LINE
  5
2063
330
18
100
AcDbEntity
  8
01
100
AcDbLine
 10
-606.7024926928584
 20
-88.09579973867602
 30
0.0
 11
-606.8124939725955
 21
-88.64579973867615
 31
0.0
  0
LINE
  5
2064
330
18
100
AcDbEntity
  8
01
100
AcDbLine
 10
-608.3024926928586
 20
-88.09579973867602
 30
0.0
 11
-608.4124939725955
 21
-88.64579973867615
 31
0.0
  0
LINE
  5
2065
330
18
100
AcDbEntity
  8
01
100
AcDbLine
 10
-603.5024926928543
 20
-88.09579973867625
 30
0.0
 11
-603.6124939725917
 21
-88.64579973867615
 31
0.0
  0
LINE
  5
2066
330
18
100
AcDbEntity
  8
01
100
AcDbLine
 10
-605.1024926928585
 20
-88.09579973867602
 30
0.0
 11
-605.2124939725954
 21
-88.64579973867615
 31
0.0
  0
LINE
  5
2067
330
18
100
AcDbEntity
  8
01
100
AcDbLine
 10
-599.9224878066942
 20
-89.99584627457398
 30
0.0
 11
-600.3024926928542
 21
-88.09579973867625
 31
0.0
  0
LINE
  5
2068
330
18
100
AcDbEntity
  8
01
100
AcDbLine
 10
-601.1431015051064
 20
-91.89279985162744
 30
0.0
 11
-601.9024926928541
 21
-88.09579973867625
 31
0.0
  0
LINE
  5
2069
330
18
100
AcDbEntity
  8
01
100
AcDbLine
 10
-601.0337002097588
 20
-91.34579973867619
 30
0.0
 11
-601.1431015051064
 21
-91.89279985162744
 31
0.0
  0
LINE
  5
206A
330
18
100
AcDbEntity
  8
01
100
AcDbLine
 10
-600.3024926928542
 20
-88.09579973867625
 30
0.0
 11
-600.4124939725916
 21
-88.64579973867615
 31
0.0
  0
LINE
  5
206B
330
18
100
AcDbEntity
  8
01
100
AcDbLine
 10
-601.9024926928541
 20
-88.09579973867625
 30
0.0
 11
-602.0124939725915
 21
-88.64579973867615
 31
0.0
  0
LINE
  5
206C
330
18
100
AcDbEntity
  8
01
100
AcDbLine
 10
-594.4850052575556
 20
-93.49582591511859
 30
0.0
 11
-594.4849889699914
 21
-86.49582591511904
 31
0.0
  0
LINE
  5
206D
330
18
100
AcDbEntity
  8
01
100
AcDbLine
 10
-594.3850052575553
 20
-93.49582591511864
 30
0.0
 11
-594.3849889699911
 21
-86.49582591511887
 31
0.0
  0
LINE
  5
206E
330
18
100
AcDbEntity
  8
01
100
AcDbLine
 10
-594.4850052575556
 20
-93.49582591511859
 30
0.0
 11
-594.3850052575553
 21
-93.49582591511864
 31
0.0
  0
LINE
  5
206F
330
18
100
AcDbEntity
  8
01
100
AcDbLine
 10
-594.4849889699914
 20
-86.49582591511904
 30
0.0
 11
-594.3849889699911
 21
-86.49582591511887
 31
0.0
  0
LINE
  5
2070
330
18
100
AcDbEntity
  8
01
100
AcDbLine
 10
-596.4849860613285
 20
-88.49579973867617
 30
0.0
 11
-596.4850174730946
 21
-91.49579973867628
 31
0.0
  0
LINE
  5
2071
330
18
100
AcDbEntity
  8
01
100
AcDbLine
 10
-599.484986061493
 20
-88.49579973867617
 30
0.0
 11
-599.4850174732591
 21
-91.49579973867628
 31
0.0
  0
LINE
  5
2072
330
18
100
AcDbEntity
  8
01
100
AcDbLine
 10
-619.3849971138882
 20
-89.99584627457403
 30
0.0
 11
-614.0851580503733
 21
-88.64579973867615
 31
0.0
  0
LINE
  5
2073
330
18
100
AcDbEntity
  8
01
100
AcDbLine
 10
-619.3849971138882
 20
-89.99584627457403
 30
0.0
 11
-614.0851650307579
 21
-91.3457997386763
 31
0.0
  0
LINE
  5
2074
330
18
100
AcDbEntity
  8
01
100
AcDbLine
 10
-632.4850052575556
 20
-102.9958259151186
 30
0.0
 11
-634.4850174730946
 21
-100.9957997386762
 31
0.0
  0
LINE
  5
2075
330
18
100
AcDbEntity
  8
01
100
AcDbLine
 10
-632.4849889699914
 20
-95.99582591511904
 30
0.0
 11
-634.4849860613286
 21
-97.99579973867623
 31
0.0
  0
LINE
  5
2076
330
18
100
AcDbEntity
  8
1CENTER
100
AcDbLine
 10
-658.9491344524567
 20
-99.49584627457403
 30
0.0
 11
-630.1986374954217
 21
-99.49584627457403
 31
0.0
  0
LINE
  5
2077
330
18
100
AcDbEntity
  8
01
100
AcDbLine
 10
-647.1431015051066
 20
-101.3927998516277
 30
0.0
 11
-647.9024926928585
 21
-97.59579973867602
 31
0.0
  0
LINE
  5
2078
330
18
100
AcDbEntity
  8
01
100
AcDbLine
 10
-652.0851650307579
 20
-100.8457997386763
 30
0.0
 11
-637.4850159026707
 21
-100.8457997386762
 31
0.0
  0
LINE
  5
2079
330
18
100
AcDbEntity
  8
01
100
AcDbLine
 10
-637.4850174732591
 20
-100.9957997386763
 30
0.0
 11
-634.4850174730946
 21
-100.9957997386763
 31
0.0
  0
LINE
  5
207A
330
18
100
AcDbEntity
  8
01
100
AcDbLine
 10
-652.0851580503733
 20
-98.14579973867615
 30
0.0
 11
-637.4849876320814
 21
-98.14579973867615
 31
0.0
  0
LINE
  5
207B
330
18
100
AcDbEntity
  8
01
100
AcDbLine
 10
-637.484986061493
 20
-97.99579973867617
 30
0.0
 11
-634.4849860613285
 21
-97.99579973867617
 31
0.0
  0
LINE
  5
207C
330
18
100
AcDbEntity
  8
01
100
AcDbLine
 10
-655.122499660142
 20
-100.5901700885691
 30
0.0
 11
-655.922495094193
 21
-98.62783499969379
 31
0.0
  0
LINE
  5
207D
330
18
100
AcDbEntity
  8
01
100
AcDbLine
 10
-655.922495094193
 20
-98.62783499969379
 30
0.0
 11
-656.2260578346186
 21
-99.20062561965551
 31
0.0
  0
LINE
  5
207E
330
18
100
AcDbEntity
  8
01
100
AcDbLine
 10
-651.9437014894963
 20
-101.3957997386762
 30
0.0
 11
-652.7224929869817
 21
-97.7222067908802
 31
0.0
  0
LINE
  5
207F
330
18
100
AcDbEntity
  8
01
100
AcDbLine
 10
-653.5225007137462
 20
-101.0429835966175
 30
0.0
 11
-654.3224940405873
 21
-98.17502089528699
 31
0.0
  0
LINE
  5
2080
330
18
100
AcDbEntity
  8
01
100
AcDbLine
 10
-648.7431015051067
 20
-101.3927998516277
 30
0.0
 11
-649.5024926928586
 21
-97.59579973867602
 31
0.0
  0
LINE
  5
2081
330
18
100
AcDbEntity
  8
01
100
AcDbLine
 10
-650.3431015051067
 20
-101.3927998516276
 30
0.0
 11
-651.1024926928585
 21
-97.59579973867602
 31
0.0
  0
LINE
  5
2082
330
18
100
AcDbEntity
  8
01
100
AcDbLine
 10
-653.3946428487895
 20
-100.5122544321668
 30
0.0
 11
-653.5225007137462
 21
-101.0429835966175
 31
0.0
  0
LINE
  5
2083
330
18
100
AcDbEntity
  8
01
100
AcDbLine
 10
-651.8337002097596
 20
-100.8457997386762
 30
0.0
 11
-651.9437014894963
 21
-101.3957997386762
 31
0.0
  0
LINE
  5
2084
330
18
100
AcDbEntity
  8
01
100
AcDbLine
 10
-654.9642567757553
 20
-100.112448226088
 30
0.0
 11
-655.122499660142
 21
-100.5901700885691
 31
0.0
  0
LINE
  5
2085
330
18
100
AcDbEntity
  8
01
100
AcDbLine
 10
-650.2337002097597
 20
-100.8457997386762
 30
0.0
 11
-650.3431015051067
 21
-101.3927998516276
 31
0.0
  0
LINE
  5
2086
330
18
100
AcDbEntity
  8
01
100
AcDbLine
 10
-648.6337002097596
 20
-100.8457997386762
 30
0.0
 11
-648.7431015051067
 21
-101.3927998516277
 31
0.0
  0
LINE
  5
2087
330
18
100
AcDbEntity
  8
01
100
AcDbLine
 10
-654.3224940405873
 20
-98.17502089528699
 30
0.0
 11
-654.5181046423787
 21
-98.7655527310215
 31
0.0
  0
LINE
  5
2088
330
18
100
AcDbEntity
  8
01
100
AcDbLine
 10
-652.7224929869817
 20
-97.7222067908802
 30
0.0
 11
-652.8728815432247
 21
-98.3464592983392
 31
0.0
  0
LINE
  5
2089
330
18
100
AcDbEntity
  8
01
100
AcDbLine
 10
-649.5024926928586
 20
-97.59579973867602
 30
0.0
 11
-649.6124939725952
 21
-98.14579973867615
 31
0.0
  0
LINE
  5
208A
330
18
100
AcDbEntity
  8
01
100
AcDbLine
 10
-651.1024926928585
 20
-97.59579973867602
 30
0.0
 11
-651.2124939725954
 21
-98.14579973867615
 31
0.0
  0
LINE
  5
208B
330
18
100
AcDbEntity
  8
01
100
AcDbLine
 10
-647.9024926928585
 20
-97.59579973867602
 30
0.0
 11
-648.0124939725954
 21
-98.14579973867615
 31
0.0
  0
LINE
  5
208C
330
18
100
AcDbEntity
  8
01
100
AcDbLine
 10
-643.9431015051066
 20
-101.3927998516279
 30
0.0
 11
-644.7024926928584
 21
-97.59579973867602
 31
0.0
  0
LINE
  5
208D
330
18
100
AcDbEntity
  8
01
100
AcDbLine
 10
-642.3431015051067
 20
-101.3927998516276
 30
0.0
 11
-643.1024926928585
 21
-97.59579973867602
 31
0.0
  0
LINE
  5
208E
330
18
100
AcDbEntity
  8
01
100
AcDbLine
 10
-640.7431015051066
 20
-101.3927998516274
 30
0.0
 11
-641.5024926928543
 21
-97.59579973867625
 31
0.0
  0
LINE
  5
208F
330
18
100
AcDbEntity
  8
01
100
AcDbLine
 10
-645.5431015051067
 20
-101.3927998516277
 30
0.0
 11
-646.3024926928586
 21
-97.59579973867602
 31
0.0
  0
LINE
  5
2090
330
18
100
AcDbEntity
  8
01
100
AcDbLine
 10
-645.4337002097598
 20
-100.8457997386762
 30
0.0
 11
-645.5431015051067
 21
-101.3927998516277
 31
0.0
  0
LINE
  5
2091
330
18
100
AcDbEntity
  8
01
100
AcDbLine
 10
-647.0337002097596
 20
-100.8457997386762
 30
0.0
 11
-647.1431015051066
 21
-101.3927998516277
 31
0.0
  0
LINE
  5
2092
330
18
100
AcDbEntity
  8
01
100
AcDbLine
 10
-643.8337002097595
 20
-100.8457997386763
 30
0.0
 11
-643.9431015051066
 21
-101.3927998516279
 31
0.0
  0
LINE
  5
2093
330
18
100
AcDbEntity
  8
01
100
AcDbLine
 10
-640.6337002097589
 20
-100.8457997386762
 30
0.0
 11
-640.7431015051066
 21
-101.3927998516274
 31
0.0
  0
LINE
  5
2094
330
18
100
AcDbEntity
  8
01
100
AcDbLine
 10
-642.2337002097589
 20
-100.8457997386762
 30
0.0
 11
-642.3431015051067
 21
-101.3927998516276
 31
0.0
  0
LINE
  5
2095
330
18
100
AcDbEntity
  8
01
100
AcDbLine
 10
-644.7024926928584
 20
-97.59579973867602
 30
0.0
 11
-644.8124939725955
 21
-98.14579973867615
 31
0.0
  0
LINE
  5
2096
330
18
100
AcDbEntity
  8
01
100
AcDbLine
 10
-646.3024926928586
 20
-97.59579973867602
 30
0.0
 11
-646.4124939725955
 21
-98.14579973867615
 31
0.0
  0
LINE
  5
2097
330
18
100
AcDbEntity
  8
01
100
AcDbLine
 10
-641.5024926928543
 20
-97.59579973867625
 30
0.0
 11
-641.6124939725917
 21
-98.14579973867615
 31
0.0
  0
LINE
  5
2098
330
18
100
AcDbEntity
  8
01
100
AcDbLine
 10
-643.1024926928585
 20
-97.59579973867602
 30
0.0
 11
-643.2124939725954
 21
-98.14579973867615
 31
0.0
  0
LINE
  5
2099
330
18
100
AcDbEntity
  8
01
100
AcDbLine
 10
-637.9224878066942
 20
-99.49584627457398
 30
0.0
 11
-638.3024926928542
 21
-97.59579973867625
 31
0.0
  0
LINE
  5
209A
330
18
100
AcDbEntity
  8
01
100
AcDbLine
 10
-639.1431015051064
 20
-101.3927998516274
 30
0.0
 11
-639.9024926928541
 21
-97.59579973867625
 31
0.0
  0
LINE
  5
209B
330
18
100
AcDbEntity
  8
01
100
AcDbLine
 10
-639.0337002097588
 20
-100.8457997386762
 30
0.0
 11
-639.1431015051064
 21
-101.3927998516274
 31
0.0
  0
LINE
  5
209C
330
18
100
AcDbEntity
  8
01
100
AcDbLine
 10
-638.3024926928542
 20
-97.59579973867625
 30
0.0
 11
-638.4124939725916
 21
-98.14579973867615
 31
0.0
  0
LINE
  5
209D
330
18
100
AcDbEntity
  8
01
100
AcDbLine
 10
-639.9024926928541
 20
-97.59579973867625
 30
0.0
 11
-640.0124939725915
 21
-98.14579973867615
 31
0.0
  0
LINE
  5
209E
330
18
100
AcDbEntity
  8
01
100
AcDbLine
 10
-632.4850052575556
 20
-102.9958259151186
 30
0.0
 11
-632.4849889699914
 21
-95.99582591511904
 31
0.0
  0
LINE
  5
209F
330
18
100
AcDbEntity
  8
01
100
AcDbLine
 10
-632.3850052575553
 20
-102.9958259151186
 30
0.0
 11
-632.3849889699911
 21
-95.99582591511887
 31
0.0
  0
LINE
  5
20A0
330
18
100
AcDbEntity
  8
01
100
AcDbLine
 10
-632.4850052575556
 20
-102.9958259151186
 30
0.0
 11
-632.3850052575553
 21
-102.9958259151186
 31
0.0
  0
LINE
  5
20A1
330
18
100
AcDbEntity
  8
01
100
AcDbLine
 10
-632.4849889699914
 20
-95.99582591511904
 30
0.0
 11
-632.3849889699911
 21
-95.99582591511887
 31
0.0
  0
LINE
  5
20A2
330
18
100
AcDbEntity
  8
01
100
AcDbLine
 10
-634.4849860613285
 20
-97.99579973867617
 30
0.0
 11
-634.4850174730946
 21
-100.9957997386763
 31
0.0
  0
LINE
  5
20A3
330
18
100
AcDbEntity
  8
01
100
AcDbLine
 10
-637.484986061493
 20
-97.99579973867617
 30
0.0
 11
-637.4850174732591
 21
-100.9957997386763
 31
0.0
  0
LINE
  5
20A4
330
18
100
AcDbEntity
  8
01
100
AcDbLine
 10
-657.3849971138882
 20
-99.49584627457403
 30
0.0
 11
-652.0851580503733
 21
-98.14579973867615
 31
0.0
  0
LINE
  5
20A5
330
18
100
AcDbEntity
  8
01
100
AcDbLine
 10
-657.3849971138882
 20
-99.49584627457403
 30
0.0
 11
-652.0851650307579
 21
-100.8457997386763
 31
0.0
  0
LINE
  5
20A6
330
18
100
AcDbEntity
  8
01
100
AcDbLine
 10
-594.4850052575556
 20
-102.9958259151186
 30
0.0
 11
-596.4850174730946
 21
-100.9957997386762
 31
0.0
  0
LINE
  5
20A7
330
18
100
AcDbEntity
  8
01
100
AcDbLine
 10
-594.4849889699914
 20
-95.99582591511904
 30
0.0
 11
-596.4849860613286
 21
-97.99579973867623
 31
0.0
  0
LINE
  5
20A8
330
18
100
AcDbEntity
  8
1CENTER
100
AcDbLine
 10
-620.9491344524567
 20
-99.49584627457403
 30
0.0
 11
-592.1986374954217
 21
-99.49584627457403
 31
0.0
  0
LINE
  5
20A9
330
18
100
AcDbEntity
  8
01
100
AcDbLine
 10
-609.1431015051066
 20
-101.3927998516277
 30
0.0
 11
-609.9024926928585
 21
-97.59579973867602
 31
0.0
  0
LINE
  5
20AA
330
18
100
AcDbEntity
  8
01
100
AcDbLine
 10
-614.0851650307579
 20
-100.8457997386763
 30
0.0
 11
-599.4850159026707
 21
-100.8457997386762
 31
0.0
  0
LINE
  5
20AB
330
18
100
AcDbEntity
  8
01
100
AcDbLine
 10
-599.4850174732591
 20
-100.9957997386763
 30
0.0
 11
-596.4850174730946
 21
-100.9957997386763
 31
0.0
  0
LINE
  5
20AC
330
18
100
AcDbEntity
  8
01
100
AcDbLine
 10
-614.0851580503733
 20
-98.14579973867615
 30
0.0
 11
-599.4849876320814
 21
-98.14579973867615
 31
0.0
  0
LINE
  5
20AD
330
18
100
AcDbEntity
  8
01
100
AcDbLine
 10
-599.484986061493
 20
-97.99579973867617
 30
0.0
 11
-596.4849860613285
 21
-97.99579973867617
 31
0.0
  0
LINE
  5
20AE
330
18
100
AcDbEntity
  8
01
100
AcDbLine
 10
-617.122499660142
 20
-100.5901700885691
 30
0.0
 11
-617.922495094193
 21
-98.62783499969379
 31
0.0
  0
LINE
  5
20AF
330
18
100
AcDbEntity
  8
01
100
AcDbLine
 10
-617.922495094193
 20
-98.62783499969379
 30
0.0
 11
-618.2260578346186
 21
-99.20062561965551
 31
0.0
  0
LINE
  5
20B0
330
18
100
AcDbEntity
  8
01
100
AcDbLine
 10
-613.9437014894963
 20
-101.3957997386762
 30
0.0
 11
-614.7224929869817
 21
-97.7222067908802
 31
0.0
  0
LINE
  5
20B1
330
18
100
AcDbEntity
  8
01
100
AcDbLine
 10
-615.5225007137462
 20
-101.0429835966175
 30
0.0
 11
-616.3224940405873
 21
-98.17502089528699
 31
0.0
  0
LINE
  5
20B2
330
18
100
AcDbEntity
  8
01
100
AcDbLine
 10
-610.7431015051067
 20
-101.3927998516277
 30
0.0
 11
-611.5024926928586
 21
-97.59579973867602
 31
0.0
  0
LINE
  5
20B3
330
18
100
AcDbEntity
  8
01
100
AcDbLine
 10
-612.3431015051067
 20
-101.3927998516276
 30
0.0
 11
-613.1024926928585
 21
-97.59579973867602
 31
0.0
  0
LINE
  5
20B4
330
18
100
AcDbEntity
  8
01
100
AcDbLine
 10
-615.3946428487895
 20
-100.5122544321668
 30
0.0
 11
-615.5225007137462
 21
-101.0429835966175
 31
0.0
  0
LINE
  5
20B5
330
18
100
AcDbEntity
  8
01
100
AcDbLine
 10
-613.8337002097596
 20
-100.8457997386762
 30
0.0
 11
-613.9437014894963
 21
-101.3957997386762
 31
0.0
  0
LINE
  5
20B6
330
18
100
AcDbEntity
  8
01
100
AcDbLine
 10
-616.9642567757553
 20
-100.112448226088
 30
0.0
 11
-617.122499660142
 21
-100.5901700885691
 31
0.0
  0
LINE
  5
20B7
330
18
100
AcDbEntity
  8
01
100
AcDbLine
 10
-612.2337002097597
 20
-100.8457997386762
 30
0.0
 11
-612.3431015051067
 21
-101.3927998516276
 31
0.0
  0
LINE
  5
20B8
330
18
100
AcDbEntity
  8
01
100
AcDbLine
 10
-610.6337002097596
 20
-100.8457997386762
 30
0.0
 11
-610.7431015051067
 21
-101.3927998516277
 31
0.0
  0
LINE
  5
20B9
330
18
100
AcDbEntity
  8
01
100
AcDbLine
 10
-616.3224940405873
 20
-98.17502089528699
 30
0.0
 11
-616.5181046423787
 21
-98.7655527310215
 31
0.0
  0
LINE
  5
20BA
330
18
100
AcDbEntity
  8
01
100
AcDbLine
 10
-614.7224929869817
 20
-97.7222067908802
 30
0.0
 11
-614.8728815432247
 21
-98.3464592983392
 31
0.0
  0
LINE
  5
20BB
330
18
100
AcDbEntity
  8
01
100
AcDbLine
 10
-611.5024926928586
 20
-97.59579973867602
 30
0.0
 11
-611.6124939725952
 21
-98.14579973867615
 31
0.0
  0
LINE
  5
20BC
330
18
100
AcDbEntity
  8
01
100
AcDbLine
 10
-613.1024926928585
 20
-97.59579973867602
 30
0.0
 11
-613.2124939725954
 21
-98.14579973867615
 31
0.0
  0
LINE
  5
20BD
330
18
100
AcDbEntity
  8
01
100
AcDbLine
 10
-609.9024926928585
 20
-97.59579973867602
 30
0.0
 11
-610.0124939725954
 21
-98.14579973867615
 31
0.0
  0
LINE
  5
20BE
330
18
100
AcDbEntity
  8
01
100
AcDbLine
 10
-605.9431015051066
 20
-101.3927998516279
 30
0.0
 11
-606.7024926928584
 21
-97.59579973867602
 31
0.0
  0
LINE
  5
20BF
330
18
100
AcDbEntity
  8
01
100
AcDbLine
 10
-604.3431015051067
 20
-101.3927998516276
 30
0.0
 11
-605.1024926928585
 21
-97.59579973867602
 31
0.0
  0
LINE
  5
20C0
330
18
100
AcDbEntity
  8
01
100
AcDbLine
 10
-602.7431015051066
 20
-101.3927998516274
 30
0.0
 11
-603.5024926928543
 21
-97.59579973867625
 31
0.0
  0
LINE
  5
20C1
330
18
100
AcDbEntity
  8
01
100
AcDbLine
 10
-607.5431015051067
 20
-101.3927998516277
 30
0.0
 11
-608.3024926928586
 21
-97.59579973867602
 31
0.0
  0
LINE
  5
20C2
330
18
100
AcDbEntity
  8
01
100
AcDbLine
 10
-607.4337002097598
 20
-100.8457997386762
 30
0.0
 11
-607.5431015051067
 21
-101.3927998516277
 31
0.0
  0
LINE
  5
20C3
330
18
100
AcDbEntity
  8
01
100
AcDbLine
 10
-609.0337002097596
 20
-100.8457997386762
 30
0.0
 11
-609.1431015051066
 21
-101.3927998516277
 31
0.0
  0
LINE
  5
20C4
330
18
100
AcDbEntity
  8
01
100
AcDbLine
 10
-605.8337002097595
 20
-100.8457997386763
 30
0.0
 11
-605.9431015051066
 21
-101.3927998516279
 31
0.0
  0
LINE
  5
20C5
330
18
100
AcDbEntity
  8
01
100
AcDbLine
 10
-602.6337002097589
 20
-100.8457997386762
 30
0.0
 11
-602.7431015051066
 21
-101.3927998516274
 31
0.0
  0
LINE
  5
20C6
330
18
100
AcDbEntity
  8
01
100
AcDbLine
 10
-604.2337002097589
 20
-100.8457997386762
 30
0.0
 11
-604.3431015051067
 21
-101.3927998516276
 31
0.0
  0
LINE
  5
20C7
330
18
100
AcDbEntity
  8
01
100
AcDbLine
 10
-606.7024926928584
 20
-97.59579973867602
 30
0.0
 11
-606.8124939725955
 21
-98.14579973867615
 31
0.0
  0
LINE
  5
20C8
330
18
100
AcDbEntity
  8
01
100
AcDbLine
 10
-608.3024926928586
 20
-97.59579973867602
 30
0.0
 11
-608.4124939725955
 21
-98.14579973867615
 31
0.0
  0
LINE
  5
20C9
330
18
100
AcDbEntity
  8
01
100
AcDbLine
 10
-603.5024926928543
 20
-97.59579973867625
 30
0.0
 11
-603.6124939725917
 21
-98.14579973867615
 31
0.0
  0
LINE
  5
20CA
330
18
100
AcDbEntity
  8
01
100
AcDbLine
 10
-605.1024926928585
 20
-97.59579973867602
 30
0.0
 11
-605.2124939725954
 21
-98.14579973867615
 31
0.0
  0
LINE
  5
20CB
330
18
100
AcDbEntity
  8
01
100
AcDbLine
 10
-599.9224878066942
 20
-99.49584627457398
 30
0.0
 11
-600.3024926928542
 21
-97.59579973867625
 31
0.0
  0
LINE
  5
20CC
330
18
100
AcDbEntity
  8
01
100
AcDbLine
 10
-601.1431015051064
 20
-101.3927998516274
 30
0.0
 11
-601.9024926928541
 21
-97.59579973867625
 31
0.0
  0
LINE
  5
20CD
330
18
100
AcDbEntity
  8
01
100
AcDbLine
 10
-601.0337002097588
 20
-100.8457997386762
 30
0.0
 11
-601.1431015051064
 21
-101.3927998516274
 31
0.0
  0
LINE
  5
20CE
330
18
100
AcDbEntity
  8
01
100
AcDbLine
 10
-600.3024926928542
 20
-97.59579973867625
 30
0.0
 11
-600.4124939725916
 21
-98.14579973867615
 31
0.0
  0
LINE
  5
20CF
330
18
100
AcDbEntity
  8
01
100
AcDbLine
 10
-601.9024926928541
 20
-97.59579973867625
 30
0.0
 11
-602.0124939725915
 21
-98.14579973867615
 31
0.0
  0
LINE
  5
20D0
330
18
100
AcDbEntity
  8
01
100
AcDbLine
 10
-594.4850052575556
 20
-102.9958259151186
 30
0.0
 11
-594.4849889699914
 21
-95.99582591511904
 31
0.0
  0
LINE
  5
20D1
330
18
100
AcDbEntity
  8
01
100
AcDbLine
 10
-594.3850052575553
 20
-102.9958259151186
 30
0.0
 11
-594.3849889699911
 21
-95.99582591511887
 31
0.0
  0
LINE
  5
20D2
330
18
100
AcDbEntity
  8
01
100
AcDbLine
 10
-594.4850052575556
 20
-102.9958259151186
 30
0.0
 11
-594.3850052575553
 21
-102.9958259151186
 31
0.0
  0
LINE
  5
20D3
330
18
100
AcDbEntity
  8
01
100
AcDbLine
 10
-594.4849889699914
 20
-95.99582591511904
 30
0.0
 11
-594.3849889699911
 21
-95.99582591511887
 31
0.0
  0
LINE
  5
20D4
330
18
100
AcDbEntity
  8
01
100
AcDbLine
 10
-596.4849860613285
 20
-97.99579973867617
 30
0.0
 11
-596.4850174730946
 21
-100.9957997386763
 31
0.0
  0
LINE
  5
20D5
330
18
100
AcDbEntity
  8
01
100
AcDbLine
 10
-599.484986061493
 20
-97.99579973867617
 30
0.0
 11
-599.4850174732591
 21
-100.9957997386763
 31
0.0
  0
LINE
  5
20D6
330
18
100
AcDbEntity
  8
01
100
AcDbLine
 10
-619.3849971138882
 20
-99.49584627457403
 30
0.0
 11
-614.0851580503733
 21
-98.14579973867615
 31
0.0
  0
LINE
  5
20D7
330
18
100
AcDbEntity
  8
01
100
AcDbLine
 10
-619.3849971138882
 20
-99.49584627457403
 30
0.0
 11
-614.0851650307579
 21
-100.8457997386763
 31
0.0
  0
LINE
  5
20D8
330
18
100
AcDbEntity
  8
01
100
AcDbLine
 10
-632.4850052575556
 20
-112.4958259151186
 30
0.0
 11
-634.4850174730946
 21
-110.4957997386762
 31
0.0
  0
LINE
  5
20D9
330
18
100
AcDbEntity
  8
01
100
AcDbLine
 10
-632.4849889699914
 20
-105.495825915119
 30
0.0
 11
-634.4849860613286
 21
-107.4957997386762
 31
0.0
  0
LINE
  5
20DA
330
18
100
AcDbEntity
  8
1CENTER
100
AcDbLine
 10
-658.9491344524567
 20
-108.995846274574
 30
0.0
 11
-630.1986374954217
 21
-108.995846274574
 31
0.0
  0
LINE
  5
20DB
330
18
100
AcDbEntity
  8
01
100
AcDbLine
 10
-647.1431015051066
 20
-110.8927998516277
 30
0.0
 11
-647.9024926928585
 21
-107.095799738676
 31
0.0
  0
LINE
  5
20DC
330
18
100
AcDbEntity
  8
01
100
AcDbLine
 10
-652.0851650307579
 20
-110.3457997386763
 30
0.0
 11
-637.4850159026707
 21
-110.3457997386762
 31
0.0
  0
LINE
  5
20DD
330
18
100
AcDbEntity
  8
01
100
AcDbLine
 10
-637.4850174732591
 20
-110.4957997386763
 30
0.0
 11
-634.4850174730946
 21
-110.4957997386763
 31
0.0
  0
LINE
  5
20DE
330
18
100
AcDbEntity
  8
01
100
AcDbLine
 10
-652.0851580503733
 20
-107.6457997386761
 30
0.0
 11
-637.4849876320814
 21
-107.6457997386761
 31
0.0
  0
LINE
  5
20DF
330
18
100
AcDbEntity
  8
01
100
AcDbLine
 10
-637.484986061493
 20
-107.4957997386762
 30
0.0
 11
-634.4849860613285
 21
-107.4957997386762
 31
0.0
  0
LINE
  5
20E0
330
18
100
AcDbEntity
  8
01
100
AcDbLine
 10
-655.122499660142
 20
-110.0901700885691
 30
0.0
 11
-655.922495094193
 21
-108.1278349996938
 31
0.0
  0
LINE
  5
20E1
330
18
100
AcDbEntity
  8
01
100
AcDbLine
 10
-655.922495094193
 20
-108.1278349996938
 30
0.0
 11
-656.2260578346186
 21
-108.7006256196555
 31
0.0
  0
LINE
  5
20E2
330
18
100
AcDbEntity
  8
01
100
AcDbLine
 10
-651.9437014894963
 20
-110.8957997386762
 30
0.0
 11
-652.7224929869817
 21
-107.2222067908802
 31
0.0
  0
LINE
  5
20E3
330
18
100
AcDbEntity
  8
01
100
AcDbLine
 10
-653.5225007137462
 20
-110.5429835966175
 30
0.0
 11
-654.3224940405873
 21
-107.675020895287
 31
0.0
  0
LINE
  5
20E4
330
18
100
AcDbEntity
  8
01
100
AcDbLine
 10
-648.7431015051067
 20
-110.8927998516277
 30
0.0
 11
-649.5024926928586
 21
-107.095799738676
 31
0.0
  0
LINE
  5
20E5
330
18
100
AcDbEntity
  8
01
100
AcDbLine
 10
-650.3431015051067
 20
-110.8927998516276
 30
0.0
 11
-651.1024926928585
 21
-107.095799738676
 31
0.0
  0
LINE
  5
20E6
330
18
100
AcDbEntity
  8
01
100
AcDbLine
 10
-653.3946428487895
 20
-110.0122544321668
 30
0.0
 11
-653.5225007137462
 21
-110.5429835966175
 31
0.0
  0
LINE
  5
20E7
330
18
100
AcDbEntity
  8
01
100
AcDbLine
 10
-651.8337002097596
 20
-110.3457997386762
 30
0.0
 11
-651.9437014894963
 21
-110.8957997386762
 31
0.0
  0
LINE
  5
20E8
330
18
100
AcDbEntity
  8
01
100
AcDbLine
 10
-654.9642567757553
 20
-109.612448226088
 30
0.0
 11
-655.122499660142
 21
-110.0901700885691
 31
0.0
  0
LINE
  5
20E9
330
18
100
AcDbEntity
  8
01
100
AcDbLine
 10
-650.2337002097597
 20
-110.3457997386762
 30
0.0
 11
-650.3431015051067
 21
-110.8927998516276
 31
0.0
  0
LINE
  5
20EA
330
18
100
AcDbEntity
  8
01
100
AcDbLine
 10
-648.6337002097596
 20
-110.3457997386762
 30
0.0
 11
-648.7431015051067
 21
-110.8927998516277
 31
0.0
  0
LINE
  5
20EB
330
18
100
AcDbEntity
  8
01
100
AcDbLine
 10
-654.3224940405873
 20
-107.675020895287
 30
0.0
 11
-654.5181046423787
 21
-108.2655527310215
 31
0.0
  0
LINE
  5
20EC
330
18
100
AcDbEntity
  8
01
100
AcDbLine
 10
-652.7224929869817
 20
-107.2222067908802
 30
0.0
 11
-652.8728815432247
 21
-107.8464592983392
 31
0.0
  0
LINE
  5
20ED
330
18
100
AcDbEntity
  8
01
100
AcDbLine
 10
-649.5024926928586
 20
-107.095799738676
 30
0.0
 11
-649.6124939725952
 21
-107.6457997386761
 31
0.0
  0
LINE
  5
20EE
330
18
100
AcDbEntity
  8
01
100
AcDbLine
 10
-651.1024926928585
 20
-107.095799738676
 30
0.0
 11
-651.2124939725954
 21
-107.6457997386761
 31
0.0
  0
LINE
  5
20EF
330
18
100
AcDbEntity
  8
01
100
AcDbLine
 10
-647.9024926928585
 20
-107.095799738676
 30
0.0
 11
-648.0124939725954
 21
-107.6457997386761
 31
0.0
  0
LINE
  5
20F0
330
18
100
AcDbEntity
  8
01
100
AcDbLine
 10
-643.9431015051066
 20
-110.8927998516279
 30
0.0
 11
-644.7024926928584
 21
-107.095799738676
 31
0.0
  0
LINE
  5
20F1
330
18
100
AcDbEntity
  8
01
100
AcDbLine
 10
-642.3431015051067
 20
-110.8927998516276
 30
0.0
 11
-643.1024926928585
 21
-107.095799738676
 31
0.0
  0
LINE
  5
20F2
330
18
100
AcDbEntity
  8
01
100
AcDbLine
 10
-640.7431015051066
 20
-110.8927998516274
 30
0.0
 11
-641.5024926928543
 21
-107.0957997386762
 31
0.0
  0
LINE
  5
20F3
330
18
100
AcDbEntity
  8
01
100
AcDbLine
 10
-645.5431015051067
 20
-110.8927998516277
 30
0.0
 11
-646.3024926928586
 21
-107.095799738676
 31
0.0
  0
LINE
  5
20F4
330
18
100
AcDbEntity
  8
01
100
AcDbLine
 10
-645.4337002097598
 20
-110.3457997386762
 30
0.0
 11
-645.5431015051067
 21
-110.8927998516277
 31
0.0
  0
LINE
  5
20F5
330
18
100
AcDbEntity
  8
01
100
AcDbLine
 10
-647.0337002097596
 20
-110.3457997386762
 30
0.0
 11
-647.1431015051066
 21
-110.8927998516277
 31
0.0
  0
LINE
  5
20F6
330
18
100
AcDbEntity
  8
01
100
AcDbLine
 10
-643.8337002097595
 20
-110.3457997386763
 30
0.0
 11
-643.9431015051066
 21
-110.8927998516279
 31
0.0
  0
LINE
  5
20F7
330
18
100
AcDbEntity
  8
01
100
AcDbLine
 10
-640.6337002097589
 20
-110.3457997386762
 30
0.0
 11
-640.7431015051066
 21
-110.8927998516274
 31
0.0
  0
LINE
  5
20F8
330
18
100
AcDbEntity
  8
01
100
AcDbLine
 10
-642.2337002097589
 20
-110.3457997386762
 30
0.0
 11
-642.3431015051067
 21
-110.8927998516276
 31
0.0
  0
LINE
  5
20F9
330
18
100
AcDbEntity
  8
01
100
AcDbLine
 10
-644.7024926928584
 20
-107.095799738676
 30
0.0
 11
-644.8124939725955
 21
-107.6457997386761
 31
0.0
  0
LINE
  5
20FA
330
18
100
AcDbEntity
  8
01
100
AcDbLine
 10
-646.3024926928586
 20
-107.095799738676
 30
0.0
 11
-646.4124939725955
 21
-107.6457997386761
 31
0.0
  0
LINE
  5
20FB
330
18
100
AcDbEntity
  8
01
100
AcDbLine
 10
-641.5024926928543
 20
-107.0957997386762
 30
0.0
 11
-641.6124939725917
 21
-107.6457997386761
 31
0.0
  0
LINE
  5
20FC
330
18
100
AcDbEntity
  8
01
100
AcDbLine
 10
-643.1024926928585
 20
-107.095799738676
 30
0.0
 11
-643.2124939725954
 21
-107.6457997386761
 31
0.0
  0
LINE
  5
20FD
330
18
100
AcDbEntity
  8
01
100
AcDbLine
 10
-637.9224878066942
 20
-108.995846274574
 30
0.0
 11
-638.3024926928542
 21
-107.0957997386762
 31
0.0
  0
LINE
  5
20FE
330
18
100
AcDbEntity
  8
01
100
AcDbLine
 10
-639.1431015051064
 20
-110.8927998516274
 30
0.0
 11
-639.9024926928541
 21
-107.0957997386762
 31
0.0
  0
LINE
  5
20FF
330
18
100
AcDbEntity
  8
01
100
AcDbLine
 10
-639.0337002097588
 20
-110.3457997386762
 30
0.0
 11
-639.1431015051064
 21
-110.8927998516274
 31
0.0
  0
LINE
  5
2100
330
18
100
AcDbEntity
  8
01
100
AcDbLine
 10
-638.3024926928542
 20
-107.0957997386762
 30
0.0
 11
-638.4124939725916
 21
-107.6457997386761
 31
0.0
  0
LINE
  5
2101
330
18
100
AcDbEntity
  8
01
100
AcDbLine
 10
-639.9024926928541
 20
-107.0957997386762
 30
0.0
 11
-640.0124939725915
 21
-107.6457997386761
 31
0.0
  0
LINE
  5
2102
330
18
100
AcDbEntity
  8
01
100
AcDbLine
 10
-632.4850052575556
 20
-112.4958259151186
 30
0.0
 11
-632.4849889699914
 21
-105.495825915119
 31
0.0
  0
LINE
  5
2103
330
18
100
AcDbEntity
  8
01
100
AcDbLine
 10
-632.3850052575553
 20
-112.4958259151186
 30
0.0
 11
-632.3849889699911
 21
-105.4958259151189
 31
0.0
  0
LINE
  5
2104
330
18
100
AcDbEntity
  8
01
100
AcDbLine
 10
-632.4850052575556
 20
-112.4958259151186
 30
0.0
 11
-632.3850052575553
 21
-112.4958259151186
 31
0.0
  0
LINE
  5
2105
330
18
100
AcDbEntity
  8
01
100
AcDbLine
 10
-632.4849889699914
 20
-105.495825915119
 30
0.0
 11
-632.3849889699911
 21
-105.4958259151189
 31
0.0
  0
LINE
  5
2106
330
18
100
AcDbEntity
  8
01
100
AcDbLine
 10
-634.4849860613285
 20
-107.4957997386762
 30
0.0
 11
-634.4850174730946
 21
-110.4957997386763
 31
0.0
  0
LINE
  5
2107
330
18
100
AcDbEntity
  8
01
100
AcDbLine
 10
-637.484986061493
 20
-107.4957997386762
 30
0.0
 11
-637.4850174732591
 21
-110.4957997386763
 31
0.0
  0
LINE
  5
2108
330
18
100
AcDbEntity
  8
01
100
AcDbLine
 10
-657.3849971138882
 20
-108.995846274574
 30
0.0
 11
-652.0851580503733
 21
-107.6457997386761
 31
0.0
  0
LINE
  5
2109
330
18
100
AcDbEntity
  8
01
100
AcDbLine
 10
-657.3849971138882
 20
-108.995846274574
 30
0.0
 11
-652.0851650307579
 21
-110.3457997386763
 31
0.0
  0
LINE
  5
210A
330
18
100
AcDbEntity
  8
01
100
AcDbLine
 10
-594.4850052575556
 20
-112.4958259151186
 30
0.0
 11
-596.4850174730946
 21
-110.4957997386762
 31
0.0
  0
LINE
  5
210B
330
18
100
AcDbEntity
  8
01
100
AcDbLine
 10
-594.4849889699914
 20
-105.495825915119
 30
0.0
 11
-596.4849860613286
 21
-107.4957997386762
 31
0.0
  0
LINE
  5
210C
330
18
100
AcDbEntity
  8
1CENTER
100
AcDbLine
 10
-620.9491344524567
 20
-108.995846274574
 30
0.0
 11
-592.1986374954217
 21
-108.995846274574
 31
0.0
  0
LINE
  5
210D
330
18
100
AcDbEntity
  8
01
100
AcDbLine
 10
-609.1431015051066
 20
-110.8927998516277
 30
0.0
 11
-609.9024926928585
 21
-107.095799738676
 31
0.0
  0
LINE
  5
210E
330
18
100
AcDbEntity
  8
01
100
AcDbLine
 10
-614.0851650307579
 20
-110.3457997386763
 30
0.0
 11
-599.4850159026707
 21
-110.3457997386762
 31
0.0
  0
LINE
  5
210F
330
18
100
AcDbEntity
  8
01
100
AcDbLine
 10
-599.4850174732591
 20
-110.4957997386763
 30
0.0
 11
-596.4850174730946
 21
-110.4957997386763
 31
0.0
  0
LINE
  5
2110
330
18
100
AcDbEntity
  8
01
100
AcDbLine
 10
-614.0851580503733
 20
-107.6457997386761
 30
0.0
 11
-599.4849876320814
 21
-107.6457997386761
 31
0.0
  0
LINE
  5
2111
330
18
100
AcDbEntity
  8
01
100
AcDbLine
 10
-599.484986061493
 20
-107.4957997386762
 30
0.0
 11
-596.4849860613285
 21
-107.4957997386762
 31
0.0
  0
LINE
  5
2112
330
18
100
AcDbEntity
  8
01
100
AcDbLine
 10
-617.122499660142
 20
-110.0901700885691
 30
0.0
 11
-617.922495094193
 21
-108.1278349996938
 31
0.0
  0
LINE
  5
2113
330
18
100
AcDbEntity
  8
01
100
AcDbLine
 10
-617.922495094193
 20
-108.1278349996938
 30
0.0
 11
-618.2260578346186
 21
-108.7006256196555
 31
0.0
  0
LINE
  5
2114
330
18
100
AcDbEntity
  8
01
100
AcDbLine
 10
-613.9437014894963
 20
-110.8957997386762
 30
0.0
 11
-614.7224929869817
 21
-107.2222067908802
 31
0.0
  0
LINE
  5
2115
330
18
100
AcDbEntity
  8
01
100
AcDbLine
 10
-615.5225007137462
 20
-110.5429835966175
 30
0.0
 11
-616.3224940405873
 21
-107.675020895287
 31
0.0
  0
LINE
  5
2116
330
18
100
AcDbEntity
  8
01
100
AcDbLine
 10
-610.7431015051067
 20
-110.8927998516277
 30
0.0
 11
-611.5024926928586
 21
-107.095799738676
 31
0.0
  0
LINE
  5
2117
330
18
100
AcDbEntity
  8
01
100
AcDbLine
 10
-612.3431015051067
 20
-110.8927998516276
 30
0.0
 11
-613.1024926928585
 21
-107.095799738676
 31
0.0
  0
LINE
  5
2118
330
18
100
AcDbEntity
  8
01
100
AcDbLine
 10
-615.3946428487895
 20
-110.0122544321668
 30
0.0
 11
-615.5225007137462
 21
-110.5429835966175
 31
0.0
  0
LINE
  5
2119
330
18
100
AcDbEntity
  8
01
100
AcDbLine
 10
-613.8337002097596
 20
-110.3457997386762
 30
0.0
 11
-613.9437014894963
 21
-110.8957997386762
 31
0.0
  0
LINE
  5
211A
330
18
100
AcDbEntity
  8
01
100
AcDbLine
 10
-616.9642567757553
 20
-109.612448226088
 30
0.0
 11
-617.122499660142
 21
-110.0901700885691
 31
0.0
  0
LINE
  5
211B
330
18
100
AcDbEntity
  8
01
100
AcDbLine
 10
-612.2337002097597
 20
-110.3457997386762
 30
0.0
 11
-612.3431015051067
 21
-110.8927998516276
 31
0.0
  0
LINE
  5
211C
330
18
100
AcDbEntity
  8
01
100
AcDbLine
 10
-610.6337002097596
 20
-110.3457997386762
 30
0.0
 11
-610.7431015051067
 21
-110.8927998516277
 31
0.0
  0
LINE
  5
211D
330
18
100
AcDbEntity
  8
01
100
AcDbLine
 10
-616.3224940405873
 20
-107.675020895287
 30
0.0
 11
-616.5181046423787
 21
-108.2655527310215
 31
0.0
  0
LINE
  5
211E
330
18
100
AcDbEntity
  8
01
100
AcDbLine
 10
-614.7224929869817
 20
-107.2222067908802
 30
0.0
 11
-614.8728815432247
 21
-107.8464592983392
 31
0.0
  0
LINE
  5
211F
330
18
100
AcDbEntity
  8
01
100
AcDbLine
 10
-611.5024926928586
 20
-107.095799738676
 30
0.0
 11
-611.6124939725952
 21
-107.6457997386761
 31
0.0
  0
LINE
  5
2120
330
18
100
AcDbEntity
  8
01
100
AcDbLine
 10
-613.1024926928585
 20
-107.095799738676
 30
0.0
 11
-613.2124939725954
 21
-107.6457997386761
 31
0.0
  0
LINE
  5
2121
330
18
100
AcDbEntity
  8
01
100
AcDbLine
 10
-609.9024926928585
 20
-107.095799738676
 30
0.0
 11
-610.0124939725954
 21
-107.6457997386761
 31
0.0
  0
LINE
  5
2122
330
18
100
AcDbEntity
  8
01
100
AcDbLine
 10
-605.9431015051066
 20
-110.8927998516279
 30
0.0
 11
-606.7024926928584
 21
-107.095799738676
 31
0.0
  0
LINE
  5
2123
330
18
100
AcDbEntity
  8
01
100
AcDbLine
 10
-604.3431015051067
 20
-110.8927998516276
 30
0.0
 11
-605.1024926928585
 21
-107.095799738676
 31
0.0
  0
LINE
  5
2124
330
18
100
AcDbEntity
  8
01
100
AcDbLine
 10
-602.7431015051066
 20
-110.8927998516274
 30
0.0
 11
-603.5024926928543
 21
-107.0957997386762
 31
0.0
  0
LINE
  5
2125
330
18
100
AcDbEntity
  8
01
100
AcDbLine
 10
-607.5431015051067
 20
-110.8927998516277
 30
0.0
 11
-608.3024926928586
 21
-107.095799738676
 31
0.0
  0
LINE
  5
2126
330
18
100
AcDbEntity
  8
01
100
AcDbLine
 10
-607.4337002097598
 20
-110.3457997386762
 30
0.0
 11
-607.5431015051067
 21
-110.8927998516277
 31
0.0
  0
LINE
  5
2127
330
18
100
AcDbEntity
  8
01
100
AcDbLine
 10
-609.0337002097596
 20
-110.3457997386762
 30
0.0
 11
-609.1431015051066
 21
-110.8927998516277
 31
0.0
  0
LINE
  5
2128
330
18
100
AcDbEntity
  8
01
100
AcDbLine
 10
-605.8337002097595
 20
-110.3457997386763
 30
0.0
 11
-605.9431015051066
 21
-110.8927998516279
 31
0.0
  0
LINE
  5
2129
330
18
100
AcDbEntity
  8
01
100
AcDbLine
 10
-602.6337002097589
 20
-110.3457997386762
 30
0.0
 11
-602.7431015051066
 21
-110.8927998516274
 31
0.0
  0
LINE
  5
212A
330
18
100
AcDbEntity
  8
01
100
AcDbLine
 10
-604.2337002097589
 20
-110.3457997386762
 30
0.0
 11
-604.3431015051067
 21
-110.8927998516276
 31
0.0
  0
LINE
  5
212B
330
18
100
AcDbEntity
  8
01
100
AcDbLine
 10
-606.7024926928584
 20
-107.095799738676
 30
0.0
 11
-606.8124939725955
 21
-107.6457997386761
 31
0.0
  0
LINE
  5
212C
330
18
100
AcDbEntity
  8
01
100
AcDbLine
 10
-608.3024926928586
 20
-107.095799738676
 30
0.0
 11
-608.4124939725955
 21
-107.6457997386761
 31
0.0
  0
LINE
  5
212D
330
18
100
AcDbEntity
  8
01
100
AcDbLine
 10
-603.5024926928543
 20
-107.0957997386762
 30
0.0
 11
-603.6124939725917
 21
-107.6457997386761
 31
0.0
  0
LINE
  5
212E
330
18
100
AcDbEntity
  8
01
100
AcDbLine
 10
-605.1024926928585
 20
-107.095799738676
 30
0.0
 11
-605.2124939725954
 21
-107.6457997386761
 31
0.0
  0
LINE
  5
212F
330
18
100
AcDbEntity
  8
01
100
AcDbLine
 10
-599.9224878066942
 20
-108.995846274574
 30
0.0
 11
-600.3024926928542
 21
-107.0957997386762
 31
0.0
  0
LINE
  5
2130
330
18
100
AcDbEntity
  8
01
100
AcDbLine
 10
-601.1431015051064
 20
-110.8927998516274
 30
0.0
 11
-601.9024926928541
 21
-107.0957997386762
 31
0.0
  0
LINE
  5
2131
330
18
100
AcDbEntity
  8
01
100
AcDbLine
 10
-601.0337002097588
 20
-110.3457997386762
 30
0.0
 11
-601.1431015051064
 21
-110.8927998516274
 31
0.0
  0
LINE
  5
2132
330
18
100
AcDbEntity
  8
01
100
AcDbLine
 10
-600.3024926928542
 20
-107.0957997386762
 30
0.0
 11
-600.4124939725916
 21
-107.6457997386761
 31
0.0
  0
LINE
  5
2133
330
18
100
AcDbEntity
  8
01
100
AcDbLine
 10
-601.9024926928541
 20
-107.0957997386762
 30
0.0
 11
-602.0124939725915
 21
-107.6457997386761
 31
0.0
  0
LINE
  5
2134
330
18
100
AcDbEntity
  8
01
100
AcDbLine
 10
-594.4850052575556
 20
-112.4958259151186
 30
0.0
 11
-594.4849889699914
 21
-105.495825915119
 31
0.0
  0
LINE
  5
2135
330
18
100
AcDbEntity
  8
01
100
AcDbLine
 10
-594.3850052575553
 20
-112.4958259151186
 30
0.0
 11
-594.3849889699911
 21
-105.4958259151189
 31
0.0
  0
LINE
  5
2136
330
18
100
AcDbEntity
  8
01
100
AcDbLine
 10
-594.4850052575556
 20
-112.4958259151186
 30
0.0
 11
-594.3850052575553
 21
-112.4958259151186
 31
0.0
  0
LINE
  5
2137
330
18
100
AcDbEntity
  8
01
100
AcDbLine
 10
-594.4849889699914
 20
-105.495825915119
 30
0.0
 11
-594.3849889699911
 21
-105.4958259151189
 31
0.0
  0
LINE
  5
2138
330
18
100
AcDbEntity
  8
01
100
AcDbLine
 10
-596.4849860613285
 20
-107.4957997386762
 30
0.0
 11
-596.4850174730946
 21
-110.4957997386763
 31
0.0
  0
LINE
  5
2139
330
18
100
AcDbEntity
  8
01
100
AcDbLine
 10
-599.484986061493
 20
-107.4957997386762
 30
0.0
 11
-599.4850174732591
 21
-110.4957997386763
 31
0.0
  0
LINE
  5
213A
330
18
100
AcDbEntity
  8
01
100
AcDbLine
 10
-619.3849971138882
 20
-108.995846274574
 30
0.0
 11
-614.0851580503733
 21
-107.6457997386761
 31
0.0
  0
LINE
  5
213B
330
18
100
AcDbEntity
  8
01
100
AcDbLine
 10
-619.3849971138882
 20
-108.995846274574
 30
0.0
 11
-614.0851650307579
 21
-110.3457997386763
 31
0.0
  0
LINE
  5
22CA
330
18
100
AcDbEntity
  8
1DIM
100
AcDbLine
 10
-514.0496482670409
 20
-60.67536933892103
 30
0.0
 11
-444.0496482670409
 21
-60.67536933892103
 31
0.0
  0
LINE
  5
22CB
330
18
100
AcDbEntity
  8
1DIM
100
AcDbLine
 10
-514.0496482670409
 20
-67.67536933892103
 30
0.0
 11
-444.0496482670409
 21
-67.67536933892103
 31
0.0
  0
LINE
  5
22CC
330
18
100
AcDbEntity
  8
1DIM
100
AcDbLine
 10
-514.0496482670409
 20
-74.67536933892103
 30
0.0
 11
-444.0496482670409
 21
-74.67536933892103
 31
0.0
  0
LINE
  5
22CD
330
18
100
AcDbEntity
  8
1DIM
100
AcDbLine
 10
-514.0496482670409
 20
-81.67536933892103
 30
0.0
 11
-444.0496482670409
 21
-81.67536933892103
 31
0.0
  0
LINE
  5
22CE
330
18
100
AcDbEntity
  8
1DIM
100
AcDbLine
 10
-514.0496482670409
 20
-88.67536933892103
 30
0.0
 11
-444.0496482670409
 21
-88.67536933892103
 31
0.0
  0
LINE
  5
22CF
330
18
100
AcDbEntity
  8
1DIM
100
AcDbLine
 10
-514.0496482670409
 20
-95.67536933892103
 30
0.0
 11
-444.0496482670409
 21
-95.67536933892103
 31
0.0
  0
LINE
  5
22D2
330
18
100
AcDbEntity
  8
1DIM
100
AcDbLine
 10
-514.0496482670409
 20
-60.67536933892103
 30
0.0
 11
-514.0496482670409
 21
-95.67536933892102
 31
0.0
  0
TEXT
  5
22D8
330
18
100
AcDbEntity
  8
1TEXT
100
AcDbText
 10
-476.3163149337068
 20
-73.17536933892148
 30
0.0
 40
4.0
  1
AC-731-C
 72
     1
 11
-461.6496482670401
 21
-73.17536933892148
 31
0.0
100
AcDbText
  0
LINE
  5
22D9
330
18
100
AcDbEntity
  8
1DIM
100
AcDbLine
 10
-479.0496482670409
 20
-60.67536933892103
 30
0.0
 11
-479.0496482670409
 21
-95.67536933892102
 31
0.0
  0
TEXT
  5
22DA
330
18
100
AcDbEntity
  8
1TEXT
100
AcDbText
 10
-506.1163149337075
 20
-73.17536933892103
 30
0.0
 40
4.0
  1
クローム
 72
     1
 11
-496.6496482670409
 21
-73.17536933892103
 31
0.0
100
AcDbText
  0
TEXT
  5
22DC
330
18
100
AcDbEntity
  8
1TEXT
100
AcDbText
 10
-505.9163149337076
 20
-66.17536933892103
 30
0.0
 40
4.0
  1
表面処理
 72
     1
 11
-496.6496482670409
 21
-66.17536933892103
 31
0.0
100
AcDbText
  0
LINE
  5
22DD
330
18
100
AcDbEntity
  8
1DIM
100
AcDbLine
 10
-444.0496482670409
 20
-60.67536933892103
 30
0.0
 11
-444.0496482670409
 21
-95.67536933892102
 31
0.0
  0
TEXT
  5
22DE
330
18
100
AcDbEntity
  8
1TEXT
100
AcDbText
 10
-468.5163149337076
 20
-66.17536933892103
 30
0.0
 40
4.0
  1
コード
 72
     1
 11
-461.6496482670409
 21
-66.17536933892103
 31
0.0
100
AcDbText
  0
TEXT
  5
22E8
330
18
100
AcDbEntity
  8
1TEXT
100
AcDbText
 10
-513.0990031526178
 20
-94.02930193431547
 30
0.0
 40
4.0
  1
ダークアンバー
 72
     1
 11
-496.8990031526178
 21
-94.02930193431547
 31
0.0
100
AcDbText
  0
TEXT
  5
22ED
330
18
100
AcDbEntity
  8
1TEXT
100
AcDbText
 10
-514.1829816003742
 20
-80.17536933892103
 30
0.0
 40
4.0
  1
SUSヘアライン
 72
     1
 11
-496.6496482670409
 21
-80.17536933892103
 31
0.0
100
AcDbText
  0
TEXT
  5
22EE
330
18
100
AcDbEntity
  8
1TEXT
100
AcDbText
 10
-476.3163149337068
 20
-80.17536933892148
 30
0.0
 40
4.0
  1
AC-731-N
 72
     1
 11
-461.6496482670401
 21
-80.17536933892148
 31
0.0
100
AcDbText
  0
TEXT
  5
22F4
330
18
100
AcDbEntity
  8
1TEXT
100
AcDbText
 10
-513.649648267041
 20
-87.17536933892103
 30
0.0
 40
4.0
  1
ミラーニッケル
 72
     1
 11
-496.649648267041
 21
-87.17536933892103
 31
0.0
100
AcDbText
  0
TEXT
  5
2390
330
18
100
AcDbEntity
  8
1TEXT
100
AcDbText
 10
-475.821037155929
 20
-94.17536933892148
 30
0.0
 40
4.0
  1
AC-731-4Q
 41
0.85
 72
     1
 11
-461.6496482670402
 21
-94.17536933892148
 31
0.0
100
AcDbText
  0
LINE
  5
246E
330
18
100
AcDbEntity
  8
01
100
AcDbLine
 10
-625.861049997726
 20
76.72203025385654
 30
0.0
 11
-625.861049997726
 21
-29.27796974614345
 31
0.0
  0
LINE
  5
246F
330
18
100
AcDbEntity
  8
01
100
AcDbLine
 10
-614.861049997726
 20
76.72203025385654
 30
0.0
 11
-614.8610499977259
 21
-29.27796974614344
 31
0.0
  0
ARC
  5
257B
330
18
100
AcDbEntity
  8
01
100
AcDbCircle
 10
-626.1705250170371
 20
-56.27796974614343
 30
0.0
 40
0.5
100
AcDbArc
 50
270.0
 51
345.5224878140713
  0
ARC
  5
257C
330
18
100
AcDbEntity
  8
01
100
AcDbCircle
 10
-614.5515749784149
 20
-59.27796974614344
 30
0.0
 40
0.5
100
AcDbArc
 50
90.0
 51
165.5224878140713
  0
ARC
  5
257D
330
18
100
AcDbEntity
  8
01
100
AcDbCircle
 10
-626.1705250170371
 20
-56.27796974614343
 30
0.0
 40
2.5
100
AcDbArc
 50
270.0
 51
279.1006662922717
  0
ARC
  5
257F
330
18
100
AcDbEntity
  8
1HIDDEN
100
AcDbCircle
 10
-626.1705250170371
 20
-56.27796974614343
 30
0.0
 40
2.5
100
AcDbArc
 50
279.1006662922717
 51
345.5224878140713
  0
ARC
  5
2580
330
18
100
AcDbEntity
  8
01
100
AcDbCircle
 10
-614.5515749784149
 20
-59.27796974614344
 30
0.0
 40
2.5
100
AcDbArc
 50
90.0
 51
99.10066629227168
  0
ARC
  5
2581
330
18
100
AcDbEntity
  8
1HIDDEN
100
AcDbCircle
 10
-614.5515749784149
 20
-59.27796974614344
 30
0.0
 40
2.5
100
AcDbArc
 50
99.10066629227168
 51
165.5224878140713
  0
CIRCLE
  5
2582
330
18
100
AcDbEntity
  8
01
100
AcDbCircle
 10
-620.361049997726
 20
-57.77796974614344
 30
0.0
 40
5.5
  0
TEXT
  5
2C05
330
18
100
AcDbEntity
  8
1TEXT
100
AcDbText
 10
-476.3163149337068
 20
-87.17536933892148
 30
0.0
 40
4.0
  1
AC-731-D
 72
     1
 11
-461.6496482670401
 21
-87.17536933892148
 31
0.0
100
AcDbText
  0
POINT
  5
3D45
330
18
100
AcDbEntity
  8
01
  6
CONTINUOUS
100
AcDbPoint
 10
-599.861049997726
 20
-20.02796774614343
 30
0.0
  0
POINT
  5
3D46
330
18
100
AcDbEntity
  8
01
  6
CONTINUOUS
100
AcDbPoint
 10
-599.861049997726
 20
-20.02796774614343
 30
0.0
  0
CIRCLE
  5
3D47
330
18
100
AcDbEntity
  8
01
  6
CONTINUOUS
100
AcDbCircle
 10
-599.861049997726
 20
-20.02796774614343
 30
0.0
 40
2.9000001
  0
CIRCLE
  5
3D48
330
18
100
AcDbEntity
  8
01
  6
CONTINUOUS
100
AcDbCircle
 10
-599.861049997726
 20
-20.02796774614343
 30
0.0
 40
3.75
  0
POINT
  5
3D49
330
18
100
AcDbEntity
  8
01
  6
CONTINUOUS
100
AcDbPoint
 10
-583.861049997726
 20
-20.02796774614343
 30
0.0
  0
POINT
  5
3D4A
330
18
100
AcDbEntity
  8
01
  6
CONTINUOUS
100
AcDbPoint
 10
-583.861049997726
 20
-20.02796774614343
 30
0.0
  0
CIRCLE
  5
3D4B
330
18
100
AcDbEntity
  8
01
  6
CONTINUOUS
100
AcDbCircle
 10
-583.861049997726
 20
-20.02796774614343
 30
0.0
 40
2.9000001
  0
CIRCLE
  5
3D4C
330
18
100
AcDbEntity
  8
01
  6
CONTINUOUS
100
AcDbCircle
 10
-583.861049997726
 20
-20.02796774614343
 30
0.0
 40
3.75
  0
POINT
  5
3D4D
330
18
100
AcDbEntity
  8
01
  6
CONTINUOUS
100
AcDbPoint
 10
-599.861049997726
 20
14.97202925385656
 30
0.0
  0
POINT
  5
3D4E
330
18
100
AcDbEntity
  8
01
  6
CONTINUOUS
100
AcDbPoint
 10
-599.861049997726
 20
14.97202925385656
 30
0.0
  0
CIRCLE
  5
3D4F
330
18
100
AcDbEntity
  8
01
  6
CONTINUOUS
100
AcDbCircle
 10
-599.861049997726
 20
14.97202925385656
 30
0.0
 40
2.9000001
  0
CIRCLE
  5
3D50
330
18
100
AcDbEntity
  8
01
  6
CONTINUOUS
100
AcDbCircle
 10
-599.861049997726
 20
14.97202925385656
 30
0.0
 40
3.75
  0
POINT
  5
3D51
330
18
100
AcDbEntity
  8
01
  6
CONTINUOUS
100
AcDbPoint
 10
-583.861049997726
 20
14.97202925385656
 30
0.0
  0
POINT
  5
3D52
330
18
100
AcDbEntity
  8
01
  6
CONTINUOUS
100
AcDbPoint
 10
-583.861049997726
 20
14.97202925385656
 30
0.0
  0
CIRCLE
  5
3D53
330
18
100
AcDbEntity
  8
01
  6
CONTINUOUS
100
AcDbCircle
 10
-583.861049997726
 20
14.97202925385656
 30
0.0
 40
2.9000001
  0
CIRCLE
  5
3D54
330
18
100
AcDbEntity
  8
01
  6
CONTINUOUS
100
AcDbCircle
 10
-583.861049997726
 20
14.97202925385656
 30
0.0
 40
3.75
  0
POINT
  5
3D55
330
18
100
AcDbEntity
  8
01
  6
CONTINUOUS
100
AcDbPoint
 10
-599.861049997726
 20
32.47203225385657
 30
0.0
  0
POINT
  5
3D56
330
18
100
AcDbEntity
  8
01
  6
CONTINUOUS
100
AcDbPoint
 10
-599.861049997726
 20
32.47203225385657
 30
0.0
  0
CIRCLE
  5
3D57
330
18
100
AcDbEntity
  8
01
  6
CONTINUOUS
100
AcDbCircle
 10
-599.861049997726
 20
32.47203225385657
 30
0.0
 40
2.9000001
  0
CIRCLE
  5
3D58
330
18
100
AcDbEntity
  8
01
  6
CONTINUOUS
100
AcDbCircle
 10
-599.861049997726
 20
32.47203225385657
 30
0.0
 40
3.75
  0
POINT
  5
3D59
330
18
100
AcDbEntity
  8
01
  6
CONTINUOUS
100
AcDbPoint
 10
-583.861049997726
 20
32.47203225385657
 30
0.0
  0
POINT
  5
3D5A
330
18
100
AcDbEntity
  8
01
  6
CONTINUOUS
100
AcDbPoint
 10
-583.861049997726
 20
32.47203225385657
 30
0.0
  0
CIRCLE
  5
3D5B
330
18
100
AcDbEntity
  8
01
  6
CONTINUOUS
100
AcDbCircle
 10
-583.861049997726
 20
32.47203225385657
 30
0.0
 40
2.9000001
  0
CIRCLE
  5
3D5C
330
18
100
AcDbEntity
  8
01
  6
CONTINUOUS
100
AcDbCircle
 10
-583.861049997726
 20
32.47203225385657
 30
0.0
 40
3.75
  0
POINT
  5
3D5D
330
18
100
AcDbEntity
  8
01
  6
CONTINUOUS
100
AcDbPoint
 10
-599.861049997726
 20
67.47203025385654
 30
0.0
  0
POINT
  5
3D5E
330
18
100
AcDbEntity
  8
01
  6
CONTINUOUS
100
AcDbPoint
 10
-599.861049997726
 20
67.47203025385654
 30
0.0
  0
CIRCLE
  5
3D5F
330
18
100
AcDbEntity
  8
01
  6
CONTINUOUS
100
AcDbCircle
 10
-599.861049997726
 20
67.47203025385654
 30
0.0
 40
2.9000001
  0
CIRCLE
  5
3D60
330
18
100
AcDbEntity
  8
01
  6
CONTINUOUS
100
AcDbCircle
 10
-599.861049997726
 20
67.47203025385654
 30
0.0
 40
3.75
  0
POINT
  5
3D61
330
18
100
AcDbEntity
  8
01
  6
CONTINUOUS
100
AcDbPoint
 10
-583.861049997726
 20
67.47203025385654
 30
0.0
  0
POINT
  5
3D62
330
18
100
AcDbEntity
  8
01
  6
CONTINUOUS
100
AcDbPoint
 10
-583.861049997726
 20
67.47203025385654
 30
0.0
  0
CIRCLE
  5
3D63
330
18
100
AcDbEntity
  8
01
  6
CONTINUOUS
100
AcDbCircle
 10
-583.861049997726
 20
67.47203025385654
 30
0.0
 40
2.9000001
  0
CIRCLE
  5
3D64
330
18
100
AcDbEntity
  8
01
  6
CONTINUOUS
100
AcDbCircle
 10
-583.861049997726
 20
67.47203025385654
 30
0.0
 40
3.75
  0
LINE
  5
3D65
330
18
100
AcDbEntity
  8
1DIM
100
AcDbLine
 10
-575.861049997726
 20
32.47203225385657
 30
0.0
 11
-549.0976507818126
 21
32.47203225385656
 31
0.0
1001
ACAD
1000
DSTYLE
1002
{
1070
   145
1040
-0.8
1002
}
  0
LINE
  5
3D66
330
18
100
AcDbEntity
  8
1DIM
100
AcDbLine
 10
-575.861049997726
 20
25.22203225385657
 30
0.0
 11
-549.0976507818126
 21
25.22203225385656
 31
0.0
1001
ACAD
1000
DSTYLE
1002
{
1070
   145
1040
-0.8
1002
}
  0
LINE
  5
3D67
330
18
100
AcDbEntity
  8
1DIM
100
AcDbLine
 10
-550.0976507818126
 20
27.22203225385656
 30
0.0
 11
-550.0976507818126
 21
30.47203225385656
 31
0.0
1001
ACAD
1000
DSTYLE
1002
{
1070
   145
1040
-0.8
1002
}
  0
LINE
  5
3D68
330
18
100
AcDbEntity
  8
1DIM
100
AcDbLine
 10
-550.0976507818126
 20
32.47203225385656
 30
0.0
 11
-550.0976507818126
 21
46.53869892052323
 31
0.0
1001
ACAD
1000
DSTYLE
1002
{
1070
   145
1040
-0.8
1002
}
  0
LINE
  5
3D6C
330
18
100
AcDbEntity
  8
1DIM
100
AcDbLine
 10
-575.861049997726
 20
74.72203025385654
 30
0.0
 11
-537.814759997726
 21
74.72203025385653
 31
0.0
  0
LINE
  5
3D6D
330
18
100
AcDbEntity
  8
1DIM
100
AcDbLine
 10
-575.861049997726
 20
-27.27796974614344
 30
0.0
 11
-537.814759997726
 21
-27.27796974614345
 31
0.0
  0
LINE
  5
3D6E
330
18
100
AcDbEntity
  8
1DIM
100
AcDbLine
 10
-538.814759997726
 20
72.72203025385653
 30
0.0
 11
-538.814759997726
 21
-25.27796974614345
 31
0.0
  0
LINE
  5
3D72
330
18
100
AcDbEntity
  8
1DIM
100
AcDbLine
 10
-664.861049997726
 20
-27.27796974614344
 30
0.0
 11
-664.861049997726
 21
-46.24357109411994
 31
0.0
1001
ACAD
1000
DSTYLE
1002
{
1070
    47
1040
0.5
1070
    48
1040
0.5
1070
    71
1070
     0
1070
    72
1070
     0
1002
}
  0
LINE
  5
3D73
330
18
100
AcDbEntity
  8
1DIM
100
AcDbLine
 10
-575.861049997726
 20
-27.27796974614344
 30
0.0
 11
-575.861049997726
 21
-46.24357109411994
 31
0.0
1001
ACAD
1000
DSTYLE
1002
{
1070
    47
1040
0.5
1070
    48
1040
0.5
1070
    71
1070
     0
1070
    72
1070
     0
1002
}
  0
LINE
  5
3D74
330
18
100
AcDbEntity
  8
1DIM
100
AcDbLine
 10
-662.861049997726
 20
-45.24357109411994
 30
0.0
 11
-577.861049997726
 21
-45.24357109411994
 31
0.0
1001
ACAD
1000
DSTYLE
1002
{
1070
    47
1040
0.5
1070
    48
1040
0.5
1070
    71
1070
     0
1070
    72
1070
     0
1002
}
  0
LINE
  5
3D78
330
18
100
AcDbEntity
  8
1DIM
100
AcDbLine
 10
-624.861049997726
 20
-29.27796974614344
 30
0.0
 11
-632.2813754874496
 21
-29.27796974614344
 31
0.0
1001
ACAD
1000
DSTYLE
1002
{
1070
    76
1070
     1
1002
}
  0
LINE
  5
3D79
330
18
100
AcDbEntity
  8
1DIM
100
AcDbLine
 10
-631.2813754874496
 20
-25.27796974614346
 30
0.0
 11
-631.2813754874496
 21
-23.27796974614346
 31
0.0
1001
ACAD
1000
DSTYLE
1002
{
1070
    76
1070
     1
1002
}
  0
LINE
  5
3D7A
330
18
100
AcDbEntity
  8
1DIM
100
AcDbLine
 10
-631.2813754874496
 20
-31.27796974614344
 30
0.0
 11
-631.2813754874496
 21
-38.55006323379295
 31
0.0
1001
ACAD
1000
DSTYLE
1002
{
1070
    76
1070
     1
1002
}
  0
LINE
  5
3D7B
330
18
100
AcDbEntity
  8
1DIM
100
AcDbLine
 10
-631.2813754874496
 20
-27.27796974614346
 30
0.0
 11
-631.2813754874496
 21
-29.27796974614344
 31
0.0
1001
ACAD
1000
DSTYLE
1002
{
1070
    76
1070
     1
1002
}
  0
LINE
  5
3D7F
330
18
100
AcDbEntity
  8
1DIM
100
AcDbLine
 10
-575.861049997726
 20
-20.02796774614343
 30
0.0
 11
-558.8420699977261
 21
-20.02796774614344
 31
0.0
  0
LINE
  5
3D80
330
18
100
AcDbEntity
  8
1DIM
100
AcDbLine
 10
-575.861049997726
 20
-27.27796974614344
 30
0.0
 11
-558.8420699977261
 21
-27.27796974614344
 31
0.0
  0
LINE
  5
3D81
330
18
100
AcDbEntity
  8
1DIM
100
AcDbLine
 10
-559.8420699977261
 20
-22.02796774614344
 30
0.0
 11
-559.8420699977261
 21
-25.27796974614344
 31
0.0
  0
LINE
  5
3D82
330
18
100
AcDbEntity
  8
1DIM
100
AcDbLine
 10
-559.8420699977261
 20
-27.27796974614344
 30
0.0
 11
-559.8420699977261
 21
-41.34463641281011
 31
0.0
  0
LINE
  5
3D86
330
18
100
AcDbEntity
  8
1DIM
100
AcDbLine
 10
-575.861049997726
 20
-58.77796974614344
 30
0.0
 11
-570.495089997726
 21
-58.77796974614344
 31
0.0
  0
LINE
  5
3D87
330
18
100
AcDbEntity
  8
1DIM
100
AcDbLine
 10
-575.861049997726
 20
-56.77796974614344
 30
0.0
 11
-570.495089997726
 21
-56.77796974614344
 31
0.0
  0
LINE
  5
3D88
330
18
100
AcDbEntity
  8
1DIM
100
AcDbLine
 10
-571.495089997726
 20
-60.77796974614344
 30
0.0
 11
-571.495089997726
 21
-62.77796974614344
 31
0.0
  0
LINE
  5
3D89
330
18
100
AcDbEntity
  8
1DIM
100
AcDbLine
 10
-571.495089997726
 20
-54.77796974614344
 30
0.0
 11
-571.495089997726
 21
-49.04463641281011
 31
0.0
  0
LINE
  5
3D8A
330
18
100
AcDbEntity
  8
1DIM
100
AcDbLine
 10
-571.495089997726
 20
-58.77796974614344
 30
0.0
 11
-571.495089997726
 21
-56.77796974614344
 31
0.0
  0
LINE
  5
3D8E
330
18
100
AcDbEntity
  8
1DIM
100
AcDbLine
 10
-575.861049997726
 20
-20.02796774614343
 30
0.0
 11
-558.8420699977261
 21
-20.02796774614344
 31
0.0
  0
LINE
  5
3D8F
330
18
100
AcDbEntity
  8
1DIM
100
AcDbLine
 10
-575.861049997726
 20
14.97202925385656
 30
0.0
 11
-558.8420699977261
 21
14.97202925385656
 31
0.0
  0
LINE
  5
3D90
330
18
100
AcDbEntity
  8
1DIM
100
AcDbLine
 10
-559.8420699977261
 20
-18.02796774614344
 30
0.0
 11
-559.8420699977261
 21
12.97202925385656
 31
0.0
  0
LINE
  5
3D94
330
18
100
AcDbEntity
  8
1DIM
100
AcDbLine
 10
-575.861049997726
 20
14.97202925385656
 30
0.0
 11
-549.2597707262314
 21
14.97202925385655
 31
0.0
1001
ACAD
1000
DSTYLE
1002
{
1070
    77
1070
     3
1070
   145
1040
-0.8
1002
}
  0
LINE
  5
3D95
330
18
100
AcDbEntity
  8
1DIM
100
AcDbLine
 10
-575.861049997726
 20
22.22203225385657
 30
0.0
 11
-549.2597707262314
 21
22.22203225385656
 31
0.0
1001
ACAD
1000
DSTYLE
1002
{
1070
    77
1070
     3
1070
   145
1040
-0.8
1002
}
  0
LINE
  5
3D96
330
18
100
AcDbEntity
  8
1DIM
100
AcDbLine
 10
-550.2597707262314
 20
20.22203225385656
 30
0.0
 11
-550.2597707262314
 21
16.97202925385655
 31
0.0
1001
ACAD
1000
DSTYLE
1002
{
1070
    77
1070
     3
1070
   145
1040
-0.8
1002
}
  0
LINE
  5
3D97
330
18
100
AcDbEntity
  8
1DIM
100
AcDbLine
 10
-550.2597707262314
 20
14.97202925385655
 30
0.0
 11
-550.2597707262314
 21
0.9053625871898842
 31
0.0
1001
ACAD
1000
DSTYLE
1002
{
1070
    77
1070
     3
1070
   145
1040
-0.8
1002
}
  0
LINE
  5
3D9B
330
18
100
AcDbEntity
  8
1DIM
100
AcDbLine
 10
-591.861049997726
 20
59.14716225385656
 30
0.0
 11
-591.861049997726
 21
88.10252325385655
 31
0.0
  0
LINE
  5
3D9C
330
18
100
AcDbEntity
  8
1DIM
100
AcDbLine
 10
-575.861049997726
 20
74.72203025385654
 30
0.0
 11
-575.861049997726
 21
88.10252325385655
 31
0.0
  0
LINE
  5
3D9D
330
18
100
AcDbEntity
  8
1DIM
100
AcDbLine
 10
-589.861049997726
 20
87.10252325385655
 30
0.0
 11
-577.861049997726
 21
87.10252325385655
 31
0.0
  0
LINE
  5
3DA1
330
18
100
AcDbEntity
  8
1DIM
100
AcDbLine
 10
-575.861049997726
 20
67.47203025385654
 30
0.0
 11
-558.8420699977261
 21
67.47203025385654
 31
0.0
  0
LINE
  5
3DA2
330
18
100
AcDbEntity
  8
1DIM
100
AcDbLine
 10
-575.861049997726
 20
74.72203025385654
 30
0.0
 11
-558.8420699977261
 21
74.72203025385654
 31
0.0
  0
LINE
  5
3DA3
330
18
100
AcDbEntity
  8
1DIM
100
AcDbLine
 10
-559.8420699977261
 20
69.47203025385654
 30
0.0
 11
-559.8420699977261
 21
72.72203025385654
 31
0.0
  0
LINE
  5
3DA4
330
18
100
AcDbEntity
  8
1DIM
100
AcDbLine
 10
-559.8420699977261
 20
74.72203025385654
 30
0.0
 11
-559.8420699977261
 21
88.78869692052321
 31
0.0
  0
LINE
  5
3DA8
330
18
100
AcDbEntity
  8
1DIM
100
AcDbLine
 10
-575.861049997726
 20
74.72203025385654
 30
0.0
 11
-575.861049997726
 21
95.87760396848444
 31
0.0
  0
LINE
  5
3DA9
330
18
100
AcDbEntity
  8
1DIM
100
AcDbLine
 10
-583.861049997726
 20
81.28356125385655
 30
0.0
 11
-583.861049997726
 21
95.87760396848444
 31
0.0
  0
LINE
  5
3DAA
330
18
100
AcDbEntity
  8
1DIM
100
AcDbLine
 10
-577.861049997726
 20
94.87760396848444
 30
0.0
 11
-581.861049997726
 21
94.87760396848444
 31
0.0
  0
LINE
  5
3DAE
330
18
100
AcDbEntity
  8
1DIM
100
AcDbLine
 10
-583.861049997726
 20
81.28356125385655
 30
0.0
 11
-583.861049997726
 21
95.87760396848444
 31
0.0
  0
LINE
  5
3DAF
330
18
100
AcDbEntity
  8
1DIM
100
AcDbLine
 10
-599.861049997726
 20
81.53800125385656
 30
0.0
 11
-599.861049997726
 21
95.87760396848444
 31
0.0
  0
LINE
  5
3DB0
330
18
100
AcDbEntity
  8
1DIM
100
AcDbLine
 10
-585.861049997726
 20
94.87760396848444
 30
0.0
 11
-597.861049997726
 21
94.87760396848444
 31
0.0
  0
LINE
  5
3DB4
330
18
100
AcDbEntity
  8
1DIM
100
AcDbLine
 10
-618.861049997726
 20
38.87171519215553
 30
0.0
 11
-621.861049997726
 21
38.87171519215553
 31
0.0
1001
ACAD
1000
DSTYLE
1002
{
1070
    76
1070
     1
1070
    75
1070
     1
1070
     3
1000
φ<>
1002
}
  0
LINE
  5
3DB5
330
18
100
AcDbEntity
  8
1DIM
100
AcDbLine
 10
-623.861049997726
 20
38.87171519215553
 30
0.0
 11
-636.5792484259172
 21
38.87171519215553
 31
0.0
1001
ACAD
1000
DSTYLE
1002
{
1070
    76
1070
     1
1070
    75
1070
     1
1070
     3
1000
φ<>
1002
}
  0
LINE
  5
3DB9
330
18
100
AcDbEntity
  8
1DIM
100
AcDbLine
 10
-575.861049997726
 20
32.47203225385657
 30
0.0
 11
-558.8420699977261
 21
32.47203225385656
 31
0.0
  0
LINE
  5
3DBA
330
18
100
AcDbEntity
  8
1DIM
100
AcDbLine
 10
-575.861049997726
 20
67.47203025385654
 30
0.0
 11
-558.8420699977261
 21
67.47203025385654
 31
0.0
  0
LINE
  5
3DBB
330
18
100
AcDbEntity
  8
1DIM
100
AcDbLine
 10
-559.8420699977261
 20
34.47203225385656
 30
0.0
 11
-559.8420699977261
 21
65.47203025385654
 31
0.0
  0
LINE
  5
3DC0
330
18
100
AcDbEntity
  8
1DIM
100
AcDbLine
 10
-579.218026928316
 20
70.9170363108108
 30
0.0
 11
-555.0802530514368
 21
85.97588620635919
 31
0.0
  0
LINE
  5
3DC1
330
18
100
AcDbEntity
  8
1DIM
100
AcDbLine
 10
-555.0802530514368
 20
85.97588620635919
 30
0.0
 11
-528.8802530514367
 21
85.97588620635919
 31
0.0
  0
TEXT
  5
3DC2
330
18
100
AcDbEntity
  8
1DIM
  6
CONTINUOUS
100
AcDbText
 10
-552.3802530514367
 20
92.51165009524807
 30
0.0
 40
3.5
  1
8-φ6.3穴
100
AcDbText
  0
TEXT
  5
3DC3
330
18
100
AcDbEntity
  8
1DIM
  6
CONTINUOUS
100
AcDbText
 10
-553.31358638477
 20
86.67588620635918
 30
0.0
 40
3.5
  1
φ7.5皿加工
100
AcDbText
  0
LINE
  5
3DC4
330
18
100
AcDbEntity
  8
1DIM
100
AcDbLine
 10
-625.861049997726
 20
25.22203225385657
 30
0.0
 11
-644.8431254878051
 21
25.22203225385657
 31
0.0
  0
LINE
  5
3DC5
330
18
100
AcDbEntity
  8
1DIM
100
AcDbLine
 10
-623.8610499977261
 20
47.22203225385656
 30
0.0
 11
-644.8431254878051
 21
47.22203225385657
 31
0.0
  0
LINE
  5
3DC6
330
18
100
AcDbEntity
  8
1DIM
100
AcDbLine
 10
-643.8431254878051
 20
27.22203225385657
 30
0.0
 11
-643.8431254878051
 21
45.22203225385657
 31
0.0
  0
LINE
  5
3DCA
330
18
100
AcDbEntity
  8
1DIM
100
AcDbLine
 10
-632.3850052575553
 20
-83.99582591511864
 30
0.0
 11
-623.4269461212
 21
-83.99582591511864
 31
0.0
1001
ACAD
1000
DSTYLE
1002
{
1070
     3
1000
φ<>
1070
   341
1005
0
1002
}
  0
LINE
  5
3DCB
330
18
100
AcDbEntity
  8
1DIM
100
AcDbLine
 10
-632.3849889699911
 20
-76.99582591511887
 30
0.0
 11
-623.4269461212
 21
-76.99582591511887
 31
0.0
1001
ACAD
1000
DSTYLE
1002
{
1070
     3
1000
φ<>
1070
   341
1005
0
1002
}
  0
LINE
  5
3DCC
330
18
100
AcDbEntity
  8
1DIM
100
AcDbLine
 10
-624.4269461212
 20
-81.99582591511864
 30
0.0
 11
-624.4269461212
 21
-78.99582591511887
 31
0.0
1001
ACAD
1000
DSTYLE
1002
{
1070
     3
1000
φ<>
1070
   341
1005
0
1002
}
  0
LINE
  5
3DCD
330
18
100
AcDbEntity
  8
1DIM
100
AcDbLine
 10
-624.4269461212
 20
-76.99582591511887
 30
0.0
 11
-624.4269461212
 21
-67.26249258178554
 31
0.0
1001
ACAD
1000
DSTYLE
1002
{
1070
     3
1000
φ<>
1070
   341
1005
0
1002
}
  0
LINE
  5
3DD1
330
18
100
AcDbEntity
  8
1DIM
100
AcDbLine
 10
-632.3849889699911
 20
-76.99582591511887
 30
0.0
 11
-632.3849889699911
 21
-69.66508041841337
 31
0.0
1001
ACAD
1000
DSTYLE
1002
{
1070
   341
1005
0
1002
}
  0
LINE
  5
3DD2
330
18
100
AcDbEntity
  8
1DIM
100
AcDbLine
 10
-657.3849971138882
 20
-80.49584627457403
 30
0.0
 11
-657.3849971138882
 21
-69.66508041841337
 31
0.0
1001
ACAD
1000
DSTYLE
1002
{
1070
   341
1005
0
1002
}
  0
LINE
  5
3DD3
330
18
100
AcDbEntity
  8
1DIM
100
AcDbLine
 10
-634.3849889699911
 20
-70.66508041841337
 30
0.0
 11
-655.3849971138882
 21
-70.66508041841337
 31
0.0
1001
ACAD
1000
DSTYLE
1002
{
1070
   341
1005
0
1002
}
  0
LINE
  5
3DD7
330
18
100
AcDbEntity
  8
1DIM
100
AcDbLine
 10
-651.1024926928585
 20
-78.59579973867602
 30
0.0
 11
-665.18364706802
 21
-78.59579973867602
 31
0.0
1001
ACAD
1000
DSTYLE
1002
{
1070
     3
1000
φ<>
1070
   341
1005
0
1002
}
  0
LINE
  5
3DD8
330
18
100
AcDbEntity
  8
1DIM
100
AcDbLine
 10
-650.3431015051067
 20
-82.39279985162756
 30
0.0
 11
-665.18364706802
 21
-82.39279985162756
 31
0.0
1001
ACAD
1000
DSTYLE
1002
{
1070
     3
1000
φ<>
1070
   341
1005
0
1002
}
  0
LINE
  5
3DD9
330
18
100
AcDbEntity
  8
1DIM
100
AcDbLine
 10
-664.18364706802
 20
-76.59579973867602
 30
0.0
 11
-664.18364706802
 21
-74.59579973867602
 31
0.0
1001
ACAD
1000
DSTYLE
1002
{
1070
     3
1000
φ<>
1070
   341
1005
0
1002
}
  0
LINE
  5
3DDA
330
18
100
AcDbEntity
  8
1DIM
100
AcDbLine
 10
-664.18364706802
 20
-84.39279985162756
 30
0.0
 11
-664.18364706802
 21
-99.12613318496089
 31
0.0
1001
ACAD
1000
DSTYLE
1002
{
1070
     3
1000
φ<>
1070
   341
1005
0
1002
}
  0
LINE
  5
3DDB
330
18
100
AcDbEntity
  8
1DIM
100
AcDbLine
 10
-664.18364706802
 20
-78.59579973867602
 30
0.0
 11
-664.18364706802
 21
-82.39279985162756
 31
0.0
1001
ACAD
1000
DSTYLE
1002
{
1070
     3
1000
φ<>
1070
   341
1005
0
1002
}
  0
TEXT
  5
3DDF
330
18
100
AcDbEntity
  8
1TEXT
  6
CONTINUOUS
100
AcDbText
 10
-661.8485916399992
 20
-120.5271966253999
 30
0.0
 40
4.0
  1
φ3.8-25（D=7）
100
AcDbText
  0
TEXT
  5
3DE0
330
18
100
AcDbEntity
  8
1TEXT
  6
CONTINUOUS
100
AcDbText
 10
-660.7819249733325
 20
-127.1938632920665
 30
0.0
 40
4.0
  1
皿タッピンネジ（特）SUSx8
100
AcDbText
  0
TEXT
  5
3DE1
330
18
100
AcDbEntity
  8
1TEXT
  6
CONTINUOUS
100
AcDbText
 10
-738.7863151461779
 20
96.95922530621351
 30
0.0
 40
10.0
  1
AC-731-X
100
AcDbText
  0
LINE
  5
3DE2
330
18
100
AcDbEntity
  8
1DIM
100
AcDbLine
 10
-625.861049997726
 20
22.22203225385657
 30
0.0
 11
-644.8431254878051
 21
22.22203225385657
 31
0.0
1001
ACAD
1000
DSTYLE
1002
{
1070
   341
1005
0
1002
}
  0
LINE
  5
3DE3
330
18
100
AcDbEntity
  8
1DIM
100
AcDbLine
 10
-625.861049997726
 20
25.22203225385657
 30
0.0
 11
-644.8431254878051
 21
25.22203225385657
 31
0.0
1001
ACAD
1000
DSTYLE
1002
{
1070
   341
1005
0
1002
}
  0
LINE
  5
3DE4
330
18
100
AcDbEntity
  8
1DIM
100
AcDbLine
 10
-643.8431254878051
 20
20.22203225385657
 30
0.0
 11
-643.8431254878051
 21
18.22203225385657
 31
0.0
1001
ACAD
1000
DSTYLE
1002
{
1070
   341
1005
0
1002
}
  0
LINE
  5
3DE5
330
18
100
AcDbEntity
  8
1DIM
100
AcDbLine
 10
-643.8431254878051
 20
27.22203225385657
 30
0.0
 11
-643.8431254878051
 21
29.22203225385657
 31
0.0
1001
ACAD
1000
DSTYLE
1002
{
1070
   341
1005
0
1002
}
  0
LINE
  5
3DE6
330
18
100
AcDbEntity
  8
1DIM
100
AcDbLine
 10
-643.8431254878051
 20
22.22203225385657
 30
0.0
 11
-643.8431254878051
 21
25.22203225385657
 31
0.0
1001
ACAD
1000
DSTYLE
1002
{
1070
   341
1005
0
1002
}
  0
LINE
  5
3DEA
330
18
100
AcDbEntity
  8
0
  6
BYBLOCK
100
AcDbLine
 10
-549.5617524018126
 20
27.22203225385656
 30
0.0
 11
-550.0976507818126
 21
25.22203225385656
 31
0.0
  0
LINE
  5
3DEB
330
18
100
AcDbEntity
  8
0
  6
BYBLOCK
100
AcDbLine
 10
-550.0976507818126
 20
25.22203225385656
 30
0.0
 11
-550.6335491618127
 21
27.22203225385656
 31
0.0
  0
LINE
  5
3DEC
330
18
100
AcDbEntity
  8
0
  6
BYBLOCK
100
AcDbLine
 10
-550.0976507818126
 20
25.22203225385656
 30
0.0
 11
-550.0976507818126
 21
27.22203225385656
 31
0.0
  0
LINE
  5
3DED
330
18
100
AcDbEntity
  8
0
  6
BYBLOCK
100
AcDbLine
 10
-550.6335491618127
 20
30.47203225385656
 30
0.0
 11
-550.0976507818126
 21
32.47203225385656
 31
0.0
  0
LINE
  5
3DEE
330
18
100
AcDbEntity
  8
0
  6
BYBLOCK
100
AcDbLine
 10
-550.0976507818126
 20
32.47203225385656
 30
0.0
 11
-549.5617524018126
 21
30.47203225385656
 31
0.0
  0
LINE
  5
3DEF
330
18
100
AcDbEntity
  8
0
  6
BYBLOCK
100
AcDbLine
 10
-550.0976507818126
 20
32.47203225385656
 30
0.0
 11
-550.0976507818126
 21
30.47203225385656
 31
0.0
  0
TEXT
  5
3DF0
330
18
100
AcDbEntity
  8
1DIM
  6
CONTINUOUS
100
AcDbText
 10
-550.7976507818126
 20
35.25536558718977
 30
0.0
 40
3.5
  1
7.25
 50
90.0
100
AcDbText
1001
ACAD
1000
DSTYLE
1002
{
1070
   145
1040
-0.8
1002
}
  0
LINE
  5
3DF1
330
18
100
AcDbEntity
  8
0
  6
BYBLOCK
100
AcDbLine
 10
-539.3506583777261
 20
72.72203025385653
 30
0.0
 11
-538.814759997726
 21
74.72203025385653
 31
0.0
  0
LINE
  5
3DF2
330
18
100
AcDbEntity
  8
0
  6
BYBLOCK
100
AcDbLine
 10
-538.814759997726
 20
74.72203025385653
 30
0.0
 11
-538.278861617726
 21
72.72203025385653
 31
0.0
  0
LINE
  5
3DF3
330
18
100
AcDbEntity
  8
0
  6
BYBLOCK
100
AcDbLine
 10
-538.814759997726
 20
74.72203025385653
 30
0.0
 11
-538.814759997726
 21
72.72203025385653
 31
0.0
  0
LINE
  5
3DF4
330
18
100
AcDbEntity
  8
0
  6
BYBLOCK
100
AcDbLine
 10
-538.278861617726
 20
-25.27796974614345
 30
0.0
 11
-538.814759997726
 21
-27.27796974614345
 31
0.0
  0
LINE
  5
3DF5
330
18
100
AcDbEntity
  8
0
  6
BYBLOCK
100
AcDbLine
 10
-538.814759997726
 20
-27.27796974614345
 30
0.0
 11
-539.3506583777261
 21
-25.27796974614345
 31
0.0
  0
LINE
  5
3DF6
330
18
100
AcDbEntity
  8
0
  6
BYBLOCK
100
AcDbLine
 10
-538.814759997726
 20
-27.27796974614345
 30
0.0
 11
-538.814759997726
 21
-25.27796974614345
 31
0.0
  0
TEXT
  5
3DF7
330
18
100
AcDbEntity
  8
1DIM
  6
CONTINUOUS
100
AcDbText
 10
-539.5147599977261
 20
19.93036358718985
 30
0.0
 40
3.5
  1
102
 50
90.0
100
AcDbText
  0
LINE
  5
3DF8
330
18
100
AcDbEntity
  8
0
  6
BYBLOCK
100
AcDbLine
 10
-662.861049997726
 20
-45.77946947411994
 30
0.0
 11
-664.861049997726
 21
-45.24357109411994
 31
0.0
  0
LINE
  5
3DF9
330
18
100
AcDbEntity
  8
0
  6
BYBLOCK
100
AcDbLine
 10
-664.861049997726
 20
-45.24357109411994
 30
0.0
 11
-662.861049997726
 21
-44.70767271411994
 31
0.0
  0
LINE
  5
3DFA
330
18
100
AcDbEntity
  8
0
  6
BYBLOCK
100
AcDbLine
 10
-664.861049997726
 20
-45.24357109411994
 30
0.0
 11
-662.861049997726
 21
-45.24357109411994
 31
0.0
  0
LINE
  5
3DFB
330
18
100
AcDbEntity
  8
0
  6
BYBLOCK
100
AcDbLine
 10
-577.861049997726
 20
-44.70767271411994
 30
0.0
 11
-575.861049997726
 21
-45.24357109411994
 31
0.0
  0
LINE
  5
3DFC
330
18
100
AcDbEntity
  8
0
  6
BYBLOCK
100
AcDbLine
 10
-575.861049997726
 20
-45.24357109411994
 30
0.0
 11
-577.861049997726
 21
-45.77946947411994
 31
0.0
  0
LINE
  5
3DFD
330
18
100
AcDbEntity
  8
0
  6
BYBLOCK
100
AcDbLine
 10
-575.861049997726
 20
-45.24357109411994
 30
0.0
 11
-577.861049997726
 21
-45.24357109411994
 31
0.0
  0
TEXT
  5
3DFE
330
18
100
AcDbEntity
  8
1DIM
  6
CONTINUOUS
100
AcDbText
 10
-623.2785268495778
 20
-44.54357109411994
 30
0.0
 40
3.5
  1
89
100
AcDbText
1001
ACAD
1000
DSTYLE
1002
{
1070
    47
1040
0.5
1070
    48
1040
0.5
1070
    71
1070
     0
1070
    72
1070
     0
1002
}
  0
LINE
  5
3DFF
330
18
100
AcDbEntity
  8
0
  6
BYBLOCK
100
AcDbLine
 10
-630.7454771074496
 20
-25.27796974614346
 30
0.0
 11
-631.2813754874496
 21
-27.27796974614346
 31
0.0
  0
LINE
  5
3E00
330
18
100
AcDbEntity
  8
0
  6
BYBLOCK
100
AcDbLine
 10
-631.2813754874496
 20
-27.27796974614346
 30
0.0
 11
-631.8172738674497
 21
-25.27796974614346
 31
0.0
  0
LINE
  5
3E01
330
18
100
AcDbEntity
  8
0
  6
BYBLOCK
100
AcDbLine
 10
-631.2813754874496
 20
-27.27796974614346
 30
0.0
 11
-631.2813754874496
 21
-25.27796974614346
 31
0.0
  0
LINE
  5
3E02
330
18
100
AcDbEntity
  8
0
  6
BYBLOCK
100
AcDbLine
 10
-631.8172738674497
 20
-31.27796974614344
 30
0.0
 11
-631.2813754874496
 21
-29.27796974614344
 31
0.0
  0
LINE
  5
3E03
330
18
100
AcDbEntity
  8
0
  6
BYBLOCK
100
AcDbLine
 10
-631.2813754874496
 20
-29.27796974614344
 30
0.0
 11
-630.7454771074496
 21
-31.27796974614344
 31
0.0
  0
LINE
  5
3E04
330
18
100
AcDbEntity
  8
0
  6
BYBLOCK
100
AcDbLine
 10
-631.2813754874496
 20
-29.27796974614344
 30
0.0
 11
-631.2813754874496
 21
-31.27796974614344
 31
0.0
  0
TEXT
  5
3E05
330
18
100
AcDbEntity
  8
1DIM
  6
CONTINUOUS
100
AcDbText
 10
-631.9813754874497
 20
-37.85006323379298
 30
0.0
 40
3.5
  1
2
 50
90.0
100
AcDbText
1001
ACAD
1000
DSTYLE
1002
{
1070
    76
1070
     1
1002
}
  0
LINE
  5
3E06
330
18
100
AcDbEntity
  8
0
  6
BYBLOCK
100
AcDbLine
 10
-560.3779683777261
 20
-22.02796774614344
 30
0.0
 11
-559.8420699977261
 21
-20.02796774614344
 31
0.0
  0
LINE
  5
3E07
330
18
100
AcDbEntity
  8
0
  6
BYBLOCK
100
AcDbLine
 10
-559.8420699977261
 20
-20.02796774614344
 30
0.0
 11
-559.306171617726
 21
-22.02796774614344
 31
0.0
  0
LINE
  5
3E08
330
18
100
AcDbEntity
  8
0
  6
BYBLOCK
100
AcDbLine
 10
-559.8420699977261
 20
-20.02796774614344
 30
0.0
 11
-559.8420699977261
 21
-22.02796774614344
 31
0.0
  0
LINE
  5
3E09
330
18
100
AcDbEntity
  8
0
  6
BYBLOCK
100
AcDbLine
 10
-559.306171617726
 20
-25.27796974614344
 30
0.0
 11
-559.8420699977261
 21
-27.27796974614344
 31
0.0
  0
LINE
  5
3E0A
330
18
100
AcDbEntity
  8
0
  6
BYBLOCK
100
AcDbLine
 10
-559.8420699977261
 20
-27.27796974614344
 30
0.0
 11
-560.3779683777261
 21
-25.27796974614344
 31
0.0
  0
LINE
  5
3E0B
330
18
100
AcDbEntity
  8
0
  6
BYBLOCK
100
AcDbLine
 10
-559.8420699977261
 20
-27.27796974614344
 30
0.0
 11
-559.8420699977261
 21
-25.27796974614344
 31
0.0
  0
TEXT
  5
3E0C
330
18
100
AcDbEntity
  8
1DIM
  6
CONTINUOUS
100
AcDbText
 10
-560.5420699977261
 20
-40.56130307947683
 30
0.0
 40
3.5
  1
7.25
 50
90.0
100
AcDbText
  0
LINE
  5
3E0D
330
18
100
AcDbEntity
  8
0
  6
BYBLOCK
100
AcDbLine
 10
-572.0309883777261
 20
-60.77796974614344
 30
0.0
 11
-571.495089997726
 21
-58.77796974614344
 31
0.0
  0
LINE
  5
3E0E
330
18
100
AcDbEntity
  8
0
  6
BYBLOCK
100
AcDbLine
 10
-571.495089997726
 20
-58.77796974614344
 30
0.0
 11
-570.959191617726
 21
-60.77796974614344
 31
0.0
  0
LINE
  5
3E0F
330
18
100
AcDbEntity
  8
0
  6
BYBLOCK
100
AcDbLine
 10
-571.495089997726
 20
-58.77796974614344
 30
0.0
 11
-571.495089997726
 21
-60.77796974614344
 31
0.0
  0
LINE
  5
3E10
330
18
100
AcDbEntity
  8
0
  6
BYBLOCK
100
AcDbLine
 10
-570.959191617726
 20
-54.77796974614344
 30
0.0
 11
-571.495089997726
 21
-56.77796974614344
 31
0.0
  0
LINE
  5
3E11
330
18
100
AcDbEntity
  8
0
  6
BYBLOCK
100
AcDbLine
 10
-571.495089997726
 20
-56.77796974614344
 30
0.0
 11
-572.0309883777261
 21
-54.77796974614344
 31
0.0
  0
LINE
  5
3E12
330
18
100
AcDbEntity
  8
0
  6
BYBLOCK
100
AcDbLine
 10
-571.495089997726
 20
-56.77796974614344
 30
0.0
 11
-571.495089997726
 21
-54.77796974614344
 31
0.0
  0
TEXT
  5
3E13
330
18
100
AcDbEntity
  8
1DIM
  6
CONTINUOUS
100
AcDbText
 10
-572.1950899977261
 20
-52.07796974614348
 30
0.0
 40
3.5
  1
2
 50
90.0
100
AcDbText
  0
LINE
  5
3E14
330
18
100
AcDbEntity
  8
0
  6
BYBLOCK
100
AcDbLine
 10
-559.306171617726
 20
-18.02796774614344
 30
0.0
 11
-559.8420699977261
 21
-20.02796774614344
 31
0.0
  0
LINE
  5
3E15
330
18
100
AcDbEntity
  8
0
  6
BYBLOCK
100
AcDbLine
 10
-559.8420699977261
 20
-20.02796774614344
 30
0.0
 11
-560.3779683777261
 21
-18.02796774614344
 31
0.0
  0
LINE
  5
3E16
330
18
100
AcDbEntity
  8
0
  6
BYBLOCK
100
AcDbLine
 10
-559.8420699977261
 20
-20.02796774614344
 30
0.0
 11
-559.8420699977261
 21
-18.02796774614344
 31
0.0
  0
LINE
  5
3E17
330
18
100
AcDbEntity
  8
0
  6
BYBLOCK
100
AcDbLine
 10
-560.3779683777261
 20
12.97202925385656
 30
0.0
 11
-559.8420699977261
 21
14.97202925385656
 31
0.0
  0
LINE
  5
3E18
330
18
100
AcDbEntity
  8
0
  6
BYBLOCK
100
AcDbLine
 10
-559.8420699977261
 20
14.97202925385656
 30
0.0
 11
-559.306171617726
 21
12.97202925385656
 31
0.0
  0
LINE
  5
3E19
330
18
100
AcDbEntity
  8
0
  6
BYBLOCK
100
AcDbLine
 10
-559.8420699977261
 20
14.97202925385656
 30
0.0
 11
-559.8420699977261
 21
12.97202925385656
 31
0.0
  0
TEXT
  5
3E1A
330
18
100
AcDbEntity
  8
1DIM
  6
CONTINUOUS
100
AcDbText
 10
-560.5420699977261
 20
-5.444635912810213
 30
0.0
 40
3.5
  1
35
 50
90.0
100
AcDbText
  0
LINE
  5
3E1B
330
18
100
AcDbEntity
  8
0
  6
BYBLOCK
100
AcDbLine
 10
-550.7956691062315
 20
20.22203225385656
 30
0.0
 11
-550.2597707262314
 21
22.22203225385656
 31
0.0
  0
LINE
  5
3E1C
330
18
100
AcDbEntity
  8
0
  6
BYBLOCK
100
AcDbLine
 10
-550.2597707262314
 20
22.22203225385656
 30
0.0
 11
-549.7238723462314
 21
20.22203225385656
 31
0.0
  0
LINE
  5
3E1D
330
18
100
AcDbEntity
  8
0
  6
BYBLOCK
100
AcDbLine
 10
-550.2597707262314
 20
22.22203225385656
 30
0.0
 11
-550.2597707262314
 21
20.22203225385656
 31
0.0
  0
LINE
  5
3E1E
330
18
100
AcDbEntity
  8
0
  6
BYBLOCK
100
AcDbLine
 10
-549.7238723462314
 20
16.97202925385655
 30
0.0
 11
-550.2597707262314
 21
14.97202925385655
 31
0.0
  0
LINE
  5
3E1F
330
18
100
AcDbEntity
  8
0
  6
BYBLOCK
100
AcDbLine
 10
-550.2597707262314
 20
14.97202925385655
 30
0.0
 11
-550.7956691062315
 21
16.97202925385655
 31
0.0
  0
LINE
  5
3E20
330
18
100
AcDbEntity
  8
0
  6
BYBLOCK
100
AcDbLine
 10
-550.2597707262314
 20
14.97202925385655
 30
0.0
 11
-550.2597707262314
 21
16.97202925385655
 31
0.0
  0
TEXT
  5
3E21
330
18
100
AcDbEntity
  8
1DIM
  6
CONTINUOUS
100
AcDbText
 10
-550.9597707262315
 20
1.688695920523173
 30
0.0
 40
3.5
  1
7.25
 50
90.0
100
AcDbText
1001
ACAD
1000
DSTYLE
1002
{
1070
    77
1070
     3
1070
   145
1040
-0.8
1002
}
  0
LINE
  5
3E22
330
18
100
AcDbEntity
  8
0
  6
BYBLOCK
100
AcDbLine
 10
-589.861049997726
 20
86.56662487385654
 30
0.0
 11
-591.861049997726
 21
87.10252325385655
 31
0.0
  0
LINE
  5
3E23
330
18
100
AcDbEntity
  8
0
  6
BYBLOCK
100
AcDbLine
 10
-591.861049997726
 20
87.10252325385655
 30
0.0
 11
-589.861049997726
 21
87.63842163385655
 31
0.0
  0
LINE
  5
3E24
330
18
100
AcDbEntity
  8
0
  6
BYBLOCK
100
AcDbLine
 10
-591.861049997726
 20
87.10252325385655
 30
0.0
 11
-589.861049997726
 21
87.10252325385655
 31
0.0
  0
LINE
  5
3E25
330
18
100
AcDbEntity
  8
0
  6
BYBLOCK
100
AcDbLine
 10
-577.861049997726
 20
87.63842163385655
 30
0.0
 11
-575.861049997726
 21
87.10252325385655
 31
0.0
  0
LINE
  5
3E26
330
18
100
AcDbEntity
  8
0
  6
BYBLOCK
100
AcDbLine
 10
-575.861049997726
 20
87.10252325385655
 30
0.0
 11
-577.861049997726
 21
86.56662487385654
 31
0.0
  0
LINE
  5
3E27
330
18
100
AcDbEntity
  8
0
  6
BYBLOCK
100
AcDbLine
 10
-575.861049997726
 20
87.10252325385655
 30
0.0
 11
-577.861049997726
 21
87.10252325385655
 31
0.0
  0
TEXT
  5
3E28
330
18
100
AcDbEntity
  8
1DIM
  6
CONTINUOUS
100
AcDbText
 10
-586.1943833310594
 20
87.80252325385655
 30
0.0
 40
3.5
  1
16
100
AcDbText
  0
LINE
  5
3E29
330
18
100
AcDbEntity
  8
0
  6
BYBLOCK
100
AcDbLine
 10
-559.306171617726
 20
69.47203025385654
 30
0.0
 11
-559.8420699977261
 21
67.47203025385654
 31
0.0
  0
LINE
  5
3E2A
330
18
100
AcDbEntity
  8
0
  6
BYBLOCK
100
AcDbLine
 10
-559.8420699977261
 20
67.47203025385654
 30
0.0
 11
-560.3779683777261
 21
69.47203025385654
 31
0.0
  0
LINE
  5
3E2B
330
18
100
AcDbEntity
  8
0
  6
BYBLOCK
100
AcDbLine
 10
-559.8420699977261
 20
67.47203025385654
 30
0.0
 11
-559.8420699977261
 21
69.47203025385654
 31
0.0
  0
LINE
  5
3E2C
330
18
100
AcDbEntity
  8
0
  6
BYBLOCK
100
AcDbLine
 10
-560.3779683777261
 20
72.72203025385654
 30
0.0
 11
-559.8420699977261
 21
74.72203025385654
 31
0.0
  0
LINE
  5
3E2D
330
18
100
AcDbEntity
  8
0
  6
BYBLOCK
100
AcDbLine
 10
-559.8420699977261
 20
74.72203025385654
 30
0.0
 11
-559.306171617726
 21
72.72203025385654
 31
0.0
  0
LINE
  5
3E2E
330
18
100
AcDbEntity
  8
0
  6
BYBLOCK
100
AcDbLine
 10
-559.8420699977261
 20
74.72203025385654
 30
0.0
 11
-559.8420699977261
 21
72.72203025385654
 31
0.0
  0
TEXT
  5
3E2F
330
18
100
AcDbEntity
  8
1DIM
  6
CONTINUOUS
100
AcDbText
 10
-560.5420699977261
 20
77.50536358718978
 30
0.0
 40
3.5
  1
7.25
 50
90.0
100
AcDbText
  0
LINE
  5
3E30
330
18
100
AcDbEntity
  8
0
  6
BYBLOCK
100
AcDbLine
 10
-577.861049997726
 20
95.41350234848444
 30
0.0
 11
-575.861049997726
 21
94.87760396848444
 31
0.0
  0
LINE
  5
3E31
330
18
100
AcDbEntity
  8
0
  6
BYBLOCK
100
AcDbLine
 10
-575.861049997726
 20
94.87760396848444
 30
0.0
 11
-577.861049997726
 21
94.34170558848443
 31
0.0
  0
LINE
  5
3E32
330
18
100
AcDbEntity
  8
0
  6
BYBLOCK
100
AcDbLine
 10
-575.861049997726
 20
94.87760396848444
 30
0.0
 11
-577.861049997726
 21
94.87760396848444
 31
0.0
  0
LINE
  5
3E33
330
18
100
AcDbEntity
  8
0
  6
BYBLOCK
100
AcDbLine
 10
-581.861049997726
 20
94.34170558848443
 30
0.0
 11
-583.861049997726
 21
94.87760396848444
 31
0.0
  0
LINE
  5
3E34
330
18
100
AcDbEntity
  8
0
  6
BYBLOCK
100
AcDbLine
 10
-583.861049997726
 20
94.87760396848444
 30
0.0
 11
-581.861049997726
 21
95.41350234848444
 31
0.0
  0
LINE
  5
3E35
330
18
100
AcDbEntity
  8
0
  6
BYBLOCK
100
AcDbLine
 10
-583.861049997726
 20
94.87760396848444
 30
0.0
 11
-581.861049997726
 21
94.87760396848444
 31
0.0
  0
TEXT
  5
3E36
330
18
100
AcDbEntity
  8
1DIM
  6
CONTINUOUS
100
AcDbText
 10
-581.0277166643926
 20
95.57760396848444
 30
0.0
 40
3.5
  1
8
100
AcDbText
  0
LINE
  5
3E37
330
18
100
AcDbEntity
  8
0
  6
BYBLOCK
100
AcDbLine
 10
-585.861049997726
 20
95.41350234848444
 30
0.0
 11
-583.861049997726
 21
94.87760396848444
 31
0.0
  0
LINE
  5
3E38
330
18
100
AcDbEntity
  8
0
  6
BYBLOCK
100
AcDbLine
 10
-583.861049997726
 20
94.87760396848444
 30
0.0
 11
-585.861049997726
 21
94.34170558848443
 31
0.0
  0
LINE
  5
3E39
330
18
100
AcDbEntity
  8
0
  6
BYBLOCK
100
AcDbLine
 10
-583.861049997726
 20
94.87760396848444
 30
0.0
 11
-585.861049997726
 21
94.87760396848444
 31
0.0
  0
LINE
  5
3E3A
330
18
100
AcDbEntity
  8
0
  6
BYBLOCK
100
AcDbLine
 10
-597.861049997726
 20
94.34170558848443
 30
0.0
 11
-599.861049997726
 21
94.87760396848444
 31
0.0
  0
LINE
  5
3E3B
330
18
100
AcDbEntity
  8
0
  6
BYBLOCK
100
AcDbLine
 10
-599.861049997726
 20
94.87760396848444
 30
0.0
 11
-597.861049997726
 21
95.41350234848444
 31
0.0
  0
LINE
  5
3E3C
330
18
100
AcDbEntity
  8
0
  6
BYBLOCK
100
AcDbLine
 10
-599.861049997726
 20
94.87760396848444
 30
0.0
 11
-597.861049997726
 21
94.87760396848444
 31
0.0
  0
TEXT
  5
3E3D
330
18
100
AcDbEntity
  8
1DIM
  6
CONTINUOUS
100
AcDbText
 10
-594.1943833310594
 20
95.57760396848444
 30
0.0
 40
3.5
  1
16
100
AcDbText
  0
LINE
  5
3E3E
330
18
100
AcDbEntity
  8
0
  6
BYBLOCK
100
AcDbLine
 10
-618.861049997726
 20
39.40761357215553
 30
0.0
 11
-616.861049997726
 21
38.87171519215553
 31
0.0
  0
LINE
  5
3E3F
330
18
100
AcDbEntity
  8
0
  6
BYBLOCK
100
AcDbLine
 10
-616.861049997726
 20
38.87171519215553
 30
0.0
 11
-618.861049997726
 21
38.33581681215553
 31
0.0
  0
LINE
  5
3E40
330
18
100
AcDbEntity
  8
0
  6
BYBLOCK
100
AcDbLine
 10
-616.861049997726
 20
38.87171519215553
 30
0.0
 11
-618.861049997726
 21
38.87171519215553
 31
0.0
  0
LINE
  5
3E41
330
18
100
AcDbEntity
  8
0
  6
BYBLOCK
100
AcDbLine
 10
-621.861049997726
 20
38.33581681215553
 30
0.0
 11
-623.861049997726
 21
38.87171519215553
 31
0.0
  0
LINE
  5
3E42
330
18
100
AcDbEntity
  8
0
  6
BYBLOCK
100
AcDbLine
 10
-623.861049997726
 20
38.87171519215553
 30
0.0
 11
-621.861049997726
 21
39.40761357215553
 31
0.0
  0
LINE
  5
3E43
330
18
100
AcDbEntity
  8
0
  6
BYBLOCK
100
AcDbLine
 10
-623.861049997726
 20
38.87171519215553
 30
0.0
 11
-621.861049997726
 21
38.87171519215553
 31
0.0
  0
TEXT
  5
3E44
330
18
100
AcDbEntity
  8
1DIM
  6
CONTINUOUS
100
AcDbText
 10
-636.4459150925837
 20
39.57171519215553
 30
0.0
 40
3.5
  1
φ7
100
AcDbText
1001
ACAD
1000
DSTYLE
1002
{
1070
    76
1070
     1
1070
    75
1070
     1
1070
     3
1000
φ<>
1002
}
  0
LINE
  5
3E45
330
18
100
AcDbEntity
  8
0
  6
BYBLOCK
100
AcDbLine
 10
-559.306171617726
 20
34.47203225385656
 30
0.0
 11
-559.8420699977261
 21
32.47203225385656
 31
0.0
  0
LINE
  5
3E46
330
18
100
AcDbEntity
  8
0
  6
BYBLOCK
100
AcDbLine
 10
-559.8420699977261
 20
32.47203225385656
 30
0.0
 11
-560.3779683777261
 21
34.47203225385656
 31
0.0
  0
LINE
  5
3E47
330
18
100
AcDbEntity
  8
0
  6
BYBLOCK
100
AcDbLine
 10
-559.8420699977261
 20
32.47203225385656
 30
0.0
 11
-559.8420699977261
 21
34.47203225385656
 31
0.0
  0
LINE
  5
3E48
330
18
100
AcDbEntity
  8
0
  6
BYBLOCK
100
AcDbLine
 10
-560.3779683777261
 20
65.47203025385654
 30
0.0
 11
-559.8420699977261
 21
67.47203025385654
 31
0.0
  0
LINE
  5
3E49
330
18
100
AcDbEntity
  8
0
  6
BYBLOCK
100
AcDbLine
 10
-559.8420699977261
 20
67.47203025385654
 30
0.0
 11
-559.306171617726
 21
65.47203025385654
 31
0.0
  0
LINE
  5
3E4A
330
18
100
AcDbEntity
  8
0
  6
BYBLOCK
100
AcDbLine
 10
-559.8420699977261
 20
67.47203025385654
 30
0.0
 11
-559.8420699977261
 21
65.47203025385654
 31
0.0
  0
TEXT
  5
3E4B
330
18
100
AcDbEntity
  8
1DIM
  6
CONTINUOUS
100
AcDbText
 10
-560.5420699977261
 20
47.05536458718984
 30
0.0
 40
3.5
  1
35
 50
90.0
100
AcDbText
  0
LINE
  5
3E4C
330
18
100
AcDbEntity
  8
0
  6
BYBLOCK
100
AcDbLine
 10
-578.9343706786426
 20
70.46236477474571
 30
0.0
 11
-580.9148842170621
 21
69.85841676553991
 31
0.0
  0
LINE
  5
3E4D
330
18
100
AcDbEntity
  8
0
  6
BYBLOCK
100
AcDbLine
 10
-580.9148842170621
 20
69.85841676553991
 30
0.0
 11
-579.5016831779895
 21
71.37170784687589
 31
0.0
  0
LINE
  5
3E4E
330
18
100
AcDbEntity
  8
0
  6
BYBLOCK
100
AcDbLine
 10
-580.9148842170621
 20
69.85841676553991
 30
0.0
 11
-579.218026928316
 21
70.9170363108108
 31
0.0
  0
LINE
  5
3E4F
330
18
100
AcDbEntity
  8
0
  6
BYBLOCK
100
AcDbLine
 10
-643.307227107805
 20
27.22203225385657
 30
0.0
 11
-643.8431254878051
 21
25.22203225385657
 31
0.0
  0
LINE
  5
3E50
330
18
100
AcDbEntity
  8
0
  6
BYBLOCK
100
AcDbLine
 10
-643.8431254878051
 20
25.22203225385657
 30
0.0
 11
-644.3790238678051
 21
27.22203225385657
 31
0.0
  0
LINE
  5
3E51
330
18
100
AcDbEntity
  8
0
  6
BYBLOCK
100
AcDbLine
 10
-643.8431254878051
 20
25.22203225385657
 30
0.0
 11
-643.8431254878051
 21
27.22203225385657
 31
0.0
  0
LINE
  5
3E52
330
18
100
AcDbEntity
  8
0
  6
BYBLOCK
100
AcDbLine
 10
-644.3790238678051
 20
45.22203225385657
 30
0.0
 11
-643.8431254878051
 21
47.22203225385657
 31
0.0
  0
LINE
  5
3E53
330
18
100
AcDbEntity
  8
0
  6
BYBLOCK
100
AcDbLine
 10
-643.8431254878051
 20
47.22203225385657
 30
0.0
 11
-643.307227107805
 21
45.22203225385657
 31
0.0
  0
LINE
  5
3E54
330
18
100
AcDbEntity
  8
0
  6
BYBLOCK
100
AcDbLine
 10
-643.8431254878051
 20
47.22203225385657
 30
0.0
 11
-643.8431254878051
 21
45.22203225385657
 31
0.0
  0
TEXT
  5
3E55
330
18
100
AcDbEntity
  8
1DIM
  6
CONTINUOUS
100
AcDbText
 10
-644.5431254878051
 20
33.30536558718984
 30
0.0
 40
3.5
  1
22
 50
90.0
100
AcDbText
  0
LINE
  5
3E56
330
18
100
AcDbEntity
  8
0
  6
BYBLOCK
100
AcDbLine
 10
-623.8910477411999
 20
-81.99582591511864
 30
0.0
 11
-624.4269461212
 21
-83.99582591511864
 31
0.0
  0
LINE
  5
3E57
330
18
100
AcDbEntity
  8
0
  6
BYBLOCK
100
AcDbLine
 10
-624.4269461212
 20
-83.99582591511864
 30
0.0
 11
-624.9628445012
 21
-81.99582591511864
 31
0.0
  0
LINE
  5
3E58
330
18
100
AcDbEntity
  8
0
  6
BYBLOCK
100
AcDbLine
 10
-624.4269461212
 20
-83.99582591511864
 30
0.0
 11
-624.4269461212
 21
-81.99582591511864
 31
0.0
  0
LINE
  5
3E59
330
18
100
AcDbEntity
  8
0
  6
BYBLOCK
100
AcDbLine
 10
-624.9628445012
 20
-78.99582591511887
 30
0.0
 11
-624.4269461212
 21
-76.99582591511887
 31
0.0
  0
LINE
  5
3E5A
330
18
100
AcDbEntity
  8
0
  6
BYBLOCK
100
AcDbLine
 10
-624.4269461212
 20
-76.99582591511887
 30
0.0
 11
-623.8910477411999
 21
-78.99582591511887
 31
0.0
  0
LINE
  5
3E5B
330
18
100
AcDbEntity
  8
0
  6
BYBLOCK
100
AcDbLine
 10
-624.4269461212
 20
-76.99582591511887
 30
0.0
 11
-624.4269461212
 21
-78.99582591511887
 31
0.0
  0
TEXT
  5
3E5C
330
18
100
AcDbEntity
  8
1DIM
  6
CONTINUOUS
100
AcDbText
 10
-625.1269461212
 20
-74.86249258178555
 30
0.0
 40
3.5
  1
φ7
 50
90.0
100
AcDbText
1001
ACAD
1000
DSTYLE
1002
{
1070
     3
1000
φ<>
1070
   341
1005
0
1002
}
  0
LINE
  5
3E5D
330
18
100
AcDbEntity
  8
0
  6
BYBLOCK
100
AcDbLine
 10
-634.3849889699911
 20
-70.12918203841336
 30
0.0
 11
-632.3849889699911
 21
-70.66508041841337
 31
0.0
  0
LINE
  5
3E5E
330
18
100
AcDbEntity
  8
0
  6
BYBLOCK
100
AcDbLine
 10
-632.3849889699911
 20
-70.66508041841337
 30
0.0
 11
-634.3849889699911
 21
-71.20097879841337
 31
0.0
  0
LINE
  5
3E5F
330
18
100
AcDbEntity
  8
0
  6
BYBLOCK
100
AcDbLine
 10
-632.3849889699911
 20
-70.66508041841337
 30
0.0
 11
-634.3849889699911
 21
-70.66508041841337
 31
0.0
  0
LINE
  5
3E60
330
18
100
AcDbEntity
  8
0
  6
BYBLOCK
100
AcDbLine
 10
-655.3849971138882
 20
-71.20097879841337
 30
0.0
 11
-657.3849971138882
 21
-70.66508041841337
 31
0.0
  0
LINE
  5
3E61
330
18
100
AcDbEntity
  8
0
  6
BYBLOCK
100
AcDbLine
 10
-657.3849971138882
 20
-70.66508041841337
 30
0.0
 11
-655.3849971138882
 21
-70.12918203841336
 31
0.0
  0
LINE
  5
3E62
330
18
100
AcDbEntity
  8
0
  6
BYBLOCK
100
AcDbLine
 10
-657.3849971138882
 20
-70.66508041841337
 30
0.0
 11
-655.3849971138882
 21
-70.66508041841337
 31
0.0
  0
TEXT
  5
3E63
330
18
100
AcDbEntity
  8
1DIM
  6
CONTINUOUS
100
AcDbText
 10
-647.8016597086063
 20
-69.96508041841338
 30
0.0
 40
3.5
  1
25
100
AcDbText
1001
ACAD
1000
DSTYLE
1002
{
1070
   341
1005
0
1002
}
  0
LINE
  5
3E64
330
18
100
AcDbEntity
  8
0
  6
BYBLOCK
100
AcDbLine
 10
-663.64774868802
 20
-76.59579973867602
 30
0.0
 11
-664.18364706802
 21
-78.59579973867602
 31
0.0
  0
LINE
  5
3E65
330
18
100
AcDbEntity
  8
0
  6
BYBLOCK
100
AcDbLine
 10
-664.18364706802
 20
-78.59579973867602
 30
0.0
 11
-664.7195454480201
 21
-76.59579973867602
 31
0.0
  0
LINE
  5
3E66
330
18
100
AcDbEntity
  8
0
  6
BYBLOCK
100
AcDbLine
 10
-664.18364706802
 20
-78.59579973867602
 30
0.0
 11
-664.18364706802
 21
-76.59579973867602
 31
0.0
  0
LINE
  5
3E67
330
18
100
AcDbEntity
  8
0
  6
BYBLOCK
100
AcDbLine
 10
-664.7195454480201
 20
-84.39279985162756
 30
0.0
 11
-664.18364706802
 21
-82.39279985162756
 31
0.0
  0
LINE
  5
3E68
330
18
100
AcDbEntity
  8
0
  6
BYBLOCK
100
AcDbLine
 10
-664.18364706802
 20
-82.39279985162756
 30
0.0
 11
-663.64774868802
 21
-84.39279985162756
 31
0.0
  0
LINE
  5
3E69
330
18
100
AcDbEntity
  8
0
  6
BYBLOCK
100
AcDbLine
 10
-664.18364706802
 20
-82.39279985162756
 30
0.0
 11
-664.18364706802
 21
-84.39279985162756
 31
0.0
  0
TEXT
  5
3E6A
330
18
100
AcDbEntity
  8
1DIM
  6
CONTINUOUS
100
AcDbText
 10
-664.8836470680201
 20
-98.8261331849609
 30
0.0
 40
3.5
  1
φ3.8
 50
90.0
100
AcDbText
1001
ACAD
1000
DSTYLE
1002
{
1070
     3
1000
φ<>
1070
   341
1005
0
1002
}
  0
LINE
  5
3E6B
330
18
100
AcDbEntity
  8
0
  6
BYBLOCK
100
AcDbLine
 10
-644.3790238678051
 20
20.22203225385657
 30
0.0
 11
-643.8431254878051
 21
22.22203225385657
 31
0.0
  0
LINE
  5
3E6C
330
18
100
AcDbEntity
  8
0
  6
BYBLOCK
100
AcDbLine
 10
-643.8431254878051
 20
22.22203225385657
 30
0.0
 11
-643.307227107805
 21
20.22203225385657
 31
0.0
  0
LINE
  5
3E6D
330
18
100
AcDbEntity
  8
0
  6
BYBLOCK
100
AcDbLine
 10
-643.8431254878051
 20
22.22203225385657
 30
0.0
 11
-643.8431254878051
 21
20.22203225385657
 31
0.0
  0
LINE
  5
3E6E
330
18
100
AcDbEntity
  8
0
  6
BYBLOCK
100
AcDbLine
 10
-643.307227107805
 20
27.22203225385657
 30
0.0
 11
-643.8431254878051
 21
25.22203225385657
 31
0.0
  0
LINE
  5
3E6F
330
18
100
AcDbEntity
  8
0
  6
BYBLOCK
100
AcDbLine
 10
-643.8431254878051
 20
25.22203225385657
 30
0.0
 11
-644.3790238678051
 21
27.22203225385657
 31
0.0
  0
LINE
  5
3E70
330
18
100
AcDbEntity
  8
0
  6
BYBLOCK
100
AcDbLine
 10
-643.8431254878051
 20
25.22203225385657
 30
0.0
 11
-643.8431254878051
 21
27.22203225385657
 31
0.0
  0
TEXT
  5
3E71
330
18
100
AcDbEntity
  8
1DIM
  6
CONTINUOUS
100
AcDbText
 10
-644.5431254878051
 20
22.55536558718984
 30
0.0
 40
3.5
  1
3
 50
90.0
100
AcDbText
1001
ACAD
1000
DSTYLE
1002
{
1070
   341
1005
0
1002
}
  0
VIEWPORT
  5
E6B
330
15
100
AcDbEntity
 67
     1
  8
0
100
AcDbViewport
 68
     1
 10
0.0
 20
0.0
 30
0.0
 40
639.180424528302
 41
297.0000000000001
 68
     1
 69
     1
1001
ACAD
1000
MVIEW
1002
{
1070
    16
1010
0.0
1020
0.0
1030
0.0
1010
0.0
1020
0.0
1030
1.0
1040
0.0
1040
297.0000000000001
1040
-4.171999999999912
1040
12.839
1040
50.0
1040
0.0
1040
0.0
1070
    16
1070
   100
1070
     0
1070
     1
1070
     0
1070
     0
1070
     0
1070
     0
1040
0.0
1040
0.0
1040
0.0
1040
1.0
1040
1.0
1040
0.0
1040
0.0
1070
     0
1002
{
1002
}
1002
}
  0
ENDSEC
  0
SECTION
  2
OBJECTS
  0
DICTIONARY
  5
C
330
0
100
AcDbDictionary
  3
ACAD_CIP_PREVIOUS_PRODUCT_INFO
350
2BF8
  3
ACAD_COLOR
350
19B4
  3
ACAD_GROUP
350
D
  3
ACAD_LAYOUT
350
19B7
  3
ACAD_MATERIAL
350
19B3
  3
ACAD_MLEADERSTYLE
350
1CA2
  3
ACAD_MLINESTYLE
350
1B
  3
ACAD_PLOTSETTINGS
350
19B8
  3
ACAD_SCALELIST
350
1C80
  3
ACAD_VISUALSTYLE
350
1C6F
  3
ACDBHEADERROUNDTRIPXREC
350
3E73
  3
ACDBVARIABLEDICTIONARY
350
C90
  3
AEC_PROPERTY_SET_DEFS
350
3A6B
  3
CONTENTDICTIONARY
350
C6C
  3
DRAWINGVARIABLESDICT
350
C7F
  3
DWGPROPS
350
3E76
1001
ACAD
1000
TREAT_AS_HARD
1070
     0
  0
DICTIONARY
  5
2386
330
2
100
AcDbDictionary
  3
ACAD_LAYERSTATES
360
2387
1001
ACAD
1000
TREAT_AS_HARD
1070
     1
  0
DICTIONARY
  5
222F
330
E
100
AcDbDictionary
  3
ADSK_XREC_LAYER_RECONCILED
360
2230
1001
ACAD
1000
TREAT_AS_HARD
1070
     1
  0
DICTIONARY
  5
2231
330
C88
100
AcDbDictionary
  3
ADSK_XREC_LAYER_RECONCILED
360
2232
1001
ACAD
1000
TREAT_AS_HARD
1070
     1
  0
DICTIONARY
  5
2233
330
C89
100
AcDbDictionary
  3
ADSK_XREC_LAYER_RECONCILED
360
2234
1001
ACAD
1000
TREAT_AS_HARD
1070
     1
  0
DICTIONARY
  5
2235
330
C8A
100
AcDbDictionary
  3
ADSK_XREC_LAYER_RECONCILED
360
2236
1001
ACAD
1000
TREAT_AS_HARD
1070
     1
  0
DICTIONARY
  5
2237
330
C8B
100
AcDbDictionary
  3
ADSK_XREC_LAYER_RECONCILED
360
2238
1001
ACAD
1000
TREAT_AS_HARD
1070
     1
  0
DICTIONARY
  5
2239
330
C8C
100
AcDbDictionary
  3
ADSK_XREC_LAYER_RECONCILED
360
223A
1001
ACAD
1000
TREAT_AS_HARD
1070
     1
  0
DICTIONARY
  5
1B66
330
18
100
AcDbDictionary
  3
ACAD_SORTENTS
360
1B67
1001
ACAD
1000
TREAT_AS_HARD
1070
     1
  0
XRECORD
  5
2BF8
102
{ACAD_REACTORS
330
C
102
}
330
C
100
AcDbXrecord
300
ACDLT
300
2012
300
ACDLT_F_S
  0
DICTIONARY
  5
19B4
102
{ACAD_REACTORS
330
C
102
}
330
C
100
AcDbDictionary
1001
ACAD
1000
TREAT_AS_HARD
1070
     0
  0
DICTIONARY
  5
D
102
{ACAD_REACTORS
330
C
102
}
330
C
100
AcDbDictionary
1001
ACAD
1000
TREAT_AS_HARD
1070
     0
  0
DICTIONARY
  5
19B7
102
{ACAD_REACTORS
330
C
102
}
330
C
100
AcDbDictionary
1001
ACAD
1000
TREAT_AS_HARD
1070
     0
  0
DICTIONARY
  5
19B3
102
{ACAD_REACTORS
330
C
102
}
330
C
100
AcDbDictionary
  3
BYBLOCK
350
1C5F
  3
BYLAYER
350
1C57
  3
GLOBAL
350
1C67
1001
ACAD
1000
TREAT_AS_HARD
1070
     0
  0
DICTIONARY
  5
1CA2
102
{ACAD_REACTORS
330
C
102
}
330
C
100
AcDbDictionary
  3
STANDARD
350
1CA3
1001
ACAD
1000
TREAT_AS_HARD
1070
     0
  0
DICTIONARY
  5
1B
102
{ACAD_REACTORS
330
C
102
}
330
C
100
AcDbDictionary
  3
STANDARD
350
1C
1001
ACAD
1000
TREAT_AS_HARD
1070
     0
  0
DICTIONARY
  5
19B8
102
{ACAD_REACTORS
330
C
102
}
330
C
100
AcDbDictionary
1001
ACAD
1000
TREAT_AS_HARD
1070
     0
  0
DICTIONARY
  5
1C80
102
{ACAD_REACTORS
330
C
102
}
330
C
100
AcDbDictionary
  3
A0
350
1C81
  3
A1
350
1C82
  3
A2
350
1C83
  3
A3
350
1C84
  3
A4
350
1C85
  3
A5
350
1C86
  3
A6
350
1C87
  3
A7
350
1C88
  3
A8
350
1C89
  3
A9
350
1C8A
  3
B0
350
1C8B
  3
B1
350
1C8C
  3
B2
350
1C8D
  3
B3
350
1C8E
  3
B4
350
1C8F
  3
B5
350
1C90
  3
B6
350
1C91
  3
B7
350
1C92
  3
B8
350
1C93
  3
B9
350
1C94
  3
C0
350
1C95
  3
C1
350
1C96
  3
C2
350
1C97
  3
C3
350
1C98
  3
C4
350
1C99
  3
C5
350
1C9A
  3
C6
350
1C9B
  3
C7
350
1C9C
  3
C8
350
1C9D
  3
C9
350
1C9E
  3
D0
350
1C9F
  3
D1
350
1CA0
  3
D2
350
1CA1
1001
ACAD
1000
TREAT_AS_HARD
1070
     0
  0
DICTIONARY
  5
1C6F
102
{ACAD_REACTORS
330
C
102
}
330
C
100
AcDbDictionary
  3
2DWIREFRAME
350
1C75
  3
3D_HIDDEN
350
1C77
  3
3DWIREFRAME
350
1C76
  3
BASIC
350
1C74
  3
BRIGHTEN
350
1C7B
  3
COLORCHANGE
350
1C7F
  3
CONCEPTUAL
350
1C78
  3
DIM
350
1C7A
  3
EDGECOLOROFF
350
2BAE
  3
FACEPATTERN
350
1C7E
  3
FLAT
350
1C70
  3
FLATWITHEDGES
350
1C71
  3
GOURAUD
350
1C72
  3
GOURAUDWITHEDGES
350
1C73
  3
HIDDEN
350
2BEE
  3
JITTEROFF
350
2BAC
  3
LINEPATTERN
350
1C7D
  3
MODELING
350
3CC2
  3
OVERHANGOFF
350
2BAD
  3
REALISTIC
350
1C79
  3
SHADED
350
2BF3
  3
SHADED_WITH_EDGES
350
2BF2
  3
SHADES_OF_GRAY
350
2BEF
  3
SKETCHY
350
2BF0
  3
THICKEN
350
1C7C
  3
WIREFRAME
350
2BED
  3
X-RAY
350
2BF1
1001
ACAD
1000
TREAT_AS_HARD
1070
     0
  0
DICTIONARY
  5
3E73
102
{ACAD_REACTORS
330
C
102
}
330
C
100
AcDbDictionary
  3
COLORDICT
350
3E74
  3
MATERIALDICT
350
3E75
1001
ACAD
1000
TREAT_AS_HARD
1070
     0
  0
DICTIONARY
  5
C90
102
{ACAD_REACTORS
330
C
102
}
330
C
100
AcDbDictionary
  3
CANNOSCALE
350
226B
  3
CMLEADERSTYLE
350
226A
  3
CTABLESTYLE
350
19F0
  3
DIMADEC
350
C91
  3
DIMASSOC
350
19F1
  3
HIDETEXT
350
3E72
  3
INDEXCTL
350
226D
  3
MSLTSCALE
350
3D2E
  3
PROJECTNAME
350
19F2
  3
SORTENTS
350
226C
  3
XCLIPFRAME
350
3CC1
1001
ACAD
1000
TREAT_AS_HARD
1070
     0
  0
DICTIONARY
  5
3A6B
102
{ACAD_REACTORS
330
C
102
}
330
C
100
AcDbDictionary
1001
ACAD
1000
TREAT_AS_HARD
1070
     0
  0
DICTIONARY
  5
C6C
102
{ACAD_REACTORS
330
C
102
}
330
C
100
AcDbDictionary
1001
CONTENTTABDATA
1070
    11
1000
Child
1000
D:\ACLT\TABset\CHILDREN.dwg
1070
     0
1070
     0
1070
     1
1000
PK
1000
D:\ACLT\TABset\PK.dwg
1070
     0
1070
     0
1070
     1
1000
Lev1
1000
D:\ACLT\TABset\Lever01.dwg
1070
     0
1070
     0
1070
     1
1000
Lev2
1000
D:\ACLT\TABset\Lever02.dwg
1070
     0
1070
     0
1070
     1
1000
L3
1000
D:\Aclt\TABset\Lever03.dwg
1070
     0
1070
     0
1070
     1
1000
Form
1000
D:\ACLT\FORMAT
1070
     1
1070
     0
1070
     1
1000
Jnt
1000
D:\ACLT\TABset\JOINTPARTS.dwg
1070
     0
1070
     0
1070
     1
1000
ISO
1000
D:\ACLT\TABset\Isome01.dwg
1070
     0
1070
     0
1070
     1
1000
R
1000
D:\ACLT\TABset\REGION.dwg
1070
     0
1070
     0
1070
     1
1000
std
1000
D:\ACLT\TABset\std_sym_all.dwg
1070
     0
1070
     0
1070
     1
1000
丸
1000
D:\Aclt\TABset\MARU.dwg
1070
     0
1070
     0
1070
     1
1001
CONTENTCURRENTTAB
1070
     0
1001
ACAD
1000
TREAT_AS_HARD
1070
     0
  0
DICTIONARY
  5
C7F
102
{ACAD_REACTORS
330
C
102
}
330
C
100
AcDbDictionary
1001
DRAWINGVARIABLESXDATA
1000
POLARANG
1000
0.261799387799149410000000
1000
POLARMODE
1000
1
1000
POLARSTYLE
1000
1
1001
ACAD
1000
TREAT_AS_HARD
1070
     0
  0
XRECORD
  5
3E76
102
{ACAD_REACTORS
330
C
102
}
330
C
100
AcDbXrecord
  1
DWGPROPS COOKIE
  2

  3

  4

  6

  7

  8
3684
  9

300
=
301
=
302
=
303
=
304
=
305
=
306
=
307
=
308
=
309
=
 40
0.0
 41
2451035.122968322
 42
2458726.011151123
  1

 90
        0
  0
DICTIONARY
  5
2387
102
{ACAD_REACTORS
330
2386
102
}
330
2386
100
AcDbDictionary
1001
ACAD
1000
TREAT_AS_HARD
1070
     0
  0
ACAD_PROXY_OBJECT
  5
2230
102
{ACAD_REACTORS
330
222F
102
}
330
222F
100
AcDbZombieObject
 90
      499
 91
      515
 93
       34
310
40C8804040
  0
ACAD_PROXY_OBJECT
  5
2232
102
{ACAD_REACTORS
330
2231
102
}
330
2231
100
AcDbZombieObject
 90
      499
 91
      515
 93
       34
310
40C8804040
  0
ACAD_PROXY_OBJECT
  5
2234
102
{ACAD_REACTORS
330
2233
102
}
330
2233
100
AcDbZombieObject
 90
      499
 91
      515
 93
       34
310
40C8804040
  0
ACAD_PROXY_OBJECT
  5
2236
102
{ACAD_REACTORS
330
2235
102
}
330
2235
100
AcDbZombieObject
 90
      499
 91
      515
 93
       34
310
40C8804040
  0
ACAD_PROXY_OBJECT
  5
2238
102
{ACAD_REACTORS
330
2237
102
}
330
2237
100
AcDbZombieObject
 90
      499
 91
      515
 93
       34
310
40C8804040
  0
ACAD_PROXY_OBJECT
  5
223A
102
{ACAD_REACTORS
330
2239
102
}
330
2239
100
AcDbZombieObject
 90
      499
 91
      515
 93
       34
310
40C8804040
  0
SORTENTSTABLE
  5
1B67
102
{ACAD_REACTORS
330
1B66
102
}
330
1B66
100
AcDbSortentsTable
330
18
331
D4A
  5
D8A
331
D4B
  5
D8B
331
D4C
  5
D93
331
D4F
  5
D94
331
D50
  5
D95
331
D51
  5
D96
331
D52
  5
D97
331
0
  5
D5D
331
D5C
  5
1F13
331
D5D
  5
1F14
331
D5E
  5
1F15
331
D5F
  5
1F16
331
D60
  5
1F17
331
D61
  5
1F18
331
D62
  5
1F19
331
D63
  5
1F1A
331
D64
  5
1F1B
331
0
  5
D67
331
0
  5
D68
331
D67
  5
1F39
331
D68
  5
1F3A
331
D69
  5
1F3B
331
D6A
  5
1F3F
331
D6B
  5
1F40
331
D6C
  5
1F41
331
D6D
  5
1F42
331
D77
  5
1FE0
331
0
  5
D83
331
D7F
  5
1FF9
331
D83
  5
1FFA
331
D85
  5
1FFB
331
D86
  5
1FFC
331
D87
  5
1FFD
331
0
  5
D8E
331
0
  5
D8F
331
0
  5
D90
331
0
  5
D92
331
0
  5
F60
331
0
  5
F61
331
0
  5
F62
331
0
  5
F63
331
0
  5
F64
331
0
  5
F65
331
D96
  5
2057
331
D97
  5
2058
331
D98
  5
2059
331
0
  5
1734
331
0
  5
DA0
331
0
  5
DA1
331
D9F
  5
206B
331
0
  5
DA6
331
0
  5
F59
331
0
  5
1F20
331
F59
  5
207E
331
F5A
  5
207F
331
F5B
  5
2080
331
F5C
  5
2081
331
F5D
  5
2082
331
F5E
  5
2083
331
F5F
  5
2084
331
F60
  5
2085
331
F61
  5
2086
331
F62
  5
2087
331
F63
  5
2088
331
F64
  5
2089
331
F65
  5
208A
331
F66
  5
208B
331
F67
  5
208C
331
F68
  5
208D
331
0
  5
1F31
331
0
  5
1F32
331
0
  5
1F33
331
1B65
  5
2001
331
1F12
  5
209F
331
1F13
  5
20A0
331
1F14
  5
20A1
331
1F15
  5
20A2
331
1F16
  5
20A3
331
1F17
  5
20A4
331
1F18
  5
20A5
331
1F19
  5
20A6
331
1F1A
  5
20A7
331
1F1B
  5
20A8
331
1F1C
  5
20A9
331
1F1D
  5
20AA
331
1F1E
  5
20AB
331
1F1F
  5
20AC
331
1F20
  5
20AD
331
1F21
  5
20AE
331
1F22
  5
20AF
331
1F23
  5
20B0
331
1F24
  5
20B1
331
1F25
  5
20B2
331
1F26
  5
20B3
331
1F27
  5
20B4
331
1F28
  5
20B5
331
1F29
  5
20B6
331
1F2A
  5
20B7
331
1F2B
  5
20B8
331
1F2C
  5
20B9
331
1F2D
  5
20BA
331
1F2E
  5
20BB
331
1F2F
  5
20BC
331
1F30
  5
20BD
331
1F31
  5
20BE
331
1F32
  5
20BF
331
1F33
  5
20C0
331
1F34
  5
20C1
331
1F35
  5
20C2
331
1F36
  5
20C3
331
1F37
  5
20C4
331
1F38
  5
20C5
331
1F39
  5
20C6
331
1F3A
  5
20C7
331
1F3B
  5
20C8
331
1F3C
  5
20C9
331
1F3D
  5
20CA
331
1F3E
  5
20CB
331
1F3F
  5
20CC
331
1F40
  5
20CD
331
1F41
  5
20CE
331
1F42
  5
20CF
331
1F43
  5
20D0
331
1FDE
  5
20D1
331
1FDF
  5
20D2
331
1FE0
  5
20D3
331
1FE1
  5
20D4
331
1FE2
  5
20D5
331
1FE3
  5
20D6
331
1FE4
  5
20D7
331
1FE5
  5
20D8
331
1FE6
  5
20D9
331
1FE7
  5
20DA
331
1FE8
  5
20DB
331
1FE9
  5
20DC
331
1FEA
  5
20DD
331
1FEB
  5
20DE
331
1FEC
  5
20DF
331
1FED
  5
20E0
331
1FEE
  5
20E1
331
1FEF
  5
20E2
331
1FF0
  5
20E3
331
1FF1
  5
20E4
331
1FF2
  5
20E5
331
1FF3
  5
20E6
331
1FF4
  5
20E7
331
1FF5
  5
20E8
331
1FF6
  5
20E9
331
1FF7
  5
20EA
331
1FF8
  5
20EB
331
1FF9
  5
20EC
331
1FFA
  5
20ED
331
1FFB
  5
20EE
331
1FFC
  5
20EF
331
1FFD
  5
20F0
331
1FFE
  5
20F1
331
1FFF
  5
20F2
331
2000
  5
20F3
331
2001
  5
20F4
331
2002
  5
20F5
331
2003
  5
20F6
331
2004
  5
20F7
331
2005
  5
20F8
331
2006
  5
20F9
331
2007
  5
20FA
331
2008
  5
20FB
331
2009
  5
20FC
331
200A
  5
20FD
331
200B
  5
20FE
331
200C
  5
20FF
331
200D
  5
2100
331
200E
  5
2101
331
200F
  5
2102
331
2010
  5
2103
331
2011
  5
2104
331
2012
  5
2105
331
2013
  5
2106
331
2014
  5
2107
331
2015
  5
2108
331
2016
  5
2109
331
2017
  5
210A
331
2018
  5
210B
331
2019
  5
210C
331
201A
  5
210D
331
201B
  5
210E
331
201C
  5
210F
331
201D
  5
2110
331
201E
  5
2111
331
201F
  5
2112
331
2020
  5
2113
331
2021
  5
2114
331
2022
  5
2115
331
2023
  5
2116
331
2024
  5
2117
331
2025
  5
2118
331
2026
  5
2119
331
2027
  5
211A
331
2028
  5
211B
331
2029
  5
211C
331
202A
  5
211D
331
202B
  5
211E
331
202C
  5
211F
331
202D
  5
2120
331
202E
  5
2121
331
202F
  5
2122
331
2030
  5
2123
331
2031
  5
2124
331
2032
  5
2125
331
2033
  5
2126
331
2034
  5
2127
331
2035
  5
2128
331
2036
  5
2129
331
2037
  5
212A
331
2038
  5
212B
331
2039
  5
212C
331
203A
  5
212D
331
203B
  5
212E
331
203C
  5
212F
331
203D
  5
2130
331
203E
  5
2131
331
203F
  5
2132
331
2040
  5
2133
331
2041
  5
2134
331
2042
  5
2135
331
2043
  5
2136
331
2044
  5
2137
331
2045
  5
2138
331
2046
  5
2139
331
2047
  5
213A
331
2048
  5
213B
331
2049
  5
213C
331
204A
  5
2149
331
204B
  5
2156
331
204C
  5
2198
331
204D
  5
22C8
331
204E
  5
22CA
331
204F
  5
22CC
331
2050
  5
22CD
331
2051
  5
22CE
331
2052
  5
22CF
331
2053
  5
22D0
331
2054
  5
22D2
331
2055
  5
22DA
331
2056
  5
22DD
331
2057
  5
22DE
331
2058
  5
22DF
331
2059
  5
22E1
331
205A
  5
22EE
331
205B
  5
22F0
331
205C
  5
22F1
331
205D
  5
22F2
331
205E
  5
22F4
331
205F
  5
238F
331
2060
  5
246E
331
2061
  5
246F
331
2062
  5
257B
331
2063
  5
257C
331
2064
  5
257D
331
2065
  5
257E
331
2066
  5
2580
331
2067
  5
2581
331
2068
  5
2582
331
2069
  5
2A34
331
206A
  5
2C05
331
206B
  5
3D49
331
206C
  5
3D4A
331
206D
  5
3D4B
331
206E
  5
3D4C
331
206F
  5
3D4D
331
2070
  5
3D4E
331
2071
  5
3D4F
331
2072
  5
3D50
331
2073
  5
3D51
331
2074
  5
3D52
331
2075
  5
3D53
331
2076
  5
3D54
331
2077
  5
3D55
331
2078
  5
3D56
331
2079
  5
3D57
331
207A
  5
3D58
331
207B
  5
3D59
331
207C
  5
3D5B
331
207D
  5
3D5C
331
207E
  5
3D5D
331
207F
  5
3D5E
331
2080
  5
3D5F
331
2081
  5
3D60
331
2082
  5
3D61
331
2083
  5
3D62
331
2084
  5
3D64
331
2085
  5
3D65
331
2086
  5
3D66
331
2087
  5
3D67
331
2088
  5
3D68
331
2089
  5
3D69
331
208A
  5
3D6A
331
208B
  5
3D6B
331
208C
  5
3D6C
331
208D
  5
3D6D
331
208E
  5
3D6E
331
208F
  5
3D6F
331
2090
  5
3D70
331
2091
  5
3D71
331
2092
  5
3D72
331
2093
  5
3D73
331
2094
  5
3D74
331
2095
  5
3D75
331
2096
  5
3D76
331
2097
  5
3D77
331
2098
  5
3D78
331
2099
  5
3D79
331
209A
  5
3D7A
331
209B
  5
3D7B
331
209C
  5
3D7C
331
209D
  5
3D7D
331
209E
  5
3D7E
331
209F
  5
3D7F
331
20A0
  5
3D80
331
20A1
  5
3D81
331
20A2
  5
3D82
331
20A3
  5
3D83
331
20A4
  5
3D84
331
20A5
  5
3D85
331
20A6
  5
3D86
331
20A7
  5
3D87
331
20A8
  5
3D88
331
20A9
  5
3D89
331
20AA
  5
3D8A
331
20AB
  5
3D8B
331
20AC
  5
3D8C
331
20AD
  5
3D8D
331
20AE
  5
3D8E
331
20AF
  5
3D8F
331
20B0
  5
3D90
331
20B1
  5
3D91
331
20B2
  5
3D92
331
20B3
  5
3D93
331
20B4
  5
3D94
331
20B5
  5
3D95
331
20B6
  5
3D96
331
20B7
  5
3D97
331
20B8
  5
3D98
331
20B9
  5
3D99
331
20BA
  5
3D9A
331
20BB
  5
3D9B
331
20BC
  5
3D9C
331
20BD
  5
3D9D
331
20BE
  5
3D9E
331
20BF
  5
3D9F
331
20C0
  5
3DA0
331
20C1
  5
3DA1
331
20C2
  5
3DA2
331
20C3
  5
3DA3
331
20C4
  5
3DA4
331
20C5
  5
3DA5
331
20C6
  5
3DA6
331
20C7
  5
3DA7
331
20C8
  5
3DA8
331
20C9
  5
3DA9
331
20CA
  5
3DAA
331
20CB
  5
3DAB
331
20CC
  5
3DAC
331
20CD
  5
3DAD
331
20CE
  5
3DAE
331
20CF
  5
3DAF
331
20D0
  5
3DB0
331
20D1
  5
3DB1
331
20D2
  5
3DB2
331
20D3
  5
3DB3
331
20D4
  5
3DB7
331
20D5
  5
3DB8
331
20D6
  5
3DB9
331
20D7
  5
3DBD
331
20D8
  5
3DBE
331
20D9
  5
3DBF
331
20DA
  5
3DC0
331
20DB
  5
3DC1
331
20DC
  5
3DC5
331
20DD
  5
3DC6
331
20DE
  5
3DC7
331
20DF
  5
3DC8
331
20E0
  5
3DC9
331
20E1
  5
3DCA
331
20E2
  5
3DCB
331
20E3
  5
3DCC
331
20E4
  5
3DCD
331
20E5
  5
3DCE
331
20E6
  5
3DCF
331
20E7
  5
3DD0
331
20E8
  5
3DD1
331
20E9
  5
3DD2
331
20EA
  5
3DD3
331
20EB
  5
3DD4
331
20EC
  5
3DD5
331
20ED
  5
3DD6
331
20EE
  5
3DD7
331
20EF
  5
3DD8
331
20F0
  5
3DD9
331
20F1
  5
3DDA
331
20F2
  5
3DDB
331
20F3
  5
3DDC
331
20F4
  5
3DDD
331
20F5
  5
3DDE
331
20F6
  5
3DDF
331
20F7
  5
3DE0
331
20F8
  5
3DE1
331
20F9
  5
3DE2
331
20FA
  5
3DE3
331
20FB
  5
3DE4
331
20FC
  5
3DE5
331
20FD
  5
3DE9
331
20FE
  5
3DEA
331
20FF
  5
3DEB
331
2100
  5
3DEC
331
2101
  5
3DED
331
2102
  5
3DEE
331
2103
  5
3DEF
331
2104
  5
3DF0
331
2105
  5
3DF1
331
2106
  5
3DF2
331
2107
  5
3DF3
331
2108
  5
3DF4
331
2109
  5
3DF5
331
210A
  5
3DF6
331
210B
  5
3DF7
331
210C
  5
3DF8
331
210D
  5
3DF9
331
210E
  5
3DFA
331
210F
  5
3DFB
331
2110
  5
3DFC
331
2111
  5
3DFD
331
2112
  5
3DFE
331
2113
  5
3DFF
331
2114
  5
3E00
331
2115
  5
3E01
331
2116
  5
3E02
331
2117
  5
3E03
331
2118
  5
3E04
331
2119
  5
3E05
331
211A
  5
3E06
331
211B
  5
3E07
331
211C
  5
3E08
331
211D
  5
3E09
331
211E
  5
3E0A
331
211F
  5
3E0B
331
2120
  5
3E0C
331
2121
  5
3E0D
331
2122
  5
3E0E
331
2123
  5
3E0F
331
2124
  5
3E10
331
2125
  5
3E11
331
2126
  5
3E12
331
2127
  5
3E13
331
2128
  5
3E14
331
2129
  5
3E15
331
212A
  5
3E16
331
212B
  5
3E17
331
212C
  5
3E18
331
212D
  5
3E19
331
212E
  5
3E1A
331
212F
  5
3E1B
331
2130
  5
3E1C
331
2131
  5
3E1D
331
2132
  5
3E1E
331
2133
  5
3E1F
331
2134
  5
3E20
331
2135
  5
3E21
331
2136
  5
3E22
331
2137
  5
3E23
331
2138
  5
3E24
331
2139
  5
3E25
331
213A
  5
3E26
331
213B
  5
3E27
331
0
  5
3D45
331
0
  5
3D46
331
0
  5
3D47
331
0
  5
3D48
331
22CA
  5
3E4B
331
22CB
  5
3E4C
331
22CC
  5
3E4D
331
22CD
  5
3E4E
331
22CE
  5
3E4F
331
22CF
  5
3E50
331
22D2
  5
3E51
331
22D8
  5
3E52
331
22D9
  5
3E53
331
22DA
  5
3E54
331
22DC
  5
3E55
331
22DD
  5
3E56
331
22DE
  5
3E57
331
22E8
  5
3E58
331
22ED
  5
3E59
331
22EE
  5
3E5A
331
22F4
  5
3E5B
331
0
  5
3D5A
331
2390
  5
3E5D
331
246E
  5
D99
331
246F
  5
D98
331
257B
  5
3E5E
331
257C
  5
3E61
331
257D
  5
3E5F
331
257F
  5
3E60
331
2580
  5
3E62
331
2581
  5
3E63
331
2582
  5
3E64
331
0
  5
3D63
331
2C05
  5
3E71
331
3D45
  5
2002
331
3D46
  5
2003
331
3D47
  5
2004
331
3D48
  5
2005
331
3D49
  5
2006
331
3D4A
  5
2007
331
3D4B
  5
2008
331
3D4C
  5
2009
331
3D4D
  5
200A
331
3D4E
  5
200B
331
3D4F
  5
200C
331
3D50
  5
200D
331
3D51
  5
200E
331
3D52
  5
200F
331
3D53
  5
2010
331
3D54
  5
2011
331
3D55
  5
2063
331
3D56
  5
2064
331
3D57
  5
2065
331
3D58
  5
2066
331
3D59
  5
2067
331
3D5A
  5
2068
331
3D5B
  5
2069
331
3D5C
  5
206A
331
3D5D
  5
206C
331
3D5E
  5
206D
331
3D5F
  5
206E
331
3D60
  5
206F
331
3D61
  5
2070
331
3D62
  5
2071
331
3D63
  5
2072
331
3D64
  5
2073
331
3D65
  5
D4A
331
3D66
  5
D4B
331
3D67
  5
D4C
331
3D68
  5
D4F
331
0
  5
D50
331
0
  5
D51
331
0
  5
D52
331
3D6C
  5
D66
331
3D6D
  5
D69
331
3D6E
  5
D6A
331
0
  5
D5F
331
0
  5
D60
331
0
  5
D61
331
3D72
  5
D9A
331
3D73
  5
D9B
331
3D74
  5
F5C
331
0
  5
D79
331
0
  5
D85
331
0
  5
D86
331
3D78
  5
1F1F
331
3D79
  5
1F21
331
3D7A
  5
1F22
331
3D7B
  5
1F23
331
0
  5
D9C
331
0
  5
DA2
331
0
  5
F5B
331
3D7F
  5
1F2B
331
3D80
  5
1F2C
331
3D81
  5
1F2D
331
3D82
  5
1F2E
331
0
  5
F66
331
0
  5
F67
331
0
  5
F68
331
3D86
  5
1FE1
331
3D87
  5
1FE2
331
3D88
  5
1FE6
331
3D89
  5
1FE7
331
3D8A
  5
1FE8
331
0
  5
1F1C
331
0
  5
1F1D
331
0
  5
1F1E
331
3D8E
  5
2012
331
3D8F
  5
2013
331
3D90
  5
2014
331
0
  5
1F3C
331
0
  5
1F3D
331
0
  5
1F3E
331
3D94
  5
201F
331
3D95
  5
2020
331
3D96
  5
2021
331
3D97
  5
2022
331
0
  5
1F43
331
0
  5
1FDE
331
0
  5
1FDF
331
3D9B
  5
202B
331
3D9C
  5
202C
331
3D9D
  5
202D
331
0
  5
1FE3
331
0
  5
1FE4
331
0
  5
1FE5
331
3DA1
  5
2038
331
3DA2
  5
2039
331
3DA3
  5
203A
331
3DA4
  5
203B
331
0
  5
1FEA
331
0
  5
1FEB
331
0
  5
1FEC
331
3DA8
  5
2043
331
3DA9
  5
2044
331
3DAA
  5
2045
331
0
  5
1FF0
331
0
  5
1FF1
331
0
  5
1FF2
331
3DAE
  5
204D
331
3DAF
  5
204E
331
3DB0
  5
204F
331
0
  5
1FF6
331
0
  5
1FF7
331
0
  5
1FF8
331
3DB4
  5
205A
331
3DB5
  5
205B
331
0
  5
1FFE
331
0
  5
1FFF
331
0
  5
2000
331
3DB9
  5
2074
331
3DBA
  5
2075
331
3DBB
  5
2076
331
0
  5
2015
331
0
  5
2016
331
0
  5
2017
331
0
  5
2028
331
3DC0
  5
2091
331
3DC1
  5
2092
331
3DC2
  5
2093
331
3DC3
  5
2094
331
3DC4
  5
2095
331
3DC5
  5
2096
331
3DC6
  5
2097
331
0
  5
2030
331
0
  5
2031
331
0
  5
2032
331
3DCA
  5
3E28
331
3DCB
  5
3E29
331
3DCC
  5
3E2A
331
3DCD
  5
3E2B
331
0
  5
3DB4
331
0
  5
3DB5
331
0
  5
3DB6
331
3DD1
  5
3E33
331
3DD2
  5
3E34
331
3DD3
  5
3E35
331
0
  5
3DBA
331
0
  5
3DBB
331
0
  5
3DBC
331
3DD7
  5
3E3D
331
3DD8
  5
3E3E
331
3DD9
  5
3E3F
331
3DDA
  5
3E40
331
3DDB
  5
3E41
331
0
  5
3DC2
331
0
  5
3DC3
331
0
  5
3DC4
331
3DDF
  5
3E49
331
3DE0
  5
3E4A
331
3DE1
  5
3E5C
331
3DE2
  5
3E65
331
3DE3
  5
3E66
331
3DE4
  5
3E67
331
3DE5
  5
3E68
331
3DE6
  5
3E69
331
0
  5
3DE6
331
0
  5
3DE7
331
0
  5
3DE8
331
3DEA
  5
D59
331
3DEB
  5
D5C
331
3DEC
  5
D5E
331
3DED
  5
D62
331
3DEE
  5
D63
331
3DEF
  5
D64
331
3DF0
  5
D65
331
3DF1
  5
D6B
331
3DF2
  5
D6C
331
3DF3
  5
D6D
331
3DF4
  5
D6E
331
3DF5
  5
D6F
331
3DF6
  5
D87
331
3DF7
  5
D89
331
3DF8
  5
F5D
331
3DF9
  5
F5E
331
3DFA
  5
F5F
331
3DFB
  5
17BB
331
3DFC
  5
17D0
331
3DFD
  5
197A
331
3DFE
  5
1F12
331
3DFF
  5
1F24
331
3E00
  5
1F25
331
3E01
  5
1F26
331
3E02
  5
1F27
331
3E03
  5
1F28
331
3E04
  5
1F29
331
3E05
  5
1F2A
331
3E06
  5
1F2F
331
3E07
  5
1F30
331
3E08
  5
1F34
331
3E09
  5
1F35
331
3E0A
  5
1F36
331
3E0B
  5
1F37
331
3E0C
  5
1F38
331
3E0D
  5
1FE9
331
3E0E
  5
1FED
331
3E0F
  5
1FEE
331
3E10
  5
1FEF
331
3E11
  5
1FF3
331
3E12
  5
1FF4
331
3E13
  5
1FF5
331
3E14
  5
2018
331
3E15
  5
2019
331
3E16
  5
201A
331
3E17
  5
201B
331
3E18
  5
201C
331
3E19
  5
201D
331
3E1A
  5
201E
331
3E1B
  5
2023
331
3E1C
  5
2024
331
3E1D
  5
2025
331
3E1E
  5
2026
331
3E1F
  5
2027
331
3E20
  5
2029
331
3E21
  5
202A
331
3E22
  5
202E
331
3E23
  5
202F
331
3E24
  5
2033
331
3E25
  5
2034
331
3E26
  5
2035
331
3E27
  5
2036
331
3E28
  5
2037
331
3E29
  5
203C
331
3E2A
  5
203D
331
3E2B
  5
203E
331
3E2C
  5
203F
331
3E2D
  5
2040
331
3E2E
  5
2041
331
3E2F
  5
2042
331
3E30
  5
2046
331
3E31
  5
2047
331
3E32
  5
2048
331
3E33
  5
2049
331
3E34
  5
204A
331
3E35
  5
204B
331
3E36
  5
204C
331
3E37
  5
2050
331
3E38
  5
2051
331
3E39
  5
2052
331
3E3A
  5
2053
331
3E3B
  5
2054
331
3E3C
  5
2055
331
3E3D
  5
2056
331
3E3E
  5
205C
331
3E3F
  5
205D
331
3E40
  5
205E
331
3E41
  5
205F
331
3E42
  5
2060
331
3E43
  5
2061
331
3E44
  5
2062
331
3E45
  5
2077
331
3E46
  5
2078
331
3E47
  5
2079
331
3E48
  5
207A
331
3E49
  5
207B
331
3E4A
  5
207C
331
3E4B
  5
207D
331
3E4C
  5
208E
331
3E4D
  5
208F
331
3E4E
  5
2090
331
3E4F
  5
2098
331
3E50
  5
2099
331
3E51
  5
209A
331
3E52
  5
209B
331
3E53
  5
209C
331
3E54
  5
209D
331
3E55
  5
209E
331
3E56
  5
3E2C
331
3E57
  5
3E2D
331
3E58
  5
3E2E
331
3E59
  5
3E2F
331
3E5A
  5
3E30
331
3E5B
  5
3E31
331
3E5C
  5
3E32
331
3E5D
  5
3E36
331
3E5E
  5
3E37
331
3E5F
  5
3E38
331
3E60
  5
3E39
331
3E61
  5
3E3A
331
3E62
  5
3E3B
331
3E63
  5
3E3C
331
3E64
  5
3E42
331
3E65
  5
3E43
331
3E66
  5
3E44
331
3E67
  5
3E45
331
3E68
  5
3E46
331
3E69
  5
3E47
331
3E6A
  5
3E48
331
3E6B
  5
3E6A
331
3E6C
  5
3E6B
331
3E6D
  5
3E6C
331
3E6E
  5
3E6D
331
3E6F
  5
3E6E
331
3E70
  5
3E6F
331
3E71
  5
3E70
  0
MATERIAL
  5
1C5F
102
{ACAD_REACTORS
330
19B3
102
}
102
{ACAD_XDICTIONARY
360
4011
102
}
330
19B3
100
AcDbMaterial
  1
BYBLOCK
 72
     0
 73
     2
 43
0.0208333333333333
 43
0.0
 43
0.0
 43
0.0
 43
0.0
 43
0.0208333333333333
 43
0.0
 43
0.0
 43
0.0
 43
0.0
 43
1.0
 43
0.0
 43
0.0
 43
0.0
 43
0.0
 43
1.0
 77
     0
 78
     2
 47
0.0208333333333333
 47
0.0
 47
0.0
 47
0.0
 47
0.0
 47
0.0208333333333333
 47
0.0
 47
0.0
 47
0.0
 47
0.0
 47
1.0
 47
0.0
 47
0.0
 47
0.0
 47
0.0
 47
1.0
171
     0
172
     2
 49
0.0208333333333333
 49
0.0
 49
0.0
 49
0.0
 49
0.0
 49
0.0208333333333333
 49
0.0
 49
0.0
 49
0.0
 49
0.0
 49
1.0
 49
0.0
 49
0.0
 49
0.0
 49
0.0
 49
1.0
175
     0
176
     2
142
0.0208333333333333
142
0.0
142
0.0
142
0.0
142
0.0
142
0.0208333333333333
142
0.0
142
0.0
142
0.0
142
0.0
142
1.0
142
0.0
142
0.0
142
0.0
142
0.0
142
1.0
179
     0
270
     2
144
0.0208333333333333
144
0.0
144
0.0
144
0.0
144
0.0
144
0.0208333333333333
144
0.0
144
0.0
144
0.0
144
0.0
144
1.0
144
0.0
144
0.0
144
0.0
144
0.0
144
1.0
274
     2
147
0.0208333333333333
147
0.0
147
0.0
147
0.0
147
0.0
147
0.0208333333333333
147
0.0
147
0.0
147
0.0
147
0.0
147
1.0
147
0.0
147
0.0
147
0.0
147
0.0
147
1.0
  0
MATERIAL
  5
1C57
102
{ACAD_REACTORS
330
19B3
102
}
102
{ACAD_XDICTIONARY
360
4013
102
}
330
19B3
100
AcDbMaterial
  1
BYLAYER
 72
     0
 73
     2
 43
0.0208333333333333
 43
0.0
 43
0.0
 43
0.0
 43
0.0
 43
0.0208333333333333
 43
0.0
 43
0.0
 43
0.0
 43
0.0
 43
1.0
 43
0.0
 43
0.0
 43
0.0
 43
0.0
 43
1.0
 77
     0
 78
     2
 47
0.0208333333333333
 47
0.0
 47
0.0
 47
0.0
 47
0.0
 47
0.0208333333333333
 47
0.0
 47
0.0
 47
0.0
 47
0.0
 47
1.0
 47
0.0
 47
0.0
 47
0.0
 47
0.0
 47
1.0
171
     0
172
     2
 49
0.0208333333333333
 49
0.0
 49
0.0
 49
0.0
 49
0.0
 49
0.0208333333333333
 49
0.0
 49
0.0
 49
0.0
 49
0.0
 49
1.0
 49
0.0
 49
0.0
 49
0.0
 49
0.0
 49
1.0
175
     0
176
     2
142
0.0208333333333333
142
0.0
142
0.0
142
0.0
142
0.0
142
0.0208333333333333
142
0.0
142
0.0
142
0.0
142
0.0
142
1.0
142
0.0
142
0.0
142
0.0
142
0.0
142
1.0
179
     0
270
     2
144
0.0208333333333333
144
0.0
144
0.0
144
0.0
144
0.0
144
0.0208333333333333
144
0.0
144
0.0
144
0.0
144
0.0
144
1.0
144
0.0
144
0.0
144
0.0
144
0.0
144
1.0
274
     2
147
0.0208333333333333
147
0.0
147
0.0
147
0.0
147
0.0
147
0.0208333333333333
147
0.0
147
0.0
147
0.0
147
0.0
147
1.0
147
0.0
147
0.0
147
0.0
147
0.0
147
1.0
  0
MATERIAL
  5
1C67
102
{ACAD_REACTORS
330
19B3
102
}
102
{ACAD_XDICTIONARY
360
4015
102
}
330
19B3
100
AcDbMaterial
  1
GLOBAL
 72
     0
 73
     2
 43
0.0208333333333333
 43
0.0
 43
0.0
 43
0.0
 43
0.0
 43
0.0208333333333333
 43
0.0
 43
0.0
 43
0.0
 43
0.0
 43
1.0
 43
0.0
 43
0.0
 43
0.0
 43
0.0
 43
1.0
 77
     0
 78
     2
 47
0.0208333333333333
 47
0.0
 47
0.0
 47
0.0
 47
0.0
 47
0.0208333333333333
 47
0.0
 47
0.0
 47
0.0
 47
0.0
 47
1.0
 47
0.0
 47
0.0
 47
0.0
 47
0.0
 47
1.0
171
     0
172
     2
 49
0.0208333333333333
 49
0.0
 49
0.0
 49
0.0
 49
0.0
 49
0.0208333333333333
 49
0.0
 49
0.0
 49
0.0
 49
0.0
 49
1.0
 49
0.0
 49
0.0
 49
0.0
 49
0.0
 49
1.0
175
     0
176
     2
142
0.0208333333333333
142
0.0
142
0.0
142
0.0
142
0.0
142
0.0208333333333333
142
0.0
142
0.0
142
0.0
142
0.0
142
1.0
142
0.0
142
0.0
142
0.0
142
0.0
142
1.0
179
     0
270
     2
144
0.0208333333333333
144
0.0
144
0.0
144
0.0
144
0.0
144
0.0208333333333333
144
0.0
144
0.0
144
0.0
144
0.0
144
1.0
144
0.0
144
0.0
144
0.0
144
0.0
144
1.0
274
     2
147
0.0208333333333333
147
0.0
147
0.0
147
0.0
147
0.0
147
0.0208333333333333
147
0.0
147
0.0
147
0.0
147
0.0
147
1.0
147
0.0
147
0.0
147
0.0
147
0.0
147
1.0
  0
ACAD_PROXY_OBJECT
  5
1CA3
102
{ACAD_REACTORS
330
1CA2
102
}
330
1CA2
100
AcDbZombieObject
 90
      499
 91
      512
 93
      610
310
40901902A4063FBFFFFFE000000000000002040AD7A3703D0AD73F4214DD185B99185C990000000000000104090141901A00000000000004100000000000000041025764000000000000300FC0
340
12
340
0
340
F
340
0
 94
        0
1001
ACAD_MLEADERVER
1070
     2
  0
MLINESTYLE
  5
1C
102
{ACAD_REACTORS
330
1B
102
}
330
1B
100
AcDbMlineStyle
  2
STANDARD
 70
     0
  3

 62
   256
 51
90.0
 52
90.0
 71
     2
 49
0.5
 62
   256
  6
BYLAYER
 49
-0.5
 62
   256
  6
BYLAYER
  0
ACAD_PROXY_OBJECT
  5
1C81
102
{ACAD_REACTORS
330
1C80
102
}
330
1C80
100
AcDbZombieObject
 90
      499
 91
      511
 93
       41
310
903313A31580
  0
ACAD_PROXY_OBJECT
  5
1C82
102
{ACAD_REACTORS
330
1C80
102
}
330
1C80
100
AcDbZombieObject
 90
      499
 91
      511
 93
      105
310
903313A324000000000000004000
  0
ACAD_PROXY_OBJECT
  5
1C83
102
{ACAD_REACTORS
330
1C80
102
}
330
1C80
100
AcDbZombieObject
 90
      499
 91
      511
 93
      105
310
903313A344000000000000104000
  0
ACAD_PROXY_OBJECT
  5
1C84
102
{ACAD_REACTORS
330
1C80
102
}
330
1C80
100
AcDbZombieObject
 90
      499
 91
      511
 93
      105
310
903313A354000000000000144000
  0
ACAD_PROXY_OBJECT
  5
1C85
102
{ACAD_REACTORS
330
1C80
102
}
330
1C80
100
AcDbZombieObject
 90
      499
 91
      511
 93
      105
310
903313A384000000000000204000
  0
ACAD_PROXY_OBJECT
  5
1C86
102
{ACAD_REACTORS
330
1C80
102
}
330
1C80
100
AcDbZombieObject
 90
      499
 91
      511
 93
      113
310
904313A31304000000000000244000
  0
ACAD_PROXY_OBJECT
  5
1C87
102
{ACAD_REACTORS
330
1C80
102
}
330
1C80
100
AcDbZombieObject
 90
      499
 91
      511
 93
      113
310
904313A31364000000000000304000
  0
ACAD_PROXY_OBJECT
  5
1C88
102
{ACAD_REACTORS
330
1C80
102
}
330
1C80
100
AcDbZombieObject
 90
      499
 91
      511
 93
      113
310
904313A32304000000000000344000
  0
ACAD_PROXY_OBJECT
  5
1C89
102
{ACAD_REACTORS
330
1C80
102
}
330
1C80
100
AcDbZombieObject
 90
      499
 91
      511
 93
      113
310
904313A333040000000000003E4000
  0
ACAD_PROXY_OBJECT
  5
1C8A
102
{ACAD_REACTORS
330
1C80
102
}
330
1C80
100
AcDbZombieObject
 90
      499
 91
      511
 93
      113
310
904313A34304000000000000444000
  0
ACAD_PROXY_OBJECT
  5
1C8B
102
{ACAD_REACTORS
330
1C80
102
}
330
1C80
100
AcDbZombieObject
 90
      499
 91
      511
 93
      113
310
904313A35304000000000000494000
  0
ACAD_PROXY_OBJECT
  5
1C8C
102
{ACAD_REACTORS
330
1C80
102
}
330
1C80
100
AcDbZombieObject
 90
      499
 91
      511
 93
      121
310
905313A3130304000000000000594000
  0
ACAD_PROXY_OBJECT
  5
1C8D
102
{ACAD_REACTORS
330
1C80
102
}
330
1C80
100
AcDbZombieObject
 90
      499
 91
      511
 93
      105
310
903323A310000000000000010100
  0
ACAD_PROXY_OBJECT
  5
1C8E
102
{ACAD_REACTORS
330
1C80
102
}
330
1C80
100
AcDbZombieObject
 90
      499
 91
      511
 93
      105
310
903343A310000000000000410100
  0
ACAD_PROXY_OBJECT
  5
1C8F
102
{ACAD_REACTORS
330
1C80
102
}
330
1C80
100
AcDbZombieObject
 90
      499
 91
      511
 93
      105
310
903383A310000000000000810100
  0
ACAD_PROXY_OBJECT
  5
1C90
102
{ACAD_REACTORS
330
1C80
102
}
330
1C80
100
AcDbZombieObject
 90
      499
 91
      511
 93
      113
310
90431303A310000000000000910100
  0
ACAD_PROXY_OBJECT
  5
1C91
102
{ACAD_REACTORS
330
1C80
102
}
330
1C80
100
AcDbZombieObject
 90
      499
 91
      511
 93
      121
310
9053130303A310000000000001650100
  0
ACAD_PROXY_OBJECT
  5
1C92
102
{ACAD_REACTORS
330
1C80
102
}
330
1C80
100
AcDbZombieObject
 90
      499
 91
      511
 93
      257
310
90E312F31323822203D2031272D3022000000000000200FC000000000000284000
  0
ACAD_PROXY_OBJECT
  5
1C93
102
{ACAD_REACTORS
330
1C80
102
}
330
1C80
100
AcDbZombieObject
 90
      499
 91
      511
 93
      249
310
90D312F363422203D2031272D3022000000000000240FC000000000000284000
  0
ACAD_PROXY_OBJECT
  5
1C94
102
{ACAD_REACTORS
330
1C80
102
}
330
1C80
100
AcDbZombieObject
 90
      499
 91
      511
 93
      249
310
90D312F333222203D2031272D3022000000000000280FC000000000000284000
  0
ACAD_PROXY_OBJECT
  5
1C95
102
{ACAD_REACTORS
330
1C80
102
}
330
1C80
100
AcDbZombieObject
 90
      499
 91
      511
 93
      249
310
90D312F313622203D2031272D30220000000000002C0FC000000000000284000
  0
ACAD_PROXY_OBJECT
  5
1C96
102
{ACAD_REACTORS
330
1C80
102
}
330
1C80
100
AcDbZombieObject
 90
      499
 91
      511
 93
      249
310
90D332F333222203D2031272D30220000000000002E0FC000000000000284000
  0
ACAD_PROXY_OBJECT
  5
1C97
102
{ACAD_REACTORS
330
1C80
102
}
330
1C80
100
AcDbZombieObject
 90
      499
 91
      511
 93
      241
310
90C312F3822203D2031272D3022000000000000300FC000000000000284000
  0
ACAD_PROXY_OBJECT
  5
1C98
102
{ACAD_REACTORS
330
1C80
102
}
330
1C80
100
AcDbZombieObject
 90
      499
 91
      511
 93
      249
310
90D332F313622203D2031272D3022000000000000320FC000000000000284000
  0
ACAD_PROXY_OBJECT
  5
1C99
102
{ACAD_REACTORS
330
1C80
102
}
330
1C80
100
AcDbZombieObject
 90
      499
 91
      511
 93
      241
310
90C312F3422203D2031272D3022000000000000340FC000000000000284000
  0
ACAD_PROXY_OBJECT
  5
1C9A
102
{ACAD_REACTORS
330
1C80
102
}
330
1C80
100
AcDbZombieObject
 90
      499
 91
      511
 93
      241
310
90C332F3822203D2031272D3022000000000000360FC000000000000284000
  0
ACAD_PROXY_OBJECT
  5
1C9B
102
{ACAD_REACTORS
330
1C80
102
}
330
1C80
100
AcDbZombieObject
 90
      499
 91
      511
 93
      241
310
90C312F3222203D2031272D3022000000000000380FC000000000000284000
  0
ACAD_PROXY_OBJECT
  5
1C9C
102
{ACAD_REACTORS
330
1C80
102
}
330
1C80
100
AcDbZombieObject
 90
      499
 91
      511
 93
      241
310
90C332F3422203D2031272D30220000000000003A0FC000000000000284000
  0
ACAD_PROXY_OBJECT
  5
1C9D
102
{ACAD_REACTORS
330
1C80
102
}
330
1C80
100
AcDbZombieObject
 90
      499
 91
      511
 93
      161
310
90A3122203D2031272D30224000000000000284000
  0
ACAD_PROXY_OBJECT
  5
1C9E
102
{ACAD_REACTORS
330
1C80
102
}
330
1C80
100
AcDbZombieObject
 90
      499
 91
      511
 93
      257
310
90E312D312F3222203D2031272D30220000000000003E0FC000000000000284000
  0
ACAD_PROXY_OBJECT
  5
1C9F
102
{ACAD_REACTORS
330
1C80
102
}
330
1C80
100
AcDbZombieObject
 90
      499
 91
      511
 93
      225
310
90A3322203D2031272D302200000000000002100000000000000284000
  0
ACAD_PROXY_OBJECT
  5
1CA0
102
{ACAD_REACTORS
330
1C80
102
}
330
1C80
100
AcDbZombieObject
 90
      499
 91
      511
 93
      225
310
90A3622203D2031272D302200000000000006100000000000000284000
  0
ACAD_PROXY_OBJECT
  5
1CA1
102
{ACAD_REACTORS
330
1C80
102
}
330
1C80
100
AcDbZombieObject
 90
      499
 91
      511
 93
      249
310
90D31272D3022203D2031272D30220000000000000A100000000000000284000
  0
ACAD_PROXY_OBJECT
  5
1C75
102
{ACAD_REACTORS
330
1C6F
102
}
330
1C6F
100
AcDbZombieObject
 90
      499
 91
      510
 93
      436
310
42CC9915DA5C99599C985B595049028333333333333E3BF0000000000000FB0107901411070040501600405405064090741402480A0340
1001
ACAD
1000
AcDbSavedByObjectVersion
1070
     0
  0
ACAD_PROXY_OBJECT
  5
1C77
102
{ACAD_REACTORS
330
1C6F
102
}
330
1C6F
100
AcDbZombieObject
 90
      499
 91
      510
 93
      500
310
424CD108121A5919195B90640502408333333333333E3BF0000000000000FB01079024090700405020000000000001110200405405064090740C02480A0340
1001
ACAD
1000
AcDbSavedByObjectVersion
1070
     0
  0
ACAD_PROXY_OBJECT
  5
1C76
102
{ACAD_REACTORS
330
1C6F
102
}
330
1C6F
100
AcDbZombieObject
 90
      499
 91
      510
 93
      436
310
42CCD915DA5C99599C985B595059028333333333333E3BF0000000000000FB0107901411070040501600405405064090741402480A0340
1001
ACAD
1000
AcDbSavedByObjectVersion
1070
     0
  0
ACAD_PROXY_OBJECT
  5
1C74
102
{ACAD_REACTORS
330
1C6F
102
}
330
1C6F
100
AcDbZombieObject
 90
      499
 91
      510
 93
      388
310
4150985CDA58D07406404333333333333E3BF0000000000000FB0107A41107004050150841D405064090741402480A0350
1001
ACAD
1000
AcDbSavedByObjectVersion
1070
     0
  0
ACAD_PROXY_OBJECT
  5
1C7B
102
{ACAD_REACTORS
330
1C6F
102
}
330
1C6F
100
AcDbZombieObject
 90
      499
 91
      510
 93
      428
310
42109C9A59DA1D195B90C409028333333333333E3BF0000000000000FB010790141107004050150841D405064090741402480A029950
1001
ACAD
1000
AcDbSavedByObjectVersion
1070
     0
  0
ACAD_PROXY_OBJECT
  5
1C7F
102
{ACAD_REACTORS
330
1C6F
102
}
330
1C6F
100
AcDbZombieObject
 90
      499
 91
      510
 93
      452
310
42D0DBDB1BDC90DA185B99D95104090240C333333333333E3BF0000000000000FB0108901411070040501508421405064090741402480A0350
1001
ACAD
1000
AcDbSavedByObjectVersion
1070
     0
  0
ACAD_PROXY_OBJECT
  5
1C78
102
{ACAD_REACTORS
330
1C6F
102
}
330
1C6F
100
AcDbZombieObject
 90
      499
 91
      510
 93
      500
310
4290DBDB98D95C1D1D585B10940D028333333333333E3BF0000000000000FB0107902409070040501000000000000111010841D405064090740C02480A0340
1001
ACAD
1000
AcDbSavedByObjectVersion
1070
     0
  0
ACAD_PROXY_OBJECT
  5
1C7A
102
{ACAD_REACTORS
330
1C6F
102
}
330
1C6F
100
AcDbZombieObject
 90
      499
 91
      510
 93
      412
310
40D11A5B50B409028333333333333E3BF0000000000000FB010790141107004050150841D405064090741402480A02677FFFFFD0
1001
ACAD
1000
AcDbSavedByObjectVersion
1070
     0
  0
ACAD_PROXY_OBJECT
  5
2BAE
102
{ACAD_REACTORS
330
1C6F
102
}
330
1C6F
100
AcDbZombieObject
 90
      499
 91
      510
 93
      452
310
43115919D950DBDB1BDC93D999916409028333333333333E3BF0000000000000FB010790141107004050150841D405064090741402480A0350
1001
ACAD
1000
AcDbSavedByObjectVersion
1070
     0
  0
ACAD_PROXY_OBJECT
  5
1C7E
102
{ACAD_REACTORS
330
1C6F
102
}
330
1C6F
100
AcDbZombieObject
 90
      499
 91
      510
 93
      444
310
42D19858D95C185D1D195C9B90F409028333333333333E3BF0000000000000FB010790141107004050150841D405064090741402480A0350
1001
ACAD
1000
AcDbSavedByObjectVersion
1070
     0
  0
ACAD_PROXY_OBJECT
  5
1C70
102
{ACAD_REACTORS
330
1C6F
102
}
330
1C6F
100
AcDbZombieObject
 90
      499
 91
      510
 93
      388
310
41119B185D240901404333333333333E3BF0000000000000F9010740A41107004050150841D405064090741402480A1B50
1001
ACAD
1000
AcDbSavedByObjectVersion
1070
     0
  0
ACAD_PROXY_OBJECT
  5
1C71
102
{ACAD_REACTORS
330
1C6F
102
}
330
1C6F
100
AcDbZombieObject
 90
      499
 91
      510
 93
      476
310
43519B185D15DA5D1A115919D95CD0140901404333333333333E3BF0000000000000F9010740901411070040501600405405064090741402480A1B50
1001
ACAD
1000
AcDbSavedByObjectVersion
1070
     0
  0
ACAD_PROXY_OBJECT
  5
1C72
102
{ACAD_REACTORS
330
1C6F
102
}
330
1C6F
100
AcDbZombieObject
 90
      499
 91
      510
 93
      412
310
41D1DBDD5C985D5910240902404333333333333E3BF0000000000000F9010740A411070040501641D405064090741402480A1B50
1001
ACAD
1000
AcDbSavedByObjectVersion
1070
     0
  0
ACAD_PROXY_OBJECT
  5
1C73
102
{ACAD_REACTORS
330
1C6F
102
}
330
1C6F
100
AcDbZombieObject
 90
      499
 91
      510
 93
      500
310
4411DBDD5C985D5915DA5D1A115919D95CD0340902404333333333333E3BF0000000000000F9010740901411070040501600405405064090741402480A1B50
1001
ACAD
1000
AcDbSavedByObjectVersion
1070
     0
  0
ACAD_PROXY_OBJECT
  5
2BEE
102
{ACAD_REACTORS
330
1C6F
102
}
330
1C6F
100
AcDbZombieObject
 90
      499
 91
      510
 93
      476
310
41921A5919195B90640502408333333333333E3BF0000000000000FB01079024090700405020000000000001110200405405064090740C02480A0340
1001
ACAD
1000
AcDbSavedByObjectVersion
1070
     0
  0
ACAD_PROXY_OBJECT
  5
2BAC
102
{ACAD_REACTORS
330
1C6F
102
}
330
1C6F
100
AcDbZombieObject
 90
      499
 91
      510
 93
      428
310
42529A5D1D195C93D999914409028333333333333E3BF0000000000000FB010790141107004050150A41D405064090741402480A0350
1001
ACAD
1000
AcDbSavedByObjectVersion
1070
     0
  0
ACAD_PROXY_OBJECT
  5
1C7D
102
{ACAD_REACTORS
330
1C6F
102
}
330
1C6F
100
AcDbZombieObject
 90
      499
 91
      510
 93
      444
310
42D31A5B995C185D1D195C9B90E409028333333333333E3BF0000000000000FB010790141107004050750841D405064090741402483A0350
1001
ACAD
1000
AcDbSavedByObjectVersion
1070
     0
  0
ACAD_PROXY_OBJECT
  5
3CC2
102
{ACAD_REACTORS
330
1C6F
102
}
330
1C6F
100
AcDbZombieObject
 90
      499
 91
      510
 93
      484
310
42135BD9195B1A5B99D0A409038333333333333E33F0000000000000F901074090290700405010000000000201990108421405064090741402480A1B40
1001
ACAD
1000
AcDbSavedByObjectVersion
1070
     0
  0
ACAD_PROXY_OBJECT
  5
2BAD
102
{ACAD_REACTORS
330
1C6F
102
}
330
1C6F
100
AcDbZombieObject
 90
      499
 91
      510
 93
      444
310
42D3DD995C9A185B99D3D999915409028333333333333E3BF0000000000000FB010790141107004050150941D405064090741402480A0350
1001
ACAD
1000
AcDbSavedByObjectVersion
1070
     0
  0
ACAD_PROXY_OBJECT
  5
1C79
102
{ACAD_REACTORS
330
1C6F
102
}
330
1C6F
100
AcDbZombieObject
 90
      499
 91
      510
 93
      420
310
425499585B1A5CDD1A58D08409028333333333333E3BF0000000000000FB01079019070040501508421405064090741402480A1B40
1001
ACAD
1000
AcDbSavedByObjectVersion
1070
     0
  0
ACAD_PROXY_OBJECT
  5
2BF3
102
{ACAD_REACTORS
330
1C6F
102
}
330
1C6F
100
AcDbZombieObject
 90
      499
 91
      510
 93
      420
310
4194DA1859195911B40902404333333333333E3BF0000000000000F9010740A41107004050150800405405064090840C02480A0B40
1001
ACAD
1000
AcDbSavedByObjectVersion
1070
     0
  0
ACAD_PROXY_OBJECT
  5
2BF2
102
{ACAD_REACTORS
330
1C6F
102
}
330
1C6F
100
AcDbZombieObject
 90
      499
 91
      510
 93
      516
310
4454DA18591959081DDA5D1A08195919D95CD1A40902404333333333333E3BF0000000000000F901074090142907004050250800405405064090740C02480A0B40
1001
ACAD
1000
AcDbSavedByObjectVersion
1070
     0
  0
ACAD_PROXY_OBJECT
  5
2BEF
102
{ACAD_REACTORS
330
1C6F
102
}
330
1C6F
100
AcDbZombieObject
 90
      499
 91
      510
 93
      532
310
4394DA1859195CC81BD98811DC985E5174090240C333333333333E3BF0000000000000FB01079024090741D01000000000000111010841D405064090740C02480A0340
1001
ACAD
1000
AcDbSavedByObjectVersion
1070
     0
  0
ACAD_PROXY_OBJECT
  5
2BF0
102
{ACAD_REACTORS
330
1C6F
102
}
330
1C6F
100
AcDbZombieObject
 90
      499
 91
      510
 93
      476
310
41D4DAD95D18DA1E51840502408333333333333E3BF0000000000000FB01079024090741D01000000000000111010B41D405064090741802480A0340
1001
ACAD
1000
AcDbSavedByObjectVersion
1070
     0
  0
ACAD_PROXY_OBJECT
  5
1C7C
102
{ACAD_REACTORS
330
1C6F
102
}
330
1C6F
100
AcDbZombieObject
 90
      499
 91
      510
 93
      412
310
41D51A1A58DAD95B90D409028333333333333E3BF0000000000000FB010790141107004050150C41D405064090741402480A0350
1001
ACAD
1000
AcDbSavedByObjectVersion
1070
     0
  0
ACAD_PROXY_OBJECT
  5
2BED
102
{ACAD_REACTORS
330
1C6F
102
}
330
1C6F
100
AcDbZombieObject
 90
      499
 91
      510
 93
      420
310
4255DA5C99599C985B595059028333333333333E3BF0000000000000FB0107901411070040501600405405064090740C02480A0340
1001
ACAD
1000
AcDbSavedByObjectVersion
1070
     0
  0
ACAD_PROXY_OBJECT
  5
2BF1
102
{ACAD_REACTORS
330
1C6F
102
}
330
1C6F
100
AcDbZombieObject
 90
      499
 91
      510
 93
      404
310
41560B54985E51940902404000000000000E03F0000000000000FB010740501907004050150841D405064090740C02480A1B40
1001
ACAD
1000
AcDbSavedByObjectVersion
1070
     0
  0
XRECORD
  5
3E74
102
{ACAD_REACTORS
330
3E73
102
}
330
3E73
100
AcDbXrecord
340
19B4
  0
XRECORD
  5
3E75
102
{ACAD_REACTORS
330
3E73
102
}
330
3E73
100
AcDbXrecord
340
19B3
  0
DICTIONARYVAR
  5
226B
102
{ACAD_REACTORS
330
C90
102
}
330
C90
100
DictionaryVariables
280
     0
  1
1:1
  0
DICTIONARYVAR
  5
226A
102
{ACAD_REACTORS
330
C90
102
}
330
C90
100
DictionaryVariables
280
     0
  1
Standard
  0
DICTIONARYVAR
  5
19F0
102
{ACAD_REACTORS
330
C90
102
}
330
C90
100
DictionaryVariables
280
     0
  1
Standard
  0
DICTIONARYVAR
  5
C91
102
{ACAD_REACTORS
330
C90
102
}
330
C90
100
DictionaryVariables
280
     0
  1
-1
  0
DICTIONARYVAR
  5
19F1
102
{ACAD_REACTORS
330
C90
102
}
330
C90
100
DictionaryVariables
280
     0
  1
2
  0
DICTIONARYVAR
  5
3E72
102
{ACAD_REACTORS
330
C90
102
}
330
C90
100
DictionaryVariables
280
     0
  1
0
  0
DICTIONARYVAR
  5
226D
102
{ACAD_REACTORS
330
C90
102
}
330
C90
100
DictionaryVariables
280
     0
  1
0
  0
DICTIONARYVAR
  5
3D2E
102
{ACAD_REACTORS
330
C90
102
}
330
C90
100
DictionaryVariables
280
     0
  1
0
  0
DICTIONARYVAR
  5
19F2
102
{ACAD_REACTORS
330
C90
102
}
330
C90
100
DictionaryVariables
280
     0
  1

  0
DICTIONARYVAR
  5
226C
102
{ACAD_REACTORS
330
C90
102
}
330
C90
100
DictionaryVariables
280
     0
  1
127
  0
DICTIONARYVAR
  5
3CC1
102
{ACAD_REACTORS
330
C90
102
}
330
C90
100
DictionaryVariables
280
     0
  1
2
  0
DICTIONARY
  5
4011
330
1C5F
100
AcDbDictionary
  3
ACAD_XREC_ROUNDTRIP
360
4012
1001
ACAD
1000
TREAT_AS_HARD
1070
     1
  0
DICTIONARY
  5
4013
330
1C57
100
AcDbDictionary
  3
ACAD_XREC_ROUNDTRIP
360
4014
1001
ACAD
1000
TREAT_AS_HARD
1070
     1
  0
DICTIONARY
  5
4015
330
1C67
100
AcDbDictionary
  3
ACAD_XREC_ROUNDTRIP
360
4016
1001
ACAD
1000
TREAT_AS_HARD
1070
     1
  0
XRECORD
  5
4012
102
{ACAD_REACTORS
330
4011
102
}
330
4011
100
AcDbXrecord
102
MATERIAL
148
0.0
149
0.0
149
0.0
 93
        0
 94
      127
282
     0
 72
     0
 77
     0
171
     0
175
     0
179
     0
273
     0
  0
XRECORD
  5
4014
102
{ACAD_REACTORS
330
4013
102
}
330
4013
100
AcDbXrecord
102
MATERIAL
148
0.0
149
0.0
149
0.0
 93
        0
 94
      127
282
     0
 72
     0
 77
     0
171
     0
175
     0
179
     0
273
     0
  0
XRECORD
  5
4016
102
{ACAD_REACTORS
330
4015
102
}
330
4015
100
AcDbXrecord
102
MATERIAL
148
0.0
149
0.0
149
0.0
 93
        0
 94
      127
282
     0
 72
     0
 77
     0
171
     0
175
     0
179
     0
273
     0
  0
ENDSEC
  0
EOF
