  0
SECTION
  2
HEADER
  9
$ACADVER
  1
AC1009
  9
$DWGCODEPAGE
  3
ansi_932
  9
$INSBASE
 10
0.0
 20
0.0
 30
0.0
  9
$EXTMIN
 10
-35.5980559652228
 20
-299.6052010549712
 30
0.0
  9
$EXTMAX
 10
162.2637895097208
 20
-61.53817516809269
 30
0.0
  9
$LIMMIN
 10
0.0
 20
0.0
  9
$LIMMAX
 10
420.0
 20
297.0
  9
$ORTHOMODE
 70
     0
  9
$REGENMODE
 70
     1
  9
$FILLMODE
 70
     1
  9
$QTEXTMODE
 70
     0
  9
$MIRRTEXT
 70
     1
  9
$DRAGMODE
 70
     2
  9
$LTSCALE
 40
0.5
  9
$OSMODE
 70
 14591
  9
$ATTMODE
 70
     1
  9
$TEXTSIZE
 40
4.0
  9
$TRACEWID
 40
1.0
  9
$TEXTSTYLE
  7
STANDARD
  9
$CLAYER
  8
1TEXT
  9
$CELTYPE
  6
BYLAYER
  9
$CECOLOR
 62
   256
  9
$DIMSCALE
 40
1.0
  9
$DIMASZ
 40
2.0
  9
$DIMEXO
 40
0.0
  9
$DIMDLI
 40
7.0
  9
$DIMRND
 40
0.0
  9
$DIMDLE
 40
0.0
  9
$DIMEXE
 40
1.0
  9
$DIMTP
 40
0.0
  9
$DIMTM
 40
0.0
  9
$DIMTXT
 40
3.5
  9
$DIMCEN
 40
0.0
  9
$DIMTSZ
 40
0.0
  9
$DIMTOL
 70
     0
  9
$DIMLIM
 70
     0
  9
$DIMTIH
 70
     0
  9
$DIMTOH
 70
     0
  9
$DIMSE1
 70
     0
  9
$DIMSE2
 70
     0
  9
$DIMTAD
 70
     1
  9
$DIMZIN
 70
     8
  9
$DIMBLK
  1

  9
$DIMASO
 70
     1
  9
$DIMSHO
 70
     1
  9
$DIMPOST
  1
 
  9
$DIMAPOST
  1

  9
$DIMALT
 70
     0
  9
$DIMALTD
 70
     2
  9
$DIMALTF
 40
25.4
  9
$DIMLFAC
 40
1.0
  9
$DIMTOFL
 70
     1
  9
$DIMTVP
 40
0.0
  9
$DIMTIX
 70
     0
  9
$DIMSOXD
 70
     0
  9
$DIMSAH
 70
     1
  9
$DIMBLK1
  1
OPEN30
  9
$DIMBLK2
  1
OPEN30
  9
$DIMSTYLE
  2
NEWX10
  9
$DIMCLRD
 70
   256
  9
$DIMCLRE
 70
   256
  9
$DIMCLRT
 70
   201
  9
$DIMTFAC
 40
0.7
  9
$DIMGAP
 40
0.7
  9
$LUNITS
 70
     2
  9
$LUPREC
 70
     4
  9
$SKETCHINC
 40
1.0
  9
$FILLETRAD
 40
0.0
  9
$AUNITS
 70
     0
  9
$AUPREC
 70
     2
  9
$MENU
  1
acad
  9
$ELEVATION
 40
0.0
  9
$PELEVATION
 40
0.0
  9
$THICKNESS
 40
0.0
  9
$LIMCHECK
 70
     0
  9
$CHAMFERA
 40
10.0
  9
$CHAMFERB
 40
10.0
  9
$SKPOLY
 70
     0
  9
$TDCREATE
 40
2453643.566961979
  9
$TDUPDATE
 40
2459824.412122662
  9
$TDINDWG
 40
0.1695053241
  9
$TDUSRTIMER
 40
0.1695053241
  9
$USRTIMER
 70
     1
  9
$ANGBASE
 50
0.0
  9
$ANGDIR
 70
     0
  9
$PDMODE
 70
     0
  9
$PDSIZE
 40
0.0
  9
$PLINEWID
 40
0.0
  9
$COORDS
 70
     2
  9
$SPLFRAME
 70
     0
  9
$SPLINETYPE
 70
     6
  9
$SPLINESEGS
 70
     8
  9
$ATTDIA
 70
     0
  9
$ATTREQ
 70
     1
  9
$HANDLING
 70
     1
  9
$HANDSEED
  5
3AE0
  9
$SURFTAB1
 70
     6
  9
$SURFTAB2
 70
     6
  9
$SURFTYPE
 70
     6
  9
$SURFU
 70
     6
  9
$SURFV
 70
     6
  9
$UCSNAME
  2

  9
$UCSORG
 10
0.0
 20
0.0
 30
0.0
  9
$UCSXDIR
 10
1.0
 20
0.0
 30
0.0
  9
$UCSYDIR
 10
0.0
 20
1.0
 30
0.0
  9
$PUCSNAME
  2

  9
$PUCSORG
 10
0.0
 20
0.0
 30
0.0
  9
$PUCSXDIR
 10
1.0
 20
0.0
 30
0.0
  9
$PUCSYDIR
 10
0.0
 20
1.0
 30
0.0
  9
$USERI1
 70
     0
  9
$USERI2
 70
     0
  9
$USERI3
 70
     0
  9
$USERI4
 70
     0
  9
$USERI5
 70
     0
  9
$USERR1
 40
0.0
  9
$USERR2
 40
0.0
  9
$USERR3
 40
0.0
  9
$USERR4
 40
0.0
  9
$USERR5
 40
0.0
  9
$WORLDVIEW
 70
     1
  9
$SHADEDGE
 70
     3
  9
$SHADEDIF
 70
    70
  9
$TILEMODE
 70
     1
  9
$MAXACTVP
 70
    48
  9
$PLIMCHECK
 70
     0
  9
$PEXTMIN
 10
1.000000000000000E+20
 20
1.000000000000000E+20
 30
1.000000000000000E+20
  9
$PEXTMAX
 10
-1.000000000000000E+20
 20
-1.000000000000000E+20
 30
-1.000000000000000E+20
  9
$PLIMMIN
 10
0.0
 20
0.0
  9
$PLIMMAX
 10
420.0
 20
297.0
  9
$UNITMODE
 70
     0
  9
$VISRETAIN
 70
     1
  9
$PLINEGEN
 70
     0
  9
$PSLTSCALE
 70
     1
  0
ENDSEC
  0
SECTION
  2
TABLES
  0
TABLE
  2
VPORT
 70
     1
  0
VPORT
  2
*ACTIVE
 70
     0
 10
0.0
 20
0.0
 11
1.0
 21
1.0
 12
63.33286677224901
 22
-180.571688111532
 13
0.0
 23
0.0
 14
10.0
 24
10.0
 15
10.0
 25
10.0
 16
0.0
 26
0.0
 36
1.0
 17
0.0
 27
0.0
 37
0.0
 40
255.6088067417012
 41
1.866585067319461
 42
50.0
 43
0.0
 44
0.0
 50
0.0
 51
0.0
 71
     0
 72
  1000
 73
     1
 74
     1
 75
     0
 76
     0
 77
     0
 78
     0
  0
ENDTAB
  0
TABLE
  2
LTYPE
 70
    12
  0
LTYPE
  2
CONTINUOUS
 70
     0
  3
Solid line
 72
    65
 73
     0
 40
0.0
  0
LTYPE
  2
CENTER2
 70
     0
  3
Center (.5x) ___ _ ___ _ ___ _ ___ _ ___ _ ___
 72
    65
 73
     4
 40
28.575
 49
19.05
 49
-3.175
 49
3.175
 49
-3.175
  0
LTYPE
  2
HIDDEN
 70
     0
  3
Hidden __ __ __ __ __ __ __ __ __ __ __ __ __ _
 72
    65
 73
     2
 40
9.524999999999999
 49
6.35
 49
-3.175
  0
LTYPE
  2
PHANTOM2
 70
     0
  3
Phantom (0.5x) ___ _ _ ___ _ _ ___ _ _ ___ _ _
 72
    65
 73
     6
 40
31.75
 49
15.875
 49
-3.175
 49
3.175
 49
-3.175
 49
3.175
 49
-3.175
  0
LTYPE
  2
DASHED2
 70
     0
  3
Dashed (0.5x) _ _ _ _ _ _ _ _ _ _ _ _ _ _ _ _ _
 72
    65
 73
     2
 40
9.524999999999999
 49
6.35
 49
-3.175
  0
ENDTAB
  0
TABLE
  2
LAYER
 70
    38
  0
LAYER
  2
0
 70
     0
 62
     7
  6
CONTINUOUS
  0
LAYER
  2
1CENTER
 70
     0
 62
     7
  6
CENTER2
  0
LAYER
  2
1TEXT
 70
     0
 62
     7
  6
CONTINUOUS
  0
LAYER
  2
2VIEWPORT
 70
     0
 62
    -7
  6
CONTINUOUS
  0
LAYER
  2
1DIM
 70
     0
 62
     7
  6
CONTINUOUS
  0
LAYER
  2
1HIDDEN
 70
     0
 62
     7
  6
HIDDEN
  0
LAYER
  2
1PHANTOM
 70
     0
 62
     7
  6
PHANTOM2
  0
LAYER
  2
1HATCH
 70
     0
 62
     7
  6
CONTINUOUS
  0
LAYER
  2
ZZ
 70
     0
 62
    -7
  6
CONTINUOUS
  0
LAYER
  2
ZZXX
 70
     0
 62
     7
  6
DASHED2
  0
LAYER
  2
01
 70
     0
 62
     1
  6
CONTINUOUS
  0
LAYER
  2
02
 70
     0
 62
     7
  6
CONTINUOUS
  0
LAYER
  2
11
 70
     0
 62
     7
  6
CONTINUOUS
  0
LAYER
  2
POINT
 70
     0
 62
     7
  6
CONTINUOUS
  0
ENDTAB
  0
TABLE
  2
STYLE
 70
    19
  0
STYLE
  2
STANDARD
 70
     0
 40
0.0
 41
1.0
 50
0.0
 71
     0
 42
4.0
  3
txt.shx
  4
extfont.shx
  0
ENDTAB
  0
TABLE
  2
VIEW
 70
     0
  0
ENDTAB
  0
TABLE
  2
UCS
 70
     0
  0
ENDTAB
  0
TABLE
  2
APPID
 70
    16
  0
APPID
  2
ACAD
 70
     0
  0
APPID
  2
DRAWINGVARIABLESXDATA
 70
     0
  0
APPID
  2
CONTENTTABDATA
 70
     0
  0
APPID
  2
CONTENTCURRENTTAB
 70
     0
  0
APPID
  2
CONTENTBLOCKDESCRIPTION
 70
     0
  0
APPID
  2
CONTENTBLOCKICON
 70
     0
  0
APPID
  2
CONTENTLONGBLOCKNAME
 70
     0
  0
APPID
  2
ACAD_PSEXT
 70
     0
  0
APPID
  2
ACAD_DSTYLE_DIMTEXT_FILL
 70
     0
  0
APPID
  2
ACAD_MLEADERVER
 70
     0
  0
APPID
  2
ACDBBLOCKREPETAG
 70
     0
  0
APPID
  2
ACADANNOTATIVE
 70
     0
  0
APPID
  2
ACLAYERTOOLS
 70
     0
  0
APPID
  2
ACAD_DSTYLE_DIMJOGGED_JOGA
 70
     0
  0
APPID
  2
ACAD_NAV_VCDISPLAY
 70
     0
  0
APPID
  2
ACAD_EXEMPT_FROM_CAD_STAND
 70
     0
  0
ENDTAB
  0
TABLE
  2
DIMSTYLE
 70
     2
  0
DIMSTYLE
  2
NEWX10
 70
     0
  3
 
  4

  5

  6
OPEN30
  7
OPEN30
 40
1.0
 41
2.0
 42
0.0
 43
7.0
 44
1.0
 45
0.0
 46
0.0
 47
0.0
 48
0.0
140
3.5
141
0.0
142
0.0
143
25.4
144
1.0
145
0.0
146
0.7
147
0.7
 71
     0
 72
     0
 73
     0
 74
     0
 75
     0
 76
     0
 77
     1
 78
     8
170
     0
171
     2
172
     1
173
     1
174
     0
175
     0
176
   256
177
   256
178
   201
  0
ENDTAB
  0
ENDSEC
  0
SECTION
  2
BLOCKS
  0
BLOCK
  8
0
  2
$MODEL_SPACE
 70
     0
 10
0.0
 20
0.0
 30
0.0
  3
$MODEL_SPACE
  1

  0
ENDBLK
  5
1A
  8
0
  0
BLOCK
 67
     1
  8
0
  2
$PAPER_SPACE
 70
     0
 10
0.0
 20
0.0
 30
0.0
  3
$PAPER_SPACE
  1

  0
ENDBLK
  5
17
 67
     1
  8
0
  0
BLOCK
  8
0
  2
_OPEN30
 70
     0
 10
0.0
 20
0.0
 30
0.0
  3
_OPEN30
  1

  0
LINE
  5
44
  8
0
  6
BYBLOCK
 62
     0
 10
-1.0
 20
0.26794919
 30
0.0
 11
0.0
 21
0.0
 31
0.0
  0
LINE
  5
45
  8
0
  6
BYBLOCK
 62
     0
 10
0.0
 20
0.0
 30
0.0
 11
-1.0
 21
-0.26794919
 31
0.0
  0
LINE
  5
46
  8
0
  6
BYBLOCK
 62
     0
 10
0.0
 20
0.0
 30
0.0
 11
-1.0
 21
0.0
 31
0.0
  0
ENDBLK
  5
47
  8
0
  0
BLOCK
  8
0
  2
A3WAKUKAWAJUN2017_HYOUDAI
 70
     0
 10
0.0
 20
0.0
 30
0.0
  3
A3WAKUKAWAJUN2017_HYOUDAI
  1

  0
POINT
  5
2F2A
  8
ZZ
 10
29.99996683129098
 20
11.62499999999994
 30
0.0
  0
POINT
  5
2F2B
  8
ZZ
 10
119.9999668312911
 20
11.62499999999994
 30
0.0
  0
POINT
  5
2F2C
  8
ZZ
 10
79.99996683129098
 20
11.62499999999994
 30
0.0
  0
POINT
  5
2F2D
  8
ZZ
 10
29.99996683129098
 20
17.87498398544398
 30
0.0
  0
POINT
  5
2F2E
  8
ZZ
 10
119.9999668312911
 20
17.87498398544398
 30
0.0
  0
POINT
  5
2F2F
  8
ZZ
 10
79.99996683129098
 20
17.87498398544398
 30
0.0
  0
LINE
  5
2F30
  8
0
  6
BYBLOCK
 62
     0
 10
102.499966831291
 20
14.74998398544398
 30
0.0
 11
137.4999668312911
 21
14.74998398544398
 31
0.0
  0
LINE
  5
2F31
  8
0
  6
BYBLOCK
 62
     0
 10
62.49996683129098
 20
14.74998398544398
 30
0.0
 11
97.49996683129098
 21
14.74998398544398
 31
0.0
  0
LINE
  5
2F32
  8
0
  6
BYBLOCK
 62
     0
 10
2.499966831290976
 20
14.74998398544398
 30
0.0
 11
57.49996683129098
 21
14.74998398544398
 31
0.0
  0
POINT
  5
2F33
  8
ZZ
 10
113.4999314062867
 20
4.249967970888008
 30
0.0
  0
POINT
  5
2F34
  8
ZZXX
 10
129.9999645749957
 20
4.249983985443976
 30
0.0
  0
LINE
  5
2F35
  8
0
  6
BYBLOCK
 62
     0
 10
119.9999668312911
 20
-0.000016014555996
 30
0.0
 11
119.9999668312911
 21
8.499983985443976
 31
0.0
  0
LINE
  5
2F36
  8
0
  6
BYBLOCK
 62
     0
 10
64.0
 20
6.750000000000057
 30
0.0
 11
64.0
 21
1.750000000000057
 31
0.0
1001
ACDBBLOCKREPETAG
1070
     1
1071
       46
1005
0
  0
LINE
  5
2F37
  8
0
  6
BYBLOCK
 62
     0
 10
66.5
 20
4.250000000000057
 30
0.0
 11
61.5
 21
4.250000000000057
 31
0.0
1001
ACDBBLOCKREPETAG
1070
     1
1071
       45
1005
0
  0
LINE
  5
2F38
  8
0
  6
BYBLOCK
 62
     0
 10
74.0
 20
4.250000000000057
 30
0.0
 11
68.0
 21
4.250000000000057
 31
0.0
1001
ACDBBLOCKREPETAG
1070
     1
1071
       42
1005
0
  0
LINE
  5
2F39
  8
11
 10
73.0
 20
2.650000000000091
 30
0.0
 11
69.0
 21
3.250000000000114
 31
0.0
1001
ACDBBLOCKREPETAG
1070
     1
1071
       41
1005
0
  0
LINE
  5
2F3A
  8
11
 10
73.0
 20
5.85000000000008
 30
0.0
 11
69.0
 21
5.250000000000114
 31
0.0
1001
ACDBBLOCKREPETAG
1070
     1
1071
       40
1005
0
  0
LINE
  5
2F3B
  8
11
 10
73.0
 20
5.85000000000008
 30
0.0
 11
73.0
 21
2.650000000000091
 31
0.0
1001
ACDBBLOCKREPETAG
1070
     1
1071
       39
1005
0
  0
LINE
  5
2F3C
  8
11
 10
69.0
 20
5.250000000000114
 30
0.0
 11
69.0
 21
3.250000000000114
 31
0.0
1001
ACDBBLOCKREPETAG
1070
     1
1071
       38
1005
0
  0
CIRCLE
  5
2F3D
  8
11
 10
64.0
 20
4.250000000000057
 30
0.0
 40
1.6
1001
ACDBBLOCKREPETAG
1070
     1
1071
       37
1005
0
  0
CIRCLE
  5
2F3E
  8
11
 10
64.0
 20
4.250000000000057
 30
0.0
 40
1.0
1001
ACDBBLOCKREPETAG
1070
     1
1071
       36
1005
0
  0
LINE
  5
2F3F
  8
0
  6
BYBLOCK
 62
     0
 10
100.0
 20
4.999999999999943
 30
0.0
 11
75.0
 21
4.999999999999943
 31
0.0
1001
ACDBBLOCKREPETAG
1070
     1
1071
       11
1005
0
  0
LINE
  5
2F40
  8
11
 10
87.5
 20
8.499999999999943
 30
0.0
 11
87.5
 21
0.0
 31
0.0
1001
ACDBBLOCKREPETAG
1070
     1
1071
       16
1005
0
  0
LINE
  5
2F41
  8
11
 10
75.0
 20
8.499999999999943
 30
0.0
 11
75.0
 21
0.0
 31
0.0
1001
ACDBBLOCKREPETAG
1070
     1
1071
       16
1005
0
  0
LINE
  5
2F42
  8
0
  6
BYBLOCK
 62
   252
 10
139.9999999999999
 20
0.0000000000000568
 30
0.0
 11
0.0
 21
0.0
 31
0.0
1001
ACDBBLOCKREPETAG
1070
     1
1071
        8
1005
0
  0
LINE
  5
2F43
  8
0
  6
BYBLOCK
 62
   252
 10
139.9999999999999
 20
25.0
 30
0.0
 11
139.9999999999999
 21
0.0000000000000568
 31
0.0
1001
ACDBBLOCKREPETAG
1070
     1
1071
       15
1005
0
  0
INSERT
  5
2F44
  8
0
  2
A3WAKUKAWAJUN2017_HYOUDAI_
 10
5.800665508181964
 20
1.726960470783808
 30
0.0
 41
0.6
 42
0.6
 43
0.6
1001
ACDBBLOCKREPETAG
1070
     1
1071
       50
1005
0
  0
POINT
  5
2F45
  8
0
  6
BYBLOCK
 62
     0
 10
139.9999999999999
 20
0.0
 30
0.0
1001
ACDBBLOCKREPETAG
1070
     1
1071
       19
1005
0
  0
LINE
  5
2F46
  8
11
 10
100.0
 20
24.99999999999994
 30
0.0
 11
100.0
 21
0.0
 31
0.0
1001
ACDBBLOCKREPETAG
1070
     1
1071
       18
1005
0
  0
LINE
  5
2F47
  8
11
 10
60.0
 20
25.0
 30
0.0
 11
60.0
 21
0.0
 31
0.0
1001
ACDBBLOCKREPETAG
1070
     1
1071
       16
1005
0
  0
LINE
  5
2F48
  8
0
  6
BYBLOCK
 62
   252
 10
0.0
 20
24.99999999999994
 30
0.0
 11
0.0
 21
0.0
 31
0.0
1001
ACDBBLOCKREPETAG
1070
     1
1071
       15
1005
0
  0
LINE
  5
2F49
  8
11
 10
139.9999999999999
 20
8.499999999999943
 30
0.0
 11
0.0
 21
8.499999999999943
 31
0.0
1001
ACDBBLOCKREPETAG
1070
     1
1071
       11
1005
0
  0
LINE
  5
2F4A
  8
0
  6
BYBLOCK
 62
     0
 10
139.9999999999999
 20
21.00000000000006
 30
0.0
 11
0.0
 21
20.99999999999994
 31
0.0
1001
ACDBBLOCKREPETAG
1070
     1
1071
        9
1005
0
  0
LINE
  5
2F4B
  8
0
  6
BYBLOCK
 62
   252
 10
139.9999999999999
 20
25.0
 30
0.0
 11
0.0
 21
24.99999999999994
 31
0.0
1001
ACDBBLOCKREPETAG
1070
     1
1071
        8
1005
0
  0
POINT
  5
2F4C
  8
ZZ
 10
93.75
 20
2.499999999999972
 30
0.0
  0
POINT
  5
2F4D
  8
ZZ
 10
81.25
 20
2.499999999999972
 30
0.0
  0
POLYLINE
  5
2F4E
  8
11
 66
     1
 10
0.0
 20
0.0
 30
0.0
  0
VERTEX
  5
2F4F
  8
1DIM
 10
27.97142857142853
 20
23.04761904761905
 30
0.0
  0
VERTEX
  5
2F50
  8
1DIM
 10
27.78095238095239
 20
23.23809523809524
 30
0.0
  0
VERTEX
  5
2F51
  8
1DIM
 10
27.59047619047612
 20
23.33333333333333
 30
0.0
  0
VERTEX
  5
2F52
  8
1DIM
 10
27.3047619047619
 20
23.33333333333333
 30
0.0
  0
VERTEX
  5
2F53
  8
1DIM
 10
27.11428571428576
 20
23.23809523809524
 30
0.0
  0
VERTEX
  5
2F54
  8
1DIM
 10
26.9238095238095
 20
23.04761904761905
 30
0.0
  0
VERTEX
  5
2F55
  8
1DIM
 10
26.82857142857142
 20
22.76190476190477
 30
0.0
  0
VERTEX
  5
2F56
  8
1DIM
 10
26.82857142857142
 20
22.57142857142858
 30
0.0
  0
VERTEX
  5
2F57
  8
1DIM
 10
26.9238095238095
 20
22.28571428571429
 30
0.0
  0
VERTEX
  5
2F58
  8
1DIM
 10
27.11428571428576
 20
22.0952380952381
 30
0.0
  0
VERTEX
  5
2F59
  8
1DIM
 10
27.3047619047619
 20
22.0
 30
0.0
  0
VERTEX
  5
2F5A
  8
1DIM
 10
27.59047619047612
 20
22.0
 30
0.0
  0
VERTEX
  5
2F5B
  8
1DIM
 10
27.78095238095239
 20
22.0952380952381
 30
0.0
  0
VERTEX
  5
2F5C
  8
1DIM
 10
27.97142857142853
 20
22.28571428571429
 30
0.0
  0
SEQEND
  5
2F5D
  8
11
  0
POLYLINE
  5
2F5E
  8
11
 66
     1
 10
0.0
 20
0.0
 30
0.0
  0
VERTEX
  5
2F5F
  8
1DIM
 10
79.2380952380953
 20
22.0
 30
0.0
  0
VERTEX
  5
2F60
  8
1DIM
 10
79.2380952380953
 20
23.33333333333333
 30
0.0
  0
SEQEND
  5
2F61
  8
11
  0
POLYLINE
  5
2F62
  8
11
 66
     1
 10
0.0
 20
0.0
 30
0.0
  0
VERTEX
  5
2F63
  8
1DIM
 10
38.21904761904761
 20
22.95238095238096
 30
0.0
  0
VERTEX
  5
2F64
  8
1DIM
 10
38.50476190476195
 20
23.23809523809524
 30
0.0
  0
VERTEX
  5
2F65
  8
1DIM
 10
38.6952380952381
 20
23.33333333333333
 30
0.0
  0
VERTEX
  5
2F66
  8
1DIM
 10
38.98095238095243
 20
23.33333333333333
 30
0.0
  0
VERTEX
  5
2F67
  8
1DIM
 10
39.17142857142858
 20
23.23809523809524
 30
0.0
  0
VERTEX
  5
2F68
  8
1DIM
 10
39.26666666666665
 20
22.95238095238096
 30
0.0
  0
VERTEX
  5
2F69
  8
1DIM
 10
39.26666666666665
 20
22.0
 30
0.0
  0
SEQEND
  5
2F6A
  8
11
  0
POLYLINE
  5
2F6B
  8
11
 66
     1
 10
0.0
 20
0.0
 30
0.0
  0
VERTEX
  5
2F6C
  8
1DIM
 10
27.97142857142853
 20
22.0
 30
0.0
  0
VERTEX
  5
2F6D
  8
1DIM
 10
27.97142857142853
 20
24.0
 30
0.0
  0
SEQEND
  5
2F6E
  8
11
  0
POLYLINE
  5
2F6F
  8
11
 66
     1
 10
0.0
 20
0.0
 30
0.0
  0
VERTEX
  5
2F70
  8
1DIM
 10
32.82857142857142
 20
22.0
 30
0.0
  0
VERTEX
  5
2F71
  8
1DIM
 10
32.63809523809527
 20
22.0
 30
0.0
  0
VERTEX
  5
2F72
  8
1DIM
 10
32.44761904761901
 20
22.0952380952381
 30
0.0
  0
VERTEX
  5
2F73
  8
1DIM
 10
32.35238095238094
 20
22.38095238095238
 30
0.0
  0
VERTEX
  5
2F74
  8
1DIM
 10
32.35238095238094
 20
24.0
 30
0.0
  0
SEQEND
  5
2F75
  8
11
  0
POLYLINE
  5
2F76
  8
11
 66
     1
 10
0.0
 20
0.0
 30
0.0
  0
VERTEX
  5
2F77
  8
1DIM
 10
37.4571428571428
 20
22.0
 30
0.0
  0
VERTEX
  5
2F78
  8
1DIM
 10
37.4571428571428
 20
23.33333333333333
 30
0.0
  0
SEQEND
  5
2F79
  8
11
  0
POLYLINE
  5
2F7A
  8
11
 66
     1
 10
0.0
 20
0.0
 30
0.0
  0
VERTEX
  5
2F7B
  8
1DIM
 10
29.78095238095239
 20
22.0
 30
0.0
  0
VERTEX
  5
2F7C
  8
1DIM
 10
29.78095238095239
 20
23.33333333333333
 30
0.0
  0
SEQEND
  5
2F7D
  8
11
  0
POLYLINE
  5
2F7E
  8
11
 66
     1
 10
0.0
 20
0.0
 30
0.0
  0
VERTEX
  5
2F7F
  8
1DIM
 10
31.59047619047612
 20
22.28571428571429
 30
0.0
  0
VERTEX
  5
2F80
  8
1DIM
 10
31.39999999999998
 20
22.0952380952381
 30
0.0
  0
VERTEX
  5
2F81
  8
1DIM
 10
31.20952380952383
 20
22.0
 30
0.0
  0
VERTEX
  5
2F82
  8
1DIM
 10
30.9238095238095
 20
22.0
 30
0.0
  0
VERTEX
  5
2F83
  8
1DIM
 10
30.73333333333335
 20
22.0952380952381
 30
0.0
  0
VERTEX
  5
2F84
  8
1DIM
 10
30.54285714285709
 20
22.28571428571429
 30
0.0
  0
VERTEX
  5
2F85
  8
1DIM
 10
30.44761904761901
 20
22.57142857142858
 30
0.0
  0
VERTEX
  5
2F86
  8
1DIM
 10
30.44761904761901
 20
22.76190476190477
 30
0.0
  0
VERTEX
  5
2F87
  8
1DIM
 10
30.54285714285709
 20
23.04761904761905
 30
0.0
  0
VERTEX
  5
2F88
  8
1DIM
 10
30.73333333333335
 20
23.23809523809524
 30
0.0
  0
VERTEX
  5
2F89
  8
1DIM
 10
30.9238095238095
 20
23.33333333333333
 30
0.0
  0
VERTEX
  5
2F8A
  8
1DIM
 10
31.20952380952383
 20
23.33333333333333
 30
0.0
  0
VERTEX
  5
2F8B
  8
1DIM
 10
31.39999999999998
 20
23.23809523809524
 30
0.0
  0
VERTEX
  5
2F8C
  8
1DIM
 10
31.59047619047612
 20
23.04761904761905
 30
0.0
  0
SEQEND
  5
2F8D
  8
11
  0
POLYLINE
  5
2F8E
  8
11
 66
     1
 10
0.0
 20
0.0
 30
0.0
  0
VERTEX
  5
2F8F
  8
1DIM
 10
39.26666666666665
 20
22.95238095238096
 30
0.0
  0
VERTEX
  5
2F90
  8
1DIM
 10
39.55238095238099
 20
23.23809523809524
 30
0.0
  0
VERTEX
  5
2F91
  8
1DIM
 10
39.74285714285713
 20
23.33333333333333
 30
0.0
  0
VERTEX
  5
2F92
  8
1DIM
 10
40.02857142857147
 20
23.33333333333333
 30
0.0
  0
VERTEX
  5
2F93
  8
1DIM
 10
40.21904761904761
 20
23.23809523809524
 30
0.0
  0
VERTEX
  5
2F94
  8
1DIM
 10
40.31428571428569
 20
22.95238095238096
 30
0.0
  0
VERTEX
  5
2F95
  8
1DIM
 10
40.31428571428569
 20
22.0
 30
0.0
  0
SEQEND
  5
2F96
  8
11
  0
POLYLINE
  5
2F97
  8
11
 66
     1
 10
0.0
 20
0.0
 30
0.0
  0
VERTEX
  5
2F98
  8
1DIM
 10
40.98095238095243
 20
22.76190476190477
 30
0.0
  0
VERTEX
  5
2F99
  8
1DIM
 10
42.12380952380954
 20
22.76190476190477
 30
0.0
  0
VERTEX
  5
2F9A
  8
1DIM
 10
42.12380952380954
 20
22.95238095238096
 30
0.0
  0
VERTEX
  5
2F9B
  8
1DIM
 10
42.02857142857147
 20
23.14285714285714
 30
0.0
  0
VERTEX
  5
2F9C
  8
1DIM
 10
41.93333333333328
 20
23.23809523809524
 30
0.0
  0
VERTEX
  5
2F9D
  8
1DIM
 10
41.74285714285713
 20
23.33333333333333
 30
0.0
  0
VERTEX
  5
2F9E
  8
1DIM
 10
41.45714285714291
 20
23.33333333333333
 30
0.0
  0
VERTEX
  5
2F9F
  8
1DIM
 10
41.26666666666665
 20
23.23809523809524
 30
0.0
  0
VERTEX
  5
2FA0
  8
1DIM
 10
41.0761904761905
 20
23.04761904761905
 30
0.0
  0
VERTEX
  5
2FA1
  8
1DIM
 10
40.98095238095243
 20
22.76190476190477
 30
0.0
  0
VERTEX
  5
2FA2
  8
1DIM
 10
40.98095238095243
 20
22.57142857142858
 30
0.0
  0
VERTEX
  5
2FA3
  8
1DIM
 10
41.0761904761905
 20
22.28571428571429
 30
0.0
  0
VERTEX
  5
2FA4
  8
1DIM
 10
41.26666666666665
 20
22.0952380952381
 30
0.0
  0
VERTEX
  5
2FA5
  8
1DIM
 10
41.45714285714291
 20
22.0
 30
0.0
  0
VERTEX
  5
2FA6
  8
1DIM
 10
41.74285714285713
 20
22.0
 30
0.0
  0
VERTEX
  5
2FA7
  8
1DIM
 10
41.93333333333328
 20
22.0952380952381
 30
0.0
  0
VERTEX
  5
2FA8
  8
1DIM
 10
42.12380952380954
 20
22.28571428571429
 30
0.0
  0
SEQEND
  5
2FA9
  8
11
  0
POLYLINE
  5
2FAA
  8
11
 66
     1
 10
0.0
 20
0.0
 30
0.0
  0
VERTEX
  5
2FAB
  8
1DIM
 10
28.73333333333335
 20
23.33333333333333
 30
0.0
  0
VERTEX
  5
2FAC
  8
1DIM
 10
28.73333333333335
 20
22.38095238095238
 30
0.0
  0
VERTEX
  5
2FAD
  8
1DIM
 10
28.82857142857142
 20
22.0952380952381
 30
0.0
  0
VERTEX
  5
2FAE
  8
1DIM
 10
29.01904761904757
 20
22.0
 30
0.0
  0
VERTEX
  5
2FAF
  8
1DIM
 10
29.3047619047619
 20
22.0
 30
0.0
  0
VERTEX
  5
2FB0
  8
1DIM
 10
29.49523809523805
 20
22.0952380952381
 30
0.0
  0
VERTEX
  5
2FB1
  8
1DIM
 10
29.78095238095239
 20
22.38095238095238
 30
0.0
  0
SEQEND
  5
2FB2
  8
11
  0
POLYLINE
  5
2FB3
  8
11
 66
     1
 10
0.0
 20
0.0
 30
0.0
  0
VERTEX
  5
2FB4
  8
1DIM
 10
38.21904761904761
 20
22.0
 30
0.0
  0
VERTEX
  5
2FB5
  8
1DIM
 10
38.21904761904761
 20
23.33333333333333
 30
0.0
  0
SEQEND
  5
2FB6
  8
11
  0
POLYLINE
  5
2FB7
  8
11
 66
     1
 10
0.0
 20
0.0
 30
0.0
  0
VERTEX
  5
2FB8
  8
1DIM
 10
37.4571428571428
 20
23.04761904761905
 30
0.0
  0
VERTEX
  5
2FB9
  8
1DIM
 10
37.26666666666665
 20
23.23809523809524
 30
0.0
  0
VERTEX
  5
2FBA
  8
1DIM
 10
37.0761904761905
 20
23.33333333333333
 30
0.0
  0
VERTEX
  5
2FBB
  8
1DIM
 10
36.79047619047617
 20
23.33333333333333
 30
0.0
  0
VERTEX
  5
2FBC
  8
1DIM
 10
36.60000000000002
 20
23.23809523809524
 30
0.0
  0
VERTEX
  5
2FBD
  8
1DIM
 10
36.40952380952376
 20
23.04761904761905
 30
0.0
  0
VERTEX
  5
2FBE
  8
1DIM
 10
36.31428571428569
 20
22.76190476190477
 30
0.0
  0
VERTEX
  5
2FBF
  8
1DIM
 10
36.31428571428569
 20
22.57142857142858
 30
0.0
  0
VERTEX
  5
2FC0
  8
1DIM
 10
36.40952380952376
 20
22.28571428571429
 30
0.0
  0
VERTEX
  5
2FC1
  8
1DIM
 10
36.60000000000002
 20
22.0952380952381
 30
0.0
  0
VERTEX
  5
2FC2
  8
1DIM
 10
36.79047619047617
 20
22.0
 30
0.0
  0
VERTEX
  5
2FC3
  8
1DIM
 10
37.0761904761905
 20
22.0
 30
0.0
  0
VERTEX
  5
2FC4
  8
1DIM
 10
37.26666666666665
 20
22.0952380952381
 30
0.0
  0
VERTEX
  5
2FC5
  8
1DIM
 10
37.4571428571428
 20
22.28571428571429
 30
0.0
  0
SEQEND
  5
2FC6
  8
11
  0
POLYLINE
  5
2FC7
  8
11
 66
     1
 10
0.0
 20
0.0
 30
0.0
  0
VERTEX
  5
2FC8
  8
1DIM
 10
80.0
 20
22.0
 30
0.0
  0
VERTEX
  5
2FC9
  8
1DIM
 10
80.0
 20
23.33333333333333
 30
0.0
  0
SEQEND
  5
2FCA
  8
11
  0
POLYLINE
  5
2FCB
  8
11
 66
     1
 10
0.0
 20
0.0
 30
0.0
  0
VERTEX
  5
2FCC
  8
1DIM
 10
32.06666666666661
 20
23.33333333333333
 30
0.0
  0
VERTEX
  5
2FCD
  8
1DIM
 10
32.73333333333335
 20
23.33333333333333
 30
0.0
  0
SEQEND
  5
2FCE
  8
11
  0
POLYLINE
  5
2FCF
  8
11
 66
     1
 10
0.0
 20
0.0
 30
0.0
  0
VERTEX
  5
2FD0
  8
1DIM
 10
34.60000000000002
 20
22.0
 30
0.0
  0
VERTEX
  5
2FD1
  8
1DIM
 10
34.60000000000002
 20
23.33333333333333
 30
0.0
  0
SEQEND
  5
2FD2
  8
11
  0
POLYLINE
  5
2FD3
  8
11
 66
     1
 10
0.0
 20
0.0
 30
0.0
  0
VERTEX
  5
2FD4
  8
1DIM
 10
93.27380952380952
 20
6.511904761904702
 30
0.0
  0
VERTEX
  5
2FD5
  8
1DIM
 10
94.41666666666663
 20
6.511904761904702
 30
0.0
  0
VERTEX
  5
2FD6
  8
1DIM
 10
94.41666666666663
 20
6.702380952380892
 30
0.0
  0
VERTEX
  5
2FD7
  8
1DIM
 10
94.32142857142856
 20
6.892857142857096
 30
0.0
  0
VERTEX
  5
2FD8
  8
1DIM
 10
94.22619047619048
 20
6.988095238095198
 30
0.0
  0
VERTEX
  5
2FD9
  8
1DIM
 10
94.03571428571433
 20
7.083333333333286
 30
0.0
  0
VERTEX
  5
2FDA
  8
1DIM
 10
93.75
 20
7.083333333333286
 30
0.0
  0
VERTEX
  5
2FDB
  8
1DIM
 10
93.55952380952374
 20
6.988095238095198
 30
0.0
  0
VERTEX
  5
2FDC
  8
1DIM
 10
93.36904761904759
 20
6.797619047619008
 30
0.0
  0
VERTEX
  5
2FDD
  8
1DIM
 10
93.27380952380952
 20
6.511904761904702
 30
0.0
  0
VERTEX
  5
2FDE
  8
1DIM
 10
93.27380952380952
 20
6.321428571428513
 30
0.0
  0
VERTEX
  5
2FDF
  8
1DIM
 10
93.36904761904759
 20
6.035714285714235
 30
0.0
  0
VERTEX
  5
2FE0
  8
1DIM
 10
93.55952380952374
 20
5.845238095238045
 30
0.0
  0
VERTEX
  5
2FE1
  8
1DIM
 10
93.75
 20
5.749999999999943
 30
0.0
  0
VERTEX
  5
2FE2
  8
1DIM
 10
94.03571428571433
 20
5.749999999999943
 30
0.0
  0
VERTEX
  5
2FE3
  8
1DIM
 10
94.22619047619048
 20
5.845238095238045
 30
0.0
  0
VERTEX
  5
2FE4
  8
1DIM
 10
94.41666666666663
 20
6.035714285714235
 30
0.0
  0
SEQEND
  5
2FE5
  8
11
  0
POLYLINE
  5
2FE6
  8
11
 66
     1
 10
0.0
 20
0.0
 30
0.0
  0
VERTEX
  5
2FE7
  8
1DIM
 10
34.60000000000002
 20
22.95238095238096
 30
0.0
  0
VERTEX
  5
2FE8
  8
1DIM
 10
34.88571428571424
 20
23.23809523809524
 30
0.0
  0
VERTEX
  5
2FE9
  8
1DIM
 10
35.0761904761905
 20
23.33333333333333
 30
0.0
  0
VERTEX
  5
2FEA
  8
1DIM
 10
35.36190476190473
 20
23.33333333333333
 30
0.0
  0
VERTEX
  5
2FEB
  8
1DIM
 10
35.55238095238099
 20
23.23809523809524
 30
0.0
  0
VERTEX
  5
2FEC
  8
1DIM
 10
35.64761904761906
 20
22.95238095238096
 30
0.0
  0
VERTEX
  5
2FED
  8
1DIM
 10
35.64761904761906
 20
22.0
 30
0.0
  0
SEQEND
  5
2FEE
  8
11
  0
POLYLINE
  5
2FEF
  8
11
 66
     1
 10
0.0
 20
0.0
 30
0.0
  0
VERTEX
  5
2FF0
  8
1DIM
 10
76.09523809523807
 20
22.0
 30
0.0
  0
VERTEX
  5
2FF1
  8
1DIM
 10
76.09523809523807
 20
24.0
 30
0.0
  0
VERTEX
  5
2FF2
  8
1DIM
 10
77.42857142857144
 20
22.0
 30
0.0
  0
VERTEX
  5
2FF3
  8
1DIM
 10
77.42857142857144
 20
24.0
 30
0.0
  0
SEQEND
  5
2FF4
  8
11
  0
POLYLINE
  5
2FF5
  8
11
 66
     1
 10
0.0
 20
0.0
 30
0.0
  0
VERTEX
  5
2FF6
  8
1DIM
 10
79.2380952380953
 20
23.04761904761905
 30
0.0
  0
VERTEX
  5
2FF7
  8
1DIM
 10
79.04761904761904
 20
23.23809523809524
 30
0.0
  0
VERTEX
  5
2FF8
  8
1DIM
 10
78.85714285714289
 20
23.33333333333333
 30
0.0
  0
VERTEX
  5
2FF9
  8
1DIM
 10
78.57142857142856
 20
23.33333333333333
 30
0.0
  0
VERTEX
  5
2FFA
  8
1DIM
 10
78.38095238095241
 20
23.23809523809524
 30
0.0
  0
VERTEX
  5
2FFB
  8
1DIM
 10
78.19047619047615
 20
23.04761904761905
 30
0.0
  0
VERTEX
  5
2FFC
  8
1DIM
 10
78.09523809523807
 20
22.76190476190477
 30
0.0
  0
VERTEX
  5
2FFD
  8
1DIM
 10
78.09523809523807
 20
22.57142857142858
 30
0.0
  0
VERTEX
  5
2FFE
  8
1DIM
 10
78.19047619047615
 20
22.28571428571429
 30
0.0
  0
VERTEX
  5
2FFF
  8
1DIM
 10
78.38095238095241
 20
22.0952380952381
 30
0.0
  0
VERTEX
  5
3000
  8
1DIM
 10
78.57142857142856
 20
22.0
 30
0.0
  0
VERTEX
  5
3001
  8
1DIM
 10
78.85714285714289
 20
22.0
 30
0.0
  0
VERTEX
  5
3002
  8
1DIM
 10
79.04761904761904
 20
22.0952380952381
 30
0.0
  0
VERTEX
  5
3003
  8
1DIM
 10
79.2380952380953
 20
22.28571428571429
 30
0.0
  0
SEQEND
  5
3004
  8
11
  0
POLYLINE
  5
3005
  8
11
 66
     1
 10
0.0
 20
0.0
 30
0.0
  0
VERTEX
  5
3006
  8
1DIM
 10
80.0
 20
22.95238095238096
 30
0.0
  0
VERTEX
  5
3007
  8
1DIM
 10
80.28571428571422
 20
23.23809523809524
 30
0.0
  0
VERTEX
  5
3008
  8
1DIM
 10
80.47619047619048
 20
23.33333333333333
 30
0.0
  0
VERTEX
  5
3009
  8
1DIM
 10
80.7619047619047
 20
23.33333333333333
 30
0.0
  0
VERTEX
  5
300A
  8
1DIM
 10
80.95238095238096
 20
23.23809523809524
 30
0.0
  0
VERTEX
  5
300B
  8
1DIM
 10
81.04761904761904
 20
22.95238095238096
 30
0.0
  0
VERTEX
  5
300C
  8
1DIM
 10
81.04761904761904
 20
22.0
 30
0.0
  0
SEQEND
  5
300D
  8
11
  0
POLYLINE
  5
300E
  8
11
 66
     1
 10
0.0
 20
0.0
 30
0.0
  0
VERTEX
  5
300F
  8
1DIM
 10
81.04761904761904
 20
22.95238095238096
 30
0.0
  0
VERTEX
  5
3010
  8
1DIM
 10
81.33333333333337
 20
23.23809523809524
 30
0.0
  0
VERTEX
  5
3011
  8
1DIM
 10
81.52380952380952
 20
23.33333333333333
 30
0.0
  0
VERTEX
  5
3012
  8
1DIM
 10
81.80952380952374
 20
23.33333333333333
 30
0.0
  0
VERTEX
  5
3013
  8
1DIM
 10
82.0
 20
23.23809523809524
 30
0.0
  0
VERTEX
  5
3014
  8
1DIM
 10
82.09523809523807
 20
22.95238095238096
 30
0.0
  0
VERTEX
  5
3015
  8
1DIM
 10
82.09523809523807
 20
22.0
 30
0.0
  0
SEQEND
  5
3016
  8
11
  0
POLYLINE
  5
3017
  8
11
 66
     1
 10
0.0
 20
0.0
 30
0.0
  0
VERTEX
  5
3018
  8
1DIM
 10
82.7619047619047
 20
22.76190476190477
 30
0.0
  0
VERTEX
  5
3019
  8
1DIM
 10
83.90476190476193
 20
22.76190476190477
 30
0.0
  0
VERTEX
  5
301A
  8
1DIM
 10
83.90476190476193
 20
22.95238095238096
 30
0.0
  0
VERTEX
  5
301B
  8
1DIM
 10
83.80952380952374
 20
23.14285714285714
 30
0.0
  0
VERTEX
  5
301C
  8
1DIM
 10
83.71428571428567
 20
23.23809523809524
 30
0.0
  0
VERTEX
  5
301D
  8
1DIM
 10
83.52380952380952
 20
23.33333333333333
 30
0.0
  0
VERTEX
  5
301E
  8
1DIM
 10
83.23809523809518
 20
23.33333333333333
 30
0.0
  0
VERTEX
  5
301F
  8
1DIM
 10
83.04761904761904
 20
23.23809523809524
 30
0.0
  0
VERTEX
  5
3020
  8
1DIM
 10
82.85714285714278
 20
23.04761904761905
 30
0.0
  0
VERTEX
  5
3021
  8
1DIM
 10
82.7619047619047
 20
22.76190476190477
 30
0.0
  0
VERTEX
  5
3022
  8
1DIM
 10
82.7619047619047
 20
22.57142857142858
 30
0.0
  0
VERTEX
  5
3023
  8
1DIM
 10
82.85714285714278
 20
22.28571428571429
 30
0.0
  0
VERTEX
  5
3024
  8
1DIM
 10
83.04761904761904
 20
22.0952380952381
 30
0.0
  0
VERTEX
  5
3025
  8
1DIM
 10
83.23809523809518
 20
22.0
 30
0.0
  0
VERTEX
  5
3026
  8
1DIM
 10
83.52380952380952
 20
22.0
 30
0.0
  0
VERTEX
  5
3027
  8
1DIM
 10
83.71428571428567
 20
22.0952380952381
 30
0.0
  0
VERTEX
  5
3028
  8
1DIM
 10
83.90476190476193
 20
22.28571428571429
 30
0.0
  0
SEQEND
  5
3029
  8
11
  0
POLYLINE
  5
302A
  8
11
 66
     1
 10
0.0
 20
0.0
 30
0.0
  0
VERTEX
  5
302B
  8
1DIM
 10
118.0476190476189
 20
22.47619047619048
 30
0.0
  0
VERTEX
  5
302C
  8
1DIM
 10
117.9523809523808
 20
22.28571428571429
 30
0.0
  0
VERTEX
  5
302D
  8
1DIM
 10
117.7619047619046
 20
22.0952380952381
 30
0.0
  0
VERTEX
  5
302E
  8
1DIM
 10
117.5714285714284
 20
22.0
 30
0.0
  0
VERTEX
  5
302F
  8
1DIM
 10
117.190476190476
 20
22.0
 30
0.0
  0
VERTEX
  5
3030
  8
1DIM
 10
116.9999999999999
 20
22.0952380952381
 30
0.0
  0
VERTEX
  5
3031
  8
1DIM
 10
116.8095238095236
 20
22.28571428571429
 30
0.0
  0
VERTEX
  5
3032
  8
1DIM
 10
116.7142857142856
 20
22.47619047619048
 30
0.0
  0
VERTEX
  5
3033
  8
1DIM
 10
116.6190476190475
 20
22.76190476190477
 30
0.0
  0
VERTEX
  5
3034
  8
1DIM
 10
116.6190476190475
 20
23.23809523809524
 30
0.0
  0
VERTEX
  5
3035
  8
1DIM
 10
116.7142857142856
 20
23.52380952380953
 30
0.0
  0
VERTEX
  5
3036
  8
1DIM
 10
116.8095238095236
 20
23.71428571428572
 30
0.0
  0
VERTEX
  5
3037
  8
1DIM
 10
116.9999999999999
 20
23.90476190476191
 30
0.0
  0
VERTEX
  5
3038
  8
1DIM
 10
117.190476190476
 20
24.0
 30
0.0
  0
VERTEX
  5
3039
  8
1DIM
 10
117.5714285714284
 20
24.0
 30
0.0
  0
VERTEX
  5
303A
  8
1DIM
 10
117.7619047619046
 20
23.90476190476191
 30
0.0
  0
VERTEX
  5
303B
  8
1DIM
 10
117.9523809523808
 20
23.71428571428572
 30
0.0
  0
VERTEX
  5
303C
  8
1DIM
 10
118.0476190476189
 20
23.52380952380953
 30
0.0
  0
SEQEND
  5
303D
  8
11
  0
POLYLINE
  5
303E
  8
11
 66
     1
 10
0.0
 20
0.0
 30
0.0
  0
VERTEX
  5
303F
  8
1DIM
 10
121.5714285714284
 20
23.04761904761905
 30
0.0
  0
VERTEX
  5
3040
  8
1DIM
 10
121.3809523809523
 20
23.23809523809524
 30
0.0
  0
VERTEX
  5
3041
  8
1DIM
 10
121.190476190476
 20
23.33333333333333
 30
0.0
  0
VERTEX
  5
3042
  8
1DIM
 10
120.9047619047618
 20
23.33333333333333
 30
0.0
  0
VERTEX
  5
3043
  8
1DIM
 10
120.7142857142856
 20
23.23809523809524
 30
0.0
  0
VERTEX
  5
3044
  8
1DIM
 10
120.5238095238094
 20
23.04761904761905
 30
0.0
  0
VERTEX
  5
3045
  8
1DIM
 10
120.4285714285713
 20
22.76190476190477
 30
0.0
  0
VERTEX
  5
3046
  8
1DIM
 10
120.4285714285713
 20
22.57142857142858
 30
0.0
  0
VERTEX
  5
3047
  8
1DIM
 10
120.5238095238094
 20
22.28571428571429
 30
0.0
  0
VERTEX
  5
3048
  8
1DIM
 10
120.7142857142856
 20
22.0952380952381
 30
0.0
  0
VERTEX
  5
3049
  8
1DIM
 10
120.9047619047618
 20
22.0
 30
0.0
  0
VERTEX
  5
304A
  8
1DIM
 10
121.190476190476
 20
22.0
 30
0.0
  0
VERTEX
  5
304B
  8
1DIM
 10
121.3809523809523
 20
22.0952380952381
 30
0.0
  0
VERTEX
  5
304C
  8
1DIM
 10
121.5714285714284
 20
22.28571428571429
 30
0.0
  0
SEQEND
  5
304D
  8
11
  0
POLYLINE
  5
304E
  8
11
 66
     1
 10
0.0
 20
0.0
 30
0.0
  0
VERTEX
  5
304F
  8
1DIM
 10
122.2380952380951
 20
22.76190476190477
 30
0.0
  0
VERTEX
  5
3050
  8
1DIM
 10
123.3809523809523
 20
22.76190476190477
 30
0.0
  0
VERTEX
  5
3051
  8
1DIM
 10
123.3809523809523
 20
22.95238095238096
 30
0.0
  0
VERTEX
  5
3052
  8
1DIM
 10
123.2857142857141
 20
23.14285714285714
 30
0.0
  0
VERTEX
  5
3053
  8
1DIM
 10
123.190476190476
 20
23.23809523809524
 30
0.0
  0
VERTEX
  5
3054
  8
1DIM
 10
122.9999999999999
 20
23.33333333333333
 30
0.0
  0
VERTEX
  5
3055
  8
1DIM
 10
122.7142857142856
 20
23.33333333333333
 30
0.0
  0
VERTEX
  5
3056
  8
1DIM
 10
122.5238095238094
 20
23.23809523809524
 30
0.0
  0
VERTEX
  5
3057
  8
1DIM
 10
122.3333333333331
 20
23.04761904761905
 30
0.0
  0
VERTEX
  5
3058
  8
1DIM
 10
122.2380952380951
 20
22.76190476190477
 30
0.0
  0
VERTEX
  5
3059
  8
1DIM
 10
122.2380952380951
 20
22.57142857142858
 30
0.0
  0
VERTEX
  5
305A
  8
1DIM
 10
122.3333333333331
 20
22.28571428571429
 30
0.0
  0
VERTEX
  5
305B
  8
1DIM
 10
122.5238095238094
 20
22.0952380952381
 30
0.0
  0
VERTEX
  5
305C
  8
1DIM
 10
122.7142857142856
 20
22.0
 30
0.0
  0
VERTEX
  5
305D
  8
1DIM
 10
122.9999999999999
 20
22.0
 30
0.0
  0
VERTEX
  5
305E
  8
1DIM
 10
123.190476190476
 20
22.0952380952381
 30
0.0
  0
VERTEX
  5
305F
  8
1DIM
 10
123.3809523809523
 20
22.28571428571429
 30
0.0
  0
SEQEND
  5
3060
  8
11
  0
POLYLINE
  5
3061
  8
11
 66
     1
 10
0.0
 20
0.0
 30
0.0
  0
VERTEX
  5
3062
  8
1DIM
 10
92.22619047619048
 20
6.511904761904702
 30
0.0
  0
VERTEX
  5
3063
  8
1DIM
 10
92.70238095238096
 20
6.511904761904702
 30
0.0
  0
VERTEX
  5
3064
  8
1DIM
 10
92.70238095238096
 20
6.226190476190425
 30
0.0
  0
VERTEX
  5
3065
  8
1DIM
 10
92.60714285714289
 20
6.035714285714235
 30
0.0
  0
VERTEX
  5
3066
  8
1DIM
 10
92.41666666666663
 20
5.845238095238045
 30
0.0
  0
VERTEX
  5
3067
  8
1DIM
 10
92.22619047619048
 20
5.749999999999943
 30
0.0
  0
VERTEX
  5
3068
  8
1DIM
 10
91.84523809523807
 20
5.749999999999943
 30
0.0
  0
VERTEX
  5
3069
  8
1DIM
 10
91.65476190476193
 20
5.845238095238045
 30
0.0
  0
VERTEX
  5
306A
  8
1DIM
 10
91.46428571428567
 20
6.035714285714235
 30
0.0
  0
VERTEX
  5
306B
  8
1DIM
 10
91.36904761904759
 20
6.226190476190425
 30
0.0
  0
VERTEX
  5
306C
  8
1DIM
 10
91.27380952380952
 20
6.511904761904702
 30
0.0
  0
VERTEX
  5
306D
  8
1DIM
 10
91.27380952380952
 20
6.988095238095198
 30
0.0
  0
VERTEX
  5
306E
  8
1DIM
 10
91.36904761904759
 20
7.273809523809476
 30
0.0
  0
VERTEX
  5
306F
  8
1DIM
 10
91.46428571428567
 20
7.464285714285666
 30
0.0
  0
VERTEX
  5
3070
  8
1DIM
 10
91.65476190476193
 20
7.654761904761855
 30
0.0
  0
VERTEX
  5
3071
  8
1DIM
 10
91.84523809523807
 20
7.749999999999943
 30
0.0
  0
VERTEX
  5
3072
  8
1DIM
 10
92.22619047619048
 20
7.749999999999943
 30
0.0
  0
VERTEX
  5
3073
  8
1DIM
 10
92.41666666666663
 20
7.654761904761855
 30
0.0
  0
VERTEX
  5
3074
  8
1DIM
 10
92.60714285714289
 20
7.464285714285666
 30
0.0
  0
VERTEX
  5
3075
  8
1DIM
 10
92.70238095238096
 20
7.273809523809476
 30
0.0
  0
SEQEND
  5
3076
  8
11
  0
POLYLINE
  5
3077
  8
11
 66
     1
 10
0.0
 20
0.0
 30
0.0
  0
VERTEX
  5
3078
  8
1DIM
 10
119.095238095238
 20
23.33333333333333
 30
0.0
  0
VERTEX
  5
3079
  8
1DIM
 10
119.3809523809523
 20
23.33333333333333
 30
0.0
  0
VERTEX
  5
307A
  8
1DIM
 10
119.5714285714284
 20
23.23809523809524
 30
0.0
  0
VERTEX
  5
307B
  8
1DIM
 10
119.7619047619046
 20
23.04761904761905
 30
0.0
  0
VERTEX
  5
307C
  8
1DIM
 10
119.8571428571428
 20
22.76190476190477
 30
0.0
  0
VERTEX
  5
307D
  8
1DIM
 10
119.8571428571428
 20
22.57142857142858
 30
0.0
  0
VERTEX
  5
307E
  8
1DIM
 10
119.7619047619046
 20
22.28571428571429
 30
0.0
  0
VERTEX
  5
307F
  8
1DIM
 10
119.5714285714284
 20
22.0952380952381
 30
0.0
  0
VERTEX
  5
3080
  8
1DIM
 10
119.3809523809523
 20
22.0
 30
0.0
  0
VERTEX
  5
3081
  8
1DIM
 10
119.095238095238
 20
22.0
 30
0.0
  0
VERTEX
  5
3082
  8
1DIM
 10
118.9047619047618
 20
22.0952380952381
 30
0.0
  0
VERTEX
  5
3083
  8
1DIM
 10
118.7142857142856
 20
22.28571428571429
 30
0.0
  0
VERTEX
  5
3084
  8
1DIM
 10
118.6190476190475
 20
22.57142857142858
 30
0.0
  0
VERTEX
  5
3085
  8
1DIM
 10
118.6190476190475
 20
22.76190476190477
 30
0.0
  0
VERTEX
  5
3086
  8
1DIM
 10
118.7142857142856
 20
23.04761904761905
 30
0.0
  0
VERTEX
  5
3087
  8
1DIM
 10
118.9047619047618
 20
23.23809523809524
 30
0.0
  0
VERTEX
  5
3088
  8
1DIM
 10
119.095238095238
 20
23.33333333333333
 30
0.0
  0
SEQEND
  5
3089
  8
11
  0
POLYLINE
  5
308A
  8
11
 66
     1
 10
0.0
 20
0.0
 30
0.0
  0
VERTEX
  5
308B
  8
1DIM
 10
121.5714285714284
 20
22.0
 30
0.0
  0
VERTEX
  5
308C
  8
1DIM
 10
121.5714285714284
 20
24.0
 30
0.0
  0
SEQEND
  5
308D
  8
11
  0
POLYLINE
  5
308E
  8
11
 66
     1
 10
0.0
 20
0.0
 30
0.0
  0
VERTEX
  5
308F
  8
1DIM
 10
95.46428571428567
 20
7.083333333333286
 30
0.0
  0
VERTEX
  5
3090
  8
1DIM
 10
95.75
 20
7.083333333333286
 30
0.0
  0
VERTEX
  5
3091
  8
1DIM
 10
95.94047619047615
 20
6.988095238095198
 30
0.0
  0
VERTEX
  5
3092
  8
1DIM
 10
96.13095238095241
 20
6.797619047619008
 30
0.0
  0
VERTEX
  5
3093
  8
1DIM
 10
96.22619047619048
 20
6.511904761904702
 30
0.0
  0
VERTEX
  5
3094
  8
1DIM
 10
96.22619047619048
 20
6.321428571428513
 30
0.0
  0
VERTEX
  5
3095
  8
1DIM
 10
96.13095238095241
 20
6.035714285714235
 30
0.0
  0
VERTEX
  5
3096
  8
1DIM
 10
95.94047619047615
 20
5.845238095238045
 30
0.0
  0
VERTEX
  5
3097
  8
1DIM
 10
95.75
 20
5.749999999999943
 30
0.0
  0
VERTEX
  5
3098
  8
1DIM
 10
95.46428571428567
 20
5.749999999999943
 30
0.0
  0
VERTEX
  5
3099
  8
1DIM
 10
95.27380952380952
 20
5.845238095238045
 30
0.0
  0
VERTEX
  5
309A
  8
1DIM
 10
95.08333333333337
 20
6.035714285714235
 30
0.0
  0
VERTEX
  5
309B
  8
1DIM
 10
94.98809523809518
 20
6.321428571428513
 30
0.0
  0
VERTEX
  5
309C
  8
1DIM
 10
94.98809523809518
 20
6.511904761904702
 30
0.0
  0
VERTEX
  5
309D
  8
1DIM
 10
95.08333333333337
 20
6.797619047619008
 30
0.0
  0
VERTEX
  5
309E
  8
1DIM
 10
95.27380952380952
 20
6.988095238095198
 30
0.0
  0
VERTEX
  5
309F
  8
1DIM
 10
95.46428571428567
 20
7.083333333333286
 30
0.0
  0
SEQEND
  5
30A0
  8
11
  0
POLYLINE
  5
30A1
  8
11
 66
     1
 10
0.0
 20
0.0
 30
0.0
  0
VERTEX
  5
30A2
  8
1DIM
 10
78.82142857142856
 20
5.749999999999943
 30
0.0
  0
VERTEX
  5
30A3
  8
1DIM
 10
78.82142857142856
 20
7.749999999999943
 30
0.0
  0
VERTEX
  5
30A4
  8
1DIM
 10
79.48809523809518
 20
7.749999999999943
 30
0.0
  0
VERTEX
  5
30A5
  8
1DIM
 10
79.77380952380952
 20
7.654761904761855
 30
0.0
  0
VERTEX
  5
30A6
  8
1DIM
 10
79.96428571428567
 20
7.464285714285666
 30
0.0
  0
VERTEX
  5
30A7
  8
1DIM
 10
80.05952380952374
 20
7.273809523809476
 30
0.0
  0
VERTEX
  5
30A8
  8
1DIM
 10
80.15476190476181
 20
6.988095238095198
 30
0.0
  0
VERTEX
  5
30A9
  8
1DIM
 10
80.15476190476181
 20
6.511904761904702
 30
0.0
  0
VERTEX
  5
30AA
  8
1DIM
 10
80.05952380952374
 20
6.226190476190425
 30
0.0
  0
VERTEX
  5
30AB
  8
1DIM
 10
79.96428571428567
 20
6.035714285714235
 30
0.0
  0
VERTEX
  5
30AC
  8
1DIM
 10
79.77380952380952
 20
5.845238095238045
 30
0.0
  0
VERTEX
  5
30AD
  8
1DIM
 10
79.48809523809518
 20
5.749999999999943
 30
0.0
  0
VERTEX
  5
30AE
  8
1DIM
 10
78.82142857142856
 20
5.749999999999943
 30
0.0
  0
SEQEND
  5
30AF
  8
11
  0
POLYLINE
  5
30B0
  8
11
 66
     1
 10
0.0
 20
0.0
 30
0.0
  0
VERTEX
  5
30B1
  8
1DIM
 10
80.82142857142856
 20
5.749999999999943
 30
0.0
  0
VERTEX
  5
30B2
  8
1DIM
 10
80.82142857142856
 20
6.988095238095198
 30
0.0
  0
SEQEND
  5
30B3
  8
11
  0
POLYLINE
  5
30B4
  8
11
 66
     1
 10
0.0
 20
0.0
 30
0.0
  0
VERTEX
  5
30B5
  8
1DIM
 10
80.72619047619037
 20
7.654761904761855
 30
0.0
  0
VERTEX
  5
30B6
  8
1DIM
 10
80.82142857142856
 20
7.749999999999943
 30
0.0
  0
VERTEX
  5
30B7
  8
1DIM
 10
80.91666666666663
 20
7.654761904761855
 30
0.0
  0
VERTEX
  5
30B8
  8
1DIM
 10
80.82142857142856
 20
7.559523809523753
 30
0.0
  0
VERTEX
  5
30B9
  8
1DIM
 10
80.72619047619037
 20
7.654761904761855
 30
0.0
  0
SEQEND
  5
30BA
  8
11
  0
POLYLINE
  5
30BB
  8
11
 66
     1
 10
0.0
 20
0.0
 30
0.0
  0
VERTEX
  5
30BC
  8
1DIM
 10
81.58333333333326
 20
5.749999999999943
 30
0.0
  0
VERTEX
  5
30BD
  8
1DIM
 10
81.58333333333326
 20
7.083333333333286
 30
0.0
  0
SEQEND
  5
30BE
  8
11
  0
POLYLINE
  5
30BF
  8
11
 66
     1
 10
0.0
 20
0.0
 30
0.0
  0
VERTEX
  5
30C0
  8
1DIM
 10
81.58333333333326
 20
6.702380952380892
 30
0.0
  0
VERTEX
  5
30C1
  8
1DIM
 10
81.86904761904759
 20
6.988095238095198
 30
0.0
  0
VERTEX
  5
30C2
  8
1DIM
 10
82.05952380952374
 20
7.083333333333286
 30
0.0
  0
VERTEX
  5
30C3
  8
1DIM
 10
82.34523809523807
 20
7.083333333333286
 30
0.0
  0
VERTEX
  5
30C4
  8
1DIM
 10
82.53571428571422
 20
6.988095238095198
 30
0.0
  0
VERTEX
  5
30C5
  8
1DIM
 10
82.6309523809523
 20
6.702380952380892
 30
0.0
  0
VERTEX
  5
30C6
  8
1DIM
 10
82.6309523809523
 20
5.749999999999943
 30
0.0
  0
SEQEND
  5
30C7
  8
11
  0
POLYLINE
  5
30C8
  8
11
 66
     1
 10
0.0
 20
0.0
 30
0.0
  0
VERTEX
  5
30C9
  8
1DIM
 10
82.6309523809523
 20
6.702380952380892
 30
0.0
  0
VERTEX
  5
30CA
  8
1DIM
 10
82.91666666666663
 20
6.988095238095198
 30
0.0
  0
VERTEX
  5
30CB
  8
1DIM
 10
83.10714285714278
 20
7.083333333333286
 30
0.0
  0
VERTEX
  5
30CC
  8
1DIM
 10
83.39285714285711
 20
7.083333333333286
 30
0.0
  0
VERTEX
  5
30CD
  8
1DIM
 10
83.58333333333326
 20
6.988095238095198
 30
0.0
  0
VERTEX
  5
30CE
  8
1DIM
 10
83.67857142857133
 20
6.702380952380892
 30
0.0
  0
VERTEX
  5
30CF
  8
1DIM
 10
83.67857142857133
 20
5.749999999999943
 30
0.0
  0
SEQEND
  5
30D0
  8
11
  0
POLYLINE
  5
30D1
  8
11
 66
     1
 10
0.0
 20
0.0
 30
0.0
  0
VERTEX
  5
30D2
  8
1DIM
 10
35.85000000000002
 20
4.799999999999983
 30
0.0
  0
VERTEX
  5
30D3
  8
1DIM
 10
35.54999999999995
 20
5.200000000000003
 30
0.0
  0
SEQEND
  5
30D4
  8
11
  0
POLYLINE
  5
30D5
  8
11
 66
     1
 10
0.0
 20
0.0
 30
0.0
  0
VERTEX
  5
30D6
  8
1DIM
 10
36.04999999999995
 20
5.599999999999994
 30
0.0
  0
VERTEX
  5
30D7
  8
1DIM
 10
35.75
 20
5.999999999999986
 30
0.0
  0
SEQEND
  5
30D8
  8
11
  0
POLYLINE
  5
30D9
  8
11
 66
     1
 10
0.0
 20
0.0
 30
0.0
  0
VERTEX
  5
30DA
  8
1DIM
 10
35.54999999999995
 20
3.09999999999998
 30
0.0
  0
VERTEX
  5
30DB
  8
1DIM
 10
36.04999999999995
 20
4.499999999999986
 30
0.0
  0
SEQEND
  5
30DC
  8
11
  0
POLYLINE
  5
30DD
  8
11
 66
     1
 10
0.0
 20
0.0
 30
0.0
  0
VERTEX
  5
30DE
  8
1DIM
 10
106.8571451133756
 20
4.392841128301143
 30
0.0
  0
VERTEX
  5
30DF
  8
1DIM
 10
105.14285939909
 20
4.392841128301143
 30
0.0
  0
SEQEND
  5
30E0
  8
11
  0
POLYLINE
  5
30E1
  8
11
 66
     1
 10
0.0
 20
0.0
 30
0.0
  0
VERTEX
  5
30E2
  8
1DIM
 10
105.14285939909
 20
3.821412556872545
 30
0.0
  0
VERTEX
  5
30E3
  8
1DIM
 10
106.8571451133756
 20
3.821412556872545
 30
0.0
  0
SEQEND
  5
30E4
  8
11
  0
POLYLINE
  5
30E5
  8
11
 66
     1
 10
0.0
 20
0.0
 30
0.0
  0
VERTEX
  5
30E6
  8
1DIM
 10
103.14285939909
 20
3.535698271158267
 30
0.0
  0
VERTEX
  5
30E7
  8
1DIM
 10
103.3333355895661
 20
3.345222080682078
 30
0.0
  0
VERTEX
  5
30E8
  8
1DIM
 10
103.6190498752804
 20
3.24998398544399
 30
0.0
  0
VERTEX
  5
30E9
  8
1DIM
 10
104.0000022562328
 20
3.24998398544399
 30
0.0
  0
VERTEX
  5
30EA
  8
1DIM
 10
104.2857165419471
 20
3.345222080682078
 30
0.0
  0
VERTEX
  5
30EB
  8
1DIM
 10
104.4761927324233
 20
3.535698271158267
 30
0.0
  0
VERTEX
  5
30EC
  8
1DIM
 10
104.4761927324233
 20
3.821412556872545
 30
0.0
  0
VERTEX
  5
30ED
  8
1DIM
 10
104.3809546371851
 20
4.011888747348735
 30
0.0
  0
VERTEX
  5
30EE
  8
1DIM
 10
104.2857165419471
 20
4.107126842586837
 30
0.0
  0
VERTEX
  5
30EF
  8
1DIM
 10
104.0952403514709
 20
4.202364937824925
 30
0.0
  0
VERTEX
  5
30F0
  8
1DIM
 10
103.5238117800424
 20
4.392841128301143
 30
0.0
  0
VERTEX
  5
30F1
  8
1DIM
 10
103.3333355895661
 20
4.488079223539231
 30
0.0
  0
VERTEX
  5
30F2
  8
1DIM
 10
103.238097494328
 20
4.583317318777333
 30
0.0
  0
VERTEX
  5
30F3
  8
1DIM
 10
103.14285939909
 20
4.773793509253508
 30
0.0
  0
VERTEX
  5
30F4
  8
1DIM
 10
103.14285939909
 20
4.964269699729698
 30
0.0
  0
VERTEX
  5
30F5
  8
1DIM
 10
103.3333355895661
 20
5.154745890205888
 30
0.0
  0
VERTEX
  5
30F6
  8
1DIM
 10
103.6190498752804
 20
5.24998398544399
 30
0.0
  0
VERTEX
  5
30F7
  8
1DIM
 10
104.0000022562328
 20
5.24998398544399
 30
0.0
  0
VERTEX
  5
30F8
  8
1DIM
 10
104.2857165419471
 20
5.154745890205888
 30
0.0
  0
VERTEX
  5
30F9
  8
1DIM
 10
104.4761927324233
 20
4.964269699729698
 30
0.0
  0
SEQEND
  5
30FA
  8
11
  0
POLYLINE
  5
30FB
  8
11
 66
     1
 10
0.0
 20
0.0
 30
0.0
  0
VERTEX
  5
30FC
  8
1DIM
 10
36.45000000000005
 20
5.799999999999997
 30
0.0
  0
VERTEX
  5
30FD
  8
1DIM
 10
38.45000000000005
 20
5.799999999999997
 30
0.0
  0
SEQEND
  5
30FE
  8
11
  0
POLYLINE
  5
30FF
  8
11
 66
     1
 10
0.0
 20
0.0
 30
0.0
  0
VERTEX
  5
3100
  8
1DIM
 10
38.14999999999998
 20
5.799999999999997
 30
0.0
  0
VERTEX
  5
3101
  8
1DIM
 10
38.14999999999998
 20
3.200000000000003
 30
0.0
  0
VERTEX
  5
3102
  8
1DIM
 10
37.85000000000002
 20
3.299999999999997
 30
0.0
  0
SEQEND
  5
3103
  8
11
  0
POLYLINE
  5
3104
  8
11
 66
     1
 10
0.0
 20
0.0
 30
0.0
  0
VERTEX
  5
3105
  8
1DIM
 10
37.35000000000002
 20
4.099999999999994
 30
0.0
  0
VERTEX
  5
3106
  8
1DIM
 10
37.35000000000002
 20
5.09999999999998
 30
0.0
  0
VERTEX
  5
3107
  8
1DIM
 10
36.64999999999998
 20
5.09999999999998
 30
0.0
  0
VERTEX
  5
3108
  8
1DIM
 10
36.64999999999998
 20
4.099999999999994
 30
0.0
  0
VERTEX
  5
3109
  8
1DIM
 10
37.35000000000002
 20
4.099999999999994
 30
0.0
  0
SEQEND
  5
310A
  8
11
  0
POLYLINE
  5
310B
  8
11
 66
     1
 10
0.0
 20
0.0
 30
0.0
  0
VERTEX
  5
310C
  8
1DIM
 10
39.25
 20
3.200000000000003
 30
0.0
  0
VERTEX
  5
310D
  8
1DIM
 10
39.45000000000005
 20
3.5
 30
0.0
  0
VERTEX
  5
310E
  8
1DIM
 10
39.64999999999998
 20
3.999999999999986
 30
0.0
  0
VERTEX
  5
310F
  8
1DIM
 10
39.75
 20
4.299999999999997
 30
0.0
  0
SEQEND
  5
3110
  8
11
  0
POLYLINE
  5
3111
  8
11
 66
     1
 10
0.0
 20
0.0
 30
0.0
  0
VERTEX
  5
3112
  8
1DIM
 10
39.54999999999995
 20
4.799999999999983
 30
0.0
  0
VERTEX
  5
3113
  8
1DIM
 10
39.14999999999998
 20
5.09999999999998
 30
0.0
  0
SEQEND
  5
3114
  8
11
  0
POLYLINE
  5
3115
  8
11
 66
     1
 10
0.0
 20
0.0
 30
0.0
  0
VERTEX
  5
3116
  8
1DIM
 10
39.75
 20
5.5
 30
0.0
  0
VERTEX
  5
3117
  8
1DIM
 10
39.45000000000005
 20
5.899999999999991
 30
0.0
  0
SEQEND
  5
3118
  8
11
  0
POLYLINE
  5
3119
  8
11
 66
     1
 10
0.0
 20
0.0
 30
0.0
  0
VERTEX
  5
311A
  8
1DIM
 10
40.04999999999995
 20
5.599999999999994
 30
0.0
  0
VERTEX
  5
311B
  8
1DIM
 10
42.04999999999995
 20
5.599999999999994
 30
0.0
  0
SEQEND
  5
311C
  8
11
  0
POLYLINE
  5
311D
  8
11
 66
     1
 10
0.0
 20
0.0
 30
0.0
  0
VERTEX
  5
311E
  8
1DIM
 10
41.64999999999998
 20
4.699999999999989
 30
0.0
  0
VERTEX
  5
311F
  8
1DIM
 10
41.64999999999998
 20
5.299999999999997
 30
0.0
  0
VERTEX
  5
3120
  8
1DIM
 10
40.35000000000002
 20
5.299999999999997
 30
0.0
  0
VERTEX
  5
3121
  8
1DIM
 10
40.35000000000002
 20
4.699999999999989
 30
0.0
  0
VERTEX
  5
3122
  8
1DIM
 10
41.64999999999998
 20
4.699999999999989
 30
0.0
  0
SEQEND
  5
3123
  8
11
  0
POLYLINE
  5
3124
  8
11
 66
     1
 10
0.0
 20
0.0
 30
0.0
  0
VERTEX
  5
3125
  8
1DIM
 10
42.04999999999995
 20
3.699999999999989
 30
0.0
  0
VERTEX
  5
3126
  8
1DIM
 10
40.04999999999995
 20
3.699999999999989
 30
0.0
  0
SEQEND
  5
3127
  8
11
  0
POLYLINE
  5
3128
  8
11
 66
     1
 10
0.0
 20
0.0
 30
0.0
  0
VERTEX
  5
3129
  8
1DIM
 10
40.35000000000002
 20
4.299999999999997
 30
0.0
  0
VERTEX
  5
312A
  8
1DIM
 10
41.64999999999998
 20
4.299999999999997
 30
0.0
  0
VERTEX
  5
312B
  8
1DIM
 10
41.14999999999998
 20
3.999999999999986
 30
0.0
  0
VERTEX
  5
312C
  8
1DIM
 10
41.14999999999998
 20
3.09999999999998
 30
0.0
  0
VERTEX
  5
312D
  8
1DIM
 10
41.04999999999995
 20
2.999999999999986
 30
0.0
  0
VERTEX
  5
312E
  8
1DIM
 10
40.75
 20
2.999999999999986
 30
0.0
  0
SEQEND
  5
312F
  8
11
  0
POLYLINE
  5
3130
  8
11
 66
     1
 10
0.0
 20
0.0
 30
0.0
  0
VERTEX
  5
3131
  8
1DIM
 10
41.04999999999995
 20
5.599999999999994
 30
0.0
  0
VERTEX
  5
3132
  8
1DIM
 10
41.04999999999995
 20
5.999999999999986
 30
0.0
  0
SEQEND
  5
3133
  8
11
  0
POLYLINE
  5
3134
  8
11
 66
     1
 10
0.0
 20
0.0
 30
0.0
  0
VERTEX
  5
3135
  8
1DIM
 10
43.25
 20
3.09999999999998
 30
0.0
  0
VERTEX
  5
3136
  8
1DIM
 10
43.25
 20
6.099999999999994
 30
0.0
  0
SEQEND
  5
3137
  8
11
  0
POLYLINE
  5
3138
  8
11
 66
     1
 10
0.0
 20
0.0
 30
0.0
  0
VERTEX
  5
3139
  8
1DIM
 10
43.25
 20
5.299999999999997
 30
0.0
  0
VERTEX
  5
313A
  8
1DIM
 10
42.64999999999998
 20
3.899999999999991
 30
0.0
  0
SEQEND
  5
313B
  8
11
  0
POLYLINE
  5
313C
  8
11
 66
     1
 10
0.0
 20
0.0
 30
0.0
  0
VERTEX
  5
313D
  8
1DIM
 10
43.54999999999995
 20
4.699999999999989
 30
0.0
  0
VERTEX
  5
313E
  8
1DIM
 10
43.25
 20
5.299999999999997
 30
0.0
  0
SEQEND
  5
313F
  8
11
  0
POLYLINE
  5
3140
  8
11
 66
     1
 10
0.0
 20
0.0
 30
0.0
  0
VERTEX
  5
3141
  8
1DIM
 10
43.75
 20
5.299999999999997
 30
0.0
  0
VERTEX
  5
3142
  8
1DIM
 10
42.75
 20
5.299999999999997
 30
0.0
  0
SEQEND
  5
3143
  8
11
  0
POLYLINE
  5
3144
  8
11
 66
     1
 10
0.0
 20
0.0
 30
0.0
  0
VERTEX
  5
3145
  8
1DIM
 10
43.95000000000005
 20
4.999999999999986
 30
0.0
  0
VERTEX
  5
3146
  8
1DIM
 10
44.25
 20
5.699999999999989
 30
0.0
  0
SEQEND
  5
3147
  8
11
  0
POLYLINE
  5
3148
  8
11
 66
     1
 10
0.0
 20
0.0
 30
0.0
  0
VERTEX
  5
3149
  8
1DIM
 10
44.14999999999998
 20
5.299999999999997
 30
0.0
  0
VERTEX
  5
314A
  8
1DIM
 10
45.45000000000005
 20
5.299999999999997
 30
0.0
  0
SEQEND
  5
314B
  8
11
  0
POLYLINE
  5
314C
  8
11
 66
     1
 10
0.0
 20
0.0
 30
0.0
  0
VERTEX
  5
314D
  8
1DIM
 10
45.54999999999995
 20
4.600000000000009
 30
0.0
  0
VERTEX
  5
314E
  8
1DIM
 10
43.95000000000005
 20
4.600000000000009
 30
0.0
  0
SEQEND
  5
314F
  8
11
  0
POLYLINE
  5
3150
  8
11
 66
     1
 10
0.0
 20
0.0
 30
0.0
  0
VERTEX
  5
3151
  8
1DIM
 10
44.75
 20
4.600000000000009
 30
0.0
  0
VERTEX
  5
3152
  8
1DIM
 10
43.75
 20
3.399999999999977
 30
0.0
  0
SEQEND
  5
3153
  8
11
  0
POLYLINE
  5
3154
  8
11
 66
     1
 10
0.0
 20
0.0
 30
0.0
  0
VERTEX
  5
3155
  8
1DIM
 10
44.75
 20
2.999999999999986
 30
0.0
  0
VERTEX
  5
3156
  8
1DIM
 10
44.75
 20
6.099999999999994
 30
0.0
  0
SEQEND
  5
3157
  8
11
  0
POLYLINE
  5
3158
  8
11
 66
     1
 10
0.0
 20
0.0
 30
0.0
  0
VERTEX
  5
3159
  8
1DIM
 10
44.75
 20
4.600000000000009
 30
0.0
  0
VERTEX
  5
315A
  8
1DIM
 10
45.64999999999998
 20
3.399999999999977
 30
0.0
  0
SEQEND
  5
315B
  8
11
  0
POLYLINE
  5
315C
  8
11
 66
     1
 10
0.0
 20
0.0
 30
0.0
  0
VERTEX
  5
315D
  8
1DIM
 10
46.45000000000005
 20
3.399999999999977
 30
0.0
  0
VERTEX
  5
315E
  8
1DIM
 10
47.75
 20
3.799999999999997
 30
0.0
  0
SEQEND
  5
315F
  8
11
  0
POLYLINE
  5
3160
  8
11
 66
     1
 10
0.0
 20
0.0
 30
0.0
  0
VERTEX
  5
3161
  8
1DIM
 10
47.14999999999998
 20
3.599999999999994
 30
0.0
  0
VERTEX
  5
3162
  8
1DIM
 10
47.14999999999998
 20
4.699999999999989
 30
0.0
  0
SEQEND
  5
3163
  8
11
  0
POLYLINE
  5
3164
  8
11
 66
     1
 10
0.0
 20
0.0
 30
0.0
  0
VERTEX
  5
3165
  8
1DIM
 10
47.75
 20
4.699999999999989
 30
0.0
  0
VERTEX
  5
3166
  8
1DIM
 10
46.45000000000005
 20
4.699999999999989
 30
0.0
  0
SEQEND
  5
3167
  8
11
  0
POLYLINE
  5
3168
  8
11
 66
     1
 10
0.0
 20
0.0
 30
0.0
  0
VERTEX
  5
3169
  8
1DIM
 10
46.35000000000002
 20
5.399999999999977
 30
0.0
  0
VERTEX
  5
316A
  8
1DIM
 10
49.04999999999995
 20
5.399999999999977
 30
0.0
  0
SEQEND
  5
316B
  8
11
  0
POLYLINE
  5
316C
  8
11
 66
     1
 10
0.0
 20
0.0
 30
0.0
  0
VERTEX
  5
316D
  8
1DIM
 10
55.54999999999995
 20
5.899999999999991
 30
0.0
  0
VERTEX
  5
316E
  8
1DIM
 10
55.54999999999995
 20
3.200000000000003
 30
0.0
  0
SEQEND
  5
316F
  8
11
  0
POLYLINE
  5
3170
  8
11
 66
     1
 10
0.0
 20
0.0
 30
0.0
  0
VERTEX
  5
3171
  8
1DIM
 10
48.64999999999998
 20
5.599999999999994
 30
0.0
  0
VERTEX
  5
3172
  8
1DIM
 10
48.45000000000005
 20
5.899999999999991
 30
0.0
  0
SEQEND
  5
3173
  8
11
  0
POLYLINE
  5
3174
  8
11
 66
     1
 10
0.0
 20
0.0
 30
0.0
  0
VERTEX
  5
3175
  8
1DIM
 10
54.85000000000002
 20
4.799999999999983
 30
0.0
  0
VERTEX
  5
3176
  8
1DIM
 10
56.25
 20
4.799999999999983
 30
0.0
  0
SEQEND
  5
3177
  8
11
  0
POLYLINE
  5
3178
  8
11
 66
     1
 10
0.0
 20
0.0
 30
0.0
  0
VERTEX
  5
3179
  8
1DIM
 10
50.25
 20
3.09999999999998
 30
0.0
  0
VERTEX
  5
317A
  8
1DIM
 10
52.25
 20
3.399999999999977
 30
0.0
  0
SEQEND
  5
317B
  8
11
  0
POLYLINE
  5
317C
  8
11
 66
     1
 10
0.0
 20
0.0
 30
0.0
  0
VERTEX
  5
317D
  8
1DIM
 10
50.25
 20
4.299999999999997
 30
0.0
  0
VERTEX
  5
317E
  8
1DIM
 10
52.45000000000005
 20
4.299999999999997
 30
0.0
  0
SEQEND
  5
317F
  8
11
  0
POLYLINE
  5
3180
  8
11
 66
     1
 10
0.0
 20
0.0
 30
0.0
  0
VERTEX
  5
3181
  8
1DIM
 10
54.14999999999998
 20
3.09999999999998
 30
0.0
  0
VERTEX
  5
3182
  8
1DIM
 10
54.14999999999998
 20
4.699999999999989
 30
0.0
  0
SEQEND
  5
3183
  8
11
  0
POLYLINE
  5
3184
  8
11
 66
     1
 10
0.0
 20
0.0
 30
0.0
  0
VERTEX
  5
3185
  8
1DIM
 10
53.45000000000005
 20
4.199999999999989
 30
0.0
  0
VERTEX
  5
3186
  8
1DIM
 10
53.64999999999998
 20
4.299999999999997
 30
0.0
  0
VERTEX
  5
3187
  8
1DIM
 10
54.14999999999998
 20
4.699999999999989
 30
0.0
  0
VERTEX
  5
3188
  8
1DIM
 10
54.45000000000005
 20
5.09999999999998
 30
0.0
  0
VERTEX
  5
3189
  8
1DIM
 10
54.64999999999998
 20
5.399999999999977
 30
0.0
  0
VERTEX
  5
318A
  8
1DIM
 10
53.54999999999995
 20
5.399999999999977
 30
0.0
  0
SEQEND
  5
318B
  8
11
  0
POLYLINE
  5
318C
  8
11
 66
     1
 10
0.0
 20
0.0
 30
0.0
  0
VERTEX
  5
318D
  8
1DIM
 10
56.45000000000005
 20
3.200000000000003
 30
0.0
  0
VERTEX
  5
318E
  8
1DIM
 10
54.54999999999995
 20
3.200000000000003
 30
0.0
  0
SEQEND
  5
318F
  8
11
  0
POLYLINE
  5
3190
  8
11
 66
     1
 10
0.0
 20
0.0
 30
0.0
  0
VERTEX
  5
3191
  8
1DIM
 10
54.14999999999998
 20
5.399999999999977
 30
0.0
  0
VERTEX
  5
3192
  8
1DIM
 10
54.14999999999998
 20
5.899999999999991
 30
0.0
  0
SEQEND
  5
3193
  8
11
  0
POLYLINE
  5
3194
  8
11
 66
     1
 10
0.0
 20
0.0
 30
0.0
  0
VERTEX
  5
3195
  8
1DIM
 10
52.85000000000002
 20
4.699999999999989
 30
0.0
  0
VERTEX
  5
3196
  8
1DIM
 10
52.35000000000002
 20
5.09999999999998
 30
0.0
  0
VERTEX
  5
3197
  8
1DIM
 10
51.35000000000002
 20
6.099999999999994
 30
0.0
  0
VERTEX
  5
3198
  8
1DIM
 10
50.45000000000005
 20
5.09999999999998
 30
0.0
  0
VERTEX
  5
3199
  8
1DIM
 10
49.95000000000005
 20
4.699999999999989
 30
0.0
  0
SEQEND
  5
319A
  8
11
  0
POLYLINE
  5
319B
  8
11
 66
     1
 10
0.0
 20
0.0
 30
0.0
  0
VERTEX
  5
319C
  8
1DIM
 10
50.75
 20
4.799999999999983
 30
0.0
  0
VERTEX
  5
319D
  8
1DIM
 10
52.04999999999995
 20
4.799999999999983
 30
0.0
  0
SEQEND
  5
319E
  8
11
  0
POLYLINE
  5
319F
  8
11
 66
     1
 10
0.0
 20
0.0
 30
0.0
  0
VERTEX
  5
31A0
  8
1DIM
 10
54.35000000000002
 20
4.699999999999989
 30
0.0
  0
VERTEX
  5
31A1
  8
1DIM
 10
54.75
 20
4.199999999999989
 30
0.0
  0
SEQEND
  5
31A2
  8
11
  0
POLYLINE
  5
31A3
  8
11
 66
     1
 10
0.0
 20
0.0
 30
0.0
  0
VERTEX
  5
31A4
  8
1DIM
 10
51.35000000000002
 20
4.299999999999997
 30
0.0
  0
VERTEX
  5
31A5
  8
1DIM
 10
50.64999999999998
 20
3.200000000000003
 30
0.0
  0
SEQEND
  5
31A6
  8
11
  0
POLYLINE
  5
31A7
  8
11
 66
     1
 10
0.0
 20
0.0
 30
0.0
  0
VERTEX
  5
31A8
  8
1DIM
 10
52.54999999999995
 20
3.09999999999998
 30
0.0
  0
VERTEX
  5
31A9
  8
1DIM
 10
51.85000000000002
 20
3.799999999999997
 30
0.0
  0
SEQEND
  5
31AA
  8
11
  0
POLYLINE
  5
31AB
  8
11
 66
     1
 10
0.0
 20
0.0
 30
0.0
  0
VERTEX
  5
31AC
  8
1DIM
 10
47.95000000000005
 20
5.999999999999986
 30
0.0
  0
VERTEX
  5
31AD
  8
1DIM
 10
47.95000000000005
 20
5.5
 30
0.0
  0
VERTEX
  5
31AE
  8
1DIM
 10
48.04999999999995
 20
4.900000000000006
 30
0.0
  0
VERTEX
  5
31AF
  8
1DIM
 10
48.25
 20
4.299999999999997
 30
0.0
  0
VERTEX
  5
31B0
  8
1DIM
 10
48.45000000000005
 20
3.899999999999991
 30
0.0
  0
VERTEX
  5
31B1
  8
1DIM
 10
48.75
 20
3.5
 30
0.0
  0
VERTEX
  5
31B2
  8
1DIM
 10
49.04999999999995
 20
3.200000000000003
 30
0.0
  0
VERTEX
  5
31B3
  8
1DIM
 10
49.25
 20
3.399999999999977
 30
0.0
  0
SEQEND
  5
31B4
  8
11
  0
POLYLINE
  5
31B5
  8
11
 66
     1
 10
0.0
 20
0.0
 30
0.0
  0
VERTEX
  5
31B6
  8
1DIM
 10
23.87619047619046
 20
22.0
 30
0.0
  0
VERTEX
  5
31B7
  8
1DIM
 10
23.87619047619046
 20
23.33333333333333
 30
0.0
  0
SEQEND
  5
31B8
  8
11
  0
POLYLINE
  5
31B9
  8
11
 66
     1
 10
0.0
 20
0.0
 30
0.0
  0
VERTEX
  5
31BA
  8
1DIM
 10
23.87619047619046
 20
22.76190476190477
 30
0.0
  0
VERTEX
  5
31BB
  8
1DIM
 10
23.97142857142853
 20
23.04761904761905
 30
0.0
  0
VERTEX
  5
31BC
  8
1DIM
 10
24.16190476190479
 20
23.23809523809524
 30
0.0
  0
VERTEX
  5
31BD
  8
1DIM
 10
24.35238095238094
 20
23.33333333333333
 30
0.0
  0
VERTEX
  5
31BE
  8
1DIM
 10
24.63809523809527
 20
23.33333333333333
 30
0.0
  0
SEQEND
  5
31BF
  8
11
  0
POLYLINE
  5
31C0
  8
11
 66
     1
 10
0.0
 20
0.0
 30
0.0
  0
VERTEX
  5
31C1
  8
1DIM
 10
21.87619047619046
 20
22.0
 30
0.0
  0
VERTEX
  5
31C2
  8
1DIM
 10
21.87619047619046
 20
24.0
 30
0.0
  0
VERTEX
  5
31C3
  8
1DIM
 10
22.73333333333335
 20
24.0
 30
0.0
  0
VERTEX
  5
31C4
  8
1DIM
 10
23.01904761904757
 20
23.90476190476191
 30
0.0
  0
VERTEX
  5
31C5
  8
1DIM
 10
23.11428571428576
 20
23.80952380952381
 30
0.0
  0
VERTEX
  5
31C6
  8
1DIM
 10
23.20952380952383
 20
23.61904761904762
 30
0.0
  0
VERTEX
  5
31C7
  8
1DIM
 10
23.20952380952383
 20
23.33333333333333
 30
0.0
  0
VERTEX
  5
31C8
  8
1DIM
 10
23.11428571428576
 20
23.14285714285714
 30
0.0
  0
VERTEX
  5
31C9
  8
1DIM
 10
23.01904761904757
 20
23.04761904761905
 30
0.0
  0
VERTEX
  5
31CA
  8
1DIM
 10
22.73333333333335
 20
22.95238095238096
 30
0.0
  0
VERTEX
  5
31CB
  8
1DIM
 10
21.87619047619046
 20
22.95238095238096
 30
0.0
  0
SEQEND
  5
31CC
  8
11
  0
POLYLINE
  5
31CD
  8
11
 66
     1
 10
0.0
 20
0.0
 30
0.0
  0
VERTEX
  5
31CE
  8
1DIM
 10
25.49523809523805
 20
23.33333333333333
 30
0.0
  0
VERTEX
  5
31CF
  8
1DIM
 10
25.78095238095239
 20
23.33333333333333
 30
0.0
  0
VERTEX
  5
31D0
  8
1DIM
 10
25.97142857142853
 20
23.23809523809524
 30
0.0
  0
VERTEX
  5
31D1
  8
1DIM
 10
26.16190476190479
 20
23.04761904761905
 30
0.0
  0
VERTEX
  5
31D2
  8
1DIM
 10
26.25714285714287
 20
22.76190476190477
 30
0.0
  0
VERTEX
  5
31D3
  8
1DIM
 10
26.25714285714287
 20
22.57142857142858
 30
0.0
  0
VERTEX
  5
31D4
  8
1DIM
 10
26.16190476190479
 20
22.28571428571429
 30
0.0
  0
VERTEX
  5
31D5
  8
1DIM
 10
25.97142857142853
 20
22.0952380952381
 30
0.0
  0
VERTEX
  5
31D6
  8
1DIM
 10
25.78095238095239
 20
22.0
 30
0.0
  0
VERTEX
  5
31D7
  8
1DIM
 10
25.49523809523805
 20
22.0
 30
0.0
  0
VERTEX
  5
31D8
  8
1DIM
 10
25.3047619047619
 20
22.0952380952381
 30
0.0
  0
VERTEX
  5
31D9
  8
1DIM
 10
25.11428571428564
 20
22.28571428571429
 30
0.0
  0
VERTEX
  5
31DA
  8
1DIM
 10
25.01904761904757
 20
22.57142857142858
 30
0.0
  0
VERTEX
  5
31DB
  8
1DIM
 10
25.01904761904757
 20
22.76190476190477
 30
0.0
  0
VERTEX
  5
31DC
  8
1DIM
 10
25.11428571428564
 20
23.04761904761905
 30
0.0
  0
VERTEX
  5
31DD
  8
1DIM
 10
25.3047619047619
 20
23.23809523809524
 30
0.0
  0
VERTEX
  5
31DE
  8
1DIM
 10
25.49523809523805
 20
23.33333333333333
 30
0.0
  0
SEQEND
  5
31DF
  8
11
  0
ENDBLK
  5
31E0
  8
0
  0
BLOCK
  8
0
  2
A3WAKUKAWAJUN2017_HYOUDAI_
 70
     0
 10
0.0
 20
0.0
 30
0.0
  3
A3WAKUKAWAJUN2017_HYOUDAI_
  1

  0
LINE
  5
31E3
  8
0
 10
13.26299999998673
 20
-0.0001000000000317
 30
0.0
 11
9.236999999990758
 21
8.999899999990987
 31
0.0
1001
ACAD
1000
ASC_BOUNDS
1002
{
1070
    19
1005
3224
1002
}
  0
LINE
  5
31E4
  8
0
 10
5.657999999994331
 20
0.9999999999989768
 30
0.0
 11
9.236999999990758
 21
8.999999999991019
 31
0.0
1001
ACAD
1000
ASC_BOUNDS
1002
{
1070
    19
1005
3224
1002
}
  0
LINE
  5
31E5
  8
0
 10
18.59199999998134
 20
-0.2368999999997641
 30
0.0
 11
16.46099999998353
 21
5.432899999994561
 31
0.0
1001
ACAD
1000
ASC_BOUNDS
1002
{
1070
    19
1005
3225
1002
}
  0
LINE
  5
31E6
  8
0
 10
18.59199999998134
 20
-0.2368999999997641
 30
0.0
 11
22.38199999997767
 21
8.763099999991255
 31
0.0
1001
ACAD
1000
ASC_BOUNDS
1002
{
1070
    19
1005
3225
1002
}
  0
LINE
  5
31E7
  8
0
 10
14.32899999998563
 20
-0.2368999999997641
 30
0.0
 11
16.46099999998353
 21
5.432899999994561
 31
0.0
1001
ACAD
1000
ASC_BOUNDS
1002
{
1070
    19
1005
3225
1002
}
  0
LINE
  5
31E8
  8
0
 10
14.32899999998563
 20
-0.2368999999997641
 30
0.0
 11
10.53899999998941
 21
8.763099999991255
 31
0.0
1001
ACAD
1000
ASC_BOUNDS
1002
{
1070
    19
1005
3225
1002
}
  0
LINE
  5
31E9
  8
0
 10
19.53899999998043
 20
-0.0001000000000317
 30
0.0
 11
23.56599999997638
 21
8.999899999990987
 31
0.0
1001
ACAD
1000
ASC_BOUNDS
1002
{
1070
    19
1005
3226
1002
}
  0
LINE
  5
31EA
  8
0
 10
26.97358892824991
 20
1.383099999991202
 30
0.0
 11
23.56599999997638
 21
8.999899999990987
 31
0.0
1001
ACAD
1000
ASC_BOUNDS
1002
{
1070
    19
1005
3226
1002
}
  0
LINE
  5
31EB
  8
0
 10
5.657999999994331
 20
0.9999999999989768
 30
0.0
 11
3.181999999996833
 21
4.668599999995308
 31
0.0
1001
ACAD
1000
ASC_BOUNDS
1002
{
1070
    19
1005
3224
1002
}
  0
LINE
  5
31EC
  8
0
 10
4.617999999995391
 20
-0.0001000000000317
 30
0.0
 11
1.420999999998571
 21
4.736799999995242
 31
0.0
1001
ACAD
1000
ASC_BOUNDS
1002
{
1070
    19
1005
3224
1002
}
  0
LINE
  5
31ED
  8
0
 10
1.420999999998571
 20
8.763099999991255
 30
0.0
 11
1.420999999998571
 21
0.0
 31
0.0
1001
ACAD
1000
ASC_BOUNDS
1002
{
1070
    19
1005
3229
1002
}
  0
LINE
  5
31EE
  8
0
 10
0.0
 20
8.763099999991255
 30
0.0
 11
0.0
 21
0.0
 31
0.0
1001
ACAD
1000
ASC_BOUNDS
1002
{
1070
    19
1005
3229
1002
}
  0
LINE
  5
31EF
  8
0
 10
6.766999999993232
 20
-0.0001000000000317
 30
0.0
 11
7.826999999992154
 21
2.368399999997621
 31
0.0
1001
ACAD
1000
ASC_BOUNDS
1002
{
1070
    19
1005
3224
1002
}
  0
LINE
  5
31F0
  8
0
 10
0.0
 20
0.0
 30
0.0
 11
1.420999999998571
 21
0.0
 31
0.0
1001
ACAD
1000
ASC_BOUNDS
1002
{
1070
    19
1005
3229
1002
}
  0
LINE
  5
31F1
  8
0
 10
4.617999999995391
 20
0.0
 30
0.0
 11
6.766999999993232
 21
0.0
 31
0.0
1001
ACAD
1000
ASC_BOUNDS
1002
{
1070
    19
1005
3224
1002
}
  0
LINE
  5
31F2
  8
0
 10
11.70599999998831
 20
-0.0001000000000317
 30
0.0
 11
10.64699999998936
 21
2.368399999997621
 31
0.0
1001
ACAD
1000
ASC_BOUNDS
1002
{
1070
    19
1005
3224
1002
}
  0
LINE
  5
31F3
  8
0
 10
7.826999999992154
 20
2.368399999997621
 30
0.0
 11
10.64699999998936
 21
2.368399999997621
 31
0.0
1001
ACAD
1000
ASC_BOUNDS
1002
{
1070
    19
1005
3224
1002
}
  0
LINE
  5
31F4
  8
0
 10
11.70599999998831
 20
0.0
 30
0.0
 11
13.26299999998673
 21
0.0
 31
0.0
1001
ACAD
1000
ASC_BOUNDS
1002
{
1070
    19
1005
3224
1002
}
  0
LINE
  5
31F5
  8
0
 10
22.15599999997789
 20
2.368399999997621
 30
0.0
 11
24.97599999997499
 21
2.368399999997621
 31
0.0
1001
ACAD
1000
ASC_BOUNDS
1002
{
1070
    19
1005
3226
1002
}
  0
LINE
  5
31F6
  8
0
 10
19.53899999998043
 20
0.0
 30
0.0
 11
21.09599999997886
 21
0.0
 31
0.0
1001
ACAD
1000
ASC_BOUNDS
1002
{
1070
    19
1005
3226
1002
}
  0
LINE
  5
31F7
  8
0
 10
21.09599999997886
 20
-0.0001000000000317
 30
0.0
 11
22.15599999997789
 21
2.368399999997621
 31
0.0
1001
ACAD
1000
ASC_BOUNDS
1002
{
1070
    19
1005
3226
1002
}
  0
LINE
  5
31F8
  8
0
 10
26.02015566812236
 20
0.0330999999912365
 30
0.0
 11
24.97599999997499
 21
2.368399999997621
 31
0.0
1001
ACAD
1000
ASC_BOUNDS
1002
{
1070
    19
1005
3226
1002
}
  0
LINE
  5
31F9
  8
0
 10
14.32399999998563
 20
3.315799999996671
 30
0.0
 11
16.46099999998353
 21
8.999899999990987
 31
0.0
1001
ACAD
1000
ASC_BOUNDS
1002
{
1070
    19
1005
3225
1002
}
  0
LINE
  5
31FA
  8
0
 10
6.432999999993513
 20
8.763099999991255
 30
0.0
 11
3.181999999996833
 21
4.668599999995308
 31
0.0
1001
ACAD
1000
ASC_BOUNDS
1002
{
1070
    19
1005
3224
1002
}
  0
LINE
  5
31FB
  8
0
 10
4.617999999995391
 20
8.763099999991255
 30
0.0
 11
1.420999999998571
 21
4.736799999995242
 31
0.0
1001
ACAD
1000
ASC_BOUNDS
1002
{
1070
    19
1005
3224
1002
}
  0
LINE
  5
31FC
  8
0
 10
0.0
 20
8.763099999991255
 30
0.0
 11
1.420999999998571
 21
8.763099999991255
 31
0.0
1001
ACAD
1000
ASC_BOUNDS
1002
{
1070
    19
1005
3229
1002
}
  0
LINE
  5
31FD
  8
0
 10
4.617999999995391
 20
8.763099999991255
 30
0.0
 11
6.432999999993513
 21
8.763099999991255
 31
0.0
1001
ACAD
1000
ASC_BOUNDS
1002
{
1070
    19
1005
3224
1002
}
  0
LINE
  5
31FE
  8
0
 10
14.32399999998563
 20
3.315799999996671
 30
0.0
 11
12.02999999998792
 21
8.763099999991255
 31
0.0
1001
ACAD
1000
ASC_BOUNDS
1002
{
1070
    19
1005
3225
1002
}
  0
LINE
  5
31FF
  8
0
 10
10.06399999998996
 20
3.670999999996297
 30
0.0
 11
9.236999999990758
 21
5.5200999999945
 31
0.0
1001
ACAD
1000
ASC_BOUNDS
1002
{
1070
    19
1005
3224
1002
}
  0
LINE
  5
3200
  8
0
 10
8.409999999991555
 20
3.670999999996297
 30
0.0
 11
9.236999999990758
 21
5.5200999999945
 31
0.0
1001
ACAD
1000
ASC_BOUNDS
1002
{
1070
    19
1005
3224
1002
}
  0
LINE
  5
3201
  8
0
 10
8.409999999991555
 20
3.670999999996297
 30
0.0
 11
10.06399999998996
 21
3.670999999996297
 31
0.0
1001
ACAD
1000
ASC_BOUNDS
1002
{
1070
    19
1005
3224
1002
}
  0
LINE
  5
3202
  8
0
 10
10.53899999998941
 20
8.763099999991255
 30
0.0
 11
12.02999999998792
 21
8.763099999991255
 31
0.0
1001
ACAD
1000
ASC_BOUNDS
1002
{
1070
    19
1005
3225
1002
}
  0
LINE
  5
3203
  8
0
 10
22.7389999999773
 20
3.670999999996297
 30
0.0
 11
23.56599999997638
 21
5.5200999999945
 31
0.0
1001
ACAD
1000
ASC_BOUNDS
1002
{
1070
    19
1005
3226
1002
}
  0
LINE
  5
3204
  8
0
 10
22.7389999999773
 20
3.670999999996297
 30
0.0
 11
24.39299999997559
 21
3.670999999996297
 31
0.0
1001
ACAD
1000
ASC_BOUNDS
1002
{
1070
    19
1005
3226
1002
}
  0
LINE
  5
3205
  8
0
 10
18.59799999998143
 20
3.315799999996671
 30
0.0
 11
20.89099999997916
 21
8.763099999991255
 31
0.0
1001
ACAD
1000
ASC_BOUNDS
1002
{
1070
    19
1005
3225
1002
}
  0
LINE
  5
3206
  8
0
 10
18.59799999998143
 20
3.315799999996671
 30
0.0
 11
16.46099999998353
 21
8.999899999990987
 31
0.0
1001
ACAD
1000
ASC_BOUNDS
1002
{
1070
    19
1005
3225
1002
}
  0
LINE
  5
3207
  8
0
 10
20.89099999997916
 20
8.763099999991255
 30
0.0
 11
22.38199999997767
 21
8.763099999991255
 31
0.0
1001
ACAD
1000
ASC_BOUNDS
1002
{
1070
    19
1005
3225
1002
}
  0
LINE
  5
3208
  8
0
 10
24.39299999997559
 20
3.670999999996297
 30
0.0
 11
23.56599999997638
 21
5.5200999999945
 31
0.0
1001
ACAD
1000
ASC_BOUNDS
1002
{
1070
    19
1005
3226
1002
}
  0
LINE
  5
3209
  8
0
 10
44.99999999995498
 20
-0.2368999999997641
 30
0.0
 11
40.02599999995994
 21
5.341799999994635
 31
0.0
1001
ACAD
1000
ASC_BOUNDS
1002
{
1070
    19
1005
3228
1002
}
  0
LINE
  5
320A
  8
0
 10
40.02599999995994
 20
5.341799999994635
 30
0.0
 11
40.02599999995994
 21
0.0
 31
0.0
1001
ACAD
1000
ASC_BOUNDS
1002
{
1070
    19
1005
3228
1002
}
  0
LINE
  5
320B
  8
0
 10
38.60499999996136
 20
8.999999999991019
 30
0.0
 11
38.60499999996136
 21
0.0
 31
0.0
1001
ACAD
1000
ASC_BOUNDS
1002
{
1070
    19
1005
3228
1002
}
  0
LINE
  5
320C
  8
0
 10
44.99999999995498
 20
8.763099999991255
 30
0.0
 11
44.99999999995498
 21
-0.2368999999997641
 31
0.0
1001
ACAD
1000
ASC_BOUNDS
1002
{
1070
    19
1005
3228
1002
}
  0
LINE
  5
320D
  8
0
 10
38.60499999996136
 20
0.0
 30
0.0
 11
40.02599999995994
 21
0.0
 31
0.0
1001
ACAD
1000
ASC_BOUNDS
1002
{
1070
    19
1005
3228
1002
}
  0
LINE
  5
320E
  8
0
 10
43.57899999995641
 20
3.421199999996588
 30
0.0
 11
38.60499999996136
 21
8.999899999990987
 31
0.0
1001
ACAD
1000
ASC_BOUNDS
1002
{
1070
    19
1005
3228
1002
}
  0
LINE
  5
320F
  8
0
 10
43.57899999995641
 20
8.763099999991255
 30
0.0
 11
43.57899999995641
 21
3.421199999996588
 31
0.0
1001
ACAD
1000
ASC_BOUNDS
1002
{
1070
    19
1005
3228
1002
}
  0
LINE
  5
3210
  8
0
 10
43.57899999995641
 20
8.763099999991255
 30
0.0
 11
44.99999999995498
 21
8.763099999991255
 31
0.0
1001
ACAD
1000
ASC_BOUNDS
1002
{
1070
    19
1005
3228
1002
}
  0
LINE
  5
3211
  8
0
 10
37.67199999996831
 20
8.763099999991255
 30
0.0
 11
36.23199999996837
 21
8.763099999991255
 31
0.0
  0
LINE
  5
3212
  8
0
 10
31.64199999996833
 20
8.763099999991255
 30
0.0
 11
31.64199999996833
 21
2.481619422925121
 31
0.0
  0
LINE
  5
3213
  8
0
 10
37.67199999996831
 20
8.763099999991255
 30
0.0
 11
37.67199999996831
 21
2.481619422925121
 31
0.0
  0
LINE
  5
3214
  8
0
 10
36.23199999996837
 20
8.763099999991255
 30
0.0
 11
36.23199999996837
 21
2.481619422925064
 31
0.0
  0
LINE
  5
3215
  8
0
 10
33.08199999996839
 20
8.763099999991255
 30
0.0
 11
33.08199999996839
 21
2.481619422925121
 31
0.0
  0
ARC
  5
3216
  8
0
 10
34.65699999996832
 20
3.183099999991214
 30
0.0
 40
3.420000000000007
 50
240.0000000000255
 51
299.9999999999766
  0
ARC
  5
3217
  8
0
 10
34.65699999996832
 20
3.183099999991214
 30
0.0
 40
1.97999999999999
 50
240.000000000026
 51
299.9999999999703
  0
LINE
  5
3218
  8
0
 10
33.08199999996828
 20
8.763099999991255
 30
0.0
 11
31.64199999996833
 21
8.763099999991255
 31
0.0
  0
ARC
  5
3219
  8
0
 10
35.06199999996829
 20
2.481619422925064
 30
0.0
 40
1.17
 50
299.9999999999699
 51
0.0
  0
ARC
  5
321A
  8
0
 10
34.25199999996835
 20
2.481619422925121
 30
0.0
 40
1.17
 50
180.0
 51
240.0000000000238
  0
ARC
  5
321B
  8
0
 10
35.06199999996841
 20
2.481619422925121
 30
0.0
 40
2.61
 50
299.9999999999756
 51
0.0
  0
ARC
  5
321C
  8
0
 10
34.25199999996835
 20
2.481619422925121
 30
0.0
 40
2.61
 50
180.0
 51
240.0000000000244
  0
LINE
  5
321D
  8
0
 10
29.30199999996933
 20
8.763099999991255
 30
0.0
 11
30.74199999996927
 21
8.763099999991255
 31
0.0
1001
ACAD
1000
ASC_BOUNDS
1002
{
1070
    19
1005
3226
1002
}
  0
LINE
  5
321E
  8
0
 10
30.74199999996927
 20
8.763099999991255
 30
0.0
 11
30.74199999996927
 21
2.373099999991211
 31
0.0
1001
ACAD
1000
ASC_BOUNDS
1002
{
1070
    19
1005
3226
1002
}
  0
LINE
  5
321F
  8
0
 10
26.02015566812236
 20
0.0330999999912365
 30
0.0
 11
28.40199999996923
 21
0.0330999999912365
 31
0.0
1001
ACAD
1000
ASC_BOUNDS
1002
{
1070
    19
1005
3226
1002
}
  0
LINE
  5
3220
  8
0
 10
29.30199999996933
 20
8.763099999991255
 30
0.0
 11
29.30199999996933
 21
2.283099999991236
 31
0.0
1001
ACAD
1000
ASC_BOUNDS
1002
{
1070
    19
1005
3226
1002
}
  0
LINE
  5
3221
  8
0
 10
26.97358892824991
 20
1.383099999991202
 30
0.0
 11
28.40199999996923
 21
1.383099999991202
 31
0.0
1001
ACAD
1000
ASC_BOUNDS
1002
{
1070
    19
1005
3226
1002
}
  0
ARC
  5
3222
  8
0
 10
28.40199999996923
 20
2.283099999991236
 30
0.0
 40
0.9
 50
270.0
 51
0.0
1001
ACAD
1000
ASC_BOUNDS
1002
{
1070
    19
1005
3226
1002
}
  0
ARC
  5
3223
  8
0
 10
28.40199999996923
 20
2.373099999991211
 30
0.0
 40
2.34
 50
270.0
 51
0.0
1001
ACAD
1000
ASC_BOUNDS
1002
{
1070
    19
1005
3226
1002
}
  0
INSERT
  5
3224
  8
0
  2
*X32
 10
0.0
 20
0.0
 30
0.0
1001
ACAD
1000
HATCH
1002
{
1070
    19
1000
ANSI37
1040
0.15
1040
0.0
1000
ASC_BOUNDS
1070
     2
1070
     2
1070
    12
1005
31E3
1005
31E4
1005
31EB
1005
31FA
1005
31FD
1005
31FB
1005
31EC
1005
31F1
1005
31EF
1005
31F3
1005
31F2
1005
31F4
1070
     2
1070
     3
1005
31FF
1005
3201
1005
3200
1000
ASC_SEEDPOINT
1011
3.614004224891801
1021
2.996669441146025
1031
0.0
1021
2.996669441146025
1031
0.0
1000
R14_HATCH_DATA
1000
3224
1011
1.0
1021
0.0
1031
0.0
1021
0.0
1031
0.0
1011
0.0
1021
1.0
1031
0.0
1021
1.0
1031
0.0
1011
0.0
1021
0.0
1031
1.0
1021
0.0
1031
1.0
1040
0.0
1010
0.0
1020
0.0
1030
1.0
1000
ANSI37
1070
     0
1070
     1
1071
        2
1071
        7
1070
     0
1070
     1
1071
       17
1040
13.26299999998673
1040
-0.0001000000000317
1040
9.236999999990758
1040
8.999899999990987
1040
9.236999999990758
1040
8.999999999991019
1040
5.657999999994331
1040
0.9999999999989768
1040
3.181999999996833
1040
4.668599999995308
1040
6.432999999993513
1040
8.763099999991255
1040
4.617999999995391
1040
8.763099999991255
1040
1.420999999998571
1040
4.736799999995242
1040
4.617999999995391
1040
-0.0001000000000317
1040
4.617999999995391
1040
0.0
1040
6.766999999993232
1040
0.0
1040
6.766999999993232
1040
-0.0001000000000317
1040
7.826999999992154
1040
2.368399999997621
1040
10.64699999998936
1040
2.368399999997621
1040
11.70599999998831
1040
-0.0001000000000317
1040
11.70599999998831
1040
0.0
1040
13.26299999998673
1040
0.0
1071
       12
1005
31E3
1005
31E4
1005
31EB
1005
31FA
1005
31FD
1005
31FB
1005
31EC
1005
31F1
1005
31EF
1005
31F3
1005
31F2
1005
31F4
1071
       22
1070
     0
1070
     1
1071
        3
1040
9.236999999990758
1040
5.5200999999945
1040
10.06399999998996
1040
3.670999999996297
1040
8.409999999991555
1040
3.670999999996297
1071
        3
1005
31FF
1005
3201
1005
3200
1070
     0
1070
     1
1040
0.0
1040
0.15
1070
     0
1070
     2
1040
0.7853981633974483
1040
49.29960901727088
1040
-10.17736998311392
1040
-0.3367596045400932
1040
0.3367596045400932
1070
     0
1040
2.356194490192345
1040
49.29960901727088
1040
-10.17736998311392
1040
-0.3367596045400932
1040
-0.3367596045400932
1070
     0
1040
0.0110235143455945
1071
        2
1040
3.614004224891801
1040
2.996669441146025
1040
0.0
1040
3.614004224891801
1040
2.996669441146025
1040
0.0
1002
}
  0
INSERT
  5
3225
  8
0
  2
*X33
 10
0.0
 20
0.0
 30
0.0
1001
ACAD
1000
HATCH
1002
{
1070
    19
1000
ANSI37
1040
0.15
1040
0.0
1000
ASC_BOUNDS
1070
     1
1070
     2
1070
    10
1005
31E5
1005
31E6
1005
3207
1005
3205
1005
3206
1005
31F9
1005
31FE
1005
3202
1005
31E8
1005
31E7
1000
ASC_SEEDPOINT
1011
14.73245321214324
1021
2.798246178283421
1031
0.0
1021
2.798246178283421
1031
0.0
1000
R14_HATCH_DATA
1000
3225
1011
1.0
1021
0.0
1031
0.0
1021
0.0
1031
0.0
1011
0.0
1021
1.0
1031
0.0
1021
1.0
1031
0.0
1011
0.0
1021
0.0
1031
1.0
1021
0.0
1031
1.0
1040
0.0
1010
0.0
1020
0.0
1030
1.0
1000
ANSI37
1070
     0
1070
     1
1071
        1
1071
        7
1070
     0
1070
     1
1071
       10
1040
16.46099999998353
1040
5.432899999994561
1040
18.59199999998134
1040
-0.2368999999997641
1040
22.38199999997767
1040
8.763099999991255
1040
20.89099999997916
1040
8.763099999991255
1040
18.59799999998143
1040
3.315799999996671
1040
16.46099999998353
1040
8.999899999990987
1040
14.32399999998563
1040
3.315799999996671
1040
12.02999999998792
1040
8.763099999991255
1040
10.53899999998941
1040
8.763099999991255
1040
14.32899999998563
1040
-0.2368999999997641
1071
       10
1005
31E5
1005
31E6
1005
3207
1005
3205
1005
3206
1005
31F9
1005
31FE
1005
3202
1005
31E8
1005
31E7
1070
     0
1070
     1
1040
0.0
1040
0.15
1070
     0
1070
     2
1040
0.7853981633974483
1040
49.29960901727088
1040
-10.17736998311392
1040
-0.3367596045400932
1040
0.3367596045400932
1070
     0
1040
2.356194490192345
1040
49.29960901727088
1040
-10.17736998311392
1040
-0.3367596045400932
1040
-0.3367596045400932
1070
     0
1040
0.0110235143455945
1071
        1
1040
14.73245321214324
1040
2.798246178283421
1040
0.0
1002
}
  0
INSERT
  5
3226
  8
0
  2
*X34
 10
0.0
 20
0.0
 30
0.0
1001
ACAD
1000
HATCH
1002
{
1070
    19
1000
ANSI37
1040
0.15
1040
0.0
1000
ASC_BOUNDS
1070
     2
1070
     2
1070
    13
1005
31E9
1005
31F6
1005
31F7
1005
31F5
1005
31F8
1005
321F
1005
3223
1005
321E
1005
321D
1005
3220
1005
3222
1005
3221
1005
31EA
1070
     2
1070
     3
1005
3203
1005
3208
1005
3204
1000
ASC_SEEDPOINT
1011
21.97929957367762
1021
3.294304244259308
1031
0.0
1021
3.294304244259308
1031
0.0
1000
R14_HATCH_DATA
1000
3226
1011
1.0
1021
0.0
1031
0.0
1021
0.0
1031
0.0
1011
0.0
1021
1.0
1031
0.0
1021
1.0
1031
0.0
1011
0.0
1021
0.0
1031
1.0
1021
0.0
1031
1.0
1040
0.0
1010
0.0
1020
0.0
1030
1.0
1000
ANSI37
1070
     0
1070
     1
1071
        2
1071
        7
1070
     1
1070
     1
1071
       15
1040
23.56599999997638
1040
8.999899999990987
1040
0.0
1040
19.53899999998043
1040
-0.0001000000000317
1040
0.0
1040
19.53899999998043
1040
0.0
1040
0.0
1040
21.09599999997886
1040
0.0
1040
0.0
1040
21.09599999997886
1040
-0.0001000000000317
1040
0.0
1040
22.15599999997789
1040
2.368399999997621
1040
0.0
1040
24.97599999997499
1040
2.368399999997621
1040
0.0
1040
26.02015566812236
1040
0.0330999999912365
1040
0.0
1040
28.40199999996923
1040
0.0330999999912365
1040
0.414213562373095
1040
30.74199999996923
1040
2.373099999991211
1040
0.0
1040
30.74199999996927
1040
8.763099999991255
1040
0.0
1040
29.30199999996933
1040
8.763099999991255
1040
0.0
1040
29.30199999996933
1040
2.283099999991236
1040
-0.414213562373095
1040
28.40199999996923
1040
1.383099999991237
1040
0.0
1040
26.97358892824991
1040
1.383099999991202
1040
0.0
1071
       13
1005
31E9
1005
31F6
1005
31F7
1005
31F5
1005
31F8
1005
321F
1005
3223
1005
321E
1005
321D
1005
3220
1005
3222
1005
3221
1005
31EA
1071
       22
1070
     0
1070
     1
1071
        3
1040
22.7389999999773
1040
3.670999999996297
1040
23.56599999997638
1040
5.5200999999945
1040
24.39299999997559
1040
3.670999999996297
1071
        3
1005
3203
1005
3208
1005
3204
1070
     0
1070
     1
1040
0.0
1040
0.15
1070
     0
1070
     2
1040
0.7853981633974483
1040
49.29960901727088
1040
-10.17736998311392
1040
-0.3367596045400932
1040
0.3367596045400932
1070
     0
1040
2.356194490192345
1040
49.29960901727088
1040
-10.17736998311392
1040
-0.3367596045400932
1040
-0.3367596045400932
1070
     0
1040
0.0110235143455945
1071
        2
1040
21.97929957367762
1040
3.294304244259308
1040
0.0
1040
21.97929957367762
1040
3.294304244259308
1040
0.0
1002
}
  0
INSERT
  5
3227
  8
0
  2
*X35
 10
0.0
 20
0.0
 30
0.0
1001
ACAD
1000
HATCH
1002
{
1070
    19
1000
ANSI37
1040
0.15
1040
0.0
1000
R14_HATCH_DATA
1000
3227
1011
1.0
1021
0.0
1031
0.0
1021
0.0
1031
0.0
1011
0.0
1021
1.0
1031
0.0
1021
1.0
1031
0.0
1011
0.0
1021
0.0
1031
1.0
1021
0.0
1031
1.0
1040
0.0
1010
0.0
1020
0.0
1030
1.0
1000
ANSI37
1070
     0
1070
     1
1071
        1
1071
        7
1070
     1
1070
     1
1071
       12
1040
31.64199999996833
1040
2.481619422925121
1040
0.2679491924310942
1040
32.94699999997067
1040
0.2212931190493919
1040
0.2679491924301353
1040
36.36699999995983
1040
0.2212931190459813
1040
0.2679491924321411
1040
37.67199999996831
1040
2.481619422928361
1040
0.0
1040
37.67199999996831
1040
8.763099999991255
1040
0.0
1040
36.23199999996837
1040
8.763099999991255
1040
0.0
1040
36.23199999996837
1040
2.481619422925064
1040
-0.2679491924310291
1040
35.64699999996708
1040
1.468369700498386
1040
-0.267949192430519
1040
33.66699999997093
1040
1.468369700497703
1040
-0.267949192431809
1040
33.08199999996839
1040
2.481619422926997
1040
0.0
1040
33.08199999996839
1040
8.763099999991255
1040
0.0
1040
31.64199999996833
1040
8.763099999991255
1040
0.0
1071
        0
1070
     0
1070
     1
1040
0.0
1040
0.15
1070
     0
1070
     2
1040
0.7853981633974483
1040
49.29960901727088
1040
-10.17736998311392
1040
-0.3367596045400932
1040
0.3367596045400932
1070
     0
1040
2.356194490192345
1040
49.29960901727088
1040
-10.17736998311392
1040
-0.3367596045400932
1040
-0.3367596045400932
1070
     0
1040
0.0110235143455945
1071
        1
1040
32.30357378967278
1040
3.988785755459219
1040
0.0
1002
}
  0
INSERT
  5
3228
  8
0
  2
*X36
 10
0.0
 20
0.0
 30
0.0
1001
ACAD
1000
HATCH
1002
{
1070
    19
1000
ANSI37
1040
0.15
1040
0.0
1000
ASC_BOUNDS
1070
     1
1070
     2
1070
     8
1005
3209
1005
320C
1005
3210
1005
320F
1005
320E
1005
320B
1005
320D
1005
320A
1000
ASC_SEEDPOINT
1011
39.74896370716704
1021
4.484843821435049
1031
0.0
1021
4.484843821435049
1031
0.0
1000
R14_HATCH_DATA
1000
3228
1011
1.0
1021
0.0
1031
0.0
1021
0.0
1031
0.0
1011
0.0
1021
1.0
1031
0.0
1021
1.0
1031
0.0
1011
0.0
1021
0.0
1031
1.0
1021
0.0
1031
1.0
1040
0.0
1010
0.0
1020
0.0
1030
1.0
1000
ANSI37
1070
     0
1070
     1
1071
        1
1071
        7
1070
     0
1070
     1
1071
        9
1040
40.02599999995994
1040
5.341799999994635
1040
44.99999999995498
1040
-0.2368999999997641
1040
44.99999999995498
1040
8.763099999991255
1040
43.57899999995641
1040
8.763099999991255
1040
43.57899999995641
1040
3.421199999996588
1040
38.60499999996136
1040
8.999899999990987
1040
38.60499999996136
1040
8.999999999991019
1040
38.60499999996136
1040
0.0
1040
40.02599999995994
1040
0.0
1071
        8
1005
3209
1005
320C
1005
3210
1005
320F
1005
320E
1005
320B
1005
320D
1005
320A
1070
     0
1070
     1
1040
0.0
1040
0.15
1070
     0
1070
     2
1040
0.7853981633974483
1040
49.29960901727088
1040
-10.17736998311392
1040
-0.3367596045400932
1040
0.3367596045400932
1070
     0
1040
2.356194490192345
1040
49.29960901727088
1040
-10.17736998311392
1040
-0.3367596045400932
1040
-0.3367596045400932
1070
     0
1040
0.0110235143455945
1071
        1
1040
39.74896370716704
1040
4.484843821435049
1040
0.0
1002
}
  0
INSERT
  5
3229
  8
0
  2
*X37
 10
0.0
 20
0.0
 30
0.0
1001
ACAD
1000
HATCH
1002
{
1070
    19
1000
ANSI37
1040
0.15
1040
0.0
1000
ASC_BOUNDS
1070
     1
1070
     2
1070
     4
1005
31ED
1005
31FC
1005
31EE
1005
31F0
1000
ASC_SEEDPOINT
1011
1.079051535452663
1021
4.148538732891836
1031
0.0
1021
4.148538732891836
1031
0.0
1000
R14_HATCH_DATA
1000
3229
1011
1.0
1021
0.0
1031
0.0
1021
0.0
1031
0.0
1011
0.0
1021
1.0
1031
0.0
1021
1.0
1031
0.0
1011
0.0
1021
0.0
1031
1.0
1021
0.0
1031
1.0
1040
0.0
1010
0.0
1020
0.0
1030
1.0
1000
ANSI37
1070
     0
1070
     1
1071
        1
1071
        7
1070
     0
1070
     1
1071
        4
1040
1.420999999998571
1040
0.0
1040
1.420999999998571
1040
8.763099999991255
1040
0.0
1040
8.763099999991255
1040
0.0
1040
0.0
1071
        4
1005
31ED
1005
31FC
1005
31EE
1005
31F0
1070
     0
1070
     1
1040
0.0
1040
0.15
1070
     0
1070
     2
1040
0.7853981633974483
1040
49.29960901727088
1040
-10.17736998311392
1040
-0.3367596045400932
1040
0.3367596045400932
1070
     0
1040
2.356194490192345
1040
49.29960901727088
1040
-10.17736998311392
1040
-0.3367596045400932
1040
-0.3367596045400932
1070
     0
1040
0.0053004257112761
1071
        1
1040
1.079051535452663
1040
4.148538732891836
1040
0.0
1002
}
  0
ENDBLK
  5
322A
  8
0
  0
BLOCK
  8
0
  2
A3WAKUKAWAJUN2017_CHANGEWA
 70
     0
 10
0.0
 20
0.0
 30
0.0
  3
A3WAKUKAWAJUN2017_CHANGEWA
  1

  0
LINE
  5
322F
  8
0
  6
BYBLOCK
 62
     0
 10
120.0
 20
0.0000000000002274
 30
0.0
 11
120.0
 21
-4.499999999999886
 31
0.0
1001
ACDBBLOCKREPETAG
1070
     1
1071
       23
1005
0
  0
LINE
  5
3230
  8
0
  6
BYBLOCK
 62
     0
 10
140.0
 20
-4.499999999999886
 30
0.0
 11
140.0
 21
0.0000000000001137
 31
0.0
  0
LINE
  5
3231
  8
0
  6
BYBLOCK
 62
   252
 10
0.0
 20
0.0000000000001137
 30
0.0
 11
0.0
 21
-4.5
 31
0.0
1001
ACDBBLOCKREPETAG
1070
     1
1071
       26
1005
0
  0
LINE
  5
3232
  8
0
  6
BYBLOCK
 62
     0
 10
10.0
 20
0.0000000000001137
 30
0.0
 11
10.0
 21
-4.499999999999773
 31
0.0
1001
ACDBBLOCKREPETAG
1070
     1
1071
       25
1005
0
  0
LINE
  5
3233
  8
0
  6
BYBLOCK
 62
     0
 10
30.00000000000003
 20
0.0000000000001137
 30
0.0
 11
30.00000000000003
 21
-4.499999999999773
 31
0.0
1001
ACDBBLOCKREPETAG
1070
     1
1071
       24
1005
0
  0
LINE
  5
3234
  8
0
  6
BYBLOCK
 62
     0
 10
130.0
 20
0.0000000000002274
 30
0.0
 11
130.0
 21
-4.499999999999886
 31
0.0
1001
ACDBBLOCKREPETAG
1070
     1
1071
       23
1005
0
  0
LINE
  5
3235
  8
0
  6
BYBLOCK
 62
     0
 10
140.0
 20
-4.499999999999886
 30
0.0
 11
0.0
 21
-4.5
 31
0.0
1001
ACDBBLOCKREPETAG
1070
     1
1071
       10
1005
0
  0
LINE
  5
3236
  8
0
  6
BYBLOCK
 62
     0
 10
140.0
 20
0.0000000000001137
 30
0.0
 11
0.0
 21
0.0
 31
0.0
1001
ACDBBLOCKREPETAG
1070
     1
1071
        9
1005
0
  0
POINT
  5
3237
  8
ZZ
 10
135.0
 20
-2.249999999999886
 30
0.0
  0
POINT
  5
3238
  8
ZZ
 10
125.0
 20
-2.249999999999829
 30
0.0
  0
POINT
  5
3239
  8
ZZ
 10
5.0
 20
-2.249999999999943
 30
0.0
  0
POINT
  5
323A
  8
2VIEWPORT
 10
75.00000000000003
 20
-2.249999999999773
 30
0.0
  0
POINT
  5
323B
  8
ZZ
 10
20.0
 20
-2.249999999999829
 30
0.0
  0
POINT
  5
323C
  8
ZZ
 10
31.00000000000003
 20
-2.249999999999829
 30
0.0
  0
POINT
  5
323D
  8
ZZ
 10
5.0
 20
-2.924999999999955
 30
0.0
  0
ENDBLK
  5
323E
  8
0
  0
BLOCK
  8
0
  2
A3WAKUKAWAJUN2017_CHANGEHY
 70
     0
 10
0.0
 20
0.0
 30
0.0
  3
A3WAKUKAWAJUN2017_CHANGEHY
  1

  0
LINE
  5
3243
  8
0
  6
BYBLOCK
 62
     0
 10
130.0
 20
0.0000000000001137
 30
0.0
 11
130.0
 21
4.500000000000114
 31
0.0
  0
LINE
  5
3244
  8
0
  6
BYBLOCK
 62
     0
 10
140.0
 20
0.0000000000001137
 30
0.0
 11
140.0
 21
4.500000000000114
 31
0.0
  0
LINE
  5
3245
  8
0
  6
BYBLOCK
 62
     0
 10
0.0
 20
4.500000000000114
 30
0.0
 11
140.0
 21
4.500000000000114
 31
0.0
  0
LINE
  5
3246
  8
0
  6
BYBLOCK
 62
     0
 10
140.0
 20
0.0000000000001137
 30
0.0
 11
0.0
 21
0.0
 31
0.0
1001
ACDBBLOCKREPETAG
1070
     1
1071
       35
1005
0
  0
LINE
  5
3247
  8
0
  6
BYBLOCK
 62
   252
 10
0.0
 20
4.500000000000114
 30
0.0
 11
0.0
 21
0.0000000000001137
 31
0.0
1001
ACDBBLOCKREPETAG
1070
     1
1071
       30
1005
0
  0
LINE
  5
3248
  8
0
  6
BYBLOCK
 62
     0
 10
10.0
 20
4.500000000000114
 30
0.0
 11
10.0
 21
0.0000000000001137
 31
0.0
1001
ACDBBLOCKREPETAG
1070
     1
1071
       29
1005
0
  0
LINE
  5
3249
  8
0
  6
BYBLOCK
 62
     0
 10
30.0
 20
4.500000000000114
 30
0.0
 11
30.0
 21
0.0000000000001137
 31
0.0
1001
ACDBBLOCKREPETAG
1070
     1
1071
       28
1005
0
  0
LINE
  5
324A
  8
0
  6
BYBLOCK
 62
     0
 10
120.0
 20
4.500000000000114
 30
0.0
 11
120.0
 21
0.0000000000001137
 31
0.0
1001
ACDBBLOCKREPETAG
1070
     1
1071
       27
1005
0
  0
POLYLINE
  5
324B
  8
11
 66
     1
 10
0.0
 20
0.0
 30
0.0
  0
VERTEX
  5
324C
  8
1DIM
 10
73.61904761904759
 20
2.297619047619122
 30
0.0
  0
VERTEX
  5
324D
  8
1DIM
 10
73.42857142857144
 20
2.488095238095298
 30
0.0
  0
VERTEX
  5
324E
  8
1DIM
 10
73.2380952380953
 20
2.5833333333334
 30
0.0
  0
VERTEX
  5
324F
  8
1DIM
 10
72.95238095238096
 20
2.5833333333334
 30
0.0
  0
VERTEX
  5
3250
  8
1DIM
 10
72.76190476190482
 20
2.488095238095298
 30
0.0
  0
VERTEX
  5
3251
  8
1DIM
 10
72.57142857142856
 20
2.297619047619122
 30
0.0
  0
VERTEX
  5
3252
  8
1DIM
 10
72.47619047619048
 20
2.011904761904844
 30
0.0
  0
VERTEX
  5
3253
  8
1DIM
 10
72.47619047619048
 20
1.821428571428669
 30
0.0
  0
VERTEX
  5
3254
  8
1DIM
 10
72.57142857142856
 20
1.535714285714363
 30
0.0
  0
VERTEX
  5
3255
  8
1DIM
 10
72.76190476190482
 20
1.345238095238187
 30
0.0
  0
VERTEX
  5
3256
  8
1DIM
 10
72.95238095238096
 20
1.250000000000085
 30
0.0
  0
VERTEX
  5
3257
  8
1DIM
 10
73.2380952380953
 20
1.250000000000085
 30
0.0
  0
VERTEX
  5
3258
  8
1DIM
 10
73.42857142857144
 20
1.345238095238187
 30
0.0
  0
VERTEX
  5
3259
  8
1DIM
 10
73.61904761904759
 20
1.535714285714363
 30
0.0
  0
SEQEND
  5
325A
  8
11
  0
POLYLINE
  5
325B
  8
11
 66
     1
 10
0.0
 20
0.0
 30
0.0
  0
VERTEX
  5
325C
  8
1DIM
 10
20.04761904761904
 20
1.250000000000085
 30
0.0
  0
VERTEX
  5
325D
  8
1DIM
 10
20.04761904761904
 20
2.5833333333334
 30
0.0
  0
SEQEND
  5
325E
  8
11
  0
POLYLINE
  5
325F
  8
11
 66
     1
 10
0.0
 20
0.0
 30
0.0
  0
VERTEX
  5
3260
  8
1DIM
 10
58.70476190476188
 20
2.011904761904844
 30
0.0
  0
VERTEX
  5
3261
  8
1DIM
 10
59.84761904761911
 20
2.011904761904844
 30
0.0
  0
VERTEX
  5
3262
  8
1DIM
 10
59.84761904761911
 20
2.20238095238102
 30
0.0
  0
VERTEX
  5
3263
  8
1DIM
 10
59.75238095238092
 20
2.392857142857224
 30
0.0
  0
VERTEX
  5
3264
  8
1DIM
 10
59.65714285714284
 20
2.488095238095298
 30
0.0
  0
VERTEX
  5
3265
  8
1DIM
 10
59.4666666666667
 20
2.5833333333334
 30
0.0
  0
VERTEX
  5
3266
  8
1DIM
 10
59.18095238095236
 20
2.5833333333334
 30
0.0
  0
VERTEX
  5
3267
  8
1DIM
 10
58.99047619047622
 20
2.488095238095298
 30
0.0
  0
VERTEX
  5
3268
  8
1DIM
 10
58.79999999999995
 20
2.297619047619122
 30
0.0
  0
VERTEX
  5
3269
  8
1DIM
 10
58.70476190476188
 20
2.011904761904844
 30
0.0
  0
VERTEX
  5
326A
  8
1DIM
 10
58.70476190476188
 20
1.821428571428669
 30
0.0
  0
VERTEX
  5
326B
  8
1DIM
 10
58.79999999999995
 20
1.535714285714363
 30
0.0
  0
VERTEX
  5
326C
  8
1DIM
 10
58.99047619047622
 20
1.345238095238187
 30
0.0
  0
VERTEX
  5
326D
  8
1DIM
 10
59.18095238095236
 20
1.250000000000085
 30
0.0
  0
VERTEX
  5
326E
  8
1DIM
 10
59.4666666666667
 20
1.250000000000085
 30
0.0
  0
VERTEX
  5
326F
  8
1DIM
 10
59.65714285714284
 20
1.345238095238187
 30
0.0
  0
VERTEX
  5
3270
  8
1DIM
 10
59.84761904761911
 20
1.535714285714363
 30
0.0
  0
SEQEND
  5
3271
  8
11
  0
POLYLINE
  5
3272
  8
11
 66
     1
 10
0.0
 20
0.0
 30
0.0
  0
VERTEX
  5
3273
  8
1DIM
 10
3.523809523809518
 20
1.250000000000085
 30
0.0
  0
VERTEX
  5
3274
  8
1DIM
 10
2.761904761904702
 20
3.250000000000085
 30
0.0
  0
SEQEND
  5
3275
  8
11
  0
POLYLINE
  5
3276
  8
11
 66
     1
 10
0.0
 20
0.0
 30
0.0
  0
VERTEX
  5
3277
  8
1DIM
 10
4.666666666666629
 20
2.011904761904844
 30
0.0
  0
VERTEX
  5
3278
  8
1DIM
 10
5.809523809523853
 20
2.011904761904844
 30
0.0
  0
VERTEX
  5
3279
  8
1DIM
 10
5.809523809523853
 20
2.20238095238102
 30
0.0
  0
VERTEX
  5
327A
  8
1DIM
 10
5.714285714285666
 20
2.392857142857224
 30
0.0
  0
VERTEX
  5
327B
  8
1DIM
 10
5.619047619047592
 20
2.488095238095298
 30
0.0
  0
VERTEX
  5
327C
  8
1DIM
 10
5.428571428571445
 20
2.5833333333334
 30
0.0
  0
VERTEX
  5
327D
  8
1DIM
 10
5.14285714285711
 20
2.5833333333334
 30
0.0
  0
VERTEX
  5
327E
  8
1DIM
 10
4.952380952380963
 20
2.488095238095298
 30
0.0
  0
VERTEX
  5
327F
  8
1DIM
 10
4.761904761904702
 20
2.297619047619122
 30
0.0
  0
VERTEX
  5
3280
  8
1DIM
 10
4.666666666666629
 20
2.011904761904844
 30
0.0
  0
VERTEX
  5
3281
  8
1DIM
 10
4.666666666666629
 20
1.821428571428669
 30
0.0
  0
VERTEX
  5
3282
  8
1DIM
 10
4.761904761904702
 20
1.535714285714363
 30
0.0
  0
VERTEX
  5
3283
  8
1DIM
 10
4.952380952380963
 20
1.345238095238187
 30
0.0
  0
VERTEX
  5
3284
  8
1DIM
 10
5.14285714285711
 20
1.250000000000085
 30
0.0
  0
VERTEX
  5
3285
  8
1DIM
 10
5.428571428571445
 20
1.250000000000085
 30
0.0
  0
VERTEX
  5
3286
  8
1DIM
 10
5.619047619047592
 20
1.345238095238187
 30
0.0
  0
VERTEX
  5
3287
  8
1DIM
 10
5.809523809523853
 20
1.535714285714363
 30
0.0
  0
SEQEND
  5
3288
  8
11
  0
POLYLINE
  5
3289
  8
11
 66
     1
 10
0.0
 20
0.0
 30
0.0
  0
VERTEX
  5
328A
  8
1DIM
 10
60.41904761904766
 20
2.011904761904844
 30
0.0
  0
VERTEX
  5
328B
  8
1DIM
 10
61.56190476190477
 20
2.011904761904844
 30
0.0
  0
VERTEX
  5
328C
  8
1DIM
 10
61.56190476190477
 20
2.20238095238102
 30
0.0
  0
VERTEX
  5
328D
  8
1DIM
 10
61.4666666666667
 20
2.392857142857224
 30
0.0
  0
VERTEX
  5
328E
  8
1DIM
 10
61.37142857142862
 20
2.488095238095298
 30
0.0
  0
VERTEX
  5
328F
  8
1DIM
 10
61.18095238095236
 20
2.5833333333334
 30
0.0
  0
VERTEX
  5
3290
  8
1DIM
 10
60.89523809523814
 20
2.5833333333334
 30
0.0
  0
VERTEX
  5
3291
  8
1DIM
 10
60.70476190476188
 20
2.488095238095298
 30
0.0
  0
VERTEX
  5
3292
  8
1DIM
 10
60.51428571428573
 20
2.297619047619122
 30
0.0
  0
VERTEX
  5
3293
  8
1DIM
 10
60.41904761904766
 20
2.011904761904844
 30
0.0
  0
VERTEX
  5
3294
  8
1DIM
 10
60.41904761904766
 20
1.821428571428669
 30
0.0
  0
VERTEX
  5
3295
  8
1DIM
 10
60.51428571428573
 20
1.535714285714363
 30
0.0
  0
VERTEX
  5
3296
  8
1DIM
 10
60.70476190476188
 20
1.345238095238187
 30
0.0
  0
VERTEX
  5
3297
  8
1DIM
 10
60.89523809523814
 20
1.250000000000085
 30
0.0
  0
VERTEX
  5
3298
  8
1DIM
 10
61.18095238095236
 20
1.250000000000085
 30
0.0
  0
VERTEX
  5
3299
  8
1DIM
 10
61.37142857142862
 20
1.345238095238187
 30
0.0
  0
VERTEX
  5
329A
  8
1DIM
 10
61.56190476190477
 20
1.535714285714363
 30
0.0
  0
SEQEND
  5
329B
  8
11
  0
POLYLINE
  5
329C
  8
11
 66
     1
 10
0.0
 20
0.0
 30
0.0
  0
VERTEX
  5
329D
  8
1DIM
 10
76.38095238095241
 20
0.6785714285715017
 30
0.0
  0
VERTEX
  5
329E
  8
1DIM
 10
76.57142857142856
 20
0.5833333333333997
 30
0.0
  0
VERTEX
  5
329F
  8
1DIM
 10
76.85714285714289
 20
0.5833333333333997
 30
0.0
  0
VERTEX
  5
32A0
  8
1DIM
 10
77.04761904761904
 20
0.6785714285715017
 30
0.0
  0
VERTEX
  5
32A1
  8
1DIM
 10
77.14285714285722
 20
0.7738095238096037
 30
0.0
  0
VERTEX
  5
32A2
  8
1DIM
 10
77.2380952380953
 20
1.059523809523881
 30
0.0
  0
VERTEX
  5
32A3
  8
1DIM
 10
77.2380952380953
 20
2.5833333333334
 30
0.0
  0
SEQEND
  5
32A4
  8
11
  0
POLYLINE
  5
32A5
  8
11
 66
     1
 10
0.0
 20
0.0
 30
0.0
  0
VERTEX
  5
32A6
  8
1DIM
 10
66.2285714285714
 20
0.6785714285715017
 30
0.0
  0
VERTEX
  5
32A7
  8
1DIM
 10
66.41904761904766
 20
0.5833333333333997
 30
0.0
  0
VERTEX
  5
32A8
  8
1DIM
 10
66.704761904762
 20
0.5833333333333997
 30
0.0
  0
VERTEX
  5
32A9
  8
1DIM
 10
66.89523809523814
 20
0.6785714285715017
 30
0.0
  0
VERTEX
  5
32AA
  8
1DIM
 10
66.99047619047622
 20
0.7738095238096037
 30
0.0
  0
VERTEX
  5
32AB
  8
1DIM
 10
67.08571428571429
 20
1.059523809523881
 30
0.0
  0
VERTEX
  5
32AC
  8
1DIM
 10
67.08571428571429
 20
2.5833333333334
 30
0.0
  0
SEQEND
  5
32AD
  8
11
  0
POLYLINE
  5
32AE
  8
11
 66
     1
 10
0.0
 20
0.0
 30
0.0
  0
VERTEX
  5
32AF
  8
1DIM
 10
74.38095238095241
 20
1.250000000000085
 30
0.0
  0
VERTEX
  5
32B0
  8
1DIM
 10
74.38095238095241
 20
2.5833333333334
 30
0.0
  0
SEQEND
  5
32B1
  8
11
  0
POLYLINE
  5
32B2
  8
11
 66
     1
 10
0.0
 20
0.0
 30
0.0
  0
VERTEX
  5
32B3
  8
1DIM
 10
73.61904761904759
 20
1.250000000000085
 30
0.0
  0
VERTEX
  5
32B4
  8
1DIM
 10
73.61904761904759
 20
2.5833333333334
 30
0.0
  0
SEQEND
  5
32B5
  8
11
  0
POLYLINE
  5
32B6
  8
11
 66
     1
 10
0.0
 20
0.0
 30
0.0
  0
VERTEX
  5
32B7
  8
1DIM
 10
70.76190476190482
 20
2.20238095238102
 30
0.0
  0
VERTEX
  5
32B8
  8
1DIM
 10
71.04761904761904
 20
2.488095238095298
 30
0.0
  0
VERTEX
  5
32B9
  8
1DIM
 10
71.2380952380953
 20
2.5833333333334
 30
0.0
  0
VERTEX
  5
32BA
  8
1DIM
 10
71.52380952380952
 20
2.5833333333334
 30
0.0
  0
VERTEX
  5
32BB
  8
1DIM
 10
71.71428571428578
 20
2.488095238095298
 30
0.0
  0
VERTEX
  5
32BC
  8
1DIM
 10
71.80952380952385
 20
2.20238095238102
 30
0.0
  0
VERTEX
  5
32BD
  8
1DIM
 10
71.80952380952385
 20
1.250000000000085
 30
0.0
  0
SEQEND
  5
32BE
  8
11
  0
POLYLINE
  5
32BF
  8
11
 66
     1
 10
0.0
 20
0.0
 30
0.0
  0
VERTEX
  5
32C0
  8
1DIM
 10
70.09523809523807
 20
1.535714285714363
 30
0.0
  0
VERTEX
  5
32C1
  8
1DIM
 10
69.90476190476193
 20
1.345238095238187
 30
0.0
  0
VERTEX
  5
32C2
  8
1DIM
 10
69.71428571428578
 20
1.250000000000085
 30
0.0
  0
VERTEX
  5
32C3
  8
1DIM
 10
69.42857142857144
 20
1.250000000000085
 30
0.0
  0
VERTEX
  5
32C4
  8
1DIM
 10
69.2380952380953
 20
1.345238095238187
 30
0.0
  0
VERTEX
  5
32C5
  8
1DIM
 10
69.04761904761904
 20
1.535714285714363
 30
0.0
  0
VERTEX
  5
32C6
  8
1DIM
 10
68.95238095238096
 20
1.821428571428669
 30
0.0
  0
VERTEX
  5
32C7
  8
1DIM
 10
68.95238095238096
 20
2.011904761904844
 30
0.0
  0
VERTEX
  5
32C8
  8
1DIM
 10
69.04761904761904
 20
2.297619047619122
 30
0.0
  0
VERTEX
  5
32C9
  8
1DIM
 10
69.2380952380953
 20
2.488095238095298
 30
0.0
  0
VERTEX
  5
32CA
  8
1DIM
 10
69.42857142857144
 20
2.5833333333334
 30
0.0
  0
VERTEX
  5
32CB
  8
1DIM
 10
69.71428571428578
 20
2.5833333333334
 30
0.0
  0
VERTEX
  5
32CC
  8
1DIM
 10
69.90476190476193
 20
2.488095238095298
 30
0.0
  0
VERTEX
  5
32CD
  8
1DIM
 10
70.09523809523807
 20
2.297619047619122
 30
0.0
  0
SEQEND
  5
32CE
  8
11
  0
POLYLINE
  5
32CF
  8
11
 66
     1
 10
0.0
 20
0.0
 30
0.0
  0
VERTEX
  5
32D0
  8
1DIM
 10
21.85714285714289
 20
2.011904761904844
 30
0.0
  0
VERTEX
  5
32D1
  8
1DIM
 10
23.0
 20
2.011904761904844
 30
0.0
  0
VERTEX
  5
32D2
  8
1DIM
 10
23.0
 20
2.20238095238102
 30
0.0
  0
VERTEX
  5
32D3
  8
1DIM
 10
22.90476190476193
 20
2.392857142857224
 30
0.0
  0
VERTEX
  5
32D4
  8
1DIM
 10
22.80952380952385
 20
2.488095238095298
 30
0.0
  0
VERTEX
  5
32D5
  8
1DIM
 10
22.61904761904759
 20
2.5833333333334
 30
0.0
  0
VERTEX
  5
32D6
  8
1DIM
 10
22.33333333333337
 20
2.5833333333334
 30
0.0
  0
VERTEX
  5
32D7
  8
1DIM
 10
22.14285714285711
 20
2.488095238095298
 30
0.0
  0
VERTEX
  5
32D8
  8
1DIM
 10
21.95238095238096
 20
2.297619047619122
 30
0.0
  0
VERTEX
  5
32D9
  8
1DIM
 10
21.85714285714289
 20
2.011904761904844
 30
0.0
  0
VERTEX
  5
32DA
  8
1DIM
 10
21.85714285714289
 20
1.821428571428669
 30
0.0
  0
VERTEX
  5
32DB
  8
1DIM
 10
21.95238095238096
 20
1.535714285714363
 30
0.0
  0
VERTEX
  5
32DC
  8
1DIM
 10
22.14285714285711
 20
1.345238095238187
 30
0.0
  0
VERTEX
  5
32DD
  8
1DIM
 10
22.33333333333337
 20
1.250000000000085
 30
0.0
  0
VERTEX
  5
32DE
  8
1DIM
 10
22.61904761904759
 20
1.250000000000085
 30
0.0
  0
VERTEX
  5
32DF
  8
1DIM
 10
22.80952380952385
 20
1.345238095238187
 30
0.0
  0
VERTEX
  5
32E0
  8
1DIM
 10
23.0
 20
1.535714285714363
 30
0.0
  0
SEQEND
  5
32E1
  8
11
  0
POLYLINE
  5
32E2
  8
11
 66
     1
 10
0.0
 20
0.0
 30
0.0
  0
VERTEX
  5
32E3
  8
1DIM
 10
56.2285714285714
 20
1.250000000000085
 30
0.0
  0
VERTEX
  5
32E4
  8
1DIM
 10
56.2285714285714
 20
2.488095238095298
 30
0.0
  0
SEQEND
  5
32E5
  8
11
  0
POLYLINE
  5
32E6
  8
11
 66
     1
 10
0.0
 20
0.0
 30
0.0
  0
VERTEX
  5
32E7
  8
1DIM
 10
50.79999999999995
 20
1.250000000000085
 30
0.0
  0
VERTEX
  5
32E8
  8
1DIM
 10
52.03809523809525
 20
1.250000000000085
 30
0.0
  0
SEQEND
  5
32E9
  8
11
  0
POLYLINE
  5
32EA
  8
11
 66
     1
 10
0.0
 20
0.0
 30
0.0
  0
VERTEX
  5
32EB
  8
1DIM
 10
67.08571428571429
 20
2.297619047619122
 30
0.0
  0
VERTEX
  5
32EC
  8
1DIM
 10
66.89523809523814
 20
2.488095238095298
 30
0.0
  0
VERTEX
  5
32ED
  8
1DIM
 10
66.704761904762
 20
2.5833333333334
 30
0.0
  0
VERTEX
  5
32EE
  8
1DIM
 10
66.41904761904766
 20
2.5833333333334
 30
0.0
  0
VERTEX
  5
32EF
  8
1DIM
 10
66.2285714285714
 20
2.488095238095298
 30
0.0
  0
VERTEX
  5
32F0
  8
1DIM
 10
66.03809523809525
 20
2.297619047619122
 30
0.0
  0
VERTEX
  5
32F1
  8
1DIM
 10
65.94285714285718
 20
2.011904761904844
 30
0.0
  0
VERTEX
  5
32F2
  8
1DIM
 10
65.94285714285718
 20
1.821428571428669
 30
0.0
  0
VERTEX
  5
32F3
  8
1DIM
 10
66.03809523809525
 20
1.535714285714363
 30
0.0
  0
VERTEX
  5
32F4
  8
1DIM
 10
66.2285714285714
 20
1.345238095238187
 30
0.0
  0
VERTEX
  5
32F5
  8
1DIM
 10
66.41904761904766
 20
1.250000000000085
 30
0.0
  0
VERTEX
  5
32F6
  8
1DIM
 10
66.704761904762
 20
1.250000000000085
 30
0.0
  0
VERTEX
  5
32F7
  8
1DIM
 10
66.89523809523814
 20
1.345238095238187
 30
0.0
  0
VERTEX
  5
32F8
  8
1DIM
 10
67.08571428571429
 20
1.535714285714363
 30
0.0
  0
SEQEND
  5
32F9
  8
11
  0
POLYLINE
  5
32FA
  8
11
 66
     1
 10
0.0
 20
0.0
 30
0.0
  0
VERTEX
  5
32FB
  8
1DIM
 10
63.4666666666667
 20
1.250000000000085
 30
0.0
  0
VERTEX
  5
32FC
  8
1DIM
 10
63.4666666666667
 20
2.488095238095298
 30
0.0
  0
SEQEND
  5
32FD
  8
11
  0
POLYLINE
  5
32FE
  8
11
 66
     1
 10
0.0
 20
0.0
 30
0.0
  0
VERTEX
  5
32FF
  8
1DIM
 10
56.99047619047622
 20
1.250000000000085
 30
0.0
  0
VERTEX
  5
3300
  8
1DIM
 10
56.99047619047622
 20
2.5833333333334
 30
0.0
  0
SEQEND
  5
3301
  8
11
  0
POLYLINE
  5
3302
  8
11
 66
     1
 10
0.0
 20
0.0
 30
0.0
  0
VERTEX
  5
3303
  8
1DIM
 10
51.56190476190477
 20
2.297619047619122
 30
0.0
  0
VERTEX
  5
3304
  8
1DIM
 10
50.79999999999995
 20
2.297619047619122
 30
0.0
  0
SEQEND
  5
3305
  8
11
  0
POLYLINE
  5
3306
  8
11
 66
     1
 10
0.0
 20
0.0
 30
0.0
  0
VERTEX
  5
3307
  8
1DIM
 10
55.4666666666667
 20
2.297619047619122
 30
0.0
  0
VERTEX
  5
3308
  8
1DIM
 10
55.27619047619044
 20
2.488095238095298
 30
0.0
  0
VERTEX
  5
3309
  8
1DIM
 10
55.08571428571429
 20
2.5833333333334
 30
0.0
  0
VERTEX
  5
330A
  8
1DIM
 10
54.79999999999995
 20
2.5833333333334
 30
0.0
  0
VERTEX
  5
330B
  8
1DIM
 10
54.60952380952381
 20
2.488095238095298
 30
0.0
  0
VERTEX
  5
330C
  8
1DIM
 10
54.41904761904766
 20
2.297619047619122
 30
0.0
  0
VERTEX
  5
330D
  8
1DIM
 10
54.32380952380947
 20
2.011904761904844
 30
0.0
  0
VERTEX
  5
330E
  8
1DIM
 10
54.32380952380947
 20
1.821428571428669
 30
0.0
  0
VERTEX
  5
330F
  8
1DIM
 10
54.41904761904766
 20
1.535714285714363
 30
0.0
  0
VERTEX
  5
3310
  8
1DIM
 10
54.60952380952381
 20
1.345238095238187
 30
0.0
  0
VERTEX
  5
3311
  8
1DIM
 10
54.79999999999995
 20
1.250000000000085
 30
0.0
  0
VERTEX
  5
3312
  8
1DIM
 10
55.08571428571429
 20
1.250000000000085
 30
0.0
  0
VERTEX
  5
3313
  8
1DIM
 10
55.27619047619044
 20
1.345238095238187
 30
0.0
  0
VERTEX
  5
3314
  8
1DIM
 10
55.4666666666667
 20
1.535714285714363
 30
0.0
  0
SEQEND
  5
3315
  8
11
  0
POLYLINE
  5
3316
  8
11
 66
     1
 10
0.0
 20
0.0
 30
0.0
  0
VERTEX
  5
3317
  8
1DIM
 10
62.2285714285714
 20
1.250000000000085
 30
0.0
  0
VERTEX
  5
3318
  8
1DIM
 10
62.2285714285714
 20
2.5833333333334
 30
0.0
  0
SEQEND
  5
3319
  8
11
  0
POLYLINE
  5
331A
  8
11
 66
     1
 10
0.0
 20
0.0
 30
0.0
  0
VERTEX
  5
331B
  8
1DIM
 10
21.38095238095241
 20
1.250000000000085
 30
0.0
  0
VERTEX
  5
331C
  8
1DIM
 10
21.19047619047626
 20
1.250000000000085
 30
0.0
  0
VERTEX
  5
331D
  8
1DIM
 10
21.0
 20
1.345238095238187
 30
0.0
  0
VERTEX
  5
331E
  8
1DIM
 10
20.90476190476193
 20
1.630952380952465
 30
0.0
  0
VERTEX
  5
331F
  8
1DIM
 10
20.90476190476193
 20
3.250000000000085
 30
0.0
  0
SEQEND
  5
3320
  8
11
  0
POLYLINE
  5
3321
  8
11
 66
     1
 10
0.0
 20
0.0
 30
0.0
  0
VERTEX
  5
3322
  8
1DIM
 10
50.79999999999995
 20
1.250000000000085
 30
0.0
  0
VERTEX
  5
3323
  8
1DIM
 10
50.79999999999995
 20
3.250000000000085
 30
0.0
  0
VERTEX
  5
3324
  8
1DIM
 10
52.03809523809525
 20
3.250000000000085
 30
0.0
  0
SEQEND
  5
3325
  8
11
  0
POLYLINE
  5
3326
  8
11
 66
     1
 10
0.0
 20
0.0
 30
0.0
  0
VERTEX
  5
3327
  8
1DIM
 10
125.0952380952381
 20
2.5833333333334
 30
0.0
  0
VERTEX
  5
3328
  8
1DIM
 10
124.7142857142857
 20
1.250000000000085
 30
0.0
  0
SEQEND
  5
3329
  8
11
  0
POLYLINE
  5
332A
  8
11
 66
     1
 10
0.0
 20
0.0
 30
0.0
  0
VERTEX
  5
332B
  8
1DIM
 10
126.7142857142857
 20
0.6785714285715017
 30
0.0
  0
VERTEX
  5
332C
  8
1DIM
 10
126.9047619047618
 20
0.5833333333333997
 30
0.0
  0
VERTEX
  5
332D
  8
1DIM
 10
127.1904761904761
 20
0.5833333333333997
 30
0.0
  0
VERTEX
  5
332E
  8
1DIM
 10
127.3809523809524
 20
0.6785714285715017
 30
0.0
  0
VERTEX
  5
332F
  8
1DIM
 10
127.4761904761905
 20
0.7738095238096037
 30
0.0
  0
VERTEX
  5
3330
  8
1DIM
 10
127.5714285714286
 20
1.059523809523881
 30
0.0
  0
VERTEX
  5
3331
  8
1DIM
 10
127.5714285714286
 20
2.5833333333334
 30
0.0
  0
SEQEND
  5
3332
  8
11
  0
POLYLINE
  5
3333
  8
11
 66
     1
 10
0.0
 20
0.0
 30
0.0
  0
VERTEX
  5
3334
  8
1DIM
 10
56.99047619047622
 20
2.20238095238102
 30
0.0
  0
VERTEX
  5
3335
  8
1DIM
 10
57.27619047619044
 20
2.488095238095298
 30
0.0
  0
VERTEX
  5
3336
  8
1DIM
 10
57.4666666666667
 20
2.5833333333334
 30
0.0
  0
VERTEX
  5
3337
  8
1DIM
 10
57.75238095238092
 20
2.5833333333334
 30
0.0
  0
VERTEX
  5
3338
  8
1DIM
 10
57.94285714285718
 20
2.488095238095298
 30
0.0
  0
VERTEX
  5
3339
  8
1DIM
 10
58.03809523809525
 20
2.20238095238102
 30
0.0
  0
VERTEX
  5
333A
  8
1DIM
 10
58.03809523809525
 20
1.250000000000085
 30
0.0
  0
SEQEND
  5
333B
  8
11
  0
POLYLINE
  5
333C
  8
11
 66
     1
 10
0.0
 20
0.0
 30
0.0
  0
VERTEX
  5
333D
  8
1DIM
 10
20.04761904761904
 20
2.297619047619122
 30
0.0
  0
VERTEX
  5
333E
  8
1DIM
 10
19.85714285714289
 20
2.488095238095298
 30
0.0
  0
VERTEX
  5
333F
  8
1DIM
 10
19.66666666666663
 20
2.5833333333334
 30
0.0
  0
VERTEX
  5
3340
  8
1DIM
 10
19.38095238095241
 20
2.5833333333334
 30
0.0
  0
VERTEX
  5
3341
  8
1DIM
 10
19.19047619047626
 20
2.488095238095298
 30
0.0
  0
VERTEX
  5
3342
  8
1DIM
 10
19.0
 20
2.297619047619122
 30
0.0
  0
VERTEX
  5
3343
  8
1DIM
 10
18.90476190476193
 20
2.011904761904844
 30
0.0
  0
VERTEX
  5
3344
  8
1DIM
 10
18.90476190476193
 20
1.821428571428669
 30
0.0
  0
VERTEX
  5
3345
  8
1DIM
 10
19.0
 20
1.535714285714363
 30
0.0
  0
VERTEX
  5
3346
  8
1DIM
 10
19.19047619047626
 20
1.345238095238187
 30
0.0
  0
VERTEX
  5
3347
  8
1DIM
 10
19.38095238095241
 20
1.250000000000085
 30
0.0
  0
VERTEX
  5
3348
  8
1DIM
 10
19.66666666666663
 20
1.250000000000085
 30
0.0
  0
VERTEX
  5
3349
  8
1DIM
 10
19.85714285714289
 20
1.345238095238187
 30
0.0
  0
VERTEX
  5
334A
  8
1DIM
 10
20.04761904761904
 20
1.535714285714363
 30
0.0
  0
SEQEND
  5
334B
  8
11
  0
POLYLINE
  5
334C
  8
11
 66
     1
 10
0.0
 20
0.0
 30
0.0
  0
VERTEX
  5
334D
  8
1DIM
 10
17.0
 20
1.250000000000085
 30
0.0
  0
VERTEX
  5
334E
  8
1DIM
 10
17.0
 20
3.250000000000085
 30
0.0
  0
VERTEX
  5
334F
  8
1DIM
 10
17.66666666666663
 20
3.250000000000085
 30
0.0
  0
VERTEX
  5
3350
  8
1DIM
 10
17.95238095238096
 20
3.154761904761983
 30
0.0
  0
VERTEX
  5
3351
  8
1DIM
 10
18.14285714285711
 20
2.964285714285779
 30
0.0
  0
VERTEX
  5
3352
  8
1DIM
 10
18.2380952380953
 20
2.773809523809604
 30
0.0
  0
VERTEX
  5
3353
  8
1DIM
 10
18.33333333333337
 20
2.488095238095298
 30
0.0
  0
VERTEX
  5
3354
  8
1DIM
 10
18.33333333333337
 20
2.011904761904844
 30
0.0
  0
VERTEX
  5
3355
  8
1DIM
 10
18.2380952380953
 20
1.726190476190538
 30
0.0
  0
VERTEX
  5
3356
  8
1DIM
 10
18.14285714285711
 20
1.535714285714363
 30
0.0
  0
VERTEX
  5
3357
  8
1DIM
 10
17.95238095238096
 20
1.345238095238187
 30
0.0
  0
VERTEX
  5
3358
  8
1DIM
 10
17.66666666666663
 20
1.250000000000085
 30
0.0
  0
VERTEX
  5
3359
  8
1DIM
 10
17.0
 20
1.250000000000085
 30
0.0
  0
SEQEND
  5
335A
  8
11
  0
POLYLINE
  5
335B
  8
11
 66
     1
 10
0.0
 20
0.0
 30
0.0
  0
VERTEX
  5
335C
  8
1DIM
 10
52.60952380952381
 20
1.250000000000085
 30
0.0
  0
VERTEX
  5
335D
  8
1DIM
 10
52.60952380952381
 20
2.5833333333334
 30
0.0
  0
SEQEND
  5
335E
  8
11
  0
POLYLINE
  5
335F
  8
11
 66
     1
 10
0.0
 20
0.0
 30
0.0
  0
VERTEX
  5
3360
  8
1DIM
 10
122.4285714285714
 20
1.250000000000085
 30
0.0
  0
VERTEX
  5
3361
  8
1DIM
 10
122.4285714285714
 20
3.250000000000085
 30
0.0
  0
VERTEX
  5
3362
  8
1DIM
 10
123.0952380952381
 20
3.250000000000085
 30
0.0
  0
VERTEX
  5
3363
  8
1DIM
 10
123.3809523809524
 20
3.154761904761983
 30
0.0
  0
VERTEX
  5
3364
  8
1DIM
 10
123.5714285714286
 20
2.964285714285779
 30
0.0
  0
VERTEX
  5
3365
  8
1DIM
 10
123.6666666666666
 20
2.773809523809604
 30
0.0
  0
VERTEX
  5
3366
  8
1DIM
 10
123.7619047619047
 20
2.488095238095298
 30
0.0
  0
VERTEX
  5
3367
  8
1DIM
 10
123.7619047619047
 20
2.011904761904844
 30
0.0
  0
VERTEX
  5
3368
  8
1DIM
 10
123.6666666666666
 20
1.726190476190538
 30
0.0
  0
VERTEX
  5
3369
  8
1DIM
 10
123.5714285714286
 20
1.535714285714363
 30
0.0
  0
VERTEX
  5
336A
  8
1DIM
 10
123.3809523809524
 20
1.345238095238187
 30
0.0
  0
VERTEX
  5
336B
  8
1DIM
 10
123.0952380952381
 20
1.250000000000085
 30
0.0
  0
VERTEX
  5
336C
  8
1DIM
 10
122.4285714285714
 20
1.250000000000085
 30
0.0
  0
SEQEND
  5
336D
  8
11
  0
POLYLINE
  5
336E
  8
11
 66
     1
 10
0.0
 20
0.0
 30
0.0
  0
VERTEX
  5
336F
  8
1DIM
 10
52.60952380952381
 20
2.20238095238102
 30
0.0
  0
VERTEX
  5
3370
  8
1DIM
 10
52.89523809523814
 20
2.488095238095298
 30
0.0
  0
VERTEX
  5
3371
  8
1DIM
 10
53.08571428571429
 20
2.5833333333334
 30
0.0
  0
VERTEX
  5
3372
  8
1DIM
 10
53.37142857142851
 20
2.5833333333334
 30
0.0
  0
VERTEX
  5
3373
  8
1DIM
 10
53.56190476190477
 20
2.488095238095298
 30
0.0
  0
VERTEX
  5
3374
  8
1DIM
 10
53.65714285714284
 20
2.20238095238102
 30
0.0
  0
VERTEX
  5
3375
  8
1DIM
 10
53.65714285714284
 20
1.250000000000085
 30
0.0
  0
SEQEND
  5
3376
  8
11
  0
POLYLINE
  5
3377
  8
11
 66
     1
 10
0.0
 20
0.0
 30
0.0
  0
VERTEX
  5
3378
  8
1DIM
 10
125.4761904761905
 20
1.250000000000085
 30
0.0
  0
VERTEX
  5
3379
  8
1DIM
 10
125.0952380952381
 20
2.5833333333334
 30
0.0
  0
SEQEND
  5
337A
  8
11
  0
POLYLINE
  5
337B
  8
11
 66
     1
 10
0.0
 20
0.0
 30
0.0
  0
VERTEX
  5
337C
  8
1DIM
 10
127.5714285714286
 20
2.297619047619122
 30
0.0
  0
VERTEX
  5
337D
  8
1DIM
 10
127.3809523809524
 20
2.488095238095298
 30
0.0
  0
VERTEX
  5
337E
  8
1DIM
 10
127.1904761904761
 20
2.5833333333334
 30
0.0
  0
VERTEX
  5
337F
  8
1DIM
 10
126.9047619047618
 20
2.5833333333334
 30
0.0
  0
VERTEX
  5
3380
  8
1DIM
 10
126.7142857142857
 20
2.488095238095298
 30
0.0
  0
VERTEX
  5
3381
  8
1DIM
 10
126.5238095238095
 20
2.297619047619122
 30
0.0
  0
VERTEX
  5
3382
  8
1DIM
 10
126.4285714285714
 20
2.011904761904844
 30
0.0
  0
VERTEX
  5
3383
  8
1DIM
 10
126.4285714285714
 20
1.821428571428669
 30
0.0
  0
VERTEX
  5
3384
  8
1DIM
 10
126.5238095238095
 20
1.535714285714363
 30
0.0
  0
VERTEX
  5
3385
  8
1DIM
 10
126.7142857142857
 20
1.345238095238187
 30
0.0
  0
VERTEX
  5
3386
  8
1DIM
 10
126.9047619047618
 20
1.250000000000085
 30
0.0
  0
VERTEX
  5
3387
  8
1DIM
 10
127.1904761904761
 20
1.250000000000085
 30
0.0
  0
VERTEX
  5
3388
  8
1DIM
 10
127.3809523809524
 20
1.345238095238187
 30
0.0
  0
VERTEX
  5
3389
  8
1DIM
 10
127.5714285714286
 20
1.535714285714363
 30
0.0
  0
SEQEND
  5
338A
  8
11
  0
POLYLINE
  5
338B
  8
11
 66
     1
 10
0.0
 20
0.0
 30
0.0
  0
VERTEX
  5
338C
  8
1DIM
 10
124.7142857142857
 20
1.250000000000085
 30
0.0
  0
VERTEX
  5
338D
  8
1DIM
 10
124.3333333333333
 20
2.5833333333334
 30
0.0
  0
SEQEND
  5
338E
  8
11
  0
POLYLINE
  5
338F
  8
11
 66
     1
 10
0.0
 20
0.0
 30
0.0
  0
VERTEX
  5
3390
  8
1DIM
 10
4.285714285714334
 20
3.250000000000085
 30
0.0
  0
VERTEX
  5
3391
  8
1DIM
 10
3.523809523809518
 20
1.250000000000085
 30
0.0
  0
SEQEND
  5
3392
  8
11
  0
POLYLINE
  5
3393
  8
11
 66
     1
 10
0.0
 20
0.0
 30
0.0
  0
VERTEX
  5
3394
  8
1DIM
 10
54.60952380952381
 20
0.6785714285715017
 30
0.0
  0
VERTEX
  5
3395
  8
1DIM
 10
54.79999999999995
 20
0.5833333333333997
 30
0.0
  0
VERTEX
  5
3396
  8
1DIM
 10
55.08571428571429
 20
0.5833333333333997
 30
0.0
  0
VERTEX
  5
3397
  8
1DIM
 10
55.27619047619044
 20
0.6785714285715017
 30
0.0
  0
VERTEX
  5
3398
  8
1DIM
 10
55.37142857142851
 20
0.7738095238096037
 30
0.0
  0
VERTEX
  5
3399
  8
1DIM
 10
55.4666666666667
 20
1.059523809523881
 30
0.0
  0
VERTEX
  5
339A
  8
1DIM
 10
55.4666666666667
 20
2.5833333333334
 30
0.0
  0
SEQEND
  5
339B
  8
11
  0
POLYLINE
  5
339C
  8
11
 66
     1
 10
0.0
 20
0.0
 30
0.0
  0
VERTEX
  5
339D
  8
1DIM
 10
6.476190476190482
 20
2.011904761904844
 30
0.0
  0
VERTEX
  5
339E
  8
1DIM
 10
6.571428571428555
 20
2.297619047619122
 30
0.0
  0
VERTEX
  5
339F
  8
1DIM
 10
6.761904761904702
 20
2.488095238095298
 30
0.0
  0
VERTEX
  5
33A0
  8
1DIM
 10
6.952380952380963
 20
2.5833333333334
 30
0.0
  0
VERTEX
  5
33A1
  8
1DIM
 10
7.238095238095184
 20
2.5833333333334
 30
0.0
  0
SEQEND
  5
33A2
  8
11
  0
POLYLINE
  5
33A3
  8
11
 66
     1
 10
0.0
 20
0.0
 30
0.0
  0
VERTEX
  5
33A4
  8
1DIM
 10
6.476190476190482
 20
1.250000000000085
 30
0.0
  0
VERTEX
  5
33A5
  8
1DIM
 10
6.476190476190482
 20
2.5833333333334
 30
0.0
  0
SEQEND
  5
33A6
  8
11
  0
POLYLINE
  5
33A7
  8
11
 66
     1
 10
0.0
 20
0.0
 30
0.0
  0
VERTEX
  5
33A8
  8
1DIM
 10
64.2285714285714
 20
2.20238095238102
 30
0.0
  0
VERTEX
  5
33A9
  8
1DIM
 10
64.51428571428573
 20
2.488095238095298
 30
0.0
  0
VERTEX
  5
33AA
  8
1DIM
 10
64.70476190476188
 20
2.5833333333334
 30
0.0
  0
VERTEX
  5
33AB
  8
1DIM
 10
64.99047619047622
 20
2.5833333333334
 30
0.0
  0
VERTEX
  5
33AC
  8
1DIM
 10
65.18095238095236
 20
2.488095238095298
 30
0.0
  0
VERTEX
  5
33AD
  8
1DIM
 10
65.27619047619044
 20
2.20238095238102
 30
0.0
  0
VERTEX
  5
33AE
  8
1DIM
 10
65.27619047619044
 20
1.250000000000085
 30
0.0
  0
SEQEND
  5
33AF
  8
11
  0
POLYLINE
  5
33B0
  8
11
 66
     1
 10
0.0
 20
0.0
 30
0.0
  0
VERTEX
  5
33B1
  8
1DIM
 10
74.38095238095241
 20
2.20238095238102
 30
0.0
  0
VERTEX
  5
33B2
  8
1DIM
 10
74.66666666666663
 20
2.488095238095298
 30
0.0
  0
VERTEX
  5
33B3
  8
1DIM
 10
74.85714285714289
 20
2.5833333333334
 30
0.0
  0
VERTEX
  5
33B4
  8
1DIM
 10
75.14285714285722
 20
2.5833333333334
 30
0.0
  0
VERTEX
  5
33B5
  8
1DIM
 10
75.33333333333337
 20
2.488095238095298
 30
0.0
  0
VERTEX
  5
33B6
  8
1DIM
 10
75.42857142857144
 20
2.20238095238102
 30
0.0
  0
VERTEX
  5
33B7
  8
1DIM
 10
75.42857142857144
 20
1.250000000000085
 30
0.0
  0
SEQEND
  5
33B8
  8
11
  0
POLYLINE
  5
33B9
  8
11
 66
     1
 10
0.0
 20
0.0
 30
0.0
  0
VERTEX
  5
33BA
  8
1DIM
 10
56.13333333333333
 20
3.154761904761983
 30
0.0
  0
VERTEX
  5
33BB
  8
1DIM
 10
56.2285714285714
 20
3.250000000000085
 30
0.0
  0
VERTEX
  5
33BC
  8
1DIM
 10
56.32380952380947
 20
3.154761904761983
 30
0.0
  0
VERTEX
  5
33BD
  8
1DIM
 10
56.2285714285714
 20
3.059523809523881
 30
0.0
  0
VERTEX
  5
33BE
  8
1DIM
 10
56.13333333333333
 20
3.154761904761983
 30
0.0
  0
SEQEND
  5
33BF
  8
11
  0
POLYLINE
  5
33C0
  8
11
 66
     1
 10
0.0
 20
0.0
 30
0.0
  0
VERTEX
  5
33C1
  8
1DIM
 10
62.2285714285714
 20
2.011904761904844
 30
0.0
  0
VERTEX
  5
33C2
  8
1DIM
 10
62.32380952380947
 20
2.297619047619122
 30
0.0
  0
VERTEX
  5
33C3
  8
1DIM
 10
62.51428571428573
 20
2.488095238095298
 30
0.0
  0
VERTEX
  5
33C4
  8
1DIM
 10
62.70476190476188
 20
2.5833333333334
 30
0.0
  0
VERTEX
  5
33C5
  8
1DIM
 10
62.99047619047622
 20
2.5833333333334
 30
0.0
  0
SEQEND
  5
33C6
  8
11
  0
POLYLINE
  5
33C7
  8
11
 66
     1
 10
0.0
 20
0.0
 30
0.0
  0
VERTEX
  5
33C8
  8
1DIM
 10
63.37142857142862
 20
3.154761904761983
 30
0.0
  0
VERTEX
  5
33C9
  8
1DIM
 10
63.4666666666667
 20
3.250000000000085
 30
0.0
  0
VERTEX
  5
33CA
  8
1DIM
 10
63.56190476190477
 20
3.154761904761983
 30
0.0
  0
VERTEX
  5
33CB
  8
1DIM
 10
63.4666666666667
 20
3.059523809523881
 30
0.0
  0
VERTEX
  5
33CC
  8
1DIM
 10
63.37142857142862
 20
3.154761904761983
 30
0.0
  0
SEQEND
  5
33CD
  8
11
  0
POLYLINE
  5
33CE
  8
11
 66
     1
 10
0.0
 20
0.0
 30
0.0
  0
VERTEX
  5
33CF
  8
1DIM
 10
20.61904761904759
 20
2.5833333333334
 30
0.0
  0
VERTEX
  5
33D0
  8
1DIM
 10
21.28571428571433
 20
2.5833333333334
 30
0.0
  0
SEQEND
  5
33D1
  8
11
  0
POLYLINE
  5
33D2
  8
11
 66
     1
 10
0.0
 20
0.0
 30
0.0
  0
VERTEX
  5
33D3
  8
1DIM
 10
125.8571428571428
 20
2.5833333333334
 30
0.0
  0
VERTEX
  5
33D4
  8
1DIM
 10
125.4761904761905
 20
1.250000000000085
 30
0.0
  0
SEQEND
  5
33D5
  8
11
  0
POLYLINE
  5
33D6
  8
11
 66
     1
 10
0.0
 20
0.0
 30
0.0
  0
VERTEX
  5
33D7
  8
1DIM
 10
64.2285714285714
 20
1.250000000000085
 30
0.0
  0
VERTEX
  5
33D8
  8
1DIM
 10
64.2285714285714
 20
2.5833333333334
 30
0.0
  0
SEQEND
  5
33D9
  8
11
  0
POLYLINE
  5
33DA
  8
11
 66
     1
 10
0.0
 20
0.0
 30
0.0
  0
VERTEX
  5
33DB
  8
1DIM
 10
70.76190476190482
 20
1.250000000000085
 30
0.0
  0
VERTEX
  5
33DC
  8
1DIM
 10
70.76190476190482
 20
3.250000000000085
 30
0.0
  0
SEQEND
  5
33DD
  8
11
  0
POLYLINE
  5
33DE
  8
11
 66
     1
 10
0.0
 20
0.0
 30
0.0
  0
VERTEX
  5
33DF
  8
1DIM
 10
85.67619047619053
 20
1.250000000000085
 30
0.0
  0
VERTEX
  5
33E0
  8
1DIM
 10
85.67619047619053
 20
2.488095238095298
 30
0.0
  0
SEQEND
  5
33E1
  8
11
  0
POLYLINE
  5
33E2
  8
11
 66
     1
 10
0.0
 20
0.0
 30
0.0
  0
VERTEX
  5
33E3
  8
1DIM
 10
80.91428571428571
 20
2.20238095238102
 30
0.0
  0
VERTEX
  5
33E4
  8
1DIM
 10
81.20000000000005
 20
2.488095238095298
 30
0.0
  0
VERTEX
  5
33E5
  8
1DIM
 10
81.39047619047619
 20
2.5833333333334
 30
0.0
  0
VERTEX
  5
33E6
  8
1DIM
 10
81.67619047619053
 20
2.5833333333334
 30
0.0
  0
VERTEX
  5
33E7
  8
1DIM
 10
81.86666666666667
 20
2.488095238095298
 30
0.0
  0
VERTEX
  5
33E8
  8
1DIM
 10
81.96190476190475
 20
2.20238095238102
 30
0.0
  0
VERTEX
  5
33E9
  8
1DIM
 10
81.96190476190475
 20
1.250000000000085
 30
0.0
  0
SEQEND
  5
33EA
  8
11
  0
POLYLINE
  5
33EB
  8
11
 66
     1
 10
0.0
 20
0.0
 30
0.0
  0
VERTEX
  5
33EC
  8
1DIM
 10
85.10476190476186
 20
1.250000000000085
 30
0.0
  0
VERTEX
  5
33ED
  8
1DIM
 10
84.91428571428571
 20
1.250000000000085
 30
0.0
  0
VERTEX
  5
33EE
  8
1DIM
 10
84.72380952380956
 20
1.345238095238187
 30
0.0
  0
VERTEX
  5
33EF
  8
1DIM
 10
84.62857142857149
 20
1.630952380952465
 30
0.0
  0
VERTEX
  5
33F0
  8
1DIM
 10
84.62857142857149
 20
3.250000000000085
 30
0.0
  0
SEQEND
  5
33F1
  8
11
  0
POLYLINE
  5
33F2
  8
11
 66
     1
 10
0.0
 20
0.0
 30
0.0
  0
VERTEX
  5
33F3
  8
1DIM
 10
84.34285714285716
 20
2.5833333333334
 30
0.0
  0
VERTEX
  5
33F4
  8
1DIM
 10
85.00952380952378
 20
2.5833333333334
 30
0.0
  0
SEQEND
  5
33F5
  8
11
  0
POLYLINE
  5
33F6
  8
11
 66
     1
 10
0.0
 20
0.0
 30
0.0
  0
VERTEX
  5
33F7
  8
1DIM
 10
134.5238095238095
 20
1.535714285714363
 30
0.0
  0
VERTEX
  5
33F8
  8
1DIM
 10
134.7142857142857
 20
1.345238095238187
 30
0.0
  0
VERTEX
  5
33F9
  8
1DIM
 10
134.9047619047619
 20
1.250000000000085
 30
0.0
  0
VERTEX
  5
33FA
  8
1DIM
 10
135.1904761904761
 20
1.250000000000085
 30
0.0
  0
VERTEX
  5
33FB
  8
1DIM
 10
135.3809523809524
 20
1.345238095238187
 30
0.0
  0
VERTEX
  5
33FC
  8
1DIM
 10
135.5714285714286
 20
1.535714285714363
 30
0.0
  0
VERTEX
  5
33FD
  8
1DIM
 10
135.6666666666666
 20
1.821428571428669
 30
0.0
  0
VERTEX
  5
33FE
  8
1DIM
 10
135.6666666666666
 20
2.011904761904844
 30
0.0
  0
VERTEX
  5
33FF
  8
1DIM
 10
135.5714285714286
 20
2.297619047619122
 30
0.0
  0
VERTEX
  5
3400
  8
1DIM
 10
135.3809523809524
 20
2.488095238095298
 30
0.0
  0
VERTEX
  5
3401
  8
1DIM
 10
135.1904761904761
 20
2.5833333333334
 30
0.0
  0
VERTEX
  5
3402
  8
1DIM
 10
134.9047619047619
 20
2.5833333333334
 30
0.0
  0
VERTEX
  5
3403
  8
1DIM
 10
134.7142857142857
 20
2.488095238095298
 30
0.0
  0
VERTEX
  5
3404
  8
1DIM
 10
134.5238095238095
 20
2.297619047619122
 30
0.0
  0
SEQEND
  5
3405
  8
11
  0
POLYLINE
  5
3406
  8
11
 66
     1
 10
0.0
 20
0.0
 30
0.0
  0
VERTEX
  5
3407
  8
1DIM
 10
88.05714285714282
 20
2.011904761904844
 30
0.0
  0
VERTEX
  5
3408
  8
1DIM
 10
89.20000000000005
 20
2.011904761904844
 30
0.0
  0
VERTEX
  5
3409
  8
1DIM
 10
89.20000000000005
 20
2.20238095238102
 30
0.0
  0
VERTEX
  5
340A
  8
1DIM
 10
89.10476190476197
 20
2.392857142857224
 30
0.0
  0
VERTEX
  5
340B
  8
1DIM
 10
89.00952380952378
 20
2.488095238095298
 30
0.0
  0
VERTEX
  5
340C
  8
1DIM
 10
88.81904761904764
 20
2.5833333333334
 30
0.0
  0
VERTEX
  5
340D
  8
1DIM
 10
88.53333333333342
 20
2.5833333333334
 30
0.0
  0
VERTEX
  5
340E
  8
1DIM
 10
88.34285714285716
 20
2.488095238095298
 30
0.0
  0
VERTEX
  5
340F
  8
1DIM
 10
88.15238095238101
 20
2.297619047619122
 30
0.0
  0
VERTEX
  5
3410
  8
1DIM
 10
88.05714285714282
 20
2.011904761904844
 30
0.0
  0
VERTEX
  5
3411
  8
1DIM
 10
88.05714285714282
 20
1.821428571428669
 30
0.0
  0
VERTEX
  5
3412
  8
1DIM
 10
88.15238095238101
 20
1.535714285714363
 30
0.0
  0
VERTEX
  5
3413
  8
1DIM
 10
88.34285714285716
 20
1.345238095238187
 30
0.0
  0
VERTEX
  5
3414
  8
1DIM
 10
88.53333333333342
 20
1.250000000000085
 30
0.0
  0
VERTEX
  5
3415
  8
1DIM
 10
88.81904761904764
 20
1.250000000000085
 30
0.0
  0
VERTEX
  5
3416
  8
1DIM
 10
89.00952380952378
 20
1.345238095238187
 30
0.0
  0
VERTEX
  5
3417
  8
1DIM
 10
89.20000000000005
 20
1.535714285714363
 30
0.0
  0
SEQEND
  5
3418
  8
11
  0
POLYLINE
  5
3419
  8
11
 66
     1
 10
0.0
 20
0.0
 30
0.0
  0
VERTEX
  5
341A
  8
1DIM
 10
132.5238095238095
 20
1.250000000000085
 30
0.0
  0
VERTEX
  5
341B
  8
1DIM
 10
133.2857142857142
 20
3.250000000000085
 30
0.0
  0
VERTEX
  5
341C
  8
1DIM
 10
134.047619047619
 20
1.250000000000085
 30
0.0
  0
SEQEND
  5
341D
  8
11
  0
POLYLINE
  5
341E
  8
11
 66
     1
 10
0.0
 20
0.0
 30
0.0
  0
VERTEX
  5
341F
  8
1DIM
 10
87.48571428571438
 20
1.535714285714363
 30
0.0
  0
VERTEX
  5
3420
  8
1DIM
 10
87.29523809523812
 20
1.345238095238187
 30
0.0
  0
VERTEX
  5
3421
  8
1DIM
 10
87.10476190476197
 20
1.250000000000085
 30
0.0
  0
VERTEX
  5
3422
  8
1DIM
 10
86.81904761904764
 20
1.250000000000085
 30
0.0
  0
VERTEX
  5
3423
  8
1DIM
 10
86.62857142857149
 20
1.345238095238187
 30
0.0
  0
VERTEX
  5
3424
  8
1DIM
 10
86.43809523809523
 20
1.535714285714363
 30
0.0
  0
VERTEX
  5
3425
  8
1DIM
 10
86.34285714285716
 20
1.821428571428669
 30
0.0
  0
VERTEX
  5
3426
  8
1DIM
 10
86.34285714285716
 20
2.011904761904844
 30
0.0
  0
VERTEX
  5
3427
  8
1DIM
 10
86.43809523809523
 20
2.297619047619122
 30
0.0
  0
VERTEX
  5
3428
  8
1DIM
 10
86.62857142857149
 20
2.488095238095298
 30
0.0
  0
VERTEX
  5
3429
  8
1DIM
 10
86.81904761904764
 20
2.5833333333334
 30
0.0
  0
VERTEX
  5
342A
  8
1DIM
 10
87.10476190476197
 20
2.5833333333334
 30
0.0
  0
VERTEX
  5
342B
  8
1DIM
 10
87.29523809523812
 20
2.488095238095298
 30
0.0
  0
VERTEX
  5
342C
  8
1DIM
 10
87.48571428571438
 20
2.297619047619122
 30
0.0
  0
SEQEND
  5
342D
  8
11
  0
POLYLINE
  5
342E
  8
11
 66
     1
 10
0.0
 20
0.0
 30
0.0
  0
VERTEX
  5
342F
  8
1DIM
 10
134.5238095238095
 20
2.5833333333334
 30
0.0
  0
VERTEX
  5
3430
  8
1DIM
 10
134.5238095238095
 20
0.5833333333333997
 30
0.0
  0
SEQEND
  5
3431
  8
11
  0
POLYLINE
  5
3432
  8
11
 66
     1
 10
0.0
 20
0.0
 30
0.0
  0
VERTEX
  5
3433
  8
1DIM
 10
136.3333333333334
 20
1.535714285714363
 30
0.0
  0
VERTEX
  5
3434
  8
1DIM
 10
136.5238095238095
 20
1.345238095238187
 30
0.0
  0
VERTEX
  5
3435
  8
1DIM
 10
136.7142857142857
 20
1.250000000000085
 30
0.0
  0
VERTEX
  5
3436
  8
1DIM
 10
137.0
 20
1.250000000000085
 30
0.0
  0
VERTEX
  5
3437
  8
1DIM
 10
137.1904761904761
 20
1.345238095238187
 30
0.0
  0
VERTEX
  5
3438
  8
1DIM
 10
137.3809523809524
 20
1.535714285714363
 30
0.0
  0
VERTEX
  5
3439
  8
1DIM
 10
137.4761904761905
 20
1.821428571428669
 30
0.0
  0
VERTEX
  5
343A
  8
1DIM
 10
137.4761904761905
 20
2.011904761904844
 30
0.0
  0
VERTEX
  5
343B
  8
1DIM
 10
137.3809523809524
 20
2.297619047619122
 30
0.0
  0
VERTEX
  5
343C
  8
1DIM
 10
137.1904761904761
 20
2.488095238095298
 30
0.0
  0
VERTEX
  5
343D
  8
1DIM
 10
137.0
 20
2.5833333333334
 30
0.0
  0
VERTEX
  5
343E
  8
1DIM
 10
136.7142857142857
 20
2.5833333333334
 30
0.0
  0
VERTEX
  5
343F
  8
1DIM
 10
136.5238095238095
 20
2.488095238095298
 30
0.0
  0
VERTEX
  5
3440
  8
1DIM
 10
136.3333333333334
 20
2.297619047619122
 30
0.0
  0
SEQEND
  5
3441
  8
11
  0
POLYLINE
  5
3442
  8
11
 66
     1
 10
0.0
 20
0.0
 30
0.0
  0
VERTEX
  5
3443
  8
1DIM
 10
77.2380952380953
 20
2.297619047619122
 30
0.0
  0
VERTEX
  5
3444
  8
1DIM
 10
77.04761904761904
 20
2.488095238095298
 30
0.0
  0
VERTEX
  5
3445
  8
1DIM
 10
76.85714285714289
 20
2.5833333333334
 30
0.0
  0
VERTEX
  5
3446
  8
1DIM
 10
76.57142857142856
 20
2.5833333333334
 30
0.0
  0
VERTEX
  5
3447
  8
1DIM
 10
76.38095238095241
 20
2.488095238095298
 30
0.0
  0
VERTEX
  5
3448
  8
1DIM
 10
76.19047619047626
 20
2.297619047619122
 30
0.0
  0
VERTEX
  5
3449
  8
1DIM
 10
76.09523809523807
 20
2.011904761904844
 30
0.0
  0
VERTEX
  5
344A
  8
1DIM
 10
76.09523809523807
 20
1.821428571428669
 30
0.0
  0
VERTEX
  5
344B
  8
1DIM
 10
76.19047619047626
 20
1.535714285714363
 30
0.0
  0
VERTEX
  5
344C
  8
1DIM
 10
76.38095238095241
 20
1.345238095238187
 30
0.0
  0
VERTEX
  5
344D
  8
1DIM
 10
76.57142857142856
 20
1.250000000000085
 30
0.0
  0
VERTEX
  5
344E
  8
1DIM
 10
76.85714285714289
 20
1.250000000000085
 30
0.0
  0
VERTEX
  5
344F
  8
1DIM
 10
77.04761904761904
 20
1.345238095238187
 30
0.0
  0
VERTEX
  5
3450
  8
1DIM
 10
77.2380952380953
 20
1.535714285714363
 30
0.0
  0
SEQEND
  5
3451
  8
11
  0
POLYLINE
  5
3452
  8
11
 66
     1
 10
0.0
 20
0.0
 30
0.0
  0
VERTEX
  5
3453
  8
1DIM
 10
136.3333333333334
 20
2.5833333333334
 30
0.0
  0
VERTEX
  5
3454
  8
1DIM
 10
136.3333333333334
 20
0.5833333333333997
 30
0.0
  0
SEQEND
  5
3455
  8
11
  0
POLYLINE
  5
3456
  8
11
 66
     1
 10
0.0
 20
0.0
 30
0.0
  0
VERTEX
  5
3457
  8
1DIM
 10
85.58095238095245
 20
3.154761904761983
 30
0.0
  0
VERTEX
  5
3458
  8
1DIM
 10
85.67619047619053
 20
3.250000000000085
 30
0.0
  0
VERTEX
  5
3459
  8
1DIM
 10
85.7714285714286
 20
3.154761904761983
 30
0.0
  0
VERTEX
  5
345A
  8
1DIM
 10
85.67619047619053
 20
3.059523809523881
 30
0.0
  0
VERTEX
  5
345B
  8
1DIM
 10
85.58095238095245
 20
3.154761904761983
 30
0.0
  0
SEQEND
  5
345C
  8
11
  0
POLYLINE
  5
345D
  8
11
 66
     1
 10
0.0
 20
0.0
 30
0.0
  0
VERTEX
  5
345E
  8
1DIM
 10
83.10476190476186
 20
2.5833333333334
 30
0.0
  0
VERTEX
  5
345F
  8
1DIM
 10
83.39047619047619
 20
2.5833333333334
 30
0.0
  0
VERTEX
  5
3460
  8
1DIM
 10
83.58095238095245
 20
2.488095238095298
 30
0.0
  0
VERTEX
  5
3461
  8
1DIM
 10
83.7714285714286
 20
2.297619047619122
 30
0.0
  0
VERTEX
  5
3462
  8
1DIM
 10
83.86666666666667
 20
2.011904761904844
 30
0.0
  0
VERTEX
  5
3463
  8
1DIM
 10
83.86666666666667
 20
1.821428571428669
 30
0.0
  0
VERTEX
  5
3464
  8
1DIM
 10
83.7714285714286
 20
1.535714285714363
 30
0.0
  0
VERTEX
  5
3465
  8
1DIM
 10
83.58095238095245
 20
1.345238095238187
 30
0.0
  0
VERTEX
  5
3466
  8
1DIM
 10
83.39047619047619
 20
1.250000000000085
 30
0.0
  0
VERTEX
  5
3467
  8
1DIM
 10
83.10476190476186
 20
1.250000000000085
 30
0.0
  0
VERTEX
  5
3468
  8
1DIM
 10
82.91428571428571
 20
1.345238095238187
 30
0.0
  0
VERTEX
  5
3469
  8
1DIM
 10
82.72380952380956
 20
1.535714285714363
 30
0.0
  0
VERTEX
  5
346A
  8
1DIM
 10
82.62857142857149
 20
1.821428571428669
 30
0.0
  0
VERTEX
  5
346B
  8
1DIM
 10
82.62857142857149
 20
2.011904761904844
 30
0.0
  0
VERTEX
  5
346C
  8
1DIM
 10
82.72380952380956
 20
2.297619047619122
 30
0.0
  0
VERTEX
  5
346D
  8
1DIM
 10
82.91428571428571
 20
2.488095238095298
 30
0.0
  0
VERTEX
  5
346E
  8
1DIM
 10
83.10476190476186
 20
2.5833333333334
 30
0.0
  0
SEQEND
  5
346F
  8
11
  0
POLYLINE
  5
3470
  8
11
 66
     1
 10
0.0
 20
0.0
 30
0.0
  0
VERTEX
  5
3471
  8
1DIM
 10
133.7619047619047
 20
1.916666666666742
 30
0.0
  0
VERTEX
  5
3472
  8
1DIM
 10
132.8095238095237
 20
1.916666666666742
 30
0.0
  0
SEQEND
  5
3473
  8
11
  0
POLYLINE
  5
3474
  8
11
 66
     1
 10
0.0
 20
0.0
 30
0.0
  0
VERTEX
  5
3475
  8
1DIM
 10
77.90476190476193
 20
2.011904761904844
 30
0.0
  0
VERTEX
  5
3476
  8
1DIM
 10
79.04761904761904
 20
2.011904761904844
 30
0.0
  0
VERTEX
  5
3477
  8
1DIM
 10
79.04761904761904
 20
2.20238095238102
 30
0.0
  0
VERTEX
  5
3478
  8
1DIM
 10
78.95238095238096
 20
2.392857142857224
 30
0.0
  0
VERTEX
  5
3479
  8
1DIM
 10
78.85714285714289
 20
2.488095238095298
 30
0.0
  0
VERTEX
  5
347A
  8
1DIM
 10
78.66666666666674
 20
2.5833333333334
 30
0.0
  0
VERTEX
  5
347B
  8
1DIM
 10
78.38095238095241
 20
2.5833333333334
 30
0.0
  0
VERTEX
  5
347C
  8
1DIM
 10
78.19047619047626
 20
2.488095238095298
 30
0.0
  0
VERTEX
  5
347D
  8
1DIM
 10
78.0
 20
2.297619047619122
 30
0.0
  0
VERTEX
  5
347E
  8
1DIM
 10
77.90476190476193
 20
2.011904761904844
 30
0.0
  0
VERTEX
  5
347F
  8
1DIM
 10
77.90476190476193
 20
1.821428571428669
 30
0.0
  0
VERTEX
  5
3480
  8
1DIM
 10
78.0
 20
1.535714285714363
 30
0.0
  0
VERTEX
  5
3481
  8
1DIM
 10
78.19047619047626
 20
1.345238095238187
 30
0.0
  0
VERTEX
  5
3482
  8
1DIM
 10
78.38095238095241
 20
1.250000000000085
 30
0.0
  0
VERTEX
  5
3483
  8
1DIM
 10
78.66666666666674
 20
1.250000000000085
 30
0.0
  0
VERTEX
  5
3484
  8
1DIM
 10
78.85714285714289
 20
1.345238095238187
 30
0.0
  0
VERTEX
  5
3485
  8
1DIM
 10
79.04761904761904
 20
1.535714285714363
 30
0.0
  0
SEQEND
  5
3486
  8
11
  0
POLYLINE
  5
3487
  8
11
 66
     1
 10
0.0
 20
0.0
 30
0.0
  0
VERTEX
  5
3488
  8
1DIM
 10
80.91428571428571
 20
1.250000000000085
 30
0.0
  0
VERTEX
  5
3489
  8
1DIM
 10
80.91428571428571
 20
2.5833333333334
 30
0.0
  0
SEQEND
  5
348A
  8
11
  0
ENDBLK
  5
348B
  8
0
  0
BLOCK
  8
0
  2
A3WAKUKAWAJUN2017_FRAME
 70
     0
 10
0.0
 20
0.0
 30
0.0
  3
A3WAKUKAWAJUN2017_FRAME
  1

  0
POINT
  5
3490
  8
0
  6
BYBLOCK
 62
     0
 10
15.49999999999989
 20
12.5
 30
0.0
1001
ACDBBLOCKREPETAG
1070
     1
1071
        2
1005
0
  0
POINT
  5
3491
  8
0
  6
BYBLOCK
 62
     0
 10
15.49999999999989
 20
12.5
 30
0.0
1001
ACDBBLOCKREPETAG
1070
     1
1071
        2
1005
0
  0
POINT
  5
3492
  8
0
  6
BYBLOCK
 62
     0
 10
15.49999999999989
 20
12.5
 30
0.0
1001
ACDBBLOCKREPETAG
1070
     1
1071
        2
1005
0
  0
POINT
  5
3493
  8
0
  6
BYBLOCK
 62
     0
 10
15.49999999999989
 20
12.5
 30
0.0
1001
ACDBBLOCKREPETAG
1070
     1
1071
        2
1005
0
  0
TEXT
  5
3494
  8
0
  6
BYBLOCK
 62
     0
 10
403.7857142857143
 20
243.0000000000001
 30
0.0
 40
4.0
  1
A
 72
     1
 11
405.5
 21
245.0000000000001
 31
0.0
 73
     2
  0
TEXT
  5
3495
  8
0
  6
BYBLOCK
 62
     0
 10
403.4047619047619
 20
176.6000000000003
 30
0.0
 40
4.0
  1
B
 72
     1
 11
405.5
 21
178.6000000000003
 31
0.0
 73
     2
  0
TEXT
  5
3496
  8
0
  6
BYBLOCK
 62
     0
 10
403.5
 20
110.0000000000001
 30
0.0
 40
4.0
  1
C
 72
     1
 11
405.5
 21
112.0000000000001
 31
0.0
 73
     2
  0
TEXT
  5
3497
  8
0
  6
BYBLOCK
 62
     0
 10
403.4047619047619
 20
43.50000000000011
 30
0.0
 40
4.0
  1
D
 72
     1
 11
405.5
 21
45.50000000000011
 31
0.0
 73
     2
  0
TEXT
  5
3498
  8
0
  6
BYBLOCK
 62
     0
 10
43.88095238095227
 20
279.3000000000002
 30
0.0
 40
4.0
  1
1
 72
     1
 11
45.49999999999989
 21
281.3000000000002
 31
0.0
 73
     2
  0
TEXT
  5
3499
  8
0
  6
BYBLOCK
 62
     0
 10
108.595238095238
 20
279.3000000000002
 30
0.0
 40
4.0
  1
2
 72
     1
 11
110.4999999999999
 21
281.3000000000002
 31
0.0
 73
     2
  0
TEXT
  5
349A
  8
0
  6
BYBLOCK
 62
     0
 10
173.595238095238
 20
279.3000000000002
 30
0.0
 40
4.0
  1
3
 72
     1
 11
175.4999999999999
 21
281.3000000000002
 31
0.0
 73
     2
  0
TEXT
  5
349B
  8
0
  6
BYBLOCK
 62
     0
 10
238.4999999999999
 20
279.3000000000002
 30
0.0
 40
4.0
  1
4
 72
     1
 11
240.4999999999999
 21
281.3000000000002
 31
0.0
 73
     2
  0
TEXT
  5
349C
  8
0
  6
BYBLOCK
 62
     0
 10
368.4999999999999
 20
279.3000000000002
 30
0.0
 40
4.0
  1
6
 72
     1
 11
370.4999999999999
 21
281.3000000000002
 31
0.0
 73
     2
  0
TEXT
  5
349D
  8
0
  6
BYBLOCK
 62
     0
 10
303.595238095238
 20
279.3000000000002
 30
0.0
 40
4.0
  1
5
 72
     1
 11
305.4999999999999
 21
281.3000000000002
 31
0.0
 73
     2
  0
TEXT
  5
349E
  8
0
  6
BYBLOCK
 62
     0
 10
18.78571428571406
 20
243.0000000000001
 30
0.0
 40
4.0
  1
A
 72
     1
 11
20.49999999999977
 21
245.0000000000001
 31
0.0
 73
     2
  0
TEXT
  5
349F
  8
0
  6
BYBLOCK
 62
     0
 10
18.40476190476168
 20
176.6000000000003
 30
0.0
 40
4.0
  1
B
 72
     1
 11
20.49999999999977
 21
178.6000000000003
 31
0.0
 73
     2
  0
TEXT
  5
34A0
  8
0
  6
BYBLOCK
 62
     0
 10
18.49999999999977
 20
110.0000000000001
 30
0.0
 40
4.0
  1
C
 72
     1
 11
20.49999999999977
 21
112.0000000000001
 31
0.0
 73
     2
  0
TEXT
  5
34A1
  8
0
  6
BYBLOCK
 62
     0
 10
18.40476190476168
 20
43.50000000000011
 30
0.0
 40
4.0
  1
D
 72
     1
 11
20.49999999999977
 21
45.50000000000011
 31
0.0
 73
     2
  0
TEXT
  5
34A2
  8
0
  6
BYBLOCK
 62
     0
 10
43.88095238095227
 20
8.0
 30
0.0
 40
4.0
  1
1
 72
     1
 11
45.49999999999989
 21
10.0
 31
0.0
 73
     2
  0
TEXT
  5
34A3
  8
0
  6
BYBLOCK
 62
     0
 10
108.595238095238
 20
8.0
 30
0.0
 40
4.0
  1
2
 72
     1
 11
110.4999999999999
 21
10.0
 31
0.0
 73
     2
  0
TEXT
  5
34A4
  8
0
  6
BYBLOCK
 62
     0
 10
173.595238095238
 20
8.0
 30
0.0
 40
4.0
  1
3
 72
     1
 11
175.4999999999999
 21
10.0
 31
0.0
 73
     2
  0
TEXT
  5
34A5
  8
0
  6
BYBLOCK
 62
     0
 10
238.4999999999999
 20
8.0
 30
0.0
 40
4.0
  1
4
 72
     1
 11
240.4999999999999
 21
10.0
 31
0.0
 73
     2
  0
TEXT
  5
34A6
  8
0
  6
BYBLOCK
 62
     0
 10
368.4999999999999
 20
7.999999999999886
 30
0.0
 40
4.0
  1
6
 72
     1
 11
370.4999999999999
 21
9.999999999999886
 31
0.0
 73
     2
  0
TEXT
  5
34A7
  8
0
  6
BYBLOCK
 62
     0
 10
303.595238095238
 20
8.0
 30
0.0
 40
4.0
  1
5
 72
     1
 11
305.4999999999999
 21
10.0
 31
0.0
 73
     2
  0
LINE
  5
34A8
  8
ZZXX
 10
0.0
 20
0.0
 30
0.0
 11
0.0
 21
286.3
 31
0.0
  0
LINE
  5
34A9
  8
ZZXX
 10
410.4999999999998
 20
286.3
 30
0.0
 11
0.0
 21
286.3
 31
0.0
  0
LINE
  5
34AA
  8
ZZXX
 10
410.4999999999998
 20
0.0
 30
0.0
 11
0.0
 21
0.0
 31
0.0
  0
LINE
  5
34AB
  8
ZZXX
 10
410.4999999999998
 20
0.0
 30
0.0
 11
410.4999999999998
 21
286.3
 31
0.0
  0
POINT
  5
34AC
  8
0
  6
BYBLOCK
 62
     0
 10
0.0
 20
0.0
 30
0.0
1001
ACDBBLOCKREPETAG
1070
     1
1071
        2
1005
0
  0
LINE
  5
34AD
  8
0
  6
BYBLOCK
 62
     0
 10
272.9999999999999
 20
283.8000000000002
 30
0.0
 11
272.9999999999999
 21
278.8
 31
0.0
1001
ACDBBLOCKREPETAG
1070
     1
1071
       14
1005
34BE
  0
LINE
  5
34AE
  8
0
  6
BYBLOCK
 62
     0
 10
337.9999999999999
 20
283.8000000000002
 30
0.0
 11
337.9999999999999
 21
278.8
 31
0.0
1001
ACDBBLOCKREPETAG
1070
     1
1071
       14
1005
34BE
  0
LINE
  5
34AF
  8
0
  6
BYBLOCK
 62
     0
 10
77.99999999999989
 20
283.8
 30
0.0
 11
77.99999999999989
 21
278.8
 31
0.0
1001
ACDBBLOCKREPETAG
1070
     1
1071
       14
1005
34BE
  0
LINE
  5
34B0
  8
0
  6
BYBLOCK
 62
     0
 10
142.9999999999999
 20
283.8
 30
0.0
 11
142.9999999999999
 21
278.8
 31
0.0
1001
ACDBBLOCKREPETAG
1070
     1
1071
       14
1005
34BE
  0
LINE
  5
34B1
  8
0
  6
BYBLOCK
 62
     0
 10
207.9999999999999
 20
283.8
 30
0.0
 11
207.9999999999999
 21
278.8
 31
0.0
1001
ACDBBLOCKREPETAG
1070
     1
1071
       14
1005
34BE
  0
LINE
  5
34B2
  8
0
  6
BYBLOCK
 62
     0
 10
407.9999999999998
 20
79.00000000000001
 30
0.0
 11
402.9999999999998
 21
79.00000000000001
 31
0.0
1001
ACDBBLOCKREPETAG
1070
     1
1071
        7
1005
34C0
  0
LINE
  5
34B3
  8
0
  6
BYBLOCK
 62
     0
 10
407.9999999999998
 20
212.0
 30
0.0
 11
402.9999999999998
 21
212.0
 31
0.0
1001
ACDBBLOCKREPETAG
1070
     1
1071
        7
1005
34C0
  0
LINE
  5
34B4
  8
0
  6
BYBLOCK
 62
     0
 10
402.9999999999998
 20
145.6000000000001
 30
0.0
 11
407.9999999999998
 21
145.6000000000001
 31
0.0
1001
ACDBBLOCKREPETAG
1070
     1
1071
        0
1005
34C6
  0
LINE
  5
34B5
  8
0
  6
BYBLOCK
 62
     0
 10
272.9999999999999
 20
12.50000000000011
 30
0.0
 11
272.9999999999999
 21
7.5
 31
0.0
1001
ACDBBLOCKREPETAG
1070
     1
1071
       14
1005
34BE
  0
LINE
  5
34B6
  8
0
  6
BYBLOCK
 62
     0
 10
337.9999999999999
 20
12.50000000000011
 30
0.0
 11
337.9999999999999
 21
7.5
 31
0.0
1001
ACDBBLOCKREPETAG
1070
     1
1071
       14
1005
34BE
  0
LINE
  5
34B7
  8
0
  6
BYBLOCK
 62
     0
 10
22.99999999999989
 20
79.00000000000001
 30
0.0
 11
15.49999999999989
 21
79.00000000000001
 31
0.0
1001
ACDBBLOCKREPETAG
1070
     1
1071
        7
1005
34C0
  0
LINE
  5
34B8
  8
0
  6
BYBLOCK
 62
     0
 10
22.99999999999989
 20
212.0
 30
0.0
 11
15.49999999999989
 21
212.0
 31
0.0
1001
ACDBBLOCKREPETAG
1070
     1
1071
        7
1005
34C0
  0
LINE
  5
34B9
  8
0
  6
BYBLOCK
 62
     0
 10
77.99999999999989
 20
12.5
 30
0.0
 11
77.99999999999989
 21
7.5
 31
0.0
1001
ACDBBLOCKREPETAG
1070
     1
1071
       14
1005
34BE
  0
LINE
  5
34BA
  8
0
  6
BYBLOCK
 62
     0
 10
142.9999999999999
 20
12.5
 30
0.0
 11
142.9999999999999
 21
7.5
 31
0.0
1001
ACDBBLOCKREPETAG
1070
     1
1071
       14
1005
34BE
  0
LINE
  5
34BB
  8
0
  6
BYBLOCK
 62
     0
 10
207.9999999999999
 20
12.5
 30
0.0
 11
207.9999999999999
 21
7.5
 31
0.0
1001
ACDBBLOCKREPETAG
1070
     1
1071
       14
1005
34BE
  0
POINT
  5
34BC
  8
0
  6
BYBLOCK
 62
     0
 10
22.99999999999989
 20
12.5
 30
0.0
1001
ACDBBLOCKREPETAG
1070
     1
1071
       20
1005
34BC
  0
POINT
  5
34BD
  8
0
  6
BYBLOCK
 62
     0
 10
402.9999999999998
 20
12.50000000000011
 30
0.0
1001
ACDBBLOCKREPETAG
1070
     1
1071
       19
1005
34BD
  0
LINE
  5
34BE
  8
0
  6
BYBLOCK
 62
   252
 10
402.9999999999998
 20
278.8000000000002
 30
0.0
 11
402.9999999999998
 21
12.50000000000011
 31
0.0
1001
ACDBBLOCKREPETAG
1070
     1
1071
       14
1005
34BE
  0
LINE
  5
34BF
  8
0
  6
BYBLOCK
 62
   252
 10
22.99999999999989
 20
278.8
 30
0.0
 11
22.99999999999989
 21
12.5
 31
0.0
1001
ACDBBLOCKREPETAG
1070
     1
1071
       13
1005
34BF
  0
LINE
  5
34C0
  8
0
  6
BYBLOCK
 62
   252
 10
402.9999999999998
 20
12.50000000000011
 30
0.0
 11
22.99999999999989
 21
12.5
 31
0.0
1001
ACDBBLOCKREPETAG
1070
     1
1071
        7
1005
34C0
  0
LINE
  5
34C1
  8
0
  6
BYBLOCK
 62
   252
 10
402.9999999999998
 20
278.8000000000002
 30
0.0
 11
22.99999999999989
 21
278.8
 31
0.0
1001
ACDBBLOCKREPETAG
1070
     1
1071
        6
1005
34C1
  0
POINT
  5
34C2
  8
0
  6
BYBLOCK
 62
     0
 10
410.4999999999998
 20
0.0
 30
0.0
1001
ACDBBLOCKREPETAG
1070
     1
1071
        5
1005
34C2
  0
POINT
  5
34C3
  8
0
  6
BYBLOCK
 62
     0
 10
402.9999999999998
 20
283.8
 30
0.0
1001
ACDBBLOCKREPETAG
1070
     1
1071
        4
1005
34C3
  0
TEXT
  5
34C4
  8
0
  6
BYBLOCK
 62
     0
 10
17.49999999999989
 20
12.5
 30
0.0
 40
2.0
  1
A3
1001
ACDBBLOCKREPETAG
1070
     1
1071
        3
1005
34C4
  0
POINT
  5
34C5
  8
0
  6
BYBLOCK
 62
     0
 10
-0.0000000000001137
 20
286.3
 30
0.0
1001
ACDBBLOCKREPETAG
1070
     1
1071
        1
1005
34C5
  0
LINE
  5
34C6
  8
0
  6
BYBLOCK
 62
     0
 10
9.899999999999864
 20
145.6000000000001
 30
0.0
 11
22.99999999999989
 21
145.6000000000001
 31
0.0
1001
ACDBBLOCKREPETAG
1070
     1
1071
        0
1005
34C6
  0
POINT
  5
34C7
  8
POINT
 10
262.9999999999999
 20
12.50000000000011
 30
0.0
  0
POLYLINE
  5
34C8
  8
ZZXX
 66
     1
 10
0.0
 20
0.0
 30
0.0
  0
VERTEX
  5
34C9
  8
02
 10
367.2044092465753
 20
3.033333333333445
 30
0.0
  0
VERTEX
  5
34CA
  8
02
 10
367.4044092465754
 20
2.966666666666754
 30
0.0
  0
VERTEX
  5
34CB
  8
02
 10
367.5377425799087
 20
3.100000000000108
 30
0.0
  0
VERTEX
  5
34CC
  8
02
 10
367.6044092465753
 20
3.300000000000125
 30
0.0
  0
VERTEX
  5
34CD
  8
02
 10
367.6044092465753
 20
3.766666666666765
 30
0.0
  0
VERTEX
  5
34CE
  8
02
 10
367.071075913242
 20
3.766666666666765
 30
0.0
  0
SEQEND
  5
34CF
  8
ZZXX
  0
POLYLINE
  5
34D0
  8
ZZXX
 66
     1
 10
0.0
 20
0.0
 30
0.0
  0
VERTEX
  5
34D1
  8
02
 10
365.0044092465753
 20
4.700000000000102
 30
0.0
  0
VERTEX
  5
34D2
  8
02
 10
364.871075913242
 20
4.366666666666788
 30
0.0
  0
VERTEX
  5
34D3
  8
02
 10
364.671075913242
 20
3.966666666666754
 30
0.0
  0
VERTEX
  5
34D4
  8
02
 10
364.471075913242
 20
3.633333333333439
 30
0.0
  0
SEQEND
  5
34D5
  8
ZZXX
  0
POLYLINE
  5
34D6
  8
ZZXX
 66
     1
 10
0.0
 20
0.0
 30
0.0
  0
VERTEX
  5
34D7
  8
02
 10
365.2044092465753
 20
3.833333333333428
 30
0.0
  0
VERTEX
  5
34D8
  8
02
 10
365.471075913242
 20
4.366666666666788
 30
0.0
  0
VERTEX
  5
34D9
  8
02
 10
365.6044092465753
 20
4.700000000000102
 30
0.0
  0
SEQEND
  5
34DA
  8
ZZXX
  0
POLYLINE
  5
34DB
  8
ZZXX
 66
     1
 10
0.0
 20
0.0
 30
0.0
  0
VERTEX
  5
34DC
  8
02
 10
405.7948854370514
 20
3.747619047619139
 30
0.0
  0
VERTEX
  5
34DD
  8
02
 10
405.6044092465753
 20
3.938095238095343
 30
0.0
  0
VERTEX
  5
34DE
  8
02
 10
405.4139330560992
 20
4.033333333333445
 30
0.0
  0
VERTEX
  5
34DF
  8
02
 10
405.1282187703848
 20
4.033333333333445
 30
0.0
  0
VERTEX
  5
34E0
  8
02
 10
404.9377425799087
 20
3.938095238095343
 30
0.0
  0
VERTEX
  5
34E1
  8
02
 10
404.7472663894324
 20
3.747619047619139
 30
0.0
  0
VERTEX
  5
34E2
  8
02
 10
404.6520282941943
 20
3.461904761904862
 30
0.0
  0
VERTEX
  5
34E3
  8
02
 10
404.6520282941943
 20
3.271428571428658
 30
0.0
  0
VERTEX
  5
34E4
  8
02
 10
404.7472663894324
 20
2.98571428571438
 30
0.0
  0
VERTEX
  5
34E5
  8
02
 10
404.9377425799087
 20
2.795238095238204
 30
0.0
  0
VERTEX
  5
34E6
  8
02
 10
405.1282187703848
 20
2.700000000000102
 30
0.0
  0
VERTEX
  5
34E7
  8
02
 10
405.4139330560992
 20
2.700000000000102
 30
0.0
  0
VERTEX
  5
34E8
  8
02
 10
405.6044092465753
 20
2.795238095238204
 30
0.0
  0
VERTEX
  5
34E9
  8
02
 10
405.7948854370514
 20
2.98571428571438
 30
0.0
  0
SEQEND
  5
34EA
  8
ZZXX
  0
POLYLINE
  5
34EB
  8
ZZXX
 66
     1
 10
0.0
 20
0.0
 30
0.0
  0
VERTEX
  5
34EC
  8
02
 10
405.7948854370514
 20
2.700000000000102
 30
0.0
  0
VERTEX
  5
34ED
  8
02
 10
405.7948854370514
 20
4.033333333333445
 30
0.0
  0
SEQEND
  5
34EE
  8
ZZXX
  0
POLYLINE
  5
34EF
  8
ZZXX
 66
     1
 10
0.0
 20
0.0
 30
0.0
  0
VERTEX
  5
34F0
  8
02
 10
364.0044092465753
 20
3.966666666666754
 30
0.0
  0
VERTEX
  5
34F1
  8
02
 10
364.0044092465753
 20
3.833333333333428
 30
0.0
  0
VERTEX
  5
34F2
  8
02
 10
363.9377425799087
 20
3.766666666666765
 30
0.0
  0
VERTEX
  5
34F3
  8
02
 10
363.7377425799086
 20
3.766666666666765
 30
0.0
  0
VERTEX
  5
34F4
  8
02
 10
363.671075913242
 20
3.833333333333428
 30
0.0
  0
VERTEX
  5
34F5
  8
02
 10
363.671075913242
 20
4.366666666666788
 30
0.0
  0
VERTEX
  5
34F6
  8
02
 10
362.9377425799087
 20
4.366666666666788
 30
0.0
  0
SEQEND
  5
34F7
  8
ZZXX
  0
POLYLINE
  5
34F8
  8
ZZXX
 66
     1
 10
0.0
 20
0.0
 30
0.0
  0
VERTEX
  5
34F9
  8
02
 10
364.8044092465753
 20
2.700000000000102
 30
0.0
  0
VERTEX
  5
34FA
  8
02
 10
364.8044092465753
 20
4.233333333333462
 30
0.0
  0
SEQEND
  5
34FB
  8
ZZXX
  0
POLYLINE
  5
34FC
  8
ZZXX
 66
     1
 10
0.0
 20
0.0
 30
0.0
  0
VERTEX
  5
34FD
  8
02
 10
402.9377425799087
 20
3.652380952381066
 30
0.0
  0
VERTEX
  5
34FE
  8
02
 10
403.2234568656229
 20
3.938095238095343
 30
0.0
  0
VERTEX
  5
34FF
  8
02
 10
403.4139330560992
 20
4.033333333333445
 30
0.0
  0
VERTEX
  5
3500
  8
02
 10
403.6996473418134
 20
4.033333333333445
 30
0.0
  0
VERTEX
  5
3501
  8
02
 10
403.8901235322896
 20
3.938095238095343
 30
0.0
  0
VERTEX
  5
3502
  8
02
 10
403.9853616275277
 20
3.652380952381066
 30
0.0
  0
VERTEX
  5
3503
  8
02
 10
403.9853616275277
 20
2.700000000000102
 30
0.0
  0
SEQEND
  5
3504
  8
ZZXX
  0
POLYLINE
  5
3505
  8
ZZXX
 66
     1
 10
0.0
 20
0.0
 30
0.0
  0
VERTEX
  5
3506
  8
02
 10
401.8901235322896
 20
3.652380952381066
 30
0.0
  0
VERTEX
  5
3507
  8
02
 10
402.1758378180039
 20
3.938095238095343
 30
0.0
  0
VERTEX
  5
3508
  8
02
 10
402.36631400848
 20
4.033333333333445
 30
0.0
  0
VERTEX
  5
3509
  8
02
 10
402.6520282941943
 20
4.033333333333445
 30
0.0
  0
VERTEX
  5
350A
  8
02
 10
402.8425044846706
 20
3.938095238095343
 30
0.0
  0
VERTEX
  5
350B
  8
02
 10
402.9377425799087
 20
3.652380952381066
 30
0.0
  0
VERTEX
  5
350C
  8
02
 10
402.9377425799087
 20
2.700000000000102
 30
0.0
  0
SEQEND
  5
350D
  8
ZZXX
  0
POLYLINE
  5
350E
  8
ZZXX
 66
     1
 10
0.0
 20
0.0
 30
0.0
  0
VERTEX
  5
350F
  8
02
 10
401.8901235322896
 20
2.700000000000102
 30
0.0
  0
VERTEX
  5
3510
  8
02
 10
401.8901235322896
 20
4.033333333333445
 30
0.0
  0
SEQEND
  5
3511
  8
ZZXX
  0
POLYLINE
  5
3512
  8
ZZXX
 66
     1
 10
0.0
 20
0.0
 30
0.0
  0
VERTEX
  5
3513
  8
02
 10
362.7377425799086
 20
4.300000000000125
 30
0.0
  0
VERTEX
  5
3514
  8
02
 10
362.0044092465753
 20
4.300000000000125
 30
0.0
  0
SEQEND
  5
3515
  8
ZZXX
  0
POLYLINE
  5
3516
  8
ZZXX
 66
     1
 10
0.0
 20
0.0
 30
0.0
  0
VERTEX
  5
3517
  8
02
 10
366.8044092465753
 20
2.766666666666765
 30
0.0
  0
VERTEX
  5
3518
  8
02
 10
366.9377425799087
 20
2.966666666666754
 30
0.0
  0
VERTEX
  5
3519
  8
02
 10
367.071075913242
 20
3.500000000000114
 30
0.0
  0
VERTEX
  5
351A
  8
02
 10
367.071075913242
 20
4.233333333333462
 30
0.0
  0
VERTEX
  5
351B
  8
02
 10
368.7377425799086
 20
4.233333333333462
 30
0.0
  0
SEQEND
  5
351C
  8
ZZXX
  0
POLYLINE
  5
351D
  8
ZZXX
 66
     1
 10
0.0
 20
0.0
 30
0.0
  0
VERTEX
  5
351E
  8
02
 10
368.471075913242
 20
3.900000000000091
 30
0.0
  0
VERTEX
  5
351F
  8
02
 10
368.2044092465753
 20
3.366666666666788
 30
0.0
  0
VERTEX
  5
3520
  8
02
 10
368.0044092465753
 20
3.100000000000108
 30
0.0
  0
VERTEX
  5
3521
  8
02
 10
367.6044092465753
 20
2.766666666666765
 30
0.0
  0
SEQEND
  5
3522
  8
ZZXX
  0
POLYLINE
  5
3523
  8
ZZXX
 66
     1
 10
0.0
 20
0.0
 30
0.0
  0
VERTEX
  5
3524
  8
02
 10
401.1282187703848
 20
3.747619047619139
 30
0.0
  0
VERTEX
  5
3525
  8
02
 10
400.9377425799087
 20
3.938095238095343
 30
0.0
  0
VERTEX
  5
3526
  8
02
 10
400.7472663894324
 20
4.033333333333445
 30
0.0
  0
VERTEX
  5
3527
  8
02
 10
400.4615521037182
 20
4.033333333333445
 30
0.0
  0
VERTEX
  5
3528
  8
02
 10
400.2710759132419
 20
3.938095238095343
 30
0.0
  0
VERTEX
  5
3529
  8
02
 10
400.0805997227658
 20
3.747619047619139
 30
0.0
  0
VERTEX
  5
352A
  8
02
 10
399.9853616275277
 20
3.461904761904862
 30
0.0
  0
VERTEX
  5
352B
  8
02
 10
399.9853616275277
 20
3.271428571428658
 30
0.0
  0
VERTEX
  5
352C
  8
02
 10
400.0805997227658
 20
2.98571428571438
 30
0.0
  0
VERTEX
  5
352D
  8
02
 10
400.2710759132419
 20
2.795238095238204
 30
0.0
  0
VERTEX
  5
352E
  8
02
 10
400.4615521037182
 20
2.700000000000102
 30
0.0
  0
VERTEX
  5
352F
  8
02
 10
400.7472663894324
 20
2.700000000000102
 30
0.0
  0
VERTEX
  5
3530
  8
02
 10
400.9377425799087
 20
2.795238095238204
 30
0.0
  0
VERTEX
  5
3531
  8
02
 10
401.1282187703848
 20
2.98571428571438
 30
0.0
  0
SEQEND
  5
3532
  8
ZZXX
  0
POLYLINE
  5
3533
  8
ZZXX
 66
     1
 10
0.0
 20
0.0
 30
0.0
  0
VERTEX
  5
3534
  8
02
 10
401.1282187703848
 20
2.700000000000102
 30
0.0
  0
VERTEX
  5
3535
  8
02
 10
401.1282187703848
 20
4.033333333333445
 30
0.0
  0
SEQEND
  5
3536
  8
ZZXX
  0
POLYLINE
  5
3537
  8
ZZXX
 66
     1
 10
0.0
 20
0.0
 30
0.0
  0
VERTEX
  5
3538
  8
02
 10
398.36631400848
 20
4.033333333333445
 30
0.0
  0
VERTEX
  5
3539
  8
02
 10
398.9377425799087
 20
2.700000000000102
 30
0.0
  0
SEQEND
  5
353A
  8
ZZXX
  0
POLYLINE
  5
353B
  8
ZZXX
 66
     1
 10
0.0
 20
0.0
 30
0.0
  0
VERTEX
  5
353C
  8
02
 10
398.2710759132419
 20
2.033333333333445
 30
0.0
  0
VERTEX
  5
353D
  8
02
 10
398.36631400848
 20
2.033333333333445
 30
0.0
  0
VERTEX
  5
353E
  8
02
 10
398.5567901989563
 20
2.128571428571547
 30
0.0
  0
VERTEX
  5
353F
  8
02
 10
398.7472663894324
 20
2.319047619047723
 30
0.0
  0
VERTEX
  5
3540
  8
02
 10
398.9377425799087
 20
2.700000000000102
 30
0.0
  0
VERTEX
  5
3541
  8
02
 10
399.5091711513372
 20
4.033333333333445
 30
0.0
  0
SEQEND
  5
3542
  8
ZZXX
  0
POLYLINE
  5
3543
  8
ZZXX
 66
     1
 10
0.0
 20
0.0
 30
0.0
  0
VERTEX
  5
3544
  8
02
 10
397.7948854370514
 20
2.700000000000102
 30
0.0
  0
VERTEX
  5
3545
  8
02
 10
397.7948854370514
 20
4.033333333333445
 30
0.0
  0
SEQEND
  5
3546
  8
ZZXX
  0
POLYLINE
  5
3547
  8
ZZXX
 66
     1
 10
0.0
 20
0.0
 30
0.0
  0
VERTEX
  5
3548
  8
02
 10
396.7472663894324
 20
4.033333333333445
 30
0.0
  0
VERTEX
  5
3549
  8
02
 10
396.7472663894324
 20
3.08095238095251
 30
0.0
  0
VERTEX
  5
354A
  8
02
 10
396.8425044846706
 20
2.795238095238204
 30
0.0
  0
VERTEX
  5
354B
  8
02
 10
397.0329806751467
 20
2.700000000000102
 30
0.0
  0
VERTEX
  5
354C
  8
02
 10
397.318694960861
 20
2.700000000000102
 30
0.0
  0
VERTEX
  5
354D
  8
02
 10
397.5091711513372
 20
2.795238095238204
 30
0.0
  0
VERTEX
  5
354E
  8
02
 10
397.7948854370514
 20
3.08095238095251
 30
0.0
  0
SEQEND
  5
354F
  8
ZZXX
  0
POLYLINE
  5
3550
  8
ZZXX
 66
     1
 10
0.0
 20
0.0
 30
0.0
  0
VERTEX
  5
3551
  8
02
 10
395.5091711513372
 20
3.461904761904862
 30
0.0
  0
VERTEX
  5
3552
  8
02
 10
395.6044092465753
 20
3.747619047619139
 30
0.0
  0
VERTEX
  5
3553
  8
02
 10
395.7948854370514
 20
3.938095238095343
 30
0.0
  0
VERTEX
  5
3554
  8
02
 10
395.9853616275277
 20
4.033333333333445
 30
0.0
  0
VERTEX
  5
3555
  8
02
 10
396.2710759132419
 20
4.033333333333445
 30
0.0
  0
SEQEND
  5
3556
  8
ZZXX
  0
POLYLINE
  5
3557
  8
ZZXX
 66
     1
 10
0.0
 20
0.0
 30
0.0
  0
VERTEX
  5
3558
  8
02
 10
395.5091711513372
 20
2.700000000000102
 30
0.0
  0
VERTEX
  5
3559
  8
02
 10
395.5091711513372
 20
4.033333333333445
 30
0.0
  0
SEQEND
  5
355A
  8
ZZXX
  0
POLYLINE
  5
355B
  8
ZZXX
 66
     1
 10
0.0
 20
0.0
 30
0.0
  0
VERTEX
  5
355C
  8
02
 10
362.4044092465754
 20
4.300000000000125
 30
0.0
  0
VERTEX
  5
355D
  8
02
 10
362.3377425799086
 20
4.100000000000108
 30
0.0
  0
VERTEX
  5
355E
  8
02
 10
362.2044092465753
 20
3.766666666666765
 30
0.0
  0
VERTEX
  5
355F
  8
02
 10
362.0044092465753
 20
3.366666666666788
 30
0.0
  0
SEQEND
  5
3560
  8
ZZXX
  0
POLYLINE
  5
3561
  8
ZZXX
 66
     1
 10
0.0
 20
0.0
 30
0.0
  0
VERTEX
  5
3562
  8
02
 10
394.7472663894324
 20
3.747619047619139
 30
0.0
  0
VERTEX
  5
3563
  8
02
 10
394.5567901989563
 20
3.938095238095343
 30
0.0
  0
VERTEX
  5
3564
  8
02
 10
394.36631400848
 20
4.033333333333445
 30
0.0
  0
VERTEX
  5
3565
  8
02
 10
394.0805997227658
 20
4.033333333333445
 30
0.0
  0
VERTEX
  5
3566
  8
02
 10
393.8901235322896
 20
3.938095238095343
 30
0.0
  0
VERTEX
  5
3567
  8
02
 10
393.6996473418134
 20
3.747619047619139
 30
0.0
  0
VERTEX
  5
3568
  8
02
 10
393.6044092465753
 20
3.461904761904862
 30
0.0
  0
VERTEX
  5
3569
  8
02
 10
393.6044092465753
 20
3.271428571428658
 30
0.0
  0
VERTEX
  5
356A
  8
02
 10
393.6996473418134
 20
2.98571428571438
 30
0.0
  0
VERTEX
  5
356B
  8
02
 10
393.8901235322896
 20
2.795238095238204
 30
0.0
  0
VERTEX
  5
356C
  8
02
 10
394.0805997227658
 20
2.700000000000102
 30
0.0
  0
VERTEX
  5
356D
  8
02
 10
394.36631400848
 20
2.700000000000102
 30
0.0
  0
VERTEX
  5
356E
  8
02
 10
394.5567901989563
 20
2.795238095238204
 30
0.0
  0
VERTEX
  5
356F
  8
02
 10
394.7472663894324
 20
2.98571428571438
 30
0.0
  0
SEQEND
  5
3570
  8
ZZXX
  0
POLYLINE
  5
3571
  8
ZZXX
 66
     1
 10
0.0
 20
0.0
 30
0.0
  0
VERTEX
  5
3572
  8
02
 10
394.7472663894324
 20
2.700000000000102
 30
0.0
  0
VERTEX
  5
3573
  8
02
 10
394.7472663894324
 20
4.033333333333445
 30
0.0
  0
SEQEND
  5
3574
  8
ZZXX
  0
POLYLINE
  5
3575
  8
ZZXX
 66
     1
 10
0.0
 20
0.0
 30
0.0
  0
VERTEX
  5
3576
  8
02
 10
391.4139330560992
 20
2.700000000000102
 30
0.0
  0
VERTEX
  5
3577
  8
02
 10
391.4139330560992
 20
4.700000000000102
 30
0.0
  0
VERTEX
  5
3578
  8
02
 10
392.1758378180039
 20
2.700000000000102
 30
0.0
  0
VERTEX
  5
3579
  8
02
 10
392.9377425799087
 20
4.700000000000102
 30
0.0
  0
VERTEX
  5
357A
  8
02
 10
392.9377425799087
 20
2.700000000000102
 30
0.0
  0
SEQEND
  5
357B
  8
ZZXX
  0
POLYLINE
  5
357C
  8
ZZXX
 66
     1
 10
0.0
 20
0.0
 30
0.0
  0
VERTEX
  5
357D
  8
02
 10
362.871075913242
 20
3.700000000000102
 30
0.0
  0
VERTEX
  5
357E
  8
02
 10
363.071075913242
 20
3.833333333333428
 30
0.0
  0
VERTEX
  5
357F
  8
02
 10
363.2044092465753
 20
4.033333333333445
 30
0.0
  0
VERTEX
  5
3580
  8
02
 10
363.271075913242
 20
4.233333333333462
 30
0.0
  0
VERTEX
  5
3581
  8
02
 10
363.271075913242
 20
4.700000000000102
 30
0.0
  0
SEQEND
  5
3582
  8
ZZXX
  0
POLYLINE
  5
3583
  8
ZZXX
 66
     1
 10
0.0
 20
0.0
 30
0.0
  0
VERTEX
  5
3584
  8
02
 10
388.6901235322896
 20
4.700000000000102
 30
0.0
  0
VERTEX
  5
3585
  8
02
 10
389.071075913242
 20
4.700000000000102
 30
0.0
  0
VERTEX
  5
3586
  8
02
 10
389.3567901989562
 20
4.604761904762029
 30
0.0
  0
VERTEX
  5
3587
  8
02
 10
389.4520282941944
 20
4.414285714285825
 30
0.0
  0
VERTEX
  5
3588
  8
02
 10
389.4520282941944
 20
4.223809523809621
 30
0.0
  0
VERTEX
  5
3589
  8
02
 10
389.3567901989562
 20
4.033333333333445
 30
0.0
  0
VERTEX
  5
358A
  8
02
 10
389.1663140084801
 20
3.938095238095343
 30
0.0
  0
VERTEX
  5
358B
  8
02
 10
388.7853616275277
 20
3.84285714285727
 30
0.0
  0
VERTEX
  5
358C
  8
02
 10
388.4996473418134
 20
3.747619047619139
 30
0.0
  0
VERTEX
  5
358D
  8
02
 10
388.3091711513372
 20
3.557142857142964
 30
0.0
  0
VERTEX
  5
358E
  8
02
 10
388.2139330560991
 20
3.366666666666788
 30
0.0
  0
VERTEX
  5
358F
  8
02
 10
388.2139330560991
 20
3.08095238095251
 30
0.0
  0
VERTEX
  5
3590
  8
02
 10
388.3091711513372
 20
2.890476190476306
 30
0.0
  0
VERTEX
  5
3591
  8
02
 10
388.4044092465753
 20
2.795238095238204
 30
0.0
  0
VERTEX
  5
3592
  8
02
 10
388.6901235322896
 20
2.700000000000102
 30
0.0
  0
VERTEX
  5
3593
  8
02
 10
389.071075913242
 20
2.700000000000102
 30
0.0
  0
VERTEX
  5
3594
  8
02
 10
389.3567901989562
 20
2.795238095238204
 30
0.0
  0
VERTEX
  5
3595
  8
02
 10
389.4520282941944
 20
2.890476190476306
 30
0.0
  0
VERTEX
  5
3596
  8
02
 10
389.5472663894325
 20
3.08095238095251
 30
0.0
  0
VERTEX
  5
3597
  8
02
 10
389.5472663894325
 20
3.366666666666788
 30
0.0
  0
VERTEX
  5
3598
  8
02
 10
389.4520282941944
 20
3.557142857142964
 30
0.0
  0
VERTEX
  5
3599
  8
02
 10
389.2615521037181
 20
3.747619047619139
 30
0.0
  0
VERTEX
  5
359A
  8
02
 10
388.9758378180039
 20
3.84285714285727
 30
0.0
  0
VERTEX
  5
359B
  8
02
 10
388.5948854370515
 20
3.938095238095343
 30
0.0
  0
VERTEX
  5
359C
  8
02
 10
388.4044092465753
 20
4.033333333333445
 30
0.0
  0
VERTEX
  5
359D
  8
02
 10
388.3091711513372
 20
4.223809523809621
 30
0.0
  0
VERTEX
  5
359E
  8
02
 10
388.3091711513372
 20
4.414285714285825
 30
0.0
  0
VERTEX
  5
359F
  8
02
 10
388.4044092465753
 20
4.604761904762029
 30
0.0
  0
VERTEX
  5
35A0
  8
02
 10
388.6901235322896
 20
4.700000000000102
 30
0.0
  0
SEQEND
  5
35A1
  8
ZZXX
  0
POLYLINE
  5
35A2
  8
ZZXX
 66
     1
 10
0.0
 20
0.0
 30
0.0
  0
VERTEX
  5
35A3
  8
02
 10
387.071075913242
 20
2.700000000000102
 30
0.0
  0
VERTEX
  5
35A4
  8
02
 10
387.071075913242
 20
4.700000000000102
 30
0.0
  0
VERTEX
  5
35A5
  8
02
 10
386.7853616275277
 20
4.414285714285825
 30
0.0
  0
VERTEX
  5
35A6
  8
02
 10
386.5948854370515
 20
4.319047619047723
 30
0.0
  0
SEQEND
  5
35A7
  8
ZZXX
  0
POLYLINE
  5
35A8
  8
ZZXX
 66
     1
 10
0.0
 20
0.0
 30
0.0
  0
VERTEX
  5
35A9
  8
02
 10
384.118694960861
 20
2.033333333333445
 30
0.0
  0
VERTEX
  5
35AA
  8
02
 10
385.8329806751467
 20
5.080952380952482
 30
0.0
  0
SEQEND
  5
35AB
  8
ZZXX
  0
POLYLINE
  5
35AC
  8
ZZXX
 66
     1
 10
0.0
 20
0.0
 30
0.0
  0
VERTEX
  5
35AD
  8
02
 10
362.7377425799086
 20
3.366666666666788
 30
0.0
  0
VERTEX
  5
35AE
  8
02
 10
364.0044092465753
 20
3.366666666666788
 30
0.0
  0
SEQEND
  5
35AF
  8
ZZXX
  0
POLYLINE
  5
35B0
  8
ZZXX
 66
     1
 10
0.0
 20
0.0
 30
0.0
  0
VERTEX
  5
35B1
  8
02
 10
382.3091711513372
 20
3.08095238095251
 30
0.0
  0
VERTEX
  5
35B2
  8
02
 10
382.4044092465754
 20
2.890476190476306
 30
0.0
  0
VERTEX
  5
35B3
  8
02
 10
382.4996473418134
 20
2.795238095238204
 30
0.0
  0
VERTEX
  5
35B4
  8
02
 10
382.7853616275277
 20
2.700000000000102
 30
0.0
  0
VERTEX
  5
35B5
  8
02
 10
383.071075913242
 20
2.700000000000102
 30
0.0
  0
VERTEX
  5
35B6
  8
02
 10
383.3567901989562
 20
2.795238095238204
 30
0.0
  0
VERTEX
  5
35B7
  8
02
 10
383.5472663894325
 20
2.98571428571438
 30
0.0
  0
VERTEX
  5
35B8
  8
02
 10
383.6425044846706
 20
3.271428571428658
 30
0.0
  0
VERTEX
  5
35B9
  8
02
 10
383.6425044846706
 20
3.461904761904862
 30
0.0
  0
VERTEX
  5
35BA
  8
02
 10
383.5472663894325
 20
3.747619047619139
 30
0.0
  0
VERTEX
  5
35BB
  8
02
 10
383.3567901989562
 20
3.938095238095343
 30
0.0
  0
VERTEX
  5
35BC
  8
02
 10
383.071075913242
 20
4.033333333333445
 30
0.0
  0
VERTEX
  5
35BD
  8
02
 10
382.7853616275277
 20
4.033333333333445
 30
0.0
  0
VERTEX
  5
35BE
  8
02
 10
382.4996473418134
 20
3.938095238095343
 30
0.0
  0
VERTEX
  5
35BF
  8
02
 10
382.4044092465754
 20
3.84285714285727
 30
0.0
  0
VERTEX
  5
35C0
  8
02
 10
382.4996473418134
 20
4.700000000000102
 30
0.0
  0
VERTEX
  5
35C1
  8
02
 10
383.4520282941944
 20
4.700000000000102
 30
0.0
  0
SEQEND
  5
35C2
  8
ZZXX
  0
POLYLINE
  5
35C3
  8
ZZXX
 66
     1
 10
0.0
 20
0.0
 30
0.0
  0
VERTEX
  5
35C4
  8
02
 10
380.9758378180039
 20
4.700000000000102
 30
0.0
  0
VERTEX
  5
35C5
  8
02
 10
381.1663140084801
 20
4.700000000000102
 30
0.0
  0
VERTEX
  5
35C6
  8
02
 10
381.4520282941944
 20
4.604761904762029
 30
0.0
  0
VERTEX
  5
35C7
  8
02
 10
381.6425044846706
 20
4.319047619047723
 30
0.0
  0
VERTEX
  5
35C8
  8
02
 10
381.7377425799086
 20
3.84285714285727
 30
0.0
  0
VERTEX
  5
35C9
  8
02
 10
381.7377425799086
 20
3.557142857142964
 30
0.0
  0
VERTEX
  5
35CA
  8
02
 10
381.6425044846706
 20
3.08095238095251
 30
0.0
  0
VERTEX
  5
35CB
  8
02
 10
381.4520282941944
 20
2.795238095238204
 30
0.0
  0
VERTEX
  5
35CC
  8
02
 10
381.1663140084801
 20
2.700000000000102
 30
0.0
  0
VERTEX
  5
35CD
  8
02
 10
380.9758378180039
 20
2.700000000000102
 30
0.0
  0
VERTEX
  5
35CE
  8
02
 10
380.6901235322896
 20
2.795238095238204
 30
0.0
  0
VERTEX
  5
35CF
  8
02
 10
380.4996473418134
 20
3.08095238095251
 30
0.0
  0
VERTEX
  5
35D0
  8
02
 10
380.4044092465754
 20
3.557142857142964
 30
0.0
  0
VERTEX
  5
35D1
  8
02
 10
380.4044092465754
 20
3.84285714285727
 30
0.0
  0
VERTEX
  5
35D2
  8
02
 10
380.4996473418134
 20
4.319047619047723
 30
0.0
  0
VERTEX
  5
35D3
  8
02
 10
380.6901235322896
 20
4.604761904762029
 30
0.0
  0
VERTEX
  5
35D4
  8
02
 10
380.9758378180039
 20
4.700000000000102
 30
0.0
  0
SEQEND
  5
35D5
  8
ZZXX
  0
POLYLINE
  5
35D6
  8
ZZXX
 66
     1
 10
0.0
 20
0.0
 30
0.0
  0
VERTEX
  5
35D7
  8
02
 10
378.2139330560991
 20
2.033333333333445
 30
0.0
  0
VERTEX
  5
35D8
  8
02
 10
379.9282187703849
 20
5.080952380952482
 30
0.0
  0
SEQEND
  5
35D9
  8
ZZXX
  0
POLYLINE
  5
35DA
  8
ZZXX
 66
     1
 10
0.0
 20
0.0
 30
0.0
  0
VERTEX
  5
35DB
  8
02
 10
376.7853616275277
 20
2.700000000000102
 30
0.0
  0
VERTEX
  5
35DC
  8
02
 10
377.7377425799086
 20
4.700000000000102
 30
0.0
  0
VERTEX
  5
35DD
  8
02
 10
376.4044092465754
 20
4.700000000000102
 30
0.0
  0
SEQEND
  5
35DE
  8
ZZXX
  0
POLYLINE
  5
35DF
  8
ZZXX
 66
     1
 10
0.0
 20
0.0
 30
0.0
  0
VERTEX
  5
35E0
  8
02
 10
375.2615521037181
 20
2.700000000000102
 30
0.0
  0
VERTEX
  5
35E1
  8
02
 10
375.2615521037181
 20
4.700000000000102
 30
0.0
  0
VERTEX
  5
35E2
  8
02
 10
374.9758378180039
 20
4.414285714285825
 30
0.0
  0
VERTEX
  5
35E3
  8
02
 10
374.7853616275277
 20
4.319047619047723
 30
0.0
  0
SEQEND
  5
35E4
  8
ZZXX
  0
POLYLINE
  5
35E5
  8
ZZXX
 66
     1
 10
0.0
 20
0.0
 30
0.0
  0
VERTEX
  5
35E6
  8
02
 10
362.4044092465754
 20
2.700000000000102
 30
0.0
  0
VERTEX
  5
35E7
  8
02
 10
362.4044092465754
 20
4.700000000000102
 30
0.0
  0
SEQEND
  5
35E8
  8
ZZXX
  0
POLYLINE
  5
35E9
  8
ZZXX
 66
     1
 10
0.0
 20
0.0
 30
0.0
  0
VERTEX
  5
35EA
  8
02
 10
365.4044092465754
 20
4.233333333333462
 30
0.0
  0
VERTEX
  5
35EB
  8
02
 10
366.4044092465754
 20
4.233333333333462
 30
0.0
  0
SEQEND
  5
35EC
  8
ZZXX
  0
POLYLINE
  5
35ED
  8
ZZXX
 66
     1
 10
0.0
 20
0.0
 30
0.0
  0
VERTEX
  5
35EE
  8
02
 10
365.7377425799086
 20
3.300000000000125
 30
0.0
  0
VERTEX
  5
35EF
  8
02
 10
366.3377425799086
 20
3.300000000000125
 30
0.0
  0
SEQEND
  5
35F0
  8
ZZXX
  0
POLYLINE
  5
35F1
  8
ZZXX
 66
     1
 10
0.0
 20
0.0
 30
0.0
  0
VERTEX
  5
35F2
  8
02
 10
365.7377425799086
 20
4.233333333333462
 30
0.0
  0
VERTEX
  5
35F3
  8
02
 10
365.7377425799086
 20
2.700000000000102
 30
0.0
  0
SEQEND
  5
35F4
  8
ZZXX
  0
POLYLINE
  5
35F5
  8
ZZXX
 66
     1
 10
0.0
 20
0.0
 30
0.0
  0
VERTEX
  5
35F6
  8
02
 10
373.1663140084801
 20
4.700000000000102
 30
0.0
  0
VERTEX
  5
35F7
  8
02
 10
373.3567901989563
 20
4.700000000000102
 30
0.0
  0
VERTEX
  5
35F8
  8
02
 10
373.6425044846706
 20
4.604761904762029
 30
0.0
  0
VERTEX
  5
35F9
  8
02
 10
373.8329806751467
 20
4.319047619047723
 30
0.0
  0
VERTEX
  5
35FA
  8
02
 10
373.9282187703849
 20
3.84285714285727
 30
0.0
  0
VERTEX
  5
35FB
  8
02
 10
373.9282187703849
 20
3.557142857142964
 30
0.0
  0
VERTEX
  5
35FC
  8
02
 10
373.8329806751467
 20
3.08095238095251
 30
0.0
  0
VERTEX
  5
35FD
  8
02
 10
373.6425044846706
 20
2.795238095238204
 30
0.0
  0
VERTEX
  5
35FE
  8
02
 10
373.3567901989563
 20
2.700000000000102
 30
0.0
  0
VERTEX
  5
35FF
  8
02
 10
373.1663140084801
 20
2.700000000000102
 30
0.0
  0
VERTEX
  5
3600
  8
02
 10
372.8805997227659
 20
2.795238095238204
 30
0.0
  0
VERTEX
  5
3601
  8
02
 10
372.6901235322896
 20
3.08095238095251
 30
0.0
  0
VERTEX
  5
3602
  8
02
 10
372.5948854370515
 20
3.557142857142964
 30
0.0
  0
VERTEX
  5
3603
  8
02
 10
372.5948854370515
 20
3.84285714285727
 30
0.0
  0
VERTEX
  5
3604
  8
02
 10
372.6901235322896
 20
4.319047619047723
 30
0.0
  0
VERTEX
  5
3605
  8
02
 10
372.8805997227659
 20
4.604761904762029
 30
0.0
  0
VERTEX
  5
3606
  8
02
 10
373.1663140084801
 20
4.700000000000102
 30
0.0
  0
SEQEND
  5
3607
  8
ZZXX
  0
POLYLINE
  5
3608
  8
ZZXX
 66
     1
 10
0.0
 20
0.0
 30
0.0
  0
VERTEX
  5
3609
  8
02
 10
370.7853616275277
 20
4.223809523809621
 30
0.0
  0
VERTEX
  5
360A
  8
02
 10
370.7853616275277
 20
4.319047619047723
 30
0.0
  0
VERTEX
  5
360B
  8
02
 10
370.8805997227659
 20
4.509523809523898
 30
0.0
  0
VERTEX
  5
360C
  8
02
 10
370.9758378180039
 20
4.604761904762029
 30
0.0
  0
VERTEX
  5
360D
  8
02
 10
371.1663140084801
 20
4.700000000000102
 30
0.0
  0
VERTEX
  5
360E
  8
02
 10
371.5472663894325
 20
4.700000000000102
 30
0.0
  0
VERTEX
  5
360F
  8
02
 10
371.7377425799086
 20
4.604761904762029
 30
0.0
  0
VERTEX
  5
3610
  8
02
 10
371.8329806751468
 20
4.509523809523898
 30
0.0
  0
VERTEX
  5
3611
  8
02
 10
371.9282187703849
 20
4.319047619047723
 30
0.0
  0
VERTEX
  5
3612
  8
02
 10
371.9282187703849
 20
4.128571428571547
 30
0.0
  0
VERTEX
  5
3613
  8
02
 10
371.8329806751468
 20
3.938095238095343
 30
0.0
  0
VERTEX
  5
3614
  8
02
 10
371.6425044846706
 20
3.652380952381066
 30
0.0
  0
VERTEX
  5
3615
  8
02
 10
370.6901235322896
 20
2.700000000000102
 30
0.0
  0
VERTEX
  5
3616
  8
02
 10
372.023456865623
 20
2.700000000000102
 30
0.0
  0
SEQEND
  5
3617
  8
ZZXX
  0
POLYLINE
  5
3618
  8
ZZXX
 66
     1
 10
0.0
 20
0.0
 30
0.0
  0
VERTEX
  5
3619
  8
02
 10
366.3377425799086
 20
3.766666666666765
 30
0.0
  0
VERTEX
  5
361A
  8
02
 10
365.7377425799086
 20
3.766666666666765
 30
0.0
  0
SEQEND
  5
361B
  8
ZZXX
  0
POLYLINE
  5
361C
  8
ZZXX
 66
     1
 10
0.0
 20
0.0
 30
0.0
  0
VERTEX
  5
361D
  8
02
 10
368.3377425799086
 20
4.433333333333451
 30
0.0
  0
VERTEX
  5
361E
  8
02
 10
368.1377425799087
 20
4.700000000000102
 30
0.0
  0
SEQEND
  5
361F
  8
ZZXX
  0
POLYLINE
  5
3620
  8
ZZXX
 66
     1
 10
0.0
 20
0.0
 30
0.0
  0
VERTEX
  5
3621
  8
02
 10
367.871075913242
 20
4.700000000000102
 30
0.0
  0
VERTEX
  5
3622
  8
02
 10
367.871075913242
 20
4.233333333333462
 30
0.0
  0
VERTEX
  5
3623
  8
02
 10
368.0044092465753
 20
3.566666666666777
 30
0.0
  0
VERTEX
  5
3624
  8
02
 10
368.1377425799087
 20
3.300000000000125
 30
0.0
  0
VERTEX
  5
3625
  8
02
 10
368.3377425799086
 20
3.033333333333445
 30
0.0
  0
VERTEX
  5
3626
  8
02
 10
368.671075913242
 20
2.766666666666765
 30
0.0
  0
VERTEX
  5
3627
  8
02
 10
368.7377425799086
 20
2.766666666666765
 30
0.0
  0
VERTEX
  5
3628
  8
02
 10
368.8044092465753
 20
2.966666666666754
 30
0.0
  0
SEQEND
  5
3629
  8
ZZXX
  0
POLYLINE
  5
362A
  8
ZZXX
 66
     1
 10
0.0
 20
0.0
 30
0.0
  0
VERTEX
  5
362B
  8
02
 10
363.3377425799086
 20
3.833333333333428
 30
0.0
  0
VERTEX
  5
362C
  8
02
 10
363.3377425799086
 20
2.700000000000102
 30
0.0
  0
SEQEND
  5
362D
  8
ZZXX
  0
POLYLINE
  5
362E
  8
ZZXX
 66
     1
 10
0.0
 20
0.0
 30
0.0
  0
VERTEX
  5
362F
  8
02
 10
362.4044092465754
 20
4.300000000000125
 30
0.0
  0
VERTEX
  5
3630
  8
02
 10
362.671075913242
 20
3.766666666666765
 30
0.0
  0
SEQEND
  5
3631
  8
ZZXX
  0
ENDBLK
  5
3632
  8
0
  0
BLOCK
  8
0
  2
*X32
 70
     1
 10
0.0
 20
0.0
 30
0.0
  3
*X32
  1

  0
LINE
  5
3947
  8
0
  6
CONTINUOUS
 10
3.418023043697893
 20
7.251849696850613
 30
0.0
 11
4.929273346838536
 21
8.763099999991255
 31
0.0
  0
LINE
  5
3948
  8
0
  6
CONTINUOUS
 10
1.483656411257782
 20
4.643963855330318
 30
0.0
 11
5.60279255591872
 21
8.763099999991255
 31
0.0
  0
LINE
  5
3949
  8
0
  6
CONTINUOUS
 10
1.755053947328235
 20
4.241842182320584
 30
0.0
 11
6.276311764998907
 21
8.763099999991255
 31
0.0
  0
LINE
  5
394A
  8
0
  6
CONTINUOUS
 10
2.026451483398688
 20
3.839720509310849
 30
0.0
 11
4.441040904851878
 21
6.254309930764039
 31
0.0
  0
LINE
  5
394B
  8
0
  6
CONTINUOUS
 10
2.297849019469139
 20
3.437598836301114
 30
0.0
 11
3.321765168359338
 21
4.461514985191313
 31
0.0
  0
LINE
  5
394C
  8
0
  6
CONTINUOUS
 10
2.569246555539591
 20
3.03547716329138
 30
0.0
 11
3.593163397972743
 21
4.059394005724531
 31
0.0
  0
LINE
  5
394D
  8
0
  6
CONTINUOUS
 10
2.840644091610043
 20
2.633355490281646
 30
0.0
 11
3.864561627586149
 21
3.657273026257751
 31
0.0
  0
LINE
  5
394E
  8
0
  6
CONTINUOUS
 10
3.112041627680496
 20
2.231233817271911
 30
0.0
 11
4.135959857199554
 21
3.25515204679097
 31
0.0
  0
LINE
  5
394F
  8
0
  6
CONTINUOUS
 10
3.383439163750948
 20
1.829112144262177
 30
0.0
 11
4.40735808681296
 21
2.853031067324189
 31
0.0
  0
LINE
  5
3950
  8
0
  6
CONTINUOUS
 10
3.654836699821399
 20
1.426990471252442
 30
0.0
 11
4.678756316426365
 21
2.450910087857407
 31
0.0
  0
LINE
  5
3951
  8
0
  6
CONTINUOUS
 10
3.926234235891853
 20
1.024868798242709
 30
0.0
 11
4.95015454603977
 21
2.048789108390626
 31
0.0
  0
LINE
  5
3952
  8
0
  6
CONTINUOUS
 10
4.197631771962304
 20
0.6227471252329737
 30
0.0
 11
5.221552775653176
 21
1.646668128923846
 31
0.0
  0
LINE
  5
3953
  8
0
  6
CONTINUOUS
 10
8.715877546767851
 20
7.835069736359266
 30
0.0
 11
9.435953450375058
 21
8.555145639966472
 31
0.0
  0
LINE
  5
3954
  8
0
  6
CONTINUOUS
 10
8.170620868422267
 20
6.616293848933497
 30
0.0
 11
9.644120833743461
 21
8.08979381425469
 31
0.0
  0
LINE
  5
3955
  8
0
  6
CONTINUOUS
 10
7.625364190076684
 20
5.397517961507727
 30
0.0
 11
9.852288217111864
 21
7.624441988542907
 31
0.0
  0
LINE
  5
3956
  8
0
  6
CONTINUOUS
 10
7.080107511731101
 20
4.178742074081957
 30
0.0
 11
10.06045560048027
 21
7.159090162831124
 31
0.0
  0
LINE
  5
3957
  8
0
  6
CONTINUOUS
 10
6.534850833385518
 20
2.959966186656187
 30
0.0
 11
10.26862298384867
 21
6.693738337119342
 31
0.0
  0
LINE
  5
3958
  8
0
  6
CONTINUOUS
 10
4.469029308032756
 20
0.2206254522232385
 30
0.0
 11
5.492951005266582
 21
1.244547149457064
 31
0.0
  0
LINE
  5
3959
  8
0
  6
CONTINUOUS
 10
5.989594155039935
 20
1.741190299230417
 30
0.0
 11
8.806950407233131
 21
4.558546551423613
 31
0.0
  0
LINE
  5
395A
  8
0
  6
CONTINUOUS
 10
9.401251593263643
 20
5.152847737454126
 30
0.0
 11
10.47679036721708
 21
6.228386511407559
 31
0.0
  0
LINE
  5
395B
  8
0
  6
CONTINUOUS
 10
4.921837203428691
 20
-0.0000858614610131
 30
0.0
 11
8.592923064886001
 21
3.670999999996297
 31
0.0
  0
LINE
  5
395C
  8
0
  6
CONTINUOUS
 10
9.609390446785305
 20
4.6874673818956
 30
0.0
 11
10.68495775058548
 21
5.763034685695775
 31
0.0
  0
LINE
  5
395D
  8
0
  6
CONTINUOUS
 10
5.595387755019432
 20
-0.0000545189504582
 30
0.0
 11
7.716137258923768
 21
2.120694984953879
 31
0.0
  0
LINE
  5
395E
  8
0
  6
CONTINUOUS
 10
6.268938306610172
 20
-0.000023176439905
 30
0.0
 11
7.170485805526503
 21
0.9015243224764267
 31
0.0
  0
LINE
  5
395F
  8
0
  6
CONTINUOUS
 10
7.963842273967511
 20
2.368399999997621
 30
0.0
 11
9.266442273966188
 21
3.670999999996297
 31
0.0
  0
LINE
  5
3960
  8
0
  6
CONTINUOUS
 10
8.637361483047696
 20
2.368399999997621
 30
0.0
 11
9.939961483046375
 21
3.670999999996297
 31
0.0
  0
LINE
  5
3961
  8
0
  6
CONTINUOUS
 10
9.817529300306965
 20
4.222087026337075
 30
0.0
 11
10.89312513395388
 21
5.297682859983993
 31
0.0
  0
LINE
  5
3962
  8
0
  6
CONTINUOUS
 10
10.02566815382863
 20
3.756706670778549
 30
0.0
 11
11.10129251732229
 21
4.832331034272211
 31
0.0
  0
LINE
  5
3963
  8
0
  6
CONTINUOUS
 10
9.310880692127883
 20
2.368399999997621
 30
0.0
 11
11.30945990069069
 21
4.366979208560428
 31
0.0
  0
LINE
  5
3964
  8
0
  6
CONTINUOUS
 10
9.98439990120807
 20
2.36839999999762
 30
0.0
 11
11.5176272840591
 21
3.901627382848645
 31
0.0
  0
LINE
  5
3965
  8
0
  6
CONTINUOUS
 10
10.65037369446246
 20
2.36085458417182
 30
0.0
 11
11.7257946674275
 21
3.436275557136862
 31
0.0
  0
LINE
  5
3966
  8
0
  6
CONTINUOUS
 10
10.85847197087848
 20
1.895433651507656
 30
0.0
 11
11.9339620507959
 21
2.97092373142508
 31
0.0
  0
LINE
  5
3967
  8
0
  6
CONTINUOUS
 10
11.0665702472945
 20
1.430012718843491
 30
0.0
 11
12.14212943416431
 21
2.505571905713296
 31
0.0
  0
LINE
  5
3968
  8
0
  6
CONTINUOUS
 10
11.27466852371052
 20
0.9645917861793256
 30
0.0
 11
12.35029681753271
 21
2.040220080001513
 31
0.0
  0
LINE
  5
3969
  8
0
  6
CONTINUOUS
 10
11.48276680012654
 20
0.4991708535151611
 30
0.0
 11
12.55846420090111
 21
1.57486825428973
 31
0.0
  0
LINE
  5
396A
  8
0
  6
CONTINUOUS
 10
11.69086507654257
 20
0.0337499208509957
 30
0.0
 11
12.76663158426952
 21
1.109516428577947
 31
0.0
  0
LINE
  5
396B
  8
0
  6
CONTINUOUS
 10
12.33057447873954
 20
-0.0000598860322123
 30
0.0
 11
12.97479896763792
 21
0.6441646028661663
 31
0.0
  0
LINE
  5
396C
  8
0
  6
CONTINUOUS
 10
13.00413694809395
 20
-0.0000166257579952
 30
0.0
 11
13.18296635100632
 21
0.1788127771543824
 31
0.0
  0
LINE
  5
396D
  8
0
  6
CONTINUOUS
 10
4.772852165289667
 20
-0.000092794222212
 30
0.0
 11
4.296495091028902
 21
0.4762642800385528
 31
0.0
  0
LINE
  5
396E
  8
0
  6
CONTINUOUS
 10
5.446340034776103
 20
-0.0000614546284616
 30
0.0
 11
2.898195908335625
 21
2.548082671812017
 31
0.0
  0
LINE
  5
396F
  8
0
  6
CONTINUOUS
 10
6.119827904262539
 20
-0.0000301150347113
 30
0.0
 11
1.499896725642348
 21
4.61990106358548
 31
0.0
  0
LINE
  5
3970
  8
0
  6
CONTINUOUS
 10
6.775136745476159
 20
0.0181802528318542
 30
0.0
 11
5.699826040202669
 21
1.093490958105344
 31
0.0
  0
LINE
  5
3971
  8
0
  6
CONTINUOUS
 10
6.983376846288489
 20
0.4834593610997118
 30
0.0
 11
5.908008617934405
 21
1.558827589453796
 31
0.0
  0
LINE
  5
3972
  8
0
  6
CONTINUOUS
 10
5.377063484962296
 20
1.416253513345719
 30
0.0
 11
1.702276957014131
 21
5.091040041293883
 31
0.0
  0
LINE
  5
3973
  8
0
  6
CONTINUOUS
 10
3.978745891735324
 20
3.488090315652877
 30
0.0
 11
2.000373521109399
 21
5.466462686278803
 31
0.0
  0
LINE
  5
3974
  8
0
  6
CONTINUOUS
 10
7.191616947100819
 20
0.948738469367568
 30
0.0
 11
6.11619119566614
 21
2.024164220802247
 31
0.0
  0
LINE
  5
3975
  8
0
  6
CONTINUOUS
 10
7.399857047913149
 20
1.414017577635424
 30
0.0
 11
6.324373773397875
 21
2.489500852150698
 31
0.0
  0
LINE
  5
3976
  8
0
  6
CONTINUOUS
 10
7.608097148725479
 20
1.879296685903281
 30
0.0
 11
6.53255635112961
 21
2.95483748349915
 31
0.0
  0
LINE
  5
3977
  8
0
  6
CONTINUOUS
 10
7.816337249537808
 20
2.344575794171138
 30
0.0
 11
6.740738928861345
 21
3.420174114847601
 31
0.0
  0
LINE
  5
3978
  8
0
  6
CONTINUOUS
 10
3.310241080789734
 20
4.830114335678653
 30
0.0
 11
2.298470085204666
 21
5.84188533126372
 31
0.0
  0
LINE
  5
3979
  8
0
  6
CONTINUOUS
 10
3.60832983563551
 20
5.205544789913063
 30
0.0
 11
2.596566649299935
 21
6.217307976248638
 31
0.0
  0
LINE
  5
397A
  8
0
  6
CONTINUOUS
 10
3.906418590481286
 20
5.580975244147473
 30
0.0
 11
2.894663213395203
 21
6.592730621233557
 31
0.0
  0
LINE
  5
397B
  8
0
  6
CONTINUOUS
 10
4.204507345327062
 20
5.956405698381884
 30
0.0
 11
3.192759777490472
 21
6.968153266218474
 31
0.0
  0
LINE
  5
397C
  8
0
  6
CONTINUOUS
 10
8.466032252791512
 20
2.368399999997621
 30
0.0
 11
6.948921506593081
 21
3.885510746196053
 31
0.0
  0
LINE
  5
397D
  8
0
  6
CONTINUOUS
 10
9.139551461871699
 20
2.36839999999762
 30
0.0
 11
7.157104084324816
 21
4.350847377544504
 31
0.0
  0
LINE
  5
397E
  8
0
  6
CONTINUOUS
 10
4.502596100172839
 20
6.331836152616295
 30
0.0
 11
3.49085634158574
 21
7.343575911203393
 31
0.0
  0
LINE
  5
397F
  8
0
  6
CONTINUOUS
 10
4.800684855018615
 20
6.707266606850705
 30
0.0
 11
3.788952905681008
 21
7.718998556188312
 31
0.0
  0
LINE
  5
3980
  8
0
  6
CONTINUOUS
 10
12.18154012887317
 20
-0.0000694579236642
 30
0.0
 11
11.32140332908496
 21
0.8600673418645499
 31
0.0
  0
LINE
  5
3981
  8
0
  6
CONTINUOUS
 10
12.85501608323566
 20
-0.0000262032059659
 30
0.0
 11
10.77672456435345
 21
2.078265315676246
 31
0.0
  0
LINE
  5
3982
  8
0
  6
CONTINUOUS
 10
9.813070670951886
 20
2.36839999999762
 30
0.0
 11
8.51047067095321
 21
3.670999999996297
 31
0.0
  0
LINE
  5
3983
  8
0
  6
CONTINUOUS
 10
10.48658988003207
 20
2.36839999999762
 30
0.0
 11
9.183989880033396
 21
3.670999999996297
 31
0.0
  0
LINE
  5
3984
  8
0
  6
CONTINUOUS
 10
8.441048632286794
 20
3.740422038662712
 30
0.0
 11
7.365286662056551
 21
4.816184008892956
 31
0.0
  0
LINE
  5
3985
  8
0
  6
CONTINUOUS
 10
8.649187485808454
 20
4.205802394221237
 30
0.0
 11
7.573469239788285
 21
5.281520640241407
 31
0.0
  0
LINE
  5
3986
  8
0
  6
CONTINUOUS
 10
5.098773609864391
 20
7.082697061085115
 30
0.0
 11
4.087049469776277
 21
8.09442120117323
 31
0.0
  0
LINE
  5
3987
  8
0
  6
CONTINUOUS
 10
5.396862364710167
 20
7.458127515319526
 30
0.0
 11
4.385146033871544
 21
8.469843846158149
 31
0.0
  0
LINE
  5
3988
  8
0
  6
CONTINUOUS
 10
13.04801363231285
 20
0.4804954567970334
 30
0.0
 11
9.85750908911358
 21
3.670999999996297
 31
0.0
  0
LINE
  5
3989
  8
0
  6
CONTINUOUS
 10
8.857326339330116
 20
4.671182749779763
 30
0.0
 11
7.781651817520021
 21
5.746857271589858
 31
0.0
  0
LINE
  5
398A
  8
0
  6
CONTINUOUS
 10
5.694951119555943
 20
7.833557969553937
 30
0.0
 11
4.765409089118624
 21
8.763099999991255
 31
0.0
  0
LINE
  5
398B
  8
0
  6
CONTINUOUS
 10
12.50286117236978
 20
1.699167125820288
 30
0.0
 11
9.68611877250287
 21
4.515909525687196
 31
0.0
  0
LINE
  5
398C
  8
0
  6
CONTINUOUS
 10
9.065465192851777
 20
5.136563105338288
 30
0.0
 11
7.989834395251757
 21
6.21219390293831
 31
0.0
  0
LINE
  5
398D
  8
0
  6
CONTINUOUS
 10
5.993039874401719
 20
8.208988423788346
 30
0.0
 11
5.43892829819881
 21
8.763099999991255
 31
0.0
  0
LINE
  5
398E
  8
0
  6
CONTINUOUS
 10
11.95770871242671
 20
2.917838794843543
 30
0.0
 11
8.19801697298349
 21
6.677530534286761
 31
0.0
  0
LINE
  5
398F
  8
0
  6
CONTINUOUS
 10
6.291128629247495
 20
8.584418878022756
 30
0.0
 11
6.112447507278997
 21
8.763099999991255
 31
0.0
  0
LINE
  5
3990
  8
0
  6
CONTINUOUS
 10
11.41255625248364
 20
4.136510463866797
 30
0.0
 11
8.406199550715227
 21
7.142867165635211
 31
0.0
  0
LINE
  5
3991
  8
0
  6
CONTINUOUS
 10
10.86740379254057
 20
5.355182132890051
 30
0.0
 11
8.614382128446962
 21
7.608203796983664
 31
0.0
  0
LINE
  5
3992
  8
0
  6
CONTINUOUS
 10
10.3222513325975
 20
6.573853801913305
 30
0.0
 11
8.822564706178696
 21
8.073540428332114
 31
0.0
  0
LINE
  5
3993
  8
0
  6
CONTINUOUS
 10
9.777098872654436
 20
7.792525470936562
 30
0.0
 11
9.030747283910433
 21
8.538877059680566
 31
0.0
  0
ENDBLK
  5
3AD5
  8
0
  0
BLOCK
  8
0
  2
*X33
 70
     1
 10
0.0
 20
0.0
 30
0.0
  3
*X33
  1

  0
LINE
  5
3995
  8
0
  6
CONTINUOUS
 10
10.67292308101235
 20
8.445076852443387
 30
0.0
 11
10.99094622856022
 21
8.763099999991255
 31
0.0
  0
LINE
  5
3996
  8
0
  6
CONTINUOUS
 10
10.87250383178748
 20
7.971138394138331
 30
0.0
 11
11.6644654376404
 21
8.763099999991255
 31
0.0
  0
LINE
  5
3997
  8
0
  6
CONTINUOUS
 10
11.07208458256261
 20
7.497199935833273
 30
0.0
 11
12.12126590876355
 21
8.546381262034211
 31
0.0
  0
LINE
  5
3998
  8
0
  6
CONTINUOUS
 10
11.27166533333774
 20
7.023261477528216
 30
0.0
 11
12.32085164573666
 21
8.072447789927136
 31
0.0
  0
LINE
  5
3999
  8
0
  6
CONTINUOUS
 10
11.47124608411287
 20
6.549323019223158
 30
0.0
 11
12.52043738270977
 21
7.59851431782006
 31
0.0
  0
LINE
  5
399A
  8
0
  6
CONTINUOUS
 10
11.670826834888
 20
6.075384560918101
 30
0.0
 11
12.72002311968288
 21
7.124580845712984
 31
0.0
  0
LINE
  5
399B
  8
0
  6
CONTINUOUS
 10
11.87040758566313
 20
5.601446102613043
 30
0.0
 11
12.91960885665599
 21
6.650647373605907
 31
0.0
  0
LINE
  5
399C
  8
0
  6
CONTINUOUS
 10
12.06998833643825
 20
5.127507644307986
 30
0.0
 11
13.1191945936291
 21
6.176713901498832
 31
0.0
  0
LINE
  5
399D
  8
0
  6
CONTINUOUS
 10
12.26956908721338
 20
4.65356918600293
 30
0.0
 11
13.31878033060221
 21
5.702780429391757
 31
0.0
  0
LINE
  5
399E
  8
0
  6
CONTINUOUS
 10
12.46914983798851
 20
4.179630727697873
 30
0.0
 11
13.51836606757532
 21
5.228846957284683
 31
0.0
  0
LINE
  5
399F
  8
0
  6
CONTINUOUS
 10
12.66873058876364
 20
3.705692269392816
 30
0.0
 11
13.71795180454843
 21
4.754913485177607
 31
0.0
  0
LINE
  5
39A0
  8
0
  6
CONTINUOUS
 10
12.86831133953877
 20
3.231753811087759
 30
0.0
 11
13.91753754152154
 21
4.280980013070531
 31
0.0
  0
LINE
  5
39A1
  8
0
  6
CONTINUOUS
 10
13.0678920903139
 20
2.757815352782702
 30
0.0
 11
14.11712327849465
 21
3.807046540963456
 31
0.0
  0
LINE
  5
39A2
  8
0
  6
CONTINUOUS
 10
13.26747284108903
 20
2.283876894477644
 30
0.0
 11
14.31670901546777
 21
3.333113068856379
 31
0.0
  0
LINE
  5
39A3
  8
0
  6
CONTINUOUS
 10
16.36767838827179
 20
8.751678487061342
 30
0.0
 11
16.50332410898388
 21
8.887324207773432
 31
0.0
  0
LINE
  5
39A4
  8
0
  6
CONTINUOUS
 10
15.96190732182191
 20
7.67238821153127
 30
0.0
 11
16.68735328004734
 21
8.397834169756699
 31
0.0
  0
LINE
  5
39A5
  8
0
  6
CONTINUOUS
 10
15.55613625537202
 20
6.593097936001196
 30
0.0
 11
16.87138245111079
 21
7.908344131739965
 31
0.0
  0
LINE
  5
39A6
  8
0
  6
CONTINUOUS
 10
15.15036518892213
 20
5.513807660471122
 30
0.0
 11
17.05541162217424
 21
7.418854093723231
 31
0.0
  0
LINE
  5
39A7
  8
0
  6
CONTINUOUS
 10
14.74459412247225
 20
4.434517384941048
 30
0.0
 11
17.2394407932377
 21
6.929364055706499
 31
0.0
  0
LINE
  5
39A8
  8
0
  6
CONTINUOUS
 10
14.33882305602236
 20
3.355227109410975
 30
0.0
 11
17.42346996430115
 21
6.439874017689766
 31
0.0
  0
LINE
  5
39A9
  8
0
  6
CONTINUOUS
 10
13.46705359186416
 20
1.809938436172586
 30
0.0
 11
16.0819338255367
 21
4.424818669845129
 31
0.0
  0
LINE
  5
39AA
  8
0
  6
CONTINUOUS
 10
16.63283254238972
 20
4.975717386698149
 30
0.0
 11
17.60749913536461
 21
5.950383979673033
 31
0.0
  0
LINE
  5
39AB
  8
0
  6
CONTINUOUS
 10
13.66663434263929
 20
1.335999977867529
 30
0.0
 11
15.67604797733754
 21
3.345413612565779
 31
0.0
  0
LINE
  5
39AC
  8
0
  6
CONTINUOUS
 10
13.86621509341442
 20
0.8620615195624723
 30
0.0
 11
15.27016212913838
 21
2.26600855528643
 31
0.0
  0
LINE
  5
39AD
  8
0
  6
CONTINUOUS
 10
16.81682257348267
 20
4.486188208710908
 30
0.0
 11
17.79152830642806
 21
5.460893941656299
 31
0.0
  0
LINE
  5
39AE
  8
0
  6
CONTINUOUS
 10
17.00081260457561
 20
3.996659030723667
 30
0.0
 11
17.97555747749151
 21
4.971403903639565
 31
0.0
  0
LINE
  5
39AF
  8
0
  6
CONTINUOUS
 10
20.74362343514722
 20
8.412989070375462
 30
0.0
 11
21.09373436476302
 21
8.763099999991256
 31
0.0
  0
LINE
  5
39B0
  8
0
  6
CONTINUOUS
 10
20.25401257174777
 20
7.249858997895826
 30
0.0
 11
21.7672535738432
 21
8.763099999991255
 31
0.0
  0
LINE
  5
39B1
  8
0
  6
CONTINUOUS
 10
14.06579584418955
 20
0.3881230612574149
 30
0.0
 11
14.86427628093921
 21
1.186603498007082
 31
0.0
  0
LINE
  5
39B2
  8
0
  6
CONTINUOUS
 10
14.26537659496467
 20
-0.0858153970476412
 30
0.0
 11
14.45839043274005
 21
0.1071984407277329
 31
0.0
  0
LINE
  5
39B3
  8
0
  6
CONTINUOUS
 10
17.18480263566856
 20
3.507129852736426
 30
0.0
 11
18.15958664855496
 21
4.481913865622833
 31
0.0
  0
LINE
  5
39B4
  8
0
  6
CONTINUOUS
 10
17.3687926667615
 20
3.017600674749186
 30
0.0
 11
18.34361581961842
 21
3.9924238276061
 31
0.0
  0
LINE
  5
39B5
  8
0
  6
CONTINUOUS
 10
19.76440170834832
 20
6.086728925416191
 30
0.0
 11
22.33924590259489
 21
8.661573119662755
 31
0.0
  0
LINE
  5
39B6
  8
0
  6
CONTINUOUS
 10
19.27479084494887
 20
4.923598852936555
 30
0.0
 11
21.84929622842713
 21
7.498104236414807
 31
0.0
  0
LINE
  5
39B7
  8
0
  6
CONTINUOUS
 10
17.55278269785445
 20
2.528071496761945
 30
0.0
 11
18.52764499068187
 21
3.502933789589366
 31
0.0
  0
LINE
  5
39B8
  8
0
  6
CONTINUOUS
 10
18.78517998154942
 20
3.760468780456919
 30
0.0
 11
21.35934655425936
 21
6.33463535316686
 31
0.0
  0
LINE
  5
39B9
  8
0
  6
CONTINUOUS
 10
17.73677272894739
 20
2.038542318774704
 30
0.0
 11
20.8693968800916
 21
5.171166469918914
 31
0.0
  0
LINE
  5
39BA
  8
0
  6
CONTINUOUS
 10
17.92076276004034
 20
1.549013140787464
 30
0.0
 11
20.37944720592384
 21
4.007697586670968
 31
0.0
  0
LINE
  5
39BB
  8
0
  6
CONTINUOUS
 10
18.10475279113329
 20
1.059483962800223
 30
0.0
 11
19.88949753175608
 21
2.84422870342302
 31
0.0
  0
LINE
  5
39BC
  8
0
  6
CONTINUOUS
 10
18.28874282222623
 20
0.5699547848129822
 30
0.0
 11
19.39954785758832
 21
1.680759820175074
 31
0.0
  0
LINE
  5
39BD
  8
0
  6
CONTINUOUS
 10
18.47273285331918
 20
0.0804256068257416
 30
0.0
 11
18.90959818342056
 21
0.517290936927127
 31
0.0
  0
LINE
  5
39BE
  8
0
  6
CONTINUOUS
 10
14.3590401358224
 20
-0.1570118376323384
 30
0.0
 11
14.24903296539946
 21
-0.0470046672093929
 31
0.0
  0
LINE
  5
39BF
  8
0
  6
CONTINUOUS
 10
14.54309291258661
 20
0.332454594683643
 30
0.0
 11
13.75908329123172
 21
1.116464216038529
 31
0.0
  0
LINE
  5
39C0
  8
0
  6
CONTINUOUS
 10
14.72714568935081
 20
0.8219210269996244
 30
0.0
 11
13.26913361706399
 21
2.27993309928645
 31
0.0
  0
LINE
  5
39C1
  8
0
  6
CONTINUOUS
 10
14.91119846611502
 20
1.311387459315606
 30
0.0
 11
12.77918394289625
 21
3.443401982534371
 31
0.0
  0
LINE
  5
39C2
  8
0
  6
CONTINUOUS
 10
15.09525124287922
 20
1.800853891631587
 30
0.0
 11
12.28923426872852
 21
4.606870865782293
 31
0.0
  0
LINE
  5
39C3
  8
0
  6
CONTINUOUS
 10
15.27930401964343
 20
2.290320323947569
 30
0.0
 11
11.79928459456078
 21
5.770339749030213
 31
0.0
  0
LINE
  5
39C4
  8
0
  6
CONTINUOUS
 10
15.46335679640763
 20
2.77978675626355
 30
0.0
 11
14.48885470994921
 21
3.754288842721972
 31
0.0
  0
LINE
  5
39C5
  8
0
  6
CONTINUOUS
 10
13.88507249233704
 20
4.358071060334137
 30
0.0
 11
11.30933492039305
 21
6.933808632278135
 31
0.0
  0
LINE
  5
39C6
  8
0
  6
CONTINUOUS
 10
18.75840522805855
 20
0.1582575336928151
 30
0.0
 11
18.25383727664818
 21
0.6628254851031863
 31
0.0
  0
LINE
  5
39C7
  8
0
  6
CONTINUOUS
 10
15.64740957317184
 20
3.269253188579531
 30
0.0
 11
14.67288388101266
 21
4.243778880738705
 31
0.0
  0
LINE
  5
39C8
  8
0
  6
CONTINUOUS
 10
13.39509276772158
 20
5.521569994029786
 30
0.0
 11
10.81938524622531
 21
8.097277515526056
 31
0.0
  0
LINE
  5
39C9
  8
0
  6
CONTINUOUS
 10
18.95798597883369
 20
0.6321959919978686
 30
0.0
 11
17.84825644852853
 21
1.741925522303024
 31
0.0
  0
LINE
  5
39CA
  8
0
  6
CONTINUOUS
 10
19.15756672960882
 20
1.106134450302922
 30
0.0
 11
17.44267562040888
 21
2.821025559502861
 31
0.0
  0
LINE
  5
39CB
  8
0
  6
CONTINUOUS
 10
15.83146234993604
 20
3.758719620895513
 30
0.0
 11
14.85691305207612
 21
4.733268918755439
 31
0.0
  0
LINE
  5
39CC
  8
0
  6
CONTINUOUS
 10
16.01551512670025
 20
4.248186053211494
 30
0.0
 11
15.04094222313957
 21
5.222758956772172
 31
0.0
  0
LINE
  5
39CD
  8
0
  6
CONTINUOUS
 10
12.90511304310612
 20
6.685068927725435
 30
0.0
 11
10.8270819708403
 21
8.763099999991255
 31
0.0
  0
LINE
  5
39CE
  8
0
  6
CONTINUOUS
 10
12.41513331849066
 20
7.848567861421083
 30
0.0
 11
11.50060117992049
 21
8.763099999991255
 31
0.0
  0
LINE
  5
39CF
  8
0
  6
CONTINUOUS
 10
19.35714748038395
 20
1.580072908607975
 30
0.0
 11
17.03709479228923
 21
3.900125596702697
 31
0.0
  0
LINE
  5
39D0
  8
0
  6
CONTINUOUS
 10
19.55672823115909
 20
2.054011366913028
 30
0.0
 11
16.63151396416958
 21
4.979225633902534
 31
0.0
  0
LINE
  5
39D1
  8
0
  6
CONTINUOUS
 10
16.19956790346445
 20
4.737652485527476
 30
0.0
 11
15.22497139420302
 21
5.712248994788904
 31
0.0
  0
LINE
  5
39D2
  8
0
  6
CONTINUOUS
 10
16.38362068022866
 20
5.227118917843457
 30
0.0
 11
15.40900056526648
 21
6.201739032805637
 31
0.0
  0
LINE
  5
39D3
  8
0
  6
CONTINUOUS
 10
19.75630898193422
 20
2.527949825218081
 30
0.0
 11
18.70774536448286
 21
3.576513442669441
 31
0.0
  0
LINE
  5
39D4
  8
0
  6
CONTINUOUS
 10
19.95588973270936
 20
3.001888283523134
 30
0.0
 11
18.90726987211446
 21
4.050508144118028
 31
0.0
  0
LINE
  5
39D5
  8
0
  6
CONTINUOUS
 10
20.15547048348449
 20
3.475826741828186
 30
0.0
 11
19.10679437974606
 21
4.524502845566614
 31
0.0
  0
LINE
  5
39D6
  8
0
  6
CONTINUOUS
 10
20.35505123425962
 20
3.94976520013324
 30
0.0
 11
19.30631888737766
 21
4.998497547015201
 31
0.0
  0
LINE
  5
39D7
  8
0
  6
CONTINUOUS
 10
20.55463198503475
 20
4.423703658438292
 30
0.0
 11
19.50584339500926
 21
5.472492248463787
 31
0.0
  0
LINE
  5
39D8
  8
0
  6
CONTINUOUS
 10
18.37481191085755
 20
3.909446896294752
 30
0.0
 11
15.59302973632993
 21
6.691229070822371
 31
0.0
  0
LINE
  5
39D9
  8
0
  6
CONTINUOUS
 10
17.96904084440766
 20
4.988737171824825
 30
0.0
 11
15.77705890739338
 21
7.180719108839104
 31
0.0
  0
LINE
  5
39DA
  8
0
  6
CONTINUOUS
 10
17.56326977795777
 20
6.068027447354899
 30
0.0
 11
15.96108807845684
 21
7.670209146855838
 31
0.0
  0
LINE
  5
39DB
  8
0
  6
CONTINUOUS
 10
17.15749871150789
 20
7.147317722884972
 30
0.0
 11
16.14511724952029
 21
8.15969918487257
 31
0.0
  0
LINE
  5
39DC
  8
0
  6
CONTINUOUS
 10
16.751727645058
 20
8.226607998415046
 30
0.0
 11
16.32914642058374
 21
8.649189222889303
 31
0.0
  0
LINE
  5
39DD
  8
0
  6
CONTINUOUS
 10
20.75421273580989
 20
4.897642116743345
 30
0.0
 11
19.70536790264086
 21
5.946486949912374
 31
0.0
  0
LINE
  5
39DE
  8
0
  6
CONTINUOUS
 10
20.95379348658502
 20
5.371580575048398
 30
0.0
 11
19.90489241027246
 21
6.42048165136096
 31
0.0
  0
LINE
  5
39DF
  8
0
  6
CONTINUOUS
 10
21.15337423736015
 20
5.845519033353452
 30
0.0
 11
20.10441691790406
 21
6.894476352809547
 31
0.0
  0
LINE
  5
39E0
  8
0
  6
CONTINUOUS
 10
21.35295498813529
 20
6.319457491658505
 30
0.0
 11
20.30394142553566
 21
7.368471054258134
 31
0.0
  0
LINE
  5
39E1
  8
0
  6
CONTINUOUS
 10
21.55253573891042
 20
6.793395949963558
 30
0.0
 11
20.50346593316726
 21
7.842465755706721
 31
0.0
  0
LINE
  5
39E2
  8
0
  6
CONTINUOUS
 10
21.75211648968556
 20
7.267334408268612
 30
0.0
 11
20.70299044079886
 21
8.316460457155308
 31
0.0
  0
LINE
  5
39E3
  8
0
  6
CONTINUOUS
 10
21.95169724046069
 20
7.741272866573663
 30
0.0
 11
20.9298701070431
 21
8.763099999991256
 31
0.0
  0
LINE
  5
39E4
  8
0
  6
CONTINUOUS
 10
22.15127799123582
 20
8.215211324878716
 30
0.0
 11
21.60338931612328
 21
8.763099999991256
 31
0.0
  0
LINE
  5
39E5
  8
0
  6
CONTINUOUS
 10
22.35085874201096
 20
8.689149783183769
 30
0.0
 11
22.27690852520347
 21
8.763099999991255
 31
0.0
  0
ENDBLK
  5
3AD7
  8
0
  0
BLOCK
  8
0
  2
*X34
 70
     1
 10
0.0
 20
0.0
 30
0.0
  3
*X34
  1

  0
LINE
  5
39E7
  8
0
  6
CONTINUOUS
 10
23.19462913593892
 20
8.169917934846424
 30
0.0
 11
23.70775465517246
 21
8.683043454079957
 31
0.0
  0
LINE
  5
39E8
  8
0
  6
CONTINUOUS
 10
22.64923161835078
 20
6.951001208178088
 30
0.0
 11
23.9159364069932
 21
8.217705996820516
 31
0.0
  0
LINE
  5
39E9
  8
0
  6
CONTINUOUS
 10
22.10383410076263
 20
5.732084481509751
 30
0.0
 11
24.12411815881395
 21
7.752368539561078
 31
0.0
  0
LINE
  5
39EA
  8
0
  6
CONTINUOUS
 10
21.55843658317447
 20
4.513167754841414
 30
0.0
 11
24.3322999106347
 21
7.287031082301639
 31
0.0
  0
LINE
  5
39EB
  8
0
  6
CONTINUOUS
 10
21.01303906558632
 20
3.294251028173077
 30
0.0
 11
24.54048166245544
 21
6.821693625042199
 31
0.0
  0
LINE
  5
39EC
  8
0
  6
CONTINUOUS
 10
20.46764154799817
 20
2.075334301504738
 30
0.0
 11
23.28571549467848
 21
4.89340824818505
 31
0.0
  0
LINE
  5
39ED
  8
0
  6
CONTINUOUS
 10
19.92224403041002
 20
0.8564175748364002
 30
0.0
 11
22.74075865492779
 21
3.674932199354171
 31
0.0
  0
LINE
  5
39EE
  8
0
  6
CONTINUOUS
 10
23.67305085490148
 20
5.280743608408048
 30
0.0
 11
24.74866341427619
 21
6.356356167782759
 31
0.0
  0
LINE
  5
39EF
  8
0
  6
CONTINUOUS
 10
23.88118970842314
 20
4.815363252849522
 30
0.0
 11
24.95684516609694
 21
5.89101871052332
 31
0.0
  0
LINE
  5
39F0
  8
0
  6
CONTINUOUS
 10
19.73925852647308
 20
-0.0000871381807288
 30
0.0
 11
23.4103456646501
 21
3.670999999996297
 31
0.0
  0
LINE
  5
39F1
  8
0
  6
CONTINUOUS
 10
24.0893285619448
 20
4.349982897290997
 30
0.0
 11
25.16502691791769
 21
5.42568125326388
 31
0.0
  0
LINE
  5
39F2
  8
0
  6
CONTINUOUS
 10
20.41282099582748
 20
-0.0000438779065108
 30
0.0
 11
21.64944178675636
 21
1.236576913022366
 31
0.0
  0
LINE
  5
39F3
  8
0
  6
CONTINUOUS
 10
22.78126487373161
 20
2.36839999999762
 30
0.0
 11
24.08386487373029
 21
3.670999999996297
 31
0.0
  0
LINE
  5
39F4
  8
0
  6
CONTINUOUS
 10
24.29746741546646
 20
3.884602541732471
 30
0.0
 11
25.37320866973843
 21
4.960343796004441
 31
0.0
  0
LINE
  5
39F5
  8
0
  6
CONTINUOUS
 10
21.08638346518189
 20
-0.0000006176322938
 30
0.0
 11
21.10379033335899
 21
0.0174062505448083
 31
0.0
  0
LINE
  5
39F6
  8
0
  6
CONTINUOUS
 10
23.4547840828118
 20
2.36839999999762
 30
0.0
 11
25.58139042155918
 21
4.495006338745002
 31
0.0
  0
LINE
  5
39F7
  8
0
  6
CONTINUOUS
 10
29.30199999996933
 20
8.215615917155148
 30
0.0
 11
29.84948408280543
 21
8.763099999991255
 31
0.0
  0
LINE
  5
39F8
  8
0
  6
CONTINUOUS
 10
24.12830329189199
 20
2.36839999999762
 30
0.0
 11
25.78957217337993
 21
4.029668881485562
 31
0.0
  0
LINE
  5
39F9
  8
0
  6
CONTINUOUS
 10
29.30199999996933
 20
7.54209670807496
 30
0.0
 11
30.52300329188562
 21
8.763099999991255
 31
0.0
  0
LINE
  5
39FA
  8
0
  6
CONTINUOUS
 10
24.80182250097217
 20
2.36839999999762
 30
0.0
 11
25.99775392520067
 21
3.564331424226122
 31
0.0
  0
LINE
  5
39FB
  8
0
  6
CONTINUOUS
 10
29.30199999996933
 20
6.868577498994774
 30
0.0
 11
30.74199999996926
 21
8.308577498994712
 31
0.0
  0
LINE
  5
39FC
  8
0
  6
CONTINUOUS
 10
25.13028238392013
 20
2.023340673865392
 30
0.0
 11
26.20593567702142
 21
3.098993966966683
 31
0.0
  0
LINE
  5
39FD
  8
0
  6
CONTINUOUS
 10
25.33838066033617
 20
1.557919741201244
 30
0.0
 11
26.41411742884217
 21
2.633656509707244
 31
0.0
  0
LINE
  5
39FE
  8
0
  6
CONTINUOUS
 10
25.54647893675221
 20
1.092498808537098
 30
0.0
 11
26.62229918066291
 21
2.168319052447804
 31
0.0
  0
LINE
  5
39FF
  8
0
  6
CONTINUOUS
 10
25.75457721316825
 20
0.62707787587295
 30
0.0
 11
26.83048093248366
 21
1.702981595188365
 31
0.0
  0
LINE
  5
3A00
  8
0
  6
CONTINUOUS
 10
29.30199999996933
 20
6.195058289914587
 30
0.0
 11
30.74199999996926
 21
7.635058289914522
 31
0.0
  0
LINE
  5
3A01
  8
0
  6
CONTINUOUS
 10
29.30199999996933
 20
5.521539080834401
 30
0.0
 11
30.74199999996926
 21
6.961539080834331
 31
0.0
  0
LINE
  5
3A02
  8
0
  6
CONTINUOUS
 10
29.30199999996933
 20
4.848019871754214
 30
0.0
 11
30.74199999996925
 21
6.288019871754143
 31
0.0
  0
LINE
  5
3A03
  8
0
  6
CONTINUOUS
 10
29.30199999996933
 20
4.174500662674028
 30
0.0
 11
30.74199999996925
 21
5.614500662673953
 31
0.0
  0
LINE
  5
3A04
  8
0
  6
CONTINUOUS
 10
25.96267548958429
 20
0.1616569432088024
 30
0.0
 11
27.18411854636669
 21
1.383099999991207
 31
0.0
  0
LINE
  5
3A05
  8
0
  6
CONTINUOUS
 10
29.30199999996933
 20
3.500981453593841
 30
0.0
 11
30.74199999996925
 21
4.940981453593762
 31
0.0
  0
LINE
  5
3A06
  8
0
  6
CONTINUOUS
 10
26.50763775544691
 20
0.0330999999912356
 30
0.0
 11
27.85763775544689
 21
1.383099999991223
 31
0.0
  0
LINE
  5
3A07
  8
0
  6
CONTINUOUS
 10
29.30199999996933
 20
2.827462244513656
 30
0.0
 11
30.74199999996925
 21
4.267462244513574
 31
0.0
  0
LINE
  5
3A08
  8
0
  6
CONTINUOUS
 10
27.18115696452709
 20
0.0330999999912356
 30
0.0
 11
28.54526759058215
 21
1.397210626046295
 31
0.0
  0
LINE
  5
3A09
  8
0
  6
CONTINUOUS
 10
29.2878893739142
 20
2.139832409378348
 30
0.0
 11
30.74199999996924
 21
3.593943035433383
 31
0.0
  0
LINE
  5
3A0A
  8
0
  6
CONTINUOUS
 10
27.85467617360728
 20
0.0330999999912356
 30
0.0
 11
30.74199999996924
 21
2.920423826353195
 31
0.0
  0
LINE
  5
3A0B
  8
0
  6
CONTINUOUS
 10
28.53704681883833
 20
0.0419514361420976
 30
0.0
 11
30.73314856381836
 21
2.23805318112213
 31
0.0
  0
LINE
  5
3A0C
  8
0
  6
CONTINUOUS
 10
29.45996618203888
 20
0.291351590262467
 30
0.0
 11
30.48374840969798
 21
1.315133817921562
 31
0.0
  0
LINE
  5
3A0D
  8
0
  6
CONTINUOUS
 10
19.59027867740337
 20
-0.0000967065718083
 30
0.0
 11
19.55485265190471
 21
0.035329318926844
 31
0.0
  0
LINE
  5
3A0E
  8
0
  6
CONTINUOUS
 10
20.26375463176586
 20
-0.0000534518541091
 30
0.0
 11
19.76305575737534
 21
0.5006454225364014
 31
0.0
  0
LINE
  5
3A0F
  8
0
  6
CONTINUOUS
 10
20.93723058612834
 20
-0.0000101971364099
 30
0.0
 11
19.97125886284597
 21
0.965961526145958
 31
0.0
  0
LINE
  5
3A10
  8
0
  6
CONTINUOUS
 10
21.25514828313686
 20
0.355591314935257
 30
0.0
 11
20.1794619683166
 21
1.431277629755512
 31
0.0
  0
LINE
  5
3A11
  8
0
  6
CONTINUOUS
 10
21.46338838394921
 20
0.8208704232030986
 30
0.0
 11
20.38766507378723
 21
1.896593733365069
 31
0.0
  0
LINE
  5
3A12
  8
0
  6
CONTINUOUS
 10
21.67162848476155
 20
1.28614953147094
 30
0.0
 11
20.59586817925786
 21
2.361909836974626
 31
0.0
  0
LINE
  5
3A13
  8
0
  6
CONTINUOUS
 10
21.8798685855739
 20
1.751428639738782
 30
0.0
 11
20.80407128472849
 21
2.827225940584183
 31
0.0
  0
LINE
  5
3A14
  8
0
  6
CONTINUOUS
 10
22.08810868638624
 20
2.216707748006623
 30
0.0
 11
21.01227439019912
 21
3.292542044193739
 31
0.0
  0
LINE
  5
3A15
  8
0
  6
CONTINUOUS
 10
22.60993564347543
 20
2.36839999999762
 30
0.0
 11
21.22047749566975
 21
3.757858147803296
 31
0.0
  0
LINE
  5
3A16
  8
0
  6
CONTINUOUS
 10
23.28345485255561
 20
2.36839999999762
 30
0.0
 11
21.42868060114038
 21
4.223174251412853
 31
0.0
  0
LINE
  5
3A17
  8
0
  6
CONTINUOUS
 10
26.29227406164219
 20
0.0330999999912356
 30
0.0
 11
25.80009199592872
 21
0.5252820657046957
 31
0.0
  0
LINE
  5
3A18
  8
0
  6
CONTINUOUS
 10
23.9569740616358
 20
2.36839999999762
 30
0.0
 11
21.63688370661101
 21
4.688490355022409
 31
0.0
  0
LINE
  5
3A19
  8
0
  6
CONTINUOUS
 10
26.96579327072237
 20
0.0330999999912356
 30
0.0
 11
25.2554132311971
 21
1.743480039516508
 31
0.0
  0
LINE
  5
3A1A
  8
0
  6
CONTINUOUS
 10
24.63049327071599
 20
2.36839999999762
 30
0.0
 11
23.32789327071731
 21
3.670999999996297
 31
0.0
  0
LINE
  5
3A1B
  8
0
  6
CONTINUOUS
 10
22.92098674744635
 20
4.077906523267254
 30
0.0
 11
21.84508681208164
 21
5.153806458631966
 31
0.0
  0
LINE
  5
3A1C
  8
0
  6
CONTINUOUS
 10
27.63931247980256
 20
0.0330999999912356
 30
0.0
 11
24.0014124797975
 21
3.670999999996297
 31
0.0
  0
LINE
  5
3A1D
  8
0
  6
CONTINUOUS
 10
23.129125600968
 20
4.5432868788258
 30
0.0
 11
22.05328991755227
 21
5.619122562241522
 31
0.0
  0
LINE
  5
3A1E
  8
0
  6
CONTINUOUS
 10
28.31283168888275
 20
0.0330999999912356
 30
0.0
 11
24.16488385994816
 21
4.181047828925828
 31
0.0
  0
LINE
  5
3A1F
  8
0
  6
CONTINUOUS
 10
23.33726445448964
 20
5.008667234384345
 30
0.0
 11
22.2614930230229
 21
6.084438665851079
 31
0.0
  0
LINE
  5
3A20
  8
0
  6
CONTINUOUS
 10
28.92337750139541
 20
0.0960733965587588
 30
0.0
 11
27.63635089796295
 21
1.383099999991217
 31
0.0
  0
LINE
  5
3A21
  8
0
  6
CONTINUOUS
 10
26.43704649509776
 20
2.582404402856405
 30
0.0
 11
23.61992702019732
 21
5.399523877756844
 31
0.0
  0
LINE
  5
3A22
  8
0
  6
CONTINUOUS
 10
23.54540330801128
 20
5.47404758994289
 30
0.0
 11
22.46969612849353
 21
6.549754769460635
 31
0.0
  0
LINE
  5
3A23
  8
0
  6
CONTINUOUS
 10
29.42088916767058
 20
0.2720809393637778
 30
0.0
 11
28.30987010704312
 21
1.383099999991234
 31
0.0
  0
LINE
  5
3A24
  8
0
  6
CONTINUOUS
 10
25.89179548232307
 20
3.801174624711282
 30
0.0
 11
22.67789923396416
 21
7.015070873070191
 31
0.0
  0
LINE
  5
3A25
  8
0
  6
CONTINUOUS
 10
29.83893364644151
 20
0.527555669673029
 30
0.0
 11
28.85619976405965
 21
1.510289552054886
 31
0.0
  0
LINE
  5
3A26
  8
0
  6
CONTINUOUS
 10
25.34654446954838
 20
5.01994484656616
 30
0.0
 11
22.88610233943479
 21
7.480386976679748
 31
0.0
  0
LINE
  5
3A27
  8
0
  6
CONTINUOUS
 10
30.18040261952632
 20
0.8596059056684049
 30
0.0
 11
29.18745395369615
 21
1.852554571498581
 31
0.0
  0
LINE
  5
3A28
  8
0
  6
CONTINUOUS
 10
24.80129345677369
 20
6.238715068421037
 30
0.0
 11
23.09430544490542
 21
7.945703080289305
 31
0.0
  0
LINE
  5
3A29
  8
0
  6
CONTINUOUS
 10
30.45555813616515
 20
1.257969598109762
 30
0.0
 11
29.30199999996933
 21
2.411527734305588
 31
0.0
  0
LINE
  5
3A2A
  8
0
  6
CONTINUOUS
 10
24.256042443999
 20
7.457485290275915
 30
0.0
 11
23.30250855037605
 21
8.411019183898862
 31
0.0
  0
LINE
  5
3A2B
  8
0
  6
CONTINUOUS
 10
30.65144941570831
 20
1.735597527646789
 30
0.0
 11
29.30199999996933
 21
3.085046943385775
 31
0.0
  0
LINE
  5
3A2C
  8
0
  6
CONTINUOUS
 10
23.71079143122431
 20
8.676255512130794
 30
0.0
 11
23.51071165584668
 21
8.876335287508416
 31
0.0
  0
LINE
  5
3A2D
  8
0
  6
CONTINUOUS
 10
30.73864552656466
 20
2.321920625870631
 30
0.0
 11
29.30199999996933
 21
3.758566152465961
 31
0.0
  0
LINE
  5
3A2E
  8
0
  6
CONTINUOUS
 10
30.74199999996924
 20
2.992085361546236
 30
0.0
 11
29.30199999996933
 21
4.432085361546148
 31
0.0
  0
LINE
  5
3A2F
  8
0
  6
CONTINUOUS
 10
30.74199999996924
 20
3.665604570626419
 30
0.0
 11
29.30199999996933
 21
5.105604570626333
 31
0.0
  0
LINE
  5
3A30
  8
0
  6
CONTINUOUS
 10
30.74199999996925
 20
4.339123779706602
 30
0.0
 11
29.30199999996933
 21
5.77912377970652
 31
0.0
  0
LINE
  5
3A31
  8
0
  6
CONTINUOUS
 10
30.74199999996925
 20
5.012642988786785
 30
0.0
 11
29.30199999996933
 21
6.452642988786707
 31
0.0
  0
LINE
  5
3A32
  8
0
  6
CONTINUOUS
 10
30.74199999996925
 20
5.68616219786697
 30
0.0
 11
29.30199999996933
 21
7.126162197866894
 31
0.0
  0
LINE
  5
3A33
  8
0
  6
CONTINUOUS
 10
30.74199999996925
 20
6.359681406947153
 30
0.0
 11
29.30199999996933
 21
7.799681406947081
 31
0.0
  0
LINE
  5
3A34
  8
0
  6
CONTINUOUS
 10
30.74199999996926
 20
7.033200616027337
 30
0.0
 11
29.30199999996933
 21
8.473200616027269
 31
0.0
  0
LINE
  5
3A35
  8
0
  6
CONTINUOUS
 10
30.74199999996926
 20
7.706719825107518
 30
0.0
 11
29.68561982508552
 21
8.763099999991255
 31
0.0
  0
LINE
  5
3A36
  8
0
  6
CONTINUOUS
 10
30.74199999996926
 20
8.380239034187703
 30
0.0
 11
30.35913903416571
 21
8.763099999991255
 31
0.0
  0
ENDBLK
  5
3AD9
  8
0
  0
BLOCK
  8
0
  2
*X35
 70
     1
 10
0.0
 20
0.0
 30
0.0
  3
*X35
  1

  0
LINE
  5
3A38
  8
0
  6
CONTINUOUS
 10
31.64199999996833
 20
8.5350582899136
 30
0.0
 11
31.87004171004599
 21
8.763099999991255
 31
0.0
  0
LINE
  5
3A39
  8
0
  6
CONTINUOUS
 10
31.64199999996833
 20
7.861539080833413
 30
0.0
 11
32.54356091912618
 21
8.763099999991255
 31
0.0
  0
LINE
  5
3A3A
  8
0
  6
CONTINUOUS
 10
31.64199999996833
 20
7.188019871753227
 30
0.0
 11
33.08199999996839
 21
8.628019871753281
 31
0.0
  0
LINE
  5
3A3B
  8
0
  6
CONTINUOUS
 10
31.64199999996833
 20
6.514500662673041
 30
0.0
 11
33.08199999996839
 21
7.954500662673095
 31
0.0
  0
LINE
  5
3A3C
  8
0
  6
CONTINUOUS
 10
31.64199999996833
 20
5.840981453592855
 30
0.0
 11
33.08199999996839
 21
7.28098145359291
 31
0.0
  0
LINE
  5
3A3D
  8
0
  6
CONTINUOUS
 10
31.64199999996833
 20
5.167462244512668
 30
0.0
 11
33.08199999996839
 21
6.607462244512723
 31
0.0
  0
LINE
  5
3A3E
  8
0
  6
CONTINUOUS
 10
31.64199999996833
 20
4.493943035432482
 30
0.0
 11
33.08199999996839
 21
5.933943035432536
 31
0.0
  0
LINE
  5
3A3F
  8
0
  6
CONTINUOUS
 10
31.64199999996833
 20
3.820423826352294
 30
0.0
 11
33.08199999996839
 21
5.260423826352349
 31
0.0
  0
LINE
  5
3A40
  8
0
  6
CONTINUOUS
 10
31.64199999996833
 20
3.146904617272108
 30
0.0
 11
33.08199999996839
 21
4.586904617272163
 31
0.0
  0
LINE
  5
3A41
  8
0
  6
CONTINUOUS
 10
36.23199999996837
 20
8.410423826352327
 30
0.0
 11
36.58467617360729
 21
8.763099999991255
 31
0.0
  0
LINE
  5
3A42
  8
0
  6
CONTINUOUS
 10
36.23199999996837
 20
7.73690461727214
 30
0.0
 11
37.25819538268748
 21
8.763099999991255
 31
0.0
  0
LINE
  5
3A43
  8
0
  6
CONTINUOUS
 10
31.64245318187395
 20
2.473838590097533
 30
0.0
 11
33.08199999996839
 21
3.913385408191976
 31
0.0
  0
LINE
  5
3A44
  8
0
  6
CONTINUOUS
 10
36.23199999996837
 20
7.063385408191953
 30
0.0
 11
37.67199999996831
 21
8.503385408191894
 31
0.0
  0
LINE
  5
3A45
  8
0
  6
CONTINUOUS
 10
31.71454007775861
 20
1.872406276902012
 30
0.0
 11
33.08199999996839
 21
3.239866199111789
 31
0.0
  0
LINE
  5
3A46
  8
0
  6
CONTINUOUS
 10
36.23199999996837
 20
6.389866199111767
 30
0.0
 11
37.67199999996831
 21
7.829866199111708
 31
0.0
  0
LINE
  5
3A47
  8
0
  6
CONTINUOUS
 10
31.89137743526572
 20
1.375724425328935
 30
0.0
 11
33.08199999996839
 21
2.566346990031603
 31
0.0
  0
LINE
  5
3A48
  8
0
  6
CONTINUOUS
 10
36.23199999996837
 20
5.71634699003158
 30
0.0
 11
37.67199999996831
 21
7.156346990031522
 31
0.0
  0
LINE
  5
3A49
  8
0
  6
CONTINUOUS
 10
32.14187615611716
 20
0.9527039371001833
 30
0.0
 11
33.19010715495784
 21
2.000934935940872
 31
0.0
  0
LINE
  5
3A4A
  8
0
  6
CONTINUOUS
 10
36.23199999996837
 20
5.042827780951393
 30
0.0
 11
37.67199999996831
 21
6.482827780951334
 31
0.0
  0
LINE
  5
3A4B
  8
0
  6
CONTINUOUS
 10
32.45360634899608
 20
0.5909149208989124
 30
0.0
 11
33.47398867460512
 21
1.611297246507967
 31
0.0
  0
LINE
  5
3A4C
  8
0
  6
CONTINUOUS
 10
36.23199999996837
 20
4.369308571871207
 30
0.0
 11
37.67199999996831
 21
5.809308571871148
 31
0.0
  0
LINE
  5
3A4D
  8
0
  6
CONTINUOUS
 10
32.83268796462238
 20
0.296477327445035
 30
0.0
 11
33.89485240336604
 21
1.358641766188692
 31
0.0
  0
LINE
  5
3A4E
  8
0
  6
CONTINUOUS
 10
36.23199999996837
 20
3.695789362791021
 30
0.0
 11
37.67199999996831
 21
5.135789362790963
 31
0.0
  0
LINE
  5
3A4F
  8
0
  6
CONTINUOUS
 10
33.26779879508795
 20
0.0580689488304138
 30
0.0
 11
34.43024232456766
 21
1.220512478310136
 31
0.0
  0
LINE
  5
3A50
  8
0
  6
CONTINUOUS
 10
36.23199999996837
 20
3.022270153710834
 30
0.0
 11
37.67199999996831
 21
4.462270153710776
 31
0.0
  0
LINE
  5
3A51
  8
0
  6
CONTINUOUS
 10
33.76860229595987
 20
-0.1146467593778464
 30
0.0
 11
35.1531201138478
 21
1.269871058510077
 31
0.0
  0
LINE
  5
3A52
  8
0
  6
CONTINUOUS
 10
36.21926099594037
 20
2.336011940602655
 30
0.0
 11
37.67199999996831
 21
3.788750944630589
 31
0.0
  0
LINE
  5
3A53
  8
0
  6
CONTINUOUS
 10
34.33665674311174
 20
-0.2201115213061664
 30
0.0
 11
37.67199999996831
 21
3.115231735550402
 31
0.0
  0
LINE
  5
3A54
  8
0
  6
CONTINUOUS
 10
35.01199180569318
 20
-0.2182956678049122
 30
0.0
 11
37.66953193979786
 21
2.439244466299766
 31
0.0
  0
LINE
  5
3A55
  8
0
  6
CONTINUOUS
 10
35.9093392486654
 20
0.0055325660871235
 30
0.0
 11
37.52393194428191
 21
1.620125261703632
 31
0.0
  0
LINE
  5
3A56
  8
0
  6
CONTINUOUS
 10
32.56334917037493
 20
0.4972169820603449
 30
0.0
 11
32.24097481447853
 21
0.8195913379567479
 31
0.0
  0
LINE
  5
3A57
  8
0
  6
CONTINUOUS
 10
33.87806167241977
 20
-0.1439763109042991
 30
0.0
 11
31.68194999643856
 21
2.052135365076909
 31
0.0
  0
LINE
  5
3A58
  8
0
  6
CONTINUOUS
 10
34.6438134951692
 20
-0.2362089245735399
 30
0.0
 11
31.64199999996833
 21
2.765604570627322
 31
0.0
  0
LINE
  5
3A59
  8
0
  6
CONTINUOUS
 10
35.26034813768996
 20
-0.1792243580141184
 30
0.0
 11
31.64199999996833
 21
3.439123779707508
 31
0.0
  0
LINE
  5
3A5A
  8
0
  6
CONTINUOUS
 10
35.79355560089346
 20
-0.0389126121374295
 30
0.0
 11
34.54600650718248
 21
1.208636481573547
 31
0.0
  0
LINE
  5
3A5B
  8
0
  6
CONTINUOUS
 10
33.08199999996839
 20
2.672642988787641
 30
0.0
 11
31.64199999996833
 21
4.112642988787695
 31
0.0
  0
LINE
  5
3A5C
  8
0
  6
CONTINUOUS
 10
36.26091969424284
 20
0.1672425035933776
 30
0.0
 11
35.15707210996673
 21
1.271090087869486
 31
0.0
  0
LINE
  5
3A5D
  8
0
  6
CONTINUOUS
 10
33.08199999996839
 20
3.346162197867827
 30
0.0
 11
31.64199999996833
 21
4.786162197867881
 31
0.0
  0
LINE
  5
3A5E
  8
0
  6
CONTINUOUS
 10
36.67116280062191
 20
0.430518606294497
 30
0.0
 11
35.63776098265718
 21
1.463920424259221
 31
0.0
  0
LINE
  5
3A5F
  8
0
  6
CONTINUOUS
 10
33.08199999996839
 20
4.019681406948013
 30
0.0
 11
31.64199999996833
 21
5.459681406948068
 31
0.0
  0
LINE
  5
3A60
  8
0
  6
CONTINUOUS
 10
37.01762752504177
 20
0.7575730909548111
 30
0.0
 11
35.99425444172113
 21
1.780946174275458
 31
0.0
  0
LINE
  5
3A61
  8
0
  6
CONTINUOUS
 10
33.08199999996839
 20
4.6932006160282
 30
0.0
 11
31.64199999996833
 21
6.133200616028255
 31
0.0
  0
LINE
  5
3A62
  8
0
  6
CONTINUOUS
 10
37.30070982608557
 20
1.148009998991207
 30
0.0
 11
36.20493601160601
 21
2.243783813470765
 31
0.0
  0
LINE
  5
3A63
  8
0
  6
CONTINUOUS
 10
33.08199999996839
 20
5.366719825108387
 30
0.0
 11
31.64199999996833
 21
6.806719825108441
 31
0.0
  0
LINE
  5
3A64
  8
0
  6
CONTINUOUS
 10
37.51890498518586
 20
1.603334048971095
 30
0.0
 11
36.23199999996837
 21
2.890239034188595
 31
0.0
  0
LINE
  5
3A65
  8
0
  6
CONTINUOUS
 10
33.08199999996839
 20
6.040239034188573
 30
0.0
 11
31.64199999996833
 21
7.480239034188628
 31
0.0
  0
LINE
  5
3A66
  8
0
  6
CONTINUOUS
 10
37.64877435688007
 20
2.146983886357076
 30
0.0
 11
36.23199999996837
 21
3.563758243268782
 31
0.0
  0
LINE
  5
3A67
  8
0
  6
CONTINUOUS
 10
33.08199999996839
 20
6.713758243268759
 30
0.0
 11
31.64199999996833
 21
8.153758243268815
 31
0.0
  0
LINE
  5
3A68
  8
0
  6
CONTINUOUS
 10
37.67199999996831
 20
2.797277452349027
 30
0.0
 11
36.23199999996837
 21
4.237277452348969
 31
0.0
  0
LINE
  5
3A69
  8
0
  6
CONTINUOUS
 10
37.67199999996831
 20
3.470796661429214
 30
0.0
 11
36.23199999996837
 21
4.910796661429155
 31
0.0
  0
LINE
  5
3A6A
  8
0
  6
CONTINUOUS
 10
37.67199999996831
 20
4.1443158705094
 30
0.0
 11
36.23199999996837
 21
5.584315870509341
 31
0.0
  0
LINE
  5
3A6B
  8
0
  6
CONTINUOUS
 10
33.08199999996839
 20
7.387277452348947
 30
0.0
 11
31.70617745232608
 21
8.763099999991255
 31
0.0
  0
LINE
  5
3A6C
  8
0
  6
CONTINUOUS
 10
33.08199999996839
 20
8.060796661429134
 30
0.0
 11
32.37969666140626
 21
8.763099999991255
 31
0.0
  0
LINE
  5
3A6D
  8
0
  6
CONTINUOUS
 10
33.08199999996839
 20
8.73431587050932
 30
0.0
 11
33.05321587048645
 21
8.763099999991255
 31
0.0
  0
LINE
  5
3A6E
  8
0
  6
CONTINUOUS
 10
37.67199999996831
 20
4.817835079589587
 30
0.0
 11
36.23199999996837
 21
6.257835079589528
 31
0.0
  0
LINE
  5
3A6F
  8
0
  6
CONTINUOUS
 10
37.67199999996831
 20
5.491354288669773
 30
0.0
 11
36.23199999996837
 21
6.931354288669715
 31
0.0
  0
LINE
  5
3A70
  8
0
  6
CONTINUOUS
 10
37.67199999996831
 20
6.164873497749959
 30
0.0
 11
36.23199999996837
 21
7.6048734977499
 31
0.0
  0
LINE
  5
3A71
  8
0
  6
CONTINUOUS
 10
37.67199999996831
 20
6.838392706830145
 30
0.0
 11
36.23199999996837
 21
8.278392706830086
 31
0.0
  0
LINE
  5
3A72
  8
0
  6
CONTINUOUS
 10
37.67199999996831
 20
7.511911915910333
 30
0.0
 11
36.42081191588738
 21
8.763099999991255
 31
0.0
  0
LINE
  5
3A73
  8
0
  6
CONTINUOUS
 10
37.67199999996831
 20
8.18543112499052
 30
0.0
 11
37.09433112496757
 21
8.763099999991255
 31
0.0
  0
ENDBLK
  5
3ADB
  8
0
  0
BLOCK
  8
0
  2
*X36
 70
     1
 10
0.0
 20
0.0
 30
0.0
  3
*X36
  1

  0
LINE
  5
3A75
  8
0
  6
CONTINUOUS
 10
38.60499999996136
 20
8.762866199104765
 30
0.0
 11
38.71672554182345
 21
8.874591740966855
 31
0.0
  0
LINE
  5
3A76
  8
0
  6
CONTINUOUS
 10
38.60499999996136
 20
8.089346990024577
 30
0.0
 11
39.03418785440363
 21
8.518534844466847
 31
0.0
  0
LINE
  5
3A77
  8
0
  6
CONTINUOUS
 10
38.60499999996136
 20
7.41582778094439
 30
0.0
 11
39.35165016698382
 21
8.16247794796684
 31
0.0
  0
LINE
  5
3A78
  8
0
  6
CONTINUOUS
 10
38.60499999996136
 20
6.742308571864204
 30
0.0
 11
39.66911247956399
 21
7.806421051466834
 31
0.0
  0
LINE
  5
3A79
  8
0
  6
CONTINUOUS
 10
38.60499999996136
 20
6.068789362784018
 30
0.0
 11
39.98657479214418
 21
7.450364154966827
 31
0.0
  0
LINE
  5
3A7A
  8
0
  6
CONTINUOUS
 10
38.60499999996136
 20
5.395270153703832
 30
0.0
 11
40.30403710472435
 21
7.09430725846682
 31
0.0
  0
LINE
  5
3A7B
  8
0
  6
CONTINUOUS
 10
38.60499999996136
 20
4.721750944623645
 30
0.0
 11
40.62149941730453
 21
6.738250361966813
 31
0.0
  0
LINE
  5
3A7C
  8
0
  6
CONTINUOUS
 10
38.60499999996136
 20
4.048231735543458
 30
0.0
 11
40.93896172988471
 21
6.382193465466806
 31
0.0
  0
LINE
  5
3A7D
  8
0
  6
CONTINUOUS
 10
38.60499999996136
 20
3.374712526463272
 30
0.0
 11
40.02599999995994
 21
4.795712526461843
 31
0.0
  0
LINE
  5
3A7E
  8
0
  6
CONTINUOUS
 10
38.60499999996136
 20
2.701193317383085
 30
0.0
 11
40.02599999995994
 21
4.122193317381657
 31
0.0
  0
LINE
  5
3A7F
  8
0
  6
CONTINUOUS
 10
40.28339754687704
 20
5.053110073378947
 30
0.0
 11
41.25642404246489
 21
6.026136568966799
 31
0.0
  0
LINE
  5
3A80
  8
0
  6
CONTINUOUS
 10
40.60085985945722
 20
4.697053176878939
 30
0.0
 11
41.57388635504507
 21
5.670079672466793
 31
0.0
  0
LINE
  5
3A81
  8
0
  6
CONTINUOUS
 10
43.57899999995641
 20
8.348712526458318
 30
0.0
 11
43.99338747348935
 21
8.763099999991255
 31
0.0
  0
LINE
  5
3A82
  8
0
  6
CONTINUOUS
 10
43.57899999995641
 20
7.675193317378131
 30
0.0
 11
44.66690668256953
 21
8.763099999991255
 31
0.0
  0
LINE
  5
3A83
  8
0
  6
CONTINUOUS
 10
38.60499999996136
 20
2.027674108302898
 30
0.0
 11
40.02599999995994
 21
3.44867410830147
 31
0.0
  0
LINE
  5
3A84
  8
0
  6
CONTINUOUS
 10
38.60499999996136
 20
1.354154899222712
 30
0.0
 11
40.02599999995994
 21
2.775154899221284
 31
0.0
  0
LINE
  5
3A85
  8
0
  6
CONTINUOUS
 10
38.60499999996136
 20
0.6806356901425255
 30
0.0
 11
40.02599999995994
 21
2.101635690141098
 31
0.0
  0
LINE
  5
3A86
  8
0
  6
CONTINUOUS
 10
38.60499999996136
 20
0.0071164810623383
 30
0.0
 11
40.02599999995994
 21
1.428116481060911
 31
0.0
  0
LINE
  5
3A87
  8
0
  6
CONTINUOUS
 10
40.9183221720374
 20
4.340996280378933
 30
0.0
 11
41.89134866762525
 21
5.314022775966786
 31
0.0
  0
LINE
  5
3A88
  8
0
  6
CONTINUOUS
 10
41.23578448461758
 20
3.984939383878926
 30
0.0
 11
42.20881098020543
 21
4.957965879466778
 31
0.0
  0
LINE
  5
3A89
  8
0
  6
CONTINUOUS
 10
41.55324679719776
 20
3.628882487378919
 30
0.0
 11
42.52627329278561
 21
4.601908982966772
 31
0.0
  0
LINE
  5
3A8A
  8
0
  6
CONTINUOUS
 10
41.87070910977793
 20
3.272825590878912
 30
0.0
 11
42.84373560536579
 21
4.245852086466765
 31
0.0
  0
LINE
  5
3A8B
  8
0
  6
CONTINUOUS
 10
43.57899999995641
 20
7.001674108297943
 30
0.0
 11
44.99999999995498
 21
8.422674108296516
 31
0.0
  0
LINE
  5
3A8C
  8
0
  6
CONTINUOUS
 10
43.57899999995641
 20
6.328154899217758
 30
0.0
 11
44.99999999995498
 21
7.749154899216329
 31
0.0
  0
LINE
  5
3A8D
  8
0
  6
CONTINUOUS
 10
43.57899999995641
 20
5.654635690137571
 30
0.0
 11
44.99999999995498
 21
7.075635690136142
 31
0.0
  0
LINE
  5
3A8E
  8
0
  6
CONTINUOUS
 10
43.57899999995641
 20
4.981116481057384
 30
0.0
 11
44.99999999995498
 21
6.402116481055955
 31
0.0
  0
LINE
  5
3A8F
  8
0
  6
CONTINUOUS
 10
39.27140272797921
 20
-0.0000000000000009
 30
0.0
 11
40.02599999995994
 21
0.7545972719807246
 31
0.0
  0
LINE
  5
3A90
  8
0
  6
CONTINUOUS
 10
39.9449219370594
 20
-0.0000000000000009
 30
0.0
 11
40.02599999995994
 21
0.0810780629005379
 31
0.0
  0
LINE
  5
3A91
  8
0
  6
CONTINUOUS
 10
42.18817142235812
 20
2.916768694378905
 30
0.0
 11
43.16119791794597
 21
3.889795189966758
 31
0.0
  0
LINE
  5
3A92
  8
0
  6
CONTINUOUS
 10
42.50563373493829
 20
2.560711797878898
 30
0.0
 11
43.47866023052615
 21
3.533738293466751
 31
0.0
  0
LINE
  5
3A93
  8
0
  6
CONTINUOUS
 10
43.57899999995641
 20
4.307597271977198
 30
0.0
 11
44.99999999995498
 21
5.728597271975769
 31
0.0
  0
LINE
  5
3A94
  8
0
  6
CONTINUOUS
 10
43.57899999995641
 20
3.634078062897011
 30
0.0
 11
44.99999999995498
 21
5.055078062895582
 31
0.0
  0
LINE
  5
3A95
  8
0
  6
CONTINUOUS
 10
42.82309604751848
 20
2.204654901378891
 30
0.0
 11
44.99999999995498
 21
4.381558853815395
 31
0.0
  0
LINE
  5
3A96
  8
0
  6
CONTINUOUS
 10
43.14055836009865
 20
1.848598004878885
 30
0.0
 11
44.99999999995498
 21
3.70803964473521
 31
0.0
  0
LINE
  5
3A97
  8
0
  6
CONTINUOUS
 10
43.45802067267883
 20
1.492541108378878
 30
0.0
 11
44.99999999995498
 21
3.034520435655023
 31
0.0
  0
LINE
  5
3A98
  8
0
  6
CONTINUOUS
 10
43.77548298525902
 20
1.136484211878871
 30
0.0
 11
44.99999999995498
 21
2.361001226574837
 31
0.0
  0
LINE
  5
3A99
  8
0
  6
CONTINUOUS
 10
44.09294529783919
 20
0.7804273153788639
 30
0.0
 11
44.99999999995498
 21
1.687482017494649
 31
0.0
  0
LINE
  5
3A9A
  8
0
  6
CONTINUOUS
 10
44.41040761041938
 20
0.4243704188788566
 30
0.0
 11
44.99999999995498
 21
1.013962808414463
 31
0.0
  0
LINE
  5
3A9B
  8
0
  6
CONTINUOUS
 10
44.72786992299955
 20
0.0683135223788494
 30
0.0
 11
44.99999999995498
 21
0.340443599334276
 31
0.0
  0
LINE
  5
3A9C
  8
0
  6
CONTINUOUS
 10
39.12223903415696
 20
-0.0000000000000009
 30
0.0
 11
38.60499999996136
 21
0.5172390341955961
 31
0.0
  0
LINE
  5
3A9D
  8
0
  6
CONTINUOUS
 10
39.79575824323715
 20
-0.0000000000000009
 30
0.0
 11
38.60499999996136
 21
1.190758243275783
 31
0.0
  0
LINE
  5
3A9E
  8
0
  6
CONTINUOUS
 10
40.02599999995994
 20
0.443277452357397
 30
0.0
 11
38.60499999996136
 21
1.864277452355969
 31
0.0
  0
LINE
  5
3A9F
  8
0
  6
CONTINUOUS
 10
40.02599999995994
 20
1.116796661437583
 30
0.0
 11
38.60499999996136
 21
2.537796661436155
 31
0.0
  0
LINE
  5
3AA0
  8
0
  6
CONTINUOUS
 10
40.02599999995994
 20
1.79031587051777
 30
0.0
 11
38.60499999996136
 21
3.211315870516341
 31
0.0
  0
LINE
  5
3AA1
  8
0
  6
CONTINUOUS
 10
40.02599999995994
 20
2.463835079597956
 30
0.0
 11
38.60499999996136
 21
3.884835079596527
 31
0.0
  0
LINE
  5
3AA2
  8
0
  6
CONTINUOUS
 10
40.02599999995994
 20
3.137354288678143
 30
0.0
 11
38.60499999996136
 21
4.558354288676714
 31
0.0
  0
LINE
  5
3AA3
  8
0
  6
CONTINUOUS
 10
40.02599999995994
 20
3.810873497758329
 30
0.0
 11
38.60499999996136
 21
5.2318734977569
 31
0.0
  0
LINE
  5
3AA4
  8
0
  6
CONTINUOUS
 10
40.02599999995994
 20
4.484392706838515
 30
0.0
 11
38.60499999996136
 21
5.905392706837086
 31
0.0
  0
LINE
  5
3AA5
  8
0
  6
CONTINUOUS
 10
44.99999999995498
 20
0.183911915923658
 30
0.0
 11
41.53858364506288
 21
3.64532827081576
 31
0.0
  0
LINE
  5
3AA6
  8
0
  6
CONTINUOUS
 10
40.02599999995994
 20
5.157911915918703
 30
0.0
 11
38.60499999996136
 21
6.578911915917274
 31
0.0
  0
LINE
  5
3AA7
  8
0
  6
CONTINUOUS
 10
44.99999999995498
 20
0.8574311250038447
 30
0.0
 11
38.60499999996136
 21
7.25243112499746
 31
0.0
  0
LINE
  5
3AA8
  8
0
  6
CONTINUOUS
 10
44.99999999995498
 20
1.530950334084031
 30
0.0
 11
38.60499999996136
 21
7.925950334077647
 31
0.0
  0
LINE
  5
3AA9
  8
0
  6
CONTINUOUS
 10
44.99999999995498
 20
2.204469543164218
 30
0.0
 11
43.57899999995641
 21
3.625469543162789
 31
0.0
  0
LINE
  5
3AAA
  8
0
  6
CONTINUOUS
 10
41.89876730984767
 20
5.305702233271528
 30
0.0
 11
38.60499999996136
 21
8.599469543157834
 31
0.0
  0
LINE
  5
3AAB
  8
0
  6
CONTINUOUS
 10
44.99999999995498
 20
2.877988752244405
 30
0.0
 11
43.57899999995641
 21
4.298988752242975
 31
0.0
  0
LINE
  5
3AAC
  8
0
  6
CONTINUOUS
 10
44.99999999995498
 20
3.551507961324591
 30
0.0
 11
43.57899999995641
 21
4.972507961323163
 31
0.0
  0
LINE
  5
3AAD
  8
0
  6
CONTINUOUS
 10
44.99999999995498
 20
4.225027170404777
 30
0.0
 11
43.57899999995641
 21
5.646027170403348
 31
0.0
  0
LINE
  5
3AAE
  8
0
  6
CONTINUOUS
 10
44.99999999995498
 20
4.898546379484964
 30
0.0
 11
43.57899999995641
 21
6.319546379483535
 31
0.0
  0
LINE
  5
3AAF
  8
0
  6
CONTINUOUS
 10
44.99999999995498
 20
5.572065588565151
 30
0.0
 11
43.57899999995641
 21
6.993065588563722
 31
0.0
  0
LINE
  5
3AB0
  8
0
  6
CONTINUOUS
 10
44.99999999995498
 20
6.245584797645336
 30
0.0
 11
43.57899999995641
 21
7.666584797643908
 31
0.0
  0
LINE
  5
3AB1
  8
0
  6
CONTINUOUS
 10
44.99999999995498
 20
6.919104006725522
 30
0.0
 11
43.57899999995641
 21
8.340104006724093
 31
0.0
  0
LINE
  5
3AB2
  8
0
  6
CONTINUOUS
 10
44.99999999995498
 20
7.592623215805709
 30
0.0
 11
43.82952321576943
 21
8.763099999991255
 31
0.0
  0
LINE
  5
3AB3
  8
0
  6
CONTINUOUS
 10
44.99999999995498
 20
8.266142424885896
 30
0.0
 11
44.50304242484962
 21
8.763099999991255
 31
0.0
  0
ENDBLK
  5
3ADD
  8
0
  0
BLOCK
  8
0
  2
*X37
 70
     1
 10
0.0
 20
0.0
 30
0.0
  3
*X37
  1

  0
LINE
  5
3AB5
  8
0
  6
CONTINUOUS
 10
0.0
 20
8.548461116714023
 30
0.0
 11
0.2146388832772324
 21
8.763099999991255
 31
0.0
  0
LINE
  5
3AB6
  8
0
  6
CONTINUOUS
 10
-0.0000000000000002
 20
7.874941907633837
 30
0.0
 11
0.8881580923574184
 21
8.763099999991255
 31
0.0
  0
LINE
  5
3AB7
  8
0
  6
CONTINUOUS
 10
0.0
 20
7.20142269855365
 30
0.0
 11
1.420999999998572
 21
8.622422698552223
 31
0.0
  0
LINE
  5
3AB8
  8
0
  6
CONTINUOUS
 10
-0.0000000000000001
 20
6.527903489473465
 30
0.0
 11
1.420999999998571
 21
7.948903489472036
 31
0.0
  0
LINE
  5
3AB9
  8
0
  6
CONTINUOUS
 10
-0.0000000000000002
 20
5.854384280393278
 30
0.0
 11
1.420999999998571
 21
7.275384280391849
 31
0.0
  0
LINE
  5
3ABA
  8
0
  6
CONTINUOUS
 10
-0.0000000000000002
 20
5.180865071313091
 30
0.0
 11
1.420999999998571
 21
6.601865071311663
 31
0.0
  0
LINE
  5
3ABB
  8
0
  6
CONTINUOUS
 10
0.0
 20
4.507345862232905
 30
0.0
 11
1.420999999998571
 21
5.928345862231477
 31
0.0
  0
LINE
  5
3ABC
  8
0
  6
CONTINUOUS
 10
-0.0000000000000003
 20
3.833826653152718
 30
0.0
 11
1.420999999998571
 21
5.25482665315129
 31
0.0
  0
LINE
  5
3ABD
  8
0
  6
CONTINUOUS
 10
-0.0000000000000002
 20
3.160307444072532
 30
0.0
 11
1.420999999998571
 21
4.581307444071103
 31
0.0
  0
LINE
  5
3ABE
  8
0
  6
CONTINUOUS
 10
-0.0000000000000001
 20
2.486788234992345
 30
0.0
 11
1.420999999998571
 21
3.907788234990917
 31
0.0
  0
LINE
  5
3ABF
  8
0
  6
CONTINUOUS
 10
-0.0000000000000006
 20
1.813269025912159
 30
0.0
 11
1.420999999998571
 21
3.234269025910731
 31
0.0
  0
LINE
  5
3AC0
  8
0
  6
CONTINUOUS
 10
0.0
 20
1.139749816831973
 30
0.0
 11
1.420999999998571
 21
2.560749816830544
 31
0.0
  0
LINE
  5
3AC1
  8
0
  6
CONTINUOUS
 10
0.0000000000000002
 20
0.466230607751787
 30
0.0
 11
1.420999999998571
 21
1.887230607750358
 31
0.0
  0
LINE
  5
3AC2
  8
0
  6
CONTINUOUS
 10
0.2072886013284003
 20
-0.0000000000000009
 30
0.0
 11
1.420999999998571
 21
1.213711398670171
 31
0.0
  0
LINE
  5
3AC3
  8
0
  6
CONTINUOUS
 10
0.8808078104085864
 20
-0.0000000000000009
 30
0.0
 11
1.420999999998571
 21
0.5401921895899839
 31
0.0
  0
LINE
  5
3AC4
  8
0
  6
CONTINUOUS
 10
0.0581249075061505
 20
-0.0000000000000009
 30
0.0
 11
-0.0000000000000002
 21
0.0581249075061496
 31
0.0
  0
LINE
  5
3AC5
  8
0
  6
CONTINUOUS
 10
0.7316441165863372
 20
-0.0000000000000009
 30
0.0
 11
-0.0000000000000002
 21
0.7316441165863363
 31
0.0
  0
LINE
  5
3AC6
  8
0
  6
CONTINUOUS
 10
1.405163325666523
 20
-0.0000000000000009
 30
0.0
 11
-0.0000000000000002
 21
1.405163325666523
 31
0.0
  0
LINE
  5
3AC7
  8
0
  6
CONTINUOUS
 10
1.420999999998572
 20
0.6576825347481381
 30
0.0
 11
-0.0000000000000001
 21
2.07868253474671
 31
0.0
  0
LINE
  5
3AC8
  8
0
  6
CONTINUOUS
 10
1.420999999998571
 20
1.331201743828324
 30
0.0
 11
-0.0000000000000001
 21
2.752201743826896
 31
0.0
  0
LINE
  5
3AC9
  8
0
  6
CONTINUOUS
 10
1.420999999998571
 20
2.004720952908511
 30
0.0
 11
-0.0000000000000002
 21
3.425720952907082
 31
0.0
  0
LINE
  5
3ACA
  8
0
  6
CONTINUOUS
 10
1.420999999998571
 20
2.678240161988697
 30
0.0
 11
-0.0000000000000001
 21
4.099240161987269
 31
0.0
  0
LINE
  5
3ACB
  8
0
  6
CONTINUOUS
 10
1.420999999998572
 20
3.351759371068884
 30
0.0
 11
0.0
 21
4.772759371067455
 31
0.0
  0
LINE
  5
3ACC
  8
0
  6
CONTINUOUS
 10
1.420999999998571
 20
4.02527858014907
 30
0.0
 11
-0.0000000000000003
 21
5.446278580147642
 31
0.0
  0
LINE
  5
3ACD
  8
0
  6
CONTINUOUS
 10
1.420999999998571
 20
4.698797789229257
 30
0.0
 11
0.0
 21
6.119797789227828
 31
0.0
  0
LINE
  5
3ACE
  8
0
  6
CONTINUOUS
 10
1.420999999998571
 20
5.372316998309444
 30
0.0
 11
-0.0000000000000001
 21
6.793316998308015
 31
0.0
  0
LINE
  5
3ACF
  8
0
  6
CONTINUOUS
 10
1.420999999998572
 20
6.045836207389629
 30
0.0
 11
-0.0000000000000004
 21
7.466836207388202
 31
0.0
  0
LINE
  5
3AD0
  8
0
  6
CONTINUOUS
 10
1.420999999998571
 20
6.719355416469816
 30
0.0
 11
0.0
 21
8.140355416468388
 31
0.0
  0
LINE
  5
3AD1
  8
0
  6
CONTINUOUS
 10
1.420999999998571
 20
7.392874625550003
 30
0.0
 11
0.0507746255573185
 21
8.763099999991255
 31
0.0
  0
LINE
  5
3AD2
  8
0
  6
CONTINUOUS
 10
1.420999999998571
 20
8.06639383463019
 30
0.0
 11
0.7242938346375052
 21
8.763099999991255
 31
0.0
  0
LINE
  5
3AD3
  8
0
  6
CONTINUOUS
 10
1.420999999998571
 20
8.739913043710375
 30
0.0
 11
1.397813043717691
 21
8.763099999991255
 31
0.0
  0
ENDBLK
  5
3ADF
  8
0
  0
ENDSEC
  0
SECTION
  2
ENTITIES
  0
LINE
  5
1853
  8
01
 10
-16.59360382554995
 20
-222.3647981183439
 30
0.0
 11
21.03742763201626
 21
-222.3647981183439
 31
0.0
  0
LINE
  5
1854
  8
01
 10
-16.59360382554995
 20
-224.3647981183439
 30
0.0
 11
21.03742763201626
 21
-224.3647981183439
 31
0.0
  0
LINE
  5
1855
  8
1CENTER
 10
-17.85328382554997
 20
-223.3647981183439
 30
0.0
 11
73.67586617445
 21
-223.3647981183439
 31
0.0
  0
LINE
  5
185D
  8
01
 10
-16.59360382554995
 20
-222.3647981183439
 30
0.0
 11
-16.59360382554995
 21
-224.3647981183439
 31
0.0
  0
LINE
  5
1865
  8
01
 10
34.78515471688377
 20
-224.3647981183439
 30
0.0
 11
72.40639617445004
 21
-224.3647981183439
 31
0.0
  0
LINE
  5
1866
  8
01
 10
34.78515471688377
 20
-222.3647981183439
 30
0.0
 11
72.40639617445004
 21
-222.3647981183439
 31
0.0
  0
LINE
  5
186A
  8
01
 10
72.40639617445004
 20
-222.3647981183439
 30
0.0
 11
72.40639617445004
 21
-224.3647981183439
 31
0.0
  0
TEXT
  5
18A5
  8
1TEXT
 10
-23.11390022508124
 20
-70.70922440371601
 30
0.0
 40
7.0
  1
AC-741-X
 41
1.0098214
  0
ARC
  5
18AB
  8
1HIDDEN
 10
27.91129117445001
 20
-223.3647981183439
 30
0.0
 40
3.5
 50
156.4218215217996
 51
336.4218215217997
  0
ARC
  5
18AC
  8
1HIDDEN
 10
27.91129117445001
 20
-223.3647981183439
 30
0.0
 40
3.5
 50
336.4218215217997
 51
156.4218215217996
  0
ARC
  5
18AD
  8
01
 10
34.78515471688377
 20
-226.3647981183439
 30
0.0
 40
2.0
 50
90.0
 51
156.4218215217996
  0
ARC
  5
18AE
  8
01
 10
34.78515471688377
 20
-226.3647981183439
 30
0.0
 40
4.0
 50
90.0
 51
110.8488255225711
  0
ARC
  5
18AF
  8
1HIDDEN
 10
34.78515471688377
 20
-226.3647981183439
 30
0.0
 40
4.0
 50
110.8488255226039
 51
156.4218215217996
  0
ARC
  5
18B0
  8
01
 10
21.03742763201626
 20
-220.3647981183439
 30
0.0
 40
2.0
 50
270.0
 51
336.4218215217962
  0
ARC
  5
18B1
  8
01
 10
21.03742763201626
 20
-220.3647981183439
 30
0.0
 40
4.0
 50
270.0
 51
290.8488255226039
  0
ARC
  5
18B2
  8
1HIDDEN
 10
21.03742763201626
 20
-220.3647981183439
 30
0.0
 40
4.0
 50
290.8488255226039
 51
336.4218215217962
  0
LINE
  5
18B3
  8
1CENTER
 10
27.91129117445001
 20
-231.6495265524775
 30
0.0
 11
27.91129117445001
 21
-215.0800696842102
 31
0.0
  0
CIRCLE
  5
18BB
  8
01
 10
27.91129117445001
 20
-223.3647981183439
 30
0.0
 40
5.499999999999994
  0
LINE
  5
1BB2
  8
1HATCH
 10
109.7637895097208
 20
-228.1697365964704
 30
0.0
 11
109.7637895097208
 21
-243.9197365964704
 31
0.0
  0
LINE
  5
1BB3
  8
1HATCH
 10
136.0137895097208
 20
-228.1697365964704
 30
0.0
 11
136.0137895097208
 21
-243.9197365964704
 31
0.0
  0
LINE
  5
1BB4
  8
1HATCH
 10
162.2637895097208
 20
-228.1697365964704
 30
0.0
 11
162.2637895097208
 21
-243.9197365964704
 31
0.0
  0
LINE
  5
1BB6
  8
1HATCH
 10
109.7637895097208
 20
-254.4197365964704
 30
0.0
 11
162.2637895097208
 21
-254.4197365964704
 31
0.0
  0
LINE
  5
1BB8
  8
1HATCH
 10
109.7637895097208
 20
-249.1697365964704
 30
0.0
 11
162.2637895097208
 21
-249.1697365964704
 31
0.0
  0
TEXT
  5
1BBD
  8
1TEXT
 10
143.9137895097209
 20
-232.2947365964704
 30
0.0
 40
3.0
  1
コード
 72
     1
 11
149.0637895097209
 21
-232.2947365964704
 31
0.0
  0
LINE
  5
1BBE
  8
1HATCH
 10
109.7637895097208
 20
-243.9197365964704
 30
0.0
 11
162.2637895097208
 21
-243.9197365964704
 31
0.0
  0
LINE
  5
1BBF
  8
1HATCH
 10
109.7637895097208
 20
-243.9197365964704
 30
0.0
 11
162.2637895097208
 21
-243.9197365964704
 31
0.0
  0
LINE
  5
1BC0
  8
1HATCH
 10
109.7637895097208
 20
-233.4197365964704
 30
0.0
 11
162.2637895097208
 21
-233.4197365964704
 31
0.0
  0
LINE
  5
1BC1
  8
1HATCH
 10
109.7637895097208
 20
-238.6697365964704
 30
0.0
 11
162.2637895097208
 21
-238.6697365964704
 31
0.0
  0
LINE
  5
1BDB
  8
1HATCH
 10
109.7637895097208
 20
-228.1697365964704
 30
0.0
 11
162.2637895097208
 21
-228.1697365964704
 31
0.0
  0
LINE
  5
1E14
  8
01
 10
11.29112467265293
 20
-256.4071636780233
 30
0.0
 11
9.291112457113968
 21
-254.4071375015809
 31
0.0
  0
LINE
  5
1E15
  8
01
 10
11.29114096021715
 20
-249.4071636780237
 30
0.0
 11
9.291143868879885
 21
-251.4071375015809
 31
0.0
  0
LINE
  5
1E16
  8
1CENTER
 10
-15.17300452224822
 20
-252.9071840374787
 30
0.0
 11
13.57749243478679
 21
-252.9071840374787
 31
0.0
  0
LINE
  5
1E17
  8
01
 10
-3.366971574898116
 20
-254.8041376145324
 30
0.0
 11
-4.126362762649933
 21
-251.0071375015807
 31
0.0
  0
LINE
  5
1E18
  8
01
 10
-8.309035100549409
 20
-254.257137501581
 30
0.0
 11
6.291114027537787
 21
-254.2571375015809
 31
0.0
  0
LINE
  5
1E19
  8
01
 10
6.291112456949463
 20
-254.407137501581
 30
0.0
 11
9.291112457113968
 21
-254.407137501581
 31
0.0
  0
LINE
  5
1E1A
  8
01
 10
-8.309028120164726
 20
-251.5571375015808
 30
0.0
 11
6.29114229812717
 21
-251.5571375015808
 31
0.0
  0
LINE
  5
1E1B
  8
01
 10
6.291143868715494
 20
-251.4071375015808
 30
0.0
 11
9.291143868879999
 21
-251.4071375015808
 31
0.0
  0
LINE
  5
1E1C
  8
01
 10
-11.34636972993349
 20
-254.0015078514738
 30
0.0
 11
-12.14636516398446
 21
-252.0391727625985
 31
0.0
  0
LINE
  5
1E1D
  8
01
 10
-12.14636516398446
 20
-252.0391727625985
 30
0.0
 11
-12.44992790441006
 21
-252.6119633825602
 31
0.0
  0
LINE
  5
1E1E
  8
01
 10
-8.167571559287808
 20
-254.8071375015809
 30
0.0
 11
-8.94636305677318
 21
-251.1335445537849
 31
0.0
  0
LINE
  5
1E1F
  8
01
 10
-9.746370783537714
 20
-254.4543213595222
 30
0.0
 11
-10.54636411037882
 21
-251.5863586581917
 31
0.0
  0
LINE
  5
1E20
  8
01
 10
-4.966971574898139
 20
-254.8041376145324
 30
0.0
 11
-5.726362762650069
 21
-251.0071375015807
 31
0.0
  0
LINE
  5
1E21
  8
01
 10
-6.566971574898162
 20
-254.8041376145322
 30
0.0
 11
-7.326362762649978
 21
-251.0071375015807
 31
0.0
  0
LINE
  5
1E22
  8
01
 10
-9.618512918581018
 20
-253.9235921950715
 30
0.0
 11
-9.746370783537714
 21
-254.4543213595222
 31
0.0
  0
LINE
  5
1E23
  8
01
 10
-8.0575702795511
 20
-254.2571375015809
 30
0.0
 11
-8.167571559287808
 21
-254.8071375015809
 31
0.0
  0
LINE
  5
1E24
  8
01
 10
-11.18812684554678
 20
-253.5237859889927
 30
0.0
 11
-11.34636972993349
 21
-254.0015078514738
 31
0.0
  0
LINE
  5
1E25
  8
01
 10
-6.457570279551192
 20
-254.2571375015809
 30
0.0
 11
-6.566971574898162
 21
-254.8041376145322
 31
0.0
  0
LINE
  5
1E26
  8
01
 10
-4.857570279551055
 20
-254.2571375015809
 30
0.0
 11
-4.966971574898139
 21
-254.8041376145324
 31
0.0
  0
LINE
  5
1E27
  8
01
 10
-10.54636411037882
 20
-251.5863586581917
 30
0.0
 11
-10.74197471217019
 21
-252.1768904939262
 31
0.0
  0
LINE
  5
1E28
  8
01
 10
-8.94636305677318
 20
-251.1335445537849
 30
0.0
 11
-9.096751613016181
 21
-251.7577970612439
 31
0.0
  0
LINE
  5
1E29
  8
01
 10
-5.726362762650069
 20
-251.0071375015807
 30
0.0
 11
-5.836364042386663
 21
-251.5571375015808
 31
0.0
  0
LINE
  5
1E2A
  8
01
 10
-7.326362762649978
 20
-251.0071375015807
 30
0.0
 11
-7.436364042386913
 21
-251.5571375015808
 31
0.0
  0
LINE
  5
1E2B
  8
01
 10
-4.126362762649933
 20
-251.0071375015807
 30
0.0
 11
-4.236364042386867
 21
-251.5571375015808
 31
0.0
  0
LINE
  5
1E2C
  8
01
 10
-0.1669715748980707
 20
-254.8041376145326
 30
0.0
 11
-0.9263627626498874
 21
-251.0071375015807
 31
0.0
  0
LINE
  5
1E2D
  8
01
 10
1.433028425101838
 20
-254.8041376145322
 30
0.0
 11
0.6736372373500217
 21
-251.0071375015807
 31
0.0
  0
LINE
  5
1E2E
  8
01
 10
3.033028425101975
 20
-254.8041376145321
 30
0.0
 11
2.273637237354251
 21
-251.0071375015809
 31
0.0
  0
LINE
  5
1E2F
  8
01
 10
-1.766971574898207
 20
-254.8041376145324
 30
0.0
 11
-2.526362762650024
 21
-251.0071375015807
 31
0.0
  0
LINE
  5
1E30
  8
01
 10
-1.657570279551237
 20
-254.2571375015809
 30
0.0
 11
-1.766971574898207
 21
-254.8041376145324
 31
0.0
  0
LINE
  5
1E31
  8
01
 10
-3.257570279551032
 20
-254.2571375015809
 30
0.0
 11
-3.366971574898116
 21
-254.8041376145324
 31
0.0
  0
LINE
  5
1E32
  8
01
 10
-0.0575702795509869
 20
-254.257137501581
 30
0.0
 11
-0.1669715748980707
 21
-254.8041376145326
 31
0.0
  0
LINE
  5
1E33
  8
01
 10
3.142429720449627
 20
-254.2571375015809
 30
0.0
 11
3.033028425101975
 21
-254.8041376145321
 31
0.0
  0
LINE
  5
1E34
  8
01
 10
1.542429720449604
 20
-254.2571375015809
 30
0.0
 11
1.433028425101838
 21
-254.8041376145322
 31
0.0
  0
LINE
  5
1E35
  8
01
 10
-0.9263627626498874
 20
-251.0071375015807
 30
0.0
 11
-1.036364042386936
 21
-251.5571375015808
 31
0.0
  0
LINE
  5
1E36
  8
01
 10
-2.526362762650024
 20
-251.0071375015807
 30
0.0
 11
-2.636364042386958
 21
-251.5571375015808
 31
0.0
  0
LINE
  5
1E37
  8
01
 10
2.273637237354251
 20
-251.0071375015809
 30
0.0
 11
2.163635957616862
 21
-251.5571375015808
 31
0.0
  0
LINE
  5
1E38
  8
01
 10
0.6736372373500217
 20
-251.0071375015807
 30
0.0
 11
0.5636359576130872
 21
-251.5571375015808
 31
0.0
  0
LINE
  5
1E39
  8
01
 10
5.853642123514305
 20
-252.9071840374787
 30
0.0
 11
5.473637237354296
 21
-251.0071375015809
 31
0.0
  0
LINE
  5
1E3A
  8
01
 10
4.633028425102111
 20
-254.8041376145321
 30
0.0
 11
3.873637237354387
 21
-251.0071375015809
 31
0.0
  0
LINE
  5
1E3B
  8
01
 10
4.742429720449763
 20
-254.2571375015809
 30
0.0
 11
4.633028425102111
 21
-254.8041376145321
 31
0.0
  0
LINE
  5
1E3C
  8
01
 10
5.473637237354296
 20
-251.0071375015809
 30
0.0
 11
5.363635957616907
 21
-251.5571375015808
 31
0.0
  0
LINE
  5
1E3D
  8
01
 10
3.873637237354387
 20
-251.0071375015809
 30
0.0
 11
3.763635957616998
 21
-251.5571375015808
 31
0.0
  0
LINE
  5
1E3E
  8
01
 10
11.29112467265293
 20
-256.4071636780233
 30
0.0
 11
11.29114096021715
 21
-249.4071636780237
 31
0.0
  0
LINE
  5
1E3F
  8
01
 10
11.39112467265318
 20
-256.4071636780233
 30
0.0
 11
11.3911409602174
 21
-249.4071636780236
 31
0.0
  0
LINE
  5
1E40
  8
01
 10
11.29112467265293
 20
-256.4071636780233
 30
0.0
 11
11.39112467265318
 21
-256.4071636780233
 31
0.0
  0
LINE
  5
1E41
  8
01
 10
11.29114096021715
 20
-249.4071636780237
 30
0.0
 11
11.3911409602174
 21
-249.4071636780236
 31
0.0
  0
LINE
  5
1E42
  8
01
 10
9.291143868879999
 20
-251.4071375015808
 30
0.0
 11
9.291112457113968
 21
-254.407137501581
 31
0.0
  0
LINE
  5
1E43
  8
01
 10
6.291143868715494
 20
-251.4071375015808
 30
0.0
 11
6.291112456949463
 21
-254.407137501581
 31
0.0
  0
LINE
  5
1E44
  8
01
 10
-13.60886718367965
 20
-252.9071840374787
 30
0.0
 11
-8.309028120164726
 21
-251.5571375015808
 31
0.0
  0
LINE
  5
1E45
  8
01
 10
-13.60886718367965
 20
-252.9071840374787
 30
0.0
 11
-8.309035100549409
 21
-254.257137501581
 31
0.0
  0
LINE
  5
1E46
  8
01
 10
49.29112467265293
 20
-256.4071636780233
 30
0.0
 11
47.29111245711397
 21
-254.4071375015809
 31
0.0
  0
LINE
  5
1E47
  8
01
 10
49.29114096021715
 20
-249.4071636780237
 30
0.0
 11
47.29114386887989
 21
-251.4071375015809
 31
0.0
  0
LINE
  5
1E48
  8
1CENTER
 10
22.82699547775178
 20
-252.9071840374787
 30
0.0
 11
51.57749243478679
 21
-252.9071840374787
 31
0.0
  0
LINE
  5
1E49
  8
01
 10
34.63302842510188
 20
-254.8041376145324
 30
0.0
 11
33.87363723735007
 21
-251.0071375015807
 31
0.0
  0
LINE
  5
1E4A
  8
01
 10
29.69096489945059
 20
-254.257137501581
 30
0.0
 11
44.29111402753779
 21
-254.2571375015809
 31
0.0
  0
LINE
  5
1E4B
  8
01
 10
44.29111245694946
 20
-254.407137501581
 30
0.0
 11
47.29111245711397
 21
-254.407137501581
 31
0.0
  0
LINE
  5
1E4C
  8
01
 10
29.69097187983527
 20
-251.5571375015808
 30
0.0
 11
44.29114229812717
 21
-251.5571375015808
 31
0.0
  0
LINE
  5
1E4D
  8
01
 10
44.29114386871549
 20
-251.4071375015808
 30
0.0
 11
47.29114386888
 21
-251.4071375015808
 31
0.0
  0
LINE
  5
1E4E
  8
01
 10
26.65363027006651
 20
-254.0015078514738
 30
0.0
 11
25.85363483601554
 21
-252.0391727625985
 31
0.0
  0
LINE
  5
1E4F
  8
01
 10
25.85363483601554
 20
-252.0391727625985
 30
0.0
 11
25.55007209558994
 21
-252.6119633825602
 31
0.0
  0
LINE
  5
1E50
  8
01
 10
29.83242844071219
 20
-254.8071375015809
 30
0.0
 11
29.05363694322682
 21
-251.1335445537849
 31
0.0
  0
LINE
  5
1E51
  8
01
 10
28.25362921646229
 20
-254.4543213595222
 30
0.0
 11
27.45363588962118
 21
-251.5863586581917
 31
0.0
  0
LINE
  5
1E52
  8
01
 10
33.03302842510186
 20
-254.8041376145324
 30
0.0
 11
32.27363723734993
 21
-251.0071375015807
 31
0.0
  0
LINE
  5
1E53
  8
01
 10
31.43302842510184
 20
-254.8041376145322
 30
0.0
 11
30.67363723735002
 21
-251.0071375015807
 31
0.0
  0
LINE
  5
1E54
  8
01
 10
28.38148708141898
 20
-253.9235921950715
 30
0.0
 11
28.25362921646229
 21
-254.4543213595222
 31
0.0
  0
LINE
  5
1E55
  8
01
 10
29.9424297204489
 20
-254.2571375015809
 30
0.0
 11
29.83242844071219
 21
-254.8071375015809
 31
0.0
  0
LINE
  5
1E56
  8
01
 10
26.81187315445322
 20
-253.5237859889927
 30
0.0
 11
26.65363027006651
 21
-254.0015078514738
 31
0.0
  0
LINE
  5
1E57
  8
01
 10
31.54242972044881
 20
-254.2571375015809
 30
0.0
 11
31.43302842510184
 21
-254.8041376145322
 31
0.0
  0
LINE
  5
1E58
  8
01
 10
33.14242972044894
 20
-254.2571375015809
 30
0.0
 11
33.03302842510186
 21
-254.8041376145324
 31
0.0
  0
LINE
  5
1E59
  8
01
 10
27.45363588962118
 20
-251.5863586581917
 30
0.0
 11
27.25802528782981
 21
-252.1768904939262
 31
0.0
  0
LINE
  5
1E5A
  8
01
 10
29.05363694322682
 20
-251.1335445537849
 30
0.0
 11
28.90324838698382
 21
-251.7577970612439
 31
0.0
  0
LINE
  5
1E5B
  8
01
 10
32.27363723734993
 20
-251.0071375015807
 30
0.0
 11
32.16363595761334
 21
-251.5571375015808
 31
0.0
  0
LINE
  5
1E5C
  8
01
 10
30.67363723735002
 20
-251.0071375015807
 30
0.0
 11
30.56363595761309
 21
-251.5571375015808
 31
0.0
  0
LINE
  5
1E5D
  8
01
 10
33.87363723735007
 20
-251.0071375015807
 30
0.0
 11
33.76363595761313
 21
-251.5571375015808
 31
0.0
  0
LINE
  5
1E5E
  8
01
 10
37.83302842510193
 20
-254.8041376145326
 30
0.0
 11
37.07363723735011
 21
-251.0071375015807
 31
0.0
  0
LINE
  5
1E5F
  8
01
 10
39.43302842510184
 20
-254.8041376145322
 30
0.0
 11
38.67363723735002
 21
-251.0071375015807
 31
0.0
  0
LINE
  5
1E60
  8
01
 10
41.03302842510197
 20
-254.8041376145321
 30
0.0
 11
40.27363723735425
 21
-251.0071375015809
 31
0.0
  0
LINE
  5
1E61
  8
01
 10
36.23302842510179
 20
-254.8041376145324
 30
0.0
 11
35.47363723734998
 21
-251.0071375015807
 31
0.0
  0
LINE
  5
1E62
  8
01
 10
36.34242972044876
 20
-254.2571375015809
 30
0.0
 11
36.23302842510179
 21
-254.8041376145324
 31
0.0
  0
LINE
  5
1E63
  8
01
 10
34.74242972044897
 20
-254.2571375015809
 30
0.0
 11
34.63302842510188
 21
-254.8041376145324
 31
0.0
  0
LINE
  5
1E64
  8
01
 10
37.94242972044901
 20
-254.257137501581
 30
0.0
 11
37.83302842510193
 21
-254.8041376145326
 31
0.0
  0
LINE
  5
1E65
  8
01
 10
41.14242972044963
 20
-254.2571375015809
 30
0.0
 11
41.03302842510197
 21
-254.8041376145321
 31
0.0
  0
LINE
  5
1E66
  8
01
 10
39.5424297204496
 20
-254.2571375015809
 30
0.0
 11
39.43302842510184
 21
-254.8041376145322
 31
0.0
  0
LINE
  5
1E67
  8
01
 10
37.07363723735011
 20
-251.0071375015807
 30
0.0
 11
36.96363595761306
 21
-251.5571375015808
 31
0.0
  0
LINE
  5
1E68
  8
01
 10
35.47363723734998
 20
-251.0071375015807
 30
0.0
 11
35.36363595761304
 21
-251.5571375015808
 31
0.0
  0
LINE
  5
1E69
  8
01
 10
40.27363723735425
 20
-251.0071375015809
 30
0.0
 11
40.16363595761686
 21
-251.5571375015808
 31
0.0
  0
LINE
  5
1E6A
  8
01
 10
38.67363723735002
 20
-251.0071375015807
 30
0.0
 11
38.56363595761309
 21
-251.5571375015808
 31
0.0
  0
LINE
  5
1E6B
  8
01
 10
43.85364212351431
 20
-252.9071840374787
 30
0.0
 11
43.4736372373543
 21
-251.0071375015809
 31
0.0
  0
LINE
  5
1E6C
  8
01
 10
42.63302842510211
 20
-254.8041376145321
 30
0.0
 11
41.87363723735439
 21
-251.0071375015809
 31
0.0
  0
LINE
  5
1E6D
  8
01
 10
42.74242972044976
 20
-254.2571375015809
 30
0.0
 11
42.63302842510211
 21
-254.8041376145321
 31
0.0
  0
LINE
  5
1E6E
  8
01
 10
43.4736372373543
 20
-251.0071375015809
 30
0.0
 11
43.36363595761691
 21
-251.5571375015808
 31
0.0
  0
LINE
  5
1E6F
  8
01
 10
41.87363723735439
 20
-251.0071375015809
 30
0.0
 11
41.763635957617
 21
-251.5571375015808
 31
0.0
  0
LINE
  5
1E70
  8
01
 10
49.29112467265293
 20
-256.4071636780233
 30
0.0
 11
49.29114096021715
 21
-249.4071636780237
 31
0.0
  0
LINE
  5
1E71
  8
01
 10
49.39112467265318
 20
-256.4071636780233
 30
0.0
 11
49.3911409602174
 21
-249.4071636780236
 31
0.0
  0
LINE
  5
1E72
  8
01
 10
49.29112467265293
 20
-256.4071636780233
 30
0.0
 11
49.39112467265318
 21
-256.4071636780233
 31
0.0
  0
LINE
  5
1E73
  8
01
 10
49.29114096021715
 20
-249.4071636780237
 30
0.0
 11
49.3911409602174
 21
-249.4071636780236
 31
0.0
  0
LINE
  5
1E74
  8
01
 10
47.29114386888
 20
-251.4071375015808
 30
0.0
 11
47.29111245711397
 21
-254.407137501581
 31
0.0
  0
LINE
  5
1E75
  8
01
 10
44.29114386871549
 20
-251.4071375015808
 30
0.0
 11
44.29111245694946
 21
-254.407137501581
 31
0.0
  0
LINE
  5
1E76
  8
01
 10
24.39113281632035
 20
-252.9071840374787
 30
0.0
 11
29.69097187983527
 21
-251.5571375015808
 31
0.0
  0
LINE
  5
1E77
  8
01
 10
24.39113281632035
 20
-252.9071840374787
 30
0.0
 11
29.69096489945059
 21
-254.257137501581
 31
0.0
  0
LINE
  5
1E78
  8
01
 10
11.29112467265293
 20
-265.9071636780233
 30
0.0
 11
9.291112457113968
 21
-263.9071375015809
 31
0.0
  0
LINE
  5
1E79
  8
01
 10
11.29114096021715
 20
-258.9071636780237
 30
0.0
 11
9.291143868879885
 21
-260.9071375015809
 31
0.0
  0
LINE
  5
1E7A
  8
1CENTER
 10
-15.17300452224822
 20
-262.4071840374787
 30
0.0
 11
13.57749243478679
 21
-262.4071840374787
 31
0.0
  0
LINE
  5
1E7B
  8
01
 10
-3.366971574898116
 20
-264.3041376145324
 30
0.0
 11
-4.126362762649933
 21
-260.5071375015807
 31
0.0
  0
LINE
  5
1E7C
  8
01
 10
-8.309035100549409
 20
-263.757137501581
 30
0.0
 11
6.291114027537787
 21
-263.7571375015809
 31
0.0
  0
LINE
  5
1E7D
  8
01
 10
6.291112456949463
 20
-263.907137501581
 30
0.0
 11
9.291112457113968
 21
-263.907137501581
 31
0.0
  0
LINE
  5
1E7E
  8
01
 10
-8.309028120164726
 20
-261.0571375015808
 30
0.0
 11
6.29114229812717
 21
-261.0571375015808
 31
0.0
  0
LINE
  5
1E7F
  8
01
 10
6.291143868715494
 20
-260.9071375015808
 30
0.0
 11
9.291143868879999
 21
-260.9071375015808
 31
0.0
  0
LINE
  5
1E80
  8
01
 10
-11.34636972993349
 20
-263.5015078514738
 30
0.0
 11
-12.14636516398446
 21
-261.5391727625985
 31
0.0
  0
LINE
  5
1E81
  8
01
 10
-12.14636516398446
 20
-261.5391727625985
 30
0.0
 11
-12.44992790441006
 21
-262.1119633825602
 31
0.0
  0
LINE
  5
1E82
  8
01
 10
-8.167571559287808
 20
-264.3071375015809
 30
0.0
 11
-8.94636305677318
 21
-260.6335445537849
 31
0.0
  0
LINE
  5
1E83
  8
01
 10
-9.746370783537714
 20
-263.9543213595222
 30
0.0
 11
-10.54636411037882
 21
-261.0863586581917
 31
0.0
  0
LINE
  5
1E84
  8
01
 10
-4.966971574898139
 20
-264.3041376145324
 30
0.0
 11
-5.726362762650069
 21
-260.5071375015807
 31
0.0
  0
LINE
  5
1E85
  8
01
 10
-6.566971574898162
 20
-264.3041376145322
 30
0.0
 11
-7.326362762649978
 21
-260.5071375015807
 31
0.0
  0
LINE
  5
1E86
  8
01
 10
-9.618512918581018
 20
-263.4235921950715
 30
0.0
 11
-9.746370783537714
 21
-263.9543213595222
 31
0.0
  0
LINE
  5
1E87
  8
01
 10
-8.0575702795511
 20
-263.7571375015809
 30
0.0
 11
-8.167571559287808
 21
-264.3071375015809
 31
0.0
  0
LINE
  5
1E88
  8
01
 10
-11.18812684554678
 20
-263.0237859889927
 30
0.0
 11
-11.34636972993349
 21
-263.5015078514738
 31
0.0
  0
LINE
  5
1E89
  8
01
 10
-6.457570279551192
 20
-263.7571375015809
 30
0.0
 11
-6.566971574898162
 21
-264.3041376145322
 31
0.0
  0
LINE
  5
1E8A
  8
01
 10
-4.857570279551055
 20
-263.7571375015809
 30
0.0
 11
-4.966971574898139
 21
-264.3041376145324
 31
0.0
  0
LINE
  5
1E8B
  8
01
 10
-10.54636411037882
 20
-261.0863586581917
 30
0.0
 11
-10.74197471217019
 21
-261.6768904939262
 31
0.0
  0
LINE
  5
1E8C
  8
01
 10
-8.94636305677318
 20
-260.6335445537849
 30
0.0
 11
-9.096751613016181
 21
-261.2577970612439
 31
0.0
  0
LINE
  5
1E8D
  8
01
 10
-5.726362762650069
 20
-260.5071375015807
 30
0.0
 11
-5.836364042386663
 21
-261.0571375015808
 31
0.0
  0
LINE
  5
1E8E
  8
01
 10
-7.326362762649978
 20
-260.5071375015807
 30
0.0
 11
-7.436364042386913
 21
-261.0571375015808
 31
0.0
  0
LINE
  5
1E8F
  8
01
 10
-4.126362762649933
 20
-260.5071375015807
 30
0.0
 11
-4.236364042386867
 21
-261.0571375015808
 31
0.0
  0
LINE
  5
1E90
  8
01
 10
-0.1669715748980707
 20
-264.3041376145326
 30
0.0
 11
-0.9263627626498874
 21
-260.5071375015807
 31
0.0
  0
LINE
  5
1E91
  8
01
 10
1.433028425101838
 20
-264.3041376145322
 30
0.0
 11
0.6736372373500217
 21
-260.5071375015807
 31
0.0
  0
LINE
  5
1E92
  8
01
 10
3.033028425101975
 20
-264.3041376145321
 30
0.0
 11
2.273637237354251
 21
-260.5071375015809
 31
0.0
  0
LINE
  5
1E93
  8
01
 10
-1.766971574898207
 20
-264.3041376145324
 30
0.0
 11
-2.526362762650024
 21
-260.5071375015807
 31
0.0
  0
LINE
  5
1E94
  8
01
 10
-1.657570279551237
 20
-263.7571375015809
 30
0.0
 11
-1.766971574898207
 21
-264.3041376145324
 31
0.0
  0
LINE
  5
1E95
  8
01
 10
-3.257570279551032
 20
-263.7571375015809
 30
0.0
 11
-3.366971574898116
 21
-264.3041376145324
 31
0.0
  0
LINE
  5
1E96
  8
01
 10
-0.0575702795509869
 20
-263.757137501581
 30
0.0
 11
-0.1669715748980707
 21
-264.3041376145326
 31
0.0
  0
LINE
  5
1E97
  8
01
 10
3.142429720449627
 20
-263.7571375015809
 30
0.0
 11
3.033028425101975
 21
-264.3041376145321
 31
0.0
  0
LINE
  5
1E98
  8
01
 10
1.542429720449604
 20
-263.7571375015809
 30
0.0
 11
1.433028425101838
 21
-264.3041376145322
 31
0.0
  0
LINE
  5
1E99
  8
01
 10
-0.9263627626498874
 20
-260.5071375015807
 30
0.0
 11
-1.036364042386936
 21
-261.0571375015808
 31
0.0
  0
LINE
  5
1E9A
  8
01
 10
-2.526362762650024
 20
-260.5071375015807
 30
0.0
 11
-2.636364042386958
 21
-261.0571375015808
 31
0.0
  0
LINE
  5
1E9B
  8
01
 10
2.273637237354251
 20
-260.5071375015809
 30
0.0
 11
2.163635957616862
 21
-261.0571375015808
 31
0.0
  0
LINE
  5
1E9C
  8
01
 10
0.6736372373500217
 20
-260.5071375015807
 30
0.0
 11
0.5636359576130872
 21
-261.0571375015808
 31
0.0
  0
LINE
  5
1E9D
  8
01
 10
5.853642123514305
 20
-262.4071840374787
 30
0.0
 11
5.473637237354296
 21
-260.5071375015809
 31
0.0
  0
LINE
  5
1E9E
  8
01
 10
4.633028425102111
 20
-264.3041376145321
 30
0.0
 11
3.873637237354387
 21
-260.5071375015809
 31
0.0
  0
LINE
  5
1E9F
  8
01
 10
4.742429720449763
 20
-263.7571375015809
 30
0.0
 11
4.633028425102111
 21
-264.3041376145321
 31
0.0
  0
LINE
  5
1EA0
  8
01
 10
5.473637237354296
 20
-260.5071375015809
 30
0.0
 11
5.363635957616907
 21
-261.0571375015808
 31
0.0
  0
LINE
  5
1EA1
  8
01
 10
3.873637237354387
 20
-260.5071375015809
 30
0.0
 11
3.763635957616998
 21
-261.0571375015808
 31
0.0
  0
LINE
  5
1EA2
  8
01
 10
11.29112467265293
 20
-265.9071636780233
 30
0.0
 11
11.29114096021715
 21
-258.9071636780237
 31
0.0
  0
LINE
  5
1EA3
  8
01
 10
11.39112467265318
 20
-265.9071636780233
 30
0.0
 11
11.3911409602174
 21
-258.9071636780236
 31
0.0
  0
LINE
  5
1EA4
  8
01
 10
11.29112467265293
 20
-265.9071636780233
 30
0.0
 11
11.39112467265318
 21
-265.9071636780233
 31
0.0
  0
LINE
  5
1EA5
  8
01
 10
11.29114096021715
 20
-258.9071636780237
 30
0.0
 11
11.3911409602174
 21
-258.9071636780236
 31
0.0
  0
LINE
  5
1EA6
  8
01
 10
9.291143868879999
 20
-260.9071375015808
 30
0.0
 11
9.291112457113968
 21
-263.907137501581
 31
0.0
  0
LINE
  5
1EA7
  8
01
 10
6.291143868715494
 20
-260.9071375015808
 30
0.0
 11
6.291112456949463
 21
-263.907137501581
 31
0.0
  0
LINE
  5
1EA8
  8
01
 10
-13.60886718367965
 20
-262.4071840374787
 30
0.0
 11
-8.309028120164726
 21
-261.0571375015808
 31
0.0
  0
LINE
  5
1EA9
  8
01
 10
-13.60886718367965
 20
-262.4071840374787
 30
0.0
 11
-8.309035100549409
 21
-263.757137501581
 31
0.0
  0
LINE
  5
1EAA
  8
01
 10
49.29112467265293
 20
-265.9071636780233
 30
0.0
 11
47.29111245711397
 21
-263.9071375015809
 31
0.0
  0
LINE
  5
1EAB
  8
01
 10
49.29114096021715
 20
-258.9071636780237
 30
0.0
 11
47.29114386887989
 21
-260.9071375015809
 31
0.0
  0
LINE
  5
1EAC
  8
1CENTER
 10
22.82699547775178
 20
-262.4071840374787
 30
0.0
 11
51.57749243478679
 21
-262.4071840374787
 31
0.0
  0
LINE
  5
1EAD
  8
01
 10
34.63302842510188
 20
-264.3041376145324
 30
0.0
 11
33.87363723735007
 21
-260.5071375015807
 31
0.0
  0
LINE
  5
1EAE
  8
01
 10
29.69096489945059
 20
-263.757137501581
 30
0.0
 11
44.29111402753779
 21
-263.7571375015809
 31
0.0
  0
LINE
  5
1EAF
  8
01
 10
44.29111245694946
 20
-263.907137501581
 30
0.0
 11
47.29111245711397
 21
-263.907137501581
 31
0.0
  0
LINE
  5
1EB0
  8
01
 10
29.69097187983527
 20
-261.0571375015808
 30
0.0
 11
44.29114229812717
 21
-261.0571375015808
 31
0.0
  0
LINE
  5
1EB1
  8
01
 10
44.29114386871549
 20
-260.9071375015808
 30
0.0
 11
47.29114386888
 21
-260.9071375015808
 31
0.0
  0
LINE
  5
1EB2
  8
01
 10
26.65363027006651
 20
-263.5015078514738
 30
0.0
 11
25.85363483601554
 21
-261.5391727625985
 31
0.0
  0
LINE
  5
1EB3
  8
01
 10
25.85363483601554
 20
-261.5391727625985
 30
0.0
 11
25.55007209558994
 21
-262.1119633825602
 31
0.0
  0
LINE
  5
1EB4
  8
01
 10
29.83242844071219
 20
-264.3071375015809
 30
0.0
 11
29.05363694322682
 21
-260.6335445537849
 31
0.0
  0
LINE
  5
1EB5
  8
01
 10
28.25362921646229
 20
-263.9543213595222
 30
0.0
 11
27.45363588962118
 21
-261.0863586581917
 31
0.0
  0
LINE
  5
1EB6
  8
01
 10
33.03302842510186
 20
-264.3041376145324
 30
0.0
 11
32.27363723734993
 21
-260.5071375015807
 31
0.0
  0
LINE
  5
1EB7
  8
01
 10
31.43302842510184
 20
-264.3041376145322
 30
0.0
 11
30.67363723735002
 21
-260.5071375015807
 31
0.0
  0
LINE
  5
1EB8
  8
01
 10
28.38148708141898
 20
-263.4235921950715
 30
0.0
 11
28.25362921646229
 21
-263.9543213595222
 31
0.0
  0
LINE
  5
1EB9
  8
01
 10
29.9424297204489
 20
-263.7571375015809
 30
0.0
 11
29.83242844071219
 21
-264.3071375015809
 31
0.0
  0
LINE
  5
1EBA
  8
01
 10
26.81187315445322
 20
-263.0237859889927
 30
0.0
 11
26.65363027006651
 21
-263.5015078514738
 31
0.0
  0
LINE
  5
1EBB
  8
01
 10
31.54242972044881
 20
-263.7571375015809
 30
0.0
 11
31.43302842510184
 21
-264.3041376145322
 31
0.0
  0
LINE
  5
1EBC
  8
01
 10
33.14242972044894
 20
-263.7571375015809
 30
0.0
 11
33.03302842510186
 21
-264.3041376145324
 31
0.0
  0
LINE
  5
1EBD
  8
01
 10
27.45363588962118
 20
-261.0863586581917
 30
0.0
 11
27.25802528782981
 21
-261.6768904939262
 31
0.0
  0
LINE
  5
1EBE
  8
01
 10
29.05363694322682
 20
-260.6335445537849
 30
0.0
 11
28.90324838698382
 21
-261.2577970612439
 31
0.0
  0
LINE
  5
1EBF
  8
01
 10
32.27363723734993
 20
-260.5071375015807
 30
0.0
 11
32.16363595761334
 21
-261.0571375015808
 31
0.0
  0
LINE
  5
1EC0
  8
01
 10
30.67363723735002
 20
-260.5071375015807
 30
0.0
 11
30.56363595761309
 21
-261.0571375015808
 31
0.0
  0
LINE
  5
1EC1
  8
01
 10
33.87363723735007
 20
-260.5071375015807
 30
0.0
 11
33.76363595761313
 21
-261.0571375015808
 31
0.0
  0
LINE
  5
1EC2
  8
01
 10
37.83302842510193
 20
-264.3041376145326
 30
0.0
 11
37.07363723735011
 21
-260.5071375015807
 31
0.0
  0
LINE
  5
1EC3
  8
01
 10
39.43302842510184
 20
-264.3041376145322
 30
0.0
 11
38.67363723735002
 21
-260.5071375015807
 31
0.0
  0
LINE
  5
1EC4
  8
01
 10
41.03302842510197
 20
-264.3041376145321
 30
0.0
 11
40.27363723735425
 21
-260.5071375015809
 31
0.0
  0
LINE
  5
1EC5
  8
01
 10
36.23302842510179
 20
-264.3041376145324
 30
0.0
 11
35.47363723734998
 21
-260.5071375015807
 31
0.0
  0
LINE
  5
1EC6
  8
01
 10
36.34242972044876
 20
-263.7571375015809
 30
0.0
 11
36.23302842510179
 21
-264.3041376145324
 31
0.0
  0
LINE
  5
1EC7
  8
01
 10
34.74242972044897
 20
-263.7571375015809
 30
0.0
 11
34.63302842510188
 21
-264.3041376145324
 31
0.0
  0
LINE
  5
1EC8
  8
01
 10
37.94242972044901
 20
-263.757137501581
 30
0.0
 11
37.83302842510193
 21
-264.3041376145326
 31
0.0
  0
LINE
  5
1EC9
  8
01
 10
41.14242972044963
 20
-263.7571375015809
 30
0.0
 11
41.03302842510197
 21
-264.3041376145321
 31
0.0
  0
LINE
  5
1ECA
  8
01
 10
39.5424297204496
 20
-263.7571375015809
 30
0.0
 11
39.43302842510184
 21
-264.3041376145322
 31
0.0
  0
LINE
  5
1ECB
  8
01
 10
37.07363723735011
 20
-260.5071375015807
 30
0.0
 11
36.96363595761306
 21
-261.0571375015808
 31
0.0
  0
LINE
  5
1ECC
  8
01
 10
35.47363723734998
 20
-260.5071375015807
 30
0.0
 11
35.36363595761304
 21
-261.0571375015808
 31
0.0
  0
LINE
  5
1ECD
  8
01
 10
40.27363723735425
 20
-260.5071375015809
 30
0.0
 11
40.16363595761686
 21
-261.0571375015808
 31
0.0
  0
LINE
  5
1ECE
  8
01
 10
38.67363723735002
 20
-260.5071375015807
 30
0.0
 11
38.56363595761309
 21
-261.0571375015808
 31
0.0
  0
LINE
  5
1ECF
  8
01
 10
43.85364212351431
 20
-262.4071840374787
 30
0.0
 11
43.4736372373543
 21
-260.5071375015809
 31
0.0
  0
LINE
  5
1ED0
  8
01
 10
42.63302842510211
 20
-264.3041376145321
 30
0.0
 11
41.87363723735439
 21
-260.5071375015809
 31
0.0
  0
LINE
  5
1ED1
  8
01
 10
42.74242972044976
 20
-263.7571375015809
 30
0.0
 11
42.63302842510211
 21
-264.3041376145321
 31
0.0
  0
LINE
  5
1ED2
  8
01
 10
43.4736372373543
 20
-260.5071375015809
 30
0.0
 11
43.36363595761691
 21
-261.0571375015808
 31
0.0
  0
LINE
  5
1ED3
  8
01
 10
41.87363723735439
 20
-260.5071375015809
 30
0.0
 11
41.763635957617
 21
-261.0571375015808
 31
0.0
  0
LINE
  5
1ED4
  8
01
 10
49.29112467265293
 20
-265.9071636780233
 30
0.0
 11
49.29114096021715
 21
-258.9071636780237
 31
0.0
  0
LINE
  5
1ED5
  8
01
 10
49.39112467265318
 20
-265.9071636780233
 30
0.0
 11
49.3911409602174
 21
-258.9071636780236
 31
0.0
  0
LINE
  5
1ED6
  8
01
 10
49.29112467265293
 20
-265.9071636780233
 30
0.0
 11
49.39112467265318
 21
-265.9071636780233
 31
0.0
  0
LINE
  5
1ED7
  8
01
 10
49.29114096021715
 20
-258.9071636780237
 30
0.0
 11
49.3911409602174
 21
-258.9071636780236
 31
0.0
  0
LINE
  5
1ED8
  8
01
 10
47.29114386888
 20
-260.9071375015808
 30
0.0
 11
47.29111245711397
 21
-263.907137501581
 31
0.0
  0
LINE
  5
1ED9
  8
01
 10
44.29114386871549
 20
-260.9071375015808
 30
0.0
 11
44.29111245694946
 21
-263.907137501581
 31
0.0
  0
LINE
  5
1EDA
  8
01
 10
24.39113281632035
 20
-262.4071840374787
 30
0.0
 11
29.69097187983527
 21
-261.0571375015808
 31
0.0
  0
LINE
  5
1EDB
  8
01
 10
24.39113281632035
 20
-262.4071840374787
 30
0.0
 11
29.69096489945059
 21
-263.757137501581
 31
0.0
  0
LINE
  5
1EDC
  8
01
 10
11.29112467265293
 20
-275.4071636780233
 30
0.0
 11
9.291112457113968
 21
-273.4071375015809
 31
0.0
  0
LINE
  5
1EDD
  8
01
 10
11.29114096021715
 20
-268.4071636780237
 30
0.0
 11
9.291143868879885
 21
-270.4071375015809
 31
0.0
  0
LINE
  5
1EDE
  8
1CENTER
 10
-15.17300452224822
 20
-271.9071840374787
 30
0.0
 11
13.57749243478679
 21
-271.9071840374787
 31
0.0
  0
LINE
  5
1EDF
  8
01
 10
-3.366971574898116
 20
-273.8041376145324
 30
0.0
 11
-4.126362762649933
 21
-270.0071375015807
 31
0.0
  0
LINE
  5
1EE0
  8
01
 10
-8.309035100549409
 20
-273.257137501581
 30
0.0
 11
6.291114027537787
 21
-273.2571375015809
 31
0.0
  0
LINE
  5
1EE1
  8
01
 10
6.291112456949463
 20
-273.407137501581
 30
0.0
 11
9.291112457113968
 21
-273.407137501581
 31
0.0
  0
LINE
  5
1EE2
  8
01
 10
-8.309028120164726
 20
-270.5571375015808
 30
0.0
 11
6.29114229812717
 21
-270.5571375015808
 31
0.0
  0
LINE
  5
1EE3
  8
01
 10
6.291143868715494
 20
-270.4071375015808
 30
0.0
 11
9.291143868879999
 21
-270.4071375015808
 31
0.0
  0
LINE
  5
1EE4
  8
01
 10
-11.34636972993349
 20
-273.0015078514738
 30
0.0
 11
-12.14636516398446
 21
-271.0391727625985
 31
0.0
  0
LINE
  5
1EE5
  8
01
 10
-12.14636516398446
 20
-271.0391727625985
 30
0.0
 11
-12.44992790441006
 21
-271.6119633825602
 31
0.0
  0
LINE
  5
1EE6
  8
01
 10
-8.167571559287808
 20
-273.8071375015809
 30
0.0
 11
-8.94636305677318
 21
-270.1335445537849
 31
0.0
  0
LINE
  5
1EE7
  8
01
 10
-9.746370783537714
 20
-273.4543213595222
 30
0.0
 11
-10.54636411037882
 21
-270.5863586581917
 31
0.0
  0
LINE
  5
1EE8
  8
01
 10
-4.966971574898139
 20
-273.8041376145324
 30
0.0
 11
-5.726362762650069
 21
-270.0071375015807
 31
0.0
  0
LINE
  5
1EE9
  8
01
 10
-6.566971574898162
 20
-273.8041376145322
 30
0.0
 11
-7.326362762649978
 21
-270.0071375015807
 31
0.0
  0
LINE
  5
1EEA
  8
01
 10
-9.618512918581018
 20
-272.9235921950715
 30
0.0
 11
-9.746370783537714
 21
-273.4543213595222
 31
0.0
  0
LINE
  5
1EEB
  8
01
 10
-8.0575702795511
 20
-273.2571375015809
 30
0.0
 11
-8.167571559287808
 21
-273.8071375015809
 31
0.0
  0
LINE
  5
1EEC
  8
01
 10
-11.18812684554678
 20
-272.5237859889927
 30
0.0
 11
-11.34636972993349
 21
-273.0015078514738
 31
0.0
  0
LINE
  5
1EED
  8
01
 10
-6.457570279551192
 20
-273.2571375015809
 30
0.0
 11
-6.566971574898162
 21
-273.8041376145322
 31
0.0
  0
LINE
  5
1EEE
  8
01
 10
-4.857570279551055
 20
-273.2571375015809
 30
0.0
 11
-4.966971574898139
 21
-273.8041376145324
 31
0.0
  0
LINE
  5
1EEF
  8
01
 10
-10.54636411037882
 20
-270.5863586581917
 30
0.0
 11
-10.74197471217019
 21
-271.1768904939262
 31
0.0
  0
LINE
  5
1EF0
  8
01
 10
-8.94636305677318
 20
-270.1335445537849
 30
0.0
 11
-9.096751613016181
 21
-270.7577970612439
 31
0.0
  0
LINE
  5
1EF1
  8
01
 10
-5.726362762650069
 20
-270.0071375015807
 30
0.0
 11
-5.836364042386663
 21
-270.5571375015808
 31
0.0
  0
LINE
  5
1EF2
  8
01
 10
-7.326362762649978
 20
-270.0071375015807
 30
0.0
 11
-7.436364042386913
 21
-270.5571375015808
 31
0.0
  0
LINE
  5
1EF3
  8
01
 10
-4.126362762649933
 20
-270.0071375015807
 30
0.0
 11
-4.236364042386867
 21
-270.5571375015808
 31
0.0
  0
LINE
  5
1EF4
  8
01
 10
-0.1669715748980707
 20
-273.8041376145326
 30
0.0
 11
-0.9263627626498874
 21
-270.0071375015807
 31
0.0
  0
LINE
  5
1EF5
  8
01
 10
1.433028425101838
 20
-273.8041376145322
 30
0.0
 11
0.6736372373500217
 21
-270.0071375015807
 31
0.0
  0
LINE
  5
1EF6
  8
01
 10
3.033028425101975
 20
-273.8041376145321
 30
0.0
 11
2.273637237354251
 21
-270.0071375015809
 31
0.0
  0
LINE
  5
1EF7
  8
01
 10
-1.766971574898207
 20
-273.8041376145324
 30
0.0
 11
-2.526362762650024
 21
-270.0071375015807
 31
0.0
  0
LINE
  5
1EF8
  8
01
 10
-1.657570279551237
 20
-273.2571375015809
 30
0.0
 11
-1.766971574898207
 21
-273.8041376145324
 31
0.0
  0
LINE
  5
1EF9
  8
01
 10
-3.257570279551032
 20
-273.2571375015809
 30
0.0
 11
-3.366971574898116
 21
-273.8041376145324
 31
0.0
  0
LINE
  5
1EFA
  8
01
 10
-0.0575702795509869
 20
-273.257137501581
 30
0.0
 11
-0.1669715748980707
 21
-273.8041376145326
 31
0.0
  0
LINE
  5
1EFB
  8
01
 10
3.142429720449627
 20
-273.2571375015809
 30
0.0
 11
3.033028425101975
 21
-273.8041376145321
 31
0.0
  0
LINE
  5
1EFC
  8
01
 10
1.542429720449604
 20
-273.2571375015809
 30
0.0
 11
1.433028425101838
 21
-273.8041376145322
 31
0.0
  0
LINE
  5
1EFD
  8
01
 10
-0.9263627626498874
 20
-270.0071375015807
 30
0.0
 11
-1.036364042386936
 21
-270.5571375015808
 31
0.0
  0
LINE
  5
1EFE
  8
01
 10
-2.526362762650024
 20
-270.0071375015807
 30
0.0
 11
-2.636364042386958
 21
-270.5571375015808
 31
0.0
  0
LINE
  5
1EFF
  8
01
 10
2.273637237354251
 20
-270.0071375015809
 30
0.0
 11
2.163635957616862
 21
-270.5571375015808
 31
0.0
  0
LINE
  5
1F00
  8
01
 10
0.6736372373500217
 20
-270.0071375015807
 30
0.0
 11
0.5636359576130872
 21
-270.5571375015808
 31
0.0
  0
LINE
  5
1F01
  8
01
 10
5.853642123514305
 20
-271.9071840374787
 30
0.0
 11
5.473637237354296
 21
-270.0071375015809
 31
0.0
  0
LINE
  5
1F02
  8
01
 10
4.633028425102111
 20
-273.8041376145321
 30
0.0
 11
3.873637237354387
 21
-270.0071375015809
 31
0.0
  0
LINE
  5
1F03
  8
01
 10
4.742429720449763
 20
-273.2571375015809
 30
0.0
 11
4.633028425102111
 21
-273.8041376145321
 31
0.0
  0
LINE
  5
1F04
  8
01
 10
5.473637237354296
 20
-270.0071375015809
 30
0.0
 11
5.363635957616907
 21
-270.5571375015808
 31
0.0
  0
LINE
  5
1F05
  8
01
 10
3.873637237354387
 20
-270.0071375015809
 30
0.0
 11
3.763635957616998
 21
-270.5571375015808
 31
0.0
  0
LINE
  5
1F06
  8
01
 10
11.29112467265293
 20
-275.4071636780233
 30
0.0
 11
11.29114096021715
 21
-268.4071636780237
 31
0.0
  0
LINE
  5
1F07
  8
01
 10
11.39112467265318
 20
-275.4071636780233
 30
0.0
 11
11.3911409602174
 21
-268.4071636780236
 31
0.0
  0
LINE
  5
1F08
  8
01
 10
11.29112467265293
 20
-275.4071636780233
 30
0.0
 11
11.39112467265318
 21
-275.4071636780233
 31
0.0
  0
LINE
  5
1F09
  8
01
 10
11.29114096021715
 20
-268.4071636780237
 30
0.0
 11
11.3911409602174
 21
-268.4071636780236
 31
0.0
  0
LINE
  5
1F0A
  8
01
 10
9.291143868879999
 20
-270.4071375015808
 30
0.0
 11
9.291112457113968
 21
-273.407137501581
 31
0.0
  0
LINE
  5
1F0B
  8
01
 10
6.291143868715494
 20
-270.4071375015808
 30
0.0
 11
6.291112456949463
 21
-273.407137501581
 31
0.0
  0
LINE
  5
1F0C
  8
01
 10
-13.60886718367965
 20
-271.9071840374787
 30
0.0
 11
-8.309028120164726
 21
-270.5571375015808
 31
0.0
  0
LINE
  5
1F0D
  8
01
 10
-13.60886718367965
 20
-271.9071840374787
 30
0.0
 11
-8.309035100549409
 21
-273.257137501581
 31
0.0
  0
LINE
  5
1F0E
  8
01
 10
49.29112467265293
 20
-275.4071636780233
 30
0.0
 11
47.29111245711397
 21
-273.4071375015809
 31
0.0
  0
LINE
  5
1F0F
  8
01
 10
49.29114096021715
 20
-268.4071636780237
 30
0.0
 11
47.29114386887989
 21
-270.4071375015809
 31
0.0
  0
LINE
  5
1F10
  8
1CENTER
 10
22.82699547775178
 20
-271.9071840374787
 30
0.0
 11
51.57749243478679
 21
-271.9071840374787
 31
0.0
  0
LINE
  5
1F11
  8
01
 10
34.63302842510188
 20
-273.8041376145324
 30
0.0
 11
33.87363723735007
 21
-270.0071375015807
 31
0.0
  0
LINE
  5
1F12
  8
01
 10
29.69096489945059
 20
-273.257137501581
 30
0.0
 11
44.29111402753779
 21
-273.2571375015809
 31
0.0
  0
LINE
  5
1F13
  8
01
 10
44.29111245694946
 20
-273.407137501581
 30
0.0
 11
47.29111245711397
 21
-273.407137501581
 31
0.0
  0
LINE
  5
1F14
  8
01
 10
29.69097187983527
 20
-270.5571375015808
 30
0.0
 11
44.29114229812717
 21
-270.5571375015808
 31
0.0
  0
LINE
  5
1F15
  8
01
 10
44.29114386871549
 20
-270.4071375015808
 30
0.0
 11
47.29114386888
 21
-270.4071375015808
 31
0.0
  0
LINE
  5
1F16
  8
01
 10
26.65363027006651
 20
-273.0015078514738
 30
0.0
 11
25.85363483601554
 21
-271.0391727625985
 31
0.0
  0
LINE
  5
1F17
  8
01
 10
25.85363483601554
 20
-271.0391727625985
 30
0.0
 11
25.55007209558994
 21
-271.6119633825602
 31
0.0
  0
LINE
  5
1F18
  8
01
 10
29.83242844071219
 20
-273.8071375015809
 30
0.0
 11
29.05363694322682
 21
-270.1335445537849
 31
0.0
  0
LINE
  5
1F19
  8
01
 10
28.25362921646229
 20
-273.4543213595222
 30
0.0
 11
27.45363588962118
 21
-270.5863586581917
 31
0.0
  0
LINE
  5
1F1A
  8
01
 10
33.03302842510186
 20
-273.8041376145324
 30
0.0
 11
32.27363723734993
 21
-270.0071375015807
 31
0.0
  0
LINE
  5
1F1B
  8
01
 10
31.43302842510184
 20
-273.8041376145322
 30
0.0
 11
30.67363723735002
 21
-270.0071375015807
 31
0.0
  0
LINE
  5
1F1C
  8
01
 10
28.38148708141898
 20
-272.9235921950715
 30
0.0
 11
28.25362921646229
 21
-273.4543213595222
 31
0.0
  0
LINE
  5
1F1D
  8
01
 10
29.9424297204489
 20
-273.2571375015809
 30
0.0
 11
29.83242844071219
 21
-273.8071375015809
 31
0.0
  0
LINE
  5
1F1E
  8
01
 10
26.81187315445322
 20
-272.5237859889927
 30
0.0
 11
26.65363027006651
 21
-273.0015078514738
 31
0.0
  0
LINE
  5
1F1F
  8
01
 10
31.54242972044881
 20
-273.2571375015809
 30
0.0
 11
31.43302842510184
 21
-273.8041376145322
 31
0.0
  0
LINE
  5
1F20
  8
01
 10
33.14242972044894
 20
-273.2571375015809
 30
0.0
 11
33.03302842510186
 21
-273.8041376145324
 31
0.0
  0
LINE
  5
1F21
  8
01
 10
27.45363588962118
 20
-270.5863586581917
 30
0.0
 11
27.25802528782981
 21
-271.1768904939262
 31
0.0
  0
LINE
  5
1F22
  8
01
 10
29.05363694322682
 20
-270.1335445537849
 30
0.0
 11
28.90324838698382
 21
-270.7577970612439
 31
0.0
  0
LINE
  5
1F23
  8
01
 10
32.27363723734993
 20
-270.0071375015807
 30
0.0
 11
32.16363595761334
 21
-270.5571375015808
 31
0.0
  0
LINE
  5
1F24
  8
01
 10
30.67363723735002
 20
-270.0071375015807
 30
0.0
 11
30.56363595761309
 21
-270.5571375015808
 31
0.0
  0
LINE
  5
1F25
  8
01
 10
33.87363723735007
 20
-270.0071375015807
 30
0.0
 11
33.76363595761313
 21
-270.5571375015808
 31
0.0
  0
LINE
  5
1F26
  8
01
 10
37.83302842510193
 20
-273.8041376145326
 30
0.0
 11
37.07363723735011
 21
-270.0071375015807
 31
0.0
  0
LINE
  5
1F27
  8
01
 10
39.43302842510184
 20
-273.8041376145322
 30
0.0
 11
38.67363723735002
 21
-270.0071375015807
 31
0.0
  0
LINE
  5
1F28
  8
01
 10
41.03302842510197
 20
-273.8041376145321
 30
0.0
 11
40.27363723735425
 21
-270.0071375015809
 31
0.0
  0
LINE
  5
1F29
  8
01
 10
36.23302842510179
 20
-273.8041376145324
 30
0.0
 11
35.47363723734998
 21
-270.0071375015807
 31
0.0
  0
LINE
  5
1F2A
  8
01
 10
36.34242972044876
 20
-273.2571375015809
 30
0.0
 11
36.23302842510179
 21
-273.8041376145324
 31
0.0
  0
LINE
  5
1F2B
  8
01
 10
34.74242972044897
 20
-273.2571375015809
 30
0.0
 11
34.63302842510188
 21
-273.8041376145324
 31
0.0
  0
LINE
  5
1F2C
  8
01
 10
37.94242972044901
 20
-273.257137501581
 30
0.0
 11
37.83302842510193
 21
-273.8041376145326
 31
0.0
  0
LINE
  5
1F2D
  8
01
 10
41.14242972044963
 20
-273.2571375015809
 30
0.0
 11
41.03302842510197
 21
-273.8041376145321
 31
0.0
  0
LINE
  5
1F2E
  8
01
 10
39.5424297204496
 20
-273.2571375015809
 30
0.0
 11
39.43302842510184
 21
-273.8041376145322
 31
0.0
  0
LINE
  5
1F2F
  8
01
 10
37.07363723735011
 20
-270.0071375015807
 30
0.0
 11
36.96363595761306
 21
-270.5571375015808
 31
0.0
  0
LINE
  5
1F30
  8
01
 10
35.47363723734998
 20
-270.0071375015807
 30
0.0
 11
35.36363595761304
 21
-270.5571375015808
 31
0.0
  0
LINE
  5
1F31
  8
01
 10
40.27363723735425
 20
-270.0071375015809
 30
0.0
 11
40.16363595761686
 21
-270.5571375015808
 31
0.0
  0
LINE
  5
1F32
  8
01
 10
38.67363723735002
 20
-270.0071375015807
 30
0.0
 11
38.56363595761309
 21
-270.5571375015808
 31
0.0
  0
LINE
  5
1F33
  8
01
 10
43.85364212351431
 20
-271.9071840374787
 30
0.0
 11
43.4736372373543
 21
-270.0071375015809
 31
0.0
  0
LINE
  5
1F34
  8
01
 10
42.63302842510211
 20
-273.8041376145321
 30
0.0
 11
41.87363723735439
 21
-270.0071375015809
 31
0.0
  0
LINE
  5
1F35
  8
01
 10
42.74242972044976
 20
-273.2571375015809
 30
0.0
 11
42.63302842510211
 21
-273.8041376145321
 31
0.0
  0
LINE
  5
1F36
  8
01
 10
43.4736372373543
 20
-270.0071375015809
 30
0.0
 11
43.36363595761691
 21
-270.5571375015808
 31
0.0
  0
LINE
  5
1F37
  8
01
 10
41.87363723735439
 20
-270.0071375015809
 30
0.0
 11
41.763635957617
 21
-270.5571375015808
 31
0.0
  0
LINE
  5
1F38
  8
01
 10
49.29112467265293
 20
-275.4071636780233
 30
0.0
 11
49.29114096021715
 21
-268.4071636780237
 31
0.0
  0
LINE
  5
1F39
  8
01
 10
49.39112467265318
 20
-275.4071636780233
 30
0.0
 11
49.3911409602174
 21
-268.4071636780236
 31
0.0
  0
LINE
  5
1F3A
  8
01
 10
49.29112467265293
 20
-275.4071636780233
 30
0.0
 11
49.39112467265318
 21
-275.4071636780233
 31
0.0
  0
LINE
  5
1F3B
  8
01
 10
49.29114096021715
 20
-268.4071636780237
 30
0.0
 11
49.3911409602174
 21
-268.4071636780236
 31
0.0
  0
LINE
  5
1F3C
  8
01
 10
47.29114386888
 20
-270.4071375015808
 30
0.0
 11
47.29111245711397
 21
-273.407137501581
 31
0.0
  0
LINE
  5
1F3D
  8
01
 10
44.29114386871549
 20
-270.4071375015808
 30
0.0
 11
44.29111245694946
 21
-273.407137501581
 31
0.0
  0
LINE
  5
1F3E
  8
01
 10
24.39113281632035
 20
-271.9071840374787
 30
0.0
 11
29.69097187983527
 21
-270.5571375015808
 31
0.0
  0
LINE
  5
1F3F
  8
01
 10
24.39113281632035
 20
-271.9071840374787
 30
0.0
 11
29.69096489945059
 21
-273.257137501581
 31
0.0
  0
LINE
  5
1F40
  8
01
 10
11.29112467265293
 20
-284.9071636780233
 30
0.0
 11
9.291112457113968
 21
-282.9071375015809
 31
0.0
  0
LINE
  5
1F41
  8
01
 10
11.29114096021715
 20
-277.9071636780237
 30
0.0
 11
9.291143868879885
 21
-279.9071375015809
 31
0.0
  0
LINE
  5
1F42
  8
1CENTER
 10
-15.17300452224822
 20
-281.4071840374787
 30
0.0
 11
13.57749243478679
 21
-281.4071840374787
 31
0.0
  0
LINE
  5
1F43
  8
01
 10
-3.366971574898116
 20
-283.3041376145324
 30
0.0
 11
-4.126362762649933
 21
-279.5071375015807
 31
0.0
  0
LINE
  5
1F44
  8
01
 10
-8.309035100549409
 20
-282.757137501581
 30
0.0
 11
6.291114027537787
 21
-282.7571375015809
 31
0.0
  0
LINE
  5
1F45
  8
01
 10
6.291112456949463
 20
-282.907137501581
 30
0.0
 11
9.291112457113968
 21
-282.907137501581
 31
0.0
  0
LINE
  5
1F46
  8
01
 10
-8.309028120164726
 20
-280.0571375015808
 30
0.0
 11
6.29114229812717
 21
-280.0571375015808
 31
0.0
  0
LINE
  5
1F47
  8
01
 10
6.291143868715494
 20
-279.9071375015808
 30
0.0
 11
9.291143868879999
 21
-279.9071375015808
 31
0.0
  0
LINE
  5
1F48
  8
01
 10
-11.34636972993349
 20
-282.5015078514738
 30
0.0
 11
-12.14636516398446
 21
-280.5391727625985
 31
0.0
  0
LINE
  5
1F49
  8
01
 10
-12.14636516398446
 20
-280.5391727625985
 30
0.0
 11
-12.44992790441006
 21
-281.1119633825602
 31
0.0
  0
LINE
  5
1F4A
  8
01
 10
-8.167571559287808
 20
-283.3071375015809
 30
0.0
 11
-8.94636305677318
 21
-279.6335445537849
 31
0.0
  0
LINE
  5
1F4B
  8
01
 10
-9.746370783537714
 20
-282.9543213595222
 30
0.0
 11
-10.54636411037882
 21
-280.0863586581917
 31
0.0
  0
LINE
  5
1F4C
  8
01
 10
-4.966971574898139
 20
-283.3041376145324
 30
0.0
 11
-5.726362762650069
 21
-279.5071375015807
 31
0.0
  0
LINE
  5
1F4D
  8
01
 10
-6.566971574898162
 20
-283.3041376145322
 30
0.0
 11
-7.326362762649978
 21
-279.5071375015807
 31
0.0
  0
LINE
  5
1F4E
  8
01
 10
-9.618512918581018
 20
-282.4235921950715
 30
0.0
 11
-9.746370783537714
 21
-282.9543213595222
 31
0.0
  0
LINE
  5
1F4F
  8
01
 10
-8.0575702795511
 20
-282.7571375015809
 30
0.0
 11
-8.167571559287808
 21
-283.3071375015809
 31
0.0
  0
LINE
  5
1F50
  8
01
 10
-11.18812684554678
 20
-282.0237859889927
 30
0.0
 11
-11.34636972993349
 21
-282.5015078514738
 31
0.0
  0
LINE
  5
1F51
  8
01
 10
-6.457570279551192
 20
-282.7571375015809
 30
0.0
 11
-6.566971574898162
 21
-283.3041376145322
 31
0.0
  0
LINE
  5
1F52
  8
01
 10
-4.857570279551055
 20
-282.7571375015809
 30
0.0
 11
-4.966971574898139
 21
-283.3041376145324
 31
0.0
  0
LINE
  5
1F53
  8
01
 10
-10.54636411037882
 20
-280.0863586581917
 30
0.0
 11
-10.74197471217019
 21
-280.6768904939262
 31
0.0
  0
LINE
  5
1F54
  8
01
 10
-8.94636305677318
 20
-279.6335445537849
 30
0.0
 11
-9.096751613016181
 21
-280.2577970612439
 31
0.0
  0
LINE
  5
1F55
  8
01
 10
-5.726362762650069
 20
-279.5071375015807
 30
0.0
 11
-5.836364042386663
 21
-280.0571375015808
 31
0.0
  0
LINE
  5
1F56
  8
01
 10
-7.326362762649978
 20
-279.5071375015807
 30
0.0
 11
-7.436364042386913
 21
-280.0571375015808
 31
0.0
  0
LINE
  5
1F57
  8
01
 10
-4.126362762649933
 20
-279.5071375015807
 30
0.0
 11
-4.236364042386867
 21
-280.0571375015808
 31
0.0
  0
LINE
  5
1F58
  8
01
 10
-0.1669715748980707
 20
-283.3041376145326
 30
0.0
 11
-0.9263627626498874
 21
-279.5071375015807
 31
0.0
  0
LINE
  5
1F59
  8
01
 10
1.433028425101838
 20
-283.3041376145322
 30
0.0
 11
0.6736372373500217
 21
-279.5071375015807
 31
0.0
  0
LINE
  5
1F5A
  8
01
 10
3.033028425101975
 20
-283.3041376145321
 30
0.0
 11
2.273637237354251
 21
-279.5071375015809
 31
0.0
  0
LINE
  5
1F5B
  8
01
 10
-1.766971574898207
 20
-283.3041376145324
 30
0.0
 11
-2.526362762650024
 21
-279.5071375015807
 31
0.0
  0
LINE
  5
1F5C
  8
01
 10
-1.657570279551237
 20
-282.7571375015809
 30
0.0
 11
-1.766971574898207
 21
-283.3041376145324
 31
0.0
  0
LINE
  5
1F5D
  8
01
 10
-3.257570279551032
 20
-282.7571375015809
 30
0.0
 11
-3.366971574898116
 21
-283.3041376145324
 31
0.0
  0
LINE
  5
1F5E
  8
01
 10
-0.0575702795509869
 20
-282.757137501581
 30
0.0
 11
-0.1669715748980707
 21
-283.3041376145326
 31
0.0
  0
LINE
  5
1F5F
  8
01
 10
3.142429720449627
 20
-282.7571375015809
 30
0.0
 11
3.033028425101975
 21
-283.3041376145321
 31
0.0
  0
LINE
  5
1F60
  8
01
 10
1.542429720449604
 20
-282.7571375015809
 30
0.0
 11
1.433028425101838
 21
-283.3041376145322
 31
0.0
  0
LINE
  5
1F61
  8
01
 10
-0.9263627626498874
 20
-279.5071375015807
 30
0.0
 11
-1.036364042386936
 21
-280.0571375015808
 31
0.0
  0
LINE
  5
1F62
  8
01
 10
-2.526362762650024
 20
-279.5071375015807
 30
0.0
 11
-2.636364042386958
 21
-280.0571375015808
 31
0.0
  0
LINE
  5
1F63
  8
01
 10
2.273637237354251
 20
-279.5071375015809
 30
0.0
 11
2.163635957616862
 21
-280.0571375015808
 31
0.0
  0
LINE
  5
1F64
  8
01
 10
0.6736372373500217
 20
-279.5071375015807
 30
0.0
 11
0.5636359576130872
 21
-280.0571375015808
 31
0.0
  0
LINE
  5
1F65
  8
01
 10
5.853642123514305
 20
-281.4071840374787
 30
0.0
 11
5.473637237354296
 21
-279.5071375015809
 31
0.0
  0
LINE
  5
1F66
  8
01
 10
4.633028425102111
 20
-283.3041376145321
 30
0.0
 11
3.873637237354387
 21
-279.5071375015809
 31
0.0
  0
LINE
  5
1F67
  8
01
 10
4.742429720449763
 20
-282.7571375015809
 30
0.0
 11
4.633028425102111
 21
-283.3041376145321
 31
0.0
  0
LINE
  5
1F68
  8
01
 10
5.473637237354296
 20
-279.5071375015809
 30
0.0
 11
5.363635957616907
 21
-280.0571375015808
 31
0.0
  0
LINE
  5
1F69
  8
01
 10
3.873637237354387
 20
-279.5071375015809
 30
0.0
 11
3.763635957616998
 21
-280.0571375015808
 31
0.0
  0
LINE
  5
1F6A
  8
01
 10
11.29112467265293
 20
-284.9071636780233
 30
0.0
 11
11.29114096021715
 21
-277.9071636780237
 31
0.0
  0
LINE
  5
1F6B
  8
01
 10
11.39112467265318
 20
-284.9071636780233
 30
0.0
 11
11.3911409602174
 21
-277.9071636780236
 31
0.0
  0
LINE
  5
1F6C
  8
01
 10
11.29112467265293
 20
-284.9071636780233
 30
0.0
 11
11.39112467265318
 21
-284.9071636780233
 31
0.0
  0
LINE
  5
1F6D
  8
01
 10
11.29114096021715
 20
-277.9071636780237
 30
0.0
 11
11.3911409602174
 21
-277.9071636780236
 31
0.0
  0
LINE
  5
1F6E
  8
01
 10
9.291143868879999
 20
-279.9071375015808
 30
0.0
 11
9.291112457113968
 21
-282.907137501581
 31
0.0
  0
LINE
  5
1F6F
  8
01
 10
6.291143868715494
 20
-279.9071375015808
 30
0.0
 11
6.291112456949463
 21
-282.907137501581
 31
0.0
  0
LINE
  5
1F70
  8
01
 10
-13.60886718367965
 20
-281.4071840374787
 30
0.0
 11
-8.309028120164726
 21
-280.0571375015808
 31
0.0
  0
LINE
  5
1F71
  8
01
 10
-13.60886718367965
 20
-281.4071840374787
 30
0.0
 11
-8.309035100549409
 21
-282.757137501581
 31
0.0
  0
LINE
  5
1F72
  8
01
 10
49.29112467265293
 20
-284.9071636780233
 30
0.0
 11
47.29111245711397
 21
-282.9071375015809
 31
0.0
  0
LINE
  5
1F73
  8
01
 10
49.29114096021715
 20
-277.9071636780237
 30
0.0
 11
47.29114386887989
 21
-279.9071375015809
 31
0.0
  0
LINE
  5
1F74
  8
1CENTER
 10
22.82699547775178
 20
-281.4071840374787
 30
0.0
 11
51.57749243478679
 21
-281.4071840374787
 31
0.0
  0
LINE
  5
1F75
  8
01
 10
34.63302842510188
 20
-283.3041376145324
 30
0.0
 11
33.87363723735007
 21
-279.5071375015807
 31
0.0
  0
LINE
  5
1F76
  8
01
 10
29.69096489945059
 20
-282.757137501581
 30
0.0
 11
44.29111402753779
 21
-282.7571375015809
 31
0.0
  0
LINE
  5
1F77
  8
01
 10
44.29111245694946
 20
-282.907137501581
 30
0.0
 11
47.29111245711397
 21
-282.907137501581
 31
0.0
  0
LINE
  5
1F78
  8
01
 10
29.69097187983527
 20
-280.0571375015808
 30
0.0
 11
44.29114229812717
 21
-280.0571375015808
 31
0.0
  0
LINE
  5
1F79
  8
01
 10
44.29114386871549
 20
-279.9071375015808
 30
0.0
 11
47.29114386888
 21
-279.9071375015808
 31
0.0
  0
LINE
  5
1F7A
  8
01
 10
26.65363027006651
 20
-282.5015078514738
 30
0.0
 11
25.85363483601554
 21
-280.5391727625985
 31
0.0
  0
LINE
  5
1F7B
  8
01
 10
25.85363483601554
 20
-280.5391727625985
 30
0.0
 11
25.55007209558994
 21
-281.1119633825602
 31
0.0
  0
LINE
  5
1F7C
  8
01
 10
29.83242844071219
 20
-283.3071375015809
 30
0.0
 11
29.05363694322682
 21
-279.6335445537849
 31
0.0
  0
LINE
  5
1F7D
  8
01
 10
28.25362921646229
 20
-282.9543213595222
 30
0.0
 11
27.45363588962118
 21
-280.0863586581917
 31
0.0
  0
LINE
  5
1F7E
  8
01
 10
33.03302842510186
 20
-283.3041376145324
 30
0.0
 11
32.27363723734993
 21
-279.5071375015807
 31
0.0
  0
LINE
  5
1F7F
  8
01
 10
31.43302842510184
 20
-283.3041376145322
 30
0.0
 11
30.67363723735002
 21
-279.5071375015807
 31
0.0
  0
LINE
  5
1F80
  8
01
 10
28.38148708141898
 20
-282.4235921950715
 30
0.0
 11
28.25362921646229
 21
-282.9543213595222
 31
0.0
  0
LINE
  5
1F81
  8
01
 10
29.9424297204489
 20
-282.7571375015809
 30
0.0
 11
29.83242844071219
 21
-283.3071375015809
 31
0.0
  0
LINE
  5
1F82
  8
01
 10
26.81187315445322
 20
-282.0237859889927
 30
0.0
 11
26.65363027006651
 21
-282.5015078514738
 31
0.0
  0
LINE
  5
1F83
  8
01
 10
31.54242972044881
 20
-282.7571375015809
 30
0.0
 11
31.43302842510184
 21
-283.3041376145322
 31
0.0
  0
LINE
  5
1F84
  8
01
 10
33.14242972044894
 20
-282.7571375015809
 30
0.0
 11
33.03302842510186
 21
-283.3041376145324
 31
0.0
  0
LINE
  5
1F85
  8
01
 10
27.45363588962118
 20
-280.0863586581917
 30
0.0
 11
27.25802528782981
 21
-280.6768904939262
 31
0.0
  0
LINE
  5
1F86
  8
01
 10
29.05363694322682
 20
-279.6335445537849
 30
0.0
 11
28.90324838698382
 21
-280.2577970612439
 31
0.0
  0
LINE
  5
1F87
  8
01
 10
32.27363723734993
 20
-279.5071375015807
 30
0.0
 11
32.16363595761334
 21
-280.0571375015808
 31
0.0
  0
LINE
  5
1F88
  8
01
 10
30.67363723735002
 20
-279.5071375015807
 30
0.0
 11
30.56363595761309
 21
-280.0571375015808
 31
0.0
  0
LINE
  5
1F89
  8
01
 10
33.87363723735007
 20
-279.5071375015807
 30
0.0
 11
33.76363595761313
 21
-280.0571375015808
 31
0.0
  0
LINE
  5
1F8A
  8
01
 10
37.83302842510193
 20
-283.3041376145326
 30
0.0
 11
37.07363723735011
 21
-279.5071375015807
 31
0.0
  0
LINE
  5
1F8B
  8
01
 10
39.43302842510184
 20
-283.3041376145322
 30
0.0
 11
38.67363723735002
 21
-279.5071375015807
 31
0.0
  0
LINE
  5
1F8C
  8
01
 10
41.03302842510197
 20
-283.3041376145321
 30
0.0
 11
40.27363723735425
 21
-279.5071375015809
 31
0.0
  0
LINE
  5
1F8D
  8
01
 10
36.23302842510179
 20
-283.3041376145324
 30
0.0
 11
35.47363723734998
 21
-279.5071375015807
 31
0.0
  0
LINE
  5
1F8E
  8
01
 10
36.34242972044876
 20
-282.7571375015809
 30
0.0
 11
36.23302842510179
 21
-283.3041376145324
 31
0.0
  0
LINE
  5
1F8F
  8
01
 10
34.74242972044897
 20
-282.7571375015809
 30
0.0
 11
34.63302842510188
 21
-283.3041376145324
 31
0.0
  0
LINE
  5
1F90
  8
01
 10
37.94242972044901
 20
-282.757137501581
 30
0.0
 11
37.83302842510193
 21
-283.3041376145326
 31
0.0
  0
LINE
  5
1F91
  8
01
 10
41.14242972044963
 20
-282.7571375015809
 30
0.0
 11
41.03302842510197
 21
-283.3041376145321
 31
0.0
  0
LINE
  5
1F92
  8
01
 10
39.5424297204496
 20
-282.7571375015809
 30
0.0
 11
39.43302842510184
 21
-283.3041376145322
 31
0.0
  0
LINE
  5
1F93
  8
01
 10
37.07363723735011
 20
-279.5071375015807
 30
0.0
 11
36.96363595761306
 21
-280.0571375015808
 31
0.0
  0
LINE
  5
1F94
  8
01
 10
35.47363723734998
 20
-279.5071375015807
 30
0.0
 11
35.36363595761304
 21
-280.0571375015808
 31
0.0
  0
LINE
  5
1F95
  8
01
 10
40.27363723735425
 20
-279.5071375015809
 30
0.0
 11
40.16363595761686
 21
-280.0571375015808
 31
0.0
  0
LINE
  5
1F96
  8
01
 10
38.67363723735002
 20
-279.5071375015807
 30
0.0
 11
38.56363595761309
 21
-280.0571375015808
 31
0.0
  0
LINE
  5
1F97
  8
01
 10
43.85364212351431
 20
-281.4071840374787
 30
0.0
 11
43.4736372373543
 21
-279.5071375015809
 31
0.0
  0
LINE
  5
1F98
  8
01
 10
42.63302842510211
 20
-283.3041376145321
 30
0.0
 11
41.87363723735439
 21
-279.5071375015809
 31
0.0
  0
LINE
  5
1F99
  8
01
 10
42.74242972044976
 20
-282.7571375015809
 30
0.0
 11
42.63302842510211
 21
-283.3041376145321
 31
0.0
  0
LINE
  5
1F9A
  8
01
 10
43.4736372373543
 20
-279.5071375015809
 30
0.0
 11
43.36363595761691
 21
-280.0571375015808
 31
0.0
  0
LINE
  5
1F9B
  8
01
 10
41.87363723735439
 20
-279.5071375015809
 30
0.0
 11
41.763635957617
 21
-280.0571375015808
 31
0.0
  0
LINE
  5
1F9C
  8
01
 10
49.29112467265293
 20
-284.9071636780233
 30
0.0
 11
49.29114096021715
 21
-277.9071636780237
 31
0.0
  0
LINE
  5
1F9D
  8
01
 10
49.39112467265318
 20
-284.9071636780233
 30
0.0
 11
49.3911409602174
 21
-277.9071636780236
 31
0.0
  0
LINE
  5
1F9E
  8
01
 10
49.29112467265293
 20
-284.9071636780233
 30
0.0
 11
49.39112467265318
 21
-284.9071636780233
 31
0.0
  0
LINE
  5
1F9F
  8
01
 10
49.29114096021715
 20
-277.9071636780237
 30
0.0
 11
49.3911409602174
 21
-277.9071636780236
 31
0.0
  0
LINE
  5
1FA0
  8
01
 10
47.29114386888
 20
-279.9071375015808
 30
0.0
 11
47.29111245711397
 21
-282.907137501581
 31
0.0
  0
LINE
  5
1FA1
  8
01
 10
44.29114386871549
 20
-279.9071375015808
 30
0.0
 11
44.29111245694946
 21
-282.907137501581
 31
0.0
  0
LINE
  5
1FA2
  8
01
 10
24.39113281632035
 20
-281.4071840374787
 30
0.0
 11
29.69097187983527
 21
-280.0571375015808
 31
0.0
  0
LINE
  5
1FA3
  8
01
 10
24.39113281632035
 20
-281.4071840374787
 30
0.0
 11
29.69096489945059
 21
-282.757137501581
 31
0.0
  0
LINE
  5
22B9
  8
01
 10
22.30639617444996
 20
-91.1647981183437
 30
0.0
 11
68.40639617445004
 21
-91.1647981183437
 31
0.0
  0
LINE
  5
22BA
  8
01
 10
72.40639617445004
 20
-95.1647981183437
 30
0.0
 11
72.40639617445004
 21
-136.6647981183437
 31
0.0
  0
LINE
  5
22BB
  8
01
 10
68.40639617444992
 20
-193.1647981183435
 30
0.0
 11
22.30639617444996
 21
-193.1647981183438
 31
0.0
  0
LINE
  5
22BC
  8
1CENTER
 10
27.90639617444998
 20
-85.46479811834365
 30
0.0
 11
27.90639617445004
 21
-203.3259367409582
 31
0.0
  0
LINE
  5
22C0
  8
01
 10
22.30639617444996
 20
-140.6647981183437
 30
0.0
 11
68.40639617445004
 21
-140.6647981183437
 31
0.0
  0
LINE
  5
22C2
  8
01
 10
68.40639617444975
 20
-143.6647981183436
 30
0.0
 11
22.30639617444996
 21
-143.6647981183437
 31
0.0
  0
LINE
  5
22C4
  8
01
 10
72.40639617444975
 20
-147.6647981183436
 30
0.0
 11
72.40639617444992
 21
-189.1647981183435
 31
0.0
  0
LINE
  5
22C5
  8
01
 10
33.50639617445
 20
-91.06479811834367
 30
0.0
 11
33.50639617445006
 21
-193.2647981183438
 31
0.0
  0
LINE
  5
22C6
  8
01
 10
22.30639617444996
 20
-91.06479811834367
 30
0.0
 11
22.30639617445001
 21
-193.2647981183438
 31
0.0
  0
ARC
  5
22C7
  8
01
 10
27.90639617444998
 20
-91.06479811834367
 30
0.0
 40
5.600000000000023
 50
0.0
 51
180.0
  0
ARC
  5
22C8
  8
01
 10
27.90639617445004
 20
-193.2647981183438
 30
0.0
 40
5.600000000000023
 50
180.0
 51
0.0
  0
CIRCLE
  5
22CD
  8
01
 10
64.40639617444998
 20
-185.9147981183436
 30
0.0
 40
3.0
  0
CIRCLE
  5
22CE
  8
01
 10
48.40639617444998
 20
-185.9147981183437
 30
0.0
 40
3.0
  0
CIRCLE
  5
22CF
  8
01
 10
48.40639617444992
 20
-150.9147981183436
 30
0.0
 40
3.0
  0
CIRCLE
  5
22D0
  8
01
 10
64.40639617444992
 20
-150.9147981183436
 30
0.0
 40
3.0
  0
CIRCLE
  5
22DB
  8
01
 10
64.40639617445004
 20
-133.4147981183437
 30
0.0
 40
3.0
  0
CIRCLE
  5
22DC
  8
01
 10
48.40639617445004
 20
-133.4147981183437
 30
0.0
 40
3.0
  0
CIRCLE
  5
22DF
  8
01
 10
64.40639617445004
 20
-98.4147981183437
 30
0.0
 40
3.0
  0
CIRCLE
  5
22E0
  8
01
 10
48.40639617445004
 20
-98.4147981183437
 30
0.0
 40
3.0
  0
LINE
  5
22F0
  8
1PHANTOM
 10
-12.59360382554968
 20
-143.6647981183437
 30
0.0
 11
22.30639617444984
 21
-143.6647981183437
 31
0.0
  0
LINE
  5
22F1
  8
1PHANTOM
 10
-16.59360382554968
 20
-147.6647981183437
 30
0.0
 11
-16.59360382554968
 21
-189.1647981183437
 31
0.0
  0
LINE
  5
22F2
  8
1PHANTOM
 10
-12.59360382554968
 20
-193.1647981183437
 30
0.0
 11
22.30639617444979
 21
-193.1647981183437
 31
0.0
  0
CIRCLE
  5
22F3
  8
1PHANTOM
 10
7.406396174450151
 20
-150.9147981183436
 30
0.0
 40
3.0
  0
CIRCLE
  5
22F4
  8
1PHANTOM
 10
-8.593603825549849
 20
-150.9147981183436
 30
0.0
 40
3.0
  0
CIRCLE
  5
22F5
  8
1PHANTOM
 10
-8.593603825549906
 20
-185.9147981183436
 30
0.0
 40
3.0
  0
CIRCLE
  5
22F6
  8
1PHANTOM
 10
7.406396174450094
 20
-185.9147981183437
 30
0.0
 40
3.0
  0
ARC
  5
22FC
  8
01
 10
68.40639617445004
 20
-95.1647981183437
 30
0.0
 40
4.0
 50
0.0
 51
90.0
  0
ARC
  5
22FD
  8
01
 10
68.40639617445004
 20
-136.6647981183437
 30
0.0
 40
4.0
 50
270.0
 51
0.0
  0
ARC
  5
22FE
  8
01
 10
68.40639617444975
 20
-147.6647981183436
 30
0.0
 40
4.0
 50
0.0
 51
90.0
  0
ARC
  5
22FF
  8
01
 10
68.40639617444992
 20
-189.1647981183435
 30
0.0
 40
4.0
 50
270.0
 51
0.0
  0
ARC
  5
2301
  8
1PHANTOM
 10
-12.59360382554968
 20
-147.6647981183437
 30
0.0
 40
4.0
 50
90.0
 51
180.0
  0
ARC
  5
2302
  8
1PHANTOM
 10
-12.59360382554968
 20
-189.1647981183437
 30
0.0
 40
4.0
 50
180.0
 51
270.0
  0
CIRCLE
  5
2306
  8
01
 10
64.40639617445004
 20
-98.4147981183437
 30
0.0
 40
3.75
  0
CIRCLE
  5
2307
  8
01
 10
48.40639617445004
 20
-98.4147981183437
 30
0.0
 40
3.75
  0
CIRCLE
  5
2308
  8
01
 10
48.40639617445004
 20
-133.4147981183437
 30
0.0
 40
3.75
  0
CIRCLE
  5
2309
  8
01
 10
64.40639617445004
 20
-133.4147981183437
 30
0.0
 40
3.75
  0
CIRCLE
  5
230A
  8
01
 10
64.40639617444992
 20
-150.9147981183436
 30
0.0
 40
3.75
  0
CIRCLE
  5
230B
  8
01
 10
48.40639617444992
 20
-150.9147981183436
 30
0.0
 40
3.75
  0
CIRCLE
  5
230C
  8
01
 10
48.40639617444998
 20
-185.9147981183436
 30
0.0
 40
3.75
  0
CIRCLE
  5
230D
  8
01
 10
64.40639617444998
 20
-185.9147981183436
 30
0.0
 40
3.75
  0
CIRCLE
  5
230E
  8
1PHANTOM
 10
-8.593603825549849
 20
-150.9147981183436
 30
0.0
 40
3.75
  0
CIRCLE
  5
230F
  8
1PHANTOM
 10
-8.593603825549792
 20
-185.9147981183436
 30
0.0
 40
3.75
  0
CIRCLE
  5
2310
  8
1PHANTOM
 10
7.406396174450208
 20
-185.9147981183436
 30
0.0
 40
3.75
  0
CIRCLE
  5
2311
  8
1PHANTOM
 10
7.406396174450151
 20
-150.9147981183436
 30
0.0
 40
3.75
  0
LINE
  5
2329
  8
1HIDDEN
 10
24.40639617445021
 20
-118.6647981183437
 30
0.0
 11
24.40639617445021
 21
-140.6647981183437
 31
0.0
  0
LINE
  5
232B
  8
1HIDDEN
 10
31.40639617444998
 20
-118.6647981183437
 30
0.0
 11
31.40639617444998
 21
-140.6647981183437
 31
0.0
  0
LINE
  5
233A
  8
1HIDDEN
 10
24.40639617445021
 20
-118.6647981183437
 30
0.0
 11
31.40639617444998
 21
-118.6647981183437
 31
0.0
  0
LINE
  5
24D6
  8
1CENTER
 10
53.35849472790176
 20
-98.4147981183437
 30
0.0
 11
43.45429762099832
 21
-98.4147981183437
 31
0.0
  0
LINE
  5
24D7
  8
1CENTER
 10
48.40639617445004
 20
-93.46269956489195
 30
0.0
 11
48.40639617445004
 21
-103.3668966717954
 31
0.0
  0
LINE
  5
24D9
  8
1CENTER
 10
69.35849472790176
 20
-98.4147981183437
 30
0.0
 11
59.45429762099832
 21
-98.4147981183437
 31
0.0
  0
LINE
  5
24DA
  8
1CENTER
 10
64.40639617445004
 20
-93.46269956489195
 30
0.0
 11
64.40639617445004
 21
-103.3668966717954
 31
0.0
  0
LINE
  5
24DB
  8
1CENTER
 10
69.35849472790176
 20
-133.4147981183437
 30
0.0
 11
59.45429762099832
 21
-133.4147981183437
 31
0.0
  0
LINE
  5
24DC
  8
1CENTER
 10
64.40639617445004
 20
-128.4626995648919
 30
0.0
 11
64.40639617445004
 21
-138.3668966717954
 31
0.0
  0
LINE
  5
24DD
  8
1CENTER
 10
53.35849472790176
 20
-133.4147981183437
 30
0.0
 11
43.45429762099832
 21
-133.4147981183437
 31
0.0
  0
LINE
  5
24DE
  8
1CENTER
 10
48.40639617445004
 20
-128.4626995648919
 30
0.0
 11
48.40639617445004
 21
-138.3668966717954
 31
0.0
  0
LINE
  5
24DF
  8
1CENTER
 10
53.35849472790164
 20
-150.9147981183436
 30
0.0
 11
43.4542976209982
 21
-150.9147981183436
 31
0.0
  0
LINE
  5
24E0
  8
1CENTER
 10
48.40639617444992
 20
-145.9626995648919
 30
0.0
 11
48.40639617444992
 21
-155.8668966717954
 31
0.0
  0
LINE
  5
24E1
  8
1CENTER
 10
69.35849472790164
 20
-150.9147981183436
 30
0.0
 11
59.4542976209982
 21
-150.9147981183436
 31
0.0
  0
LINE
  5
24E2
  8
1CENTER
 10
64.40639617444992
 20
-145.9626995648918
 30
0.0
 11
64.40639617444992
 21
-155.8668966717953
 31
0.0
  0
LINE
  5
24E3
  8
1CENTER
 10
69.3584947279017
 20
-185.9147981183436
 30
0.0
 11
59.45429762099826
 21
-185.9147981183436
 31
0.0
  0
LINE
  5
24E4
  8
1CENTER
 10
64.40639617444998
 20
-180.9626995648918
 30
0.0
 11
64.40639617444998
 21
-190.8668966717953
 31
0.0
  0
LINE
  5
24E5
  8
1CENTER
 10
53.3584947279017
 20
-185.9147981183437
 30
0.0
 11
43.45429762099826
 21
-185.9147981183437
 31
0.0
  0
LINE
  5
24E6
  8
1CENTER
 10
48.40639617444998
 20
-180.9626995648919
 30
0.0
 11
48.40639617444998
 21
-190.8668966717954
 31
0.0
  0
LINE
  5
24F7
  8
1CENTER
 10
56.40639617445004
 20
-93.46269956489195
 30
0.0
 11
56.40639617445004
 21
-188.6344714867741
 31
0.0
  0
TEXT
  5
2718
  8
1TEXT
 10
115.5052505989115
 20
-237.7055043342076
 30
0.0
 40
3.0
  1
クローム
 72
     1
 11
122.6052505989115
 21
-237.7055043342076
 31
0.0
  0
TEXT
  5
2719
  8
1TEXT
 10
112.0852505989115
 20
-242.9555043342076
 30
0.0
 40
3.0
  1
SUSヘアライン
 41
0.8
 72
     1
 11
122.6052505989115
 21
-242.9555043342076
 31
0.0
  0
TEXT
  5
271A
  8
1TEXT
 10
110.4552505989115
 20
-253.4555043342077
 30
0.0
 40
3.0
  1
ダークアンバー
 72
     1
 11
122.6052505989115
 21
-253.4555043342077
 31
0.0
  0
TEXT
  5
271B
  8
1TEXT
 10
112.4052505989115
 20
-248.2055043342076
 30
0.0
 40
3.0
  1
ミラーニッケル
 41
0.8
 72
     1
 11
122.6052505989115
 21
-248.2055043342076
 31
0.0
  0
TEXT
  5
271D
  8
1TEXT
 10
115.8637895097209
 20
-232.2947365964704
 30
0.0
 40
3.0
  1
表面仕上
 72
     1
 11
122.8137895097209
 21
-232.2947365964704
 31
0.0
  0
TEXT
  5
271E
  8
1TEXT
 10
138.3552505989113
 20
-237.7055043342077
 30
0.0
 40
3.0
  1
AC-741-C
 72
     1
 11
149.3552505989113
 21
-237.7055043342077
 31
0.0
  0
TEXT
  5
271F
  8
1TEXT
 10
138.3552505989113
 20
-242.9555043342077
 30
0.0
 40
3.0
  1
AC-741-N
 72
     1
 11
149.3552505989113
 21
-242.9555043342077
 31
0.0
  0
TEXT
  5
2722
  8
1TEXT
 10
138.1015005989113
 20
-253.4555043342077
 30
0.0
 40
3.0
  1
AC-741-4Q
 41
0.9
 72
     1
 11
149.3552505989113
 21
-253.4555043342077
 31
0.0
  0
LINE
  5
367A
  8
1HATCH
 10
162.2637895097208
 20
-243.9197365964704
 30
0.0
 11
162.2637895097208
 21
-254.4197365964704
 31
0.0
  0
LINE
  5
367B
  8
1HATCH
 10
136.0137895097208
 20
-243.9197365964704
 30
0.0
 11
136.0137895097208
 21
-254.4197365964704
 31
0.0
  0
LINE
  5
367C
  8
1HATCH
 10
109.7637895097208
 20
-243.9197365964704
 30
0.0
 11
109.7637895097208
 21
-254.4197365964704
 31
0.0
  0
TEXT
  5
367F
  8
1TEXT
 10
138.3552505989113
 20
-248.2055043342077
 30
0.0
 40
3.0
  1
AC-741-D
 72
     1
 11
149.3552505989113
 21
-248.2055043342077
 31
0.0
  0
LINE
  5
3825
  8
1HATCH
 10
109.7637895097208
 20
-254.4197365964704
 30
0.0
 11
109.7637895097208
 21
-259.6697365964704
 31
0.0
  0
LINE
  5
3826
  8
1HATCH
 10
136.0137895097208
 20
-254.4197365964704
 30
0.0
 11
136.0137895097208
 21
-259.6697365964704
 31
0.0
  0
LINE
  5
3827
  8
1HATCH
 10
162.2637895097208
 20
-254.4197365964704
 30
0.0
 11
162.2637895097208
 21
-259.6697365964704
 31
0.0
  0
LINE
  5
3828
  8
1HATCH
 10
109.7637895097208
 20
-259.6697365964704
 30
0.0
 11
162.2637895097208
 21
-259.6697365964704
 31
0.0
  0
LINE
  5
3829
  8
1HATCH
 10
109.7637895097208
 20
-254.4197365964704
 30
0.0
 11
162.2637895097208
 21
-254.4197365964704
 31
0.0
  0
TEXT
  5
382A
  8
1TEXT
 10
110.4052505989115
 20
-258.7055043342077
 30
0.0
 40
3.0
  1
マットブラック
 72
     1
 11
122.6052505989115
 21
-258.7055043342077
 31
0.0
  0
TEXT
  5
382B
  8
1TEXT
 10
138.5552505989113
 20
-258.7055043342077
 30
0.0
 40
3.0
  1
AC-741-003
 41
0.8
 72
     1
 11
149.3552505989113
 21
-258.7055043342077
 31
0.0
  0
LINE
  5
3837
  8
1DIM
 10
72.40639617445004
 20
-224.3647981183439
 30
0.0
 11
77.52235617445
 21
-224.3647981183439
 31
0.0
  0
LINE
  5
3838
  8
1DIM
 10
72.40639617445004
 20
-222.3647981183439
 30
0.0
 11
77.52235617445001
 21
-222.3647981183439
 31
0.0
  0
LINE
  5
3839
  8
1DIM
 10
76.52235617445
 20
-226.3647981183439
 30
0.0
 11
76.52235617445
 21
-228.3647981183439
 31
0.0
  0
LINE
  5
383A
  8
1DIM
 10
76.52235617445001
 20
-220.3647981183439
 30
0.0
 11
76.52235617445001
 21
-214.6314647850105
 31
0.0
  0
LINE
  5
383B
  8
1DIM
 10
76.52235617445
 20
-224.3647981183439
 30
0.0
 11
76.52235617445001
 21
-222.3647981183439
 31
0.0
  0
LINE
  5
383F
  8
1DIM
 10
11.39112467265318
 20
-256.4071636780233
 30
0.0
 11
20.34918380900854
 21
-256.4071636780233
 31
0.0
1001
ACAD
1000
DSTYLE
1002
{
1070
     3
1000
φ<>
1070
   341
1005
0
1002
}
  0
LINE
  5
3840
  8
1DIM
 10
11.3911409602174
 20
-249.4071636780236
 30
0.0
 11
20.34918380900854
 21
-249.4071636780236
 31
0.0
1001
ACAD
1000
DSTYLE
1002
{
1070
     3
1000
φ<>
1070
   341
1005
0
1002
}
  0
LINE
  5
3841
  8
1DIM
 10
19.34918380900854
 20
-254.4071636780233
 30
0.0
 11
19.34918380900854
 21
-251.4071636780236
 31
0.0
1001
ACAD
1000
DSTYLE
1002
{
1070
     3
1000
φ<>
1070
   341
1005
0
1002
}
  0
LINE
  5
3842
  8
1DIM
 10
19.34918380900854
 20
-249.4071636780236
 30
0.0
 11
19.34918380900854
 21
-239.6738303446902
 31
0.0
1001
ACAD
1000
DSTYLE
1002
{
1070
     3
1000
φ<>
1070
   341
1005
0
1002
}
  0
LINE
  5
3846
  8
1DIM
 10
11.3911409602174
 20
-249.4071636780236
 30
0.0
 11
11.3911409602174
 21
-242.076418181318
 31
0.0
1001
ACAD
1000
DSTYLE
1002
{
1070
   341
1005
0
1002
}
  0
LINE
  5
3847
  8
1DIM
 10
-13.60886718367965
 20
-252.9071840374787
 30
0.0
 11
-13.60886718367965
 21
-242.076418181318
 31
0.0
1001
ACAD
1000
DSTYLE
1002
{
1070
   341
1005
0
1002
}
  0
LINE
  5
3848
  8
1DIM
 10
9.391140960217399
 20
-243.076418181318
 30
0.0
 11
-11.60886718367965
 21
-243.076418181318
 31
0.0
1001
ACAD
1000
DSTYLE
1002
{
1070
   341
1005
0
1002
}
  0
LINE
  5
384C
  8
1DIM
 10
-7.326362762649978
 20
-251.0071375015807
 30
0.0
 11
-21.40751713781151
 21
-251.0071375015807
 31
0.0
1001
ACAD
1000
DSTYLE
1002
{
1070
     3
1000
φ<>
1070
   271
1070
     1
1070
   341
1005
0
1002
}
  0
LINE
  5
384D
  8
1DIM
 10
-6.566971574898162
 20
-254.8041376145322
 30
0.0
 11
-21.40751713781151
 21
-254.8041376145322
 31
0.0
1001
ACAD
1000
DSTYLE
1002
{
1070
     3
1000
φ<>
1070
   271
1070
     1
1070
   341
1005
0
1002
}
  0
LINE
  5
384E
  8
1DIM
 10
-20.40751713781151
 20
-249.0071375015807
 30
0.0
 11
-20.40751713781151
 21
-247.0071375015807
 31
0.0
1001
ACAD
1000
DSTYLE
1002
{
1070
     3
1000
φ<>
1070
   271
1070
     1
1070
   341
1005
0
1002
}
  0
LINE
  5
384F
  8
1DIM
 10
-20.40751713781151
 20
-256.8041376145322
 30
0.0
 11
-20.40751713781151
 21
-271.5374709478656
 31
0.0
1001
ACAD
1000
DSTYLE
1002
{
1070
     3
1000
φ<>
1070
   271
1070
     1
1070
   341
1005
0
1002
}
  0
LINE
  5
3850
  8
1DIM
 10
-20.40751713781151
 20
-251.0071375015807
 30
0.0
 11
-20.40751713781151
 21
-254.8041376145322
 31
0.0
1001
ACAD
1000
DSTYLE
1002
{
1070
     3
1000
φ<>
1070
   271
1070
     1
1070
   341
1005
0
1002
}
  0
TEXT
  5
3854
  8
1TEXT
  6
CONTINUOUS
 10
-18.07246170979062
 20
-292.9385343883045
 30
0.0
 40
4.0
  1
φ3.8-25（D=7）
  0
TEXT
  5
3855
  8
1TEXT
  6
CONTINUOUS
 10
-17.00579504312395
 20
-299.6052010549712
 30
0.0
 40
4.0
  1
皿タッピンネジ（特）SUSx8
  0
LINE
  5
3856
  8
1DIM
 10
71.34980060789348
 20
-98.4147981183437
 30
0.0
 11
93.95843239611223
 21
-98.4147981183437
 31
0.0
  0
LINE
  5
3857
  8
1DIM
 10
69.72960239583108
 20
-133.4147981183437
 30
0.0
 11
93.95843239611223
 21
-133.4147981183437
 31
0.0
  0
LINE
  5
3858
  8
1DIM
 10
92.95843239611223
 20
-100.4147981183437
 30
0.0
 11
92.95843239611223
 21
-131.4147981183437
 31
0.0
  0
LINE
  5
385C
  8
1DIM
 10
48.40639617445004
 20
-93.48852522870129
 30
0.0
 11
48.40639617445004
 21
-72.7238678102915
 31
0.0
  0
LINE
  5
385D
  8
1DIM
 10
64.40639617445004
 20
-92.17973384280731
 30
0.0
 11
64.40639617445004
 21
-72.7238678102915
 31
0.0
  0
LINE
  5
385E
  8
1DIM
 10
50.40639617445004
 20
-73.7238678102915
 30
0.0
 11
62.40639617445004
 21
-73.7238678102915
 31
0.0
  0
LINE
  5
3862
  8
1DIM
 10
72.4063961744501
 20
-95.1647981183437
 30
0.0
 11
72.4063961744501
 21
-78.57130802155996
 31
0.0
  0
LINE
  5
3863
  8
1DIM
 10
56.40639617445004
 20
-93.46269956489195
 30
0.0
 11
56.40639617445004
 21
-78.57130802155996
 31
0.0
  0
LINE
  5
3864
  8
1DIM
 10
70.4063961744501
 20
-79.57130802155996
 30
0.0
 11
58.40639617445004
 21
-79.57130802155996
 31
0.0
  0
LINE
  5
3868
  8
1DIM
 10
24.40639617445004
 20
-119.6647981183436
 30
0.0
 11
24.40639617445004
 21
-110.3503466744278
 31
0.0
1001
ACAD
1000
DSTYLE
1002
{
1070
     3
1000
φ<>
1002
}
  0
LINE
  5
3869
  8
1DIM
 10
31.40639617445004
 20
-119.6647981183437
 30
0.0
 11
31.40639617445004
 21
-110.3503466744278
 31
0.0
1001
ACAD
1000
DSTYLE
1002
{
1070
     3
1000
φ<>
1002
}
  0
LINE
  5
386A
  8
1DIM
 10
29.40639617445004
 20
-111.3503466744278
 30
0.0
 11
26.40639617445004
 21
-111.3503466744278
 31
0.0
1001
ACAD
1000
DSTYLE
1002
{
1070
     3
1000
φ<>
1002
}
  0
LINE
  5
386B
  8
1DIM
 10
24.40639617445004
 20
-111.3503466744278
 30
0.0
 11
4.855484156594805
 21
-111.3503466744278
 31
0.0
1001
ACAD
1000
DSTYLE
1002
{
1070
     3
1000
φ<>
1002
}
  0
LINE
  5
386F
  8
1DIM
 10
24.90639617445004
 20
-118.6647981183436
 30
0.0
 11
-3.173630387356981
 21
-118.6647981183436
 31
0.0
1001
ACAD
1000
DSTYLE
1002
{
1070
    75
1070
     1
1002
}
  0
LINE
  5
3870
  8
1DIM
 10
-2.173630387356984
 20
-138.6647981183437
 30
0.0
 11
-2.17363038735698
 21
-120.6647981183436
 31
0.0
1001
ACAD
1000
DSTYLE
1002
{
1070
    75
1070
     1
1002
}
  0
LINE
  5
3874
  8
1DIM
 10
68.40639617445004
 20
-91.1647981183437
 30
0.0
 11
104.3965801152041
 21
-91.16479811834371
 31
0.0
  0
LINE
  5
3875
  8
1DIM
 10
68.40639617444992
 20
-193.1647981183435
 30
0.0
 11
104.396580115204
 21
-193.1647981183435
 31
0.0
  0
LINE
  5
3876
  8
1DIM
 10
103.3965801152041
 20
-93.16479811834371
 30
0.0
 11
103.396580115204
 21
-191.1647981183435
 31
0.0
  0
LINE
  5
387A
  8
1DIM
 10
27.90639617445004
 20
-198.8647981183438
 30
0.0
 11
-32.39319485411173
 21
-198.8647981183438
 31
0.0
1001
ACAD
1000
DSTYLE
1002
{
1070
    45
1040
0.5
1002
}
  0
LINE
  5
387B
  8
1DIM
 10
27.90639617444998
 20
-85.46479811834365
 30
0.0
 11
-32.39319485411171
 21
-85.46479811834364
 31
0.0
1001
ACAD
1000
DSTYLE
1002
{
1070
    45
1040
0.5
1002
}
  0
LINE
  5
387C
  8
1DIM
 10
-31.39319485411172
 20
-196.8647981183438
 30
0.0
 11
-31.3931948541117
 21
-87.46479811834365
 31
0.0
1001
ACAD
1000
DSTYLE
1002
{
1070
    45
1040
0.5
1002
}
  0
LINE
  5
3880
  8
1DIM
 10
-16.59360382554968
 20
-189.1647981183437
 30
0.0
 11
-16.59360382554968
 21
-213.8713470516575
 31
0.0
1001
ACAD
1000
DSTYLE
1002
{
1070
    47
1040
0.5
1070
    48
1040
0.5
1070
    71
1070
     0
1070
    72
1070
     0
1002
}
  0
LINE
  5
3881
  8
1DIM
 10
72.40639617444992
 20
-189.1647981183437
 30
0.0
 11
72.40639617444992
 21
-213.8713470516575
 31
0.0
1001
ACAD
1000
DSTYLE
1002
{
1070
    47
1040
0.5
1070
    48
1040
0.5
1070
    71
1070
     0
1070
    72
1070
     0
1002
}
  0
LINE
  5
3882
  8
1DIM
 10
-14.59360382554968
 20
-212.8713470516575
 30
0.0
 11
70.40639617444992
 21
-212.8713470516575
 31
0.0
1001
ACAD
1000
DSTYLE
1002
{
1070
    47
1040
0.5
1070
    48
1040
0.5
1070
    71
1070
     0
1070
    72
1070
     0
1002
}
  0
LINE
  5
3886
  8
1DIM
 10
64.40639617445004
 20
-93.46269956489195
 30
0.0
 11
64.40639617445004
 21
-72.7238678102915
 31
0.0
  0
LINE
  5
3887
  8
1DIM
 10
72.4063961744501
 20
-95.1647981183437
 30
0.0
 11
72.4063961744501
 21
-72.7238678102915
 31
0.0
  0
LINE
  5
3888
  8
1DIM
 10
66.40639617445004
 20
-73.7238678102915
 30
0.0
 11
70.4063961744501
 21
-73.7238678102915
 31
0.0
  0
LINE
  5
388C
  8
1DIM
 10
72.40639617445004
 20
-98.4147981183437
 30
0.0
 11
93.95843239611223
 21
-98.4147981183437
 31
0.0
  0
LINE
  5
388D
  8
1DIM
 10
68.40639617445004
 20
-91.1647981183437
 30
0.0
 11
93.95843239611224
 21
-91.1647981183437
 31
0.0
  0
LINE
  5
388E
  8
1DIM
 10
92.95843239611223
 20
-96.4147981183437
 30
0.0
 11
92.95843239611224
 21
-93.1647981183437
 31
0.0
  0
LINE
  5
388F
  8
1DIM
 10
92.95843239611224
 20
-91.1647981183437
 30
0.0
 11
92.95843239611224
 21
-77.09813145167702
 31
0.0
  0
LINE
  5
3893
  8
1DIM
 10
66.40639617445004
 20
-140.6647981183437
 30
0.0
 11
83.5759712621588
 21
-140.6647981183437
 31
0.0
  0
LINE
  5
3894
  8
1DIM
 10
72.40639617445004
 20
-133.4147981183437
 30
0.0
 11
83.5759712621588
 21
-133.4147981183437
 31
0.0
  0
LINE
  5
3895
  8
1DIM
 10
82.5759712621588
 20
-138.6647981183437
 30
0.0
 11
82.5759712621588
 21
-135.4147981183437
 31
0.0
  0
LINE
  5
3896
  8
1DIM
 10
82.5759712621588
 20
-133.4147981183437
 30
0.0
 11
82.5759712621588
 21
-119.348131451677
 31
0.0
  0
LINE
  5
389A
  8
1DIM
 10
69.35849472790164
 20
-150.9147981183436
 30
0.0
 11
93.9584323961122
 21
-150.9147981183436
 31
0.0
  0
LINE
  5
389B
  8
1DIM
 10
69.3584947279017
 20
-185.9147981183436
 30
0.0
 11
93.95843239611219
 21
-185.9147981183436
 31
0.0
  0
LINE
  5
389C
  8
1DIM
 10
92.9584323961122
 20
-152.9147981183436
 30
0.0
 11
92.95843239611219
 21
-183.9147981183436
 31
0.0
  0
LINE
  5
38A0
  8
1DIM
 10
68.40639617444975
 20
-143.6647981183436
 30
0.0
 11
83.57597126215876
 21
-143.6647981183436
 31
0.0
  0
LINE
  5
38A1
  8
1DIM
 10
69.35849472790164
 20
-150.9147981183436
 30
0.0
 11
83.57597126215876
 21
-150.9147981183436
 31
0.0
  0
LINE
  5
38A2
  8
1DIM
 10
82.57597126215876
 20
-145.6647981183436
 30
0.0
 11
82.57597126215876
 21
-148.9147981183436
 31
0.0
  0
LINE
  5
38A3
  8
1DIM
 10
82.57597126215876
 20
-150.9147981183436
 30
0.0
 11
82.57597126215875
 21
-164.9814647850102
 31
0.0
  0
LINE
  5
38A7
  8
1DIM
 10
69.3584947279017
 20
-185.9147981183436
 30
0.0
 11
93.95843239611219
 21
-185.9147981183436
 31
0.0
  0
LINE
  5
38A8
  8
1DIM
 10
68.40639617444992
 20
-193.1647981183435
 30
0.0
 11
93.95843239611219
 21
-193.1647981183435
 31
0.0
  0
LINE
  5
38A9
  8
1DIM
 10
92.95843239611219
 20
-187.9147981183436
 30
0.0
 11
92.95843239611219
 21
-191.1647981183435
 31
0.0
  0
LINE
  5
38AA
  8
1DIM
 10
92.95843239611219
 20
-193.1647981183435
 30
0.0
 11
92.95843239611219
 21
-207.2314647850102
 31
0.0
  0
LINE
  5
38AF
  8
1DIM
 10
68.39496812852882
 20
-94.57154624301073
 30
0.0
 11
82.439923410314
 21
-71.57393905698159
 31
0.0
  0
LINE
  5
38B0
  8
1DIM
 10
82.439923410314
 20
-71.57393905698159
 30
0.0
 11
108.639923410314
 21
-71.57393905698159
 31
0.0
  0
TEXT
  5
38B1
  8
1DIM
  6
CONTINUOUS
 10
85.139923410314
 20
-65.03817516809269
 30
0.0
 40
3.5
  1
8-φ6穴
  0
TEXT
  5
38B2
  8
1DIM
  6
CONTINUOUS
 10
84.20659007698066
 20
-70.87393905698158
 30
0.0
 40
3.5
  1
φ7.5皿加工
  0
LINE
  5
38B3
  8
1DIM
 10
22.30639617444984
 20
-143.6647981183437
 30
0.0
 11
-3.173630387356987
 21
-143.6647981183437
 31
0.0
  0
LINE
  5
38B4
  8
1DIM
 10
22.30639617444999
 20
-140.6647981183437
 30
0.0
 11
-3.173630387356986
 21
-140.6647981183437
 31
0.0
  0
LINE
  5
38B5
  8
1DIM
 10
-2.173630387356986
 20
-145.6647981183437
 30
0.0
 11
-2.173630387356986
 21
-147.6647981183437
 31
0.0
  0
LINE
  5
38B6
  8
1DIM
 10
-2.173630387356984
 20
-138.6647981183437
 30
0.0
 11
-2.173630387356984
 21
-136.6647981183437
 31
0.0
  0
LINE
  5
38B7
  8
1DIM
 10
-2.173630387356985
 20
-143.6647981183437
 30
0.0
 11
-2.173630387356984
 21
-140.6647981183437
 31
0.0
  0
LINE
  5
38BB
  8
0
  6
BYBLOCK
 10
75.98645779444999
 20
-226.3647981183439
 30
0.0
 11
76.52235617445
 21
-224.3647981183439
 31
0.0
  0
LINE
  5
38BC
  8
0
  6
BYBLOCK
 10
76.52235617445
 20
-224.3647981183439
 30
0.0
 11
77.05825455445
 21
-226.3647981183439
 31
0.0
  0
LINE
  5
38BD
  8
0
  6
BYBLOCK
 10
76.52235617445
 20
-224.3647981183439
 30
0.0
 11
76.52235617445
 21
-226.3647981183439
 31
0.0
  0
LINE
  5
38BE
  8
0
  6
BYBLOCK
 10
77.05825455445002
 20
-220.3647981183439
 30
0.0
 11
76.52235617445001
 21
-222.3647981183439
 31
0.0
  0
LINE
  5
38BF
  8
0
  6
BYBLOCK
 10
76.52235617445001
 20
-222.3647981183439
 30
0.0
 11
75.98645779445
 21
-220.3647981183439
 31
0.0
  0
LINE
  5
38C0
  8
0
  6
BYBLOCK
 10
76.52235617445001
 20
-222.3647981183439
 30
0.0
 11
76.52235617445001
 21
-220.3647981183439
 31
0.0
  0
TEXT
  5
38C1
  8
1DIM
  6
CONTINUOUS
 10
75.82235617445005
 20
-217.6647981183438
 30
0.0
 40
3.5
  1
2
 50
90.0
  0
LINE
  5
38C2
  8
0
  6
BYBLOCK
 10
19.88508218900854
 20
-254.4071636780233
 30
0.0
 11
19.34918380900854
 21
-256.4071636780233
 31
0.0
  0
LINE
  5
38C3
  8
0
  6
BYBLOCK
 10
19.34918380900854
 20
-256.4071636780233
 30
0.0
 11
18.81328542900854
 21
-254.4071636780233
 31
0.0
  0
LINE
  5
38C4
  8
0
  6
BYBLOCK
 10
19.34918380900854
 20
-256.4071636780233
 30
0.0
 11
19.34918380900854
 21
-254.4071636780233
 31
0.0
  0
LINE
  5
38C5
  8
0
  6
BYBLOCK
 10
18.81328542900854
 20
-251.4071636780236
 30
0.0
 11
19.34918380900854
 21
-249.4071636780236
 31
0.0
  0
LINE
  5
38C6
  8
0
  6
BYBLOCK
 10
19.34918380900854
 20
-249.4071636780236
 30
0.0
 11
19.88508218900854
 21
-251.4071636780236
 31
0.0
  0
LINE
  5
38C7
  8
0
  6
BYBLOCK
 10
19.34918380900854
 20
-249.4071636780236
 30
0.0
 11
19.34918380900854
 21
-251.4071636780236
 31
0.0
  0
TEXT
  5
38C8
  8
1DIM
  6
CONTINUOUS
 10
18.64918380900858
 20
-247.2738303446902
 30
0.0
 40
3.5
  1
φ7
 50
90.0
1001
ACAD
1000
DSTYLE
1002
{
1070
     3
1000
φ<>
1070
   341
1005
0
1002
}
  0
LINE
  5
38C9
  8
0
  6
BYBLOCK
 10
9.391140960217399
 20
-242.5405198013181
 30
0.0
 11
11.3911409602174
 21
-243.076418181318
 31
0.0
  0
LINE
  5
38CA
  8
0
  6
BYBLOCK
 10
11.3911409602174
 20
-243.076418181318
 30
0.0
 11
9.391140960217399
 21
-243.612316561318
 31
0.0
  0
LINE
  5
38CB
  8
0
  6
BYBLOCK
 10
11.3911409602174
 20
-243.076418181318
 30
0.0
 11
9.391140960217399
 21
-243.076418181318
 31
0.0
  0
LINE
  5
38CC
  8
0
  6
BYBLOCK
 10
-11.60886718367965
 20
-243.612316561318
 30
0.0
 11
-13.60886718367965
 21
-243.076418181318
 31
0.0
  0
LINE
  5
38CD
  8
0
  6
BYBLOCK
 10
-13.60886718367965
 20
-243.076418181318
 30
0.0
 11
-11.60886718367965
 21
-242.5405198013181
 31
0.0
  0
LINE
  5
38CE
  8
0
  6
BYBLOCK
 10
-13.60886718367965
 20
-243.076418181318
 30
0.0
 11
-11.60886718367965
 21
-243.076418181318
 31
0.0
  0
TEXT
  5
38CF
  8
1DIM
  6
CONTINUOUS
 10
-4.025529778397792
 20
-242.3764181813181
 30
0.0
 40
3.5
  1
25
1001
ACAD
1000
DSTYLE
1002
{
1070
   341
1005
0
1002
}
  0
LINE
  5
38D0
  8
0
  6
BYBLOCK
 10
-19.87161875781151
 20
-249.0071375015807
 30
0.0
 11
-20.40751713781151
 21
-251.0071375015807
 31
0.0
  0
LINE
  5
38D1
  8
0
  6
BYBLOCK
 10
-20.40751713781151
 20
-251.0071375015807
 30
0.0
 11
-20.94341551781151
 21
-249.0071375015807
 31
0.0
  0
LINE
  5
38D2
  8
0
  6
BYBLOCK
 10
-20.40751713781151
 20
-251.0071375015807
 30
0.0
 11
-20.40751713781151
 21
-249.0071375015807
 31
0.0
  0
LINE
  5
38D3
  8
0
  6
BYBLOCK
 10
-20.94341551781151
 20
-256.8041376145322
 30
0.0
 11
-20.40751713781151
 21
-254.8041376145322
 31
0.0
  0
LINE
  5
38D4
  8
0
  6
BYBLOCK
 10
-20.40751713781151
 20
-254.8041376145322
 30
0.0
 11
-19.87161875781151
 21
-256.8041376145322
 31
0.0
  0
LINE
  5
38D5
  8
0
  6
BYBLOCK
 10
-20.40751713781151
 20
-254.8041376145322
 30
0.0
 11
-20.40751713781151
 21
-256.8041376145322
 31
0.0
  0
TEXT
  5
38D6
  8
1DIM
  6
CONTINUOUS
 10
-21.10751713781144
 20
-271.2374709478656
 30
0.0
 40
3.5
  1
φ3.8
 50
90.0
1001
ACAD
1000
DSTYLE
1002
{
1070
     3
1000
φ<>
1070
   271
1070
     1
1070
   341
1005
0
1002
}
  0
LINE
  5
38D7
  8
0
  6
BYBLOCK
 10
92.42253401611222
 20
-100.4147981183437
 30
0.0
 11
92.95843239611223
 21
-98.4147981183437
 31
0.0
  0
LINE
  5
38D8
  8
0
  6
BYBLOCK
 10
92.95843239611223
 20
-98.4147981183437
 30
0.0
 11
93.49433077611224
 21
-100.4147981183437
 31
0.0
  0
LINE
  5
38D9
  8
0
  6
BYBLOCK
 10
92.95843239611223
 20
-98.4147981183437
 30
0.0
 11
92.95843239611223
 21
-100.4147981183437
 31
0.0
  0
LINE
  5
38DA
  8
0
  6
BYBLOCK
 10
93.49433077611224
 20
-131.4147981183437
 30
0.0
 11
92.95843239611223
 21
-133.4147981183437
 31
0.0
  0
LINE
  5
38DB
  8
0
  6
BYBLOCK
 10
92.95843239611223
 20
-133.4147981183437
 30
0.0
 11
92.42253401611222
 21
-131.4147981183437
 31
0.0
  0
LINE
  5
38DC
  8
0
  6
BYBLOCK
 10
92.95843239611223
 20
-133.4147981183437
 30
0.0
 11
92.95843239611223
 21
-131.4147981183437
 31
0.0
  0
TEXT
  5
38DD
  8
1DIM
  6
CONTINUOUS
 10
92.25843239611225
 20
-119.2765890856755
 30
0.0
 40
3.5
  1
35
 50
90.0
  0
LINE
  5
38DE
  8
0
  6
BYBLOCK
 10
50.40639617445004
 20
-74.2597661902915
 30
0.0
 11
48.40639617445004
 21
-73.7238678102915
 31
0.0
  0
LINE
  5
38DF
  8
0
  6
BYBLOCK
 10
48.40639617445004
 20
-73.7238678102915
 30
0.0
 11
50.40639617445004
 21
-73.18796943029149
 31
0.0
  0
LINE
  5
38E0
  8
0
  6
BYBLOCK
 10
48.40639617445004
 20
-73.7238678102915
 30
0.0
 11
50.40639617445004
 21
-73.7238678102915
 31
0.0
  0
LINE
  5
38E1
  8
0
  6
BYBLOCK
 10
62.40639617445004
 20
-73.18796943029149
 30
0.0
 11
64.40639617445004
 21
-73.7238678102915
 31
0.0
  0
LINE
  5
38E2
  8
0
  6
BYBLOCK
 10
64.40639617445004
 20
-73.7238678102915
 30
0.0
 11
62.40639617445004
 21
-74.2597661902915
 31
0.0
  0
LINE
  5
38E3
  8
0
  6
BYBLOCK
 10
64.40639617445004
 20
-73.7238678102915
 30
0.0
 11
62.40639617445004
 21
-73.7238678102915
 31
0.0
  0
TEXT
  5
38E4
  8
1DIM
  6
CONTINUOUS
 10
54.0730628411167
 20
-73.02386781029149
 30
0.0
 40
3.5
  1
16
  0
LINE
  5
38E5
  8
0
  6
BYBLOCK
 10
70.4063961744501
 20
-79.03540964155995
 30
0.0
 11
72.4063961744501
 21
-79.57130802155996
 31
0.0
  0
LINE
  5
38E6
  8
0
  6
BYBLOCK
 10
72.4063961744501
 20
-79.57130802155996
 30
0.0
 11
70.4063961744501
 21
-80.10720640155996
 31
0.0
  0
LINE
  5
38E7
  8
0
  6
BYBLOCK
 10
72.4063961744501
 20
-79.57130802155996
 30
0.0
 11
70.4063961744501
 21
-79.57130802155996
 31
0.0
  0
LINE
  5
38E8
  8
0
  6
BYBLOCK
 10
58.40639617445004
 20
-80.10720640155996
 30
0.0
 11
56.40639617445004
 21
-79.57130802155996
 31
0.0
  0
LINE
  5
38E9
  8
0
  6
BYBLOCK
 10
56.40639617445004
 20
-79.57130802155996
 30
0.0
 11
58.40639617445004
 21
-79.03540964155995
 31
0.0
  0
LINE
  5
38EA
  8
0
  6
BYBLOCK
 10
56.40639617445004
 20
-79.57130802155996
 30
0.0
 11
58.40639617445004
 21
-79.57130802155996
 31
0.0
  0
TEXT
  5
38EB
  8
1DIM
  6
CONTINUOUS
 10
62.0730628411167
 20
-78.87130802155995
 30
0.0
 40
3.5
  1
16
  0
LINE
  5
38EC
  8
0
  6
BYBLOCK
 10
29.40639617445004
 20
-110.8144482944278
 30
0.0
 11
31.40639617445004
 21
-111.3503466744278
 31
0.0
  0
LINE
  5
38ED
  8
0
  6
BYBLOCK
 10
31.40639617445004
 20
-111.3503466744278
 30
0.0
 11
29.40639617445004
 21
-111.8862450544278
 31
0.0
  0
LINE
  5
38EE
  8
0
  6
BYBLOCK
 10
31.40639617445004
 20
-111.3503466744278
 30
0.0
 11
29.40639617445004
 21
-111.3503466744278
 31
0.0
  0
LINE
  5
38EF
  8
0
  6
BYBLOCK
 10
26.40639617445004
 20
-111.8862450544278
 30
0.0
 11
24.40639617445004
 21
-111.3503466744278
 31
0.0
  0
LINE
  5
38F0
  8
0
  6
BYBLOCK
 10
24.40639617445004
 20
-111.3503466744278
 30
0.0
 11
26.40639617445004
 21
-110.8144482944278
 31
0.0
  0
LINE
  5
38F1
  8
0
  6
BYBLOCK
 10
24.40639617445004
 20
-111.3503466744278
 30
0.0
 11
26.40639617445004
 21
-111.3503466744278
 31
0.0
  0
TEXT
  5
38F2
  8
1DIM
  6
CONTINUOUS
 10
4.988817489928139
 20
-110.6503466744278
 30
0.0
 40
3.5
  1
φ7
1001
ACAD
1000
DSTYLE
1002
{
1070
     3
1000
φ<>
1002
}
  0
LINE
  5
38F3
  8
0
  6
BYBLOCK
 10
-1.637732007356984
 20
-138.6647981183437
 30
0.0
 11
-2.173630387356984
 21
-140.6647981183437
 31
0.0
  0
LINE
  5
38F4
  8
0
  6
BYBLOCK
 10
-2.173630387356984
 20
-140.6647981183437
 30
0.0
 11
-2.709528767356984
 21
-138.6647981183437
 31
0.0
  0
LINE
  5
38F5
  8
0
  6
BYBLOCK
 10
-2.173630387356984
 20
-140.6647981183437
 30
0.0
 11
-2.173630387356984
 21
-138.6647981183437
 31
0.0
  0
LINE
  5
38F6
  8
0
  6
BYBLOCK
 10
-2.709528767356979
 20
-120.6647981183436
 30
0.0
 11
-2.17363038735698
 21
-118.6647981183436
 31
0.0
  0
LINE
  5
38F7
  8
0
  6
BYBLOCK
 10
-2.17363038735698
 20
-118.6647981183436
 30
0.0
 11
-1.63773200735698
 21
-120.6647981183436
 31
0.0
  0
LINE
  5
38F8
  8
0
  6
BYBLOCK
 10
-2.17363038735698
 20
-118.6647981183436
 30
0.0
 11
-2.17363038735698
 21
-120.6647981183436
 31
0.0
  0
TEXT
  5
38F9
  8
1DIM
  6
CONTINUOUS
 10
-2.873630387356968
 20
-132.5814647850103
 30
0.0
 40
3.5
  1
22
 50
90.0
1001
ACAD
1000
DSTYLE
1002
{
1070
    75
1070
     1
1002
}
  0
LINE
  5
38FA
  8
0
  6
BYBLOCK
 10
102.8606817352041
 20
-93.16479811834371
 30
0.0
 11
103.3965801152041
 21
-91.16479811834371
 31
0.0
  0
LINE
  5
38FB
  8
0
  6
BYBLOCK
 10
103.3965801152041
 20
-91.16479811834371
 30
0.0
 11
103.9324784952041
 21
-93.16479811834371
 31
0.0
  0
LINE
  5
38FC
  8
0
  6
BYBLOCK
 10
103.3965801152041
 20
-91.16479811834371
 30
0.0
 11
103.3965801152041
 21
-93.16479811834371
 31
0.0
  0
LINE
  5
38FD
  8
0
  6
BYBLOCK
 10
103.9324784952041
 20
-191.1647981183435
 30
0.0
 11
103.396580115204
 21
-193.1647981183435
 31
0.0
  0
LINE
  5
38FE
  8
0
  6
BYBLOCK
 10
103.396580115204
 20
-193.1647981183435
 30
0.0
 11
102.860681735204
 21
-191.1647981183435
 31
0.0
  0
LINE
  5
38FF
  8
0
  6
BYBLOCK
 10
103.396580115204
 20
-193.1647981183435
 30
0.0
 11
103.396580115204
 21
-191.1647981183435
 31
0.0
  0
TEXT
  5
3900
  8
1DIM
  6
CONTINUOUS
 10
102.6965801152041
 20
-145.9564647850103
 30
0.0
 40
3.5
  1
102
 50
90.0
  0
LINE
  5
3901
  8
0
  6
BYBLOCK
 10
-30.85729647411172
 20
-196.8647981183438
 30
0.0
 11
-31.39319485411172
 21
-198.8647981183438
 31
0.0
  0
LINE
  5
3902
  8
0
  6
BYBLOCK
 10
-31.39319485411172
 20
-198.8647981183438
 30
0.0
 11
-31.92909323411172
 21
-196.8647981183438
 31
0.0
  0
LINE
  5
3903
  8
0
  6
BYBLOCK
 10
-31.39319485411172
 20
-198.8647981183438
 30
0.0
 11
-31.39319485411172
 21
-196.8647981183438
 31
0.0
  0
LINE
  5
3904
  8
0
  6
BYBLOCK
 10
-31.9290932341117
 20
-87.46479811834365
 30
0.0
 11
-31.3931948541117
 21
-85.46479811834365
 31
0.0
  0
LINE
  5
3905
  8
0
  6
BYBLOCK
 10
-31.3931948541117
 20
-85.46479811834365
 30
0.0
 11
-30.8572964741117
 21
-87.46479811834365
 31
0.0
  0
LINE
  5
3906
  8
0
  6
BYBLOCK
 10
-31.3931948541117
 20
-85.46479811834365
 30
0.0
 11
-31.3931948541117
 21
-87.46479811834365
 31
0.0
  0
TEXT
  5
3907
  8
1DIM
  6
CONTINUOUS
 10
-32.09319485411169
 20
-147.9981314516771
 30
0.0
 40
3.5
  1
113.5
 50
90.0
1001
ACAD
1000
DSTYLE
1002
{
1070
    45
1040
0.5
1002
}
  0
LINE
  5
3908
  8
0
  6
BYBLOCK
 10
-14.59360382554968
 20
-213.4072454316575
 30
0.0
 11
-16.59360382554968
 21
-212.8713470516575
 31
0.0
  0
LINE
  5
3909
  8
0
  6
BYBLOCK
 10
-16.59360382554968
 20
-212.8713470516575
 30
0.0
 11
-14.59360382554968
 21
-212.3354486716575
 31
0.0
  0
LINE
  5
390A
  8
0
  6
BYBLOCK
 10
-16.59360382554968
 20
-212.8713470516575
 30
0.0
 11
-14.59360382554968
 21
-212.8713470516575
 31
0.0
  0
LINE
  5
390B
  8
0
  6
BYBLOCK
 10
70.40639617444992
 20
-212.3354486716575
 30
0.0
 11
72.40639617444992
 21
-212.8713470516575
 31
0.0
  0
LINE
  5
390C
  8
0
  6
BYBLOCK
 10
72.40639617444992
 20
-212.8713470516575
 30
0.0
 11
70.40639617444992
 21
-213.4072454316575
 31
0.0
  0
LINE
  5
390D
  8
0
  6
BYBLOCK
 10
72.40639617444992
 20
-212.8713470516575
 30
0.0
 11
70.40639617444992
 21
-212.8713470516575
 31
0.0
  0
TEXT
  5
390E
  8
1DIM
  6
CONTINUOUS
 10
24.98891932259827
 20
-212.1713470516575
 30
0.0
 40
3.5
  1
89
1001
ACAD
1000
DSTYLE
1002
{
1070
    47
1040
0.5
1070
    48
1040
0.5
1070
    71
1070
     0
1070
    72
1070
     0
1002
}
  0
LINE
  5
390F
  8
0
  6
BYBLOCK
 10
66.40639617445004
 20
-74.2597661902915
 30
0.0
 11
64.40639617445004
 21
-73.7238678102915
 31
0.0
  0
LINE
  5
3910
  8
0
  6
BYBLOCK
 10
64.40639617445004
 20
-73.7238678102915
 30
0.0
 11
66.40639617445004
 21
-73.18796943029149
 31
0.0
  0
LINE
  5
3911
  8
0
  6
BYBLOCK
 10
64.40639617445004
 20
-73.7238678102915
 30
0.0
 11
66.40639617445004
 21
-73.7238678102915
 31
0.0
  0
LINE
  5
3912
  8
0
  6
BYBLOCK
 10
70.4063961744501
 20
-73.18796943029149
 30
0.0
 11
72.4063961744501
 21
-73.7238678102915
 31
0.0
  0
LINE
  5
3913
  8
0
  6
BYBLOCK
 10
72.4063961744501
 20
-73.7238678102915
 30
0.0
 11
70.4063961744501
 21
-74.2597661902915
 31
0.0
  0
LINE
  5
3914
  8
0
  6
BYBLOCK
 10
72.4063961744501
 20
-73.7238678102915
 30
0.0
 11
70.4063961744501
 21
-73.7238678102915
 31
0.0
  0
TEXT
  5
3915
  8
1DIM
  6
CONTINUOUS
 10
67.2397295077834
 20
-73.02386781029149
 30
0.0
 40
3.5
  1
8
  0
LINE
  5
3916
  8
0
  6
BYBLOCK
 10
93.49433077611224
 20
-96.4147981183437
 30
0.0
 11
92.95843239611223
 21
-98.4147981183437
 31
0.0
  0
LINE
  5
3917
  8
0
  6
BYBLOCK
 10
92.95843239611223
 20
-98.4147981183437
 30
0.0
 11
92.42253401611222
 21
-96.4147981183437
 31
0.0
  0
LINE
  5
3918
  8
0
  6
BYBLOCK
 10
92.95843239611223
 20
-98.4147981183437
 30
0.0
 11
92.95843239611223
 21
-96.4147981183437
 31
0.0
  0
LINE
  5
3919
  8
0
  6
BYBLOCK
 10
92.42253401611224
 20
-93.1647981183437
 30
0.0
 11
92.95843239611224
 21
-91.1647981183437
 31
0.0
  0
LINE
  5
391A
  8
0
  6
BYBLOCK
 10
92.95843239611224
 20
-91.1647981183437
 30
0.0
 11
93.49433077611225
 21
-93.1647981183437
 31
0.0
  0
LINE
  5
391B
  8
0
  6
BYBLOCK
 10
92.95843239611224
 20
-91.1647981183437
 30
0.0
 11
92.95843239611224
 21
-93.1647981183437
 31
0.0
  0
TEXT
  5
391C
  8
1DIM
  6
CONTINUOUS
 10
92.25843239611227
 20
-88.38146478501034
 30
0.0
 40
3.5
  1
7.25
 50
90.0
  0
LINE
  5
391D
  8
0
  6
BYBLOCK
 10
83.11186964215881
 20
-138.6647981183437
 30
0.0
 11
82.5759712621588
 21
-140.6647981183437
 31
0.0
  0
LINE
  5
391E
  8
0
  6
BYBLOCK
 10
82.5759712621588
 20
-140.6647981183437
 30
0.0
 11
82.0400728821588
 21
-138.6647981183437
 31
0.0
  0
LINE
  5
391F
  8
0
  6
BYBLOCK
 10
82.5759712621588
 20
-140.6647981183437
 30
0.0
 11
82.5759712621588
 21
-138.6647981183437
 31
0.0
  0
LINE
  5
3920
  8
0
  6
BYBLOCK
 10
82.0400728821588
 20
-135.4147981183437
 30
0.0
 11
82.5759712621588
 21
-133.4147981183437
 31
0.0
  0
LINE
  5
3921
  8
0
  6
BYBLOCK
 10
82.5759712621588
 20
-133.4147981183437
 30
0.0
 11
83.11186964215881
 21
-135.4147981183437
 31
0.0
  0
LINE
  5
3922
  8
0
  6
BYBLOCK
 10
82.5759712621588
 20
-133.4147981183437
 30
0.0
 11
82.5759712621588
 21
-135.4147981183437
 31
0.0
  0
TEXT
  5
3923
  8
1DIM
  6
CONTINUOUS
 10
81.87597126215883
 20
-130.6314647850103
 30
0.0
 40
3.5
  1
7.25
 50
90.0
  0
LINE
  5
3924
  8
0
  6
BYBLOCK
 10
92.4225340161122
 20
-152.9147981183436
 30
0.0
 11
92.9584323961122
 21
-150.9147981183436
 31
0.0
  0
LINE
  5
3925
  8
0
  6
BYBLOCK
 10
92.9584323961122
 20
-150.9147981183436
 30
0.0
 11
93.4943307761122
 21
-152.9147981183436
 31
0.0
  0
LINE
  5
3926
  8
0
  6
BYBLOCK
 10
92.9584323961122
 20
-150.9147981183436
 30
0.0
 11
92.9584323961122
 21
-152.9147981183436
 31
0.0
  0
LINE
  5
3927
  8
0
  6
BYBLOCK
 10
93.49433077611219
 20
-183.9147981183436
 30
0.0
 11
92.95843239611219
 21
-185.9147981183436
 31
0.0
  0
LINE
  5
3928
  8
0
  6
BYBLOCK
 10
92.95843239611219
 20
-185.9147981183436
 30
0.0
 11
92.42253401611218
 21
-183.9147981183436
 31
0.0
  0
LINE
  5
3929
  8
0
  6
BYBLOCK
 10
92.95843239611219
 20
-185.9147981183436
 30
0.0
 11
92.95843239611219
 21
-183.9147981183436
 31
0.0
  0
TEXT
  5
392A
  8
1DIM
  6
CONTINUOUS
 10
92.25843239611221
 20
-171.3314647850103
 30
0.0
 40
3.5
  1
35
 50
90.0
  0
LINE
  5
392B
  8
0
  6
BYBLOCK
 10
82.04007288215875
 20
-145.6647981183436
 30
0.0
 11
82.57597126215876
 21
-143.6647981183436
 31
0.0
  0
LINE
  5
392C
  8
0
  6
BYBLOCK
 10
82.57597126215876
 20
-143.6647981183436
 30
0.0
 11
83.11186964215877
 21
-145.6647981183436
 31
0.0
  0
LINE
  5
392D
  8
0
  6
BYBLOCK
 10
82.57597126215876
 20
-143.6647981183436
 30
0.0
 11
82.57597126215876
 21
-145.6647981183436
 31
0.0
  0
LINE
  5
392E
  8
0
  6
BYBLOCK
 10
83.11186964215877
 20
-148.9147981183436
 30
0.0
 11
82.57597126215876
 21
-150.9147981183436
 31
0.0
  0
LINE
  5
392F
  8
0
  6
BYBLOCK
 10
82.57597126215876
 20
-150.9147981183436
 30
0.0
 11
82.04007288215875
 21
-148.9147981183436
 31
0.0
  0
LINE
  5
3930
  8
0
  6
BYBLOCK
 10
82.57597126215876
 20
-150.9147981183436
 30
0.0
 11
82.57597126215876
 21
-148.9147981183436
 31
0.0
  0
TEXT
  5
3931
  8
1DIM
  6
CONTINUOUS
 10
81.87597126215877
 20
-164.1981314516769
 30
0.0
 40
3.5
  1
7.25
 50
90.0
  0
LINE
  5
3932
  8
0
  6
BYBLOCK
 10
92.42253401611218
 20
-187.9147981183436
 30
0.0
 11
92.95843239611219
 21
-185.9147981183436
 31
0.0
  0
LINE
  5
3933
  8
0
  6
BYBLOCK
 10
92.95843239611219
 20
-185.9147981183436
 30
0.0
 11
93.49433077611219
 21
-187.9147981183436
 31
0.0
  0
LINE
  5
3934
  8
0
  6
BYBLOCK
 10
92.95843239611219
 20
-185.9147981183436
 30
0.0
 11
92.95843239611219
 21
-187.9147981183436
 31
0.0
  0
LINE
  5
3935
  8
0
  6
BYBLOCK
 10
93.49433077611219
 20
-191.1647981183435
 30
0.0
 11
92.95843239611219
 21
-193.1647981183435
 31
0.0
  0
LINE
  5
3936
  8
0
  6
BYBLOCK
 10
92.95843239611219
 20
-193.1647981183435
 30
0.0
 11
92.42253401611218
 21
-191.1647981183435
 31
0.0
  0
LINE
  5
3937
  8
0
  6
BYBLOCK
 10
92.95843239611219
 20
-193.1647981183435
 30
0.0
 11
92.95843239611219
 21
-191.1647981183435
 31
0.0
  0
TEXT
  5
3938
  8
1DIM
  6
CONTINUOUS
 10
92.25843239611221
 20
-206.4481314516768
 30
0.0
 40
3.5
  1
7.25
 50
90.0
  0
LINE
  5
3939
  8
0
  6
BYBLOCK
 10
68.85232132015777
 20
-94.85085813282824
 30
0.0
 11
67.35256195511397
 21
-96.27841160666031
 31
0.0
  0
LINE
  5
393A
  8
0
  6
BYBLOCK
 10
67.35256195511397
 20
-96.27841160666031
 30
0.0
 11
67.93761493689986
 21
-94.29223435319322
 31
0.0
  0
LINE
  5
393B
  8
0
  6
BYBLOCK
 10
67.35256195511397
 20
-96.27841160666031
 30
0.0
 11
68.39496812852882
 21
-94.57154624301073
 31
0.0
  0
LINE
  5
393C
  8
0
  6
BYBLOCK
 10
-2.709528767356986
 20
-145.6647981183437
 30
0.0
 11
-2.173630387356985
 21
-143.6647981183437
 31
0.0
  0
LINE
  5
393D
  8
0
  6
BYBLOCK
 10
-2.173630387356985
 20
-143.6647981183437
 30
0.0
 11
-1.637732007356985
 21
-145.6647981183437
 31
0.0
  0
LINE
  5
393E
  8
0
  6
BYBLOCK
 10
-2.173630387356985
 20
-143.6647981183437
 30
0.0
 11
-2.173630387356985
 21
-145.6647981183437
 31
0.0
  0
LINE
  5
393F
  8
0
  6
BYBLOCK
 10
-1.637732007356984
 20
-138.6647981183437
 30
0.0
 11
-2.173630387356984
 21
-140.6647981183437
 31
0.0
  0
LINE
  5
3940
  8
0
  6
BYBLOCK
 10
-2.173630387356984
 20
-140.6647981183437
 30
0.0
 11
-2.709528767356984
 21
-138.6647981183437
 31
0.0
  0
LINE
  5
3941
  8
0
  6
BYBLOCK
 10
-2.173630387356984
 20
-140.6647981183437
 30
0.0
 11
-2.173630387356984
 21
-138.6647981183437
 31
0.0
  0
TEXT
  5
3942
  8
1DIM
  6
CONTINUOUS
 10
-2.873630387356968
 20
-143.3314647850104
 30
0.0
 40
3.5
  1
3
 50
90.0
  0
VIEWPORT
  5
57
 67
     1
  8
0
 10
0.0
 20
0.0
 30
0.0
 40
554.37576499388
 41
297.0
 68
     1
 69
     1
1001
ACAD
1000
MVIEW
1002
{
1070
    16
1010
0.0
1020
0.0
1030
0.0
1010
0.0
1020
0.0
1030
1.0
1040
0.0
1040
297.0
1040
-4.171999999999912
1040
12.83899999999988
1040
50.0
1040
0.0
1040
0.0
1070
    16
1070
  1000
1070
     0
1070
     1
1070
     0
1070
     0
1070
     0
1070
     0
1040
0.0
1040
0.0
1040
0.0
1040
10.0
1040
10.0
1040
10.0
1040
10.0
1070
     0
1002
{
1002
}
1002
}
  0
ENDSEC
  0
EOF
