  0
SECTION
  2
HEADER
  9
$ACADVER
  1
AC1009
  9
$INSBASE
 10
0.0
 20
0.0
 30
0.0
  9
$EXTMIN
 10
-700.2375804556001
 20
-317.51929775557483
 30
0.0
  9
$EXTMAX
 10
-465.58943000707262
 20
-127.0477511377679
 30
0.0
  9
$LIMMIN
 10
0.0
 20
0.0
  9
$LIMMAX
 10
420.0
 20
297.0
  9
$ORTHOMODE
 70
     0
  9
$REGENMODE
 70
     1
  9
$FILLMODE
 70
     1
  9
$QTEXTMODE
 70
     0
  9
$MIRRTEXT
 70
     1
  9
$DRAGMODE
 70
     2
  9
$LTSCALE
 40
0.5
  9
$OSMODE
 70
   127
  9
$ATTMODE
 70
     1
  9
$TEXTSIZE
 40
4.0
  9
$TRACEWID
 40
1.0
  9
$TEXTSTYLE
  7
STANDARD
  9
$CLAYER
  8
1TEXT
  9
$CELTYPE
  6
BYLAYER
  9
$CECOLOR
 62
   256
  9
$DIMSCALE
 40
1.0
  9
$DIMASZ
 40
2.0
  9
$DIMEXO
 40
0.0
  9
$DIMDLI
 40
7.0
  9
$DIMRND
 40
0.0
  9
$DIMDLE
 40
0.0
  9
$DIMEXE
 40
1.0
  9
$DIMTP
 40
0.0
  9
$DIMTM
 40
0.0
  9
$DIMTXT
 40
3.5
  9
$DIMCEN
 40
0.0
  9
$DIMTSZ
 40
0.0
  9
$DIMTOL
 70
     0
  9
$DIMLIM
 70
     0
  9
$DIMTIH
 70
     0
  9
$DIMTOH
 70
     0
  9
$DIMSE1
 70
     0
  9
$DIMSE2
 70
     0
  9
$DIMTAD
 70
     1
  9
$DIMZIN
 70
     8
  9
$DIMBLK
  1

  9
$DIMASO
 70
     1
  9
$DIMSHO
 70
     1
  9
$DIMPOST
  1
 
  9
$DIMAPOST
  1

  9
$DIMALT
 70
     0
  9
$DIMALTD
 70
     2
  9
$DIMALTF
 40
25.399999999999999
  9
$DIMLFAC
 40
1.0
  9
$DIMTOFL
 70
     1
  9
$DIMTVP
 40
0.0
  9
$DIMTIX
 70
     0
  9
$DIMSOXD
 70
     0
  9
$DIMSAH
 70
     1
  9
$DIMBLK1
  1
OPEN30
  9
$DIMBLK2
  1
OPEN30
  9
$DIMSTYLE
  2
NEWX10
  9
$DIMCLRD
 70
   256
  9
$DIMCLRE
 70
   256
  9
$DIMCLRT
 70
   201
  9
$DIMTFAC
 40
0.7
  9
$DIMGAP
 40
0.7
  9
$LUNITS
 70
     2
  9
$LUPREC
 70
     4
  9
$SKETCHINC
 40
1.0
  9
$FILLETRAD
 40
10.0
  9
$AUNITS
 70
     0
  9
$AUPREC
 70
     2
  9
$MENU
  1
acad
  9
$ELEVATION
 40
0.0
  9
$PELEVATION
 40
0.0
  9
$THICKNESS
 40
0.0
  9
$LIMCHECK
 70
     0
  9
$BLIPMODE
 70
     0
  9
$CHAMFERA
 40
10.0
  9
$CHAMFERB
 40
10.0
  9
$SKPOLY
 70
     0
  9
$TDCREATE
 40
2454279.6348370491
  9
$TDUPDATE
 40
2454347.7253269679
  9
$TDINDWG
 40
0.0752025463
  9
$TDUSRTIMER
 40
0.0752021875
  9
$USRTIMER
 70
     1
  9
$ANGBASE
 50
0.0
  9
$ANGDIR
 70
     0
  9
$PDMODE
 70
     0
  9
$PDSIZE
 40
0.0
  9
$PLINEWID
 40
0.0
  9
$COORDS
 70
     2
  9
$SPLFRAME
 70
     0
  9
$SPLINETYPE
 70
     6
  9
$SPLINESEGS
 70
     8
  9
$ATTDIA
 70
     0
  9
$ATTREQ
 70
     1
  9
$HANDLING
 70
     1
  9
$HANDSEED
  5
4FA5
  9
$SURFTAB1
 70
     6
  9
$SURFTAB2
 70
     6
  9
$SURFTYPE
 70
     6
  9
$SURFU
 70
     6
  9
$SURFV
 70
     6
  9
$UCSNAME
  2

  9
$UCSORG
 10
0.0
 20
0.0
 30
0.0
  9
$UCSXDIR
 10
1.0
 20
0.0
 30
0.0
  9
$UCSYDIR
 10
0.0
 20
1.0
 30
0.0
  9
$PUCSNAME
  2

  9
$PUCSORG
 10
0.0
 20
0.0
 30
0.0
  9
$PUCSXDIR
 10
1.0
 20
0.0
 30
0.0
  9
$PUCSYDIR
 10
0.0
 20
1.0
 30
0.0
  9
$USERI1
 70
     0
  9
$USERI2
 70
     0
  9
$USERI3
 70
     0
  9
$USERI4
 70
     0
  9
$USERI5
 70
     0
  9
$USERR1
 40
0.0
  9
$USERR2
 40
0.0
  9
$USERR3
 40
0.0
  9
$USERR4
 40
0.0
  9
$USERR5
 40
0.0
  9
$WORLDVIEW
 70
     1
  9
$SHADEDGE
 70
     3
  9
$SHADEDIF
 70
    70
  9
$TILEMODE
 70
     1
  9
$MAXACTVP
 70
    48
  9
$PLIMCHECK
 70
     0
  9
$PEXTMIN
 10
1.0000000000000000E+020
 20
1.0000000000000000E+020
 30
1.0000000000000000E+020
  9
$PEXTMAX
 10
-1.0000000000000000E+020
 20
-1.0000000000000000E+020
 30
-1.0000000000000000E+020
  9
$PLIMMIN
 10
0.0
 20
0.0
  9
$PLIMMAX
 10
420.0
 20
297.0
  9
$UNITMODE
 70
     0
  9
$VISRETAIN
 70
     1
  9
$PLINEGEN
 70
     0
  9
$PSLTSCALE
 70
     1
  0
ENDSEC
  0
SECTION
  2
TABLES
  0
TABLE
  2
VPORT
 70
     5
  0
VPORT
  2
*ACTIVE
 70
     0
 10
0.0
 20
0.0
 11
1.0
 21
1.0
 12
-582.88670442287571
 22
-222.2824313395991
 13
0.0
 23
0.0
 14
10.0
 24
10.0
 15
10.0
 25
10.0
 16
0.0
 26
0.0
 36
1.0
 17
0.0
 27
0.0
 37
0.0
 40
202.149277802048
 41
1.508086253369272
 42
50.0
 43
0.0
 44
0.0
 50
0.0
 51
0.0
 71
     0
 72
   100
 73
     1
 74
     1
 75
     0
 76
     0
 77
     0
 78
     0
  0
ENDTAB
  0
TABLE
  2
LTYPE
 70
    18
  0
LTYPE
  2
CONTINUOUS
 70
     0
  3
Solid line
 72
    65
 73
     0
 40
0.0
  0
LTYPE
  2
CENTER2
 70
     0
  3
Center (.5x) ___ _ ___ _ ___ _ ___ _ ___ _ ___
 72
    65
 73
     4
 40
28.574999999999999
 49
19.050000000000001
 49
-3.1749999999999989
 49
3.1749999999999989
 49
-3.1749999999999989
  0
LTYPE
  2
XREF1|CENTER2
 70
    48
  3
Center (.5x) ___ _ ___ _ ___ _ ___ _ ___ _ ___
 72
    65
 73
     4
 40
28.574999999999999
 49
19.050000000000001
 49
-3.1749999999999989
 49
3.1749999999999989
 49
-3.1749999999999989
  0
LTYPE
  2
HIDDEN
 70
     0
  3
Hidden __ __ __ __ __ __ __ __ __ __ __ __ __ _
 72
    65
 73
     2
 40
9.5249999999999986
 49
6.3499999999999988
 49
-3.1749999999999989
  0
LTYPE
  2
A3WAKUDAKE|CENTER2
 70
    48
  3
Center (.5x) ___ _ ___ _ ___ _ ___ _ ___ _ ___
 72
    65
 73
     4
 40
28.574999999999999
 49
19.050000000000001
 49
-3.1749999999999989
 49
3.1749999999999989
 49
-3.1749999999999989
  0
ENDTAB
  0
TABLE
  2
LAYER
 70
    57
  0
LAYER
  2
0
 70
     0
 62
     7
  6
CONTINUOUS
  0
LAYER
  2
1CENTER
 70
     0
 62
     7
  6
CENTER2
  0
LAYER
  2
1TEXT
 70
     0
 62
     7
  6
CONTINUOUS
  0
LAYER
  2
1DIM
 70
     0
 62
     7
  6
CONTINUOUS
  0
LAYER
  2
1HIDDEN
 70
     0
 62
     7
  6
HIDDEN
  0
LAYER
  2
01
 70
     0
 62
     1
  6
CONTINUOUS
  0
LAYER
  2
XREF1|1CENTER
 70
    48
 62
     7
  6
XREF1|CENTER2
  0
LAYER
  2
A3WAKUDAKE|THICK
 70
    48
 62
     7
  6
CONTINUOUS
  0
LAYER
  2
A3WAKUDAKE|POINT
 70
    48
 62
     7
  6
CONTINUOUS
  0
LAYER
  2
A3WAKUDAKE|1CENTER
 70
    48
 62
     7
  6
A3WAKUDAKE|CENTER2
  0
LAYER
  2
A3WAKUDAKE|0-6
 70
    48
 62
     7
  6
CONTINUOUS
  0
LAYER
  2
A3WAKUDAKE|1DIM
 70
    48
 62
     7
  6
CONTINUOUS
  0
ENDTAB
  0
TABLE
  2
STYLE
 70
    23
  0
STYLE
  2
STANDARD
 70
     0
 40
0.0
 41
1.0
 50
0.0
 71
     0
 42
4.0
  3
txt.shx
  4
extfont.shx
  0
ENDTAB
  0
TABLE
  2
VIEW
 70
     0
  0
ENDTAB
  0
TABLE
  2
UCS
 70
     0
  0
ENDTAB
  0
TABLE
  2
APPID
 70
     9
  0
APPID
  2
ACAD
 70
     0
  0
APPID
  2
DRAWINGVARIABLESXDATA
 70
     0
  0
APPID
  2
CONTENTTABDATA
 70
     0
  0
APPID
  2
CONTENTCURRENTTAB
 70
     0
  0
APPID
  2
CONTENTBLOCKDESCRIPTION
 70
     0
  0
APPID
  2
CONTENTBLOCKICON
 70
     0
  0
APPID
  2
CONTENTLONGBLOCKNAME
 70
     0
  0
APPID
  2
ACAD_PSEXT
 70
     0
  0
APPID
  2
ACAD_EXEMPT_FROM_CAD_STANDARDS
 70
     0
  0
ENDTAB
  0
TABLE
  2
DIMSTYLE
 70
     7
  0
DIMSTYLE
  2
NEWX10
 70
     0
  3
 
  4

  5

  6
OPEN30
  7
OPEN30
 40
1.0
 41
2.0
 42
0.0
 43
7.0
 44
1.0
 45
0.0
 46
0.0
 47
0.0
 48
0.0
140
3.5
141
0.0
142
0.0
143
25.399999999999999
144
1.0
145
0.0
146
0.7
147
0.7
 71
     0
 72
     0
 73
     0
 74
     0
 75
     0
 76
     0
 77
     1
 78
     8
170
     0
171
     2
172
     1
173
     1
174
     0
175
     0
176
   256
177
   256
178
   201
  0
ENDTAB
  0
ENDSEC
  0
SECTION
  2
BLOCKS
  0
BLOCK
  8
0
  2
$MODEL_SPACE
 70
     0
 10
0.0
 20
0.0
 30
0.0
  3
$MODEL_SPACE
  1

  0
ENDBLK
  5
1A
  8
0
  0
BLOCK
 67
     1
  8
0
  2
$PAPER_SPACE
 70
     0
 10
0.0
 20
0.0
 30
0.0
  3
$PAPER_SPACE
  1

  0
ENDBLK
  5
17
 67
     1
  8
0
  0
BLOCK
  8
0
  2
_OPEN30
 70
     0
 10
0.0
 20
0.0
 30
0.0
  3
_OPEN30
  1

  0
LINE
  5
44
  8
0
  6
BYBLOCK
 62
     0
 10
-1.0
 20
0.26794919
 30
0.0
 11
0.0
 21
0.0
 31
0.0
  0
LINE
  5
45
  8
0
  6
BYBLOCK
 62
     0
 10
0.0
 20
0.0
 30
0.0
 11
-1.0
 21
-0.26794919
 31
0.0
  0
LINE
  5
46
  8
0
  6
BYBLOCK
 62
     0
 10
0.0
 20
0.0
 30
0.0
 11
-1.0
 21
0.0
 31
0.0
  0
ENDBLK
  5
47
  8
0
  0
BLOCK
  8
0
  2
XREF1
 70
    36
 10
0.0
 20
0.0
 30
0.0
  3
XREF1
  1
D:\ACLT\FORMAT\KAWAJUN(9)図面用.dwg
  0
ENDBLK
  5
5D
  8
0
  0
BLOCK
  8
0
  2
A3WAKUDAKE
 70
    36
 10
0.0
 20
0.0
 30
0.0
  3
A3WAKUDAKE
  1
D:\ACLT\FORMAT\A3WAKUdake.dwg
  0
ENDBLK
  5
4BEC
  8
0
  0
BLOCK
  8
0
  2
*U116
 70
     1
 10
0.0
 20
0.0
 30
0.0
  3
*U116
  1

  0
TEXT
  5
4DFB
  8
1DIM
 62
     4
 10
186.53413793554651
 20
354.5653212151081
 30
0.0
 40
4.0
  1
72
  0
ENDBLK
  5
4DFD
  8
0
  0
BLOCK
  8
0
  2
*U117
 70
     1
 10
0.0
 20
0.0
 30
0.0
  3
*U117
  1

  0
TEXT
  5
4DFF
  8
1DIM
 62
     4
 10
217.53413793554651
 20
292.46532121510808
 30
0.0
 40
4.0
  1
5
  0
ENDBLK
  5
4E01
  8
0
  0
BLOCK
  8
0
  2
*U118
 70
     1
 10
0.0
 20
0.0
 30
0.0
  3
*U118
  1

  0
TEXT
  5
4E03
  8
1DIM
 62
     4
 10
233.26747126887989
 20
310.83198788177481
 30
0.0
 40
4.0
  1
5
 50
90.0
  0
ENDBLK
  5
4E05
  8
0
  0
BLOCK
  8
0
  2
*U119
 70
     1
 10
0.0
 20
0.0
 30
0.0
  3
*U119
  1

  0
TEXT
  5
4E07
  8
1DIM
 62
     4
 10
130.7674712688798
 20
309.49865454844138
 30
0.0
 40
4.0
  1
21
 50
90.0
  0
ENDBLK
  5
4E09
  8
0
  0
BLOCK
  8
0
  2
*U120
 70
     1
 10
0.0
 20
0.0
 30
0.0
  3
*U120
  1

  0
TEXT
  5
4E0B
  8
1DIM
 62
     4
 10
242.8974712688798
 20
310.16532121510812
 30
0.0
 40
4.0
  1
11
 50
90.0
  0
ENDBLK
  5
4E0D
  8
0
  0
BLOCK
  8
0
  2
*U121
 70
     1
 10
0.0
 20
0.0
 30
0.0
  3
*U121
  1

  0
TEXT
  5
4E0F
  8
1DIM
 62
     4
 10
243.73632541006489
 20
299.23395740201369
 30
0.0
 40
4.0
  1
28°
 50
308.77009668881641
  0
ENDBLK
  5
4E11
  8
0
  0
BLOCK
  8
0
  2
*U122
 70
     1
 10
0.0
 20
0.0
 30
0.0
  3
*U122
  1

  0
TEXT
  5
4E13
  8
1DIM
 62
     4
 10
256.33747126887982
 20
321.73674978653668
 30
0.0
 40
4.0
  1
1.5
 50
90.0
  0
ENDBLK
  5
4E15
  8
0
  0
BLOCK
  8
0
  2
*U123
 70
     1
 10
0.0
 20
0.0
 30
0.0
  3
*U123
  1

  0
TEXT
  5
4E17
  8
1DIM
 62
     4
 10
245.75794745935599
 20
336.66532121510812
 30
0.0
 40
4.0
  1
10.5
  0
ENDBLK
  5
4E19
  8
0
  0
BLOCK
  8
0
  2
*U124
 70
     1
 10
0.0
 20
0.0
 30
0.0
  3
*U124
  1

  0
TEXT
  5
4E1B
  8
1DIM
 62
     4
 10
252.40080460221321
 20
330.86532121510811
 30
0.0
 40
4.0
  1
2
  0
ENDBLK
  5
4E1D
  8
0
  0
BLOCK
  8
0
  2
*U125
 70
     1
 10
0.0
 20
0.0
 30
0.0
  3
*U125
  1

  0
TEXT
  5
4E1F
  8
1DIM
 62
     4
 10
266.06747126887979
 20
333.36532121510811
 30
0.0
 40
4.0
  1
2
  0
ENDBLK
  5
4E21
  8
0
  0
BLOCK
  8
0
  2
*U126
 70
     1
 10
0.0
 20
0.0
 30
0.0
  3
*U126
  1

  0
TEXT
  5
4E23
  8
1DIM
 62
     4
 10
268.67946615133678
 20
306.73193317808182
 30
0.0
 40
4.0
  1
1.5
 50
298.0000290992125
  0
ENDBLK
  5
4E25
  8
0
  0
BLOCK
  8
0
  2
*U127
 70
     1
 10
0.0
 20
0.0
 30
0.0
  3
*U127
  1

  0
TEXT
  5
4E27
  8
1DIM
 62
     4
 10
261.73413793554653
 20
294.47532121510812
 30
0.0
 40
4.0
  1
9
  0
ENDBLK
  5
4E29
  8
0
  0
BLOCK
  8
0
  2
*U128
 70
     1
 10
0.0
 20
0.0
 30
0.0
  3
*U128
  1

  0
TEXT
  5
4E2B
  8
1DIM
 62
     4
 10
186.53413793554651
 20
346.66532121510812
 30
0.0
 40
4.0
  1
58
  0
ENDBLK
  5
4E2D
  8
0
  0
BLOCK
  8
0
  2
*U129
 70
     1
 10
0.0
 20
0.0
 30
0.0
  3
*U129
  1

  0
TEXT
  5
4E2F
  8
1DIM
 62
     4
 10
279.66747126887981
 20
319.8444164055843
 30
0.0
 40
4.0
  1
6.1
 50
90.0
  0
ENDBLK
  5
4E31
  8
0
  0
BLOCK
  8
0
  2
*U130
 70
     1
 10
0.0
 20
0.0
 30
0.0
  3
*U130
  1

  0
TEXT
  5
4E33
  8
1DIM
 62
     4
 10
187.2008046022132
 20
273.0653212151081
 30
0.0
 40
4.0
  1
31
  0
ENDBLK
  5
4E35
  8
0
  0
BLOCK
  8
0
  2
*U131
 70
     1
 10
0.0
 20
0.0
 30
0.0
  3
*U131
  1

  0
TEXT
  5
4E37
  8
1DIM
 62
     4
 10
183.8674712688798
 20
284.46532121510808
 30
0.0
 40
4.0
  1
33.4
  0
ENDBLK
  5
4E39
  8
0
  0
BLOCK
  8
0
  2
*U132
 70
     1
 10
0.0
 20
0.0
 30
0.0
  3
*U132
  1

  0
TEXT
  5
4E3B
  8
1DIM
 62
     4
 10
186.53413793554651
 20
278.46532121510808
 30
0.0
 40
4.0
  1
32
  0
ENDBLK
  5
4E3D
  8
0
  0
BLOCK
  8
0
  2
*U133
 70
     1
 10
0.0
 20
0.0
 30
0.0
  3
*U133
  1

  0
TEXT
  5
4E3F
  8
1DIM
 62
     4
 10
155.557947459356
 20
297.01294026272711
 30
0.0
 40
4.0
  1
(6)
  0
ENDBLK
  5
4E41
  8
0
  0
BLOCK
  8
0
  2
*U134
 70
     1
 10
0.0
 20
0.0
 30
0.0
  3
*U134
  1

  0
TEXT
  5
4E43
  8
1DIM
 62
     4
 10
216.17699507840359
 20
297.01294026272711
 30
0.0
 40
4.0
  1
(6)
  0
ENDBLK
  5
4E45
  8
0
  0
BLOCK
  8
0
  2
*U135
 70
     1
 10
0.0
 20
0.0
 30
0.0
  3
*U135
  1

  0
TEXT
  5
4E47
  8
1DIM
 62
     4
 10
143.7674712688798
 20
225.66532121510809
 30
0.0
 40
4.0
  1
2
 50
90.0
  0
ENDBLK
  5
4E49
  8
0
  0
BLOCK
  8
0
  2
*U136
 70
     1
 10
0.0
 20
0.0
 30
0.0
  3
*U136
  1

  0
TEXT
  5
4E4B
  8
1DIM
 62
     4
 10
138.16747126887981
 20
216.83198788177481
 30
0.0
 40
4.0
  1
8
 50
90.0
  0
ENDBLK
  5
4E4D
  8
0
  0
BLOCK
  8
0
  2
*U137
 70
     1
 10
0.0
 20
0.0
 30
0.0
  3
*U137
  1

  0
TEXT
  5
4E4F
  8
1DIM
 62
     4
 10
210.17699507840359
 20
196.4353212151081
 30
0.0
 40
4.0
  1
3.5
  0
ENDBLK
  5
4E51
  8
0
  0
BLOCK
  8
0
  2
*U138
 70
     1
 10
0.0
 20
0.0
 30
0.0
  3
*U138
  1

  0
TEXT
  5
4E53
  8
1DIM
 62
     4
 10
229.8912807926894
 20
196.4353212151081
 30
0.0
 40
4.0
  1
0.5
  0
ENDBLK
  5
4E55
  8
0
  0
BLOCK
  8
0
  2
*U139
 70
     1
 10
0.0
 20
0.0
 30
0.0
  3
*U139
  1

  0
TEXT
  5
4E57
  8
1DIM
 62
     4
 10
218.53413793554651
 20
233.86532121510811
 30
0.0
 40
4.0
  1
10
  0
ENDBLK
  5
4E59
  8
0
  0
BLOCK
  8
0
  2
*U140
 70
     1
 10
0.0
 20
0.0
 30
0.0
  3
*U140
  1

  0
TEXT
  5
4E5B
  8
1DIM
 62
     4
 10
210.53413793554651
 20
233.86532121510811
 30
0.0
 40
4.0
  1
8
  0
ENDBLK
  5
4E5D
  8
0
  0
BLOCK
  8
0
  2
*U141
 70
     1
 10
0.0
 20
0.0
 30
0.0
  3
*U141
  1

  0
TEXT
  5
4E5F
  8
1DIM
 62
     4
 10
250.06747126887981
 20
178.79243373891771
 30
0.0
 40
4.0
  1
0.6
 50
90.0
  0
ENDBLK
  5
4E61
  8
0
  0
BLOCK
  8
0
  2
*U142
 70
     1
 10
0.0
 20
0.0
 30
0.0
  3
*U142
  1

  0
TEXT
  5
4E63
  8
1DIM
 62
     4
 10
248.66080741173701
 20
187.76532121510809
 30
0.0
 40
4.0
  1
0.3
  0
ENDBLK
  5
4E65
  8
0
  0
BLOCK
  8
0
  2
*U143
 70
     1
 10
0.0
 20
0.0
 30
0.0
  3
*U143
  1

  0
TEXT
  5
4E67
  8
1DIM
 62
     4
 10
421.39915030481029
 20
305.02959754283449
 30
0.0
 40
4.0
  1
72
  0
ENDBLK
  5
4E69
  8
0
  0
BLOCK
  8
0
  2
*U144
 70
     1
 10
0.0
 20
0.0
 30
0.0
  3
*U144
  1

  0
TEXT
  5
4E6B
  8
1DIM
 62
     4
 10
500.63248363814358
 20
284.62959754283452
 30
0.0
 40
4.0
  1
2
  0
ENDBLK
  5
4E6D
  8
0
  0
BLOCK
  8
0
  2
*U145
 70
     1
 10
0.0
 20
0.0
 30
0.0
  3
*U145
  1

  0
TEXT
  5
4E6F
  8
1DIM
 62
     4
 10
390.89915030481029
 20
298.02959754283449
 30
0.0
 40
4.0
  1
7
  0
ENDBLK
  5
4E71
  8
0
  0
BLOCK
  8
0
  2
*U146
 70
     1
 10
0.0
 20
0.0
 30
0.0
  3
*U146
  1

  0
TEXT
  5
4E73
  8
1DIM
 62
     4
 10
421.39915030481029
 20
298.02959754283449
 30
0.0
 40
4.0
  1
58
  0
ENDBLK
  5
4E75
  8
0
  0
BLOCK
  8
0
  2
*U147
 70
     1
 10
0.0
 20
0.0
 30
0.0
  3
*U147
  1

  0
TEXT
  5
4E77
  8
1DIM
 62
     4
 10
395.56581697147698
 20
235.62959754283449
 30
0.0
 40
4.0
  1
19
  0
ENDBLK
  5
4E79
  8
0
  0
BLOCK
  8
0
  2
*U148
 70
     1
 10
0.0
 20
0.0
 30
0.0
  3
*U148
  1

  0
TEXT
  5
4E7B
  8
1DIM
 62
     4
 10
421.39915030481029
 20
235.62959754283449
 30
0.0
 40
4.0
  1
34
  0
ENDBLK
  5
4E7D
  8
0
  0
BLOCK
  8
0
  2
*U149
 70
     1
 10
0.0
 20
0.0
 30
0.0
  3
*U149
  1

  0
TEXT
  5
4E7F
  8
1DIM
 62
     4
 10
378.63248363814358
 20
261.19626420950129
 30
0.0
 40
4.0
  1
26
 50
90.0
  0
ENDBLK
  5
4E81
  8
0
  0
BLOCK
  8
0
  2
*U150
 70
     1
 10
0.0
 20
0.0
 30
0.0
  3
*U150
  1

  0
TEXT
  5
4E83
  8
1DIM
 62
     4
 10
506.8024836381436
 20
263.19626420950118
 30
0.0
 40
4.0
  1
5
 50
90.0
  0
ENDBLK
  5
4E85
  8
0
  0
BLOCK
  8
0
  2
*U151
 70
     1
 10
0.0
 20
0.0
 30
0.0
  3
*U151
  1

  0
TEXT
  5
4E87
  8
1DIM
 62
     4
 10
489.22248363814361
 20
271.01531182854887
 30
0.0
 40
4.0
  1
8.4
 50
90.0
  0
ENDBLK
  5
4E89
  8
0
  0
BLOCK
  8
0
  2
*U152
 70
     1
 10
0.0
 20
0.0
 30
0.0
  3
*U152
  1

  0
TEXT
  5
4E8B
  8
1DIM
 62
     4
 10
480.57671963814357
 20
260.35816897140597
 30
0.0
 40
4.0
  1
90°
 50
90.0
  0
ENDBLK
  5
4E8D
  8
0
  0
BLOCK
  8
0
  2
*U153
 70
     1
 10
0.0
 20
0.0
 30
0.0
  3
*U153
  1

  0
TEXT
  5
4E8F
  8
1DIM
 62
     4
 10
473.73248363814361
 20
261.86293087616792
 30
0.0
 40
4.0
  1
16
 50
90.0
  0
ENDBLK
  5
4E91
  8
0
  0
BLOCK
  8
0
  2
*U154
 70
     1
 10
0.0
 20
0.0
 30
0.0
  3
*U154
  1

  0
TEXT
  5
4E93
  8
1DIM
 62
     4
 10
473.73248363814361
 20
273.69626420950118
 30
0.0
 40
4.0
  1
5
 50
90.0
  0
ENDBLK
  5
4E95
  8
0
  0
BLOCK
  8
0
  2
*U155
 70
     1
 10
0.0
 20
0.0
 30
0.0
  3
*U155
  1

  0
TEXT
  5
4E97
  8
1DIM
 62
     4
 10
467.83248363814357
 20
262.52959754283461
 30
0.0
 40
4.0
  1
11
 50
90.0
  0
ENDBLK
  5
4E99
  8
0
  0
BLOCK
  8
0
  2
*U156
 70
     1
 10
0.0
 20
0.0
 30
0.0
  3
*U156
  1

  0
TEXT
  5
4E9B
  8
1DIM
 62
     4
 10
448.23248363814361
 20
235.6495975428345
 30
0.0
 40
4.0
  1
3
  0
ENDBLK
  5
4E9D
  8
0
  0
BLOCK
  8
0
  2
*U157
 70
     1
 10
0.0
 20
0.0
 30
0.0
  3
*U157
  1

  0
TEXT
  5
4E9F
  8
1DIM
 62
     4
 10
171.83222839548961
 20
-54.374745135046432
 30
0.0
 40
4.0
  1
6
  0
ENDBLK
  5
4EA1
  8
0
  0
BLOCK
  8
0
  2
*U158
 70
     1
 10
0.0
 20
0.0
 30
0.0
  3
*U158
  1

  0
TEXT
  5
4EA3
  8
1DIM
 62
     4
 10
180.49889506215629
 20
-54.374745135046432
 30
0.0
 40
4.0
  1
14
  0
ENDBLK
  5
4EA5
  8
0
  0
BLOCK
  8
0
  2
*U159
 70
     1
 10
0.0
 20
0.0
 30
0.0
  3
*U159
  1

  0
TEXT
  5
4EA7
  8
1DIM
 62
     4
 10
191.83222839548961
 20
-54.374745135046432
 30
0.0
 40
4.0
  1
6
  0
ENDBLK
  5
4EA9
  8
0
  0
BLOCK
  8
0
  2
*U160
 70
     1
 10
0.0
 20
0.0
 30
0.0
  3
*U160
  1

  0
TEXT
  5
4EAB
  8
1DIM
 62
     4
 10
179.83222839548961
 20
-46.77474513504643
 30
0.0
 40
4.0
  1
26
  0
ENDBLK
  5
4EAD
  8
0
  0
BLOCK
  8
0
  2
*U161
 70
     1
 10
0.0
 20
0.0
 30
0.0
  3
*U161
  1

  0
TEXT
  5
4EAF
  8
1DIM
 62
     4
 10
158.06556172882301
 20
-89.379507039808331
 30
0.0
 40
4.0
  1
6.5
 50
90.0
  0
ENDBLK
  5
4EB1
  8
0
  0
BLOCK
  8
0
  2
*U162
 70
     1
 10
0.0
 20
0.0
 30
0.0
  3
*U162
  1

  0
TEXT
  5
4EB3
  8
1DIM
 62
     4
 10
158.06556172882301
 20
-84.474745135046419
 30
0.0
 40
4.0
  1
20
 50
90.0
  0
ENDBLK
  5
4EB5
  8
0
  0
BLOCK
  8
0
  2
*U163
 70
     1
 10
0.0
 20
0.0
 30
0.0
  3
*U163
  1

  0
TEXT
  5
4EB7
  8
1DIM
 62
     4
 10
158.06556172882301
 20
-62.879507039808317
 30
0.0
 40
4.0
  1
6.5
 50
90.0
  0
ENDBLK
  5
4EB9
  8
0
  0
BLOCK
  8
0
  2
*U164
 70
     1
 10
0.0
 20
0.0
 30
0.0
  3
*U164
  1

  0
TEXT
  5
4EBB
  8
1DIM
 62
     4
 10
149.765561728823
 20
-84.808078468379733
 30
0.0
 40
4.0
  1
33
 50
90.0
  0
ENDBLK
  5
4EBD
  8
0
  0
BLOCK
  8
0
  2
*U165
 70
     1
 10
0.0
 20
0.0
 30
0.0
  3
*U165
  1

  0
TEXT
  5
4EBF
  8
1DIM
 62
     4
 10
250.03699030025149
 20
-55.77474513504643
 30
0.0
 40
4.0
  1
1.5
  0
ENDBLK
  5
4EC1
  8
0
  0
BLOCK
  8
0
  2
*U166
 70
     1
 10
0.0
 20
0.0
 30
0.0
  3
*U166
  1

  0
TEXT
  5
4EC3
  8
1DIM
 62
     4
 10
229.56556172882301
 20
-82.808078468379733
 30
0.0
 40
4.0
  1
6
 50
90.0
  0
ENDBLK
  5
4EC5
  8
0
  0
BLOCK
  8
0
  2
*U167
 70
     1
 10
0.0
 20
0.0
 30
0.0
  3
*U167
  1

  0
TEXT
  5
4EC7
  8
1DIM
 62
     4
 10
241.1322283954897
 20
-109.17474513504639
 30
0.0
 40
4.0
  1
7
  0
ENDBLK
  5
4EC9
  8
0
  0
BLOCK
  8
0
  2
*U168
 70
     1
 10
0.0
 20
0.0
 30
0.0
  3
*U168
  1

  0
TEXT
  5
4ECB
  8
1DIM
 62
     4
 10
469.91293364278471
 20
-30.80139521299861
 30
0.0
 40
4.0
  1
72
  0
ENDBLK
  5
4ECD
  8
0
  0
BLOCK
  8
0
  2
*U169
 70
     1
 10
0.0
 20
0.0
 30
0.0
  3
*U169
  1

  0
TEXT
  5
4ECF
  8
1DIM
 62
     4
 10
417.74626697611802
 20
-88.268061879665254
 30
0.0
 40
4.0
  1
21
 50
90.0
  0
ENDBLK
  5
4ED1
  8
0
  0
BLOCK
  8
0
  2
*U170
 70
     1
 10
0.0
 20
0.0
 30
0.0
  3
*U170
  1

  0
TEXT
  5
4ED3
  8
1DIM
 62
     4
 10
469.91293364278471
 20
-40.201395212998619
 30
0.0
 40
4.0
  1
58
  0
ENDBLK
  5
4ED5
  8
0
  0
BLOCK
  8
0
  2
*U171
 70
     1
 10
0.0
 20
0.0
 30
0.0
  3
*U171
  1

  0
TEXT
  5
4ED7
  8
1DIM
 62
     4
 10
409.14626697611789
 20
-88.934728546331883
 30
0.0
 40
4.0
  1
26
 50
90.0
  0
ENDBLK
  5
4ED9
  8
0
  0
BLOCK
  8
0
  2
*U172
 70
     1
 10
0.0
 20
0.0
 30
0.0
  3
*U172
  1

  0
TEXT
  5
4EDB
  8
1DIM
 62
     4
 10
549.146266976118
 20
-59.601395212998618
 30
0.0
 40
4.0
  1
2
  0
ENDBLK
  5
4EDD
  8
0
  0
BLOCK
  8
0
  2
*U173
 70
     1
 10
0.0
 20
0.0
 30
0.0
  3
*U173
  1

  0
TEXT
  5
4EDF
  8
1DIM
 62
     4
 10
551.14626697611789
 20
-59.601395212998618
 30
0.0
 40
4.0
  1
2
  0
ENDBLK
  5
4EE1
  8
0
  0
BLOCK
  8
0
  2
*U174
 70
     1
 10
0.0
 20
0.0
 30
0.0
  3
*U174
  1

  0
TEXT
  5
4EE3
  8
1DIM
 62
     4
 10
530.83674316659415
 20
-53.401395212998601
 30
0.0
 40
4.0
  1
10.5
  0
ENDBLK
  5
4EE5
  8
0
  0
BLOCK
  8
0
  2
*U175
 70
     1
 10
0.0
 20
0.0
 30
0.0
  3
*U175
  1

  0
TEXT
  5
4EE7
  8
1DIM
 62
     4
 10
547.71769554754655
 20
-115.20139521299861
 30
0.0
 40
4.0
  1
1.5
  0
ENDBLK
  5
4EE9
  8
0
  0
BLOCK
  8
0
  2
*U176
 70
     1
 10
0.0
 20
0.0
 30
0.0
  3
*U176
  1

  0
TEXT
  5
4EEB
  8
1DIM
 62
     4
 10
529.9081717380227
 20
-115.20139521299861
 30
0.0
 40
4.0
  1
1.5
  0
ENDBLK
  5
4EED
  8
0
  0
BLOCK
  8
0
  2
*U177
 70
     1
 10
0.0
 20
0.0
 30
0.0
  3
*U177
  1

  0
TEXT
  5
4EEF
  8
1DIM
 62
     4
 10
620.74626697611802
 20
-155.3347285463318
 30
0.0
 40
4.0
  1
5
 50
90.0
  0
ENDBLK
  5
4EF1
  8
0
  0
BLOCK
  8
0
  2
*U178
 70
     1
 10
0.0
 20
0.0
 30
0.0
  3
*U178
  1

  0
TEXT
  5
4EF3
  8
1DIM
 62
     4
 10
620.74626697611802
 20
-99.291871403474715
 30
0.0
 40
4.0
  1
2.5
 50
90.0
  0
ENDBLK
  5
4EF5
  8
0
  0
BLOCK
  8
0
  2
*U179
 70
     1
 10
0.0
 20
0.0
 30
0.0
  3
*U179
  1

  0
TEXT
  5
4EF7
  8
1DIM
 62
     4
 10
620.74626697611802
 20
-67.910919022522336
 30
0.0
 40
4.0
  1
2.5
 50
90.0
  0
ENDBLK
  5
4EF9
  8
0
  0
BLOCK
  8
0
  2
*U180
 70
     1
 10
0.0
 20
0.0
 30
0.0
  3
*U180
  1

  0
TEXT
  5
4EFB
  8
1DIM
 62
     4
 10
620.74626697611802
 20
-5.9347285463318489
 30
0.0
 40
4.0
  1
5
 50
90.0
  0
ENDBLK
  5
4EFD
  8
0
  0
BLOCK
  8
0
  2
*U181
 70
     1
 10
0.0
 20
0.0
 30
0.0
  3
*U181
  1

  0
TEXT
  5
4EFF
  8
1DIM
 62
     4
 10
469.91293364278471
 20
-59.701395212998619
 30
0.0
 40
4.0
  1
26
  0
ENDBLK
  5
4F01
  8
0
  0
BLOCK
  8
0
  2
*U182
 70
     1
 10
0.0
 20
0.0
 30
0.0
  3
*U182
  1

  0
TEXT
  5
4F03
  8
1DIM
 62
     4
 10
526.14626697611789
 20
-87.934728546331925
 30
0.0
 40
4.0
  1
33
 50
90.0
  0
ENDBLK
  5
4F05
  8
0
  0
BLOCK
  8
0
  2
*U183
 70
     1
 10
0.0
 20
0.0
 30
0.0
  3
*U183
  1

  0
TEXT
  5
4F07
  8
1DIM
 62
     4
 10
518.04626697611798
 20
-88.268061879665211
 30
0.0
 40
4.0
  1
16
 50
90.0
  0
ENDBLK
  5
4F09
  8
0
  0
BLOCK
  8
0
  2
*U184
 70
     1
 10
0.0
 20
0.0
 30
0.0
  3
*U184
  1

  0
TEXT
  5
4F0B
  8
1DIM
 62
     4
 10
469.91293364278471
 20
-49.801395212998607
 30
0.0
 40
4.0
  1
34
  0
ENDBLK
  5
4F0D
  8
0
  0
BLOCK
  8
0
  2
*U185
 70
     1
 10
0.0
 20
0.0
 30
0.0
  3
*U185
  1

  0
TEXT
  5
4F0F
  8
1DIM
 62
     4
 10
427.04626697611798
 20
-87.601395212998554
 30
0.0
 40
4.0
  1
11
 50
90.0
  0
ENDBLK
  5
4F11
  8
0
  0
BLOCK
  8
0
  2
*U186
 70
     1
 10
0.0
 20
0.0
 30
0.0
  3
*U186
  1

  0
TEXT
  5
4F13
  8
1DIM
 62
   201
 10
-441.91116667319938
 20
431.9397635207348
 30
0.0
 40
3.5
  1
2 
  0
ENDBLK
  5
4F15
  8
0
  0
BLOCK
  8
0
  2
*U187
 70
     1
 10
0.0
 20
0.0
 30
0.0
  3
*U187
  1

  0
TEXT
  5
4F1A
  8
1DIM
 62
   201
 10
-616.72181799268196
 20
-256.96456481602053
 30
0.0
 40
3.5
  1
26 
  0
ENDBLK
  5
4F1C
  8
0
  0
BLOCK
  8
0
  2
*U188
 70
     1
 10
0.0
 20
0.0
 30
0.0
  3
*U188
  1

  0
TEXT
  5
4F1E
  8
1DIM
 62
   201
 10
-645.04681799268212
 20
-246.9645648160205
 30
0.0
 40
3.5
  1
max10
  0
ENDBLK
  5
4F20
  8
0
  0
BLOCK
  8
0
  2
*U189
 70
     1
 10
0.0
 20
0.0
 30
0.0
  3
*U189
  1

  0
TEXT
  5
4F22
  8
1DIM
 62
   201
 10
-637.50515132601527
 20
-204.5812314826872
 30
0.0
 40
3.5
  1
72 
 50
90.0
  0
ENDBLK
  5
4F24
  8
0
  0
BLOCK
  8
0
  2
*U190
 70
     1
 10
0.0
 20
0.0
 30
0.0
  3
*U190
  1

  0
TEXT
  5
4F26
  8
1DIM
 62
   201
 10
-593.95515132601543
 20
-204.5812314826874
 30
0.0
 40
3.5
  1
32 
 50
90.0
  0
ENDBLK
  5
4F28
  8
0
  0
BLOCK
  8
0
  2
*U191
 70
     1
 10
0.0
 20
0.0
 30
0.0
  3
*U191
  1

  0
TEXT
  5
4F2A
  8
1DIM
 62
   201
 10
-583.95515132601531
 20
-204.5812314826872
 30
0.0
 40
3.5
  1
58 
 50
90.0
  0
ENDBLK
  5
4F2C
  8
0
  0
BLOCK
  8
0
  2
*U192
 70
     1
 10
0.0
 20
0.0
 30
0.0
  3
*U192
  1

  0
TEXT
  5
4F2E
  8
1DIM
 62
   201
 10
-609.63848465934882
 20
-154.9645648160205
 30
0.0
 40
3.5
  1
13 
  0
ENDBLK
  5
4F30
  8
0
  0
BLOCK
  8
0
  2
*U193
 70
     1
 10
0.0
 20
0.0
 30
0.0
  3
*U193
  1

  0
TEXT
  5
4F32
  8
1DIM
 62
   201
 10
-642.58848465934864
 20
-154.9645648160205
 30
0.0
 40
3.5
  1
min5
  0
ENDBLK
  5
4F34
  8
0
  0
BLOCK
  8
0
  2
*U194
 70
     1
 10
0.0
 20
0.0
 30
0.0
  3
*U194
  1

  0
TEXT
  5
4F36
  8
1DIM
 62
   201
 10
-619.75515132601538
 20
-300.70733528435892
 30
0.0
 40
3.5
  1
11.1 
  0
ENDBLK
  5
4F38
  8
0
  0
BLOCK
  8
0
  2
*U195
 70
     1
 10
0.0
 20
0.0
 30
0.0
  3
*U195
  1

  0
TEXT
  5
4F3A
  8
1DIM
 62
   201
 10
-633.83848465934875
 20
-300.70733528435892
 30
0.0
 40
3.5
  1
5 
  0
ENDBLK
  5
4F3C
  8
0
  0
BLOCK
  8
0
  2
*U196
 70
     1
 10
0.0
 20
0.0
 30
0.0
  3
*U196
  1

  0
TEXT
  5
4F3E
  8
1DIM
 62
   201
 10
-609.25515132601527
 20
-300.70733528435892
 30
0.0
 40
3.5
  1
9.9 
  0
ENDBLK
  5
4F40
  8
0
  0
BLOCK
  8
0
  2
*U197
 70
     1
 10
0.0
 20
0.0
 30
0.0
  3
*U197
  1

  0
TEXT
  5
4F42
  8
1DIM
 62
   201
 10
-600.07898233984224
 20
-237.09554955305319
 30
0.0
 40
3.5
  1
R6 
 50
316.43678060224579
  0
ENDBLK
  5
4F44
  8
0
  0
BLOCK
  8
0
  2
*U198
 70
     1
 10
0.0
 20
0.0
 30
0.0
  3
*U198
  1

  0
TEXT
  5
4F46
  8
1DIM
 62
   201
 10
-599.83625372859274
 20
-166.54876471035919
 30
0.0
 40
3.5
  1
R6 
 50
31.637640800026041
  0
ENDBLK
  5
4F48
  8
0
  0
BLOCK
  8
0
  2
*U199
 70
     1
 10
0.0
 20
0.0
 30
0.0
  3
*U199
  1

  0
TEXT
  5
4F4A
  8
1DIM
 62
   201
 10
-581.50515132601538
 20
-268.01011455668947
 30
0.0
 40
3.5
  1
10.5 
 50
90.0
  0
ENDBLK
  5
4F4C
  8
0
  0
BLOCK
  8
0
  2
*U200
 70
     1
 10
0.0
 20
0.0
 30
0.0
  3
*U200
  1

  0
TEXT
  5
4F4E
  8
1DIM
 62
   201
 10
-591.72980909429702
 20
-266.63511455668959
 30
0.0
 40
3.5
  1
4 
 50
90.0
  0
ENDBLK
  5
4F50
  8
0
  0
BLOCK
  8
0
  2
*U201
 70
     1
 10
0.0
 20
0.0
 30
0.0
  3
*U201
  1

  0
TEXT
  5
4F52
  8
1DIM
 62
   201
 10
-696.7375804556001
 20
-204.5812314826872
 30
0.0
 40
3.5
  1
72 
 50
90.0
  0
ENDBLK
  5
4F54
  8
0
  0
BLOCK
  8
0
  2
*U202
 70
     1
 10
0.0
 20
0.0
 30
0.0
  3
*U202
  1

  0
TEXT
  5
4F56
  8
1DIM
 62
   201
 10
-689.18758045560025
 20
-204.5812314826872
 30
0.0
 40
3.5
  1
35 
 50
90.0
  0
ENDBLK
  5
4F58
  8
0
  0
BLOCK
  8
0
  2
*U203
 70
     1
 10
0.0
 20
0.0
 30
0.0
  3
*U203
  1

  0
TEXT
  5
4F5A
  8
1DIM
 62
   201
 10
-662.12924712226675
 20
-256.96456481602053
 30
0.0
 40
3.5
  1
10.5 
  0
ENDBLK
  5
4F5C
  8
0
  0
BLOCK
  8
0
  2
*U204
 70
     1
 10
0.0
 20
0.0
 30
0.0
  3
*U204
  1

  0
TEXT
  5
4F5E
  8
1DIM
 62
   201
 10
-660.75424712226675
 20
-244.51456481602051
 30
0.0
 40
3.5
  1
4 
  0
ENDBLK
  5
4F60
  8
0
  0
BLOCK
  8
0
  2
*U205
 70
     1
 10
0.0
 20
0.0
 30
0.0
  3
*U205
  1

  0
TEXT
  5
4F62
  8
1DIM
 62
   201
 10
-530.66386240913664
 20
-232.1145648160205
 30
0.0
 40
3.5
  1
33 
  0
ENDBLK
  5
4F64
  8
0
  0
BLOCK
  8
0
  2
*U206
 70
     1
 10
0.0
 20
0.0
 30
0.0
  3
*U206
  1

  0
TEXT
  5
4F66
  8
1DIM
 62
   201
 10
-494.3971957424701
 20
-205.1812314826872
 30
0.0
 40
3.5
  1
26 
 50
90.0
  0
ENDBLK
  5
4F68
  8
0
  0
BLOCK
  8
0
  2
*U207
 70
     1
 10
0.0
 20
0.0
 30
0.0
  3
*U207
  1

  0
TEXT
  5
4F6A
  8
1DIM
 62
   201
 10
-501.94719574246989
 20
-193.4312314826872
 30
0.0
 40
3.5
  1
6 
 50
90.0
  0
ENDBLK
  5
4F6C
  8
0
  0
BLOCK
  8
0
  2
*U208
 70
     1
 10
0.0
 20
0.0
 30
0.0
  3
*U208
  1

  0
TEXT
  5
4F6E
  8
1DIM
 62
   201
 10
-501.94719574246989
 20
-204.59789814935391
 30
0.0
 40
3.5
  1
14 
 50
90.0
  0
ENDBLK
  5
4F70
  8
0
  0
BLOCK
  8
0
  2
*U209
 70
     1
 10
0.0
 20
0.0
 30
0.0
  3
*U209
  1

  0
TEXT
  5
4F72
  8
1DIM
 62
   201
 10
-501.94719574246989
 20
-213.4312314826872
 30
0.0
 40
3.5
  1
6 
 50
90.0
  0
ENDBLK
  5
4F74
  8
0
  0
BLOCK
  8
0
  2
*U210
 70
     1
 10
0.0
 20
0.0
 30
0.0
  3
*U210
  1

  0
TEXT
  5
4F76
  8
1DIM
 62
   201
 10
-554.03052907580332
 20
-222.11456481602039
 30
0.0
 40
3.5
  1
6.5 
  0
ENDBLK
  5
4F78
  8
0
  0
BLOCK
  8
0
  2
*U211
 70
     1
 10
0.0
 20
0.0
 30
0.0
  3
*U211
  1

  0
TEXT
  5
4F7A
  8
1DIM
 62
   201
 10
-530.3721957424699
 20
-222.11456481602039
 30
0.0
 40
3.5
  1
20 
  0
ENDBLK
  5
4F7C
  8
0
  0
BLOCK
  8
0
  2
*U212
 70
     1
 10
0.0
 20
0.0
 30
0.0
  3
*U212
  1

  0
TEXT
  5
4F7E
  8
1DIM
 62
   201
 10
-508.46386240913671
 20
-222.11456481602039
 30
0.0
 40
3.5
  1
6.5 
  0
ENDBLK
  5
4F80
  8
0
  0
BLOCK
  8
0
  2
*U213
 70
     1
 10
0.0
 20
0.0
 30
0.0
  3
*U213
  1

  0
TEXT
  5
4F82
  8
1DIM
 62
   201
 10
-501.94719574246989
 20
-282.45178122335631
 30
0.0
 40
3.5
  1
1.5 
 50
90.0
  0
ENDBLK
  5
4F84
  8
0
  0
BLOCK
  8
0
  2
*U214
 70
     1
 10
0.0
 20
0.0
 30
0.0
  3
*U214
  1

  0
TEXT
  5
4F86
  8
1DIM
 62
   201
 10
-528.91386240913664
 20
-251.05918962713221
 30
0.0
 40
3.5
  1
6 
  0
ENDBLK
  5
4F88
  8
0
  0
BLOCK
  8
0
  2
*U215
 70
     1
 10
0.0
 20
0.0
 30
0.0
  3
*U215
  1

  0
TEXT
  5
4F8A
  8
1DIM
 62
   201
 10
-521.2770887395825
 20
-259.13604386980597
 30
0.0
 40
3.5
  1
R3 
 50
34.421931557448872
  0
ENDBLK
  5
4F8C
  8
0
  0
BLOCK
  8
0
  2
*U216
 70
     1
 10
0.0
 20
0.0
 30
0.0
  3
*U216
  1

  0
TEXT
  5
4F8E
  8
1DIM
 62
   201
 10
-491.94719574246989
 20
-268.46011455668958
 30
0.0
 40
3.5
  1
10 
 50
90.0
  0
ENDBLK
  5
4F90
  8
0
  0
BLOCK
  8
0
  2
*U217
 70
     1
 10
0.0
 20
0.0
 30
0.0
  3
*U217
  1

  0
TEXT
  5
4F92
  8
1DIM
 62
   201
 10
-552.39815038744666
 20
-215.84344437808329
 30
0.0
 40
3.5
  1
R2 
 50
18.08685886391288
  0
ENDBLK
  5
4F94
  8
0
  0
BLOCK
  8
0
  2
*U218
 70
     1
 10
0.0
 20
0.0
 30
0.0
  3
*U218
  1

  0
TEXT
  5
4F96
  8
1DIM
 62
   201
 10
-548.86992597916162
 20
-183.15087612270651
 30
0.0
 40
3.5
  1
R2 
 50
313.05502351818649
  0
ENDBLK
  5
4F98
  8
0
  0
BLOCK
  8
0
  2
*U219
 70
     1
 10
0.0
 20
0.0
 30
0.0
  3
*U219
  1

  0
TEXT
  5
4F9A
  8
1DIM
 62
   201
 10
-608.18060225801605
 20
-284.87290910583272
 30
0.0
 40
3.5
  1
R1 
 50
318.96388243141911
  0
ENDBLK
  5
4F9C
  8
0
  0
BLOCK
  8
0
  2
*U220
 70
     1
 10
0.0
 20
0.0
 30
0.0
  3
*U220
  1

  0
TEXT
  5
4F9E
  8
1DIM
 62
   201
 10
-610.33848465934875
 20
-292.80955780549169
 30
0.0
 40
3.5
  1
6.1 
  0
ENDBLK
  5
4FA0
  8
0
  0
BLOCK
  8
0
  2
*U221
 70
     1
 10
0.0
 20
0.0
 30
0.0
  3
*U221
  1

  0
TEXT
  5
4FA2
  8
1DIM
 62
   201
 10
-631.82353530781666
 20
-289.24696086348177
 30
0.0
 40
3.5
  1
R1 
 50
34.163490559562163
  0
ENDBLK
  5
4FA4
  8
0
  0
ENDSEC
  0
SECTION
  2
ENTITIES
  0
CIRCLE
  5
4292
  8
01
 10
-613.80515132601533
 20
-172.6645648160204
 30
0.0
 40
4.2000000000000002
  0
CIRCLE
  5
4293
  8
01
 10
-613.80515132601533
 20
-172.6645648160204
 30
0.0
 40
2.5
  0
LINE
  5
4294
  8
1CENTER
 10
-608.05515132601533
 20
-172.6645648160204
 30
0.0
 11
-619.55515132601533
 21
-172.6645648160204
 31
0.0
  0
ARC
  5
4295
  8
01
 10
-620.80515132601533
 20
-171.6645648160204
 30
0.0
 40
6.0
 50
90.0
 51
180.0
  0
ARC
  5
4296
  8
01
 10
-606.80515132601533
 20
-171.6645648160204
 30
0.0
 40
6.0
 50
0.0
 51
90.0
  0
LINE
  5
4297
  8
01
 10
-606.80515132601533
 20
-165.6645648160204
 30
0.0
 11
-620.80515132601533
 21
-165.6645648160204
 31
0.0
  0
LINE
  5
4298
  8
01
 10
-600.80515132601533
 20
-201.66456481602049
 30
0.0
 11
-600.80515132601533
 21
-171.6645648160204
 31
0.0
  0
LINE
  5
4299
  8
01
 10
-626.80515132601533
 20
-201.66456481602049
 30
0.0
 11
-626.80515132601533
 21
-171.6645648160204
 31
0.0
  0
CIRCLE
  5
429A
  8
01
 10
-613.80515132601545
 20
-230.66456481602049
 30
0.0
 40
4.2000000000000002
  0
CIRCLE
  5
429B
  8
01
 10
-613.80515132601545
 20
-230.66456481602049
 30
0.0
 40
2.5
  0
LINE
  5
429C
  8
1CENTER
 10
-608.05515132601545
 20
-230.66456481602049
 30
0.0
 11
-619.55515132601545
 21
-230.66456481602049
 31
0.0
  0
ARC
  5
429D
  8
01
 10
-620.80515132601545
 20
-231.6645648160204
 30
0.0
 40
6.0
 50
180.0
 51
270.0
  0
ARC
  5
429E
  8
01
 10
-606.80515132601545
 20
-231.6645648160204
 30
0.0
 40
6.0
 50
270.0
 51
0.0
  0
LINE
  5
429F
  8
01
 10
-606.80515132601545
 20
-237.6645648160204
 30
0.0
 11
-620.80515132601545
 21
-237.6645648160204
 31
0.0
  0
LINE
  5
42A0
  8
01
 10
-600.80515132601533
 20
-201.66456481602049
 30
0.0
 11
-600.80515132601545
 21
-231.6645648160204
 31
0.0
  0
LINE
  5
42A1
  8
01
 10
-626.80515132601533
 20
-201.66456481602049
 30
0.0
 11
-626.80515132601545
 21
-231.6645648160204
 31
0.0
  0
LINE
  5
42A2
  8
1CENTER
 10
-613.80515132601545
 20
-236.6145648160205
 30
0.0
 11
-613.80515132601533
 21
-166.71456481602041
 31
0.0
  0
LINE
  5
42A3
  8
1CENTER
 10
-597.05515132601533
 20
-201.66456481602049
 30
0.0
 11
-630.55515132601533
 21
-201.66456481602049
 31
0.0
  0
LINE
  5
42A4
  8
01
 10
-605.80515132601533
 20
-185.1645648160204
 30
0.0
 11
-605.80515132601533
 21
-201.66456481602049
 31
0.0
  0
ARC
  5
42A5
  8
01
 10
-606.30515132601533
 20
-185.1645648160204
 30
0.0
 40
0.5
 50
0.0
 51
90.0
  0
LINE
  5
42A6
  8
01
 10
-605.80515132601533
 20
-218.16456481602049
 30
0.0
 11
-605.80515132601533
 21
-201.66456481602049
 31
0.0
  0
ARC
  5
42A7
  8
01
 10
-606.30515132601533
 20
-218.16456481602049
 30
0.0
 40
0.5
 50
270.0
 51
0.0
  0
LINE
  5
42A8
  8
01
 10
-621.80515132601533
 20
-185.1645648160204
 30
0.0
 11
-621.80515132601533
 21
-201.66456481602049
 31
0.0
  0
ARC
  5
42A9
  8
01
 10
-621.30515132601533
 20
-185.1645648160204
 30
0.0
 40
0.5
 50
90.0
 51
180.0
  0
LINE
  5
42AA
  8
01
 10
-621.80515132601533
 20
-218.16456481602049
 30
0.0
 11
-621.80515132601533
 21
-201.66456481602049
 31
0.0
  0
ARC
  5
42AB
  8
01
 10
-621.30515132601533
 20
-218.16456481602049
 30
0.0
 40
0.5
 50
180.0
 51
270.0
  0
LINE
  5
42AC
  8
01
 10
-606.30515132601533
 20
-218.66456481602049
 30
0.0
 11
-613.80515132601533
 21
-218.66456481602049
 31
0.0
  0
LINE
  5
42AD
  8
01
 10
-621.30515132601533
 20
-218.66456481602049
 30
0.0
 11
-613.80515132601533
 21
-218.66456481602049
 31
0.0
  0
LINE
  5
42AE
  8
01
 10
-621.30515132601533
 20
-184.6645648160204
 30
0.0
 11
-613.80515132601533
 21
-184.6645648160204
 31
0.0
  0
LINE
  5
42AF
  8
01
 10
-606.30515132601533
 20
-184.6645648160204
 30
0.0
 11
-613.80515132601533
 21
-184.6645648160204
 31
0.0
  0
LINE
  5
42B0
  8
01
 10
-608.30515132601533
 20
-184.6645648160204
 30
0.0
 11
-608.30515132601533
 21
-181.72456481602049
 31
0.0
  0
LINE
  5
42B1
  8
01
 10
-619.30515132601533
 20
-184.6645648160204
 30
0.0
 11
-619.30515132601533
 21
-181.72456481602049
 31
0.0
  0
LINE
  5
42B2
  8
01
 10
-608.30515132601533
 20
-218.66456481602049
 30
0.0
 11
-608.30515132601533
 21
-221.60456481602051
 31
0.0
  0
LINE
  5
42B3
  8
01
 10
-619.30515132601533
 20
-218.66456481602049
 30
0.0
 11
-619.30515132601533
 21
-221.66456481602049
 31
0.0
  0
LINE
  5
4342
  8
1HIDDEN
 10
-621.80515132601522
 20
-231.6645648160204
 30
0.0
 11
-621.80515132601522
 21
-201.66456481602049
 31
0.0
  0
ARC
  5
4343
  8
1HIDDEN
 10
-615.80515132601522
 20
-231.6645648160204
 30
0.0
 40
6.0
 50
180.0
 51
270.0
  0
ARC
  5
4344
  8
1HIDDEN
 10
-606.80515132601522
 20
-231.6645648160204
 30
0.0
 40
6.0
 50
270.0
 51
0.0
  0
LINE
  5
4345
  8
1HIDDEN
 10
-600.80515132601522
 20
-231.6645648160204
 30
0.0
 11
-600.80515132601522
 21
-201.66456481602049
 31
0.0
  0
LINE
  5
4346
  8
1HIDDEN
 10
-606.80515132601522
 20
-237.6645648160204
 30
0.0
 11
-615.80515132601522
 21
-237.6645648160204
 31
0.0
  0
ARC
  5
4347
  8
1HIDDEN
 10
-613.80515132601522
 20
-230.66456481602049
 30
0.0
 40
2.5
 50
90.0
 51
270.0
  0
LINE
  5
4348
  8
1HIDDEN
 10
-613.80515132601522
 20
-228.16456481602049
 30
0.0
 11
-608.80515132601522
 21
-228.16456481602049
 31
0.0
  0
ARC
  5
4349
  8
1HIDDEN
 10
-608.80515132601522
 20
-230.66456481602049
 30
0.0
 40
2.5
 50
270.0
 51
90.0
  0
LINE
  5
434A
  8
1HIDDEN
 10
-613.80515132601522
 20
-233.16456481602049
 30
0.0
 11
-608.80515132601522
 21
-233.16456481602049
 31
0.0
  0
LINE
  5
434B
  8
1CENTER
 10
-630.55515132601533
 20
-201.66456481602049
 30
0.0
 11
-597.05515132601533
 21
-201.66456481602049
 31
0.0
  0
LINE
  5
434C
  8
1CENTER
 10
-613.80515132601545
 20
-201.66456481602049
 30
0.0
 11
-613.80515132601533
 21
-241.2145648160205
 31
0.0
  0
LINE
  5
434D
  8
01
 10
-607.23313432601515
 20
-201.66456481602049
 30
0.0
 11
-607.23313432601515
 21
-217.66456481602049
 31
0.0
  0
POINT
  5
434E
  8
01
 10
-611.30515132601522
 20
-223.1645648160204
 30
0.0
 50
90.0
  0
POINT
  5
434F
  8
01
 10
-611.30515132601522
 20
-223.1645648160204
 30
0.0
 50
90.0
  0
LINE
  5
4350
  8
01
 10
-615.30515132601522
 20
-217.66456481602049
 30
0.0
 11
-611.30515132601522
 21
-217.66456481602049
 31
0.0
  0
LINE
  5
4351
  8
01
 10
-607.23313432601515
 20
-217.66456481602049
 30
0.0
 11
-611.30515132601522
 21
-217.66456481602049
 31
0.0
  0
LINE
  5
4352
  8
01
 10
-615.30515132601522
 20
-218.36456481602039
 30
0.0
 11
-616.80515132601522
 21
-218.36456481602039
 31
0.0
  0
LINE
  5
4353
  8
01
 10
-615.30515132601522
 20
-201.66456481602049
 30
0.0
 11
-615.30515132601522
 21
-218.36456481602039
 31
0.0
  0
LINE
  5
4354
  8
01
 10
-616.80515132601522
 20
-218.36456481602039
 30
0.0
 11
-616.80515132601522
 21
-201.66456481602049
 31
0.0
  0
LINE
  5
4355
  8
01
 10
-607.30515132601522
 20
-218.36456481602039
 30
0.0
 11
-607.30515132601522
 21
-217.66456481602049
 31
0.0
  0
LINE
  5
4356
  8
01
 10
-605.80515132601522
 20
-218.36456481602039
 30
0.0
 11
-605.80515132601533
 21
-201.66456481602049
 31
0.0
  0
LINE
  5
4357
  8
01
 10
-607.30515132601522
 20
-218.36456481602039
 30
0.0
 11
-605.80515132601522
 21
-218.36456481602039
 31
0.0
  0
ARC
  5
4358
  8
1HIDDEN
 10
-620.80515132601533
 20
-171.66456481602091
 30
0.0
 40
6.0
 50
90.0
 51
180.0
  0
LINE
  5
4359
  8
1HIDDEN
 10
-626.80515132601533
 20
-171.66456481602091
 30
0.0
 11
-626.80515132601533
 21
-201.66456481602091
 31
0.0
  0
LINE
  5
435A
  8
1HIDDEN
 10
-605.80515132601533
 20
-171.66456481602091
 30
0.0
 11
-605.80515132601533
 21
-201.66456481602091
 31
0.0
  0
ARC
  5
435B
  8
1HIDDEN
 10
-611.80515132601533
 20
-171.66456481602091
 30
0.0
 40
6.0
 50
0.0
 51
90.0
  0
LINE
  5
435C
  8
1HIDDEN
 10
-620.80515132601533
 20
-165.66456481602091
 30
0.0
 11
-611.80515132601533
 21
-165.66456481602091
 31
0.0
  0
ARC
  5
435D
  8
1HIDDEN
 10
-618.80515132601533
 20
-172.66456481602091
 30
0.0
 40
2.5
 50
90.0
 51
270.0
  0
LINE
  5
435E
  8
1HIDDEN
 10
-618.80515132601533
 20
-170.164564816021
 30
0.0
 11
-613.80515132601533
 21
-170.164564816021
 31
0.0
  0
ARC
  5
435F
  8
1HIDDEN
 10
-613.80515132601533
 20
-172.66456481602091
 30
0.0
 40
2.5
 50
270.0
 51
90.0
  0
LINE
  5
4360
  8
1HIDDEN
 10
-618.80515132601533
 20
-175.164564816021
 30
0.0
 11
-613.80515132601533
 21
-175.164564816021
 31
0.0
  0
LINE
  5
4361
  8
01
 10
-612.23313432601526
 20
-185.664564816021
 30
0.0
 11
-612.23313432601526
 21
-201.66456481602091
 31
0.0
  0
POINT
  5
4362
  8
01
 10
-616.30515132601533
 20
-180.16456481602091
 30
0.0
 50
90.0
  0
POINT
  5
4363
  8
01
 10
-616.30515132601533
 20
-180.16456481602091
 30
0.0
 50
90.0
  0
LINE
  5
4364
  8
01
 10
-620.30515132601533
 20
-185.664564816021
 30
0.0
 11
-616.30515132601533
 21
-185.664564816021
 31
0.0
  0
LINE
  5
4365
  8
01
 10
-612.23313432601526
 20
-185.664564816021
 30
0.0
 11
-616.30515132601533
 21
-185.664564816021
 31
0.0
  0
LINE
  5
4366
  8
01
 10
-620.30515132601533
 20
-184.9645648160209
 30
0.0
 11
-621.80515132601533
 21
-184.9645648160209
 31
0.0
  0
LINE
  5
4367
  8
01
 10
-612.23313432601526
 20
-184.9645648160209
 30
0.0
 11
-610.80515132601533
 21
-184.9645648160209
 31
0.0
  0
LINE
  5
4368
  8
01
 10
-620.30515132601533
 20
-184.9645648160209
 30
0.0
 11
-620.30515132601533
 21
-201.66456481602091
 31
0.0
  0
LINE
  5
4369
  8
01
 10
-621.80515132601533
 20
-201.66456481602091
 30
0.0
 11
-621.80515132601533
 21
-184.97456481602089
 31
0.0
  0
LINE
  5
436A
  8
01
 10
-610.80515132601545
 20
-201.66456481602091
 30
0.0
 11
-610.80515132601533
 21
-184.9645648160209
 31
0.0
  0
LINE
  5
436B
  8
01
 10
-612.23313432601526
 20
-185.664564816021
 30
0.0
 11
-612.23313432601526
 21
-184.9645648160209
 31
0.0
  0
POINT
  5
436C
  8
01
 10
-616.30515132601533
 20
-180.16456481602091
 30
0.0
 50
90.0
  0
POINT
  5
436D
  8
01
 10
-616.30515132601533
 20
-180.16456481602091
 30
0.0
 50
90.0
  0
LINE
  5
436E
  8
1CENTER
 10
-613.80515132601556
 20
-162.11456481602039
 30
0.0
 11
-613.80515132601545
 21
-201.66456481602049
 31
0.0
  0
LINE
  5
4373
  8
01
 10
-600.80515132601545
 20
-273.41844789002278
 30
0.0
 11
-600.80515132601545
 21
-271.41844789002278
 31
0.0
  0
LINE
  5
4374
  8
01
 10
-600.80515132601545
 20
-271.41844789002278
 30
0.0
 11
-626.80515132601545
 21
-271.41844789002278
 31
0.0
  0
LINE
  5
4375
  8
01
 10
-600.80515132601545
 20
-273.41844789002278
 30
0.0
 11
-626.80515132601545
 21
-273.41844789002278
 31
0.0
  0
LINE
  5
4376
  8
01
 10
-626.80515132601545
 20
-273.41844789002278
 30
0.0
 11
-626.80515132601545
 21
-271.41844789002278
 31
0.0
  0
LINE
  5
4377
  8
1CENTER
 10
-613.80515132601545
 20
-267.61844789002288
 30
0.0
 11
-613.80515132601545
 21
-277.41844789002278
 31
0.0
  0
POINT
  5
437E
  8
1CENTER
 10
-613.80515132601545
 20
-275.61844789002288
 30
0.0
 50
270.0
  0
LINE
  5
4405
  8
01
 10
-624.30515132601545
 20
-275.41844789002278
 30
0.0
 11
-624.30515132601545
 21
-273.41844789002278
 31
0.0
  0
LINE
  5
4406
  8
01
 10
-624.30515132601545
 20
-275.41844789002278
 30
0.0
 11
-624.30515132601545
 21
-273.41844789002278
 31
0.0
  0
LINE
  5
4407
  8
01
 10
-603.30515132601545
 20
-275.41844789002278
 30
0.0
 11
-603.30515132601545
 21
-273.41844789002278
 31
0.0
  0
LINE
  5
440A
  8
01
 10
-619.30515132601545
 20
-280.91844789002289
 30
0.0
 11
-619.30515132601545
 21
-275.41844789002278
 31
0.0
  0
ARC
  5
440B
  8
01
 10
-618.30515132601545
 20
-280.91844789002289
 30
0.0
 40
0.9999999999999998
 50
180.0
 51
270.0
  0
LINE
  5
440F
  8
01
 10
-603.30515132601545
 20
-275.41844789002278
 30
0.0
 11
-609.73313432601549
 21
-275.41844789002278
 31
0.0
  0
LINE
  5
4410
  8
01
 10
-618.30515132601545
 20
-281.91844789002289
 30
0.0
 11
-613.79010632601535
 21
-281.91844789002289
 31
0.0
  0
ARC
  5
4411
  8
01
 10
-613.79010632601535
 20
-280.91844789002289
 30
0.0
 40
0.9999999999999998
 50
270.0
 51
332.00000000000028
  0
LINE
  5
4412
  8
01
 10
-603.30515132601545
 20
-273.41844789002278
 30
0.0
 11
-608.30515132601545
 21
-273.41844789002278
 31
0.0
  0
LINE
  5
4413
  8
01
 10
-624.30515132601545
 20
-273.41844789002278
 30
0.0
 11
-608.30515132601545
 21
-273.41844789002278
 31
0.0
  0
LINE
  5
4414
  8
01
 10
-624.30515132601545
 20
-275.41844789002278
 30
0.0
 11
-609.73313432601549
 21
-275.41844789002278
 31
0.0
  0
LINE
  5
441F
  8
01
 10
-609.7331343586759
 20
-275.41844789002278
 30
0.0
 11
-612.90715832601552
 21
-281.38791989002289
 31
0.0
  0
LINE
  5
445D
  8
1HIDDEN
 10
-626.80515132601545
 20
-275.41844789002278
 30
0.0
 11
-626.80515132601545
 21
-273.41844789002278
 31
0.0
  0
LINE
  5
445E
  8
1HIDDEN
 10
-626.80515132601545
 20
-275.41844789002278
 30
0.0
 11
-626.80515132601545
 21
-273.41844789002278
 31
0.0
  0
LINE
  5
4460
  8
1HIDDEN
 10
-621.80515132601545
 20
-280.91844789002289
 30
0.0
 11
-621.80515132601545
 21
-275.41844789002278
 31
0.0
  0
ARC
  5
4461
  8
1HIDDEN
 10
-620.80515132601545
 20
-280.91844789002289
 30
0.0
 40
0.9999999999999998
 50
180.0
 51
270.0
  0
LINE
  5
4463
  8
1HIDDEN
 10
-620.80515132601545
 20
-281.91844789002289
 30
0.0
 11
-618.30515132601545
 21
-281.91844789002289
 31
0.0
  0
LINE
  5
4467
  8
1HIDDEN
 10
-626.80515132601545
 20
-275.41844789002278
 30
0.0
 11
-621.80515132601545
 21
-275.41844789002278
 31
0.0
  0
LINE
  5
44AD
  8
1HIDDEN
 10
-600.80515132601533
 20
-275.41844789002278
 30
0.0
 11
-600.80515132601533
 21
-273.41844789002278
 31
0.0
  0
LINE
  5
44B0
  8
1HIDDEN
 10
-600.80515132601533
 20
-275.41844789002278
 30
0.0
 11
-607.23313432601526
 21
-275.41844789002278
 31
0.0
  0
LINE
  5
44B1
  8
1HIDDEN
 10
-613.79010632601535
 20
-281.91844789002289
 30
0.0
 11
-611.29010632601535
 21
-281.91844789002289
 31
0.0
  0
ARC
  5
44B2
  8
1HIDDEN
 10
-611.29010632601535
 20
-280.91844789002289
 30
0.0
 40
0.9999999999999998
 50
270.0
 51
332.00000000000028
  0
LINE
  5
44C0
  8
1HIDDEN
 10
-607.23313435867544
 20
-275.41844789002289
 30
0.0
 11
-610.40715832601541
 21
-281.38791989002289
 31
0.0
  0
LINE
  5
466B
  8
01
 10
-676.03758045560005
 20
-219.1645648160204
 30
0.0
 11
-676.03758045560005
 21
-184.1645648160204
 31
0.0
  0
LINE
  5
466C
  8
01
 10
-669.53758045560005
 20
-219.1645648160204
 30
0.0
 11
-676.03758045560005
 21
-219.1645648160204
 31
0.0
  0
LINE
  5
466D
  8
01
 10
-667.53758045560016
 20
-237.6645648160204
 30
0.0
 11
-669.53758045560005
 21
-237.6645648160204
 31
0.0
  0
LINE
  5
466E
  8
01
 10
-669.53758045560005
 20
-237.6645648160204
 30
0.0
 11
-669.53758045560005
 21
-219.1645648160204
 31
0.0
  0
LINE
  5
466F
  8
01
 10
-669.53758045560005
 20
-184.1645648160204
 30
0.0
 11
-669.53758045560005
 21
-165.6645648160204
 31
0.0
  0
LINE
  5
4670
  8
01
 10
-667.53758045560016
 20
-237.6645648160204
 30
0.0
 11
-667.53758045560016
 21
-217.66456481602049
 31
0.0
  0
LINE
  5
4671
  8
01
 10
-667.53758045560016
 20
-185.6645648160204
 30
0.0
 11
-667.53758045560016
 21
-165.6645648160204
 31
0.0
  0
LINE
  5
4676
  8
01
 10
-667.53758045560016
 20
-217.66456481602049
 30
0.0
 11
-667.53758045560016
 21
-185.6645648160204
 31
0.0
  0
LINE
  5
467F
  8
01
 10
-669.53758045560005
 20
-184.1645648160204
 30
0.0
 11
-676.03758045560005
 21
-184.1645648160204
 31
0.0
  0
LINE
  5
4681
  8
01
 10
-669.53758045560005
 20
-165.6645648160204
 30
0.0
 11
-667.53758045560016
 21
-165.6645648160204
 31
0.0
  0
LINE
  5
4692
  8
01
 10
-667.53758045560016
 20
-165.6645648160204
 30
0.0
 11
-667.53758045560016
 21
-237.6645648160204
 31
0.0
  0
LINE
  5
4693
  8
01
 10
-665.53758045560005
 20
-165.6645648160204
 30
0.0
 11
-665.53758045560005
 21
-237.6645648160204
 31
0.0
  0
LINE
  5
4695
  8
01
 10
-667.53758045560016
 20
-237.6645648160204
 30
0.0
 11
-665.53758045560005
 21
-237.6645648160204
 31
0.0
  0
LINE
  5
4696
  8
01
 10
-667.53758045560016
 20
-165.6645648160204
 30
0.0
 11
-665.53758045560005
 21
-165.6645648160204
 31
0.0
  0
LINE
  5
4698
  8
01
 10
-669.53758045560005
 20
-184.1645648160204
 30
0.0
 11
-669.53758045560005
 21
-219.1645648160204
 31
0.0
  0
ARC
  5
488F
  8
01
 10
-513.24719574247001
 20
-191.2645648160204
 30
0.0
 40
2.0
 50
0.0
 51
90.0
  0
LINE
  5
4890
  8
01
 10
-511.24719574247001
 20
-191.2645648160204
 30
0.0
 11
-511.24719574247001
 21
-213.2645648160204
 31
0.0
  0
ARC
  5
4891
  8
01
 10
-513.24719574247001
 20
-213.2645648160204
 30
0.0
 40
2.0
 50
270.0
 51
0.0
  0
LINE
  5
4892
  8
01
 10
-524.74719574247001
 20
-189.2645648160204
 30
0.0
 11
-524.74719574247001
 21
-215.2645648160204
 31
0.0
  0
LINE
  5
4893
  8
1HIDDEN
 10
-526.24719574247001
 20
-189.2645648160204
 30
0.0
 11
-526.24719574247001
 21
-215.2645648160204
 31
0.0
  0
LINE
  5
4894
  8
1HIDDEN
 10
-529.24719574247001
 20
-189.2645648160204
 30
0.0
 11
-529.24719574247001
 21
-215.2645648160204
 31
0.0
  0
LINE
  5
4895
  8
01
 10
-530.74719574247001
 20
-189.2645648160204
 30
0.0
 11
-530.74719574247001
 21
-215.2645648160204
 31
0.0
  0
ARC
  5
4896
  8
01
 10
-542.24719574247001
 20
-191.2645648160204
 30
0.0
 40
2.0
 50
90.0
 51
180.0
  0
LINE
  5
4897
  8
01
 10
-544.2471957424699
 20
-191.2645648160204
 30
0.0
 11
-544.2471957424699
 21
-213.2645648160204
 31
0.0
  0
ARC
  5
4898
  8
01
 10
-542.24719574247001
 20
-213.2645648160204
 30
0.0
 40
2.0
 50
180.0
 51
270.0
  0
LINE
  5
4899
  8
01
 10
-513.24719574247001
 20
-215.2645648160204
 30
0.0
 11
-542.24719574247001
 21
-215.2645648160204
 31
0.0
  0
LINE
  5
489A
  8
01
 10
-513.24719574247001
 20
-189.2645648160204
 30
0.0
 11
-542.24719574247001
 21
-189.2645648160204
 31
0.0
  0
CIRCLE
  5
489B
  8
01
 10
-517.74719574247001
 20
-195.2645648160204
 30
0.0
 40
4.2000000000000002
  0
CIRCLE
  5
489C
  8
01
 10
-517.74719574247001
 20
-195.2645648160204
 30
0.0
 40
2.7999999999999989
  0
CIRCLE
  5
489D
  8
01
 10
-517.74719574247001
 20
-209.2645648160204
 30
0.0
 40
4.2000000000000002
  0
CIRCLE
  5
489E
  8
01
 10
-517.74719574247001
 20
-209.2645648160204
 30
0.0
 40
2.7999999999999989
  0
CIRCLE
  5
489F
  8
01
 10
-537.74719574247001
 20
-195.2645648160204
 30
0.0
 40
4.2000000000000002
  0
CIRCLE
  5
48A0
  8
01
 10
-537.74719574247001
 20
-195.2645648160204
 30
0.0
 40
2.7999999999999989
  0
CIRCLE
  5
48A1
  8
01
 10
-537.74719574247001
 20
-209.2645648160204
 30
0.0
 40
4.2000000000000002
  0
CIRCLE
  5
48A2
  8
01
 10
-537.74719574247001
 20
-209.2645648160204
 30
0.0
 40
2.7999999999999989
  0
ARC
  5
48A3
  8
01
 10
-531.7471957424699
 20
-268.91844789002289
 30
0.0
 40
2.5
 50
270.0
 51
0.0
  0
ARC
  5
48A4
  8
01
 10
-531.7471957424699
 20
-268.91844789002289
 30
0.0
 40
1.0
 50
270.0
 51
0.0
  0
LINE
  5
48A5
  8
01
 10
-511.24719574247001
 20
-269.91844789002289
 30
0.0
 11
-511.24719574247001
 21
-271.41844789002289
 31
0.0
  0
ARC
  5
48A6
  8
01
 10
-523.74719574247001
 20
-268.91844789002289
 30
0.0
 40
1.0
 50
180.0
 51
270.0
  0
ARC
  5
48A7
  8
01
 10
-523.74719574247001
 20
-268.91844789002289
 30
0.0
 40
2.5
 50
180.0
 51
270.0
  0
LINE
  5
48A8
  8
01
 10
-511.24719574247001
 20
-269.91844789002289
 30
0.0
 11
-523.74719574247001
 21
-269.91844789002289
 31
0.0
  0
LINE
  5
48A9
  8
01
 10
-524.74719574247001
 20
-264.41844789002289
 30
0.0
 11
-524.74719574247001
 21
-268.91844789002289
 31
0.0
  0
LINE
  5
48AA
  8
01
 10
-526.24719574247001
 20
-264.41844789002289
 30
0.0
 11
-526.24719574247001
 21
-268.91844789002289
 31
0.0
  0
LINE
  5
48AB
  8
01
 10
-529.24719574247001
 20
-264.41844789002289
 30
0.0
 11
-529.24719574247001
 21
-268.91844789002289
 31
0.0
  0
LINE
  5
48AC
  8
01
 10
-530.74719574247001
 20
-264.41844789002289
 30
0.0
 11
-530.74719574247001
 21
-268.91844789002289
 31
0.0
  0
ARC
  5
48AD
  8
01
 10
-527.74719574247001
 20
-264.41844789002289
 30
0.0
 40
1.5
 50
0.0
 51
180.0
  0
ARC
  5
48AE
  8
01
 10
-527.74719574247001
 20
-264.41844789002289
 30
0.0
 40
3.0
 50
0.0
 51
180.0
  0
LINE
  5
48AF
  8
1HIDDEN
 10
-514.94719574246994
 20
-271.41844789002289
 30
0.0
 11
-514.94719574246994
 21
-271.31844789002292
 31
0.0
  0
LINE
  5
48B0
  8
1HIDDEN
 10
-513.54719574246985
 20
-269.91844789002289
 30
0.0
 11
-514.94719574246994
 21
-271.31844789002292
 31
0.0
  0
LINE
  5
48B1
  8
1HIDDEN
 10
-517.74719574247001
 20
-271.31844789002292
 30
0.0
 11
-514.94719574246994
 21
-271.31844789002292
 31
0.0
  0
LINE
  5
48B2
  8
1HIDDEN
 10
-520.54719574246985
 20
-271.41844789002289
 30
0.0
 11
-520.54719574246985
 21
-271.31844789002292
 31
0.0
  0
LINE
  5
48B3
  8
1HIDDEN
 10
-521.94719574246994
 20
-269.91844789002289
 30
0.0
 11
-520.54719574246985
 21
-271.31844789002292
 31
0.0
  0
LINE
  5
48B4
  8
1HIDDEN
 10
-517.74719574247001
 20
-271.31844789002292
 30
0.0
 11
-520.54719574246985
 21
-271.31844789002292
 31
0.0
  0
LINE
  5
48B5
  8
1HIDDEN
 10
-540.54719574246985
 20
-271.41844789002278
 30
0.0
 11
-540.54719574246985
 21
-271.31844789002292
 31
0.0
  0
LINE
  5
48B6
  8
1HIDDEN
 10
-541.94719574247006
 20
-269.91844789002278
 30
0.0
 11
-540.54719574246985
 21
-271.31844789002292
 31
0.0
  0
LINE
  5
48B7
  8
1HIDDEN
 10
-537.74719574247001
 20
-271.31844789002292
 30
0.0
 11
-540.54719574246985
 21
-271.31844789002292
 31
0.0
  0
LINE
  5
48B8
  8
1HIDDEN
 10
-534.94719574246994
 20
-271.41844789002278
 30
0.0
 11
-534.94719574246994
 21
-271.31844789002292
 31
0.0
  0
LINE
  5
48B9
  8
1HIDDEN
 10
-533.54719574246985
 20
-269.91844789002278
 30
0.0
 11
-534.94719574246994
 21
-271.31844789002292
 31
0.0
  0
LINE
  5
48BA
  8
1HIDDEN
 10
-537.74719574247001
 20
-271.31844789002292
 30
0.0
 11
-534.94719574246994
 21
-271.31844789002292
 31
0.0
  0
LINE
  5
48BB
  8
01
 10
-544.2471957424699
 20
-269.91844789002278
 30
0.0
 11
-544.2471957424699
 21
-271.41844789002278
 31
0.0
  0
LINE
  5
48BC
  8
01
 10
-544.2471957424699
 20
-269.91844789002278
 30
0.0
 11
-531.7471957424699
 21
-269.91844789002289
 31
0.0
  0
LINE
  5
48BD
  8
01
 10
-544.2471957424699
 20
-271.41844789002278
 30
0.0
 11
-531.7471957424699
 21
-271.41844789002289
 31
0.0
  0
LINE
  5
48BE
  8
01
 10
-511.24719574247001
 20
-271.41844789002289
 30
0.0
 11
-523.74719574247001
 21
-271.41844789002289
 31
0.0
  0
LINE
  5
48BF
  8
1CENTER
 10
-527.74719574247001
 20
-184.7645648160204
 30
0.0
 11
-527.74719574247001
 21
-218.56456481602049
 31
0.0
  0
LINE
  5
48C0
  8
1CENTER
 10
-517.74719574247001
 20
-189.33956481602061
 30
0.0
 11
-517.74719574247001
 21
-201.18956481602049
 31
0.0
  0
LINE
  5
48C1
  8
1CENTER
 10
-512.15719574246987
 20
-195.2645648160204
 30
0.0
 11
-523.33719574247004
 21
-195.2645648160204
 31
0.0
  0
LINE
  5
48C2
  8
1CENTER
 10
-527.74719574247001
 20
-260.41844789002289
 30
0.0
 11
-527.74719574247001
 21
-275.51844789002291
 31
0.0
  0
LINE
  5
48C3
  8
1CENTER
 10
-522.54719574246997
 20
-264.41844789002289
 30
0.0
 11
-532.94719574246994
 21
-264.41844789002278
 31
0.0
  0
LINE
  5
48C4
  8
1CENTER
 10
-537.74719574247001
 20
-269.0184478900228
 30
0.0
 11
-537.74719574247001
 21
-272.7184478900229
 31
0.0
  0
LINE
  5
48C5
  8
1CENTER
 10
-517.74719574247001
 20
-269.01844789002291
 30
0.0
 11
-517.74719574247001
 21
-272.7184478900229
 31
0.0
  0
LINE
  5
48C6
  8
1CENTER
 10
-517.74719574247001
 20
-203.3395648160205
 30
0.0
 11
-517.74719574247001
 21
-215.18956481602041
 31
0.0
  0
LINE
  5
48C7
  8
1CENTER
 10
-512.15719574246987
 20
-209.26456481602031
 30
0.0
 11
-523.33719574246993
 21
-209.26456481602031
 31
0.0
  0
LINE
  5
48C8
  8
1CENTER
 10
-537.74719574247001
 20
-203.3395648160205
 30
0.0
 11
-537.74719574247001
 21
-215.18956481602041
 31
0.0
  0
LINE
  5
48C9
  8
1CENTER
 10
-532.15719574246998
 20
-209.26456481602031
 30
0.0
 11
-543.33719574246993
 21
-209.26456481602031
 31
0.0
  0
LINE
  5
48CA
  8
1CENTER
 10
-537.74719574247001
 20
-189.33956481602041
 30
0.0
 11
-537.74719574247001
 21
-201.18956481602041
 31
0.0
  0
LINE
  5
48CB
  8
1CENTER
 10
-532.15719574246998
 20
-195.26456481602031
 30
0.0
 11
-543.33719574246993
 21
-195.26456481602031
 31
0.0
  0
LINE
  5
48CC
  8
01
 10
-480.58943000707262
 20
-188.6645648160204
 30
0.0
 11
-480.58943000707262
 21
-214.6645648160204
 31
0.0
  0
LINE
  5
48CD
  8
01
 10
-472.08943000707262
 20
-188.6645648160204
 30
0.0
 11
-472.08943000707262
 21
-214.6645648160204
 31
0.0
  0
LINE
  5
48CE
  8
01
 10
-470.58943000707268
 20
-188.6645648160204
 30
0.0
 11
-470.58943000707268
 21
-214.6645648160204
 31
0.0
  0
LINE
  5
48CF
  8
01
 10
-480.58943000707262
 20
-188.6645648160204
 30
0.0
 11
-470.58943000707268
 21
-188.6645648160204
 31
0.0
  0
LINE
  5
48D0
  8
01
 10
-480.58943000707262
 20
-214.6645648160204
 30
0.0
 11
-470.58943000707268
 21
-214.6645648160204
 31
0.0
  0
LINE
  5
48D1
  8
1HIDDEN
 10
-479.08943000707268
 20
-188.6645648160204
 30
0.0
 11
-479.08943000707268
 21
-214.6645648160204
 31
0.0
  0
LINE
  5
48D2
  8
1HIDDEN
 10
-470.58943000707268
 20
-191.86456481602039
 30
0.0
 11
-470.6894300070727
 21
-191.86456481602039
 31
0.0
  0
LINE
  5
48D3
  8
1HIDDEN
 10
-472.08943000707262
 20
-190.46456481602041
 30
0.0
 11
-470.6894300070727
 21
-191.86456481602039
 31
0.0
  0
LINE
  5
48D4
  8
1HIDDEN
 10
-470.6894300070727
 20
-194.66456481602029
 30
0.0
 11
-470.6894300070727
 21
-191.86456481602039
 31
0.0
  0
LINE
  5
48D5
  8
1HIDDEN
 10
-470.58943000707268
 20
-197.46456481602041
 30
0.0
 11
-470.6894300070727
 21
-197.46456481602041
 31
0.0
  0
LINE
  5
48D6
  8
1HIDDEN
 10
-472.08943000707262
 20
-198.86456481602039
 30
0.0
 11
-470.6894300070727
 21
-197.46456481602041
 31
0.0
  0
LINE
  5
48D7
  8
1HIDDEN
 10
-470.6894300070727
 20
-194.66456481602029
 30
0.0
 11
-470.6894300070727
 21
-197.46456481602041
 31
0.0
  0
LINE
  5
48D8
  8
1CENTER
 10
-472.9894300070726
 20
-194.66456481602029
 30
0.0
 11
-469.28943000707272
 21
-194.66456481602029
 31
0.0
  0
LINE
  5
48D9
  8
1HIDDEN
 10
-470.58943000707268
 20
-205.8645648160205
 30
0.0
 11
-470.6894300070727
 21
-205.8645648160205
 31
0.0
  0
LINE
  5
48DA
  8
1HIDDEN
 10
-472.08943000707262
 20
-204.4645648160205
 30
0.0
 11
-470.6894300070727
 21
-205.8645648160205
 31
0.0
  0
LINE
  5
48DB
  8
1HIDDEN
 10
-470.6894300070727
 20
-208.6645648160204
 30
0.0
 11
-470.6894300070727
 21
-205.8645648160205
 31
0.0
  0
LINE
  5
48DC
  8
1HIDDEN
 10
-470.58943000707268
 20
-211.4645648160205
 30
0.0
 11
-470.6894300070727
 21
-211.4645648160205
 31
0.0
  0
LINE
  5
48DD
  8
1HIDDEN
 10
-472.08943000707262
 20
-212.8645648160205
 30
0.0
 11
-470.6894300070727
 21
-211.4645648160205
 31
0.0
  0
LINE
  5
48DE
  8
1HIDDEN
 10
-470.6894300070727
 20
-208.6645648160204
 30
0.0
 11
-470.6894300070727
 21
-211.4645648160205
 31
0.0
  0
LINE
  5
48DF
  8
1CENTER
 10
-472.9894300070726
 20
-208.6645648160204
 30
0.0
 11
-469.28943000707272
 21
-208.6645648160204
 31
0.0
  0
LINE
  5
49F5
  8
1CENTER
 10
-549.24719574247001
 20
-201.6645648160204
 30
0.0
 11
-506.2471957424699
 21
-201.6645648160204
 31
0.0
  0
LINE
  5
49F6
  8
1CENTER
 10
-485.58943000707262
 20
-201.66456481602049
 30
0.0
 11
-465.58943000707262
 21
-201.66456481602049
 31
0.0
  0
TEXT
  5
4C13
  8
1TEXT
 10
-696.29782174640752
 20
-133.0477511377679
 30
0.0
 40
6.0
  1
AC-760-01
  0
LINE
  5
4C2B
  8
1TEXT
 10
-697.15736552294675
 20
-293.4597218320464
 30
0.0
 11
-665.0265489642253
 21
-293.4597218320464
 31
0.0
  0
LINE
  5
4C2C
  8
1TEXT
 10
-665.0265489642253
 20
-293.4597218320464
 30
0.0
 11
-665.0265489642253
 21
-302.0691481811084
 31
0.0
  0
LINE
  5
4C2D
  8
1TEXT
 10
-665.0265489642253
 20
-302.0691481811084
 30
0.0
 11
-697.15736552294675
 21
-302.0691481811084
 31
0.0
  0
LINE
  5
4C2E
  8
1TEXT
 10
-697.15736552294675
 20
-302.0691481811084
 30
0.0
 11
-697.15736552294675
 21
-293.4597218320464
 31
0.0
  0
TEXT
  5
4C2F
  8
1TEXT
 10
-695.49215787635956
 20
-299.4695499393606
 30
0.0
 40
4.0
  1
左吊元使用時
  0
TEXT
  5
4C30
  8
1DIM
 10
-602.01007033990004
 20
-316.81929775557478
 30
0.0
 40
3.5
  1
受箱移動範囲
  0
LINE
  5
4C33
  8
1DIM
 10
-542.24719574247024
 20
-213.26456481602051
 30
0.0
 11
-544.14836966678695
 21
-213.88548164579529
 31
0.0
  0
LINE
  5
4C34
  8
1DIM
 10
-544.14836966678695
 20
-213.88548164579529
 30
0.0
 11
-552.7670247903568
 21
-216.7003046074415
 31
0.0
  0
LINE
  5
4C37
  8
1DIM
 10
-542.24719574246967
 20
-191.26456481602031
 30
0.0
 11
-543.61259653210902
 21
-189.80316798981161
 31
0.0
  0
LINE
  5
4C38
  8
1DIM
 10
-543.61259653210902
 20
-189.80316798981161
 30
0.0
 11
-549.80241344514002
 21
-183.17816904433249
 31
0.0
  0
LINE
  5
4C3B
  8
1DIM
 10
-511.24719574247001
 20
-271.41844789002289
 30
0.0
 11
-490.24719574247001
 21
-271.41844789002289
 31
0.0
  0
LINE
  5
4C3C
  8
1DIM
 10
-527.74719574247001
 20
-261.41844789002289
 30
0.0
 11
-490.24719574247001
 21
-261.41844789002289
 31
0.0
  0
LINE
  5
4C3D
  8
1DIM
 10
-491.24719574247001
 20
-269.41844789002289
 30
0.0
 11
-491.24719574247001
 21
-263.41844789002289
 31
0.0
  0
LINE
  5
4C41
  8
1DIM
 10
-527.74719574247013
 20
-264.418447890023
 30
0.0
 11
-525.27250419958978
 21
-262.72259949833318
 31
0.0
  0
LINE
  5
4C42
  8
1DIM
 10
-525.27250419958978
 20
-262.72259949833318
 30
0.0
 11
-515.5608039643289
 21
-256.06739785434502
 31
0.0
  0
LINE
  5
4C45
  8
1DIM
 10
-530.74719574247001
 20
-264.41844789002278
 30
0.0
 11
-530.74719574247001
 21
-250.7591896271322
 31
0.0
  0
LINE
  5
4C46
  8
1DIM
 10
-524.74719574247001
 20
-264.41844789002278
 30
0.0
 11
-524.74719574247001
 21
-250.7591896271322
 31
0.0
  0
LINE
  5
4C47
  8
1DIM
 10
-528.74719574247001
 20
-251.7591896271322
 30
0.0
 11
-526.7471957424699
 21
-251.7591896271322
 31
0.0
  0
LINE
  5
4C4B
  8
1DIM
 10
-511.24719574247001
 20
-271.41844789002278
 30
0.0
 11
-500.24719574247013
 21
-271.41844789002278
 31
0.0
  0
LINE
  5
4C4C
  8
1DIM
 10
-511.24719574247001
 20
-269.91844789002289
 30
0.0
 11
-500.24719574247013
 21
-269.91844789002289
 31
0.0
  0
LINE
  5
4C4D
  8
1DIM
 10
-501.24719574247001
 20
-267.91844789002289
 30
0.0
 11
-501.24719574247001
 21
-265.91844789002289
 31
0.0
  0
LINE
  5
4C4E
  8
1DIM
 10
-501.24719574247001
 20
-273.41844789002278
 30
0.0
 11
-501.24719574247001
 21
-283.65178122335618
 31
0.0
  0
LINE
  5
4C4F
  8
1DIM
 10
-501.24719574247001
 20
-269.91844789002289
 30
0.0
 11
-501.24719574247001
 21
-271.41844789002278
 31
0.0
  0
LINE
  5
4C53
  8
1DIM
 10
-517.74719574247001
 20
-209.26456481602031
 30
0.0
 11
-517.74719574247001
 21
-223.81456481602041
 31
0.0
  0
LINE
  5
4C54
  8
1DIM
 10
-511.24719574247001
 20
-209.2645648160204
 30
0.0
 11
-511.24719574247001
 21
-223.81456481602041
 31
0.0
  0
LINE
  5
4C55
  8
1DIM
 10
-515.74719574247001
 20
-222.81456481602041
 30
0.0
 11
-513.24719574247001
 21
-222.81456481602041
 31
0.0
  0
LINE
  5
4C56
  8
1DIM
 10
-511.24719574247001
 20
-222.81456481602041
 30
0.0
 11
-500.68052907580329
 21
-222.81456481602041
 31
0.0
  0
LINE
  5
4C5A
  8
1DIM
 10
-537.74719574247001
 20
-209.26456481602031
 30
0.0
 11
-537.74719574247001
 21
-223.81456481602041
 31
0.0
  0
LINE
  5
4C5B
  8
1DIM
 10
-517.74719574247001
 20
-209.2645648160204
 30
0.0
 11
-517.74719574247001
 21
-223.81456481602041
 31
0.0
  0
LINE
  5
4C5C
  8
1DIM
 10
-535.7471957424699
 20
-222.81456481602041
 30
0.0
 11
-519.74719574247001
 21
-222.81456481602041
 31
0.0
  0
LINE
  5
4C60
  8
1DIM
 10
-544.2471957424699
 20
-213.2645648160204
 30
0.0
 11
-544.2471957424699
 21
-223.81456481602041
 31
0.0
  0
LINE
  5
4C61
  8
1DIM
 10
-537.74719574247001
 20
-209.2645648160204
 30
0.0
 11
-537.74719574247001
 21
-223.81456481602041
 31
0.0
  0
LINE
  5
4C62
  8
1DIM
 10
-539.7471957424699
 20
-222.81456481602041
 30
0.0
 11
-542.24719574247001
 21
-222.81456481602041
 31
0.0
  0
LINE
  5
4C63
  8
1DIM
 10
-544.2471957424699
 20
-222.81456481602041
 30
0.0
 11
-554.81386240913673
 21
-222.81456481602041
 31
0.0
  0
LINE
  5
4C67
  8
1DIM
 10
-517.74719574247001
 20
-209.2645648160204
 30
0.0
 11
-500.24719574247001
 21
-209.2645648160204
 31
0.0
  0
LINE
  5
4C68
  8
1DIM
 10
-513.24719574247001
 20
-215.2645648160204
 30
0.0
 11
-500.24719574247001
 21
-215.2645648160204
 31
0.0
  0
LINE
  5
4C69
  8
1DIM
 10
-501.24719574247001
 20
-211.2645648160204
 30
0.0
 11
-501.24719574247001
 21
-213.2645648160204
 31
0.0
  0
LINE
  5
4C6D
  8
1DIM
 10
-517.74719574247001
 20
-209.26456481602031
 30
0.0
 11
-500.24719574247001
 21
-209.26456481602031
 31
0.0
  0
LINE
  5
4C6E
  8
1DIM
 10
-517.74719574247001
 20
-195.26456481602051
 30
0.0
 11
-500.24719574247001
 21
-195.26456481602051
 31
0.0
  0
LINE
  5
4C6F
  8
1DIM
 10
-501.24719574247001
 20
-207.26456481602031
 30
0.0
 11
-501.24719574247001
 21
-197.26456481602051
 31
0.0
  0
LINE
  5
4C73
  8
1DIM
 10
-517.74719574247001
 20
-195.2645648160204
 30
0.0
 11
-500.24719574247001
 21
-195.2645648160204
 31
0.0
  0
LINE
  5
4C74
  8
1DIM
 10
-513.24719574247001
 20
-189.2645648160204
 30
0.0
 11
-500.24719574247001
 21
-189.2645648160204
 31
0.0
  0
LINE
  5
4C75
  8
1DIM
 10
-501.24719574247001
 20
-193.2645648160204
 30
0.0
 11
-501.24719574247001
 21
-191.2645648160204
 31
0.0
  0
LINE
  5
4C79
  8
1DIM
 10
-513.24719574247001
 20
-215.2645648160204
 30
0.0
 11
-492.69719574247023
 21
-215.2645648160204
 31
0.0
  0
LINE
  5
4C7A
  8
1DIM
 10
-513.2471957424699
 20
-189.2645648160204
 30
0.0
 11
-492.69719574247023
 21
-189.2645648160204
 31
0.0
  0
LINE
  5
4C7B
  8
1DIM
 10
-493.69719574247011
 20
-213.2645648160204
 30
0.0
 11
-493.69719574247011
 21
-191.2645648160204
 31
0.0
  0
LINE
  5
4C7F
  8
1DIM
 10
-544.2471957424699
 20
-213.2645648160204
 30
0.0
 11
-544.2471957424699
 21
-233.81456481602041
 31
0.0
  0
LINE
  5
4C80
  8
1DIM
 10
-511.24719574247001
 20
-213.2645648160204
 30
0.0
 11
-511.24719574247001
 21
-233.81456481602041
 31
0.0
  0
LINE
  5
4C81
  8
1DIM
 10
-542.24719574247001
 20
-232.81456481602041
 30
0.0
 11
-513.24719574247001
 21
-232.81456481602041
 31
0.0
  0
LINE
  5
4C85
  8
1DIM
 10
-669.53758045560005
 20
-237.6645648160204
 30
0.0
 11
-669.53758045560005
 21
-246.2145648160205
 31
0.0
  0
LINE
  5
4C86
  8
1DIM
 10
-665.53758045560005
 20
-237.6645648160204
 30
0.0
 11
-665.53758045560005
 21
-246.2145648160205
 31
0.0
  0
LINE
  5
4C87
  8
1DIM
 10
-671.53758045560016
 20
-245.2145648160205
 30
0.0
 11
-673.53758045560005
 21
-245.2145648160205
 31
0.0
  0
LINE
  5
4C88
  8
1DIM
 10
-663.53758045560016
 20
-245.2145648160205
 30
0.0
 11
-657.63758045560007
 21
-245.2145648160205
 31
0.0
  0
LINE
  5
4C89
  8
1DIM
 10
-669.53758045560005
 20
-245.2145648160205
 30
0.0
 11
-665.53758045560005
 21
-245.2145648160205
 31
0.0
  0
LINE
  5
4C8D
  8
1DIM
 10
-665.53758045560005
 20
-237.6645648160204
 30
0.0
 11
-665.53758045560005
 21
-258.6645648160204
 31
0.0
  0
LINE
  5
4C8E
  8
1DIM
 10
-676.03758045560005
 20
-219.1645648160204
 30
0.0
 11
-676.03758045560005
 21
-258.6645648160204
 31
0.0
  0
LINE
  5
4C8F
  8
1DIM
 10
-674.03758045560005
 20
-257.66456481602052
 30
0.0
 11
-667.53758045560016
 21
-257.66456481602052
 31
0.0
  0
LINE
  5
4C90
  8
1DIM
 10
-665.53758045560005
 20
-257.66456481602052
 30
0.0
 11
-651.97091378893344
 21
-257.66456481602052
 31
0.0
  0
LINE
  5
4C94
  8
1DIM
 10
-676.03758045560005
 20
-184.1645648160204
 30
0.0
 11
-689.48758045560021
 21
-184.1645648160204
 31
0.0
  0
LINE
  5
4C95
  8
1DIM
 10
-676.03758045560005
 20
-219.1645648160204
 30
0.0
 11
-689.48758045560021
 21
-219.1645648160204
 31
0.0
  0
LINE
  5
4C96
  8
1DIM
 10
-688.48758045560021
 20
-186.1645648160204
 30
0.0
 11
-688.48758045560021
 21
-217.1645648160204
 31
0.0
  0
LINE
  5
4C9A
  8
1DIM
 10
-669.53758045560005
 20
-165.6645648160204
 30
0.0
 11
-697.03758045560005
 21
-165.6645648160204
 31
0.0
  0
LINE
  5
4C9B
  8
1DIM
 10
-669.53758045560005
 20
-237.6645648160204
 30
0.0
 11
-697.03758045560005
 21
-237.6645648160204
 31
0.0
  0
LINE
  5
4C9C
  8
1DIM
 10
-696.03758045560005
 20
-167.6645648160204
 30
0.0
 11
-696.03758045560005
 21
-235.6645648160204
 31
0.0
  0
LINE
  5
4CA0
  8
1DIM
 10
-600.80515132601545
 20
-271.41844789002278
 30
0.0
 11
-590.02980909429698
 21
-271.41844789002278
 31
0.0
  0
LINE
  5
4CA1
  8
1DIM
 10
-600.80515132601533
 20
-275.41844789002278
 30
0.0
 11
-590.02980909429698
 21
-275.41844789002278
 31
0.0
  0
LINE
  5
4CA2
  8
1DIM
 10
-591.02980909429709
 20
-277.41844789002278
 30
0.0
 11
-591.02980909429709
 21
-279.41844789002278
 31
0.0
  0
LINE
  5
4CA3
  8
1DIM
 10
-591.02980909429709
 20
-269.41844789002278
 30
0.0
 11
-591.02980909429709
 21
-263.5184478900228
 31
0.0
  0
LINE
  5
4CA4
  8
1DIM
 10
-591.02980909429709
 20
-275.41844789002278
 30
0.0
 11
-591.02980909429709
 21
-271.41844789002278
 31
0.0
  0
LINE
  5
4CA8
  8
1DIM
 10
-613.80515132601545
 20
-271.41844789002278
 30
0.0
 11
-579.80515132601545
 21
-271.41844789002278
 31
0.0
  0
LINE
  5
4CA9
  8
1DIM
 10
-613.80515132601556
 20
-281.91844789002289
 30
0.0
 11
-579.80515132601545
 21
-281.91844789002289
 31
0.0
  0
LINE
  5
4CAA
  8
1DIM
 10
-580.80515132601556
 20
-279.91844789002289
 30
0.0
 11
-580.80515132601556
 21
-273.41844789002278
 31
0.0
  0
LINE
  5
4CAB
  8
1DIM
 10
-580.80515132601556
 20
-271.41844789002278
 30
0.0
 11
-580.80515132601556
 21
-257.85178122335623
 31
0.0
  0
LINE
  5
4CAF
  8
1DIM
 10
-619.13258989747123
 20
-281.48000412983117
 30
0.0
 11
-632.00965293996956
 21
-290.21925723136638
 31
0.0
  0
LINE
  5
4CB0
  8
1DIM
 10
-618.30515132601568
 20
-280.91844789002278
 30
0.0
 11
-619.13258989747123
 21
-281.48000412983129
 31
0.0
  0
LINE
  5
4CB3
  8
1DIM
 10
-613.03581045596479
 20
-281.574982535282
 30
0.0
 11
-604.59212200709214
 21
-288.92431881108843
 31
0.0
  0
LINE
  5
4CB4
  8
1DIM
 10
-613.79010632601546
 20
-280.91844789002329
 30
0.0
 11
-613.03581045596479
 21
-281.574982535282
 31
0.0
  0
LINE
  5
4CB7
  8
1DIM
 10
-606.80515132601499
 20
-171.66456481602009
 30
0.0
 11
-601.69685623757584
 21
-168.51729277670981
 31
0.0
  0
LINE
  5
4CB8
  8
1DIM
 10
-601.69685623757584
 20
-168.5172927767097
 30
0.0
 11
-593.97765477060068
 21
-163.7614150284183
 31
0.0
  0
LINE
  5
4CBB
  8
1DIM
 10
-606.80515132601545
 20
-231.6645648160208
 30
0.0
 11
-602.45746487582676
 21
-235.79949196542029
 31
0.0
  0
LINE
  5
4CBC
  8
1DIM
 10
-602.45746487582676
 20
-235.79949196542029
 30
0.0
 11
-595.88762757331915
 21
-242.04782632451341
 31
0.0
  0
LINE
  5
4CBF
  8
1DIM
 10
-610.70515132601543
 20
-280.91844789002289
 30
0.0
 11
-610.70515132601543
 21
-302.40733528435891
 31
0.0
  0
LINE
  5
4CC0
  8
1DIM
 10
-600.80515132601533
 20
-275.41844789002278
 30
0.0
 11
-600.80515132601533
 21
-302.40733528435891
 31
0.0
  0
LINE
  5
4CC1
  8
1DIM
 10
-608.70515132601543
 20
-301.40733528435891
 30
0.0
 11
-602.80515132601533
 21
-301.40733528435891
 31
0.0
  0
LINE
  5
4CC5
  8
1DIM
 10
-621.80515132601533
 20
-280.91844789002289
 30
0.0
 11
-621.80515132601533
 21
-302.40733528435891
 31
0.0
  0
LINE
  5
4CC6
  8
1DIM
 10
-626.80515132601545
 20
-275.41844789002278
 30
0.0
 11
-626.80515132601545
 21
-302.40733528435891
 31
0.0
  0
LINE
  5
4CC7
  8
1DIM
 10
-619.80515132601533
 20
-301.40733528435891
 30
0.0
 11
-617.80515132601533
 21
-301.40733528435891
 31
0.0
  0
LINE
  5
4CC8
  8
1DIM
 10
-628.80515132601545
 20
-301.40733528435891
 30
0.0
 11
-634.53848465934868
 21
-301.40733528435891
 31
0.0
  0
LINE
  5
4CC9
  8
1DIM
 10
-621.80515132601533
 20
-301.40733528435891
 30
0.0
 11
-626.80515132601545
 21
-301.40733528435891
 31
0.0
  0
LINE
  5
4CCD
  8
1DIM
 10
-621.80515132601533
 20
-280.91844789002289
 30
0.0
 11
-621.80515132601533
 21
-302.40733528435891
 31
0.0
  0
LINE
  5
4CCE
  8
1DIM
 10
-610.70515132601543
 20
-280.91844789002289
 30
0.0
 11
-610.70515132601543
 21
-302.40733528435891
 31
0.0
  0
LINE
  5
4CCF
  8
1DIM
 10
-619.80515132601533
 20
-301.40733528435891
 30
0.0
 11
-612.70515132601543
 21
-301.40733528435891
 31
0.0
  0
LINE
  5
4CD3
  8
1DIM
 10
-619.30515132601545
 20
-280.91844789002289
 30
0.0
 11
-619.30515132601545
 21
-294.50955780549168
 31
0.0
  0
LINE
  5
4CD4
  8
1DIM
 10
-613.20515132601543
 20
-280.91844789002289
 30
0.0
 11
-613.20515132601543
 21
-294.50955780549168
 31
0.0
  0
LINE
  5
4CD5
  8
1DIM
 10
-617.30515132601545
 20
-293.50955780549168
 30
0.0
 11
-615.20515132601543
 21
-293.50955780549168
 31
0.0
  0
LINE
  5
4CD6
  8
1DIM
 10
-613.20515132601543
 20
-293.50955780549168
 30
0.0
 11
-603.63848465934859
 21
-293.50955780549168
 31
0.0
  0
LINE
  5
4CDA
  8
1DIM
 10
-621.80515132601533
 20
-184.9645648160209
 30
0.0
 11
-621.80515132601533
 21
-154.6645648160204
 31
0.0
  0
LINE
  5
4CDB
  8
1DIM
 10
-626.80515132601533
 20
-171.6645648160204
 30
0.0
 11
-626.80515132601533
 21
-154.6645648160204
 31
0.0
  0
LINE
  5
4CDC
  8
1DIM
 10
-619.80515132601533
 20
-155.6645648160204
 30
0.0
 11
-617.80515132601533
 21
-155.6645648160204
 31
0.0
  0
LINE
  5
4CDD
  8
1DIM
 10
-628.80515132601533
 20
-155.6645648160204
 30
0.0
 11
-643.87181799268205
 21
-155.6645648160204
 31
0.0
  0
LINE
  5
4CDE
  8
1DIM
 10
-621.80515132601533
 20
-155.6645648160204
 30
0.0
 11
-626.80515132601533
 21
-155.6645648160204
 31
0.0
  0
LINE
  5
4CE2
  8
1DIM
 10
-613.80515132601556
 20
-172.6645648160204
 30
0.0
 11
-613.80515132601556
 21
-154.6645648160204
 31
0.0
  0
LINE
  5
4CE3
  8
1DIM
 10
-600.80515132601533
 20
-172.6645648160204
 30
0.0
 11
-600.80515132601533
 21
-154.6645648160204
 31
0.0
  0
LINE
  5
4CE4
  8
1DIM
 10
-611.80515132601545
 20
-155.6645648160204
 30
0.0
 11
-602.80515132601533
 21
-155.6645648160204
 31
0.0
  0
LINE
  5
4CE8
  8
1DIM
 10
-613.80515132601533
 20
-172.6645648160204
 30
0.0
 11
-582.25515132601515
 21
-172.6645648160204
 31
0.0
  0
LINE
  5
4CE9
  8
1DIM
 10
-613.80515132601533
 20
-230.66456481602049
 30
0.0
 11
-582.25515132601515
 21
-230.66456481602049
 31
0.0
  0
LINE
  5
4CEA
  8
1DIM
 10
-583.25515132601527
 20
-174.6645648160204
 30
0.0
 11
-583.25515132601527
 21
-228.66456481602049
 31
0.0
  0
LINE
  5
4CEE
  8
1DIM
 10
-607.30515132601522
 20
-217.66456481602049
 30
0.0
 11
-592.25515132601527
 21
-217.66456481602049
 31
0.0
  0
LINE
  5
4CEF
  8
1DIM
 10
-612.23313432601526
 20
-185.664564816021
 30
0.0
 11
-592.25515132601527
 21
-185.664564816021
 31
0.0
  0
LINE
  5
4CF0
  8
1DIM
 10
-593.25515132601527
 20
-215.66456481602049
 30
0.0
 11
-593.25515132601527
 21
-187.664564816021
 31
0.0
  0
LINE
  5
4CF4
  8
1DIM
 10
-613.80515132601533
 20
-237.6645648160204
 30
0.0
 11
-637.80515132601533
 21
-237.6645648160204
 31
0.0
  0
LINE
  5
4CF5
  8
1DIM
 10
-613.80515132601533
 20
-165.6645648160204
 30
0.0
 11
-637.80515132601533
 21
-165.6645648160204
 31
0.0
  0
LINE
  5
4CF6
  8
1DIM
 10
-636.80515132601533
 20
-235.6645648160204
 30
0.0
 11
-636.80515132601533
 21
-167.6645648160204
 31
0.0
  0
LINE
  5
4CFA
  8
1DIM
 10
-626.80515132601545
 20
-231.6645648160204
 30
0.0
 11
-626.80515132601545
 21
-248.66456481602049
 31
0.0
  0
LINE
  5
4CFB
  8
1DIM
 10
-616.80515132601522
 20
-218.36456481602039
 30
0.0
 11
-616.80515132601522
 21
-248.66456481602049
 31
0.0
  0
LINE
  5
4CFC
  8
1DIM
 10
-618.80515132601522
 20
-247.66456481602049
 30
0.0
 11
-624.80515132601545
 21
-247.66456481602049
 31
0.0
  0
LINE
  5
4CFD
  8
1DIM
 10
-626.80515132601545
 20
-247.66456481602049
 30
0.0
 11
-646.70515132601543
 21
-247.66456481602049
 31
0.0
  0
LINE
  5
4D01
  8
1DIM
 10
-626.80515132601545
 20
-231.6645648160204
 30
0.0
 11
-626.80515132601545
 21
-258.6645648160204
 31
0.0
  0
LINE
  5
4D02
  8
1DIM
 10
-600.80515132601522
 20
-231.6645648160204
 30
0.0
 11
-600.80515132601522
 21
-258.6645648160204
 31
0.0
  0
LINE
  5
4D03
  8
1DIM
 10
-624.80515132601545
 20
-257.66456481602052
 30
0.0
 11
-602.80515132601522
 21
-257.66456481602052
 31
0.0
  0
TEXT
  5
4D07
  8
1DIM
 10
-616.72181799268196
 20
-256.96456481602053
 30
0.0
 40
3.5
  1
26 
  0
LINE
  5
4D08
  8
0
  6
BYBLOCK
 10
-602.80515132601522
 20
-257.12866643602052
 30
0.0
 11
-600.80515132601522
 21
-257.66456481602052
 31
0.0
  0
LINE
  5
4D09
  8
0
  6
BYBLOCK
 10
-600.80515132601522
 20
-257.66456481602052
 30
0.0
 11
-602.80515132601522
 21
-258.20046319602051
 31
0.0
  0
LINE
  5
4D0A
  8
0
  6
BYBLOCK
 10
-600.80515132601522
 20
-257.66456481602052
 30
0.0
 11
-602.80515132601522
 21
-257.66456481602052
 31
0.0
  0
LINE
  5
4D0B
  8
0
  6
BYBLOCK
 10
-624.80515132601545
 20
-258.20046319602051
 30
0.0
 11
-626.80515132601545
 21
-257.66456481602052
 31
0.0
  0
LINE
  5
4D0C
  8
0
  6
BYBLOCK
 10
-626.80515132601545
 20
-257.66456481602052
 30
0.0
 11
-624.80515132601545
 21
-257.12866643602052
 31
0.0
  0
LINE
  5
4D0D
  8
0
  6
BYBLOCK
 10
-626.80515132601545
 20
-257.66456481602052
 30
0.0
 11
-624.80515132601545
 21
-257.66456481602052
 31
0.0
  0
TEXT
  5
4D0E
  8
1DIM
 10
-645.04681799268212
 20
-246.9645648160205
 30
0.0
 40
3.5
  1
max10
  0
LINE
  5
4D0F
  8
0
  6
BYBLOCK
 10
-624.80515132601545
 20
-248.20046319602051
 30
0.0
 11
-626.80515132601545
 21
-247.66456481602049
 31
0.0
  0
LINE
  5
4D10
  8
0
  6
BYBLOCK
 10
-626.80515132601545
 20
-247.66456481602049
 30
0.0
 11
-624.80515132601545
 21
-247.1286664360205
 31
0.0
  0
LINE
  5
4D11
  8
0
  6
BYBLOCK
 10
-626.80515132601545
 20
-247.66456481602049
 30
0.0
 11
-624.80515132601545
 21
-247.66456481602049
 31
0.0
  0
LINE
  5
4D12
  8
0
  6
BYBLOCK
 10
-618.80515132601522
 20
-247.1286664360205
 30
0.0
 11
-616.80515132601522
 21
-247.66456481602049
 31
0.0
  0
LINE
  5
4D13
  8
0
  6
BYBLOCK
 10
-616.80515132601522
 20
-247.66456481602049
 30
0.0
 11
-618.80515132601522
 21
-248.20046319602051
 31
0.0
  0
LINE
  5
4D14
  8
0
  6
BYBLOCK
 10
-616.80515132601522
 20
-247.66456481602049
 30
0.0
 11
-618.80515132601522
 21
-247.66456481602049
 31
0.0
  0
TEXT
  5
4D15
  8
1DIM
 10
-637.50515132601527
 20
-204.5812314826872
 30
0.0
 40
3.5
  1
72 
 50
90.0
  0
LINE
  5
4D16
  8
0
  6
BYBLOCK
 10
-637.34104970601527
 20
-167.6645648160204
 30
0.0
 11
-636.80515132601533
 21
-165.6645648160204
 31
0.0
  0
LINE
  5
4D17
  8
0
  6
BYBLOCK
 10
-636.80515132601533
 20
-165.6645648160204
 30
0.0
 11
-636.26925294601529
 21
-167.6645648160204
 31
0.0
  0
LINE
  5
4D18
  8
0
  6
BYBLOCK
 10
-636.80515132601533
 20
-165.6645648160204
 30
0.0
 11
-636.80515132601533
 21
-167.6645648160204
 31
0.0
  0
LINE
  5
4D19
  8
0
  6
BYBLOCK
 10
-636.26925294601529
 20
-235.6645648160204
 30
0.0
 11
-636.80515132601533
 21
-237.6645648160204
 31
0.0
  0
LINE
  5
4D1A
  8
0
  6
BYBLOCK
 10
-636.80515132601533
 20
-237.6645648160204
 30
0.0
 11
-637.34104970601527
 21
-235.6645648160204
 31
0.0
  0
LINE
  5
4D1B
  8
0
  6
BYBLOCK
 10
-636.80515132601533
 20
-237.6645648160204
 30
0.0
 11
-636.80515132601533
 21
-235.6645648160204
 31
0.0
  0
TEXT
  5
4D1C
  8
1DIM
 10
-593.95515132601543
 20
-204.5812314826874
 30
0.0
 40
3.5
  1
32 
 50
90.0
  0
LINE
  5
4D1D
  8
0
  6
BYBLOCK
 10
-593.79104970601543
 20
-187.664564816021
 30
0.0
 11
-593.25515132601527
 21
-185.664564816021
 31
0.0
  0
LINE
  5
4D1E
  8
0
  6
BYBLOCK
 10
-593.25515132601527
 20
-185.664564816021
 30
0.0
 11
-592.71925294601533
 21
-187.664564816021
 31
0.0
  0
LINE
  5
4D1F
  8
0
  6
BYBLOCK
 10
-593.25515132601527
 20
-185.664564816021
 30
0.0
 11
-593.25515132601527
 21
-187.664564816021
 31
0.0
  0
LINE
  5
4D20
  8
0
  6
BYBLOCK
 10
-592.71925294601533
 20
-215.66456481602049
 30
0.0
 11
-593.25515132601527
 21
-217.66456481602049
 31
0.0
  0
LINE
  5
4D21
  8
0
  6
BYBLOCK
 10
-593.25515132601527
 20
-217.66456481602049
 30
0.0
 11
-593.79104970601543
 21
-215.66456481602049
 31
0.0
  0
LINE
  5
4D22
  8
0
  6
BYBLOCK
 10
-593.25515132601527
 20
-217.66456481602049
 30
0.0
 11
-593.25515132601527
 21
-215.66456481602049
 31
0.0
  0
TEXT
  5
4D23
  8
1DIM
 10
-583.95515132601531
 20
-204.5812314826872
 30
0.0
 40
3.5
  1
58 
 50
90.0
  0
LINE
  5
4D24
  8
0
  6
BYBLOCK
 10
-582.71925294601522
 20
-228.66456481602049
 30
0.0
 11
-583.25515132601527
 21
-230.66456481602049
 31
0.0
  0
LINE
  5
4D25
  8
0
  6
BYBLOCK
 10
-583.25515132601527
 20
-230.66456481602049
 30
0.0
 11
-583.7910497060152
 21
-228.66456481602049
 31
0.0
  0
LINE
  5
4D26
  8
0
  6
BYBLOCK
 10
-583.25515132601527
 20
-230.66456481602049
 30
0.0
 11
-583.25515132601527
 21
-228.66456481602049
 31
0.0
  0
LINE
  5
4D27
  8
0
  6
BYBLOCK
 10
-583.7910497060152
 20
-174.6645648160204
 30
0.0
 11
-583.25515132601527
 21
-172.6645648160204
 31
0.0
  0
LINE
  5
4D28
  8
0
  6
BYBLOCK
 10
-583.25515132601527
 20
-172.6645648160204
 30
0.0
 11
-582.71925294601522
 21
-174.6645648160204
 31
0.0
  0
LINE
  5
4D29
  8
0
  6
BYBLOCK
 10
-583.25515132601527
 20
-172.6645648160204
 30
0.0
 11
-583.25515132601527
 21
-174.6645648160204
 31
0.0
  0
TEXT
  5
4D2A
  8
1DIM
 10
-609.63848465934882
 20
-154.9645648160205
 30
0.0
 40
3.5
  1
13 
  0
LINE
  5
4D2B
  8
0
  6
BYBLOCK
 10
-602.80515132601533
 20
-155.1286664360205
 30
0.0
 11
-600.80515132601533
 21
-155.6645648160204
 31
0.0
  0
LINE
  5
4D2C
  8
0
  6
BYBLOCK
 10
-600.80515132601533
 20
-155.6645648160204
 30
0.0
 11
-602.80515132601533
 21
-156.20046319602039
 31
0.0
  0
LINE
  5
4D2D
  8
0
  6
BYBLOCK
 10
-600.80515132601533
 20
-155.6645648160204
 30
0.0
 11
-602.80515132601533
 21
-155.6645648160204
 31
0.0
  0
LINE
  5
4D2E
  8
0
  6
BYBLOCK
 10
-611.80515132601545
 20
-156.20046319602039
 30
0.0
 11
-613.80515132601556
 21
-155.6645648160204
 31
0.0
  0
LINE
  5
4D2F
  8
0
  6
BYBLOCK
 10
-613.80515132601556
 20
-155.6645648160204
 30
0.0
 11
-611.80515132601545
 21
-155.1286664360205
 31
0.0
  0
LINE
  5
4D30
  8
0
  6
BYBLOCK
 10
-613.80515132601556
 20
-155.6645648160204
 30
0.0
 11
-611.80515132601545
 21
-155.6645648160204
 31
0.0
  0
TEXT
  5
4D31
  8
1DIM
 10
-642.58848465934864
 20
-154.9645648160205
 30
0.0
 40
3.5
  1
min5
  0
LINE
  5
4D32
  8
0
  6
BYBLOCK
 10
-628.80515132601533
 20
-155.1286664360205
 30
0.0
 11
-626.80515132601533
 21
-155.6645648160204
 31
0.0
  0
LINE
  5
4D33
  8
0
  6
BYBLOCK
 10
-626.80515132601533
 20
-155.6645648160204
 30
0.0
 11
-628.80515132601533
 21
-156.20046319602039
 31
0.0
  0
LINE
  5
4D34
  8
0
  6
BYBLOCK
 10
-626.80515132601533
 20
-155.6645648160204
 30
0.0
 11
-628.80515132601533
 21
-155.6645648160204
 31
0.0
  0
LINE
  5
4D35
  8
0
  6
BYBLOCK
 10
-619.80515132601533
 20
-156.20046319602039
 30
0.0
 11
-621.80515132601533
 21
-155.6645648160204
 31
0.0
  0
LINE
  5
4D36
  8
0
  6
BYBLOCK
 10
-621.80515132601533
 20
-155.6645648160204
 30
0.0
 11
-619.80515132601533
 21
-155.1286664360205
 31
0.0
  0
LINE
  5
4D37
  8
0
  6
BYBLOCK
 10
-621.80515132601533
 20
-155.6645648160204
 30
0.0
 11
-619.80515132601533
 21
-155.6645648160204
 31
0.0
  0
TEXT
  5
4D38
  8
1DIM
 10
-610.33848465934875
 20
-292.80955780549169
 30
0.0
 40
3.5
  1
6.1 
  0
LINE
  5
4D39
  8
0
  6
BYBLOCK
 10
-615.20515132601543
 20
-292.97365942549169
 30
0.0
 11
-613.20515132601543
 21
-293.50955780549168
 31
0.0
  0
LINE
  5
4D3A
  8
0
  6
BYBLOCK
 10
-613.20515132601543
 20
-293.50955780549168
 30
0.0
 11
-615.20515132601543
 21
-294.04545618549167
 31
0.0
  0
LINE
  5
4D3B
  8
0
  6
BYBLOCK
 10
-613.20515132601543
 20
-293.50955780549168
 30
0.0
 11
-615.20515132601543
 21
-293.50955780549168
 31
0.0
  0
LINE
  5
4D3C
  8
0
  6
BYBLOCK
 10
-617.30515132601545
 20
-294.04545618549167
 30
0.0
 11
-619.30515132601545
 21
-293.50955780549168
 31
0.0
  0
LINE
  5
4D3D
  8
0
  6
BYBLOCK
 10
-619.30515132601545
 20
-293.50955780549168
 30
0.0
 11
-617.30515132601545
 21
-292.97365942549169
 31
0.0
  0
LINE
  5
4D3E
  8
0
  6
BYBLOCK
 10
-619.30515132601545
 20
-293.50955780549168
 30
0.0
 11
-617.30515132601545
 21
-293.50955780549168
 31
0.0
  0
TEXT
  5
4D3F
  8
1DIM
 10
-619.75515132601538
 20
-300.70733528435892
 30
0.0
 40
3.5
  1
11.1 
  0
LINE
  5
4D40
  8
0
  6
BYBLOCK
 10
-612.70515132601543
 20
-300.87143690435892
 30
0.0
 11
-610.70515132601543
 21
-301.40733528435891
 31
0.0
  0
LINE
  5
4D41
  8
0
  6
BYBLOCK
 10
-610.70515132601543
 20
-301.40733528435891
 30
0.0
 11
-612.70515132601543
 21
-301.9432336643589
 31
0.0
  0
LINE
  5
4D42
  8
0
  6
BYBLOCK
 10
-610.70515132601543
 20
-301.40733528435891
 30
0.0
 11
-612.70515132601543
 21
-301.40733528435891
 31
0.0
  0
LINE
  5
4D43
  8
0
  6
BYBLOCK
 10
-619.80515132601533
 20
-301.9432336643589
 30
0.0
 11
-621.80515132601533
 21
-301.40733528435891
 31
0.0
  0
LINE
  5
4D44
  8
0
  6
BYBLOCK
 10
-621.80515132601533
 20
-301.40733528435891
 30
0.0
 11
-619.80515132601533
 21
-300.87143690435892
 31
0.0
  0
LINE
  5
4D45
  8
0
  6
BYBLOCK
 10
-621.80515132601533
 20
-301.40733528435891
 30
0.0
 11
-619.80515132601533
 21
-301.40733528435891
 31
0.0
  0
TEXT
  5
4D46
  8
1DIM
 10
-633.83848465934875
 20
-300.70733528435892
 30
0.0
 40
3.5
  1
5 
  0
LINE
  5
4D47
  8
0
  6
BYBLOCK
 10
-628.80515132601545
 20
-300.87143690435892
 30
0.0
 11
-626.80515132601545
 21
-301.40733528435891
 31
0.0
  0
LINE
  5
4D48
  8
0
  6
BYBLOCK
 10
-626.80515132601545
 20
-301.40733528435891
 30
0.0
 11
-628.80515132601545
 21
-301.9432336643589
 31
0.0
  0
LINE
  5
4D49
  8
0
  6
BYBLOCK
 10
-626.80515132601545
 20
-301.40733528435891
 30
0.0
 11
-628.80515132601545
 21
-301.40733528435891
 31
0.0
  0
LINE
  5
4D4A
  8
0
  6
BYBLOCK
 10
-619.80515132601533
 20
-301.9432336643589
 30
0.0
 11
-621.80515132601533
 21
-301.40733528435891
 31
0.0
  0
LINE
  5
4D4B
  8
0
  6
BYBLOCK
 10
-621.80515132601533
 20
-301.40733528435891
 30
0.0
 11
-619.80515132601533
 21
-300.87143690435892
 31
0.0
  0
LINE
  5
4D4C
  8
0
  6
BYBLOCK
 10
-621.80515132601533
 20
-301.40733528435891
 30
0.0
 11
-619.80515132601533
 21
-301.40733528435891
 31
0.0
  0
TEXT
  5
4D4D
  8
1DIM
 10
-609.25515132601527
 20
-300.70733528435892
 30
0.0
 40
3.5
  1
9.9 
  0
LINE
  5
4D4E
  8
0
  6
BYBLOCK
 10
-602.80515132601533
 20
-300.87143690435892
 30
0.0
 11
-600.80515132601533
 21
-301.40733528435891
 31
0.0
  0
LINE
  5
4D4F
  8
0
  6
BYBLOCK
 10
-600.80515132601533
 20
-301.40733528435891
 30
0.0
 11
-602.80515132601533
 21
-301.9432336643589
 31
0.0
  0
LINE
  5
4D50
  8
0
  6
BYBLOCK
 10
-600.80515132601533
 20
-301.40733528435891
 30
0.0
 11
-602.80515132601533
 21
-301.40733528435891
 31
0.0
  0
LINE
  5
4D51
  8
0
  6
BYBLOCK
 10
-608.70515132601543
 20
-301.9432336643589
 30
0.0
 11
-610.70515132601543
 21
-301.40733528435891
 31
0.0
  0
LINE
  5
4D52
  8
0
  6
BYBLOCK
 10
-610.70515132601543
 20
-301.40733528435891
 30
0.0
 11
-608.70515132601543
 21
-300.87143690435892
 31
0.0
  0
LINE
  5
4D53
  8
0
  6
BYBLOCK
 10
-610.70515132601543
 20
-301.40733528435891
 30
0.0
 11
-608.70515132601543
 21
-301.40733528435891
 31
0.0
  0
TEXT
  5
4D54
  8
1DIM
 10
-600.07898233984224
 20
-237.09554955305319
 30
0.0
 40
3.5
  1
R6 
 50
316.43678060224579
  0
TEXT
  5
4D56
  8
1DIM
 10
-599.83625372859274
 20
-166.54876471035919
 30
0.0
 40
3.5
  1
R6 
 50
31.637640800026041
  0
TEXT
  5
4D58
  8
1DIM
 10
-608.18060225801605
 20
-284.87290910583272
 30
0.0
 40
3.5
  1
R1 
 50
318.96388243141911
  0
TEXT
  5
4D5A
  8
1DIM
 10
-631.82353530781666
 20
-289.24696086348177
 30
0.0
 40
3.5
  1
R1 
 50
34.163490559562163
  0
TEXT
  5
4D5C
  8
1DIM
 10
-581.50515132601538
 20
-268.01011455668947
 30
0.0
 40
3.5
  1
10.5 
 50
90.0
  0
LINE
  5
4D5D
  8
0
  6
BYBLOCK
 10
-581.3410497060155
 20
-273.41844789002278
 30
0.0
 11
-580.80515132601556
 21
-271.41844789002278
 31
0.0
  0
LINE
  5
4D5E
  8
0
  6
BYBLOCK
 10
-580.80515132601556
 20
-271.41844789002278
 30
0.0
 11
-580.26925294601551
 21
-273.41844789002278
 31
0.0
  0
LINE
  5
4D5F
  8
0
  6
BYBLOCK
 10
-580.80515132601556
 20
-271.41844789002278
 30
0.0
 11
-580.80515132601556
 21
-273.41844789002278
 31
0.0
  0
LINE
  5
4D60
  8
0
  6
BYBLOCK
 10
-580.26925294601551
 20
-279.91844789002289
 30
0.0
 11
-580.80515132601556
 21
-281.91844789002289
 31
0.0
  0
LINE
  5
4D61
  8
0
  6
BYBLOCK
 10
-580.80515132601556
 20
-281.91844789002289
 30
0.0
 11
-581.3410497060155
 21
-279.91844789002289
 31
0.0
  0
LINE
  5
4D62
  8
0
  6
BYBLOCK
 10
-580.80515132601556
 20
-281.91844789002289
 30
0.0
 11
-580.80515132601556
 21
-279.91844789002289
 31
0.0
  0
TEXT
  5
4D63
  8
1DIM
 10
-591.72980909429702
 20
-266.63511455668959
 30
0.0
 40
3.5
  1
4 
 50
90.0
  0
LINE
  5
4D64
  8
0
  6
BYBLOCK
 10
-590.49391071429704
 20
-269.41844789002278
 30
0.0
 11
-591.02980909429709
 21
-271.41844789002278
 31
0.0
  0
LINE
  5
4D65
  8
0
  6
BYBLOCK
 10
-591.02980909429709
 20
-271.41844789002278
 30
0.0
 11
-591.56570747429714
 21
-269.41844789002278
 31
0.0
  0
LINE
  5
4D66
  8
0
  6
BYBLOCK
 10
-591.02980909429709
 20
-271.41844789002278
 30
0.0
 11
-591.02980909429709
 21
-269.41844789002278
 31
0.0
  0
LINE
  5
4D67
  8
0
  6
BYBLOCK
 10
-591.56570747429714
 20
-277.41844789002278
 30
0.0
 11
-591.02980909429709
 21
-275.41844789002278
 31
0.0
  0
LINE
  5
4D68
  8
0
  6
BYBLOCK
 10
-591.02980909429709
 20
-275.41844789002278
 30
0.0
 11
-590.49391071429704
 21
-277.41844789002278
 31
0.0
  0
LINE
  5
4D69
  8
0
  6
BYBLOCK
 10
-591.02980909429709
 20
-275.41844789002278
 30
0.0
 11
-591.02980909429709
 21
-277.41844789002278
 31
0.0
  0
TEXT
  5
4D6A
  8
1DIM
 10
-696.7375804556001
 20
-204.5812314826872
 30
0.0
 40
3.5
  1
72 
 50
90.0
  0
LINE
  5
4D6B
  8
0
  6
BYBLOCK
 10
-695.5016820756
 20
-235.6645648160204
 30
0.0
 11
-696.03758045560005
 21
-237.6645648160204
 31
0.0
  0
LINE
  5
4D6C
  8
0
  6
BYBLOCK
 10
-696.03758045560005
 20
-237.6645648160204
 30
0.0
 11
-696.5734788356001
 21
-235.6645648160204
 31
0.0
  0
LINE
  5
4D6D
  8
0
  6
BYBLOCK
 10
-696.03758045560005
 20
-237.6645648160204
 30
0.0
 11
-696.03758045560005
 21
-235.6645648160204
 31
0.0
  0
LINE
  5
4D6E
  8
0
  6
BYBLOCK
 10
-696.5734788356001
 20
-167.6645648160204
 30
0.0
 11
-696.03758045560005
 21
-165.6645648160204
 31
0.0
  0
LINE
  5
4D6F
  8
0
  6
BYBLOCK
 10
-696.03758045560005
 20
-165.6645648160204
 30
0.0
 11
-695.5016820756
 21
-167.6645648160204
 31
0.0
  0
LINE
  5
4D70
  8
0
  6
BYBLOCK
 10
-696.03758045560005
 20
-165.6645648160204
 30
0.0
 11
-696.03758045560005
 21
-167.6645648160204
 31
0.0
  0
TEXT
  5
4D71
  8
1DIM
 10
-689.18758045560025
 20
-204.5812314826872
 30
0.0
 40
3.5
  1
35 
 50
90.0
  0
LINE
  5
4D72
  8
0
  6
BYBLOCK
 10
-687.95168207560005
 20
-217.1645648160204
 30
0.0
 11
-688.48758045560021
 21
-219.1645648160204
 31
0.0
  0
LINE
  5
4D73
  8
0
  6
BYBLOCK
 10
-688.48758045560021
 20
-219.1645648160204
 30
0.0
 11
-689.02347883560026
 21
-217.1645648160204
 31
0.0
  0
LINE
  5
4D74
  8
0
  6
BYBLOCK
 10
-688.48758045560021
 20
-219.1645648160204
 30
0.0
 11
-688.48758045560021
 21
-217.1645648160204
 31
0.0
  0
LINE
  5
4D75
  8
0
  6
BYBLOCK
 10
-689.02347883560026
 20
-186.1645648160204
 30
0.0
 11
-688.48758045560021
 21
-184.1645648160204
 31
0.0
  0
LINE
  5
4D76
  8
0
  6
BYBLOCK
 10
-688.48758045560021
 20
-184.1645648160204
 30
0.0
 11
-687.95168207560005
 21
-186.1645648160204
 31
0.0
  0
LINE
  5
4D77
  8
0
  6
BYBLOCK
 10
-688.48758045560021
 20
-184.1645648160204
 30
0.0
 11
-688.48758045560021
 21
-186.1645648160204
 31
0.0
  0
TEXT
  5
4D78
  8
1DIM
 10
-662.12924712226675
 20
-256.96456481602053
 30
0.0
 40
3.5
  1
10.5 
  0
LINE
  5
4D79
  8
0
  6
BYBLOCK
 10
-667.53758045560016
 20
-257.12866643602052
 30
0.0
 11
-665.53758045560005
 21
-257.66456481602052
 31
0.0
  0
LINE
  5
4D7A
  8
0
  6
BYBLOCK
 10
-665.53758045560005
 20
-257.66456481602052
 30
0.0
 11
-667.53758045560016
 21
-258.20046319602051
 31
0.0
  0
LINE
  5
4D7B
  8
0
  6
BYBLOCK
 10
-665.53758045560005
 20
-257.66456481602052
 30
0.0
 11
-667.53758045560016
 21
-257.66456481602052
 31
0.0
  0
LINE
  5
4D7C
  8
0
  6
BYBLOCK
 10
-674.03758045560005
 20
-258.20046319602051
 30
0.0
 11
-676.03758045560005
 21
-257.66456481602052
 31
0.0
  0
LINE
  5
4D7D
  8
0
  6
BYBLOCK
 10
-676.03758045560005
 20
-257.66456481602052
 30
0.0
 11
-674.03758045560005
 21
-257.12866643602052
 31
0.0
  0
LINE
  5
4D7E
  8
0
  6
BYBLOCK
 10
-676.03758045560005
 20
-257.66456481602052
 30
0.0
 11
-674.03758045560005
 21
-257.66456481602052
 31
0.0
  0
TEXT
  5
4D7F
  8
1DIM
 10
-660.75424712226675
 20
-244.51456481602051
 30
0.0
 40
3.5
  1
4 
  0
LINE
  5
4D80
  8
0
  6
BYBLOCK
 10
-663.53758045560016
 20
-245.75046319602049
 30
0.0
 11
-665.53758045560005
 21
-245.2145648160205
 31
0.0
  0
LINE
  5
4D81
  8
0
  6
BYBLOCK
 10
-665.53758045560005
 20
-245.2145648160205
 30
0.0
 11
-663.53758045560016
 21
-244.67866643602051
 31
0.0
  0
LINE
  5
4D82
  8
0
  6
BYBLOCK
 10
-665.53758045560005
 20
-245.2145648160205
 30
0.0
 11
-663.53758045560016
 21
-245.2145648160205
 31
0.0
  0
LINE
  5
4D83
  8
0
  6
BYBLOCK
 10
-671.53758045560016
 20
-244.67866643602051
 30
0.0
 11
-669.53758045560005
 21
-245.2145648160205
 31
0.0
  0
LINE
  5
4D84
  8
0
  6
BYBLOCK
 10
-669.53758045560005
 20
-245.2145648160205
 30
0.0
 11
-671.53758045560016
 21
-245.75046319602049
 31
0.0
  0
LINE
  5
4D85
  8
0
  6
BYBLOCK
 10
-669.53758045560005
 20
-245.2145648160205
 30
0.0
 11
-671.53758045560016
 21
-245.2145648160205
 31
0.0
  0
TEXT
  5
4D86
  8
1DIM
 10
-530.66386240913664
 20
-232.1145648160205
 30
0.0
 40
3.5
  1
33 
  0
LINE
  5
4D87
  8
0
  6
BYBLOCK
 10
-513.24719574247001
 20
-232.27866643602039
 30
0.0
 11
-511.24719574247001
 21
-232.81456481602041
 31
0.0
  0
LINE
  5
4D88
  8
0
  6
BYBLOCK
 10
-511.24719574247001
 20
-232.81456481602041
 30
0.0
 11
-513.24719574247001
 21
-233.3504631960204
 31
0.0
  0
LINE
  5
4D89
  8
0
  6
BYBLOCK
 10
-511.24719574247001
 20
-232.81456481602041
 30
0.0
 11
-513.24719574247001
 21
-232.81456481602041
 31
0.0
  0
LINE
  5
4D8A
  8
0
  6
BYBLOCK
 10
-542.24719574247001
 20
-233.3504631960204
 30
0.0
 11
-544.2471957424699
 21
-232.81456481602041
 31
0.0
  0
LINE
  5
4D8B
  8
0
  6
BYBLOCK
 10
-544.2471957424699
 20
-232.81456481602041
 30
0.0
 11
-542.24719574247001
 21
-232.27866643602039
 31
0.0
  0
LINE
  5
4D8C
  8
0
  6
BYBLOCK
 10
-544.2471957424699
 20
-232.81456481602041
 30
0.0
 11
-542.24719574247001
 21
-232.81456481602041
 31
0.0
  0
TEXT
  5
4D8D
  8
1DIM
 10
-494.3971957424701
 20
-205.1812314826872
 30
0.0
 40
3.5
  1
26 
 50
90.0
  0
LINE
  5
4D8E
  8
0
  6
BYBLOCK
 10
-494.23309412247022
 20
-191.2645648160204
 30
0.0
 11
-493.69719574247011
 21
-189.2645648160204
 31
0.0
  0
LINE
  5
4D8F
  8
0
  6
BYBLOCK
 10
-493.69719574247011
 20
-189.2645648160204
 30
0.0
 11
-493.16129736247018
 21
-191.2645648160204
 31
0.0
  0
LINE
  5
4D90
  8
0
  6
BYBLOCK
 10
-493.69719574247011
 20
-189.2645648160204
 30
0.0
 11
-493.69719574247011
 21
-191.2645648160204
 31
0.0
  0
LINE
  5
4D91
  8
0
  6
BYBLOCK
 10
-493.16129736247018
 20
-213.2645648160204
 30
0.0
 11
-493.69719574247011
 21
-215.2645648160204
 31
0.0
  0
LINE
  5
4D92
  8
0
  6
BYBLOCK
 10
-493.69719574247011
 20
-215.2645648160204
 30
0.0
 11
-494.23309412247022
 21
-213.2645648160204
 31
0.0
  0
LINE
  5
4D93
  8
0
  6
BYBLOCK
 10
-493.69719574247011
 20
-215.2645648160204
 30
0.0
 11
-493.69719574247011
 21
-213.2645648160204
 31
0.0
  0
TEXT
  5
4D94
  8
1DIM
 10
-501.94719574246989
 20
-193.4312314826872
 30
0.0
 40
3.5
  1
6 
 50
90.0
  0
LINE
  5
4D95
  8
0
  6
BYBLOCK
 10
-501.78309412246989
 20
-191.2645648160204
 30
0.0
 11
-501.24719574247001
 21
-189.2645648160204
 31
0.0
  0
LINE
  5
4D96
  8
0
  6
BYBLOCK
 10
-501.24719574247001
 20
-189.2645648160204
 30
0.0
 11
-500.71129736247002
 21
-191.2645648160204
 31
0.0
  0
LINE
  5
4D97
  8
0
  6
BYBLOCK
 10
-501.24719574247001
 20
-189.2645648160204
 30
0.0
 11
-501.24719574247001
 21
-191.2645648160204
 31
0.0
  0
LINE
  5
4D98
  8
0
  6
BYBLOCK
 10
-500.71129736247002
 20
-193.2645648160204
 30
0.0
 11
-501.24719574247001
 21
-195.2645648160204
 31
0.0
  0
LINE
  5
4D99
  8
0
  6
BYBLOCK
 10
-501.24719574247001
 20
-195.2645648160204
 30
0.0
 11
-501.78309412246989
 21
-193.2645648160204
 31
0.0
  0
LINE
  5
4D9A
  8
0
  6
BYBLOCK
 10
-501.24719574247001
 20
-195.2645648160204
 30
0.0
 11
-501.24719574247001
 21
-193.2645648160204
 31
0.0
  0
TEXT
  5
4D9B
  8
1DIM
 10
-501.94719574246989
 20
-204.59789814935391
 30
0.0
 40
3.5
  1
14 
 50
90.0
  0
LINE
  5
4D9C
  8
0
  6
BYBLOCK
 10
-501.78309412246989
 20
-197.26456481602051
 30
0.0
 11
-501.24719574247001
 21
-195.26456481602051
 31
0.0
  0
LINE
  5
4D9D
  8
0
  6
BYBLOCK
 10
-501.24719574247001
 20
-195.26456481602051
 30
0.0
 11
-500.71129736247002
 21
-197.26456481602051
 31
0.0
  0
LINE
  5
4D9E
  8
0
  6
BYBLOCK
 10
-501.24719574247001
 20
-195.26456481602051
 30
0.0
 11
-501.24719574247001
 21
-197.26456481602051
 31
0.0
  0
LINE
  5
4D9F
  8
0
  6
BYBLOCK
 10
-500.71129736247002
 20
-207.26456481602031
 30
0.0
 11
-501.24719574247001
 21
-209.26456481602031
 31
0.0
  0
LINE
  5
4DA0
  8
0
  6
BYBLOCK
 10
-501.24719574247001
 20
-209.26456481602031
 30
0.0
 11
-501.78309412246989
 21
-207.26456481602031
 31
0.0
  0
LINE
  5
4DA1
  8
0
  6
BYBLOCK
 10
-501.24719574247001
 20
-209.26456481602031
 30
0.0
 11
-501.24719574247001
 21
-207.26456481602031
 31
0.0
  0
TEXT
  5
4DA2
  8
1DIM
 10
-501.94719574246989
 20
-213.4312314826872
 30
0.0
 40
3.5
  1
6 
 50
90.0
  0
LINE
  5
4DA3
  8
0
  6
BYBLOCK
 10
-500.71129736247002
 20
-213.2645648160204
 30
0.0
 11
-501.24719574247001
 21
-215.2645648160204
 31
0.0
  0
LINE
  5
4DA4
  8
0
  6
BYBLOCK
 10
-501.24719574247001
 20
-215.2645648160204
 30
0.0
 11
-501.78309412246989
 21
-213.2645648160204
 31
0.0
  0
LINE
  5
4DA5
  8
0
  6
BYBLOCK
 10
-501.24719574247001
 20
-215.2645648160204
 30
0.0
 11
-501.24719574247001
 21
-213.2645648160204
 31
0.0
  0
LINE
  5
4DA6
  8
0
  6
BYBLOCK
 10
-501.78309412246989
 20
-211.2645648160204
 30
0.0
 11
-501.24719574247001
 21
-209.2645648160204
 31
0.0
  0
LINE
  5
4DA7
  8
0
  6
BYBLOCK
 10
-501.24719574247001
 20
-209.2645648160204
 30
0.0
 11
-500.71129736247002
 21
-211.2645648160204
 31
0.0
  0
LINE
  5
4DA8
  8
0
  6
BYBLOCK
 10
-501.24719574247001
 20
-209.2645648160204
 30
0.0
 11
-501.24719574247001
 21
-211.2645648160204
 31
0.0
  0
TEXT
  5
4DA9
  8
1DIM
 10
-554.03052907580332
 20
-222.11456481602039
 30
0.0
 40
3.5
  1
6.5 
  0
LINE
  5
4DAA
  8
0
  6
BYBLOCK
 10
-542.24719574247001
 20
-223.3504631960204
 30
0.0
 11
-544.2471957424699
 21
-222.81456481602041
 31
0.0
  0
LINE
  5
4DAB
  8
0
  6
BYBLOCK
 10
-544.2471957424699
 20
-222.81456481602041
 30
0.0
 11
-542.24719574247001
 21
-222.27866643602039
 31
0.0
  0
LINE
  5
4DAC
  8
0
  6
BYBLOCK
 10
-544.2471957424699
 20
-222.81456481602041
 30
0.0
 11
-542.24719574247001
 21
-222.81456481602041
 31
0.0
  0
LINE
  5
4DAD
  8
0
  6
BYBLOCK
 10
-539.7471957424699
 20
-222.27866643602039
 30
0.0
 11
-537.74719574247001
 21
-222.81456481602041
 31
0.0
  0
LINE
  5
4DAE
  8
0
  6
BYBLOCK
 10
-537.74719574247001
 20
-222.81456481602041
 30
0.0
 11
-539.7471957424699
 21
-223.3504631960204
 31
0.0
  0
LINE
  5
4DAF
  8
0
  6
BYBLOCK
 10
-537.74719574247001
 20
-222.81456481602041
 30
0.0
 11
-539.7471957424699
 21
-222.81456481602041
 31
0.0
  0
TEXT
  5
4DB0
  8
1DIM
 10
-530.3721957424699
 20
-222.11456481602039
 30
0.0
 40
3.5
  1
20 
  0
LINE
  5
4DB1
  8
0
  6
BYBLOCK
 10
-519.74719574247001
 20
-222.27866643602039
 30
0.0
 11
-517.74719574247001
 21
-222.81456481602041
 31
0.0
  0
LINE
  5
4DB2
  8
0
  6
BYBLOCK
 10
-517.74719574247001
 20
-222.81456481602041
 30
0.0
 11
-519.74719574247001
 21
-223.3504631960204
 31
0.0
  0
LINE
  5
4DB3
  8
0
  6
BYBLOCK
 10
-517.74719574247001
 20
-222.81456481602041
 30
0.0
 11
-519.74719574247001
 21
-222.81456481602041
 31
0.0
  0
LINE
  5
4DB4
  8
0
  6
BYBLOCK
 10
-535.7471957424699
 20
-223.3504631960204
 30
0.0
 11
-537.74719574247001
 21
-222.81456481602041
 31
0.0
  0
LINE
  5
4DB5
  8
0
  6
BYBLOCK
 10
-537.74719574247001
 20
-222.81456481602041
 30
0.0
 11
-535.7471957424699
 21
-222.27866643602039
 31
0.0
  0
LINE
  5
4DB6
  8
0
  6
BYBLOCK
 10
-537.74719574247001
 20
-222.81456481602041
 30
0.0
 11
-535.7471957424699
 21
-222.81456481602041
 31
0.0
  0
TEXT
  5
4DB7
  8
1DIM
 10
-508.46386240913671
 20
-222.11456481602039
 30
0.0
 40
3.5
  1
6.5 
  0
LINE
  5
4DB8
  8
0
  6
BYBLOCK
 10
-513.24719574247001
 20
-222.27866643602039
 30
0.0
 11
-511.24719574247001
 21
-222.81456481602041
 31
0.0
  0
LINE
  5
4DB9
  8
0
  6
BYBLOCK
 10
-511.24719574247001
 20
-222.81456481602041
 30
0.0
 11
-513.24719574247001
 21
-223.3504631960204
 31
0.0
  0
LINE
  5
4DBA
  8
0
  6
BYBLOCK
 10
-511.24719574247001
 20
-222.81456481602041
 30
0.0
 11
-513.24719574247001
 21
-222.81456481602041
 31
0.0
  0
LINE
  5
4DBB
  8
0
  6
BYBLOCK
 10
-515.74719574247001
 20
-223.3504631960204
 30
0.0
 11
-517.74719574247001
 21
-222.81456481602041
 31
0.0
  0
LINE
  5
4DBC
  8
0
  6
BYBLOCK
 10
-517.74719574247001
 20
-222.81456481602041
 30
0.0
 11
-515.74719574247001
 21
-222.27866643602039
 31
0.0
  0
LINE
  5
4DBD
  8
0
  6
BYBLOCK
 10
-517.74719574247001
 20
-222.81456481602041
 30
0.0
 11
-515.74719574247001
 21
-222.81456481602041
 31
0.0
  0
TEXT
  5
4DBE
  8
1DIM
 10
-501.94719574246989
 20
-282.45178122335631
 30
0.0
 40
3.5
  1
1.5 
 50
90.0
  0
LINE
  5
4DBF
  8
0
  6
BYBLOCK
 10
-501.78309412247
 20
-273.41844789002278
 30
0.0
 11
-501.24719574247001
 21
-271.41844789002278
 31
0.0
  0
LINE
  5
4DC0
  8
0
  6
BYBLOCK
 10
-501.24719574247001
 20
-271.41844789002278
 30
0.0
 11
-500.71129736247008
 21
-273.41844789002278
 31
0.0
  0
LINE
  5
4DC1
  8
0
  6
BYBLOCK
 10
-501.24719574247001
 20
-271.41844789002278
 30
0.0
 11
-501.24719574247001
 21
-273.41844789002278
 31
0.0
  0
LINE
  5
4DC2
  8
0
  6
BYBLOCK
 10
-500.71129736247008
 20
-267.91844789002289
 30
0.0
 11
-501.24719574247001
 21
-269.91844789002289
 31
0.0
  0
LINE
  5
4DC3
  8
0
  6
BYBLOCK
 10
-501.24719574247001
 20
-269.91844789002289
 30
0.0
 11
-501.78309412247
 21
-267.91844789002289
 31
0.0
  0
LINE
  5
4DC4
  8
0
  6
BYBLOCK
 10
-501.24719574247001
 20
-269.91844789002289
 30
0.0
 11
-501.24719574247001
 21
-267.91844789002289
 31
0.0
  0
TEXT
  5
4DC5
  8
1DIM
 10
-528.91386240913664
 20
-251.05918962713221
 30
0.0
 40
3.5
  1
6 
  0
LINE
  5
4DC6
  8
0
  6
BYBLOCK
 10
-526.7471957424699
 20
-251.22329124713221
 30
0.0
 11
-524.74719574247001
 21
-251.7591896271322
 31
0.0
  0
LINE
  5
4DC7
  8
0
  6
BYBLOCK
 10
-524.74719574247001
 20
-251.7591896271322
 30
0.0
 11
-526.7471957424699
 21
-252.29508800713219
 31
0.0
  0
LINE
  5
4DC8
  8
0
  6
BYBLOCK
 10
-524.74719574247001
 20
-251.7591896271322
 30
0.0
 11
-526.7471957424699
 21
-251.7591896271322
 31
0.0
  0
LINE
  5
4DC9
  8
0
  6
BYBLOCK
 10
-528.74719574247001
 20
-252.29508800713219
 30
0.0
 11
-530.74719574247001
 21
-251.7591896271322
 31
0.0
  0
LINE
  5
4DCA
  8
0
  6
BYBLOCK
 10
-530.74719574247001
 20
-251.7591896271322
 30
0.0
 11
-528.74719574247001
 21
-251.22329124713221
 31
0.0
  0
LINE
  5
4DCB
  8
0
  6
BYBLOCK
 10
-530.74719574247001
 20
-251.7591896271322
 30
0.0
 11
-528.74719574247001
 21
-251.7591896271322
 31
0.0
  0
TEXT
  5
4DCC
  8
1DIM
 10
-521.2770887395825
 20
-259.13604386980597
 30
0.0
 40
3.5
  1
R3 
 50
34.421931557448872
  0
TEXT
  5
4DCE
  8
1DIM
 10
-491.94719574246989
 20
-268.46011455668958
 30
0.0
 40
3.5
  1
10 
 50
90.0
  0
LINE
  5
4DCF
  8
0
  6
BYBLOCK
 10
-491.78309412247
 20
-263.41844789002289
 30
0.0
 11
-491.24719574247001
 21
-261.41844789002289
 31
0.0
  0
LINE
  5
4DD0
  8
0
  6
BYBLOCK
 10
-491.24719574247001
 20
-261.41844789002289
 30
0.0
 11
-490.71129736247002
 21
-263.41844789002289
 31
0.0
  0
LINE
  5
4DD1
  8
0
  6
BYBLOCK
 10
-491.24719574247001
 20
-261.41844789002289
 30
0.0
 11
-491.24719574247001
 21
-263.41844789002289
 31
0.0
  0
LINE
  5
4DD2
  8
0
  6
BYBLOCK
 10
-490.71129736247002
 20
-269.41844789002289
 30
0.0
 11
-491.24719574247001
 21
-271.41844789002289
 31
0.0
  0
LINE
  5
4DD3
  8
0
  6
BYBLOCK
 10
-491.24719574247001
 20
-271.41844789002289
 30
0.0
 11
-491.78309412247
 21
-269.41844789002289
 31
0.0
  0
LINE
  5
4DD4
  8
0
  6
BYBLOCK
 10
-491.24719574247001
 20
-271.41844789002289
 30
0.0
 11
-491.24719574247001
 21
-269.41844789002289
 31
0.0
  0
TEXT
  5
4DD5
  8
1DIM
 10
-548.86992597916162
 20
-183.15087612270651
 30
0.0
 40
3.5
  1
R2 
 50
313.05502351818649
  0
TEXT
  5
4DD7
  8
1DIM
 10
-552.39815038744666
 20
-215.84344437808329
 30
0.0
 40
3.5
  1
R2 
 50
18.08685886391288
  0
LINE
  5
4DD9
  8
1DIM
 10
-614.25985157280002
 20
-303.07278174568847
 30
0.0
 11
-604.71007033989997
 21
-317.51929775557483
 31
0.0
  0
LINE
  5
4DDA
  8
1DIM
 10
-604.71007033989997
 20
-317.51929775557483
 30
0.0
 11
-577.97673700656674
 21
-317.51929775557483
 31
0.0
  0
LINE
  5
4DDB
  8
0
  6
BYBLOCK
 10
-614.70690273525474
 20
-303.36830218801771
 30
0.0
 11
-615.36274888825426
 21
-301.4043640786868
 31
0.0
  0
LINE
  5
4DDC
  8
0
  6
BYBLOCK
 10
-615.36274888825426
 20
-301.4043640786868
 30
0.0
 11
-613.81280041034506
 21
-302.7772613033593
 31
0.0
  0
LINE
  5
4DDD
  8
0
  6
BYBLOCK
 10
-615.36274888825426
 20
-301.4043640786868
 30
0.0
 11
-614.25985157280002
 21
-303.07278174568847
 31
0.0
  0
ARC
  5
4DDE
  8
0
  6
BYBLOCK
 10
-544.14836966678695
 20
-213.88548164579529
 30
0.0
 40
0.124999999999955
 50
18.08685886392513
 51
198.0868588639251
  0
ARC
  5
4DDF
  8
0
  6
BYBLOCK
 10
-544.14836966678695
 20
-213.88548164579529
 30
0.0
 40
0.124999999999955
 50
198.0868588639251
 51
18.08685886392513
  0
ARC
  5
4DE0
  8
0
  6
BYBLOCK
 10
-543.61259653210902
 20
-189.80316798981161
 30
0.0
 40
0.1249999999999748
 50
313.05502351816762
 51
133.05502351816759
  0
ARC
  5
4DE1
  8
0
  6
BYBLOCK
 10
-543.61259653210902
 20
-189.80316798981161
 30
0.0
 40
0.1249999999999748
 50
133.05502351816759
 51
313.05502351816762
  0
ARC
  5
4DE2
  8
0
  6
BYBLOCK
 10
-525.27250419958978
 20
-262.72259949833318
 30
0.0
 40
0.124999999999972
 50
214.42193155745451
 51
34.421931557454478
  0
ARC
  5
4DE3
  8
0
  6
BYBLOCK
 10
-525.27250419958978
 20
-262.72259949833318
 30
0.0
 40
0.124999999999972
 50
34.421931557454478
 51
214.42193155745451
  0
ARC
  5
4DE4
  8
0
  6
BYBLOCK
 10
-619.13258989747123
 20
-281.48000412983129
 30
0.0
 40
0.1250000000000336
 50
214.16349055954851
 51
34.163490559548507
  0
ARC
  5
4DE5
  8
0
  6
BYBLOCK
 10
-619.13258989747123
 20
-281.48000412983129
 30
0.0
 40
0.1250000000000336
 50
34.163490559548507
 51
214.16349055954851
  0
ARC
  5
4DE6
  8
0
  6
BYBLOCK
 10
-613.03581045596479
 20
-281.574982535282
 30
0.0
 40
0.1250000000000009
 50
318.96388243141803
 51
138.96388243141789
  0
ARC
  5
4DE7
  8
0
  6
BYBLOCK
 10
-613.03581045596479
 20
-281.574982535282
 30
0.0
 40
0.1250000000000009
 50
138.96388243141789
 51
318.96388243141803
  0
ARC
  5
4DE8
  8
0
  6
BYBLOCK
 10
-601.69685623757584
 20
-168.5172927767097
 30
0.0
 40
0.1250000000000227
 50
211.63764080001209
 51
31.637640800012079
  0
ARC
  5
4DE9
  8
0
  6
BYBLOCK
 10
-601.69685623757584
 20
-168.5172927767097
 30
0.0
 40
0.1250000000000227
 50
31.637640800012079
 51
211.63764080001209
  0
ARC
  5
4DEA
  8
0
  6
BYBLOCK
 10
-602.45746487582676
 20
-235.79949196542029
 30
0.0
 40
0.124999999999991
 50
136.43678060223959
 51
316.43678060223959
  0
ARC
  5
4DEB
  8
0
  6
BYBLOCK
 10
-602.45746487582676
 20
-235.79949196542029
 30
0.0
 40
0.124999999999991
 50
316.43678060223959
 51
136.43678060223959
  0
VIEWPORT
  5
57
 67
     1
  8
0
 10
-12.7215544719281
 20
10.095080386683151
 30
0.0
 40
426.4551360043742
 41
282.77900886080931
 68
     1
 69
     1
1001
ACAD
1000
MVIEW
1002
{
1070
    16
1010
0.0
1020
0.0
1030
0.0
1010
0.0
1020
0.0
1030
1.0
1040
0.0
1040
282.77900886080931
1040
-12.7215544719281
1040
10.095080386683151
1040
50.0
1040
0.0
1040
0.0
1070
     0
1070
  1000
1070
     1
1070
     1
1070
     0
1070
     0
1070
     0
1070
     0
1040
0.0
1040
0.0
1040
0.0
1040
10.0
1040
10.0
1040
10.0
1040
10.0
1070
     0
1002
{
1002
}
1002
}
  0
ENDSEC
  0
EOF
