  0
SECTION
  2
HEADER
  9
$ACADVER
  1
AC1009
  9
$DWGCODEPAGE
  3
ansi_932
  9
$INSBASE
 10
0.0
 20
0.0
 30
0.0
  9
$EXTMIN
 10
216.8449797106044
 20
-274.2048847394309
 30
0.0
  9
$EXTMAX
 10
585.4157647835054
 20
-37.80701096649173
 30
0.0
  9
$LIMMIN
 10
0.0
 20
0.0
  9
$LIMMAX
 10
420.0
 20
297.0
  9
$ORTHOMODE
 70
     0
  9
$REGENMODE
 70
     1
  9
$FILLMODE
 70
     1
  9
$QTEXTMODE
 70
     0
  9
$MIRRTEXT
 70
     1
  9
$DRAGMODE
 70
     2
  9
$LTSCALE
 40
0.5
  9
$OSMODE
 70
 15615
  9
$ATTMODE
 70
     1
  9
$TEXTSIZE
 40
4.0
  9
$TRACEWID
 40
1.0
  9
$TEXTSTYLE
  7
STANDARD
  9
$CLAYER
  8
1TEXT
  9
$CELTYPE
  6
BYLAYER
  9
$CECOLOR
 62
   256
  9
$DIMSCALE
 40
1.0
  9
$DIMASZ
 40
2.0
  9
$DIMEXO
 40
0.0
  9
$DIMDLI
 40
7.0
  9
$DIMRND
 40
0.0
  9
$DIMDLE
 40
0.0
  9
$DIMEXE
 40
1.0
  9
$DIMTP
 40
0.0
  9
$DIMTM
 40
0.0
  9
$DIMTXT
 40
3.5
  9
$DIMCEN
 40
0.0
  9
$DIMTSZ
 40
0.0
  9
$DIMTOL
 70
     0
  9
$DIMLIM
 70
     0
  9
$DIMTIH
 70
     0
  9
$DIMTOH
 70
     0
  9
$DIMSE1
 70
     0
  9
$DIMSE2
 70
     0
  9
$DIMTAD
 70
     1
  9
$DIMZIN
 70
     8
  9
$DIMBLK
  1

  9
$DIMASO
 70
     1
  9
$DIMSHO
 70
     1
  9
$DIMPOST
  1
 
  9
$DIMAPOST
  1

  9
$DIMALT
 70
     0
  9
$DIMALTD
 70
     2
  9
$DIMALTF
 40
25.4
  9
$DIMLFAC
 40
1.0
  9
$DIMTOFL
 70
     1
  9
$DIMTVP
 40
0.0
  9
$DIMTIX
 70
     0
  9
$DIMSOXD
 70
     0
  9
$DIMSAH
 70
     1
  9
$DIMBLK1
  1
OPEN30
  9
$DIMBLK2
  1
OPEN30
  9
$DIMSTYLE
  2
NEWX10
  9
$DIMCLRD
 70
   256
  9
$DIMCLRE
 70
   256
  9
$DIMCLRT
 70
   201
  9
$DIMTFAC
 40
0.7
  9
$DIMGAP
 40
0.7
  9
$LUNITS
 70
     2
  9
$LUPREC
 70
     4
  9
$SKETCHINC
 40
1.0
  9
$FILLETRAD
 40
0.0
  9
$AUNITS
 70
     0
  9
$AUPREC
 70
     2
  9
$MENU
  1
acad
  9
$ELEVATION
 40
0.0
  9
$PELEVATION
 40
0.0
  9
$THICKNESS
 40
0.0
  9
$LIMCHECK
 70
     0
  9
$CHAMFERA
 40
0.5
  9
$CHAMFERB
 40
0.5
  9
$SKPOLY
 70
     0
  9
$TDCREATE
 40
2451318.996352917
  9
$TDUPDATE
 40
2460264.7492486
  9
$TDINDWG
 40
16.3097694907
  9
$TDUSRTIMER
 40
16.3097694907
  9
$USRTIMER
 70
     1
  9
$ANGBASE
 50
0.0
  9
$ANGDIR
 70
     0
  9
$PDMODE
 70
     0
  9
$PDSIZE
 40
0.0
  9
$PLINEWID
 40
0.0
  9
$COORDS
 70
     2
  9
$SPLFRAME
 70
     0
  9
$SPLINETYPE
 70
     6
  9
$SPLINESEGS
 70
     8
  9
$ATTDIA
 70
     0
  9
$ATTREQ
 70
     1
  9
$HANDLING
 70
     1
  9
$HANDSEED
  5
B007
  9
$SURFTAB1
 70
     6
  9
$SURFTAB2
 70
     6
  9
$SURFTYPE
 70
     6
  9
$SURFU
 70
     6
  9
$SURFV
 70
     6
  9
$UCSNAME
  2

  9
$UCSORG
 10
0.0
 20
0.0
 30
0.0
  9
$UCSXDIR
 10
1.0
 20
0.0
 30
0.0
  9
$UCSYDIR
 10
0.0
 20
1.0
 30
0.0
  9
$PUCSNAME
  2

  9
$PUCSORG
 10
0.0
 20
0.0
 30
0.0
  9
$PUCSXDIR
 10
1.0
 20
0.0
 30
0.0
  9
$PUCSYDIR
 10
0.0
 20
1.0
 30
0.0
  9
$USERI1
 70
     0
  9
$USERI2
 70
     0
  9
$USERI3
 70
     0
  9
$USERI4
 70
     0
  9
$USERI5
 70
     0
  9
$USERR1
 40
0.0
  9
$USERR2
 40
0.0
  9
$USERR3
 40
0.0
  9
$USERR4
 40
0.0
  9
$USERR5
 40
0.0
  9
$WORLDVIEW
 70
     1
  9
$SHADEDGE
 70
     3
  9
$SHADEDIF
 70
    70
  9
$TILEMODE
 70
     1
  9
$MAXACTVP
 70
    48
  9
$PLIMCHECK
 70
     0
  9
$PEXTMIN
 10
1.000000000000000E+20
 20
1.000000000000000E+20
 30
1.000000000000000E+20
  9
$PEXTMAX
 10
-1.000000000000000E+20
 20
-1.000000000000000E+20
 30
-1.000000000000000E+20
  9
$PLIMMIN
 10
-234.8634396887159
 20
-134.6327898832685
  9
$PLIMMAX
 10
219.419439688716
 20
186.577326848249
  9
$UNITMODE
 70
     0
  9
$VISRETAIN
 70
     1
  9
$PLINEGEN
 70
     0
  9
$PSLTSCALE
 70
     1
  0
ENDSEC
  0
SECTION
  2
TABLES
  0
TABLE
  2
VPORT
 70
     1
  0
VPORT
  2
*ACTIVE
 70
     0
 10
0.0
 20
0.0
 11
1.0
 21
1.0
 12
401.1303722470549
 22
-156.0059478529611
 13
0.0
 23
0.0
 14
10.0
 24
10.0
 15
10.0
 25
10.0
 16
0.0
 26
0.0
 36
1.0
 17
0.0
 27
0.0
 37
0.0
 40
253.8166644719975
 41
2.183014354066986
 42
50.0
 43
0.0
 44
0.0
 50
0.0
 51
0.0
 71
     0
 72
   100
 73
     1
 74
     1
 75
     0
 76
     0
 77
     0
 78
     0
  0
ENDTAB
  0
TABLE
  2
LTYPE
 70
    14
  0
LTYPE
  2
CONTINUOUS
 70
     0
  3
Solid line
 72
    65
 73
     0
 40
0.0
  0
LTYPE
  2
CENTER2
 70
     0
  3
Center (.5x) ___ _ ___ _ ___ _ ___ _ ___ _ ___
 72
    65
 73
     4
 40
28.575
 49
19.05
 49
-3.175
 49
3.175
 49
-3.175
  0
LTYPE
  2
XREF1|CENTER2
 70
    48
  3
Center (.5x) ___ _ ___ _ ___ _ ___ _ ___ _ ___
 72
    65
 73
     4
 40
28.575
 49
19.05
 49
-3.175
 49
3.175
 49
-3.175
  0
LTYPE
  2
HIDDEN
 70
     0
  3
Hidden __ __ __ __ __ __ __ __ __ __ __ __ __ _
 72
    65
 73
     2
 40
9.524999999999999
 49
6.35
 49
-3.175
  0
LTYPE
  2
A3WAKUDAKE|CENTER2
 70
    48
  3
Center (.5x) ___ _ ___ _ ___ _ ___ _ ___ _ ___
 72
    65
 73
     4
 40
28.575
 49
19.05
 49
-3.175
 49
3.175
 49
-3.175
  0
ENDTAB
  0
TABLE
  2
LAYER
 70
    98
  0
LAYER
  2
0
 70
     0
 62
     7
  6
CONTINUOUS
  0
LAYER
  2
1CENTER
 70
     0
 62
     7
  6
CENTER2
  0
LAYER
  2
1TEXT
 70
     0
 62
     7
  6
CONTINUOUS
  0
LAYER
  2
1DIM
 70
     0
 62
     7
  6
CONTINUOUS
  0
LAYER
  2
1HIDDEN
 70
     0
 62
     7
  6
HIDDEN
  0
LAYER
  2
1HATCH
 70
     0
 62
     7
  6
CONTINUOUS
  0
LAYER
  2
01
 70
     0
 62
     1
  6
CONTINUOUS
  0
LAYER
  2
A3WAKUDAKE|THICK
 70
    48
 62
     7
  6
CONTINUOUS
  0
LAYER
  2
A3WAKUDAKE|POINT
 70
    48
 62
     7
  6
CONTINUOUS
  0
LAYER
  2
A3WAKUDAKE|1CENTER
 70
    48
 62
     7
  6
A3WAKUDAKE|CENTER2
  0
LAYER
  2
A3WAKUDAKE|0-6
 70
    48
 62
     7
  6
CONTINUOUS
  0
ENDTAB
  0
TABLE
  2
STYLE
 70
    19
  0
STYLE
  2
STANDARD
 70
     0
 40
0.0
 41
1.0
 50
0.0
 71
     0
 42
4.0
  3
txt.shx
  4
extfont.shx
  0
STYLE
  2
A3WAKUDAKE|STANDARD
 70
    48
 40
0.0
 41
1.0
 50
0.0
 71
     0
 42
4.0
  3
romans.shx
  4
extfont.shx
  0
STYLE
  2
XREF1|STANDARD
 70
    48
 40
0.0
 41
1.0
 50
0.0
 71
     0
 42
4.0
  3
romans.shx
  4
extfont.shx
  0
ENDTAB
  0
TABLE
  2
VIEW
 70
     0
  0
ENDTAB
  0
TABLE
  2
UCS
 70
     0
  0
ENDTAB
  0
TABLE
  2
APPID
 70
    10
  0
APPID
  2
ACAD
 70
     0
  0
APPID
  2
DRAWINGVARIABLESXDATA
 70
     0
  0
APPID
  2
CONTENTTABDATA
 70
     0
  0
APPID
  2
CONTENTCURRENTTAB
 70
     0
  0
APPID
  2
CONTENTBLOCKDESCRIPTION
 70
     0
  0
APPID
  2
CONTENTBLOCKICON
 70
     0
  0
APPID
  2
CONTENTLONGBLOCKNAME
 70
     0
  0
APPID
  2
ACAD_PSEXT
 70
     0
  0
APPID
  2
ACADANNOTATIVE
 70
     0
  0
APPID
  2
ACDBBLOCKREPETAG
 70
     0
  0
ENDTAB
  0
TABLE
  2
DIMSTYLE
 70
     8
  0
DIMSTYLE
  2
NEWX10
 70
     0
  3
 
  4

  5

  6
OPEN30
  7
OPEN30
 40
1.0
 41
2.0
 42
0.0
 43
7.0
 44
1.0
 45
0.0
 46
0.0
 47
0.0
 48
0.0
140
3.5
141
0.0
142
0.0
143
25.4
144
1.0
145
0.0
146
0.7
147
0.7
 71
     0
 72
     0
 73
     0
 74
     0
 75
     0
 76
     0
 77
     1
 78
     8
170
     0
171
     2
172
     1
173
     1
174
     0
175
     0
176
   256
177
   256
178
   201
  0
DIMSTYLE
  2
ISO-25
 70
     0
  3

  4

  5

  6

  7

 40
1.0
 41
20.0
 42
3.0
 43
3.75
 44
2.0
 45
0.0
 46
0.0
 47
0.0
 48
0.0
140
30.0
141
5.0
142
0.0
143
0.03937
144
1.0
145
0.0
146
1.0
147
8.0
 71
     0
 72
     0
 73
     0
 74
     0
 75
     0
 76
     0
 77
     1
 78
     8
170
     0
171
     3
172
     1
173
     0
174
     0
175
     0
176
     1
177
     1
178
     1
  0
ENDTAB
  0
ENDSEC
  0
SECTION
  2
BLOCKS
  0
BLOCK
  8
0
  2
$MODEL_SPACE
 70
     0
 10
0.0
 20
0.0
 30
0.0
  3
$MODEL_SPACE
  1

  0
ENDBLK
  5
1A
  8
0
  0
BLOCK
 67
     1
  8
0
  2
$PAPER_SPACE
 70
     0
 10
0.0
 20
0.0
 30
0.0
  3
$PAPER_SPACE
  1

  0
ENDBLK
  5
17
 67
     1
  8
0
  0
BLOCK
  8
0
  2
_OPEN30
 70
     0
 10
0.0
 20
0.0
 30
0.0
  3
_OPEN30
  1

  0
LINE
  5
44
  8
0
  6
BYBLOCK
 62
     0
 10
-1.0
 20
0.26794919
 30
0.0
 11
0.0
 21
0.0
 31
0.0
  0
LINE
  5
45
  8
0
  6
BYBLOCK
 62
     0
 10
0.0
 20
0.0
 30
0.0
 11
-1.0
 21
-0.26794919
 31
0.0
  0
LINE
  5
46
  8
0
  6
BYBLOCK
 62
     0
 10
0.0
 20
0.0
 30
0.0
 11
-1.0
 21
0.0
 31
0.0
  0
ENDBLK
  5
47
  8
0
  0
BLOCK
  8
0
  2
XREF1
 70
    36
 10
0.0
 20
0.0
 30
0.0
  3
XREF1
  1
D:\ACLT\FORMAT\KAWAJUN(9)図面用.dwg
  0
ENDBLK
  5
5D
  8
0
  0
BLOCK
  8
0
  2
A3WAKUDAKE
 70
    36
 10
0.0
 20
0.0
 30
0.0
  3
A3WAKUDAKE
  1
D:\ACLT\FORMAT\A3WAKUdake.dwg
  0
ENDBLK
  5
979E
  8
0
  0
BLOCK
  8
0
  2
A3WAKUKAWAJUN2017_HYOUDAI_
 70
     0
 10
0.0
 20
0.0
 30
0.0
  3
A3WAKUKAWAJUN2017_HYOUDAI_
  1

  0
LINE
  5
A3DC
  8
0
 10
13.26299999998673
 20
-0.0001000000000317
 30
0.0
 11
9.236999999990758
 21
8.999899999990987
 31
0.0
1001
ACAD
1000
ASC_BOUNDS
1002
{
1070
    19
1005
A41D
1002
}
  0
LINE
  5
A3DD
  8
0
 10
5.657999999994331
 20
0.9999999999989768
 30
0.0
 11
9.236999999990758
 21
8.999999999991019
 31
0.0
1001
ACAD
1000
ASC_BOUNDS
1002
{
1070
    19
1005
A41D
1002
}
  0
LINE
  5
A3DE
  8
0
 10
18.59199999998134
 20
-0.2368999999997641
 30
0.0
 11
16.46099999998353
 21
5.432899999994561
 31
0.0
1001
ACAD
1000
ASC_BOUNDS
1002
{
1070
    19
1005
A41E
1002
}
  0
LINE
  5
A3DF
  8
0
 10
18.59199999998134
 20
-0.2368999999997641
 30
0.0
 11
22.38199999997767
 21
8.763099999991255
 31
0.0
1001
ACAD
1000
ASC_BOUNDS
1002
{
1070
    19
1005
A41E
1002
}
  0
LINE
  5
A3E0
  8
0
 10
14.32899999998563
 20
-0.2368999999997641
 30
0.0
 11
16.46099999998353
 21
5.432899999994561
 31
0.0
1001
ACAD
1000
ASC_BOUNDS
1002
{
1070
    19
1005
A41E
1002
}
  0
LINE
  5
A3E1
  8
0
 10
14.32899999998563
 20
-0.2368999999997641
 30
0.0
 11
10.53899999998941
 21
8.763099999991255
 31
0.0
1001
ACAD
1000
ASC_BOUNDS
1002
{
1070
    19
1005
A41E
1002
}
  0
LINE
  5
A3E2
  8
0
 10
19.53899999998043
 20
-0.0001000000000317
 30
0.0
 11
23.56599999997638
 21
8.999899999990987
 31
0.0
1001
ACAD
1000
ASC_BOUNDS
1002
{
1070
    19
1005
A41F
1002
}
  0
LINE
  5
A3E3
  8
0
 10
26.97358892824991
 20
1.383099999991202
 30
0.0
 11
23.56599999997638
 21
8.999899999990987
 31
0.0
1001
ACAD
1000
ASC_BOUNDS
1002
{
1070
    19
1005
A41F
1002
}
  0
LINE
  5
A3E4
  8
0
 10
5.657999999994331
 20
0.9999999999989768
 30
0.0
 11
3.181999999996833
 21
4.668599999995308
 31
0.0
1001
ACAD
1000
ASC_BOUNDS
1002
{
1070
    19
1005
A41D
1002
}
  0
LINE
  5
A3E5
  8
0
 10
4.617999999995391
 20
-0.0001000000000317
 30
0.0
 11
1.420999999998571
 21
4.736799999995242
 31
0.0
1001
ACAD
1000
ASC_BOUNDS
1002
{
1070
    19
1005
A41D
1002
}
  0
LINE
  5
A3E6
  8
0
 10
1.420999999998571
 20
8.763099999991255
 30
0.0
 11
1.420999999998571
 21
0.0
 31
0.0
1001
ACAD
1000
ASC_BOUNDS
1002
{
1070
    19
1005
A422
1002
}
  0
LINE
  5
A3E7
  8
0
 10
0.0
 20
8.763099999991255
 30
0.0
 11
0.0
 21
0.0
 31
0.0
1001
ACAD
1000
ASC_BOUNDS
1002
{
1070
    19
1005
A422
1002
}
  0
LINE
  5
A3E8
  8
0
 10
6.766999999993232
 20
-0.0001000000000317
 30
0.0
 11
7.826999999992154
 21
2.368399999997621
 31
0.0
1001
ACAD
1000
ASC_BOUNDS
1002
{
1070
    19
1005
A41D
1002
}
  0
LINE
  5
A3E9
  8
0
 10
0.0
 20
0.0
 30
0.0
 11
1.420999999998571
 21
0.0
 31
0.0
1001
ACAD
1000
ASC_BOUNDS
1002
{
1070
    19
1005
A422
1002
}
  0
LINE
  5
A3EA
  8
0
 10
4.617999999995391
 20
0.0
 30
0.0
 11
6.766999999993232
 21
0.0
 31
0.0
1001
ACAD
1000
ASC_BOUNDS
1002
{
1070
    19
1005
A41D
1002
}
  0
LINE
  5
A3EB
  8
0
 10
11.70599999998831
 20
-0.0001000000000317
 30
0.0
 11
10.64699999998936
 21
2.368399999997621
 31
0.0
1001
ACAD
1000
ASC_BOUNDS
1002
{
1070
    19
1005
A41D
1002
}
  0
LINE
  5
A3EC
  8
0
 10
7.826999999992154
 20
2.368399999997621
 30
0.0
 11
10.64699999998936
 21
2.368399999997621
 31
0.0
1001
ACAD
1000
ASC_BOUNDS
1002
{
1070
    19
1005
A41D
1002
}
  0
LINE
  5
A3ED
  8
0
 10
11.70599999998831
 20
0.0
 30
0.0
 11
13.26299999998673
 21
0.0
 31
0.0
1001
ACAD
1000
ASC_BOUNDS
1002
{
1070
    19
1005
A41D
1002
}
  0
LINE
  5
A3EE
  8
0
 10
22.15599999997789
 20
2.368399999997621
 30
0.0
 11
24.97599999997499
 21
2.368399999997621
 31
0.0
1001
ACAD
1000
ASC_BOUNDS
1002
{
1070
    19
1005
A41F
1002
}
  0
LINE
  5
A3EF
  8
0
 10
19.53899999998043
 20
0.0
 30
0.0
 11
21.09599999997886
 21
0.0
 31
0.0
1001
ACAD
1000
ASC_BOUNDS
1002
{
1070
    19
1005
A41F
1002
}
  0
LINE
  5
A3F0
  8
0
 10
21.09599999997886
 20
-0.0001000000000317
 30
0.0
 11
22.15599999997789
 21
2.368399999997621
 31
0.0
1001
ACAD
1000
ASC_BOUNDS
1002
{
1070
    19
1005
A41F
1002
}
  0
LINE
  5
A3F1
  8
0
 10
26.02015566812236
 20
0.0330999999912365
 30
0.0
 11
24.97599999997499
 21
2.368399999997621
 31
0.0
1001
ACAD
1000
ASC_BOUNDS
1002
{
1070
    19
1005
A41F
1002
}
  0
LINE
  5
A3F2
  8
0
 10
14.32399999998563
 20
3.315799999996671
 30
0.0
 11
16.46099999998353
 21
8.999899999990987
 31
0.0
1001
ACAD
1000
ASC_BOUNDS
1002
{
1070
    19
1005
A41E
1002
}
  0
LINE
  5
A3F3
  8
0
 10
6.432999999993513
 20
8.763099999991255
 30
0.0
 11
3.181999999996833
 21
4.668599999995308
 31
0.0
1001
ACAD
1000
ASC_BOUNDS
1002
{
1070
    19
1005
A41D
1002
}
  0
LINE
  5
A3F4
  8
0
 10
4.617999999995391
 20
8.763099999991255
 30
0.0
 11
1.420999999998571
 21
4.736799999995242
 31
0.0
1001
ACAD
1000
ASC_BOUNDS
1002
{
1070
    19
1005
A41D
1002
}
  0
LINE
  5
A3F5
  8
0
 10
0.0
 20
8.763099999991255
 30
0.0
 11
1.420999999998571
 21
8.763099999991255
 31
0.0
1001
ACAD
1000
ASC_BOUNDS
1002
{
1070
    19
1005
A422
1002
}
  0
LINE
  5
A3F6
  8
0
 10
4.617999999995391
 20
8.763099999991255
 30
0.0
 11
6.432999999993513
 21
8.763099999991255
 31
0.0
1001
ACAD
1000
ASC_BOUNDS
1002
{
1070
    19
1005
A41D
1002
}
  0
LINE
  5
A3F7
  8
0
 10
14.32399999998563
 20
3.315799999996671
 30
0.0
 11
12.02999999998792
 21
8.763099999991255
 31
0.0
1001
ACAD
1000
ASC_BOUNDS
1002
{
1070
    19
1005
A41E
1002
}
  0
LINE
  5
A3F8
  8
0
 10
10.06399999998996
 20
3.670999999996297
 30
0.0
 11
9.236999999990758
 21
5.5200999999945
 31
0.0
1001
ACAD
1000
ASC_BOUNDS
1002
{
1070
    19
1005
A41D
1002
}
  0
LINE
  5
A3F9
  8
0
 10
8.409999999991555
 20
3.670999999996297
 30
0.0
 11
9.236999999990758
 21
5.5200999999945
 31
0.0
1001
ACAD
1000
ASC_BOUNDS
1002
{
1070
    19
1005
A41D
1002
}
  0
LINE
  5
A3FA
  8
0
 10
8.409999999991555
 20
3.670999999996297
 30
0.0
 11
10.06399999998996
 21
3.670999999996297
 31
0.0
1001
ACAD
1000
ASC_BOUNDS
1002
{
1070
    19
1005
A41D
1002
}
  0
LINE
  5
A3FB
  8
0
 10
10.53899999998941
 20
8.763099999991255
 30
0.0
 11
12.02999999998792
 21
8.763099999991255
 31
0.0
1001
ACAD
1000
ASC_BOUNDS
1002
{
1070
    19
1005
A41E
1002
}
  0
LINE
  5
A3FC
  8
0
 10
22.7389999999773
 20
3.670999999996297
 30
0.0
 11
23.56599999997638
 21
5.5200999999945
 31
0.0
1001
ACAD
1000
ASC_BOUNDS
1002
{
1070
    19
1005
A41F
1002
}
  0
LINE
  5
A3FD
  8
0
 10
22.7389999999773
 20
3.670999999996297
 30
0.0
 11
24.39299999997559
 21
3.670999999996297
 31
0.0
1001
ACAD
1000
ASC_BOUNDS
1002
{
1070
    19
1005
A41F
1002
}
  0
LINE
  5
A3FE
  8
0
 10
18.59799999998143
 20
3.315799999996671
 30
0.0
 11
20.89099999997916
 21
8.763099999991255
 31
0.0
1001
ACAD
1000
ASC_BOUNDS
1002
{
1070
    19
1005
A41E
1002
}
  0
LINE
  5
A3FF
  8
0
 10
18.59799999998143
 20
3.315799999996671
 30
0.0
 11
16.46099999998353
 21
8.999899999990987
 31
0.0
1001
ACAD
1000
ASC_BOUNDS
1002
{
1070
    19
1005
A41E
1002
}
  0
LINE
  5
A400
  8
0
 10
20.89099999997916
 20
8.763099999991255
 30
0.0
 11
22.38199999997767
 21
8.763099999991255
 31
0.0
1001
ACAD
1000
ASC_BOUNDS
1002
{
1070
    19
1005
A41E
1002
}
  0
LINE
  5
A401
  8
0
 10
24.39299999997559
 20
3.670999999996297
 30
0.0
 11
23.56599999997638
 21
5.5200999999945
 31
0.0
1001
ACAD
1000
ASC_BOUNDS
1002
{
1070
    19
1005
A41F
1002
}
  0
LINE
  5
A402
  8
0
 10
44.99999999995498
 20
-0.2368999999997641
 30
0.0
 11
40.02599999995994
 21
5.341799999994635
 31
0.0
1001
ACAD
1000
ASC_BOUNDS
1002
{
1070
    19
1005
A421
1002
}
  0
LINE
  5
A403
  8
0
 10
40.02599999995994
 20
5.341799999994635
 30
0.0
 11
40.02599999995994
 21
0.0
 31
0.0
1001
ACAD
1000
ASC_BOUNDS
1002
{
1070
    19
1005
A421
1002
}
  0
LINE
  5
A404
  8
0
 10
38.60499999996136
 20
8.999999999991019
 30
0.0
 11
38.60499999996136
 21
0.0
 31
0.0
1001
ACAD
1000
ASC_BOUNDS
1002
{
1070
    19
1005
A421
1002
}
  0
LINE
  5
A405
  8
0
 10
44.99999999995498
 20
8.763099999991255
 30
0.0
 11
44.99999999995498
 21
-0.2368999999997641
 31
0.0
1001
ACAD
1000
ASC_BOUNDS
1002
{
1070
    19
1005
A421
1002
}
  0
LINE
  5
A406
  8
0
 10
38.60499999996136
 20
0.0
 30
0.0
 11
40.02599999995994
 21
0.0
 31
0.0
1001
ACAD
1000
ASC_BOUNDS
1002
{
1070
    19
1005
A421
1002
}
  0
LINE
  5
A407
  8
0
 10
43.57899999995641
 20
3.421199999996588
 30
0.0
 11
38.60499999996136
 21
8.999899999990987
 31
0.0
1001
ACAD
1000
ASC_BOUNDS
1002
{
1070
    19
1005
A421
1002
}
  0
LINE
  5
A408
  8
0
 10
43.57899999995641
 20
8.763099999991255
 30
0.0
 11
43.57899999995641
 21
3.421199999996588
 31
0.0
1001
ACAD
1000
ASC_BOUNDS
1002
{
1070
    19
1005
A421
1002
}
  0
LINE
  5
A409
  8
0
 10
43.57899999995641
 20
8.763099999991255
 30
0.0
 11
44.99999999995498
 21
8.763099999991255
 31
0.0
1001
ACAD
1000
ASC_BOUNDS
1002
{
1070
    19
1005
A421
1002
}
  0
LINE
  5
A40A
  8
0
 10
37.67199999996831
 20
8.763099999991255
 30
0.0
 11
36.23199999996837
 21
8.763099999991255
 31
0.0
  0
LINE
  5
A40B
  8
0
 10
31.64199999996833
 20
8.763099999991255
 30
0.0
 11
31.64199999996833
 21
2.481619422925121
 31
0.0
  0
LINE
  5
A40C
  8
0
 10
37.67199999996831
 20
8.763099999991255
 30
0.0
 11
37.67199999996831
 21
2.481619422925121
 31
0.0
  0
LINE
  5
A40D
  8
0
 10
36.23199999996837
 20
8.763099999991255
 30
0.0
 11
36.23199999996837
 21
2.481619422925064
 31
0.0
  0
LINE
  5
A40E
  8
0
 10
33.08199999996839
 20
8.763099999991255
 30
0.0
 11
33.08199999996839
 21
2.481619422925121
 31
0.0
  0
ARC
  5
A40F
  8
0
 10
34.65699999996832
 20
3.183099999991214
 30
0.0
 40
3.420000000000007
 50
240.0000000000255
 51
299.9999999999766
  0
ARC
  5
A410
  8
0
 10
34.65699999996832
 20
3.183099999991214
 30
0.0
 40
1.97999999999999
 50
240.000000000026
 51
299.9999999999703
  0
LINE
  5
A411
  8
0
 10
33.08199999996828
 20
8.763099999991255
 30
0.0
 11
31.64199999996833
 21
8.763099999991255
 31
0.0
  0
ARC
  5
A412
  8
0
 10
35.06199999996829
 20
2.481619422925064
 30
0.0
 40
1.17
 50
299.9999999999699
 51
0.0
  0
ARC
  5
A413
  8
0
 10
34.25199999996835
 20
2.481619422925121
 30
0.0
 40
1.17
 50
180.0
 51
240.0000000000238
  0
ARC
  5
A414
  8
0
 10
35.06199999996841
 20
2.481619422925121
 30
0.0
 40
2.61
 50
299.9999999999756
 51
0.0
  0
ARC
  5
A415
  8
0
 10
34.25199999996835
 20
2.481619422925121
 30
0.0
 40
2.61
 50
180.0
 51
240.0000000000244
  0
LINE
  5
A416
  8
0
 10
29.30199999996933
 20
8.763099999991255
 30
0.0
 11
30.74199999996927
 21
8.763099999991255
 31
0.0
1001
ACAD
1000
ASC_BOUNDS
1002
{
1070
    19
1005
A41F
1002
}
  0
LINE
  5
A417
  8
0
 10
30.74199999996927
 20
8.763099999991255
 30
0.0
 11
30.74199999996927
 21
2.373099999991211
 31
0.0
1001
ACAD
1000
ASC_BOUNDS
1002
{
1070
    19
1005
A41F
1002
}
  0
LINE
  5
A418
  8
0
 10
26.02015566812236
 20
0.0330999999912365
 30
0.0
 11
28.40199999996923
 21
0.0330999999912365
 31
0.0
1001
ACAD
1000
ASC_BOUNDS
1002
{
1070
    19
1005
A41F
1002
}
  0
LINE
  5
A419
  8
0
 10
29.30199999996933
 20
8.763099999991255
 30
0.0
 11
29.30199999996933
 21
2.283099999991236
 31
0.0
1001
ACAD
1000
ASC_BOUNDS
1002
{
1070
    19
1005
A41F
1002
}
  0
LINE
  5
A41A
  8
0
 10
26.97358892824991
 20
1.383099999991202
 30
0.0
 11
28.40199999996923
 21
1.383099999991202
 31
0.0
1001
ACAD
1000
ASC_BOUNDS
1002
{
1070
    19
1005
A41F
1002
}
  0
ARC
  5
A41B
  8
0
 10
28.40199999996923
 20
2.283099999991236
 30
0.0
 40
0.9
 50
270.0
 51
0.0
1001
ACAD
1000
ASC_BOUNDS
1002
{
1070
    19
1005
A41F
1002
}
  0
ARC
  5
A41C
  8
0
 10
28.40199999996923
 20
2.373099999991211
 30
0.0
 40
2.34
 50
270.0
 51
0.0
1001
ACAD
1000
ASC_BOUNDS
1002
{
1070
    19
1005
A41F
1002
}
  0
INSERT
  5
A41D
  8
0
  2
*X71
 10
0.0
 20
0.0
 30
0.0
1001
ACAD
1000
HATCH
1002
{
1070
    19
1000
ANSI37
1040
0.15
1040
0.0
1000
ASC_BOUNDS
1070
     2
1070
     2
1070
    12
1005
A3DC
1005
A3DD
1005
A3E4
1005
A3F3
1005
A3F6
1005
A3F4
1005
A3E5
1005
A3EA
1005
A3E8
1005
A3EC
1005
A3EB
1005
A3ED
1070
     2
1070
     3
1005
A3F8
1005
A3FA
1005
A3F9
1000
ASC_SEEDPOINT
1011
3.614004224891801
1021
2.996669441146025
1031
0.0
1021
2.996669441146025
1031
0.0
1000
R14_HATCH_DATA
1000
A41D
1011
1.0
1021
0.0
1031
0.0
1021
0.0
1031
0.0
1011
0.0
1021
1.0
1031
0.0
1021
1.0
1031
0.0
1011
0.0
1021
0.0
1031
1.0
1021
0.0
1031
1.0
1040
0.0
1010
0.0
1020
0.0
1030
1.0
1000
ANSI37
1070
     0
1070
     1
1071
        2
1071
        7
1070
     0
1070
     1
1071
       17
1040
13.26299999998673
1040
-0.0001000000000317
1040
9.236999999990758
1040
8.999899999990987
1040
9.236999999990758
1040
8.999999999991019
1040
5.657999999994331
1040
0.9999999999989768
1040
3.181999999996833
1040
4.668599999995308
1040
6.432999999993513
1040
8.763099999991255
1040
4.617999999995391
1040
8.763099999991255
1040
1.420999999998571
1040
4.736799999995242
1040
4.617999999995391
1040
-0.0001000000000317
1040
4.617999999995391
1040
0.0
1040
6.766999999993232
1040
0.0
1040
6.766999999993232
1040
-0.0001000000000317
1040
7.826999999992154
1040
2.368399999997621
1040
10.64699999998936
1040
2.368399999997621
1040
11.70599999998831
1040
-0.0001000000000317
1040
11.70599999998831
1040
0.0
1040
13.26299999998673
1040
0.0
1071
       12
1005
A3DC
1005
A3DD
1005
A3E4
1005
A3F3
1005
A3F6
1005
A3F4
1005
A3E5
1005
A3EA
1005
A3E8
1005
A3EC
1005
A3EB
1005
A3ED
1071
       22
1070
     0
1070
     1
1071
        3
1040
9.236999999990758
1040
5.5200999999945
1040
10.06399999998996
1040
3.670999999996297
1040
8.409999999991555
1040
3.670999999996297
1071
        3
1005
A3F8
1005
A3FA
1005
A3F9
1070
     0
1070
     1
1040
0.0
1040
0.15
1070
     0
1070
     2
1040
0.7853981633974483
1040
49.29960901727088
1040
-10.17736998311392
1040
-0.3367596045400932
1040
0.3367596045400932
1070
     0
1040
2.356194490192345
1040
49.29960901727088
1040
-10.17736998311392
1040
-0.3367596045400932
1040
-0.3367596045400932
1070
     0
1040
0.0110235143455945
1071
        2
1040
3.614004224891801
1040
2.996669441146025
1040
0.0
1040
3.614004224891801
1040
2.996669441146025
1040
0.0
1002
}
  0
INSERT
  5
A41E
  8
0
  2
*X72
 10
0.0
 20
0.0
 30
0.0
1001
ACAD
1000
HATCH
1002
{
1070
    19
1000
ANSI37
1040
0.15
1040
0.0
1000
ASC_BOUNDS
1070
     1
1070
     2
1070
    10
1005
A3DE
1005
A3DF
1005
A400
1005
A3FE
1005
A3FF
1005
A3F2
1005
A3F7
1005
A3FB
1005
A3E1
1005
A3E0
1000
ASC_SEEDPOINT
1011
14.73245321214324
1021
2.798246178283421
1031
0.0
1021
2.798246178283421
1031
0.0
1000
R14_HATCH_DATA
1000
A41E
1011
1.0
1021
0.0
1031
0.0
1021
0.0
1031
0.0
1011
0.0
1021
1.0
1031
0.0
1021
1.0
1031
0.0
1011
0.0
1021
0.0
1031
1.0
1021
0.0
1031
1.0
1040
0.0
1010
0.0
1020
0.0
1030
1.0
1000
ANSI37
1070
     0
1070
     1
1071
        1
1071
        7
1070
     0
1070
     1
1071
       10
1040
16.46099999998353
1040
5.432899999994561
1040
18.59199999998134
1040
-0.2368999999997641
1040
22.38199999997767
1040
8.763099999991255
1040
20.89099999997916
1040
8.763099999991255
1040
18.59799999998143
1040
3.315799999996671
1040
16.46099999998353
1040
8.999899999990987
1040
14.32399999998563
1040
3.315799999996671
1040
12.02999999998792
1040
8.763099999991255
1040
10.53899999998941
1040
8.763099999991255
1040
14.32899999998563
1040
-0.2368999999997641
1071
       10
1005
A3DE
1005
A3DF
1005
A400
1005
A3FE
1005
A3FF
1005
A3F2
1005
A3F7
1005
A3FB
1005
A3E1
1005
A3E0
1070
     0
1070
     1
1040
0.0
1040
0.15
1070
     0
1070
     2
1040
0.7853981633974483
1040
49.29960901727088
1040
-10.17736998311392
1040
-0.3367596045400932
1040
0.3367596045400932
1070
     0
1040
2.356194490192345
1040
49.29960901727088
1040
-10.17736998311392
1040
-0.3367596045400932
1040
-0.3367596045400932
1070
     0
1040
0.0110235143455945
1071
        1
1040
14.73245321214324
1040
2.798246178283421
1040
0.0
1002
}
  0
INSERT
  5
A41F
  8
0
  2
*X73
 10
0.0
 20
0.0
 30
0.0
1001
ACAD
1000
HATCH
1002
{
1070
    19
1000
ANSI37
1040
0.15
1040
0.0
1000
ASC_BOUNDS
1070
     2
1070
     2
1070
    13
1005
A3E2
1005
A3EF
1005
A3F0
1005
A3EE
1005
A3F1
1005
A418
1005
A41C
1005
A417
1005
A416
1005
A419
1005
A41B
1005
A41A
1005
A3E3
1070
     2
1070
     3
1005
A3FC
1005
A401
1005
A3FD
1000
ASC_SEEDPOINT
1011
21.97929957367762
1021
3.294304244259308
1031
0.0
1021
3.294304244259308
1031
0.0
1000
R14_HATCH_DATA
1000
A41F
1011
1.0
1021
0.0
1031
0.0
1021
0.0
1031
0.0
1011
0.0
1021
1.0
1031
0.0
1021
1.0
1031
0.0
1011
0.0
1021
0.0
1031
1.0
1021
0.0
1031
1.0
1040
0.0
1010
0.0
1020
0.0
1030
1.0
1000
ANSI37
1070
     0
1070
     1
1071
        2
1071
        7
1070
     1
1070
     1
1071
       15
1040
23.56599999997638
1040
8.999899999990987
1040
0.0
1040
19.53899999998043
1040
-0.0001000000000317
1040
0.0
1040
19.53899999998043
1040
0.0
1040
0.0
1040
21.09599999997886
1040
0.0
1040
0.0
1040
21.09599999997886
1040
-0.0001000000000317
1040
0.0
1040
22.15599999997789
1040
2.368399999997621
1040
0.0
1040
24.97599999997499
1040
2.368399999997621
1040
0.0
1040
26.02015566812236
1040
0.0330999999912365
1040
0.0
1040
28.40199999996923
1040
0.0330999999912365
1040
0.414213562373095
1040
30.74199999996923
1040
2.373099999991211
1040
0.0
1040
30.74199999996927
1040
8.763099999991255
1040
0.0
1040
29.30199999996933
1040
8.763099999991255
1040
0.0
1040
29.30199999996933
1040
2.283099999991236
1040
-0.414213562373095
1040
28.40199999996923
1040
1.383099999991237
1040
0.0
1040
26.97358892824991
1040
1.383099999991202
1040
0.0
1071
       13
1005
A3E2
1005
A3EF
1005
A3F0
1005
A3EE
1005
A3F1
1005
A418
1005
A41C
1005
A417
1005
A416
1005
A419
1005
A41B
1005
A41A
1005
A3E3
1071
       22
1070
     0
1070
     1
1071
        3
1040
22.7389999999773
1040
3.670999999996297
1040
23.56599999997638
1040
5.5200999999945
1040
24.39299999997559
1040
3.670999999996297
1071
        3
1005
A3FC
1005
A401
1005
A3FD
1070
     0
1070
     1
1040
0.0
1040
0.15
1070
     0
1070
     2
1040
0.7853981633974483
1040
49.29960901727088
1040
-10.17736998311392
1040
-0.3367596045400932
1040
0.3367596045400932
1070
     0
1040
2.356194490192345
1040
49.29960901727088
1040
-10.17736998311392
1040
-0.3367596045400932
1040
-0.3367596045400932
1070
     0
1040
0.0110235143455945
1071
        2
1040
21.97929957367762
1040
3.294304244259308
1040
0.0
1040
21.97929957367762
1040
3.294304244259308
1040
0.0
1002
}
  0
INSERT
  5
A420
  8
0
  2
*X74
 10
0.0
 20
0.0
 30
0.0
1001
ACAD
1000
HATCH
1002
{
1070
    19
1000
ANSI37
1040
0.15
1040
0.0
1000
R14_HATCH_DATA
1000
A420
1011
1.0
1021
0.0
1031
0.0
1021
0.0
1031
0.0
1011
0.0
1021
1.0
1031
0.0
1021
1.0
1031
0.0
1011
0.0
1021
0.0
1031
1.0
1021
0.0
1031
1.0
1040
0.0
1010
0.0
1020
0.0
1030
1.0
1000
ANSI37
1070
     0
1070
     1
1071
        1
1071
        7
1070
     1
1070
     1
1071
       12
1040
31.64199999996833
1040
2.481619422925121
1040
0.2679491924310942
1040
32.94699999997067
1040
0.2212931190493919
1040
0.2679491924301353
1040
36.36699999995983
1040
0.2212931190459813
1040
0.2679491924321411
1040
37.67199999996831
1040
2.481619422928361
1040
0.0
1040
37.67199999996831
1040
8.763099999991255
1040
0.0
1040
36.23199999996837
1040
8.763099999991255
1040
0.0
1040
36.23199999996837
1040
2.481619422925064
1040
-0.2679491924310291
1040
35.64699999996708
1040
1.468369700498386
1040
-0.267949192430519
1040
33.66699999997093
1040
1.468369700497703
1040
-0.267949192431809
1040
33.08199999996839
1040
2.481619422926997
1040
0.0
1040
33.08199999996839
1040
8.763099999991255
1040
0.0
1040
31.64199999996833
1040
8.763099999991255
1040
0.0
1071
        0
1070
     0
1070
     1
1040
0.0
1040
0.15
1070
     0
1070
     2
1040
0.7853981633974483
1040
49.29960901727088
1040
-10.17736998311392
1040
-0.3367596045400932
1040
0.3367596045400932
1070
     0
1040
2.356194490192345
1040
49.29960901727088
1040
-10.17736998311392
1040
-0.3367596045400932
1040
-0.3367596045400932
1070
     0
1040
0.0110235143455945
1071
        1
1040
32.30357378967278
1040
3.988785755459219
1040
0.0
1002
}
  0
INSERT
  5
A421
  8
0
  2
*X75
 10
0.0
 20
0.0
 30
0.0
1001
ACAD
1000
HATCH
1002
{
1070
    19
1000
ANSI37
1040
0.15
1040
0.0
1000
ASC_BOUNDS
1070
     1
1070
     2
1070
     8
1005
A402
1005
A405
1005
A409
1005
A408
1005
A407
1005
A404
1005
A406
1005
A403
1000
ASC_SEEDPOINT
1011
39.74896370716704
1021
4.484843821435049
1031
0.0
1021
4.484843821435049
1031
0.0
1000
R14_HATCH_DATA
1000
A421
1011
1.0
1021
0.0
1031
0.0
1021
0.0
1031
0.0
1011
0.0
1021
1.0
1031
0.0
1021
1.0
1031
0.0
1011
0.0
1021
0.0
1031
1.0
1021
0.0
1031
1.0
1040
0.0
1010
0.0
1020
0.0
1030
1.0
1000
ANSI37
1070
     0
1070
     1
1071
        1
1071
        7
1070
     0
1070
     1
1071
        9
1040
40.02599999995994
1040
5.341799999994635
1040
44.99999999995498
1040
-0.2368999999997641
1040
44.99999999995498
1040
8.763099999991255
1040
43.57899999995641
1040
8.763099999991255
1040
43.57899999995641
1040
3.421199999996588
1040
38.60499999996136
1040
8.999899999990987
1040
38.60499999996136
1040
8.999999999991019
1040
38.60499999996136
1040
0.0
1040
40.02599999995994
1040
0.0
1071
        8
1005
A402
1005
A405
1005
A409
1005
A408
1005
A407
1005
A404
1005
A406
1005
A403
1070
     0
1070
     1
1040
0.0
1040
0.15
1070
     0
1070
     2
1040
0.7853981633974483
1040
49.29960901727088
1040
-10.17736998311392
1040
-0.3367596045400932
1040
0.3367596045400932
1070
     0
1040
2.356194490192345
1040
49.29960901727088
1040
-10.17736998311392
1040
-0.3367596045400932
1040
-0.3367596045400932
1070
     0
1040
0.0110235143455945
1071
        1
1040
39.74896370716704
1040
4.484843821435049
1040
0.0
1002
}
  0
INSERT
  5
A422
  8
0
  2
*X76
 10
0.0
 20
0.0
 30
0.0
1001
ACAD
1000
HATCH
1002
{
1070
    19
1000
ANSI37
1040
0.15
1040
0.0
1000
ASC_BOUNDS
1070
     1
1070
     2
1070
     4
1005
A3E6
1005
A3F5
1005
A3E7
1005
A3E9
1000
ASC_SEEDPOINT
1011
1.079051535452663
1021
4.148538732891836
1031
0.0
1021
4.148538732891836
1031
0.0
1000
R14_HATCH_DATA
1000
A422
1011
1.0
1021
0.0
1031
0.0
1021
0.0
1031
0.0
1011
0.0
1021
1.0
1031
0.0
1021
1.0
1031
0.0
1011
0.0
1021
0.0
1031
1.0
1021
0.0
1031
1.0
1040
0.0
1010
0.0
1020
0.0
1030
1.0
1000
ANSI37
1070
     0
1070
     1
1071
        1
1071
        7
1070
     0
1070
     1
1071
        4
1040
1.420999999998571
1040
0.0
1040
1.420999999998571
1040
8.763099999991255
1040
0.0
1040
8.763099999991255
1040
0.0
1040
0.0
1071
        4
1005
A3E6
1005
A3F5
1005
A3E7
1005
A3E9
1070
     0
1070
     1
1040
0.0
1040
0.15
1070
     0
1070
     2
1040
0.7853981633974483
1040
49.29960901727088
1040
-10.17736998311392
1040
-0.3367596045400932
1040
0.3367596045400932
1070
     0
1040
2.356194490192345
1040
49.29960901727088
1040
-10.17736998311392
1040
-0.3367596045400932
1040
-0.3367596045400932
1070
     0
1040
0.0053004257112761
1071
        1
1040
1.079051535452663
1040
4.148538732891836
1040
0.0
1002
}
  0
ENDBLK
  5
AADC
  8
0
  0
BLOCK
  8
0
  2
*X71
 70
     1
 10
0.0
 20
0.0
 30
0.0
  3
*X71
  1

  0
LINE
  5
AE6E
  8
0
  6
CONTINUOUS
 10
3.418023043697893
 20
7.251849696850613
 30
0.0
 11
4.929273346838536
 21
8.763099999991255
 31
0.0
  0
LINE
  5
AE6F
  8
0
  6
CONTINUOUS
 10
1.483656411257782
 20
4.643963855330318
 30
0.0
 11
5.60279255591872
 21
8.763099999991255
 31
0.0
  0
LINE
  5
AE70
  8
0
  6
CONTINUOUS
 10
1.755053947328235
 20
4.241842182320584
 30
0.0
 11
6.276311764998907
 21
8.763099999991255
 31
0.0
  0
LINE
  5
AE71
  8
0
  6
CONTINUOUS
 10
2.026451483398688
 20
3.839720509310849
 30
0.0
 11
4.441040904851878
 21
6.254309930764039
 31
0.0
  0
LINE
  5
AE72
  8
0
  6
CONTINUOUS
 10
2.297849019469139
 20
3.437598836301114
 30
0.0
 11
3.321765168359338
 21
4.461514985191313
 31
0.0
  0
LINE
  5
AE73
  8
0
  6
CONTINUOUS
 10
2.569246555539591
 20
3.03547716329138
 30
0.0
 11
3.593163397972743
 21
4.059394005724531
 31
0.0
  0
LINE
  5
AE74
  8
0
  6
CONTINUOUS
 10
2.840644091610043
 20
2.633355490281646
 30
0.0
 11
3.864561627586149
 21
3.657273026257751
 31
0.0
  0
LINE
  5
AE75
  8
0
  6
CONTINUOUS
 10
3.112041627680496
 20
2.231233817271911
 30
0.0
 11
4.135959857199554
 21
3.25515204679097
 31
0.0
  0
LINE
  5
AE76
  8
0
  6
CONTINUOUS
 10
3.383439163750948
 20
1.829112144262177
 30
0.0
 11
4.40735808681296
 21
2.853031067324189
 31
0.0
  0
LINE
  5
AE77
  8
0
  6
CONTINUOUS
 10
3.654836699821399
 20
1.426990471252442
 30
0.0
 11
4.678756316426365
 21
2.450910087857407
 31
0.0
  0
LINE
  5
AE78
  8
0
  6
CONTINUOUS
 10
3.926234235891853
 20
1.024868798242709
 30
0.0
 11
4.95015454603977
 21
2.048789108390626
 31
0.0
  0
LINE
  5
AE79
  8
0
  6
CONTINUOUS
 10
4.197631771962304
 20
0.6227471252329737
 30
0.0
 11
5.221552775653176
 21
1.646668128923846
 31
0.0
  0
LINE
  5
AE7A
  8
0
  6
CONTINUOUS
 10
8.715877546767851
 20
7.835069736359266
 30
0.0
 11
9.435953450375058
 21
8.555145639966472
 31
0.0
  0
LINE
  5
AE7B
  8
0
  6
CONTINUOUS
 10
8.170620868422267
 20
6.616293848933497
 30
0.0
 11
9.644120833743461
 21
8.08979381425469
 31
0.0
  0
LINE
  5
AE7C
  8
0
  6
CONTINUOUS
 10
7.625364190076684
 20
5.397517961507727
 30
0.0
 11
9.852288217111864
 21
7.624441988542907
 31
0.0
  0
LINE
  5
AE7D
  8
0
  6
CONTINUOUS
 10
7.080107511731101
 20
4.178742074081957
 30
0.0
 11
10.06045560048027
 21
7.159090162831124
 31
0.0
  0
LINE
  5
AE7E
  8
0
  6
CONTINUOUS
 10
6.534850833385518
 20
2.959966186656187
 30
0.0
 11
10.26862298384867
 21
6.693738337119342
 31
0.0
  0
LINE
  5
AE7F
  8
0
  6
CONTINUOUS
 10
4.469029308032756
 20
0.2206254522232385
 30
0.0
 11
5.492951005266582
 21
1.244547149457064
 31
0.0
  0
LINE
  5
AE80
  8
0
  6
CONTINUOUS
 10
5.989594155039935
 20
1.741190299230417
 30
0.0
 11
8.806950407233131
 21
4.558546551423613
 31
0.0
  0
LINE
  5
AE81
  8
0
  6
CONTINUOUS
 10
9.401251593263643
 20
5.152847737454126
 30
0.0
 11
10.47679036721708
 21
6.228386511407559
 31
0.0
  0
LINE
  5
AE82
  8
0
  6
CONTINUOUS
 10
4.921837203428691
 20
-0.0000858614610131
 30
0.0
 11
8.592923064886001
 21
3.670999999996297
 31
0.0
  0
LINE
  5
AE83
  8
0
  6
CONTINUOUS
 10
9.609390446785305
 20
4.6874673818956
 30
0.0
 11
10.68495775058548
 21
5.763034685695775
 31
0.0
  0
LINE
  5
AE84
  8
0
  6
CONTINUOUS
 10
5.595387755019432
 20
-0.0000545189504582
 30
0.0
 11
7.716137258923768
 21
2.120694984953879
 31
0.0
  0
LINE
  5
AE85
  8
0
  6
CONTINUOUS
 10
6.268938306610172
 20
-0.000023176439905
 30
0.0
 11
7.170485805526503
 21
0.9015243224764267
 31
0.0
  0
LINE
  5
AE86
  8
0
  6
CONTINUOUS
 10
7.963842273967511
 20
2.368399999997621
 30
0.0
 11
9.266442273966188
 21
3.670999999996297
 31
0.0
  0
LINE
  5
AE87
  8
0
  6
CONTINUOUS
 10
8.637361483047696
 20
2.368399999997621
 30
0.0
 11
9.939961483046375
 21
3.670999999996297
 31
0.0
  0
LINE
  5
AE88
  8
0
  6
CONTINUOUS
 10
9.817529300306965
 20
4.222087026337075
 30
0.0
 11
10.89312513395388
 21
5.297682859983993
 31
0.0
  0
LINE
  5
AE89
  8
0
  6
CONTINUOUS
 10
10.02566815382863
 20
3.756706670778549
 30
0.0
 11
11.10129251732229
 21
4.832331034272211
 31
0.0
  0
LINE
  5
AE8A
  8
0
  6
CONTINUOUS
 10
9.310880692127883
 20
2.368399999997621
 30
0.0
 11
11.30945990069069
 21
4.366979208560428
 31
0.0
  0
LINE
  5
AE8B
  8
0
  6
CONTINUOUS
 10
9.98439990120807
 20
2.36839999999762
 30
0.0
 11
11.5176272840591
 21
3.901627382848645
 31
0.0
  0
LINE
  5
AE8C
  8
0
  6
CONTINUOUS
 10
10.65037369446246
 20
2.36085458417182
 30
0.0
 11
11.7257946674275
 21
3.436275557136862
 31
0.0
  0
LINE
  5
AE8D
  8
0
  6
CONTINUOUS
 10
10.85847197087848
 20
1.895433651507656
 30
0.0
 11
11.9339620507959
 21
2.97092373142508
 31
0.0
  0
LINE
  5
AE8E
  8
0
  6
CONTINUOUS
 10
11.0665702472945
 20
1.430012718843491
 30
0.0
 11
12.14212943416431
 21
2.505571905713296
 31
0.0
  0
LINE
  5
AE8F
  8
0
  6
CONTINUOUS
 10
11.27466852371052
 20
0.9645917861793256
 30
0.0
 11
12.35029681753271
 21
2.040220080001513
 31
0.0
  0
LINE
  5
AE90
  8
0
  6
CONTINUOUS
 10
11.48276680012654
 20
0.4991708535151611
 30
0.0
 11
12.55846420090111
 21
1.57486825428973
 31
0.0
  0
LINE
  5
AE91
  8
0
  6
CONTINUOUS
 10
11.69086507654257
 20
0.0337499208509957
 30
0.0
 11
12.76663158426952
 21
1.109516428577947
 31
0.0
  0
LINE
  5
AE92
  8
0
  6
CONTINUOUS
 10
12.33057447873954
 20
-0.0000598860322123
 30
0.0
 11
12.97479896763792
 21
0.6441646028661663
 31
0.0
  0
LINE
  5
AE93
  8
0
  6
CONTINUOUS
 10
13.00413694809395
 20
-0.0000166257579952
 30
0.0
 11
13.18296635100632
 21
0.1788127771543824
 31
0.0
  0
LINE
  5
AE94
  8
0
  6
CONTINUOUS
 10
4.772852165289667
 20
-0.000092794222212
 30
0.0
 11
4.296495091028902
 21
0.4762642800385528
 31
0.0
  0
LINE
  5
AE95
  8
0
  6
CONTINUOUS
 10
5.446340034776103
 20
-0.0000614546284616
 30
0.0
 11
2.898195908335625
 21
2.548082671812017
 31
0.0
  0
LINE
  5
AE96
  8
0
  6
CONTINUOUS
 10
6.119827904262539
 20
-0.0000301150347113
 30
0.0
 11
1.499896725642348
 21
4.61990106358548
 31
0.0
  0
LINE
  5
AE97
  8
0
  6
CONTINUOUS
 10
6.775136745476159
 20
0.0181802528318542
 30
0.0
 11
5.699826040202669
 21
1.093490958105344
 31
0.0
  0
LINE
  5
AE98
  8
0
  6
CONTINUOUS
 10
6.983376846288489
 20
0.4834593610997118
 30
0.0
 11
5.908008617934405
 21
1.558827589453796
 31
0.0
  0
LINE
  5
AE99
  8
0
  6
CONTINUOUS
 10
5.377063484962296
 20
1.416253513345719
 30
0.0
 11
1.702276957014131
 21
5.091040041293883
 31
0.0
  0
LINE
  5
AE9A
  8
0
  6
CONTINUOUS
 10
3.978745891735324
 20
3.488090315652877
 30
0.0
 11
2.000373521109399
 21
5.466462686278803
 31
0.0
  0
LINE
  5
AE9B
  8
0
  6
CONTINUOUS
 10
7.191616947100819
 20
0.948738469367568
 30
0.0
 11
6.11619119566614
 21
2.024164220802247
 31
0.0
  0
LINE
  5
AE9C
  8
0
  6
CONTINUOUS
 10
7.399857047913149
 20
1.414017577635424
 30
0.0
 11
6.324373773397875
 21
2.489500852150698
 31
0.0
  0
LINE
  5
AE9D
  8
0
  6
CONTINUOUS
 10
7.608097148725479
 20
1.879296685903281
 30
0.0
 11
6.53255635112961
 21
2.95483748349915
 31
0.0
  0
LINE
  5
AE9E
  8
0
  6
CONTINUOUS
 10
7.816337249537808
 20
2.344575794171138
 30
0.0
 11
6.740738928861345
 21
3.420174114847601
 31
0.0
  0
LINE
  5
AE9F
  8
0
  6
CONTINUOUS
 10
3.310241080789734
 20
4.830114335678653
 30
0.0
 11
2.298470085204666
 21
5.84188533126372
 31
0.0
  0
LINE
  5
AEA0
  8
0
  6
CONTINUOUS
 10
3.60832983563551
 20
5.205544789913063
 30
0.0
 11
2.596566649299935
 21
6.217307976248638
 31
0.0
  0
LINE
  5
AEA1
  8
0
  6
CONTINUOUS
 10
3.906418590481286
 20
5.580975244147473
 30
0.0
 11
2.894663213395203
 21
6.592730621233557
 31
0.0
  0
LINE
  5
AEA2
  8
0
  6
CONTINUOUS
 10
4.204507345327062
 20
5.956405698381884
 30
0.0
 11
3.192759777490472
 21
6.968153266218474
 31
0.0
  0
LINE
  5
AEA3
  8
0
  6
CONTINUOUS
 10
8.466032252791512
 20
2.368399999997621
 30
0.0
 11
6.948921506593081
 21
3.885510746196053
 31
0.0
  0
LINE
  5
AEA4
  8
0
  6
CONTINUOUS
 10
9.139551461871699
 20
2.36839999999762
 30
0.0
 11
7.157104084324816
 21
4.350847377544504
 31
0.0
  0
LINE
  5
AEA5
  8
0
  6
CONTINUOUS
 10
4.502596100172839
 20
6.331836152616295
 30
0.0
 11
3.49085634158574
 21
7.343575911203393
 31
0.0
  0
LINE
  5
AEA6
  8
0
  6
CONTINUOUS
 10
4.800684855018615
 20
6.707266606850705
 30
0.0
 11
3.788952905681008
 21
7.718998556188312
 31
0.0
  0
LINE
  5
AEA7
  8
0
  6
CONTINUOUS
 10
12.18154012887317
 20
-0.0000694579236642
 30
0.0
 11
11.32140332908496
 21
0.8600673418645499
 31
0.0
  0
LINE
  5
AEA8
  8
0
  6
CONTINUOUS
 10
12.85501608323566
 20
-0.0000262032059659
 30
0.0
 11
10.77672456435345
 21
2.078265315676246
 31
0.0
  0
LINE
  5
AEA9
  8
0
  6
CONTINUOUS
 10
9.813070670951886
 20
2.36839999999762
 30
0.0
 11
8.51047067095321
 21
3.670999999996297
 31
0.0
  0
LINE
  5
AEAA
  8
0
  6
CONTINUOUS
 10
10.48658988003207
 20
2.36839999999762
 30
0.0
 11
9.183989880033396
 21
3.670999999996297
 31
0.0
  0
LINE
  5
AEAB
  8
0
  6
CONTINUOUS
 10
8.441048632286794
 20
3.740422038662712
 30
0.0
 11
7.365286662056551
 21
4.816184008892956
 31
0.0
  0
LINE
  5
AEAC
  8
0
  6
CONTINUOUS
 10
8.649187485808454
 20
4.205802394221237
 30
0.0
 11
7.573469239788285
 21
5.281520640241407
 31
0.0
  0
LINE
  5
AEAD
  8
0
  6
CONTINUOUS
 10
5.098773609864391
 20
7.082697061085115
 30
0.0
 11
4.087049469776277
 21
8.09442120117323
 31
0.0
  0
LINE
  5
AEAE
  8
0
  6
CONTINUOUS
 10
5.396862364710167
 20
7.458127515319526
 30
0.0
 11
4.385146033871544
 21
8.469843846158149
 31
0.0
  0
LINE
  5
AEAF
  8
0
  6
CONTINUOUS
 10
13.04801363231285
 20
0.4804954567970334
 30
0.0
 11
9.85750908911358
 21
3.670999999996297
 31
0.0
  0
LINE
  5
AEB0
  8
0
  6
CONTINUOUS
 10
8.857326339330116
 20
4.671182749779763
 30
0.0
 11
7.781651817520021
 21
5.746857271589858
 31
0.0
  0
LINE
  5
AEB1
  8
0
  6
CONTINUOUS
 10
5.694951119555943
 20
7.833557969553937
 30
0.0
 11
4.765409089118624
 21
8.763099999991255
 31
0.0
  0
LINE
  5
AEB2
  8
0
  6
CONTINUOUS
 10
12.50286117236978
 20
1.699167125820288
 30
0.0
 11
9.68611877250287
 21
4.515909525687196
 31
0.0
  0
LINE
  5
AEB3
  8
0
  6
CONTINUOUS
 10
9.065465192851777
 20
5.136563105338288
 30
0.0
 11
7.989834395251757
 21
6.21219390293831
 31
0.0
  0
LINE
  5
AEB4
  8
0
  6
CONTINUOUS
 10
5.993039874401719
 20
8.208988423788346
 30
0.0
 11
5.43892829819881
 21
8.763099999991255
 31
0.0
  0
LINE
  5
AEB5
  8
0
  6
CONTINUOUS
 10
11.95770871242671
 20
2.917838794843543
 30
0.0
 11
8.19801697298349
 21
6.677530534286761
 31
0.0
  0
LINE
  5
AEB6
  8
0
  6
CONTINUOUS
 10
6.291128629247495
 20
8.584418878022756
 30
0.0
 11
6.112447507278997
 21
8.763099999991255
 31
0.0
  0
LINE
  5
AEB7
  8
0
  6
CONTINUOUS
 10
11.41255625248364
 20
4.136510463866797
 30
0.0
 11
8.406199550715227
 21
7.142867165635211
 31
0.0
  0
LINE
  5
AEB8
  8
0
  6
CONTINUOUS
 10
10.86740379254057
 20
5.355182132890051
 30
0.0
 11
8.614382128446962
 21
7.608203796983664
 31
0.0
  0
LINE
  5
AEB9
  8
0
  6
CONTINUOUS
 10
10.3222513325975
 20
6.573853801913305
 30
0.0
 11
8.822564706178696
 21
8.073540428332114
 31
0.0
  0
LINE
  5
AEBA
  8
0
  6
CONTINUOUS
 10
9.777098872654436
 20
7.792525470936562
 30
0.0
 11
9.030747283910433
 21
8.538877059680566
 31
0.0
  0
ENDBLK
  5
AFFC
  8
0
  0
BLOCK
  8
0
  2
*X72
 70
     1
 10
0.0
 20
0.0
 30
0.0
  3
*X72
  1

  0
LINE
  5
AEBC
  8
0
  6
CONTINUOUS
 10
10.67292308101235
 20
8.445076852443387
 30
0.0
 11
10.99094622856022
 21
8.763099999991255
 31
0.0
  0
LINE
  5
AEBD
  8
0
  6
CONTINUOUS
 10
10.87250383178748
 20
7.971138394138331
 30
0.0
 11
11.6644654376404
 21
8.763099999991255
 31
0.0
  0
LINE
  5
AEBE
  8
0
  6
CONTINUOUS
 10
11.07208458256261
 20
7.497199935833273
 30
0.0
 11
12.12126590876355
 21
8.546381262034211
 31
0.0
  0
LINE
  5
AEBF
  8
0
  6
CONTINUOUS
 10
11.27166533333774
 20
7.023261477528216
 30
0.0
 11
12.32085164573666
 21
8.072447789927136
 31
0.0
  0
LINE
  5
AEC0
  8
0
  6
CONTINUOUS
 10
11.47124608411287
 20
6.549323019223158
 30
0.0
 11
12.52043738270977
 21
7.59851431782006
 31
0.0
  0
LINE
  5
AEC1
  8
0
  6
CONTINUOUS
 10
11.670826834888
 20
6.075384560918101
 30
0.0
 11
12.72002311968288
 21
7.124580845712984
 31
0.0
  0
LINE
  5
AEC2
  8
0
  6
CONTINUOUS
 10
11.87040758566313
 20
5.601446102613043
 30
0.0
 11
12.91960885665599
 21
6.650647373605907
 31
0.0
  0
LINE
  5
AEC3
  8
0
  6
CONTINUOUS
 10
12.06998833643825
 20
5.127507644307986
 30
0.0
 11
13.1191945936291
 21
6.176713901498832
 31
0.0
  0
LINE
  5
AEC4
  8
0
  6
CONTINUOUS
 10
12.26956908721338
 20
4.65356918600293
 30
0.0
 11
13.31878033060221
 21
5.702780429391757
 31
0.0
  0
LINE
  5
AEC5
  8
0
  6
CONTINUOUS
 10
12.46914983798851
 20
4.179630727697873
 30
0.0
 11
13.51836606757532
 21
5.228846957284683
 31
0.0
  0
LINE
  5
AEC6
  8
0
  6
CONTINUOUS
 10
12.66873058876364
 20
3.705692269392816
 30
0.0
 11
13.71795180454843
 21
4.754913485177607
 31
0.0
  0
LINE
  5
AEC7
  8
0
  6
CONTINUOUS
 10
12.86831133953877
 20
3.231753811087759
 30
0.0
 11
13.91753754152154
 21
4.280980013070531
 31
0.0
  0
LINE
  5
AEC8
  8
0
  6
CONTINUOUS
 10
13.0678920903139
 20
2.757815352782702
 30
0.0
 11
14.11712327849465
 21
3.807046540963456
 31
0.0
  0
LINE
  5
AEC9
  8
0
  6
CONTINUOUS
 10
13.26747284108903
 20
2.283876894477644
 30
0.0
 11
14.31670901546777
 21
3.333113068856379
 31
0.0
  0
LINE
  5
AECA
  8
0
  6
CONTINUOUS
 10
16.36767838827179
 20
8.751678487061342
 30
0.0
 11
16.50332410898388
 21
8.887324207773432
 31
0.0
  0
LINE
  5
AECB
  8
0
  6
CONTINUOUS
 10
15.96190732182191
 20
7.67238821153127
 30
0.0
 11
16.68735328004734
 21
8.397834169756699
 31
0.0
  0
LINE
  5
AECC
  8
0
  6
CONTINUOUS
 10
15.55613625537202
 20
6.593097936001196
 30
0.0
 11
16.87138245111079
 21
7.908344131739965
 31
0.0
  0
LINE
  5
AECD
  8
0
  6
CONTINUOUS
 10
15.15036518892213
 20
5.513807660471122
 30
0.0
 11
17.05541162217424
 21
7.418854093723231
 31
0.0
  0
LINE
  5
AECE
  8
0
  6
CONTINUOUS
 10
14.74459412247225
 20
4.434517384941048
 30
0.0
 11
17.2394407932377
 21
6.929364055706499
 31
0.0
  0
LINE
  5
AECF
  8
0
  6
CONTINUOUS
 10
14.33882305602236
 20
3.355227109410975
 30
0.0
 11
17.42346996430115
 21
6.439874017689766
 31
0.0
  0
LINE
  5
AED0
  8
0
  6
CONTINUOUS
 10
13.46705359186416
 20
1.809938436172586
 30
0.0
 11
16.0819338255367
 21
4.424818669845129
 31
0.0
  0
LINE
  5
AED1
  8
0
  6
CONTINUOUS
 10
16.63283254238972
 20
4.975717386698149
 30
0.0
 11
17.60749913536461
 21
5.950383979673033
 31
0.0
  0
LINE
  5
AED2
  8
0
  6
CONTINUOUS
 10
13.66663434263929
 20
1.335999977867529
 30
0.0
 11
15.67604797733754
 21
3.345413612565779
 31
0.0
  0
LINE
  5
AED3
  8
0
  6
CONTINUOUS
 10
13.86621509341442
 20
0.8620615195624723
 30
0.0
 11
15.27016212913838
 21
2.26600855528643
 31
0.0
  0
LINE
  5
AED4
  8
0
  6
CONTINUOUS
 10
16.81682257348267
 20
4.486188208710908
 30
0.0
 11
17.79152830642806
 21
5.460893941656299
 31
0.0
  0
LINE
  5
AED5
  8
0
  6
CONTINUOUS
 10
17.00081260457561
 20
3.996659030723667
 30
0.0
 11
17.97555747749151
 21
4.971403903639565
 31
0.0
  0
LINE
  5
AED6
  8
0
  6
CONTINUOUS
 10
20.74362343514722
 20
8.412989070375462
 30
0.0
 11
21.09373436476302
 21
8.763099999991256
 31
0.0
  0
LINE
  5
AED7
  8
0
  6
CONTINUOUS
 10
20.25401257174777
 20
7.249858997895826
 30
0.0
 11
21.7672535738432
 21
8.763099999991255
 31
0.0
  0
LINE
  5
AED8
  8
0
  6
CONTINUOUS
 10
14.06579584418955
 20
0.3881230612574149
 30
0.0
 11
14.86427628093921
 21
1.186603498007082
 31
0.0
  0
LINE
  5
AED9
  8
0
  6
CONTINUOUS
 10
14.26537659496467
 20
-0.0858153970476412
 30
0.0
 11
14.45839043274005
 21
0.1071984407277329
 31
0.0
  0
LINE
  5
AEDA
  8
0
  6
CONTINUOUS
 10
17.18480263566856
 20
3.507129852736426
 30
0.0
 11
18.15958664855496
 21
4.481913865622833
 31
0.0
  0
LINE
  5
AEDB
  8
0
  6
CONTINUOUS
 10
17.3687926667615
 20
3.017600674749186
 30
0.0
 11
18.34361581961842
 21
3.9924238276061
 31
0.0
  0
LINE
  5
AEDC
  8
0
  6
CONTINUOUS
 10
19.76440170834832
 20
6.086728925416191
 30
0.0
 11
22.33924590259489
 21
8.661573119662755
 31
0.0
  0
LINE
  5
AEDD
  8
0
  6
CONTINUOUS
 10
19.27479084494887
 20
4.923598852936555
 30
0.0
 11
21.84929622842713
 21
7.498104236414807
 31
0.0
  0
LINE
  5
AEDE
  8
0
  6
CONTINUOUS
 10
17.55278269785445
 20
2.528071496761945
 30
0.0
 11
18.52764499068187
 21
3.502933789589366
 31
0.0
  0
LINE
  5
AEDF
  8
0
  6
CONTINUOUS
 10
18.78517998154942
 20
3.760468780456919
 30
0.0
 11
21.35934655425936
 21
6.33463535316686
 31
0.0
  0
LINE
  5
AEE0
  8
0
  6
CONTINUOUS
 10
17.73677272894739
 20
2.038542318774704
 30
0.0
 11
20.8693968800916
 21
5.171166469918914
 31
0.0
  0
LINE
  5
AEE1
  8
0
  6
CONTINUOUS
 10
17.92076276004034
 20
1.549013140787464
 30
0.0
 11
20.37944720592384
 21
4.007697586670968
 31
0.0
  0
LINE
  5
AEE2
  8
0
  6
CONTINUOUS
 10
18.10475279113329
 20
1.059483962800223
 30
0.0
 11
19.88949753175608
 21
2.84422870342302
 31
0.0
  0
LINE
  5
AEE3
  8
0
  6
CONTINUOUS
 10
18.28874282222623
 20
0.5699547848129822
 30
0.0
 11
19.39954785758832
 21
1.680759820175074
 31
0.0
  0
LINE
  5
AEE4
  8
0
  6
CONTINUOUS
 10
18.47273285331918
 20
0.0804256068257416
 30
0.0
 11
18.90959818342056
 21
0.517290936927127
 31
0.0
  0
LINE
  5
AEE5
  8
0
  6
CONTINUOUS
 10
14.3590401358224
 20
-0.1570118376323384
 30
0.0
 11
14.24903296539946
 21
-0.0470046672093929
 31
0.0
  0
LINE
  5
AEE6
  8
0
  6
CONTINUOUS
 10
14.54309291258661
 20
0.332454594683643
 30
0.0
 11
13.75908329123172
 21
1.116464216038529
 31
0.0
  0
LINE
  5
AEE7
  8
0
  6
CONTINUOUS
 10
14.72714568935081
 20
0.8219210269996244
 30
0.0
 11
13.26913361706399
 21
2.27993309928645
 31
0.0
  0
LINE
  5
AEE8
  8
0
  6
CONTINUOUS
 10
14.91119846611502
 20
1.311387459315606
 30
0.0
 11
12.77918394289625
 21
3.443401982534371
 31
0.0
  0
LINE
  5
AEE9
  8
0
  6
CONTINUOUS
 10
15.09525124287922
 20
1.800853891631587
 30
0.0
 11
12.28923426872852
 21
4.606870865782293
 31
0.0
  0
LINE
  5
AEEA
  8
0
  6
CONTINUOUS
 10
15.27930401964343
 20
2.290320323947569
 30
0.0
 11
11.79928459456078
 21
5.770339749030213
 31
0.0
  0
LINE
  5
AEEB
  8
0
  6
CONTINUOUS
 10
15.46335679640763
 20
2.77978675626355
 30
0.0
 11
14.48885470994921
 21
3.754288842721972
 31
0.0
  0
LINE
  5
AEEC
  8
0
  6
CONTINUOUS
 10
13.88507249233704
 20
4.358071060334137
 30
0.0
 11
11.30933492039305
 21
6.933808632278135
 31
0.0
  0
LINE
  5
AEED
  8
0
  6
CONTINUOUS
 10
18.75840522805855
 20
0.1582575336928151
 30
0.0
 11
18.25383727664818
 21
0.6628254851031863
 31
0.0
  0
LINE
  5
AEEE
  8
0
  6
CONTINUOUS
 10
15.64740957317184
 20
3.269253188579531
 30
0.0
 11
14.67288388101266
 21
4.243778880738705
 31
0.0
  0
LINE
  5
AEEF
  8
0
  6
CONTINUOUS
 10
13.39509276772158
 20
5.521569994029786
 30
0.0
 11
10.81938524622531
 21
8.097277515526056
 31
0.0
  0
LINE
  5
AEF0
  8
0
  6
CONTINUOUS
 10
18.95798597883369
 20
0.6321959919978686
 30
0.0
 11
17.84825644852853
 21
1.741925522303024
 31
0.0
  0
LINE
  5
AEF1
  8
0
  6
CONTINUOUS
 10
19.15756672960882
 20
1.106134450302922
 30
0.0
 11
17.44267562040888
 21
2.821025559502861
 31
0.0
  0
LINE
  5
AEF2
  8
0
  6
CONTINUOUS
 10
15.83146234993604
 20
3.758719620895513
 30
0.0
 11
14.85691305207612
 21
4.733268918755439
 31
0.0
  0
LINE
  5
AEF3
  8
0
  6
CONTINUOUS
 10
16.01551512670025
 20
4.248186053211494
 30
0.0
 11
15.04094222313957
 21
5.222758956772172
 31
0.0
  0
LINE
  5
AEF4
  8
0
  6
CONTINUOUS
 10
12.90511304310612
 20
6.685068927725435
 30
0.0
 11
10.8270819708403
 21
8.763099999991255
 31
0.0
  0
LINE
  5
AEF5
  8
0
  6
CONTINUOUS
 10
12.41513331849066
 20
7.848567861421083
 30
0.0
 11
11.50060117992049
 21
8.763099999991255
 31
0.0
  0
LINE
  5
AEF6
  8
0
  6
CONTINUOUS
 10
19.35714748038395
 20
1.580072908607975
 30
0.0
 11
17.03709479228923
 21
3.900125596702697
 31
0.0
  0
LINE
  5
AEF7
  8
0
  6
CONTINUOUS
 10
19.55672823115909
 20
2.054011366913028
 30
0.0
 11
16.63151396416958
 21
4.979225633902534
 31
0.0
  0
LINE
  5
AEF8
  8
0
  6
CONTINUOUS
 10
16.19956790346445
 20
4.737652485527476
 30
0.0
 11
15.22497139420302
 21
5.712248994788904
 31
0.0
  0
LINE
  5
AEF9
  8
0
  6
CONTINUOUS
 10
16.38362068022866
 20
5.227118917843457
 30
0.0
 11
15.40900056526648
 21
6.201739032805637
 31
0.0
  0
LINE
  5
AEFA
  8
0
  6
CONTINUOUS
 10
19.75630898193422
 20
2.527949825218081
 30
0.0
 11
18.70774536448286
 21
3.576513442669441
 31
0.0
  0
LINE
  5
AEFB
  8
0
  6
CONTINUOUS
 10
19.95588973270936
 20
3.001888283523134
 30
0.0
 11
18.90726987211446
 21
4.050508144118028
 31
0.0
  0
LINE
  5
AEFC
  8
0
  6
CONTINUOUS
 10
20.15547048348449
 20
3.475826741828186
 30
0.0
 11
19.10679437974606
 21
4.524502845566614
 31
0.0
  0
LINE
  5
AEFD
  8
0
  6
CONTINUOUS
 10
20.35505123425962
 20
3.94976520013324
 30
0.0
 11
19.30631888737766
 21
4.998497547015201
 31
0.0
  0
LINE
  5
AEFE
  8
0
  6
CONTINUOUS
 10
20.55463198503475
 20
4.423703658438292
 30
0.0
 11
19.50584339500926
 21
5.472492248463787
 31
0.0
  0
LINE
  5
AEFF
  8
0
  6
CONTINUOUS
 10
18.37481191085755
 20
3.909446896294752
 30
0.0
 11
15.59302973632993
 21
6.691229070822371
 31
0.0
  0
LINE
  5
AF00
  8
0
  6
CONTINUOUS
 10
17.96904084440766
 20
4.988737171824825
 30
0.0
 11
15.77705890739338
 21
7.180719108839104
 31
0.0
  0
LINE
  5
AF01
  8
0
  6
CONTINUOUS
 10
17.56326977795777
 20
6.068027447354899
 30
0.0
 11
15.96108807845684
 21
7.670209146855838
 31
0.0
  0
LINE
  5
AF02
  8
0
  6
CONTINUOUS
 10
17.15749871150789
 20
7.147317722884972
 30
0.0
 11
16.14511724952029
 21
8.15969918487257
 31
0.0
  0
LINE
  5
AF03
  8
0
  6
CONTINUOUS
 10
16.751727645058
 20
8.226607998415046
 30
0.0
 11
16.32914642058374
 21
8.649189222889303
 31
0.0
  0
LINE
  5
AF04
  8
0
  6
CONTINUOUS
 10
20.75421273580989
 20
4.897642116743345
 30
0.0
 11
19.70536790264086
 21
5.946486949912374
 31
0.0
  0
LINE
  5
AF05
  8
0
  6
CONTINUOUS
 10
20.95379348658502
 20
5.371580575048398
 30
0.0
 11
19.90489241027246
 21
6.42048165136096
 31
0.0
  0
LINE
  5
AF06
  8
0
  6
CONTINUOUS
 10
21.15337423736015
 20
5.845519033353452
 30
0.0
 11
20.10441691790406
 21
6.894476352809547
 31
0.0
  0
LINE
  5
AF07
  8
0
  6
CONTINUOUS
 10
21.35295498813529
 20
6.319457491658505
 30
0.0
 11
20.30394142553566
 21
7.368471054258134
 31
0.0
  0
LINE
  5
AF08
  8
0
  6
CONTINUOUS
 10
21.55253573891042
 20
6.793395949963558
 30
0.0
 11
20.50346593316726
 21
7.842465755706721
 31
0.0
  0
LINE
  5
AF09
  8
0
  6
CONTINUOUS
 10
21.75211648968556
 20
7.267334408268612
 30
0.0
 11
20.70299044079886
 21
8.316460457155308
 31
0.0
  0
LINE
  5
AF0A
  8
0
  6
CONTINUOUS
 10
21.95169724046069
 20
7.741272866573663
 30
0.0
 11
20.9298701070431
 21
8.763099999991256
 31
0.0
  0
LINE
  5
AF0B
  8
0
  6
CONTINUOUS
 10
22.15127799123582
 20
8.215211324878716
 30
0.0
 11
21.60338931612328
 21
8.763099999991256
 31
0.0
  0
LINE
  5
AF0C
  8
0
  6
CONTINUOUS
 10
22.35085874201096
 20
8.689149783183769
 30
0.0
 11
22.27690852520347
 21
8.763099999991255
 31
0.0
  0
ENDBLK
  5
AFFE
  8
0
  0
BLOCK
  8
0
  2
*X73
 70
     1
 10
0.0
 20
0.0
 30
0.0
  3
*X73
  1

  0
LINE
  5
AF0E
  8
0
  6
CONTINUOUS
 10
23.19462913593892
 20
8.169917934846424
 30
0.0
 11
23.70775465517246
 21
8.683043454079957
 31
0.0
  0
LINE
  5
AF0F
  8
0
  6
CONTINUOUS
 10
22.64923161835078
 20
6.951001208178088
 30
0.0
 11
23.9159364069932
 21
8.217705996820516
 31
0.0
  0
LINE
  5
AF10
  8
0
  6
CONTINUOUS
 10
22.10383410076263
 20
5.732084481509751
 30
0.0
 11
24.12411815881395
 21
7.752368539561078
 31
0.0
  0
LINE
  5
AF11
  8
0
  6
CONTINUOUS
 10
21.55843658317447
 20
4.513167754841414
 30
0.0
 11
24.3322999106347
 21
7.287031082301639
 31
0.0
  0
LINE
  5
AF12
  8
0
  6
CONTINUOUS
 10
21.01303906558632
 20
3.294251028173077
 30
0.0
 11
24.54048166245544
 21
6.821693625042199
 31
0.0
  0
LINE
  5
AF13
  8
0
  6
CONTINUOUS
 10
20.46764154799817
 20
2.075334301504738
 30
0.0
 11
23.28571549467848
 21
4.89340824818505
 31
0.0
  0
LINE
  5
AF14
  8
0
  6
CONTINUOUS
 10
19.92224403041002
 20
0.8564175748364002
 30
0.0
 11
22.74075865492779
 21
3.674932199354171
 31
0.0
  0
LINE
  5
AF15
  8
0
  6
CONTINUOUS
 10
23.67305085490148
 20
5.280743608408048
 30
0.0
 11
24.74866341427619
 21
6.356356167782759
 31
0.0
  0
LINE
  5
AF16
  8
0
  6
CONTINUOUS
 10
23.88118970842314
 20
4.815363252849522
 30
0.0
 11
24.95684516609694
 21
5.89101871052332
 31
0.0
  0
LINE
  5
AF17
  8
0
  6
CONTINUOUS
 10
19.73925852647308
 20
-0.0000871381807288
 30
0.0
 11
23.4103456646501
 21
3.670999999996297
 31
0.0
  0
LINE
  5
AF18
  8
0
  6
CONTINUOUS
 10
24.0893285619448
 20
4.349982897290997
 30
0.0
 11
25.16502691791769
 21
5.42568125326388
 31
0.0
  0
LINE
  5
AF19
  8
0
  6
CONTINUOUS
 10
20.41282099582748
 20
-0.0000438779065108
 30
0.0
 11
21.64944178675636
 21
1.236576913022366
 31
0.0
  0
LINE
  5
AF1A
  8
0
  6
CONTINUOUS
 10
22.78126487373161
 20
2.36839999999762
 30
0.0
 11
24.08386487373029
 21
3.670999999996297
 31
0.0
  0
LINE
  5
AF1B
  8
0
  6
CONTINUOUS
 10
24.29746741546646
 20
3.884602541732471
 30
0.0
 11
25.37320866973843
 21
4.960343796004441
 31
0.0
  0
LINE
  5
AF1C
  8
0
  6
CONTINUOUS
 10
21.08638346518189
 20
-0.0000006176322938
 30
0.0
 11
21.10379033335899
 21
0.0174062505448083
 31
0.0
  0
LINE
  5
AF1D
  8
0
  6
CONTINUOUS
 10
23.4547840828118
 20
2.36839999999762
 30
0.0
 11
25.58139042155918
 21
4.495006338745002
 31
0.0
  0
LINE
  5
AF1E
  8
0
  6
CONTINUOUS
 10
29.30199999996933
 20
8.215615917155148
 30
0.0
 11
29.84948408280543
 21
8.763099999991255
 31
0.0
  0
LINE
  5
AF1F
  8
0
  6
CONTINUOUS
 10
24.12830329189199
 20
2.36839999999762
 30
0.0
 11
25.78957217337993
 21
4.029668881485562
 31
0.0
  0
LINE
  5
AF20
  8
0
  6
CONTINUOUS
 10
29.30199999996933
 20
7.54209670807496
 30
0.0
 11
30.52300329188562
 21
8.763099999991255
 31
0.0
  0
LINE
  5
AF21
  8
0
  6
CONTINUOUS
 10
24.80182250097217
 20
2.36839999999762
 30
0.0
 11
25.99775392520067
 21
3.564331424226122
 31
0.0
  0
LINE
  5
AF22
  8
0
  6
CONTINUOUS
 10
29.30199999996933
 20
6.868577498994774
 30
0.0
 11
30.74199999996926
 21
8.308577498994712
 31
0.0
  0
LINE
  5
AF23
  8
0
  6
CONTINUOUS
 10
25.13028238392013
 20
2.023340673865392
 30
0.0
 11
26.20593567702142
 21
3.098993966966683
 31
0.0
  0
LINE
  5
AF24
  8
0
  6
CONTINUOUS
 10
25.33838066033617
 20
1.557919741201244
 30
0.0
 11
26.41411742884217
 21
2.633656509707244
 31
0.0
  0
LINE
  5
AF25
  8
0
  6
CONTINUOUS
 10
25.54647893675221
 20
1.092498808537098
 30
0.0
 11
26.62229918066291
 21
2.168319052447804
 31
0.0
  0
LINE
  5
AF26
  8
0
  6
CONTINUOUS
 10
25.75457721316825
 20
0.62707787587295
 30
0.0
 11
26.83048093248366
 21
1.702981595188365
 31
0.0
  0
LINE
  5
AF27
  8
0
  6
CONTINUOUS
 10
29.30199999996933
 20
6.195058289914587
 30
0.0
 11
30.74199999996926
 21
7.635058289914522
 31
0.0
  0
LINE
  5
AF28
  8
0
  6
CONTINUOUS
 10
29.30199999996933
 20
5.521539080834401
 30
0.0
 11
30.74199999996926
 21
6.961539080834331
 31
0.0
  0
LINE
  5
AF29
  8
0
  6
CONTINUOUS
 10
29.30199999996933
 20
4.848019871754214
 30
0.0
 11
30.74199999996925
 21
6.288019871754143
 31
0.0
  0
LINE
  5
AF2A
  8
0
  6
CONTINUOUS
 10
29.30199999996933
 20
4.174500662674028
 30
0.0
 11
30.74199999996925
 21
5.614500662673953
 31
0.0
  0
LINE
  5
AF2B
  8
0
  6
CONTINUOUS
 10
25.96267548958429
 20
0.1616569432088024
 30
0.0
 11
27.18411854636669
 21
1.383099999991207
 31
0.0
  0
LINE
  5
AF2C
  8
0
  6
CONTINUOUS
 10
29.30199999996933
 20
3.500981453593841
 30
0.0
 11
30.74199999996925
 21
4.940981453593762
 31
0.0
  0
LINE
  5
AF2D
  8
0
  6
CONTINUOUS
 10
26.50763775544691
 20
0.0330999999912356
 30
0.0
 11
27.85763775544689
 21
1.383099999991223
 31
0.0
  0
LINE
  5
AF2E
  8
0
  6
CONTINUOUS
 10
29.30199999996933
 20
2.827462244513656
 30
0.0
 11
30.74199999996925
 21
4.267462244513574
 31
0.0
  0
LINE
  5
AF2F
  8
0
  6
CONTINUOUS
 10
27.18115696452709
 20
0.0330999999912356
 30
0.0
 11
28.6224847300034
 21
1.474427765467545
 31
0.0
  0
LINE
  5
AF30
  8
0
  6
CONTINUOUS
 10
29.21067223449293
 20
2.062615269957069
 30
0.0
 11
30.74199999996924
 21
3.593943035433383
 31
0.0
  0
LINE
  5
AF31
  8
0
  6
CONTINUOUS
 10
27.85467617360728
 20
0.0330999999912356
 30
0.0
 11
30.74199999996924
 21
2.920423826353195
 31
0.0
  0
LINE
  5
AF32
  8
0
  6
CONTINUOUS
 10
28.57438609860264
 20
0.0792907159064073
 30
0.0
 11
30.69580928405405
 21
2.200713901357819
 31
0.0
  0
LINE
  5
AF33
  8
0
  6
CONTINUOUS
 10
29.49443044814297
 20
0.3258158563665496
 30
0.0
 11
30.44928414359389
 21
1.280669551817477
 31
0.0
  0
LINE
  5
AF34
  8
0
  6
CONTINUOUS
 10
19.59027867740337
 20
-0.0000967065718083
 30
0.0
 11
19.55485265190471
 21
0.035329318926844
 31
0.0
  0
LINE
  5
AF35
  8
0
  6
CONTINUOUS
 10
20.26375463176586
 20
-0.0000534518541091
 30
0.0
 11
19.76305575737534
 21
0.5006454225364014
 31
0.0
  0
LINE
  5
AF36
  8
0
  6
CONTINUOUS
 10
20.93723058612834
 20
-0.0000101971364099
 30
0.0
 11
19.97125886284597
 21
0.965961526145958
 31
0.0
  0
LINE
  5
AF37
  8
0
  6
CONTINUOUS
 10
21.25514828313686
 20
0.355591314935257
 30
0.0
 11
20.1794619683166
 21
1.431277629755512
 31
0.0
  0
LINE
  5
AF38
  8
0
  6
CONTINUOUS
 10
21.46338838394921
 20
0.8208704232030986
 30
0.0
 11
20.38766507378723
 21
1.896593733365069
 31
0.0
  0
LINE
  5
AF39
  8
0
  6
CONTINUOUS
 10
21.67162848476155
 20
1.28614953147094
 30
0.0
 11
20.59586817925786
 21
2.361909836974626
 31
0.0
  0
LINE
  5
AF3A
  8
0
  6
CONTINUOUS
 10
21.8798685855739
 20
1.751428639738782
 30
0.0
 11
20.80407128472849
 21
2.827225940584183
 31
0.0
  0
LINE
  5
AF3B
  8
0
  6
CONTINUOUS
 10
22.08810868638624
 20
2.216707748006623
 30
0.0
 11
21.01227439019912
 21
3.292542044193739
 31
0.0
  0
LINE
  5
AF3C
  8
0
  6
CONTINUOUS
 10
22.60993564347543
 20
2.36839999999762
 30
0.0
 11
21.22047749566975
 21
3.757858147803296
 31
0.0
  0
LINE
  5
AF3D
  8
0
  6
CONTINUOUS
 10
23.28345485255561
 20
2.36839999999762
 30
0.0
 11
21.42868060114038
 21
4.223174251412853
 31
0.0
  0
LINE
  5
AF3E
  8
0
  6
CONTINUOUS
 10
26.29227406164219
 20
0.0330999999912356
 30
0.0
 11
25.80009199592872
 21
0.5252820657046957
 31
0.0
  0
LINE
  5
AF3F
  8
0
  6
CONTINUOUS
 10
23.9569740616358
 20
2.36839999999762
 30
0.0
 11
21.63688370661101
 21
4.688490355022409
 31
0.0
  0
LINE
  5
AF40
  8
0
  6
CONTINUOUS
 10
26.96579327072237
 20
0.0330999999912356
 30
0.0
 11
25.2554132311971
 21
1.743480039516508
 31
0.0
  0
LINE
  5
AF41
  8
0
  6
CONTINUOUS
 10
24.63049327071599
 20
2.36839999999762
 30
0.0
 11
23.32789327071731
 21
3.670999999996297
 31
0.0
  0
LINE
  5
AF42
  8
0
  6
CONTINUOUS
 10
22.92098674744635
 20
4.077906523267254
 30
0.0
 11
21.84508681208164
 21
5.153806458631966
 31
0.0
  0
LINE
  5
AF43
  8
0
  6
CONTINUOUS
 10
27.63931247980256
 20
0.0330999999912356
 30
0.0
 11
24.0014124797975
 21
3.670999999996297
 31
0.0
  0
LINE
  5
AF44
  8
0
  6
CONTINUOUS
 10
23.129125600968
 20
4.5432868788258
 30
0.0
 11
22.05328991755227
 21
5.619122562241522
 31
0.0
  0
LINE
  5
AF45
  8
0
  6
CONTINUOUS
 10
28.31283168888275
 20
0.0330999999912356
 30
0.0
 11
24.16488385994816
 21
4.181047828925828
 31
0.0
  0
LINE
  5
AF46
  8
0
  6
CONTINUOUS
 10
23.33726445448964
 20
5.008667234384345
 30
0.0
 11
22.2614930230229
 21
6.084438665851079
 31
0.0
  0
LINE
  5
AF47
  8
0
  6
CONTINUOUS
 10
28.86286302309502
 20
0.1565878748591523
 30
0.0
 11
27.63635089796295
 21
1.383099999991217
 31
0.0
  0
LINE
  5
AF48
  8
0
  6
CONTINUOUS
 10
26.43704649509776
 20
2.582404402856405
 30
0.0
 11
23.61992702019732
 21
5.399523877756844
 31
0.0
  0
LINE
  5
AF49
  8
0
  6
CONTINUOUS
 10
23.54540330801128
 20
5.47404758994289
 30
0.0
 11
22.46969612849353
 21
6.549754769460635
 31
0.0
  0
LINE
  5
AF4A
  8
0
  6
CONTINUOUS
 10
29.39405087596853
 20
0.2989192310658284
 30
0.0
 11
28.30987010704312
 21
1.383099999991234
 31
0.0
  0
LINE
  5
AF4B
  8
0
  6
CONTINUOUS
 10
25.89179548232307
 20
3.801174624711282
 30
0.0
 11
22.67789923396416
 21
7.015070873070191
 31
0.0
  0
LINE
  5
AF4C
  8
0
  6
CONTINUOUS
 10
29.79594438047407
 20
0.570544935640473
 30
0.0
 11
28.81310432793121
 21
1.553384988183336
 31
0.0
  0
LINE
  5
AF4D
  8
0
  6
CONTINUOUS
 10
25.34654446954838
 20
5.01994484656616
 30
0.0
 11
22.88610233943479
 21
7.480386976679748
 31
0.0
  0
LINE
  5
AF4E
  8
0
  6
CONTINUOUS
 10
30.13270398501416
 20
0.9073045401805646
 30
0.0
 11
29.14234640337737
 21
1.897662121817355
 31
0.0
  0
LINE
  5
AF4F
  8
0
  6
CONTINUOUS
 10
24.80129345677369
 20
6.238715068421037
 30
0.0
 11
23.09430544490542
 21
7.945703080289305
 31
0.0
  0
LINE
  5
AF50
  8
0
  6
CONTINUOUS
 10
30.44581292956759
 20
1.26771480470732
 30
0.0
 11
29.30199999996933
 21
2.411527734305588
 31
0.0
  0
LINE
  5
AF51
  8
0
  6
CONTINUOUS
 10
30.58814428577427
 20
1.798902657580827
 30
0.0
 11
29.30199999996933
 21
3.085046943385775
 31
0.0
  0
LINE
  5
AF52
  8
0
  6
CONTINUOUS
 10
24.256042443999
 20
7.457485290275915
 30
0.0
 11
23.30250855037605
 21
8.411019183898862
 31
0.0
  0
LINE
  5
AF53
  8
0
  6
CONTINUOUS
 10
23.71079143122431
 20
8.676255512130794
 30
0.0
 11
23.51071165584668
 21
8.876335287508418
 31
0.0
  0
LINE
  5
AF54
  8
0
  6
CONTINUOUS
 10
30.73047564198095
 20
2.330090510454333
 30
0.0
 11
29.30199999996933
 21
3.758566152465961
 31
0.0
  0
LINE
  5
AF55
  8
0
  6
CONTINUOUS
 10
30.74199999996924
 20
2.992085361546236
 30
0.0
 11
29.30199999996933
 21
4.432085361546148
 31
0.0
  0
LINE
  5
AF56
  8
0
  6
CONTINUOUS
 10
30.74199999996924
 20
3.665604570626419
 30
0.0
 11
29.30199999996933
 21
5.105604570626333
 31
0.0
  0
LINE
  5
AF57
  8
0
  6
CONTINUOUS
 10
30.74199999996925
 20
4.339123779706602
 30
0.0
 11
29.30199999996933
 21
5.77912377970652
 31
0.0
  0
LINE
  5
AF58
  8
0
  6
CONTINUOUS
 10
30.74199999996925
 20
5.012642988786785
 30
0.0
 11
29.30199999996933
 21
6.452642988786707
 31
0.0
  0
LINE
  5
AF59
  8
0
  6
CONTINUOUS
 10
30.74199999996925
 20
5.68616219786697
 30
0.0
 11
29.30199999996933
 21
7.126162197866894
 31
0.0
  0
LINE
  5
AF5A
  8
0
  6
CONTINUOUS
 10
30.74199999996925
 20
6.359681406947153
 30
0.0
 11
29.30199999996933
 21
7.799681406947081
 31
0.0
  0
LINE
  5
AF5B
  8
0
  6
CONTINUOUS
 10
30.74199999996926
 20
7.033200616027337
 30
0.0
 11
29.30199999996933
 21
8.473200616027269
 31
0.0
  0
LINE
  5
AF5C
  8
0
  6
CONTINUOUS
 10
30.74199999996926
 20
7.706719825107518
 30
0.0
 11
29.68561982508552
 21
8.763099999991255
 31
0.0
  0
LINE
  5
AF5D
  8
0
  6
CONTINUOUS
 10
30.74199999996926
 20
8.380239034187703
 30
0.0
 11
30.35913903416571
 21
8.763099999991255
 31
0.0
  0
ENDBLK
  5
B000
  8
0
  0
BLOCK
  8
0
  2
*X74
 70
     1
 10
0.0
 20
0.0
 30
0.0
  3
*X74
  1

  0
LINE
  5
AF5F
  8
0
  6
CONTINUOUS
 10
31.64199999996833
 20
8.5350582899136
 30
0.0
 11
31.87004171004599
 21
8.763099999991255
 31
0.0
  0
LINE
  5
AF60
  8
0
  6
CONTINUOUS
 10
31.64199999996833
 20
7.861539080833413
 30
0.0
 11
32.54356091912618
 21
8.763099999991255
 31
0.0
  0
LINE
  5
AF61
  8
0
  6
CONTINUOUS
 10
31.64199999996833
 20
7.188019871753227
 30
0.0
 11
33.08199999996839
 21
8.628019871753281
 31
0.0
  0
LINE
  5
AF62
  8
0
  6
CONTINUOUS
 10
31.64199999996833
 20
6.514500662673041
 30
0.0
 11
33.08199999996839
 21
7.954500662673095
 31
0.0
  0
LINE
  5
AF63
  8
0
  6
CONTINUOUS
 10
31.64199999996833
 20
5.840981453592855
 30
0.0
 11
33.08199999996839
 21
7.28098145359291
 31
0.0
  0
LINE
  5
AF64
  8
0
  6
CONTINUOUS
 10
31.64199999996833
 20
5.167462244512668
 30
0.0
 11
33.08199999996839
 21
6.607462244512723
 31
0.0
  0
LINE
  5
AF65
  8
0
  6
CONTINUOUS
 10
31.64199999996833
 20
4.493943035432482
 30
0.0
 11
33.08199999996839
 21
5.933943035432536
 31
0.0
  0
LINE
  5
AF66
  8
0
  6
CONTINUOUS
 10
31.64199999996833
 20
3.820423826352294
 30
0.0
 11
33.08199999996839
 21
5.260423826352349
 31
0.0
  0
LINE
  5
AF67
  8
0
  6
CONTINUOUS
 10
31.64199999996833
 20
3.146904617272108
 30
0.0
 11
33.08199999996839
 21
4.586904617272163
 31
0.0
  0
LINE
  5
AF68
  8
0
  6
CONTINUOUS
 10
36.23199999996837
 20
8.410423826352327
 30
0.0
 11
36.58467617360729
 21
8.763099999991255
 31
0.0
  0
LINE
  5
AF69
  8
0
  6
CONTINUOUS
 10
36.23199999996837
 20
7.73690461727214
 30
0.0
 11
37.25819538268748
 21
8.763099999991255
 31
0.0
  0
LINE
  5
AF6A
  8
0
  6
CONTINUOUS
 10
31.64323424774199
 20
2.474619655965573
 30
0.0
 11
33.08199999996839
 21
3.913385408191976
 31
0.0
  0
LINE
  5
AF6B
  8
0
  6
CONTINUOUS
 10
31.74419223861915
 20
1.902058437762552
 30
0.0
 11
33.08199999996839
 21
3.239866199111789
 31
0.0
  0
LINE
  5
AF6C
  8
0
  6
CONTINUOUS
 10
36.23199999996837
 20
7.063385408191953
 30
0.0
 11
37.67199999996831
 21
8.503385408191894
 31
0.0
  0
LINE
  5
AF6D
  8
0
  6
CONTINUOUS
 10
36.23199999996837
 20
6.389866199111767
 30
0.0
 11
37.67199999996831
 21
7.829866199111708
 31
0.0
  0
LINE
  5
AF6E
  8
0
  6
CONTINUOUS
 10
31.91111233414976
 20
1.39545932421297
 30
0.0
 11
33.08199999996839
 21
2.566346990031603
 31
0.0
  0
LINE
  5
AF6F
  8
0
  6
CONTINUOUS
 10
36.23199999996837
 20
5.71634699003158
 30
0.0
 11
37.67199999996831
 21
7.156346990031522
 31
0.0
  0
LINE
  5
AF70
  8
0
  6
CONTINUOUS
 10
32.1576374746103
 20
0.9684652555933289
 30
0.0
 11
33.20642631446081
 21
2.017254095443838
 31
0.0
  0
LINE
  5
AF71
  8
0
  6
CONTINUOUS
 10
36.23199999996837
 20
5.042827780951393
 30
0.0
 11
37.67199999996831
 21
6.482827780951334
 31
0.0
  0
LINE
  5
AF72
  8
0
  6
CONTINUOUS
 10
32.47774023927325
 20
0.6150488111760914
 30
0.0
 11
33.49903056428258
 21
1.636339136185419
 31
0.0
  0
LINE
  5
AF73
  8
0
  6
CONTINUOUS
 10
36.23199999996837
 20
4.369308571871207
 30
0.0
 11
37.67199999996831
 21
5.809308571871148
 31
0.0
  0
LINE
  5
AF74
  8
0
  6
CONTINUOUS
 10
32.84396249154443
 20
0.3077518543670883
 30
0.0
 11
33.93324121824649
 21
1.397030581069146
 31
0.0
  0
LINE
  5
AF75
  8
0
  6
CONTINUOUS
 10
36.23199999996837
 20
3.695789362791021
 30
0.0
 11
37.67199999996831
 21
5.135789362790963
 31
0.0
  0
LINE
  5
AF76
  8
0
  6
CONTINUOUS
 10
33.30186329036846
 20
0.0921334441109263
 30
0.0
 11
34.46442907112041
 21
1.254699224862875
 31
0.0
  0
LINE
  5
AF77
  8
0
  6
CONTINUOUS
 10
36.23199999996837
 20
3.022270153710834
 30
0.0
 11
37.67199999996831
 21
4.462270153710776
 31
0.0
  0
LINE
  5
AF78
  8
0
  6
CONTINUOUS
 10
33.79565647746294
 20
-0.0875925778747773
 30
0.0
 11
35.24350171668284
 21
1.360252661345124
 31
0.0
  0
LINE
  5
AF79
  8
0
  6
CONTINUOUS
 10
36.18336676155003
 20
2.300117706212308
 30
0.0
 11
37.67199999996831
 21
3.788750944630589
 31
0.0
  0
LINE
  5
AF7A
  8
0
  6
CONTINUOUS
 10
34.37182574910968
 20
-0.184942515308224
 30
0.0
 11
37.67199999996831
 21
3.115231735550402
 31
0.0
  0
LINE
  5
AF7B
  8
0
  6
CONTINUOUS
 10
35.0453449581892
 20
-0.1849425153088955
 30
0.0
 11
37.66345697088136
 21
2.433169497383271
 31
0.0
  0
LINE
  5
AF7C
  8
0
  6
CONTINUOUS
 10
35.98667157609191
 20
0.0828648935136398
 30
0.0
 11
37.51927401744566
 21
1.615467334867382
 31
0.0
  0
LINE
  5
AF7D
  8
0
  6
CONTINUOUS
 10
32.27747408544484
 20
0.7830920669904482
 30
0.0
 11
32.24716210471949
 21
0.8134040477157893
 31
0.0
  0
LINE
  5
AF7E
  8
0
  6
CONTINUOUS
 10
33.83656881101902
 20
-0.1024834495035494
 30
0.0
 11
31.72538911593758
 21
2.008696245577891
 31
0.0
  0
LINE
  5
AF7F
  8
0
  6
CONTINUOUS
 10
34.5925470859041
 20
-0.1849425153084434
 30
0.0
 11
31.64199999996833
 21
2.765604570627322
 31
0.0
  0
LINE
  5
AF80
  8
0
  6
CONTINUOUS
 10
35.26201302775981
 20
-0.1808892480839752
 30
0.0
 11
31.64199999996833
 21
3.439123779707508
 31
0.0
  0
LINE
  5
AF81
  8
0
  6
CONTINUOUS
 10
35.75580621485512
 20
-0.0011632260990879
 30
0.0
 11
34.51294304365551
 21
1.241699945100514
 31
0.0
  0
LINE
  5
AF82
  8
0
  6
CONTINUOUS
 10
33.08199999996839
 20
2.672642988787641
 30
0.0
 11
31.64199999996833
 21
4.112642988787695
 31
0.0
  0
LINE
  5
AF83
  8
0
  6
CONTINUOUS
 10
36.24959940195042
 20
0.1785627958857976
 30
0.0
 11
35.10501653033629
 21
1.323145667499924
 31
0.0
  0
LINE
  5
AF84
  8
0
  6
CONTINUOUS
 10
33.08199999996839
 20
3.346162197867827
 30
0.0
 11
31.64199999996833
 21
4.786162197867881
 31
0.0
  0
LINE
  5
AF85
  8
0
  6
CONTINUOUS
 10
36.64615197150552
 20
0.4555294354108876
 30
0.0
 11
35.6362043832099
 21
1.465477023706505
 31
0.0
  0
LINE
  5
AF86
  8
0
  6
CONTINUOUS
 10
33.08199999996839
 20
4.019681406948013
 30
0.0
 11
31.64199999996833
 21
5.459681406948068
 31
0.0
  0
LINE
  5
AF87
  8
0
  6
CONTINUOUS
 10
37.0123742237774
 20
0.7628263922191891
 30
0.0
 11
35.97691545773309
 21
1.798285158263504
 31
0.0
  0
LINE
  5
AF88
  8
0
  6
CONTINUOUS
 10
33.08199999996839
 20
4.6932006160282
 30
0.0
 11
31.64199999996833
 21
6.133200616028255
 31
0.0
  0
LINE
  5
AF89
  8
0
  6
CONTINUOUS
 10
37.27491524157143
 20
1.173804583505349
 30
0.0
 11
36.17602012811361
 21
2.272699696963169
 31
0.0
  0
LINE
  5
AF8A
  8
0
  6
CONTINUOUS
 10
33.08199999996839
 20
5.366719825108387
 30
0.0
 11
31.64199999996833
 21
6.806719825108441
 31
0.0
  0
LINE
  5
AF8B
  8
0
  6
CONTINUOUS
 10
37.51739996707661
 20
1.604839067080355
 30
0.0
 11
36.23199999996837
 21
2.890239034188595
 31
0.0
  0
LINE
  5
AF8C
  8
0
  6
CONTINUOUS
 10
37.6183579579535
 20
2.177400285283649
 30
0.0
 11
36.23199999996837
 21
3.563758243268782
 31
0.0
  0
LINE
  5
AF8D
  8
0
  6
CONTINUOUS
 10
33.08199999996839
 20
6.040239034188573
 30
0.0
 11
31.64199999996833
 21
7.480239034188628
 31
0.0
  0
LINE
  5
AF8E
  8
0
  6
CONTINUOUS
 10
33.08199999996839
 20
6.713758243268759
 30
0.0
 11
31.64199999996833
 21
8.153758243268815
 31
0.0
  0
LINE
  5
AF8F
  8
0
  6
CONTINUOUS
 10
37.67199999996831
 20
2.797277452349027
 30
0.0
 11
36.23199999996837
 21
4.237277452348969
 31
0.0
  0
LINE
  5
AF90
  8
0
  6
CONTINUOUS
 10
37.67199999996831
 20
3.470796661429214
 30
0.0
 11
36.23199999996837
 21
4.910796661429155
 31
0.0
  0
LINE
  5
AF91
  8
0
  6
CONTINUOUS
 10
37.67199999996831
 20
4.1443158705094
 30
0.0
 11
36.23199999996837
 21
5.584315870509341
 31
0.0
  0
LINE
  5
AF92
  8
0
  6
CONTINUOUS
 10
33.08199999996839
 20
7.387277452348946
 30
0.0
 11
31.70617745232608
 21
8.763099999991255
 31
0.0
  0
LINE
  5
AF93
  8
0
  6
CONTINUOUS
 10
33.08199999996839
 20
8.060796661429134
 30
0.0
 11
32.37969666140626
 21
8.763099999991255
 31
0.0
  0
LINE
  5
AF94
  8
0
  6
CONTINUOUS
 10
33.08199999996839
 20
8.734315870509318
 30
0.0
 11
33.05321587048645
 21
8.763099999991255
 31
0.0
  0
LINE
  5
AF95
  8
0
  6
CONTINUOUS
 10
37.67199999996831
 20
4.817835079589586
 30
0.0
 11
36.23199999996837
 21
6.257835079589528
 31
0.0
  0
LINE
  5
AF96
  8
0
  6
CONTINUOUS
 10
37.67199999996831
 20
5.491354288669772
 30
0.0
 11
36.23199999996837
 21
6.931354288669715
 31
0.0
  0
LINE
  5
AF97
  8
0
  6
CONTINUOUS
 10
37.67199999996831
 20
6.164873497749959
 30
0.0
 11
36.23199999996837
 21
7.6048734977499
 31
0.0
  0
LINE
  5
AF98
  8
0
  6
CONTINUOUS
 10
37.67199999996831
 20
6.838392706830145
 30
0.0
 11
36.23199999996837
 21
8.278392706830086
 31
0.0
  0
LINE
  5
AF99
  8
0
  6
CONTINUOUS
 10
37.67199999996831
 20
7.511911915910333
 30
0.0
 11
36.42081191588738
 21
8.763099999991255
 31
0.0
  0
LINE
  5
AF9A
  8
0
  6
CONTINUOUS
 10
37.67199999996831
 20
8.185431124990519
 30
0.0
 11
37.09433112496757
 21
8.763099999991255
 31
0.0
  0
ENDBLK
  5
B002
  8
0
  0
BLOCK
  8
0
  2
*X75
 70
     1
 10
0.0
 20
0.0
 30
0.0
  3
*X75
  1

  0
LINE
  5
AF9C
  8
0
  6
CONTINUOUS
 10
38.60499999996136
 20
8.762866199104765
 30
0.0
 11
38.71672554182345
 21
8.874591740966855
 31
0.0
  0
LINE
  5
AF9D
  8
0
  6
CONTINUOUS
 10
38.60499999996136
 20
8.089346990024577
 30
0.0
 11
39.03418785440363
 21
8.518534844466847
 31
0.0
  0
LINE
  5
AF9E
  8
0
  6
CONTINUOUS
 10
38.60499999996136
 20
7.41582778094439
 30
0.0
 11
39.35165016698382
 21
8.16247794796684
 31
0.0
  0
LINE
  5
AF9F
  8
0
  6
CONTINUOUS
 10
38.60499999996136
 20
6.742308571864204
 30
0.0
 11
39.66911247956399
 21
7.806421051466834
 31
0.0
  0
LINE
  5
AFA0
  8
0
  6
CONTINUOUS
 10
38.60499999996136
 20
6.068789362784018
 30
0.0
 11
39.98657479214418
 21
7.450364154966827
 31
0.0
  0
LINE
  5
AFA1
  8
0
  6
CONTINUOUS
 10
38.60499999996136
 20
5.395270153703832
 30
0.0
 11
40.30403710472435
 21
7.09430725846682
 31
0.0
  0
LINE
  5
AFA2
  8
0
  6
CONTINUOUS
 10
38.60499999996136
 20
4.721750944623645
 30
0.0
 11
40.62149941730453
 21
6.738250361966813
 31
0.0
  0
LINE
  5
AFA3
  8
0
  6
CONTINUOUS
 10
38.60499999996136
 20
4.048231735543458
 30
0.0
 11
40.93896172988471
 21
6.382193465466806
 31
0.0
  0
LINE
  5
AFA4
  8
0
  6
CONTINUOUS
 10
38.60499999996136
 20
3.374712526463272
 30
0.0
 11
40.02599999995994
 21
4.795712526461843
 31
0.0
  0
LINE
  5
AFA5
  8
0
  6
CONTINUOUS
 10
38.60499999996136
 20
2.701193317383085
 30
0.0
 11
40.02599999995994
 21
4.122193317381657
 31
0.0
  0
LINE
  5
AFA6
  8
0
  6
CONTINUOUS
 10
40.28339754687704
 20
5.053110073378947
 30
0.0
 11
41.25642404246489
 21
6.026136568966799
 31
0.0
  0
LINE
  5
AFA7
  8
0
  6
CONTINUOUS
 10
40.60085985945722
 20
4.697053176878939
 30
0.0
 11
41.57388635504507
 21
5.670079672466793
 31
0.0
  0
LINE
  5
AFA8
  8
0
  6
CONTINUOUS
 10
43.57899999995641
 20
8.348712526458318
 30
0.0
 11
43.99338747348935
 21
8.763099999991255
 31
0.0
  0
LINE
  5
AFA9
  8
0
  6
CONTINUOUS
 10
43.57899999995641
 20
7.675193317378131
 30
0.0
 11
44.66690668256953
 21
8.763099999991255
 31
0.0
  0
LINE
  5
AFAA
  8
0
  6
CONTINUOUS
 10
38.60499999996136
 20
2.027674108302898
 30
0.0
 11
40.02599999995994
 21
3.44867410830147
 31
0.0
  0
LINE
  5
AFAB
  8
0
  6
CONTINUOUS
 10
38.60499999996136
 20
1.354154899222712
 30
0.0
 11
40.02599999995994
 21
2.775154899221284
 31
0.0
  0
LINE
  5
AFAC
  8
0
  6
CONTINUOUS
 10
38.60499999996136
 20
0.6806356901425255
 30
0.0
 11
40.02599999995994
 21
2.101635690141098
 31
0.0
  0
LINE
  5
AFAD
  8
0
  6
CONTINUOUS
 10
38.60499999996136
 20
0.0071164810623383
 30
0.0
 11
40.02599999995994
 21
1.428116481060911
 31
0.0
  0
LINE
  5
AFAE
  8
0
  6
CONTINUOUS
 10
40.9183221720374
 20
4.340996280378933
 30
0.0
 11
41.89134866762525
 21
5.314022775966786
 31
0.0
  0
LINE
  5
AFAF
  8
0
  6
CONTINUOUS
 10
41.23578448461758
 20
3.984939383878926
 30
0.0
 11
42.20881098020543
 21
4.957965879466778
 31
0.0
  0
LINE
  5
AFB0
  8
0
  6
CONTINUOUS
 10
41.55324679719776
 20
3.628882487378919
 30
0.0
 11
42.52627329278561
 21
4.601908982966772
 31
0.0
  0
LINE
  5
AFB1
  8
0
  6
CONTINUOUS
 10
41.87070910977793
 20
3.272825590878912
 30
0.0
 11
42.84373560536579
 21
4.245852086466765
 31
0.0
  0
LINE
  5
AFB2
  8
0
  6
CONTINUOUS
 10
43.57899999995641
 20
7.001674108297943
 30
0.0
 11
44.99999999995498
 21
8.422674108296516
 31
0.0
  0
LINE
  5
AFB3
  8
0
  6
CONTINUOUS
 10
43.57899999995641
 20
6.328154899217758
 30
0.0
 11
44.99999999995498
 21
7.749154899216329
 31
0.0
  0
LINE
  5
AFB4
  8
0
  6
CONTINUOUS
 10
43.57899999995641
 20
5.654635690137571
 30
0.0
 11
44.99999999995498
 21
7.075635690136142
 31
0.0
  0
LINE
  5
AFB5
  8
0
  6
CONTINUOUS
 10
43.57899999995641
 20
4.981116481057384
 30
0.0
 11
44.99999999995498
 21
6.402116481055955
 31
0.0
  0
LINE
  5
AFB6
  8
0
  6
CONTINUOUS
 10
39.27140272797921
 20
-0.0000000000000009
 30
0.0
 11
40.02599999995994
 21
0.7545972719807246
 31
0.0
  0
LINE
  5
AFB7
  8
0
  6
CONTINUOUS
 10
39.9449219370594
 20
-0.0000000000000009
 30
0.0
 11
40.02599999995994
 21
0.0810780629005379
 31
0.0
  0
LINE
  5
AFB8
  8
0
  6
CONTINUOUS
 10
42.18817142235812
 20
2.916768694378905
 30
0.0
 11
43.16119791794597
 21
3.889795189966758
 31
0.0
  0
LINE
  5
AFB9
  8
0
  6
CONTINUOUS
 10
42.50563373493829
 20
2.560711797878898
 30
0.0
 11
43.47866023052615
 21
3.533738293466751
 31
0.0
  0
LINE
  5
AFBA
  8
0
  6
CONTINUOUS
 10
43.57899999995641
 20
4.307597271977198
 30
0.0
 11
44.99999999995498
 21
5.728597271975769
 31
0.0
  0
LINE
  5
AFBB
  8
0
  6
CONTINUOUS
 10
43.57899999995641
 20
3.634078062897011
 30
0.0
 11
44.99999999995498
 21
5.055078062895582
 31
0.0
  0
LINE
  5
AFBC
  8
0
  6
CONTINUOUS
 10
42.82309604751848
 20
2.204654901378891
 30
0.0
 11
44.99999999995498
 21
4.381558853815395
 31
0.0
  0
LINE
  5
AFBD
  8
0
  6
CONTINUOUS
 10
43.14055836009865
 20
1.848598004878885
 30
0.0
 11
44.99999999995498
 21
3.70803964473521
 31
0.0
  0
LINE
  5
AFBE
  8
0
  6
CONTINUOUS
 10
43.45802067267883
 20
1.492541108378878
 30
0.0
 11
44.99999999995498
 21
3.034520435655023
 31
0.0
  0
LINE
  5
AFBF
  8
0
  6
CONTINUOUS
 10
43.77548298525902
 20
1.136484211878871
 30
0.0
 11
44.99999999995498
 21
2.361001226574837
 31
0.0
  0
LINE
  5
AFC0
  8
0
  6
CONTINUOUS
 10
44.09294529783919
 20
0.7804273153788639
 30
0.0
 11
44.99999999995498
 21
1.687482017494649
 31
0.0
  0
LINE
  5
AFC1
  8
0
  6
CONTINUOUS
 10
44.41040761041938
 20
0.4243704188788566
 30
0.0
 11
44.99999999995498
 21
1.013962808414463
 31
0.0
  0
LINE
  5
AFC2
  8
0
  6
CONTINUOUS
 10
44.72786992299955
 20
0.0683135223788494
 30
0.0
 11
44.99999999995498
 21
0.340443599334276
 31
0.0
  0
LINE
  5
AFC3
  8
0
  6
CONTINUOUS
 10
39.12223903415696
 20
-0.0000000000000009
 30
0.0
 11
38.60499999996136
 21
0.5172390341955961
 31
0.0
  0
LINE
  5
AFC4
  8
0
  6
CONTINUOUS
 10
39.79575824323715
 20
-0.0000000000000009
 30
0.0
 11
38.60499999996136
 21
1.190758243275783
 31
0.0
  0
LINE
  5
AFC5
  8
0
  6
CONTINUOUS
 10
40.02599999995994
 20
0.443277452357397
 30
0.0
 11
38.60499999996136
 21
1.864277452355969
 31
0.0
  0
LINE
  5
AFC6
  8
0
  6
CONTINUOUS
 10
40.02599999995994
 20
1.116796661437583
 30
0.0
 11
38.60499999996136
 21
2.537796661436155
 31
0.0
  0
LINE
  5
AFC7
  8
0
  6
CONTINUOUS
 10
40.02599999995994
 20
1.79031587051777
 30
0.0
 11
38.60499999996136
 21
3.211315870516341
 31
0.0
  0
LINE
  5
AFC8
  8
0
  6
CONTINUOUS
 10
40.02599999995994
 20
2.463835079597956
 30
0.0
 11
38.60499999996136
 21
3.884835079596527
 31
0.0
  0
LINE
  5
AFC9
  8
0
  6
CONTINUOUS
 10
40.02599999995994
 20
3.137354288678143
 30
0.0
 11
38.60499999996136
 21
4.558354288676714
 31
0.0
  0
LINE
  5
AFCA
  8
0
  6
CONTINUOUS
 10
40.02599999995994
 20
3.810873497758329
 30
0.0
 11
38.60499999996136
 21
5.2318734977569
 31
0.0
  0
LINE
  5
AFCB
  8
0
  6
CONTINUOUS
 10
40.02599999995994
 20
4.484392706838515
 30
0.0
 11
38.60499999996136
 21
5.905392706837086
 31
0.0
  0
LINE
  5
AFCC
  8
0
  6
CONTINUOUS
 10
44.99999999995498
 20
0.183911915923658
 30
0.0
 11
41.53858364506288
 21
3.64532827081576
 31
0.0
  0
LINE
  5
AFCD
  8
0
  6
CONTINUOUS
 10
40.02599999995994
 20
5.157911915918703
 30
0.0
 11
38.60499999996136
 21
6.578911915917274
 31
0.0
  0
LINE
  5
AFCE
  8
0
  6
CONTINUOUS
 10
44.99999999995498
 20
0.8574311250038447
 30
0.0
 11
38.60499999996136
 21
7.25243112499746
 31
0.0
  0
LINE
  5
AFCF
  8
0
  6
CONTINUOUS
 10
44.99999999995498
 20
1.530950334084031
 30
0.0
 11
38.60499999996136
 21
7.925950334077647
 31
0.0
  0
LINE
  5
AFD0
  8
0
  6
CONTINUOUS
 10
44.99999999995498
 20
2.204469543164218
 30
0.0
 11
43.57899999995641
 21
3.625469543162789
 31
0.0
  0
LINE
  5
AFD1
  8
0
  6
CONTINUOUS
 10
41.89876730984767
 20
5.305702233271528
 30
0.0
 11
38.60499999996136
 21
8.599469543157834
 31
0.0
  0
LINE
  5
AFD2
  8
0
  6
CONTINUOUS
 10
44.99999999995498
 20
2.877988752244405
 30
0.0
 11
43.57899999995641
 21
4.298988752242975
 31
0.0
  0
LINE
  5
AFD3
  8
0
  6
CONTINUOUS
 10
44.99999999995498
 20
3.551507961324591
 30
0.0
 11
43.57899999995641
 21
4.972507961323163
 31
0.0
  0
LINE
  5
AFD4
  8
0
  6
CONTINUOUS
 10
44.99999999995498
 20
4.225027170404777
 30
0.0
 11
43.57899999995641
 21
5.646027170403348
 31
0.0
  0
LINE
  5
AFD5
  8
0
  6
CONTINUOUS
 10
44.99999999995498
 20
4.898546379484964
 30
0.0
 11
43.57899999995641
 21
6.319546379483535
 31
0.0
  0
LINE
  5
AFD6
  8
0
  6
CONTINUOUS
 10
44.99999999995498
 20
5.572065588565151
 30
0.0
 11
43.57899999995641
 21
6.993065588563722
 31
0.0
  0
LINE
  5
AFD7
  8
0
  6
CONTINUOUS
 10
44.99999999995498
 20
6.245584797645336
 30
0.0
 11
43.57899999995641
 21
7.666584797643908
 31
0.0
  0
LINE
  5
AFD8
  8
0
  6
CONTINUOUS
 10
44.99999999995498
 20
6.919104006725522
 30
0.0
 11
43.57899999995641
 21
8.340104006724093
 31
0.0
  0
LINE
  5
AFD9
  8
0
  6
CONTINUOUS
 10
44.99999999995498
 20
7.592623215805709
 30
0.0
 11
43.82952321576943
 21
8.763099999991255
 31
0.0
  0
LINE
  5
AFDA
  8
0
  6
CONTINUOUS
 10
44.99999999995498
 20
8.266142424885896
 30
0.0
 11
44.50304242484962
 21
8.763099999991255
 31
0.0
  0
ENDBLK
  5
B004
  8
0
  0
BLOCK
  8
0
  2
*X76
 70
     1
 10
0.0
 20
0.0
 30
0.0
  3
*X76
  1

  0
LINE
  5
AFDC
  8
0
  6
CONTINUOUS
 10
0.0
 20
8.548461116714023
 30
0.0
 11
0.2146388832772324
 21
8.763099999991255
 31
0.0
  0
LINE
  5
AFDD
  8
0
  6
CONTINUOUS
 10
-0.0000000000000002
 20
7.874941907633837
 30
0.0
 11
0.8881580923574184
 21
8.763099999991255
 31
0.0
  0
LINE
  5
AFDE
  8
0
  6
CONTINUOUS
 10
0.0
 20
7.20142269855365
 30
0.0
 11
1.420999999998572
 21
8.622422698552223
 31
0.0
  0
LINE
  5
AFDF
  8
0
  6
CONTINUOUS
 10
-0.0000000000000001
 20
6.527903489473465
 30
0.0
 11
1.420999999998571
 21
7.948903489472036
 31
0.0
  0
LINE
  5
AFE0
  8
0
  6
CONTINUOUS
 10
-0.0000000000000002
 20
5.854384280393278
 30
0.0
 11
1.420999999998571
 21
7.275384280391849
 31
0.0
  0
LINE
  5
AFE1
  8
0
  6
CONTINUOUS
 10
-0.0000000000000002
 20
5.180865071313091
 30
0.0
 11
1.420999999998571
 21
6.601865071311663
 31
0.0
  0
LINE
  5
AFE2
  8
0
  6
CONTINUOUS
 10
0.0
 20
4.507345862232905
 30
0.0
 11
1.420999999998571
 21
5.928345862231477
 31
0.0
  0
LINE
  5
AFE3
  8
0
  6
CONTINUOUS
 10
-0.0000000000000003
 20
3.833826653152718
 30
0.0
 11
1.420999999998571
 21
5.25482665315129
 31
0.0
  0
LINE
  5
AFE4
  8
0
  6
CONTINUOUS
 10
-0.0000000000000002
 20
3.160307444072532
 30
0.0
 11
1.420999999998571
 21
4.581307444071103
 31
0.0
  0
LINE
  5
AFE5
  8
0
  6
CONTINUOUS
 10
-0.0000000000000001
 20
2.486788234992345
 30
0.0
 11
1.420999999998571
 21
3.907788234990917
 31
0.0
  0
LINE
  5
AFE6
  8
0
  6
CONTINUOUS
 10
-0.0000000000000006
 20
1.813269025912159
 30
0.0
 11
1.420999999998571
 21
3.234269025910731
 31
0.0
  0
LINE
  5
AFE7
  8
0
  6
CONTINUOUS
 10
0.0
 20
1.139749816831973
 30
0.0
 11
1.420999999998571
 21
2.560749816830544
 31
0.0
  0
LINE
  5
AFE8
  8
0
  6
CONTINUOUS
 10
0.0000000000000002
 20
0.466230607751787
 30
0.0
 11
1.420999999998571
 21
1.887230607750358
 31
0.0
  0
LINE
  5
AFE9
  8
0
  6
CONTINUOUS
 10
0.2072886013284003
 20
-0.0000000000000009
 30
0.0
 11
1.420999999998571
 21
1.213711398670171
 31
0.0
  0
LINE
  5
AFEA
  8
0
  6
CONTINUOUS
 10
0.8808078104085864
 20
-0.0000000000000009
 30
0.0
 11
1.420999999998571
 21
0.5401921895899839
 31
0.0
  0
LINE
  5
AFEB
  8
0
  6
CONTINUOUS
 10
0.0581249075061505
 20
-0.0000000000000009
 30
0.0
 11
-0.0000000000000002
 21
0.0581249075061496
 31
0.0
  0
LINE
  5
AFEC
  8
0
  6
CONTINUOUS
 10
0.7316441165863372
 20
-0.0000000000000009
 30
0.0
 11
-0.0000000000000002
 21
0.7316441165863363
 31
0.0
  0
LINE
  5
AFED
  8
0
  6
CONTINUOUS
 10
1.405163325666523
 20
-0.0000000000000009
 30
0.0
 11
-0.0000000000000002
 21
1.405163325666523
 31
0.0
  0
LINE
  5
AFEE
  8
0
  6
CONTINUOUS
 10
1.420999999998572
 20
0.6576825347481381
 30
0.0
 11
-0.0000000000000001
 21
2.07868253474671
 31
0.0
  0
LINE
  5
AFEF
  8
0
  6
CONTINUOUS
 10
1.420999999998571
 20
1.331201743828324
 30
0.0
 11
-0.0000000000000001
 21
2.752201743826896
 31
0.0
  0
LINE
  5
AFF0
  8
0
  6
CONTINUOUS
 10
1.420999999998571
 20
2.004720952908511
 30
0.0
 11
-0.0000000000000002
 21
3.425720952907082
 31
0.0
  0
LINE
  5
AFF1
  8
0
  6
CONTINUOUS
 10
1.420999999998571
 20
2.678240161988697
 30
0.0
 11
-0.0000000000000001
 21
4.099240161987269
 31
0.0
  0
LINE
  5
AFF2
  8
0
  6
CONTINUOUS
 10
1.420999999998572
 20
3.351759371068884
 30
0.0
 11
0.0
 21
4.772759371067455
 31
0.0
  0
LINE
  5
AFF3
  8
0
  6
CONTINUOUS
 10
1.420999999998571
 20
4.02527858014907
 30
0.0
 11
-0.0000000000000003
 21
5.446278580147642
 31
0.0
  0
LINE
  5
AFF4
  8
0
  6
CONTINUOUS
 10
1.420999999998571
 20
4.698797789229257
 30
0.0
 11
0.0
 21
6.119797789227828
 31
0.0
  0
LINE
  5
AFF5
  8
0
  6
CONTINUOUS
 10
1.420999999998571
 20
5.372316998309444
 30
0.0
 11
-0.0000000000000001
 21
6.793316998308015
 31
0.0
  0
LINE
  5
AFF6
  8
0
  6
CONTINUOUS
 10
1.420999999998572
 20
6.045836207389629
 30
0.0
 11
-0.0000000000000004
 21
7.466836207388202
 31
0.0
  0
LINE
  5
AFF7
  8
0
  6
CONTINUOUS
 10
1.420999999998571
 20
6.719355416469816
 30
0.0
 11
0.0
 21
8.140355416468388
 31
0.0
  0
LINE
  5
AFF8
  8
0
  6
CONTINUOUS
 10
1.420999999998571
 20
7.392874625550003
 30
0.0
 11
0.0507746255573185
 21
8.763099999991255
 31
0.0
  0
LINE
  5
AFF9
  8
0
  6
CONTINUOUS
 10
1.420999999998571
 20
8.06639383463019
 30
0.0
 11
0.7242938346375052
 21
8.763099999991255
 31
0.0
  0
LINE
  5
AFFA
  8
0
  6
CONTINUOUS
 10
1.420999999998571
 20
8.739913043710375
 30
0.0
 11
1.397813043717691
 21
8.763099999991255
 31
0.0
  0
ENDBLK
  5
B006
  8
0
  0
ENDSEC
  0
SECTION
  2
ENTITIES
  0
LINE
  5
2BB7
  8
01
 10
391.4346804244725
 20
-120.7930342194218
 30
0.0
 11
391.4346804244725
 21
-50.31483075003021
 31
0.0
  0
LINE
  5
2BB8
  8
01
 10
421.4346804244725
 20
-120.7930342194218
 30
0.0
 11
421.4346804244725
 21
-50.31483075003021
 31
0.0
  0
LINE
  5
2C19
  8
01
 10
391.4346804244725
 20
-120.7930342194218
 30
0.0
 11
421.4346804244725
 21
-120.7930342194218
 31
0.0
  0
LINE
  5
8CF9
  8
1CENTER
 10
429.9346804163745
 20
-128.9267734818332
 30
0.0
 11
429.9346804163745
 21
-91.07813840585902
 31
0.0
  0
LINE
  5
8E1C
  8
01
 10
429.9346804163745
 20
-127.2930342194219
 30
0.0
 11
425.9346804163744
 21
-127.2930342194219
 31
0.0
  0
LINE
  5
8E1E
  8
01
 10
424.9346804163744
 20
-120.7930342194218
 30
0.0
 11
424.9346804163744
 21
-126.2930342194219
 31
0.0
  0
ARC
  5
8E1F
  8
01
 10
425.9346804163744
 20
-126.2930342194219
 30
0.0
 40
1.0
 50
180.0
 51
270.0000000000005
  0
LINE
  5
8E56
  8
01
 10
434.9346804163743
 20
-120.7930342194218
 30
0.0
 11
434.9346804163742
 21
-126.2930342194218
 31
0.0
  0
ARC
  5
8E57
  8
01
 10
433.9346804163742
 20
-126.2930342194218
 30
0.0
 40
1.0
 50
270.0
 51
0.0
  0
LINE
  5
8E58
  8
01
 10
429.9346804163745
 20
-127.2930342194219
 30
0.0
 11
433.9346804163742
 21
-127.2930342194218
 31
0.0
  0
TEXT
  5
94D9
  8
1TEXT
 10
222.092252316038
 20
-45.81812207760284
 30
0.0
 40
8.0
  1
AC-775
  0
LINE
  5
9664
  8
01
 10
520.1805727162266
 20
-130.7930342194204
 30
0.0
 11
496.6399391618512
 21
-130.7930342194209
 31
0.0
  0
LINE
  5
9672
  8
1CENTER
 10
475.2274382508257
 20
-137.5374882171328
 30
0.0
 11
475.2274382508253
 21
-119.8221504933544
 31
0.0
  0
LINE
  5
96BB
  8
01
 10
421.4346804244725
 20
-93.79303421942171
 30
0.0
 11
437.4346804244725
 21
-93.79303421942171
 31
0.0
  0
LINE
  5
96BC
  8
01
 10
421.4346804244725
 20
-120.7930342194218
 30
0.0
 11
437.4346804244725
 21
-120.7930342194218
 31
0.0
  0
LINE
  5
96BD
  8
01
 10
426.9346804244723
 20
-94.79303421942174
 30
0.0
 11
426.9346804244723
 21
-119.7930342194218
 31
0.0
  0
ARC
  5
96CD
  8
01
 10
425.9346804244723
 20
-119.7930342194218
 30
0.0
 40
1.0
 50
270.0000000000001
 51
0.0
  0
ARC
  5
96D6
  8
01
 10
425.9346804244723
 20
-94.79303421942174
 30
0.0
 40
1.0
 50
0.0
 51
90.0
  0
LINE
  5
96D7
  8
01
 10
438.4346804244725
 20
-119.7930342194218
 30
0.0
 11
438.4346804244725
 21
-94.79303421942174
 31
0.0
  0
ARC
  5
96D8
  8
01
 10
437.4346804244725
 20
-119.7930342194218
 30
0.0
 40
1.0
 50
270.0
 51
0.0
  0
ARC
  5
96D9
  8
01
 10
437.4346804244725
 20
-94.79303421942174
 30
0.0
 40
1.0
 50
0.0
 51
90.0
  0
LINE
  5
96F0
  8
01
 10
432.934680416374
 20
-127.2930342194218
 30
0.0
 11
432.934680416374
 21
-120.7930342194218
 31
0.0
  0
LINE
  5
96F1
  8
01
 10
426.9346804163744
 20
-127.2930342194219
 30
0.0
 11
426.9346804163744
 21
-120.7930342194218
 31
0.0
  0
TEXT
  5
9725
  8
1TEXT
 10
401.542194393162
 20
-106.9526660503606
 30
0.0
 40
8.0
  1
扉
  0
TEXT
  5
99E1
  8
1TEXT
 10
302.1787880118333
 20
-154.167910781057
 30
0.0
 40
4.0
  1
1枚目
  0
LINE
  5
99E3
  8
1CENTER
 10
315.1988851651739
 20
-98.31723235784837
 30
0.0
 11
304.3990858654739
 21
-98.31723235784841
 31
0.0
  0
LINE
  5
99E4
  8
1CENTER
 10
302.2391263480151
 20
-118.4172323578484
 30
0.0
 11
317.3588455388357
 21
-118.4172323578484
 31
0.0
  0
LINE
  5
99E5
  8
1CENTER
 10
315.1988851651739
 20
-129.1172323578484
 30
0.0
 11
304.3990858654739
 21
-129.1172323578484
 31
0.0
  0
ARC
  5
99E8
  8
01
 10
260.0104984204736
 20
-119.1004481726506
 30
0.0
 40
25.0
 50
290.3001908419077
 51
249.6998091580923
  0
CIRCLE
  5
99E9
  8
01
 10
260.0104984204736
 20
-99.0004481726503
 30
0.0
 40
4.0
  0
CIRCLE
  5
99EA
  8
01
 10
260.0104984204736
 20
-99.0004481726503
 30
0.0
 40
3.0
  0
CIRCLE
  5
99EB
  8
01
 10
260.0104984204736
 20
-119.1004481726506
 30
0.0
 40
27.49999999999991
  0
LINE
  5
99EC
  8
1CENTER
 10
260.0104984204736
 20
-88.06179140252334
 30
0.0
 11
260.0104984204736
 21
-151.7179698916348
 31
0.0
  0
LINE
  5
99F0
  8
1CENTER
 10
230.3249053137882
 20
-119.1004481726506
 30
0.0
 11
289.7155009779124
 21
-119.1004481726506
 31
0.0
  0
TEXT
  5
99F1
  8
1TEXT
 10
254.5888440627198
 20
-138.8974277451478
 30
0.0
 40
2.0
  1
が入るように
 41
0.8
  0
LINE
  5
99F2
  8
01
 10
268.0104984204736
 20
-132.0982267728643
 30
0.0
 11
268.0104984204739
 21
-142.0786987588026
 31
0.0
  0
LINE
  5
99F3
  8
01
 10
252.0104984204736
 20
-132.0982267728643
 30
0.0
 11
252.0104984204733
 21
-142.0786987588027
 31
0.0
  0
TEXT
  5
99F5
  8
1TEXT
 10
254.5888440627198
 20
-142.0546117275896
 30
0.0
 40
2.0
  1
してください
 41
0.8
  0
ARC
  5
99F6
  8
01
 10
251.5104984204734
 20
-142.0786987588026
 30
0.0
 40
0.5
 50
249.6998091580973
 51
359.9999999999984
  0
ARC
  5
99F7
  8
01
 10
268.5104984204739
 20
-142.0786987588026
 30
0.0
 40
0.5
 50
180.0000000000016
 51
290.3001908419032
  0
LINE
  5
99F8
  8
1CENTER
 10
282.2620592460921
 20
-129.8004481726503
 30
0.0
 11
268.7655218169423
 21
-129.8004481726503
 31
0.0
  0
TEXT
  5
99F9
  8
1TEXT
 10
254.2654919897957
 20
-132.8725189709864
 30
0.0
 40
2.0
  1
この範囲に
  0
ARC
  5
99FB
  8
01
 10
260.0104984204736
 20
-132.0982267728644
 30
0.0
 40
8.0
 50
0.0
 51
180.0
  0
TEXT
  5
99FC
  8
1TEXT
 10
253.4975324020124
 20
-136.2344452329796
 30
0.0
 40
2.0
  1
ストライクピン
 41
0.8
  0
CIRCLE
  5
99FD
  8
01
 10
245.0104984204736
 20
-129.8004481726503
 30
0.0
 40
4.0
  0
CIRCLE
  5
99FE
  8
01
 10
245.0104984204736
 20
-129.8004481726503
 30
0.0
 40
3.0
  0
LINE
  5
99FF
  8
1CENTER
 10
245.0104984204736
 20
-122.8956527750422
 30
0.0
 11
245.0104984204736
 21
-134.8465624922025
 31
0.0
  0
LINE
  5
9A00
  8
1CENTER
 10
237.7589375948551
 20
-129.8004481726503
 30
0.0
 11
251.0935329870795
 21
-129.8004481726503
 31
0.0
  0
CIRCLE
  5
9A01
  8
01
 10
275.0104984204736
 20
-129.8004481726503
 30
0.0
 40
4.0
  0
CIRCLE
  5
9A02
  8
01
 10
275.0104984204736
 20
-129.8004481726503
 30
0.0
 40
3.0
  0
LINE
  5
9A03
  8
1CENTER
 10
275.0104984204736
 20
-122.6001211041209
 30
0.0
 11
275.0104984204736
 21
-134.8465624922025
 31
0.0
  0
TEXT
  5
9A04
  8
1TEXT
 10
254.1954087245732
 20
-116.9879165899092
 30
0.0
 40
2.0
  1
トビラ方向
  0
LINE
  5
9A05
  8
1CENTER
 10
255.43107290636
 20
-99.0004481726503
 30
0.0
 11
264.4104035066332
 21
-99.0004481726503
 31
0.0
  0
ARC
  5
9A06
  8
01
 10
260.0104985984276
 20
-99.00044726162474
 30
0.0
 40
3.6
 50
89.9557393585381
 51
90.04425962693308
  0
LINE
  5
9A07
  8
01
 10
364.5787008302557
 20
-93.9172323578486
 30
0.0
 11
364.5787008302559
 21
-141.3954829440006
 31
0.0
  0
LINE
  5
9A08
  8
01
 10
365.0787008302559
 20
-90.91723235784843
 30
0.0
 11
365.0787008302558
 21
-145.9172323578484
 31
0.0
  0
LINE
  5
9A09
  8
01
 10
367.5787008302558
 20
-90.91723235784845
 30
0.0
 11
367.5787008302558
 21
-145.9172323578484
 31
0.0
  0
LINE
  5
9A0A
  8
01
 10
350.1583325612327
 20
-90.91723235784845
 30
0.0
 11
350.1583325612327
 21
-145.9172323578484
 31
0.0
  0
LINE
  5
9A0B
  8
01
 10
347.6583325612328
 20
-90.91723235784843
 30
0.0
 11
347.6583325612327
 21
-145.9172323578484
 31
0.0
  0
LINE
  5
9A0C
  8
01
 10
347.1583325612326
 20
-93.9172323578486
 30
0.0
 11
347.1583325612328
 21
-141.3954829440006
 31
0.0
  0
LINE
  5
9A0D
  8
01
 10
326.7581339150573
 20
-93.9172323578486
 30
0.0
 11
326.7581339150576
 21
-141.3954829440006
 31
0.0
  0
LINE
  5
9A0E
  8
01
 10
331.7581339150574
 20
-90.91723235784846
 30
0.0
 11
331.7581339150574
 21
-145.9172323578484
 31
0.0
  0
LINE
  5
9A0F
  8
01
 10
327.2581339150576
 20
-90.91723235784843
 30
0.0
 11
327.2581339150574
 21
-145.9172323578484
 31
0.0
  0
LINE
  5
9A10
  8
01
 10
307.3947830973729
 20
-90.91723235784843
 30
0.0
 11
307.3947830973727
 21
-145.9172323578484
 31
0.0
  0
LINE
  5
9A11
  8
01
 10
311.8947830973727
 20
-90.91723235784846
 30
0.0
 11
311.8947830973727
 21
-145.9172323578484
 31
0.0
  0
LINE
  5
9A12
  8
01
 10
306.8947830973726
 20
-93.9172323578486
 30
0.0
 11
306.8947830973729
 21
-141.3954829440006
 31
0.0
  0
TEXT
  5
9A13
  8
1TEXT
 10
342.0620600607605
 20
-154.167910781057
 30
0.0
 40
4.0
  1
3枚目
  0
LINE
  5
9A14
  8
01
 10
347.6583325612327
 20
-145.9172323578484
 30
0.0
 11
350.1583325612327
 21
-145.9172323578484
 31
0.0
  0
TEXT
  5
9A15
  8
1TEXT
 10
322.4966815782536
 20
-154.167910781057
 30
0.0
 40
4.0
  1
2枚目
  0
LINE
  5
9A16
  8
01
 10
327.2581339150574
 20
-145.9172323578484
 30
0.0
 11
331.7581339150574
 21
-145.9172323578484
 31
0.0
  0
ARC
  5
9A17
  8
01
 10
307.3947830973727
 20
-141.3954829440006
 30
0.0
 40
0.5
 50
180.0000000000001
 51
270.0
  0
LINE
  5
9A18
  8
01
 10
307.3947830973727
 20
-145.9172323578484
 30
0.0
 11
311.8947830973727
 21
-145.9172323578484
 31
0.0
  0
ARC
  5
9A19
  8
01
 10
327.2581339150574
 20
-141.3954829440006
 30
0.0
 40
0.5
 50
180.0000000000001
 51
270.0
  0
ARC
  5
9A1A
  8
01
 10
347.6583325612327
 20
-141.3954829440006
 30
0.0
 40
0.5
 50
180.0000000000001
 51
270.0
  0
TEXT
  5
9A1B
  8
1TEXT
 10
359.6207333652368
 20
-154.167910781057
 30
0.0
 40
4.0
  1
4枚目
  0
ARC
  5
9A1C
  8
01
 10
365.0787008302558
 20
-141.3954829440006
 30
0.0
 40
0.5
 50
180.0000000000001
 51
270.0
  0
LINE
  5
9A1D
  8
01
 10
365.0787008302558
 20
-145.9172323578484
 30
0.0
 11
367.5787008302558
 21
-145.9172323578484
 31
0.0
  0
LINE
  5
9A1E
  8
1CENTER
 10
342.5026758118751
 20
-118.4172323578484
 30
0.0
 11
357.6223950026956
 21
-118.4172323578484
 31
0.0
  0
LINE
  5
9A1F
  8
1CENTER
 10
355.4624346290339
 20
-129.1172323578484
 30
0.0
 11
344.6626353293339
 21
-129.1172323578484
 31
0.0
  0
LINE
  5
9A20
  8
1CENTER
 10
335.0622359828586
 20
-129.1172323578484
 30
0.0
 11
324.2624366831586
 21
-129.1172323578484
 31
0.0
  0
LINE
  5
9A21
  8
1CENTER
 10
322.1024771656998
 20
-118.4172323578484
 30
0.0
 11
337.2221963565204
 21
-118.4172323578484
 31
0.0
  0
LINE
  5
9A22
  8
1CENTER
 10
372.882802898057
 20
-129.1172323578484
 30
0.0
 11
362.083003598357
 21
-129.1172323578484
 31
0.0
  0
LINE
  5
9A23
  8
1CENTER
 10
359.9230440808982
 20
-118.4172323578484
 30
0.0
 11
375.0427632717187
 21
-118.4172323578484
 31
0.0
  0
LINE
  5
9A25
  8
01
 10
347.6583325612328
 20
-90.91723235784843
 30
0.0
 11
350.1583325612327
 21
-90.91723235784845
 31
0.0
  0
LINE
  5
9A26
  8
1CENTER
 10
355.4624346290339
 20
-98.31723235784837
 30
0.0
 11
344.6626353293339
 21
-98.31723235784841
 31
0.0
  0
LINE
  5
9A28
  8
01
 10
327.2581339150576
 20
-90.91723235784843
 30
0.0
 11
331.7581339150574
 21
-90.91723235784846
 31
0.0
  0
LINE
  5
9A29
  8
1CENTER
 10
335.0622359828586
 20
-98.31723235784837
 30
0.0
 11
324.2624366831586
 21
-98.31723235784841
 31
0.0
  0
LINE
  5
9A2A
  8
01
 10
307.3947830973729
 20
-90.91723235784843
 30
0.0
 11
311.8947830973727
 21
-90.91723235784846
 31
0.0
  0
ARC
  5
9A2B
  8
01
 10
307.3947830973727
 20
-93.9172323578486
 30
0.0
 40
0.5
 50
90.0
 51
180.0000000000003
  0
ARC
  5
9A2C
  8
01
 10
327.2581339150574
 20
-93.9172323578486
 30
0.0
 40
0.5
 50
90.0
 51
180.0000000000003
  0
ARC
  5
9A2D
  8
01
 10
347.6583325612327
 20
-93.9172323578486
 30
0.0
 40
0.5
 50
90.0
 51
180.0000000000003
  0
LINE
  5
9A2F
  8
1CENTER
 10
372.882802898057
 20
-98.31723235784837
 30
0.0
 11
362.083003598357
 21
-98.31723235784841
 31
0.0
  0
ARC
  5
9A30
  8
01
 10
365.0787008302558
 20
-93.9172323578486
 30
0.0
 40
0.5
 50
90.0
 51
180.0000000000003
  0
LINE
  5
9A31
  8
01
 10
365.0787008302559
 20
-90.91723235784843
 30
0.0
 11
367.5787008302558
 21
-90.91723235784845
 31
0.0
  0
TEXT
  5
9B56
  8
1TEXT
 10
227.9620376404307
 20
-199.835845693905
 30
0.0
 40
4.0
  1
カーペット対応組合せ表
 72
     1
 11
254.2287043070974
 21
-199.835845693905
 31
0.0
  0
LINE
  5
9B57
  8
1DIM
 10
228.8259730422036
 20
-265.3891834307718
 30
0.0
 11
333.8259730422036
 21
-265.3891834307718
 31
0.0
  0
LINE
  5
9B58
  8
1DIM
 10
228.8259730422036
 20
-258.3891834307718
 30
0.0
 11
333.8259730422036
 21
-258.3891834307718
 31
0.0
  0
TEXT
  5
9B59
  8
1TEXT
 10
233.6259730422036
 20
-207.8891834307718
 30
0.0
 40
4.0
  1
3mmベース
 72
     1
 11
246.2259730422036
 21
-207.8891834307718
 31
0.0
  0
LINE
  5
9B5A
  8
1DIM
 10
228.8259730422036
 20
-202.3891834307718
 30
0.0
 11
333.8259730422036
 21
-202.3891834307718
 31
0.0
  0
LINE
  5
9B5B
  8
1DIM
 10
228.8259730422036
 20
-209.3891834307718
 30
0.0
 11
333.8259730422036
 21
-209.3891834307718
 31
0.0
  0
LINE
  5
9B5C
  8
1DIM
 10
228.8259730422036
 20
-244.3891834307718
 30
0.0
 11
333.8259730422036
 21
-244.3891834307718
 31
0.0
  0
LINE
  5
9B5D
  8
1DIM
 10
228.8259730422036
 20
-237.3891834307718
 30
0.0
 11
333.8259730422036
 21
-237.3891834307718
 31
0.0
  0
LINE
  5
9B5E
  8
1DIM
 10
228.8259730422036
 20
-230.3891834307718
 30
0.0
 11
333.8259730422036
 21
-230.3891834307718
 31
0.0
  0
LINE
  5
9B5F
  8
1DIM
 10
228.8259730422036
 20
-223.3891834307718
 30
0.0
 11
333.8259730422036
 21
-223.3891834307718
 31
0.0
  0
LINE
  5
9B60
  8
1DIM
 10
228.8259730422036
 20
-216.3891834307718
 30
0.0
 11
333.8259730422036
 21
-216.3891834307718
 31
0.0
  0
LINE
  5
9B61
  8
1DIM
 10
228.8259730422036
 20
-251.3891834307718
 30
0.0
 11
333.8259730422036
 21
-251.3891834307718
 31
0.0
  0
LINE
  5
9B62
  8
1DIM
 10
228.8259730422036
 20
-202.3891834307718
 30
0.0
 11
228.8259730422035
 21
-265.3891834307718
 31
0.0
  0
TEXT
  5
9B63
  8
1TEXT
 10
242.2259730422036
 20
-263.8891834307718
 30
0.0
 40
4.0
  1
2枚
 72
     1
 11
246.2259730422036
 21
-263.8891834307718
 31
0.0
  0
TEXT
  5
9B64
  8
1TEXT
 10
242.8926397088702
 20
-256.8891834307718
 30
0.0
 40
4.0
  1
1枚
 72
     1
 11
246.2259730422036
 21
-256.8891834307718
 31
0.0
  0
TEXT
  5
9B65
  8
1TEXT
 10
242.2259730422036
 20
-249.8891834307718
 30
0.0
 40
4.0
  1
2枚
 72
     1
 11
246.2259730422036
 21
-249.8891834307718
 31
0.0
  0
TEXT
  5
9B66
  8
1TEXT
 10
242.2259730422036
 20
-228.8891834307718
 30
0.0
 40
4.0
  1
2枚
 72
     1
 11
246.2259730422036
 21
-228.8891834307718
 31
0.0
  0
TEXT
  5
9B67
  8
1TEXT
 10
242.8926397088702
 20
-235.8891834307718
 30
0.0
 40
4.0
  1
1枚
 72
     1
 11
246.2259730422036
 21
-235.8891834307718
 31
0.0
  0
TEXT
  5
9B68
  8
1TEXT
 10
242.8926397088702
 20
-214.8891834307718
 30
0.0
 40
4.0
  1
1枚
 72
     1
 11
246.2259730422036
 21
-214.8891834307718
 31
0.0
  0
TEXT
  5
9B69
  8
1TEXT
 10
308.2102323014634
 20
-242.8891834307723
 30
0.0
 40
4.0
  1
9.5mm
 72
     1
 11
316.2259730422041
 21
-242.8891834307723
 31
0.0
  0
LINE
  5
9B6A
  8
1DIM
 10
333.8259730422036
 20
-202.3891834307718
 30
0.0
 11
333.8259730422036
 21
-265.3891834307718
 31
0.0
  0
LINE
  5
9B6B
  8
1DIM
 10
298.8259730422036
 20
-202.3891834307718
 30
0.0
 11
298.8259730422035
 21
-265.3891834307718
 31
0.0
  0
LINE
  5
9B6C
  8
1DIM
 10
263.8259730422036
 20
-202.3891834307718
 30
0.0
 11
263.8259730422035
 21
-265.3891834307718
 31
0.0
  0
TEXT
  5
9B6D
  8
1TEXT
 10
277.2259730422041
 20
-242.8891834307723
 30
0.0
 40
4.0
  1
2枚
 72
     1
 11
281.2259730422041
 21
-242.8891834307723
 31
0.0
  0
TEXT
  5
9B6E
  8
1TEXT
 10
306.8787508199819
 20
-263.8891834307723
 30
0.0
 40
4.0
  1
14.5mm
 72
     1
 11
316.2259730422041
 21
-263.8891834307723
 31
0.0
  0
TEXT
  5
9B6F
  8
1TEXT
 10
277.2259730422041
 20
-263.8891834307723
 30
0.0
 40
4.0
  1
2枚
 72
     1
 11
281.2259730422041
 21
-263.8891834307723
 31
0.0
  0
TEXT
  5
9B70
  8
1TEXT
 10
277.2259730422041
 20
-256.8891834307723
 30
0.0
 40
4.0
  1
2枚
 72
     1
 11
281.2259730422041
 21
-256.8891834307723
 31
0.0
  0
TEXT
  5
9B71
  8
1TEXT
 10
277.8926397088708
 20
-249.8891834307723
 30
0.0
 40
4.0
  1
1枚
 72
     1
 11
281.2259730422041
 21
-249.8891834307723
 31
0.0
  0
TEXT
  5
9B72
  8
1TEXT
 10
309.5593063755375
 20
-256.8891834307723
 30
0.0
 40
4.0
  1
12mm
 72
     1
 11
316.2259730422041
 21
-256.8891834307723
 31
0.0
  0
TEXT
  5
9B73
  8
1TEXT
 10
309.8926397088708
 20
-249.8891834307723
 30
0.0
 40
4.0
  1
10mm
 72
     1
 11
316.2259730422041
 21
-249.8891834307723
 31
0.0
  0
TEXT
  5
9B74
  8
1TEXT
 10
308.2120841533152
 20
-235.8891834307723
 30
0.0
 40
4.0
  1
7.5mm
 72
     1
 11
316.2259730422041
 21
-235.8891834307723
 31
0.0
  0
TEXT
  5
9B75
  8
1TEXT
 10
308.1981952644264
 20
-228.8891834307723
 30
0.0
 40
4.0
  1
5.5mm
 72
     1
 11
316.2259730422041
 21
-228.8891834307723
 31
0.0
  0
TEXT
  5
9B76
  8
1TEXT
 10
277.8926397088708
 20
-235.8891834307723
 30
0.0
 40
4.0
  1
1枚
 72
     1
 11
281.2259730422041
 21
-235.8891834307723
 31
0.0
  0
TEXT
  5
9B77
  8
1TEXT
 10
277.8926397088703
 20
-221.8891834307718
 30
0.0
 40
4.0
  1
1枚
 72
     1
 11
281.2259730422036
 21
-221.8891834307718
 31
0.0
  0
TEXT
  5
9B78
  8
1TEXT
 10
268.6120841533147
 20
-207.8891834307718
 30
0.0
 40
4.0
  1
5mmベース
 72
     1
 11
281.2259730422036
 21
-207.8891834307718
 31
0.0
  0
TEXT
  5
9B79
  8
1TEXT
 10
310.8787508199813
 20
-221.8891834307718
 30
0.0
 40
4.0
  1
5mm
 72
     1
 11
316.2259730422036
 21
-221.8891834307718
 31
0.0
  0
TEXT
  5
9B7A
  8
1TEXT
 10
310.8926397088703
 20
-214.8891834307718
 30
0.0
 40
4.0
  1
3mm
 72
     1
 11
316.2259730422036
 21
-214.8891834307718
 31
0.0
  0
TEXT
  5
9B7B
  8
1TEXT
 10
309.3593063755369
 20
-207.8891834307718
 30
0.0
 40
4.0
  1
対応厚
 72
     1
 11
316.2259730422036
 21
-207.8891834307718
 31
0.0
  0
LINE
  5
9DCD
  8
01
 10
494.0149391618517
 20
-162.6555311654565
 30
0.0
 11
494.0149391618519
 21
-127.2930342194213
 31
0.0
  0
LINE
  5
9DCE
  8
01
 10
496.6399391618517
 20
-162.6555372732931
 30
0.0
 11
496.6399391618511
 21
-127.2930342194213
 31
0.0
  0
LINE
  5
9DCF
  8
01
 10
497.0774391618517
 20
-154.2555382912659
 30
0.0
 11
493.5774391618517
 21
-154.9555301474857
 31
0.0
  0
ARC
  5
9DD5
  8
01
 10
475.22743817444
 20
-1122.472937986689
 30
0.0
 40
1000.0
 50
88.6061814018635
 51
90.1782995138924
  0
LINE
  5
9DD9
  8
01
 10
492.3346618272567
 20
-126.1930342194214
 30
0.0
 11
480.727438439522
 21
-126.1930342194214
 31
0.0
  0
LINE
  5
9DDA
  8
01
 10
494.0148984429411
 20
-130.7930342194213
 30
0.0
 11
445.7241421621122
 21
-130.7930342194213
 31
0.0
  0
LINE
  5
9DDC
  8
01
 10
499.0274382508259
 20
-124.2930342194213
 30
0.0
 11
472.2274384395259
 21
-124.2930342194213
 31
0.0
  0
LINE
  5
9DDD
  8
01
 10
492.4274391618517
 20
-129.7930342194213
 30
0.0
 11
445.7241421621122
 21
-129.7930342194213
 31
0.0
  0
LINE
  5
9DDE
  8
01
 10
491.1046003325854
 20
-128.0930342194215
 30
0.0
 11
481.2274382508253
 21
-128.0930342194215
 31
0.0
  0
ARC
  5
9DE1
  8
01
 10
475.22743817444
 20
-1122.472937986689
 30
0.0
 40
1000.0
 50
90.85686500747669
 51
91.31934617126035
  0
LINE
  5
9DE4
  8
01
 10
461.7274384395259
 20
-128.2930342194213
 30
0.0
 11
454.4274391618516
 21
-128.2930342194213
 31
0.0
  0
LINE
  5
9DE5
  8
01
 10
460.2274384395259
 20
-125.7930342194213
 30
0.0
 11
456.0274391618516
 21
-125.7930342194213
 31
0.0
  0
LINE
  5
9DE6
  8
01
 10
460.2274384395259
 20
-124.2930342194213
 30
0.0
 11
452.8122648185287
 21
-124.2930342194213
 31
0.0
  0
LINE
  5
9DE7
  8
01
 10
454.7274384395258
 20
-128.2930342194213
 30
0.0
 11
461.7274384395259
 21
-128.2930342194213
 31
0.0
  0
LINE
  5
9DE8
  8
01
 10
460.2274384395259
 20
-125.8930342194213
 30
0.0
 11
456.8726803333462
 21
-125.8930342194213
 31
0.0
  0
LINE
  5
9DE9
  8
01
 10
462.4588083784446
 20
-127.2930342194213
 30
0.0
 11
455.2274384395258
 21
-127.2930342194213
 31
0.0
  0
ARC
  5
9DEC
  8
01
 10
445.7274382508255
 20
-129.6423197878739
 30
0.0
 40
1.5
 50
120.9637565320752
 51
180.0
  0
LINE
  5
9DED
  8
01
 10
445.7241421621122
 20
-130.2930342194203
 30
0.0
 11
444.2274382508255
 21
-130.2930342194203
 31
0.0
  0
LINE
  5
9E12
  8
01
 10
444.2274382508255
 20
-130.2930342194203
 30
0.0
 11
444.2274382508255
 21
-129.6423197878739
 31
0.0
  0
ARC
  5
9E13
  8
01
 10
452.2255633240634
 20
-123.7377810239594
 30
0.0
 40
1.0
 50
91.31934617125785
 51
180.0
  0
LINE
  5
9E14
  8
01
 10
451.8977623550079
 20
-122.7930342194206
 30
0.0
 11
449.9637820601871
 21
-122.7930342194205
 31
0.0
  0
LINE
  5
9E15
  8
01
 10
453.8770284187397
 20
-127.0930342194212
 30
0.0
 11
451.2255633240634
 21
-127.0930342194212
 31
0.0
  0
LINE
  5
9E16
  8
01
 10
455.5274391618516
 20
-127.2930342194213
 30
0.0
 11
451.5274391618517
 21
-127.2930342194213
 31
0.0
  0
LINE
  5
9E17
  8
01
 10
451.4274382508255
 20
-127.2930342194205
 30
0.0
 11
451.4274382508255
 21
-128.2930342194205
 31
0.0
  0
LINE
  5
9E18
  8
01
 10
444.9556946176841
 20
-128.3560803993051
 30
0.0
 11
446.7274382508245
 21
-127.2930342194207
 31
0.0
  0
ARC
  5
9E19
  8
01
 10
447.6161229785272
 20
-127.7325376074152
 30
0.0
 40
1.5
 50
146.671254991425
 51
177.1797446938769
  0
LINE
  5
9E1A
  8
01
 10
451.5274391618517
 20
-127.2930342194213
 30
0.0
 11
451.5274391618517
 21
-129.7930342194213
 31
0.0
  0
ARC
  5
9E1B
  8
01
 10
450.5148382252193
 20
-123.2930342194205
 30
0.0
 40
0.5
 50
0.0
 51
89.99999999999348
  0
LINE
  5
9E1C
  8
01
 10
451.5274391618517
 20
-127.2930342194205
 30
0.0
 11
446.7274382508256
 21
-127.2930342194203
 31
0.0
  0
ARC
  5
9E1D
  8
01
 10
463.0734615406368
 20
-137.8972158894043
 30
0.0
 40
20.0
 50
130.9563576213023
 51
146.6712549914332
  0
LINE
  5
9E1E
  8
01
 10
451.0148382252194
 20
-123.2930342194205
 30
0.0
 11
451.0148382252194
 21
-127.293034219421
 31
0.0
  0
LINE
  5
9E1F
  8
01
 10
451.2255633240634
 20
-123.7377810239594
 30
0.0
 11
451.2255633240634
 21
-127.0930342194212
 31
0.0
  0
LINE
  5
9E20
  8
01
 10
450.7274382508255
 20
-128.2930342194205
 30
0.0
 11
450.7274382508255
 21
-129.7930342194205
 31
0.0
  0
LINE
  5
9E21
  8
01
 10
449.2274382508255
 20
-128.2930342194205
 30
0.0
 11
449.2274382508255
 21
-129.7930342194204
 31
0.0
  0
LINE
  5
9E22
  8
01
 10
445.5274382508255
 20
-130.2930342194203
 30
0.0
 11
445.5274382508255
 21
-129.7930342194203
 31
0.0
  0
LINE
  5
9E23
  8
01
 10
451.5274391618517
 20
-128.2930342194205
 30
0.0
 11
449.2274382508255
 21
-128.2930342194205
 31
0.0
  0
LINE
  5
9E24
  8
01
 10
450.7274382508255
 20
-129.7930342194205
 30
0.0
 11
445.5274382508255
 21
-129.7930342194203
 31
0.0
  0
LINE
  5
9E25
  8
01
 10
445.7241421621122
 20
-130.7930342194213
 30
0.0
 11
445.7241421621122
 21
-129.7930342194213
 31
0.0
  0
ARC
  5
9E26
  8
01
 10
455.2274384395258
 20
-127.7930342194213
 30
0.0
 40
0.5
 50
90.0000000000002
 51
180.0
  0
ARC
  5
9E27
  8
01
 10
453.9274391618516
 20
-127.7930342194213
 30
0.0
 40
0.5
 50
359.9999999999984
 51
90.0000000000002
  0
LINE
  5
9E28
  8
01
 10
456.9890181775668
 20
-125.8930342194213
 30
0.0
 11
456.9890181775668
 21
-125.7930342194213
 31
0.0
  0
LINE
  5
9E29
  8
01
 10
456.5726803333463
 20
-126.1930342194212
 30
0.0
 11
456.5726803333463
 21
-127.2930342194213
 31
0.0
  0
ARC
  5
9E2A
  8
01
 10
456.8726803333462
 20
-126.1930342194212
 30
0.0
 40
0.3
 50
89.99999999999827
 51
180.0000000000024
  0
LINE
  5
9E2B
  8
01
 10
453.770271615877
 20
-126.0430342194213
 30
0.0
 11
453.770271615877
 21
-127.0930342194212
 31
0.0
  0
LINE
  5
9E2C
  8
01
 10
452.8122648185287
 20
-125.5930342194212
 30
0.0
 11
453.770271615877
 21
-126.0430342194213
 31
0.0
  0
LINE
  5
9E2D
  8
01
 10
452.8122648185287
 20
-125.5930342194212
 30
0.0
 11
452.9184714437604
 21
-125.5930342194212
 31
0.0
  0
LINE
  5
9E2E
  8
01
 10
453.770271615877
 20
-126.0430342194213
 30
0.0
 11
453.7705220881866
 21
-126.0430342194213
 31
0.0
  0
LINE
  5
9E2F
  8
01
 10
452.8122648185287
 20
-124.2930342194213
 30
0.0
 11
452.8122648185287
 21
-125.5930342194212
 31
0.0
  0
LINE
  5
9E30
  8
01
 10
456.9890181775668
 20
-125.7930342194213
 30
0.0
 11
456.9890181775668
 21
-125.8930342194213
 31
0.0
  0
LINE
  5
9E31
  8
01
 10
456.0274391618516
 20
-127.2930342194213
 30
0.0
 11
456.0274391618516
 21
-125.7930342194213
 31
0.0
  0
LINE
  5
9E32
  8
01
 10
452.9184714437604
 20
-125.6430342194212
 30
0.0
 11
452.9184714437604
 21
-124.2930342194213
 31
0.0
  0
LINE
  5
9E33
  8
01
 10
453.8770284187397
 20
-126.0930342194212
 30
0.0
 11
453.8770284187397
 21
-127.2930342194213
 31
0.0
  0
LINE
  5
9E34
  8
01
 10
452.9184714437604
 20
-125.6430342194212
 30
0.0
 11
453.8770284187397
 21
-126.0930342194212
 31
0.0
  0
LINE
  5
9E35
  8
01
 10
454.7274384395258
 20
-127.7930342194213
 30
0.0
 11
454.7274384395258
 21
-128.2930342194213
 31
0.0
  0
LINE
  5
9E36
  8
01
 10
454.4274391618516
 20
-127.7930342194213
 30
0.0
 11
454.4274391618516
 21
-128.2930342194213
 31
0.0
  0
LINE
  5
9E3B
  8
1CENTER
 10
475.2274382508255
 20
-133.9295682326739
 30
0.0
 11
475.2274382508259
 21
-123.5748625377656
 31
0.0
  0
LINE
  5
9E3D
  8
1CENTER
 10
464.5274391618517
 20
-128.9307475200685
 30
0.0
 11
464.5274391618507
 21
-177.3531245033033
 31
0.0
  0
LINE
  5
9E3E
  8
01
 10
471.0274382508258
 20
-127.7930342194213
 30
0.0
 11
473.8132246884526
 21
-127.7930342194213
 31
0.0
  0
ARC
  5
9E3F
  8
01
 10
472.7274382508258
 20
-128.2930342194213
 30
0.0
 40
0.5
 50
0.0
 51
90.00000000000078
  0
ARC
  5
9E40
  8
01
 10
472.7274382508258
 20
-129.2930342194213
 30
0.0
 40
0.5
 50
270.0
 51
0.0
  0
LINE
  5
9E42
  8
01
 10
473.427438250825
 20
-127.7930342194211
 30
0.0
 11
470.4274382508253
 21
-127.793034219421
 31
0.0
  0
LINE
  5
9E43
  8
01
 10
470.4274382508255
 20
-126.593034219421
 30
0.0
 11
480.0274382508255
 21
-126.5930342194214
 31
0.0
  0
LINE
  5
9E44
  8
01
 10
480.4274384395219
 20
-124.3930342194213
 30
0.0
 11
472.2274384395259
 21
-124.3930342194213
 31
0.0
  0
LINE
  5
9E45
  8
01
 10
470.2274384395259
 20
-125.1930342194215
 30
0.0
 11
478.227438439522
 21
-125.1930342194212
 31
0.0
  0
LINE
  5
9E46
  8
01
 10
480.727438439522
 20
-126.3930342194213
 30
0.0
 11
470.2274384395259
 21
-126.3930342194213
 31
0.0
  0
LINE
  5
9E4A
  8
01
 10
470.2274384395259
 20
-123.7930342194213
 30
0.0
 11
463.2274384395259
 21
-123.7930342194213
 31
0.0
  0
LINE
  5
9E4B
  8
01
 10
471.7274384395259
 20
-122.2930342194213
 30
0.0
 11
460.7274384395259
 21
-122.2930342194213
 31
0.0
  0
ARC
  5
9E4C
  8
01
 10
460.7274384395259
 20
-122.7930342194213
 30
0.0
 40
0.5
 50
89.99999999999999
 51
180.0
  0
LINE
  5
9E4D
  8
01
 10
463.2274384395259
 20
-123.7930342194213
 30
0.0
 11
463.2274384395261
 21
-126.5244041583398
 31
0.0
  0
LINE
  5
9E4E
  8
01
 10
460.2274384395259
 20
-122.7930342194213
 30
0.0
 11
460.2274384395259
 21
-127.2930342194213
 31
0.0
  0
LINE
  5
9E4F
  8
01
 10
463.2274384395261
 20
-126.5244041583398
 30
0.0
 11
462.4588083784446
 21
-127.2930342194213
 31
0.0
  0
LINE
  5
9E53
  8
01
 10
462.2274384395259
 20
-128.7930342194213
 30
0.0
 11
462.2274384395259
 21
-129.4930342194213
 31
0.0
  0
ARC
  5
9E54
  8
01
 10
461.7274384395259
 20
-128.7930342194213
 30
0.0
 40
0.5
 50
0.0
 51
89.99999999999953
  0
ARC
  5
9E55
  8
01
 10
462.5274384395259
 20
-129.4930342194213
 30
0.0
 40
0.3
 50
180.0
 51
270.000000000001
  0
ARC
  5
9E56
  8
01
 10
461.2274391618516
 20
-129.2930342194213
 30
0.0
 40
1.0
 50
359.9999999999989
 51
90.0000000000002
  0
LINE
  5
9E57
  8
01
 10
462.2274391618516
 20
-129.2930342194213
 30
0.0
 11
462.2274391618516
 21
-129.7930342194213
 31
0.0
  0
ARC
  5
9E58
  8
01
 10
470.4274382508254
 20
-127.793034219421
 30
0.0
 40
1.2
 50
89.9999999999975
 51
179.9999999999959
  0
ARC
  5
9E59
  8
01
 10
470.2274384395259
 20
-127.3930342194213
 30
0.0
 40
1.0
 50
89.99999999999999
 51
179.9999999999995
  0
LINE
  5
9E5A
  8
01
 10
470.2274384395259
 20
-123.7930342194213
 30
0.0
 11
470.2274384395259
 21
-125.1930342194215
 31
0.0
  0
ARC
  5
9E5B
  8
01
 10
471.7274384395259
 20
-122.7930342194213
 30
0.0
 40
0.5
 50
0.0
 51
90.00000000000004
  0
LINE
  5
9E5C
  8
01
 10
472.2274384395259
 20
-122.7930342194213
 30
0.0
 11
472.2274384395259
 21
-125.1930342194212
 31
0.0
  0
LINE
  5
9E5D
  8
01
 10
470.5274382508258
 20
-128.2930342194213
 30
0.0
 11
470.5274382508258
 21
-129.2930342194213
 31
0.0
  0
ARC
  5
9E5E
  8
01
 10
471.0274382508259
 20
-129.2930342194213
 30
0.0
 40
0.5
 50
180.0
 51
269.9999999999935
  0
ARC
  5
9E5F
  8
01
 10
471.0274382508258
 20
-128.2930342194213
 30
0.0
 40
0.5
 50
89.99999999999999
 51
180.0
  0
LINE
  5
9E60
  8
01
 10
469.2274382508255
 20
-127.793034219421
 30
0.0
 11
469.2274382508252
 21
-129.793034219421
 31
0.0
  0
LINE
  5
9E61
  8
01
 10
470.4274382508253
 20
-127.793034219421
 30
0.0
 11
470.4274382508253
 21
-129.7930342194211
 31
0.0
  0
ARC
  5
9E62
  8
01
 10
468.927438439526
 20
-129.4930342194212
 30
0.0
 40
0.3
 50
270.0000000000011
 51
359.9999999999991
  0
LINE
  5
9E63
  8
01
 10
469.2274384395259
 20
-127.3930342194213
 30
0.0
 11
469.2274384395259
 21
-129.4930342194212
 31
0.0
  0
ARC
  5
9E65
  8
01
 10
480.0274382508254
 20
-127.7930342194215
 30
0.0
 40
1.2
 50
359.999999999997
 51
89.99999999999743
  0
LINE
  5
9E66
  8
01
 10
473.4274382508252
 20
-127.7930342194211
 30
0.0
 11
473.4274382508252
 21
-126.5930342194212
 31
0.0
  0
CIRCLE
  5
9E67
  8
1CENTER
 10
475.2274382508256
 20
-128.2930342194213
 30
0.0
 40
1.34
  0
CIRCLE
  5
9E68
  8
01
 10
475.2274382508256
 20
-128.2930342194213
 30
0.0
 40
1.5
  0
CIRCLE
  5
9E69
  8
01
 10
475.2274382508256
 20
-128.2930342194213
 30
0.0
 40
1.18
  0
LINE
  5
9E6A
  8
1CENTER
 10
475.2274382508257
 20
-130.2620759283991
 30
0.0
 11
475.2274382508257
 21
-127.384478820396
 31
0.0
  0
LINE
  5
9E6B
  8
01
 10
477.0274382508253
 20
-126.5930342194213
 30
0.0
 11
477.0274382508253
 21
-127.7930342194213
 31
0.0
  0
ARC
  5
9E6C
  8
01
 10
479.7274382508239
 20
-123.4830731735803
 30
0.0
 40
1.0
 50
89.74191002591239
 51
180.0
  0
LINE
  5
9E6D
  8
01
 10
478.727438439522
 20
-124.3930342194213
 30
0.0
 11
478.727438439522
 21
-124.6930342194213
 31
0.0
  0
ARC
  5
9E6E
  8
01
 10
478.227438439522
 20
-124.6930342194212
 30
0.0
 40
0.5
 50
270.000000000001
 51
359.9999999999919
  0
LINE
  5
9E6F
  8
01
 10
478.7274382508239
 20
-123.4830731735803
 30
0.0
 11
478.7274382508239
 21
-124.2930342194211
 31
0.0
  0
LINE
  5
9E70
  8
01
 10
474.1586071135547
 20
-127.7930342194213
 30
0.0
 11
476.2962693880966
 21
-127.7930342194212
 31
0.0
  0
LINE
  5
9E71
  8
1HIDDEN
 10
476.2962693880967
 20
-127.7930342194213
 30
0.0
 11
474.1586071135547
 21
-127.7930342194211
 31
0.0
  0
LINE
  5
9E72
  8
01
 10
476.6416518131987
 20
-127.7930342194212
 30
0.0
 11
479.4274382508255
 21
-127.7930342194211
 31
0.0
  0
LINE
  5
9E73
  8
1HIDDEN
 10
477.0274382508253
 20
-128.0930342194215
 30
0.0
 11
477.0274382508252
 21
-129.2930342194214
 31
0.0
  0
LINE
  5
9E74
  8
01
 10
475.2274382508251
 20
-129.4730342194213
 30
0.0
 11
475.2274382508257
 21
-129.7930342194213
 31
0.0
  0
ARC
  5
9E75
  8
01
 10
479.4274382508254
 20
-129.2930342194213
 30
0.0
 40
0.5
 50
270.0000000000065
 51
0.0000000000000127
  0
ARC
  5
9E76
  8
01
 10
479.4274382508255
 20
-128.2930342194213
 30
0.0
 40
0.5
 50
0.0000000000000127
 51
89.99999999999999
  0
LINE
  5
9E77
  8
01
 10
479.9274382508255
 20
-128.2930342194213
 30
0.0
 11
479.9274382508255
 21
-129.2930342194213
 31
0.0
  0
LINE
  5
9E78
  8
1CENTER
 10
476.4627561641436
 20
-128.2930342194213
 30
0.0
 11
474.0946323390634
 21
-128.2930342194213
 31
0.0
  0
ARC
  5
9E79
  8
01
 10
474.7274382508256
 20
-128.2930342194213
 30
0.0
 40
0.5
 50
90.00000000000321
 51
179.9999999999992
  0
ARC
  5
9E7A
  8
01
 10
475.7274382508256
 20
-128.2930342194213
 30
0.0
 40
0.5
 50
0.000000000001603
 51
89.99999999999673
  0
LINE
  5
9E7B
  8
01
 10
477.2274382508258
 20
-128.2930342194212
 30
0.0
 11
477.2274382508258
 21
-129.2930342194213
 31
0.0
  0
ARC
  5
9E7C
  8
01
 10
475.2274382508256
 20
-128.2930342194213
 30
0.0
 40
1.0
 50
180.0
 51
0.0
  0
ARC
  5
9E7D
  8
01
 10
477.7274382508258
 20
-128.2930342194212
 30
0.0
 40
0.5
 50
90.00000000000078
 51
180.0
  0
ARC
  5
9E7E
  8
01
 10
477.7274382508258
 20
-129.2930342194213
 30
0.0
 40
0.5
 50
180.0
 51
270.0
  0
LINE
  5
9E7F
  8
01
 10
473.2274382508258
 20
-128.2930342194213
 30
0.0
 11
473.2274382508258
 21
-129.2930342194213
 31
0.0
  0
ARC
  5
9E80
  8
1HIDDEN
 10
476.5274382508251
 20
-129.2930342194214
 30
0.0
 40
0.5
 50
269.9999999999976
 51
359.9999999999975
  0
ARC
  5
9E81
  8
1HIDDEN
 10
473.9274382508249
 20
-129.2930342194213
 30
0.0
 40
0.5
 50
179.9999999999959
 51
269.9999999999975
  0
LINE
  5
9E82
  8
1HIDDEN
 10
477.0274382508252
 20
-127.7930342194213
 30
0.0
 11
476.6416518131988
 21
-127.7930342194213
 31
0.0
  0
LINE
  5
9E83
  8
1HIDDEN
 10
473.4274382508249
 20
-129.2930342194212
 30
0.0
 11
473.427438250825
 21
-128.0930342194215
 31
0.0
  0
LINE
  5
9E84
  8
01
 10
480.0274382508254
 20
-127.7930342194215
 30
0.0
 11
480.0274382508253
 21
-129.7930342194215
 31
0.0
  0
LINE
  5
9E85
  8
01
 10
480.0274382508254
 20
-127.7930342194215
 30
0.0
 11
477.0274382508252
 21
-127.7930342194213
 31
0.0
  0
LINE
  5
9E86
  8
01
 10
480.727438439522
 20
-124.6930342194212
 30
0.0
 11
480.727438439522
 21
-126.3930342194213
 31
0.0
  0
ARC
  5
9E87
  8
01
 10
480.4274384395219
 20
-124.6930342194212
 30
0.0
 40
0.3
 50
0.0
 51
90.0000000000004
  0
LINE
  5
9E88
  8
01
 10
481.2274382508255
 20
-127.7930342194215
 30
0.0
 11
481.2274382508252
 21
-129.7930342194215
 31
0.0
  0
LINE
  5
9EB8
  8
1CENTER
 10
490.2274382508715
 20
-133.5387853672672
 30
0.0
 11
490.2274382508715
 21
-127.0018067781849
 31
0.0
  0
LINE
  5
9EB9
  8
1CENTER
 10
495.3274391618517
 20
-122.8239845922171
 30
0.0
 11
495.3274391618517
 21
-177.3531245033033
 31
0.0
  0
LINE
  5
9EBA
  8
01
 10
499.7274382508258
 20
-129.7930342194216
 30
0.0
 11
504.9274382508257
 21
-129.7930342194218
 31
0.0
  0
LINE
  5
9EBB
  8
01
 10
498.9274373397996
 20
-127.2930342194216
 30
0.0
 11
503.7274382508258
 21
-127.2930342194217
 31
0.0
  0
ARC
  5
9EBC
  8
01
 10
487.3814149610139
 20
-137.8972158894048
 30
0.0
 40
20.0
 50
33.32874500856404
 51
49.04364237869493
  0
LINE
  5
9EBD
  8
01
 10
504.7241421621123
 20
-129.7930342194213
 30
0.0
 11
498.2274391618516
 21
-129.7930342194213
 31
0.0
  0
LINE
  5
9EBE
  8
01
 10
504.7241421621123
 20
-130.7930342194213
 30
0.0
 11
496.6398984429409
 21
-130.7930342194213
 31
0.0
  0
LINE
  5
9EBF
  8
01
 10
497.0774391618517
 20
-127.6555382912621
 30
0.0
 11
493.5774391618517
 21
-128.3555301474781
 31
0.0
  0
LINE
  5
9EC0
  8
01
 10
497.0774391618517
 20
-129.055538291262
 30
0.0
 11
493.5774391618517
 21
-129.755530147478
 31
0.0
  0
LINE
  5
9EC1
  8
01
 10
497.0774391618517
 20
-130.4555382912619
 30
0.0
 11
493.5774391618517
 21
-131.1555301474779
 31
0.0
  0
LINE
  5
9EC2
  8
01
 10
497.0774391618517
 20
-131.8555382912621
 30
0.0
 11
493.5774391618517
 21
-132.5555301474781
 31
0.0
  0
LINE
  5
9EC3
  8
01
 10
498.3274391618517
 20
-127.2930342194213
 30
0.0
 11
492.3274391618517
 21
-127.2930342194213
 31
0.0
  0
LINE
  5
9EC4
  8
01
 10
497.0149422157701
 20
-125.018031165504
 30
0.0
 11
493.63994221577
 21
-125.0180233125712
 31
0.0
  0
LINE
  5
9EC5
  8
01
 10
498.9274391618517
 20
-127.2930342194213
 30
0.0
 11
491.1046003325854
 21
-127.2930342194213
 31
0.0
  0
LINE
  5
9EC6
  8
01
 10
491.1046003325854
 20
-127.2930342194213
 30
0.0
 11
491.1046003325854
 21
-129.7930342194213
 31
0.0
  0
LINE
  5
9EC7
  8
01
 10
493.4729633182496
 20
-127.2930342194213
 30
0.0
 11
493.4729633182496
 21
-130.7930342194213
 31
0.0
  0
LINE
  5
9EC8
  8
01
 10
492.3274391618517
 20
-127.2930342194213
 30
0.0
 11
492.3274391618517
 21
-126.3305233125677
 31
0.0
  0
ARC
  5
9EC9
  8
01
 10
493.6399391618515
 20
-126.3305233125677
 30
0.0
 40
1.3125
 50
89.9998666844706
 51
180.0
  0
LINE
  5
9ECA
  8
01
 10
493.5774391618517
 20
-128.3555301474781
 30
0.0
 11
494.0149391618517
 21
-128.443031165451
 31
0.0
  0
LINE
  5
9ECB
  8
01
 10
493.5774391618517
 20
-129.755530147478
 30
0.0
 11
494.0149391618517
 21
-129.843031165451
 31
0.0
  0
LINE
  5
9ECC
  8
01
 10
493.5774391618517
 20
-131.1555301474779
 30
0.0
 11
494.0149391618517
 21
-131.2430311654509
 31
0.0
  0
LINE
  5
9ECD
  8
01
 10
493.5774391618517
 20
-132.5555301474781
 30
0.0
 11
494.0149391618517
 21
-132.643031165451
 31
0.0
  0
LINE
  5
9ECE
  8
01
 10
492.4274391618517
 20
-129.7930342194213
 30
0.0
 11
491.4274391618517
 21
-130.7930342194213
 31
0.0
  0
LINE
  5
9ECF
  8
01
 10
492.4274391618517
 20
-129.7930342194213
 30
0.0
 11
492.4274391618517
 21
-130.7930342194213
 31
0.0
  0
LINE
  5
9ED0
  8
01
 10
499.0274382508259
 20
-127.2930342194216
 30
0.0
 11
499.0274382508258
 21
-128.2930342194216
 31
0.0
  0
LINE
  5
9ED1
  8
01
 10
498.9274391618517
 20
-127.2930342194213
 30
0.0
 11
498.9274391618518
 21
-129.7930342194213
 31
0.0
  0
LINE
  5
9ED2
  8
01
 10
497.1729633182497
 20
-127.2930342194212
 30
0.0
 11
497.1729633182497
 21
-130.7930342194212
 31
0.0
  0
ARC
  5
9ED3
  8
01
 10
497.0149391618518
 20
-126.3305311655004
 30
0.0
 40
1.3125
 50
0.0
 51
89.99986668447058
  0
LINE
  5
9ED4
  8
01
 10
498.3274391618517
 20
-127.2930342194213
 30
0.0
 11
498.3274391618518
 21
-126.3305311655004
 31
0.0
  0
LINE
  5
9ED5
  8
01
 10
498.3274391618517
 20
-127.2930342194213
 30
0.0
 11
496.6398984429408
 21
-127.2930302928602
 31
0.0
  0
ARC
  5
9ED6
  8
01
 10
499.5274382508258
 20
-123.7685222578468
 30
0.0
 40
1.0
 50
0.0000000000024299
 51
88.60618140186472
  0
LINE
  5
9ED7
  8
01
 10
499.440038276432
 20
-127.0930342194206
 30
0.0
 11
499.440038276432
 21
-127.2930342194221
 31
0.0
  0
LINE
  5
9ED8
  8
01
 10
499.7474907147737
 20
-122.7930342194217
 30
0.0
 11
500.4910944414645
 21
-122.7930342194217
 31
0.0
  0
LINE
  5
9ED9
  8
01
 10
498.8259456160629
 20
-127.2930342194213
 30
0.0
 11
498.8259456160629
 21
-124.2930342194213
 31
0.0
  0
LINE
  5
9EDA
  8
01
 10
494.4624266500814
 20
-125.0180381458886
 30
0.0
 11
494.4624266500814
 21
-124.2930342194213
 31
0.0
  0
LINE
  5
9EDB
  8
01
 10
500.5274382508259
 20
-123.7685222578468
 30
0.0
 11
500.527438250826
 21
-127.0930342194212
 31
0.0
  0
LINE
  5
9EDC
  8
01
 10
499.0274382508259
 20
-124.2930342194213
 30
0.0
 11
499.027438250826
 21
-127.0930342194212
 31
0.0
  0
LINE
  5
9EDD
  8
01
 10
500.527438250826
 20
-127.0930342194206
 30
0.0
 11
498.9274391618518
 21
-127.0930342194206
 31
0.0
  0
LINE
  5
9EDE
  8
01
 10
496.6399391618517
 20
-127.5680372732891
 30
0.0
 11
497.0774391618517
 21
-127.6555382912621
 31
0.0
  0
LINE
  5
9EDF
  8
01
 10
496.6399391618517
 20
-128.968037273289
 30
0.0
 11
497.0774391618517
 21
-129.055538291262
 31
0.0
  0
LINE
  5
9EE0
  8
01
 10
496.6399391618517
 20
-131.7680372732891
 30
0.0
 11
497.0774391618517
 21
-131.8555382912621
 31
0.0
  0
LINE
  5
9EE1
  8
01
 10
496.6399391618517
 20
-130.368037273289
 30
0.0
 11
497.0774391618517
 21
-130.4555382912619
 31
0.0
  0
LINE
  5
9EE2
  8
01
 10
501.2274382508258
 20
-128.2930342194217
 30
0.0
 11
501.2274382508258
 21
-129.7930342194217
 31
0.0
  0
LINE
  5
9EE3
  8
01
 10
499.7274382508258
 20
-128.2930342194216
 30
0.0
 11
499.7274382508258
 21
-129.7930342194216
 31
0.0
  0
LINE
  5
9EE4
  8
01
 10
498.9274373397996
 20
-128.2930342194216
 30
0.0
 11
501.2274382508258
 21
-128.2930342194217
 31
0.0
  0
LINE
  5
9EE5
  8
01
 10
498.2274391618516
 20
-129.7930342194213
 30
0.0
 11
499.2274391618516
 21
-130.7930342194213
 31
0.0
  0
LINE
  5
9EE6
  8
01
 10
498.2274391618516
 20
-129.7930342194213
 30
0.0
 11
498.9274391618518
 21
-129.7930342194213
 31
0.0
  0
LINE
  5
9EE7
  8
01
 10
498.2274391618516
 20
-129.7930342194213
 30
0.0
 11
498.2274391618516
 21
-130.7930342194213
 31
0.0
  0
ARC
  5
9EE8
  8
01
 10
502.838753523124
 20
-127.7325376074165
 30
0.0
 40
1.5
 50
2.820255306120443
 51
33.32874500857231
  0
LINE
  5
9EE9
  8
01
 10
505.4991818839671
 20
-128.3560803993065
 30
0.0
 11
503.7274382508267
 21
-127.2930342194221
 31
0.0
  0
ARC
  5
9EEA
  8
01
 10
504.7274382508256
 20
-129.6423197878752
 30
0.0
 40
1.5
 50
359.9999999999972
 51
59.03624346792215
  0
LINE
  5
9EEB
  8
01
 10
504.7307343395389
 20
-130.2930342194217
 30
0.0
 11
506.2274382508257
 21
-130.2930342194218
 31
0.0
  0
LINE
  5
9EEC
  8
01
 10
504.9274382508256
 20
-130.2930342194217
 30
0.0
 11
504.9274382508257
 21
-129.7930342194218
 31
0.0
  0
LINE
  5
9EED
  8
01
 10
506.2274382508257
 20
-130.2930342194218
 30
0.0
 11
506.2274382508257
 21
-129.6423197878754
 31
0.0
  0
LINE
  5
9EEE
  8
01
 10
504.7241421621123
 20
-130.7930342194213
 30
0.0
 11
504.7241421621123
 21
-129.7930342194213
 31
0.0
  0
LINE
  5
9EEF
  8
01
 10
497.0774391618517
 20
-143.055538291264
 30
0.0
 11
493.5774391618517
 21
-143.7555301474837
 31
0.0
  0
LINE
  5
9EF0
  8
01
 10
497.0774391618517
 20
-136.0555382912621
 30
0.0
 11
493.5774391618517
 21
-136.7555301474819
 31
0.0
  0
LINE
  5
9EF1
  8
01
 10
497.0774391618517
 20
-137.455538291262
 30
0.0
 11
493.5774391618517
 21
-138.1555301474818
 31
0.0
  0
LINE
  5
9EF2
  8
01
 10
497.0774391618517
 20
-134.655538291262
 30
0.0
 11
493.5774391618517
 21
-135.3555301474818
 31
0.0
  0
LINE
  5
9EF3
  8
01
 10
497.0774391618517
 20
-133.255538291262
 30
0.0
 11
493.5774391618517
 21
-133.9555301474818
 31
0.0
  0
LINE
  5
9EF4
  8
01
 10
497.0774391618517
 20
-141.655538291264
 30
0.0
 11
493.5774391618517
 21
-142.35553014748
 31
0.0
  0
LINE
  5
9EF5
  8
01
 10
497.0774391618517
 20
-140.2555382912639
 30
0.0
 11
493.5774391618517
 21
-140.9555301474799
 31
0.0
  0
LINE
  5
9EF6
  8
01
 10
497.0774391618517
 20
-138.8555382912639
 30
0.0
 11
493.5774391618517
 21
-139.5555301474799
 31
0.0
  0
LINE
  5
9EF7
  8
01
 10
493.5774391618517
 20
-138.1555301474818
 30
0.0
 11
494.0149391618517
 21
-138.2430311654543
 31
0.0
  0
LINE
  5
9EF8
  8
01
 10
493.5774391618517
 20
-133.9555301474818
 30
0.0
 11
494.0149391618517
 21
-134.0430311654543
 31
0.0
  0
LINE
  5
9EF9
  8
01
 10
493.5774391618517
 20
-136.7555301474819
 30
0.0
 11
494.0149391618517
 21
-136.8430311654544
 31
0.0
  0
LINE
  5
9EFA
  8
01
 10
493.5774391618517
 20
-135.3555301474818
 30
0.0
 11
494.0149391618517
 21
-135.4430311654543
 31
0.0
  0
LINE
  5
9EFB
  8
01
 10
493.5774391618517
 20
-142.35553014748
 30
0.0
 11
494.0149391618517
 21
-142.4430311654529
 31
0.0
  0
LINE
  5
9EFC
  8
01
 10
493.5774391618517
 20
-140.9555301474799
 30
0.0
 11
494.0149391618517
 21
-141.0430311654528
 31
0.0
  0
LINE
  5
9EFD
  8
01
 10
493.5774391618517
 20
-139.5555301474799
 30
0.0
 11
494.0149391618517
 21
-139.6430311654528
 31
0.0
  0
LINE
  5
9EFE
  8
01
 10
496.6399391618517
 20
-137.3680372732896
 30
0.0
 11
497.0774391618517
 21
-137.455538291262
 31
0.0
  0
LINE
  5
9EFF
  8
01
 10
496.6399391618517
 20
-133.168037273289
 30
0.0
 11
497.0774391618517
 21
-133.255538291262
 31
0.0
  0
LINE
  5
9F00
  8
01
 10
496.6399391618517
 20
-135.9680372732896
 30
0.0
 11
497.0774391618517
 21
-136.0555382912621
 31
0.0
  0
LINE
  5
9F01
  8
01
 10
496.6399391618517
 20
-134.5680372732895
 30
0.0
 11
497.0774391618517
 21
-134.655538291262
 31
0.0
  0
LINE
  5
9F02
  8
01
 10
496.6399391618517
 20
-140.1680372732909
 30
0.0
 11
497.0774391618517
 21
-140.2555382912639
 31
0.0
  0
LINE
  5
9F03
  8
01
 10
496.6399391618517
 20
-142.9680372732909
 30
0.0
 11
497.0774391618517
 21
-143.055538291264
 31
0.0
  0
LINE
  5
9F04
  8
01
 10
496.6399391618517
 20
-141.568037273291
 30
0.0
 11
497.0774391618517
 21
-141.655538291264
 31
0.0
  0
LINE
  5
9F05
  8
01
 10
496.6399391618517
 20
-138.7680372732909
 30
0.0
 11
497.0774391618517
 21
-138.8555382912639
 31
0.0
  0
LINE
  5
9F06
  8
01
 10
497.0774391618517
 20
-148.655538291264
 30
0.0
 11
493.5774391618517
 21
-149.3555301474837
 31
0.0
  0
LINE
  5
9F07
  8
01
 10
497.0774391618517
 20
-144.4555382912639
 30
0.0
 11
493.5774391618517
 21
-145.1555301474837
 31
0.0
  0
LINE
  5
9F08
  8
01
 10
497.0774391618517
 20
-147.255538291264
 30
0.0
 11
493.5774391618517
 21
-147.9555301474837
 31
0.0
  0
LINE
  5
9F09
  8
01
 10
497.0774391618517
 20
-145.855538291264
 30
0.0
 11
493.5774391618517
 21
-146.5555301474838
 31
0.0
  0
LINE
  5
9F0A
  8
01
 10
497.0774391618517
 20
-150.0555382912659
 30
0.0
 11
493.5774391618517
 21
-150.7555301474819
 31
0.0
  0
LINE
  5
9F0B
  8
01
 10
497.0774391618517
 20
-152.8555382912659
 30
0.0
 11
493.5774391618517
 21
-153.5555301474819
 31
0.0
  0
LINE
  5
9F0C
  8
01
 10
497.0774391618517
 20
-151.4555382912658
 30
0.0
 11
493.5774391618517
 21
-152.1555301474817
 31
0.0
  0
LINE
  5
9F0D
  8
01
 10
493.5774391618517
 20
-145.1555301474837
 30
0.0
 11
494.0149391618517
 21
-145.2430311654563
 31
0.0
  0
LINE
  5
9F0E
  8
01
 10
493.5774391618517
 20
-147.9555301474837
 30
0.0
 11
494.0149391618517
 21
-148.0430311654563
 31
0.0
  0
LINE
  5
9F0F
  8
01
 10
493.5774391618517
 20
-146.5555301474838
 30
0.0
 11
494.0149391618517
 21
-146.6430311654563
 31
0.0
  0
LINE
  5
9F10
  8
01
 10
493.5774391618517
 20
-143.7555301474837
 30
0.0
 11
494.0149391618517
 21
-143.8430311654562
 31
0.0
  0
LINE
  5
9F11
  8
01
 10
493.5774391618517
 20
-149.3555301474837
 30
0.0
 11
494.0149391618517
 21
-149.4430311654561
 31
0.0
  0
LINE
  5
9F12
  8
01
 10
493.5774391618517
 20
-153.5555301474819
 30
0.0
 11
494.0149391618517
 21
-153.6430311654548
 31
0.0
  0
LINE
  5
9F13
  8
01
 10
493.5774391618517
 20
-150.7555301474819
 30
0.0
 11
494.0149391618517
 21
-150.8430311654548
 31
0.0
  0
LINE
  5
9F14
  8
01
 10
493.5774391618517
 20
-152.1555301474817
 30
0.0
 11
494.0149391618517
 21
-152.2430311654547
 31
0.0
  0
LINE
  5
9F15
  8
01
 10
496.6399391618517
 20
-144.3680372732914
 30
0.0
 11
497.0774391618517
 21
-144.4555382912639
 31
0.0
  0
LINE
  5
9F16
  8
01
 10
496.6399391618517
 20
-147.1680372732915
 30
0.0
 11
497.0774391618517
 21
-147.255538291264
 31
0.0
  0
LINE
  5
9F17
  8
01
 10
496.6399391618517
 20
-145.7680372732916
 30
0.0
 11
497.0774391618517
 21
-145.855538291264
 31
0.0
  0
LINE
  5
9F18
  8
01
 10
496.6399391618517
 20
-148.5680372732914
 30
0.0
 11
497.0774391618517
 21
-148.655538291264
 31
0.0
  0
LINE
  5
9F19
  8
01
 10
496.6399391618517
 20
-154.1680372732928
 30
0.0
 11
497.0774391618517
 21
-154.2555382912659
 31
0.0
  0
LINE
  5
9F1A
  8
01
 10
496.6399391618517
 20
-151.3680372732928
 30
0.0
 11
497.0774391618517
 21
-151.4555382912658
 31
0.0
  0
LINE
  5
9F1B
  8
01
 10
496.6399391618517
 20
-152.7680372732929
 30
0.0
 11
497.0774391618517
 21
-152.8555382912659
 31
0.0
  0
LINE
  5
9F1C
  8
01
 10
496.6399391618517
 20
-149.9680372732929
 30
0.0
 11
497.0774391618517
 21
-150.0555382912659
 31
0.0
  0
LINE
  5
9FBF
  8
01
 10
495.3274391618517
 20
-167.2930342194213
 30
0.0
 11
494.0149391618517
 21
-162.6555311654565
 31
0.0
  0
LINE
  5
9FC0
  8
01
 10
495.3274391618517
 20
-167.2930342194213
 30
0.0
 11
496.6399391618517
 21
-162.6555372732931
 31
0.0
  0
LINE
  5
9FC1
  8
01
 10
497.0774391618517
 20
-159.8555382912659
 30
0.0
 11
493.5774391618517
 21
-160.5555301474857
 31
0.0
  0
LINE
  5
9FC2
  8
01
 10
494.1717576738861
 20
-164.7555315303429
 30
0.0
 11
494.6545384547139
 21
-164.9154501551424
 31
0.0
  0
LINE
  5
9FC3
  8
01
 10
496.6812250375502
 20
-164.055537369357
 30
0.0
 11
494.1717576738861
 21
-164.7555315303429
 31
0.0
  0
LINE
  5
9FC4
  8
01
 10
497.0774391618517
 20
-161.2555382912659
 30
0.0
 11
493.5774391618517
 21
-161.9555301474857
 31
0.0
  0
LINE
  5
9FC5
  8
01
 10
497.0774391618517
 20
-162.6555382912658
 30
0.0
 11
493.7755453325301
 21
-163.355530608438
 31
0.0
  0
LINE
  5
9FC6
  8
01
 10
497.0774391618517
 20
-158.4555382912658
 30
0.0
 11
493.5774391618517
 21
-159.1555301474856
 31
0.0
  0
LINE
  5
9FC7
  8
01
 10
497.0774391618517
 20
-157.055538291266
 30
0.0
 11
493.5774391618517
 21
-157.7555301474857
 31
0.0
  0
LINE
  5
9FC8
  8
01
 10
497.0774391618517
 20
-155.6555382912658
 30
0.0
 11
493.5774391618517
 21
-156.3555301474856
 31
0.0
  0
LINE
  5
9FC9
  8
01
 10
493.5774391618517
 20
-154.9555301474857
 30
0.0
 11
494.0149391618517
 21
-155.0430311654582
 31
0.0
  0
LINE
  5
9FCA
  8
01
 10
493.5774391618517
 20
-159.1555301474856
 30
0.0
 11
494.0149391618517
 21
-159.2430311654582
 31
0.0
  0
LINE
  5
9FCB
  8
01
 10
493.5774391618517
 20
-156.3555301474856
 30
0.0
 11
494.0149391618517
 21
-156.4430311654581
 31
0.0
  0
LINE
  5
9FCC
  8
01
 10
493.5774391618517
 20
-157.7555301474857
 30
0.0
 11
494.0149391618517
 21
-157.8430311654582
 31
0.0
  0
LINE
  5
9FCD
  8
01
 10
493.5774391618517
 20
-161.9555301474857
 30
0.0
 11
494.0149391618517
 21
-162.0430311654582
 31
0.0
  0
LINE
  5
9FCE
  8
01
 10
493.5774391618517
 20
-160.5555301474857
 30
0.0
 11
494.0149391618517
 21
-160.643031165458
 31
0.0
  0
LINE
  5
9FCF
  8
01
 10
493.7755453325301
 20
-163.355530608438
 30
0.0
 11
494.2450648508924
 21
-163.4686424688641
 31
0.0
  0
LINE
  5
9FD0
  8
01
 10
496.6399391618517
 20
-159.7680372732933
 30
0.0
 11
497.0774391618517
 21
-159.8555382912659
 31
0.0
  0
LINE
  5
9FD1
  8
01
 10
496.6399391618517
 20
-155.5680372732934
 30
0.0
 11
497.0774391618517
 21
-155.6555382912658
 31
0.0
  0
LINE
  5
9FD2
  8
01
 10
496.6399391618517
 20
-158.3680372732934
 30
0.0
 11
497.0774391618517
 21
-158.4555382912658
 31
0.0
  0
LINE
  5
9FD3
  8
01
 10
496.6399391618517
 20
-156.9680372732935
 30
0.0
 11
497.0774391618517
 21
-157.055538291266
 31
0.0
  0
LINE
  5
9FD4
  8
01
 10
496.2716388892941
 20
-163.9568640460507
 30
0.0
 11
496.6812250375502
 21
-164.055537369357
 31
0.0
  0
LINE
  5
9FD5
  8
01
 10
496.6399391618517
 20
-161.1680372732934
 30
0.0
 11
497.0774391618517
 21
-161.2555382912659
 31
0.0
  0
LINE
  5
9FD6
  8
01
 10
496.6399391618517
 20
-162.5680372732934
 30
0.0
 11
497.0774391618517
 21
-162.6555382912658
 31
0.0
  0
LINE
  5
9FD7
  8
01
 10
495.8849878574558
 20
-165.3230301255679
 30
0.0
 11
496.285013218008
 21
-165.4555364474533
 31
0.0
  0
LINE
  5
9FD8
  8
01
 10
494.5679700152421
 20
-166.1555324522478
 30
0.0
 11
495.0827120184041
 21
-166.4283310764685
 31
0.0
  0
LINE
  5
9FD9
  8
01
 10
496.285013218008
 20
-165.4555364474533
 30
0.0
 11
494.5679700152421
 21
-166.1555324522478
 31
0.0
  0
LINE
  5
A043
  8
01
 10
502.7274382508256
 20
-136.2930342194214
 30
0.0
 11
500.2274382508253
 21
-136.2930342194214
 31
0.0
  0
LINE
  5
A044
  8
01
 10
500.2274382508256
 20
-135.7930342194215
 30
0.0
 11
496.6399391618512
 21
-135.7930342194215
 31
0.0
  0
LINE
  5
A046
  8
01
 10
463.5274382508256
 20
-135.7930342194217
 30
0.0
 11
453.0596688546956
 21
-135.7930342194217
 31
0.0
  0
LINE
  5
A047
  8
01
 10
470.2296596506116
 20
-133.7930342194215
 30
0.0
 11
447.7274382508256
 21
-133.7930342194215
 31
0.0
  0
LINE
  5
A049
  8
01
 10
447.7274382508256
 20
-133.7930342194215
 30
0.0
 11
447.7274382508256
 21
-136.2930342194214
 31
0.0
  0
LINE
  5
A04A
  8
01
 10
453.0596688546956
 20
-135.7930342194217
 30
0.0
 11
453.0596688546956
 21
-136.2930342194214
 31
0.0
  0
LINE
  5
A04B
  8
01
 10
463.5274382508256
 20
-135.7930342194217
 30
0.0
 11
463.5274382508256
 21
-136.2930342194214
 31
0.0
  0
LINE
  5
A04C
  8
01
 10
465.5274382508256
 20
-135.7930342194217
 30
0.0
 11
465.5274382508256
 21
-136.2930342194214
 31
0.0
  0
LINE
  5
A04D
  8
01
 10
470.2296596506116
 20
-133.7930342194215
 30
0.0
 11
470.2296596506116
 21
-133.2930342194215
 31
0.0
  0
LINE
  5
A04E
  8
01
 10
474.2274382508253
 20
-133.4930342194215
 30
0.0
 11
470.7633366356876
 21
-133.4930342194215
 31
0.0
  0
LINE
  5
A04F
  8
01
 10
470.7633366356876
 20
-133.4930342194215
 30
0.0
 11
470.7633366356876
 21
-133.2930342194215
 31
0.0
  0
LINE
  5
A050
  8
01
 10
474.2274382508253
 20
-133.4930342194215
 30
0.0
 11
474.2274382508253
 21
-133.2930342194215
 31
0.0
  0
LINE
  5
A051
  8
01
 10
498.3274382508257
 20
-134.2930342194214
 30
0.0
 11
496.6399391618512
 21
-134.2930342194214
 31
0.0
  0
LINE
  5
A052
  8
01
 10
491.3274382508255
 20
-133.2930342194214
 30
0.0
 11
492.3274382508255
 21
-134.2930342194214
 31
0.0
  0
LINE
  5
A053
  8
01
 10
492.3274382508257
 20
-135.7930342194215
 30
0.0
 11
492.3274382508257
 21
-134.2930342194216
 31
0.0
  0
LINE
  5
A054
  8
01
 10
500.2274382508256
 20
-135.7930342194215
 30
0.0
 11
500.2274382508256
 21
-136.2930342194214
 31
0.0
  0
ARC
  5
A055
  8
01
 10
499.7274382508253
 20
-133.7930342194214
 30
0.0
 40
0.5
 50
0.000000000000007
 51
90.00000000000024
  0
LINE
  5
A056
  8
01
 10
502.7274382508256
 20
-133.7930342194215
 30
0.0
 11
500.2274382508253
 21
-133.7930342194215
 31
0.0
  0
LINE
  5
A057
  8
01
 10
499.3274382508257
 20
-133.2930342194214
 30
0.0
 11
498.3274382508257
 21
-134.2930342194214
 31
0.0
  0
LINE
  5
A058
  8
01
 10
498.3274382508257
 20
-135.7930342194215
 30
0.0
 11
498.3274382508257
 21
-134.2930342194214
 31
0.0
  0
LINE
  5
A059
  8
01
 10
502.7274382508256
 20
-133.7930342194215
 30
0.0
 11
502.7274382508256
 21
-136.2930342194214
 31
0.0
  0
LINE
  5
A083
  8
01
 10
500.2274382508256
 20
-144.7930342194224
 30
0.0
 11
496.6399391618513
 21
-144.7930342194223
 31
0.0
  0
LINE
  5
A084
  8
01
 10
491.3274382508255
 20
-140.2930342194217
 30
0.0
 11
492.3274382508255
 21
-141.2930342194217
 31
0.0
  0
LINE
  5
A087
  8
01
 10
463.5274382508256
 20
-144.7930342194218
 30
0.0
 11
453.0596688546956
 21
-144.7930342194216
 31
0.0
  0
LINE
  5
A088
  8
01
 10
463.0274382508256
 20
-142.7930342194222
 30
0.0
 11
452.2274382508255
 21
-142.7930342194221
 31
0.0
  0
LINE
  5
A089
  8
01
 10
470.2296596506116
 20
-140.7930342194218
 30
0.0
 11
447.7274382508256
 21
-140.7930342194218
 31
0.0
  0
LINE
  5
A08A
  8
01
 10
453.0596688546956
 20
-144.7930342194216
 30
0.0
 11
453.0596688546956
 21
-145.2930342194217
 31
0.0
  0
ARC
  5
A08B
  8
01
 10
452.2274382508255
 20
-143.2930342194221
 30
0.0
 40
0.5
 50
89.99999999999943
 51
180.0
  0
LINE
  5
A08C
  8
01
 10
451.7274382508255
 20
-143.2930342194221
 30
0.0
 11
451.7274382508255
 21
-145.2930342194217
 31
0.0
  0
LINE
  5
A08E
  8
01
 10
447.7274382508256
 20
-140.7930342194218
 30
0.0
 11
447.7274382508256
 21
-145.2930342194217
 31
0.0
  0
LINE
  5
A08F
  8
01
 10
488.8274382508257
 20
-142.7930342194219
 30
0.0
 11
466.0274382508256
 21
-142.7930342194219
 31
0.0
  0
ARC
  5
A090
  8
01
 10
463.0274382508256
 20
-143.2930342194222
 30
0.0
 40
0.5
 50
0.000000000000007
 51
89.99999999999945
  0
ARC
  5
A091
  8
01
 10
466.0274382508256
 20
-143.2930342194219
 30
0.0
 40
0.5
 50
90.00000000000031
 51
180.0
  0
LINE
  5
A092
  8
01
 10
463.5274382508256
 20
-143.2930342194222
 30
0.0
 11
463.5274382508256
 21
-145.2930342194217
 31
0.0
  0
LINE
  5
A093
  8
01
 10
465.5274382508256
 20
-143.2930342194219
 30
0.0
 11
465.5274382508256
 21
-145.2930342194217
 31
0.0
  0
LINE
  5
A094
  8
01
 10
470.2296596506116
 20
-140.7930342194218
 30
0.0
 11
470.2296596506116
 21
-140.2930342194218
 31
0.0
  0
LINE
  5
A095
  8
01
 10
474.2274382508253
 20
-140.4930342194219
 30
0.0
 11
470.7633366356876
 21
-140.4930342194219
 31
0.0
  0
LINE
  5
A096
  8
01
 10
470.7633366356876
 20
-140.4930342194219
 30
0.0
 11
470.7633366356876
 21
-140.2930342194218
 31
0.0
  0
LINE
  5
A097
  8
01
 10
474.2274382508253
 20
-140.4930342194219
 30
0.0
 11
474.2274382508253
 21
-140.2930342194218
 31
0.0
  0
ARC
  5
A098
  8
01
 10
488.8274382508257
 20
-143.2930342194219
 30
0.0
 40
0.5
 50
359.9999999999999
 51
90.00000000000055
  0
LINE
  5
A099
  8
01
 10
489.3274382508257
 20
-144.7930342194223
 30
0.0
 11
489.3274382508257
 21
-143.2930342194219
 31
0.0
  0
LINE
  5
A09A
  8
01
 10
499.3274382508257
 20
-140.2930342194217
 30
0.0
 11
498.3274382508257
 21
-141.2930342194217
 31
0.0
  0
LINE
  5
A09B
  8
01
 10
498.3274382508257
 20
-141.2930342194217
 30
0.0
 11
496.6399391618513
 21
-141.2930342194217
 31
0.0
  0
LINE
  5
A09C
  8
01
 10
492.3274382508257
 20
-144.7930342194217
 30
0.0
 11
492.3274382508257
 21
-141.2930342194219
 31
0.0
  0
LINE
  5
A09D
  8
01
 10
498.3274382508257
 20
-144.7930342194217
 30
0.0
 11
498.3274382508257
 21
-141.2930342194217
 31
0.0
  0
LINE
  5
A09E
  8
01
 10
500.2274382508256
 20
-144.7930342194217
 30
0.0
 11
500.2274382508256
 21
-145.2930342194217
 31
0.0
  0
ARC
  5
A09F
  8
01
 10
499.7274382508253
 20
-140.7930342194217
 30
0.0
 40
0.5
 50
0.000000000000007
 51
90.00000000000024
  0
LINE
  5
A0A0
  8
01
 10
502.7274382508256
 20
-140.7930342194218
 30
0.0
 11
500.2274382508253
 21
-140.7930342194218
 31
0.0
  0
LINE
  5
A0A1
  8
01
 10
502.7274382508256
 20
-140.7930342194218
 30
0.0
 11
502.7274382508256
 21
-145.2930342194217
 31
0.0
  0
LINE
  5
A0A6
  8
01
 10
502.7274382508256
 20
-133.7930342194211
 30
0.0
 11
500.2274382508253
 21
-133.7930342194212
 31
0.0
  0
LINE
  5
A0A7
  8
01
 10
500.2274382508256
 20
-133.2930342194213
 30
0.0
 11
496.8899573398971
 21
-133.2930342194213
 31
0.0
  0
LINE
  5
A0A8
  8
01
 10
499.7274382508253
 20
-130.793034219421
 30
0.0
 11
496.6399391618512
 21
-130.793034219421
 31
0.0
  0
LINE
  5
A0AA
  8
01
 10
470.2296596506116
 20
-131.2930342194213
 30
0.0
 11
447.7274382508256
 21
-131.2930342194213
 31
0.0
  0
LINE
  5
A0AC
  8
01
 10
498.3274382508257
 20
-131.7930342194211
 30
0.0
 11
496.7649224384595
 21
-131.7930342194211
 31
0.0
  0
LINE
  5
A0AD
  8
01
 10
502.7274382508256
 20
-131.2930342194213
 30
0.0
 11
500.2274382508253
 21
-131.2930342194213
 31
0.0
  0
LINE
  5
A0AE
  8
01
 10
502.7274382508256
 20
-131.2930342194213
 30
0.0
 11
502.7274382508256
 21
-133.7930342194211
 31
0.0
  0
LINE
  5
A0AF
  8
01
 10
500.2274382508256
 20
-133.2930342194213
 30
0.0
 11
500.2274382508256
 21
-133.7930342194211
 31
0.0
  0
ARC
  5
A0B0
  8
01
 10
499.7274382508253
 20
-131.2930342194211
 30
0.0
 40
0.5
 50
0.000000000000007
 51
90.00000000000024
  0
LINE
  5
A0B1
  8
01
 10
499.3274382508257
 20
-130.7930342194211
 30
0.0
 11
498.3274382508257
 21
-131.7930342194211
 31
0.0
  0
LINE
  5
A0B2
  8
01
 10
498.3274382508257
 20
-133.2930342194213
 30
0.0
 11
498.3274382508257
 21
-131.7930342194211
 31
0.0
  0
LINE
  5
A0B3
  8
01
 10
492.3274382508257
 20
-133.2930342194213
 30
0.0
 11
492.3274382508257
 21
-131.7930342194214
 31
0.0
  0
LINE
  5
A0B4
  8
01
 10
491.3274382508255
 20
-130.7930342194211
 30
0.0
 11
492.3274382508255
 21
-131.7930342194211
 31
0.0
  0
LINE
  5
A0B5
  8
01
 10
474.2274382508253
 20
-130.9930342194214
 30
0.0
 11
474.2274382508253
 21
-130.7930342194213
 31
0.0
  0
LINE
  5
A0B6
  8
01
 10
470.2296596506116
 20
-131.2930342194213
 30
0.0
 11
470.2296596506116
 21
-130.7930342194213
 31
0.0
  0
LINE
  5
A0B7
  8
01
 10
470.7633366356876
 20
-130.9930342194214
 30
0.0
 11
470.7633366356876
 21
-130.7930342194213
 31
0.0
  0
LINE
  5
A0B8
  8
01
 10
474.2274382508253
 20
-130.9930342194214
 30
0.0
 11
470.7633366356876
 21
-130.9930342194214
 31
0.0
  0
LINE
  5
A0B9
  8
01
 10
463.5274382508256
 20
-133.2930342194215
 30
0.0
 11
463.5274382508256
 21
-133.7930342194211
 31
0.0
  0
LINE
  5
A0BA
  8
01
 10
465.5274382508256
 20
-133.2930342194215
 30
0.0
 11
465.5274382508256
 21
-133.7930342194211
 31
0.0
  0
ARC
  5
A0BB
  8
01
 10
452.2491876646733
 20
-131.2930342194214
 30
0.0
 40
0.5
 50
90.00000000000009
 51
180.0
  0
LINE
  5
A0BC
  8
01
 10
453.0596688546956
 20
-133.2930342194215
 30
0.0
 11
453.0596688546956
 21
-133.7930342194211
 31
0.0
  0
LINE
  5
A0BD
  8
01
 10
447.7274382508256
 20
-131.2930342194213
 30
0.0
 11
447.7274382508256
 21
-133.7930342194211
 31
0.0
  0
LINE
  5
A0C0
  8
01
 10
463.5274382508256
 20
-133.2930342194216
 30
0.0
 11
453.0596688546956
 21
-133.2930342194216
 31
0.0
  0
ARC
  5
A0C1
  8
01
 10
488.8274382508257
 20
-138.7930342194218
 30
0.0
 40
0.5
 50
359.9999999999999
 51
90.00000000000055
  0
LINE
  5
A0C2
  8
01
 10
500.2274382508256
 20
-140.2930342194223
 30
0.0
 11
496.8899573399008
 21
-140.2930342194222
 31
0.0
  0
LINE
  5
A0C4
  8
01
 10
502.7274382508256
 20
-140.7930342194216
 30
0.0
 11
500.2274382508253
 21
-140.7930342194216
 31
0.0
  0
LINE
  5
A0C6
  8
01
 10
502.7274382508256
 20
-136.2930342194217
 30
0.0
 11
500.2274382508253
 21
-136.2930342194217
 31
0.0
  0
LINE
  5
A0C7
  8
01
 10
502.7274382508256
 20
-136.2930342194217
 30
0.0
 11
502.7274382508256
 21
-140.7930342194216
 31
0.0
  0
LINE
  5
A0C8
  8
01
 10
498.3274382508257
 20
-136.7930342194216
 30
0.0
 11
496.6399391618512
 21
-136.7930342194216
 31
0.0
  0
LINE
  5
A0C9
  8
01
 10
499.3274382508257
 20
-135.7930342194216
 30
0.0
 11
498.3274382508257
 21
-136.7930342194216
 31
0.0
  0
LINE
  5
A0CA
  8
01
 10
498.3274382508257
 20
-140.2930342194216
 30
0.0
 11
498.3274382508257
 21
-136.7930342194216
 31
0.0
  0
LINE
  5
A0CB
  8
01
 10
500.2274382508256
 20
-140.2930342194216
 30
0.0
 11
500.2274382508256
 21
-140.7930342194216
 31
0.0
  0
ARC
  5
A0CC
  8
01
 10
499.7274382508253
 20
-136.2930342194216
 30
0.0
 40
0.5
 50
0.000000000000007
 51
90.00000000000024
  0
LINE
  5
A0CD
  8
01
 10
491.3274382508255
 20
-135.7930342194216
 30
0.0
 11
492.3274382508255
 21
-136.7930342194216
 31
0.0
  0
LINE
  5
A0CE
  8
01
 10
492.3274382508257
 20
-140.2930342194216
 30
0.0
 11
492.3274382508257
 21
-136.7930342194218
 31
0.0
  0
LINE
  5
A0CF
  8
01
 10
489.3274382508257
 20
-140.2930342194222
 30
0.0
 11
489.3274382508257
 21
-138.7930342194218
 31
0.0
  0
LINE
  5
A0D0
  8
01
 10
470.2296596506116
 20
-136.2930342194217
 30
0.0
 11
447.7274382508256
 21
-136.2930342194217
 31
0.0
  0
LINE
  5
A0D1
  8
01
 10
488.8274382508257
 20
-138.2930342194218
 30
0.0
 11
466.0274382508256
 21
-138.2930342194218
 31
0.0
  0
LINE
  5
A0D2
  8
01
 10
474.2274382508253
 20
-135.9930342194218
 30
0.0
 11
474.2274382508253
 21
-135.7930342194217
 31
0.0
  0
LINE
  5
A0D3
  8
01
 10
470.2296596506116
 20
-136.2930342194217
 30
0.0
 11
470.2296596506116
 21
-135.7930342194217
 31
0.0
  0
LINE
  5
A0D4
  8
01
 10
470.7633366356876
 20
-135.9930342194218
 30
0.0
 11
470.7633366356876
 21
-135.7930342194217
 31
0.0
  0
LINE
  5
A0D5
  8
01
 10
474.2274382508253
 20
-135.9930342194218
 30
0.0
 11
470.7633366356876
 21
-135.9930342194218
 31
0.0
  0
ARC
  5
A0D6
  8
01
 10
466.0274382508256
 20
-138.7930342194218
 30
0.0
 40
0.5
 50
90.00000000000031
 51
180.0
  0
LINE
  5
A0D7
  8
01
 10
465.5274382508256
 20
-138.7930342194218
 30
0.0
 11
465.5274382508256
 21
-140.7930342194216
 31
0.0
  0
LINE
  5
A0D8
  8
01
 10
463.5274382508256
 20
-140.2930342194217
 30
0.0
 11
453.0596688546956
 21
-140.2930342194215
 31
0.0
  0
LINE
  5
A0D9
  8
01
 10
463.0274382508256
 20
-138.2930342194221
 30
0.0
 11
452.2274382508255
 21
-138.2930342194219
 31
0.0
  0
ARC
  5
A0DA
  8
01
 10
463.0274382508256
 20
-138.7930342194221
 30
0.0
 40
0.5
 50
0.000000000000007
 51
89.99999999999945
  0
LINE
  5
A0DB
  8
01
 10
463.5274382508256
 20
-138.7930342194221
 30
0.0
 11
463.5274382508256
 21
-140.7930342194216
 31
0.0
  0
LINE
  5
A0DC
  8
01
 10
453.0596688546956
 20
-140.2930342194215
 30
0.0
 11
453.0596688546956
 21
-140.7930342194216
 31
0.0
  0
ARC
  5
A0DD
  8
01
 10
452.2274382508255
 20
-138.7930342194219
 30
0.0
 40
0.5
 50
89.99999999999943
 51
180.0
  0
LINE
  5
A0DE
  8
01
 10
451.7274382508255
 20
-138.7930342194219
 30
0.0
 11
451.7274382508255
 21
-140.7930342194216
 31
0.0
  0
LINE
  5
A0E0
  8
01
 10
447.7274382508256
 20
-136.2930342194217
 30
0.0
 11
447.7274382508256
 21
-140.7930342194216
 31
0.0
  0
LINE
  5
A0E5
  8
01
 10
494.0149391618519
 20
-130.7930342194211
 30
0.0
 11
452.2491876646733
 21
-130.7930342194214
 31
0.0
  0
LINE
  5
A0E6
  8
01
 10
494.0149391618519
 20
-130.7930342194209
 30
0.0
 11
391.4346804244727
 21
-130.7930342194228
 31
0.0
  0
LINE
  5
A0E9
  8
01
 10
494.0149391618519
 20
-133.2930342194213
 30
0.0
 11
465.5274382508256
 21
-133.2930342194215
 31
0.0
  0
LINE
  5
A0EA
  8
01
 10
494.0149391618519
 20
-134.2930342194214
 30
0.0
 11
492.3274382508255
 21
-134.2930342194214
 31
0.0
  0
LINE
  5
A0EB
  8
01
 10
494.0149391618519
 20
-135.7930342194215
 30
0.0
 11
465.5274382508256
 21
-135.7930342194217
 31
0.0
  0
LINE
  5
A0EC
  8
01
 10
493.7649573399692
 20
-136.7930342194216
 30
0.0
 11
492.3274382508255
 21
-136.7930342194216
 31
0.0
  0
LINE
  5
A0ED
  8
01
 10
494.0149391618519
 20
-131.7930342194211
 30
0.0
 11
492.3274382508255
 21
-131.7930342194211
 31
0.0
  0
LINE
  5
A0EE
  8
01
 10
494.0149391618518
 20
-140.2930342194222
 30
0.0
 11
465.5274382508256
 21
-140.2930342194216
 31
0.0
  0
LINE
  5
A0EF
  8
01
 10
494.0149391618518
 20
-141.2930342194217
 30
0.0
 11
492.3274382508255
 21
-141.2930342194217
 31
0.0
  0
LINE
  5
A0F1
  8
01
 10
494.0149391618518
 20
-144.7930342194223
 30
0.0
 11
465.5274382508256
 21
-144.7930342194217
 31
0.0
  0
LINE
  5
A0F2
  8
01
 10
520.1805727162267
 20
-145.2930342194217
 30
0.0
 11
496.6399391618514
 21
-145.2930342194218
 31
0.0
  0
LINE
  5
A111
  8
01
 10
498.3274391618515
 20
-148.0405115194216
 30
0.0
 11
499.3274391618515
 21
-145.2930342194217
 31
0.0
  0
LINE
  5
A113
  8
01
 10
498.3274391618515
 20
-152.7930342194217
 30
0.0
 11
498.3274391618515
 21
-148.0405115194216
 31
0.0
  0
LINE
  5
A114
  8
01
 10
491.3274391618515
 20
-145.2930342194218
 30
0.0
 11
492.3274391618515
 21
-148.0405115194218
 31
0.0
  0
LINE
  5
A115
  8
01
 10
497.5774391618515
 20
-152.7930342194217
 30
0.0
 11
498.3274391618515
 21
-152.7930342194217
 31
0.0
  0
LINE
  5
A116
  8
01
 10
492.3274391618515
 20
-148.0405115194218
 30
0.0
 11
492.3274391618515
 21
-152.7930342194217
 31
0.0
  0
LINE
  5
A117
  8
01
 10
497.5774391618515
 20
-160.0920717331747
 30
0.0
 11
497.5774391618515
 21
-152.7930342194217
 31
0.0
  0
LINE
  5
A118
  8
01
 10
492.3274391618515
 20
-152.7930342194217
 30
0.0
 11
493.0774391618515
 21
-152.7930342194218
 31
0.0
  0
LINE
  5
A119
  8
01
 10
501.2114132618515
 20
-153.7978436194217
 30
0.0
 11
497.5774391618515
 21
-160.0920717331747
 31
0.0
  0
LINE
  5
A11A
  8
01
 10
493.0774391618515
 20
-145.2930342194217
 30
0.0
 11
493.0774391618515
 21
-152.2930342194218
 31
0.0
  0
LINE
  5
A11B
  8
01
 10
502.0774386618515
 20
-153.7978436194217
 30
0.0
 11
501.2114132618515
 21
-153.7978436194217
 31
0.0
  0
LINE
  5
A11C
  8
01
 10
493.0774391618517
 20
-160.0920717331747
 30
0.0
 11
489.4434650618516
 21
-153.7978436194215
 31
0.0
  0
LINE
  5
A11D
  8
01
 10
498.3274391618515
 20
-160.2930333533961
 30
0.0
 11
502.0774386618515
 21
-153.7978436194217
 31
0.0
  0
LINE
  5
A11E
  8
01
 10
489.4434650618516
 20
-153.7978436194215
 30
0.0
 11
488.5774396618515
 21
-153.7978436194217
 31
0.0
  0
LINE
  5
A11F
  8
01
 10
498.3274391618515
 20
-173.7930335194218
 30
0.0
 11
498.3274391618515
 21
-160.2930333533961
 31
0.0
  0
LINE
  5
A120
  8
01
 10
488.5774396618515
 20
-153.7978436194217
 30
0.0
 11
492.3274391618515
 21
-160.2930333533963
 31
0.0
  0
LINE
  5
A121
  8
01
 10
496.8274380618517
 20
-175.2930342194217
 30
0.0
 11
498.3274391618515
 21
-173.7930335194218
 31
0.0
  0
LINE
  5
A122
  8
01
 10
492.3274391618515
 20
-160.2930333533963
 30
0.0
 11
492.3274391618515
 21
-173.7930335194218
 31
0.0
  0
LINE
  5
A123
  8
01
 10
493.8274402618516
 20
-175.2930342194217
 30
0.0
 11
496.8274380618517
 21
-175.2930342194217
 31
0.0
  0
LINE
  5
A124
  8
01
 10
492.3274391618515
 20
-173.7930335194218
 30
0.0
 11
493.8274402618516
 21
-175.2930342194217
 31
0.0
  0
LINE
  5
A125
  8
01
 10
494.0149391618518
 20
-145.2930342194217
 30
0.0
 11
391.4346804244727
 21
-145.2930342194217
 31
0.0
  0
LINE
  5
A126
  8
01
 10
493.0774391618515
 20
-152.2930342194218
 30
0.0
 11
494.0149391618517
 21
-152.2930342194219
 31
0.0
  0
LINE
  5
A127
  8
01
 10
496.6399391618514
 20
-152.2930342194217
 30
0.0
 11
497.5774391618515
 21
-152.2930342194217
 31
0.0
  0
LINE
  5
A128
  8
01
 10
497.5774391618515
 20
-152.2930342194217
 30
0.0
 11
497.5774391618515
 21
-145.2930342194218
 31
0.0
  0
LINE
  5
A129
  8
01
 10
493.0774391618515
 20
-152.7930342194218
 30
0.0
 11
493.0774391618517
 21
-160.0920717331747
 31
0.0
  0
LINE
  5
A142
  8
01
 10
447.2274382508256
 20
-130.7930342194213
 30
0.0
 11
447.2274382508256
 21
-145.2930342194217
 31
0.0
  0
LINE
  5
A143
  8
01
 10
503.2274382508256
 20
-130.7930342194212
 30
0.0
 11
503.2274382508255
 21
-145.2930342194217
 31
0.0
  0
TEXT
  5
A2B2
  8
1TEXT
 10
228.5220045641991
 20
-274.2048847394306
 30
0.0
 40
4.0
  1
カーペットベース素材＝6ナイロン（黒色）
 72
     1
 11
274.4692267864212
 21
-274.2048847394306
 31
0.0
  0
LINE
  5
AB1B
  8
01
 10
260.0104984204736
 20
-123.5645497877884
 30
0.0
 11
262.0104984204736
 21
-120.1004481726507
 31
0.0
  0
LINE
  5
AB1C
  8
01
 10
258.0104984204736
 20
-120.1004481726505
 30
0.0
 11
262.0104984204736
 21
-120.1004481726507
 31
0.0
  0
LINE
  5
AB1D
  8
01
 10
260.0104984204736
 20
-123.5645497877884
 30
0.0
 11
258.0104984204736
 21
-120.1004481726505
 31
0.0
  0
LINE
  5
AB1F
  8
01
 10
463.0274391618516
 20
-162.0430342194218
 30
0.0
 11
463.0274391618516
 21
-163.9180342194218
 31
0.0
  0
LINE
  5
AB20
  8
01
 10
465.5274392618516
 20
-160.2930342194218
 30
0.0
 11
463.5274392218516
 21
-164.0430342194218
 31
0.0
  0
LINE
  5
AB21
  8
01
 10
466.0274391618516
 20
-167.7930342194218
 30
0.0
 11
466.0274391618516
 21
-169.6680342194218
 31
0.0
  0
LINE
  5
AB22
  8
01
 10
466.0274391618516
 20
-164.0430342194218
 30
0.0
 11
466.0274391618516
 21
-165.9180342194218
 31
0.0
  0
LINE
  5
AB23
  8
01
 10
466.0274391618516
 20
-171.5430342194218
 30
0.0
 11
466.0274391618516
 21
-173.4180342194218
 31
0.0
  0
LINE
  5
AB24
  8
01
 10
466.0274391618516
 20
-167.7930342194218
 30
0.0
 11
467.5274391618516
 21
-167.7930342194218
 31
0.0
  0
LINE
  5
AB25
  8
01
 10
466.0274391618516
 20
-165.9180342194218
 30
0.0
 11
467.5274391618516
 21
-165.9180342194218
 31
0.0
  0
LINE
  5
AB26
  8
01
 10
466.0274391618516
 20
-164.0430342194218
 30
0.0
 11
467.5274391618516
 21
-164.0430342194218
 31
0.0
  0
LINE
  5
AB27
  8
01
 10
466.0274391618516
 20
-171.5430342194218
 30
0.0
 11
467.5274391618516
 21
-171.5430342194218
 31
0.0
  0
LINE
  5
AB28
  8
01
 10
466.0274391618516
 20
-173.4180342194218
 30
0.0
 11
467.5274391618516
 21
-173.4180342194218
 31
0.0
  0
LINE
  5
AB29
  8
01
 10
466.0274391618516
 20
-169.6680342194218
 30
0.0
 11
467.5274391618516
 21
-169.6680342194218
 31
0.0
  0
LINE
  5
AB2A
  8
01
 10
463.0274391618516
 20
-165.7930342194218
 30
0.0
 11
463.0274391618516
 21
-167.6680342194218
 31
0.0
  0
LINE
  5
AB2B
  8
01
 10
463.0274391618516
 20
-169.5430342194218
 30
0.0
 11
463.0274391618516
 21
-171.4180342194218
 31
0.0
  0
LINE
  5
AB2C
  8
01
 10
463.5274397618516
 20
-164.0430342194218
 30
0.0
 11
465.5274397618516
 21
-167.7930342194218
 31
0.0
  0
LINE
  5
AB2D
  8
01
 10
464.5274391618516
 20
-169.6680342194218
 30
0.0
 11
464.5274391618516
 21
-175.2930342194218
 31
0.0
  0
LINE
  5
AB2E
  8
01
 10
464.5274396533708
 20
-169.6680342194218
 30
0.0
 11
465.5274396618516
 21
-167.7930342194218
 31
0.0
  0
LINE
  5
AB2F
  8
01
 10
461.5274391618516
 20
-163.9180342194218
 30
0.0
 11
463.0274391618516
 21
-163.9180342194218
 31
0.0
  0
LINE
  5
AB30
  8
01
 10
461.5274391618516
 20
-165.7930342194218
 30
0.0
 11
463.0274391618516
 21
-165.7930342194218
 31
0.0
  0
LINE
  5
AB31
  8
01
 10
461.5274391618516
 20
-167.6680342194218
 30
0.0
 11
463.0274391618516
 21
-167.6680342194218
 31
0.0
  0
LINE
  5
AB32
  8
01
 10
461.5274391618516
 20
-169.5430342194218
 30
0.0
 11
463.0274391618516
 21
-169.5430342194218
 31
0.0
  0
LINE
  5
AB33
  8
01
 10
461.5274391618516
 20
-171.4180342194218
 30
0.0
 11
463.0274391618516
 21
-171.4180342194218
 31
0.0
  0
LINE
  5
AB34
  8
01
 10
467.5274391618516
 20
-145.2930342194218
 30
0.0
 11
467.5274391618516
 21
-148.0405115194217
 31
0.0
  0
CIRCLE
  5
AB35
  8
01
 10
464.5274391618516
 20
-150.7930342194218
 30
0.0
 40
0.5
  0
LINE
  5
AB36
  8
01
 10
464.5274391618516
 20
-151.2930342194218
 30
0.0
 11
464.5274391618516
 21
-158.4180342194218
 31
0.0
  0
LINE
  5
AB37
  8
01
 10
465.5274388618516
 20
-160.2930342194218
 30
0.0
 11
464.52743885835
 21
-158.4180342194218
 31
0.0
  0
LINE
  5
AB38
  8
01
 10
461.5274391618516
 20
-145.2930342194218
 30
0.0
 11
461.5274391618516
 21
-148.0405115194219
 31
0.0
  0
LINE
  5
AB39
  8
01
 10
461.5274391618516
 20
-162.0430342194218
 30
0.0
 11
463.0274391618516
 21
-162.0430342194218
 31
0.0
  0
LINE
  5
AB3A
  8
01
 10
467.5274391618516
 20
-148.0405115194216
 30
0.0
 11
468.5274391618515
 21
-145.2930342194217
 31
0.0
  0
LINE
  5
AB3B
  8
01
 10
468.5274391618515
 20
-145.2930342194217
 30
0.0
 11
460.5274391618516
 21
-145.2930342194218
 31
0.0
  0
LINE
  5
AB3C
  8
01
 10
460.5274391618516
 20
-145.2930342194218
 30
0.0
 11
461.5274391618516
 21
-148.0405115194218
 31
0.0
  0
LINE
  5
AB3D
  8
01
 10
461.5274391618516
 20
-148.0405115194218
 30
0.0
 11
461.5274391618516
 21
-152.7930342194217
 31
0.0
  0
LINE
  5
AB3E
  8
01
 10
461.5274391618516
 20
-152.7930342194217
 30
0.0
 11
462.2774391618516
 21
-152.7930342194218
 31
0.0
  0
LINE
  5
AB3F
  8
01
 10
462.2774391618516
 20
-152.7930342194218
 30
0.0
 11
462.2774391618516
 21
-160.0920717331747
 31
0.0
  0
LINE
  5
AB40
  8
01
 10
462.2774391618516
 20
-160.0920717331747
 30
0.0
 11
458.6434650618515
 21
-153.7978436194215
 31
0.0
  0
LINE
  5
AB41
  8
01
 10
458.6434650618515
 20
-153.7978436194215
 30
0.0
 11
457.7774396618515
 21
-153.7978436194217
 31
0.0
  0
LINE
  5
AB42
  8
01
 10
457.7774396618515
 20
-153.7978436194217
 30
0.0
 11
461.5274391618516
 21
-160.2930333533963
 31
0.0
  0
LINE
  5
AB43
  8
01
 10
461.5274391618516
 20
-160.2930333533963
 30
0.0
 11
461.5274391618516
 21
-173.7930335194218
 31
0.0
  0
LINE
  5
AB44
  8
01
 10
461.5274391618516
 20
-173.7930335194218
 30
0.0
 11
463.0274402618516
 21
-175.2930342194217
 31
0.0
  0
LINE
  5
AB45
  8
01
 10
463.0274402618516
 20
-175.2930342194217
 30
0.0
 11
466.0274380618517
 21
-175.2930342194217
 31
0.0
  0
LINE
  5
AB46
  8
01
 10
466.0274380618517
 20
-175.2930342194217
 30
0.0
 11
467.5274391618516
 21
-173.7930335194218
 31
0.0
  0
LINE
  5
AB47
  8
01
 10
467.5274391618516
 20
-173.7930335194218
 30
0.0
 11
467.5274391618516
 21
-160.2930333533961
 31
0.0
  0
LINE
  5
AB48
  8
01
 10
467.5274391618516
 20
-160.2930333533961
 30
0.0
 11
471.2774386618515
 21
-153.7978436194217
 31
0.0
  0
LINE
  5
AB49
  8
01
 10
471.2774386618515
 20
-153.7978436194217
 30
0.0
 11
470.4114132618515
 21
-153.7978436194217
 31
0.0
  0
LINE
  5
AB4A
  8
01
 10
470.4114132618515
 20
-153.7978436194217
 30
0.0
 11
466.7774391618516
 21
-160.0920717331747
 31
0.0
  0
LINE
  5
AB4B
  8
01
 10
466.7774391618516
 20
-160.0920717331747
 30
0.0
 11
466.7774391618516
 21
-152.7930342194217
 31
0.0
  0
LINE
  5
AB4C
  8
01
 10
466.7774391618516
 20
-152.7930342194217
 30
0.0
 11
467.5274391618516
 21
-152.7930342194217
 31
0.0
  0
LINE
  5
AB4D
  8
01
 10
467.5274391618516
 20
-152.7930342194217
 30
0.0
 11
467.5274391618516
 21
-148.0405115194216
 31
0.0
  0
LINE
  5
AB50
  8
1DIM
 10
391.4346804244725
 20
-120.7930342194218
 30
0.0
 11
377.8865921128394
 21
-120.7930342194218
 31
0.0
  0
LINE
  5
AB51
  8
1DIM
 10
391.4346804244727
 20
-130.7930342194228
 30
0.0
 11
377.8865921128394
 21
-130.7930342194228
 31
0.0
  0
LINE
  5
AB52
  8
1DIM
 10
378.8865921128394
 20
-122.7930342194218
 30
0.0
 11
378.8865921128394
 21
-128.7930342194228
 31
0.0
  0
LINE
  5
AB53
  8
1DIM
 10
378.8865921128394
 20
-130.7930342194228
 30
0.0
 11
378.8865921128394
 21
-152.3263675527562
 31
0.0
  0
LINE
  5
AB57
  8
1DIM
 10
425.9346804163744
 20
-127.2930342194219
 30
0.0
 11
385.3997305876223
 21
-127.2930342194219
 31
0.0
  0
LINE
  5
AB58
  8
1DIM
 10
391.4346804244727
 20
-130.7930342194228
 30
0.0
 11
385.3997305876223
 21
-130.7930342194228
 31
0.0
  0
LINE
  5
AB59
  8
1DIM
 10
386.3997305876223
 20
-125.2930342194219
 30
0.0
 11
386.3997305876223
 21
-123.2930342194219
 31
0.0
  0
LINE
  5
AB5A
  8
1DIM
 10
386.3997305876223
 20
-132.7930342194228
 30
0.0
 11
386.3997305876223
 21
-138.6930342194228
 31
0.0
  0
LINE
  5
AB5B
  8
1DIM
 10
386.3997305876223
 20
-127.2930342194219
 30
0.0
 11
386.3997305876223
 21
-130.7930342194228
 31
0.0
  0
LINE
  5
AB5F
  8
1DIM
 10
438.4346804244725
 20
-94.79303421942174
 30
0.0
 11
438.4346804244725
 21
-82.38785660244699
 31
0.0
1001
ACAD
1000
DSTYLE
1002
{
1070
    75
1070
     1
1002
}
  0
LINE
  5
AB60
  8
1DIM
 10
423.4346804244725
 20
-83.38785660244699
 30
0.0
 11
436.4346804244725
 21
-83.38785660244699
 31
0.0
1001
ACAD
1000
DSTYLE
1002
{
1070
    75
1070
     1
1002
}
  0
LINE
  5
AB64
  8
1DIM
 10
520.1805727162266
 20
-130.7930342194204
 30
0.0
 11
531.2557791355217
 21
-130.7930342194204
 31
0.0
  0
LINE
  5
AB65
  8
1DIM
 10
471.7274384395255
 20
-122.2930342194209
 30
0.0
 11
531.2557791355217
 21
-122.2930342194209
 31
0.0
  0
LINE
  5
AB66
  8
1DIM
 10
530.2557791355217
 20
-128.7930342194204
 30
0.0
 11
530.2557791355217
 21
-124.2930342194209
 31
0.0
  0
LINE
  5
AB67
  8
1DIM
 10
530.2557791355217
 20
-122.2930342194209
 30
0.0
 11
530.2557791355217
 21
-111.5597008860876
 31
0.0
  0
LINE
  5
AB6B
  8
1HATCH
 10
307.3947830973729
 20
-90.91723235784843
 30
0.0
 11
307.3947830973729
 21
-79.33343406585527
 31
0.0
1001
ACAD
1000
DSTYLE
1002
{
1070
    48
1040
0.1
1070
     3
1000
<>
1002
}
  0
LINE
  5
AB6C
  8
1HATCH
 10
306.8947830973726
 20
-94.01723235784868
 30
0.0
 11
306.8947830973726
 21
-79.33343406585527
 31
0.0
1001
ACAD
1000
DSTYLE
1002
{
1070
    48
1040
0.1
1070
     3
1000
<>
1002
}
  0
LINE
  5
AB6D
  8
1HATCH
 10
309.3947830973729
 20
-80.33343406585527
 30
0.0
 11
311.3947830973729
 21
-80.33343406585527
 31
0.0
1001
ACAD
1000
DSTYLE
1002
{
1070
    48
1040
0.1
1070
     3
1000
<>
1002
}
  0
LINE
  5
AB6E
  8
1HATCH
 10
304.8947830973726
 20
-80.33343406585527
 30
0.0
 11
294.1614497640393
 21
-80.33343406585527
 31
0.0
1001
ACAD
1000
DSTYLE
1002
{
1070
    48
1040
0.1
1070
     3
1000
<>
1002
}
  0
LINE
  5
AB6F
  8
1HATCH
 10
307.3947830973729
 20
-80.33343406585527
 30
0.0
 11
306.8947830973726
 21
-80.33343406585527
 31
0.0
1001
ACAD
1000
DSTYLE
1002
{
1070
    48
1040
0.1
1070
     3
1000
<>
1002
}
  0
LINE
  5
AB73
  8
1DIM
 10
311.8947830973727
 20
-90.91723235784846
 30
0.0
 11
311.8947830973727
 21
-72.00447218596003
 31
0.0
1001
ACAD
1000
DSTYLE
1002
{
1070
    47
1040
0.1
1070
    48
1040
0.1
1070
     3
1000
<>
1002
}
  0
LINE
  5
AB74
  8
1DIM
 10
306.8947830973726
 20
-94.01723235784868
 30
0.0
 11
306.8947830973726
 21
-72.00447218596003
 31
0.0
1001
ACAD
1000
DSTYLE
1002
{
1070
    47
1040
0.1
1070
    48
1040
0.1
1070
     3
1000
<>
1002
}
  0
LINE
  5
AB75
  8
1DIM
 10
313.8947830973727
 20
-73.00447218596003
 30
0.0
 11
315.8947830973727
 21
-73.00447218596003
 31
0.0
1001
ACAD
1000
DSTYLE
1002
{
1070
    47
1040
0.1
1070
    48
1040
0.1
1070
     3
1000
<>
1002
}
  0
LINE
  5
AB76
  8
1DIM
 10
304.8947830973726
 20
-73.00447218596003
 30
0.0
 11
299.1614497640393
 21
-73.00447218596003
 31
0.0
1001
ACAD
1000
DSTYLE
1002
{
1070
    47
1040
0.1
1070
    48
1040
0.1
1070
     3
1000
<>
1002
}
  0
LINE
  5
AB77
  8
1DIM
 10
311.8947830973727
 20
-73.00447218596003
 30
0.0
 11
306.8947830973726
 21
-73.00447218596003
 31
0.0
1001
ACAD
1000
DSTYLE
1002
{
1070
    47
1040
0.1
1070
    48
1040
0.1
1070
     3
1000
<>
1002
}
  0
LINE
  5
AB7B
  8
1DIM
 10
260.0104984204736
 20
-91.60044817265072
 30
0.0
 11
298.1097494198282
 21
-91.60044817265072
 31
0.0
1001
ACAD
1000
DSTYLE
1002
{
1070
     3
1000
φ<>
1002
}
  0
LINE
  5
AB7C
  8
1DIM
 10
260.0104984204736
 20
-146.6004481726505
 30
0.0
 11
298.1097494198282
 21
-146.6004481726505
 31
0.0
1001
ACAD
1000
DSTYLE
1002
{
1070
     3
1000
φ<>
1002
}
  0
LINE
  5
AB7D
  8
1DIM
 10
297.1097494198282
 20
-93.60044817265072
 30
0.0
 11
297.1097494198282
 21
-144.6004481726505
 31
0.0
1001
ACAD
1000
DSTYLE
1002
{
1070
     3
1000
φ<>
1002
}
  0
LINE
  5
AB81
  8
1DIM
 10
237.7589375948551
 20
-129.8004481726503
 30
0.0
 11
220.0449797106044
 21
-129.8004481726503
 31
0.0
  0
LINE
  5
AB82
  8
1DIM
 10
255.43107290636
 20
-99.0004481726503
 30
0.0
 11
220.0449797106044
 21
-99.0004481726503
 31
0.0
  0
LINE
  5
AB83
  8
1DIM
 10
221.0449797106044
 20
-127.8004481726503
 30
0.0
 11
221.0449797106044
 21
-101.0004481726503
 31
0.0
  0
LINE
  5
AB87
  8
1DIM
 10
230.3249053137882
 20
-119.1004481726506
 30
0.0
 11
226.7999268527597
 21
-119.1004481726506
 31
0.0
  0
LINE
  5
AB88
  8
1DIM
 10
255.43107290636
 20
-99.0004481726503
 30
0.0
 11
226.7999268527597
 21
-99.0004481726503
 31
0.0
  0
LINE
  5
AB89
  8
1DIM
 10
227.7999268527597
 20
-117.1004481726506
 30
0.0
 11
227.7999268527597
 21
-101.0004481726503
 31
0.0
  0
LINE
  5
AB8D
  8
1DIM
 10
245.0104984204736
 20
-134.8465624922025
 30
0.0
 11
245.0104984204736
 21
-165.5641112206796
 31
0.0
  0
LINE
  5
AB8E
  8
1DIM
 10
275.0104984204736
 20
-134.8465624922025
 30
0.0
 11
275.0104984204736
 21
-165.5641112206796
 31
0.0
  0
LINE
  5
AB8F
  8
1DIM
 10
247.0104984204736
 20
-164.5641112206796
 30
0.0
 11
273.0104984204736
 21
-164.5641112206796
 31
0.0
  0
LINE
  5
AB93
  8
1DIM
 10
350.1583325612327
 20
-90.91723235784845
 30
0.0
 11
350.1583325612327
 21
-72.00447218596003
 31
0.0
  0
LINE
  5
AB94
  8
1DIM
 10
347.1583325612326
 20
-93.9172323578486
 30
0.0
 11
347.1583325612326
 21
-72.00447218596003
 31
0.0
  0
LINE
  5
AB95
  8
1DIM
 10
352.1583325612327
 20
-73.00447218596003
 30
0.0
 11
354.1583325612327
 21
-73.00447218596003
 31
0.0
  0
LINE
  5
AB96
  8
1DIM
 10
345.1583325612326
 20
-73.00447218596003
 30
0.0
 11
339.4249992278992
 21
-73.00447218596003
 31
0.0
  0
LINE
  5
AB97
  8
1DIM
 10
350.1583325612327
 20
-73.00447218596003
 30
0.0
 11
347.1583325612326
 21
-73.00447218596003
 31
0.0
  0
LINE
  5
AB9B
  8
1DIM
 10
331.7581339150574
 20
-90.91723235784846
 30
0.0
 11
331.7581339150574
 21
-72.00447218596003
 31
0.0
  0
LINE
  5
AB9C
  8
1DIM
 10
326.7581339150573
 20
-93.9172323578486
 30
0.0
 11
326.7581339150573
 21
-72.00447218596003
 31
0.0
  0
LINE
  5
AB9D
  8
1DIM
 10
333.7581339150574
 20
-73.00447218596003
 30
0.0
 11
335.7581339150574
 21
-73.00447218596003
 31
0.0
  0
LINE
  5
AB9E
  8
1DIM
 10
324.7581339150573
 20
-73.00447218596003
 30
0.0
 11
319.024800581724
 21
-73.00447218596003
 31
0.0
  0
LINE
  5
AB9F
  8
1DIM
 10
331.7581339150574
 20
-73.00447218596003
 30
0.0
 11
326.7581339150573
 21
-73.00447218596003
 31
0.0
  0
LINE
  5
ABA3
  8
1DIM
 10
367.5787008302558
 20
-90.91723235784845
 30
0.0
 11
367.5787008302558
 21
-72.00447218596003
 31
0.0
  0
LINE
  5
ABA4
  8
1DIM
 10
364.5787008302557
 20
-93.9172323578486
 30
0.0
 11
364.5787008302557
 21
-72.00447218596003
 31
0.0
  0
LINE
  5
ABA5
  8
1DIM
 10
369.5787008302558
 20
-73.00447218596003
 30
0.0
 11
371.5787008302558
 21
-73.00447218596003
 31
0.0
  0
LINE
  5
ABA6
  8
1DIM
 10
362.5787008302557
 20
-73.00447218596003
 30
0.0
 11
356.8453674969223
 21
-73.00447218596003
 31
0.0
  0
LINE
  5
ABA7
  8
1DIM
 10
367.5787008302558
 20
-73.00447218596003
 30
0.0
 11
364.5787008302557
 21
-73.00447218596003
 31
0.0
  0
LINE
  5
ABAB
  8
1HATCH
  6
CONTINUOUS
 10
478.8253688501799
 20
-123.1186856819942
 30
0.0
 11
479.3638099411896
 21
-122.5802445909845
 31
0.0
  0
LINE
  5
ABAC
  8
1HATCH
  6
CONTINUOUS
 10
478.9980587309133
 20
-124.2930342194211
 30
0.0
 11
480.7927168538952
 21
-122.4983760964392
 31
0.0
  0
LINE
  5
ABAD
  8
1HATCH
  6
CONTINUOUS
 10
480.3450971490736
 20
-124.2930342194212
 30
0.0
 11
482.1206115187184
 21
-122.5175198497764
 31
0.0
  0
LINE
  5
ABAE
  8
1HATCH
  6
CONTINUOUS
 10
481.692135567234
 20
-124.2930342194212
 30
0.0
 11
483.4485061835416
 21
-122.5366636031136
 31
0.0
  0
LINE
  5
ABAF
  8
1HATCH
  6
CONTINUOUS
 10
483.0391739853944
 20
-124.2930342194212
 30
0.0
 11
484.7764008483647
 21
-122.5558073564508
 31
0.0
  0
LINE
  5
ABB0
  8
1HATCH
  6
CONTINUOUS
 10
484.3862124035547
 20
-124.2930342194212
 30
0.0
 11
486.1042955131879
 21
-122.574951109788
 31
0.0
  0
LINE
  5
ABB1
  8
1HATCH
  6
CONTINUOUS
 10
485.7332508217151
 20
-124.2930342194212
 30
0.0
 11
487.4321901780111
 21
-122.5940948631251
 31
0.0
  0
LINE
  5
ABB2
  8
1HATCH
  6
CONTINUOUS
 10
487.0802892398755
 20
-124.2930342194212
 30
0.0
 11
488.7600848428343
 21
-122.6132386164623
 31
0.0
  0
LINE
  5
ABB3
  8
1HATCH
  6
CONTINUOUS
 10
488.4273276580358
 20
-124.2930342194212
 30
0.0
 11
490.0879795076575
 21
-122.6323823697995
 31
0.0
  0
LINE
  5
ABB4
  8
1HATCH
  6
CONTINUOUS
 10
489.7743660761962
 20
-124.2930342194212
 30
0.0
 11
491.4158741724807
 21
-122.6515261231367
 31
0.0
  0
LINE
  5
ABB5
  8
1HATCH
  6
CONTINUOUS
 10
491.1214044943566
 20
-124.2930342194212
 30
0.0
 11
492.7437688373039
 21
-122.6706698764739
 31
0.0
  0
LINE
  5
ABB6
  8
1HATCH
  6
CONTINUOUS
 10
492.4684429125169
 20
-124.2930342194212
 30
0.0
 11
494.0716635021271
 21
-122.689813629811
 31
0.0
  0
LINE
  5
ABB7
  8
1HATCH
  6
CONTINUOUS
 10
493.8154813306773
 20
-124.2930342194212
 30
0.0
 11
495.3995581669503
 21
-122.7089573831482
 31
0.0
  0
LINE
  5
ABB8
  8
1HATCH
  6
CONTINUOUS
 10
495.1625197488377
 20
-124.2930342194212
 30
0.0
 11
496.7274528317735
 21
-122.7281011364854
 31
0.0
  0
LINE
  5
ABB9
  8
1HATCH
  6
CONTINUOUS
 10
496.509558166998
 20
-124.2930342194212
 30
0.0
 11
498.0553474965967
 21
-122.7472448898226
 31
0.0
  0
LINE
  5
ABBA
  8
1HATCH
  6
CONTINUOUS
 10
497.8565965851584
 20
-124.2930342194212
 30
0.0
 11
499.3832421614198
 21
-122.7663886431598
 31
0.0
  0
LINE
  5
ABBB
  8
1HATCH
  6
CONTINUOUS
 10
499.0274382508259
 20
-124.4692309719141
 30
0.0
 11
500.310371586414
 21
-123.186297636326
 31
0.0
  0
LINE
  5
ABBC
  8
1HATCH
  6
CONTINUOUS
 10
499.0274382508259
 20
-125.8162693900745
 30
0.0
 11
500.5274382508259
 21
-124.3162693900745
 31
0.0
  0
LINE
  5
ABBD
  8
1HATCH
  6
CONTINUOUS
 10
499.0977118396395
 20
-127.0930342194212
 30
0.0
 11
500.5274382508259
 21
-125.6633078082348
 31
0.0
  0
LINE
  5
ABBE
  8
1HATCH
  6
CONTINUOUS
 10
500.4447502578005
 20
-127.0930342194207
 30
0.0
 11
500.527438250826
 21
-127.0103462263952
 31
0.0
  0
LINE
  5
ABBF
  8
1HATCH
  6
CONTINUOUS
 10
444.2274382508255
 20
-129.8778223060342
 30
0.0
 11
446.8122263374393
 21
-127.2930342194203
 31
0.0
  0
LINE
  5
ABC0
  8
1HATCH
  6
CONTINUOUS
 10
446.5572903677066
 20
-129.7930342194204
 30
0.0
 11
449.0572903677065
 21
-127.2930342194204
 31
0.0
  0
LINE
  5
ABC1
  8
1HATCH
  6
CONTINUOUS
 10
448.8023543979738
 20
-129.7930342194204
 30
0.0
 11
449.2274382508255
 21
-129.3679503665688
 31
0.0
  0
LINE
  5
ABC2
  8
1HATCH
  6
CONTINUOUS
 10
450.3023543979738
 20
-128.2930342194205
 30
0.0
 11
451.3023543979738
 21
-127.2930342194205
 31
0.0
  0
LINE
  5
ABC3
  8
1HATCH
  6
CONTINUOUS
 10
499.6937630638529
 20
-128.2930342194216
 30
0.0
 11
500.6937630638528
 21
-127.2930342194218
 31
0.0
  0
LINE
  5
ABC4
  8
1HATCH
  6
CONTINUOUS
 10
501.2274382508258
 20
-129.0044230627161
 30
0.0
 11
502.9388270941199
 21
-127.293034219422
 31
0.0
  0
LINE
  5
ABC5
  8
1HATCH
  6
CONTINUOUS
 10
502.6838911243875
 20
-129.7930342194217
 30
0.0
 11
504.6377212968021
 21
-127.8392040470071
 31
0.0
  0
LINE
  5
ABC6
  8
1HATCH
  6
CONTINUOUS
 10
504.9274382508257
 20
-129.7945511232507
 30
0.0
 11
505.9270780226558
 21
-128.7949113514206
 31
0.0
  0
LINE
  5
ABC7
  8
1HATCH
  6
CONTINUOUS
 10
445.7241421621122
 20
-130.6907224347373
 30
0.0
 11
445.9646769944611
 21
-129.7930342194213
 31
0.0
  0
LINE
  5
ABC8
  8
1HATCH
  6
CONTINUOUS
 10
446.3541281765904
 20
-130.7930342194213
 30
0.0
 11
446.6220773690215
 21
-129.7930342194213
 31
0.0
  0
LINE
  5
ABC9
  8
1HATCH
  6
CONTINUOUS
 10
447.0115285511508
 20
-130.7930342194213
 30
0.0
 11
447.2794777435819
 21
-129.7930342194213
 31
0.0
  0
LINE
  5
ABCA
  8
1HATCH
  6
CONTINUOUS
 10
447.6689289257112
 20
-130.7930342194213
 30
0.0
 11
447.9368781181423
 21
-129.7930342194213
 31
0.0
  0
LINE
  5
ABCB
  8
1HATCH
  6
CONTINUOUS
 10
448.3263293002716
 20
-130.7930342194213
 30
0.0
 11
448.5942784927027
 21
-129.7930342194213
 31
0.0
  0
LINE
  5
ABCC
  8
1HATCH
  6
CONTINUOUS
 10
448.983729674832
 20
-130.7930342194213
 30
0.0
 11
449.2516788672631
 21
-129.7930342194213
 31
0.0
  0
LINE
  5
ABCD
  8
1HATCH
  6
CONTINUOUS
 10
449.6411300493924
 20
-130.7930342194213
 30
0.0
 11
449.9090792418235
 21
-129.7930342194213
 31
0.0
  0
LINE
  5
ABCE
  8
1HATCH
  6
CONTINUOUS
 10
450.2985304239528
 20
-130.7930342194213
 30
0.0
 11
450.566479616384
 21
-129.7930342194213
 31
0.0
  0
LINE
  5
ABCF
  8
1HATCH
  6
CONTINUOUS
 10
450.9559307985132
 20
-130.7930342194213
 30
0.0
 11
451.2238799909443
 21
-129.7930342194213
 31
0.0
  0
LINE
  5
ABD0
  8
1HATCH
  6
CONTINUOUS
 10
451.6133311730736
 20
-130.7930342194213
 30
0.0
 11
451.8812803655047
 21
-129.7930342194213
 31
0.0
  0
LINE
  5
ABD1
  8
1HATCH
  6
CONTINUOUS
 10
452.270731547634
 20
-130.7930342194213
 30
0.0
 11
452.5386807400652
 21
-129.7930342194213
 31
0.0
  0
LINE
  5
ABD2
  8
1HATCH
  6
CONTINUOUS
 10
452.9281319221944
 20
-130.7930342194213
 30
0.0
 11
453.1960811146255
 21
-129.7930342194213
 31
0.0
  0
LINE
  5
ABD3
  8
1HATCH
  6
CONTINUOUS
 10
453.5855322967548
 20
-130.7930342194213
 30
0.0
 11
453.8534814891859
 21
-129.7930342194213
 31
0.0
  0
LINE
  5
ABD4
  8
1HATCH
  6
CONTINUOUS
 10
454.2429326713153
 20
-130.7930342194213
 30
0.0
 11
454.5108818637464
 21
-129.7930342194213
 31
0.0
  0
LINE
  5
ABD5
  8
1HATCH
  6
CONTINUOUS
 10
454.9003330458756
 20
-130.7930342194213
 30
0.0
 11
455.1682822383067
 21
-129.7930342194213
 31
0.0
  0
LINE
  5
ABD6
  8
1HATCH
  6
CONTINUOUS
 10
455.557733420436
 20
-130.7930342194213
 30
0.0
 11
455.8256826128672
 21
-129.7930342194213
 31
0.0
  0
LINE
  5
ABD7
  8
1HATCH
  6
CONTINUOUS
 10
456.2151337949965
 20
-130.7930342194213
 30
0.0
 11
456.4830829874276
 21
-129.7930342194213
 31
0.0
  0
LINE
  5
ABD8
  8
1HATCH
  6
CONTINUOUS
 10
456.8725341695568
 20
-130.7930342194213
 30
0.0
 11
457.140483361988
 21
-129.7930342194213
 31
0.0
  0
LINE
  5
ABD9
  8
1HATCH
  6
CONTINUOUS
 10
457.5299345441173
 20
-130.7930342194213
 30
0.0
 11
457.7978837365484
 21
-129.7930342194213
 31
0.0
  0
LINE
  5
ABDA
  8
1HATCH
  6
CONTINUOUS
 10
458.1873349186777
 20
-130.7930342194213
 30
0.0
 11
458.4552841111088
 21
-129.7930342194213
 31
0.0
  0
LINE
  5
ABDB
  8
1HATCH
  6
CONTINUOUS
 10
458.844735293238
 20
-130.7930342194213
 30
0.0
 11
459.1126844856692
 21
-129.7930342194213
 31
0.0
  0
LINE
  5
ABDC
  8
1HATCH
  6
CONTINUOUS
 10
459.5021356677985
 20
-130.7930342194213
 30
0.0
 11
459.7700848602296
 21
-129.7930342194213
 31
0.0
  0
LINE
  5
ABDD
  8
1HATCH
  6
CONTINUOUS
 10
460.1595360423589
 20
-130.7930342194213
 30
0.0
 11
460.42748523479
 21
-129.7930342194213
 31
0.0
  0
LINE
  5
ABDE
  8
1HATCH
  6
CONTINUOUS
 10
460.8169364169192
 20
-130.7930342194213
 30
0.0
 11
461.0848856093504
 21
-129.7930342194213
 31
0.0
  0
LINE
  5
ABDF
  8
1HATCH
  6
CONTINUOUS
 10
461.4743367914797
 20
-130.7930342194213
 30
0.0
 11
461.7422859839108
 21
-129.7930342194213
 31
0.0
  0
LINE
  5
ABE0
  8
1HATCH
  6
CONTINUOUS
 10
462.1317371660401
 20
-130.7930342194213
 30
0.0
 11
462.3996863584712
 21
-129.7930342194213
 31
0.0
  0
LINE
  5
ABE1
  8
1HATCH
  6
CONTINUOUS
 10
462.7891375406005
 20
-130.7930342194213
 30
0.0
 11
463.0570867330316
 21
-129.7930342194213
 31
0.0
  0
LINE
  5
ABE2
  8
1HATCH
  6
CONTINUOUS
 10
463.4465379151609
 20
-130.7930342194213
 30
0.0
 11
463.714487107592
 21
-129.7930342194213
 31
0.0
  0
LINE
  5
ABE3
  8
1HATCH
  6
CONTINUOUS
 10
464.1039382897213
 20
-130.7930342194213
 30
0.0
 11
464.3718874821524
 21
-129.7930342194213
 31
0.0
  0
LINE
  5
ABE4
  8
1HATCH
  6
CONTINUOUS
 10
464.7613386642817
 20
-130.7930342194213
 30
0.0
 11
465.0292878567128
 21
-129.7930342194213
 31
0.0
  0
LINE
  5
ABE5
  8
1HATCH
  6
CONTINUOUS
 10
465.418739038842
 20
-130.7930342194213
 30
0.0
 11
465.6866882312732
 21
-129.7930342194213
 31
0.0
  0
LINE
  5
ABE6
  8
1HATCH
  6
CONTINUOUS
 10
466.0761394134025
 20
-130.7930342194213
 30
0.0
 11
466.3440886058336
 21
-129.7930342194213
 31
0.0
  0
LINE
  5
ABE7
  8
1HATCH
  6
CONTINUOUS
 10
466.7335397879629
 20
-130.7930342194213
 30
0.0
 11
467.001488980394
 21
-129.7930342194213
 31
0.0
  0
LINE
  5
ABE8
  8
1HATCH
  6
CONTINUOUS
 10
467.3909401625232
 20
-130.7930342194213
 30
0.0
 11
467.6588893549544
 21
-129.7930342194213
 31
0.0
  0
LINE
  5
ABE9
  8
1HATCH
  6
CONTINUOUS
 10
468.0483405370837
 20
-130.7930342194213
 30
0.0
 11
468.3162897295148
 21
-129.7930342194213
 31
0.0
  0
LINE
  5
ABEA
  8
1HATCH
  6
CONTINUOUS
 10
468.7057409116441
 20
-130.7930342194213
 30
0.0
 11
468.9736901040752
 21
-129.7930342194213
 31
0.0
  0
LINE
  5
ABEB
  8
1HATCH
  6
CONTINUOUS
 10
469.3631412862045
 20
-130.7930342194213
 30
0.0
 11
469.6310904786356
 21
-129.7930342194213
 31
0.0
  0
LINE
  5
ABEC
  8
1HATCH
  6
CONTINUOUS
 10
470.0205416607649
 20
-130.7930342194213
 30
0.0
 11
470.288490853196
 21
-129.7930342194213
 31
0.0
  0
LINE
  5
ABED
  8
1HATCH
  6
CONTINUOUS
 10
470.6779420353253
 20
-130.7930342194213
 30
0.0
 11
470.9458912277564
 21
-129.7930342194213
 31
0.0
  0
LINE
  5
ABEE
  8
1HATCH
  6
CONTINUOUS
 10
471.3353424098857
 20
-130.7930342194213
 30
0.0
 11
471.6032916023168
 21
-129.7930342194213
 31
0.0
  0
LINE
  5
ABEF
  8
1HATCH
  6
CONTINUOUS
 10
471.9927427844461
 20
-130.7930342194213
 30
0.0
 11
472.2606919768772
 21
-129.7930342194213
 31
0.0
  0
LINE
  5
ABF0
  8
1HATCH
  6
CONTINUOUS
 10
472.6501431590065
 20
-130.7930342194213
 30
0.0
 11
472.9180923514376
 21
-129.7930342194213
 31
0.0
  0
LINE
  5
ABF1
  8
1HATCH
  6
CONTINUOUS
 10
473.3075435335669
 20
-130.7930342194213
 30
0.0
 11
473.575492725998
 21
-129.7930342194213
 31
0.0
  0
LINE
  5
ABF2
  8
1HATCH
  6
CONTINUOUS
 10
473.9649439081273
 20
-130.7930342194213
 30
0.0
 11
474.2328931005584
 21
-129.7930342194213
 31
0.0
  0
LINE
  5
ABF3
  8
1HATCH
  6
CONTINUOUS
 10
474.6223442826877
 20
-130.7930342194213
 30
0.0
 11
474.8902934751188
 21
-129.7930342194213
 31
0.0
  0
LINE
  5
ABF4
  8
1HATCH
  6
CONTINUOUS
 10
475.2797446572481
 20
-130.7930342194213
 30
0.0
 11
475.5476938496792
 21
-129.7930342194213
 31
0.0
  0
LINE
  5
ABF5
  8
1HATCH
  6
CONTINUOUS
 10
475.9371450318085
 20
-130.7930342194213
 30
0.0
 11
476.2050942242396
 21
-129.7930342194213
 31
0.0
  0
LINE
  5
ABF6
  8
1HATCH
  6
CONTINUOUS
 10
476.5945454063689
 20
-130.7930342194213
 30
0.0
 11
476.8624945988
 21
-129.7930342194213
 31
0.0
  0
LINE
  5
ABF7
  8
1HATCH
  6
CONTINUOUS
 10
477.2519457809293
 20
-130.7930342194213
 30
0.0
 11
477.5198949733604
 21
-129.7930342194213
 31
0.0
  0
LINE
  5
ABF8
  8
1HATCH
  6
CONTINUOUS
 10
477.9093461554897
 20
-130.7930342194213
 30
0.0
 11
478.1772953479208
 21
-129.7930342194213
 31
0.0
  0
LINE
  5
ABF9
  8
1HATCH
  6
CONTINUOUS
 10
478.5667465300501
 20
-130.7930342194213
 30
0.0
 11
478.8346957224812
 21
-129.7930342194213
 31
0.0
  0
LINE
  5
ABFA
  8
1HATCH
  6
CONTINUOUS
 10
479.2241469046105
 20
-130.7930342194213
 30
0.0
 11
479.4920960970417
 21
-129.7930342194213
 31
0.0
  0
LINE
  5
ABFB
  8
1HATCH
  6
CONTINUOUS
 10
479.8815472791709
 20
-130.7930342194213
 30
0.0
 11
480.149496471602
 21
-129.7930342194213
 31
0.0
  0
LINE
  5
ABFC
  8
1HATCH
  6
CONTINUOUS
 10
480.5389476537313
 20
-130.7930342194213
 30
0.0
 11
480.8068968461624
 21
-129.7930342194213
 31
0.0
  0
LINE
  5
ABFD
  8
1HATCH
  6
CONTINUOUS
 10
481.1963480282917
 20
-130.7930342194213
 30
0.0
 11
481.4642972207229
 21
-129.7930342194213
 31
0.0
  0
LINE
  5
ABFE
  8
1HATCH
  6
CONTINUOUS
 10
481.8537484028521
 20
-130.7930342194213
 30
0.0
 11
482.1216975952833
 21
-129.7930342194213
 31
0.0
  0
LINE
  5
ABFF
  8
1HATCH
  6
CONTINUOUS
 10
482.5111487774125
 20
-130.7930342194213
 30
0.0
 11
482.7790979698436
 21
-129.7930342194213
 31
0.0
  0
LINE
  5
AC00
  8
1HATCH
  6
CONTINUOUS
 10
483.1685491519729
 20
-130.7930342194213
 30
0.0
 11
483.4364983444041
 21
-129.7930342194213
 31
0.0
  0
LINE
  5
AC01
  8
1HATCH
  6
CONTINUOUS
 10
483.8259495265333
 20
-130.7930342194213
 30
0.0
 11
484.0938987189645
 21
-129.7930342194213
 31
0.0
  0
LINE
  5
AC02
  8
1HATCH
  6
CONTINUOUS
 10
484.4833499010937
 20
-130.7930342194213
 30
0.0
 11
484.7512990935248
 21
-129.7930342194213
 31
0.0
  0
LINE
  5
AC03
  8
1HATCH
  6
CONTINUOUS
 10
485.1407502756542
 20
-130.7930342194213
 30
0.0
 11
485.4086994680853
 21
-129.7930342194213
 31
0.0
  0
LINE
  5
AC04
  8
1HATCH
  6
CONTINUOUS
 10
485.7981506502146
 20
-130.7930342194213
 30
0.0
 11
486.0660998426457
 21
-129.7930342194213
 31
0.0
  0
LINE
  5
AC05
  8
1HATCH
  6
CONTINUOUS
 10
486.4555510247749
 20
-130.7930342194213
 30
0.0
 11
486.7235002172061
 21
-129.7930342194213
 31
0.0
  0
LINE
  5
AC06
  8
1HATCH
  6
CONTINUOUS
 10
487.1129513993354
 20
-130.7930342194213
 30
0.0
 11
487.3809005917665
 21
-129.7930342194213
 31
0.0
  0
LINE
  5
AC07
  8
1HATCH
  6
CONTINUOUS
 10
487.7703517738958
 20
-130.7930342194213
 30
0.0
 11
488.0383009663269
 21
-129.7930342194213
 31
0.0
  0
LINE
  5
AC08
  8
1HATCH
  6
CONTINUOUS
 10
488.4277521484561
 20
-130.7930342194213
 30
0.0
 11
488.6957013408873
 21
-129.7930342194213
 31
0.0
  0
LINE
  5
AC09
  8
1HATCH
  6
CONTINUOUS
 10
489.0851525230166
 20
-130.7930342194213
 30
0.0
 11
489.3531017154477
 21
-129.7930342194213
 31
0.0
  0
LINE
  5
AC0A
  8
1HATCH
  6
CONTINUOUS
 10
489.742552897577
 20
-130.7930342194213
 30
0.0
 11
490.0105020900081
 21
-129.7930342194213
 31
0.0
  0
LINE
  5
AC0B
  8
1HATCH
  6
CONTINUOUS
 10
490.3999532721373
 20
-130.7930342194213
 30
0.0
 11
490.6679024645685
 21
-129.7930342194213
 31
0.0
  0
LINE
  5
AC0C
  8
1HATCH
  6
CONTINUOUS
 10
491.0573536466978
 20
-130.7930342194213
 30
0.0
 11
491.3253028391289
 21
-129.7930342194213
 31
0.0
  0
LINE
  5
AC0D
  8
1HATCH
  6
CONTINUOUS
 10
491.8199185586857
 20
-130.4005548225873
 30
0.0
 11
491.9827032136893
 21
-129.7930342194213
 31
0.0
  0
LINE
  5
AC0E
  8
1HATCH
  6
CONTINUOUS
 10
498.4871244863167
 20
-130.0527195438864
 30
0.0
 11
498.5567069592933
 21
-129.7930342194213
 31
0.0
  0
LINE
  5
AC0F
  8
1HATCH
  6
CONTINUOUS
 10
499.0055998152058
 20
-130.5711948727754
 30
0.0
 11
499.2141073338537
 21
-129.7930342194213
 31
0.0
  0
LINE
  5
AC10
  8
1HATCH
  6
CONTINUOUS
 10
499.603558515983
 20
-130.7930342194213
 30
0.0
 11
499.8715077084141
 21
-129.7930342194213
 31
0.0
  0
LINE
  5
AC11
  8
1HATCH
  6
CONTINUOUS
 10
500.2609588905434
 20
-130.7930342194213
 30
0.0
 11
500.5289080829745
 21
-129.7930342194213
 31
0.0
  0
LINE
  5
AC12
  8
1HATCH
  6
CONTINUOUS
 10
500.9183592651038
 20
-130.7930342194213
 30
0.0
 11
501.1863084575349
 21
-129.7930342194213
 31
0.0
  0
LINE
  5
AC13
  8
1HATCH
  6
CONTINUOUS
 10
501.5757596396642
 20
-130.7930342194213
 30
0.0
 11
501.8437088320953
 21
-129.7930342194213
 31
0.0
  0
LINE
  5
AC14
  8
1HATCH
  6
CONTINUOUS
 10
502.2331600142246
 20
-130.7930342194213
 30
0.0
 11
502.5011092066557
 21
-129.7930342194213
 31
0.0
  0
LINE
  5
AC15
  8
1HATCH
  6
CONTINUOUS
 10
502.890560388785
 20
-130.7930342194213
 30
0.0
 11
503.1585095812162
 21
-129.7930342194213
 31
0.0
  0
LINE
  5
AC16
  8
1HATCH
  6
CONTINUOUS
 10
503.5479607633454
 20
-130.7930342194213
 30
0.0
 11
503.8159099557765
 21
-129.7930342194213
 31
0.0
  0
LINE
  5
AC17
  8
1HATCH
  6
CONTINUOUS
 10
504.2053611379058
 20
-130.7930342194213
 30
0.0
 11
504.473310330337
 21
-129.7930342194213
 31
0.0
  0
LINE
  5
AC18
  8
1HATCH
  6
CONTINUOUS
 10
473.4450095581405
 20
-125.1930342194214
 30
0.0
 11
474.6450095581404
 21
-126.3930342194213
 31
0.0
  0
LINE
  5
AC19
  8
1HATCH
  6
CONTINUOUS
 10
469.7999455278731
 20
-123.7930342194213
 30
0.0
 11
470.2274384395259
 21
-124.2205271310741
 31
0.0
  0
LINE
  5
AC1A
  8
1HATCH
  6
CONTINUOUS
 10
471.1999455278732
 20
-125.1930342194214
 30
0.0
 11
472.3999455278731
 21
-126.3930342194213
 31
0.0
  0
LINE
  5
AC1B
  8
1HATCH
  6
CONTINUOUS
 10
467.5548814976058
 20
-123.7930342194213
 30
0.0
 11
470.1702145835913
 21
-126.4083673054068
 31
0.0
  0
LINE
  5
AC1C
  8
1HATCH
  6
CONTINUOUS
 10
465.3098174673385
 20
-123.7930342194213
 30
0.0
 11
469.2274382896879
 21
-127.7106550417707
 31
0.0
  0
LINE
  5
AC1D
  8
1HATCH
  6
CONTINUOUS
 10
463.2274384395259
 20
-123.955719221876
 30
0.0
 11
464.5274391618516
 21
-125.2557199442017
 31
0.0
  0
LINE
  5
AC1E
  8
1HATCH
  6
CONTINUOUS
 10
464.5274391618516
 20
-125.2557199442016
 30
0.0
 11
469.0245573628428
 21
-129.7528381451928
 31
0.0
  0
LINE
  5
AC1F
  8
1HATCH
  6
CONTINUOUS
 10
463.2274384395261
 20
-126.2007832521434
 30
0.0
 11
464.5274391618516
 21
-127.500783974469
 31
0.0
  0
LINE
  5
AC20
  8
1HATCH
  6
CONTINUOUS
 10
464.5274391618516
 20
-127.5007839744689
 30
0.0
 11
466.8196894068039
 21
-129.7930342194212
 31
0.0
  0
LINE
  5
AC21
  8
1HATCH
  6
CONTINUOUS
 10
462.0746253765366
 20
-127.2930342194213
 30
0.0
 11
464.5274391618516
 21
-129.7458480047363
 31
0.0
  0
LINE
  5
AC22
  8
1HATCH
  6
CONTINUOUS
 10
464.5274391618516
 20
-129.7458480047362
 30
0.0
 11
464.5746253765366
 21
-129.7930342194212
 31
0.0
  0
LINE
  5
AC23
  8
1HATCH
  6
CONTINUOUS
 10
459.8295613462694
 20
-127.2930342194213
 30
0.0
 11
460.8295613462694
 21
-128.2930342194213
 31
0.0
  0
LINE
  5
AC24
  8
1HATCH
  6
CONTINUOUS
 10
457.5844973160021
 20
-127.2930342194213
 30
0.0
 11
458.5844973160021
 21
-128.2930342194213
 31
0.0
  0
LINE
  5
AC25
  8
1HATCH
  6
CONTINUOUS
 10
455.3394332857348
 20
-127.2930342194213
 30
0.0
 11
456.3394332857348
 21
-128.2930342194213
 31
0.0
  0
LINE
  5
AC26
  8
1HATCH
  6
CONTINUOUS
 10
451.5274391618517
 20
-129.3130134858098
 30
0.0
 11
453.5474184282403
 21
-127.2930342194213
 31
0.0
  0
LINE
  5
AC27
  8
1HATCH
  6
CONTINUOUS
 10
453.2924824585075
 20
-129.7930342194213
 30
0.0
 11
454.7924824585075
 21
-128.2930342194213
 31
0.0
  0
LINE
  5
AC28
  8
1HATCH
  6
CONTINUOUS
 10
455.5375464887749
 20
-129.7930342194213
 30
0.0
 11
457.0375464887749
 21
-128.2930342194213
 31
0.0
  0
LINE
  5
AC29
  8
1HATCH
  6
CONTINUOUS
 10
457.7826105190421
 20
-129.7930342194213
 30
0.0
 11
459.2826105190421
 21
-128.2930342194213
 31
0.0
  0
LINE
  5
AC2A
  8
1HATCH
  6
CONTINUOUS
 10
460.0276745493094
 20
-129.7930342194213
 30
0.0
 11
461.4642273464651
 21
-128.3564814222657
 31
0.0
  0
LINE
  5
AC2B
  8
1HATCH
  6
CONTINUOUS
 10
470.5274382508258
 20
-128.6634514674627
 30
0.0
 11
471.3978554988672
 21
-127.7930342194213
 31
0.0
  0
LINE
  5
AC2C
  8
1HATCH
  6
CONTINUOUS
 10
470.6060633442021
 20
-129.4828519861933
 30
0.0
 11
472.2958811109741
 21
-127.7930342194213
 31
0.0
  0
LINE
  5
AC2D
  8
1HATCH
  6
CONTINUOUS
 10
471.193906723081
 20
-129.7930342194213
 30
0.0
 11
473.0521788378995
 21
-127.9347621046028
 31
0.0
  0
LINE
  5
AC2E
  8
1HATCH
  6
CONTINUOUS
 10
472.0919323351879
 20
-129.7930342194213
 30
0.0
 11
473.2274382508258
 21
-128.6575283037834
 31
0.0
  0
LINE
  5
AC2F
  8
1HATCH
  6
CONTINUOUS
 10
474.2829151903483
 20
-128.5000769763678
 30
0.0
 11
474.4899579472948
 21
-128.2930342194213
 31
0.0
  0
LINE
  5
AC30
  8
1HATCH
  6
CONTINUOUS
 10
474.4899579472948
 20
-128.2930342194213
 30
0.0
 11
474.9899579472948
 21
-127.7930342194213
 31
0.0
  0
LINE
  5
AC31
  8
1HATCH
  6
CONTINUOUS
 10
474.6246982032215
 20
-129.0563195756015
 30
0.0
 11
475.2274382508257
 21
-128.4535795279973
 31
0.0
  0
LINE
  5
AC32
  8
1HATCH
  6
CONTINUOUS
 10
475.2274382508257
 20
-128.4535795279973
 30
0.0
 11
475.3879835594018
 21
-128.2930342194213
 31
0.0
  0
LINE
  5
AC33
  8
1HATCH
  6
CONTINUOUS
 10
475.3879835594018
 20
-128.2930342194213
 30
0.0
 11
475.8540563436755
 21
-127.8269614351475
 31
0.0
  0
LINE
  5
AC34
  8
1HATCH
  6
CONTINUOUS
 10
475.3074476164017
 20
-129.2715957745282
 30
0.0
 11
476.2059998059327
 21
-128.3730435849973
 31
0.0
  0
LINE
  5
AC35
  8
1HATCH
  6
CONTINUOUS
 10
477.2581291368171
 20
-128.2189398662198
 30
0.0
 11
477.6533438976244
 21
-127.8237251054125
 31
0.0
  0
LINE
  5
AC36
  8
1HATCH
  6
CONTINUOUS
 10
477.2274382508258
 20
-129.147656364318
 30
0.0
 11
478.5820603957226
 21
-127.7930342194212
 31
0.0
  0
LINE
  5
AC37
  8
1HATCH
  6
CONTINUOUS
 10
477.5323576872883
 20
-129.7407625399624
 30
0.0
 11
479.4689602276668
 21
-127.8041599995839
 31
0.0
  0
LINE
  5
AC38
  8
1HATCH
  6
CONTINUOUS
 10
478.3781116199364
 20
-129.7930342194213
 30
0.0
 11
479.9170143071919
 21
-128.2541315321656
 31
0.0
  0
LINE
  5
AC39
  8
1HATCH
  6
CONTINUOUS
 10
479.2761372320433
 20
-129.7930342194213
 30
0.0
 11
479.9274382508255
 21
-129.141733200639
 31
0.0
  0
LINE
  5
AC3A
  8
1HATCH
  6
CONTINUOUS
 10
460.2274384395259
 20
-123.8467202727262
 30
0.0
 11
461.7811244928309
 21
-122.2930342194213
 31
0.0
  0
LINE
  5
AC3B
  8
1HATCH
  6
CONTINUOUS
 10
460.2274384395259
 20
-126.0917843029935
 30
0.0
 11
464.0261885230982
 21
-122.2930342194213
 31
0.0
  0
LINE
  5
AC3C
  8
1HATCH
  6
CONTINUOUS
 10
461.2712525533655
 20
-127.2930342194213
 30
0.0
 11
463.227438439526
 21
-125.3368483332608
 31
0.0
  0
LINE
  5
AC3D
  8
1HATCH
  6
CONTINUOUS
 10
464.7712525533655
 20
-123.7930342194213
 30
0.0
 11
466.2712525533655
 21
-122.2930342194213
 31
0.0
  0
LINE
  5
AC3E
  8
1HATCH
  6
CONTINUOUS
 10
467.0163165836328
 20
-123.7930342194213
 30
0.0
 11
468.5163165836328
 21
-122.2930342194213
 31
0.0
  0
LINE
  5
AC3F
  8
1HATCH
  6
CONTINUOUS
 10
469.2613806139001
 20
-123.7930342194213
 30
0.0
 11
470.7613806139001
 21
-122.2930342194213
 31
0.0
  0
LINE
  5
AC40
  8
1HATCH
  6
CONTINUOUS
 10
470.2274384395259
 20
-125.0720404240627
 30
0.0
 11
472.2274384395259
 21
-123.0720404240627
 31
0.0
  0
LINE
  5
AC41
  8
1HATCH
  6
CONTINUOUS
 10
447.9001866566769
 20
-136.2930342194214
 30
0.0
 11
447.7274382508256
 21
-136.1202858135701
 31
0.0
  0
LINE
  5
AC42
  8
1HATCH
  6
CONTINUOUS
 10
448.7982122687837
 20
-136.2930342194214
 30
0.0
 11
447.7274382508256
 21
-135.2222602014632
 31
0.0
  0
LINE
  5
AC43
  8
1HATCH
  6
CONTINUOUS
 10
449.6962378808907
 20
-136.2930342194214
 30
0.0
 11
447.7274382508256
 21
-134.3242345893563
 31
0.0
  0
LINE
  5
AC44
  8
1HATCH
  6
CONTINUOUS
 10
450.5942634929976
 20
-136.2930342194214
 30
0.0
 11
448.0942634929977
 21
-133.7930342194215
 31
0.0
  0
LINE
  5
AC45
  8
1HATCH
  6
CONTINUOUS
 10
451.4922891051045
 20
-136.2930342194214
 30
0.0
 11
448.9922891051046
 21
-133.7930342194215
 31
0.0
  0
LINE
  5
AC46
  8
1HATCH
  6
CONTINUOUS
 10
452.3903147172114
 20
-136.2930342194214
 30
0.0
 11
449.8903147172115
 21
-133.7930342194215
 31
0.0
  0
LINE
  5
AC47
  8
1HATCH
  6
CONTINUOUS
 10
453.0596688546956
 20
-136.0643627447986
 30
0.0
 11
450.7883403293184
 21
-133.7930342194215
 31
0.0
  0
LINE
  5
AC48
  8
1HATCH
  6
CONTINUOUS
 10
453.6863659414256
 20
-135.7930342194217
 30
0.0
 11
451.6863659414254
 21
-133.7930342194215
 31
0.0
  0
LINE
  5
AC49
  8
1HATCH
  6
CONTINUOUS
 10
454.5843915535326
 20
-135.7930342194217
 30
0.0
 11
452.5843915535323
 21
-133.7930342194215
 31
0.0
  0
LINE
  5
AC4A
  8
1HATCH
  6
CONTINUOUS
 10
455.4824171656394
 20
-135.7930342194217
 30
0.0
 11
453.4824171656392
 21
-133.7930342194215
 31
0.0
  0
LINE
  5
AC4B
  8
1HATCH
  6
CONTINUOUS
 10
456.3804427777464
 20
-135.7930342194217
 30
0.0
 11
454.3804427777461
 21
-133.7930342194215
 31
0.0
  0
LINE
  5
AC4C
  8
1HATCH
  6
CONTINUOUS
 10
457.2784683898533
 20
-135.7930342194218
 30
0.0
 11
455.2784683898531
 21
-133.7930342194215
 31
0.0
  0
LINE
  5
AC4D
  8
1HATCH
  6
CONTINUOUS
 10
458.1764940019602
 20
-135.7930342194218
 30
0.0
 11
456.17649400196
 21
-133.7930342194215
 31
0.0
  0
LINE
  5
AC4E
  8
1HATCH
  6
CONTINUOUS
 10
459.0745196140671
 20
-135.7930342194218
 30
0.0
 11
457.0745196140668
 21
-133.7930342194215
 31
0.0
  0
LINE
  5
AC4F
  8
1HATCH
  6
CONTINUOUS
 10
459.9725452261741
 20
-135.7930342194218
 30
0.0
 11
457.9725452261738
 21
-133.7930342194215
 31
0.0
  0
LINE
  5
AC50
  8
1HATCH
  6
CONTINUOUS
 10
460.870570838281
 20
-135.7930342194218
 30
0.0
 11
458.8705708382807
 21
-133.7930342194215
 31
0.0
  0
LINE
  5
AC51
  8
1HATCH
  6
CONTINUOUS
 10
461.7685964503879
 20
-135.7930342194218
 30
0.0
 11
459.7685964503876
 21
-133.7930342194215
 31
0.0
  0
LINE
  5
AC52
  8
1HATCH
  6
CONTINUOUS
 10
462.6666220624949
 20
-135.7930342194218
 30
0.0
 11
460.6666220624945
 21
-133.7930342194215
 31
0.0
  0
LINE
  5
AC53
  8
1HATCH
  6
CONTINUOUS
 10
464.0646476746012
 20
-136.2930342194213
 30
0.0
 11
461.5646476746014
 21
-133.7930342194215
 31
0.0
  0
LINE
  5
AC54
  8
1HATCH
  6
CONTINUOUS
 10
464.9626732867083
 20
-136.2930342194214
 30
0.0
 11
464.5274382508256
 21
-135.8577991835387
 31
0.0
  0
LINE
  5
AC55
  8
1HATCH
  6
CONTINUOUS
 10
464.5274382508256
 20
-135.8577991835387
 30
0.0
 11
462.4626732867084
 21
-133.7930342194215
 31
0.0
  0
LINE
  5
AC56
  8
1HATCH
  6
CONTINUOUS
 10
465.5274382508256
 20
-135.9597735714318
 30
0.0
 11
464.5274382508255
 21
-134.9597735714318
 31
0.0
  0
LINE
  5
AC57
  8
1HATCH
  6
CONTINUOUS
 10
464.5274382508255
 20
-134.9597735714318
 30
0.0
 11
463.3606988988153
 21
-133.7930342194215
 31
0.0
  0
LINE
  5
AC58
  8
1HATCH
  6
CONTINUOUS
 10
466.2587245109224
 20
-135.7930342194217
 30
0.0
 11
464.5274382508255
 21
-134.0617479593248
 31
0.0
  0
LINE
  5
AC59
  8
1HATCH
  6
CONTINUOUS
 10
464.5274382508255
 20
-134.0617479593248
 30
0.0
 11
464.2587245109222
 21
-133.7930342194215
 31
0.0
  0
LINE
  5
AC5A
  8
1HATCH
  6
CONTINUOUS
 10
467.1567501230293
 20
-135.7930342194217
 30
0.0
 11
465.1567501230291
 21
-133.7930342194215
 31
0.0
  0
LINE
  5
AC5B
  8
1HATCH
  6
CONTINUOUS
 10
468.0547757351362
 20
-135.7930342194217
 30
0.0
 11
466.054775735136
 21
-133.7930342194215
 31
0.0
  0
LINE
  5
AC5C
  8
1HATCH
  6
CONTINUOUS
 10
468.9528013472432
 20
-135.7930342194217
 30
0.0
 11
466.9528013472429
 21
-133.7930342194215
 31
0.0
  0
LINE
  5
AC5D
  8
1HATCH
  6
CONTINUOUS
 10
469.8508269593501
 20
-135.7930342194217
 30
0.0
 11
467.8508269593498
 21
-133.7930342194215
 31
0.0
  0
LINE
  5
AC5E
  8
1HATCH
  6
CONTINUOUS
 10
470.748852571457
 20
-135.7930342194217
 30
0.0
 11
468.7488525714568
 21
-133.7930342194215
 31
0.0
  0
LINE
  5
AC5F
  8
1HATCH
  6
CONTINUOUS
 10
471.6468781835639
 20
-135.7930342194217
 30
0.0
 11
469.6468781835637
 21
-133.7930342194215
 31
0.0
  0
LINE
  5
AC60
  8
1HATCH
  6
CONTINUOUS
 10
472.5449037956708
 20
-135.7930342194217
 30
0.0
 11
470.2296596506116
 21
-133.4777900743624
 31
0.0
  0
LINE
  5
AC61
  8
1HATCH
  6
CONTINUOUS
 10
473.4429294077777
 20
-135.7930342194217
 30
0.0
 11
471.1429294077776
 21
-133.4930342194215
 31
0.0
  0
LINE
  5
AC62
  8
1HATCH
  6
CONTINUOUS
 10
474.3409550198846
 20
-135.7930342194217
 30
0.0
 11
472.0409550198844
 21
-133.4930342194215
 31
0.0
  0
LINE
  5
AC63
  8
1HATCH
  6
CONTINUOUS
 10
475.2389806319915
 20
-135.7930342194216
 30
0.0
 11
475.2274382508256
 21
-135.7814918382557
 31
0.0
  0
LINE
  5
AC64
  8
1HATCH
  6
CONTINUOUS
 10
476.1370062440984
 20
-135.7930342194216
 30
0.0
 11
475.2274382508256
 21
-134.8834662261488
 31
0.0
  0
LINE
  5
AC65
  8
1HATCH
  6
CONTINUOUS
 10
475.2274382508256
 20
-135.7814918382557
 30
0.0
 11
472.9389806319914
 21
-133.4930342194215
 31
0.0
  0
LINE
  5
AC66
  8
1HATCH
  6
CONTINUOUS
 10
475.2274382508256
 20
-134.8834662261488
 30
0.0
 11
473.8370062440983
 21
-133.4930342194215
 31
0.0
  0
LINE
  5
AC67
  8
1HATCH
  6
CONTINUOUS
 10
477.0350318562053
 20
-135.7930342194216
 30
0.0
 11
475.2274382508256
 21
-133.9854406140419
 31
0.0
  0
LINE
  5
AC68
  8
1HATCH
  6
CONTINUOUS
 10
475.2274382508256
 20
-133.9854406140419
 30
0.0
 11
474.5350318562051
 21
-133.2930342194215
 31
0.0
  0
LINE
  5
AC69
  8
1HATCH
  6
CONTINUOUS
 10
477.9330574683122
 20
-135.7930342194216
 30
0.0
 11
475.433057468312
 21
-133.2930342194214
 31
0.0
  0
LINE
  5
AC6A
  8
1HATCH
  6
CONTINUOUS
 10
478.8310830804191
 20
-135.7930342194216
 30
0.0
 11
476.3310830804189
 21
-133.2930342194214
 31
0.0
  0
LINE
  5
AC6B
  8
1HATCH
  6
CONTINUOUS
 10
479.729108692526
 20
-135.7930342194216
 30
0.0
 11
477.2291086925258
 21
-133.2930342194213
 31
0.0
  0
LINE
  5
AC6C
  8
1HATCH
  6
CONTINUOUS
 10
480.6271343046329
 20
-135.7930342194216
 30
0.0
 11
478.1271343046327
 21
-133.2930342194213
 31
0.0
  0
LINE
  5
AC6D
  8
1HATCH
  6
CONTINUOUS
 10
481.5251599167398
 20
-135.7930342194215
 30
0.0
 11
479.0251599167396
 21
-133.2930342194213
 31
0.0
  0
LINE
  5
AC6E
  8
1HATCH
  6
CONTINUOUS
 10
482.4231855288467
 20
-135.7930342194215
 30
0.0
 11
479.9231855288465
 21
-133.2930342194213
 31
0.0
  0
LINE
  5
AC6F
  8
1HATCH
  6
CONTINUOUS
 10
483.3212111409537
 20
-135.7930342194215
 30
0.0
 11
480.8212111409534
 21
-133.2930342194213
 31
0.0
  0
LINE
  5
AC70
  8
1HATCH
  6
CONTINUOUS
 10
484.2192367530606
 20
-135.7930342194215
 30
0.0
 11
481.7192367530603
 21
-133.2930342194213
 31
0.0
  0
LINE
  5
AC71
  8
1HATCH
  6
CONTINUOUS
 10
485.1172623651674
 20
-135.7930342194215
 30
0.0
 11
482.6172623651672
 21
-133.2930342194213
 31
0.0
  0
LINE
  5
AC72
  8
1HATCH
  6
CONTINUOUS
 10
486.0152879772743
 20
-135.7930342194215
 30
0.0
 11
483.5152879772742
 21
-133.2930342194213
 31
0.0
  0
LINE
  5
AC73
  8
1HATCH
  6
CONTINUOUS
 10
486.9133135893813
 20
-135.7930342194215
 30
0.0
 11
484.4133135893811
 21
-133.2930342194213
 31
0.0
  0
LINE
  5
AC74
  8
1HATCH
  6
CONTINUOUS
 10
487.8113392014882
 20
-135.7930342194215
 30
0.0
 11
485.311339201488
 21
-133.2930342194213
 31
0.0
  0
LINE
  5
AC75
  8
1HATCH
  6
CONTINUOUS
 10
488.7093648135951
 20
-135.7930342194215
 30
0.0
 11
486.2093648135949
 21
-133.2930342194213
 31
0.0
  0
LINE
  5
AC76
  8
1HATCH
  6
CONTINUOUS
 10
489.607390425702
 20
-135.7930342194215
 30
0.0
 11
487.1073904257018
 21
-133.2930342194213
 31
0.0
  0
LINE
  5
AC77
  8
1HATCH
  6
CONTINUOUS
 10
490.5054160378089
 20
-135.7930342194215
 30
0.0
 11
488.0054160378087
 21
-133.2930342194213
 31
0.0
  0
LINE
  5
AC78
  8
1HATCH
  6
CONTINUOUS
 10
491.4034416499158
 20
-135.7930342194215
 30
0.0
 11
488.9034416499156
 21
-133.2930342194213
 31
0.0
  0
LINE
  5
AC79
  8
1HATCH
  6
CONTINUOUS
 10
492.3014672620228
 20
-135.7930342194215
 30
0.0
 11
489.8014672620225
 21
-133.2930342194213
 31
0.0
  0
LINE
  5
AC7A
  8
1HATCH
  6
CONTINUOUS
 10
492.3274382508257
 20
-134.9209795961175
 30
0.0
 11
490.6994928741294
 21
-133.2930342194213
 31
0.0
  0
LINE
  5
AC7B
  8
1HATCH
  6
CONTINUOUS
 10
498.5876465467712
 20
-135.7930342194216
 30
0.0
 11
498.3274382508257
 21
-135.5328259234761
 31
0.0
  0
LINE
  5
AC7C
  8
1HATCH
  6
CONTINUOUS
 10
499.4856721588782
 20
-135.7930342194216
 30
0.0
 11
498.3274382508257
 21
-134.6348003113691
 31
0.0
  0
LINE
  5
AC7D
  8
1HATCH
  6
CONTINUOUS
 10
500.8836977709848
 20
-136.2930342194214
 30
0.0
 11
498.6055680109052
 21
-134.0149044593418
 31
0.0
  0
LINE
  5
AC7E
  8
1HATCH
  6
CONTINUOUS
 10
501.7817233830918
 20
-136.2930342194214
 30
0.0
 11
499.0545808169587
 21
-133.5658916532883
 31
0.0
  0
LINE
  5
AC7F
  8
1HATCH
  6
CONTINUOUS
 10
502.6797489951987
 20
-136.2930342194214
 30
0.0
 11
499.6797489951986
 21
-133.2930342194213
 31
0.0
  0
LINE
  5
AC80
  8
1HATCH
  6
CONTINUOUS
 10
502.7274382508256
 20
-135.4426978629413
 30
0.0
 11
501.0777746073055
 21
-133.7930342194213
 31
0.0
  0
LINE
  5
AC81
  8
1HATCH
  6
CONTINUOUS
 10
502.7274382508256
 20
-134.5446722508344
 30
0.0
 11
501.9758002194124
 21
-133.7930342194212
 31
0.0
  0
LINE
  5
AC82
  8
1HATCH
  6
CONTINUOUS
 10
447.919930535608
 20
-145.2930342194217
 30
0.0
 11
447.7274382508256
 21
-145.1005419346392
 31
0.0
  0
LINE
  5
AC83
  8
1HATCH
  6
CONTINUOUS
 10
448.8179561477149
 20
-145.2930342194217
 30
0.0
 11
447.7274382508256
 21
-144.2025163225323
 31
0.0
  0
LINE
  5
AC84
  8
1HATCH
  6
CONTINUOUS
 10
449.7159817598219
 20
-145.2930342194217
 30
0.0
 11
447.7274382508256
 21
-143.3044907104254
 31
0.0
  0
LINE
  5
AC85
  8
1HATCH
  6
CONTINUOUS
 10
450.2274382508256
 20
-144.9064650983185
 30
0.0
 11
447.7274382508256
 21
-142.4064650983185
 31
0.0
  0
LINE
  5
AC86
  8
1HATCH
  6
CONTINUOUS
 10
451.0120329840357
 20
-144.7930342194218
 30
0.0
 11
447.7274382508256
 21
-141.5084394862116
 31
0.0
  0
LINE
  5
AC87
  8
1HATCH
  6
CONTINUOUS
 10
451.7274382508255
 20
-144.6104138741046
 30
0.0
 11
447.9100585961428
 21
-140.7930342194219
 31
0.0
  0
LINE
  5
AC88
  8
1HATCH
  6
CONTINUOUS
 10
451.7274382508255
 20
-143.7123882619976
 30
0.0
 11
448.8080842082497
 21
-140.7930342194219
 31
0.0
  0
LINE
  5
AC89
  8
1HATCH
  6
CONTINUOUS
 10
451.875267684645
 20
-142.9621920837103
 30
0.0
 11
449.7061098203566
 21
-140.7930342194219
 31
0.0
  0
LINE
  5
AC8A
  8
1HATCH
  6
CONTINUOUS
 10
452.6041354324637
 20
-142.7930342194221
 30
0.0
 11
450.6041354324635
 21
-140.7930342194219
 31
0.0
  0
LINE
  5
AC8B
  8
1HATCH
  6
CONTINUOUS
 10
453.5021610445706
 20
-142.7930342194221
 30
0.0
 11
451.5021610445704
 21
-140.7930342194219
 31
0.0
  0
LINE
  5
AC8C
  8
1HATCH
  6
CONTINUOUS
 10
454.4001866566775
 20
-142.7930342194221
 30
0.0
 11
452.4001866566774
 21
-140.7930342194219
 31
0.0
  0
LINE
  5
AC8D
  8
1HATCH
  6
CONTINUOUS
 10
455.2982122687845
 20
-142.7930342194221
 30
0.0
 11
453.2982122687843
 21
-140.7930342194219
 31
0.0
  0
LINE
  5
AC8E
  8
1HATCH
  6
CONTINUOUS
 10
456.1962378808914
 20
-142.7930342194221
 30
0.0
 11
454.1962378808912
 21
-140.7930342194219
 31
0.0
  0
LINE
  5
AC8F
  8
1HATCH
  6
CONTINUOUS
 10
457.0942634929983
 20
-142.7930342194221
 30
0.0
 11
455.0942634929981
 21
-140.7930342194219
 31
0.0
  0
LINE
  5
AC90
  8
1HATCH
  6
CONTINUOUS
 10
457.9922891051052
 20
-142.7930342194221
 30
0.0
 11
455.992289105105
 21
-140.7930342194219
 31
0.0
  0
LINE
  5
AC91
  8
1HATCH
  6
CONTINUOUS
 10
458.8903147172122
 20
-142.7930342194221
 30
0.0
 11
456.8903147172119
 21
-140.7930342194219
 31
0.0
  0
LINE
  5
AC92
  8
1HATCH
  6
CONTINUOUS
 10
459.7883403293191
 20
-142.7930342194221
 30
0.0
 11
457.7883403293188
 21
-140.7930342194219
 31
0.0
  0
LINE
  5
AC93
  8
1HATCH
  6
CONTINUOUS
 10
460.686365941426
 20
-142.7930342194221
 30
0.0
 11
458.6863659414258
 21
-140.7930342194219
 31
0.0
  0
LINE
  5
AC94
  8
1HATCH
  6
CONTINUOUS
 10
463.5843915535326
 20
-144.7930342194218
 30
0.0
 11
463.5274382508256
 21
-144.7360809167149
 31
0.0
  0
LINE
  5
AC95
  8
1HATCH
  6
CONTINUOUS
 10
464.4824171656396
 20
-144.7930342194218
 30
0.0
 11
463.5274382508256
 21
-143.8380553046079
 31
0.0
  0
LINE
  5
AC96
  8
1HATCH
  6
CONTINUOUS
 10
461.584391553533
 20
-142.7930342194221
 30
0.0
 11
459.5843915535327
 21
-140.7930342194219
 31
0.0
  0
LINE
  5
AC97
  8
1HATCH
  6
CONTINUOUS
 10
462.4824171656398
 20
-142.7930342194222
 30
0.0
 11
460.4824171656396
 21
-140.7930342194219
 31
0.0
  0
LINE
  5
AC98
  8
1HATCH
  6
CONTINUOUS
 10
465.3804427777466
 20
-144.7930342194219
 30
0.0
 11
464.5274382508256
 21
-143.940029692501
 31
0.0
  0
LINE
  5
AC99
  8
1HATCH
  6
CONTINUOUS
 10
464.5274382508256
 20
-143.940029692501
 30
0.0
 11
461.3804427777465
 21
-140.7930342194219
 31
0.0
  0
LINE
  5
AC9A
  8
1HATCH
  6
CONTINUOUS
 10
465.5274382508256
 20
-144.0420040803941
 30
0.0
 11
464.5274382508256
 21
-143.042004080394
 31
0.0
  0
LINE
  5
AC9B
  8
1HATCH
  6
CONTINUOUS
 10
464.5274382508256
 20
-143.042004080394
 30
0.0
 11
462.2784683898534
 21
-140.7930342194219
 31
0.0
  0
LINE
  5
AC9C
  8
1HATCH
  6
CONTINUOUS
 10
465.5710956695581
 20
-143.1876358870197
 30
0.0
 11
464.5274382508256
 21
-142.1439784682871
 31
0.0
  0
LINE
  5
AC9D
  8
1HATCH
  6
CONTINUOUS
 10
464.5274382508256
 20
-142.1439784682871
 30
0.0
 11
463.1764940019604
 21
-140.7930342194219
 31
0.0
  0
LINE
  5
AC9E
  8
1HATCH
  6
CONTINUOUS
 10
466.0745196140673
 20
-142.7930342194219
 30
0.0
 11
464.5274382508255
 21
-141.2459528561802
 31
0.0
  0
LINE
  5
AC9F
  8
1HATCH
  6
CONTINUOUS
 10
464.5274382508255
 20
-141.2459528561802
 30
0.0
 11
464.0745196140672
 21
-140.7930342194219
 31
0.0
  0
LINE
  5
ACA0
  8
1HATCH
  6
CONTINUOUS
 10
466.9725452261742
 20
-142.7930342194219
 30
0.0
 11
464.9725452261742
 21
-140.7930342194219
 31
0.0
  0
LINE
  5
ACA1
  8
1HATCH
  6
CONTINUOUS
 10
467.8705708382811
 20
-142.7930342194219
 30
0.0
 11
465.8705708382811
 21
-140.7930342194219
 31
0.0
  0
LINE
  5
ACA2
  8
1HATCH
  6
CONTINUOUS
 10
468.768596450388
 20
-142.7930342194219
 30
0.0
 11
466.768596450388
 21
-140.7930342194219
 31
0.0
  0
LINE
  5
ACA3
  8
1HATCH
  6
CONTINUOUS
 10
469.666622062495
 20
-142.7930342194219
 30
0.0
 11
467.6666220624949
 21
-140.7930342194219
 31
0.0
  0
LINE
  5
ACA4
  8
1HATCH
  6
CONTINUOUS
 10
470.5646476746019
 20
-142.7930342194219
 30
0.0
 11
468.5646476746018
 21
-140.7930342194219
 31
0.0
  0
LINE
  5
ACA5
  8
1HATCH
  6
CONTINUOUS
 10
471.4626732867088
 20
-142.7930342194219
 30
0.0
 11
469.4626732867087
 21
-140.7930342194219
 31
0.0
  0
LINE
  5
ACA6
  8
1HATCH
  6
CONTINUOUS
 10
472.3606988988157
 20
-142.7930342194219
 30
0.0
 11
470.2296596506116
 21
-140.6619949712178
 31
0.0
  0
LINE
  5
ACA7
  8
1HATCH
  6
CONTINUOUS
 10
473.2587245109227
 20
-142.7930342194219
 30
0.0
 11
470.9587245109225
 21
-140.4930342194219
 31
0.0
  0
LINE
  5
ACA8
  8
1HATCH
  6
CONTINUOUS
 10
470.7633366356876
 20
-140.2976463441869
 30
0.0
 11
470.7587245109225
 21
-140.2930342194218
 31
0.0
  0
LINE
  5
ACA9
  8
1HATCH
  6
CONTINUOUS
 10
474.1567501230296
 20
-142.7930342194219
 30
0.0
 11
471.8567501230294
 21
-140.4930342194218
 31
0.0
  0
LINE
  5
ACAA
  8
1HATCH
  6
CONTINUOUS
 10
475.0547757351364
 20
-142.7930342194219
 30
0.0
 11
472.7547757351363
 21
-140.4930342194218
 31
0.0
  0
LINE
  5
ACAB
  8
1HATCH
  6
CONTINUOUS
 10
475.9528013472434
 20
-142.7930342194219
 30
0.0
 11
475.2274382508256
 21
-142.0676711230041
 31
0.0
  0
LINE
  5
ACAC
  8
1HATCH
  6
CONTINUOUS
 10
475.2274382508256
 20
-142.0676711230041
 30
0.0
 11
473.6528013472432
 21
-140.4930342194218
 31
0.0
  0
LINE
  5
ACAD
  8
1HATCH
  6
CONTINUOUS
 10
476.8508269593503
 20
-142.7930342194219
 30
0.0
 11
475.2274382508256
 21
-141.1696455108972
 31
0.0
  0
LINE
  5
ACAE
  8
1HATCH
  6
CONTINUOUS
 10
475.2274382508256
 20
-141.1696455108972
 30
0.0
 11
474.3508269593503
 21
-140.2930342194219
 31
0.0
  0
LINE
  5
ACAF
  8
1HATCH
  6
CONTINUOUS
 10
477.7488525714572
 20
-142.7930342194219
 30
0.0
 11
475.2488525714572
 21
-140.2930342194219
 31
0.0
  0
LINE
  5
ACB0
  8
1HATCH
  6
CONTINUOUS
 10
478.6468781835641
 20
-142.7930342194219
 30
0.0
 11
476.1468781835641
 21
-140.2930342194219
 31
0.0
  0
LINE
  5
ACB1
  8
1HATCH
  6
CONTINUOUS
 10
479.544903795671
 20
-142.7930342194219
 30
0.0
 11
477.044903795671
 21
-140.2930342194219
 31
0.0
  0
LINE
  5
ACB2
  8
1HATCH
  6
CONTINUOUS
 10
480.442929407778
 20
-142.7930342194219
 30
0.0
 11
477.9429294077779
 21
-140.2930342194219
 31
0.0
  0
LINE
  5
ACB3
  8
1HATCH
  6
CONTINUOUS
 10
481.3409550198849
 20
-142.7930342194219
 30
0.0
 11
478.8409550198848
 21
-140.2930342194219
 31
0.0
  0
LINE
  5
ACB4
  8
1HATCH
  6
CONTINUOUS
 10
482.2389806319918
 20
-142.7930342194219
 30
0.0
 11
479.7389806319917
 21
-140.2930342194219
 31
0.0
  0
LINE
  5
ACB5
  8
1HATCH
  6
CONTINUOUS
 10
483.1370062440987
 20
-142.7930342194219
 30
0.0
 11
480.6370062440986
 21
-140.2930342194219
 31
0.0
  0
LINE
  5
ACB6
  8
1HATCH
  6
CONTINUOUS
 10
484.0350318562056
 20
-142.7930342194219
 30
0.0
 11
481.5350318562055
 21
-140.2930342194219
 31
0.0
  0
LINE
  5
ACB7
  8
1HATCH
  6
CONTINUOUS
 10
484.9330574683125
 20
-142.7930342194219
 30
0.0
 11
482.4330574683124
 21
-140.2930342194218
 31
0.0
  0
LINE
  5
ACB8
  8
1HATCH
  6
CONTINUOUS
 10
485.8310830804194
 20
-142.7930342194219
 30
0.0
 11
483.3310830804193
 21
-140.2930342194218
 31
0.0
  0
LINE
  5
ACB9
  8
1HATCH
  6
CONTINUOUS
 10
486.7291086925264
 20
-142.7930342194219
 30
0.0
 11
484.2291086925262
 21
-140.2930342194218
 31
0.0
  0
LINE
  5
ACBA
  8
1HATCH
  6
CONTINUOUS
 10
489.6271343046335
 20
-144.7930342194222
 30
0.0
 11
489.3274382508257
 21
-144.4933381656144
 31
0.0
  0
LINE
  5
ACBB
  8
1HATCH
  6
CONTINUOUS
 10
490.5251599167404
 20
-144.7930342194222
 30
0.0
 11
489.3274382508257
 21
-143.5953125535075
 31
0.0
  0
LINE
  5
ACBC
  8
1HATCH
  6
CONTINUOUS
 10
487.6271343046333
 20
-142.7930342194219
 30
0.0
 11
485.1271343046332
 21
-140.2930342194218
 31
0.0
  0
LINE
  5
ACBD
  8
1HATCH
  6
CONTINUOUS
 10
488.5251599167402
 20
-142.7930342194219
 30
0.0
 11
486.0251599167401
 21
-140.2930342194218
 31
0.0
  0
LINE
  5
ACBE
  8
1HATCH
  6
CONTINUOUS
 10
491.4231855288474
 20
-144.7930342194223
 30
0.0
 11
486.9231855288469
 21
-140.2930342194218
 31
0.0
  0
LINE
  5
ACBF
  8
1HATCH
  6
CONTINUOUS
 10
492.3212111409543
 20
-144.7930342194223
 30
0.0
 11
487.8212111409538
 21
-140.2930342194218
 31
0.0
  0
LINE
  5
ACC0
  8
1HATCH
  6
CONTINUOUS
 10
492.3274382508257
 20
-143.9012357171867
 30
0.0
 11
488.7192367530607
 21
-140.2930342194217
 31
0.0
  0
LINE
  5
ACC1
  8
1HATCH
  6
CONTINUOUS
 10
492.3274382508257
 20
-143.0032101050798
 30
0.0
 11
489.6172623651677
 21
-140.2930342194217
 31
0.0
  0
LINE
  5
ACC2
  8
1HATCH
  6
CONTINUOUS
 10
492.3274382508257
 20
-142.1051844929729
 30
0.0
 11
490.5152879772746
 21
-140.2930342194217
 31
0.0
  0
LINE
  5
ACC3
  8
1HATCH
  6
CONTINUOUS
 10
498.6073904257029
 20
-144.7930342194224
 30
0.0
 11
498.3274382508257
 21
-144.5130820445452
 31
0.0
  0
LINE
  5
ACC4
  8
1HATCH
  6
CONTINUOUS
 10
499.5054160378098
 20
-144.7930342194224
 30
0.0
 11
498.3274382508257
 21
-143.6150564324383
 31
0.0
  0
LINE
  5
ACC5
  8
1HATCH
  6
CONTINUOUS
 10
500.903441649916
 20
-145.2930342194217
 30
0.0
 11
498.3274382508257
 21
-142.7170308203314
 31
0.0
  0
LINE
  5
ACC6
  8
1HATCH
  6
CONTINUOUS
 10
501.801467262023
 20
-145.2930342194217
 30
0.0
 11
498.3274382508257
 21
-141.8190052082245
 31
0.0
  0
LINE
  5
ACC7
  8
1HATCH
  6
CONTINUOUS
 10
502.6994928741299
 20
-145.2930342194217
 30
0.0
 11
498.5134655624778
 21
-141.1070069077696
 31
0.0
  0
LINE
  5
ACC8
  8
1HATCH
  6
CONTINUOUS
 10
502.7274382508256
 20
-144.4229539840105
 30
0.0
 11
498.9624783685312
 21
-140.6579941017161
 31
0.0
  0
LINE
  5
ACC9
  8
1HATCH
  6
CONTINUOUS
 10
502.7274382508256
 20
-143.5249283719036
 30
0.0
 11
499.4955440983437
 21
-140.2930342194217
 31
0.0
  0
LINE
  5
ACCA
  8
1HATCH
  6
CONTINUOUS
 10
502.7274382508256
 20
-142.6269027597967
 30
0.0
 11
500.8935697104507
 21
-140.7930342194218
 31
0.0
  0
LINE
  5
ACCB
  8
1HATCH
  6
CONTINUOUS
 10
502.7274382508256
 20
-141.7288771476898
 30
0.0
 11
501.7915953225577
 21
-140.7930342194218
 31
0.0
  0
LINE
  5
ACCC
  8
1HATCH
  6
CONTINUOUS
 10
502.7274382508256
 20
-140.8308515355828
 30
0.0
 11
502.6896209346646
 21
-140.7930342194218
 31
0.0
  0
LINE
  5
ACCD
  8
1HATCH
  6
CONTINUOUS
 10
448.0942634929974
 20
-133.7930342194211
 30
0.0
 11
447.7274382508256
 21
-133.4262089772494
 31
0.0
  0
LINE
  5
ACCE
  8
1HATCH
  6
CONTINUOUS
 10
448.9922891051042
 20
-133.7930342194211
 30
0.0
 11
447.7274382508256
 21
-132.5281833651424
 31
0.0
  0
LINE
  5
ACCF
  8
1HATCH
  6
CONTINUOUS
 10
449.8903147172112
 20
-133.7930342194211
 30
0.0
 11
447.7274382508256
 21
-131.6301577530355
 31
0.0
  0
LINE
  5
ACD0
  8
1HATCH
  6
CONTINUOUS
 10
450.7883403293181
 20
-133.7930342194211
 30
0.0
 11
448.2883403293182
 21
-131.2930342194213
 31
0.0
  0
LINE
  5
ACD1
  8
1HATCH
  6
CONTINUOUS
 10
451.686365941425
 20
-133.7930342194211
 30
0.0
 11
449.1863659414252
 21
-131.2930342194213
 31
0.0
  0
LINE
  5
ACD2
  8
1HATCH
  6
CONTINUOUS
 10
452.5843915535319
 20
-133.7930342194211
 30
0.0
 11
450.084391553532
 21
-131.2930342194213
 31
0.0
  0
LINE
  5
ACD3
  8
1HATCH
  6
CONTINUOUS
 10
453.0596688546956
 20
-133.3702859084779
 30
0.0
 11
450.9824171656389
 21
-131.2930342194213
 31
0.0
  0
LINE
  5
ACD4
  8
1HATCH
  6
CONTINUOUS
 10
453.8804427777461
 20
-133.2930342194215
 30
0.0
 11
451.8804427777459
 21
-131.2930342194213
 31
0.0
  0
LINE
  5
ACD5
  8
1HATCH
  6
CONTINUOUS
 10
454.7784683898531
 20
-133.2930342194215
 30
0.0
 11
452.7784683898528
 21
-131.2930342194213
 31
0.0
  0
LINE
  5
ACD6
  8
1HATCH
  6
CONTINUOUS
 10
455.67649400196
 20
-133.2930342194215
 30
0.0
 11
453.6764940019597
 21
-131.2930342194213
 31
0.0
  0
LINE
  5
ACD7
  8
1HATCH
  6
CONTINUOUS
 10
456.5745196140669
 20
-133.2930342194215
 30
0.0
 11
454.5745196140666
 21
-131.2930342194213
 31
0.0
  0
LINE
  5
ACD8
  8
1HATCH
  6
CONTINUOUS
 10
457.4725452261738
 20
-133.2930342194215
 30
0.0
 11
455.4725452261736
 21
-131.2930342194213
 31
0.0
  0
LINE
  5
ACD9
  8
1HATCH
  6
CONTINUOUS
 10
458.3705708382807
 20
-133.2930342194215
 30
0.0
 11
456.3705708382805
 21
-131.2930342194213
 31
0.0
  0
LINE
  5
ACDA
  8
1HATCH
  6
CONTINUOUS
 10
459.2685964503876
 20
-133.2930342194215
 30
0.0
 11
457.2685964503873
 21
-131.2930342194213
 31
0.0
  0
LINE
  5
ACDB
  8
1HATCH
  6
CONTINUOUS
 10
460.1666220624946
 20
-133.2930342194216
 30
0.0
 11
458.1666220624943
 21
-131.2930342194213
 31
0.0
  0
LINE
  5
ACDC
  8
1HATCH
  6
CONTINUOUS
 10
461.0646476746015
 20
-133.2930342194216
 30
0.0
 11
459.0646476746012
 21
-131.2930342194213
 31
0.0
  0
LINE
  5
ACDD
  8
1HATCH
  6
CONTINUOUS
 10
461.9626732867084
 20
-133.2930342194216
 30
0.0
 11
459.9626732867081
 21
-131.2930342194213
 31
0.0
  0
LINE
  5
ACDE
  8
1HATCH
  6
CONTINUOUS
 10
462.8606988988154
 20
-133.2930342194216
 30
0.0
 11
460.860698898815
 21
-131.2930342194213
 31
0.0
  0
LINE
  5
ACDF
  8
1HATCH
  6
CONTINUOUS
 10
464.2587245109218
 20
-133.7930342194211
 30
0.0
 11
461.7587245109219
 21
-131.2930342194213
 31
0.0
  0
LINE
  5
ACE0
  8
1HATCH
  6
CONTINUOUS
 10
465.1567501230288
 20
-133.7930342194211
 30
0.0
 11
464.5274382508256
 21
-133.163722347218
 31
0.0
  0
LINE
  5
ACE1
  8
1HATCH
  6
CONTINUOUS
 10
464.5274382508256
 20
-133.163722347218
 30
0.0
 11
462.6567501230289
 21
-131.2930342194213
 31
0.0
  0
LINE
  5
ACE2
  8
1HATCH
  6
CONTINUOUS
 10
465.554775735136
 20
-133.2930342194215
 30
0.0
 11
464.5274382508255
 21
-132.265696735111
 31
0.0
  0
LINE
  5
ACE3
  8
1HATCH
  6
CONTINUOUS
 10
466.4528013472429
 20
-133.2930342194215
 30
0.0
 11
464.5274382508255
 21
-131.3676711230041
 31
0.0
  0
LINE
  5
ACE4
  8
1HATCH
  6
CONTINUOUS
 10
464.5274382508255
 20
-132.265696735111
 30
0.0
 11
463.5547757351358
 21
-131.2930342194213
 31
0.0
  0
LINE
  5
ACE5
  8
1HATCH
  6
CONTINUOUS
 10
464.5274382508255
 20
-131.3676711230041
 30
0.0
 11
464.4528013472427
 21
-131.2930342194213
 31
0.0
  0
LINE
  5
ACE6
  8
1HATCH
  6
CONTINUOUS
 10
467.3508269593498
 20
-133.2930342194215
 30
0.0
 11
465.3508269593496
 21
-131.2930342194213
 31
0.0
  0
LINE
  5
ACE7
  8
1HATCH
  6
CONTINUOUS
 10
468.2488525714567
 20
-133.2930342194215
 30
0.0
 11
466.2488525714565
 21
-131.2930342194213
 31
0.0
  0
LINE
  5
ACE8
  8
1HATCH
  6
CONTINUOUS
 10
469.1468781835637
 20
-133.2930342194215
 30
0.0
 11
467.1468781835634
 21
-131.2930342194213
 31
0.0
  0
LINE
  5
ACE9
  8
1HATCH
  6
CONTINUOUS
 10
470.0449037956706
 20
-133.2930342194215
 30
0.0
 11
468.0449037956703
 21
-131.2930342194213
 31
0.0
  0
LINE
  5
ACEA
  8
1HATCH
  6
CONTINUOUS
 10
470.9429294077775
 20
-133.2930342194215
 30
0.0
 11
468.9429294077773
 21
-131.2930342194213
 31
0.0
  0
LINE
  5
ACEB
  8
1HATCH
  6
CONTINUOUS
 10
471.8409550198844
 20
-133.2930342194215
 30
0.0
 11
469.8409550198842
 21
-131.2930342194213
 31
0.0
  0
LINE
  5
ACEC
  8
1HATCH
  6
CONTINUOUS
 10
472.7389806319914
 20
-133.2930342194215
 30
0.0
 11
470.2389806319911
 21
-130.7930342194212
 31
0.0
  0
LINE
  5
ACED
  8
1HATCH
  6
CONTINUOUS
 10
473.6370062440982
 20
-133.2930342194215
 30
0.0
 11
471.3370062440981
 21
-130.9930342194214
 31
0.0
  0
LINE
  5
ACEE
  8
1HATCH
  6
CONTINUOUS
 10
474.5350318562051
 20
-133.2930342194215
 30
0.0
 11
472.235031856205
 21
-130.9930342194214
 31
0.0
  0
LINE
  5
ACEF
  8
1HATCH
  6
CONTINUOUS
 10
475.433057468312
 20
-133.2930342194214
 30
0.0
 11
475.2274382508256
 21
-133.087415001935
 31
0.0
  0
LINE
  5
ACF0
  8
1HATCH
  6
CONTINUOUS
 10
476.3310830804189
 20
-133.2930342194214
 30
0.0
 11
475.2274382508256
 21
-132.1893893898281
 31
0.0
  0
LINE
  5
ACF1
  8
1HATCH
  6
CONTINUOUS
 10
475.2274382508256
 20
-133.087415001935
 30
0.0
 11
473.133057468312
 21
-130.9930342194214
 31
0.0
  0
LINE
  5
ACF2
  8
1HATCH
  6
CONTINUOUS
 10
475.2274382508256
 20
-132.1893893898281
 30
0.0
 11
474.0310830804189
 21
-130.9930342194214
 31
0.0
  0
LINE
  5
ACF3
  8
1HATCH
  6
CONTINUOUS
 10
477.2291086925258
 20
-133.2930342194213
 30
0.0
 11
475.2274382508256
 21
-131.2913637777212
 31
0.0
  0
LINE
  5
ACF4
  8
1HATCH
  6
CONTINUOUS
 10
475.2274382508256
 20
-131.2913637777212
 30
0.0
 11
474.7291086925256
 21
-130.7930342194212
 31
0.0
  0
LINE
  5
ACF5
  8
1HATCH
  6
CONTINUOUS
 10
478.1271343046327
 20
-133.2930342194213
 30
0.0
 11
475.6271343046325
 21
-130.7930342194211
 31
0.0
  0
LINE
  5
ACF6
  8
1HATCH
  6
CONTINUOUS
 10
479.0251599167396
 20
-133.2930342194213
 30
0.0
 11
476.5251599167394
 21
-130.7930342194211
 31
0.0
  0
LINE
  5
ACF7
  8
1HATCH
  6
CONTINUOUS
 10
479.9231855288465
 20
-133.2930342194213
 30
0.0
 11
477.4231855288463
 21
-130.7930342194211
 31
0.0
  0
LINE
  5
ACF8
  8
1HATCH
  6
CONTINUOUS
 10
480.8212111409534
 20
-133.2930342194213
 30
0.0
 11
478.3212111409532
 21
-130.7930342194211
 31
0.0
  0
LINE
  5
ACF9
  8
1HATCH
  6
CONTINUOUS
 10
481.7192367530603
 20
-133.2930342194213
 30
0.0
 11
479.2192367530601
 21
-130.7930342194211
 31
0.0
  0
LINE
  5
ACFA
  8
1HATCH
  6
CONTINUOUS
 10
482.6172623651672
 20
-133.2930342194213
 30
0.0
 11
480.117262365167
 21
-130.7930342194211
 31
0.0
  0
LINE
  5
ACFB
  8
1HATCH
  6
CONTINUOUS
 10
483.5152879772742
 20
-133.2930342194213
 30
0.0
 11
481.0152879772739
 21
-130.7930342194211
 31
0.0
  0
LINE
  5
ACFC
  8
1HATCH
  6
CONTINUOUS
 10
484.4133135893811
 20
-133.2930342194213
 30
0.0
 11
481.9133135893808
 21
-130.7930342194211
 31
0.0
  0
LINE
  5
ACFD
  8
1HATCH
  6
CONTINUOUS
 10
485.311339201488
 20
-133.2930342194213
 30
0.0
 11
482.8113392014877
 21
-130.7930342194211
 31
0.0
  0
LINE
  5
ACFE
  8
1HATCH
  6
CONTINUOUS
 10
486.2093648135948
 20
-133.2930342194213
 30
0.0
 11
483.7093648135947
 21
-130.7930342194211
 31
0.0
  0
LINE
  5
ACFF
  8
1HATCH
  6
CONTINUOUS
 10
487.1073904257018
 20
-133.2930342194213
 30
0.0
 11
484.6073904257016
 21
-130.7930342194211
 31
0.0
  0
LINE
  5
AD00
  8
1HATCH
  6
CONTINUOUS
 10
488.0054160378087
 20
-133.2930342194213
 30
0.0
 11
485.5054160378085
 21
-130.7930342194211
 31
0.0
  0
LINE
  5
AD01
  8
1HATCH
  6
CONTINUOUS
 10
488.9034416499156
 20
-133.2930342194213
 30
0.0
 11
486.4034416499154
 21
-130.7930342194211
 31
0.0
  0
LINE
  5
AD02
  8
1HATCH
  6
CONTINUOUS
 10
489.8014672620225
 20
-133.2930342194213
 30
0.0
 11
487.3014672620223
 21
-130.7930342194211
 31
0.0
  0
LINE
  5
AD03
  8
1HATCH
  6
CONTINUOUS
 10
490.6994928741294
 20
-133.2930342194213
 30
0.0
 11
488.1994928741292
 21
-130.7930342194211
 31
0.0
  0
LINE
  5
AD04
  8
1HATCH
  6
CONTINUOUS
 10
491.5975184862363
 20
-133.2930342194213
 30
0.0
 11
489.0975184862361
 21
-130.7930342194211
 31
0.0
  0
LINE
  5
AD05
  8
1HATCH
  6
CONTINUOUS
 10
492.3274382508257
 20
-133.1249283719037
 30
0.0
 11
489.995544098343
 21
-130.793034219421
 31
0.0
  0
LINE
  5
AD06
  8
1HATCH
  6
CONTINUOUS
 10
492.3274382508257
 20
-132.2269027597968
 30
0.0
 11
490.8935697104499
 21
-130.793034219421
 31
0.0
  0
LINE
  5
AD07
  8
1HATCH
  6
CONTINUOUS
 10
498.7817233830917
 20
-133.2930342194214
 30
0.0
 11
498.3274382508257
 21
-132.8387490871553
 31
0.0
  0
LINE
  5
AD08
  8
1HATCH
  6
CONTINUOUS
 10
499.6797489951987
 20
-133.2930342194214
 30
0.0
 11
498.3274382508257
 21
-131.9407234750484
 31
0.0
  0
LINE
  5
AD09
  8
1HATCH
  6
CONTINUOUS
 10
501.0777746073053
 20
-133.7930342194211
 30
0.0
 11
498.7026064290655
 21
-131.4178660411813
 31
0.0
  0
LINE
  5
AD0A
  8
1HATCH
  6
CONTINUOUS
 10
501.9758002194123
 20
-133.7930342194211
 30
0.0
 11
499.151619235119
 21
-130.9688532351278
 31
0.0
  0
LINE
  5
AD0B
  8
1HATCH
  6
CONTINUOUS
 10
502.7274382508256
 20
-133.6466466387275
 30
0.0
 11
500.3738258315191
 21
-131.2930342194211
 31
0.0
  0
LINE
  5
AD0C
  8
1HATCH
  6
CONTINUOUS
 10
500.1738566774933
 20
-131.0930650653953
 30
0.0
 11
499.9274074048516
 21
-130.8466157927536
 31
0.0
  0
LINE
  5
AD0D
  8
1HATCH
  6
CONTINUOUS
 10
502.7274382508256
 20
-132.7486210266206
 30
0.0
 11
501.271851443626
 21
-131.293034219421
 31
0.0
  0
LINE
  5
AD0E
  8
1HATCH
  6
CONTINUOUS
 10
502.7274382508256
 20
-131.8505954145137
 30
0.0
 11
502.1698770557329
 21
-131.293034219421
 31
0.0
  0
LINE
  5
AD0F
  8
1HATCH
  6
CONTINUOUS
 10
447.9100585961425
 20
-140.7930342194216
 30
0.0
 11
447.7274382508256
 21
-140.6104138741047
 31
0.0
  0
LINE
  5
AD10
  8
1HATCH
  6
CONTINUOUS
 10
448.8080842082494
 20
-140.7930342194216
 30
0.0
 11
447.7274382508256
 21
-139.7123882619978
 31
0.0
  0
LINE
  5
AD11
  8
1HATCH
  6
CONTINUOUS
 10
449.7061098203563
 20
-140.7930342194216
 30
0.0
 11
447.7274382508256
 21
-138.8143626498909
 31
0.0
  0
LINE
  5
AD12
  8
1HATCH
  6
CONTINUOUS
 10
450.2274382508256
 20
-140.4163370377839
 30
0.0
 11
447.7274382508256
 21
-137.9163370377839
 31
0.0
  0
LINE
  5
AD13
  8
1HATCH
  6
CONTINUOUS
 10
451.0021610445702
 20
-140.2930342194217
 30
0.0
 11
447.7274382508256
 21
-137.018311425677
 31
0.0
  0
LINE
  5
AD14
  8
1HATCH
  6
CONTINUOUS
 10
451.7274382508255
 20
-140.12028581357
 30
0.0
 11
447.9001866566772
 21
-136.2930342194218
 31
0.0
  0
LINE
  5
AD15
  8
1HATCH
  6
CONTINUOUS
 10
451.7274382508255
 20
-139.2222602014631
 30
0.0
 11
448.7982122687841
 21
-136.2930342194218
 31
0.0
  0
LINE
  5
AD16
  8
1HATCH
  6
CONTINUOUS
 10
451.8703317149123
 20
-138.4671280534429
 30
0.0
 11
449.6962378808911
 21
-136.2930342194218
 31
0.0
  0
LINE
  5
AD17
  8
1HATCH
  6
CONTINUOUS
 10
452.5942634929982
 20
-138.2930342194219
 30
0.0
 11
450.594263492998
 21
-136.2930342194218
 31
0.0
  0
LINE
  5
AD18
  8
1HATCH
  6
CONTINUOUS
 10
453.4922891051051
 20
-138.2930342194219
 30
0.0
 11
451.4922891051049
 21
-136.2930342194218
 31
0.0
  0
LINE
  5
AD19
  8
1HATCH
  6
CONTINUOUS
 10
454.390314717212
 20
-138.293034219422
 30
0.0
 11
452.3903147172118
 21
-136.2930342194218
 31
0.0
  0
LINE
  5
AD1A
  8
1HATCH
  6
CONTINUOUS
 10
455.2883403293189
 20
-138.293034219422
 30
0.0
 11
453.2883403293187
 21
-136.2930342194218
 31
0.0
  0
LINE
  5
AD1B
  8
1HATCH
  6
CONTINUOUS
 10
456.1863659414258
 20
-138.293034219422
 30
0.0
 11
454.1863659414257
 21
-136.2930342194218
 31
0.0
  0
LINE
  5
AD1C
  8
1HATCH
  6
CONTINUOUS
 10
457.0843915535328
 20
-138.293034219422
 30
0.0
 11
455.0843915535326
 21
-136.2930342194218
 31
0.0
  0
LINE
  5
AD1D
  8
1HATCH
  6
CONTINUOUS
 10
457.9824171656397
 20
-138.293034219422
 30
0.0
 11
455.9824171656394
 21
-136.2930342194218
 31
0.0
  0
LINE
  5
AD1E
  8
1HATCH
  6
CONTINUOUS
 10
458.8804427777466
 20
-138.293034219422
 30
0.0
 11
456.8804427777464
 21
-136.2930342194218
 31
0.0
  0
LINE
  5
AD1F
  8
1HATCH
  6
CONTINUOUS
 10
459.7784683898536
 20
-138.293034219422
 30
0.0
 11
457.7784683898533
 21
-136.2930342194218
 31
0.0
  0
LINE
  5
AD20
  8
1HATCH
  6
CONTINUOUS
 10
460.6764940019605
 20
-138.293034219422
 30
0.0
 11
458.6764940019602
 21
-136.2930342194218
 31
0.0
  0
LINE
  5
AD21
  8
1HATCH
  6
CONTINUOUS
 10
463.5745196140671
 20
-140.2930342194217
 30
0.0
 11
463.5274382508256
 21
-140.2459528561803
 31
0.0
  0
LINE
  5
AD22
  8
1HATCH
  6
CONTINUOUS
 10
464.472545226174
 20
-140.2930342194217
 30
0.0
 11
463.5274382508256
 21
-139.3479272440734
 31
0.0
  0
LINE
  5
AD23
  8
1HATCH
  6
CONTINUOUS
 10
461.5745196140674
 20
-138.293034219422
 30
0.0
 11
459.5745196140671
 21
-136.2930342194218
 31
0.0
  0
LINE
  5
AD24
  8
1HATCH
  6
CONTINUOUS
 10
462.4725452261743
 20
-138.2930342194221
 30
0.0
 11
460.4725452261741
 21
-136.2930342194218
 31
0.0
  0
LINE
  5
AD25
  8
1HATCH
  6
CONTINUOUS
 10
465.370570838281
 20
-140.2930342194218
 30
0.0
 11
464.5274382508256
 21
-139.4499016319664
 31
0.0
  0
LINE
  5
AD26
  8
1HATCH
  6
CONTINUOUS
 10
464.5274382508256
 20
-139.4499016319664
 30
0.0
 11
461.370570838281
 21
-136.2930342194218
 31
0.0
  0
LINE
  5
AD27
  8
1HATCH
  6
CONTINUOUS
 10
465.5274382508256
 20
-139.5518760198595
 30
0.0
 11
464.5274382508256
 21
-138.5518760198595
 31
0.0
  0
LINE
  5
AD28
  8
1HATCH
  6
CONTINUOUS
 10
464.5274382508256
 20
-138.5518760198595
 30
0.0
 11
462.2685964503879
 21
-136.2930342194218
 31
0.0
  0
LINE
  5
AD29
  8
1HATCH
  6
CONTINUOUS
 10
465.5682042454322
 20
-138.6946164023591
 30
0.0
 11
464.5274382508256
 21
-137.6538504077525
 31
0.0
  0
LINE
  5
AD2A
  8
1HATCH
  6
CONTINUOUS
 10
464.5274382508256
 20
-137.6538504077525
 30
0.0
 11
463.1666220624948
 21
-136.2930342194218
 31
0.0
  0
LINE
  5
AD2B
  8
1HATCH
  6
CONTINUOUS
 10
466.0646476746018
 20
-138.2930342194218
 30
0.0
 11
464.5274382508255
 21
-136.7558247956456
 31
0.0
  0
LINE
  5
AD2C
  8
1HATCH
  6
CONTINUOUS
 10
464.5274382508255
 20
-136.7558247956456
 30
0.0
 11
464.0646476746017
 21
-136.2930342194218
 31
0.0
  0
LINE
  5
AD2D
  8
1HATCH
  6
CONTINUOUS
 10
466.9626732867087
 20
-138.2930342194218
 30
0.0
 11
464.9626732867087
 21
-136.2930342194218
 31
0.0
  0
LINE
  5
AD2E
  8
1HATCH
  6
CONTINUOUS
 10
467.8606988988156
 20
-138.2930342194218
 30
0.0
 11
465.8606988988156
 21
-136.2930342194218
 31
0.0
  0
LINE
  5
AD2F
  8
1HATCH
  6
CONTINUOUS
 10
468.7587245109225
 20
-138.2930342194218
 30
0.0
 11
466.7587245109225
 21
-136.2930342194218
 31
0.0
  0
LINE
  5
AD30
  8
1HATCH
  6
CONTINUOUS
 10
469.6567501230294
 20
-138.2930342194218
 30
0.0
 11
467.6567501230294
 21
-136.2930342194218
 31
0.0
  0
LINE
  5
AD31
  8
1HATCH
  6
CONTINUOUS
 10
470.5547757351363
 20
-138.2930342194218
 30
0.0
 11
468.5547757351363
 21
-136.2930342194217
 31
0.0
  0
LINE
  5
AD32
  8
1HATCH
  6
CONTINUOUS
 10
471.4528013472433
 20
-138.2930342194218
 30
0.0
 11
469.4528013472432
 21
-136.2930342194217
 31
0.0
  0
LINE
  5
AD33
  8
1HATCH
  6
CONTINUOUS
 10
472.3508269593502
 20
-138.2930342194218
 30
0.0
 11
470.2296596506116
 21
-136.1718669106832
 31
0.0
  0
LINE
  5
AD34
  8
1HATCH
  6
CONTINUOUS
 10
473.2488525714571
 20
-138.2930342194218
 30
0.0
 11
470.948852571457
 21
-135.9930342194218
 31
0.0
  0
LINE
  5
AD35
  8
1HATCH
  6
CONTINUOUS
 10
470.7633366356876
 20
-135.8075182836523
 30
0.0
 11
470.748852571457
 21
-135.7930342194217
 31
0.0
  0
LINE
  5
AD36
  8
1HATCH
  6
CONTINUOUS
 10
474.146878183564
 20
-138.2930342194218
 30
0.0
 11
471.8468781835639
 21
-135.9930342194217
 31
0.0
  0
LINE
  5
AD37
  8
1HATCH
  6
CONTINUOUS
 10
475.0449037956709
 20
-138.2930342194218
 30
0.0
 11
472.7449037956708
 21
-135.9930342194217
 31
0.0
  0
LINE
  5
AD38
  8
1HATCH
  6
CONTINUOUS
 10
475.9429294077779
 20
-138.2930342194218
 30
0.0
 11
475.2274382508256
 21
-137.5775430624695
 31
0.0
  0
LINE
  5
AD39
  8
1HATCH
  6
CONTINUOUS
 10
475.2274382508256
 20
-137.5775430624695
 30
0.0
 11
473.6429294077777
 21
-135.9930342194217
 31
0.0
  0
LINE
  5
AD3A
  8
1HATCH
  6
CONTINUOUS
 10
476.8409550198847
 20
-138.2930342194218
 30
0.0
 11
475.2274382508256
 21
-136.6795174503627
 31
0.0
  0
LINE
  5
AD3B
  8
1HATCH
  6
CONTINUOUS
 10
475.2274382508256
 20
-136.6795174503627
 30
0.0
 11
474.3409550198847
 21
-135.7930342194218
 31
0.0
  0
LINE
  5
AD3C
  8
1HATCH
  6
CONTINUOUS
 10
477.7389806319917
 20
-138.2930342194218
 30
0.0
 11
475.2389806319917
 21
-135.7930342194218
 31
0.0
  0
LINE
  5
AD3D
  8
1HATCH
  6
CONTINUOUS
 10
478.6370062440986
 20
-138.2930342194218
 30
0.0
 11
476.1370062440986
 21
-135.7930342194218
 31
0.0
  0
LINE
  5
AD3E
  8
1HATCH
  6
CONTINUOUS
 10
479.5350318562055
 20
-138.2930342194218
 30
0.0
 11
477.0350318562055
 21
-135.7930342194218
 31
0.0
  0
LINE
  5
AD3F
  8
1HATCH
  6
CONTINUOUS
 10
480.4330574683124
 20
-138.2930342194218
 30
0.0
 11
477.9330574683124
 21
-135.7930342194218
 31
0.0
  0
LINE
  5
AD40
  8
1HATCH
  6
CONTINUOUS
 10
481.3310830804193
 20
-138.2930342194218
 30
0.0
 11
478.8310830804193
 21
-135.7930342194218
 31
0.0
  0
LINE
  5
AD41
  8
1HATCH
  6
CONTINUOUS
 10
482.2291086925263
 20
-138.2930342194218
 30
0.0
 11
479.7291086925262
 21
-135.7930342194218
 31
0.0
  0
LINE
  5
AD42
  8
1HATCH
  6
CONTINUOUS
 10
483.1271343046332
 20
-138.2930342194218
 30
0.0
 11
480.6271343046331
 21
-135.7930342194217
 31
0.0
  0
LINE
  5
AD43
  8
1HATCH
  6
CONTINUOUS
 10
484.0251599167401
 20
-138.2930342194218
 30
0.0
 11
481.52515991674
 21
-135.7930342194217
 31
0.0
  0
LINE
  5
AD44
  8
1HATCH
  6
CONTINUOUS
 10
484.923185528847
 20
-138.2930342194218
 30
0.0
 11
482.4231855288469
 21
-135.7930342194217
 31
0.0
  0
LINE
  5
AD45
  8
1HATCH
  6
CONTINUOUS
 10
485.8212111409539
 20
-138.2930342194218
 30
0.0
 11
483.3212111409538
 21
-135.7930342194217
 31
0.0
  0
LINE
  5
AD46
  8
1HATCH
  6
CONTINUOUS
 10
486.7192367530608
 20
-138.2930342194218
 30
0.0
 11
484.2192367530607
 21
-135.7930342194217
 31
0.0
  0
LINE
  5
AD47
  8
1HATCH
  6
CONTINUOUS
 10
489.617262365168
 20
-140.2930342194221
 30
0.0
 11
489.3274382508257
 21
-140.0032101050798
 31
0.0
  0
LINE
  5
AD48
  8
1HATCH
  6
CONTINUOUS
 10
490.5152879772749
 20
-140.2930342194221
 30
0.0
 11
489.3274382508257
 21
-139.1051844929729
 31
0.0
  0
LINE
  5
AD49
  8
1HATCH
  6
CONTINUOUS
 10
487.6172623651677
 20
-138.2930342194218
 30
0.0
 11
485.1172623651676
 21
-135.7930342194217
 31
0.0
  0
LINE
  5
AD4A
  8
1HATCH
  6
CONTINUOUS
 10
488.5152879772747
 20
-138.2930342194218
 30
0.0
 11
486.0152879772745
 21
-135.7930342194217
 31
0.0
  0
LINE
  5
AD4B
  8
1HATCH
  6
CONTINUOUS
 10
491.4133135893819
 20
-140.2930342194221
 30
0.0
 11
486.9133135893814
 21
-135.7930342194217
 31
0.0
  0
LINE
  5
AD4C
  8
1HATCH
  6
CONTINUOUS
 10
492.3113392014888
 20
-140.2930342194222
 30
0.0
 11
487.8113392014883
 21
-135.7930342194217
 31
0.0
  0
LINE
  5
AD4D
  8
1HATCH
  6
CONTINUOUS
 10
492.3274382508257
 20
-139.4111076566521
 30
0.0
 11
488.7093648135952
 21
-135.7930342194216
 31
0.0
  0
LINE
  5
AD4E
  8
1HATCH
  6
CONTINUOUS
 10
492.3274382508257
 20
-138.5130820445452
 30
0.0
 11
489.6073904257021
 21
-135.7930342194216
 31
0.0
  0
LINE
  5
AD4F
  8
1HATCH
  6
CONTINUOUS
 10
492.3274382508257
 20
-137.6150564324383
 30
0.0
 11
490.505416037809
 21
-135.7930342194216
 31
0.0
  0
LINE
  5
AD50
  8
1HATCH
  6
CONTINUOUS
 10
498.5975184862373
 20
-140.2930342194223
 30
0.0
 11
498.3274382508257
 21
-140.0229539840107
 31
0.0
  0
LINE
  5
AD51
  8
1HATCH
  6
CONTINUOUS
 10
499.4955440983443
 20
-140.2930342194223
 30
0.0
 11
498.3274382508257
 21
-139.1249283719037
 31
0.0
  0
LINE
  5
AD52
  8
1HATCH
  6
CONTINUOUS
 10
500.8935697104505
 20
-140.7930342194216
 30
0.0
 11
498.3274382508257
 21
-138.2269027597968
 31
0.0
  0
LINE
  5
AD53
  8
1HATCH
  6
CONTINUOUS
 10
501.7915953225574
 20
-140.7930342194216
 30
0.0
 11
498.3274382508257
 21
-137.3288771476899
 31
0.0
  0
LINE
  5
AD54
  8
1HATCH
  6
CONTINUOUS
 10
502.6896209346643
 20
-140.7930342194216
 30
0.0
 11
498.508529592745
 21
-136.6119428775023
 31
0.0
  0
LINE
  5
AD55
  8
1HATCH
  6
CONTINUOUS
 10
502.7274382508256
 20
-139.9328259234759
 30
0.0
 11
498.9575423987985
 21
-136.1629300714488
 31
0.0
  0
LINE
  5
AD56
  8
1HATCH
  6
CONTINUOUS
 10
502.7274382508256
 20
-139.034800311369
 30
0.0
 11
499.4856721588782
 21
-135.7930342194216
 31
0.0
  0
LINE
  5
AD57
  8
1HATCH
  6
CONTINUOUS
 10
502.7274382508256
 20
-138.1367746992621
 30
0.0
 11
500.8836977709852
 21
-136.2930342194217
 31
0.0
  0
LINE
  5
AD58
  8
1HATCH
  6
CONTINUOUS
 10
502.7274382508256
 20
-137.2387490871552
 30
0.0
 11
501.7817233830921
 21
-136.2930342194217
 31
0.0
  0
LINE
  5
AD59
  8
1HATCH
  6
CONTINUOUS
 10
502.7274382508256
 20
-136.3407234750483
 30
0.0
 11
502.679748995199
 21
-136.2930342194217
 31
0.0
  0
LINE
  5
AD5A
  8
1HATCH
  6
CONTINUOUS
 10
391.4346804244727
 20
-132.448092191508
 30
0.0
 11
393.0897383965579
 21
-130.7930342194228
 31
0.0
  0
LINE
  5
AD5B
  8
1HATCH
  6
CONTINUOUS
 10
391.4346804244727
 20
-134.6931562217752
 30
0.0
 11
395.3348024268252
 21
-130.7930342194227
 31
0.0
  0
LINE
  5
AD5C
  8
1HATCH
  6
CONTINUOUS
 10
391.4346804244727
 20
-136.9382202520425
 30
0.0
 11
397.5798664570925
 21
-130.7930342194227
 31
0.0
  0
LINE
  5
AD5D
  8
1HATCH
  6
CONTINUOUS
 10
391.4346804244727
 20
-139.1832842823098
 30
0.0
 11
399.8249304873599
 21
-130.7930342194227
 31
0.0
  0
LINE
  5
AD5E
  8
1HATCH
  6
CONTINUOUS
 10
391.4346804244727
 20
-141.4283483125771
 30
0.0
 11
402.0699945176272
 21
-130.7930342194226
 31
0.0
  0
LINE
  5
AD5F
  8
1HATCH
  6
CONTINUOUS
 10
391.4346804244727
 20
-143.6734123428444
 30
0.0
 11
404.3150585478945
 21
-130.7930342194226
 31
0.0
  0
LINE
  5
AD60
  8
1HATCH
  6
CONTINUOUS
 10
392.0601225781627
 20
-145.2930342194217
 30
0.0
 11
406.5601225781618
 21
-130.7930342194225
 31
0.0
  0
LINE
  5
AD61
  8
1HATCH
  6
CONTINUOUS
 10
394.3051866084299
 20
-145.2930342194217
 30
0.0
 11
408.8051866084292
 21
-130.7930342194225
 31
0.0
  0
LINE
  5
AD62
  8
1HATCH
  6
CONTINUOUS
 10
396.5502506386972
 20
-145.2930342194217
 30
0.0
 11
411.0502506386965
 21
-130.7930342194224
 31
0.0
  0
LINE
  5
AD63
  8
1HATCH
  6
CONTINUOUS
 10
398.7953146689645
 20
-145.2930342194217
 30
0.0
 11
413.2953146689638
 21
-130.7930342194224
 31
0.0
  0
LINE
  5
AD64
  8
1HATCH
  6
CONTINUOUS
 10
401.0403786992318
 20
-145.2930342194217
 30
0.0
 11
415.5403786992312
 21
-130.7930342194223
 31
0.0
  0
LINE
  5
AD65
  8
1HATCH
  6
CONTINUOUS
 10
403.2854427294991
 20
-145.2930342194217
 30
0.0
 11
417.7854427294985
 21
-130.7930342194223
 31
0.0
  0
LINE
  5
AD66
  8
1HATCH
  6
CONTINUOUS
 10
405.5305067597664
 20
-145.2930342194217
 30
0.0
 11
420.0305067597658
 21
-130.7930342194223
 31
0.0
  0
LINE
  5
AD67
  8
1HATCH
  6
CONTINUOUS
 10
407.7755707900337
 20
-145.2930342194217
 30
0.0
 11
422.2755707900332
 21
-130.7930342194222
 31
0.0
  0
LINE
  5
AD68
  8
1HATCH
  6
CONTINUOUS
 10
410.020634820301
 20
-145.2930342194217
 30
0.0
 11
424.5206348203005
 21
-130.7930342194222
 31
0.0
  0
LINE
  5
AD69
  8
1HATCH
  6
CONTINUOUS
 10
412.2656988505682
 20
-145.2930342194217
 30
0.0
 11
426.7656988505678
 21
-130.7930342194221
 31
0.0
  0
LINE
  5
AD6A
  8
1HATCH
  6
CONTINUOUS
 10
414.5107628808355
 20
-145.2930342194217
 30
0.0
 11
429.0107628808352
 21
-130.7930342194221
 31
0.0
  0
LINE
  5
AD6B
  8
1HATCH
  6
CONTINUOUS
 10
416.7558269111028
 20
-145.2930342194217
 30
0.0
 11
431.2558269111025
 21
-130.7930342194221
 31
0.0
  0
LINE
  5
AD6C
  8
1HATCH
  6
CONTINUOUS
 10
419.0008909413701
 20
-145.2930342194217
 30
0.0
 11
433.5008909413698
 21
-130.793034219422
 31
0.0
  0
LINE
  5
AD6D
  8
1HATCH
  6
CONTINUOUS
 10
421.2459549716374
 20
-145.2930342194217
 30
0.0
 11
435.7459549716371
 21
-130.793034219422
 31
0.0
  0
LINE
  5
AD6E
  8
1HATCH
  6
CONTINUOUS
 10
423.4910190019046
 20
-145.2930342194217
 30
0.0
 11
437.9910190019044
 21
-130.7930342194219
 31
0.0
  0
LINE
  5
AD6F
  8
1HATCH
  6
CONTINUOUS
 10
425.736083032172
 20
-145.2930342194217
 30
0.0
 11
440.2360830321718
 21
-130.7930342194219
 31
0.0
  0
LINE
  5
AD70
  8
1HATCH
  6
CONTINUOUS
 10
427.9811470624393
 20
-145.2930342194217
 30
0.0
 11
442.4811470624391
 21
-130.7930342194219
 31
0.0
  0
LINE
  5
AD71
  8
1HATCH
  6
CONTINUOUS
 10
430.2262110927065
 20
-145.2930342194217
 30
0.0
 11
444.7262110927064
 21
-130.7930342194218
 31
0.0
  0
LINE
  5
AD72
  8
1HATCH
  6
CONTINUOUS
 10
432.4712751229739
 20
-145.2930342194217
 30
0.0
 11
446.9712751229737
 21
-130.7930342194218
 31
0.0
  0
LINE
  5
AD73
  8
1HATCH
  6
CONTINUOUS
 10
434.7163391532412
 20
-145.2930342194217
 30
0.0
 11
447.2274382508256
 21
-132.7819351218373
 31
0.0
  0
LINE
  5
AD74
  8
1HATCH
  6
CONTINUOUS
 10
436.9614031835084
 20
-145.2930342194217
 30
0.0
 11
447.2274382508256
 21
-135.0269991521046
 31
0.0
  0
LINE
  5
AD75
  8
1HATCH
  6
CONTINUOUS
 10
439.2064672137757
 20
-145.2930342194217
 30
0.0
 11
447.2274382508256
 21
-137.2720631823719
 31
0.0
  0
LINE
  5
AD76
  8
1HATCH
  6
CONTINUOUS
 10
441.451531244043
 20
-145.2930342194217
 30
0.0
 11
447.2274382508256
 21
-139.5171272126392
 31
0.0
  0
LINE
  5
AD77
  8
1HATCH
  6
CONTINUOUS
 10
443.6965952743103
 20
-145.2930342194217
 30
0.0
 11
447.2274382508256
 21
-141.7621912429065
 31
0.0
  0
LINE
  5
AD78
  8
1HATCH
  6
CONTINUOUS
 10
445.9416593045776
 20
-145.2930342194217
 30
0.0
 11
447.2274382508256
 21
-144.0072552731737
 31
0.0
  0
LINE
  5
AD79
  8
1HATCH
  6
CONTINUOUS
 10
503.2274382508256
 20
-132.9085358785195
 30
0.0
 11
505.3429399099244
 21
-130.7930342194207
 31
0.0
  0
LINE
  5
AD7A
  8
1HATCH
  6
CONTINUOUS
 10
503.2274382508256
 20
-135.1535999087868
 30
0.0
 11
507.5880039401918
 21
-130.7930342194206
 31
0.0
  0
LINE
  5
AD7B
  8
1HATCH
  6
CONTINUOUS
 10
503.2274382508255
 20
-137.3986639390541
 30
0.0
 11
509.8330679704591
 21
-130.7930342194206
 31
0.0
  0
LINE
  5
AD7C
  8
1HATCH
  6
CONTINUOUS
 10
503.2274382508255
 20
-139.6437279693214
 30
0.0
 11
512.0781320007264
 21
-130.7930342194205
 31
0.0
  0
LINE
  5
AD7D
  8
1HATCH
  6
CONTINUOUS
 10
503.2274382508255
 20
-141.8887919995887
 30
0.0
 11
514.3231960309937
 21
-130.7930342194205
 31
0.0
  0
LINE
  5
AD7E
  8
1HATCH
  6
CONTINUOUS
 10
503.2274382508255
 20
-144.133856029856
 30
0.0
 11
516.5682600612611
 21
-130.7930342194204
 31
0.0
  0
LINE
  5
AD7F
  8
1HATCH
  6
CONTINUOUS
 10
504.3133240915271
 20
-145.2930342194217
 30
0.0
 11
518.8133240915284
 21
-130.7930342194204
 31
0.0
  0
LINE
  5
AD80
  8
1HATCH
  6
CONTINUOUS
 10
506.5583881217944
 20
-145.2930342194217
 30
0.0
 11
520.1805727162266
 21
-131.6708496249895
 31
0.0
  0
LINE
  5
AD81
  8
1HATCH
  6
CONTINUOUS
 10
508.8034521520617
 20
-145.2930342194217
 30
0.0
 11
520.1805727162266
 21
-133.9159136552568
 31
0.0
  0
LINE
  5
AD82
  8
1HATCH
  6
CONTINUOUS
 10
511.048516182329
 20
-145.2930342194217
 30
0.0
 11
520.1805727162266
 21
-136.160977685524
 31
0.0
  0
LINE
  5
AD83
  8
1HATCH
  6
CONTINUOUS
 10
513.2935802125962
 20
-145.2930342194217
 30
0.0
 11
520.1805727162267
 21
-138.4060417157913
 31
0.0
  0
LINE
  5
AD84
  8
1HATCH
  6
CONTINUOUS
 10
515.5386442428636
 20
-145.2930342194217
 30
0.0
 11
520.1805727162267
 21
-140.6511057460586
 31
0.0
  0
LINE
  5
AD85
  8
1HATCH
  6
CONTINUOUS
 10
517.7837082731309
 20
-145.2930342194217
 30
0.0
 11
520.1805727162267
 21
-142.8961697763258
 31
0.0
  0
LINE
  5
AD86
  8
1HATCH
  6
CONTINUOUS
 10
520.0287723033982
 20
-145.2930342194217
 30
0.0
 11
520.1805727162267
 21
-145.1412338065931
 31
0.0
  0
LINE
  5
AD87
  8
1HATCH
  6
CONTINUOUS
 10
393.5893810031397
 20
-145.2930342194217
 30
0.0
 11
391.4346804244727
 21
-143.1383336407548
 31
0.0
  0
LINE
  5
AD88
  8
1HATCH
  6
CONTINUOUS
 10
395.834445033407
 20
-145.2930342194217
 30
0.0
 11
391.4346804244727
 21
-140.8932696104875
 31
0.0
  0
LINE
  5
AD89
  8
1HATCH
  6
CONTINUOUS
 10
398.0795090636742
 20
-145.2930342194217
 30
0.0
 11
391.4346804244727
 21
-138.6482055802202
 31
0.0
  0
LINE
  5
AD8A
  8
1HATCH
  6
CONTINUOUS
 10
400.3245730939415
 20
-145.2930342194217
 30
0.0
 11
391.4346804244727
 21
-136.4031415499529
 31
0.0
  0
LINE
  5
AD8B
  8
1HATCH
  6
CONTINUOUS
 10
402.5696371242088
 20
-145.2930342194217
 30
0.0
 11
391.4346804244727
 21
-134.1580775196856
 31
0.0
  0
LINE
  5
AD8C
  8
1HATCH
  6
CONTINUOUS
 10
404.8147011544761
 20
-145.2930342194217
 30
0.0
 11
391.4346804244727
 21
-131.9130134894183
 31
0.0
  0
LINE
  5
AD8D
  8
1HATCH
  6
CONTINUOUS
 10
407.0597651847434
 20
-145.2930342194217
 30
0.0
 11
392.5597651847445
 21
-130.7930342194228
 31
0.0
  0
LINE
  5
AD8E
  8
1HATCH
  6
CONTINUOUS
 10
409.3048292150107
 20
-145.2930342194217
 30
0.0
 11
394.8048292150117
 21
-130.7930342194227
 31
0.0
  0
LINE
  5
AD8F
  8
1HATCH
  6
CONTINUOUS
 10
411.549893245278
 20
-145.2930342194217
 30
0.0
 11
397.049893245279
 21
-130.7930342194227
 31
0.0
  0
LINE
  5
AD90
  8
1HATCH
  6
CONTINUOUS
 10
413.7949572755452
 20
-145.2930342194217
 30
0.0
 11
399.2949572755462
 21
-130.7930342194227
 31
0.0
  0
LINE
  5
AD91
  8
1HATCH
  6
CONTINUOUS
 10
416.0400213058126
 20
-145.2930342194217
 30
0.0
 11
401.5400213058135
 21
-130.7930342194226
 31
0.0
  0
LINE
  5
AD92
  8
1HATCH
  6
CONTINUOUS
 10
418.2850853360798
 20
-145.2930342194217
 30
0.0
 11
403.7850853360807
 21
-130.7930342194226
 31
0.0
  0
LINE
  5
AD93
  8
1HATCH
  6
CONTINUOUS
 10
420.5301493663471
 20
-145.2930342194217
 30
0.0
 11
406.0301493663479
 21
-130.7930342194225
 31
0.0
  0
LINE
  5
AD94
  8
1HATCH
  6
CONTINUOUS
 10
422.7752133966144
 20
-145.2930342194217
 30
0.0
 11
408.2752133966152
 21
-130.7930342194225
 31
0.0
  0
LINE
  5
AD95
  8
1HATCH
  6
CONTINUOUS
 10
425.0202774268817
 20
-145.2930342194217
 30
0.0
 11
410.5202774268824
 21
-130.7930342194225
 31
0.0
  0
LINE
  5
AD96
  8
1HATCH
  6
CONTINUOUS
 10
427.265341457149
 20
-145.2930342194217
 30
0.0
 11
412.7653414571497
 21
-130.7930342194224
 31
0.0
  0
LINE
  5
AD97
  8
1HATCH
  6
CONTINUOUS
 10
429.5104054874163
 20
-145.2930342194217
 30
0.0
 11
415.0104054874169
 21
-130.7930342194224
 31
0.0
  0
LINE
  5
AD98
  8
1HATCH
  6
CONTINUOUS
 10
431.7554695176835
 20
-145.2930342194217
 30
0.0
 11
417.2554695176842
 21
-130.7930342194223
 31
0.0
  0
LINE
  5
AD99
  8
1HATCH
  6
CONTINUOUS
 10
434.0005335479509
 20
-145.2930342194217
 30
0.0
 11
419.5005335479514
 21
-130.7930342194223
 31
0.0
  0
LINE
  5
AD9A
  8
1HATCH
  6
CONTINUOUS
 10
436.2455975782181
 20
-145.2930342194217
 30
0.0
 11
421.7455975782187
 21
-130.7930342194222
 31
0.0
  0
LINE
  5
AD9B
  8
1HATCH
  6
CONTINUOUS
 10
438.4906616084854
 20
-145.2930342194217
 30
0.0
 11
423.9906616084859
 21
-130.7930342194222
 31
0.0
  0
LINE
  5
AD9C
  8
1HATCH
  6
CONTINUOUS
 10
440.7357256387527
 20
-145.2930342194217
 30
0.0
 11
426.2357256387531
 21
-130.7930342194221
 31
0.0
  0
LINE
  5
AD9D
  8
1HATCH
  6
CONTINUOUS
 10
442.98078966902
 20
-145.2930342194217
 30
0.0
 11
428.4807896690204
 21
-130.7930342194221
 31
0.0
  0
LINE
  5
AD9E
  8
1HATCH
  6
CONTINUOUS
 10
445.2258536992873
 20
-145.2930342194217
 30
0.0
 11
430.7258536992877
 21
-130.7930342194221
 31
0.0
  0
LINE
  5
AD9F
  8
1HATCH
  6
CONTINUOUS
 10
447.2274382508256
 20
-145.0495547406927
 30
0.0
 11
432.9709177295549
 21
-130.793034219422
 31
0.0
  0
LINE
  5
ADA0
  8
1HATCH
  6
CONTINUOUS
 10
447.2274382508256
 20
-142.8044907104254
 30
0.0
 11
435.2159817598222
 21
-130.793034219422
 31
0.0
  0
LINE
  5
ADA1
  8
1HATCH
  6
CONTINUOUS
 10
447.2274382508256
 20
-140.5594266801581
 30
0.0
 11
437.4610457900894
 21
-130.7930342194219
 31
0.0
  0
LINE
  5
ADA2
  8
1HATCH
  6
CONTINUOUS
 10
447.2274382508256
 20
-138.3143626498908
 30
0.0
 11
439.7061098203567
 21
-130.7930342194219
 31
0.0
  0
LINE
  5
ADA3
  8
1HATCH
  6
CONTINUOUS
 10
447.2274382508256
 20
-136.0692986196235
 30
0.0
 11
441.9511738506239
 21
-130.7930342194219
 31
0.0
  0
LINE
  5
ADA4
  8
1HATCH
  6
CONTINUOUS
 10
447.2274382508256
 20
-133.8242345893563
 30
0.0
 11
444.1962378808911
 21
-130.7930342194218
 31
0.0
  0
LINE
  5
ADA5
  8
1HATCH
  6
CONTINUOUS
 10
447.2274382508256
 20
-131.579170559089
 30
0.0
 11
446.4413019111584
 21
-130.7930342194218
 31
0.0
  0
LINE
  5
ADA6
  8
1HATCH
  6
CONTINUOUS
 10
503.5975184862368
 20
-145.2930342194217
 30
0.0
 11
503.2274382508255
 21
-144.9229539840104
 31
0.0
  0
LINE
  5
ADA7
  8
1HATCH
  6
CONTINUOUS
 10
505.8425825165041
 20
-145.2930342194217
 30
0.0
 11
503.2274382508255
 21
-142.6778899537431
 31
0.0
  0
LINE
  5
ADA8
  8
1HATCH
  6
CONTINUOUS
 10
508.0876465467713
 20
-145.2930342194217
 30
0.0
 11
503.2274382508255
 21
-140.4328259234758
 31
0.0
  0
LINE
  5
ADA9
  8
1HATCH
  6
CONTINUOUS
 10
510.3327105770387
 20
-145.2930342194217
 30
0.0
 11
503.2274382508255
 21
-138.1877618932086
 31
0.0
  0
LINE
  5
ADAA
  8
1HATCH
  6
CONTINUOUS
 10
512.577774607306
 20
-145.2930342194217
 30
0.0
 11
503.2274382508255
 21
-135.9426978629413
 31
0.0
  0
LINE
  5
ADAB
  8
1HATCH
  6
CONTINUOUS
 10
514.8228386375732
 20
-145.2930342194217
 30
0.0
 11
503.2274382508256
 21
-133.697633832674
 31
0.0
  0
LINE
  5
ADAC
  8
1HATCH
  6
CONTINUOUS
 10
517.0679026678405
 20
-145.2930342194217
 30
0.0
 11
503.2274382508256
 21
-131.4525698024067
 31
0.0
  0
LINE
  5
ADAD
  8
1HATCH
  6
CONTINUOUS
 10
519.3129666981077
 20
-145.2930342194217
 30
0.0
 11
504.8129666981068
 21
-130.7930342194207
 31
0.0
  0
LINE
  5
ADAE
  8
1HATCH
  6
CONTINUOUS
 10
520.1805727162267
 20
-143.9155762072733
 30
0.0
 11
507.058030728374
 21
-130.7930342194206
 31
0.0
  0
LINE
  5
ADAF
  8
1HATCH
  6
CONTINUOUS
 10
520.1805727162267
 20
-141.670512177006
 30
0.0
 11
509.3030947586412
 21
-130.7930342194206
 31
0.0
  0
LINE
  5
ADB0
  8
1HATCH
  6
CONTINUOUS
 10
520.1805727162267
 20
-139.4254481467387
 30
0.0
 11
511.5481587889085
 21
-130.7930342194205
 31
0.0
  0
LINE
  5
ADB1
  8
1HATCH
  6
CONTINUOUS
 10
520.1805727162266
 20
-137.1803841164714
 30
0.0
 11
513.7932228191758
 21
-130.7930342194205
 31
0.0
  0
LINE
  5
ADB2
  8
1HATCH
  6
CONTINUOUS
 10
520.1805727162266
 20
-134.9353200862041
 30
0.0
 11
516.038286849443
 21
-130.7930342194204
 31
0.0
  0
LINE
  5
ADB3
  8
1HATCH
  6
CONTINUOUS
 10
520.1805727162266
 20
-132.6902560559368
 30
0.0
 11
518.2833508797103
 21
-130.7930342194204
 31
0.0
  0
LINE
  5
ADB4
  8
1DIM
 10
447.2274382508256
 20
-145.2930342194217
 30
0.0
 11
447.2274382508256
 21
-210.6953018283219
 31
0.0
1001
ACAD
1000
DSTYLE
1002
{
1070
     3
1000
φ<>
1002
}
  0
LINE
  5
ADB5
  8
1DIM
 10
503.2274382508255
 20
-145.2930342194217
 30
0.0
 11
503.2274382508255
 21
-210.6953018283219
 31
0.0
1001
ACAD
1000
DSTYLE
1002
{
1070
     3
1000
φ<>
1002
}
  0
LINE
  5
ADB6
  8
1DIM
 10
449.2274382508256
 20
-209.6953018283219
 30
0.0
 11
501.2274382508255
 21
-209.6953018283219
 31
0.0
1001
ACAD
1000
DSTYLE
1002
{
1070
     3
1000
φ<>
1002
}
  0
LINE
  5
ADBA
  8
1HATCH
  6
CONTINUOUS
 10
391.4346804244727
 20
-149.6531355026593
 30
0.0
 11
393.951986074044
 21
-145.2930342194217
 31
0.0
  0
LINE
  5
ADBB
  8
1HATCH
  6
CONTINUOUS
 10
407.4273494163808
 20
-185.4530202600432
 30
0.0
 11
430.6137281675852
 21
-145.2930342194217
 31
0.0
  0
LINE
  5
ADBC
  8
1HATCH
  6
CONTINUOUS
 10
444.089091509922
 20
-185.4530202600432
 30
0.0
 11
460.0713279505945
 21
-157.7709747262198
 31
0.0
  0
LINE
  5
ADBD
  8
1HATCH
  6
CONTINUOUS
 10
460.5043406131043
 20
-157.020974794432
 30
0.0
 11
462.2774391618516
 21
-153.949878021175
 31
0.0
  0
LINE
  5
ADBE
  8
1HATCH
  6
CONTINUOUS
 10
480.7508336034633
 20
-185.4530202600432
 30
0.0
 11
492.3274391618515
 21
-165.4017512537305
 31
0.0
  0
LINE
  5
ADBF
  8
1HATCH
  6
CONTINUOUS
 10
497.5774391618515
 20
-156.3084845139939
 30
0.0
 11
503.9372123546677
 21
-145.2930342194217
 31
0.0
  0
LINE
  5
ADC0
  8
1HATCH
  6
CONTINUOUS
 10
517.4125756970045
 20
-185.4530202600432
 30
0.0
 11
520.3942644032018
 21
-180.2885839285553
 31
0.0
  0
LINE
  5
ADC1
  8
1HATCH
  6
CONTINUOUS
 10
402.8446316546882
 20
-185.4530202600432
 30
0.0
 11
426.0310104058926
 21
-145.2930342194217
 31
0.0
  0
LINE
  5
ADC2
  8
1HATCH
  6
CONTINUOUS
 10
439.5063737482294
 20
-185.4530202600432
 30
0.0
 11
457.7799690823805
 21
-153.8022247043398
 31
0.0
  0
LINE
  5
ADC3
  8
1HATCH
  6
CONTINUOUS
 10
457.7824985029374
 20
-153.7978436194217
 30
0.0
 11
461.364677510387
 21
-147.5933275767123
 31
0.0
  0
LINE
  5
ADC4
  8
1HATCH
  6
CONTINUOUS
 10
476.1681158417706
 20
-185.4530202600432
 30
0.0
 11
491.5108401129931
 21
-158.8786422957657
 31
0.0
  0
LINE
  5
ADC5
  8
1HATCH
  6
CONTINUOUS
 10
491.9438527617986
 20
-158.1286423877146
 30
0.0
 11
493.0774391618516
 21
-156.1652131480537
 31
0.0
  0
LINE
  5
ADC6
  8
1HATCH
  6
CONTINUOUS
 10
499.2812897047752
 20
-145.4198288051463
 30
0.0
 11
499.3544945929751
 21
-145.2930342194217
 31
0.0
  0
LINE
  5
ADC7
  8
1HATCH
  6
CONTINUOUS
 10
512.8298579353118
 20
-185.4530202600432
 30
0.0
 11
520.3942644032018
 21
-172.3510839285553
 31
0.0
  0
LINE
  5
ADC8
  8
1HATCH
  6
CONTINUOUS
 10
398.2619138929955
 20
-185.4530202600432
 30
0.0
 11
421.4482926442
 21
-145.2930342194217
 31
0.0
  0
LINE
  5
ADC9
  8
1HATCH
  6
CONTINUOUS
 10
434.9236559865367
 20
-185.4530202600432
 30
0.0
 11
458.1100347377412
 21
-145.2930342194217
 31
0.0
  0
LINE
  5
ADCA
  8
1HATCH
  6
CONTINUOUS
 10
471.585398080078
 20
-185.4530202600432
 30
0.0
 11
489.2194812447792
 21
-154.9098922738858
 31
0.0
  0
LINE
  5
ADCB
  8
1HATCH
  6
CONTINUOUS
 10
489.6524939426871
 20
-154.1598922807868
 30
0.0
 11
492.3274391618515
 21
-149.5267512537305
 31
0.0
  0
LINE
  5
ADCC
  8
1HATCH
  6
CONTINUOUS
 10
508.2471401736192
 20
-185.4530202600432
 30
0.0
 11
520.3942644032018
 21
-164.4135839285553
 31
0.0
  0
LINE
  5
ADCD
  8
1DIM
 10
520.1805727162266
 20
-130.7930342194204
 30
0.0
 11
531.2557791355217
 21
-130.7930342194204
 31
0.0
  0
LINE
  5
ADCE
  8
1DIM
 10
520.1805727162267
 20
-145.2930342194217
 30
0.0
 11
531.2557791355217
 21
-145.2930342194217
 31
0.0
  0
LINE
  5
ADCF
  8
1DIM
 10
530.2557791355217
 20
-132.7930342194204
 30
0.0
 11
530.2557791355217
 21
-143.2930342194217
 31
0.0
  0
LINE
  5
ADD0
  8
1DIM
 10
530.2557791355217
 20
-145.2930342194217
 30
0.0
 11
530.2557791355217
 21
-166.8930342194216
 31
0.0
  0
LINE
  5
ADD5
  8
1DIM
 10
464.5490772053475
 20
-120.1903796564414
 30
0.0
 11
473.9920416418391
 21
-93.87417117070777
 31
0.0
  0
LINE
  5
ADD6
  8
1DIM
 10
473.9920416418391
 20
-93.87417117070777
 30
0.0
 11
492.6920416418391
 21
-93.87417117070777
 31
0.0
  0
TEXT
  5
ADD7
  8
1DIM
  6
CONTINUOUS
 10
476.6920416418391
 20
-93.17417117070777
 30
0.0
 40
3.5
  1
AC774
  0
LINE
  5
ADD9
  8
1DIM
 10
437.3750422614356
 20
-112.7441361034301
 30
0.0
 11
473.992041641839
 21
-93.87417117070777
 31
0.0
  0
LINE
  5
ADDB
  8
1DIM
 10
405.2693759757093
 20
-144.5152965418162
 30
0.0
 11
392.329642421385
 21
-178.2809839859664
 31
0.0
  0
LINE
  5
ADDC
  8
1DIM
 10
392.329642421385
 20
-178.2809839859664
 30
0.0
 11
370.4963090880516
 21
-178.2809839859664
 31
0.0
  0
TEXT
  5
ADDD
  8
1DIM
  6
CONTINUOUS
 10
370.029642421385
 20
-171.7476506526331
 30
0.0
 40
3.5
  1
カーペット
  0
TEXT
  5
ADDE
  8
1DIM
  6
CONTINUOUS
 10
373.5296424213849
 20
-177.5809839859664
 30
0.0
 40
3.5
  1
別途手配
  0
LINE
  5
ADE0
  8
1DIM
 10
428.988888580586
 20
-167.0722537872183
 30
0.0
 11
417.6834459493994
 21
-198.1094051169705
 31
0.0
  0
LINE
  5
ADE1
  8
1DIM
 10
417.6834459493994
 20
-198.1094051169705
 30
0.0
 11
399.2334459493994
 21
-198.1094051169705
 31
0.0
  0
TEXT
  5
ADE2
  8
1DIM
  6
CONTINUOUS
 10
399.000112616066
 20
-197.4094051169705
 30
0.0
 40
3.5
  1
スラブ面
  0
LINE
  5
ADE4
  8
1DIM
 10
497.936398594604
 20
-173.8041408035656
 30
0.0
 11
515.8612615904449
 21
-211.4277372926881
 31
0.0
  0
LINE
  5
ADE5
  8
1DIM
 10
515.8612615904449
 20
-211.4277372926881
 30
0.0
 11
579.3945949237782
 21
-211.4277372926881
 31
0.0
  0
TEXT
  5
ADE6
  8
1DIM
  6
CONTINUOUS
 10
518.0945949237782
 20
-204.8944039593547
 30
0.0
 40
3.5
  1
Φ6X30エビモンゴプラグX3個
  0
TEXT
  5
ADE7
  8
1DIM
  6
CONTINUOUS
 10
518.5612615904449
 20
-210.7277372926881
 30
0.0
 40
3.5
  1
AC774付属品
  0
LINE
  5
ADE9
  8
1DIM
 10
497.7302751312555
 20
-158.9742971921941
 30
0.0
 11
523.6657647835054
 21
-191.6426709254751
 31
0.0
  0
LINE
  5
ADEA
  8
1DIM
 10
523.6657647835054
 20
-191.6426709254751
 30
0.0
 11
585.4157647835054
 21
-191.6426709254751
 31
0.0
  0
TEXT
  5
ADEB
  8
1DIM
  6
CONTINUOUS
 10
525.8990981168388
 20
-185.1093375921417
 30
0.0
 40
3.5
  1
Φ3.5X40十字穴付鍋タッピン
  0
TEXT
  5
ADEC
  8
1DIM
  6
CONTINUOUS
 10
526.3657647835055
 20
-190.9451014810306
 30
0.0
 40
3.5
  1
SUSX3個　AC774付属品
  0
LINE
  5
ADED
  8
0
  6
BYBLOCK
 10
378.3506937328394
 20
-122.7930342194218
 30
0.0
 11
378.8865921128394
 21
-120.7930342194218
 31
0.0
  0
LINE
  5
ADEE
  8
0
  6
BYBLOCK
 10
378.8865921128394
 20
-120.7930342194218
 30
0.0
 11
379.4224904928394
 21
-122.7930342194218
 31
0.0
  0
LINE
  5
ADEF
  8
0
  6
BYBLOCK
 10
378.8865921128394
 20
-120.7930342194218
 30
0.0
 11
378.8865921128394
 21
-122.7930342194218
 31
0.0
  0
LINE
  5
ADF0
  8
0
  6
BYBLOCK
 10
379.4224904928394
 20
-128.7930342194228
 30
0.0
 11
378.8865921128394
 21
-130.7930342194228
 31
0.0
  0
LINE
  5
ADF1
  8
0
  6
BYBLOCK
 10
378.8865921128394
 20
-130.7930342194228
 30
0.0
 11
378.3506937328394
 21
-128.7930342194228
 31
0.0
  0
LINE
  5
ADF2
  8
0
  6
BYBLOCK
 10
378.8865921128394
 20
-130.7930342194228
 30
0.0
 11
378.8865921128394
 21
-128.7930342194228
 31
0.0
  0
TEXT
  5
ADF3
  8
1DIM
  6
CONTINUOUS
 10
378.1865921128394
 20
-151.0326175527562
 30
0.0
 40
3.5
  1
10 ～20
 50
90.0
  0
LINE
  5
ADF4
  8
0
  6
BYBLOCK
 10
386.9356289676223
 20
-125.2930342194219
 30
0.0
 11
386.3997305876223
 21
-127.2930342194219
 31
0.0
  0
LINE
  5
ADF5
  8
0
  6
BYBLOCK
 10
386.3997305876223
 20
-127.2930342194219
 30
0.0
 11
385.8638322076224
 21
-125.2930342194219
 31
0.0
  0
LINE
  5
ADF6
  8
0
  6
BYBLOCK
 10
386.3997305876223
 20
-127.2930342194219
 30
0.0
 11
386.3997305876223
 21
-125.2930342194219
 31
0.0
  0
LINE
  5
ADF7
  8
0
  6
BYBLOCK
 10
385.8638322076224
 20
-132.7930342194228
 30
0.0
 11
386.3997305876223
 21
-130.7930342194228
 31
0.0
  0
LINE
  5
ADF8
  8
0
  6
BYBLOCK
 10
386.3997305876223
 20
-130.7930342194228
 30
0.0
 11
386.9356289676223
 21
-132.7930342194228
 31
0.0
  0
LINE
  5
ADF9
  8
0
  6
BYBLOCK
 10
386.3997305876223
 20
-130.7930342194228
 30
0.0
 11
386.3997305876223
 21
-132.7930342194228
 31
0.0
  0
TEXT
  5
ADFA
  8
1DIM
  6
CONTINUOUS
 10
385.6997305876224
 20
-137.9097008860895
 30
0.0
 40
3.5
  1
4
 50
90.0
  0
LINE
  5
ADFB
  8
0
  6
BYBLOCK
 10
423.4346804244725
 20
-83.923754982447
 30
0.0
 11
421.4346804244725
 21
-83.38785660244699
 31
0.0
  0
LINE
  5
ADFC
  8
0
  6
BYBLOCK
 10
421.4346804244725
 20
-83.38785660244699
 30
0.0
 11
423.4346804244725
 21
-82.85195822244698
 31
0.0
  0
LINE
  5
ADFD
  8
0
  6
BYBLOCK
 10
421.4346804244725
 20
-83.38785660244699
 30
0.0
 11
423.4346804244725
 21
-83.38785660244699
 31
0.0
  0
LINE
  5
ADFE
  8
0
  6
BYBLOCK
 10
436.4346804244725
 20
-82.85195822244698
 30
0.0
 11
438.4346804244725
 21
-83.38785660244699
 31
0.0
  0
LINE
  5
ADFF
  8
0
  6
BYBLOCK
 10
438.4346804244725
 20
-83.38785660244699
 30
0.0
 11
436.4346804244725
 21
-83.923754982447
 31
0.0
  0
LINE
  5
AE00
  8
0
  6
BYBLOCK
 10
438.4346804244725
 20
-83.38785660244699
 30
0.0
 11
436.4346804244725
 21
-83.38785660244699
 31
0.0
  0
TEXT
  5
AE01
  8
1DIM
  6
CONTINUOUS
 10
427.6013470911392
 20
-82.68785660244698
 30
0.0
 40
3.5
  1
17
1001
ACAD
1000
DSTYLE
1002
{
1070
    75
1070
     1
1002
}
  0
LINE
  5
AE02
  8
0
  6
BYBLOCK
 10
530.7916775155218
 20
-128.7930342194204
 30
0.0
 11
530.2557791355217
 21
-130.7930342194204
 31
0.0
  0
LINE
  5
AE03
  8
0
  6
BYBLOCK
 10
530.2557791355217
 20
-130.7930342194204
 30
0.0
 11
529.7198807555217
 21
-128.7930342194204
 31
0.0
  0
LINE
  5
AE04
  8
0
  6
BYBLOCK
 10
530.2557791355217
 20
-130.7930342194204
 30
0.0
 11
530.2557791355217
 21
-128.7930342194204
 31
0.0
  0
LINE
  5
AE05
  8
0
  6
BYBLOCK
 10
529.7198807555217
 20
-124.2930342194209
 30
0.0
 11
530.2557791355217
 21
-122.2930342194209
 31
0.0
  0
LINE
  5
AE06
  8
0
  6
BYBLOCK
 10
530.2557791355217
 20
-122.2930342194209
 30
0.0
 11
530.7916775155218
 21
-124.2930342194209
 31
0.0
  0
LINE
  5
AE07
  8
0
  6
BYBLOCK
 10
530.2557791355217
 20
-122.2930342194209
 30
0.0
 11
530.2557791355217
 21
-124.2930342194209
 31
0.0
  0
TEXT
  5
AE08
  8
1DIM
  6
CONTINUOUS
 10
529.5557791355217
 20
-119.4263675527543
 30
0.0
 40
3.5
  1
8.5
 50
90.0
  0
LINE
  5
AE09
  8
0
  6
BYBLOCK
 10
309.3947830973729
 20
-80.86933244585528
 30
0.0
 11
307.3947830973729
 21
-80.33343406585527
 31
0.0
  0
LINE
  5
AE0A
  8
0
  6
BYBLOCK
 10
307.3947830973729
 20
-80.33343406585527
 30
0.0
 11
309.3947830973729
 21
-79.79753568585527
 31
0.0
  0
LINE
  5
AE0B
  8
0
  6
BYBLOCK
 10
307.3947830973729
 20
-80.33343406585527
 30
0.0
 11
309.3947830973729
 21
-80.33343406585527
 31
0.0
  0
LINE
  5
AE0C
  8
0
  6
BYBLOCK
 10
304.8947830973726
 20
-79.79753568585527
 30
0.0
 11
306.8947830973726
 21
-80.33343406585527
 31
0.0
  0
LINE
  5
AE0D
  8
0
  6
BYBLOCK
 10
306.8947830973726
 20
-80.33343406585527
 30
0.0
 11
304.8947830973726
 21
-80.86933244585528
 31
0.0
  0
LINE
  5
AE0E
  8
0
  6
BYBLOCK
 10
306.8947830973726
 20
-80.33343406585527
 30
0.0
 11
304.8947830973726
 21
-80.33343406585527
 31
0.0
  0
TEXT
  5
AE0F
  8
1HATCH
  6
CONTINUOUS
 10
295.3197830973726
 20
-79.63343406585528
 30
0.0
 40
3.5
  1
0.5
1001
ACAD
1000
DSTYLE
1002
{
1070
    48
1040
0.1
1070
     3
1000
<>
1002
}
  0
LINE
  5
AE10
  8
0
  6
BYBLOCK
 10
313.8947830973727
 20
-73.54037056596003
 30
0.0
 11
311.8947830973727
 21
-73.00447218596003
 31
0.0
  0
LINE
  5
AE11
  8
0
  6
BYBLOCK
 10
311.8947830973727
 20
-73.00447218596003
 30
0.0
 11
313.8947830973727
 21
-72.46857380596002
 31
0.0
  0
LINE
  5
AE12
  8
0
  6
BYBLOCK
 10
311.8947830973727
 20
-73.00447218596003
 30
0.0
 11
313.8947830973727
 21
-73.00447218596003
 31
0.0
  0
LINE
  5
AE13
  8
0
  6
BYBLOCK
 10
304.8947830973726
 20
-72.46857380596002
 30
0.0
 11
306.8947830973726
 21
-73.00447218596003
 31
0.0
  0
LINE
  5
AE14
  8
0
  6
BYBLOCK
 10
306.8947830973726
 20
-73.00447218596003
 30
0.0
 11
304.8947830973726
 21
-73.54037056596003
 31
0.0
  0
LINE
  5
AE15
  8
0
  6
BYBLOCK
 10
306.8947830973726
 20
-73.00447218596003
 30
0.0
 11
304.8947830973726
 21
-73.00447218596003
 31
0.0
  0
TEXT
  5
AE16
  8
1DIM
  6
CONTINUOUS
 10
299.8614497640393
 20
-72.30447218596004
 30
0.0
 40
3.5
  1
5
1001
ACAD
1000
DSTYLE
1002
{
1070
    47
1040
0.1
1070
    48
1040
0.1
1070
     3
1000
<>
1002
}
  0
LINE
  5
AE17
  8
0
  6
BYBLOCK
 10
296.5738510398282
 20
-93.60044817265072
 30
0.0
 11
297.1097494198282
 21
-91.60044817265072
 31
0.0
  0
LINE
  5
AE18
  8
0
  6
BYBLOCK
 10
297.1097494198282
 20
-91.60044817265072
 30
0.0
 11
297.6456477998282
 21
-93.60044817265072
 31
0.0
  0
LINE
  5
AE19
  8
0
  6
BYBLOCK
 10
297.1097494198282
 20
-91.60044817265072
 30
0.0
 11
297.1097494198282
 21
-93.60044817265072
 31
0.0
  0
LINE
  5
AE1A
  8
0
  6
BYBLOCK
 10
297.6456477998282
 20
-144.6004481726505
 30
0.0
 11
297.1097494198282
 21
-146.6004481726505
 31
0.0
  0
LINE
  5
AE1B
  8
0
  6
BYBLOCK
 10
297.1097494198282
 20
-146.6004481726505
 30
0.0
 11
296.5738510398282
 21
-144.6004481726505
 31
0.0
  0
LINE
  5
AE1C
  8
0
  6
BYBLOCK
 10
297.1097494198282
 20
-146.6004481726505
 30
0.0
 11
297.1097494198282
 21
-144.6004481726505
 31
0.0
  0
TEXT
  5
AE1D
  8
1DIM
  6
CONTINUOUS
 10
296.4097494198282
 20
-124.5959342837617
 30
0.0
 40
3.5
  1
φ55
 50
90.0
1001
ACAD
1000
DSTYLE
1002
{
1070
     3
1000
φ<>
1002
}
  0
LINE
  5
AE1E
  8
0
  6
BYBLOCK
 10
221.5808780906044
 20
-127.8004481726503
 30
0.0
 11
221.0449797106044
 21
-129.8004481726503
 31
0.0
  0
LINE
  5
AE1F
  8
0
  6
BYBLOCK
 10
221.0449797106044
 20
-129.8004481726503
 30
0.0
 11
220.5090813306044
 21
-127.8004481726503
 31
0.0
  0
LINE
  5
AE20
  8
0
  6
BYBLOCK
 10
221.0449797106044
 20
-129.8004481726503
 30
0.0
 11
221.0449797106044
 21
-127.8004481726503
 31
0.0
  0
LINE
  5
AE21
  8
0
  6
BYBLOCK
 10
220.5090813306044
 20
-101.0004481726503
 30
0.0
 11
221.0449797106044
 21
-99.0004481726503
 31
0.0
  0
LINE
  5
AE22
  8
0
  6
BYBLOCK
 10
221.0449797106044
 20
-99.0004481726503
 30
0.0
 11
221.5808780906044
 21
-101.0004481726503
 31
0.0
  0
LINE
  5
AE23
  8
0
  6
BYBLOCK
 10
221.0449797106044
 20
-99.0004481726503
 30
0.0
 11
221.0449797106044
 21
-101.0004481726503
 31
0.0
  0
TEXT
  5
AE24
  8
1DIM
  6
CONTINUOUS
 10
220.3449797106044
 20
-119.3587815059836
 30
0.0
 40
3.5
  1
30.8
 50
90.0
  0
LINE
  5
AE25
  8
0
  6
BYBLOCK
 10
228.3358252327596
 20
-117.1004481726506
 30
0.0
 11
227.7999268527597
 21
-119.1004481726506
 31
0.0
  0
LINE
  5
AE26
  8
0
  6
BYBLOCK
 10
227.7999268527597
 20
-119.1004481726506
 30
0.0
 11
227.2640284727597
 21
-117.1004481726506
 31
0.0
  0
LINE
  5
AE27
  8
0
  6
BYBLOCK
 10
227.7999268527597
 20
-119.1004481726506
 30
0.0
 11
227.7999268527597
 21
-117.1004481726506
 31
0.0
  0
LINE
  5
AE28
  8
0
  6
BYBLOCK
 10
227.2640284727597
 20
-101.0004481726503
 30
0.0
 11
227.7999268527597
 21
-99.0004481726503
 31
0.0
  0
LINE
  5
AE29
  8
0
  6
BYBLOCK
 10
227.7999268527597
 20
-99.0004481726503
 30
0.0
 11
228.3358252327596
 21
-101.0004481726503
 31
0.0
  0
LINE
  5
AE2A
  8
0
  6
BYBLOCK
 10
227.7999268527597
 20
-99.0004481726503
 30
0.0
 11
227.7999268527597
 21
-101.0004481726503
 31
0.0
  0
TEXT
  5
AE2B
  8
1DIM
  6
CONTINUOUS
 10
227.0999268527597
 20
-113.4254481726504
 30
0.0
 40
3.5
  1
20.1
 50
90.0
  0
LINE
  5
AE2C
  8
0
  6
BYBLOCK
 10
247.0104984204736
 20
-165.1000096006796
 30
0.0
 11
245.0104984204736
 21
-164.5641112206796
 31
0.0
  0
LINE
  5
AE2D
  8
0
  6
BYBLOCK
 10
245.0104984204736
 20
-164.5641112206796
 30
0.0
 11
247.0104984204736
 21
-164.0282128406796
 31
0.0
  0
LINE
  5
AE2E
  8
0
  6
BYBLOCK
 10
245.0104984204736
 20
-164.5641112206796
 30
0.0
 11
247.0104984204736
 21
-164.5641112206796
 31
0.0
  0
LINE
  5
AE2F
  8
0
  6
BYBLOCK
 10
273.0104984204736
 20
-164.0282128406796
 30
0.0
 11
275.0104984204736
 21
-164.5641112206796
 31
0.0
  0
LINE
  5
AE30
  8
0
  6
BYBLOCK
 10
275.0104984204736
 20
-164.5641112206796
 30
0.0
 11
273.0104984204736
 21
-165.1000096006796
 31
0.0
  0
LINE
  5
AE31
  8
0
  6
BYBLOCK
 10
275.0104984204736
 20
-164.5641112206796
 30
0.0
 11
273.0104984204736
 21
-164.5641112206796
 31
0.0
  0
TEXT
  5
AE32
  8
1DIM
  6
CONTINUOUS
 10
257.3125817538069
 20
-163.8641112206796
 30
0.0
 40
3.5
  1
30
  0
LINE
  5
AE33
  8
0
  6
BYBLOCK
 10
352.1583325612327
 20
-73.54037056596003
 30
0.0
 11
350.1583325612327
 21
-73.00447218596003
 31
0.0
  0
LINE
  5
AE34
  8
0
  6
BYBLOCK
 10
350.1583325612327
 20
-73.00447218596003
 30
0.0
 11
352.1583325612327
 21
-72.46857380596002
 31
0.0
  0
LINE
  5
AE35
  8
0
  6
BYBLOCK
 10
350.1583325612327
 20
-73.00447218596003
 30
0.0
 11
352.1583325612327
 21
-73.00447218596003
 31
0.0
  0
LINE
  5
AE36
  8
0
  6
BYBLOCK
 10
345.1583325612326
 20
-72.46857380596002
 30
0.0
 11
347.1583325612326
 21
-73.00447218596003
 31
0.0
  0
LINE
  5
AE37
  8
0
  6
BYBLOCK
 10
347.1583325612326
 20
-73.00447218596003
 30
0.0
 11
345.1583325612326
 21
-73.54037056596003
 31
0.0
  0
LINE
  5
AE38
  8
0
  6
BYBLOCK
 10
347.1583325612326
 20
-73.00447218596003
 30
0.0
 11
345.1583325612326
 21
-73.00447218596003
 31
0.0
  0
TEXT
  5
AE39
  8
1DIM
  6
CONTINUOUS
 10
340.1249992278992
 20
-72.30447218596002
 30
0.0
 40
3.5
  1
3
  0
LINE
  5
AE3A
  8
0
  6
BYBLOCK
 10
333.7581339150574
 20
-73.54037056596003
 30
0.0
 11
331.7581339150574
 21
-73.00447218596003
 31
0.0
  0
LINE
  5
AE3B
  8
0
  6
BYBLOCK
 10
331.7581339150574
 20
-73.00447218596003
 30
0.0
 11
333.7581339150574
 21
-72.46857380596002
 31
0.0
  0
LINE
  5
AE3C
  8
0
  6
BYBLOCK
 10
331.7581339150574
 20
-73.00447218596003
 30
0.0
 11
333.7581339150574
 21
-73.00447218596003
 31
0.0
  0
LINE
  5
AE3D
  8
0
  6
BYBLOCK
 10
324.7581339150573
 20
-72.46857380596002
 30
0.0
 11
326.7581339150573
 21
-73.00447218596003
 31
0.0
  0
LINE
  5
AE3E
  8
0
  6
BYBLOCK
 10
326.7581339150573
 20
-73.00447218596003
 30
0.0
 11
324.7581339150573
 21
-73.54037056596003
 31
0.0
  0
LINE
  5
AE3F
  8
0
  6
BYBLOCK
 10
326.7581339150573
 20
-73.00447218596003
 30
0.0
 11
324.7581339150573
 21
-73.00447218596003
 31
0.0
  0
TEXT
  5
AE40
  8
1DIM
  6
CONTINUOUS
 10
319.724800581724
 20
-72.30447218596004
 30
0.0
 40
3.5
  1
5
  0
LINE
  5
AE41
  8
0
  6
BYBLOCK
 10
369.5787008302558
 20
-73.54037056596003
 30
0.0
 11
367.5787008302558
 21
-73.00447218596003
 31
0.0
  0
LINE
  5
AE42
  8
0
  6
BYBLOCK
 10
367.5787008302558
 20
-73.00447218596003
 30
0.0
 11
369.5787008302558
 21
-72.46857380596002
 31
0.0
  0
LINE
  5
AE43
  8
0
  6
BYBLOCK
 10
367.5787008302558
 20
-73.00447218596003
 30
0.0
 11
369.5787008302558
 21
-73.00447218596003
 31
0.0
  0
LINE
  5
AE44
  8
0
  6
BYBLOCK
 10
362.5787008302557
 20
-72.46857380596002
 30
0.0
 11
364.5787008302557
 21
-73.00447218596003
 31
0.0
  0
LINE
  5
AE45
  8
0
  6
BYBLOCK
 10
364.5787008302557
 20
-73.00447218596003
 30
0.0
 11
362.5787008302557
 21
-73.54037056596003
 31
0.0
  0
LINE
  5
AE46
  8
0
  6
BYBLOCK
 10
364.5787008302557
 20
-73.00447218596003
 30
0.0
 11
362.5787008302557
 21
-73.00447218596003
 31
0.0
  0
TEXT
  5
AE47
  8
1DIM
  6
CONTINUOUS
 10
357.5453674969223
 20
-72.30447218596002
 30
0.0
 40
3.5
  1
3
  0
LINE
  5
AE48
  8
0
  6
BYBLOCK
 10
449.2274382508256
 20
-210.2312002083219
 30
0.0
 11
447.2274382508256
 21
-209.6953018283219
 31
0.0
  0
LINE
  5
AE49
  8
0
  6
BYBLOCK
 10
447.2274382508256
 20
-209.6953018283219
 30
0.0
 11
449.2274382508256
 21
-209.1594034483219
 31
0.0
  0
LINE
  5
AE4A
  8
0
  6
BYBLOCK
 10
447.2274382508256
 20
-209.6953018283219
 30
0.0
 11
449.2274382508256
 21
-209.6953018283219
 31
0.0
  0
LINE
  5
AE4B
  8
0
  6
BYBLOCK
 10
501.2274382508255
 20
-209.1594034483219
 30
0.0
 11
503.2274382508255
 21
-209.6953018283219
 31
0.0
  0
LINE
  5
AE4C
  8
0
  6
BYBLOCK
 10
503.2274382508255
 20
-209.6953018283219
 30
0.0
 11
501.2274382508255
 21
-210.2312002083219
 31
0.0
  0
LINE
  5
AE4D
  8
0
  6
BYBLOCK
 10
503.2274382508255
 20
-209.6953018283219
 30
0.0
 11
501.2274382508255
 21
-209.6953018283219
 31
0.0
  0
TEXT
  5
AE4E
  8
1DIM
  6
CONTINUOUS
 10
461.1447993619366
 20
-208.9953018283219
 30
0.0
 40
3.5
  1
φ56切欠き穴
1001
ACAD
1000
DSTYLE
1002
{
1070
     3
1000
φ<>
1002
}
  0
LINE
  5
AE4F
  8
0
  6
BYBLOCK
 10
529.7198807555217
 20
-132.7930342194204
 30
0.0
 11
530.2557791355217
 21
-130.7930342194204
 31
0.0
  0
LINE
  5
AE50
  8
0
  6
BYBLOCK
 10
530.2557791355217
 20
-130.7930342194204
 30
0.0
 11
530.7916775155218
 21
-132.7930342194204
 31
0.0
  0
LINE
  5
AE51
  8
0
  6
BYBLOCK
 10
530.2557791355217
 20
-130.7930342194204
 30
0.0
 11
530.2557791355217
 21
-132.7930342194204
 31
0.0
  0
LINE
  5
AE52
  8
0
  6
BYBLOCK
 10
530.7916775155218
 20
-143.2930342194217
 30
0.0
 11
530.2557791355217
 21
-145.2930342194217
 31
0.0
  0
LINE
  5
AE53
  8
0
  6
BYBLOCK
 10
530.2557791355217
 20
-145.2930342194217
 30
0.0
 11
529.7198807555217
 21
-143.2930342194217
 31
0.0
  0
LINE
  5
AE54
  8
0
  6
BYBLOCK
 10
530.2557791355217
 20
-145.2930342194217
 30
0.0
 11
530.2557791355217
 21
-143.2930342194217
 31
0.0
  0
TEXT
  5
AE55
  8
1DIM
  6
CONTINUOUS
 10
529.5557791355217
 20
-165.6097008860883
 30
0.0
 40
3.5
  1
3～14.5
 50
90.0
  0
LINE
  5
AE56
  8
0
  6
BYBLOCK
 10
465.0534855471616
 20
-120.3713749558137
 30
0.0
 11
463.87359354603
 21
-122.0728572329333
 31
0.0
  0
LINE
  5
AE57
  8
0
  6
BYBLOCK
 10
463.87359354603
 20
-122.0728572329333
 30
0.0
 11
464.0446688635333
 21
-120.009384357069
 31
0.0
  0
LINE
  5
AE58
  8
0
  6
BYBLOCK
 10
463.87359354603
 20
-122.0728572329333
 30
0.0
 11
464.5490772053475
 21
-120.1903796564414
 31
0.0
  0
LINE
  5
AE59
  8
0
  6
BYBLOCK
 10
437.6205289477404
 20
-113.2205008382014
 30
0.0
 11
435.5972248522048
 21
-113.6603048976137
 31
0.0
  0
LINE
  5
AE5A
  8
0
  6
BYBLOCK
 10
435.5972248522048
 20
-113.6603048976137
 30
0.0
 11
437.1295555751308
 21
-112.2677713686588
 31
0.0
  0
LINE
  5
AE5B
  8
0
  6
BYBLOCK
 10
435.5972248522048
 20
-113.6603048976137
 30
0.0
 11
437.3750422614356
 21
-112.7441361034301
 31
0.0
  0
LINE
  5
AE5C
  8
0
  6
BYBLOCK
 10
404.7689642235617
 20
-144.3235280563988
 30
0.0
 11
405.985065713071
 21
-142.6477344411526
 31
0.0
  0
LINE
  5
AE5D
  8
0
  6
BYBLOCK
 10
405.985065713071
 20
-142.6477344411526
 30
0.0
 11
405.7697877278568
 21
-144.7070650272336
 31
0.0
  0
LINE
  5
AE5E
  8
0
  6
BYBLOCK
 10
405.985065713071
 20
-142.6477344411526
 30
0.0
 11
405.2693759757093
 21
-144.5152965418162
 31
0.0
  0
LINE
  5
AE5F
  8
0
  6
BYBLOCK
 10
428.4853549541749
 20
-166.8888390638185
 30
0.0
 11
429.673401653381
 21
-165.1930406930821
 31
0.0
  0
LINE
  5
AE60
  8
0
  6
BYBLOCK
 10
429.673401653381
 20
-165.1930406930821
 30
0.0
 11
429.4924222069972
 21
-167.2556685106181
 31
0.0
  0
LINE
  5
AE61
  8
0
  6
BYBLOCK
 10
429.673401653381
 20
-165.1930406930821
 30
0.0
 11
428.988888580586
 21
-167.0722537872183
 31
0.0
  0
LINE
  5
AE62
  8
0
  6
BYBLOCK
 10
497.4526013615028
 20
-174.034634428055
 30
0.0
 11
497.076184669384
 21
-171.9985849326888
 31
0.0
  0
LINE
  5
AE63
  8
0
  6
BYBLOCK
 10
497.076184669384
 20
-171.9985849326888
 30
0.0
 11
498.4201958277052
 21
-173.5736471790761
 31
0.0
  0
LINE
  5
AE64
  8
0
  6
BYBLOCK
 10
497.076184669384
 20
-171.9985849326888
 30
0.0
 11
497.936398594604
 21
-173.8041408035656
 31
0.0
  0
LINE
  5
AE65
  8
0
  6
BYBLOCK
 10
497.3105632370269
 20
-159.3075073353914
 30
0.0
 11
496.4867179359626
 21
-157.4079110641799
 31
0.0
  0
LINE
  5
AE66
  8
0
  6
BYBLOCK
 10
496.4867179359626
 20
-157.4079110641799
 30
0.0
 11
498.1499870254841
 21
-158.6410870489966
 31
0.0
  0
LINE
  5
AE67
  8
0
  6
BYBLOCK
 10
496.4867179359626
 20
-157.4079110641799
 30
0.0
 11
497.7302751312555
 21
-158.9742971921941
 31
0.0
  0
VIEWPORT
  5
57
 67
     1
  8
0
 10
0.0
 20
0.0
 30
0.0
 40
648.3552631578947
 41
297.0
 68
     1
 69
     1
1001
ACAD
1000
MVIEW
1002
{
1070
    16
1010
0.0
1020
0.0
1030
0.0
1010
0.0
1020
0.0
1030
1.0
1040
0.0
1040
297.0
1040
-4.803621761681427
1040
24.35869087453418
1040
50.0
1040
0.0
1040
0.0
1070
     0
1070
   100
1070
     1
1070
     1
1070
     0
1070
     0
1070
     0
1070
     0
1040
0.0
1040
0.0
1040
0.0
1040
10.0
1040
10.0
1040
10.0
1040
10.0
1070
     0
1002
{
1002
}
1002
}
  0
ENDSEC
  0
EOF
