  0
SECTION
  2
HEADER
  9
$ACADVER
  1
AC1012
  9
$DWGCODEPAGE
  3
ansi_932
  9
$INSBASE
 10
0.0
 20
0.0
 30
0.0
  9
$EXTMIN
 10
-276.5411380994905
 20
-2231.404228491045
 30
0.0
  9
$EXTMAX
 10
9.575919873202118
 20
-2000.778033801871
 30
0.0
  9
$LIMMIN
 10
0.0
 20
0.0
  9
$LIMMAX
 10
420.0
 20
297.0
  9
$ORTHOMODE
 70
     0
  9
$REGENMODE
 70
     1
  9
$FILLMODE
 70
     1
  9
$QTEXTMODE
 70
     0
  9
$MIRRTEXT
 70
     1
  9
$DRAGMODE
 70
     2
  9
$LTSCALE
 40
0.5
  9
$OSMODE
 70
 16383
  9
$ATTMODE
 70
     1
  9
$TEXTSIZE
 40
4.0
  9
$TRACEWID
 40
1.0
  9
$TEXTSTYLE
  7
STANDARD
  9
$CLAYER
  8
1TEXT
  9
$CELTYPE
  6
BYLAYER
  9
$CECOLOR
 62
   256
  9
$CELTSCALE
 40
1.0
  9
$DELOBJ
 70
     1
  9
$DISPSILH
 70
     0
  9
$DIMSCALE
 40
1.0
  9
$DIMASZ
 40
2.0
  9
$DIMEXO
 40
0.0
  9
$DIMDLI
 40
7.0
  9
$DIMRND
 40
0.0
  9
$DIMDLE
 40
0.0
  9
$DIMEXE
 40
1.0
  9
$DIMTP
 40
0.0
  9
$DIMTM
 40
0.0
  9
$DIMTXT
 40
3.5
  9
$DIMCEN
 40
0.0
  9
$DIMTSZ
 40
0.0
  9
$DIMTOL
 70
     0
  9
$DIMLIM
 70
     0
  9
$DIMTIH
 70
     0
  9
$DIMTOH
 70
     0
  9
$DIMSE1
 70
     0
  9
$DIMSE2
 70
     0
  9
$DIMTAD
 70
     1
  9
$DIMZIN
 70
     8
  9
$DIMBLK
  1

  9
$DIMASO
 70
     1
  9
$DIMSHO
 70
     1
  9
$DIMPOST
  1
 
  9
$DIMAPOST
  1

  9
$DIMALT
 70
     0
  9
$DIMALTD
 70
     2
  9
$DIMALTF
 40
25.4
  9
$DIMLFAC
 40
1.0
  9
$DIMTOFL
 70
     1
  9
$DIMTVP
 40
0.0
  9
$DIMTIX
 70
     0
  9
$DIMSOXD
 70
     0
  9
$DIMSAH
 70
     1
  9
$DIMBLK1
  1
OPEN30
  9
$DIMBLK2
  1
OPEN30
  9
$DIMSTYLE
  2
NEWX10
  9
$DIMCLRD
 70
   256
  9
$DIMCLRE
 70
   256
  9
$DIMCLRT
 70
   201
  9
$DIMTFAC
 40
0.7
  9
$DIMGAP
 40
0.7
  9
$DIMJUST
 70
     0
  9
$DIMSD1
 70
     0
  9
$DIMSD2
 70
     0
  9
$DIMTOLJ
 70
     1
  9
$DIMTZIN
 70
     8
  9
$DIMALTZ
 70
     0
  9
$DIMALTTZ
 70
     0
  9
$DIMFIT
 70
     2
  9
$DIMUPT
 70
     0
  9
$DIMUNIT
 70
     2
  9
$DIMDEC
 70
     2
  9
$DIMTDEC
 70
     4
  9
$DIMALTU
 70
     2
  9
$DIMALTTD
 70
     2
  9
$DIMTXSTY
  7
STANDARD
  9
$DIMAUNIT
 70
     0
  9
$LUNITS
 70
     2
  9
$LUPREC
 70
     4
  9
$SKETCHINC
 40
1.0
  9
$FILLETRAD
 40
0.0
  9
$AUNITS
 70
     0
  9
$AUPREC
 70
     2
  9
$MENU
  1
acad
  9
$ELEVATION
 40
0.0
  9
$PELEVATION
 40
0.0
  9
$THICKNESS
 40
0.0
  9
$LIMCHECK
 70
     0
  9
$CHAMFERA
 40
10.0
  9
$CHAMFERB
 40
10.0
  9
$CHAMFERC
 40
20.0
  9
$CHAMFERD
 40
0.0
  9
$SKPOLY
 70
     0
  9
$TDCREATE
 40
2453033.732663484
  9
$TDUPDATE
 40
2458726.3912539
  9
$TDINDWG
 40
0.6722502315
  9
$TDUSRTIMER
 40
0.6722502315
  9
$USRTIMER
 70
     1
  9
$ANGBASE
 50
0.0
  9
$ANGDIR
 70
     0
  9
$PDMODE
 70
     0
  9
$PDSIZE
 40
0.0
  9
$PLINEWID
 40
0.0
  9
$COORDS
 70
     2
  9
$SPLFRAME
 70
     0
  9
$SPLINETYPE
 70
     6
  9
$SPLINESEGS
 70
     8
  9
$ATTDIA
 70
     0
  9
$ATTREQ
 70
     1
  9
$HANDLING
 70
     1
  9
$HANDSEED
  5
CA0F
  9
$SURFTAB1
 70
     6
  9
$SURFTAB2
 70
     6
  9
$SURFTYPE
 70
     6
  9
$SURFU
 70
     6
  9
$SURFV
 70
     6
  9
$UCSNAME
  2

  9
$UCSORG
 10
0.0
 20
0.0
 30
0.0
  9
$UCSXDIR
 10
1.0
 20
0.0
 30
0.0
  9
$UCSYDIR
 10
0.0
 20
1.0
 30
0.0
  9
$PUCSNAME
  2

  9
$PUCSORG
 10
0.0
 20
0.0
 30
0.0
  9
$PUCSXDIR
 10
1.0
 20
0.0
 30
0.0
  9
$PUCSYDIR
 10
0.0
 20
1.0
 30
0.0
  9
$USERI1
 70
     0
  9
$USERI2
 70
     0
  9
$USERI3
 70
     0
  9
$USERI4
 70
     0
  9
$USERI5
 70
     0
  9
$USERR1
 40
0.0
  9
$USERR2
 40
0.0
  9
$USERR3
 40
0.0
  9
$USERR4
 40
0.0
  9
$USERR5
 40
0.0
  9
$WORLDVIEW
 70
     1
  9
$SHADEDGE
 70
     3
  9
$SHADEDIF
 70
    70
  9
$TILEMODE
 70
     1
  9
$MAXACTVP
 70
    48
  9
$PINSBASE
 10
0.0
 20
0.0
 30
0.0
  9
$PLIMCHECK
 70
     0
  9
$PEXTMIN
 10
1.000000000000000E+20
 20
1.000000000000000E+20
 30
1.000000000000000E+20
  9
$PEXTMAX
 10
-1.000000000000000E+20
 20
-1.000000000000000E+20
 30
-1.000000000000000E+20
  9
$PLIMMIN
 10
0.0
 20
0.0
  9
$PLIMMAX
 10
420.0
 20
297.0
  9
$UNITMODE
 70
     0
  9
$VISRETAIN
 70
     1
  9
$PLINEGEN
 70
     0
  9
$PSLTSCALE
 70
     1
  9
$TREEDEPTH
 70
  3020
  9
$PICKSTYLE
 70
     1
  9
$CMLSTYLE
  2
STANDARD
  9
$CMLJUST
 70
     0
  9
$CMLSCALE
 40
20.0
  9
$SAVEIMAGES
 70
     1
  0
ENDSEC
  0
SECTION
  2
CLASSES
  0
CLASS
  1
DICTIONARYVAR
  2
AcDbDictionaryVar
  3
ObjectDBX Classes
 90
        0
280
     0
281
     0
  0
CLASS
  1
IDBUFFER
  2
AcDbIdBuffer
  3
ObjectDBX Classes
 90
    32768
280
     0
281
     0
  0
CLASS
  1
LWPOLYLINE
  2
AcDbPolyline
  3
ObjectDBX Classes
 90
    32768
280
     0
281
     1
  0
CLASS
  1
ACDBDICTIONARYWDFLT
  2
AcDbDictionaryWithDefault
  3
ObjectDBX Classes
 90
    32768
280
     0
281
     0
  0
CLASS
  1
ACDBPLACEHOLDER
  2
AcDbPlaceHolder
  3
ObjectDBX Classes
 90
        0
280
     0
281
     0
  0
CLASS
  1
LAYOUT
  2
AcDbLayout
  3
ObjectDBX Classes
 90
        0
280
     0
281
     0
  0
CLASS
  1
TABLESTYLE
  2
AcDbTableStyle
  3
ObjectDBX Classes
 90
     4095
280
     0
281
     0
  0
CLASS
  1
SORTENTSTABLE
  2
AcDbSortentsTable
  3
ObjectDBX Classes
 90
    32768
280
     0
281
     0
  0
CLASS
  1
DIMASSOC
  2
AcDbDimAssoc
  3
"AcDbDimAssoc|Product Desc:     AcDim ARX App For Dimension|Company:          Autodesk, Inc.|WEB Address:      www.autodesk.com"
 90
        0
280
     0
281
     0
  0
CLASS
  1
MATERIAL
  2
AcDbMaterial
  3
ObjectDBX Classes
 90
     1153
280
     0
281
     0
  0
CLASS
  1
VISUALSTYLE
  2
AcDbVisualStyle
  3
ObjectDBX Classes
 90
     4095
280
     0
281
     0
  0
CLASS
  1
SCALE
  2
AcDbScale
  3
ObjectDBX Classes
 90
     1153
280
     0
281
     0
  0
CLASS
  1
MLEADERSTYLE
  2
AcDbMLeaderStyle
  3
ACDB_MLEADERSTYLE_CLASS
 90
     4095
280
     0
281
     0
  0
CLASS
  1
CELLSTYLEMAP
  2
AcDbCellStyleMap
  3
ObjectDBX Classes
 90
     1152
280
     0
281
     0
  0
CLASS
  1
SUN
  2
AcDbSun
  3
SCENEOE
 90
     1153
280
     0
281
     0
  0
CLASS
  1
XRECORD
  2
AcDbXrecord
  3
ObjectDBX Classes
 90
    32768
280
     0
281
     0
  0
CLASS
  1
HATCH
  2
AcDbHatch
  3
ObjectDBX Classes
 90
    32768
280
     0
281
     1
  0
ENDSEC
  0
SECTION
  2
TABLES
  0
TABLE
  2
VPORT
  5
8
330
0
100
AcDbSymbolTable
 70
     1
  0
VPORT
  5
AE57
330
8
100
AcDbSymbolTableRecord
100
AcDbViewportTableRecord
  2
*ACTIVE
 70
     0
 10
0.0
 20
0.0
 11
1.0
 21
1.0
 12
-133.4826091131442
 22
-2116.091131146458
 13
0.0
 23
0.0
 14
10.0
 24
10.0
 15
10.0
 25
10.0
 16
0.0
 26
0.0
 36
1.0
 17
0.0
 27
0.0
 37
0.0
 40
247.6197037715338
 41
2.152122641509434
 42
50.0
 43
0.0
 44
0.0
 50
0.0
 51
0.0
 71
    16
 72
   100
 73
     1
 74
     1
 75
     0
 76
     0
 77
     0
 78
     0
1001
ACAD_NAV_VCDISPLAY
1070
     3
  0
ENDTAB
  0
TABLE
  2
LTYPE
  5
5
330
0
100
AcDbSymbolTable
 70
     3
  0
LTYPE
  5
12
330
5
100
AcDbSymbolTableRecord
100
AcDbLinetypeTableRecord
  2
BYBLOCK
 70
     0
  3

 72
    65
 73
     0
 40
0.0
  0
LTYPE
  5
13
330
5
100
AcDbSymbolTableRecord
100
AcDbLinetypeTableRecord
  2
BYLAYER
 70
     0
  3

 72
    65
 73
     0
 40
0.0
  0
LTYPE
  5
14
330
5
100
AcDbSymbolTableRecord
100
AcDbLinetypeTableRecord
  2
CONTINUOUS
 70
     0
  3
Solid line
 72
    65
 73
     0
 40
0.0
  0
LTYPE
  5
26
330
5
100
AcDbSymbolTableRecord
100
AcDbLinetypeTableRecord
  2
CENTER2
 70
     0
  3
Center (.5x) ___ _ ___ _ ___ _ ___ _ ___ _ ___
 72
    65
 73
     4
 40
28.575
 49
19.05
 74
     0
 49
-3.175
 74
     0
 49
3.175
 74
     0
 49
-3.175
 74
     0
  0
LTYPE
  5
100
330
5
100
AcDbSymbolTableRecord
100
AcDbLinetypeTableRecord
  2
PHANTOM2
 70
     0
  3
Phantom (0.5x) ___ _ _ ___ _ _ ___ _ _ ___ _ _
 72
    65
 73
     6
 40
31.75
 49
15.875
 74
     0
 49
-3.175
 74
     0
 49
3.175
 74
     0
 49
-3.175
 74
     0
 49
3.175
 74
     0
 49
-3.175
 74
     0
  0
ENDTAB
  0
TABLE
  2
LAYER
  5
2
102
{ACAD_XDICTIONARY
360
ADD6
102
}
330
0
100
AcDbSymbolTable
 70
     7
  0
LAYER
  5
E
102
{ACAD_XDICTIONARY
360
B9D4
102
}
330
2
100
AcDbSymbolTableRecord
100
AcDbLayerTableRecord
  2
0
 70
     0
 62
     7
  6
CONTINUOUS
  0
LAYER
  5
29
102
{ACAD_XDICTIONARY
360
B9D6
102
}
330
2
100
AcDbSymbolTableRecord
100
AcDbLayerTableRecord
  2
1CENTER
 70
     0
 62
     7
  6
CENTER2
  0
LAYER
  5
31
102
{ACAD_XDICTIONARY
360
B9D8
102
}
330
2
100
AcDbSymbolTableRecord
100
AcDbLayerTableRecord
  2
1TEXT
 70
     0
 62
     7
  6
CONTINUOUS
  0
LAYER
  5
101
102
{ACAD_XDICTIONARY
360
B9E2
102
}
330
2
100
AcDbSymbolTableRecord
100
AcDbLayerTableRecord
  2
1DIM
 70
     0
 62
     7
  6
CONTINUOUS
  0
LAYER
  5
103
102
{ACAD_XDICTIONARY
360
B9E6
102
}
330
2
100
AcDbSymbolTableRecord
100
AcDbLayerTableRecord
  2
1PHANTOM
 70
     0
 62
     7
  6
PHANTOM2
  0
LAYER
  5
25F
102
{ACAD_XDICTIONARY
360
B9EA
102
}
330
2
100
AcDbSymbolTableRecord
100
AcDbLayerTableRecord
  2
01
 70
     0
 62
     1
  6
CONTINUOUS
  0
LAYER
  5
26D
102
{ACAD_XDICTIONARY
360
BA06
102
}
330
2
100
AcDbSymbolTableRecord
100
AcDbLayerTableRecord
  2
1HATCH
 70
     0
 62
     7
  6
CONTINUOUS
  0
ENDTAB
  0
TABLE
  2
STYLE
  5
3
330
0
100
AcDbSymbolTable
 70
     1
  0
STYLE
  5
F
330
3
100
AcDbSymbolTableRecord
100
AcDbTextStyleTableRecord
  2
STANDARD
 70
     0
 40
0.0
 41
1.0
 50
0.0
 71
     0
 42
4.0
  3
txt.shx
  4
extfont.shx
  0
ENDTAB
  0
TABLE
  2
VIEW
  5
6
330
0
100
AcDbSymbolTable
 70
     0
  0
ENDTAB
  0
TABLE
  2
UCS
  5
7
330
0
100
AcDbSymbolTable
 70
     0
  0
ENDTAB
  0
TABLE
  2
APPID
  5
9
330
0
100
AcDbSymbolTable
 70
    15
  0
APPID
  5
10
330
9
100
AcDbSymbolTableRecord
100
AcDbRegAppTableRecord
  2
ACAD
 70
     0
  0
APPID
  5
21
330
9
100
AcDbSymbolTableRecord
100
AcDbRegAppTableRecord
  2
DRAWINGVARIABLESXDATA
 70
     0
  0
APPID
  5
64
330
9
100
AcDbSymbolTableRecord
100
AcDbRegAppTableRecord
  2
CONTENTTABDATA
 70
     0
  0
APPID
  5
65
330
9
100
AcDbSymbolTableRecord
100
AcDbRegAppTableRecord
  2
CONTENTCURRENTTAB
 70
     0
  0
APPID
  5
66
330
9
100
AcDbSymbolTableRecord
100
AcDbRegAppTableRecord
  2
CONTENTBLOCKDESCRIPTION
 70
     0
  0
APPID
  5
67
330
9
100
AcDbSymbolTableRecord
100
AcDbRegAppTableRecord
  2
CONTENTBLOCKICON
 70
     0
  0
APPID
  5
68
330
9
100
AcDbSymbolTableRecord
100
AcDbRegAppTableRecord
  2
CONTENTLONGBLOCKNAME
 70
     0
  0
APPID
  5
5A9
330
9
100
AcDbSymbolTableRecord
100
AcDbRegAppTableRecord
  2
ACAD_PSEXT
 70
     0
  0
APPID
  5
18AC
330
9
100
AcDbSymbolTableRecord
100
AcDbRegAppTableRecord
  2
ACAD_DSTYLE_DIMTEXT_FILL
 70
     0
  0
APPID
  5
AEAF
330
9
100
AcDbSymbolTableRecord
100
AcDbRegAppTableRecord
  2
ACAD_MLEADERVER
 70
     0
  0
APPID
  5
BBC0
330
9
100
AcDbSymbolTableRecord
100
AcDbRegAppTableRecord
  2
ACAD_NAV_VCDISPLAY
 70
     0
  0
APPID
  5
BBD6
330
9
100
AcDbSymbolTableRecord
100
AcDbRegAppTableRecord
  2
ACAD_EXEMPT_FROM_CAD_STAND
 70
     0
  0
APPID
  5
BCE3
330
9
100
AcDbSymbolTableRecord
100
AcDbRegAppTableRecord
  2
ACLAYERTOOLS
 70
     0
  0
APPID
  5
C456
330
9
100
AcDbSymbolTableRecord
100
AcDbRegAppTableRecord
  2
ACADANNOTATIVE
 70
     0
  0
APPID
  5
C457
330
9
100
AcDbSymbolTableRecord
100
AcDbRegAppTableRecord
  2
ACDBBLOCKREPETAG
 70
     0
  0
ENDTAB
  0
TABLE
  2
DIMSTYLE
  5
A
330
0
100
AcDbSymbolTable
 70
     1
  0
DIMSTYLE
105
48
330
A
100
AcDbSymbolTableRecord
100
AcDbDimStyleTableRecord
  2
NEWX10
 70
     0
  3
 
  4

  5

  6
OPEN30
  7
OPEN30
 40
1.0
 41
2.0
 42
0.0
 43
7.0
 44
1.0
 45
0.0
 46
0.0
 47
0.0
 48
0.0
140
3.5
141
0.0
142
0.0
143
25.4
144
1.0
145
0.0
146
0.7
147
0.7
 71
     0
 72
     0
 73
     0
 74
     0
 75
     0
 76
     0
 77
     1
 78
     8
170
     0
171
     2
172
     1
173
     1
174
     0
175
     0
176
   256
177
   256
178
   201
179
     2
270
     2
271
     2
272
     4
273
     2
274
     2
340
F
275
     0
280
     0
281
     0
282
     0
283
     1
284
     8
285
     0
286
     0
287
     2
288
     0
  0
ENDTAB
  0
TABLE
  2
BLOCK_RECORD
  5
1
330
0
100
AcDbSymbolTable
 70
     8
  0
BLOCK_RECORD
  5
18
102
{ACAD_XDICTIONARY
360
6E9
102
}
330
1
100
AcDbSymbolTableRecord
100
AcDbBlockTableRecord
  2
*MODEL_SPACE
  0
BLOCK_RECORD
  5
15
102
{ACAD_XDICTIONARY
360
59B
102
}
330
1
100
AcDbSymbolTableRecord
100
AcDbBlockTableRecord
  2
*PAPER_SPACE
  0
BLOCK_RECORD
  5
42
330
1
100
AcDbSymbolTableRecord
100
AcDbBlockTableRecord
  2
_OPEN30
  0
BLOCK_RECORD
  5
BFFE
330
1
100
AcDbSymbolTableRecord
100
AcDbBlockTableRecord
  2
A3WAKUKAWAJUN2017_HYOUDAI_
  0
BLOCK_RECORD
  5
C86F
330
1
100
AcDbSymbolTableRecord
100
AcDbBlockTableRecord
  2
*X27
  0
BLOCK_RECORD
  5
C8BD
330
1
100
AcDbSymbolTableRecord
100
AcDbBlockTableRecord
  2
*X28
  0
BLOCK_RECORD
  5
C90F
330
1
100
AcDbSymbolTableRecord
100
AcDbBlockTableRecord
  2
*X29
  0
BLOCK_RECORD
  5
C960
330
1
100
AcDbSymbolTableRecord
100
AcDbBlockTableRecord
  2
*X30
  0
BLOCK_RECORD
  5
C99D
330
1
100
AcDbSymbolTableRecord
100
AcDbBlockTableRecord
  2
*X31
  0
BLOCK_RECORD
  5
C9DD
330
1
100
AcDbSymbolTableRecord
100
AcDbBlockTableRecord
  2
*X32
  0
ENDTAB
  0
ENDSEC
  0
SECTION
  2
BLOCKS
  0
BLOCK
  5
19
330
18
100
AcDbEntity
  8
0
100
AcDbBlockBegin
  2
*MODEL_SPACE
 70
     0
 10
0.0
 20
0.0
 30
0.0
  3
*MODEL_SPACE
  1

  0
ENDBLK
  5
1A
330
18
100
AcDbEntity
  8
0
100
AcDbBlockEnd
  0
BLOCK
  5
16
330
15
100
AcDbEntity
 67
     1
  8
0
100
AcDbBlockBegin
  2
*PAPER_SPACE
 70
     0
 10
0.0
 20
0.0
 30
0.0
  3
*PAPER_SPACE
  1

  0
ENDBLK
  5
17
330
15
100
AcDbEntity
 67
     1
  8
0
100
AcDbBlockEnd
  0
BLOCK
  5
43
330
42
100
AcDbEntity
  8
0
100
AcDbBlockBegin
  2
_OPEN30
 70
     0
 10
0.0
 20
0.0
 30
0.0
  3
_OPEN30
  1

  0
LINE
  5
44
330
42
100
AcDbEntity
  8
0
  6
BYBLOCK
 62
     0
100
AcDbLine
 10
-1.0
 20
0.26794919
 30
0.0
 11
0.0
 21
0.0
 31
0.0
  0
LINE
  5
45
330
42
100
AcDbEntity
  8
0
  6
BYBLOCK
 62
     0
100
AcDbLine
 10
0.0
 20
0.0
 30
0.0
 11
-1.0
 21
-0.26794919
 31
0.0
  0
LINE
  5
46
330
42
100
AcDbEntity
  8
0
  6
BYBLOCK
 62
     0
100
AcDbLine
 10
0.0
 20
0.0
 30
0.0
 11
-1.0
 21
0.0
 31
0.0
  0
ENDBLK
  5
47
330
42
100
AcDbEntity
  8
0
100
AcDbBlockEnd
  0
BLOCK
  5
BFFF
330
BFFE
100
AcDbEntity
  8
0
100
AcDbBlockBegin
  2
A3WAKUKAWAJUN2017_HYOUDAI_
 70
     0
 10
0.0
 20
0.0
 30
0.0
  3
A3WAKUKAWAJUN2017_HYOUDAI_
  1

  0
LINE
  5
C000
330
BFFE
100
AcDbEntity
  8
0
100
AcDbLine
 10
13.26299999998673
 20
-0.0001000000000317
 30
0.0
 11
9.236999999990758
 21
8.999899999990987
 31
0.0
1001
ACAD
1000
ASC_BOUNDS
1002
{
1070
    19
1005
C041
1002
}
  0
LINE
  5
C001
330
BFFE
100
AcDbEntity
  8
0
100
AcDbLine
 10
5.657999999994331
 20
0.9999999999989768
 30
0.0
 11
9.236999999990758
 21
8.999999999991019
 31
0.0
1001
ACAD
1000
ASC_BOUNDS
1002
{
1070
    19
1005
C041
1002
}
  0
LINE
  5
C002
330
BFFE
100
AcDbEntity
  8
0
100
AcDbLine
 10
18.59199999998134
 20
-0.2368999999997641
 30
0.0
 11
16.46099999998353
 21
5.432899999994561
 31
0.0
1001
ACAD
1000
ASC_BOUNDS
1002
{
1070
    19
1005
C042
1002
}
  0
LINE
  5
C003
330
BFFE
100
AcDbEntity
  8
0
100
AcDbLine
 10
18.59199999998134
 20
-0.2368999999997641
 30
0.0
 11
22.38199999997767
 21
8.763099999991255
 31
0.0
1001
ACAD
1000
ASC_BOUNDS
1002
{
1070
    19
1005
C042
1002
}
  0
LINE
  5
C004
330
BFFE
100
AcDbEntity
  8
0
100
AcDbLine
 10
14.32899999998563
 20
-0.2368999999997641
 30
0.0
 11
16.46099999998353
 21
5.432899999994561
 31
0.0
1001
ACAD
1000
ASC_BOUNDS
1002
{
1070
    19
1005
C042
1002
}
  0
LINE
  5
C005
330
BFFE
100
AcDbEntity
  8
0
100
AcDbLine
 10
14.32899999998563
 20
-0.2368999999997641
 30
0.0
 11
10.53899999998941
 21
8.763099999991255
 31
0.0
1001
ACAD
1000
ASC_BOUNDS
1002
{
1070
    19
1005
C042
1002
}
  0
LINE
  5
C006
330
BFFE
100
AcDbEntity
  8
0
100
AcDbLine
 10
19.53899999998043
 20
-0.0001000000000317
 30
0.0
 11
23.56599999997638
 21
8.999899999990987
 31
0.0
1001
ACAD
1000
ASC_BOUNDS
1002
{
1070
    19
1005
C043
1002
}
  0
LINE
  5
C007
330
BFFE
100
AcDbEntity
  8
0
100
AcDbLine
 10
26.97358892824991
 20
1.383099999991202
 30
0.0
 11
23.56599999997638
 21
8.999899999990987
 31
0.0
1001
ACAD
1000
ASC_BOUNDS
1002
{
1070
    19
1005
C043
1002
}
  0
LINE
  5
C008
330
BFFE
100
AcDbEntity
  8
0
100
AcDbLine
 10
5.657999999994331
 20
0.9999999999989768
 30
0.0
 11
3.181999999996833
 21
4.668599999995308
 31
0.0
1001
ACAD
1000
ASC_BOUNDS
1002
{
1070
    19
1005
C041
1002
}
  0
LINE
  5
C009
330
BFFE
100
AcDbEntity
  8
0
100
AcDbLine
 10
4.617999999995391
 20
-0.0001000000000317
 30
0.0
 11
1.420999999998571
 21
4.736799999995242
 31
0.0
1001
ACAD
1000
ASC_BOUNDS
1002
{
1070
    19
1005
C041
1002
}
  0
LINE
  5
C00A
330
BFFE
100
AcDbEntity
  8
0
100
AcDbLine
 10
1.420999999998571
 20
8.763099999991255
 30
0.0
 11
1.420999999998571
 21
0.0
 31
0.0
1001
ACAD
1000
ASC_BOUNDS
1002
{
1070
    19
1005
C046
1002
}
  0
LINE
  5
C00B
330
BFFE
100
AcDbEntity
  8
0
100
AcDbLine
 10
0.0
 20
8.763099999991255
 30
0.0
 11
0.0
 21
0.0
 31
0.0
1001
ACAD
1000
ASC_BOUNDS
1002
{
1070
    19
1005
C046
1002
}
  0
LINE
  5
C00C
330
BFFE
100
AcDbEntity
  8
0
100
AcDbLine
 10
6.766999999993232
 20
-0.0001000000000317
 30
0.0
 11
7.826999999992154
 21
2.368399999997621
 31
0.0
1001
ACAD
1000
ASC_BOUNDS
1002
{
1070
    19
1005
C041
1002
}
  0
LINE
  5
C00D
330
BFFE
100
AcDbEntity
  8
0
100
AcDbLine
 10
0.0
 20
0.0
 30
0.0
 11
1.420999999998571
 21
0.0
 31
0.0
1001
ACAD
1000
ASC_BOUNDS
1002
{
1070
    19
1005
C046
1002
}
  0
LINE
  5
C00E
330
BFFE
100
AcDbEntity
  8
0
100
AcDbLine
 10
4.617999999995391
 20
0.0
 30
0.0
 11
6.766999999993232
 21
0.0
 31
0.0
1001
ACAD
1000
ASC_BOUNDS
1002
{
1070
    19
1005
C041
1002
}
  0
LINE
  5
C00F
330
BFFE
100
AcDbEntity
  8
0
100
AcDbLine
 10
11.70599999998831
 20
-0.0001000000000317
 30
0.0
 11
10.64699999998936
 21
2.368399999997621
 31
0.0
1001
ACAD
1000
ASC_BOUNDS
1002
{
1070
    19
1005
C041
1002
}
  0
LINE
  5
C010
330
BFFE
100
AcDbEntity
  8
0
100
AcDbLine
 10
7.826999999992154
 20
2.368399999997621
 30
0.0
 11
10.64699999998936
 21
2.368399999997621
 31
0.0
1001
ACAD
1000
ASC_BOUNDS
1002
{
1070
    19
1005
C041
1002
}
  0
LINE
  5
C011
330
BFFE
100
AcDbEntity
  8
0
100
AcDbLine
 10
11.70599999998831
 20
0.0
 30
0.0
 11
13.26299999998673
 21
0.0
 31
0.0
1001
ACAD
1000
ASC_BOUNDS
1002
{
1070
    19
1005
C041
1002
}
  0
LINE
  5
C012
330
BFFE
100
AcDbEntity
  8
0
100
AcDbLine
 10
22.15599999997789
 20
2.368399999997621
 30
0.0
 11
24.97599999997499
 21
2.368399999997621
 31
0.0
1001
ACAD
1000
ASC_BOUNDS
1002
{
1070
    19
1005
C043
1002
}
  0
LINE
  5
C013
330
BFFE
100
AcDbEntity
  8
0
100
AcDbLine
 10
19.53899999998043
 20
0.0
 30
0.0
 11
21.09599999997886
 21
0.0
 31
0.0
1001
ACAD
1000
ASC_BOUNDS
1002
{
1070
    19
1005
C043
1002
}
  0
LINE
  5
C014
330
BFFE
100
AcDbEntity
  8
0
100
AcDbLine
 10
21.09599999997886
 20
-0.0001000000000317
 30
0.0
 11
22.15599999997789
 21
2.368399999997621
 31
0.0
1001
ACAD
1000
ASC_BOUNDS
1002
{
1070
    19
1005
C043
1002
}
  0
LINE
  5
C015
330
BFFE
100
AcDbEntity
  8
0
100
AcDbLine
 10
26.02015566812236
 20
0.0330999999912365
 30
0.0
 11
24.97599999997499
 21
2.368399999997621
 31
0.0
1001
ACAD
1000
ASC_BOUNDS
1002
{
1070
    19
1005
C043
1002
}
  0
LINE
  5
C016
330
BFFE
100
AcDbEntity
  8
0
100
AcDbLine
 10
14.32399999998563
 20
3.315799999996671
 30
0.0
 11
16.46099999998353
 21
8.999899999990987
 31
0.0
1001
ACAD
1000
ASC_BOUNDS
1002
{
1070
    19
1005
C042
1002
}
  0
LINE
  5
C017
330
BFFE
100
AcDbEntity
  8
0
100
AcDbLine
 10
6.432999999993513
 20
8.763099999991255
 30
0.0
 11
3.181999999996833
 21
4.668599999995308
 31
0.0
1001
ACAD
1000
ASC_BOUNDS
1002
{
1070
    19
1005
C041
1002
}
  0
LINE
  5
C018
330
BFFE
100
AcDbEntity
  8
0
100
AcDbLine
 10
4.617999999995391
 20
8.763099999991255
 30
0.0
 11
1.420999999998571
 21
4.736799999995242
 31
0.0
1001
ACAD
1000
ASC_BOUNDS
1002
{
1070
    19
1005
C041
1002
}
  0
LINE
  5
C019
330
BFFE
100
AcDbEntity
  8
0
100
AcDbLine
 10
0.0
 20
8.763099999991255
 30
0.0
 11
1.420999999998571
 21
8.763099999991255
 31
0.0
1001
ACAD
1000
ASC_BOUNDS
1002
{
1070
    19
1005
C046
1002
}
  0
LINE
  5
C01A
330
BFFE
100
AcDbEntity
  8
0
100
AcDbLine
 10
4.617999999995391
 20
8.763099999991255
 30
0.0
 11
6.432999999993513
 21
8.763099999991255
 31
0.0
1001
ACAD
1000
ASC_BOUNDS
1002
{
1070
    19
1005
C041
1002
}
  0
LINE
  5
C01B
330
BFFE
100
AcDbEntity
  8
0
100
AcDbLine
 10
14.32399999998563
 20
3.315799999996671
 30
0.0
 11
12.02999999998792
 21
8.763099999991255
 31
0.0
1001
ACAD
1000
ASC_BOUNDS
1002
{
1070
    19
1005
C042
1002
}
  0
LINE
  5
C01C
330
BFFE
100
AcDbEntity
  8
0
100
AcDbLine
 10
10.06399999998996
 20
3.670999999996297
 30
0.0
 11
9.236999999990758
 21
5.5200999999945
 31
0.0
1001
ACAD
1000
ASC_BOUNDS
1002
{
1070
    19
1005
C041
1002
}
  0
LINE
  5
C01D
330
BFFE
100
AcDbEntity
  8
0
100
AcDbLine
 10
8.409999999991555
 20
3.670999999996297
 30
0.0
 11
9.236999999990758
 21
5.5200999999945
 31
0.0
1001
ACAD
1000
ASC_BOUNDS
1002
{
1070
    19
1005
C041
1002
}
  0
LINE
  5
C01E
330
BFFE
100
AcDbEntity
  8
0
100
AcDbLine
 10
8.409999999991555
 20
3.670999999996297
 30
0.0
 11
10.06399999998996
 21
3.670999999996297
 31
0.0
1001
ACAD
1000
ASC_BOUNDS
1002
{
1070
    19
1005
C041
1002
}
  0
LINE
  5
C01F
330
BFFE
100
AcDbEntity
  8
0
100
AcDbLine
 10
10.53899999998941
 20
8.763099999991255
 30
0.0
 11
12.02999999998792
 21
8.763099999991255
 31
0.0
1001
ACAD
1000
ASC_BOUNDS
1002
{
1070
    19
1005
C042
1002
}
  0
LINE
  5
C020
330
BFFE
100
AcDbEntity
  8
0
100
AcDbLine
 10
22.7389999999773
 20
3.670999999996297
 30
0.0
 11
23.56599999997638
 21
5.5200999999945
 31
0.0
1001
ACAD
1000
ASC_BOUNDS
1002
{
1070
    19
1005
C043
1002
}
  0
LINE
  5
C021
330
BFFE
100
AcDbEntity
  8
0
100
AcDbLine
 10
22.7389999999773
 20
3.670999999996297
 30
0.0
 11
24.39299999997559
 21
3.670999999996297
 31
0.0
1001
ACAD
1000
ASC_BOUNDS
1002
{
1070
    19
1005
C043
1002
}
  0
LINE
  5
C022
330
BFFE
100
AcDbEntity
  8
0
100
AcDbLine
 10
18.59799999998143
 20
3.315799999996671
 30
0.0
 11
20.89099999997916
 21
8.763099999991255
 31
0.0
1001
ACAD
1000
ASC_BOUNDS
1002
{
1070
    19
1005
C042
1002
}
  0
LINE
  5
C023
330
BFFE
100
AcDbEntity
  8
0
100
AcDbLine
 10
18.59799999998143
 20
3.315799999996671
 30
0.0
 11
16.46099999998353
 21
8.999899999990987
 31
0.0
1001
ACAD
1000
ASC_BOUNDS
1002
{
1070
    19
1005
C042
1002
}
  0
LINE
  5
C024
330
BFFE
100
AcDbEntity
  8
0
100
AcDbLine
 10
20.89099999997916
 20
8.763099999991255
 30
0.0
 11
22.38199999997767
 21
8.763099999991255
 31
0.0
1001
ACAD
1000
ASC_BOUNDS
1002
{
1070
    19
1005
C042
1002
}
  0
LINE
  5
C025
330
BFFE
100
AcDbEntity
  8
0
100
AcDbLine
 10
24.39299999997559
 20
3.670999999996297
 30
0.0
 11
23.56599999997638
 21
5.5200999999945
 31
0.0
1001
ACAD
1000
ASC_BOUNDS
1002
{
1070
    19
1005
C043
1002
}
  0
LINE
  5
C026
330
BFFE
100
AcDbEntity
  8
0
100
AcDbLine
 10
44.99999999995498
 20
-0.2368999999997641
 30
0.0
 11
40.02599999995994
 21
5.341799999994635
 31
0.0
1001
ACAD
1000
ASC_BOUNDS
1002
{
1070
    19
1005
C045
1002
}
  0
LINE
  5
C027
330
BFFE
100
AcDbEntity
  8
0
100
AcDbLine
 10
40.02599999995994
 20
5.341799999994635
 30
0.0
 11
40.02599999995994
 21
0.0
 31
0.0
1001
ACAD
1000
ASC_BOUNDS
1002
{
1070
    19
1005
C045
1002
}
  0
LINE
  5
C028
330
BFFE
100
AcDbEntity
  8
0
100
AcDbLine
 10
38.60499999996136
 20
8.999999999991019
 30
0.0
 11
38.60499999996136
 21
0.0
 31
0.0
1001
ACAD
1000
ASC_BOUNDS
1002
{
1070
    19
1005
C045
1002
}
  0
LINE
  5
C029
330
BFFE
100
AcDbEntity
  8
0
100
AcDbLine
 10
44.99999999995498
 20
8.763099999991255
 30
0.0
 11
44.99999999995498
 21
-0.2368999999997641
 31
0.0
1001
ACAD
1000
ASC_BOUNDS
1002
{
1070
    19
1005
C045
1002
}
  0
LINE
  5
C02A
330
BFFE
100
AcDbEntity
  8
0
100
AcDbLine
 10
38.60499999996136
 20
0.0
 30
0.0
 11
40.02599999995994
 21
0.0
 31
0.0
1001
ACAD
1000
ASC_BOUNDS
1002
{
1070
    19
1005
C045
1002
}
  0
LINE
  5
C02B
330
BFFE
100
AcDbEntity
  8
0
100
AcDbLine
 10
43.57899999995641
 20
3.421199999996588
 30
0.0
 11
38.60499999996136
 21
8.999899999990987
 31
0.0
1001
ACAD
1000
ASC_BOUNDS
1002
{
1070
    19
1005
C045
1002
}
  0
LINE
  5
C02C
330
BFFE
100
AcDbEntity
  8
0
100
AcDbLine
 10
43.57899999995641
 20
8.763099999991255
 30
0.0
 11
43.57899999995641
 21
3.421199999996588
 31
0.0
1001
ACAD
1000
ASC_BOUNDS
1002
{
1070
    19
1005
C045
1002
}
  0
LINE
  5
C02D
330
BFFE
100
AcDbEntity
  8
0
100
AcDbLine
 10
43.57899999995641
 20
8.763099999991255
 30
0.0
 11
44.99999999995498
 21
8.763099999991255
 31
0.0
1001
ACAD
1000
ASC_BOUNDS
1002
{
1070
    19
1005
C045
1002
}
  0
LINE
  5
C02E
330
BFFE
100
AcDbEntity
  8
0
100
AcDbLine
 10
37.67199999996831
 20
8.763099999991255
 30
0.0
 11
36.23199999996837
 21
8.763099999991255
 31
0.0
  0
LINE
  5
C02F
330
BFFE
100
AcDbEntity
  8
0
100
AcDbLine
 10
31.64199999996833
 20
8.763099999991255
 30
0.0
 11
31.64199999996833
 21
2.481619422925121
 31
0.0
  0
LINE
  5
C030
330
BFFE
100
AcDbEntity
  8
0
100
AcDbLine
 10
37.67199999996831
 20
8.763099999991255
 30
0.0
 11
37.67199999996831
 21
2.481619422925121
 31
0.0
  0
LINE
  5
C031
330
BFFE
100
AcDbEntity
  8
0
100
AcDbLine
 10
36.23199999996837
 20
8.763099999991255
 30
0.0
 11
36.23199999996837
 21
2.481619422925064
 31
0.0
  0
LINE
  5
C032
330
BFFE
100
AcDbEntity
  8
0
100
AcDbLine
 10
33.08199999996839
 20
8.763099999991255
 30
0.0
 11
33.08199999996839
 21
2.481619422925121
 31
0.0
  0
ARC
  5
C033
330
BFFE
100
AcDbEntity
  8
0
100
AcDbCircle
 10
34.65699999996832
 20
3.183099999991214
 30
0.0
 40
3.420000000000007
100
AcDbArc
 50
240.0000000000255
 51
299.9999999999766
  0
ARC
  5
C034
330
BFFE
100
AcDbEntity
  8
0
100
AcDbCircle
 10
34.65699999996832
 20
3.183099999991214
 30
0.0
 40
1.97999999999999
100
AcDbArc
 50
240.000000000026
 51
299.9999999999703
  0
LINE
  5
C035
330
BFFE
100
AcDbEntity
  8
0
100
AcDbLine
 10
33.08199999996828
 20
8.763099999991255
 30
0.0
 11
31.64199999996833
 21
8.763099999991255
 31
0.0
  0
ARC
  5
C036
330
BFFE
100
AcDbEntity
  8
0
100
AcDbCircle
 10
35.06199999996829
 20
2.481619422925064
 30
0.0
 40
1.17
100
AcDbArc
 50
299.9999999999699
 51
0.0
  0
ARC
  5
C037
330
BFFE
100
AcDbEntity
  8
0
100
AcDbCircle
 10
34.25199999996835
 20
2.481619422925121
 30
0.0
 40
1.17
100
AcDbArc
 50
180.0
 51
240.0000000000238
  0
ARC
  5
C038
330
BFFE
100
AcDbEntity
  8
0
100
AcDbCircle
 10
35.06199999996841
 20
2.481619422925121
 30
0.0
 40
2.61
100
AcDbArc
 50
299.9999999999756
 51
0.0
  0
ARC
  5
C039
330
BFFE
100
AcDbEntity
  8
0
100
AcDbCircle
 10
34.25199999996835
 20
2.481619422925121
 30
0.0
 40
2.61
100
AcDbArc
 50
180.0
 51
240.0000000000244
  0
LINE
  5
C03A
330
BFFE
100
AcDbEntity
  8
0
100
AcDbLine
 10
29.30199999996933
 20
8.763099999991255
 30
0.0
 11
30.74199999996927
 21
8.763099999991255
 31
0.0
1001
ACAD
1000
ASC_BOUNDS
1002
{
1070
    19
1005
C043
1002
}
  0
LINE
  5
C03B
330
BFFE
100
AcDbEntity
  8
0
100
AcDbLine
 10
30.74199999996927
 20
8.763099999991255
 30
0.0
 11
30.74199999996927
 21
2.373099999991211
 31
0.0
1001
ACAD
1000
ASC_BOUNDS
1002
{
1070
    19
1005
C043
1002
}
  0
LINE
  5
C03C
330
BFFE
100
AcDbEntity
  8
0
100
AcDbLine
 10
26.02015566812236
 20
0.0330999999912365
 30
0.0
 11
28.40199999996923
 21
0.0330999999912365
 31
0.0
1001
ACAD
1000
ASC_BOUNDS
1002
{
1070
    19
1005
C043
1002
}
  0
LINE
  5
C03D
330
BFFE
100
AcDbEntity
  8
0
100
AcDbLine
 10
29.30199999996933
 20
8.763099999991255
 30
0.0
 11
29.30199999996933
 21
2.283099999991236
 31
0.0
1001
ACAD
1000
ASC_BOUNDS
1002
{
1070
    19
1005
C043
1002
}
  0
LINE
  5
C03E
330
BFFE
100
AcDbEntity
  8
0
100
AcDbLine
 10
26.97358892824991
 20
1.383099999991202
 30
0.0
 11
28.40199999996923
 21
1.383099999991202
 31
0.0
1001
ACAD
1000
ASC_BOUNDS
1002
{
1070
    19
1005
C043
1002
}
  0
ARC
  5
C03F
330
BFFE
100
AcDbEntity
  8
0
100
AcDbCircle
 10
28.40199999996923
 20
2.283099999991236
 30
0.0
 40
0.9
100
AcDbArc
 50
270.0
 51
0.0
1001
ACAD
1000
ASC_BOUNDS
1002
{
1070
    19
1005
C043
1002
}
  0
ARC
  5
C040
330
BFFE
100
AcDbEntity
  8
0
100
AcDbCircle
 10
28.40199999996923
 20
2.373099999991211
 30
0.0
 40
2.34
100
AcDbArc
 50
270.0
 51
0.0
1001
ACAD
1000
ASC_BOUNDS
1002
{
1070
    19
1005
C043
1002
}
  0
INSERT
  5
C041
330
BFFE
100
AcDbEntity
  8
0
100
AcDbBlockReference
  2
*X27
 10
0.0
 20
0.0
 30
0.0
1001
ACAD
1000
HATCH
1002
{
1070
    19
1000
ANSI37
1040
0.15
1040
0.0
1000
ASC_BOUNDS
1070
     2
1070
     2
1070
    12
1005
C000
1005
C001
1005
C008
1005
C017
1005
C01A
1005
C018
1005
C009
1005
C00E
1005
C00C
1005
C010
1005
C00F
1005
C011
1070
     2
1070
     3
1005
C01C
1005
C01E
1005
C01D
1000
ASC_SEEDPOINT
1011
3.614004224891801
1021
2.996669441146025
1031
0.0
1000
R14_HATCH_DATA
1000
C041
1011
1.0
1021
0.0
1031
0.0
1011
0.0
1021
1.0
1031
0.0
1011
0.0
1021
0.0
1031
1.0
1040
0.0
1010
0.0
1020
0.0
1030
1.0
1000
ANSI37
1070
     0
1070
     1
1071
        2
1071
        7
1070
     0
1070
     1
1071
       17
1040
13.26299999998673
1040
-0.0001000000000317
1040
9.236999999990758
1040
8.999899999990987
1040
9.236999999990758
1040
8.999999999991019
1040
5.657999999994331
1040
0.9999999999989768
1040
3.181999999996833
1040
4.668599999995308
1040
6.432999999993513
1040
8.763099999991255
1040
4.617999999995391
1040
8.763099999991255
1040
1.420999999998571
1040
4.736799999995242
1040
4.617999999995391
1040
-0.0001000000000317
1040
4.617999999995391
1040
0.0
1040
6.766999999993232
1040
0.0
1040
6.766999999993232
1040
-0.0001000000000317
1040
7.826999999992154
1040
2.368399999997621
1040
10.64699999998936
1040
2.368399999997621
1040
11.70599999998831
1040
-0.0001000000000317
1040
11.70599999998831
1040
0.0
1040
13.26299999998673
1040
0.0
1071
       12
1005
C000
1005
C001
1005
C008
1005
C017
1005
C01A
1005
C018
1005
C009
1005
C00E
1005
C00C
1005
C010
1005
C00F
1005
C011
1071
       22
1070
     0
1070
     1
1071
        3
1040
9.236999999990758
1040
5.5200999999945
1040
10.06399999998996
1040
3.670999999996297
1040
8.409999999991555
1040
3.670999999996297
1071
        3
1005
C01C
1005
C01E
1005
C01D
1070
     0
1070
     1
1040
0.0
1040
0.15
1070
     0
1070
     2
1040
0.7853981633974483
1040
49.29960901727088
1040
-10.17736998311392
1040
-0.3367596045400932
1040
0.3367596045400932
1070
     0
1040
2.356194490192345
1040
49.29960901727088
1040
-10.17736998311392
1040
-0.3367596045400932
1040
-0.3367596045400932
1070
     0
1040
0.0110235143455945
1071
        2
1040
3.614004224891801
1040
2.996669441146025
1040
0.0
1040
3.614004224891801
1040
2.996669441146025
1040
0.0
1002
}
  0
INSERT
  5
C042
330
BFFE
100
AcDbEntity
  8
0
100
AcDbBlockReference
  2
*X28
 10
0.0
 20
0.0
 30
0.0
1001
ACAD
1000
HATCH
1002
{
1070
    19
1000
ANSI37
1040
0.15
1040
0.0
1000
ASC_BOUNDS
1070
     1
1070
     2
1070
    10
1005
C002
1005
C003
1005
C024
1005
C022
1005
C023
1005
C016
1005
C01B
1005
C01F
1005
C005
1005
C004
1000
ASC_SEEDPOINT
1011
14.73245321214324
1021
2.798246178283421
1031
0.0
1000
R14_HATCH_DATA
1000
C042
1011
1.0
1021
0.0
1031
0.0
1011
0.0
1021
1.0
1031
0.0
1011
0.0
1021
0.0
1031
1.0
1040
0.0
1010
0.0
1020
0.0
1030
1.0
1000
ANSI37
1070
     0
1070
     1
1071
        1
1071
        7
1070
     0
1070
     1
1071
       10
1040
16.46099999998353
1040
5.432899999994561
1040
18.59199999998134
1040
-0.2368999999997641
1040
22.38199999997767
1040
8.763099999991255
1040
20.89099999997916
1040
8.763099999991255
1040
18.59799999998143
1040
3.315799999996671
1040
16.46099999998353
1040
8.999899999990987
1040
14.32399999998563
1040
3.315799999996671
1040
12.02999999998792
1040
8.763099999991255
1040
10.53899999998941
1040
8.763099999991255
1040
14.32899999998563
1040
-0.2368999999997641
1071
       10
1005
C002
1005
C003
1005
C024
1005
C022
1005
C023
1005
C016
1005
C01B
1005
C01F
1005
C005
1005
C004
1070
     0
1070
     1
1040
0.0
1040
0.15
1070
     0
1070
     2
1040
0.7853981633974483
1040
49.29960901727088
1040
-10.17736998311392
1040
-0.3367596045400932
1040
0.3367596045400932
1070
     0
1040
2.356194490192345
1040
49.29960901727088
1040
-10.17736998311392
1040
-0.3367596045400932
1040
-0.3367596045400932
1070
     0
1040
0.0110235143455945
1071
        1
1040
14.73245321214324
1040
2.798246178283421
1040
0.0
1002
}
  0
INSERT
  5
C043
330
BFFE
100
AcDbEntity
  8
0
100
AcDbBlockReference
  2
*X29
 10
0.0
 20
0.0
 30
0.0
1001
ACAD
1000
HATCH
1002
{
1070
    19
1000
ANSI37
1040
0.15
1040
0.0
1000
ASC_BOUNDS
1070
     2
1070
     2
1070
    13
1005
C006
1005
C013
1005
C014
1005
C012
1005
C015
1005
C03C
1005
C040
1005
C03B
1005
C03A
1005
C03D
1005
C03F
1005
C03E
1005
C007
1070
     2
1070
     3
1005
C020
1005
C025
1005
C021
1000
ASC_SEEDPOINT
1011
21.97929957367762
1021
3.294304244259308
1031
0.0
1000
R14_HATCH_DATA
1000
C043
1011
1.0
1021
0.0
1031
0.0
1011
0.0
1021
1.0
1031
0.0
1011
0.0
1021
0.0
1031
1.0
1040
0.0
1010
0.0
1020
0.0
1030
1.0
1000
ANSI37
1070
     0
1070
     1
1071
        2
1071
        7
1070
     1
1070
     1
1071
       15
1040
23.56599999997638
1040
8.999899999990987
1040
0.0
1040
19.53899999998043
1040
-0.0001000000000317
1040
0.0
1040
19.53899999998043
1040
0.0
1040
0.0
1040
21.09599999997886
1040
0.0
1040
0.0
1040
21.09599999997886
1040
-0.0001000000000317
1040
0.0
1040
22.15599999997789
1040
2.368399999997621
1040
0.0
1040
24.97599999997499
1040
2.368399999997621
1040
0.0
1040
26.02015566812236
1040
0.0330999999912365
1040
0.0
1040
28.40199999996923
1040
0.0330999999912365
1040
0.414213562373095
1040
30.74199999996923
1040
2.373099999991211
1040
0.0
1040
30.74199999996927
1040
8.763099999991255
1040
0.0
1040
29.30199999996933
1040
8.763099999991255
1040
0.0
1040
29.30199999996933
1040
2.283099999991236
1040
-0.414213562373095
1040
28.40199999996923
1040
1.383099999991237
1040
0.0
1040
26.97358892824991
1040
1.383099999991202
1040
0.0
1071
       13
1005
C006
1005
C013
1005
C014
1005
C012
1005
C015
1005
C03C
1005
C040
1005
C03B
1005
C03A
1005
C03D
1005
C03F
1005
C03E
1005
C007
1071
       22
1070
     0
1070
     1
1071
        3
1040
22.7389999999773
1040
3.670999999996297
1040
23.56599999997638
1040
5.5200999999945
1040
24.39299999997559
1040
3.670999999996297
1071
        3
1005
C020
1005
C025
1005
C021
1070
     0
1070
     1
1040
0.0
1040
0.15
1070
     0
1070
     2
1040
0.7853981633974483
1040
49.29960901727088
1040
-10.17736998311392
1040
-0.3367596045400932
1040
0.3367596045400932
1070
     0
1040
2.356194490192345
1040
49.29960901727088
1040
-10.17736998311392
1040
-0.3367596045400932
1040
-0.3367596045400932
1070
     0
1040
0.0110235143455945
1071
        2
1040
21.97929957367762
1040
3.294304244259308
1040
0.0
1040
21.97929957367762
1040
3.294304244259308
1040
0.0
1002
}
  0
INSERT
  5
C044
330
BFFE
100
AcDbEntity
  8
0
100
AcDbBlockReference
  2
*X30
 10
0.0
 20
0.0
 30
0.0
1001
ACAD
1000
HATCH
1002
{
1070
    19
1000
ANSI37
1040
0.15
1040
0.0
1000
R14_HATCH_DATA
1000
C044
1011
1.0
1021
0.0
1031
0.0
1011
0.0
1021
1.0
1031
0.0
1011
0.0
1021
0.0
1031
1.0
1040
0.0
1010
0.0
1020
0.0
1030
1.0
1000
ANSI37
1070
     0
1070
     1
1071
        1
1071
        7
1070
     1
1070
     1
1071
       12
1040
31.64199999996833
1040
2.481619422925121
1040
0.2679491924310942
1040
32.94699999997067
1040
0.2212931190493919
1040
0.2679491924301353
1040
36.36699999995983
1040
0.2212931190459813
1040
0.2679491924321411
1040
37.67199999996831
1040
2.481619422928361
1040
0.0
1040
37.67199999996831
1040
8.763099999991255
1040
0.0
1040
36.23199999996837
1040
8.763099999991255
1040
0.0
1040
36.23199999996837
1040
2.481619422925064
1040
-0.2679491924310291
1040
35.64699999996708
1040
1.468369700498386
1040
-0.267949192430519
1040
33.66699999997093
1040
1.468369700497703
1040
-0.267949192431809
1040
33.08199999996839
1040
2.481619422926997
1040
0.0
1040
33.08199999996839
1040
8.763099999991255
1040
0.0
1040
31.64199999996833
1040
8.763099999991255
1040
0.0
1071
        0
1070
     0
1070
     1
1040
0.0
1040
0.15
1070
     0
1070
     2
1040
0.7853981633974483
1040
49.29960901727088
1040
-10.17736998311392
1040
-0.3367596045400932
1040
0.3367596045400932
1070
     0
1040
2.356194490192345
1040
49.29960901727088
1040
-10.17736998311392
1040
-0.3367596045400932
1040
-0.3367596045400932
1070
     0
1040
0.0110235143455945
1071
        1
1040
32.30357378967278
1040
3.988785755459219
1040
0.0
1002
}
  0
INSERT
  5
C045
330
BFFE
100
AcDbEntity
  8
0
100
AcDbBlockReference
  2
*X31
 10
0.0
 20
0.0
 30
0.0
1001
ACAD
1000
HATCH
1002
{
1070
    19
1000
ANSI37
1040
0.15
1040
0.0
1000
ASC_BOUNDS
1070
     1
1070
     2
1070
     8
1005
C026
1005
C029
1005
C02D
1005
C02C
1005
C02B
1005
C028
1005
C02A
1005
C027
1000
ASC_SEEDPOINT
1011
39.74896370716704
1021
4.484843821435049
1031
0.0
1000
R14_HATCH_DATA
1000
C045
1011
1.0
1021
0.0
1031
0.0
1011
0.0
1021
1.0
1031
0.0
1011
0.0
1021
0.0
1031
1.0
1040
0.0
1010
0.0
1020
0.0
1030
1.0
1000
ANSI37
1070
     0
1070
     1
1071
        1
1071
        7
1070
     0
1070
     1
1071
        9
1040
40.02599999995994
1040
5.341799999994635
1040
44.99999999995498
1040
-0.2368999999997641
1040
44.99999999995498
1040
8.763099999991255
1040
43.57899999995641
1040
8.763099999991255
1040
43.57899999995641
1040
3.421199999996588
1040
38.60499999996136
1040
8.999899999990987
1040
38.60499999996136
1040
8.999999999991019
1040
38.60499999996136
1040
0.0
1040
40.02599999995994
1040
0.0
1071
        8
1005
C026
1005
C029
1005
C02D
1005
C02C
1005
C02B
1005
C028
1005
C02A
1005
C027
1070
     0
1070
     1
1040
0.0
1040
0.15
1070
     0
1070
     2
1040
0.7853981633974483
1040
49.29960901727088
1040
-10.17736998311392
1040
-0.3367596045400932
1040
0.3367596045400932
1070
     0
1040
2.356194490192345
1040
49.29960901727088
1040
-10.17736998311392
1040
-0.3367596045400932
1040
-0.3367596045400932
1070
     0
1040
0.0110235143455945
1071
        1
1040
39.74896370716704
1040
4.484843821435049
1040
0.0
1002
}
  0
INSERT
  5
C046
330
BFFE
100
AcDbEntity
  8
0
100
AcDbBlockReference
  2
*X32
 10
0.0
 20
0.0
 30
0.0
1001
ACAD
1000
HATCH
1002
{
1070
    19
1000
ANSI37
1040
0.15
1040
0.0
1000
ASC_BOUNDS
1070
     1
1070
     2
1070
     4
1005
C00A
1005
C019
1005
C00B
1005
C00D
1000
ASC_SEEDPOINT
1011
1.079051535452663
1021
4.148538732891836
1031
0.0
1000
R14_HATCH_DATA
1000
C046
1011
1.0
1021
0.0
1031
0.0
1011
0.0
1021
1.0
1031
0.0
1011
0.0
1021
0.0
1031
1.0
1040
0.0
1010
0.0
1020
0.0
1030
1.0
1000
ANSI37
1070
     0
1070
     1
1071
        1
1071
        7
1070
     0
1070
     1
1071
        4
1040
1.420999999998571
1040
0.0
1040
1.420999999998571
1040
8.763099999991255
1040
0.0
1040
8.763099999991255
1040
0.0
1040
0.0
1071
        4
1005
C00A
1005
C019
1005
C00B
1005
C00D
1070
     0
1070
     1
1040
0.0
1040
0.15
1070
     0
1070
     2
1040
0.7853981633974483
1040
49.29960901727088
1040
-10.17736998311392
1040
-0.3367596045400932
1040
0.3367596045400932
1070
     0
1040
2.356194490192345
1040
49.29960901727088
1040
-10.17736998311392
1040
-0.3367596045400932
1040
-0.3367596045400932
1070
     0
1040
0.0053004257112761
1071
        1
1040
1.079051535452663
1040
4.148538732891836
1040
0.0
1002
}
  0
ENDBLK
  5
C047
330
BFFE
100
AcDbEntity
  8
0
100
AcDbBlockEnd
  0
BLOCK
  5
C9FD
330
C86F
100
AcDbEntity
  8
0
100
AcDbBlockBegin
  2
*X27
 70
     1
 10
0.0
 20
0.0
 30
0.0
  3
*X27
  1

  0
LINE
  5
C870
330
C86F
100
AcDbEntity
  8
0
  6
CONTINUOUS
100
AcDbLine
 10
3.418023043697893
 20
7.251849696850613
 30
0.0
 11
4.929273346838536
 21
8.763099999991255
 31
0.0
  0
LINE
  5
C871
330
C86F
100
AcDbEntity
  8
0
  6
CONTINUOUS
100
AcDbLine
 10
1.483656411257782
 20
4.643963855330318
 30
0.0
 11
5.60279255591872
 21
8.763099999991255
 31
0.0
  0
LINE
  5
C872
330
C86F
100
AcDbEntity
  8
0
  6
CONTINUOUS
100
AcDbLine
 10
1.755053947328235
 20
4.241842182320584
 30
0.0
 11
6.276311764998907
 21
8.763099999991255
 31
0.0
  0
LINE
  5
C873
330
C86F
100
AcDbEntity
  8
0
  6
CONTINUOUS
100
AcDbLine
 10
2.026451483398688
 20
3.839720509310849
 30
0.0
 11
4.441040904851878
 21
6.254309930764039
 31
0.0
  0
LINE
  5
C874
330
C86F
100
AcDbEntity
  8
0
  6
CONTINUOUS
100
AcDbLine
 10
2.297849019469139
 20
3.437598836301114
 30
0.0
 11
3.321765168359338
 21
4.461514985191313
 31
0.0
  0
LINE
  5
C875
330
C86F
100
AcDbEntity
  8
0
  6
CONTINUOUS
100
AcDbLine
 10
2.569246555539591
 20
3.03547716329138
 30
0.0
 11
3.593163397972743
 21
4.059394005724531
 31
0.0
  0
LINE
  5
C876
330
C86F
100
AcDbEntity
  8
0
  6
CONTINUOUS
100
AcDbLine
 10
2.840644091610043
 20
2.633355490281646
 30
0.0
 11
3.864561627586149
 21
3.657273026257751
 31
0.0
  0
LINE
  5
C877
330
C86F
100
AcDbEntity
  8
0
  6
CONTINUOUS
100
AcDbLine
 10
3.112041627680496
 20
2.231233817271911
 30
0.0
 11
4.135959857199554
 21
3.25515204679097
 31
0.0
  0
LINE
  5
C878
330
C86F
100
AcDbEntity
  8
0
  6
CONTINUOUS
100
AcDbLine
 10
3.383439163750948
 20
1.829112144262177
 30
0.0
 11
4.40735808681296
 21
2.853031067324189
 31
0.0
  0
LINE
  5
C879
330
C86F
100
AcDbEntity
  8
0
  6
CONTINUOUS
100
AcDbLine
 10
3.654836699821399
 20
1.426990471252442
 30
0.0
 11
4.678756316426365
 21
2.450910087857407
 31
0.0
  0
LINE
  5
C87A
330
C86F
100
AcDbEntity
  8
0
  6
CONTINUOUS
100
AcDbLine
 10
3.926234235891853
 20
1.024868798242709
 30
0.0
 11
4.95015454603977
 21
2.048789108390626
 31
0.0
  0
LINE
  5
C87B
330
C86F
100
AcDbEntity
  8
0
  6
CONTINUOUS
100
AcDbLine
 10
4.197631771962304
 20
0.6227471252329737
 30
0.0
 11
5.221552775653176
 21
1.646668128923846
 31
0.0
  0
LINE
  5
C87C
330
C86F
100
AcDbEntity
  8
0
  6
CONTINUOUS
100
AcDbLine
 10
8.715877546767851
 20
7.835069736359266
 30
0.0
 11
9.435953450375058
 21
8.555145639966472
 31
0.0
  0
LINE
  5
C87D
330
C86F
100
AcDbEntity
  8
0
  6
CONTINUOUS
100
AcDbLine
 10
8.170620868422267
 20
6.616293848933497
 30
0.0
 11
9.644120833743461
 21
8.08979381425469
 31
0.0
  0
LINE
  5
C87E
330
C86F
100
AcDbEntity
  8
0
  6
CONTINUOUS
100
AcDbLine
 10
7.625364190076684
 20
5.397517961507727
 30
0.0
 11
9.852288217111864
 21
7.624441988542907
 31
0.0
  0
LINE
  5
C87F
330
C86F
100
AcDbEntity
  8
0
  6
CONTINUOUS
100
AcDbLine
 10
7.080107511731101
 20
4.178742074081957
 30
0.0
 11
10.06045560048027
 21
7.159090162831124
 31
0.0
  0
LINE
  5
C880
330
C86F
100
AcDbEntity
  8
0
  6
CONTINUOUS
100
AcDbLine
 10
6.534850833385518
 20
2.959966186656187
 30
0.0
 11
10.26862298384867
 21
6.693738337119342
 31
0.0
  0
LINE
  5
C881
330
C86F
100
AcDbEntity
  8
0
  6
CONTINUOUS
100
AcDbLine
 10
4.469029308032756
 20
0.2206254522232385
 30
0.0
 11
5.492951005266582
 21
1.244547149457064
 31
0.0
  0
LINE
  5
C882
330
C86F
100
AcDbEntity
  8
0
  6
CONTINUOUS
100
AcDbLine
 10
5.989594155039935
 20
1.741190299230417
 30
0.0
 11
8.806950407233131
 21
4.558546551423613
 31
0.0
  0
LINE
  5
C883
330
C86F
100
AcDbEntity
  8
0
  6
CONTINUOUS
100
AcDbLine
 10
9.401251593263643
 20
5.152847737454126
 30
0.0
 11
10.47679036721708
 21
6.228386511407559
 31
0.0
  0
LINE
  5
C884
330
C86F
100
AcDbEntity
  8
0
  6
CONTINUOUS
100
AcDbLine
 10
4.921837203428691
 20
-0.0000858614610131
 30
0.0
 11
8.592923064886001
 21
3.670999999996297
 31
0.0
  0
LINE
  5
C885
330
C86F
100
AcDbEntity
  8
0
  6
CONTINUOUS
100
AcDbLine
 10
9.609390446785305
 20
4.6874673818956
 30
0.0
 11
10.68495775058548
 21
5.763034685695775
 31
0.0
  0
LINE
  5
C886
330
C86F
100
AcDbEntity
  8
0
  6
CONTINUOUS
100
AcDbLine
 10
5.595387755019432
 20
-0.0000545189504582
 30
0.0
 11
7.716137258923768
 21
2.120694984953879
 31
0.0
  0
LINE
  5
C887
330
C86F
100
AcDbEntity
  8
0
  6
CONTINUOUS
100
AcDbLine
 10
6.268938306610172
 20
-0.000023176439905
 30
0.0
 11
7.170485805526503
 21
0.9015243224764267
 31
0.0
  0
LINE
  5
C888
330
C86F
100
AcDbEntity
  8
0
  6
CONTINUOUS
100
AcDbLine
 10
7.963842273967511
 20
2.368399999997621
 30
0.0
 11
9.266442273966188
 21
3.670999999996297
 31
0.0
  0
LINE
  5
C889
330
C86F
100
AcDbEntity
  8
0
  6
CONTINUOUS
100
AcDbLine
 10
8.637361483047696
 20
2.368399999997621
 30
0.0
 11
9.939961483046375
 21
3.670999999996297
 31
0.0
  0
LINE
  5
C88A
330
C86F
100
AcDbEntity
  8
0
  6
CONTINUOUS
100
AcDbLine
 10
9.817529300306965
 20
4.222087026337075
 30
0.0
 11
10.89312513395388
 21
5.297682859983993
 31
0.0
  0
LINE
  5
C88B
330
C86F
100
AcDbEntity
  8
0
  6
CONTINUOUS
100
AcDbLine
 10
10.02566815382863
 20
3.756706670778549
 30
0.0
 11
11.10129251732229
 21
4.832331034272211
 31
0.0
  0
LINE
  5
C88C
330
C86F
100
AcDbEntity
  8
0
  6
CONTINUOUS
100
AcDbLine
 10
9.310880692127883
 20
2.368399999997621
 30
0.0
 11
11.30945990069069
 21
4.366979208560428
 31
0.0
  0
LINE
  5
C88D
330
C86F
100
AcDbEntity
  8
0
  6
CONTINUOUS
100
AcDbLine
 10
9.98439990120807
 20
2.36839999999762
 30
0.0
 11
11.5176272840591
 21
3.901627382848645
 31
0.0
  0
LINE
  5
C88E
330
C86F
100
AcDbEntity
  8
0
  6
CONTINUOUS
100
AcDbLine
 10
10.65037369446246
 20
2.36085458417182
 30
0.0
 11
11.7257946674275
 21
3.436275557136862
 31
0.0
  0
LINE
  5
C88F
330
C86F
100
AcDbEntity
  8
0
  6
CONTINUOUS
100
AcDbLine
 10
10.85847197087848
 20
1.895433651507656
 30
0.0
 11
11.9339620507959
 21
2.97092373142508
 31
0.0
  0
LINE
  5
C890
330
C86F
100
AcDbEntity
  8
0
  6
CONTINUOUS
100
AcDbLine
 10
11.0665702472945
 20
1.430012718843491
 30
0.0
 11
12.14212943416431
 21
2.505571905713296
 31
0.0
  0
LINE
  5
C891
330
C86F
100
AcDbEntity
  8
0
  6
CONTINUOUS
100
AcDbLine
 10
11.27466852371052
 20
0.9645917861793256
 30
0.0
 11
12.35029681753271
 21
2.040220080001513
 31
0.0
  0
LINE
  5
C892
330
C86F
100
AcDbEntity
  8
0
  6
CONTINUOUS
100
AcDbLine
 10
11.48276680012654
 20
0.4991708535151611
 30
0.0
 11
12.55846420090111
 21
1.57486825428973
 31
0.0
  0
LINE
  5
C893
330
C86F
100
AcDbEntity
  8
0
  6
CONTINUOUS
100
AcDbLine
 10
11.69086507654257
 20
0.0337499208509957
 30
0.0
 11
12.76663158426952
 21
1.109516428577947
 31
0.0
  0
LINE
  5
C894
330
C86F
100
AcDbEntity
  8
0
  6
CONTINUOUS
100
AcDbLine
 10
12.33057447873954
 20
-0.0000598860322123
 30
0.0
 11
12.97479896763792
 21
0.6441646028661663
 31
0.0
  0
LINE
  5
C895
330
C86F
100
AcDbEntity
  8
0
  6
CONTINUOUS
100
AcDbLine
 10
13.00413694809395
 20
-0.0000166257579952
 30
0.0
 11
13.18296635100632
 21
0.1788127771543824
 31
0.0
  0
LINE
  5
C896
330
C86F
100
AcDbEntity
  8
0
  6
CONTINUOUS
100
AcDbLine
 10
4.772852165289667
 20
-0.000092794222212
 30
0.0
 11
4.296495091028902
 21
0.4762642800385528
 31
0.0
  0
LINE
  5
C897
330
C86F
100
AcDbEntity
  8
0
  6
CONTINUOUS
100
AcDbLine
 10
5.446340034776103
 20
-0.0000614546284616
 30
0.0
 11
2.898195908335625
 21
2.548082671812017
 31
0.0
  0
LINE
  5
C898
330
C86F
100
AcDbEntity
  8
0
  6
CONTINUOUS
100
AcDbLine
 10
6.119827904262539
 20
-0.0000301150347113
 30
0.0
 11
1.499896725642348
 21
4.61990106358548
 31
0.0
  0
LINE
  5
C899
330
C86F
100
AcDbEntity
  8
0
  6
CONTINUOUS
100
AcDbLine
 10
6.775136745476159
 20
0.0181802528318542
 30
0.0
 11
5.699826040202669
 21
1.093490958105344
 31
0.0
  0
LINE
  5
C89A
330
C86F
100
AcDbEntity
  8
0
  6
CONTINUOUS
100
AcDbLine
 10
6.983376846288489
 20
0.4834593610997118
 30
0.0
 11
5.908008617934405
 21
1.558827589453796
 31
0.0
  0
LINE
  5
C89B
330
C86F
100
AcDbEntity
  8
0
  6
CONTINUOUS
100
AcDbLine
 10
5.377063484962296
 20
1.416253513345719
 30
0.0
 11
1.702276957014131
 21
5.091040041293883
 31
0.0
  0
LINE
  5
C89C
330
C86F
100
AcDbEntity
  8
0
  6
CONTINUOUS
100
AcDbLine
 10
3.978745891735324
 20
3.488090315652877
 30
0.0
 11
2.000373521109399
 21
5.466462686278803
 31
0.0
  0
LINE
  5
C89D
330
C86F
100
AcDbEntity
  8
0
  6
CONTINUOUS
100
AcDbLine
 10
7.191616947100819
 20
0.948738469367568
 30
0.0
 11
6.11619119566614
 21
2.024164220802247
 31
0.0
  0
LINE
  5
C89E
330
C86F
100
AcDbEntity
  8
0
  6
CONTINUOUS
100
AcDbLine
 10
7.399857047913149
 20
1.414017577635424
 30
0.0
 11
6.324373773397875
 21
2.489500852150698
 31
0.0
  0
LINE
  5
C89F
330
C86F
100
AcDbEntity
  8
0
  6
CONTINUOUS
100
AcDbLine
 10
7.608097148725479
 20
1.879296685903281
 30
0.0
 11
6.53255635112961
 21
2.95483748349915
 31
0.0
  0
LINE
  5
C8A0
330
C86F
100
AcDbEntity
  8
0
  6
CONTINUOUS
100
AcDbLine
 10
7.816337249537808
 20
2.344575794171138
 30
0.0
 11
6.740738928861345
 21
3.420174114847601
 31
0.0
  0
LINE
  5
C8A1
330
C86F
100
AcDbEntity
  8
0
  6
CONTINUOUS
100
AcDbLine
 10
3.310241080789734
 20
4.830114335678653
 30
0.0
 11
2.298470085204666
 21
5.84188533126372
 31
0.0
  0
LINE
  5
C8A2
330
C86F
100
AcDbEntity
  8
0
  6
CONTINUOUS
100
AcDbLine
 10
3.60832983563551
 20
5.205544789913063
 30
0.0
 11
2.596566649299935
 21
6.217307976248638
 31
0.0
  0
LINE
  5
C8A3
330
C86F
100
AcDbEntity
  8
0
  6
CONTINUOUS
100
AcDbLine
 10
3.906418590481286
 20
5.580975244147473
 30
0.0
 11
2.894663213395203
 21
6.592730621233557
 31
0.0
  0
LINE
  5
C8A4
330
C86F
100
AcDbEntity
  8
0
  6
CONTINUOUS
100
AcDbLine
 10
4.204507345327062
 20
5.956405698381884
 30
0.0
 11
3.192759777490472
 21
6.968153266218474
 31
0.0
  0
LINE
  5
C8A5
330
C86F
100
AcDbEntity
  8
0
  6
CONTINUOUS
100
AcDbLine
 10
8.466032252791512
 20
2.368399999997621
 30
0.0
 11
6.948921506593081
 21
3.885510746196053
 31
0.0
  0
LINE
  5
C8A6
330
C86F
100
AcDbEntity
  8
0
  6
CONTINUOUS
100
AcDbLine
 10
9.139551461871699
 20
2.36839999999762
 30
0.0
 11
7.157104084324816
 21
4.350847377544504
 31
0.0
  0
LINE
  5
C8A7
330
C86F
100
AcDbEntity
  8
0
  6
CONTINUOUS
100
AcDbLine
 10
4.502596100172839
 20
6.331836152616295
 30
0.0
 11
3.49085634158574
 21
7.343575911203393
 31
0.0
  0
LINE
  5
C8A8
330
C86F
100
AcDbEntity
  8
0
  6
CONTINUOUS
100
AcDbLine
 10
4.800684855018615
 20
6.707266606850705
 30
0.0
 11
3.788952905681008
 21
7.718998556188312
 31
0.0
  0
LINE
  5
C8A9
330
C86F
100
AcDbEntity
  8
0
  6
CONTINUOUS
100
AcDbLine
 10
12.18154012887317
 20
-0.0000694579236642
 30
0.0
 11
11.32140332908496
 21
0.8600673418645499
 31
0.0
  0
LINE
  5
C8AA
330
C86F
100
AcDbEntity
  8
0
  6
CONTINUOUS
100
AcDbLine
 10
12.85501608323566
 20
-0.0000262032059659
 30
0.0
 11
10.77672456435345
 21
2.078265315676246
 31
0.0
  0
LINE
  5
C8AB
330
C86F
100
AcDbEntity
  8
0
  6
CONTINUOUS
100
AcDbLine
 10
9.813070670951886
 20
2.36839999999762
 30
0.0
 11
8.51047067095321
 21
3.670999999996297
 31
0.0
  0
LINE
  5
C8AC
330
C86F
100
AcDbEntity
  8
0
  6
CONTINUOUS
100
AcDbLine
 10
10.48658988003207
 20
2.36839999999762
 30
0.0
 11
9.183989880033396
 21
3.670999999996297
 31
0.0
  0
LINE
  5
C8AD
330
C86F
100
AcDbEntity
  8
0
  6
CONTINUOUS
100
AcDbLine
 10
8.441048632286794
 20
3.740422038662712
 30
0.0
 11
7.365286662056551
 21
4.816184008892956
 31
0.0
  0
LINE
  5
C8AE
330
C86F
100
AcDbEntity
  8
0
  6
CONTINUOUS
100
AcDbLine
 10
8.649187485808454
 20
4.205802394221237
 30
0.0
 11
7.573469239788285
 21
5.281520640241407
 31
0.0
  0
LINE
  5
C8AF
330
C86F
100
AcDbEntity
  8
0
  6
CONTINUOUS
100
AcDbLine
 10
5.098773609864391
 20
7.082697061085115
 30
0.0
 11
4.087049469776277
 21
8.09442120117323
 31
0.0
  0
LINE
  5
C8B0
330
C86F
100
AcDbEntity
  8
0
  6
CONTINUOUS
100
AcDbLine
 10
5.396862364710167
 20
7.458127515319526
 30
0.0
 11
4.385146033871544
 21
8.469843846158149
 31
0.0
  0
LINE
  5
C8B1
330
C86F
100
AcDbEntity
  8
0
  6
CONTINUOUS
100
AcDbLine
 10
13.04801363231285
 20
0.4804954567970334
 30
0.0
 11
9.85750908911358
 21
3.670999999996297
 31
0.0
  0
LINE
  5
C8B2
330
C86F
100
AcDbEntity
  8
0
  6
CONTINUOUS
100
AcDbLine
 10
8.857326339330116
 20
4.671182749779763
 30
0.0
 11
7.781651817520021
 21
5.746857271589858
 31
0.0
  0
LINE
  5
C8B3
330
C86F
100
AcDbEntity
  8
0
  6
CONTINUOUS
100
AcDbLine
 10
5.694951119555943
 20
7.833557969553937
 30
0.0
 11
4.765409089118624
 21
8.763099999991255
 31
0.0
  0
LINE
  5
C8B4
330
C86F
100
AcDbEntity
  8
0
  6
CONTINUOUS
100
AcDbLine
 10
12.50286117236978
 20
1.699167125820288
 30
0.0
 11
9.68611877250287
 21
4.515909525687196
 31
0.0
  0
LINE
  5
C8B5
330
C86F
100
AcDbEntity
  8
0
  6
CONTINUOUS
100
AcDbLine
 10
9.065465192851777
 20
5.136563105338288
 30
0.0
 11
7.989834395251757
 21
6.21219390293831
 31
0.0
  0
LINE
  5
C8B6
330
C86F
100
AcDbEntity
  8
0
  6
CONTINUOUS
100
AcDbLine
 10
5.993039874401719
 20
8.208988423788346
 30
0.0
 11
5.43892829819881
 21
8.763099999991255
 31
0.0
  0
LINE
  5
C8B7
330
C86F
100
AcDbEntity
  8
0
  6
CONTINUOUS
100
AcDbLine
 10
11.95770871242671
 20
2.917838794843543
 30
0.0
 11
8.19801697298349
 21
6.677530534286761
 31
0.0
  0
LINE
  5
C8B8
330
C86F
100
AcDbEntity
  8
0
  6
CONTINUOUS
100
AcDbLine
 10
6.291128629247495
 20
8.584418878022756
 30
0.0
 11
6.112447507278997
 21
8.763099999991255
 31
0.0
  0
LINE
  5
C8B9
330
C86F
100
AcDbEntity
  8
0
  6
CONTINUOUS
100
AcDbLine
 10
11.41255625248364
 20
4.136510463866797
 30
0.0
 11
8.406199550715227
 21
7.142867165635211
 31
0.0
  0
LINE
  5
C8BA
330
C86F
100
AcDbEntity
  8
0
  6
CONTINUOUS
100
AcDbLine
 10
10.86740379254057
 20
5.355182132890051
 30
0.0
 11
8.614382128446962
 21
7.608203796983664
 31
0.0
  0
LINE
  5
C8BB
330
C86F
100
AcDbEntity
  8
0
  6
CONTINUOUS
100
AcDbLine
 10
10.3222513325975
 20
6.573853801913305
 30
0.0
 11
8.822564706178696
 21
8.073540428332114
 31
0.0
  0
LINE
  5
C8BC
330
C86F
100
AcDbEntity
  8
0
  6
CONTINUOUS
100
AcDbLine
 10
9.777098872654436
 20
7.792525470936562
 30
0.0
 11
9.030747283910433
 21
8.538877059680566
 31
0.0
  0
ENDBLK
  5
C9FE
330
C86F
100
AcDbEntity
  8
0
100
AcDbBlockEnd
  0
BLOCK
  5
C9FF
330
C8BD
100
AcDbEntity
  8
0
100
AcDbBlockBegin
  2
*X28
 70
     1
 10
0.0
 20
0.0
 30
0.0
  3
*X28
  1

  0
LINE
  5
C8BE
330
C8BD
100
AcDbEntity
  8
0
  6
CONTINUOUS
100
AcDbLine
 10
10.67292308101235
 20
8.445076852443387
 30
0.0
 11
10.99094622856022
 21
8.763099999991255
 31
0.0
  0
LINE
  5
C8BF
330
C8BD
100
AcDbEntity
  8
0
  6
CONTINUOUS
100
AcDbLine
 10
10.87250383178748
 20
7.971138394138331
 30
0.0
 11
11.6644654376404
 21
8.763099999991255
 31
0.0
  0
LINE
  5
C8C0
330
C8BD
100
AcDbEntity
  8
0
  6
CONTINUOUS
100
AcDbLine
 10
11.07208458256261
 20
7.497199935833273
 30
0.0
 11
12.12126590876355
 21
8.546381262034211
 31
0.0
  0
LINE
  5
C8C1
330
C8BD
100
AcDbEntity
  8
0
  6
CONTINUOUS
100
AcDbLine
 10
11.27166533333774
 20
7.023261477528216
 30
0.0
 11
12.32085164573666
 21
8.072447789927136
 31
0.0
  0
LINE
  5
C8C2
330
C8BD
100
AcDbEntity
  8
0
  6
CONTINUOUS
100
AcDbLine
 10
11.47124608411287
 20
6.549323019223158
 30
0.0
 11
12.52043738270977
 21
7.59851431782006
 31
0.0
  0
LINE
  5
C8C3
330
C8BD
100
AcDbEntity
  8
0
  6
CONTINUOUS
100
AcDbLine
 10
11.670826834888
 20
6.075384560918101
 30
0.0
 11
12.72002311968288
 21
7.124580845712984
 31
0.0
  0
LINE
  5
C8C4
330
C8BD
100
AcDbEntity
  8
0
  6
CONTINUOUS
100
AcDbLine
 10
11.87040758566313
 20
5.601446102613043
 30
0.0
 11
12.91960885665599
 21
6.650647373605907
 31
0.0
  0
LINE
  5
C8C5
330
C8BD
100
AcDbEntity
  8
0
  6
CONTINUOUS
100
AcDbLine
 10
12.06998833643825
 20
5.127507644307986
 30
0.0
 11
13.1191945936291
 21
6.176713901498832
 31
0.0
  0
LINE
  5
C8C6
330
C8BD
100
AcDbEntity
  8
0
  6
CONTINUOUS
100
AcDbLine
 10
12.26956908721338
 20
4.65356918600293
 30
0.0
 11
13.31878033060221
 21
5.702780429391757
 31
0.0
  0
LINE
  5
C8C7
330
C8BD
100
AcDbEntity
  8
0
  6
CONTINUOUS
100
AcDbLine
 10
12.46914983798851
 20
4.179630727697873
 30
0.0
 11
13.51836606757532
 21
5.228846957284683
 31
0.0
  0
LINE
  5
C8C8
330
C8BD
100
AcDbEntity
  8
0
  6
CONTINUOUS
100
AcDbLine
 10
12.66873058876364
 20
3.705692269392816
 30
0.0
 11
13.71795180454843
 21
4.754913485177607
 31
0.0
  0
LINE
  5
C8C9
330
C8BD
100
AcDbEntity
  8
0
  6
CONTINUOUS
100
AcDbLine
 10
12.86831133953877
 20
3.231753811087759
 30
0.0
 11
13.91753754152154
 21
4.280980013070531
 31
0.0
  0
LINE
  5
C8CA
330
C8BD
100
AcDbEntity
  8
0
  6
CONTINUOUS
100
AcDbLine
 10
13.0678920903139
 20
2.757815352782702
 30
0.0
 11
14.11712327849465
 21
3.807046540963456
 31
0.0
  0
LINE
  5
C8CB
330
C8BD
100
AcDbEntity
  8
0
  6
CONTINUOUS
100
AcDbLine
 10
13.26747284108903
 20
2.283876894477644
 30
0.0
 11
14.31670901546777
 21
3.333113068856379
 31
0.0
  0
LINE
  5
C8CC
330
C8BD
100
AcDbEntity
  8
0
  6
CONTINUOUS
100
AcDbLine
 10
16.36767838827179
 20
8.751678487061342
 30
0.0
 11
16.50332410898388
 21
8.887324207773432
 31
0.0
  0
LINE
  5
C8CD
330
C8BD
100
AcDbEntity
  8
0
  6
CONTINUOUS
100
AcDbLine
 10
15.96190732182191
 20
7.67238821153127
 30
0.0
 11
16.68735328004734
 21
8.397834169756699
 31
0.0
  0
LINE
  5
C8CE
330
C8BD
100
AcDbEntity
  8
0
  6
CONTINUOUS
100
AcDbLine
 10
15.55613625537202
 20
6.593097936001196
 30
0.0
 11
16.87138245111079
 21
7.908344131739965
 31
0.0
  0
LINE
  5
C8CF
330
C8BD
100
AcDbEntity
  8
0
  6
CONTINUOUS
100
AcDbLine
 10
15.15036518892213
 20
5.513807660471122
 30
0.0
 11
17.05541162217424
 21
7.418854093723231
 31
0.0
  0
LINE
  5
C8D0
330
C8BD
100
AcDbEntity
  8
0
  6
CONTINUOUS
100
AcDbLine
 10
14.74459412247225
 20
4.434517384941048
 30
0.0
 11
17.2394407932377
 21
6.929364055706499
 31
0.0
  0
LINE
  5
C8D1
330
C8BD
100
AcDbEntity
  8
0
  6
CONTINUOUS
100
AcDbLine
 10
14.33882305602236
 20
3.355227109410975
 30
0.0
 11
17.42346996430115
 21
6.439874017689766
 31
0.0
  0
LINE
  5
C8D2
330
C8BD
100
AcDbEntity
  8
0
  6
CONTINUOUS
100
AcDbLine
 10
13.46705359186416
 20
1.809938436172586
 30
0.0
 11
16.0819338255367
 21
4.424818669845129
 31
0.0
  0
LINE
  5
C8D3
330
C8BD
100
AcDbEntity
  8
0
  6
CONTINUOUS
100
AcDbLine
 10
16.63283254238972
 20
4.975717386698149
 30
0.0
 11
17.60749913536461
 21
5.950383979673033
 31
0.0
  0
LINE
  5
C8D4
330
C8BD
100
AcDbEntity
  8
0
  6
CONTINUOUS
100
AcDbLine
 10
13.66663434263929
 20
1.335999977867529
 30
0.0
 11
15.67604797733754
 21
3.345413612565779
 31
0.0
  0
LINE
  5
C8D5
330
C8BD
100
AcDbEntity
  8
0
  6
CONTINUOUS
100
AcDbLine
 10
13.86621509341442
 20
0.8620615195624723
 30
0.0
 11
15.27016212913838
 21
2.26600855528643
 31
0.0
  0
LINE
  5
C8D6
330
C8BD
100
AcDbEntity
  8
0
  6
CONTINUOUS
100
AcDbLine
 10
16.81682257348267
 20
4.486188208710908
 30
0.0
 11
17.79152830642806
 21
5.460893941656299
 31
0.0
  0
LINE
  5
C8D7
330
C8BD
100
AcDbEntity
  8
0
  6
CONTINUOUS
100
AcDbLine
 10
17.00081260457561
 20
3.996659030723667
 30
0.0
 11
17.97555747749151
 21
4.971403903639565
 31
0.0
  0
LINE
  5
C8D8
330
C8BD
100
AcDbEntity
  8
0
  6
CONTINUOUS
100
AcDbLine
 10
20.74362343514722
 20
8.412989070375462
 30
0.0
 11
21.09373436476302
 21
8.763099999991256
 31
0.0
  0
LINE
  5
C8D9
330
C8BD
100
AcDbEntity
  8
0
  6
CONTINUOUS
100
AcDbLine
 10
20.25401257174777
 20
7.249858997895826
 30
0.0
 11
21.7672535738432
 21
8.763099999991255
 31
0.0
  0
LINE
  5
C8DA
330
C8BD
100
AcDbEntity
  8
0
  6
CONTINUOUS
100
AcDbLine
 10
14.06579584418955
 20
0.3881230612574149
 30
0.0
 11
14.86427628093921
 21
1.186603498007082
 31
0.0
  0
LINE
  5
C8DB
330
C8BD
100
AcDbEntity
  8
0
  6
CONTINUOUS
100
AcDbLine
 10
14.26537659496467
 20
-0.0858153970476412
 30
0.0
 11
14.45839043274005
 21
0.1071984407277329
 31
0.0
  0
LINE
  5
C8DC
330
C8BD
100
AcDbEntity
  8
0
  6
CONTINUOUS
100
AcDbLine
 10
17.18480263566856
 20
3.507129852736426
 30
0.0
 11
18.15958664855496
 21
4.481913865622833
 31
0.0
  0
LINE
  5
C8DD
330
C8BD
100
AcDbEntity
  8
0
  6
CONTINUOUS
100
AcDbLine
 10
17.3687926667615
 20
3.017600674749186
 30
0.0
 11
18.34361581961842
 21
3.9924238276061
 31
0.0
  0
LINE
  5
C8DE
330
C8BD
100
AcDbEntity
  8
0
  6
CONTINUOUS
100
AcDbLine
 10
19.76440170834832
 20
6.086728925416191
 30
0.0
 11
22.33924590259489
 21
8.661573119662755
 31
0.0
  0
LINE
  5
C8DF
330
C8BD
100
AcDbEntity
  8
0
  6
CONTINUOUS
100
AcDbLine
 10
19.27479084494887
 20
4.923598852936555
 30
0.0
 11
21.84929622842713
 21
7.498104236414807
 31
0.0
  0
LINE
  5
C8E0
330
C8BD
100
AcDbEntity
  8
0
  6
CONTINUOUS
100
AcDbLine
 10
17.55278269785445
 20
2.528071496761945
 30
0.0
 11
18.52764499068187
 21
3.502933789589366
 31
0.0
  0
LINE
  5
C8E1
330
C8BD
100
AcDbEntity
  8
0
  6
CONTINUOUS
100
AcDbLine
 10
18.78517998154942
 20
3.760468780456919
 30
0.0
 11
21.35934655425936
 21
6.33463535316686
 31
0.0
  0
LINE
  5
C8E2
330
C8BD
100
AcDbEntity
  8
0
  6
CONTINUOUS
100
AcDbLine
 10
17.73677272894739
 20
2.038542318774704
 30
0.0
 11
20.8693968800916
 21
5.171166469918914
 31
0.0
  0
LINE
  5
C8E3
330
C8BD
100
AcDbEntity
  8
0
  6
CONTINUOUS
100
AcDbLine
 10
17.92076276004034
 20
1.549013140787464
 30
0.0
 11
20.37944720592384
 21
4.007697586670968
 31
0.0
  0
LINE
  5
C8E4
330
C8BD
100
AcDbEntity
  8
0
  6
CONTINUOUS
100
AcDbLine
 10
18.10475279113329
 20
1.059483962800223
 30
0.0
 11
19.88949753175608
 21
2.84422870342302
 31
0.0
  0
LINE
  5
C8E5
330
C8BD
100
AcDbEntity
  8
0
  6
CONTINUOUS
100
AcDbLine
 10
18.28874282222623
 20
0.5699547848129822
 30
0.0
 11
19.39954785758832
 21
1.680759820175074
 31
0.0
  0
LINE
  5
C8E6
330
C8BD
100
AcDbEntity
  8
0
  6
CONTINUOUS
100
AcDbLine
 10
18.47273285331918
 20
0.0804256068257416
 30
0.0
 11
18.90959818342056
 21
0.517290936927127
 31
0.0
  0
LINE
  5
C8E7
330
C8BD
100
AcDbEntity
  8
0
  6
CONTINUOUS
100
AcDbLine
 10
14.3590401358224
 20
-0.1570118376323384
 30
0.0
 11
14.24903296539946
 21
-0.0470046672093929
 31
0.0
  0
LINE
  5
C8E8
330
C8BD
100
AcDbEntity
  8
0
  6
CONTINUOUS
100
AcDbLine
 10
14.54309291258661
 20
0.332454594683643
 30
0.0
 11
13.75908329123172
 21
1.116464216038529
 31
0.0
  0
LINE
  5
C8E9
330
C8BD
100
AcDbEntity
  8
0
  6
CONTINUOUS
100
AcDbLine
 10
14.72714568935081
 20
0.8219210269996244
 30
0.0
 11
13.26913361706399
 21
2.27993309928645
 31
0.0
  0
LINE
  5
C8EA
330
C8BD
100
AcDbEntity
  8
0
  6
CONTINUOUS
100
AcDbLine
 10
14.91119846611502
 20
1.311387459315606
 30
0.0
 11
12.77918394289625
 21
3.443401982534371
 31
0.0
  0
LINE
  5
C8EB
330
C8BD
100
AcDbEntity
  8
0
  6
CONTINUOUS
100
AcDbLine
 10
15.09525124287922
 20
1.800853891631587
 30
0.0
 11
12.28923426872852
 21
4.606870865782293
 31
0.0
  0
LINE
  5
C8EC
330
C8BD
100
AcDbEntity
  8
0
  6
CONTINUOUS
100
AcDbLine
 10
15.27930401964343
 20
2.290320323947569
 30
0.0
 11
11.79928459456078
 21
5.770339749030213
 31
0.0
  0
LINE
  5
C8ED
330
C8BD
100
AcDbEntity
  8
0
  6
CONTINUOUS
100
AcDbLine
 10
15.46335679640763
 20
2.77978675626355
 30
0.0
 11
14.48885470994921
 21
3.754288842721972
 31
0.0
  0
LINE
  5
C8EE
330
C8BD
100
AcDbEntity
  8
0
  6
CONTINUOUS
100
AcDbLine
 10
13.88507249233704
 20
4.358071060334137
 30
0.0
 11
11.30933492039305
 21
6.933808632278135
 31
0.0
  0
LINE
  5
C8EF
330
C8BD
100
AcDbEntity
  8
0
  6
CONTINUOUS
100
AcDbLine
 10
18.75840522805855
 20
0.1582575336928151
 30
0.0
 11
18.25383727664818
 21
0.6628254851031863
 31
0.0
  0
LINE
  5
C8F0
330
C8BD
100
AcDbEntity
  8
0
  6
CONTINUOUS
100
AcDbLine
 10
15.64740957317184
 20
3.269253188579531
 30
0.0
 11
14.67288388101266
 21
4.243778880738705
 31
0.0
  0
LINE
  5
C8F1
330
C8BD
100
AcDbEntity
  8
0
  6
CONTINUOUS
100
AcDbLine
 10
13.39509276772158
 20
5.521569994029786
 30
0.0
 11
10.81938524622531
 21
8.097277515526056
 31
0.0
  0
LINE
  5
C8F2
330
C8BD
100
AcDbEntity
  8
0
  6
CONTINUOUS
100
AcDbLine
 10
18.95798597883369
 20
0.6321959919978686
 30
0.0
 11
17.84825644852853
 21
1.741925522303024
 31
0.0
  0
LINE
  5
C8F3
330
C8BD
100
AcDbEntity
  8
0
  6
CONTINUOUS
100
AcDbLine
 10
19.15756672960882
 20
1.106134450302922
 30
0.0
 11
17.44267562040888
 21
2.821025559502861
 31
0.0
  0
LINE
  5
C8F4
330
C8BD
100
AcDbEntity
  8
0
  6
CONTINUOUS
100
AcDbLine
 10
15.83146234993604
 20
3.758719620895513
 30
0.0
 11
14.85691305207612
 21
4.733268918755439
 31
0.0
  0
LINE
  5
C8F5
330
C8BD
100
AcDbEntity
  8
0
  6
CONTINUOUS
100
AcDbLine
 10
16.01551512670025
 20
4.248186053211494
 30
0.0
 11
15.04094222313957
 21
5.222758956772172
 31
0.0
  0
LINE
  5
C8F6
330
C8BD
100
AcDbEntity
  8
0
  6
CONTINUOUS
100
AcDbLine
 10
12.90511304310612
 20
6.685068927725435
 30
0.0
 11
10.8270819708403
 21
8.763099999991255
 31
0.0
  0
LINE
  5
C8F7
330
C8BD
100
AcDbEntity
  8
0
  6
CONTINUOUS
100
AcDbLine
 10
12.41513331849066
 20
7.848567861421083
 30
0.0
 11
11.50060117992049
 21
8.763099999991255
 31
0.0
  0
LINE
  5
C8F8
330
C8BD
100
AcDbEntity
  8
0
  6
CONTINUOUS
100
AcDbLine
 10
19.35714748038395
 20
1.580072908607975
 30
0.0
 11
17.03709479228923
 21
3.900125596702697
 31
0.0
  0
LINE
  5
C8F9
330
C8BD
100
AcDbEntity
  8
0
  6
CONTINUOUS
100
AcDbLine
 10
19.55672823115909
 20
2.054011366913028
 30
0.0
 11
16.63151396416958
 21
4.979225633902534
 31
0.0
  0
LINE
  5
C8FA
330
C8BD
100
AcDbEntity
  8
0
  6
CONTINUOUS
100
AcDbLine
 10
16.19956790346445
 20
4.737652485527476
 30
0.0
 11
15.22497139420302
 21
5.712248994788904
 31
0.0
  0
LINE
  5
C8FB
330
C8BD
100
AcDbEntity
  8
0
  6
CONTINUOUS
100
AcDbLine
 10
16.38362068022866
 20
5.227118917843457
 30
0.0
 11
15.40900056526648
 21
6.201739032805637
 31
0.0
  0
LINE
  5
C8FC
330
C8BD
100
AcDbEntity
  8
0
  6
CONTINUOUS
100
AcDbLine
 10
19.75630898193422
 20
2.527949825218081
 30
0.0
 11
18.70774536448286
 21
3.576513442669441
 31
0.0
  0
LINE
  5
C8FD
330
C8BD
100
AcDbEntity
  8
0
  6
CONTINUOUS
100
AcDbLine
 10
19.95588973270936
 20
3.001888283523134
 30
0.0
 11
18.90726987211446
 21
4.050508144118028
 31
0.0
  0
LINE
  5
C8FE
330
C8BD
100
AcDbEntity
  8
0
  6
CONTINUOUS
100
AcDbLine
 10
20.15547048348449
 20
3.475826741828186
 30
0.0
 11
19.10679437974606
 21
4.524502845566614
 31
0.0
  0
LINE
  5
C8FF
330
C8BD
100
AcDbEntity
  8
0
  6
CONTINUOUS
100
AcDbLine
 10
20.35505123425962
 20
3.94976520013324
 30
0.0
 11
19.30631888737766
 21
4.998497547015201
 31
0.0
  0
LINE
  5
C900
330
C8BD
100
AcDbEntity
  8
0
  6
CONTINUOUS
100
AcDbLine
 10
20.55463198503475
 20
4.423703658438292
 30
0.0
 11
19.50584339500926
 21
5.472492248463787
 31
0.0
  0
LINE
  5
C901
330
C8BD
100
AcDbEntity
  8
0
  6
CONTINUOUS
100
AcDbLine
 10
18.37481191085755
 20
3.909446896294752
 30
0.0
 11
15.59302973632993
 21
6.691229070822371
 31
0.0
  0
LINE
  5
C902
330
C8BD
100
AcDbEntity
  8
0
  6
CONTINUOUS
100
AcDbLine
 10
17.96904084440766
 20
4.988737171824825
 30
0.0
 11
15.77705890739338
 21
7.180719108839104
 31
0.0
  0
LINE
  5
C903
330
C8BD
100
AcDbEntity
  8
0
  6
CONTINUOUS
100
AcDbLine
 10
17.56326977795777
 20
6.068027447354899
 30
0.0
 11
15.96108807845684
 21
7.670209146855838
 31
0.0
  0
LINE
  5
C904
330
C8BD
100
AcDbEntity
  8
0
  6
CONTINUOUS
100
AcDbLine
 10
17.15749871150789
 20
7.147317722884972
 30
0.0
 11
16.14511724952029
 21
8.15969918487257
 31
0.0
  0
LINE
  5
C905
330
C8BD
100
AcDbEntity
  8
0
  6
CONTINUOUS
100
AcDbLine
 10
16.751727645058
 20
8.226607998415046
 30
0.0
 11
16.32914642058374
 21
8.649189222889303
 31
0.0
  0
LINE
  5
C906
330
C8BD
100
AcDbEntity
  8
0
  6
CONTINUOUS
100
AcDbLine
 10
20.75421273580989
 20
4.897642116743345
 30
0.0
 11
19.70536790264086
 21
5.946486949912374
 31
0.0
  0
LINE
  5
C907
330
C8BD
100
AcDbEntity
  8
0
  6
CONTINUOUS
100
AcDbLine
 10
20.95379348658502
 20
5.371580575048398
 30
0.0
 11
19.90489241027246
 21
6.42048165136096
 31
0.0
  0
LINE
  5
C908
330
C8BD
100
AcDbEntity
  8
0
  6
CONTINUOUS
100
AcDbLine
 10
21.15337423736015
 20
5.845519033353452
 30
0.0
 11
20.10441691790406
 21
6.894476352809547
 31
0.0
  0
LINE
  5
C909
330
C8BD
100
AcDbEntity
  8
0
  6
CONTINUOUS
100
AcDbLine
 10
21.35295498813529
 20
6.319457491658505
 30
0.0
 11
20.30394142553566
 21
7.368471054258134
 31
0.0
  0
LINE
  5
C90A
330
C8BD
100
AcDbEntity
  8
0
  6
CONTINUOUS
100
AcDbLine
 10
21.55253573891042
 20
6.793395949963558
 30
0.0
 11
20.50346593316726
 21
7.842465755706721
 31
0.0
  0
LINE
  5
C90B
330
C8BD
100
AcDbEntity
  8
0
  6
CONTINUOUS
100
AcDbLine
 10
21.75211648968556
 20
7.267334408268612
 30
0.0
 11
20.70299044079886
 21
8.316460457155308
 31
0.0
  0
LINE
  5
C90C
330
C8BD
100
AcDbEntity
  8
0
  6
CONTINUOUS
100
AcDbLine
 10
21.95169724046069
 20
7.741272866573663
 30
0.0
 11
20.9298701070431
 21
8.763099999991256
 31
0.0
  0
LINE
  5
C90D
330
C8BD
100
AcDbEntity
  8
0
  6
CONTINUOUS
100
AcDbLine
 10
22.15127799123582
 20
8.215211324878716
 30
0.0
 11
21.60338931612328
 21
8.763099999991256
 31
0.0
  0
LINE
  5
C90E
330
C8BD
100
AcDbEntity
  8
0
  6
CONTINUOUS
100
AcDbLine
 10
22.35085874201096
 20
8.689149783183769
 30
0.0
 11
22.27690852520347
 21
8.763099999991255
 31
0.0
  0
ENDBLK
  5
CA00
330
C8BD
100
AcDbEntity
  8
0
100
AcDbBlockEnd
  0
BLOCK
  5
CA01
330
C90F
100
AcDbEntity
  8
0
100
AcDbBlockBegin
  2
*X29
 70
     1
 10
0.0
 20
0.0
 30
0.0
  3
*X29
  1

  0
LINE
  5
C910
330
C90F
100
AcDbEntity
  8
0
  6
CONTINUOUS
100
AcDbLine
 10
23.19462913593892
 20
8.169917934846424
 30
0.0
 11
23.70775465517246
 21
8.683043454079957
 31
0.0
  0
LINE
  5
C911
330
C90F
100
AcDbEntity
  8
0
  6
CONTINUOUS
100
AcDbLine
 10
22.64923161835078
 20
6.951001208178088
 30
0.0
 11
23.9159364069932
 21
8.217705996820516
 31
0.0
  0
LINE
  5
C912
330
C90F
100
AcDbEntity
  8
0
  6
CONTINUOUS
100
AcDbLine
 10
22.10383410076263
 20
5.732084481509751
 30
0.0
 11
24.12411815881395
 21
7.752368539561078
 31
0.0
  0
LINE
  5
C913
330
C90F
100
AcDbEntity
  8
0
  6
CONTINUOUS
100
AcDbLine
 10
21.55843658317447
 20
4.513167754841414
 30
0.0
 11
24.3322999106347
 21
7.287031082301639
 31
0.0
  0
LINE
  5
C914
330
C90F
100
AcDbEntity
  8
0
  6
CONTINUOUS
100
AcDbLine
 10
21.01303906558632
 20
3.294251028173077
 30
0.0
 11
24.54048166245544
 21
6.821693625042199
 31
0.0
  0
LINE
  5
C915
330
C90F
100
AcDbEntity
  8
0
  6
CONTINUOUS
100
AcDbLine
 10
20.46764154799817
 20
2.075334301504738
 30
0.0
 11
23.28571549467848
 21
4.89340824818505
 31
0.0
  0
LINE
  5
C916
330
C90F
100
AcDbEntity
  8
0
  6
CONTINUOUS
100
AcDbLine
 10
19.92224403041002
 20
0.8564175748364002
 30
0.0
 11
22.74075865492779
 21
3.674932199354171
 31
0.0
  0
LINE
  5
C917
330
C90F
100
AcDbEntity
  8
0
  6
CONTINUOUS
100
AcDbLine
 10
23.67305085490148
 20
5.280743608408048
 30
0.0
 11
24.74866341427619
 21
6.356356167782759
 31
0.0
  0
LINE
  5
C918
330
C90F
100
AcDbEntity
  8
0
  6
CONTINUOUS
100
AcDbLine
 10
23.88118970842314
 20
4.815363252849522
 30
0.0
 11
24.95684516609694
 21
5.89101871052332
 31
0.0
  0
LINE
  5
C919
330
C90F
100
AcDbEntity
  8
0
  6
CONTINUOUS
100
AcDbLine
 10
19.73925852647308
 20
-0.0000871381807288
 30
0.0
 11
23.4103456646501
 21
3.670999999996297
 31
0.0
  0
LINE
  5
C91A
330
C90F
100
AcDbEntity
  8
0
  6
CONTINUOUS
100
AcDbLine
 10
24.0893285619448
 20
4.349982897290997
 30
0.0
 11
25.16502691791769
 21
5.42568125326388
 31
0.0
  0
LINE
  5
C91B
330
C90F
100
AcDbEntity
  8
0
  6
CONTINUOUS
100
AcDbLine
 10
20.41282099582748
 20
-0.0000438779065108
 30
0.0
 11
21.64944178675636
 21
1.236576913022366
 31
0.0
  0
LINE
  5
C91C
330
C90F
100
AcDbEntity
  8
0
  6
CONTINUOUS
100
AcDbLine
 10
22.78126487373161
 20
2.36839999999762
 30
0.0
 11
24.08386487373029
 21
3.670999999996297
 31
0.0
  0
LINE
  5
C91D
330
C90F
100
AcDbEntity
  8
0
  6
CONTINUOUS
100
AcDbLine
 10
24.29746741546646
 20
3.884602541732471
 30
0.0
 11
25.37320866973843
 21
4.960343796004441
 31
0.0
  0
LINE
  5
C91E
330
C90F
100
AcDbEntity
  8
0
  6
CONTINUOUS
100
AcDbLine
 10
21.08638346518189
 20
-0.0000006176322938
 30
0.0
 11
21.10379033335899
 21
0.0174062505448083
 31
0.0
  0
LINE
  5
C91F
330
C90F
100
AcDbEntity
  8
0
  6
CONTINUOUS
100
AcDbLine
 10
23.4547840828118
 20
2.36839999999762
 30
0.0
 11
25.58139042155918
 21
4.495006338745002
 31
0.0
  0
LINE
  5
C920
330
C90F
100
AcDbEntity
  8
0
  6
CONTINUOUS
100
AcDbLine
 10
29.30199999996933
 20
8.215615917155148
 30
0.0
 11
29.84948408280543
 21
8.763099999991255
 31
0.0
  0
LINE
  5
C921
330
C90F
100
AcDbEntity
  8
0
  6
CONTINUOUS
100
AcDbLine
 10
24.12830329189199
 20
2.36839999999762
 30
0.0
 11
25.78957217337993
 21
4.029668881485562
 31
0.0
  0
LINE
  5
C922
330
C90F
100
AcDbEntity
  8
0
  6
CONTINUOUS
100
AcDbLine
 10
29.30199999996933
 20
7.54209670807496
 30
0.0
 11
30.52300329188562
 21
8.763099999991255
 31
0.0
  0
LINE
  5
C923
330
C90F
100
AcDbEntity
  8
0
  6
CONTINUOUS
100
AcDbLine
 10
24.80182250097217
 20
2.36839999999762
 30
0.0
 11
25.99775392520067
 21
3.564331424226122
 31
0.0
  0
LINE
  5
C924
330
C90F
100
AcDbEntity
  8
0
  6
CONTINUOUS
100
AcDbLine
 10
29.30199999996933
 20
6.868577498994774
 30
0.0
 11
30.74199999996926
 21
8.308577498994712
 31
0.0
  0
LINE
  5
C925
330
C90F
100
AcDbEntity
  8
0
  6
CONTINUOUS
100
AcDbLine
 10
25.13028238392013
 20
2.023340673865392
 30
0.0
 11
26.20593567702142
 21
3.098993966966683
 31
0.0
  0
LINE
  5
C926
330
C90F
100
AcDbEntity
  8
0
  6
CONTINUOUS
100
AcDbLine
 10
25.33838066033617
 20
1.557919741201244
 30
0.0
 11
26.41411742884217
 21
2.633656509707244
 31
0.0
  0
LINE
  5
C927
330
C90F
100
AcDbEntity
  8
0
  6
CONTINUOUS
100
AcDbLine
 10
25.54647893675221
 20
1.092498808537098
 30
0.0
 11
26.62229918066291
 21
2.168319052447804
 31
0.0
  0
LINE
  5
C928
330
C90F
100
AcDbEntity
  8
0
  6
CONTINUOUS
100
AcDbLine
 10
25.75457721316825
 20
0.62707787587295
 30
0.0
 11
26.83048093248366
 21
1.702981595188365
 31
0.0
  0
LINE
  5
C929
330
C90F
100
AcDbEntity
  8
0
  6
CONTINUOUS
100
AcDbLine
 10
29.30199999996933
 20
6.195058289914587
 30
0.0
 11
30.74199999996926
 21
7.635058289914522
 31
0.0
  0
LINE
  5
C92A
330
C90F
100
AcDbEntity
  8
0
  6
CONTINUOUS
100
AcDbLine
 10
29.30199999996933
 20
5.521539080834401
 30
0.0
 11
30.74199999996926
 21
6.961539080834331
 31
0.0
  0
LINE
  5
C92B
330
C90F
100
AcDbEntity
  8
0
  6
CONTINUOUS
100
AcDbLine
 10
29.30199999996933
 20
4.848019871754214
 30
0.0
 11
30.74199999996925
 21
6.288019871754143
 31
0.0
  0
LINE
  5
C92C
330
C90F
100
AcDbEntity
  8
0
  6
CONTINUOUS
100
AcDbLine
 10
29.30199999996933
 20
4.174500662674028
 30
0.0
 11
30.74199999996925
 21
5.614500662673953
 31
0.0
  0
LINE
  5
C92D
330
C90F
100
AcDbEntity
  8
0
  6
CONTINUOUS
100
AcDbLine
 10
25.96267548958429
 20
0.1616569432088024
 30
0.0
 11
27.18411854636669
 21
1.383099999991207
 31
0.0
  0
LINE
  5
C92E
330
C90F
100
AcDbEntity
  8
0
  6
CONTINUOUS
100
AcDbLine
 10
29.30199999996933
 20
3.500981453593841
 30
0.0
 11
30.74199999996925
 21
4.940981453593762
 31
0.0
  0
LINE
  5
C92F
330
C90F
100
AcDbEntity
  8
0
  6
CONTINUOUS
100
AcDbLine
 10
26.50763775544691
 20
0.0330999999912356
 30
0.0
 11
27.85763775544689
 21
1.383099999991223
 31
0.0
  0
LINE
  5
C930
330
C90F
100
AcDbEntity
  8
0
  6
CONTINUOUS
100
AcDbLine
 10
29.30199999996933
 20
2.827462244513656
 30
0.0
 11
30.74199999996925
 21
4.267462244513574
 31
0.0
  0
LINE
  5
C931
330
C90F
100
AcDbEntity
  8
0
  6
CONTINUOUS
100
AcDbLine
 10
27.18115696452709
 20
0.0330999999912356
 30
0.0
 11
28.55073879889363
 21
1.402681834357775
 31
0.0
  0
LINE
  5
C932
330
C90F
100
AcDbEntity
  8
0
  6
CONTINUOUS
100
AcDbLine
 10
29.28241816560272
 20
2.134361201066866
 30
0.0
 11
30.74199999996924
 21
3.593943035433383
 31
0.0
  0
LINE
  5
C933
330
C90F
100
AcDbEntity
  8
0
  6
CONTINUOUS
100
AcDbLine
 10
27.85467617360728
 20
0.0330999999912356
 30
0.0
 11
30.74199999996924
 21
2.920423826353195
 31
0.0
  0
LINE
  5
C934
330
C90F
100
AcDbEntity
  8
0
  6
CONTINUOUS
100
AcDbLine
 10
28.53897559587887
 20
0.0438802131826428
 30
0.0
 11
30.73121978677781
 21
2.236124404081585
 31
0.0
  0
LINE
  5
C935
330
C90F
100
AcDbEntity
  8
0
  6
CONTINUOUS
100
AcDbLine
 10
29.45140055588722
 20
0.2827859641107988
 30
0.0
 11
30.49231403584965
 21
1.323699444073236
 31
0.0
  0
LINE
  5
C936
330
C90F
100
AcDbEntity
  8
0
  6
CONTINUOUS
100
AcDbLine
 10
19.59027867740337
 20
-0.0000967065718083
 30
0.0
 11
19.55485265190471
 21
0.035329318926844
 31
0.0
  0
LINE
  5
C937
330
C90F
100
AcDbEntity
  8
0
  6
CONTINUOUS
100
AcDbLine
 10
20.26375463176586
 20
-0.0000534518541091
 30
0.0
 11
19.76305575737534
 21
0.5006454225364014
 31
0.0
  0
LINE
  5
C938
330
C90F
100
AcDbEntity
  8
0
  6
CONTINUOUS
100
AcDbLine
 10
20.93723058612834
 20
-0.0000101971364099
 30
0.0
 11
19.97125886284597
 21
0.965961526145958
 31
0.0
  0
LINE
  5
C939
330
C90F
100
AcDbEntity
  8
0
  6
CONTINUOUS
100
AcDbLine
 10
21.25514828313686
 20
0.355591314935257
 30
0.0
 11
20.1794619683166
 21
1.431277629755512
 31
0.0
  0
LINE
  5
C93A
330
C90F
100
AcDbEntity
  8
0
  6
CONTINUOUS
100
AcDbLine
 10
21.46338838394921
 20
0.8208704232030986
 30
0.0
 11
20.38766507378723
 21
1.896593733365069
 31
0.0
  0
LINE
  5
C93B
330
C90F
100
AcDbEntity
  8
0
  6
CONTINUOUS
100
AcDbLine
 10
21.67162848476155
 20
1.28614953147094
 30
0.0
 11
20.59586817925786
 21
2.361909836974626
 31
0.0
  0
LINE
  5
C93C
330
C90F
100
AcDbEntity
  8
0
  6
CONTINUOUS
100
AcDbLine
 10
21.8798685855739
 20
1.751428639738782
 30
0.0
 11
20.80407128472849
 21
2.827225940584183
 31
0.0
  0
LINE
  5
C93D
330
C90F
100
AcDbEntity
  8
0
  6
CONTINUOUS
100
AcDbLine
 10
22.08810868638624
 20
2.216707748006623
 30
0.0
 11
21.01227439019912
 21
3.292542044193739
 31
0.0
  0
LINE
  5
C93E
330
C90F
100
AcDbEntity
  8
0
  6
CONTINUOUS
100
AcDbLine
 10
22.60993564347543
 20
2.36839999999762
 30
0.0
 11
21.22047749566975
 21
3.757858147803296
 31
0.0
  0
LINE
  5
C93F
330
C90F
100
AcDbEntity
  8
0
  6
CONTINUOUS
100
AcDbLine
 10
23.28345485255561
 20
2.36839999999762
 30
0.0
 11
21.42868060114038
 21
4.223174251412853
 31
0.0
  0
LINE
  5
C940
330
C90F
100
AcDbEntity
  8
0
  6
CONTINUOUS
100
AcDbLine
 10
26.29227406164219
 20
0.0330999999912356
 30
0.0
 11
25.80009199592872
 21
0.5252820657046957
 31
0.0
  0
LINE
  5
C941
330
C90F
100
AcDbEntity
  8
0
  6
CONTINUOUS
100
AcDbLine
 10
23.9569740616358
 20
2.36839999999762
 30
0.0
 11
21.63688370661101
 21
4.688490355022409
 31
0.0
  0
LINE
  5
C942
330
C90F
100
AcDbEntity
  8
0
  6
CONTINUOUS
100
AcDbLine
 10
26.96579327072237
 20
0.0330999999912356
 30
0.0
 11
25.2554132311971
 21
1.743480039516508
 31
0.0
  0
LINE
  5
C943
330
C90F
100
AcDbEntity
  8
0
  6
CONTINUOUS
100
AcDbLine
 10
24.63049327071599
 20
2.36839999999762
 30
0.0
 11
23.32789327071731
 21
3.670999999996297
 31
0.0
  0
LINE
  5
C944
330
C90F
100
AcDbEntity
  8
0
  6
CONTINUOUS
100
AcDbLine
 10
22.92098674744635
 20
4.077906523267254
 30
0.0
 11
21.84508681208164
 21
5.153806458631966
 31
0.0
  0
LINE
  5
C945
330
C90F
100
AcDbEntity
  8
0
  6
CONTINUOUS
100
AcDbLine
 10
27.63931247980256
 20
0.0330999999912356
 30
0.0
 11
24.0014124797975
 21
3.670999999996297
 31
0.0
  0
LINE
  5
C946
330
C90F
100
AcDbEntity
  8
0
  6
CONTINUOUS
100
AcDbLine
 10
23.129125600968
 20
4.5432868788258
 30
0.0
 11
22.05328991755227
 21
5.619122562241522
 31
0.0
  0
LINE
  5
C947
330
C90F
100
AcDbEntity
  8
0
  6
CONTINUOUS
100
AcDbLine
 10
28.31283168888275
 20
0.0330999999912356
 30
0.0
 11
24.16488385994816
 21
4.181047828925828
 31
0.0
  0
LINE
  5
C948
330
C90F
100
AcDbEntity
  8
0
  6
CONTINUOUS
100
AcDbLine
 10
23.33726445448964
 20
5.008667234384345
 30
0.0
 11
22.2614930230229
 21
6.084438665851079
 31
0.0
  0
LINE
  5
C949
330
C90F
100
AcDbEntity
  8
0
  6
CONTINUOUS
100
AcDbLine
 10
28.92085740005492
 20
0.0985934978992438
 30
0.0
 11
27.63635089796295
 21
1.383099999991217
 31
0.0
  0
LINE
  5
C94A
330
C90F
100
AcDbEntity
  8
0
  6
CONTINUOUS
100
AcDbLine
 10
26.43704649509776
 20
2.582404402856405
 30
0.0
 11
23.61992702019732
 21
5.399523877756844
 31
0.0
  0
LINE
  5
C94B
330
C90F
100
AcDbEntity
  8
0
  6
CONTINUOUS
100
AcDbLine
 10
23.54540330801128
 20
5.47404758994289
 30
0.0
 11
22.46969612849353
 21
6.549754769460635
 31
0.0
  0
LINE
  5
C94C
330
C90F
100
AcDbEntity
  8
0
  6
CONTINUOUS
100
AcDbLine
 10
29.42225615078443
 20
0.2707139562499279
 30
0.0
 11
28.30987010704312
 21
1.383099999991234
 31
0.0
  0
LINE
  5
C94D
330
C90F
100
AcDbEntity
  8
0
  6
CONTINUOUS
100
AcDbLine
 10
25.89179548232307
 20
3.801174624711282
 30
0.0
 11
22.67789923396416
 21
7.015070873070191
 31
0.0
  0
LINE
  5
C94E
330
C90F
100
AcDbEntity
  8
0
  6
CONTINUOUS
100
AcDbLine
 10
29.83624534690007
 20
0.5302439692144705
 30
0.0
 11
28.85811781497101
 21
1.508371501143527
 31
0.0
  0
LINE
  5
C94F
330
C90F
100
AcDbEntity
  8
0
  6
CONTINUOUS
100
AcDbLine
 10
25.34654446954838
 20
5.01994484656616
 30
0.0
 11
22.88610233943479
 21
7.480386976679748
 31
0.0
  0
LINE
  5
C950
330
C90F
100
AcDbEntity
  8
0
  6
CONTINUOUS
100
AcDbLine
 10
30.17865975401872
 20
0.8613487711760022
 30
0.0
 11
29.18888744090175
 21
1.851121084292977
 31
0.0
  0
LINE
  5
C951
330
C90F
100
AcDbEntity
  8
0
  6
CONTINUOUS
100
AcDbLine
 10
24.80129345677369
 20
6.238715068421037
 30
0.0
 11
23.09430544490542
 21
7.945703080289305
 31
0.0
  0
LINE
  5
C952
330
C90F
100
AcDbEntity
  8
0
  6
CONTINUOUS
100
AcDbLine
 10
30.45496647202376
 20
1.258561262251155
 30
0.0
 11
29.30199999996933
 21
2.411527734305588
 31
0.0
  0
LINE
  5
C953
330
C90F
100
AcDbEntity
  8
0
  6
CONTINUOUS
100
AcDbLine
 10
24.256042443999
 20
7.457485290275915
 30
0.0
 11
23.30250855037605
 21
8.411019183898862
 31
0.0
  0
LINE
  5
C954
330
C90F
100
AcDbEntity
  8
0
  6
CONTINUOUS
100
AcDbLine
 10
30.64868582078271
 20
1.738361122572387
 30
0.0
 11
29.30199999996933
 21
3.085046943385775
 31
0.0
  0
LINE
  5
C955
330
C90F
100
AcDbEntity
  8
0
  6
CONTINUOUS
100
AcDbLine
 10
23.71079143122431
 20
8.676255512130794
 30
0.0
 11
23.51071165584668
 21
8.876335287508416
 31
0.0
  0
LINE
  5
C956
330
C90F
100
AcDbEntity
  8
0
  6
CONTINUOUS
100
AcDbLine
 10
30.73802122914428
 20
2.322544923291007
 30
0.0
 11
29.30199999996933
 21
3.758566152465961
 31
0.0
  0
LINE
  5
C957
330
C90F
100
AcDbEntity
  8
0
  6
CONTINUOUS
100
AcDbLine
 10
30.74199999996924
 20
2.992085361546236
 30
0.0
 11
29.30199999996933
 21
4.432085361546148
 31
0.0
  0
LINE
  5
C958
330
C90F
100
AcDbEntity
  8
0
  6
CONTINUOUS
100
AcDbLine
 10
30.74199999996924
 20
3.665604570626419
 30
0.0
 11
29.30199999996933
 21
5.105604570626333
 31
0.0
  0
LINE
  5
C959
330
C90F
100
AcDbEntity
  8
0
  6
CONTINUOUS
100
AcDbLine
 10
30.74199999996925
 20
4.339123779706602
 30
0.0
 11
29.30199999996933
 21
5.77912377970652
 31
0.0
  0
LINE
  5
C95A
330
C90F
100
AcDbEntity
  8
0
  6
CONTINUOUS
100
AcDbLine
 10
30.74199999996925
 20
5.012642988786785
 30
0.0
 11
29.30199999996933
 21
6.452642988786707
 31
0.0
  0
LINE
  5
C95B
330
C90F
100
AcDbEntity
  8
0
  6
CONTINUOUS
100
AcDbLine
 10
30.74199999996925
 20
5.68616219786697
 30
0.0
 11
29.30199999996933
 21
7.126162197866894
 31
0.0
  0
LINE
  5
C95C
330
C90F
100
AcDbEntity
  8
0
  6
CONTINUOUS
100
AcDbLine
 10
30.74199999996925
 20
6.359681406947153
 30
0.0
 11
29.30199999996933
 21
7.799681406947081
 31
0.0
  0
LINE
  5
C95D
330
C90F
100
AcDbEntity
  8
0
  6
CONTINUOUS
100
AcDbLine
 10
30.74199999996926
 20
7.033200616027337
 30
0.0
 11
29.30199999996933
 21
8.473200616027269
 31
0.0
  0
LINE
  5
C95E
330
C90F
100
AcDbEntity
  8
0
  6
CONTINUOUS
100
AcDbLine
 10
30.74199999996926
 20
7.706719825107518
 30
0.0
 11
29.68561982508552
 21
8.763099999991255
 31
0.0
  0
LINE
  5
C95F
330
C90F
100
AcDbEntity
  8
0
  6
CONTINUOUS
100
AcDbLine
 10
30.74199999996926
 20
8.380239034187703
 30
0.0
 11
30.35913903416571
 21
8.763099999991255
 31
0.0
  0
ENDBLK
  5
CA02
330
C90F
100
AcDbEntity
  8
0
100
AcDbBlockEnd
  0
BLOCK
  5
CA03
330
C960
100
AcDbEntity
  8
0
100
AcDbBlockBegin
  2
*X30
 70
     1
 10
0.0
 20
0.0
 30
0.0
  3
*X30
  1

  0
LINE
  5
C961
330
C960
100
AcDbEntity
  8
0
  6
CONTINUOUS
100
AcDbLine
 10
31.64199999996833
 20
8.535058289913598
 30
0.0
 11
31.87004171004599
 21
8.763099999991255
 31
0.0
  0
LINE
  5
C962
330
C960
100
AcDbEntity
  8
0
  6
CONTINUOUS
100
AcDbLine
 10
31.64199999996833
 20
7.861539080833412
 30
0.0
 11
32.54356091912618
 21
8.763099999991255
 31
0.0
  0
LINE
  5
C963
330
C960
100
AcDbEntity
  8
0
  6
CONTINUOUS
100
AcDbLine
 10
31.64199999996833
 20
7.188019871753226
 30
0.0
 11
33.08199999996839
 21
8.628019871753281
 31
0.0
  0
LINE
  5
C964
330
C960
100
AcDbEntity
  8
0
  6
CONTINUOUS
100
AcDbLine
 10
31.64199999996833
 20
6.51450066267304
 30
0.0
 11
33.08199999996839
 21
7.954500662673095
 31
0.0
  0
LINE
  5
C965
330
C960
100
AcDbEntity
  8
0
  6
CONTINUOUS
100
AcDbLine
 10
31.64199999996833
 20
5.840981453592853
 30
0.0
 11
33.08199999996839
 21
7.280981453592908
 31
0.0
  0
LINE
  5
C966
330
C960
100
AcDbEntity
  8
0
  6
CONTINUOUS
100
AcDbLine
 10
31.64199999996833
 20
5.167462244512667
 30
0.0
 11
33.08199999996839
 21
6.607462244512721
 31
0.0
  0
LINE
  5
C967
330
C960
100
AcDbEntity
  8
0
  6
CONTINUOUS
100
AcDbLine
 10
31.64199999996833
 20
4.493943035432481
 30
0.0
 11
33.08199999996839
 21
5.933943035432535
 31
0.0
  0
LINE
  5
C968
330
C960
100
AcDbEntity
  8
0
  6
CONTINUOUS
100
AcDbLine
 10
31.64199999996833
 20
3.820423826352293
 30
0.0
 11
33.08199999996839
 21
5.260423826352348
 31
0.0
  0
LINE
  5
C969
330
C960
100
AcDbEntity
  8
0
  6
CONTINUOUS
100
AcDbLine
 10
31.64199999996833
 20
3.146904617272106
 30
0.0
 11
33.08199999996839
 21
4.586904617272161
 31
0.0
  0
LINE
  5
C96A
330
C960
100
AcDbEntity
  8
0
  6
CONTINUOUS
100
AcDbLine
 10
36.23199999996837
 20
8.410423826352325
 30
0.0
 11
36.5846761736073
 21
8.763099999991255
 31
0.0
  0
LINE
  5
C96B
330
C960
100
AcDbEntity
  8
0
  6
CONTINUOUS
100
AcDbLine
 10
36.23199999996837
 20
7.73690461727214
 30
0.0
 11
37.25819538268748
 21
8.763099999991255
 31
0.0
  0
LINE
  5
C96C
330
C960
100
AcDbEntity
  8
0
  6
CONTINUOUS
100
AcDbLine
 10
31.64257403601376
 20
2.473959444237348
 30
0.0
 11
33.08199999996839
 21
3.913385408191974
 31
0.0
  0
LINE
  5
C96D
330
C960
100
AcDbEntity
  8
0
  6
CONTINUOUS
100
AcDbLine
 10
36.23199999996837
 20
7.063385408191953
 30
0.0
 11
37.67199999996831
 21
8.503385408191894
 31
0.0
  0
LINE
  5
C96E
330
C960
100
AcDbEntity
  8
0
  6
CONTINUOUS
100
AcDbLine
 10
31.72013636841932
 20
1.87800256756272
 30
0.0
 11
33.08199999996839
 21
3.239866199111788
 31
0.0
  0
LINE
  5
C96F
330
C960
100
AcDbEntity
  8
0
  6
CONTINUOUS
100
AcDbLine
 10
36.23199999996837
 20
6.389866199111767
 30
0.0
 11
37.67199999996831
 21
7.829866199111708
 31
0.0
  0
LINE
  5
C970
330
C960
100
AcDbEntity
  8
0
  6
CONTINUOUS
100
AcDbLine
 10
31.89042734314753
 20
1.374774333210744
 30
0.0
 11
33.08199999996839
 21
2.566346990031601
 31
0.0
  0
LINE
  5
C971
330
C960
100
AcDbEntity
  8
0
  6
CONTINUOUS
100
AcDbLine
 10
36.23199999996837
 20
5.71634699003158
 30
0.0
 11
37.67199999996831
 21
7.156346990031521
 31
0.0
  0
LINE
  5
C972
330
C960
100
AcDbEntity
  8
0
  6
CONTINUOUS
100
AcDbLine
 10
32.14210568064475
 20
0.952933461627778
 30
0.0
 11
33.18745552475986
 21
1.998283305742888
 31
0.0
  0
LINE
  5
C973
330
C960
100
AcDbEntity
  8
0
  6
CONTINUOUS
100
AcDbLine
 10
36.23199999996837
 20
5.042827780951393
 30
0.0
 11
37.67199999996831
 21
6.482827780951334
 31
0.0
  0
LINE
  5
C974
330
C960
100
AcDbEntity
  8
0
  6
CONTINUOUS
100
AcDbLine
 10
32.45820639400955
 20
0.5955149659123915
 30
0.0
 11
33.47242681921943
 21
1.60973539112227
 31
0.0
  0
LINE
  5
C975
330
C960
100
AcDbEntity
  8
0
  6
CONTINUOUS
100
AcDbLine
 10
36.23199999996837
 20
4.369308571871207
 30
0.0
 11
37.67199999996831
 21
5.809308571871147
 31
0.0
  0
LINE
  5
C976
330
C960
100
AcDbEntity
  8
0
  6
CONTINUOUS
100
AcDbLine
 10
32.83432456621412
 20
0.2981139290367771
 30
0.0
 11
33.89722476612215
 21
1.361014128944803
 31
0.0
  0
LINE
  5
C977
330
C960
100
AcDbEntity
  8
0
  6
CONTINUOUS
100
AcDbLine
 10
36.23199999996837
 20
3.69578936279102
 30
0.0
 11
37.67199999996831
 21
5.135789362790962
 31
0.0
  0
LINE
  5
C978
330
C960
100
AcDbEntity
  8
0
  6
CONTINUOUS
100
AcDbLine
 10
33.2711633111245
 20
0.0614334648669672
 30
0.0
 11
34.43247338014423
 21
1.222743533886696
 31
0.0
  0
LINE
  5
C979
330
C960
100
AcDbEntity
  8
0
  6
CONTINUOUS
100
AcDbLine
 10
36.23199999996837
 20
3.022270153710834
 30
0.0
 11
37.67199999996831
 21
4.462270153710775
 31
0.0
  0
LINE
  5
C97A
330
C960
100
AcDbEntity
  8
0
  6
CONTINUOUS
100
AcDbLine
 10
33.76515245874577
 20
-0.1180965965919523
 30
0.0
 11
35.1587445516215
 21
1.27549549628378
 31
0.0
  0
LINE
  5
C97B
330
C960
100
AcDbEntity
  8
0
  6
CONTINUOUS
100
AcDbLine
 10
36.21639478609585
 20
2.333145730758136
 30
0.0
 11
37.67199999996831
 21
3.788750944630588
 31
0.0
  0
LINE
  5
C97C
330
C960
100
AcDbEntity
  8
0
  6
CONTINUOUS
100
AcDbLine
 10
34.34060583368432
 20
-0.2161624307335863
 30
0.0
 11
37.67199999996831
 21
3.115231735550401
 31
0.0
  0
LINE
  5
C97D
330
C960
100
AcDbEntity
  8
0
  6
CONTINUOUS
100
AcDbLine
 10
35.01698193613905
 20
-0.2133055373590427
 30
0.0
 11
37.66876712070525
 21
2.438479647207154
 31
0.0
  0
LINE
  5
C97E
330
C960
100
AcDbEntity
  8
0
  6
CONTINUOUS
100
AcDbLine
 10
35.90743367693304
 20
0.0036269943547609
 30
0.0
 11
37.51723902192366
 21
1.613432339345381
 31
0.0
  0
LINE
  5
C97F
330
C960
100
AcDbEntity
  8
0
  6
CONTINUOUS
100
AcDbLine
 10
32.55309425579761
 20
0.5074718966376706
 30
0.0
 11
32.27784730925847
 21
0.7827188431768102
 31
0.0
  0
LINE
  5
C980
330
C960
100
AcDbEntity
  8
0
  6
CONTINUOUS
100
AcDbLine
 10
33.87496468909684
 20
-0.1408793275813673
 30
0.0
 11
31.67993083278052
 21
2.054154528734943
 31
0.0
  0
LINE
  5
C981
330
C960
100
AcDbEntity
  8
0
  6
CONTINUOUS
100
AcDbLine
 10
34.64362813207632
 20
-0.2360235614806649
 30
0.0
 11
31.64199999996833
 21
2.765604570627322
 31
0.0
  0
LINE
  5
C982
330
C960
100
AcDbEntity
  8
0
  6
CONTINUOUS
100
AcDbLine
 10
35.25801106796118
 20
-0.1768872882853429
 30
0.0
 11
31.64199999996833
 21
3.439123779707508
 31
0.0
  0
LINE
  5
C983
330
C960
100
AcDbEntity
  8
0
  6
CONTINUOUS
100
AcDbLine
 10
35.79065650332146
 20
-0.0360135145654361
 30
0.0
 11
34.54143210838231
 21
1.213210880373721
 31
0.0
  0
LINE
  5
C984
330
C960
100
AcDbEntity
  8
0
  6
CONTINUOUS
100
AcDbLine
 10
33.08199999996839
 20
2.67264298878764
 30
0.0
 11
31.64199999996833
 21
4.112642988787695
 31
0.0
  0
LINE
  5
C985
330
C960
100
AcDbEntity
  8
0
  6
CONTINUOUS
100
AcDbLine
 10
36.25975597779143
 20
0.1684062200447833
 30
0.0
 11
35.15395110240023
 21
1.274211095435983
 31
0.0
  0
LINE
  5
C986
330
C960
100
AcDbEntity
  8
0
  6
CONTINUOUS
100
AcDbLine
 10
33.08199999996839
 20
3.346162197867826
 30
0.0
 11
31.64199999996833
 21
4.786162197867881
 31
0.0
  0
LINE
  5
C987
330
C960
100
AcDbEntity
  8
0
  6
CONTINUOUS
100
AcDbLine
 10
36.67226329638774
 20
0.4294181105286579
 30
0.0
 11
35.63766478748767
 21
1.464016619428737
 31
0.0
  0
LINE
  5
C988
330
C960
100
AcDbEntity
  8
0
  6
CONTINUOUS
100
AcDbLine
 10
33.08199999996839
 20
4.019681406948012
 30
0.0
 11
31.64199999996833
 21
5.459681406948068
 31
0.0
  0
LINE
  5
C989
330
C960
100
AcDbEntity
  8
0
  6
CONTINUOUS
100
AcDbLine
 10
37.01677749710036
 20
0.7584231188962329
 30
0.0
 11
35.99563422741351
 21
1.779566388583076
 31
0.0
  0
LINE
  5
C98A
330
C960
100
AcDbEntity
  8
0
  6
CONTINUOUS
100
AcDbLine
 10
33.08199999996839
 20
4.693200616028199
 30
0.0
 11
31.64199999996833
 21
6.133200616028255
 31
0.0
  0
LINE
  5
C98B
330
C960
100
AcDbEntity
  8
0
  6
CONTINUOUS
100
AcDbLine
 10
37.29859977568887
 20
1.1501200493879
 30
0.0
 11
36.20680593341555
 21
2.241913891661226
 31
0.0
  0
LINE
  5
C98C
330
C960
100
AcDbEntity
  8
0
  6
CONTINUOUS
100
AcDbLine
 10
33.08199999996839
 20
5.366719825108386
 30
0.0
 11
31.64199999996833
 21
6.80671982510844
 31
0.0
  0
LINE
  5
C98D
330
C960
100
AcDbEntity
  8
0
  6
CONTINUOUS
100
AcDbLine
 10
37.5148623517228
 20
1.607376682434161
 30
0.0
 11
36.23199999996837
 21
2.890239034188594
 31
0.0
  0
LINE
  5
C98E
330
C960
100
AcDbEntity
  8
0
  6
CONTINUOUS
100
AcDbLine
 10
33.08199999996839
 20
6.040239034188573
 30
0.0
 11
31.64199999996833
 21
7.480239034188627
 31
0.0
  0
LINE
  5
C98F
330
C960
100
AcDbEntity
  8
0
  6
CONTINUOUS
100
AcDbLine
 10
37.64705163358367
 20
2.148706609653477
 30
0.0
 11
36.23199999996837
 21
3.56375824326878
 31
0.0
  0
LINE
  5
C990
330
C960
100
AcDbEntity
  8
0
  6
CONTINUOUS
100
AcDbLine
 10
33.08199999996839
 20
6.713758243268758
 30
0.0
 11
31.64199999996833
 21
8.153758243268815
 31
0.0
  0
LINE
  5
C991
330
C960
100
AcDbEntity
  8
0
  6
CONTINUOUS
100
AcDbLine
 10
37.67199999996831
 20
2.797277452349026
 30
0.0
 11
36.23199999996837
 21
4.237277452348967
 31
0.0
  0
LINE
  5
C992
330
C960
100
AcDbEntity
  8
0
  6
CONTINUOUS
100
AcDbLine
 10
37.67199999996831
 20
3.470796661429213
 30
0.0
 11
36.23199999996837
 21
4.910796661429154
 31
0.0
  0
LINE
  5
C993
330
C960
100
AcDbEntity
  8
0
  6
CONTINUOUS
100
AcDbLine
 10
37.67199999996831
 20
4.144315870509399
 30
0.0
 11
36.23199999996837
 21
5.58431587050934
 31
0.0
  0
LINE
  5
C994
330
C960
100
AcDbEntity
  8
0
  6
CONTINUOUS
100
AcDbLine
 10
33.08199999996839
 20
7.387277452348945
 30
0.0
 11
31.70617745232608
 21
8.763099999991255
 31
0.0
  0
LINE
  5
C995
330
C960
100
AcDbEntity
  8
0
  6
CONTINUOUS
100
AcDbLine
 10
33.08199999996839
 20
8.060796661429132
 30
0.0
 11
32.37969666140626
 21
8.763099999991255
 31
0.0
  0
LINE
  5
C996
330
C960
100
AcDbEntity
  8
0
  6
CONTINUOUS
100
AcDbLine
 10
33.08199999996839
 20
8.734315870509318
 30
0.0
 11
33.05321587048645
 21
8.763099999991255
 31
0.0
  0
LINE
  5
C997
330
C960
100
AcDbEntity
  8
0
  6
CONTINUOUS
100
AcDbLine
 10
37.67199999996831
 20
4.817835079589585
 30
0.0
 11
36.23199999996837
 21
6.257835079589526
 31
0.0
  0
LINE
  5
C998
330
C960
100
AcDbEntity
  8
0
  6
CONTINUOUS
100
AcDbLine
 10
37.67199999996831
 20
5.491354288669771
 30
0.0
 11
36.23199999996837
 21
6.931354288669713
 31
0.0
  0
LINE
  5
C999
330
C960
100
AcDbEntity
  8
0
  6
CONTINUOUS
100
AcDbLine
 10
37.67199999996831
 20
6.164873497749958
 30
0.0
 11
36.23199999996837
 21
7.6048734977499
 31
0.0
  0
LINE
  5
C99A
330
C960
100
AcDbEntity
  8
0
  6
CONTINUOUS
100
AcDbLine
 10
37.67199999996831
 20
6.838392706830144
 30
0.0
 11
36.23199999996837
 21
8.278392706830086
 31
0.0
  0
LINE
  5
C99B
330
C960
100
AcDbEntity
  8
0
  6
CONTINUOUS
100
AcDbLine
 10
37.67199999996831
 20
7.511911915910332
 30
0.0
 11
36.42081191588738
 21
8.763099999991255
 31
0.0
  0
LINE
  5
C99C
330
C960
100
AcDbEntity
  8
0
  6
CONTINUOUS
100
AcDbLine
 10
37.67199999996831
 20
8.185431124990519
 30
0.0
 11
37.09433112496757
 21
8.763099999991255
 31
0.0
  0
ENDBLK
  5
CA04
330
C960
100
AcDbEntity
  8
0
100
AcDbBlockEnd
  0
BLOCK
  5
CA05
330
C99D
100
AcDbEntity
  8
0
100
AcDbBlockBegin
  2
*X31
 70
     1
 10
0.0
 20
0.0
 30
0.0
  3
*X31
  1

  0
LINE
  5
C99E
330
C99D
100
AcDbEntity
  8
0
  6
CONTINUOUS
100
AcDbLine
 10
38.60499999996136
 20
8.762866199104765
 30
0.0
 11
38.71672554182345
 21
8.874591740966855
 31
0.0
  0
LINE
  5
C99F
330
C99D
100
AcDbEntity
  8
0
  6
CONTINUOUS
100
AcDbLine
 10
38.60499999996136
 20
8.089346990024577
 30
0.0
 11
39.03418785440363
 21
8.518534844466847
 31
0.0
  0
LINE
  5
C9A0
330
C99D
100
AcDbEntity
  8
0
  6
CONTINUOUS
100
AcDbLine
 10
38.60499999996136
 20
7.41582778094439
 30
0.0
 11
39.35165016698382
 21
8.16247794796684
 31
0.0
  0
LINE
  5
C9A1
330
C99D
100
AcDbEntity
  8
0
  6
CONTINUOUS
100
AcDbLine
 10
38.60499999996136
 20
6.742308571864204
 30
0.0
 11
39.66911247956399
 21
7.806421051466834
 31
0.0
  0
LINE
  5
C9A2
330
C99D
100
AcDbEntity
  8
0
  6
CONTINUOUS
100
AcDbLine
 10
38.60499999996136
 20
6.068789362784018
 30
0.0
 11
39.98657479214418
 21
7.450364154966827
 31
0.0
  0
LINE
  5
C9A3
330
C99D
100
AcDbEntity
  8
0
  6
CONTINUOUS
100
AcDbLine
 10
38.60499999996136
 20
5.395270153703832
 30
0.0
 11
40.30403710472435
 21
7.09430725846682
 31
0.0
  0
LINE
  5
C9A4
330
C99D
100
AcDbEntity
  8
0
  6
CONTINUOUS
100
AcDbLine
 10
38.60499999996136
 20
4.721750944623645
 30
0.0
 11
40.62149941730453
 21
6.738250361966813
 31
0.0
  0
LINE
  5
C9A5
330
C99D
100
AcDbEntity
  8
0
  6
CONTINUOUS
100
AcDbLine
 10
38.60499999996136
 20
4.048231735543458
 30
0.0
 11
40.93896172988471
 21
6.382193465466806
 31
0.0
  0
LINE
  5
C9A6
330
C99D
100
AcDbEntity
  8
0
  6
CONTINUOUS
100
AcDbLine
 10
38.60499999996136
 20
3.374712526463272
 30
0.0
 11
40.02599999995994
 21
4.795712526461843
 31
0.0
  0
LINE
  5
C9A7
330
C99D
100
AcDbEntity
  8
0
  6
CONTINUOUS
100
AcDbLine
 10
38.60499999996136
 20
2.701193317383085
 30
0.0
 11
40.02599999995994
 21
4.122193317381657
 31
0.0
  0
LINE
  5
C9A8
330
C99D
100
AcDbEntity
  8
0
  6
CONTINUOUS
100
AcDbLine
 10
40.28339754687704
 20
5.053110073378947
 30
0.0
 11
41.25642404246489
 21
6.026136568966799
 31
0.0
  0
LINE
  5
C9A9
330
C99D
100
AcDbEntity
  8
0
  6
CONTINUOUS
100
AcDbLine
 10
40.60085985945722
 20
4.697053176878939
 30
0.0
 11
41.57388635504507
 21
5.670079672466793
 31
0.0
  0
LINE
  5
C9AA
330
C99D
100
AcDbEntity
  8
0
  6
CONTINUOUS
100
AcDbLine
 10
43.57899999995641
 20
8.348712526458318
 30
0.0
 11
43.99338747348935
 21
8.763099999991255
 31
0.0
  0
LINE
  5
C9AB
330
C99D
100
AcDbEntity
  8
0
  6
CONTINUOUS
100
AcDbLine
 10
43.57899999995641
 20
7.675193317378131
 30
0.0
 11
44.66690668256953
 21
8.763099999991255
 31
0.0
  0
LINE
  5
C9AC
330
C99D
100
AcDbEntity
  8
0
  6
CONTINUOUS
100
AcDbLine
 10
38.60499999996136
 20
2.027674108302898
 30
0.0
 11
40.02599999995994
 21
3.44867410830147
 31
0.0
  0
LINE
  5
C9AD
330
C99D
100
AcDbEntity
  8
0
  6
CONTINUOUS
100
AcDbLine
 10
38.60499999996136
 20
1.354154899222712
 30
0.0
 11
40.02599999995994
 21
2.775154899221284
 31
0.0
  0
LINE
  5
C9AE
330
C99D
100
AcDbEntity
  8
0
  6
CONTINUOUS
100
AcDbLine
 10
38.60499999996136
 20
0.6806356901425255
 30
0.0
 11
40.02599999995994
 21
2.101635690141098
 31
0.0
  0
LINE
  5
C9AF
330
C99D
100
AcDbEntity
  8
0
  6
CONTINUOUS
100
AcDbLine
 10
38.60499999996136
 20
0.0071164810623383
 30
0.0
 11
40.02599999995994
 21
1.428116481060911
 31
0.0
  0
LINE
  5
C9B0
330
C99D
100
AcDbEntity
  8
0
  6
CONTINUOUS
100
AcDbLine
 10
40.9183221720374
 20
4.340996280378933
 30
0.0
 11
41.89134866762525
 21
5.314022775966786
 31
0.0
  0
LINE
  5
C9B1
330
C99D
100
AcDbEntity
  8
0
  6
CONTINUOUS
100
AcDbLine
 10
41.23578448461758
 20
3.984939383878926
 30
0.0
 11
42.20881098020543
 21
4.957965879466778
 31
0.0
  0
LINE
  5
C9B2
330
C99D
100
AcDbEntity
  8
0
  6
CONTINUOUS
100
AcDbLine
 10
41.55324679719776
 20
3.628882487378919
 30
0.0
 11
42.52627329278561
 21
4.601908982966772
 31
0.0
  0
LINE
  5
C9B3
330
C99D
100
AcDbEntity
  8
0
  6
CONTINUOUS
100
AcDbLine
 10
41.87070910977793
 20
3.272825590878912
 30
0.0
 11
42.84373560536579
 21
4.245852086466765
 31
0.0
  0
LINE
  5
C9B4
330
C99D
100
AcDbEntity
  8
0
  6
CONTINUOUS
100
AcDbLine
 10
43.57899999995641
 20
7.001674108297943
 30
0.0
 11
44.99999999995498
 21
8.422674108296516
 31
0.0
  0
LINE
  5
C9B5
330
C99D
100
AcDbEntity
  8
0
  6
CONTINUOUS
100
AcDbLine
 10
43.57899999995641
 20
6.328154899217758
 30
0.0
 11
44.99999999995498
 21
7.749154899216329
 31
0.0
  0
LINE
  5
C9B6
330
C99D
100
AcDbEntity
  8
0
  6
CONTINUOUS
100
AcDbLine
 10
43.57899999995641
 20
5.654635690137571
 30
0.0
 11
44.99999999995498
 21
7.075635690136142
 31
0.0
  0
LINE
  5
C9B7
330
C99D
100
AcDbEntity
  8
0
  6
CONTINUOUS
100
AcDbLine
 10
43.57899999995641
 20
4.981116481057384
 30
0.0
 11
44.99999999995498
 21
6.402116481055955
 31
0.0
  0
LINE
  5
C9B8
330
C99D
100
AcDbEntity
  8
0
  6
CONTINUOUS
100
AcDbLine
 10
39.27140272797921
 20
-0.0000000000000009
 30
0.0
 11
40.02599999995994
 21
0.7545972719807246
 31
0.0
  0
LINE
  5
C9B9
330
C99D
100
AcDbEntity
  8
0
  6
CONTINUOUS
100
AcDbLine
 10
39.9449219370594
 20
-0.0000000000000009
 30
0.0
 11
40.02599999995994
 21
0.0810780629005379
 31
0.0
  0
LINE
  5
C9BA
330
C99D
100
AcDbEntity
  8
0
  6
CONTINUOUS
100
AcDbLine
 10
42.18817142235812
 20
2.916768694378905
 30
0.0
 11
43.16119791794597
 21
3.889795189966758
 31
0.0
  0
LINE
  5
C9BB
330
C99D
100
AcDbEntity
  8
0
  6
CONTINUOUS
100
AcDbLine
 10
42.50563373493829
 20
2.560711797878898
 30
0.0
 11
43.47866023052615
 21
3.533738293466751
 31
0.0
  0
LINE
  5
C9BC
330
C99D
100
AcDbEntity
  8
0
  6
CONTINUOUS
100
AcDbLine
 10
43.57899999995641
 20
4.307597271977198
 30
0.0
 11
44.99999999995498
 21
5.728597271975769
 31
0.0
  0
LINE
  5
C9BD
330
C99D
100
AcDbEntity
  8
0
  6
CONTINUOUS
100
AcDbLine
 10
43.57899999995641
 20
3.634078062897011
 30
0.0
 11
44.99999999995498
 21
5.055078062895582
 31
0.0
  0
LINE
  5
C9BE
330
C99D
100
AcDbEntity
  8
0
  6
CONTINUOUS
100
AcDbLine
 10
42.82309604751848
 20
2.204654901378891
 30
0.0
 11
44.99999999995498
 21
4.381558853815395
 31
0.0
  0
LINE
  5
C9BF
330
C99D
100
AcDbEntity
  8
0
  6
CONTINUOUS
100
AcDbLine
 10
43.14055836009865
 20
1.848598004878885
 30
0.0
 11
44.99999999995498
 21
3.70803964473521
 31
0.0
  0
LINE
  5
C9C0
330
C99D
100
AcDbEntity
  8
0
  6
CONTINUOUS
100
AcDbLine
 10
43.45802067267883
 20
1.492541108378878
 30
0.0
 11
44.99999999995498
 21
3.034520435655023
 31
0.0
  0
LINE
  5
C9C1
330
C99D
100
AcDbEntity
  8
0
  6
CONTINUOUS
100
AcDbLine
 10
43.77548298525902
 20
1.136484211878871
 30
0.0
 11
44.99999999995498
 21
2.361001226574837
 31
0.0
  0
LINE
  5
C9C2
330
C99D
100
AcDbEntity
  8
0
  6
CONTINUOUS
100
AcDbLine
 10
44.09294529783919
 20
0.7804273153788639
 30
0.0
 11
44.99999999995498
 21
1.687482017494649
 31
0.0
  0
LINE
  5
C9C3
330
C99D
100
AcDbEntity
  8
0
  6
CONTINUOUS
100
AcDbLine
 10
44.41040761041938
 20
0.4243704188788566
 30
0.0
 11
44.99999999995498
 21
1.013962808414463
 31
0.0
  0
LINE
  5
C9C4
330
C99D
100
AcDbEntity
  8
0
  6
CONTINUOUS
100
AcDbLine
 10
44.72786992299955
 20
0.0683135223788494
 30
0.0
 11
44.99999999995498
 21
0.340443599334276
 31
0.0
  0
LINE
  5
C9C5
330
C99D
100
AcDbEntity
  8
0
  6
CONTINUOUS
100
AcDbLine
 10
39.12223903415696
 20
-0.0000000000000009
 30
0.0
 11
38.60499999996136
 21
0.5172390341955961
 31
0.0
  0
LINE
  5
C9C6
330
C99D
100
AcDbEntity
  8
0
  6
CONTINUOUS
100
AcDbLine
 10
39.79575824323715
 20
-0.0000000000000009
 30
0.0
 11
38.60499999996136
 21
1.190758243275783
 31
0.0
  0
LINE
  5
C9C7
330
C99D
100
AcDbEntity
  8
0
  6
CONTINUOUS
100
AcDbLine
 10
40.02599999995994
 20
0.443277452357397
 30
0.0
 11
38.60499999996136
 21
1.864277452355969
 31
0.0
  0
LINE
  5
C9C8
330
C99D
100
AcDbEntity
  8
0
  6
CONTINUOUS
100
AcDbLine
 10
40.02599999995994
 20
1.116796661437583
 30
0.0
 11
38.60499999996136
 21
2.537796661436155
 31
0.0
  0
LINE
  5
C9C9
330
C99D
100
AcDbEntity
  8
0
  6
CONTINUOUS
100
AcDbLine
 10
40.02599999995994
 20
1.79031587051777
 30
0.0
 11
38.60499999996136
 21
3.211315870516341
 31
0.0
  0
LINE
  5
C9CA
330
C99D
100
AcDbEntity
  8
0
  6
CONTINUOUS
100
AcDbLine
 10
40.02599999995994
 20
2.463835079597956
 30
0.0
 11
38.60499999996136
 21
3.884835079596527
 31
0.0
  0
LINE
  5
C9CB
330
C99D
100
AcDbEntity
  8
0
  6
CONTINUOUS
100
AcDbLine
 10
40.02599999995994
 20
3.137354288678143
 30
0.0
 11
38.60499999996136
 21
4.558354288676714
 31
0.0
  0
LINE
  5
C9CC
330
C99D
100
AcDbEntity
  8
0
  6
CONTINUOUS
100
AcDbLine
 10
40.02599999995994
 20
3.810873497758329
 30
0.0
 11
38.60499999996136
 21
5.2318734977569
 31
0.0
  0
LINE
  5
C9CD
330
C99D
100
AcDbEntity
  8
0
  6
CONTINUOUS
100
AcDbLine
 10
40.02599999995994
 20
4.484392706838515
 30
0.0
 11
38.60499999996136
 21
5.905392706837086
 31
0.0
  0
LINE
  5
C9CE
330
C99D
100
AcDbEntity
  8
0
  6
CONTINUOUS
100
AcDbLine
 10
44.99999999995498
 20
0.183911915923658
 30
0.0
 11
41.53858364506288
 21
3.64532827081576
 31
0.0
  0
LINE
  5
C9CF
330
C99D
100
AcDbEntity
  8
0
  6
CONTINUOUS
100
AcDbLine
 10
40.02599999995994
 20
5.157911915918703
 30
0.0
 11
38.60499999996136
 21
6.578911915917274
 31
0.0
  0
LINE
  5
C9D0
330
C99D
100
AcDbEntity
  8
0
  6
CONTINUOUS
100
AcDbLine
 10
44.99999999995498
 20
0.8574311250038447
 30
0.0
 11
38.60499999996136
 21
7.25243112499746
 31
0.0
  0
LINE
  5
C9D1
330
C99D
100
AcDbEntity
  8
0
  6
CONTINUOUS
100
AcDbLine
 10
44.99999999995498
 20
1.530950334084031
 30
0.0
 11
38.60499999996136
 21
7.925950334077647
 31
0.0
  0
LINE
  5
C9D2
330
C99D
100
AcDbEntity
  8
0
  6
CONTINUOUS
100
AcDbLine
 10
44.99999999995498
 20
2.204469543164218
 30
0.0
 11
43.57899999995641
 21
3.625469543162789
 31
0.0
  0
LINE
  5
C9D3
330
C99D
100
AcDbEntity
  8
0
  6
CONTINUOUS
100
AcDbLine
 10
41.89876730984767
 20
5.305702233271528
 30
0.0
 11
38.60499999996136
 21
8.599469543157834
 31
0.0
  0
LINE
  5
C9D4
330
C99D
100
AcDbEntity
  8
0
  6
CONTINUOUS
100
AcDbLine
 10
44.99999999995498
 20
2.877988752244405
 30
0.0
 11
43.57899999995641
 21
4.298988752242975
 31
0.0
  0
LINE
  5
C9D5
330
C99D
100
AcDbEntity
  8
0
  6
CONTINUOUS
100
AcDbLine
 10
44.99999999995498
 20
3.551507961324591
 30
0.0
 11
43.57899999995641
 21
4.972507961323163
 31
0.0
  0
LINE
  5
C9D6
330
C99D
100
AcDbEntity
  8
0
  6
CONTINUOUS
100
AcDbLine
 10
44.99999999995498
 20
4.225027170404777
 30
0.0
 11
43.57899999995641
 21
5.646027170403348
 31
0.0
  0
LINE
  5
C9D7
330
C99D
100
AcDbEntity
  8
0
  6
CONTINUOUS
100
AcDbLine
 10
44.99999999995498
 20
4.898546379484964
 30
0.0
 11
43.57899999995641
 21
6.319546379483535
 31
0.0
  0
LINE
  5
C9D8
330
C99D
100
AcDbEntity
  8
0
  6
CONTINUOUS
100
AcDbLine
 10
44.99999999995498
 20
5.572065588565151
 30
0.0
 11
43.57899999995641
 21
6.993065588563722
 31
0.0
  0
LINE
  5
C9D9
330
C99D
100
AcDbEntity
  8
0
  6
CONTINUOUS
100
AcDbLine
 10
44.99999999995498
 20
6.245584797645336
 30
0.0
 11
43.57899999995641
 21
7.666584797643908
 31
0.0
  0
LINE
  5
C9DA
330
C99D
100
AcDbEntity
  8
0
  6
CONTINUOUS
100
AcDbLine
 10
44.99999999995498
 20
6.919104006725522
 30
0.0
 11
43.57899999995641
 21
8.340104006724093
 31
0.0
  0
LINE
  5
C9DB
330
C99D
100
AcDbEntity
  8
0
  6
CONTINUOUS
100
AcDbLine
 10
44.99999999995498
 20
7.592623215805709
 30
0.0
 11
43.82952321576943
 21
8.763099999991255
 31
0.0
  0
LINE
  5
C9DC
330
C99D
100
AcDbEntity
  8
0
  6
CONTINUOUS
100
AcDbLine
 10
44.99999999995498
 20
8.266142424885896
 30
0.0
 11
44.50304242484962
 21
8.763099999991255
 31
0.0
  0
ENDBLK
  5
CA06
330
C99D
100
AcDbEntity
  8
0
100
AcDbBlockEnd
  0
BLOCK
  5
CA07
330
C9DD
100
AcDbEntity
  8
0
100
AcDbBlockBegin
  2
*X32
 70
     1
 10
0.0
 20
0.0
 30
0.0
  3
*X32
  1

  0
LINE
  5
C9DE
330
C9DD
100
AcDbEntity
  8
0
  6
CONTINUOUS
100
AcDbLine
 10
0.0
 20
8.548461116714023
 30
0.0
 11
0.2146388832772324
 21
8.763099999991255
 31
0.0
  0
LINE
  5
C9DF
330
C9DD
100
AcDbEntity
  8
0
  6
CONTINUOUS
100
AcDbLine
 10
-0.0000000000000002
 20
7.874941907633837
 30
0.0
 11
0.8881580923574184
 21
8.763099999991255
 31
0.0
  0
LINE
  5
C9E0
330
C9DD
100
AcDbEntity
  8
0
  6
CONTINUOUS
100
AcDbLine
 10
0.0
 20
7.20142269855365
 30
0.0
 11
1.420999999998572
 21
8.622422698552223
 31
0.0
  0
LINE
  5
C9E1
330
C9DD
100
AcDbEntity
  8
0
  6
CONTINUOUS
100
AcDbLine
 10
-0.0000000000000001
 20
6.527903489473465
 30
0.0
 11
1.420999999998571
 21
7.948903489472036
 31
0.0
  0
LINE
  5
C9E2
330
C9DD
100
AcDbEntity
  8
0
  6
CONTINUOUS
100
AcDbLine
 10
-0.0000000000000002
 20
5.854384280393278
 30
0.0
 11
1.420999999998571
 21
7.275384280391849
 31
0.0
  0
LINE
  5
C9E3
330
C9DD
100
AcDbEntity
  8
0
  6
CONTINUOUS
100
AcDbLine
 10
-0.0000000000000002
 20
5.180865071313091
 30
0.0
 11
1.420999999998571
 21
6.601865071311663
 31
0.0
  0
LINE
  5
C9E4
330
C9DD
100
AcDbEntity
  8
0
  6
CONTINUOUS
100
AcDbLine
 10
0.0
 20
4.507345862232905
 30
0.0
 11
1.420999999998571
 21
5.928345862231477
 31
0.0
  0
LINE
  5
C9E5
330
C9DD
100
AcDbEntity
  8
0
  6
CONTINUOUS
100
AcDbLine
 10
-0.0000000000000003
 20
3.833826653152718
 30
0.0
 11
1.420999999998571
 21
5.25482665315129
 31
0.0
  0
LINE
  5
C9E6
330
C9DD
100
AcDbEntity
  8
0
  6
CONTINUOUS
100
AcDbLine
 10
-0.0000000000000002
 20
3.160307444072532
 30
0.0
 11
1.420999999998571
 21
4.581307444071103
 31
0.0
  0
LINE
  5
C9E7
330
C9DD
100
AcDbEntity
  8
0
  6
CONTINUOUS
100
AcDbLine
 10
-0.0000000000000001
 20
2.486788234992345
 30
0.0
 11
1.420999999998571
 21
3.907788234990917
 31
0.0
  0
LINE
  5
C9E8
330
C9DD
100
AcDbEntity
  8
0
  6
CONTINUOUS
100
AcDbLine
 10
-0.0000000000000006
 20
1.813269025912159
 30
0.0
 11
1.420999999998571
 21
3.234269025910731
 31
0.0
  0
LINE
  5
C9E9
330
C9DD
100
AcDbEntity
  8
0
  6
CONTINUOUS
100
AcDbLine
 10
0.0
 20
1.139749816831973
 30
0.0
 11
1.420999999998571
 21
2.560749816830544
 31
0.0
  0
LINE
  5
C9EA
330
C9DD
100
AcDbEntity
  8
0
  6
CONTINUOUS
100
AcDbLine
 10
0.0000000000000002
 20
0.466230607751787
 30
0.0
 11
1.420999999998571
 21
1.887230607750358
 31
0.0
  0
LINE
  5
C9EB
330
C9DD
100
AcDbEntity
  8
0
  6
CONTINUOUS
100
AcDbLine
 10
0.2072886013284003
 20
-0.0000000000000009
 30
0.0
 11
1.420999999998571
 21
1.213711398670171
 31
0.0
  0
LINE
  5
C9EC
330
C9DD
100
AcDbEntity
  8
0
  6
CONTINUOUS
100
AcDbLine
 10
0.8808078104085864
 20
-0.0000000000000009
 30
0.0
 11
1.420999999998571
 21
0.5401921895899839
 31
0.0
  0
LINE
  5
C9ED
330
C9DD
100
AcDbEntity
  8
0
  6
CONTINUOUS
100
AcDbLine
 10
0.0581249075061505
 20
-0.0000000000000009
 30
0.0
 11
-0.0000000000000002
 21
0.0581249075061496
 31
0.0
  0
LINE
  5
C9EE
330
C9DD
100
AcDbEntity
  8
0
  6
CONTINUOUS
100
AcDbLine
 10
0.7316441165863372
 20
-0.0000000000000009
 30
0.0
 11
-0.0000000000000002
 21
0.7316441165863363
 31
0.0
  0
LINE
  5
C9EF
330
C9DD
100
AcDbEntity
  8
0
  6
CONTINUOUS
100
AcDbLine
 10
1.405163325666523
 20
-0.0000000000000009
 30
0.0
 11
-0.0000000000000002
 21
1.405163325666523
 31
0.0
  0
LINE
  5
C9F0
330
C9DD
100
AcDbEntity
  8
0
  6
CONTINUOUS
100
AcDbLine
 10
1.420999999998572
 20
0.6576825347481381
 30
0.0
 11
-0.0000000000000001
 21
2.07868253474671
 31
0.0
  0
LINE
  5
C9F1
330
C9DD
100
AcDbEntity
  8
0
  6
CONTINUOUS
100
AcDbLine
 10
1.420999999998571
 20
1.331201743828324
 30
0.0
 11
-0.0000000000000001
 21
2.752201743826896
 31
0.0
  0
LINE
  5
C9F2
330
C9DD
100
AcDbEntity
  8
0
  6
CONTINUOUS
100
AcDbLine
 10
1.420999999998571
 20
2.004720952908511
 30
0.0
 11
-0.0000000000000002
 21
3.425720952907082
 31
0.0
  0
LINE
  5
C9F3
330
C9DD
100
AcDbEntity
  8
0
  6
CONTINUOUS
100
AcDbLine
 10
1.420999999998571
 20
2.678240161988697
 30
0.0
 11
-0.0000000000000001
 21
4.099240161987269
 31
0.0
  0
LINE
  5
C9F4
330
C9DD
100
AcDbEntity
  8
0
  6
CONTINUOUS
100
AcDbLine
 10
1.420999999998572
 20
3.351759371068884
 30
0.0
 11
0.0
 21
4.772759371067455
 31
0.0
  0
LINE
  5
C9F5
330
C9DD
100
AcDbEntity
  8
0
  6
CONTINUOUS
100
AcDbLine
 10
1.420999999998571
 20
4.02527858014907
 30
0.0
 11
-0.0000000000000003
 21
5.446278580147642
 31
0.0
  0
LINE
  5
C9F6
330
C9DD
100
AcDbEntity
  8
0
  6
CONTINUOUS
100
AcDbLine
 10
1.420999999998571
 20
4.698797789229257
 30
0.0
 11
0.0
 21
6.119797789227828
 31
0.0
  0
LINE
  5
C9F7
330
C9DD
100
AcDbEntity
  8
0
  6
CONTINUOUS
100
AcDbLine
 10
1.420999999998571
 20
5.372316998309444
 30
0.0
 11
-0.0000000000000001
 21
6.793316998308015
 31
0.0
  0
LINE
  5
C9F8
330
C9DD
100
AcDbEntity
  8
0
  6
CONTINUOUS
100
AcDbLine
 10
1.420999999998572
 20
6.045836207389629
 30
0.0
 11
-0.0000000000000004
 21
7.466836207388202
 31
0.0
  0
LINE
  5
C9F9
330
C9DD
100
AcDbEntity
  8
0
  6
CONTINUOUS
100
AcDbLine
 10
1.420999999998571
 20
6.719355416469816
 30
0.0
 11
0.0
 21
8.140355416468388
 31
0.0
  0
LINE
  5
C9FA
330
C9DD
100
AcDbEntity
  8
0
  6
CONTINUOUS
100
AcDbLine
 10
1.420999999998571
 20
7.392874625550003
 30
0.0
 11
0.0507746255573185
 21
8.763099999991255
 31
0.0
  0
LINE
  5
C9FB
330
C9DD
100
AcDbEntity
  8
0
  6
CONTINUOUS
100
AcDbLine
 10
1.420999999998571
 20
8.06639383463019
 30
0.0
 11
0.7242938346375052
 21
8.763099999991255
 31
0.0
  0
LINE
  5
C9FC
330
C9DD
100
AcDbEntity
  8
0
  6
CONTINUOUS
100
AcDbLine
 10
1.420999999998571
 20
8.739913043710375
 30
0.0
 11
1.397813043717691
 21
8.763099999991255
 31
0.0
  0
ENDBLK
  5
CA08
330
C9DD
100
AcDbEntity
  8
0
100
AcDbBlockEnd
  0
ENDSEC
  0
SECTION
  2
ENTITIES
  0
TEXT
  5
33D7
330
18
100
AcDbEntity
  8
1TEXT
100
AcDbText
 10
-276.5411380994905
 20
-2007.778033801871
 30
0.0
 40
7.0
  1
AC-776-X
 41
1.0098214
100
AcDbText
  0
LINE
  5
33D9
330
18
100
AcDbEntity
  8
1DIM
100
AcDbLine
 10
-275.415581682673
 20
-2038.520861173824
 30
0.0
 11
-240.415581682673
 21
-2038.520861173824
 31
0.0
  0
TEXT
  5
33DB
330
18
100
AcDbEntity
  8
1TEXT
100
AcDbText
 10
-267.28224834934
 20
-2016.020861173824
 30
0.0
 40
4.0
  1
表面処理
 72
     1
 11
-258.0155816826733
 21
-2016.020861173824
 31
0.0
100
AcDbText
  0
TEXT
  5
33DD
330
18
100
AcDbEntity
  8
1TEXT
100
AcDbText
 10
-267.48224834934
 20
-2022.998756193808
 30
0.0
 40
4.0
  1
クローム
 72
     1
 11
-258.0155816826733
 21
-2022.998756193808
 31
0.0
100
AcDbText
  0
LINE
  5
33DE
330
18
100
AcDbEntity
  8
1DIM
100
AcDbLine
 10
-275.415581682673
 20
-2010.520861173824
 30
0.0
 11
-170.415581682673
 21
-2010.520861173824
 31
0.0
  0
LINE
  5
33DF
330
18
100
AcDbEntity
  8
1DIM
100
AcDbLine
 10
-275.415581682673
 20
-2024.520861173824
 30
0.0
 11
-170.415581682673
 21
-2024.520861173824
 31
0.0
  0
LINE
  5
33E0
330
18
100
AcDbEntity
  8
1DIM
100
AcDbLine
 10
-275.415581682673
 20
-2017.520861173824
 30
0.0
 11
-170.415581682673
 21
-2017.520861173824
 31
0.0
  0
LINE
  5
33E1
330
18
100
AcDbEntity
  8
1DIM
100
AcDbLine
 10
-275.415581682673
 20
-2031.520861173824
 30
0.0
 11
-205.415581682673
 21
-2031.520861173824
 31
0.0
  0
LINE
  5
33E2
330
18
100
AcDbEntity
  8
1DIM
100
AcDbLine
 10
-275.415581682673
 20
-2031.520861173824
 30
0.0
 11
-170.415581682673
 21
-2031.520861173824
 31
0.0
  0
LINE
  5
33E3
330
18
100
AcDbEntity
  8
1DIM
100
AcDbLine
 10
-240.415581682673
 20
-2010.520861173824
 30
0.0
 11
-240.415581682673
 21
-2038.520861173824
 31
0.0
  0
TEXT
  5
33E4
330
18
100
AcDbEntity
  8
1TEXT
100
AcDbText
 10
-236.558637238228
 20
-2030.235218157473
 30
0.0
 40
4.0
  1
AC-776-XND
 41
0.7
 72
     1
 11
-223.0155816826724
 21
-2030.235218157473
 31
0.0
100
AcDbText
  0
TEXT
  5
33E6
330
18
100
AcDbEntity
  8
1TEXT
100
AcDbText
 10
-236.558637238228
 20
-2023.235218157473
 30
0.0
 40
4.0
  1
AC-776-XCD
 41
0.7
 72
     1
 11
-223.0155816826724
 21
-2023.235218157473
 31
0.0
100
AcDbText
  0
TEXT
  5
33E7
330
18
100
AcDbEntity
  8
1TEXT
100
AcDbText
 10
-238.3236123735071
 20
-2016.020861173824
 30
0.0
 40
4.0
  1
コード（緩衝材ライトグレー）
 41
0.5
 72
     1
 11
-222.3236123735071
 21
-2016.020861173824
 31
0.0
100
AcDbText
  0
LINE
  5
33EB
330
18
100
AcDbEntity
  8
1DIM
100
AcDbLine
 10
-275.415581682673
 20
-2038.520861173824
 30
0.0
 11
-275.415581682673
 21
-2010.520861173824
 31
0.0
  0
LINE
  5
33EC
330
18
100
AcDbEntity
  8
1DIM
100
AcDbLine
 10
-205.415581682673
 20
-2038.520861173824
 30
0.0
 11
-205.415581682673
 21
-2010.520861173824
 31
0.0
  0
LINE
  5
9AE9
330
18
100
AcDbEntity
  8
01
100
AcDbLine
 10
-233.7194127802309
 20
-2174.69477606586
 30
0.0
 11
-204.7194127802309
 21
-2174.69477606586
 31
0.0
  0
LINE
  5
9AEA
330
18
100
AcDbEntity
  8
01
100
AcDbLine
 10
-236.2194127802309
 20
-2134.69477606586
 30
0.0
 11
-202.2194127802309
 21
-2134.69477606586
 31
0.0
  0
LINE
  5
9AEB
330
18
100
AcDbEntity
  8
01
100
AcDbLine
 10
-235.7194127802309
 20
-2167.694984362092
 30
0.0
 11
-202.7194127802311
 21
-2167.694984362092
 31
0.0
  0
ARC
  5
9AEC
330
18
100
AcDbEntity
  8
01
100
AcDbCircle
 10
-235.7194127802309
 20
-2166.694984362092
 30
0.0
 40
1.0
100
AcDbArc
 50
180.0
 51
270.0
  0
LINE
  5
9AED
330
18
100
AcDbEntity
  8
01
100
AcDbLine
 10
-236.7194127802309
 20
-2135.19477606586
 30
0.0
 11
-236.7194127802309
 21
-2141.290419273678
 31
0.0
  0
LINE
  5
9AEE
330
18
100
AcDbEntity
  8
01
100
AcDbLine
 10
-236.7194127802306
 20
-2144.278821754487
 30
0.0
 11
-236.7194127802309
 21
-2166.694984362092
 31
0.0
  0
LINE
  5
9AEF
330
18
100
AcDbEntity
  8
01
100
AcDbLine
 10
-233.7194127802309
 20
-2167.694984362091
 30
0.0
 11
-233.7194127802309
 21
-2174.69477606586
 31
0.0
  0
ARC
  5
9AF0
330
18
100
AcDbEntity
  8
01
100
AcDbCircle
 10
-236.2194127802309
 20
-2135.19477606586
 30
0.0
 40
0.5
100
AcDbArc
 50
90.0
 51
180.0
  0
LINE
  5
9AF1
330
18
100
AcDbEntity
  8
01
100
AcDbLine
 10
-204.7194127802309
 20
-2174.69477606586
 30
0.0
 11
-204.7194127802309
 21
-2167.694984362092
 31
0.0
  0
LINE
  5
9AF2
330
18
100
AcDbEntity
  8
01
100
AcDbLine
 10
-201.7194127802306
 20
-2135.19477606586
 30
0.0
 11
-201.7194127802306
 21
-2141.290419273678
 31
0.0
  0
LINE
  5
9AF3
330
18
100
AcDbEntity
  8
01
100
AcDbLine
 10
-201.7194127802306
 20
-2144.278821754487
 30
0.0
 11
-201.7194127802311
 21
-2166.694984362092
 31
0.0
  0
ARC
  5
9AF4
330
18
100
AcDbEntity
  8
01
100
AcDbCircle
 10
-202.7194127802311
 20
-2166.694984362092
 30
0.0
 40
1.0
100
AcDbArc
 50
270.0
 51
359.9999999999996
  0
ARC
  5
9AF5
330
18
100
AcDbEntity
  8
01
100
AcDbCircle
 10
-202.2194127802309
 20
-2135.19477606586
 30
0.0
 40
0.5
100
AcDbArc
 50
0.0
 51
90.0
  0
ARC
  5
9AF6
330
18
100
AcDbEntity
  8
01
100
AcDbCircle
 10
-219.2194127802309
 20
-2150.19477606586
 30
0.0
 40
3.5
100
AcDbArc
 50
270.0
 51
90.0
  0
ARC
  5
9AF7
330
18
100
AcDbEntity
  8
1DIM
100
AcDbCircle
 10
-219.2194127802309
 20
-2150.19477606586
 30
0.0
 40
3.0
100
AcDbArc
 50
270.0
 51
90.0
  0
ARC
  5
9B07
330
18
100
AcDbEntity
  8
01
100
AcDbCircle
 10
-219.2194127802309
 20
-2150.19477606586
 30
0.0
 40
3.5
100
AcDbArc
 50
90.0
 51
270.0
  0
ARC
  5
9B08
330
18
100
AcDbEntity
  8
1DIM
100
AcDbCircle
 10
-219.2194127802309
 20
-2150.19477606586
 30
0.0
 40
3.0
100
AcDbArc
 50
90.0
 51
270.0
  0
LINE
  5
9B2C
330
18
100
AcDbEntity
  8
01
100
AcDbLine
 10
-243.1956469662946
 20
-2144.603575078741
 30
0.0
 11
-243.2198484030084
 21
-2147.41248794959
 31
0.0
  0
LINE
  5
9B2D
330
18
100
AcDbEntity
  8
01
100
AcDbLine
 10
-243.2198484030084
 20
-2147.41248794959
 30
0.0
 11
-243.176913329359
 21
-2147.869056166794
 31
0.0
  0
LINE
  5
9B2E
330
18
100
AcDbEntity
  8
01
100
AcDbLine
 10
-243.176913329359
 20
-2147.869056166794
 30
0.0
 11
-243.113041837966
 21
-2148.105668771905
 31
0.0
  0
LINE
  5
9B2F
330
18
100
AcDbEntity
  8
01
100
AcDbLine
 10
-243.113041837966
 20
-2148.105668771905
 30
0.0
 11
-243.0184460494352
 21
-2148.332376049354
 31
0.0
  0
LINE
  5
9B30
330
18
100
AcDbEntity
  8
01
100
AcDbLine
 10
-243.0184460494352
 20
-2148.332376049354
 30
0.0
 11
-242.8960505244322
 21
-2148.545659191467
 31
0.0
  0
LINE
  5
9B31
330
18
100
AcDbEntity
  8
01
100
AcDbLine
 10
-242.8960505244322
 20
-2148.545659191467
 30
0.0
 11
-242.7487798236225
 21
-2148.741999390568
 31
0.0
  0
LINE
  5
9B32
330
18
100
AcDbEntity
  8
01
100
AcDbLine
 10
-242.7487798236225
 20
-2148.741999390568
 30
0.0
 11
-242.5539010333973
 21
-2148.94244462198
 31
0.0
  0
LINE
  5
9B33
330
18
100
AcDbEntity
  8
01
100
AcDbLine
 10
-242.5539010333973
 20
-2148.94244462198
 30
0.0
 11
-242.3358375990979
 21
-2149.118529953381
 31
0.0
  0
LINE
  5
9B34
330
18
100
AcDbEntity
  8
01
100
AcDbLine
 10
-242.3358375990979
 20
-2149.118529953381
 30
0.0
 11
-241.8521542531978
 21
-2149.407135041569
 31
0.0
  0
LINE
  5
9B35
330
18
100
AcDbEntity
  8
01
100
AcDbLine
 10
-241.8521542531978
 20
-2149.407135041569
 30
0.0
 11
-241.1402203243529
 21
-2149.692508588018
 31
0.0
  0
LINE
  5
9B36
330
18
100
AcDbEntity
  8
01
100
AcDbLine
 10
-241.1402203243529
 20
-2149.692508588018
 30
0.0
 11
-240.3978215709237
 21
-2149.887551119225
 31
0.0
  0
LINE
  5
9B37
330
18
100
AcDbEntity
  8
01
100
AcDbLine
 10
-240.3978215709237
 20
-2149.887551119225
 30
0.0
 11
-238.4365378241223
 21
-2150.154153320184
 31
0.0
  0
LINE
  5
9B38
330
18
100
AcDbEntity
  8
01
100
AcDbLine
 10
-238.4365378241223
 20
-2150.154153320184
 30
0.0
 11
-236.7194127802311
 21
-2150.162642217892
 31
0.0
  0
LINE
  5
9B39
330
18
100
AcDbEntity
  8
01
100
AcDbLine
 10
-240.2193922496501
 20
-2146.444671603424
 30
0.0
 11
-240.2192716370503
 21
-2145.896738721298
 31
0.0
  0
ARC
  5
9B3A
330
18
100
AcDbEntity
  8
01
100
AcDbCircle
 10
-239.7193922617637
 20
-2146.444781664894
 30
0.0
 40
0.5
100
AcDbArc
 50
179.9873878844593
 51
257.2485977557195
  0
LINE
  5
9B3B
330
18
100
AcDbEntity
  8
01
100
AcDbLine
 10
-236.7194127802309
 20
-2147.064575181441
 30
0.0
 11
-239.4912570292756
 21
-2147.009052631796
 31
0.0
  0
LINE
  5
9B3C
330
18
100
AcDbEntity
  8
01
100
AcDbLine
 10
-239.4912570292756
 20
-2147.009052631796
 30
0.0
 11
-239.8297529143979
 21
-2146.932450124352
 31
0.0
  0
LINE
  5
9B3D
330
18
100
AcDbEntity
  8
01
100
AcDbLine
 10
-239.5267608129618
 20
-2144.944997672375
 30
0.0
 11
-237.1869810198516
 21
-2144.359135145703
 31
0.0
  0
LINE
  5
9B3E
330
18
100
AcDbEntity
  8
01
100
AcDbLine
 10
-237.1869810198516
 20
-2144.359135145703
 30
0.0
 11
-236.7194127802306
 21
-2144.278821754487
 31
0.0
  0
ARC
  5
9B3F
330
18
100
AcDbEntity
  8
01
100
AcDbCircle
 10
-239.2194331745277
 20
-2145.914712281343
 30
0.0
 40
1.0
100
AcDbArc
 50
107.8982551524319
 51
180.0069036978783
  0
LINE
  5
9B40
330
18
100
AcDbEntity
  8
01
100
AcDbLine
 10
-243.1956469662946
 20
-2144.603575078737
 30
0.0
 11
-243.1804875821026
 21
-2144.443287128433
 31
0.0
  0
LINE
  5
9B41
330
18
100
AcDbEntity
  8
01
100
AcDbLine
 10
-243.1804875821026
 20
-2144.443287128433
 30
0.0
 11
-243.1319674520319
 21
-2144.24451079565
 31
0.0
  0
LINE
  5
9B42
330
18
100
AcDbEntity
  8
01
100
AcDbLine
 10
-243.1319674520319
 20
-2144.24451079565
 30
0.0
 11
-243.0630493457268
 21
-2144.05131651391
 31
0.0
  0
LINE
  5
9B43
330
18
100
AcDbEntity
  8
01
100
AcDbLine
 10
-243.0630493457268
 20
-2144.05131651391
 30
0.0
 11
-242.9758228866231
 21
-2143.865221058955
 31
0.0
  0
LINE
  5
9B44
330
18
100
AcDbEntity
  8
01
100
AcDbLine
 10
-242.9758228866231
 20
-2143.865221058955
 30
0.0
 11
-242.8723776981556
 21
-2143.687741206532
 31
0.0
  0
LINE
  5
9B45
330
18
100
AcDbEntity
  8
01
100
AcDbLine
 10
-242.8723776981556
 20
-2143.687741206532
 30
0.0
 11
-242.5922428650615
 21
-2143.327077705072
 31
0.0
  0
LINE
  5
9B46
330
18
100
AcDbEntity
  8
01
100
AcDbLine
 10
-242.5922428650615
 20
-2143.327077705072
 30
0.0
 11
-242.2581043480652
 21
-2143.015520458353
 31
0.0
  0
LINE
  5
9B47
330
18
100
AcDbEntity
  8
01
100
AcDbLine
 10
-242.2581043480652
 20
-2143.015520458353
 30
0.0
 11
-241.8047792957661
 21
-2142.701086892556
 31
0.0
  0
LINE
  5
9B48
330
18
100
AcDbEntity
  8
01
100
AcDbLine
 10
-241.8047792957661
 20
-2142.701086892556
 30
0.0
 11
-241.315623092454
 21
-2142.442733029789
 31
0.0
  0
LINE
  5
9B49
330
18
100
AcDbEntity
  8
01
100
AcDbLine
 10
-241.3156230924553
 20
-2142.44273302979
 30
0.0
 11
-240.0349332175895
 21
-2141.972614992053
 31
0.0
  0
ARC
  5
9B4A
330
18
100
AcDbEntity
  8
01
100
AcDbCircle
 10
-219.2194127802311
 20
-2234.739614747916
 30
0.0
 40
95.07366688406604
100
AcDbArc
 50
100.6067875367084
 51
102.6468384367003
  0
LINE
  5
9B5E
330
18
100
AcDbEntity
  8
01
100
AcDbLine
 10
-121.6152312733486
 20
-2150.141490507495
 30
0.0
 11
-149.1028056644193
 21
-2142.612662305485
 31
0.0
  0
ARC
  5
9B5F
330
18
100
AcDbEntity
  8
01
100
AcDbCircle
 10
-121.2189771574535
 20
-2148.69477606586
 30
0.0
 40
1.7
100
AcDbArc
 50
226.6099081759348
 51
102.7548820457513
  0
ARC
  5
9B60
330
18
100
AcDbEntity
  8
01
100
AcDbCircle
 10
-121.2189771574535
 20
-2148.69477606586
 30
0.0
 40
1.75
100
AcDbArc
 50
223.6796759760378
 51
105.6851142437919
  0
LINE
  5
9B61
330
18
100
AcDbEntity
  8
01
100
AcDbLine
 10
-138.2189771574535
 20
-2134.69477606586
 30
0.0
 11
-116.2189771574535
 21
-2134.69477606586
 31
0.0
  0
LINE
  5
9B62
330
18
100
AcDbEntity
  8
01
100
AcDbLine
 10
-137.7189771574535
 20
-2167.694984362091
 30
0.0
 11
-135.7189771574535
 21
-2167.694984362092
 31
0.0
  0
LINE
  5
9B63
330
18
100
AcDbEntity
  8
01
100
AcDbLine
 10
-135.7189771574535
 20
-2174.69477606586
 30
0.0
 11
-106.7189771574535
 21
-2174.69477606586
 31
0.0
  0
LINE
  5
9B64
330
18
100
AcDbEntity
  8
01
100
AcDbLine
 10
-135.7189771574535
 20
-2167.694984362091
 30
0.0
 11
-104.7189771574535
 21
-2167.694984362091
 31
0.0
  0
LINE
  5
9B65
330
18
100
AcDbEntity
  8
01
100
AcDbLine
 10
-138.7189771574535
 20
-2166.694984362091
 30
0.0
 11
-138.7189771574535
 21
-2153.69477606586
 31
0.0
  0
LINE
  5
9B66
330
18
100
AcDbEntity
  8
01
100
AcDbLine
 10
-120.822723041558
 20
-2147.248061624225
 30
0.0
 11
-148.3102974326287
 21
-2139.719233422215
 31
0.0
  0
ARC
  5
9B67
330
18
100
AcDbEntity
  8
01
100
AcDbCircle
 10
-137.7189771574535
 20
-2166.694984362091
 30
0.0
 40
1.0
100
AcDbArc
 50
180.0
 51
270.0
  0
LINE
  5
9B68
330
18
100
AcDbEntity
  8
01
100
AcDbLine
 10
-135.7189771574535
 20
-2167.694984362092
 30
0.0
 11
-135.7189771574535
 21
-2174.69477606586
 31
0.0
  0
ARC
  5
9B69
330
18
100
AcDbEntity
  8
01
100
AcDbCircle
 10
-138.2189771574535
 20
-2135.19477606586
 30
0.0
 40
0.5
100
AcDbArc
 50
90.0
 51
180.0
  0
LINE
  5
9B6A
330
18
100
AcDbEntity
  8
01
100
AcDbLine
 10
-103.7189771574535
 20
-2166.694984362091
 30
0.0
 11
-103.7189771574535
 21
-2135.19477606586
 31
0.0
  0
LINE
  5
9B6B
330
18
100
AcDbEntity
  8
01
100
AcDbLine
 10
-116.2189771574535
 20
-2134.69477606586
 30
0.0
 11
-116.2189771574535
 21
-2167.694984362091
 31
0.0
  0
ARC
  5
9B6C
330
18
100
AcDbEntity
  8
01
100
AcDbCircle
 10
-104.7189771574535
 20
-2166.694984362091
 30
0.0
 40
1.0
100
AcDbArc
 50
270.0
 51
0.000000000000007
  0
LINE
  5
9B6D
330
18
100
AcDbEntity
  8
01
100
AcDbLine
 10
-106.7189771574535
 20
-2174.69477606586
 30
0.0
 11
-106.7189771574535
 21
-2167.694984362091
 31
0.0
  0
LINE
  5
9B6E
330
18
100
AcDbEntity
  8
01
100
AcDbLine
 10
-116.2189771574535
 20
-2134.69477606586
 30
0.0
 11
-104.2189771574535
 21
-2134.69477606586
 31
0.0
  0
ARC
  5
9B6F
330
18
100
AcDbEntity
  8
01
100
AcDbCircle
 10
-104.2189771574535
 20
-2135.19477606586
 30
0.0
 40
0.5
100
AcDbArc
 50
0.000000000000007
 51
90.0
  0
ARC
  5
9B70
330
18
100
AcDbEntity
  8
01
100
AcDbCircle
 10
-121.2189771574535
 20
-2148.69477606586
 30
0.0
 40
1.5
100
AcDbArc
 50
254.682395109892
 51
74.68239510989208
  0
ARC
  5
9B71
330
18
100
AcDbEntity
  8
01
100
AcDbCircle
 10
-148.706551548524
 20
-2141.165947863849
 30
0.0
 40
1.5
100
AcDbArc
 50
74.68239510989208
 51
254.682395109892
  0
ARC
  5
9B72
330
18
100
AcDbEntity
  8
01
100
AcDbCircle
 10
-156.0439771574531
 20
-2150.19477606586
 30
0.0
 40
17.67499999999971
100
AcDbArc
 50
348.5788137249942
 51
11.42118627500586
  0
LINE
  5
9B73
330
18
100
AcDbEntity
  8
01
100
AcDbLine
 10
-155.2189771574535
 20
-2146.19477606586
 30
0.0
 11
-155.2189771574535
 21
-2134.69477606586
 31
0.0
  0
LINE
  5
9B74
330
18
100
AcDbEntity
  8
01
100
AcDbLine
 10
-152.2189771574535
 20
-2141.19477606586
 30
0.0
 11
-152.2189771574535
 21
-2135.19477606586
 31
0.0
  0
LINE
  5
9B75
330
18
100
AcDbEntity
  8
01
100
AcDbLine
 10
-142.7189771574535
 20
-2135.19477606586
 30
0.0
 11
-142.7189771574535
 21
-2141.19477606586
 31
0.0
  0
LINE
  5
9B76
330
18
100
AcDbEntity
  8
01
100
AcDbLine
 10
-139.6889771574536
 20
-2142.080607267096
 30
0.0
 11
-139.6889771574536
 21
-2135.19477606586
 31
0.0
  0
LINE
  5
9B77
330
18
100
AcDbEntity
  8
01
100
AcDbLine
 10
-138.7189771574533
 20
-2146.69477606586
 30
0.0
 11
-138.7189771574535
 21
-2145.456785973722
 31
0.0
  0
LINE
  5
9B78
330
18
100
AcDbEntity
  8
01
100
AcDbLine
 10
-138.7189771574535
 20
-2142.346289616948
 30
0.0
 11
-138.7189771574535
 21
-2135.19477606586
 31
0.0
  0
LINE
  5
9B79
330
18
100
AcDbEntity
  8
01
100
AcDbLine
 10
-148.8030102598411
 20
-2142.69477606586
 30
0.0
 11
-150.7189771574535
 21
-2142.69477606586
 31
0.0
  0
LINE
  5
9B7A
330
18
100
AcDbEntity
  8
01
100
AcDbLine
 10
-139.2189771574535
 20
-2146.19477606586
 30
0.0
 11
-155.2189771574535
 21
-2146.19477606586
 31
0.0
  0
ARC
  5
9B7B
330
18
100
AcDbEntity
  8
01
100
AcDbCircle
 10
-139.2189771574535
 20
-2145.69477606586
 30
0.0
 40
0.5
100
AcDbArc
 50
270.0
 51
0.000000000000007
  0
ARC
  5
9B7C
330
18
100
AcDbEntity
  8
01
100
AcDbCircle
 10
-144.2189771574535
 20
-2141.19477606586
 30
0.0
 40
1.5
100
AcDbArc
 50
357.8744672824606
 51
0.000000000000007
  0
ARC
  5
9B7D
330
18
100
AcDbEntity
  8
01
100
AcDbCircle
 10
-150.7189771574535
 20
-2141.19477606586
 30
0.0
 40
1.5
100
AcDbArc
 50
180.0
 51
270.0
  0
ARC
  5
9B7E
330
18
100
AcDbEntity
  8
01
100
AcDbCircle
 10
-139.2189771574535
 20
-2135.19477606586
 30
0.0
 40
0.5
100
AcDbArc
 50
0.000000000000007
 51
90.0
  0
LINE
  5
9B7F
330
18
100
AcDbEntity
  8
01
100
AcDbLine
 10
-139.2189771574535
 20
-2134.69477606586
 30
0.0
 11
-142.2189771574535
 21
-2134.69477606586
 31
0.0
  0
ARC
  5
9B80
330
18
100
AcDbEntity
  8
01
100
AcDbCircle
 10
-142.2189771574535
 20
-2135.19477606586
 30
0.0
 40
0.5
100
AcDbArc
 50
90.0
 51
180.0
  0
ARC
  5
9B81
330
18
100
AcDbEntity
  8
01
100
AcDbCircle
 10
-140.1889771574536
 20
-2135.19477606586
 30
0.0
 40
0.5
100
AcDbArc
 50
0.000000000000007
 51
90.0
  0
ARC
  5
9B82
330
18
100
AcDbEntity
  8
01
100
AcDbCircle
 10
-152.7189771574535
 20
-2135.19477606586
 30
0.0
 40
0.5
100
AcDbArc
 50
0.000000000000007
 51
90.0
  0
LINE
  5
9B83
330
18
100
AcDbEntity
  8
01
100
AcDbLine
 10
-152.7189771574535
 20
-2134.69477606586
 30
0.0
 11
-155.2189771574535
 21
-2134.69477606586
 31
0.0
  0
ARC
  5
9BA2
330
18
100
AcDbEntity
  8
01
100
AcDbCircle
 10
-219.2194127802309
 20
-2058.73010112018
 30
0.0
 40
17.5
100
AcDbArc
 50
163.3984504009782
 51
16.6015495990172
  0
LINE
  5
9BA3
330
18
100
AcDbEntity
  8
01
100
AcDbLine
 10
-219.2194127802309
 20
-2053.73010112018
 30
0.0
 11
-202.4489029489823
 21
-2053.73010112018
 31
0.0
  0
ARC
  5
9BA5
330
18
100
AcDbEntity
  8
01
100
AcDbCircle
 10
-219.2194127802309
 20
-2058.73010112018
 30
0.0
 40
17.5
100
AcDbArc
 50
16.6015495990172
 51
163.3984504009828
  0
LINE
  5
9BA6
330
18
100
AcDbEntity
  8
01
100
AcDbLine
 10
-235.9899226114792
 20
-2053.73010112018
 30
0.0
 11
-202.4489029489825
 21
-2053.73010112018
 31
0.0
  0
LINE
  5
9BB5
330
18
100
AcDbEntity
  8
01
100
AcDbLine
 10
-236.6550085543936
 20
-2057.230101120181
 30
0.0
 11
-237.2194127802309
 21
-2057.230101120181
 31
0.0
  0
LINE
  5
9BB6
330
18
100
AcDbEntity
  8
01
100
AcDbLine
 10
-236.6550085543936
 20
-2060.23010112018
 30
0.0
 11
-237.2194127802309
 21
-2060.23010112018
 31
0.0
  0
LINE
  5
9BB7
330
18
100
AcDbEntity
  8
01
100
AcDbLine
 10
-201.2194127802311
 20
-2057.23010112018
 30
0.0
 11
-201.7838170060681
 21
-2057.23010112018
 31
0.0
  0
LINE
  5
9BB8
330
18
100
AcDbEntity
  8
01
100
AcDbLine
 10
-201.2194127802313
 20
-2060.230101120181
 30
0.0
 11
-201.7838170060681
 21
-2060.230101120181
 31
0.0
  0
ARC
  5
9BB9
330
18
100
AcDbEntity
  8
01
100
AcDbCircle
 10
-219.2194127802309
 20
-2057.72010112018
 30
0.0
 40
27.0
100
AcDbArc
 50
224.982957827813
 51
315.017042172187
  0
ARC
  5
9BBA
330
18
100
AcDbEntity
  8
01
100
AcDbCircle
 10
-219.2194127802309
 20
-2057.72010112018
 30
0.0
 40
30.0
100
AcDbArc
 50
224.982957827813
 51
315.017042172187
  0
ARC
  5
9BBB
330
18
100
AcDbEntity
  8
01
100
AcDbCircle
 10
-233.7194127802309
 20
-2072.211477866369
 30
0.0
 40
9.5
100
AcDbArc
 50
180.0
 51
224.982957827813
  0
ARC
  5
9BBC
330
18
100
AcDbEntity
  8
01
100
AcDbCircle
 10
-233.7194127802309
 20
-2072.211477866369
 30
0.0
 40
6.5
100
AcDbArc
 50
180.0
 51
224.982957827813
  0
LINE
  5
9BBD
330
18
100
AcDbEntity
  8
01
100
AcDbLine
 10
-240.2194127802309
 20
-2063.23010112018
 30
0.0
 11
-240.2194127802309
 21
-2072.211477866369
 31
0.0
  0
LINE
  5
9BBE
330
18
100
AcDbEntity
  8
01
100
AcDbLine
 10
-243.2194127802309
 20
-2063.230101120181
 30
0.0
 11
-243.2194127802309
 21
-2072.211477866369
 31
0.0
  0
ARC
  5
9BBF
330
18
100
AcDbEntity
  8
01
100
AcDbCircle
 10
-237.2194127802309
 20
-2063.23010112018
 30
0.0
 40
3.0
100
AcDbArc
 50
90.0
 51
180.0
  0
ARC
  5
9BC0
330
18
100
AcDbEntity
  8
01
100
AcDbCircle
 10
-237.2194127802309
 20
-2063.230101120181
 30
0.0
 40
6.0
100
AcDbArc
 50
89.99999999998697
 51
180.0
  0
ARC
  5
9BC1
330
18
100
AcDbEntity
  8
01
100
AcDbCircle
 10
-204.7194127802309
 20
-2072.211477866369
 30
0.0
 40
6.5
100
AcDbArc
 50
315.017042172187
 51
0.0
  0
LINE
  5
9BC2
330
18
100
AcDbEntity
  8
01
100
AcDbLine
 10
-198.2194127802309
 20
-2063.23010112018
 30
0.0
 11
-198.2194127802309
 21
-2072.211477866369
 31
0.0
  0
ARC
  5
9BC3
330
18
100
AcDbEntity
  8
01
100
AcDbCircle
 10
-204.7194127802309
 20
-2072.211477866369
 30
0.0
 40
9.5
100
AcDbArc
 50
315.017042172187
 51
0.0
  0
LINE
  5
9BC4
330
18
100
AcDbEntity
  8
01
100
AcDbLine
 10
-195.2194127802309
 20
-2063.23010112018
 30
0.0
 11
-195.2194127802311
 21
-2072.211477866369
 31
0.0
  0
ARC
  5
9BC5
330
18
100
AcDbEntity
  8
01
100
AcDbCircle
 10
-201.2194127802309
 20
-2063.23010112018
 30
0.0
 40
3.0
100
AcDbArc
 50
0.0
 51
90.0
  0
ARC
  5
9BC6
330
18
100
AcDbEntity
  8
01
100
AcDbCircle
 10
-201.2194127802309
 20
-2063.23010112018
 30
0.0
 40
6.0
100
AcDbArc
 50
0.0
 51
90.0
  0
LINE
  5
9D99
330
18
100
AcDbEntity
  8
1CENTER
100
AcDbLine
 10
-219.2194127802309
 20
-2052.53010112018
 30
0.0
 11
-219.2194127802309
 21
-2046.53010112018
 31
0.0
  0
LINE
  5
9D9A
330
18
100
AcDbEntity
  8
1CENTER
100
AcDbLine
 10
-222.2194127802309
 20
-2049.53010112018
 30
0.0
 11
-216.2194127802309
 21
-2049.53010112018
 31
0.0
  0
LINE
  5
9D9B
330
18
100
AcDbEntity
  8
1CENTER
100
AcDbLine
 10
-227.1868464950481
 20
-2066.33010112018
 30
0.0
 11
-227.1868464950481
 21
-2060.33010112018
 31
0.0
  0
LINE
  5
9D9C
330
18
100
AcDbEntity
  8
1CENTER
100
AcDbLine
 10
-230.1868464950481
 20
-2063.33010112018
 30
0.0
 11
-224.1868464950481
 21
-2063.33010112018
 31
0.0
  0
LINE
  5
9D9D
330
18
100
AcDbEntity
  8
1CENTER
100
AcDbLine
 10
-211.2519790654141
 20
-2066.33010112018
 30
0.0
 11
-211.2519790654141
 21
-2060.33010112018
 31
0.0
  0
LINE
  5
9D9E
330
18
100
AcDbEntity
  8
1CENTER
100
AcDbLine
 10
-214.2519790654141
 20
-2063.33010112018
 30
0.0
 11
-208.2519790654141
 21
-2063.33010112018
 31
0.0
  0
LINE
  5
A3BE
330
18
100
AcDbEntity
  8
01
100
AcDbLine
 10
-80.14358224903256
 20
-2174.69477606586
 30
0.0
 11
-149.6533651294939
 21
-2174.69477606586
 31
0.0
  0
LINE
  5
A3C5
102
{ACAD_REACTORS
330
A3F1
102
}
330
18
100
AcDbEntity
  8
1PHANTOM
100
AcDbLine
 10
-152.5189853012366
 20
-2140.89477606586
 30
0.0
 11
-154.3689723875696
 21
-2139.04477606586
 31
0.0
  0
LINE
  5
A3C6
102
{ACAD_REACTORS
330
A3F1
102
}
330
18
100
AcDbEntity
  8
1PHANTOM
100
AcDbLine
 10
-152.5189834398006
 20
-2140.89477606586
 30
0.0
 11
-152.518970875112
 21
-2135.494777927278
 31
0.0
  0
LINE
  5
A3C7
102
{ACAD_REACTORS
330
A3F1
102
}
330
18
100
AcDbEntity
  8
1PHANTOM
100
AcDbLine
 10
-152.2189834397997
 20
-2140.89477606586
 30
0.0
 11
-152.2189708751074
 21
-2135.49477606586
 31
0.0
  0
LINE
  5
A3C8
102
{ACAD_REACTORS
330
A3F1
102
}
330
18
100
AcDbEntity
  8
1PHANTOM
100
AcDbLine
 10
-167.5156376580865
 20
-2139.04477606586
 30
0.0
 11
-167.6156388214834
 21
-2139.54477606586
 31
0.0
  0
LINE
  5
A3C9
102
{ACAD_REACTORS
330
A3F1
102
}
330
18
100
AcDbEntity
  8
1PHANTOM
100
AcDbLine
 10
-162.8156388214832
 20
-2139.54477606586
 30
0.0
 11
-163.6156295143058
 21
-2136.84477606586
 31
0.0
  0
LINE
  5
A3CA
102
{ACAD_REACTORS
330
A3F1
102
}
330
18
100
AcDbEntity
  8
1PHANTOM
100
AcDbLine
 10
-162.7156376580863
 20
-2139.04477606586
 30
0.0
 11
-162.8156388214832
 21
-2139.54477606586
 31
0.0
  0
LINE
  5
A3CB
102
{ACAD_REACTORS
330
A3F1
102
}
330
18
100
AcDbEntity
  8
1PHANTOM
100
AcDbLine
 10
-163.6156295143058
 20
-2136.84477606586
 30
0.0
 11
-163.7156306777036
 21
-2137.34477606586
 31
0.0
  0
LINE
  5
A3CC
102
{ACAD_REACTORS
330
A3F1
102
}
330
18
100
AcDbEntity
  8
1PHANTOM
100
AcDbLine
 10
-164.4156388214836
 20
-2139.54477606586
 30
0.0
 11
-165.2156295143062
 21
-2136.84477606586
 31
0.0
  0
LINE
  5
A3CD
102
{ACAD_REACTORS
330
A3F1
102
}
330
18
100
AcDbEntity
  8
1PHANTOM
100
AcDbLine
 10
-166.0156388214839
 20
-2139.54477606586
 30
0.0
 11
-166.8156295143065
 21
-2136.84477606586
 31
0.0
  0
LINE
  5
A3CE
102
{ACAD_REACTORS
330
A3F1
102
}
330
18
100
AcDbEntity
  8
1PHANTOM
100
AcDbLine
 10
-165.9156376580862
 20
-2139.04477606586
 30
0.0
 11
-166.0156388214839
 21
-2139.54477606586
 31
0.0
  0
LINE
  5
A3CF
102
{ACAD_REACTORS
330
A3F1
102
}
330
18
100
AcDbEntity
  8
1PHANTOM
100
AcDbLine
 10
-166.8156295143065
 20
-2136.84477606586
 30
0.0
 11
-166.9156306777034
 21
-2137.34477606586
 31
0.0
  0
LINE
  5
A3D0
102
{ACAD_REACTORS
330
A3F1
102
}
330
18
100
AcDbEntity
  8
1PHANTOM
100
AcDbLine
 10
-165.2156295143062
 20
-2136.84477606586
 30
0.0
 11
-165.315630677703
 21
-2137.34477606586
 31
0.0
  0
LINE
  5
A3D1
102
{ACAD_REACTORS
330
A3F1
102
}
330
18
100
AcDbEntity
  8
1PHANTOM
100
AcDbLine
 10
-164.3156376580867
 20
-2139.04477606586
 30
0.0
 11
-164.4156388214836
 21
-2139.54477606586
 31
0.0
  0
LINE
  5
A3D2
102
{ACAD_REACTORS
330
A3F1
102
}
330
18
100
AcDbEntity
  8
1PHANTOM
100
AcDbLine
 10
-152.5189690136717
 20
-2135.49477606586
 30
0.0
 11
-154.3689905366502
 21
-2137.34477606586
 31
0.0
  0
LINE
  5
A3D3
102
{ACAD_REACTORS
330
A3F1
102
}
330
18
100
AcDbEntity
  8
1PHANTOM
100
AcDbLine
 10
-172.2189675012564
 20
-2138.194776493902
 30
0.0
 11
-169.2156376580863
 21
-2139.04477606586
 31
0.0
  0
LINE
  5
A3D4
102
{ACAD_REACTORS
330
A3F1
102
}
330
18
100
AcDbEntity
  8
1PHANTOM
100
AcDbLine
 10
-172.218967501256
 20
-2138.194776493902
 30
0.0
 11
-169.2156306777018
 21
-2137.34477606586
 31
0.0
  0
LINE
  5
A3D5
102
{ACAD_REACTORS
330
A3F1
102
}
330
18
100
AcDbEntity
  8
1PHANTOM
100
AcDbLine
 10
-168.415629514306
 20
-2136.84477606586
 30
0.0
 11
-168.5156306777029
 21
-2137.34477606586
 31
0.0
  0
LINE
  5
A3D6
102
{ACAD_REACTORS
330
A3F1
102
}
330
18
100
AcDbEntity
  8
1PHANTOM
100
AcDbLine
 10
-170.0156300411084
 20
-2137.071183118064
 30
0.0
 11
-170.1449007387385
 21
-2137.607776853335
 31
0.0
  0
LINE
  5
A3D7
102
{ACAD_REACTORS
330
A3F1
102
}
330
18
100
AcDbEntity
  8
1PHANTOM
100
AcDbLine
 10
-169.2156388214838
 20
-2139.54477606586
 30
0.0
 11
-170.0156300411084
 21
-2137.071183118064
 31
0.0
  0
LINE
  5
A3D8
102
{ACAD_REACTORS
330
A3F1
102
}
330
18
100
AcDbEntity
  8
1PHANTOM
100
AcDbLine
 10
-170.7028682555231
 20
-2138.623861468651
 30
0.0
 11
-170.8156377678736
 21
-2139.091959923801
 31
0.0
  0
LINE
  5
A3D9
102
{ACAD_REACTORS
330
A3F1
102
}
330
18
100
AcDbEntity
  8
1PHANTOM
100
AcDbLine
 10
-169.115637658086
 20
-2139.04477606586
 30
0.0
 11
-169.2156388214838
 21
-2139.54477606586
 31
0.0
  0
LINE
  5
A3DA
102
{ACAD_REACTORS
330
A3F1
102
}
330
18
100
AcDbEntity
  8
1PHANTOM
100
AcDbLine
 10
-171.6156310947147
 20
-2137.523997222471
 30
0.0
 11
-171.7983952373427
 21
-2138.075746686274
 31
0.0
  0
LINE
  5
A3DB
102
{ACAD_REACTORS
330
A3F1
102
}
330
18
100
AcDbEntity
  8
1PHANTOM
100
AcDbLine
 10
-170.8156377678736
 20
-2139.091959923801
 30
0.0
 11
-171.6156310947147
 21
-2137.523997222471
 31
0.0
  0
LINE
  5
A3DC
102
{ACAD_REACTORS
330
A3F1
102
}
330
18
100
AcDbEntity
  8
1CENTER
100
AcDbLine
 10
-172.533221789885
 20
-2138.19477606586
 30
0.0
 11
-151.855470700722
 21
-2138.19477606586
 31
0.0
  0
LINE
  5
A3DD
102
{ACAD_REACTORS
330
A3F1
102
}
330
18
100
AcDbEntity
  8
1PHANTOM
100
AcDbLine
 10
-169.2156376580892
 20
-2139.044776065859
 30
0.0
 11
-154.3689723875696
 21
-2139.04477606586
 31
0.0
  0
LINE
  5
A3DE
102
{ACAD_REACTORS
330
A3F1
102
}
330
18
100
AcDbEntity
  8
1PHANTOM
100
AcDbLine
 10
-169.2156306777057
 20
-2137.344776065861
 30
0.0
 11
-154.3689905366502
 21
-2137.34477606586
 31
0.0
  0
LINE
  5
A3DF
102
{ACAD_REACTORS
330
A3F1
102
}
330
18
100
AcDbEntity
  8
1PHANTOM
100
AcDbLine
 10
-167.6156388214834
 20
-2139.54477606586
 30
0.0
 11
-168.415629514306
 21
-2136.84477606586
 31
0.0
  0
LINE
  5
A3E0
102
{ACAD_REACTORS
330
A3F1
102
}
330
18
100
AcDbEntity
  8
1PHANTOM
100
AcDbLine
 10
-152.5189690136717
 20
-2135.49477606586
 30
0.0
 11
-152.2189690136715
 21
-2135.49477606586
 31
0.0
  0
LINE
  5
A3E1
102
{ACAD_REACTORS
330
A3F1
102
}
330
18
100
AcDbEntity
  8
1PHANTOM
100
AcDbLine
 10
-152.5189853012366
 20
-2140.89477606586
 30
0.0
 11
-152.2189834397997
 21
-2140.89477606586
 31
0.0
  0
LINE
  5
A3E2
102
{ACAD_REACTORS
330
A3F1
102
}
330
18
100
AcDbEntity
  8
1PHANTOM
100
AcDbLine
 10
-161.115637658086
 20
-2139.04477606586
 30
0.0
 11
-161.2156388214829
 21
-2139.54477606586
 31
0.0
  0
LINE
  5
A3E3
102
{ACAD_REACTORS
330
A3F1
102
}
330
18
100
AcDbEntity
  8
1PHANTOM
100
AcDbLine
 10
-161.2156388214829
 20
-2139.54477606586
 30
0.0
 11
-162.0156295143054
 21
-2136.84477606586
 31
0.0
  0
LINE
  5
A3E4
102
{ACAD_REACTORS
330
A3F1
102
}
330
18
100
AcDbEntity
  8
1PHANTOM
100
AcDbLine
 10
-162.0156295143054
 20
-2136.84477606586
 30
0.0
 11
-162.1156306777032
 21
-2137.34477606586
 31
0.0
  0
LINE
  5
A3E5
102
{ACAD_REACTORS
330
A3F1
102
}
330
18
100
AcDbEntity
  8
1PHANTOM
100
AcDbLine
 10
-159.6156388214825
 20
-2139.54477606586
 30
0.0
 11
-160.4156295143051
 21
-2136.84477606586
 31
0.0
  0
LINE
  5
A3E6
102
{ACAD_REACTORS
330
A3F1
102
}
330
18
100
AcDbEntity
  8
1PHANTOM
100
AcDbLine
 10
-159.5156376580856
 20
-2139.04477606586
 30
0.0
 11
-159.6156388214825
 21
-2139.54477606586
 31
0.0
  0
LINE
  5
A3E7
102
{ACAD_REACTORS
330
A3F1
102
}
330
18
100
AcDbEntity
  8
1PHANTOM
100
AcDbLine
 10
-160.4156295143051
 20
-2136.84477606586
 30
0.0
 11
-160.5156306777029
 21
-2137.34477606586
 31
0.0
  0
LINE
  5
A3E8
102
{ACAD_REACTORS
330
A3F1
102
}
330
18
100
AcDbEntity
  8
1PHANTOM
100
AcDbLine
 10
-157.9156376580852
 20
-2139.04477606586
 30
0.0
 11
-158.0156388214821
 21
-2139.54477606586
 31
0.0
  0
LINE
  5
A3E9
102
{ACAD_REACTORS
330
A3F1
102
}
330
18
100
AcDbEntity
  8
1PHANTOM
100
AcDbLine
 10
-158.0156388214821
 20
-2139.54477606586
 30
0.0
 11
-158.8156295143047
 21
-2136.84477606586
 31
0.0
  0
LINE
  5
A3EA
102
{ACAD_REACTORS
330
A3F1
102
}
330
18
100
AcDbEntity
  8
1PHANTOM
100
AcDbLine
 10
-158.8156295143047
 20
-2136.84477606586
 30
0.0
 11
-158.9156306777025
 21
-2137.34477606586
 31
0.0
  0
LINE
  5
A3EB
102
{ACAD_REACTORS
330
A3F1
102
}
330
18
100
AcDbEntity
  8
1PHANTOM
100
AcDbLine
 10
-156.3156376580849
 20
-2139.04477606586
 30
0.0
 11
-156.4156388214818
 21
-2139.54477606586
 31
0.0
  0
LINE
  5
A3EC
102
{ACAD_REACTORS
330
A3F1
102
}
330
18
100
AcDbEntity
  8
1PHANTOM
100
AcDbLine
 10
-156.4156388214818
 20
-2139.54477606586
 30
0.0
 11
-157.2156295143043
 21
-2136.84477606586
 31
0.0
  0
LINE
  5
A3ED
102
{ACAD_REACTORS
330
A3F1
102
}
330
18
100
AcDbEntity
  8
1PHANTOM
100
AcDbLine
 10
-157.2156295143043
 20
-2136.84477606586
 30
0.0
 11
-157.3156306777021
 21
-2137.34477606586
 31
0.0
  0
LINE
  5
A3EE
102
{ACAD_REACTORS
330
A3F1
102
}
330
18
100
AcDbEntity
  8
1PHANTOM
100
AcDbLine
 10
-154.7156376580845
 20
-2139.04477606586
 30
0.0
 11
-154.8156388214814
 21
-2139.54477606586
 31
0.0
  0
LINE
  5
A3EF
102
{ACAD_REACTORS
330
A3F1
102
}
330
18
100
AcDbEntity
  8
1PHANTOM
100
AcDbLine
 10
-154.8156388214814
 20
-2139.54477606586
 30
0.0
 11
-155.615629514304
 21
-2136.84477606586
 31
0.0
  0
LINE
  5
A3F0
102
{ACAD_REACTORS
330
A3F1
102
}
330
18
100
AcDbEntity
  8
1PHANTOM
100
AcDbLine
 10
-155.615629514304
 20
-2136.84477606586
 30
0.0
 11
-155.7156306777018
 21
-2137.34477606586
 31
0.0
  0
LINE
  5
A4E6
102
{ACAD_REACTORS
330
A512
102
}
330
18
100
AcDbEntity
  8
1PHANTOM
100
AcDbLine
 10
-122.5689771574535
 20
-2171.994784209643
 30
0.0
 11
-124.5689771574535
 21
-2173.994770248922
 31
0.0
  0
LINE
  5
A4E7
102
{ACAD_REACTORS
330
A512
102
}
330
18
100
AcDbEntity
  8
1PHANTOM
100
AcDbLine
 10
-122.5689771574531
 20
-2171.994783627944
 30
0.0
 11
-129.0689765757598
 21
-2171.994768503778
 31
0.0
  0
LINE
  5
A4E8
102
{ACAD_REACTORS
330
A512
102
}
330
18
100
AcDbEntity
  8
1PHANTOM
100
AcDbLine
 10
-122.5689771574535
 20
-2171.694783627943
 30
0.0
 11
-129.0689771574535
 21
-2171.694768503776
 31
0.0
  0
LINE
  5
A4E9
102
{ACAD_REACTORS
330
A512
102
}
330
18
100
AcDbEntity
  8
1PHANTOM
100
AcDbLine
 10
-124.5689771574535
 20
-2185.578104163862
 30
0.0
 11
-124.0689771574535
 21
-2185.678105327258
 31
0.0
  0
LINE
  5
A4EA
102
{ACAD_REACTORS
330
A512
102
}
330
18
100
AcDbEntity
  8
1PHANTOM
100
AcDbLine
 10
-124.0689771574535
 20
-2180.878105327258
 30
0.0
 11
-127.5689771574535
 21
-2181.678096020081
 31
0.0
  0
LINE
  5
A4EB
102
{ACAD_REACTORS
330
A512
102
}
330
18
100
AcDbEntity
  8
1PHANTOM
100
AcDbLine
 10
-124.5689771574535
 20
-2180.778104163861
 30
0.0
 11
-124.0689771574535
 21
-2180.878105327258
 31
0.0
  0
LINE
  5
A4EC
102
{ACAD_REACTORS
330
A512
102
}
330
18
100
AcDbEntity
  8
1PHANTOM
100
AcDbLine
 10
-127.5689771574535
 20
-2181.678096020081
 30
0.0
 11
-127.0689771574535
 21
-2181.778097183479
 31
0.0
  0
LINE
  5
A4ED
102
{ACAD_REACTORS
330
A512
102
}
330
18
100
AcDbEntity
  8
1PHANTOM
100
AcDbLine
 10
-124.0689771574535
 20
-2182.478105327259
 30
0.0
 11
-127.5689771574535
 21
-2183.278096020081
 31
0.0
  0
LINE
  5
A4EE
102
{ACAD_REACTORS
330
A512
102
}
330
18
100
AcDbEntity
  8
1PHANTOM
100
AcDbLine
 10
-124.0689771574535
 20
-2184.078105327259
 30
0.0
 11
-127.5689771574535
 21
-2184.878096020082
 31
0.0
  0
LINE
  5
A4EF
102
{ACAD_REACTORS
330
A512
102
}
330
18
100
AcDbEntity
  8
1PHANTOM
100
AcDbLine
 10
-124.5689771574535
 20
-2183.978104163861
 30
0.0
 11
-124.0689771574535
 21
-2184.078105327259
 31
0.0
  0
LINE
  5
A4F0
102
{ACAD_REACTORS
330
A512
102
}
330
18
100
AcDbEntity
  8
1PHANTOM
100
AcDbLine
 10
-127.5689771574535
 20
-2184.878096020082
 30
0.0
 11
-127.0689771574535
 21
-2184.978097183478
 31
0.0
  0
LINE
  5
A4F1
102
{ACAD_REACTORS
330
A512
102
}
330
18
100
AcDbEntity
  8
1PHANTOM
100
AcDbLine
 10
-127.5689771574535
 20
-2183.278096020081
 30
0.0
 11
-127.0689771574535
 21
-2183.378097183478
 31
0.0
  0
LINE
  5
A4F2
102
{ACAD_REACTORS
330
A512
102
}
330
18
100
AcDbEntity
  8
1PHANTOM
100
AcDbLine
 10
-124.5689771574535
 20
-2182.378104163862
 30
0.0
 11
-124.0689771574535
 21
-2182.478105327259
 31
0.0
  0
LINE
  5
A4F3
102
{ACAD_REACTORS
330
A512
102
}
330
18
100
AcDbEntity
  8
1PHANTOM
100
AcDbLine
 10
-129.0689771574535
 20
-2171.994767922078
 30
0.0
 11
-127.0689771574535
 21
-2173.994791190163
 31
0.0
  0
LINE
  5
A4F4
102
{ACAD_REACTORS
330
A512
102
}
330
18
100
AcDbEntity
  8
1PHANTOM
100
AcDbLine
 10
-125.8189769928218
 20
-2191.694767340379
 30
0.0
 11
-124.5689771574535
 21
-2187.278104163861
 31
0.0
  0
LINE
  5
A4F5
102
{ACAD_REACTORS
330
A512
102
}
330
18
100
AcDbEntity
  8
1PHANTOM
100
AcDbLine
 10
-125.8189769928218
 20
-2191.694767340379
 30
0.0
 11
-127.0689771574535
 21
-2187.278097183477
 31
0.0
  0
LINE
  5
A4F6
102
{ACAD_REACTORS
330
A512
102
}
330
18
100
AcDbEntity
  8
1PHANTOM
100
AcDbLine
 10
-127.5689771574535
 20
-2186.478096020081
 30
0.0
 11
-127.0689771574535
 21
-2186.578097183478
 31
0.0
  0
LINE
  5
A4F7
102
{ACAD_REACTORS
330
A512
102
}
330
18
100
AcDbEntity
  8
1PHANTOM
100
AcDbLine
 10
-127.3425701052493
 20
-2188.078096546883
 30
0.0
 11
-126.8059763699785
 21
-2188.207367244514
 31
0.0
  0
LINE
  5
A4F8
102
{ACAD_REACTORS
330
A512
102
}
330
18
100
AcDbEntity
  8
1PHANTOM
100
AcDbLine
 10
-124.0689771574535
 20
-2187.278105327259
 30
0.0
 11
-127.3425701052493
 21
-2188.078096546883
 31
0.0
  0
LINE
  5
A4F9
102
{ACAD_REACTORS
330
A512
102
}
330
18
100
AcDbEntity
  8
1PHANTOM
100
AcDbLine
 10
-124.9898917546621
 20
-2188.765334761298
 30
0.0
 11
-124.521793299512
 21
-2188.878104273649
 31
0.0
  0
LINE
  5
A4FA
102
{ACAD_REACTORS
330
A512
102
}
330
18
100
AcDbEntity
  8
1PHANTOM
100
AcDbLine
 10
-124.5689771574535
 20
-2187.178104163861
 30
0.0
 11
-124.0689771574535
 21
-2187.278105327259
 31
0.0
  0
LINE
  5
A4FB
102
{ACAD_REACTORS
330
A512
102
}
330
18
100
AcDbEntity
  8
1PHANTOM
100
AcDbLine
 10
-126.4369418964362
 20
-2191.278098654095
 30
0.0
 11
-125.8486653213932
 21
-2191.589868510347
 31
0.0
  0
LINE
  5
A4FC
102
{ACAD_REACTORS
330
A512
102
}
330
18
100
AcDbEntity
  8
1PHANTOM
100
AcDbLine
 10
-125.4317786481916
 20
-2190.326667423603
 30
0.0
 11
-124.9746068075602
 21
-2190.478103220044
 31
0.0
  0
LINE
  5
A4FD
102
{ACAD_REACTORS
330
A512
102
}
330
18
100
AcDbEntity
  8
1PHANTOM
100
AcDbLine
 10
-126.8897560008428
 20
-2189.67809760049
 30
0.0
 11
-126.3380065370394
 21
-2189.860861743118
 31
0.0
  0
LINE
  5
A4FE
102
{ACAD_REACTORS
330
A512
102
}
330
18
100
AcDbEntity
  8
1PHANTOM
100
AcDbLine
 10
-124.9746068075602
 20
-2190.478103220044
 30
0.0
 11
-126.4369418964362
 21
-2191.278098654095
 31
0.0
  0
LINE
  5
A4FF
102
{ACAD_REACTORS
330
A512
102
}
330
18
100
AcDbEntity
  8
1PHANTOM
100
AcDbLine
 10
-124.521793299512
 20
-2188.878104273649
 30
0.0
 11
-126.8897560008428
 21
-2189.67809760049
 31
0.0
  0
LINE
  5
A500
102
{ACAD_REACTORS
330
A512
102
}
330
18
100
AcDbEntity
  8
1CENTER
100
AcDbLine
 10
-125.8189771574535
 20
-2192.009020698291
 30
0.0
 11
-125.8189771574535
 21
-2171.331269609128
 31
0.0
  0
LINE
  5
A501
102
{ACAD_REACTORS
330
A512
102
}
330
18
100
AcDbEntity
  8
1PHANTOM
100
AcDbLine
 10
-124.568977157454
 20
-2187.278104163861
 30
0.0
 11
-124.5689771574535
 21
-2173.994770248922
 31
0.0
  0
LINE
  5
A502
102
{ACAD_REACTORS
330
A512
102
}
330
18
100
AcDbEntity
  8
1PHANTOM
100
AcDbLine
 10
-127.0689771574522
 20
-2187.27809718348
 30
0.0
 11
-127.0689771574535
 21
-2173.994791190163
 31
0.0
  0
LINE
  5
A503
102
{ACAD_REACTORS
330
A512
102
}
330
18
100
AcDbEntity
  8
1PHANTOM
100
AcDbLine
 10
-124.0689771574535
 20
-2185.678105327258
 30
0.0
 11
-127.5689771574535
 21
-2186.478096020081
 31
0.0
  0
LINE
  5
A504
102
{ACAD_REACTORS
330
A512
102
}
330
18
100
AcDbEntity
  8
1PHANTOM
100
AcDbLine
 10
-129.0689771574535
 20
-2171.994767922078
 30
0.0
 11
-129.0689771574535
 21
-2171.694767922078
 31
0.0
  0
LINE
  5
A505
102
{ACAD_REACTORS
330
A512
102
}
330
18
100
AcDbEntity
  8
1PHANTOM
100
AcDbLine
 10
-122.5689771574535
 20
-2171.994784209643
 30
0.0
 11
-122.5689771574535
 21
-2171.694783627943
 31
0.0
  0
LINE
  5
A506
102
{ACAD_REACTORS
330
A512
102
}
330
18
100
AcDbEntity
  8
1PHANTOM
100
AcDbLine
 10
-124.5689771574535
 20
-2179.178104163861
 30
0.0
 11
-124.0689771574535
 21
-2179.278105327258
 31
0.0
  0
LINE
  5
A507
102
{ACAD_REACTORS
330
A512
102
}
330
18
100
AcDbEntity
  8
1PHANTOM
100
AcDbLine
 10
-124.0689771574535
 20
-2179.278105327258
 30
0.0
 11
-127.5689771574535
 21
-2180.07809602008
 31
0.0
  0
LINE
  5
A508
102
{ACAD_REACTORS
330
A512
102
}
330
18
100
AcDbEntity
  8
1PHANTOM
100
AcDbLine
 10
-127.5689771574535
 20
-2180.07809602008
 30
0.0
 11
-127.0689771574535
 21
-2180.178097183478
 31
0.0
  0
LINE
  5
A509
102
{ACAD_REACTORS
330
A512
102
}
330
18
100
AcDbEntity
  8
1PHANTOM
100
AcDbLine
 10
-124.0689771574535
 20
-2177.678105327258
 30
0.0
 11
-127.5689771574535
 21
-2178.47809602008
 31
0.0
  0
LINE
  5
A50A
102
{ACAD_REACTORS
330
A512
102
}
330
18
100
AcDbEntity
  8
1PHANTOM
100
AcDbLine
 10
-124.5689771574535
 20
-2177.578104163861
 30
0.0
 11
-124.0689771574535
 21
-2177.678105327258
 31
0.0
  0
LINE
  5
A50B
102
{ACAD_REACTORS
330
A512
102
}
330
18
100
AcDbEntity
  8
1PHANTOM
100
AcDbLine
 10
-127.5689771574535
 20
-2178.47809602008
 30
0.0
 11
-127.0689771574535
 21
-2178.578097183478
 31
0.0
  0
LINE
  5
A50C
102
{ACAD_REACTORS
330
A512
102
}
330
18
100
AcDbEntity
  8
1PHANTOM
100
AcDbLine
 10
-124.5689771574535
 20
-2175.97810416386
 30
0.0
 11
-124.0689771574535
 21
-2176.078105327257
 31
0.0
  0
LINE
  5
A50D
102
{ACAD_REACTORS
330
A512
102
}
330
18
100
AcDbEntity
  8
1PHANTOM
100
AcDbLine
 10
-124.0689771574535
 20
-2176.078105327257
 30
0.0
 11
-127.5689771574535
 21
-2176.87809602008
 31
0.0
  0
LINE
  5
A50E
102
{ACAD_REACTORS
330
A512
102
}
330
18
100
AcDbEntity
  8
1PHANTOM
100
AcDbLine
 10
-127.5689771574535
 20
-2176.87809602008
 30
0.0
 11
-127.0689771574535
 21
-2176.978097183478
 31
0.0
  0
LINE
  5
A50F
102
{ACAD_REACTORS
330
A512
102
}
330
18
100
AcDbEntity
  8
1PHANTOM
100
AcDbLine
 10
-124.5689771574535
 20
-2174.37810416386
 30
0.0
 11
-124.0689771574535
 21
-2174.478105327257
 31
0.0
  0
LINE
  5
A510
102
{ACAD_REACTORS
330
A512
102
}
330
18
100
AcDbEntity
  8
1PHANTOM
100
AcDbLine
 10
-124.0689771574535
 20
-2174.478105327257
 30
0.0
 11
-127.5689771574535
 21
-2175.278096020079
 31
0.0
  0
LINE
  5
A511
102
{ACAD_REACTORS
330
A512
102
}
330
18
100
AcDbEntity
  8
1PHANTOM
100
AcDbLine
 10
-127.5689771574535
 20
-2175.278096020079
 30
0.0
 11
-127.0689771574535
 21
-2175.378097183477
 31
0.0
  0
LINE
  5
A513
102
{ACAD_REACTORS
330
A53F
102
}
330
18
100
AcDbEntity
  8
1PHANTOM
100
AcDbLine
 10
-108.7689771574535
 20
-2171.994784209643
 30
0.0
 11
-110.7689771574535
 21
-2173.994770248922
 31
0.0
  0
LINE
  5
A514
102
{ACAD_REACTORS
330
A53F
102
}
330
18
100
AcDbEntity
  8
1PHANTOM
100
AcDbLine
 10
-108.7689771574531
 20
-2171.994783627944
 30
0.0
 11
-115.2689765757598
 21
-2171.994768503778
 31
0.0
  0
LINE
  5
A515
102
{ACAD_REACTORS
330
A53F
102
}
330
18
100
AcDbEntity
  8
1PHANTOM
100
AcDbLine
 10
-108.7689771574535
 20
-2171.694783627943
 30
0.0
 11
-115.2689771574535
 21
-2171.694768503776
 31
0.0
  0
LINE
  5
A516
102
{ACAD_REACTORS
330
A53F
102
}
330
18
100
AcDbEntity
  8
1PHANTOM
100
AcDbLine
 10
-110.7689771574535
 20
-2185.578104163862
 30
0.0
 11
-110.2689771574535
 21
-2185.678105327258
 31
0.0
  0
LINE
  5
A517
102
{ACAD_REACTORS
330
A53F
102
}
330
18
100
AcDbEntity
  8
1PHANTOM
100
AcDbLine
 10
-110.2689771574535
 20
-2180.878105327258
 30
0.0
 11
-113.7689771574535
 21
-2181.678096020081
 31
0.0
  0
LINE
  5
A518
102
{ACAD_REACTORS
330
A53F
102
}
330
18
100
AcDbEntity
  8
1PHANTOM
100
AcDbLine
 10
-110.7689771574535
 20
-2180.778104163861
 30
0.0
 11
-110.2689771574535
 21
-2180.878105327258
 31
0.0
  0
LINE
  5
A519
102
{ACAD_REACTORS
330
A53F
102
}
330
18
100
AcDbEntity
  8
1PHANTOM
100
AcDbLine
 10
-113.7689771574535
 20
-2181.678096020081
 30
0.0
 11
-113.2689771574535
 21
-2181.778097183479
 31
0.0
  0
LINE
  5
A51A
102
{ACAD_REACTORS
330
A53F
102
}
330
18
100
AcDbEntity
  8
1PHANTOM
100
AcDbLine
 10
-110.2689771574535
 20
-2182.478105327259
 30
0.0
 11
-113.7689771574535
 21
-2183.278096020081
 31
0.0
  0
LINE
  5
A51B
102
{ACAD_REACTORS
330
A53F
102
}
330
18
100
AcDbEntity
  8
1PHANTOM
100
AcDbLine
 10
-110.2689771574535
 20
-2184.078105327259
 30
0.0
 11
-113.7689771574535
 21
-2184.878096020082
 31
0.0
  0
LINE
  5
A51C
102
{ACAD_REACTORS
330
A53F
102
}
330
18
100
AcDbEntity
  8
1PHANTOM
100
AcDbLine
 10
-110.7689771574535
 20
-2183.978104163861
 30
0.0
 11
-110.2689771574535
 21
-2184.078105327259
 31
0.0
  0
LINE
  5
A51D
102
{ACAD_REACTORS
330
A53F
102
}
330
18
100
AcDbEntity
  8
1PHANTOM
100
AcDbLine
 10
-113.7689771574535
 20
-2184.878096020082
 30
0.0
 11
-113.2689771574535
 21
-2184.978097183478
 31
0.0
  0
LINE
  5
A51E
102
{ACAD_REACTORS
330
A53F
102
}
330
18
100
AcDbEntity
  8
1PHANTOM
100
AcDbLine
 10
-113.7689771574535
 20
-2183.278096020081
 30
0.0
 11
-113.2689771574535
 21
-2183.378097183478
 31
0.0
  0
LINE
  5
A51F
102
{ACAD_REACTORS
330
A53F
102
}
330
18
100
AcDbEntity
  8
1PHANTOM
100
AcDbLine
 10
-110.7689771574535
 20
-2182.378104163862
 30
0.0
 11
-110.2689771574535
 21
-2182.478105327259
 31
0.0
  0
LINE
  5
A520
102
{ACAD_REACTORS
330
A53F
102
}
330
18
100
AcDbEntity
  8
1PHANTOM
100
AcDbLine
 10
-115.2689771574535
 20
-2171.994767922078
 30
0.0
 11
-113.2689771574535
 21
-2173.994791190163
 31
0.0
  0
LINE
  5
A521
102
{ACAD_REACTORS
330
A53F
102
}
330
18
100
AcDbEntity
  8
1PHANTOM
100
AcDbLine
 10
-112.0189769928218
 20
-2191.694767340379
 30
0.0
 11
-110.7689771574535
 21
-2187.278104163861
 31
0.0
  0
LINE
  5
A522
102
{ACAD_REACTORS
330
A53F
102
}
330
18
100
AcDbEntity
  8
1PHANTOM
100
AcDbLine
 10
-112.0189769928218
 20
-2191.694767340379
 30
0.0
 11
-113.2689771574535
 21
-2187.278097183477
 31
0.0
  0
LINE
  5
A523
102
{ACAD_REACTORS
330
A53F
102
}
330
18
100
AcDbEntity
  8
1PHANTOM
100
AcDbLine
 10
-113.7689771574535
 20
-2186.478096020081
 30
0.0
 11
-113.2689771574535
 21
-2186.578097183478
 31
0.0
  0
LINE
  5
A524
102
{ACAD_REACTORS
330
A53F
102
}
330
18
100
AcDbEntity
  8
1PHANTOM
100
AcDbLine
 10
-113.5425701052493
 20
-2188.078096546883
 30
0.0
 11
-113.0059763699785
 21
-2188.207367244514
 31
0.0
  0
LINE
  5
A525
102
{ACAD_REACTORS
330
A53F
102
}
330
18
100
AcDbEntity
  8
1PHANTOM
100
AcDbLine
 10
-110.2689771574535
 20
-2187.278105327259
 30
0.0
 11
-113.5425701052493
 21
-2188.078096546883
 31
0.0
  0
LINE
  5
A526
102
{ACAD_REACTORS
330
A53F
102
}
330
18
100
AcDbEntity
  8
1PHANTOM
100
AcDbLine
 10
-111.1898917546621
 20
-2188.765334761298
 30
0.0
 11
-110.721793299512
 21
-2188.878104273649
 31
0.0
  0
LINE
  5
A527
102
{ACAD_REACTORS
330
A53F
102
}
330
18
100
AcDbEntity
  8
1PHANTOM
100
AcDbLine
 10
-110.7689771574535
 20
-2187.178104163861
 30
0.0
 11
-110.2689771574535
 21
-2187.278105327259
 31
0.0
  0
LINE
  5
A528
102
{ACAD_REACTORS
330
A53F
102
}
330
18
100
AcDbEntity
  8
1PHANTOM
100
AcDbLine
 10
-112.6369418964362
 20
-2191.278098654095
 30
0.0
 11
-112.0486653213932
 21
-2191.589868510347
 31
0.0
  0
LINE
  5
A529
102
{ACAD_REACTORS
330
A53F
102
}
330
18
100
AcDbEntity
  8
1PHANTOM
100
AcDbLine
 10
-111.6317786481916
 20
-2190.326667423603
 30
0.0
 11
-111.1746068075602
 21
-2190.478103220044
 31
0.0
  0
LINE
  5
A52A
102
{ACAD_REACTORS
330
A53F
102
}
330
18
100
AcDbEntity
  8
1PHANTOM
100
AcDbLine
 10
-113.0897560008428
 20
-2189.67809760049
 30
0.0
 11
-112.5380065370394
 21
-2189.860861743118
 31
0.0
  0
LINE
  5
A52B
102
{ACAD_REACTORS
330
A53F
102
}
330
18
100
AcDbEntity
  8
1PHANTOM
100
AcDbLine
 10
-111.1746068075602
 20
-2190.478103220044
 30
0.0
 11
-112.6369418964362
 21
-2191.278098654095
 31
0.0
  0
LINE
  5
A52C
102
{ACAD_REACTORS
330
A53F
102
}
330
18
100
AcDbEntity
  8
1PHANTOM
100
AcDbLine
 10
-110.721793299512
 20
-2188.878104273649
 30
0.0
 11
-113.0897560008428
 21
-2189.67809760049
 31
0.0
  0
LINE
  5
A52D
102
{ACAD_REACTORS
330
A53F
102
}
330
18
100
AcDbEntity
  8
1CENTER
100
AcDbLine
 10
-112.0189771574535
 20
-2192.009020698291
 30
0.0
 11
-112.0189771574535
 21
-2171.331269609128
 31
0.0
  0
LINE
  5
A52E
102
{ACAD_REACTORS
330
A53F
102
}
330
18
100
AcDbEntity
  8
1PHANTOM
100
AcDbLine
 10
-110.768977157454
 20
-2187.278104163861
 30
0.0
 11
-110.7689771574535
 21
-2173.994770248922
 31
0.0
  0
LINE
  5
A52F
102
{ACAD_REACTORS
330
A53F
102
}
330
18
100
AcDbEntity
  8
1PHANTOM
100
AcDbLine
 10
-113.2689771574522
 20
-2187.27809718348
 30
0.0
 11
-113.2689771574535
 21
-2173.994791190163
 31
0.0
  0
LINE
  5
A530
102
{ACAD_REACTORS
330
A53F
102
}
330
18
100
AcDbEntity
  8
1PHANTOM
100
AcDbLine
 10
-110.2689771574535
 20
-2185.678105327258
 30
0.0
 11
-113.7689771574535
 21
-2186.478096020081
 31
0.0
  0
LINE
  5
A531
102
{ACAD_REACTORS
330
A53F
102
}
330
18
100
AcDbEntity
  8
1PHANTOM
100
AcDbLine
 10
-115.2689771574535
 20
-2171.994767922078
 30
0.0
 11
-115.2689771574535
 21
-2171.694767922078
 31
0.0
  0
LINE
  5
A532
102
{ACAD_REACTORS
330
A53F
102
}
330
18
100
AcDbEntity
  8
1PHANTOM
100
AcDbLine
 10
-108.7689771574535
 20
-2171.994784209643
 30
0.0
 11
-108.7689771574535
 21
-2171.694783627943
 31
0.0
  0
LINE
  5
A533
102
{ACAD_REACTORS
330
A53F
102
}
330
18
100
AcDbEntity
  8
1PHANTOM
100
AcDbLine
 10
-110.7689771574535
 20
-2179.178104163861
 30
0.0
 11
-110.2689771574535
 21
-2179.278105327258
 31
0.0
  0
LINE
  5
A534
102
{ACAD_REACTORS
330
A53F
102
}
330
18
100
AcDbEntity
  8
1PHANTOM
100
AcDbLine
 10
-110.2689771574535
 20
-2179.278105327258
 30
0.0
 11
-113.7689771574535
 21
-2180.07809602008
 31
0.0
  0
LINE
  5
A535
102
{ACAD_REACTORS
330
A53F
102
}
330
18
100
AcDbEntity
  8
1PHANTOM
100
AcDbLine
 10
-113.7689771574535
 20
-2180.07809602008
 30
0.0
 11
-113.2689771574535
 21
-2180.178097183478
 31
0.0
  0
LINE
  5
A536
102
{ACAD_REACTORS
330
A53F
102
}
330
18
100
AcDbEntity
  8
1PHANTOM
100
AcDbLine
 10
-110.2689771574535
 20
-2177.678105327258
 30
0.0
 11
-113.7689771574535
 21
-2178.47809602008
 31
0.0
  0
LINE
  5
A537
102
{ACAD_REACTORS
330
A53F
102
}
330
18
100
AcDbEntity
  8
1PHANTOM
100
AcDbLine
 10
-110.7689771574535
 20
-2177.578104163861
 30
0.0
 11
-110.2689771574535
 21
-2177.678105327258
 31
0.0
  0
LINE
  5
A538
102
{ACAD_REACTORS
330
A53F
102
}
330
18
100
AcDbEntity
  8
1PHANTOM
100
AcDbLine
 10
-113.7689771574535
 20
-2178.47809602008
 30
0.0
 11
-113.2689771574535
 21
-2178.578097183478
 31
0.0
  0
LINE
  5
A539
102
{ACAD_REACTORS
330
A53F
102
}
330
18
100
AcDbEntity
  8
1PHANTOM
100
AcDbLine
 10
-110.7689771574535
 20
-2175.97810416386
 30
0.0
 11
-110.2689771574535
 21
-2176.078105327257
 31
0.0
  0
LINE
  5
A53A
102
{ACAD_REACTORS
330
A53F
102
}
330
18
100
AcDbEntity
  8
1PHANTOM
100
AcDbLine
 10
-110.2689771574535
 20
-2176.078105327257
 30
0.0
 11
-113.7689771574535
 21
-2176.87809602008
 31
0.0
  0
LINE
  5
A53B
102
{ACAD_REACTORS
330
A53F
102
}
330
18
100
AcDbEntity
  8
1PHANTOM
100
AcDbLine
 10
-113.7689771574535
 20
-2176.87809602008
 30
0.0
 11
-113.2689771574535
 21
-2176.978097183478
 31
0.0
  0
LINE
  5
A53C
102
{ACAD_REACTORS
330
A53F
102
}
330
18
100
AcDbEntity
  8
1PHANTOM
100
AcDbLine
 10
-110.7689771574535
 20
-2174.37810416386
 30
0.0
 11
-110.2689771574535
 21
-2174.478105327257
 31
0.0
  0
LINE
  5
A53D
102
{ACAD_REACTORS
330
A53F
102
}
330
18
100
AcDbEntity
  8
1PHANTOM
100
AcDbLine
 10
-110.2689771574535
 20
-2174.478105327257
 30
0.0
 11
-113.7689771574535
 21
-2175.278096020079
 31
0.0
  0
LINE
  5
A53E
102
{ACAD_REACTORS
330
A53F
102
}
330
18
100
AcDbEntity
  8
1PHANTOM
100
AcDbLine
 10
-113.7689771574535
 20
-2175.278096020079
 30
0.0
 11
-113.2689771574535
 21
-2175.378097183477
 31
0.0
  0
LINE
  5
A746
330
18
100
AcDbEntity
  8
01
100
AcDbLine
 10
-106.0080538626586
 20
-2091.430700393827
 30
0.0
 11
-131.7507758887872
 21
-2091.430700393827
 31
0.0
  0
LINE
  5
A747
330
18
100
AcDbEntity
  8
01
100
AcDbLine
 10
-106.0080538626586
 20
-2087.930700393827
 30
0.0
 11
-112.3794148757231
 21
-2087.930700393827
 31
0.0
  0
LINE
  5
A748
330
18
100
AcDbEntity
  8
01
100
AcDbLine
 10
-123.8794148757231
 20
-2086.430700393827
 30
0.0
 11
-123.879414875723
 21
-2080.430700393827
 31
0.0
  0
LINE
  5
A749
330
18
100
AcDbEntity
  8
01
100
AcDbLine
 10
-113.8794148757231
 20
-2086.430700393827
 30
0.0
 11
-113.879414875723
 21
-2080.430700393827
 31
0.0
  0
LINE
  5
A74A
330
18
100
AcDbEntity
  8
01
100
AcDbLine
 10
-131.7507758887872
 20
-2079.930700393827
 30
0.0
 11
-106.0080538626586
 21
-2079.930700393827
 31
0.0
  0
LINE
  5
A74B
330
18
100
AcDbEntity
  8
01
100
AcDbLine
 10
-111.379414875723
 20
-2087.930700393827
 30
0.0
 11
-112.3794148757232
 21
-2087.930700393827
 31
0.0
  0
LINE
  5
A74C
330
18
100
AcDbEntity
  8
01
100
AcDbLine
 10
-126.3794148757232
 20
-2087.930700393827
 30
0.0
 11
-125.3794148757232
 21
-2087.930700393827
 31
0.0
  0
LINE
  5
A74D
330
18
100
AcDbEntity
  8
01
100
AcDbLine
 10
-105.879414875723
 20
-2042.978889229933
 30
0.0
 11
-131.8794148757237
 21
-2042.978889229933
 31
0.0
  0
LINE
  5
A74E
330
18
100
AcDbEntity
  8
01
100
AcDbLine
 10
-106.0234528501839
 20
-2045.978889229933
 30
0.0
 11
-131.7353769012627
 21
-2045.978889229933
 31
0.0
  0
LINE
  5
A74F
330
18
100
AcDbEntity
  8
01
100
AcDbLine
 10
-113.8794148757232
 20
-2056.978889229933
 30
0.0
 11
-113.8794148757232
 21
-2058.167415074414
 31
0.0
  0
LINE
  5
A750
330
18
100
AcDbEntity
  8
01
100
AcDbLine
 10
-123.8794148757232
 20
-2056.978889229933
 30
0.0
 11
-123.8794148757232
 21
-2058.167415074414
 31
0.0
  0
LINE
  5
A751
330
18
100
AcDbEntity
  8
01
100
AcDbLine
 10
-132.2507758887872
 20
-2090.930700393827
 30
0.0
 11
-132.2507758887872
 21
-2080.430700393827
 31
0.0
  0
LINE
  5
A752
330
18
100
AcDbEntity
  8
01
100
AcDbLine
 10
-105.5080538626586
 20
-2090.930700393827
 30
0.0
 11
-105.5080538626586
 21
-2080.430700393827
 31
0.0
  0
ARC
  5
A753
330
18
100
AcDbEntity
  8
01
100
AcDbCircle
 10
-118.8794148757233
 20
-2046.108313352945
 30
0.0
 40
13.37136101306429
100
AcDbArc
 50
166.4649997594663
 51
13.53500024053356
  0
LINE
  5
A754
330
18
100
AcDbEntity
  8
01
100
AcDbLine
 10
-122.3794148757232
 20
-2055.478889229933
 30
0.0
 11
-115.3794148757232
 21
-2055.478889229933
 31
0.0
  0
ARC
  5
A755
330
18
100
AcDbEntity
  8
01
100
AcDbCircle
 10
-131.7507758887872
 20
-2080.430700393827
 30
0.0
 40
0.5
100
AcDbArc
 50
89.99999999999837
 51
180.0
  0
ARC
  5
A756
330
18
100
AcDbEntity
  8
01
100
AcDbCircle
 10
-106.0080538626586
 20
-2080.430700393827
 30
0.0
 40
0.5
100
AcDbArc
 50
0.0
 51
89.99999999999837
  0
ARC
  5
A757
330
18
100
AcDbEntity
  8
01
100
AcDbCircle
 10
-106.0080538626586
 20
-2090.930700393827
 30
0.0
 40
0.5
100
AcDbArc
 50
270.0
 51
0.0
  0
ARC
  5
A758
330
18
100
AcDbEntity
  8
01
100
AcDbCircle
 10
-131.7507758887872
 20
-2090.930700393827
 30
0.0
 40
0.5
100
AcDbArc
 50
180.0
 51
270.0
  0
ARC
  5
A759
330
18
100
AcDbEntity
  8
01
100
AcDbCircle
 10
-106.0234528501839
 20
-2045.478889229933
 30
0.0
 40
0.5
100
AcDbArc
 50
270.0
 51
2.802946354748924
  0
ARC
  5
A75A
330
18
100
AcDbEntity
  8
01
100
AcDbCircle
 10
-131.7353769012627
 20
-2045.478889229933
 30
0.0
 40
0.5
100
AcDbArc
 50
177.1970536452511
 51
269.9999999999984
  0
ARC
  5
A75B
330
18
100
AcDbEntity
  8
01
100
AcDbCircle
 10
-114.3794148757232
 20
-2058.167415074414
 30
0.0
 40
0.5
100
AcDbArc
 50
290.4636693999927
 51
0.0
  0
ARC
  5
A75C
330
18
100
AcDbEntity
  8
01
100
AcDbCircle
 10
-123.3794148757232
 20
-2058.167415074414
 30
0.0
 40
0.5
100
AcDbArc
 50
180.0
 51
249.5363306000042
  0
LINE
  5
A75D
330
18
100
AcDbEntity
  8
01
100
AcDbLine
 10
-125.379414875723
 20
-2087.930700393827
 30
0.0
 11
-131.7507758887872
 21
-2087.930700393827
 31
0.0
  0
LINE
  5
A75E
330
18
100
AcDbEntity
  8
01
100
AcDbLine
 10
-76.32720508094626
 20
-2087.930700393827
 30
0.0
 11
-66.79720508094626
 21
-2087.930700393827
 31
0.0
  0
LINE
  5
A75F
330
18
100
AcDbEntity
  8
01
100
AcDbLine
 10
-78.29720508094623
 20
-2091.430700393827
 30
0.0
 11
-62.29720508094623
 21
-2091.430700393827
 31
0.0
  0
LINE
  5
A760
330
18
100
AcDbEntity
  8
01
100
AcDbLine
 10
-62.29720508094626
 20
-2091.430700393827
 30
0.0
 11
-62.29720508094626
 21
-2079.930700393827
 31
0.0
  0
LINE
  5
A761
330
18
100
AcDbEntity
  8
01
100
AcDbLine
 10
-64.79720508094626
 20
-2079.930700393827
 30
0.0
 11
-62.29720508094626
 21
-2079.930700393827
 31
0.0
  0
LINE
  5
A762
330
18
100
AcDbEntity
  8
01
100
AcDbLine
 10
-65.29720508094626
 20
-2086.430700393827
 30
0.0
 11
-65.29720508094626
 21
-2080.430700393827
 31
0.0
  0
ARC
  5
A763
330
18
100
AcDbEntity
  8
01
100
AcDbCircle
 10
-64.79720508094626
 20
-2080.430700393827
 30
0.0
 40
0.5
100
AcDbArc
 50
90.0
 51
180.0
  0
LINE
  5
A764
330
18
100
AcDbEntity
  8
01
100
AcDbLine
 10
-78.79720508094626
 20
-2090.930700393827
 30
0.0
 11
-78.79720508094623
 21
-2080.430700393827
 31
0.0
  0
ARC
  5
A765
330
18
100
AcDbEntity
  8
01
100
AcDbCircle
 10
-78.29720508094623
 20
-2090.930700393827
 30
0.0
 40
0.5
100
AcDbArc
 50
180.0
 51
269.9999999999984
  0
ARC
  5
A766
330
18
100
AcDbEntity
  8
01
100
AcDbCircle
 10
-78.29720508094623
 20
-2080.430700393827
 30
0.0
 40
0.5
100
AcDbArc
 50
90.0
 51
180.0
  0
LINE
  5
A767
330
18
100
AcDbEntity
  8
01
100
AcDbLine
 10
-77.82720508094626
 20
-2086.430700393827
 30
0.0
 11
-77.82720508094626
 21
-2080.430700393827
 31
0.0
  0
ARC
  5
A768
330
18
100
AcDbEntity
  8
01
100
AcDbCircle
 10
-77.32720508094626
 20
-2080.430700393827
 30
0.0
 40
0.5
100
AcDbArc
 50
90.00000000000486
 51
180.0
  0
LINE
  5
A769
330
18
100
AcDbEntity
  8
01
100
AcDbLine
 10
-74.79720508094626
 20
-2080.430700393827
 30
0.0
 11
-74.79720508094626
 21
-2086.430700393827
 31
0.0
  0
ARC
  5
A76A
330
18
100
AcDbEntity
  8
01
100
AcDbCircle
 10
-75.29720508094626
 20
-2080.430700393827
 30
0.0
 40
0.5
100
AcDbArc
 50
0.0
 51
90.0
  0
LINE
  5
A76B
330
18
100
AcDbEntity
  8
01
100
AcDbLine
 10
-78.29720508094623
 20
-2079.930700393827
 30
0.0
 11
-75.29720508094626
 21
-2079.930700393827
 31
0.0
  0
ARC
  5
A76D
330
18
100
AcDbEntity
  8
01
100
AcDbCircle
 10
-123.379414875723
 20
-2080.430700393827
 30
0.0
 40
0.5
100
AcDbArc
 50
89.99999999999837
 51
180.0
  0
ARC
  5
A76E
330
18
100
AcDbEntity
  8
01
100
AcDbCircle
 10
-114.379414875723
 20
-2080.430700393827
 30
0.0
 40
0.5
100
AcDbArc
 50
0.0
 51
89.99999999999837
  0
ARC
  5
A76F
330
18
100
AcDbEntity
  8
01
100
AcDbCircle
 10
-131.7507758887872
 20
-2088.430700393827
 30
0.0
 40
0.5
100
AcDbArc
 50
90.00000000000159
 51
180.0
  0
ARC
  5
A770
330
18
100
AcDbEntity
  8
01
100
AcDbCircle
 10
-106.0080538626586
 20
-2088.430700393827
 30
0.0
 40
0.5
100
AcDbArc
 50
0.0
 51
90.0
  0
ARC
  5
A7BD
330
18
100
AcDbEntity
  8
01
100
AcDbCircle
 10
-73.29720508094626
 20
-2086.430700393827
 30
0.0
 40
1.5
100
AcDbArc
 50
180.0
 51
270.0
  0
ARC
  5
A7EF
330
18
100
AcDbEntity
  8
01
100
AcDbCircle
 10
-125.3794148757231
 20
-2086.430700393827
 30
0.0
 40
1.5
100
AcDbArc
 50
270.0000000000032
 51
0.0
  0
ARC
  5
A7F0
330
18
100
AcDbEntity
  8
01
100
AcDbCircle
 10
-112.3794148757231
 20
-2086.430700393827
 30
0.0
 40
1.5
100
AcDbArc
 50
180.0
 51
269.9999999999935
  0
CIRCLE
  5
A7F6
330
18
100
AcDbEntity
  8
01
100
AcDbCircle
 10
-128.3794148757231
 20
-2083.430700393827
 30
0.0
 40
2.8
  0
CIRCLE
  5
A7F7
330
18
100
AcDbEntity
  8
01
100
AcDbCircle
 10
-128.3794148757231
 20
-2083.430700393827
 30
0.0
 40
1.4
  0
ARC
  5
A7F8
330
18
100
AcDbEntity
  8
01
100
AcDbCircle
 10
-66.79720508094626
 20
-2086.430700393827
 30
0.0
 40
1.5
100
AcDbArc
 50
270.0
 51
0.0
  0
CIRCLE
  5
A7FB
330
18
100
AcDbEntity
  8
01
100
AcDbCircle
 10
-109.3794148757232
 20
-2083.430700393827
 30
0.0
 40
1.4
  0
CIRCLE
  5
A7FC
330
18
100
AcDbEntity
  8
01
100
AcDbCircle
 10
-109.3794148757232
 20
-2083.430700393827
 30
0.0
 40
2.8
  0
ARC
  5
A7FF
330
18
100
AcDbEntity
  8
01
100
AcDbCircle
 10
-122.3794148757232
 20
-2056.978889229933
 30
0.0
 40
1.5
100
AcDbArc
 50
90.0
 51
180.0
  0
ARC
  5
A800
330
18
100
AcDbEntity
  8
01
100
AcDbCircle
 10
-115.3794148757232
 20
-2056.978889229933
 30
0.0
 40
1.5
100
AcDbArc
 50
0.0
 51
90.0
  0
ARC
  5
A813
330
18
100
AcDbEntity
  8
01
100
AcDbCircle
 10
-76.32720508094626
 20
-2086.430700393827
 30
0.0
 40
1.5
100
AcDbArc
 50
180.0
 51
270.0
  0
LINE
  5
AA46
330
18
100
AcDbEntity
  8
1CENTER
100
AcDbLine
 10
-128.3794148757231
 20
-2086.430700393827
 30
0.0
 11
-128.3794148757231
 21
-2080.430700393827
 31
0.0
  0
LINE
  5
AA47
330
18
100
AcDbEntity
  8
1CENTER
100
AcDbLine
 10
-131.3794148757231
 20
-2083.430700393827
 30
0.0
 11
-125.379414875723
 21
-2083.430700393827
 31
0.0
  0
LINE
  5
AA48
330
18
100
AcDbEntity
  8
1CENTER
100
AcDbLine
 10
-109.3794148757232
 20
-2086.430700393827
 30
0.0
 11
-109.3794148757232
 21
-2080.430700393827
 31
0.0
  0
LINE
  5
AA49
330
18
100
AcDbEntity
  8
1CENTER
100
AcDbLine
 10
-112.3794148757232
 20
-2083.430700393827
 30
0.0
 11
-106.3794148757232
 21
-2083.430700393827
 31
0.0
  0
ARC
  5
AB8F
330
18
100
AcDbEntity
  8
01
100
AcDbCircle
 10
-219.2194127802309
 20
-2234.739614747916
 30
0.0
 40
95.07366688406604
100
AcDbArc
 50
90.0
 51
100.6067875367085
  0
ARC
  5
AB90
330
18
100
AcDbEntity
  8
01
100
AcDbCircle
 10
-219.2194127802309
 20
-2234.739614747916
 30
0.0
 40
95.07366688406604
100
AcDbArc
 50
79.39321246329148
 51
90.0
  0
LINE
  5
AB91
330
18
100
AcDbEntity
  8
01
100
AcDbLine
 10
-195.2431785941671
 20
-2144.603575078741
 30
0.0
 11
-195.2189771574533
 21
-2147.41248794959
 31
0.0
  0
LINE
  5
AB92
330
18
100
AcDbEntity
  8
01
100
AcDbLine
 10
-195.2189771574533
 20
-2147.41248794959
 30
0.0
 11
-195.2619122311028
 21
-2147.869056166794
 31
0.0
  0
LINE
  5
AB93
330
18
100
AcDbEntity
  8
01
100
AcDbLine
 10
-195.2619122311028
 20
-2147.869056166794
 30
0.0
 11
-195.3257837224958
 21
-2148.105668771905
 31
0.0
  0
LINE
  5
AB94
330
18
100
AcDbEntity
  8
01
100
AcDbLine
 10
-195.3257837224958
 20
-2148.105668771905
 30
0.0
 11
-195.4203795110266
 21
-2148.332376049354
 31
0.0
  0
LINE
  5
AB95
330
18
100
AcDbEntity
  8
01
100
AcDbLine
 10
-195.4203795110266
 20
-2148.332376049354
 30
0.0
 11
-195.5427750360295
 21
-2148.545659191467
 31
0.0
  0
LINE
  5
AB96
330
18
100
AcDbEntity
  8
01
100
AcDbLine
 10
-195.5427750360295
 20
-2148.545659191467
 30
0.0
 11
-195.6900457368392
 21
-2148.741999390568
 31
0.0
  0
LINE
  5
AB97
330
18
100
AcDbEntity
  8
01
100
AcDbLine
 10
-195.6900457368392
 20
-2148.741999390568
 30
0.0
 11
-195.8849245270644
 21
-2148.94244462198
 31
0.0
  0
LINE
  5
AB98
330
18
100
AcDbEntity
  8
01
100
AcDbLine
 10
-195.8849245270644
 20
-2148.94244462198
 30
0.0
 11
-196.1029879613639
 21
-2149.118529953381
 31
0.0
  0
LINE
  5
AB99
330
18
100
AcDbEntity
  8
01
100
AcDbLine
 10
-196.1029879613639
 20
-2149.118529953381
 30
0.0
 11
-196.5866713072639
 21
-2149.407135041569
 31
0.0
  0
LINE
  5
AB9A
330
18
100
AcDbEntity
  8
01
100
AcDbLine
 10
-196.5866713072639
 20
-2149.407135041569
 30
0.0
 11
-197.2986052361089
 21
-2149.692508588018
 31
0.0
  0
LINE
  5
AB9B
330
18
100
AcDbEntity
  8
01
100
AcDbLine
 10
-197.2986052361089
 20
-2149.692508588018
 30
0.0
 11
-198.041003989538
 21
-2149.887551119225
 31
0.0
  0
LINE
  5
AB9C
330
18
100
AcDbEntity
  8
01
100
AcDbLine
 10
-198.041003989538
 20
-2149.887551119225
 30
0.0
 11
-200.0022877363394
 21
-2150.154153320184
 31
0.0
  0
LINE
  5
AB9D
330
18
100
AcDbEntity
  8
01
100
AcDbLine
 10
-200.0022877363394
 20
-2150.154153320184
 30
0.0
 11
-201.7194127802306
 21
-2150.162642217892
 31
0.0
  0
LINE
  5
AB9E
330
18
100
AcDbEntity
  8
01
100
AcDbLine
 10
-198.2194333108116
 20
-2146.444671603424
 30
0.0
 11
-198.2195539234115
 21
-2145.896738721298
 31
0.0
  0
ARC
  5
AB9F
330
18
100
AcDbEntity
  8
01
100
AcDbCircle
 10
-198.719433298698
 20
-2146.444781664894
 30
0.0
 40
0.5
100
AcDbArc
 50
282.7514022442805
 51
0.0126121155407262
  0
LINE
  5
ABA0
330
18
100
AcDbEntity
  8
01
100
AcDbLine
 10
-201.7194127802309
 20
-2147.064575181441
 30
0.0
 11
-198.9475685311861
 21
-2147.009052631796
 31
0.0
  0
LINE
  5
ABA1
330
18
100
AcDbEntity
  8
01
100
AcDbLine
 10
-198.9475685311861
 20
-2147.009052631796
 30
0.0
 11
-198.6090726460639
 21
-2146.932450124352
 31
0.0
  0
LINE
  5
ABA2
330
18
100
AcDbEntity
  8
01
100
AcDbLine
 10
-198.9120647474999
 20
-2144.944997672375
 30
0.0
 11
-201.2518445406101
 21
-2144.359135145703
 31
0.0
  0
LINE
  5
ABA3
330
18
100
AcDbEntity
  8
01
100
AcDbLine
 10
-201.2518445406101
 20
-2144.359135145703
 30
0.0
 11
-201.7194127802311
 21
-2144.278821754487
 31
0.0
  0
ARC
  5
ABA4
330
18
100
AcDbEntity
  8
01
100
AcDbCircle
 10
-199.219392385934
 20
-2145.914712281343
 30
0.0
 40
1.0
100
AcDbArc
 50
359.9930963021217
 51
72.10174484756814
  0
LINE
  5
ABA5
330
18
100
AcDbEntity
  8
01
100
AcDbLine
 10
-195.2431785941671
 20
-2144.603575078737
 30
0.0
 11
-195.2583379783591
 21
-2144.443287128433
 31
0.0
  0
LINE
  5
ABA6
330
18
100
AcDbEntity
  8
01
100
AcDbLine
 10
-195.2583379783591
 20
-2144.443287128433
 30
0.0
 11
-195.3068581084299
 21
-2144.24451079565
 31
0.0
  0
LINE
  5
ABA7
330
18
100
AcDbEntity
  8
01
100
AcDbLine
 10
-195.3068581084299
 20
-2144.24451079565
 30
0.0
 11
-195.375776214735
 21
-2144.05131651391
 31
0.0
  0
LINE
  5
ABA8
330
18
100
AcDbEntity
  8
01
100
AcDbLine
 10
-195.375776214735
 20
-2144.05131651391
 30
0.0
 11
-195.4630026738387
 21
-2143.865221058955
 31
0.0
  0
LINE
  5
ABA9
330
18
100
AcDbEntity
  8
01
100
AcDbLine
 10
-195.4630026738387
 20
-2143.865221058955
 30
0.0
 11
-195.5664478623062
 21
-2143.687741206532
 31
0.0
  0
LINE
  5
ABAA
330
18
100
AcDbEntity
  8
01
100
AcDbLine
 10
-195.5664478623062
 20
-2143.687741206532
 30
0.0
 11
-195.8465826954002
 21
-2143.327077705072
 31
0.0
  0
LINE
  5
ABAB
330
18
100
AcDbEntity
  8
01
100
AcDbLine
 10
-195.8465826954002
 20
-2143.327077705072
 30
0.0
 11
-196.1807212123965
 21
-2143.015520458353
 31
0.0
  0
LINE
  5
ABAC
330
18
100
AcDbEntity
  8
01
100
AcDbLine
 10
-196.1807212123965
 20
-2143.015520458353
 30
0.0
 11
-196.6340462646956
 21
-2142.701086892556
 31
0.0
  0
LINE
  5
ABAD
330
18
100
AcDbEntity
  8
01
100
AcDbLine
 10
-196.6340462646956
 20
-2142.701086892556
 30
0.0
 11
-197.1232024680078
 21
-2142.442733029789
 31
0.0
  0
LINE
  5
ABAE
330
18
100
AcDbEntity
  8
01
100
AcDbLine
 10
-197.1232024680064
 20
-2142.44273302979
 30
0.0
 11
-198.4038923428723
 21
-2141.972614992053
 31
0.0
  0
ARC
  5
ABAF
330
18
100
AcDbEntity
  8
01
100
AcDbCircle
 10
-219.2194127802306
 20
-2234.739614747916
 30
0.0
 40
95.07366688406604
100
AcDbArc
 50
77.35316156329975
 51
79.39321246329165
  0
ARC
  5
ABB0
330
18
100
AcDbEntity
  8
01
100
AcDbCircle
 10
-218.8775641363283
 20
-2242.120736792514
 30
0.0
 40
99.45537643255172
100
AcDbArc
 50
90.19693780062684
 51
100.334552351567
  0
ARC
  5
ABB1
330
18
100
AcDbEntity
  8
01
100
AcDbCircle
 10
-219.5612614241314
 20
-2242.12073679247
 30
0.0
 40
99.45537643250759
100
AcDbArc
 50
79.66544764842926
 51
89.80306219937424
  0
LINE
  5
AC2A
330
18
100
AcDbEntity
  8
01
100
AcDbLine
 10
-155.2189771574538
 20
-2164.69477606586
 30
0.0
 11
-155.2189771574538
 21
-2116.697320250151
 31
0.0
  0
LINE
  5
AC2B
330
18
100
AcDbEntity
  8
01
100
AcDbLine
 10
-166.0549188408935
 20
-2164.69477606586
 30
0.0
 11
-155.2189771574538
 21
-2164.69477606586
 31
0.0
  0
TEXT
  5
ADDD
330
18
100
AcDbEntity
  8
1TEXT
100
AcDbText
 10
-274.2155816826733
 20
-2036.831774785395
 30
0.0
 40
4.0
  1
ダークアンバー
 72
     1
 11
-258.0155816826733
 21
-2036.831774785395
 31
0.0
100
AcDbText
  0
TEXT
  5
ADDF
330
18
100
AcDbEntity
  8
1TEXT
100
AcDbText
 10
-274.5489150160067
 20
-2029.831774785395
 30
0.0
 40
4.0
  1
サテンニッケル
 72
     1
 11
-258.0155816826733
 21
-2029.831774785395
 31
0.0
100
AcDbText
  0
LINE
  5
AEC5
330
18
100
AcDbEntity
  8
01
100
AcDbLine
 10
-80.14358224903256
 20
-2186.69477606586
 30
0.0
 11
-149.6533651294939
 21
-2186.69477606586
 31
0.0
  0
LINE
  5
B68D
102
{ACAD_REACTORS
330
B6BE
102
}
330
18
100
AcDbEntity
  8
1PHANTOM
100
AcDbLine
 10
-134.4189771574535
 20
-2171.69477606586
 30
0.0
 11
-108.0189771574535
 21
-2171.69477606586
 31
0.0
  0
LINE
  5
B68E
102
{ACAD_REACTORS
330
B6BE
102
}
330
18
100
AcDbEntity
  8
1PHANTOM
100
AcDbLine
 10
-134.4189771574535
 20
-2171.69477606586
 30
0.0
 11
-134.4189771574535
 21
-2174.69477606586
 31
0.0
  0
LINE
  5
B68F
102
{ACAD_REACTORS
330
B6BE
102
}
330
18
100
AcDbEntity
  8
1PHANTOM
100
AcDbLine
 10
-128.2189771574535
 20
-2171.69477606586
 30
0.0
 11
-128.2189771574535
 21
-2154.19477606586
 31
0.0
  0
LINE
  5
B690
102
{ACAD_REACTORS
330
B6BE
102
}
330
18
100
AcDbEntity
  8
1PHANTOM
100
AcDbLine
 10
-114.2189771574535
 20
-2171.69477606586
 30
0.0
 11
-114.2189771574535
 21
-2148.19477606586
 31
0.0
  0
LINE
  5
B691
102
{ACAD_REACTORS
330
B6BE
102
}
330
18
100
AcDbEntity
  8
1PHANTOM
100
AcDbLine
 10
-108.0189771574535
 20
-2171.69477606586
 30
0.0
 11
-108.0189771574535
 21
-2174.69477606586
 31
0.0
  0
LINE
  5
B692
102
{ACAD_REACTORS
330
B6BE
102
}
330
18
100
AcDbEntity
  8
1PHANTOM
100
AcDbLine
 10
-114.7189771574535
 20
-2147.69477606586
 30
0.0
 11
-127.7189771574535
 21
-2147.69477606586
 31
0.0
  0
LINE
  5
B693
102
{ACAD_REACTORS
330
B6BE
102
}
330
18
100
AcDbEntity
  8
1PHANTOM
100
AcDbLine
 10
-128.2189771574535
 20
-2148.19477606586
 30
0.0
 11
-126.3654237668602
 21
-2150.048329456453
 31
0.0
  0
LINE
  5
B695
102
{ACAD_REACTORS
330
B6BE
102
}
330
18
100
AcDbEntity
  8
1PHANTOM
100
AcDbLine
 10
-128.2189771574535
 20
-2148.19477606586
 30
0.0
 11
-128.2189771574535
 21
-2148.19477606586
 31
0.0
  0
LINE
  5
B696
102
{ACAD_REACTORS
330
B6BE
102
}
330
18
100
AcDbEntity
  8
1PHANTOM
100
AcDbLine
 10
-134.4189771574535
 20
-2174.69477606586
 30
0.0
 11
-108.0189771574535
 21
-2174.69477606586
 31
0.0
  0
ARC
  5
B697
102
{ACAD_REACTORS
330
B6BE
102
}
330
18
100
AcDbEntity
  8
1PHANTOM
100
AcDbCircle
 10
-127.7189771574535
 20
-2148.19477606586
 30
0.0
 40
0.5
100
AcDbArc
 50
90.0
 51
180.0
  0
ARC
  5
B698
102
{ACAD_REACTORS
330
B6BE
102
}
330
18
100
AcDbEntity
  8
1PHANTOM
100
AcDbCircle
 10
-114.7189771574535
 20
-2148.19477606586
 30
0.0
 40
0.5
100
AcDbArc
 50
0.0
 51
90.0
  0
ARC
  5
B69A
102
{ACAD_REACTORS
330
B6BE
102
}
330
18
100
AcDbEntity
  8
1PHANTOM
100
AcDbCircle
 10
-126.7189771574535
 20
-2150.401882847046
 30
0.0
 40
0.5
100
AcDbArc
 50
0.0
 51
44.99999999999367
  0
ARC
  5
B69B
102
{ACAD_REACTORS
330
B6BE
102
}
330
18
100
AcDbEntity
  8
1PHANTOM
100
AcDbCircle
 10
-126.7189771574535
 20
-2151.987669284673
 30
0.0
 40
0.5
100
AcDbArc
 50
314.9999999999926
 51
0.0
  0
LINE
  5
B69F
102
{ACAD_REACTORS
330
B6BE
102
}
330
18
100
AcDbEntity
  8
1PHANTOM
100
AcDbLine
 10
-126.2189771574536
 20
-2150.401882847046
 30
0.0
 11
-126.2189771574536
 21
-2151.987669284673
 31
0.0
  0
LINE
  5
B6A0
102
{ACAD_REACTORS
330
B6BE
102
}
330
18
100
AcDbEntity
  8
1PHANTOM
100
AcDbLine
 10
-128.2189771574535
 20
-2154.19477606586
 30
0.0
 11
-126.3654237668603
 21
-2152.341222675266
 31
0.0
  0
LINE
  5
B72D
330
18
100
AcDbEntity
  8
01
100
AcDbLine
 10
-22.68018041542462
 20
-2150.141490507495
 30
0.0
 11
-50.16775480649528
 21
-2142.612662305485
 31
0.0
  0
ARC
  5
B72E
330
18
100
AcDbEntity
  8
01
100
AcDbCircle
 10
-22.28392629952953
 20
-2148.69477606586
 30
0.0
 40
1.7
100
AcDbArc
 50
226.609908175935
 51
102.7548820457511
  0
ARC
  5
B72F
330
18
100
AcDbEntity
  8
01
100
AcDbCircle
 10
-22.28392629952953
 20
-2148.69477606586
 30
0.0
 40
1.75
100
AcDbArc
 50
223.6796759760378
 51
105.6851142437923
  0
LINE
  5
B730
330
18
100
AcDbEntity
  8
01
100
AcDbLine
 10
-39.28392629952953
 20
-2134.69477606586
 30
0.0
 11
-17.28392629952953
 21
-2134.69477606586
 31
0.0
  0
LINE
  5
B731
330
18
100
AcDbEntity
  8
01
100
AcDbLine
 10
-38.78392629952953
 20
-2167.694984362091
 30
0.0
 11
-36.78392629952953
 21
-2167.694984362092
 31
0.0
  0
LINE
  5
B732
330
18
100
AcDbEntity
  8
01
100
AcDbLine
 10
-36.78392629952953
 20
-2174.69477606586
 30
0.0
 11
-7.783926299529526
 21
-2174.69477606586
 31
0.0
  0
LINE
  5
B733
330
18
100
AcDbEntity
  8
01
100
AcDbLine
 10
-36.78392629952953
 20
-2167.694984362091
 30
0.0
 11
-5.783926299529526
 21
-2167.694984362091
 31
0.0
  0
LINE
  5
B734
330
18
100
AcDbEntity
  8
01
100
AcDbLine
 10
-39.78392629952953
 20
-2166.694984362091
 30
0.0
 11
-39.78392629952953
 21
-2153.69477606586
 31
0.0
  0
LINE
  5
B735
330
18
100
AcDbEntity
  8
01
100
AcDbLine
 10
-21.88767218363398
 20
-2147.248061624225
 30
0.0
 11
-49.37524657470465
 21
-2139.719233422215
 31
0.0
  0
ARC
  5
B736
330
18
100
AcDbEntity
  8
01
100
AcDbCircle
 10
-38.78392629952953
 20
-2166.694984362091
 30
0.0
 40
1.0
100
AcDbArc
 50
180.0
 51
270.0
  0
LINE
  5
B737
330
18
100
AcDbEntity
  8
01
100
AcDbLine
 10
-36.78392629952953
 20
-2167.694984362092
 30
0.0
 11
-36.78392629952953
 21
-2174.69477606586
 31
0.0
  0
ARC
  5
B738
330
18
100
AcDbEntity
  8
01
100
AcDbCircle
 10
-39.28392629952953
 20
-2135.19477606586
 30
0.0
 40
0.5
100
AcDbArc
 50
90.0
 51
180.0
  0
LINE
  5
B739
330
18
100
AcDbEntity
  8
01
100
AcDbLine
 10
-4.783926299529526
 20
-2166.694984362091
 30
0.0
 11
-4.783926299529526
 21
-2135.19477606586
 31
0.0
  0
LINE
  5
B73A
330
18
100
AcDbEntity
  8
01
100
AcDbLine
 10
-17.28392629952953
 20
-2134.69477606586
 30
0.0
 11
-17.28392629952953
 21
-2167.694984362091
 31
0.0
  0
ARC
  5
B73B
330
18
100
AcDbEntity
  8
01
100
AcDbCircle
 10
-5.783926299529526
 20
-2166.694984362091
 30
0.0
 40
1.0
100
AcDbArc
 50
270.0
 51
0.000000000000007
  0
LINE
  5
B73C
330
18
100
AcDbEntity
  8
01
100
AcDbLine
 10
-7.783926299529526
 20
-2174.69477606586
 30
0.0
 11
-7.783926299529526
 21
-2167.694984362091
 31
0.0
  0
LINE
  5
B73D
330
18
100
AcDbEntity
  8
01
100
AcDbLine
 10
-17.28392629952953
 20
-2134.69477606586
 30
0.0
 11
-5.283926299529526
 21
-2134.69477606586
 31
0.0
  0
ARC
  5
B73E
330
18
100
AcDbEntity
  8
01
100
AcDbCircle
 10
-5.283926299529526
 20
-2135.19477606586
 30
0.0
 40
0.5
100
AcDbArc
 50
0.000000000000007
 51
90.0
  0
ARC
  5
B73F
330
18
100
AcDbEntity
  8
01
100
AcDbCircle
 10
-22.28392629952953
 20
-2148.69477606586
 30
0.0
 40
1.5
100
AcDbArc
 50
254.6823951098922
 51
74.68239510989227
  0
ARC
  5
B740
330
18
100
AcDbEntity
  8
01
100
AcDbCircle
 10
-49.77150069059996
 20
-2141.165947863849
 30
0.0
 40
1.5
100
AcDbArc
 50
74.68239510989227
 51
254.6823951098922
  0
ARC
  5
B741
330
18
100
AcDbEntity
  8
01
100
AcDbCircle
 10
-57.10892629952912
 20
-2150.19477606586
 30
0.0
 40
17.67499999999971
100
AcDbArc
 50
348.5788137249942
 51
11.42118627500583
  0
LINE
  5
B742
330
18
100
AcDbEntity
  8
01
100
AcDbLine
 10
-56.28392629952953
 20
-2146.19477606586
 30
0.0
 11
-56.28392629952953
 21
-2134.69477606586
 31
0.0
  0
LINE
  5
B743
330
18
100
AcDbEntity
  8
01
100
AcDbLine
 10
-53.28392629952953
 20
-2141.19477606586
 30
0.0
 11
-53.28392629952953
 21
-2135.19477606586
 31
0.0
  0
LINE
  5
B744
330
18
100
AcDbEntity
  8
01
100
AcDbLine
 10
-43.78392629952953
 20
-2135.19477606586
 30
0.0
 11
-43.78392629952953
 21
-2141.19477606586
 31
0.0
  0
LINE
  5
B745
330
18
100
AcDbEntity
  8
01
100
AcDbLine
 10
-40.75392629952955
 20
-2142.080607267096
 30
0.0
 11
-40.75392629952955
 21
-2135.19477606586
 31
0.0
  0
LINE
  5
B746
330
18
100
AcDbEntity
  8
01
100
AcDbLine
 10
-39.7839262995293
 20
-2146.69477606586
 30
0.0
 11
-39.78392629952953
 21
-2145.456785973722
 31
0.0
  0
LINE
  5
B747
330
18
100
AcDbEntity
  8
01
100
AcDbLine
 10
-39.78392629952953
 20
-2142.346289616948
 30
0.0
 11
-39.78392629952953
 21
-2135.19477606586
 31
0.0
  0
LINE
  5
B748
330
18
100
AcDbEntity
  8
01
100
AcDbLine
 10
-49.86795940191712
 20
-2142.69477606586
 30
0.0
 11
-51.78392629952953
 21
-2142.69477606586
 31
0.0
  0
LINE
  5
B749
330
18
100
AcDbEntity
  8
01
100
AcDbLine
 10
-40.28392629952953
 20
-2146.19477606586
 30
0.0
 11
-56.28392629952953
 21
-2146.19477606586
 31
0.0
  0
ARC
  5
B74A
330
18
100
AcDbEntity
  8
01
100
AcDbCircle
 10
-40.28392629952953
 20
-2145.69477606586
 30
0.0
 40
0.5
100
AcDbArc
 50
270.0
 51
0.000000000000007
  0
ARC
  5
B74B
330
18
100
AcDbEntity
  8
01
100
AcDbCircle
 10
-45.28392629952953
 20
-2141.19477606586
 30
0.0
 40
1.5
100
AcDbArc
 50
357.8744672824606
 51
0.000000000000007
  0
ARC
  5
B74C
330
18
100
AcDbEntity
  8
01
100
AcDbCircle
 10
-51.78392629952953
 20
-2141.19477606586
 30
0.0
 40
1.5
100
AcDbArc
 50
180.0
 51
270.0
  0
ARC
  5
B74D
330
18
100
AcDbEntity
  8
01
100
AcDbCircle
 10
-40.28392629952953
 20
-2135.19477606586
 30
0.0
 40
0.5
100
AcDbArc
 50
0.000000000000007
 51
90.0
  0
LINE
  5
B74E
330
18
100
AcDbEntity
  8
01
100
AcDbLine
 10
-40.28392629952953
 20
-2134.69477606586
 30
0.0
 11
-43.28392629952953
 21
-2134.69477606586
 31
0.0
  0
ARC
  5
B74F
330
18
100
AcDbEntity
  8
01
100
AcDbCircle
 10
-43.28392629952953
 20
-2135.19477606586
 30
0.0
 40
0.5
100
AcDbArc
 50
90.0
 51
180.0
  0
ARC
  5
B750
330
18
100
AcDbEntity
  8
01
100
AcDbCircle
 10
-41.25392629952955
 20
-2135.19477606586
 30
0.0
 40
0.5
100
AcDbArc
 50
0.000000000000007
 51
90.0
  0
ARC
  5
B751
330
18
100
AcDbEntity
  8
01
100
AcDbCircle
 10
-53.78392629952953
 20
-2135.19477606586
 30
0.0
 40
0.5
100
AcDbArc
 50
0.000000000000007
 51
90.0
  0
LINE
  5
B752
330
18
100
AcDbEntity
  8
01
100
AcDbLine
 10
-53.78392629952953
 20
-2134.69477606586
 30
0.0
 11
-56.28392629952953
 21
-2134.69477606586
 31
0.0
  0
LINE
  5
B753
330
18
100
AcDbEntity
  8
01
100
AcDbLine
 10
9.57591987320211
 20
-2174.69477606586
 30
0.0
 11
-56.971821469151
 21
-2174.69477606586
 31
0.0
  0
LINE
  5
B755
102
{ACAD_REACTORS
330
B805
102
}
330
18
100
AcDbEntity
  8
1PHANTOM
100
AcDbLine
 10
-53.58393444331261
 20
-2140.89477606586
 30
0.0
 11
-55.43392152964554
 21
-2139.04477606586
 31
0.0
  0
LINE
  5
B756
102
{ACAD_REACTORS
330
B805
102
}
330
18
100
AcDbEntity
  8
1PHANTOM
100
AcDbLine
 10
-53.58393258187664
 20
-2140.89477606586
 30
0.0
 11
-53.58392001718803
 21
-2135.494777927278
 31
0.0
  0
LINE
  5
B757
102
{ACAD_REACTORS
330
B805
102
}
330
18
100
AcDbEntity
  8
1PHANTOM
100
AcDbLine
 10
-53.28393258187566
 20
-2140.89477606586
 30
0.0
 11
-53.28392001718342
 21
-2135.49477606586
 31
0.0
  0
LINE
  5
B758
102
{ACAD_REACTORS
330
B805
102
}
330
18
100
AcDbEntity
  8
1PHANTOM
100
AcDbLine
 10
-68.58058680016251
 20
-2139.04477606586
 30
0.0
 11
-68.68058796355939
 21
-2139.54477606586
 31
0.0
  0
LINE
  5
B759
102
{ACAD_REACTORS
330
B805
102
}
330
18
100
AcDbEntity
  8
1PHANTOM
100
AcDbLine
 10
-63.88058796355921
 20
-2139.54477606586
 30
0.0
 11
-64.68057865638178
 21
-2136.84477606586
 31
0.0
  0
LINE
  5
B75A
102
{ACAD_REACTORS
330
B805
102
}
330
18
100
AcDbEntity
  8
1PHANTOM
100
AcDbLine
 10
-63.78058680016233
 20
-2139.04477606586
 30
0.0
 11
-63.88058796355921
 21
-2139.54477606586
 31
0.0
  0
LINE
  5
B75B
102
{ACAD_REACTORS
330
B805
102
}
330
18
100
AcDbEntity
  8
1PHANTOM
100
AcDbLine
 10
-64.68057865638178
 20
-2136.84477606586
 30
0.0
 11
-64.78057981977958
 21
-2137.34477606586
 31
0.0
  0
LINE
  5
B75C
102
{ACAD_REACTORS
330
B805
102
}
330
18
100
AcDbEntity
  8
1PHANTOM
100
AcDbLine
 10
-65.48058796355957
 20
-2139.54477606586
 30
0.0
 11
-66.28057865638215
 21
-2136.84477606586
 31
0.0
  0
LINE
  5
B75D
102
{ACAD_REACTORS
330
B805
102
}
330
18
100
AcDbEntity
  8
1PHANTOM
100
AcDbLine
 10
-67.08058796355994
 20
-2139.54477606586
 30
0.0
 11
-67.88057865638251
 21
-2136.84477606586
 31
0.0
  0
LINE
  5
B75E
102
{ACAD_REACTORS
330
B805
102
}
330
18
100
AcDbEntity
  8
1PHANTOM
100
AcDbLine
 10
-66.98058680016214
 20
-2139.04477606586
 30
0.0
 11
-67.08058796355994
 21
-2139.54477606586
 31
0.0
  0
LINE
  5
B75F
102
{ACAD_REACTORS
330
B805
102
}
330
18
100
AcDbEntity
  8
1PHANTOM
100
AcDbLine
 10
-67.88057865638251
 20
-2136.84477606586
 30
0.0
 11
-67.9805798197794
 21
-2137.34477606586
 31
0.0
  0
LINE
  5
B760
102
{ACAD_REACTORS
330
B805
102
}
330
18
100
AcDbEntity
  8
1PHANTOM
100
AcDbLine
 10
-66.28057865638215
 20
-2136.84477606586
 30
0.0
 11
-66.38057981977903
 21
-2137.34477606586
 31
0.0
  0
LINE
  5
B761
102
{ACAD_REACTORS
330
B805
102
}
330
18
100
AcDbEntity
  8
1PHANTOM
100
AcDbLine
 10
-65.38058680016269
 20
-2139.04477606586
 30
0.0
 11
-65.48058796355957
 21
-2139.54477606586
 31
0.0
  0
LINE
  5
B762
102
{ACAD_REACTORS
330
B805
102
}
330
18
100
AcDbEntity
  8
1PHANTOM
100
AcDbLine
 10
-53.58391815574771
 20
-2135.49477606586
 30
0.0
 11
-55.43393967872618
 21
-2137.34477606586
 31
0.0
  0
LINE
  5
B763
102
{ACAD_REACTORS
330
B805
102
}
330
18
100
AcDbEntity
  8
1PHANTOM
100
AcDbLine
 10
-73.28391664333236
 20
-2138.194776493902
 30
0.0
 11
-70.28058680016233
 21
-2139.04477606586
 31
0.0
  0
LINE
  5
B764
102
{ACAD_REACTORS
330
B805
102
}
330
18
100
AcDbEntity
  8
1PHANTOM
100
AcDbLine
 10
-73.28391664333202
 20
-2138.194776493902
 30
0.0
 11
-70.28057981977776
 21
-2137.34477606586
 31
0.0
  0
LINE
  5
B765
102
{ACAD_REACTORS
330
B805
102
}
330
18
100
AcDbEntity
  8
1PHANTOM
100
AcDbLine
 10
-69.48057865638197
 20
-2136.84477606586
 30
0.0
 11
-69.58057981977885
 21
-2137.34477606586
 31
0.0
  0
LINE
  5
B766
102
{ACAD_REACTORS
330
B805
102
}
330
18
100
AcDbEntity
  8
1PHANTOM
100
AcDbLine
 10
-71.0805791831844
 20
-2137.071183118064
 30
0.0
 11
-71.20984988081449
 21
-2137.607776853335
 31
0.0
  0
LINE
  5
B767
102
{ACAD_REACTORS
330
B805
102
}
330
18
100
AcDbEntity
  8
1PHANTOM
100
AcDbLine
 10
-70.28058796355975
 20
-2139.54477606586
 30
0.0
 11
-71.0805791831844
 21
-2137.071183118064
 31
0.0
  0
LINE
  5
B768
102
{ACAD_REACTORS
330
B805
102
}
330
18
100
AcDbEntity
  8
1PHANTOM
100
AcDbLine
 10
-71.76781739759912
 20
-2138.623861468651
 30
0.0
 11
-71.88058690994961
 21
-2139.091959923801
 31
0.0
  0
LINE
  5
B769
102
{ACAD_REACTORS
330
B805
102
}
330
18
100
AcDbEntity
  8
1PHANTOM
100
AcDbLine
 10
-70.18058680016196
 20
-2139.04477606586
 30
0.0
 11
-70.28058796355975
 21
-2139.54477606586
 31
0.0
  0
LINE
  5
B76A
102
{ACAD_REACTORS
330
B805
102
}
330
18
100
AcDbEntity
  8
1PHANTOM
100
AcDbLine
 10
-72.68058023679072
 20
-2137.523997222471
 30
0.0
 11
-72.86334437941872
 21
-2138.075746686274
 31
0.0
  0
LINE
  5
B76B
102
{ACAD_REACTORS
330
B805
102
}
330
18
100
AcDbEntity
  8
1PHANTOM
100
AcDbLine
 10
-71.88058690994961
 20
-2139.091959923801
 30
0.0
 11
-72.68058023679072
 21
-2137.523997222471
 31
0.0
  0
LINE
  5
B76C
102
{ACAD_REACTORS
330
B805
102
}
330
18
100
AcDbEntity
  8
1CENTER
100
AcDbLine
 10
-73.59817093196102
 20
-2138.19477606586
 30
0.0
 11
-52.92041984279797
 21
-2138.19477606586
 31
0.0
  0
LINE
  5
B76D
102
{ACAD_REACTORS
330
B805
102
}
330
18
100
AcDbEntity
  8
1PHANTOM
100
AcDbLine
 10
-70.28058680016514
 20
-2139.044776065859
 30
0.0
 11
-55.43392152964554
 21
-2139.04477606586
 31
0.0
  0
LINE
  5
B76E
102
{ACAD_REACTORS
330
B805
102
}
330
18
100
AcDbEntity
  8
1PHANTOM
100
AcDbLine
 10
-70.28057981978174
 20
-2137.344776065861
 30
0.0
 11
-55.43393967872618
 21
-2137.34477606586
 31
0.0
  0
LINE
  5
B76F
102
{ACAD_REACTORS
330
B805
102
}
330
18
100
AcDbEntity
  8
1PHANTOM
100
AcDbLine
 10
-68.68058796355939
 20
-2139.54477606586
 30
0.0
 11
-69.48057865638197
 21
-2136.84477606586
 31
0.0
  0
LINE
  5
B770
102
{ACAD_REACTORS
330
B805
102
}
330
18
100
AcDbEntity
  8
1PHANTOM
100
AcDbLine
 10
-53.58391815574771
 20
-2135.49477606586
 30
0.0
 11
-53.28391815574753
 21
-2135.49477606586
 31
0.0
  0
LINE
  5
B771
102
{ACAD_REACTORS
330
B805
102
}
330
18
100
AcDbEntity
  8
1PHANTOM
100
AcDbLine
 10
-53.58393444331261
 20
-2140.89477606586
 30
0.0
 11
-53.28393258187566
 21
-2140.89477606586
 31
0.0
  0
LINE
  5
B772
102
{ACAD_REACTORS
330
B805
102
}
330
18
100
AcDbEntity
  8
1PHANTOM
100
AcDbLine
 10
-62.18058680016196
 20
-2139.04477606586
 30
0.0
 11
-62.28058796355884
 21
-2139.54477606586
 31
0.0
  0
LINE
  5
B773
102
{ACAD_REACTORS
330
B805
102
}
330
18
100
AcDbEntity
  8
1PHANTOM
100
AcDbLine
 10
-62.28058796355884
 20
-2139.54477606586
 30
0.0
 11
-63.08057865638142
 21
-2136.84477606586
 31
0.0
  0
LINE
  5
B774
102
{ACAD_REACTORS
330
B805
102
}
330
18
100
AcDbEntity
  8
1PHANTOM
100
AcDbLine
 10
-63.08057865638142
 20
-2136.84477606586
 30
0.0
 11
-63.18057981977921
 21
-2137.34477606586
 31
0.0
  0
LINE
  5
B775
102
{ACAD_REACTORS
330
B805
102
}
330
18
100
AcDbEntity
  8
1PHANTOM
100
AcDbLine
 10
-60.68058796355848
 20
-2139.54477606586
 30
0.0
 11
-61.48057865638106
 21
-2136.84477606586
 31
0.0
  0
LINE
  5
B776
102
{ACAD_REACTORS
330
B805
102
}
330
18
100
AcDbEntity
  8
1PHANTOM
100
AcDbLine
 10
-60.5805868001616
 20
-2139.04477606586
 30
0.0
 11
-60.68058796355848
 21
-2139.54477606586
 31
0.0
  0
LINE
  5
B777
102
{ACAD_REACTORS
330
B805
102
}
330
18
100
AcDbEntity
  8
1PHANTOM
100
AcDbLine
 10
-61.48057865638106
 20
-2136.84477606586
 30
0.0
 11
-61.58057981977885
 21
-2137.34477606586
 31
0.0
  0
LINE
  5
B778
102
{ACAD_REACTORS
330
B805
102
}
330
18
100
AcDbEntity
  8
1PHANTOM
100
AcDbLine
 10
-58.98058680016123
 20
-2139.04477606586
 30
0.0
 11
-59.08058796355812
 21
-2139.54477606586
 31
0.0
  0
LINE
  5
B779
102
{ACAD_REACTORS
330
B805
102
}
330
18
100
AcDbEntity
  8
1PHANTOM
100
AcDbLine
 10
-59.08058796355812
 20
-2139.54477606586
 30
0.0
 11
-59.88057865638069
 21
-2136.84477606586
 31
0.0
  0
LINE
  5
B77A
102
{ACAD_REACTORS
330
B805
102
}
330
18
100
AcDbEntity
  8
1PHANTOM
100
AcDbLine
 10
-59.88057865638069
 20
-2136.84477606586
 30
0.0
 11
-59.98057981977848
 21
-2137.34477606586
 31
0.0
  0
LINE
  5
B77B
102
{ACAD_REACTORS
330
B805
102
}
330
18
100
AcDbEntity
  8
1PHANTOM
100
AcDbLine
 10
-57.38058680016087
 20
-2139.04477606586
 30
0.0
 11
-57.48058796355775
 21
-2139.54477606586
 31
0.0
  0
LINE
  5
B77C
102
{ACAD_REACTORS
330
B805
102
}
330
18
100
AcDbEntity
  8
1PHANTOM
100
AcDbLine
 10
-57.48058796355775
 20
-2139.54477606586
 30
0.0
 11
-58.28057865638033
 21
-2136.84477606586
 31
0.0
  0
LINE
  5
B77D
102
{ACAD_REACTORS
330
B805
102
}
330
18
100
AcDbEntity
  8
1PHANTOM
100
AcDbLine
 10
-58.28057865638033
 20
-2136.84477606586
 30
0.0
 11
-58.38057981977812
 21
-2137.34477606586
 31
0.0
  0
LINE
  5
B77E
102
{ACAD_REACTORS
330
B805
102
}
330
18
100
AcDbEntity
  8
1PHANTOM
100
AcDbLine
 10
-55.78058680016051
 20
-2139.04477606586
 30
0.0
 11
-55.88058796355739
 21
-2139.54477606586
 31
0.0
  0
LINE
  5
B77F
102
{ACAD_REACTORS
330
B805
102
}
330
18
100
AcDbEntity
  8
1PHANTOM
100
AcDbLine
 10
-55.88058796355739
 20
-2139.54477606586
 30
0.0
 11
-56.68057865637996
 21
-2136.84477606586
 31
0.0
  0
LINE
  5
B780
102
{ACAD_REACTORS
330
B805
102
}
330
18
100
AcDbEntity
  8
1PHANTOM
100
AcDbLine
 10
-56.68057865637996
 20
-2136.84477606586
 30
0.0
 11
-56.78057981977776
 21
-2137.34477606586
 31
0.0
  0
LINE
  5
B7DA
330
18
100
AcDbEntity
  8
01
100
AcDbLine
 10
-67.11986798296948
 20
-2164.69477606586
 30
0.0
 11
-56.28392629952975
 21
-2164.69477606586
 31
0.0
  0
LINE
  5
B7DB
330
18
100
AcDbEntity
  8
01
100
AcDbLine
 10
-56.28392629952978
 20
-2164.69477606586
 30
0.0
 11
-56.28392629952975
 21
-2116.697320250151
 31
0.0
  0
LINE
  5
B7E0
102
{ACAD_REACTORS
330
B804
102
}
330
18
100
AcDbEntity
  8
1PHANTOM
100
AcDbLine
 10
-35.48392629952951
 20
-2171.69477606586
 30
0.0
 11
-9.083926299529494
 21
-2171.69477606586
 31
0.0
  0
LINE
  5
B7E1
102
{ACAD_REACTORS
330
B804
102
}
330
18
100
AcDbEntity
  8
1PHANTOM
100
AcDbLine
 10
-35.48392629952951
 20
-2171.69477606586
 30
0.0
 11
-35.48392629952951
 21
-2174.69477606586
 31
0.0
  0
LINE
  5
B7E2
102
{ACAD_REACTORS
330
B804
102
}
330
18
100
AcDbEntity
  8
1PHANTOM
100
AcDbLine
 10
-29.28392629952953
 20
-2171.69477606586
 30
0.0
 11
-29.28392629952953
 21
-2154.19477606586
 31
0.0
  0
LINE
  5
B7E3
102
{ACAD_REACTORS
330
B804
102
}
330
18
100
AcDbEntity
  8
1PHANTOM
100
AcDbLine
 10
-15.28392629952953
 20
-2171.69477606586
 30
0.0
 11
-15.28392629952953
 21
-2148.19477606586
 31
0.0
  0
LINE
  5
B7E4
102
{ACAD_REACTORS
330
B804
102
}
330
18
100
AcDbEntity
  8
1PHANTOM
100
AcDbLine
 10
-9.083926299529494
 20
-2171.69477606586
 30
0.0
 11
-9.083926299529537
 21
-2174.69477606586
 31
0.0
  0
LINE
  5
B7E5
102
{ACAD_REACTORS
330
B804
102
}
330
18
100
AcDbEntity
  8
1PHANTOM
100
AcDbLine
 10
-15.78392629952953
 20
-2147.69477606586
 30
0.0
 11
-28.78392629952953
 21
-2147.69477606586
 31
0.0
  0
LINE
  5
B7E6
102
{ACAD_REACTORS
330
B804
102
}
330
18
100
AcDbEntity
  8
1PHANTOM
100
AcDbLine
 10
-29.28392629952953
 20
-2148.19477606586
 30
0.0
 11
-27.43037290893619
 21
-2150.048329456453
 31
0.0
  0
LINE
  5
B7E7
102
{ACAD_REACTORS
330
B804
102
}
330
18
100
AcDbEntity
  8
1PHANTOM
100
AcDbLine
 10
-29.28392629952953
 20
-2148.19477606586
 30
0.0
 11
-29.28392629952953
 21
-2148.19477606586
 31
0.0
  0
LINE
  5
B7E8
102
{ACAD_REACTORS
330
B804
102
}
330
18
100
AcDbEntity
  8
1PHANTOM
100
AcDbLine
 10
-35.48392629952951
 20
-2174.69477606586
 30
0.0
 11
-9.083926299529537
 21
-2174.69477606586
 31
0.0
  0
ARC
  5
B7E9
102
{ACAD_REACTORS
330
B804
102
}
330
18
100
AcDbEntity
  8
1PHANTOM
100
AcDbCircle
 10
-28.78392629952953
 20
-2148.19477606586
 30
0.0
 40
0.5
100
AcDbArc
 50
90.0
 51
180.0
  0
ARC
  5
B7EA
102
{ACAD_REACTORS
330
B804
102
}
330
18
100
AcDbEntity
  8
1PHANTOM
100
AcDbCircle
 10
-15.78392629952953
 20
-2148.19477606586
 30
0.0
 40
0.5
100
AcDbArc
 50
0.0
 51
90.0
  0
ARC
  5
B7EB
102
{ACAD_REACTORS
330
B804
102
}
330
18
100
AcDbEntity
  8
1PHANTOM
100
AcDbCircle
 10
-27.78392629952953
 20
-2150.401882847046
 30
0.0
 40
0.5
100
AcDbArc
 50
0.0
 51
44.99999999999373
  0
ARC
  5
B7EC
102
{ACAD_REACTORS
330
B804
102
}
330
18
100
AcDbEntity
  8
1PHANTOM
100
AcDbCircle
 10
-27.78392629952953
 20
-2151.987669284673
 30
0.0
 40
0.5
100
AcDbArc
 50
314.9999999999925
 51
0.0
  0
LINE
  5
B7ED
102
{ACAD_REACTORS
330
B804
102
}
330
18
100
AcDbEntity
  8
1PHANTOM
100
AcDbLine
 10
-27.28392629952961
 20
-2150.401882847046
 30
0.0
 11
-27.28392629952961
 21
-2151.987669284673
 31
0.0
  0
LINE
  5
B7EE
102
{ACAD_REACTORS
330
B804
102
}
330
18
100
AcDbEntity
  8
1PHANTOM
100
AcDbLine
 10
-29.28392629952953
 20
-2154.19477606586
 30
0.0
 11
-27.43037290893631
 21
-2152.341222675266
 31
0.0
  0
ARC
  5
B86B
330
18
100
AcDbEntity
  8
1PHANTOM
 48
0.25
100
AcDbCircle
 10
-19.28392629952964
 20
-2146.494769085471
 30
0.0
 40
4.0
100
AcDbArc
 50
0.0
 51
90.00013331552832
  0
LINE
  5
B86C
330
18
100
AcDbEntity
  8
1PHANTOM
 48
0.25
100
AcDbLine
 10
-18.28387595195522
 20
-2147.694766758562
 30
0.0
 11
-26.28387595215725
 21
-2147.694785372922
 31
0.0
  0
LINE
  5
B86D
330
18
100
AcDbEntity
  8
1PHANTOM
 48
0.25
100
AcDbLine
 10
-15.28392629952964
 20
-2146.494769085471
 30
0.0
 11
-15.28392629952964
 21
-2147.694759778295
 31
0.0
  0
LINE
  5
B86E
330
18
100
AcDbEntity
  8
1PHANTOM
 48
0.25
100
AcDbLine
 10
-18.28387595195522
 20
-2147.694766758562
 30
0.0
 11
-15.28392629952964
 21
-2147.694759778295
 31
0.0
  0
ARC
  5
B86F
330
18
100
AcDbEntity
  8
1PHANTOM
 48
0.25
100
AcDbCircle
 10
-25.28392629952953
 20
-2146.494783046241
 30
0.0
 40
4.0
100
AcDbArc
 50
90.00013331552832
 51
180.0
  0
LINE
  5
B870
330
18
100
AcDbEntity
  8
1PHANTOM
 48
0.25
100
AcDbLine
 10
-29.2839262995293
 20
-2147.694792353424
 30
0.0
 11
-26.28387595215725
 21
-2147.694785372922
 31
0.0
  0
LINE
  5
B871
330
18
100
AcDbEntity
  8
1PHANTOM
 48
0.25
100
AcDbLine
 10
-25.28393560670906
 20
-2142.494783046252
 30
0.0
 11
-19.28393560670918
 21
-2142.494769085482
 31
0.0
  0
LINE
  5
B872
330
18
100
AcDbEntity
  8
1PHANTOM
 48
0.25
100
AcDbLine
 10
-29.28392629952941
 20
-2146.494783046241
 30
0.0
 11
-29.2839262995293
 21
-2147.694792353424
 31
0.0
  0
LINE
  5
B873
102
{ACAD_REACTORS
330
B8BA
102
}
330
18
100
AcDbEntity
  8
1PHANTOM
100
AcDbLine
 10
-28.28392629952953
 20
-2174.69477606586
 30
0.0
 11
-16.28392629952953
 21
-2174.69477606586
 31
0.0
  0
LINE
  5
B874
102
{ACAD_REACTORS
330
B8BA
102
}
330
18
100
AcDbEntity
  8
1PHANTOM
100
AcDbLine
 10
-16.78392629952953
 20
-2209.69477606586
 30
0.0
 11
-27.78392629952953
 21
-2209.69477606586
 31
0.0
  0
LINE
  5
B875
102
{ACAD_REACTORS
330
B8BA
102
}
330
18
100
AcDbEntity
  8
1PHANTOM
100
AcDbLine
 10
-28.28392629952953
 20
-2209.19477606586
 30
0.0
 11
-28.28392629952947
 21
-2204.194776065859
 31
0.0
  0
LINE
  5
B876
102
{ACAD_REACTORS
330
B8BA
102
}
330
18
100
AcDbEntity
  8
1PHANTOM
100
AcDbLine
 10
-21.78392629952953
 20
-2192.69477606586
 30
0.0
 11
-22.78392629952953
 21
-2192.69477606586
 31
0.0
  0
LINE
  5
B877
102
{ACAD_REACTORS
330
B8BA
102
}
330
18
100
AcDbEntity
  8
1PHANTOM
100
AcDbLine
 10
-22.78392629952953
 20
-2209.69477606586
 30
0.0
 11
-22.78392629952953
 21
-2192.69477606586
 31
0.0
  0
LINE
  5
B878
102
{ACAD_REACTORS
330
B8BA
102
}
330
18
100
AcDbEntity
  8
1PHANTOM
100
AcDbLine
 10
-21.78392629952953
 20
-2209.69477606586
 30
0.0
 11
-21.78392629952953
 21
-2192.69477606586
 31
0.0
  0
LINE
  5
B879
102
{ACAD_REACTORS
330
B8BA
102
}
330
18
100
AcDbEntity
  8
1PHANTOM
100
AcDbLine
 10
-28.28392629952947
 20
-2202.69477606586
 30
0.0
 11
-27.78392629952937
 21
-2202.69477606586
 31
0.0
  0
LINE
  5
B87A
102
{ACAD_REACTORS
330
B8BA
102
}
330
18
100
AcDbEntity
  8
1PHANTOM
100
AcDbLine
 10
-28.28392629952947
 20
-2199.69477606586
 30
0.0
 11
-27.78392629952947
 21
-2199.69477606586
 31
0.0
  0
LINE
  5
B87B
102
{ACAD_REACTORS
330
B8BA
102
}
330
18
100
AcDbEntity
  8
1PHANTOM
100
AcDbLine
 10
-28.28392629952953
 20
-2196.69477606586
 30
0.0
 11
-27.78392629952941
 21
-2196.69477606586
 31
0.0
  0
LINE
  5
B87C
102
{ACAD_REACTORS
330
B8BA
102
}
330
18
100
AcDbEntity
  8
1PHANTOM
100
AcDbLine
 10
-28.28392629952953
 20
-2204.19477606586
 30
0.0
 11
-27.78392629952953
 21
-2202.69477606586
 31
0.0
  0
LINE
  5
B87D
102
{ACAD_REACTORS
330
B8BA
102
}
330
18
100
AcDbEntity
  8
1PHANTOM
100
AcDbLine
 10
-28.28392629952953
 20
-2201.19477606586
 30
0.0
 11
-27.78392629952953
 21
-2199.69477606586
 31
0.0
  0
LINE
  5
B87E
102
{ACAD_REACTORS
330
B8BA
102
}
330
18
100
AcDbEntity
  8
1PHANTOM
100
AcDbLine
 10
-28.28392629952953
 20
-2198.19477606586
 30
0.0
 11
-27.78392629952953
 21
-2196.69477606586
 31
0.0
  0
LINE
  5
B87F
102
{ACAD_REACTORS
330
B8BA
102
}
330
18
100
AcDbEntity
  8
1PHANTOM
100
AcDbLine
 10
-28.28392629952953
 20
-2196.69477606586
 30
0.0
 11
-28.28392629952953
 21
-2174.69477606586
 31
0.0
  0
LINE
  5
B880
102
{ACAD_REACTORS
330
B8BA
102
}
330
18
100
AcDbEntity
  8
1PHANTOM
100
AcDbLine
 10
-28.28392629952947
 20
-2199.69477606586
 30
0.0
 11
-28.28392629952947
 21
-2198.19477606586
 31
0.0
  0
LINE
  5
B881
102
{ACAD_REACTORS
330
B8BA
102
}
330
18
100
AcDbEntity
  8
1PHANTOM
100
AcDbLine
 10
-28.28392629952953
 20
-2202.694776065859
 30
0.0
 11
-28.28392629952947
 21
-2201.194776065859
 31
0.0
  0
LINE
  5
B882
102
{ACAD_REACTORS
330
B8BA
102
}
330
18
100
AcDbEntity
  8
1PHANTOM
100
AcDbLine
 10
-16.28392629952953
 20
-2209.19477606586
 30
0.0
 11
-16.28392629952958
 21
-2204.194776065859
 31
0.0
  0
LINE
  5
B883
102
{ACAD_REACTORS
330
B8BA
102
}
330
18
100
AcDbEntity
  8
1PHANTOM
100
AcDbLine
 10
-16.28392629952953
 20
-2196.69477606586
 30
0.0
 11
-16.78392629952953
 21
-2196.69477606586
 31
0.0
  0
LINE
  5
B884
102
{ACAD_REACTORS
330
B8BA
102
}
330
18
100
AcDbEntity
  8
1PHANTOM
100
AcDbLine
 10
-16.28392629952958
 20
-2199.69477606586
 30
0.0
 11
-16.78392629952954
 21
-2199.694776065859
 31
0.0
  0
LINE
  5
B885
102
{ACAD_REACTORS
330
B8BA
102
}
330
18
100
AcDbEntity
  8
1PHANTOM
100
AcDbLine
 10
-16.28392629952958
 20
-2202.69477606586
 30
0.0
 11
-16.78392629952948
 21
-2202.69477606586
 31
0.0
  0
LINE
  5
B886
102
{ACAD_REACTORS
330
B8BA
102
}
330
18
100
AcDbEntity
  8
1PHANTOM
100
AcDbLine
 10
-16.28392629952953
 20
-2202.694776065859
 30
0.0
 11
-16.28392629952958
 21
-2201.194776065859
 31
0.0
  0
LINE
  5
B887
102
{ACAD_REACTORS
330
B8BA
102
}
330
18
100
AcDbEntity
  8
1PHANTOM
100
AcDbLine
 10
-16.28392629952958
 20
-2199.69477606586
 30
0.0
 11
-16.28392629952958
 21
-2198.19477606586
 31
0.0
  0
LINE
  5
B888
102
{ACAD_REACTORS
330
B8BA
102
}
330
18
100
AcDbEntity
  8
1PHANTOM
100
AcDbLine
 10
-16.28392629952953
 20
-2196.69477606586
 30
0.0
 11
-16.28392629952953
 21
-2174.69477606586
 31
0.0
  0
LINE
  5
B889
102
{ACAD_REACTORS
330
B8BA
102
}
330
18
100
AcDbEntity
  8
1PHANTOM
100
AcDbLine
 10
-16.28392629952953
 20
-2198.19477606586
 30
0.0
 11
-16.78392629952953
 21
-2196.69477606586
 31
0.0
  0
LINE
  5
B88A
102
{ACAD_REACTORS
330
B8BA
102
}
330
18
100
AcDbEntity
  8
1PHANTOM
100
AcDbLine
 10
-16.28392629952953
 20
-2201.19477606586
 30
0.0
 11
-16.78392629952953
 21
-2199.69477606586
 31
0.0
  0
LINE
  5
B88B
102
{ACAD_REACTORS
330
B8BA
102
}
330
18
100
AcDbEntity
  8
1PHANTOM
100
AcDbLine
 10
-16.28392629952953
 20
-2204.19477606586
 30
0.0
 11
-16.78392629952953
 21
-2202.69477606586
 31
0.0
  0
ARC
  5
B898
102
{ACAD_REACTORS
330
B8BA
102
}
330
18
100
AcDbEntity
  8
1PHANTOM
100
AcDbCircle
 10
-27.78392629952953
 20
-2209.19477606586
 30
0.0
 40
0.5
100
AcDbArc
 50
180.0
 51
270.0
  0
ARC
  5
B899
102
{ACAD_REACTORS
330
B8BA
102
}
330
18
100
AcDbEntity
  8
1PHANTOM
100
AcDbCircle
 10
-16.78392629952953
 20
-2209.19477606586
 30
0.0
 40
0.5
100
AcDbArc
 50
270.0
 51
0.0
  0
TEXT
  5
B9AF
330
18
100
AcDbEntity
  8
1TEXT
100
AcDbText
 10
-20.35065299396828
 20
-2224.539334589397
 30
0.0
 40
4.0
  1
コンクリート
100
AcDbText
  0
TEXT
  5
BBD1
330
18
100
AcDbEntity
  8
1TEXT
100
AcDbText
 10
-201.558637238228
 20
-2030.235218157473
 30
0.0
 40
4.0
  1
AC-776-XNK
 41
0.7
 72
     1
 11
-188.0155816826724
 21
-2030.235218157473
 31
0.0
100
AcDbText
  0
TEXT
  5
BBD2
330
18
100
AcDbEntity
  8
1TEXT
100
AcDbText
 10
-201.558637238228
 20
-2023.235218157473
 30
0.0
 40
4.0
  1
AC-776-XCK
 41
0.7
 72
     1
 11
-188.0155816826724
 21
-2023.235218157473
 31
0.0
100
AcDbText
  0
LINE
  5
BBD4
330
18
100
AcDbEntity
  8
1DIM
100
AcDbLine
 10
-170.415581682673
 20
-2038.520861173824
 30
0.0
 11
-170.415581682673
 21
-2010.520861173824
 31
0.0
  0
TEXT
  5
BBD5
330
18
100
AcDbEntity
  8
1TEXT
100
AcDbText
 10
-201.558637238228
 20
-2037.235218157473
 30
0.0
 40
4.0
  1
AC-776-4QK
 41
0.7
 72
     1
 11
-188.0155816826724
 21
-2037.235218157473
 31
0.0
100
AcDbText
  0
TEXT
  5
BBD8
330
18
100
AcDbEntity
  8
1TEXT
100
AcDbText
 10
-200.9236123735071
 20
-2016.020861173824
 30
0.0
 40
4.0
  1
コード（緩衝材ブラック）
 41
0.5
 72
     1
 11
-187.3236123735071
 21
-2016.020861173824
 31
0.0
100
AcDbText
  0
LINE
  5
C4D9
330
18
100
AcDbEntity
  8
1DIM
100
AcDbLine
 10
-205.415581682673
 20
-2038.520861173824
 30
0.0
 11
-170.415581682673
 21
-2038.520861173824
 31
0.0
  0
LINE
  5
C70D
330
18
100
AcDbEntity
  8
1DIM
100
AcDbLine
 10
-204.7189771574581
 20
-2174.69477606586
 30
0.0
 11
-204.7189771574581
 21
-2195.69477606586
 31
0.0
1001
ACAD
1000
DSTYLE
1002
{
1070
     3
1000
φ<>
1002
}
  0
LINE
  5
C70E
330
18
100
AcDbEntity
  8
1DIM
100
AcDbLine
 10
-233.7189771574581
 20
-2174.69477606586
 30
0.0
 11
-233.7189771574581
 21
-2195.69477606586
 31
0.0
1001
ACAD
1000
DSTYLE
1002
{
1070
     3
1000
φ<>
1002
}
  0
LINE
  5
C70F
330
18
100
AcDbEntity
  8
1DIM
100
AcDbLine
 10
-206.7189771574581
 20
-2194.69477606586
 30
0.0
 11
-231.7189771574581
 21
-2194.69477606586
 31
0.0
1001
ACAD
1000
DSTYLE
1002
{
1070
     3
1000
φ<>
1002
}
  0
LINE
  5
C713
330
18
100
AcDbEntity
  8
1DIM
100
AcDbLine
 10
-243.2189771574622
 20
-2147.311367802986
 30
0.0
 11
-243.2189771574622
 21
-2215.69477606586
 31
0.0
  0
LINE
  5
C714
330
18
100
AcDbEntity
  8
1DIM
100
AcDbLine
 10
-195.2189771574537
 20
-2147.412487949577
 30
0.0
 11
-195.2189771574537
 21
-2215.69477606586
 31
0.0
  0
LINE
  5
C715
330
18
100
AcDbEntity
  8
1DIM
100
AcDbLine
 10
-241.2189771574622
 20
-2214.69477606586
 30
0.0
 11
-197.2189771574537
 21
-2214.69477606586
 31
0.0
  0
LINE
  5
C719
330
18
100
AcDbEntity
  8
1DIM
100
AcDbLine
 10
-220.8688454168395
 20
-2150.732138781596
 30
0.0
 11
-219.703299264801
 21
-2150.732146917557
 31
0.0
  0
LINE
  5
C71A
330
18
100
AcDbEntity
  8
1DIM
100
AcDbLine
 10
-219.7032911288881
 20
-2151.897686262258
 30
0.0
 11
-218.7280816468765
 21
-2151.897693069595
 31
0.0
  0
LINE
  5
C71B
330
18
100
AcDbEntity
  8
1DIM
100
AcDbLine
 10
-219.7032911288881
 20
-2151.897686262258
 30
0.0
 11
-219.703299264801
 21
-2150.732146917557
 31
0.0
  0
LINE
  5
C71C
330
18
100
AcDbEntity
  8
1DIM
100
AcDbLine
 10
-220.8688386095022
 20
-2149.756929299585
 30
0.0
 11
-220.8688454168395
 21
-2150.732138781596
 31
0.0
  0
LINE
  5
C71D
330
18
100
AcDbEntity
  8
1DIM
100
AcDbLine
 10
-220.8688386095022
 20
-2149.756929299585
 30
0.0
 11
-219.703306072252
 21
-2149.75692116372
 31
0.0
  0
LINE
  5
C71E
330
18
100
AcDbEntity
  8
1DIM
100
AcDbLine
 10
-219.703306072252
 20
-2149.75692116372
 30
0.0
 11
-219.7033142082125
 21
-2148.591375011472
 31
0.0
  0
LINE
  5
C71F
330
18
100
AcDbEntity
  8
1DIM
100
AcDbLine
 10
-218.7280667034175
 20
-2149.756914356174
 30
0.0
 11
-217.5625273587164
 21
-2149.756906220261
 31
0.0
  0
LINE
  5
C720
330
18
100
AcDbEntity
  8
1DIM
100
AcDbLine
 10
-218.7280667034175
 20
-2149.756914356174
 30
0.0
 11
-218.7280585675521
 21
-2148.591381819132
 31
0.0
  0
LINE
  5
C721
330
18
100
AcDbEntity
  8
1DIM
100
AcDbLine
 10
-218.7280585675521
 20
-2148.591381819132
 30
0.0
 11
-219.7033142082125
 21
-2148.591375011472
 31
0.0
  0
LINE
  5
C722
330
18
100
AcDbEntity
  8
1DIM
100
AcDbLine
 10
-218.7280735109635
 20
-2150.732153725008
 30
0.0
 11
-217.5625341663759
 21
-2150.732161860921
 31
0.0
  0
LINE
  5
C723
330
18
100
AcDbEntity
  8
1DIM
100
AcDbLine
 10
-217.5625341663759
 20
-2150.732161860921
 30
0.0
 11
-217.5625273587164
 21
-2149.756906220261
 31
0.0
  0
LINE
  5
C724
330
18
100
AcDbEntity
  8
1DIM
100
AcDbLine
 10
-218.7280816468765
 20
-2151.897693069595
 30
0.0
 11
-218.7280735109635
 21
-2150.732153725008
 31
0.0
  0
LINE
  5
C725
330
18
100
AcDbEntity
  8
1DIM
100
AcDbLine
 10
-106.0080538626586
 20
-2091.430700393827
 30
0.0
 11
-88.79223107191133
 21
-2091.430700393827
 31
0.0
  0
LINE
  5
C726
330
18
100
AcDbEntity
  8
1DIM
100
AcDbLine
 10
-106.0080538626586
 20
-2079.930700393827
 30
0.0
 11
-88.79223107191133
 21
-2079.930700393827
 31
0.0
  0
LINE
  5
C727
330
18
100
AcDbEntity
  8
1DIM
100
AcDbLine
 10
-89.79223107191133
 20
-2079.930700393827
 30
0.0
 11
-89.79223107191133
 21
-2067.341127277514
 31
0.0
  0
LINE
  5
C728
330
18
100
AcDbEntity
  8
1DIM
100
AcDbLine
 10
-89.79223107191133
 20
-2089.430700393827
 30
0.0
 11
-89.79223107191133
 21
-2081.930700393827
 31
0.0
  0
LINE
  5
C72C
330
18
100
AcDbEntity
  8
1DIM
100
AcDbLine
 10
-128.3794148757231
 20
-2080.430700393827
 30
0.0
 11
-128.3794148757231
 21
-2071.065442269416
 31
0.0
  0
LINE
  5
C72D
330
18
100
AcDbEntity
  8
1DIM
100
AcDbLine
 10
-109.3794148757232
 20
-2080.430700393827
 30
0.0
 11
-109.3794148757232
 21
-2071.065442269416
 31
0.0
  0
LINE
  5
C72E
330
18
100
AcDbEntity
  8
1DIM
100
AcDbLine
 10
-126.3794148757231
 20
-2072.065442269416
 30
0.0
 11
-111.3794148757232
 21
-2072.065442269416
 31
0.0
  0
LINE
  5
C732
330
18
100
AcDbEntity
  8
1DIM
100
AcDbLine
 10
-132.2507758887876
 20
-2046.108313352945
 30
0.0
 11
-132.2507758887876
 21
-2033.249161937691
 31
0.0
1001
ACAD
1000
DSTYLE
1002
{
1070
   271
1070
     0
1002
}
  0
LINE
  5
C733
330
18
100
AcDbEntity
  8
1DIM
100
AcDbLine
 10
-105.508053862659
 20
-2046.108313352945
 30
0.0
 11
-105.508053862659
 21
-2033.249161937691
 31
0.0
1001
ACAD
1000
DSTYLE
1002
{
1070
   271
1070
     0
1002
}
  0
LINE
  5
C734
330
18
100
AcDbEntity
  8
1DIM
100
AcDbLine
 10
-130.2507758887876
 20
-2034.249161937691
 30
0.0
 11
-107.508053862659
 21
-2034.249161937691
 31
0.0
1001
ACAD
1000
DSTYLE
1002
{
1070
   271
1070
     0
1002
}
  0
LINE
  5
C738
330
18
100
AcDbEntity
  8
1DIM
100
AcDbLine
 10
-106.0080538626586
 20
-2091.430700393827
 30
0.0
 11
-96.3925320327723
 21
-2091.430700393827
 31
0.0
  0
LINE
  5
C739
330
18
100
AcDbEntity
  8
1DIM
100
AcDbLine
 10
-106.3794148757232
 20
-2083.430700393827
 30
0.0
 11
-96.3925320327723
 21
-2083.430700393827
 31
0.0
  0
LINE
  5
C73A
330
18
100
AcDbEntity
  8
1DIM
100
AcDbLine
 10
-97.3925320327723
 20
-2089.430700393827
 30
0.0
 11
-97.3925320327723
 21
-2085.430700393827
 31
0.0
  0
LINE
  5
C73B
330
18
100
AcDbEntity
  8
1DIM
100
AcDbLine
 10
-97.3925320327723
 20
-2083.430700393827
 30
0.0
 11
-97.39253203277228
 21
-2071.338300792816
 31
0.0
  0
LINE
  5
C73F
330
18
100
AcDbEntity
  8
1DIM
100
AcDbLine
 10
-118.8794148757231
 20
-2059.479674366009
 30
0.0
 11
-90.02285145720532
 21
-2059.479674366009
 31
0.0
  0
LINE
  5
C740
330
18
100
AcDbEntity
  8
1DIM
100
AcDbLine
 10
-105.879414875723
 20
-2042.978889229933
 30
0.0
 11
-90.02285145720532
 21
-2042.978889229933
 31
0.0
  0
LINE
  5
C741
330
18
100
AcDbEntity
  8
1DIM
100
AcDbLine
 10
-91.02285145720532
 20
-2057.479674366009
 30
0.0
 11
-91.02285145720532
 21
-2044.978889229933
 31
0.0
  0
LINE
  5
C745
330
18
100
AcDbEntity
  8
1DIM
100
AcDbLine
 10
-227.1868464950481
 20
-2066.33010112018
 30
0.0
 11
-227.1868464950481
 21
-2108.72010112018
 31
0.0
1001
ACAD
1000
DSTYLE
1002
{
1070
   271
1070
     0
1002
}
  0
LINE
  5
C746
330
18
100
AcDbEntity
  8
1DIM
100
AcDbLine
 10
-211.2519790654141
 20
-2066.33010112018
 30
0.0
 11
-211.2519790654141
 21
-2108.72010112018
 31
0.0
1001
ACAD
1000
DSTYLE
1002
{
1070
   271
1070
     0
1002
}
  0
LINE
  5
C747
330
18
100
AcDbEntity
  8
1DIM
100
AcDbLine
 10
-225.1868464950481
 20
-2107.72010112018
 30
0.0
 11
-213.2519790654141
 21
-2107.72010112018
 31
0.0
1001
ACAD
1000
DSTYLE
1002
{
1070
   271
1070
     0
1002
}
  0
LINE
  5
C74B
330
18
100
AcDbEntity
  8
1DIM
100
AcDbLine
 10
-219.2194127802309
 20
-2076.23010112018
 30
0.0
 11
-174.2189771574538
 21
-2076.23010112018
 31
0.0
1001
ACAD
1000
DSTYLE
1002
{
1070
   271
1070
     0
1002
}
  0
LINE
  5
C74C
330
18
100
AcDbEntity
  8
1DIM
100
AcDbLine
 10
-208.2519790654141
 20
-2063.33010112018
 30
0.0
 11
-174.2189771574538
 21
-2063.33010112018
 31
0.0
1001
ACAD
1000
DSTYLE
1002
{
1070
   271
1070
     0
1002
}
  0
LINE
  5
C74D
330
18
100
AcDbEntity
  8
1DIM
100
AcDbLine
 10
-175.2189771574538
 20
-2074.23010112018
 30
0.0
 11
-175.2189771574538
 21
-2065.33010112018
 31
0.0
1001
ACAD
1000
DSTYLE
1002
{
1070
   271
1070
     0
1002
}
  0
LINE
  5
C751
330
18
100
AcDbEntity
  8
1DIM
100
AcDbLine
 10
-208.2519790654141
 20
-2063.33010112018
 30
0.0
 11
-174.2189771574538
 21
-2063.33010112018
 31
0.0
1001
ACAD
1000
DSTYLE
1002
{
1070
   271
1070
     0
1002
}
  0
LINE
  5
C752
330
18
100
AcDbEntity
  8
1DIM
100
AcDbLine
 10
-216.2194127802309
 20
-2049.53010112018
 30
0.0
 11
-174.2189771574538
 21
-2049.53010112018
 31
0.0
1001
ACAD
1000
DSTYLE
1002
{
1070
   271
1070
     0
1002
}
  0
LINE
  5
C753
330
18
100
AcDbEntity
  8
1DIM
100
AcDbLine
 10
-175.2189771574538
 20
-2061.33010112018
 30
0.0
 11
-175.2189771574538
 21
-2051.53010112018
 31
0.0
1001
ACAD
1000
DSTYLE
1002
{
1070
   271
1070
     0
1002
}
  0
LINE
  5
C757
330
18
100
AcDbEntity
  8
1DIM
100
AcDbLine
 10
-106.7189771574535
 20
-2174.69477606586
 30
0.0
 11
-82.718977157454
 21
-2174.69477606586
 31
0.0
  0
LINE
  5
C758
330
18
100
AcDbEntity
  8
1DIM
100
AcDbLine
 10
-151.855470700722
 20
-2138.19477606586
 30
0.0
 11
-82.71897715745399
 21
-2138.19477606586
 31
0.0
  0
LINE
  5
C759
330
18
100
AcDbEntity
  8
1DIM
100
AcDbLine
 10
-83.718977157454
 20
-2172.69477606586
 30
0.0
 11
-83.71897715745399
 21
-2140.19477606586
 31
0.0
  0
LINE
  5
C75D
330
18
100
AcDbEntity
  8
1DIM
100
AcDbLine
 10
-204.7189771574581
 20
-2174.69477606586
 30
0.0
 11
-174.2189771574538
 21
-2174.69477606586
 31
0.0
  0
LINE
  5
C75E
330
18
100
AcDbEntity
  8
1DIM
100
AcDbLine
 10
-202.2194127802309
 20
-2134.69477606586
 30
0.0
 11
-174.2189771574538
 21
-2134.69477606586
 31
0.0
  0
LINE
  5
C75F
330
18
100
AcDbEntity
  8
1DIM
100
AcDbLine
 10
-175.2189771574538
 20
-2172.69477606586
 30
0.0
 11
-175.2189771574538
 21
-2136.69477606586
 31
0.0
  0
SOLID
  5
C763
330
18
100
AcDbEntity
  8
1HATCH
100
AcDbTrace
 10
-73.10706656875055
 20
-2081.891703836762
 30
0.0
 11
-74.6614745791553
 21
-2083.193597399347
 31
0.0
 12
-73.61332437339463
 22
-2081.457944134068
 32
0.0
 13
-73.61332437339463
 23
-2081.457944134068
 33
0.0
  0
LINE
  5
C764
330
18
100
AcDbEntity
  8
1HATCH
100
AcDbLine
 10
-73.36019547107259
 20
-2081.674823985415
 30
0.0
 11
-58.31943551427729
 21
-2064.120168565353
 31
0.0
  0
LINE
  5
C765
330
18
100
AcDbEntity
  8
1HATCH
100
AcDbLine
 10
-58.31943551427729
 20
-2064.120168565353
 30
0.0
 11
-55.61943551427728
 21
-2064.120168565353
 31
0.0
  0
TEXT
  5
C766
330
18
100
AcDbEntity
  8
1HATCH
  6
CONTINUOUS
100
AcDbText
 10
-55.8527688476108
 20
-2057.58683523202
 30
0.0
 40
3.5
  1
材質：亜鉛ダイキャスト
100
AcDbText
  0
TEXT
  5
C767
330
18
100
AcDbEntity
  8
1HATCH
  6
CONTINUOUS
100
AcDbText
 10
-55.73610218094414
 20
-2063.420168565353
 30
0.0
 40
3.5
  1
仕上げ：各種メッキ/塗装
100
AcDbText
  0
SOLID
  5
C768
330
18
100
AcDbEntity
  8
1HATCH
100
AcDbTrace
 10
-109.1198316864342
 20
-2132.951933914454
 30
0.0
 11
-110.1559843520167
 21
-2134.69477606586
 31
0.0
 12
-109.7410860417866
 22
-2132.710092085151
 32
0.0
 13
-109.7410860417866
 23
-2132.710092085151
 33
0.0
  0
LINE
  5
C769
330
18
100
AcDbEntity
  8
1HATCH
100
AcDbLine
 10
-109.4304588641104
 20
-2132.831012999803
 30
0.0
 11
-102.7310820064059
 21
-2115.621347231865
 31
0.0
  0
LINE
  5
C76A
330
18
100
AcDbEntity
  8
1HATCH
100
AcDbLine
 10
-102.7310820064059
 20
-2115.621347231865
 30
0.0
 11
-100.0310820064059
 21
-2115.621347231865
 31
0.0
  0
TEXT
  5
C76B
330
18
100
AcDbEntity
  8
1HATCH
  6
CONTINUOUS
100
AcDbText
 10
-100.080030696398
 20
-2109.088013898532
 30
0.0
 40
3.5
  1
材質：亜鉛ダイキャスト
100
AcDbText
  0
TEXT
  5
C76C
330
18
100
AcDbEntity
  8
1HATCH
  6
CONTINUOUS
100
AcDbText
 10
-99.96336402973132
 20
-2114.921347231866
 30
0.0
 40
3.5
  1
仕上げ：各種メッキ/塗装
100
AcDbText
  0
SOLID
  5
C76D
330
18
100
AcDbEntity
  8
1HATCH
100
AcDbTrace
 10
-128.1403959757801
 20
-2132.95912280058
 30
0.0
 11
-127.0922457700194
 21
-2134.69477606586
 31
0.0
 12
-128.6466537804242
 22
-2133.392882503274
 32
0.0
 13
-128.6466537804242
 23
-2133.392882503274
 33
0.0
  0
LINE
  5
C76E
330
18
100
AcDbEntity
  8
1HATCH
100
AcDbLine
 10
-128.3935248781021
 20
-2133.176002651927
 30
0.0
 11
-143.4342848348974
 21
-2115.621347231865
 31
0.0
  0
LINE
  5
C76F
330
18
100
AcDbEntity
  8
1HATCH
100
AcDbLine
 10
-143.4342848348974
 20
-2115.621347231865
 30
0.0
 11
-146.1342848348974
 21
-2115.621347231865
 31
0.0
  0
TEXT
  5
C770
330
18
100
AcDbEntity
  8
1HATCH
  6
CONTINUOUS
100
AcDbText
 10
-182.7676181682306
 20
-2109.088013898532
 30
0.0
 40
3.5
  1
材質：エラストマー
100
AcDbText
  0
TEXT
  5
C771
330
18
100
AcDbEntity
  8
1HATCH
  6
CONTINUOUS
100
AcDbText
 10
-182.6509515015639
 20
-2114.921347231865
 30
0.0
 40
3.5
  1
仕上げ：各色
100
AcDbText
  0
LINE
  5
C772
330
18
100
AcDbEntity
  8
1DIM
100
AcDbLine
 10
-236.7194127802309
 20
-2166.694984362092
 30
0.0
 11
-236.7194127802309
 21
-2205.69477606586
 31
0.0
1001
ACAD
1000
DSTYLE
1002
{
1070
     3
1000
φ<>
1002
}
  0
LINE
  5
C773
330
18
100
AcDbEntity
  8
1DIM
100
AcDbLine
 10
-201.7194127802311
 20
-2166.694984362092
 30
0.0
 11
-201.7194127802311
 21
-2205.69477606586
 31
0.0
1001
ACAD
1000
DSTYLE
1002
{
1070
     3
1000
φ<>
1002
}
  0
LINE
  5
C774
330
18
100
AcDbEntity
  8
1DIM
100
AcDbLine
 10
-234.7194127802309
 20
-2204.69477606586
 30
0.0
 11
-203.7194127802311
 21
-2204.69477606586
 31
0.0
1001
ACAD
1000
DSTYLE
1002
{
1070
     3
1000
φ<>
1002
}
  0
LINE
  5
C778
330
18
100
AcDbEntity
  8
1DIM
100
AcDbLine
 10
-16.28392629952953
 20
-2209.19477606586
 30
0.0
 11
-16.28392629952953
 21
-2219.05380857183
 31
0.0
1001
ACAD
1000
DSTYLE
1002
{
1070
     3
1000
φ<>
1002
}
  0
LINE
  5
C779
330
18
100
AcDbEntity
  8
1DIM
100
AcDbLine
 10
-28.28392629952953
 20
-2209.19477606586
 30
0.0
 11
-28.28392629952953
 21
-2219.05380857183
 31
0.0
1001
ACAD
1000
DSTYLE
1002
{
1070
     3
1000
φ<>
1002
}
  0
LINE
  5
C77A
330
18
100
AcDbEntity
  8
1DIM
100
AcDbLine
 10
-18.28392629952953
 20
-2218.05380857183
 30
0.0
 11
-26.28392629952953
 21
-2218.05380857183
 31
0.0
1001
ACAD
1000
DSTYLE
1002
{
1070
     3
1000
φ<>
1002
}
  0
LINE
  5
C77E
330
18
100
AcDbEntity
  8
1DIM
100
AcDbLine
 10
-26.5174864044792
 20
-2209.69477606586
 30
0.0
 11
-46.60131253968701
 21
-2209.69477606586
 31
0.0
  0
LINE
  5
C77F
330
18
100
AcDbEntity
  8
1DIM
100
AcDbLine
 10
-36.78392629952953
 20
-2174.69477606586
 30
0.0
 11
-46.601312539687
 21
-2174.69477606586
 31
0.0
  0
LINE
  5
C780
330
18
100
AcDbEntity
  8
1DIM
100
AcDbLine
 10
-45.60131253968701
 20
-2207.69477606586
 30
0.0
 11
-45.601312539687
 21
-2176.69477606586
 31
0.0
  0
LINE
  5
C784
330
18
100
AcDbEntity
  8
1HATCH
  6
CONTINUOUS
100
AcDbLine
 10
-149.6533651294939
 20
-2174.701120430588
 30
0.0
 11
-149.6470207647657
 21
-2174.69477606586
 31
0.0
1001
ACAD
1010
0.0
1020
0.0
1030
0.0
  0
LINE
  5
C785
330
18
100
AcDbEntity
  8
1HATCH
  6
CONTINUOUS
100
AcDbLine
 10
-149.6533651294939
 20
-2176.946184460855
 30
0.0
 11
-147.4019567344985
 21
-2174.69477606586
 31
0.0
1001
ACAD
1010
0.0
1020
0.0
1030
0.0
  0
LINE
  5
C786
330
18
100
AcDbEntity
  8
1HATCH
  6
CONTINUOUS
100
AcDbLine
 10
-149.6533651294939
 20
-2179.191248491122
 30
0.0
 11
-145.1568927042312
 21
-2174.69477606586
 31
0.0
1001
ACAD
1010
0.0
1020
0.0
1030
0.0
  0
LINE
  5
C787
330
18
100
AcDbEntity
  8
1HATCH
  6
CONTINUOUS
100
AcDbLine
 10
-149.6533651294939
 20
-2181.436312521389
 30
0.0
 11
-142.9118286739639
 21
-2174.69477606586
 31
0.0
1001
ACAD
1010
0.0
1020
0.0
1030
0.0
  0
LINE
  5
C788
330
18
100
AcDbEntity
  8
1HATCH
  6
CONTINUOUS
100
AcDbLine
 10
-149.6533651294939
 20
-2183.681376551657
 30
0.0
 11
-140.6667646436966
 21
-2174.69477606586
 31
0.0
1001
ACAD
1010
0.0
1020
0.0
1030
0.0
  0
LINE
  5
C789
330
18
100
AcDbEntity
  8
1HATCH
  6
CONTINUOUS
100
AcDbLine
 10
-149.6533651294939
 20
-2185.926440581924
 30
0.0
 11
-138.4217006134293
 21
-2174.69477606586
 31
0.0
1001
ACAD
1010
0.0
1020
0.0
1030
0.0
  0
LINE
  5
C78A
330
18
100
AcDbEntity
  8
1HATCH
  6
CONTINUOUS
100
AcDbLine
 10
-148.1766365831616
 20
-2186.694776065859
 30
0.0
 11
-136.176636583162
 21
-2174.69477606586
 31
0.0
1001
ACAD
1010
0.0
1020
0.0
1030
0.0
  0
LINE
  5
C78B
330
18
100
AcDbEntity
  8
1HATCH
  6
CONTINUOUS
100
AcDbLine
 10
-145.9315725528943
 20
-2186.694776065859
 30
0.0
 11
-133.9315725528947
 21
-2174.69477606586
 31
0.0
1001
ACAD
1010
0.0
1020
0.0
1030
0.0
  0
LINE
  5
C78C
330
18
100
AcDbEntity
  8
1HATCH
  6
CONTINUOUS
100
AcDbLine
 10
-143.686508522627
 20
-2186.694776065859
 30
0.0
 11
-131.6865085226273
 21
-2174.69477606586
 31
0.0
1001
ACAD
1010
0.0
1020
0.0
1030
0.0
  0
LINE
  5
C78D
330
18
100
AcDbEntity
  8
1HATCH
  6
CONTINUOUS
100
AcDbLine
 10
-141.4414444923597
 20
-2186.694776065859
 30
0.0
 11
-129.4414444923598
 21
-2174.694776065859
 31
0.0
1001
ACAD
1010
0.0
1020
0.0
1030
0.0
  0
LINE
  5
C78E
330
18
100
AcDbEntity
  8
1HATCH
  6
CONTINUOUS
100
AcDbLine
 10
-139.1963804620924
 20
-2186.694776065859
 30
0.0
 11
-127.1963804620924
 21
-2174.694776065859
 31
0.0
1001
ACAD
1010
0.0
1020
0.0
1030
0.0
  0
LINE
  5
C78F
330
18
100
AcDbEntity
  8
1HATCH
  6
CONTINUOUS
100
AcDbLine
 10
-136.9513164318251
 20
-2186.694776065859
 30
0.0
 11
-127.2070272164333
 21
-2176.950486850467
 31
0.0
1001
ACAD
1010
0.0
1020
0.0
1030
0.0
  0
LINE
  5
C790
330
18
100
AcDbEntity
  8
1HATCH
  6
CONTINUOUS
100
AcDbLine
 10
-134.7062524015578
 20
-2186.694776065859
 30
0.0
 11
-127.068977157453
 21
-2179.057500821754
 31
0.0
1001
ACAD
1010
0.0
1020
0.0
1030
0.0
  0
LINE
  5
C791
330
18
100
AcDbEntity
  8
1HATCH
  6
CONTINUOUS
100
AcDbLine
 10
-124.5689771574536
 20
-2176.557500821755
 30
0.0
 11
-124.0956866095532
 21
-2176.084210273854
 31
0.0
1001
ACAD
1010
0.0
1020
0.0
1030
0.0
  0
LINE
  5
C792
330
18
100
AcDbEntity
  8
1HATCH
  6
CONTINUOUS
100
AcDbLine
 10
-124.0861475454122
 20
-2176.074671209713
 30
0.0
 11
-122.7062524015582
 21
-2174.69477606586
 31
0.0
1001
ACAD
1010
0.0
1020
0.0
1030
0.0
  0
LINE
  5
C793
330
18
100
AcDbEntity
  8
1HATCH
  6
CONTINUOUS
100
AcDbLine
 10
-132.4611883712905
 20
-2186.694776065859
 30
0.0
 11
-127.465253331956
 21
-2181.698841026524
 31
0.0
1001
ACAD
1010
0.0
1020
0.0
1030
0.0
  0
LINE
  5
C794
330
18
100
AcDbEntity
  8
1HATCH
  6
CONTINUOUS
100
AcDbLine
 10
-127.4076292277863
 20
-2181.641216922355
 30
0.0
 11
-127.0689771574528
 21
-2181.302564852021
 31
0.0
1001
ACAD
1010
0.0
1020
0.0
1030
0.0
  0
LINE
  5
C795
330
18
100
AcDbEntity
  8
1HATCH
  6
CONTINUOUS
100
AcDbLine
 10
-124.5689771574537
 20
-2178.802564852022
 30
0.0
 11
-120.4611883712908
 21
-2174.69477606586
 31
0.0
1001
ACAD
1010
0.0
1020
0.0
1030
0.0
  0
LINE
  5
C796
330
18
100
AcDbEntity
  8
1HATCH
  6
CONTINUOUS
100
AcDbLine
 10
-130.2161243410233
 20
-2186.694776065859
 30
0.0
 11
-127.0689771574525
 21
-2183.547628882288
 31
0.0
1001
ACAD
1010
0.0
1020
0.0
1030
0.0
  0
LINE
  5
C797
330
18
100
AcDbEntity
  8
1HATCH
  6
CONTINUOUS
100
AcDbLine
 10
-124.5689771574538
 20
-2181.04762888229
 30
0.0
 11
-124.4973710723612
 21
-2180.976022797197
 31
0.0
1001
ACAD
1010
0.0
1020
0.0
1030
0.0
  0
LINE
  5
C798
330
18
100
AcDbEntity
  8
1HATCH
  6
CONTINUOUS
100
AcDbLine
 10
-124.3443736609349
 20
-2180.823025385771
 30
0.0
 11
-118.2161243410234
 21
-2174.694776065859
 31
0.0
1001
ACAD
1010
0.0
1020
0.0
1030
0.0
  0
LINE
  5
C799
330
18
100
AcDbEntity
  8
1HATCH
  6
CONTINUOUS
100
AcDbLine
 10
-127.971060310756
 20
-2186.694776065859
 30
0.0
 11
-127.0689771574523
 21
-2185.792692912556
 31
0.0
1001
ACAD
1010
0.0
1020
0.0
1030
0.0
  0
LINE
  5
C79A
330
18
100
AcDbEntity
  8
1HATCH
  6
CONTINUOUS
100
AcDbLine
 10
-124.5689771574538
 20
-2183.292692912557
 30
0.0
 11
-115.9710603107561
 21
-2174.694776065859
 31
0.0
1001
ACAD
1010
0.0
1020
0.0
1030
0.0
  0
LINE
  5
C79B
330
18
100
AcDbEntity
  8
1HATCH
  6
CONTINUOUS
100
AcDbLine
 10
-124.5689771574539
 20
-2185.537756942824
 30
0.0
 11
-113.7259962804887
 21
-2174.694776065859
 31
0.0
1001
ACAD
1010
0.0
1020
0.0
1030
0.0
  0
LINE
  5
C79C
330
18
100
AcDbEntity
  8
1HATCH
  6
CONTINUOUS
100
AcDbLine
 10
-123.4809322502218
 20
-2186.69477606586
 30
0.0
 11
-113.6817065324947
 21
-2176.895550348132
 31
0.0
1001
ACAD
1010
0.0
1020
0.0
1030
0.0
  0
LINE
  5
C79D
330
18
100
AcDbEntity
  8
1HATCH
  6
CONTINUOUS
100
AcDbLine
 10
-113.6332230566933
 20
-2176.847066872331
 30
0.0
 11
-113.2689771574533
 21
-2176.482820973091
 31
0.0
1001
ACAD
1010
0.0
1020
0.0
1030
0.0
  0
LINE
  5
C79E
330
18
100
AcDbEntity
  8
1HATCH
  6
CONTINUOUS
100
AcDbLine
 10
-121.2358682199544
 20
-2186.69477606586
 30
0.0
 11
-113.2689771574531
 21
-2178.727885003358
 31
0.0
1001
ACAD
1010
0.0
1020
0.0
1030
0.0
  0
LINE
  5
C79F
330
18
100
AcDbEntity
  8
1HATCH
  6
CONTINUOUS
100
AcDbLine
 10
-110.7689771574536
 20
-2176.227885003359
 30
0.0
 11
-110.7229649012684
 21
-2176.181872747173
 31
0.0
1001
ACAD
1010
0.0
1020
0.0
1030
0.0
  0
LINE
  5
C7A0
330
18
100
AcDbEntity
  8
1HATCH
  6
CONTINUOUS
100
AcDbLine
 10
-110.5608268614741
 20
-2176.019734707379
 30
0.0
 11
-109.2358682199546
 21
-2174.69477606586
 31
0.0
1001
ACAD
1010
0.0
1020
0.0
1030
0.0
  0
LINE
  5
C7A1
330
18
100
AcDbEntity
  8
1HATCH
  6
CONTINUOUS
100
AcDbLine
 10
-118.990804189687
 20
-2186.69477606586
 30
0.0
 11
-113.2689771574528
 21
-2180.972949033625
 31
0.0
1001
ACAD
1010
0.0
1020
0.0
1030
0.0
  0
LINE
  5
C7A2
330
18
100
AcDbEntity
  8
1HATCH
  6
CONTINUOUS
100
AcDbLine
 10
-110.7689771574537
 20
-2178.472949033626
 30
0.0
 11
-106.9908041896873
 21
-2174.69477606586
 31
0.0
1001
ACAD
1010
0.0
1020
0.0
1030
0.0
  0
LINE
  5
C7A3
330
18
100
AcDbEntity
  8
1HATCH
  6
CONTINUOUS
100
AcDbLine
 10
-116.7457401594197
 20
-2186.694776065859
 30
0.0
 11
-113.4023803317727
 21
-2183.351416238212
 31
0.0
1001
ACAD
1010
0.0
1020
0.0
1030
0.0
  0
LINE
  5
C7A4
330
18
100
AcDbEntity
  8
1HATCH
  6
CONTINUOUS
100
AcDbLine
 10
-110.7689771574537
 20
-2180.718013063893
 30
0.0
 11
-104.74574015942
 21
-2174.69477606586
 31
0.0
1001
ACAD
1010
0.0
1020
0.0
1030
0.0
  0
LINE
  5
C7A5
330
18
100
AcDbEntity
  8
1HATCH
  6
CONTINUOUS
100
AcDbLine
 10
-114.5006761291523
 20
-2186.694776065859
 30
0.0
 11
-113.2689771574524
 21
-2185.463077094159
 31
0.0
1001
ACAD
1010
0.0
1020
0.0
1030
0.0
  0
LINE
  5
C7A6
330
18
100
AcDbEntity
  8
1HATCH
  6
CONTINUOUS
100
AcDbLine
 10
-110.7689771574538
 20
-2182.963077094161
 30
0.0
 11
-110.2884581332056
 21
-2182.482558069913
 31
0.0
1001
ACAD
1010
0.0
1020
0.0
1030
0.0
  0
LINE
  5
C7A7
330
18
100
AcDbEntity
  8
1HATCH
  6
CONTINUOUS
100
AcDbLine
 10
-110.2815006607525
 20
-2182.475600597459
 30
0.0
 11
-102.5006761291527
 21
-2174.69477606586
 31
0.0
1001
ACAD
1010
0.0
1020
0.0
1030
0.0
  0
LINE
  5
C7A8
330
18
100
AcDbEntity
  8
1HATCH
  6
CONTINUOUS
100
AcDbLine
 10
-110.7689771574539
 20
-2185.208141124428
 30
0.0
 11
-100.2556120988854
 21
-2174.69477606586
 31
0.0
1001
ACAD
1010
0.0
1020
0.0
1030
0.0
  0
LINE
  5
C7A9
330
18
100
AcDbEntity
  8
1HATCH
  6
CONTINUOUS
100
AcDbLine
 10
-110.0105480686181
 20
-2186.69477606586
 30
0.0
 11
-98.0105480686181
 21
-2174.69477606586
 31
0.0
1001
ACAD
1010
0.0
1020
0.0
1030
0.0
  0
LINE
  5
C7AA
330
18
100
AcDbEntity
  8
1HATCH
  6
CONTINUOUS
100
AcDbLine
 10
-107.7654840383508
 20
-2186.69477606586
 30
0.0
 11
-95.76548403835082
 21
-2174.69477606586
 31
0.0
1001
ACAD
1010
0.0
1020
0.0
1030
0.0
  0
LINE
  5
C7AB
330
18
100
AcDbEntity
  8
1HATCH
  6
CONTINUOUS
100
AcDbLine
 10
-105.5204200080835
 20
-2186.69477606586
 30
0.0
 11
-93.52042000808353
 21
-2174.69477606586
 31
0.0
1001
ACAD
1010
0.0
1020
0.0
1030
0.0
  0
LINE
  5
C7AC
330
18
100
AcDbEntity
  8
1HATCH
  6
CONTINUOUS
100
AcDbLine
 10
-103.2753559778162
 20
-2186.69477606586
 30
0.0
 11
-91.27535597781625
 21
-2174.69477606586
 31
0.0
1001
ACAD
1010
0.0
1020
0.0
1030
0.0
  0
LINE
  5
C7AD
330
18
100
AcDbEntity
  8
1HATCH
  6
CONTINUOUS
100
AcDbLine
 10
-101.030291947549
 20
-2186.69477606586
 30
0.0
 11
-89.03029194754896
 21
-2174.69477606586
 31
0.0
1001
ACAD
1010
0.0
1020
0.0
1030
0.0
  0
LINE
  5
C7AE
330
18
100
AcDbEntity
  8
1HATCH
  6
CONTINUOUS
100
AcDbLine
 10
-98.78522791728167
 20
-2186.69477606586
 30
0.0
 11
-86.78522791728167
 21
-2174.69477606586
 31
0.0
1001
ACAD
1010
0.0
1020
0.0
1030
0.0
  0
LINE
  5
C7AF
330
18
100
AcDbEntity
  8
1HATCH
  6
CONTINUOUS
100
AcDbLine
 10
-96.54016388701439
 20
-2186.69477606586
 30
0.0
 11
-84.54016388701437
 21
-2174.69477606586
 31
0.0
1001
ACAD
1010
0.0
1020
0.0
1030
0.0
  0
LINE
  5
C7B0
330
18
100
AcDbEntity
  8
1HATCH
  6
CONTINUOUS
100
AcDbLine
 10
-94.2950998567471
 20
-2186.69477606586
 30
0.0
 11
-82.29509985674709
 21
-2174.69477606586
 31
0.0
1001
ACAD
1010
0.0
1020
0.0
1030
0.0
  0
LINE
  5
C7B1
330
18
100
AcDbEntity
  8
1HATCH
  6
CONTINUOUS
100
AcDbLine
 10
-92.05003582647981
 20
-2186.69477606586
 30
0.0
 11
-80.14358224903256
 21
-2174.788322488412
 31
0.0
1001
ACAD
1010
0.0
1020
0.0
1030
0.0
  0
LINE
  5
C7B2
330
18
100
AcDbEntity
  8
1HATCH
  6
CONTINUOUS
100
AcDbLine
 10
-89.80497179621253
 20
-2186.69477606586
 30
0.0
 11
-80.14358224903256
 21
-2177.033386518679
 31
0.0
1001
ACAD
1010
0.0
1020
0.0
1030
0.0
  0
LINE
  5
C7B3
330
18
100
AcDbEntity
  8
1HATCH
  6
CONTINUOUS
100
AcDbLine
 10
-87.55990776594524
 20
-2186.69477606586
 30
0.0
 11
-80.14358224903256
 21
-2179.278450548947
 31
0.0
1001
ACAD
1010
0.0
1020
0.0
1030
0.0
  0
LINE
  5
C7B4
330
18
100
AcDbEntity
  8
1HATCH
  6
CONTINUOUS
100
AcDbLine
 10
-85.31484373567795
 20
-2186.69477606586
 30
0.0
 11
-80.14358224903256
 21
-2181.523514579214
 31
0.0
1001
ACAD
1010
0.0
1020
0.0
1030
0.0
  0
LINE
  5
C7B5
330
18
100
AcDbEntity
  8
1HATCH
  6
CONTINUOUS
100
AcDbLine
 10
-83.06977970541067
 20
-2186.69477606586
 30
0.0
 11
-80.14358224903256
 21
-2183.768578609481
 31
0.0
1001
ACAD
1010
0.0
1020
0.0
1030
0.0
  0
LINE
  5
C7B6
330
18
100
AcDbEntity
  8
1HATCH
  6
CONTINUOUS
100
AcDbLine
 10
-80.82471567514338
 20
-2186.69477606586
 30
0.0
 11
-80.14358224903256
 21
-2186.013642639749
 31
0.0
1001
ACAD
1010
0.0
1020
0.0
1030
0.0
  0
SOLID
  5
C7B7
330
18
100
AcDbEntity
  8
1DIM
100
AcDbTrace
 10
-200.9806162452562
 20
-2084.964913965626
 30
0.0
 11
-201.4906852127101
 21
-2083.002532565502
 31
0.0
 12
-200.3717395191325
 22
-2084.693411522121
 32
0.0
 13
-200.3717395191325
 23
-2084.693411522121
 33
0.0
  0
LINE
  5
C7B8
330
18
100
AcDbEntity
  8
1DIM
100
AcDbLine
 10
-200.6761778821943
 20
-2084.829162743873
 30
0.0
 11
-194.7058972566649
 21
-2098.218231639091
 31
0.0
  0
LINE
  5
C7B9
330
18
100
AcDbEntity
  8
1DIM
100
AcDbLine
 10
-194.7058972566649
 20
-2098.218231639091
 30
0.0
 11
-159.6892305899982
 21
-2098.218231639091
 31
0.0
  0
TEXT
  5
C7BA
330
18
100
AcDbEntity
  8
1DIM
  6
CONTINUOUS
100
AcDbText
 10
-192.2392305899982
 20
-2097.518231639091
 30
0.0
 40
3.5
  1
材質：ステンレス
100
AcDbText
  0
SOLID
  5
C7BB
330
18
100
AcDbEntity
  8
1DIM
100
AcDbTrace
 10
-96.71284635955368
 20
-2190.525169452061
 30
0.0
 11
-96.06703786957428
 21
-2188.603180246737
 31
0.0
 12
-96.05458994215243
 22
-2190.63072954582
 32
0.0
 13
-96.05458994215243
 23
-2190.63072954582
 33
0.0
  0
LINE
  5
C7BC
330
18
100
AcDbEntity
  8
1DIM
100
AcDbLine
 10
-96.38371815085306
 20
-2190.577949498941
 30
0.0
 11
-99.04815375462381
 21
-2207.19295780813
 31
0.0
  0
LINE
  5
C7BD
330
18
100
AcDbEntity
  8
1DIM
100
AcDbLine
 10
-99.04815375462381
 20
-2207.19295780813
 30
0.0
 11
-134.2981537546238
 21
-2207.19295780813
 31
0.0
  0
TEXT
  5
C7BE
330
18
100
AcDbEntity
  8
1DIM
  6
CONTINUOUS
100
AcDbText
 10
-134.6481537546238
 20
-2206.49295780813
 30
0.0
 40
3.5
  1
フローリング床材
100
AcDbText
  0
SOLID
  5
C7BF
330
18
100
AcDbEntity
  8
1DIM
100
AcDbTrace
 10
-30.61443121870095
 20
-2209.08916306861
 30
0.0
 11
-28.76469483658821
 21
-2208.258749660843
 31
0.0
 12
-30.24512220093252
 22
-2209.644190359686
 32
0.0
 13
-30.24512220093252
 23
-2209.644190359686
 33
0.0
  0
LINE
  5
C7C0
330
18
100
AcDbEntity
  8
1DIM
100
AcDbLine
 10
-30.42977670981673
 20
-2209.366676714148
 30
0.0
 11
-63.54958174082033
 21
-2231.404228491045
 31
0.0
  0
LINE
  5
C7C1
330
18
100
AcDbEntity
  8
1DIM
100
AcDbLine
 10
-63.54958174082033
 20
-2231.404228491045
 30
0.0
 11
-123.2995817408203
 21
-2231.404228491045
 31
0.0
  0
TEXT
  5
C7C2
330
18
100
AcDbEntity
  8
1DIM
  6
CONTINUOUS
100
AcDbText
 10
-123.8829150741537
 20
-2219.027839602156
 30
0.0
 40
3.5
  1
コンクリート用カットアンカー
100
AcDbText
  0
TEXT
  5
C7C3
330
18
100
AcDbEntity
  8
1DIM
  6
CONTINUOUS
100
AcDbText
 10
-117.7481928519315
 20
-2224.8660340466
 30
0.0
 40
3.5
  1
φ12-35（ネジM8-35）
100
AcDbText
  0
TEXT
  5
C7C4
330
18
100
AcDbEntity
  8
1DIM
  6
CONTINUOUS
100
AcDbText
 10
-116.2072206297092
 20
-2230.704228491045
 30
0.0
 40
3.5
  1
AC-0835（オプション）
100
AcDbText
  0
LINE
  5
C7C5
330
18
100
AcDbEntity
  8
1HATCH
  6
CONTINUOUS
100
AcDbLine
 10
-56.971821469151
 20
-2178.557330071739
 30
0.0
 11
-53.10926746327173
 21
-2174.69477606586
 31
0.0
1001
ACAD
1010
0.0
1020
0.0
1030
0.0
  0
LINE
  5
C7C6
330
18
100
AcDbEntity
  8
1HATCH
  6
CONTINUOUS
100
AcDbLine
 10
-56.971821469151
 20
-2185.292522162541
 30
0.0
 11
-46.37407537246987
 21
-2174.69477606586
 31
0.0
1001
ACAD
1010
0.0
1020
0.0
1030
0.0
  0
LINE
  5
C7C7
330
18
100
AcDbEntity
  8
1HATCH
  6
CONTINUOUS
100
AcDbLine
 10
-56.971821469151
 20
-2192.027714253342
 30
0.0
 11
-39.638883281668
 21
-2174.69477606586
 31
0.0
1001
ACAD
1010
0.0
1020
0.0
1030
0.0
  0
LINE
  5
C7C8
330
18
100
AcDbEntity
  8
1HATCH
  6
CONTINUOUS
100
AcDbLine
 10
-56.971821469151
 20
-2198.762906344145
 30
0.0
 11
-50.67631253968666
 21
-2192.46739741468
 31
0.0
1001
ACAD
1010
0.0
1020
0.0
1030
0.0
  0
LINE
  5
C7C9
330
18
100
AcDbEntity
  8
1HATCH
  6
CONTINUOUS
100
AcDbLine
 10
-46.69535785753311
 20
-2188.486442732526
 30
0.0
 11
-32.90369119086614
 21
-2174.69477606586
 31
0.0
1001
ACAD
1010
0.0
1020
0.0
1030
0.0
  0
LINE
  5
C7CA
330
18
100
AcDbEntity
  8
1HATCH
  6
CONTINUOUS
100
AcDbLine
 10
-56.97182146915101
 20
-2205.498098434946
 30
0.0
 11
-47.37683243339776
 21
-2195.903109399193
 31
0.0
1001
ACAD
1010
0.0
1020
0.0
1030
0.0
  0
LINE
  5
C7CB
330
18
100
AcDbEntity
  8
1HATCH
  6
CONTINUOUS
100
AcDbLine
 10
-45.42631253968666
 20
-2193.952589505482
 30
0.0
 11
-28.28392629952953
 21
-2176.810203265325
 31
0.0
1001
ACAD
1010
0.0
1020
0.0
1030
0.0
  0
LINE
  5
C7CC
330
18
100
AcDbEntity
  8
1HATCH
  6
CONTINUOUS
100
AcDbLine
 10
-56.97182146915101
 20
-2212.233290525748
 30
0.0
 11
-28.28392629952953
 21
-2183.545395356127
 31
0.0
1001
ACAD
1010
0.0
1020
0.0
1030
0.0
  0
LINE
  5
C7CD
330
18
100
AcDbEntity
  8
1HATCH
  6
CONTINUOUS
100
AcDbLine
 10
-56.97182146915101
 20
-2218.96848261655
 30
0.0
 11
-28.28392629952953
 21
-2190.280587446929
 31
0.0
1001
ACAD
1010
0.0
1020
0.0
1030
0.0
  0
LINE
  5
C7CE
330
18
100
AcDbEntity
  8
1HATCH
  6
CONTINUOUS
100
AcDbLine
 10
-16.28392629952953
 20
-2178.280587446929
 30
0.0
 11
-12.69811491846008
 21
-2174.694776065859
 31
0.0
1001
ACAD
1010
0.0
1020
0.0
1030
0.0
  0
LINE
  5
C7CF
330
18
100
AcDbEntity
  8
1HATCH
  6
CONTINUOUS
100
AcDbLine
 10
-56.97182146915101
 20
-2225.703674707352
 30
0.0
 11
-27.96292282765867
 21
-2196.69477606586
 31
0.0
1001
ACAD
1010
0.0
1020
0.0
1030
0.0
  0
LINE
  5
C7D0
330
18
100
AcDbEntity
  8
1HATCH
  6
CONTINUOUS
100
AcDbLine
 10
-16.28392629952953
 20
-2185.01577953773
 30
0.0
 11
-5.962922827658211
 21
-2174.694776065859
 31
0.0
1001
ACAD
1010
0.0
1020
0.0
1030
0.0
  0
LINE
  5
C7D1
330
18
100
AcDbEntity
  8
1HATCH
  6
CONTINUOUS
100
AcDbLine
 10
-50.66191100744896
 20
-2226.128956336452
 30
0.0
 11
-28.06202408086611
 21
-2203.529069409869
 31
0.0
1001
ACAD
1010
0.0
1020
0.0
1030
0.0
  0
LINE
  5
C7D2
330
18
100
AcDbEntity
  8
1HATCH
  6
CONTINUOUS
100
AcDbLine
 10
-16.28392629952953
 20
-2191.750971628532
 30
0.0
 11
0.7722692631436558
 21
-2174.694776065859
 31
0.0
1001
ACAD
1010
0.0
1020
0.0
1030
0.0
  0
LINE
  5
C7D3
330
18
100
AcDbEntity
  8
1HATCH
  6
CONTINUOUS
100
AcDbLine
 10
-43.92671891664709
 20
-2226.128956336452
 30
0.0
 11
-27.49253864605538
 21
-2209.69477606586
 31
0.0
1001
ACAD
1010
0.0
1020
0.0
1030
0.0
  0
LINE
  5
C7D4
330
18
100
AcDbEntity
  8
1HATCH
  6
CONTINUOUS
100
AcDbLine
 10
-16.28392629952933
 20
-2198.486163719334
 30
0.0
 11
7.507461353945523
 21
-2174.694776065859
 31
0.0
1001
ACAD
1010
0.0
1020
0.0
1030
0.0
  0
LINE
  5
C7D5
330
18
100
AcDbEntity
  8
1HATCH
  6
CONTINUOUS
100
AcDbLine
 10
-37.19152682584523
 20
-2226.128956336452
 30
0.0
 11
-27.99225963286286
 21
-2216.929689143469
 31
0.0
1001
ACAD
1010
0.0
1020
0.0
1030
0.0
  0
LINE
  5
C7D6
330
18
100
AcDbEntity
  8
1HATCH
  6
CONTINUOUS
100
AcDbLine
 10
-24.0413790612241
 20
-2212.978808571831
 30
0.0
 11
-20.75734655525324
 21
-2209.69477606586
 31
0.0
1001
ACAD
1010
0.0
1020
0.0
1030
0.0
  0
LINE
  5
C7D7
330
18
100
AcDbEntity
  8
1HATCH
  6
CONTINUOUS
100
AcDbLine
 10
-16.28392629952957
 20
-2205.221355810136
 30
0.0
 11
9.575919873202118
 21
-2179.361509637404
 31
0.0
1001
ACAD
1010
0.0
1020
0.0
1030
0.0
  0
LINE
  5
C7D8
330
18
100
AcDbEntity
  8
1HATCH
  6
CONTINUOUS
100
AcDbLine
 10
-30.45633473504336
 20
-2226.128956336452
 30
0.0
 11
-22.55618697042223
 21
-2218.228808571831
 31
0.0
1001
ACAD
1010
0.0
1020
0.0
1030
0.0
  0
LINE
  5
C7D9
330
18
100
AcDbEntity
  8
1HATCH
  6
CONTINUOUS
100
AcDbLine
 10
-17.30618697042223
 20
-2212.978808571831
 30
0.0
 11
9.575919873202118
 21
-2186.096701728206
 31
0.0
1001
ACAD
1010
0.0
1020
0.0
1030
0.0
  0
LINE
  5
C7DA
330
18
100
AcDbEntity
  8
1HATCH
  6
CONTINUOUS
100
AcDbLine
 10
-23.7211426442415
 20
-2226.128956336452
 30
0.0
 11
-20.68398632730151
 21
-2223.091800019512
 31
0.0
1001
ACAD
1010
0.0
1020
0.0
1030
0.0
  0
LINE
  5
C7DB
330
18
100
AcDbEntity
  8
1HATCH
  6
CONTINUOUS
100
AcDbLine
 10
-17.53152089718755
 20
-2219.939334589398
 30
0.0
 11
9.575919873202118
 21
-2192.831893819008
 31
0.0
1001
ACAD
1010
0.0
1020
0.0
1030
0.0
  0
LINE
  5
C7DC
330
18
100
AcDbEntity
  8
1HATCH
  6
CONTINUOUS
100
AcDbLine
 10
-16.98595055343962
 20
-2226.128956336452
 30
0.0
 11
-15.99632880638459
 21
-2225.139334589397
 31
0.0
1001
ACAD
1010
0.0
1020
0.0
1030
0.0
  0
LINE
  5
C7DD
330
18
100
AcDbEntity
  8
1HATCH
  6
CONTINUOUS
100
AcDbLine
 10
-10.25075846263775
 20
-2226.128956336452
 30
0.0
 11
-9.261136715582724
 21
-2225.139334589397
 31
0.0
1001
ACAD
1010
0.0
1020
0.0
1030
0.0
  0
LINE
  5
C7DE
330
18
100
AcDbEntity
  8
1HATCH
  6
CONTINUOUS
100
AcDbLine
 10
-3.515566371835884
 20
-2226.128956336452
 30
0.0
 11
-2.525944624780855
 21
-2225.139334589397
 31
0.0
1001
ACAD
1010
0.0
1020
0.0
1030
0.0
  0
LINE
  5
C7DF
330
18
100
AcDbEntity
  8
1HATCH
  6
CONTINUOUS
100
AcDbLine
 10
-10.79632880638569
 20
-2219.939334589398
 30
0.0
 11
9.575919873202118
 21
-2199.56708590981
 31
0.0
1001
ACAD
1010
0.0
1020
0.0
1030
0.0
  0
LINE
  5
C7E0
330
18
100
AcDbEntity
  8
1HATCH
  6
CONTINUOUS
100
AcDbLine
 10
-4.061136715583817
 20
-2219.939334589398
 30
0.0
 11
9.57591987320211
 21
-2206.302278000612
 31
0.0
1001
ACAD
1010
0.0
1020
0.0
1030
0.0
  0
LINE
  5
C7E1
330
18
100
AcDbEntity
  8
1HATCH
  6
CONTINUOUS
100
AcDbLine
 10
2.67405537521805
 20
-2219.939334589398
 30
0.0
 11
9.57591987320211
 21
-2213.037470091414
 31
0.0
1001
ACAD
1010
0.0
1020
0.0
1030
0.0
  0
LINE
  5
C7E2
330
18
100
AcDbEntity
  8
1HATCH
  6
CONTINUOUS
100
AcDbLine
 10
3.219625718965972
 20
-2226.128956336452
 30
0.0
 11
4.209247466021004
 21
-2225.139334589397
 31
0.0
1001
ACAD
1010
0.0
1020
0.0
1030
0.0
  0
LINE
  5
C7E3
330
18
100
AcDbEntity
  8
1HATCH
  6
CONTINUOUS
100
AcDbLine
 10
7.449347006031619
 20
-2221.899235049386
 30
0.0
 11
9.57591987320211
 21
-2219.772662182216
 31
0.0
1001
ACAD
1010
0.0
1020
0.0
1030
0.0
  0
LINE
  5
C7E4
330
18
100
AcDbEntity
  8
1HATCH
  6
CONTINUOUS
100
AcDbLine
 10
-56.971821469151
 20
-2180.802395071739
 30
0.0
 11
-50.86420246327179
 21
-2174.69477606586
 31
0.0
1001
ACAD
1010
0.0
1020
0.0
1030
0.0
  0
LINE
  5
C7E5
330
18
100
AcDbEntity
  8
1HATCH
  6
CONTINUOUS
100
AcDbLine
 10
-56.971821469151
 20
-2187.537587162541
 30
0.0
 11
-44.12901037246993
 21
-2174.69477606586
 31
0.0
1001
ACAD
1010
0.0
1020
0.0
1030
0.0
  0
LINE
  5
C7E6
330
18
100
AcDbEntity
  8
1HATCH
  6
CONTINUOUS
100
AcDbLine
 10
-56.971821469151
 20
-2194.272779253342
 30
0.0
 11
-37.39381828166806
 21
-2174.69477606586
 31
0.0
1001
ACAD
1010
0.0
1020
0.0
1030
0.0
  0
LINE
  5
C7E7
330
18
100
AcDbEntity
  8
1HATCH
  6
CONTINUOUS
100
AcDbLine
 10
-56.971821469151
 20
-2201.007971344144
 30
0.0
 11
-50.67631253968666
 21
-2194.71246241468
 31
0.0
1001
ACAD
1010
0.0
1020
0.0
1030
0.0
  0
LINE
  5
C7E8
330
18
100
AcDbEntity
  8
1HATCH
  6
CONTINUOUS
100
AcDbLine
 10
-45.42631253968666
 20
-2189.46246241468
 30
0.0
 11
-30.6586261908662
 21
-2174.69477606586
 31
0.0
1001
ACAD
1010
0.0
1020
0.0
1030
0.0
  0
LINE
  5
C7E9
330
18
100
AcDbEntity
  8
1HATCH
  6
CONTINUOUS
100
AcDbLine
 10
-56.97182146915101
 20
-2207.743163434946
 30
0.0
 11
-28.28392629952953
 21
-2179.055268265325
 31
0.0
1001
ACAD
1010
0.0
1020
0.0
1030
0.0
  0
LINE
  5
C7EA
330
18
100
AcDbEntity
  8
1HATCH
  6
CONTINUOUS
100
AcDbLine
 10
-56.97182146915101
 20
-2214.478355525748
 30
0.0
 11
-28.28392629952953
 21
-2185.790460356126
 31
0.0
1001
ACAD
1010
0.0
1020
0.0
1030
0.0
  0
LINE
  5
C7EB
330
18
100
AcDbEntity
  8
1HATCH
  6
CONTINUOUS
100
AcDbLine
 10
-56.97182146915101
 20
-2221.21354761655
 30
0.0
 11
-28.28392629952953
 21
-2192.525652446928
 31
0.0
1001
ACAD
1010
0.0
1020
0.0
1030
0.0
  0
LINE
  5
C7EC
330
18
100
AcDbEntity
  8
1HATCH
  6
CONTINUOUS
100
AcDbLine
 10
-16.28392629952953
 20
-2180.525652446928
 30
0.0
 11
-10.45304991846015
 21
-2174.694776065859
 31
0.0
1001
ACAD
1010
0.0
1020
0.0
1030
0.0
  0
LINE
  5
C7ED
330
18
100
AcDbEntity
  8
1HATCH
  6
CONTINUOUS
100
AcDbLine
 10
-55.1520380982509
 20
-2226.128956336452
 30
0.0
 11
-28.28392629952947
 21
-2199.26084453773
 31
0.0
1001
ACAD
1010
0.0
1020
0.0
1030
0.0
  0
LINE
  5
C7EE
330
18
100
AcDbEntity
  8
1HATCH
  6
CONTINUOUS
100
AcDbLine
 10
-16.28392629952953
 20
-2187.26084453773
 30
0.0
 11
-3.717857827658285
 21
-2174.694776065859
 31
0.0
1001
ACAD
1010
0.0
1020
0.0
1030
0.0
  0
LINE
  5
C7EF
330
18
100
AcDbEntity
  8
1HATCH
  6
CONTINUOUS
100
AcDbLine
 10
-48.41684600744903
 20
-2226.128956336452
 30
0.0
 11
-28.28392629952949
 21
-2205.996036628532
 31
0.0
1001
ACAD
1010
0.0
1020
0.0
1030
0.0
  0
LINE
  5
C7F0
330
18
100
AcDbEntity
  8
1HATCH
  6
CONTINUOUS
100
AcDbLine
 10
-16.28392629952953
 20
-2193.996036628532
 30
0.0
 11
3.017334263143582
 21
-2174.694776065859
 31
0.0
1001
ACAD
1010
0.0
1020
0.0
1030
0.0
  0
LINE
  5
C7F1
330
18
100
AcDbEntity
  8
1HATCH
  6
CONTINUOUS
100
AcDbLine
 10
-41.68165391664716
 20
-2226.128956336452
 30
0.0
 11
-25.24747364605535
 21
-2209.69477606586
 31
0.0
1001
ACAD
1010
0.0
1020
0.0
1030
0.0
  0
LINE
  5
C7F2
330
18
100
AcDbEntity
  8
1HATCH
  6
CONTINUOUS
100
AcDbLine
 10
-16.39981313616094
 20
-2200.847115555966
 30
0.0
 11
9.575919873202118
 21
-2174.871382546602
 31
0.0
1001
ACAD
1010
0.0
1020
0.0
1030
0.0
  0
LINE
  5
C7F3
330
18
100
AcDbEntity
  8
1HATCH
  6
CONTINUOUS
100
AcDbLine
 10
-34.9464618258453
 20
-2226.128956336452
 30
0.0
 11
-27.04631406122417
 21
-2218.228808571831
 31
0.0
1001
ACAD
1010
0.0
1020
0.0
1030
0.0
  0
LINE
  5
C7F4
330
18
100
AcDbEntity
  8
1HATCH
  6
CONTINUOUS
100
AcDbLine
 10
-21.79631406122417
 20
-2212.978808571831
 30
0.0
 11
-18.51228155525321
 21
-2209.69477606586
 31
0.0
1001
ACAD
1010
0.0
1020
0.0
1030
0.0
  0
LINE
  5
C7F5
330
18
100
AcDbEntity
  8
1HATCH
  6
CONTINUOUS
100
AcDbLine
 10
-16.28392629952954
 20
-2207.466420810136
 30
0.0
 11
9.575919873202118
 21
-2181.606574637404
 31
0.0
1001
ACAD
1010
0.0
1020
0.0
1030
0.0
  0
LINE
  5
C7F6
330
18
100
AcDbEntity
  8
1HATCH
  6
CONTINUOUS
100
AcDbLine
 10
-28.21126973504343
 20
-2226.128956336452
 30
0.0
 11
-20.3111219704223
 21
-2218.228808571831
 31
0.0
1001
ACAD
1010
0.0
1020
0.0
1030
0.0
  0
LINE
  5
C7F7
330
18
100
AcDbEntity
  8
1HATCH
  6
CONTINUOUS
100
AcDbLine
 10
-16.57559296619619
 20
-2214.493279567605
 30
0.0
 11
9.575919873202118
 21
-2188.341766728206
 31
0.0
1001
ACAD
1010
0.0
1020
0.0
1030
0.0
  0
LINE
  5
C7F8
330
18
100
AcDbEntity
  8
1HATCH
  6
CONTINUOUS
100
AcDbLine
 10
-21.47607764424156
 20
-2226.128956336452
 30
0.0
 11
-20.48645589718653
 21
-2225.139334589397
 31
0.0
1001
ACAD
1010
0.0
1020
0.0
1030
0.0
  0
LINE
  5
C7F9
330
18
100
AcDbEntity
  8
1HATCH
  6
CONTINUOUS
100
AcDbLine
 10
-14.7408855534397
 20
-2226.128956336452
 30
0.0
 11
-13.75126380638466
 21
-2225.139334589397
 31
0.0
1001
ACAD
1010
0.0
1020
0.0
1030
0.0
  0
LINE
  5
C7FA
330
18
100
AcDbEntity
  8
1HATCH
  6
CONTINUOUS
100
AcDbLine
 10
-8.005693462637822
 20
-2226.128956336452
 30
0.0
 11
-7.016071715582793
 21
-2225.139334589397
 31
0.0
1001
ACAD
1010
0.0
1020
0.0
1030
0.0
  0
LINE
  5
C7FB
330
18
100
AcDbEntity
  8
1HATCH
  6
CONTINUOUS
100
AcDbLine
 10
-1.270501371835952
 20
-2226.128956336452
 30
0.0
 11
-0.2808796247809262
 21
-2225.139334589397
 31
0.0
1001
ACAD
1010
0.0
1020
0.0
1030
0.0
  0
LINE
  5
C7FC
330
18
100
AcDbEntity
  8
1HATCH
  6
CONTINUOUS
100
AcDbLine
 10
-15.28645589718762
 20
-2219.939334589398
 30
0.0
 11
9.575919873202118
 21
-2195.076958819008
 31
0.0
1001
ACAD
1010
0.0
1020
0.0
1030
0.0
  0
LINE
  5
C7FD
330
18
100
AcDbEntity
  8
1HATCH
  6
CONTINUOUS
100
AcDbLine
 10
-8.551263806385759
 20
-2219.939334589398
 30
0.0
 11
9.57591987320211
 21
-2201.81215090981
 31
0.0
1001
ACAD
1010
0.0
1020
0.0
1030
0.0
  0
LINE
  5
C7FE
330
18
100
AcDbEntity
  8
1HATCH
  6
CONTINUOUS
100
AcDbLine
 10
-1.816071715583888
 20
-2219.939334589398
 30
0.0
 11
9.57591987320211
 21
-2208.547343000612
 31
0.0
1001
ACAD
1010
0.0
1020
0.0
1030
0.0
  0
LINE
  5
C7FF
330
18
100
AcDbEntity
  8
1HATCH
  6
CONTINUOUS
100
AcDbLine
 10
4.919120375217982
 20
-2219.939334589398
 30
0.0
 11
9.57591987320211
 21
-2215.282535091414
 31
0.0
1001
ACAD
1010
0.0
1020
0.0
1030
0.0
  0
LINE
  5
C800
330
18
100
AcDbEntity
  8
1HATCH
  6
CONTINUOUS
100
AcDbLine
 10
5.464690718965915
 20
-2226.128956336452
 30
0.0
 11
6.454312466020944
 21
-2225.139334589397
 31
0.0
1001
ACAD
1010
0.0
1020
0.0
1030
0.0
  0
LINE
  5
C801
330
18
100
AcDbEntity
  8
1HATCH
  6
CONTINUOUS
100
AcDbLine
 10
7.449347006031619
 20
-2224.144300049386
 30
0.0
 11
9.57591987320211
 21
-2222.017727182215
 31
0.0
1001
ACAD
1010
0.0
1020
0.0
1030
0.0
  0
LINE
  5
C802
330
18
100
AcDbEntity
  8
0
  6
BYBLOCK
100
AcDbLine
 10
-206.7189771574581
 20
-2194.15887768586
 30
0.0
 11
-204.7189771574581
 21
-2194.69477606586
 31
0.0
  0
LINE
  5
C803
330
18
100
AcDbEntity
  8
0
  6
BYBLOCK
100
AcDbLine
 10
-204.7189771574581
 20
-2194.69477606586
 30
0.0
 11
-206.7189771574581
 21
-2195.23067444586
 31
0.0
  0
LINE
  5
C804
330
18
100
AcDbEntity
  8
0
  6
BYBLOCK
100
AcDbLine
 10
-204.7189771574581
 20
-2194.69477606586
 30
0.0
 11
-206.7189771574581
 21
-2194.69477606586
 31
0.0
  0
LINE
  5
C805
330
18
100
AcDbEntity
  8
0
  6
BYBLOCK
100
AcDbLine
 10
-231.7189771574581
 20
-2195.23067444586
 30
0.0
 11
-233.7189771574581
 21
-2194.69477606586
 31
0.0
  0
LINE
  5
C806
330
18
100
AcDbEntity
  8
0
  6
BYBLOCK
100
AcDbLine
 10
-233.7189771574581
 20
-2194.69477606586
 30
0.0
 11
-231.7189771574581
 21
-2194.15887768586
 31
0.0
  0
LINE
  5
C807
330
18
100
AcDbEntity
  8
0
  6
BYBLOCK
100
AcDbLine
 10
-233.7189771574581
 20
-2194.69477606586
 30
0.0
 11
-231.7189771574581
 21
-2194.69477606586
 31
0.0
  0
TEXT
  5
C808
330
18
100
AcDbEntity
  8
1DIM
  6
CONTINUOUS
100
AcDbText
 10
-224.7031206759766
 20
-2193.99477606586
 30
0.0
 40
3.5
  1
φ29
100
AcDbText
1001
ACAD
1000
DSTYLE
1002
{
1070
     3
1000
φ<>
1002
}
  0
LINE
  5
C809
330
18
100
AcDbEntity
  8
0
  6
BYBLOCK
100
AcDbLine
 10
-241.2189771574622
 20
-2215.23067444586
 30
0.0
 11
-243.2189771574622
 21
-2214.69477606586
 31
0.0
  0
LINE
  5
C80A
330
18
100
AcDbEntity
  8
0
  6
BYBLOCK
100
AcDbLine
 10
-243.2189771574622
 20
-2214.69477606586
 30
0.0
 11
-241.2189771574622
 21
-2214.15887768586
 31
0.0
  0
LINE
  5
C80B
330
18
100
AcDbEntity
  8
0
  6
BYBLOCK
100
AcDbLine
 10
-243.2189771574622
 20
-2214.69477606586
 30
0.0
 11
-241.2189771574622
 21
-2214.69477606586
 31
0.0
  0
LINE
  5
C80C
330
18
100
AcDbEntity
  8
0
  6
BYBLOCK
100
AcDbLine
 10
-197.2189771574537
 20
-2214.15887768586
 30
0.0
 11
-195.2189771574537
 21
-2214.69477606586
 31
0.0
  0
LINE
  5
C80D
330
18
100
AcDbEntity
  8
0
  6
BYBLOCK
100
AcDbLine
 10
-195.2189771574537
 20
-2214.69477606586
 30
0.0
 11
-197.2189771574537
 21
-2215.23067444586
 31
0.0
  0
LINE
  5
C80E
330
18
100
AcDbEntity
  8
0
  6
BYBLOCK
100
AcDbLine
 10
-195.2189771574537
 20
-2214.69477606586
 30
0.0
 11
-197.2189771574537
 21
-2214.69477606586
 31
0.0
  0
TEXT
  5
C80F
330
18
100
AcDbEntity
  8
1DIM
  6
CONTINUOUS
100
AcDbText
 10
-222.1356438241246
 20
-2213.99477606586
 30
0.0
 40
3.5
  1
48
100
AcDbText
  0
LINE
  5
C810
330
18
100
AcDbEntity
  8
0
  6
BYBLOCK
100
AcDbLine
 10
-89.25633269191133
 20
-2089.430700393827
 30
0.0
 11
-89.79223107191133
 21
-2091.430700393827
 31
0.0
  0
LINE
  5
C811
330
18
100
AcDbEntity
  8
0
  6
BYBLOCK
100
AcDbLine
 10
-89.79223107191133
 20
-2091.430700393827
 30
0.0
 11
-90.32812945191134
 21
-2089.430700393827
 31
0.0
  0
LINE
  5
C812
330
18
100
AcDbEntity
  8
0
  6
BYBLOCK
100
AcDbLine
 10
-89.79223107191133
 20
-2091.430700393827
 30
0.0
 11
-89.79223107191133
 21
-2089.430700393827
 31
0.0
  0
LINE
  5
C813
330
18
100
AcDbEntity
  8
0
  6
BYBLOCK
100
AcDbLine
 10
-90.32812945191134
 20
-2081.930700393827
 30
0.0
 11
-89.79223107191133
 21
-2079.930700393827
 31
0.0
  0
LINE
  5
C814
330
18
100
AcDbEntity
  8
0
  6
BYBLOCK
100
AcDbLine
 10
-89.79223107191133
 20
-2079.930700393827
 30
0.0
 11
-89.25633269191133
 21
-2081.930700393827
 31
0.0
  0
LINE
  5
C815
330
18
100
AcDbEntity
  8
0
  6
BYBLOCK
100
AcDbLine
 10
-89.79223107191133
 20
-2079.930700393827
 30
0.0
 11
-89.79223107191133
 21
-2081.930700393827
 31
0.0
  0
TEXT
  5
C816
330
18
100
AcDbEntity
  8
1DIM
  6
CONTINUOUS
100
AcDbText
 10
-90.4946616274674
 20
-2076.207793944181
 30
0.0
 40
3.5
  1
11.5
 50
90.0
100
AcDbText
  0
LINE
  5
C817
330
18
100
AcDbEntity
  8
0
  6
BYBLOCK
100
AcDbLine
 10
-126.3794148757231
 20
-2072.601340649416
 30
0.0
 11
-128.3794148757231
 21
-2072.065442269416
 31
0.0
  0
LINE
  5
C818
330
18
100
AcDbEntity
  8
0
  6
BYBLOCK
100
AcDbLine
 10
-128.3794148757231
 20
-2072.065442269416
 30
0.0
 11
-126.3794148757231
 21
-2071.529543889415
 31
0.0
  0
LINE
  5
C819
330
18
100
AcDbEntity
  8
0
  6
BYBLOCK
100
AcDbLine
 10
-128.3794148757231
 20
-2072.065442269416
 30
0.0
 11
-126.3794148757231
 21
-2072.065442269416
 31
0.0
  0
LINE
  5
C81A
330
18
100
AcDbEntity
  8
0
  6
BYBLOCK
100
AcDbLine
 10
-111.3794148757232
 20
-2071.529543889415
 30
0.0
 11
-109.3794148757232
 21
-2072.065442269416
 31
0.0
  0
LINE
  5
C81B
330
18
100
AcDbEntity
  8
0
  6
BYBLOCK
100
AcDbLine
 10
-109.3794148757232
 20
-2072.065442269416
 30
0.0
 11
-111.3794148757232
 21
-2072.601340649416
 31
0.0
  0
LINE
  5
C81C
330
18
100
AcDbEntity
  8
0
  6
BYBLOCK
100
AcDbLine
 10
-109.3794148757232
 20
-2072.065442269416
 30
0.0
 11
-111.3794148757232
 21
-2072.065442269416
 31
0.0
  0
TEXT
  5
C81D
330
18
100
AcDbEntity
  8
1DIM
  6
CONTINUOUS
100
AcDbText
 10
-121.2135583942416
 20
-2071.365442269416
 30
0.0
 40
3.5
  1
19
100
AcDbText
  0
LINE
  5
C81E
330
18
100
AcDbEntity
  8
0
  6
BYBLOCK
100
AcDbLine
 10
-130.2507758887876
 20
-2034.785060317691
 30
0.0
 11
-132.2507758887876
 21
-2034.249161937691
 31
0.0
  0
LINE
  5
C81F
330
18
100
AcDbEntity
  8
0
  6
BYBLOCK
100
AcDbLine
 10
-132.2507758887876
 20
-2034.249161937691
 30
0.0
 11
-130.2507758887876
 21
-2033.713263557691
 31
0.0
  0
LINE
  5
C820
330
18
100
AcDbEntity
  8
0
  6
BYBLOCK
100
AcDbLine
 10
-132.2507758887876
 20
-2034.249161937691
 30
0.0
 11
-130.2507758887876
 21
-2034.249161937691
 31
0.0
  0
LINE
  5
C821
330
18
100
AcDbEntity
  8
0
  6
BYBLOCK
100
AcDbLine
 10
-107.508053862659
 20
-2033.713263557691
 30
0.0
 11
-105.508053862659
 21
-2034.249161937691
 31
0.0
  0
LINE
  5
C822
330
18
100
AcDbEntity
  8
0
  6
BYBLOCK
100
AcDbLine
 10
-105.508053862659
 20
-2034.249161937691
 30
0.0
 11
-107.508053862659
 21
-2034.785060317691
 31
0.0
  0
LINE
  5
C823
330
18
100
AcDbEntity
  8
0
  6
BYBLOCK
100
AcDbLine
 10
-105.508053862659
 20
-2034.249161937691
 30
0.0
 11
-107.508053862659
 21
-2034.249161937691
 31
0.0
  0
TEXT
  5
C824
330
18
100
AcDbEntity
  8
1DIM
  6
CONTINUOUS
100
AcDbText
 10
-121.7960815423899
 20
-2033.549161937691
 30
0.0
 40
3.5
  1
27
100
AcDbText
1001
ACAD
1000
DSTYLE
1002
{
1070
   271
1070
     0
1002
}
  0
LINE
  5
C825
330
18
100
AcDbEntity
  8
0
  6
BYBLOCK
100
AcDbLine
 10
-96.85663365277229
 20
-2089.430700393827
 30
0.0
 11
-97.3925320327723
 21
-2091.430700393827
 31
0.0
  0
LINE
  5
C826
330
18
100
AcDbEntity
  8
0
  6
BYBLOCK
100
AcDbLine
 10
-97.3925320327723
 20
-2091.430700393827
 30
0.0
 11
-97.9284304127723
 21
-2089.430700393827
 31
0.0
  0
LINE
  5
C827
330
18
100
AcDbEntity
  8
0
  6
BYBLOCK
100
AcDbLine
 10
-97.3925320327723
 20
-2091.430700393827
 30
0.0
 11
-97.3925320327723
 21
-2089.430700393827
 31
0.0
  0
LINE
  5
C828
330
18
100
AcDbEntity
  8
0
  6
BYBLOCK
100
AcDbLine
 10
-97.9284304127723
 20
-2085.430700393827
 30
0.0
 11
-97.3925320327723
 21
-2083.430700393827
 31
0.0
  0
LINE
  5
C829
330
18
100
AcDbEntity
  8
0
  6
BYBLOCK
100
AcDbLine
 10
-97.3925320327723
 20
-2083.430700393827
 30
0.0
 11
-96.85663365277229
 21
-2085.430700393827
 31
0.0
  0
LINE
  5
C82A
330
18
100
AcDbEntity
  8
0
  6
BYBLOCK
100
AcDbLine
 10
-97.3925320327723
 20
-2083.430700393827
 30
0.0
 11
-97.3925320327723
 21
-2085.430700393827
 31
0.0
  0
TEXT
  5
C82B
330
18
100
AcDbEntity
  8
1DIM
  6
CONTINUOUS
100
AcDbText
 10
-98.09253203277194
 20
-2074.371634126148
 30
0.0
 40
3.5
  1
8
 50
90.0
100
AcDbText
  0
LINE
  5
C82C
330
18
100
AcDbEntity
  8
0
  6
BYBLOCK
100
AcDbLine
 10
-90.48695307720531
 20
-2057.479674366009
 30
0.0
 11
-91.02285145720532
 21
-2059.479674366009
 31
0.0
  0
LINE
  5
C82D
330
18
100
AcDbEntity
  8
0
  6
BYBLOCK
100
AcDbLine
 10
-91.02285145720532
 20
-2059.479674366009
 30
0.0
 11
-91.55874983720533
 21
-2057.479674366009
 31
0.0
  0
LINE
  5
C82E
330
18
100
AcDbEntity
  8
0
  6
BYBLOCK
100
AcDbLine
 10
-91.02285145720532
 20
-2059.479674366009
 30
0.0
 11
-91.02285145720532
 21
-2057.479674366009
 31
0.0
  0
LINE
  5
C82F
330
18
100
AcDbEntity
  8
0
  6
BYBLOCK
100
AcDbLine
 10
-91.55874983720533
 20
-2044.978889229933
 30
0.0
 11
-91.02285145720532
 21
-2042.978889229933
 31
0.0
  0
LINE
  5
C830
330
18
100
AcDbEntity
  8
0
  6
BYBLOCK
100
AcDbLine
 10
-91.02285145720532
 20
-2042.978889229933
 30
0.0
 11
-90.48695307720531
 21
-2044.978889229933
 31
0.0
  0
LINE
  5
C831
330
18
100
AcDbEntity
  8
0
  6
BYBLOCK
100
AcDbLine
 10
-91.02285145720532
 20
-2042.978889229933
 30
0.0
 11
-91.02285145720532
 21
-2044.978889229933
 31
0.0
  0
TEXT
  5
C832
330
18
100
AcDbEntity
  8
1DIM
  6
CONTINUOUS
100
AcDbText
 10
-91.72528201276145
 20
-2055.908101242415
 30
0.0
 40
3.5
  1
16.5
 50
90.0
100
AcDbText
  0
LINE
  5
C833
330
18
100
AcDbEntity
  8
0
  6
BYBLOCK
100
AcDbLine
 10
-225.1868464950481
 20
-2108.25599950018
 30
0.0
 11
-227.1868464950481
 21
-2107.72010112018
 31
0.0
  0
LINE
  5
C834
330
18
100
AcDbEntity
  8
0
  6
BYBLOCK
100
AcDbLine
 10
-227.1868464950481
 20
-2107.72010112018
 30
0.0
 11
-225.1868464950481
 21
-2107.18420274018
 31
0.0
  0
LINE
  5
C835
330
18
100
AcDbEntity
  8
0
  6
BYBLOCK
100
AcDbLine
 10
-227.1868464950481
 20
-2107.72010112018
 30
0.0
 11
-225.1868464950481
 21
-2107.72010112018
 31
0.0
  0
LINE
  5
C836
330
18
100
AcDbEntity
  8
0
  6
BYBLOCK
100
AcDbLine
 10
-213.2519790654141
 20
-2107.18420274018
 30
0.0
 11
-211.2519790654141
 21
-2107.72010112018
 31
0.0
  0
LINE
  5
C837
330
18
100
AcDbEntity
  8
0
  6
BYBLOCK
100
AcDbLine
 10
-211.2519790654141
 20
-2107.72010112018
 30
0.0
 11
-213.2519790654141
 21
-2108.25599950018
 31
0.0
  0
LINE
  5
C838
330
18
100
AcDbEntity
  8
0
  6
BYBLOCK
100
AcDbLine
 10
-211.2519790654141
 20
-2107.72010112018
 30
0.0
 11
-213.2519790654141
 21
-2107.72010112018
 31
0.0
  0
TEXT
  5
C839
330
18
100
AcDbEntity
  8
1DIM
  6
CONTINUOUS
100
AcDbText
 10
-221.5527461135644
 20
-2107.02010112018
 30
0.0
 40
3.5
  1
16
100
AcDbText
1001
ACAD
1000
DSTYLE
1002
{
1070
   271
1070
     0
1002
}
  0
LINE
  5
C83A
330
18
100
AcDbEntity
  8
0
  6
BYBLOCK
100
AcDbLine
 10
-174.6830787774538
 20
-2074.23010112018
 30
0.0
 11
-175.2189771574538
 21
-2076.23010112018
 31
0.0
  0
LINE
  5
C83B
330
18
100
AcDbEntity
  8
0
  6
BYBLOCK
100
AcDbLine
 10
-175.2189771574538
 20
-2076.23010112018
 30
0.0
 11
-175.7548755374538
 21
-2074.23010112018
 31
0.0
  0
LINE
  5
C83C
330
18
100
AcDbEntity
  8
0
  6
BYBLOCK
100
AcDbLine
 10
-175.2189771574538
 20
-2076.23010112018
 30
0.0
 11
-175.2189771574538
 21
-2074.23010112018
 31
0.0
  0
LINE
  5
C83D
330
18
100
AcDbEntity
  8
0
  6
BYBLOCK
100
AcDbLine
 10
-175.7548755374538
 20
-2065.33010112018
 30
0.0
 11
-175.2189771574538
 21
-2063.33010112018
 31
0.0
  0
LINE
  5
C83E
330
18
100
AcDbEntity
  8
0
  6
BYBLOCK
100
AcDbLine
 10
-175.2189771574538
 20
-2063.33010112018
 30
0.0
 11
-174.6830787774538
 21
-2065.33010112018
 31
0.0
  0
LINE
  5
C83F
330
18
100
AcDbEntity
  8
0
  6
BYBLOCK
100
AcDbLine
 10
-175.2189771574538
 20
-2063.33010112018
 30
0.0
 11
-175.2189771574538
 21
-2065.33010112018
 31
0.0
  0
TEXT
  5
C840
330
18
100
AcDbEntity
  8
1DIM
  6
CONTINUOUS
100
AcDbText
 10
-175.9189771574538
 20
-2072.113434453513
 30
0.0
 40
3.5
  1
13
 50
90.0
100
AcDbText
1001
ACAD
1000
DSTYLE
1002
{
1070
   271
1070
     0
1002
}
  0
LINE
  5
C841
330
18
100
AcDbEntity
  8
0
  6
BYBLOCK
100
AcDbLine
 10
-174.6830787774538
 20
-2061.33010112018
 30
0.0
 11
-175.2189771574538
 21
-2063.33010112018
 31
0.0
  0
LINE
  5
C842
330
18
100
AcDbEntity
  8
0
  6
BYBLOCK
100
AcDbLine
 10
-175.2189771574538
 20
-2063.33010112018
 30
0.0
 11
-175.7548755374538
 21
-2061.33010112018
 31
0.0
  0
LINE
  5
C843
330
18
100
AcDbEntity
  8
0
  6
BYBLOCK
100
AcDbLine
 10
-175.2189771574538
 20
-2063.33010112018
 30
0.0
 11
-175.2189771574538
 21
-2061.33010112018
 31
0.0
  0
LINE
  5
C844
330
18
100
AcDbEntity
  8
0
  6
BYBLOCK
100
AcDbLine
 10
-175.7548755374538
 20
-2051.53010112018
 30
0.0
 11
-175.2189771574538
 21
-2049.53010112018
 31
0.0
  0
LINE
  5
C845
330
18
100
AcDbEntity
  8
0
  6
BYBLOCK
100
AcDbLine
 10
-175.2189771574538
 20
-2049.53010112018
 30
0.0
 11
-174.6830787774538
 21
-2051.53010112018
 31
0.0
  0
LINE
  5
C846
330
18
100
AcDbEntity
  8
0
  6
BYBLOCK
100
AcDbLine
 10
-175.2189771574538
 20
-2049.53010112018
 30
0.0
 11
-175.2189771574538
 21
-2051.53010112018
 31
0.0
  0
TEXT
  5
C847
330
18
100
AcDbEntity
  8
1DIM
  6
CONTINUOUS
100
AcDbText
 10
-175.9189771574534
 20
-2058.763434453513
 30
0.0
 40
3.5
  1
14
 50
90.0
100
AcDbText
1001
ACAD
1000
DSTYLE
1002
{
1070
   271
1070
     0
1002
}
  0
LINE
  5
C848
330
18
100
AcDbEntity
  8
0
  6
BYBLOCK
100
AcDbLine
 10
-83.183078777454
 20
-2172.69477606586
 30
0.0
 11
-83.718977157454
 21
-2174.69477606586
 31
0.0
  0
LINE
  5
C849
330
18
100
AcDbEntity
  8
0
  6
BYBLOCK
100
AcDbLine
 10
-83.718977157454
 20
-2174.69477606586
 30
0.0
 11
-84.25487553745401
 21
-2172.69477606586
 31
0.0
  0
LINE
  5
C84A
330
18
100
AcDbEntity
  8
0
  6
BYBLOCK
100
AcDbLine
 10
-83.718977157454
 20
-2174.69477606586
 30
0.0
 11
-83.718977157454
 21
-2172.69477606586
 31
0.0
  0
LINE
  5
C84B
330
18
100
AcDbEntity
  8
0
  6
BYBLOCK
100
AcDbLine
 10
-84.254875537454
 20
-2140.19477606586
 30
0.0
 11
-83.71897715745399
 21
-2138.19477606586
 31
0.0
  0
LINE
  5
C84C
330
18
100
AcDbEntity
  8
0
  6
BYBLOCK
100
AcDbLine
 10
-83.71897715745399
 20
-2138.19477606586
 30
0.0
 11
-83.18307877745399
 21
-2140.19477606586
 31
0.0
  0
LINE
  5
C84D
330
18
100
AcDbEntity
  8
0
  6
BYBLOCK
100
AcDbLine
 10
-83.71897715745399
 20
-2138.19477606586
 30
0.0
 11
-83.71897715745399
 21
-2140.19477606586
 31
0.0
  0
TEXT
  5
C84E
330
18
100
AcDbEntity
  8
1DIM
  6
CONTINUOUS
100
AcDbText
 10
-84.41897715745426
 20
-2167.307739028823
 30
0.0
 40
3.5
  1
29～36.5
 50
90.0
100
AcDbText
  0
LINE
  5
C84F
330
18
100
AcDbEntity
  8
0
  6
BYBLOCK
100
AcDbLine
 10
-174.6830787774538
 20
-2172.69477606586
 30
0.0
 11
-175.2189771574538
 21
-2174.69477606586
 31
0.0
  0
LINE
  5
C850
330
18
100
AcDbEntity
  8
0
  6
BYBLOCK
100
AcDbLine
 10
-175.2189771574538
 20
-2174.69477606586
 30
0.0
 11
-175.7548755374538
 21
-2172.69477606586
 31
0.0
  0
LINE
  5
C851
330
18
100
AcDbEntity
  8
0
  6
BYBLOCK
100
AcDbLine
 10
-175.2189771574538
 20
-2174.69477606586
 30
0.0
 11
-175.2189771574538
 21
-2172.69477606586
 31
0.0
  0
LINE
  5
C852
330
18
100
AcDbEntity
  8
0
  6
BYBLOCK
100
AcDbLine
 10
-175.7548755374538
 20
-2136.69477606586
 30
0.0
 11
-175.2189771574538
 21
-2134.69477606586
 31
0.0
  0
LINE
  5
C853
330
18
100
AcDbEntity
  8
0
  6
BYBLOCK
100
AcDbLine
 10
-175.2189771574538
 20
-2134.69477606586
 30
0.0
 11
-174.6830787774538
 21
-2136.69477606586
 31
0.0
  0
LINE
  5
C854
330
18
100
AcDbEntity
  8
0
  6
BYBLOCK
100
AcDbLine
 10
-175.2189771574538
 20
-2134.69477606586
 30
0.0
 11
-175.2189771574538
 21
-2136.69477606586
 31
0.0
  0
TEXT
  5
C855
330
18
100
AcDbEntity
  8
1DIM
  6
CONTINUOUS
100
AcDbText
 10
-175.9189771574538
 20
-2157.392692732526
 30
0.0
 40
3.5
  1
40
 50
90.0
100
AcDbText
  0
LINE
  5
C856
330
18
100
AcDbEntity
  8
0
  6
BYBLOCK
100
AcDbLine
 10
-234.7194127802309
 20
-2205.23067444586
 30
0.0
 11
-236.7194127802309
 21
-2204.69477606586
 31
0.0
  0
LINE
  5
C857
330
18
100
AcDbEntity
  8
0
  6
BYBLOCK
100
AcDbLine
 10
-236.7194127802309
 20
-2204.69477606586
 30
0.0
 11
-234.7194127802309
 21
-2204.15887768586
 31
0.0
  0
LINE
  5
C858
330
18
100
AcDbEntity
  8
0
  6
BYBLOCK
100
AcDbLine
 10
-236.7194127802309
 20
-2204.69477606586
 30
0.0
 11
-234.7194127802309
 21
-2204.69477606586
 31
0.0
  0
LINE
  5
C859
330
18
100
AcDbEntity
  8
0
  6
BYBLOCK
100
AcDbLine
 10
-203.7194127802311
 20
-2204.15887768586
 30
0.0
 11
-201.7194127802311
 21
-2204.69477606586
 31
0.0
  0
LINE
  5
C85A
330
18
100
AcDbEntity
  8
0
  6
BYBLOCK
100
AcDbLine
 10
-201.7194127802311
 20
-2204.69477606586
 30
0.0
 11
-203.7194127802311
 21
-2205.23067444586
 31
0.0
  0
LINE
  5
C85B
330
18
100
AcDbEntity
  8
0
  6
BYBLOCK
100
AcDbLine
 10
-201.7194127802311
 20
-2204.69477606586
 30
0.0
 11
-203.7194127802311
 21
-2204.69477606586
 31
0.0
  0
TEXT
  5
C85C
330
18
100
AcDbEntity
  8
1DIM
  6
CONTINUOUS
100
AcDbText
 10
-224.7027461135643
 20
-2203.99477606586
 30
0.0
 40
3.5
  1
φ35
100
AcDbText
1001
ACAD
1000
DSTYLE
1002
{
1070
     3
1000
φ<>
1002
}
  0
LINE
  5
C85D
330
18
100
AcDbEntity
  8
0
  6
BYBLOCK
100
AcDbLine
 10
-18.28392629952953
 20
-2217.51791019183
 30
0.0
 11
-16.28392629952953
 21
-2218.05380857183
 31
0.0
  0
LINE
  5
C85E
330
18
100
AcDbEntity
  8
0
  6
BYBLOCK
100
AcDbLine
 10
-16.28392629952953
 20
-2218.05380857183
 30
0.0
 11
-18.28392629952953
 21
-2218.589706951831
 31
0.0
  0
LINE
  5
C85F
330
18
100
AcDbEntity
  8
0
  6
BYBLOCK
100
AcDbLine
 10
-16.28392629952953
 20
-2218.05380857183
 30
0.0
 11
-18.28392629952953
 21
-2218.05380857183
 31
0.0
  0
LINE
  5
C860
330
18
100
AcDbEntity
  8
0
  6
BYBLOCK
100
AcDbLine
 10
-26.28392629952953
 20
-2218.589706951831
 30
0.0
 11
-28.28392629952953
 21
-2218.05380857183
 31
0.0
  0
LINE
  5
C861
330
18
100
AcDbEntity
  8
0
  6
BYBLOCK
100
AcDbLine
 10
-28.28392629952953
 20
-2218.05380857183
 30
0.0
 11
-26.28392629952953
 21
-2217.51791019183
 31
0.0
  0
LINE
  5
C862
330
18
100
AcDbEntity
  8
0
  6
BYBLOCK
100
AcDbLine
 10
-28.28392629952953
 20
-2218.05380857183
 30
0.0
 11
-26.28392629952953
 21
-2218.05380857183
 31
0.0
  0
TEXT
  5
C863
330
18
100
AcDbEntity
  8
1DIM
  6
CONTINUOUS
100
AcDbText
 10
-27.18392629952953
 20
-2217.353808571831
 30
0.0
 40
3.5
  1
φ12
100
AcDbText
1001
ACAD
1000
DSTYLE
1002
{
1070
     3
1000
φ<>
1002
}
  0
LINE
  5
C864
330
18
100
AcDbEntity
  8
0
  6
BYBLOCK
100
AcDbLine
 10
-45.06541415968701
 20
-2207.69477606586
 30
0.0
 11
-45.60131253968701
 21
-2209.69477606586
 31
0.0
  0
LINE
  5
C865
330
18
100
AcDbEntity
  8
0
  6
BYBLOCK
100
AcDbLine
 10
-45.60131253968701
 20
-2209.69477606586
 30
0.0
 11
-46.13721091968701
 21
-2207.69477606586
 31
0.0
  0
LINE
  5
C866
330
18
100
AcDbEntity
  8
0
  6
BYBLOCK
100
AcDbLine
 10
-45.60131253968701
 20
-2209.69477606586
 30
0.0
 11
-45.60131253968701
 21
-2207.69477606586
 31
0.0
  0
LINE
  5
C867
330
18
100
AcDbEntity
  8
0
  6
BYBLOCK
100
AcDbLine
 10
-46.137210919687
 20
-2176.69477606586
 30
0.0
 11
-45.601312539687
 21
-2174.69477606586
 31
0.0
  0
LINE
  5
C868
330
18
100
AcDbEntity
  8
0
  6
BYBLOCK
100
AcDbLine
 10
-45.601312539687
 20
-2174.69477606586
 30
0.0
 11
-45.065414159687
 21
-2176.69477606586
 31
0.0
  0
LINE
  5
C869
330
18
100
AcDbEntity
  8
0
  6
BYBLOCK
100
AcDbLine
 10
-45.601312539687
 20
-2174.69477606586
 30
0.0
 11
-45.601312539687
 21
-2176.69477606586
 31
0.0
  0
TEXT
  5
C86A
330
18
100
AcDbEntity
  8
1DIM
  6
CONTINUOUS
100
AcDbText
 10
-46.30131253968693
 20
-2195.111442732526
 30
0.0
 40
3.5
  1
35
 50
90.0
100
AcDbText
  0
VIEWPORT
  5
57
330
15
100
AcDbEntity
 67
     1
  8
0
100
AcDbViewport
 68
     1
 10
0.0
 20
0.0
 30
0.0
 40
639.1804245283018
 41
297.0
 68
     1
 69
     1
1001
ACAD
1000
MVIEW
1002
{
1070
    16
1010
0.0
1020
0.0
1030
0.0
1010
0.0
1020
0.0
1030
1.0
1040
0.0
1040
297.0
1040
-4.171999999999912
1040
12.83899999999988
1040
50.0
1040
0.0
1040
0.0
1070
    16
1070
   100
1070
     0
1070
     1
1070
     0
1070
     0
1070
     0
1070
     0
1040
0.0
1040
0.0
1040
0.0
1040
10.0
1040
10.0
1040
10.0
1040
10.0
1070
     0
1002
{
1002
}
1002
}
  0
ENDSEC
  0
SECTION
  2
OBJECTS
  0
DICTIONARY
  5
C
330
0
100
AcDbDictionary
  3
ACAD_CIP_PREVIOUS_PRODUCT_INFO
350
BBB8
  3
ACAD_COLOR
350
2D0
  3
ACAD_GROUP
350
D
  3
ACAD_LAYOUT
350
2D1
  3
ACAD_MATERIAL
350
2CF
  3
ACAD_MLEADERSTYLE
350
AEAD
  3
ACAD_MLINESTYLE
350
1B
  3
ACAD_PLOTSETTINGS
350
2D2
  3
ACAD_SCALELIST
350
AE8B
  3
ACAD_VISUALSTYLE
350
AE7A
  3
ACDBHEADERROUNDTRIPXREC
350
C86B
  3
ACDBVARIABLEDICTIONARY
350
37
  3
AEC_PROPERTY_SET_DEFS
350
C46B
  3
CONTENTDICTIONARY
350
D8
  3
DRAWINGVARIABLESDICT
350
20
  3
DWGPROPS
350
C86E
1001
ACAD
1000
TREAT_AS_HARD
1070
     0
  0
DICTIONARY
  5
ADD6
330
2
100
AcDbDictionary
  3
ACAD_LAYERSTATES
360
ADD7
1001
ACAD
1000
TREAT_AS_HARD
1070
     1
  0
DICTIONARY
  5
B9D4
330
E
100
AcDbDictionary
  3
ADSK_XREC_LAYER_RECONCILED
360
B9D5
1001
ACAD
1000
TREAT_AS_HARD
1070
     1
  0
DICTIONARY
  5
B9D6
330
29
100
AcDbDictionary
  3
ADSK_XREC_LAYER_RECONCILED
360
B9D7
1001
ACAD
1000
TREAT_AS_HARD
1070
     1
  0
DICTIONARY
  5
B9D8
330
31
100
AcDbDictionary
  3
ADSK_XREC_LAYER_RECONCILED
360
B9D9
1001
ACAD
1000
TREAT_AS_HARD
1070
     1
  0
DICTIONARY
  5
B9E2
330
101
100
AcDbDictionary
  3
ADSK_XREC_LAYER_RECONCILED
360
B9E3
1001
ACAD
1000
TREAT_AS_HARD
1070
     1
  0
DICTIONARY
  5
B9E6
330
103
100
AcDbDictionary
  3
ADSK_XREC_LAYER_RECONCILED
360
B9E7
1001
ACAD
1000
TREAT_AS_HARD
1070
     1
  0
DICTIONARY
  5
B9EA
330
25F
100
AcDbDictionary
  3
ADSK_XREC_LAYER_RECONCILED
360
B9EB
1001
ACAD
1000
TREAT_AS_HARD
1070
     1
  0
DICTIONARY
  5
BA06
330
26D
100
AcDbDictionary
  3
ADSK_XREC_LAYER_RECONCILED
360
BA07
1001
ACAD
1000
TREAT_AS_HARD
1070
     1
  0
DICTIONARY
  5
6E9
330
18
100
AcDbDictionary
  3
ACAD_SORTENTS
360
6EA
1001
ACAD
1000
TREAT_AS_HARD
1070
     1
  0
DICTIONARY
  5
59B
330
15
100
AcDbDictionary
  3
ACAD_SORTENTS
360
59C
1001
ACAD
1000
TREAT_AS_HARD
1070
     1
  0
XRECORD
  5
BBB8
102
{ACAD_REACTORS
330
C
102
}
330
C
100
AcDbXrecord
300
ACDLT
300
2012
300
ACDLT_F_S
  0
DICTIONARY
  5
2D0
102
{ACAD_REACTORS
330
C
102
}
330
C
100
AcDbDictionary
1001
ACAD
1000
TREAT_AS_HARD
1070
     0
  0
DICTIONARY
  5
D
102
{ACAD_REACTORS
330
C
102
}
330
C
100
AcDbDictionary
  3
*A1
350
B6BE
  3
*A2
350
B804
  3
*A3
350
B805
  3
*A4
350
B8BA
  3
*A5
350
A53F
  3
*A6
350
A3F1
  3
*A7
350
A512
1001
ACAD
1000
TREAT_AS_HARD
1070
     0
  0
DICTIONARY
  5
2D1
102
{ACAD_REACTORS
330
C
102
}
330
C
100
AcDbDictionary
1001
ACAD
1000
TREAT_AS_HARD
1070
     0
  0
DICTIONARY
  5
2CF
102
{ACAD_REACTORS
330
C
102
}
330
C
100
AcDbDictionary
  3
BYBLOCK
350
AE6A
  3
BYLAYER
350
AE62
  3
GLOBAL
350
AE72
1001
ACAD
1000
TREAT_AS_HARD
1070
     0
  0
DICTIONARY
  5
AEAD
102
{ACAD_REACTORS
330
C
102
}
330
C
100
AcDbDictionary
  3
STANDARD
350
AEAE
1001
ACAD
1000
TREAT_AS_HARD
1070
     0
  0
DICTIONARY
  5
1B
102
{ACAD_REACTORS
330
C
102
}
330
C
100
AcDbDictionary
  3
STANDARD
350
1C
1001
ACAD
1000
TREAT_AS_HARD
1070
     0
  0
DICTIONARY
  5
2D2
102
{ACAD_REACTORS
330
C
102
}
330
C
100
AcDbDictionary
1001
ACAD
1000
TREAT_AS_HARD
1070
     0
  0
DICTIONARY
  5
AE8B
102
{ACAD_REACTORS
330
C
102
}
330
C
100
AcDbDictionary
  3
A0
350
AE8C
  3
A1
350
AE8D
  3
A2
350
AE8E
  3
A3
350
AE8F
  3
A4
350
AE90
  3
A5
350
AE91
  3
A6
350
AE92
  3
A7
350
AE93
  3
A8
350
AE94
  3
A9
350
AE95
  3
B0
350
AE96
  3
B1
350
AE97
  3
B2
350
AE98
  3
B3
350
AE99
  3
B4
350
AE9A
  3
B5
350
AE9B
  3
B6
350
AE9C
  3
B7
350
AE9D
  3
B8
350
AE9E
  3
B9
350
AE9F
  3
C0
350
AEA0
  3
C1
350
AEA1
  3
C2
350
AEA2
  3
C3
350
AEA3
  3
C4
350
AEA4
  3
C5
350
AEA5
  3
C6
350
AEA6
  3
C7
350
AEA7
  3
C8
350
AEA8
  3
C9
350
AEA9
  3
D0
350
AEAA
  3
D1
350
AEAB
  3
D2
350
AEAC
1001
ACAD
1000
TREAT_AS_HARD
1070
     0
  0
DICTIONARY
  5
AE7A
102
{ACAD_REACTORS
330
C
102
}
330
C
100
AcDbDictionary
  3
2DWIREFRAME
350
AE80
  3
3D_HIDDEN
350
AE82
  3
3DWIREFRAME
350
AE81
  3
BASIC
350
AE7F
  3
BRIGHTEN
350
AE86
  3
COLORCHANGE
350
AE8A
  3
CONCEPTUAL
350
AE83
  3
DIM
350
AE85
  3
EDGECOLOROFF
350
BBB4
  3
FACEPATTERN
350
AE89
  3
FLAT
350
AE7B
  3
FLATWITHEDGES
350
AE7C
  3
GOURAUD
350
AE7D
  3
GOURAUDWITHEDGES
350
AE7E
  3
HIDDEN
350
BBAC
  3
JITTEROFF
350
BBB2
  3
LINEPATTERN
350
AE88
  3
MODELING
350
C528
  3
OVERHANGOFF
350
BBB3
  3
REALISTIC
350
AE84
  3
SHADED
350
BBB1
  3
SHADED_WITH_EDGES
350
BBB0
  3
SHADES_OF_GRAY
350
BBAD
  3
SKETCHY
350
BBAE
  3
THICKEN
350
AE87
  3
WIREFRAME
350
BBAB
  3
X-RAY
350
BBAF
1001
ACAD
1000
TREAT_AS_HARD
1070
     0
  0
DICTIONARY
  5
C86B
102
{ACAD_REACTORS
330
C
102
}
330
C
100
AcDbDictionary
  3
COLORDICT
350
C86C
  3
MATERIALDICT
350
C86D
1001
ACAD
1000
TREAT_AS_HARD
1070
     0
  0
DICTIONARY
  5
37
102
{ACAD_REACTORS
330
C
102
}
330
C
100
AcDbDictionary
  3
CANNOSCALE
350
BAFC
  3
CMLEADERSTYLE
350
BAFB
  3
CTABLESTYLE
350
4F1
  3
DIMADEC
350
38
  3
DIMASSOC
350
408
  3
HIDETEXT
350
1891
  3
INDEXCTL
350
BAFE
  3
INTERSECTIONCOLOR
350
1895
  3
INTERSECTIONDISPLAY
350
1894
  3
MSLTSCALE
350
C596
  3
OBSCOLOR
350
1892
  3
OBSLTYPE
350
1893
  3
PROJECTNAME
350
409
  3
SORTENTS
350
BAFD
  3
XCLIPFRAME
350
C527
1001
ACAD
1000
TREAT_AS_HARD
1070
     0
  0
DICTIONARY
  5
C46B
102
{ACAD_REACTORS
330
C
102
}
330
C
100
AcDbDictionary
1001
ACAD
1000
TREAT_AS_HARD
1070
     0
  0
DICTIONARY
  5
D8
102
{ACAD_REACTORS
330
C
102
}
330
C
100
AcDbDictionary
1001
CONTENTTABDATA
1070
    11
1000
Child
1000
D:\ACLT\TABset\CHILDREN.dwg
1070
     0
1070
     0
1070
     1
1000
PK
1000
D:\ACLT\TABset\PK.dwg
1070
     0
1070
     0
1070
     1
1000
Lev1
1000
D:\ACLT\TABset\Lever01.dwg
1070
     0
1070
     0
1070
     1
1000
Lev2
1000
D:\ACLT\TABset\Lever02.dwg
1070
     0
1070
     0
1070
     1
1000
L3
1000
D:\Aclt\TABset\Lever03.dwg
1070
     0
1070
     0
1070
     1
1000
Form
1000
D:\ACLT\FORMAT
1070
     1
1070
     0
1070
     1
1000
Jnt
1000
D:\ACLT\TABset\JOINTPARTS.dwg
1070
     0
1070
     0
1070
     1
1000
ISO
1000
D:\ACLT\TABset\Isome01.dwg
1070
     0
1070
     0
1070
     1
1000
R
1000
D:\ACLT\TABset\REGION.dwg
1070
     0
1070
     0
1070
     1
1000
std
1000
D:\ACLT\TABset\std_sym_all.dwg
1070
     0
1070
     0
1070
     1
1000
丸
1000
D:\Aclt\TABset\MARU.dwg
1070
     0
1070
     0
1070
     1
1001
CONTENTCURRENTTAB
1070
     0
1001
ACAD
1000
TREAT_AS_HARD
1070
     0
  0
DICTIONARY
  5
20
102
{ACAD_REACTORS
330
C
102
}
330
C
100
AcDbDictionary
1001
DRAWINGVARIABLESXDATA
1000
POLARANG
1000
0.261799387799149410000000
1000
POLARMODE
1000
1
1000
POLARSTYLE
1000
1
1001
ACAD
1000
TREAT_AS_HARD
1070
     0
  0
XRECORD
  5
C86E
102
{ACAD_REACTORS
330
C
102
}
330
C
100
AcDbXrecord
  1
DWGPROPS COOKIE
  2

  3

  4

  6

  7

  8
3684
  9

300
=
301
=
302
=
303
=
304
=
305
=
306
=
307
=
308
=
309
=
 40
0.0
 41
2453033.357663484
 42
2458726.0162539
  1

 90
        0
  0
DICTIONARY
  5
ADD7
102
{ACAD_REACTORS
330
ADD6
102
}
330
ADD6
100
AcDbDictionary
1001
ACAD
1000
TREAT_AS_HARD
1070
     0
  0
ACAD_PROXY_OBJECT
  5
B9D5
102
{ACAD_REACTORS
330
B9D4
102
}
330
B9D4
100
AcDbZombieObject
 90
      499
 91
      515
 93
       34
310
40C8804040
  0
ACAD_PROXY_OBJECT
  5
B9D7
102
{ACAD_REACTORS
330
B9D6
102
}
330
B9D6
100
AcDbZombieObject
 90
      499
 91
      515
 93
       34
310
40C8804040
  0
ACAD_PROXY_OBJECT
  5
B9D9
102
{ACAD_REACTORS
330
B9D8
102
}
330
B9D8
100
AcDbZombieObject
 90
      499
 91
      515
 93
       34
310
40C8804040
  0
ACAD_PROXY_OBJECT
  5
B9E3
102
{ACAD_REACTORS
330
B9E2
102
}
330
B9E2
100
AcDbZombieObject
 90
      499
 91
      515
 93
       34
310
40C8804040
  0
ACAD_PROXY_OBJECT
  5
B9E7
102
{ACAD_REACTORS
330
B9E6
102
}
330
B9E6
100
AcDbZombieObject
 90
      499
 91
      515
 93
       34
310
40C8804040
  0
ACAD_PROXY_OBJECT
  5
B9EB
102
{ACAD_REACTORS
330
B9EA
102
}
330
B9EA
100
AcDbZombieObject
 90
      499
 91
      515
 93
       34
310
40C8804040
  0
ACAD_PROXY_OBJECT
  5
BA07
102
{ACAD_REACTORS
330
BA06
102
}
330
BA06
100
AcDbZombieObject
 90
      499
 91
      515
 93
       34
310
40C8804040
  0
SORTENTSTABLE
  5
6EA
102
{ACAD_REACTORS
330
6E9
102
}
330
6E9
100
AcDbSortentsTable
330
18
331
33DB
  5
33DD
331
33DD
  5
33DE
331
33DE
  5
33DF
331
33DF
  5
33E0
331
33E0
  5
33E1
331
33E1
  5
33E2
331
33E2
  5
33E3
331
33E3
  5
33E4
331
33E4
  5
33E6
331
33E6
  5
33E7
331
33E7
  5
33EB
331
33EB
  5
33EC
331
33EC
  5
3434
331
0
  5
3438
331
0
  5
8239
331
0
  5
9B36
331
9AE9
  5
9B37
331
9AEA
  5
9B38
331
9AEB
  5
9B39
331
9AEC
  5
9B3A
331
9AED
  5
9B3B
331
9AEE
  5
9B3C
331
9AEF
  5
9B3D
331
9AF0
  5
9B3E
331
9AF1
  5
9B3F
331
9AF2
  5
9B40
331
9AF3
  5
9B41
331
9AF4
  5
9B42
331
9AF5
  5
9B43
331
9AF6
  5
9B44
331
9AF7
  5
9B45
331
9B07
  5
9B46
331
9B08
  5
9B47
331
9B2C
  5
9B4A
331
9B2D
  5
9B5E
331
9B2E
  5
9B5F
331
9B2F
  5
9B60
331
9B30
  5
9B61
331
9B31
  5
9B62
331
9B32
  5
9B63
331
9B33
  5
9B64
331
9B34
  5
9B65
331
9B35
  5
9B66
331
9B36
  5
9B67
331
9B37
  5
9B68
331
9B38
  5
9B69
331
9B39
  5
9B6A
331
9B3A
  5
9B6B
331
9B3B
  5
9B6C
331
9B3C
  5
9B6D
331
9B3D
  5
9B6E
331
9B3E
  5
9B6F
331
9B3F
  5
9B70
331
9B40
  5
9B71
331
9B41
  5
9B72
331
9B42
  5
9B73
331
9B43
  5
9B74
331
9B44
  5
9B75
331
9B45
  5
9B76
331
9B46
  5
9B77
331
9B47
  5
9B78
331
9B48
  5
9B79
331
9B49
  5
9B7A
331
9B4A
  5
9B7B
331
9B5E
  5
9B7C
331
9B5F
  5
9B7D
331
9B60
  5
9B7E
331
9B61
  5
9B7F
331
9B62
  5
9B80
331
9B63
  5
9B81
331
9B64
  5
9B82
331
9B65
  5
9B83
331
9B66
  5
9BA2
331
9B67
  5
9BA3
331
9B68
  5
9BA5
331
9B69
  5
9BA6
331
9B6A
  5
9BB5
331
9B6B
  5
9BB6
331
9B6C
  5
9BB7
331
9B6D
  5
9BB8
331
9B6E
  5
9BB9
331
9B6F
  5
9BBA
331
9B70
  5
9BBB
331
9B71
  5
9BBC
331
9B72
  5
9BBD
331
9B73
  5
9BBE
331
9B74
  5
9BBF
331
9B75
  5
9BC0
331
9B76
  5
9BC1
331
9B77
  5
9BC2
331
9B78
  5
9BC3
331
9B79
  5
9BC4
331
9B7A
  5
9BC5
331
9B7B
  5
9BC6
331
9B7C
  5
9D7D
331
9B7D
  5
9D99
331
9B7E
  5
9D9A
331
9B7F
  5
9D9C
331
9B80
  5
9D9D
331
9B81
  5
9D9E
331
9B82
  5
9F4B
331
9B83
  5
9F4C
331
9BA2
  5
9F4D
331
9BA3
  5
A3BE
331
9BA5
  5
A3C9
331
9BA6
  5
A3CA
331
9BB5
  5
A3CB
331
9BB6
  5
A3CC
331
9BB7
  5
A3CD
331
9BB8
  5
A3CE
331
9BB9
  5
A3CF
331
9BBA
  5
A3D0
331
9BBB
  5
A3D1
331
9BBC
  5
A3D2
331
9BBD
  5
A3D3
331
9BBE
  5
A3D4
331
9BBF
  5
A3D5
331
9BC0
  5
A3D6
331
9BC1
  5
A3D7
331
9BC2
  5
A3D8
331
9BC3
  5
A3D9
331
9BC4
  5
A3DA
331
9BC5
  5
A3DB
331
9BC6
  5
A3DC
331
9D99
  5
A3DD
331
9D9A
  5
A3DE
331
9D9B
  5
A3DF
331
9D9C
  5
A3E0
331
9D9D
  5
A3E1
331
9D9E
  5
A3E2
331
0
  5
A3C7
331
A3BE
  5
A518
331
A3C5
  5
A51A
331
A3C6
  5
A51B
331
A3C7
  5
A51C
331
A3C8
  5
A51D
331
A3C9
  5
A51E
331
A3CA
  5
A51F
331
A3CB
  5
A520
331
A3CC
  5
A521
331
A3CD
  5
A522
331
A3CE
  5
A523
331
A3CF
  5
A524
331
A3D0
  5
A525
331
A3D1
  5
A526
331
A3D2
  5
A527
331
A3D3
  5
A528
331
A3D4
  5
A529
331
A3D5
  5
A52A
331
A3D6
  5
A52B
331
A3D7
  5
A52C
331
A3D8
  5
A52D
331
A3D9
  5
A52E
331
A3DA
  5
A52F
331
A3DB
  5
A530
331
A3DC
  5
A531
331
A3DD
  5
A532
331
A3DE
  5
A533
331
A3DF
  5
A534
331
A3E0
  5
A535
331
A3E1
  5
A536
331
A3E2
  5
A537
331
A3E3
  5
A538
331
A3E4
  5
A539
331
A3E5
  5
A53A
331
A3E6
  5
A53B
331
A3E7
  5
A53C
331
A3E8
  5
A53D
331
A3E9
  5
A53E
331
A3EA
  5
A746
331
A3EB
  5
A747
331
A3EC
  5
A748
331
A3ED
  5
A749
331
A3EE
  5
A74A
331
A3EF
  5
A74B
331
A3F0
  5
A74C
331
A4E6
  5
A74D
331
A4E7
  5
A74E
331
A4E8
  5
A74F
331
A4E9
  5
A750
331
A4EA
  5
A751
331
A4EB
  5
A752
331
A4EC
  5
A753
331
A4ED
  5
A754
331
A4EE
  5
A755
331
A4EF
  5
A756
331
A4F0
  5
A757
331
A4F1
  5
A758
331
A4F2
  5
A759
331
A4F3
  5
A75A
331
A4F4
  5
A75B
331
A4F5
  5
A75C
331
A4F6
  5
A75D
331
A4F7
  5
A75E
331
A4F8
  5
A75F
331
A4F9
  5
A760
331
A4FA
  5
A761
331
A4FB
  5
A762
331
A4FC
  5
A763
331
A4FD
  5
A764
331
A4FE
  5
A765
331
A4FF
  5
A766
331
A500
  5
A767
331
A501
  5
A768
331
A502
  5
A769
331
A503
  5
A76A
331
A504
  5
A76B
331
A505
  5
A76D
331
A506
  5
A76E
331
A507
  5
A76F
331
A508
  5
A770
331
A509
  5
A7BD
331
A50A
  5
A7EF
331
A50B
  5
A7F0
331
A50C
  5
A7F6
331
A50D
  5
A7F7
331
A50E
  5
A7F8
331
A50F
  5
A7FB
331
A510
  5
A7FC
331
A511
  5
A7FF
331
A513
  5
A800
331
A514
  5
A813
331
A515
  5
A9A4
331
A516
  5
A9C8
331
A517
  5
AA46
331
A518
  5
AA47
331
A519
  5
AA48
331
A51A
  5
AA4A
331
A51B
  5
AA7A
331
A51C
  5
AAA5
331
A51D
  5
AAC7
331
A51E
  5
AAE1
331
A51F
  5
AB94
331
A520
  5
AB95
331
A521
  5
AB96
331
A522
  5
AB97
331
A523
  5
AB98
331
A524
  5
AB99
331
A525
  5
AB9A
331
A526
  5
AB9B
331
A527
  5
AB9C
331
A528
  5
AB9D
331
A529
  5
AB9E
331
A52A
  5
AB9F
331
A52B
  5
ABA0
331
A52C
  5
ABA1
331
A52D
  5
ABA2
331
A52E
  5
ABA3
331
A52F
  5
ABA4
331
A530
  5
ABA5
331
A531
  5
ABA6
331
A532
  5
ABA7
331
A533
  5
ABA8
331
A534
  5
ABA9
331
A535
  5
ABAA
331
A536
  5
ABAB
331
A537
  5
ABAC
331
A538
  5
ABAD
331
A539
  5
ABAE
331
A53A
  5
ABAF
331
A53B
  5
ABB0
331
A53C
  5
ABB1
331
A53D
  5
ABB2
331
A53E
  5
ABCA
331
A746
  5
AC08
331
A747
  5
AC59
331
A748
  5
ACD6
331
A749
  5
ACD7
331
A74A
  5
B258
331
A74B
  5
B68E
331
A74C
  5
B68F
331
A74D
  5
B690
331
A74E
  5
B691
331
A74F
  5
B692
331
A750
  5
B693
331
A751
  5
B695
331
A752
  5
B696
331
A753
  5
B697
331
A754
  5
B698
331
A755
  5
B69A
331
A756
  5
B69B
331
A757
  5
B69F
331
A758
  5
B6A0
331
A759
  5
B72D
331
A75A
  5
B72E
331
A75B
  5
B72F
331
A75C
  5
B730
331
A75D
  5
B731
331
A75E
  5
B732
331
A75F
  5
B733
331
A760
  5
B734
331
A761
  5
B735
331
A762
  5
B736
331
A763
  5
B737
331
A764
  5
B738
331
A765
  5
B739
331
A766
  5
B73A
331
A767
  5
B73B
331
A768
  5
B73C
331
A769
  5
B73D
331
A76A
  5
B73E
331
A76B
  5
B73F
331
A76D
  5
B740
331
A76E
  5
B741
331
A76F
  5
B742
331
A770
  5
B743
331
A7BD
  5
B744
331
A7EF
  5
B748
331
A7F0
  5
B749
331
A7F6
  5
B74A
331
A7F7
  5
B74B
331
A7F8
  5
B74C
331
A7FB
  5
B74D
331
A7FC
  5
B74E
331
A7FF
  5
B752
331
A800
  5
B755
331
A813
  5
B758
331
0
  5
AA62
331
AA46
  5
B771
331
AA47
  5
B772
331
AA48
  5
B773
331
AA49
  5
B774
331
0
  5
AAE2
331
0
  5
AAE3
331
0
  5
AB91
331
0
  5
AB92
331
0
  5
AB93
331
AB8F
  5
9B48
331
AB90
  5
B899
331
AB91
  5
B8D1
331
AB92
  5
B8DE
331
AB93
  5
B8DF
331
AB94
  5
B8E0
331
AB95
  5
B8E1
331
AB96
  5
B9D3
331
AB97
  5
BBD2
331
AB98
  5
BBD4
331
AB99
  5
C70D
331
AB9A
  5
C70E
331
AB9B
  5
C70F
331
AB9C
  5
C710
331
AB9D
  5
C711
331
AB9E
  5
C712
331
AB9F
  5
C713
331
ABA0
  5
C714
331
ABA1
  5
C715
331
ABA2
  5
C716
331
ABA3
  5
C717
331
ABA4
  5
C718
331
ABA5
  5
C719
331
ABA6
  5
C71A
331
ABA7
  5
C71B
331
ABA8
  5
C71C
331
ABA9
  5
C71D
331
ABAA
  5
C71E
331
ABAB
  5
C71F
331
ABAC
  5
C720
331
ABAD
  5
C721
331
ABAE
  5
C722
331
ABAF
  5
C723
331
ABB0
  5
9B49
331
ABB1
  5
B8BB
331
0
  5
AC2A
331
0
  5
AC2C
331
0
  5
AC58
331
AC2A
  5
C743
331
AC2B
  5
C742
331
0
  5
C744
331
0
  5
ACD8
331
0
  5
ACD9
331
0
  5
AD05
331
0
  5
AD06
331
0
  5
AD10
331
0
  5
AD11
331
0
  5
ADDD
331
0
  5
ADDF
331
ADDD
  5
C768
331
ADDF
  5
C769
331
AEC5
  5
A519
331
B68D
  5
C76A
331
B68E
  5
C76B
331
B68F
  5
C76C
331
B690
  5
C76D
331
B691
  5
C76E
331
B692
  5
C76F
331
B693
  5
C770
331
B695
  5
C771
331
B696
  5
C772
331
B697
  5
C773
331
B698
  5
C774
331
B69A
  5
C775
331
B69B
  5
C776
331
B69F
  5
C777
331
B6A0
  5
C778
331
B72D
  5
C779
331
B72E
  5
C77A
331
B72F
  5
C77B
331
B730
  5
C77C
331
B731
  5
C77D
331
B732
  5
C77E
331
B733
  5
C77F
331
B734
  5
C780
331
B735
  5
C781
331
B736
  5
C782
331
B737
  5
C783
331
B738
  5
C784
331
B739
  5
C785
331
B73A
  5
C786
331
B73B
  5
C787
331
B73C
  5
C788
331
B73D
  5
C789
331
B73E
  5
C78A
331
B73F
  5
C78B
331
B740
  5
C78C
331
B741
  5
C78D
331
B742
  5
C78E
331
B743
  5
C78F
331
B744
  5
C790
331
B745
  5
C791
331
B746
  5
C792
331
B747
  5
C793
331
B748
  5
C794
331
B749
  5
C795
331
B74A
  5
C796
331
B74B
  5
C797
331
B74C
  5
C798
331
B74D
  5
C799
331
B74E
  5
C79A
331
B74F
  5
C79B
331
B750
  5
C79C
331
B751
  5
C79D
331
B752
  5
C79E
331
B753
  5
C7DC
331
B755
  5
C7DD
331
B756
  5
C7DE
331
B757
  5
C7DF
331
B758
  5
C7E0
331
B759
  5
C7E1
331
B75A
  5
C7E2
331
B75B
  5
C7E3
331
B75C
  5
C7E4
331
B75D
  5
C7E8
331
B75E
  5
C7E9
331
B75F
  5
C7EA
331
B760
  5
C7EE
331
B761
  5
C7EF
331
B762
  5
C7F0
331
B763
  5
C7F1
331
B764
  5
C7F2
331
B765
  5
C7F3
331
B766
  5
C7F4
331
B767
  5
C7F5
331
B768
  5
C7F6
331
B769
  5
C7F7
331
B76A
  5
C7F8
331
B76B
  5
C7F9
331
B76C
  5
C7FA
331
B76D
  5
C7FB
331
B76E
  5
C7FC
331
B76F
  5
C7FD
331
B770
  5
C7FE
331
B771
  5
C7FF
331
B772
  5
C800
331
B773
  5
C801
331
B774
  5
C802
331
B775
  5
C803
331
B776
  5
C804
331
B777
  5
C805
331
B778
  5
C806
331
B779
  5
C807
331
B77A
  5
C808
331
B77B
  5
C809
331
B77C
  5
C80A
331
B77D
  5
C80B
331
B77E
  5
C80C
331
B77F
  5
C80D
331
B780
  5
C80E
331
B7DA
  5
C80F
331
B7DB
  5
C810
331
B7E0
  5
C811
331
B7E1
  5
C812
331
B7E2
  5
C813
331
B7E3
  5
C814
331
B7E4
  5
C815
331
B7E5
  5
C816
331
B7E6
  5
C817
331
B7E7
  5
C818
331
B7E8
  5
C819
331
B7E9
  5
C81A
331
B7EA
  5
C81B
331
B7EB
  5
C81C
331
B7EC
  5
C81D
331
B7ED
  5
C81E
331
B7EE
  5
C81F
331
B86B
  5
C820
331
B86C
  5
C821
331
B86D
  5
C822
331
B86E
  5
C823
331
B86F
  5
C824
331
B870
  5
C825
331
B871
  5
C826
331
B872
  5
C827
331
B873
  5
C828
331
B874
  5
C829
331
B875
  5
C82A
331
B876
  5
C82B
331
B877
  5
C82C
331
B878
  5
C82D
331
B879
  5
C82E
331
B87A
  5
C82F
331
B87B
  5
C830
331
B87C
  5
C831
331
B87D
  5
C832
331
B87E
  5
C833
331
B87F
  5
C834
331
B880
  5
C835
331
B881
  5
C836
331
B882
  5
C837
331
B883
  5
C838
331
B884
  5
C839
331
B885
  5
C83A
331
B886
  5
C83B
331
B887
  5
C83C
331
B888
  5
C83D
331
B889
  5
C83E
331
B88A
  5
C83F
331
B88B
  5
C840
331
B898
  5
C841
331
B899
  5
C842
331
0
  5
B9B0
331
0
  5
B9D2
331
0
  5
A3C8
331
B9AF
  5
C857
331
0
  5
BA8C
331
0
  5
BA8D
331
0
  5
BAD8
331
0
  5
BAD9
331
0
  5
BB48
331
0
  5
BBD1
331
0
  5
B759
331
BBD1
  5
C866
331
BBD2
  5
C867
331
BBD4
  5
C868
331
BBD5
  5
C869
331
BBD8
  5
C86A
331
C4D9
  5
33DB
331
C70D
  5
9AE9
331
C70E
  5
9AEA
331
C70F
  5
9AEB
331
0
  5
9AEC
331
0
  5
9AED
331
0
  5
9AEE
331
C713
  5
9B08
331
C714
  5
9B2D
331
C715
  5
9B2E
331
0
  5
9AF2
331
0
  5
9AF3
331
0
  5
9AF4
331
C719
  5
A3E3
331
C71A
  5
A3E4
331
C71B
  5
A3E5
331
C71C
  5
A3E6
331
C71D
  5
A3E7
331
C71E
  5
A3E8
331
C71F
  5
A3E9
331
C720
  5
A3EA
331
C721
  5
A3EB
331
C722
  5
A3EC
331
C723
  5
A3ED
331
C724
  5
A3EE
331
C725
  5
B75D
331
C726
  5
B75E
331
C727
  5
B75F
331
C728
  5
B760
331
0
  5
B745
331
0
  5
B746
331
0
  5
B747
331
C72C
  5
B775
331
C72D
  5
B776
331
C72E
  5
B777
331
0
  5
B74F
331
0
  5
B750
331
0
  5
B751
331
C732
  5
B77F
331
C733
  5
B780
331
C734
  5
B7DA
331
0
  5
B75A
331
0
  5
B75B
331
0
  5
B75C
331
C738
  5
B7E6
331
C739
  5
B7E7
331
C73A
  5
B7E8
331
C73B
  5
B7E9
331
0
  5
B761
331
0
  5
B762
331
0
  5
B763
331
C73F
  5
B870
331
C740
  5
B871
331
C741
  5
B872
331
0
  5
B767
331
0
  5
B768
331
0
  5
B769
331
C745
  5
B880
331
C746
  5
B881
331
C747
  5
B885
331
0
  5
B76D
331
0
  5
B76E
331
0
  5
B76F
331
C74B
  5
C724
331
C74C
  5
C725
331
C74D
  5
C726
331
0
  5
B864
331
0
  5
B865
331
0
  5
B86F
331
C751
  5
C72E
331
C752
  5
C72F
331
C753
  5
C730
331
0
  5
B873
331
0
  5
B874
331
0
  5
B875
331
C757
  5
C738
331
C758
  5
C739
331
C759
  5
C73A
331
0
  5
B879
331
0
  5
B87A
331
0
  5
B87B
331
C75D
  5
C745
331
C75E
  5
C746
331
C75F
  5
C747
331
0
  5
B882
331
0
  5
B883
331
0
  5
B884
331
C763
  5
C74F
331
C764
  5
C750
331
C765
  5
C751
331
C766
  5
C752
331
C767
  5
C753
331
C768
  5
C754
331
C769
  5
C755
331
C76A
  5
C756
331
C76B
  5
C757
331
C76C
  5
C758
331
C76D
  5
C759
331
C76E
  5
C75A
331
C76F
  5
C75B
331
C770
  5
C75C
331
C771
  5
C75D
331
C772
  5
C75E
331
C773
  5
C75F
331
C774
  5
C760
331
0
  5
BBD5
331
0
  5
BBD8
331
0
  5
C4D9
331
C778
  5
C843
331
C779
  5
C844
331
C77A
  5
C845
331
0
  5
C7E5
331
0
  5
C7E6
331
0
  5
C7E7
331
C77E
  5
C84D
331
C77F
  5
C84E
331
C780
  5
C84F
331
0
  5
C7EB
331
0
  5
C7EC
331
0
  5
C7ED
331
C784
  5
A3EF
331
C785
  5
A3F0
331
C786
  5
A3F6
331
C787
  5
A3F7
331
C788
  5
A3F8
331
C789
  5
A4E9
331
C78A
  5
A4EA
331
C78B
  5
A4EB
331
C78C
  5
A4EC
331
C78D
  5
A4ED
331
C78E
  5
A4EE
331
C78F
  5
A4EF
331
C790
  5
A4F0
331
C791
  5
A4F1
331
C792
  5
A4F2
331
C793
  5
A4F3
331
C794
  5
A4F4
331
C795
  5
A4F5
331
C796
  5
A4F6
331
C797
  5
A4F7
331
C798
  5
A4F8
331
C799
  5
A4F9
331
C79A
  5
A4FA
331
C79B
  5
A4FB
331
C79C
  5
A4FC
331
C79D
  5
A4FD
331
C79E
  5
A4FE
331
C79F
  5
A4FF
331
C7A0
  5
A500
331
C7A1
  5
A501
331
C7A2
  5
A502
331
C7A3
  5
A503
331
C7A4
  5
A504
331
C7A5
  5
A505
331
C7A6
  5
A506
331
C7A7
  5
A507
331
C7A8
  5
A508
331
C7A9
  5
A509
331
C7AA
  5
A50A
331
C7AB
  5
A50B
331
C7AC
  5
A50C
331
C7AD
  5
A50D
331
C7AE
  5
A50E
331
C7AF
  5
A50F
331
C7B0
  5
A510
331
C7B1
  5
A511
331
C7B2
  5
A513
331
C7B3
  5
A514
331
C7B4
  5
A515
331
C7B5
  5
A516
331
C7B6
  5
A517
331
C7B7
  5
C858
331
C7B8
  5
C859
331
C7B9
  5
C85A
331
C7BA
  5
C85B
331
C7BB
  5
C85C
331
C7BC
  5
C85D
331
C7BD
  5
C85E
331
C7BE
  5
C85F
331
C7BF
  5
C860
331
C7C0
  5
C861
331
C7C1
  5
C862
331
C7C2
  5
C863
331
C7C3
  5
C864
331
C7C4
  5
C865
331
C7C5
  5
C79F
331
C7C6
  5
C7A0
331
C7C7
  5
C7A1
331
C7C8
  5
C7A2
331
C7C9
  5
C7A3
331
C7CA
  5
C7A4
331
C7CB
  5
C7A5
331
C7CC
  5
C7A6
331
C7CD
  5
C7A7
331
C7CE
  5
C7A8
331
C7CF
  5
C7A9
331
C7D0
  5
C7AA
331
C7D1
  5
C7AB
331
C7D2
  5
C7AC
331
C7D3
  5
C7AD
331
C7D4
  5
C7AE
331
C7D5
  5
C7AF
331
C7D6
  5
C7B0
331
C7D7
  5
C7B1
331
C7D8
  5
C7B2
331
C7D9
  5
C7B3
331
C7DA
  5
C7B4
331
C7DB
  5
C7B5
331
C7DC
  5
C7B6
331
C7DD
  5
C7B7
331
C7DE
  5
C7B8
331
C7DF
  5
C7B9
331
C7E0
  5
C7BA
331
C7E1
  5
C7BB
331
C7E2
  5
C7BC
331
C7E3
  5
C7BD
331
C7E4
  5
C7BE
331
C7E5
  5
C7BF
331
C7E6
  5
C7C0
331
C7E7
  5
C7C1
331
C7E8
  5
C7C2
331
C7E9
  5
C7C3
331
C7EA
  5
C7C4
331
C7EB
  5
C7C5
331
C7EC
  5
C7C6
331
C7ED
  5
C7C7
331
C7EE
  5
C7C8
331
C7EF
  5
C7C9
331
C7F0
  5
C7CA
331
C7F1
  5
C7CB
331
C7F2
  5
C7CC
331
C7F3
  5
C7CD
331
C7F4
  5
C7CE
331
C7F5
  5
C7CF
331
C7F6
  5
C7D0
331
C7F7
  5
C7D1
331
C7F8
  5
C7D2
331
C7F9
  5
C7D3
331
C7FA
  5
C7D4
331
C7FB
  5
C7D5
331
C7FC
  5
C7D6
331
C7FD
  5
C7D7
331
C7FE
  5
C7D8
331
C7FF
  5
C7D9
331
C800
  5
C7DA
331
C801
  5
C7DB
331
C802
  5
9AEF
331
C803
  5
9AF0
331
C804
  5
9AF1
331
C805
  5
9AF5
331
C806
  5
9AF6
331
C807
  5
9AF7
331
C808
  5
9B07
331
C809
  5
9B2F
331
C80A
  5
9B30
331
C80B
  5
9B31
331
C80C
  5
9B32
331
C80D
  5
9B33
331
C80E
  5
9B34
331
C80F
  5
9B35
331
C810
  5
B764
331
C811
  5
B765
331
C812
  5
B766
331
C813
  5
B76A
331
C814
  5
B76B
331
C815
  5
B76C
331
C816
  5
B770
331
C817
  5
B778
331
C818
  5
B779
331
C819
  5
B77A
331
C81A
  5
B77B
331
C81B
  5
B77C
331
C81C
  5
B77D
331
C81D
  5
B77E
331
C81E
  5
B7DB
331
C81F
  5
B7E0
331
C820
  5
B7E1
331
C821
  5
B7E2
331
C822
  5
B7E3
331
C823
  5
B7E4
331
C824
  5
B7E5
331
C825
  5
B7EA
331
C826
  5
B7EB
331
C827
  5
B7EC
331
C828
  5
B7ED
331
C829
  5
B7EE
331
C82A
  5
B862
331
C82B
  5
B863
331
C82C
  5
B876
331
C82D
  5
B877
331
C82E
  5
B878
331
C82F
  5
B87C
331
C830
  5
B87D
331
C831
  5
B87E
331
C832
  5
B87F
331
C833
  5
B886
331
C834
  5
B887
331
C835
  5
B888
331
C836
  5
B889
331
C837
  5
B88A
331
C838
  5
B88B
331
C839
  5
B898
331
C83A
  5
C727
331
C83B
  5
C728
331
C83C
  5
C729
331
C83D
  5
C72A
331
C83E
  5
C72B
331
C83F
  5
C72C
331
C840
  5
C72D
331
C841
  5
C731
331
C842
  5
C732
331
C843
  5
C733
331
C844
  5
C734
331
C845
  5
C735
331
C846
  5
C736
331
C847
  5
C737
331
C848
  5
C73B
331
C849
  5
C73C
331
C84A
  5
C73D
331
C84B
  5
C73E
331
C84C
  5
C73F
331
C84D
  5
C740
331
C84E
  5
C741
331
C84F
  5
C748
331
C850
  5
C749
331
C851
  5
C74A
331
C852
  5
C74B
331
C853
  5
C74C
331
C854
  5
C74D
331
C855
  5
C74E
331
C856
  5
C761
331
C857
  5
C762
331
C858
  5
C763
331
C859
  5
C764
331
C85A
  5
C765
331
C85B
  5
C766
331
C85C
  5
C767
331
C85D
  5
C846
331
C85E
  5
C847
331
C85F
  5
C848
331
C860
  5
C849
331
C861
  5
C84A
331
C862
  5
C84B
331
C863
  5
C84C
331
C864
  5
C850
331
C865
  5
C851
331
C866
  5
C852
331
C867
  5
C853
331
C868
  5
C854
331
C869
  5
C855
331
C86A
  5
C856
  0
SORTENTSTABLE
  5
59C
102
{ACAD_REACTORS
330
59B
102
}
330
59B
100
AcDbSortentsTable
330
15
331
57
  5
57
331
0
  5
70
  0
GROUP
  5
B6BE
102
{ACAD_REACTORS
330
D
102
}
330
D
100
AcDbGroup
300

 70
     1
 71
     1
340
B6A0
340
B69F
340
B69B
340
B69A
340
B698
340
B697
340
B696
340
B695
340
B693
340
B692
340
B691
340
B690
340
B68F
340
B68E
340
B68D
  0
GROUP
  5
B804
102
{ACAD_REACTORS
330
D
102
}
330
D
100
AcDbGroup
300

 70
     1
 71
     1
340
B7EE
340
B7ED
340
B7EC
340
B7EB
340
B7EA
340
B7E9
340
B7E8
340
B7E7
340
B7E6
340
B7E5
340
B7E4
340
B7E3
340
B7E2
340
B7E1
340
B7E0
  0
GROUP
  5
B805
102
{ACAD_REACTORS
330
D
102
}
330
D
100
AcDbGroup
300

 70
     1
 71
     1
340
B780
340
B77F
340
B77E
340
B77D
340
B77C
340
B77B
340
B77A
340
B779
340
B778
340
B777
340
B776
340
B775
340
B774
340
B773
340
B772
340
B771
340
B770
340
B76F
340
B76E
340
B76D
340
B76C
340
B76B
340
B76A
340
B769
340
B768
340
B767
340
B766
340
B765
340
B764
340
B763
340
B762
340
B761
340
B760
340
B75F
340
B75E
340
B75D
340
B75C
340
B75B
340
B75A
340
B759
340
B758
340
B757
340
B756
340
B755
  0
GROUP
  5
B8BA
102
{ACAD_REACTORS
330
D
102
}
330
D
100
AcDbGroup
300

 70
     1
 71
     1
340
B899
340
B898
340
B88B
340
B88A
340
B889
340
B888
340
B887
340
B886
340
B885
340
B884
340
B883
340
B882
340
B881
340
B880
340
B87F
340
B87E
340
B87D
340
B87C
340
B87B
340
B87A
340
B879
340
B878
340
B877
340
B876
340
B875
340
B874
340
B873
  0
GROUP
  5
A53F
102
{ACAD_REACTORS
330
D
102
}
330
D
100
AcDbGroup
300

 70
     1
 71
     1
340
A53E
340
A53D
340
A53C
340
A53B
340
A53A
340
A539
340
A538
340
A537
340
A536
340
A535
340
A534
340
A533
340
A532
340
A531
340
A530
340
A52F
340
A52E
340
A52D
340
A52C
340
A52B
340
A52A
340
A529
340
A528
340
A527
340
A526
340
A525
340
A524
340
A523
340
A522
340
A521
340
A520
340
A51F
340
A51E
340
A51D
340
A51C
340
A51B
340
A51A
340
A519
340
A518
340
A517
340
A516
340
A515
340
A514
340
A513
  0
GROUP
  5
A3F1
102
{ACAD_REACTORS
330
D
102
}
330
D
100
AcDbGroup
300

 70
     1
 71
     1
340
A3F0
340
A3EF
340
A3EE
340
A3ED
340
A3EC
340
A3EB
340
A3EA
340
A3E9
340
A3E8
340
A3E7
340
A3E6
340
A3E5
340
A3E4
340
A3E3
340
A3E2
340
A3E1
340
A3E0
340
A3DF
340
A3DE
340
A3DD
340
A3DC
340
A3DB
340
A3DA
340
A3D9
340
A3D8
340
A3D7
340
A3D6
340
A3D5
340
A3D4
340
A3D3
340
A3D2
340
A3D1
340
A3D0
340
A3CF
340
A3CE
340
A3CD
340
A3CC
340
A3CB
340
A3CA
340
A3C9
340
A3C8
340
A3C7
340
A3C6
340
A3C5
  0
GROUP
  5
A512
102
{ACAD_REACTORS
330
D
102
}
330
D
100
AcDbGroup
300

 70
     1
 71
     1
340
A511
340
A510
340
A50F
340
A50E
340
A50D
340
A50C
340
A50B
340
A50A
340
A509
340
A508
340
A507
340
A506
340
A505
340
A504
340
A503
340
A502
340
A501
340
A500
340
A4FF
340
A4FE
340
A4FD
340
A4FC
340
A4FB
340
A4FA
340
A4F9
340
A4F8
340
A4F7
340
A4F6
340
A4F5
340
A4F4
340
A4F3
340
A4F2
340
A4F1
340
A4F0
340
A4EF
340
A4EE
340
A4ED
340
A4EC
340
A4EB
340
A4EA
340
A4E9
340
A4E8
340
A4E7
340
A4E6
  0
MATERIAL
  5
AE6A
102
{ACAD_REACTORS
330
2CF
102
}
102
{ACAD_XDICTIONARY
360
CA09
102
}
330
2CF
100
AcDbMaterial
  1
BYBLOCK
 72
     0
 73
     2
 43
0.0208333333333333
 43
0.0
 43
0.0
 43
0.0
 43
0.0
 43
0.0208333333333333
 43
0.0
 43
0.0
 43
0.0
 43
0.0
 43
1.0
 43
0.0
 43
0.0
 43
0.0
 43
0.0
 43
1.0
 77
     0
 78
     2
 47
0.0208333333333333
 47
0.0
 47
0.0
 47
0.0
 47
0.0
 47
0.0208333333333333
 47
0.0
 47
0.0
 47
0.0
 47
0.0
 47
1.0
 47
0.0
 47
0.0
 47
0.0
 47
0.0
 47
1.0
171
     0
172
     2
 49
0.0208333333333333
 49
0.0
 49
0.0
 49
0.0
 49
0.0
 49
0.0208333333333333
 49
0.0
 49
0.0
 49
0.0
 49
0.0
 49
1.0
 49
0.0
 49
0.0
 49
0.0
 49
0.0
 49
1.0
175
     0
176
     2
142
0.0208333333333333
142
0.0
142
0.0
142
0.0
142
0.0
142
0.0208333333333333
142
0.0
142
0.0
142
0.0
142
0.0
142
1.0
142
0.0
142
0.0
142
0.0
142
0.0
142
1.0
179
     0
270
     2
144
0.0208333333333333
144
0.0
144
0.0
144
0.0
144
0.0
144
0.0208333333333333
144
0.0
144
0.0
144
0.0
144
0.0
144
1.0
144
0.0
144
0.0
144
0.0
144
0.0
144
1.0
274
     2
147
0.0208333333333333
147
0.0
147
0.0
147
0.0
147
0.0
147
0.0208333333333333
147
0.0
147
0.0
147
0.0
147
0.0
147
1.0
147
0.0
147
0.0
147
0.0
147
0.0
147
1.0
  0
MATERIAL
  5
AE62
102
{ACAD_REACTORS
330
2CF
102
}
102
{ACAD_XDICTIONARY
360
CA0B
102
}
330
2CF
100
AcDbMaterial
  1
BYLAYER
 72
     0
 73
     2
 43
0.0208333333333333
 43
0.0
 43
0.0
 43
0.0
 43
0.0
 43
0.0208333333333333
 43
0.0
 43
0.0
 43
0.0
 43
0.0
 43
1.0
 43
0.0
 43
0.0
 43
0.0
 43
0.0
 43
1.0
 77
     0
 78
     2
 47
0.0208333333333333
 47
0.0
 47
0.0
 47
0.0
 47
0.0
 47
0.0208333333333333
 47
0.0
 47
0.0
 47
0.0
 47
0.0
 47
1.0
 47
0.0
 47
0.0
 47
0.0
 47
0.0
 47
1.0
171
     0
172
     2
 49
0.0208333333333333
 49
0.0
 49
0.0
 49
0.0
 49
0.0
 49
0.0208333333333333
 49
0.0
 49
0.0
 49
0.0
 49
0.0
 49
1.0
 49
0.0
 49
0.0
 49
0.0
 49
0.0
 49
1.0
175
     0
176
     2
142
0.0208333333333333
142
0.0
142
0.0
142
0.0
142
0.0
142
0.0208333333333333
142
0.0
142
0.0
142
0.0
142
0.0
142
1.0
142
0.0
142
0.0
142
0.0
142
0.0
142
1.0
179
     0
270
     2
144
0.0208333333333333
144
0.0
144
0.0
144
0.0
144
0.0
144
0.0208333333333333
144
0.0
144
0.0
144
0.0
144
0.0
144
1.0
144
0.0
144
0.0
144
0.0
144
0.0
144
1.0
274
     2
147
0.0208333333333333
147
0.0
147
0.0
147
0.0
147
0.0
147
0.0208333333333333
147
0.0
147
0.0
147
0.0
147
0.0
147
1.0
147
0.0
147
0.0
147
0.0
147
0.0
147
1.0
  0
MATERIAL
  5
AE72
102
{ACAD_REACTORS
330
2CF
102
}
102
{ACAD_XDICTIONARY
360
CA0D
102
}
330
2CF
100
AcDbMaterial
  1
GLOBAL
 72
     0
 73
     2
 43
0.0208333333333333
 43
0.0
 43
0.0
 43
0.0
 43
0.0
 43
0.0208333333333333
 43
0.0
 43
0.0
 43
0.0
 43
0.0
 43
1.0
 43
0.0
 43
0.0
 43
0.0
 43
0.0
 43
1.0
 77
     0
 78
     2
 47
0.0208333333333333
 47
0.0
 47
0.0
 47
0.0
 47
0.0
 47
0.0208333333333333
 47
0.0
 47
0.0
 47
0.0
 47
0.0
 47
1.0
 47
0.0
 47
0.0
 47
0.0
 47
0.0
 47
1.0
171
     0
172
     2
 49
0.0208333333333333
 49
0.0
 49
0.0
 49
0.0
 49
0.0
 49
0.0208333333333333
 49
0.0
 49
0.0
 49
0.0
 49
0.0
 49
1.0
 49
0.0
 49
0.0
 49
0.0
 49
0.0
 49
1.0
175
     0
176
     2
142
0.0208333333333333
142
0.0
142
0.0
142
0.0
142
0.0
142
0.0208333333333333
142
0.0
142
0.0
142
0.0
142
0.0
142
1.0
142
0.0
142
0.0
142
0.0
142
0.0
142
1.0
179
     0
270
     2
144
0.0208333333333333
144
0.0
144
0.0
144
0.0
144
0.0
144
0.0208333333333333
144
0.0
144
0.0
144
0.0
144
0.0
144
1.0
144
0.0
144
0.0
144
0.0
144
0.0
144
1.0
274
     2
147
0.0208333333333333
147
0.0
147
0.0
147
0.0
147
0.0
147
0.0208333333333333
147
0.0
147
0.0
147
0.0
147
0.0
147
1.0
147
0.0
147
0.0
147
0.0
147
0.0
147
1.0
  0
ACAD_PROXY_OBJECT
  5
AEAE
102
{ACAD_REACTORS
330
AEAD
102
}
330
AEAD
100
AcDbZombieObject
 90
      499
 91
      512
 93
      610
310
40901902A4063FBFFFFFE000000000000002040AD7A3703D0AD73F4214DD185B99185C990000000000000104090141901A00000000000004100000000000000041025764000000000000300FC0
340
12
340
0
340
F
340
0
 94
        0
1001
ACAD_MLEADERVER
1070
     2
  0
MLINESTYLE
  5
1C
102
{ACAD_REACTORS
330
1B
102
}
330
1B
100
AcDbMlineStyle
  2
STANDARD
 70
     0
  3

 62
   256
 51
90.0
 52
90.0
 71
     2
 49
0.5
 62
   256
  6
BYLAYER
 49
-0.5
 62
   256
  6
BYLAYER
  0
ACAD_PROXY_OBJECT
  5
AE8C
102
{ACAD_REACTORS
330
AE8B
102
}
330
AE8B
100
AcDbZombieObject
 90
      499
 91
      511
 93
       41
310
903313A31580
  0
ACAD_PROXY_OBJECT
  5
AE8D
102
{ACAD_REACTORS
330
AE8B
102
}
330
AE8B
100
AcDbZombieObject
 90
      499
 91
      511
 93
      105
310
903313A324000000000000004000
  0
ACAD_PROXY_OBJECT
  5
AE8E
102
{ACAD_REACTORS
330
AE8B
102
}
330
AE8B
100
AcDbZombieObject
 90
      499
 91
      511
 93
      105
310
903313A344000000000000104000
  0
ACAD_PROXY_OBJECT
  5
AE8F
102
{ACAD_REACTORS
330
AE8B
102
}
330
AE8B
100
AcDbZombieObject
 90
      499
 91
      511
 93
      105
310
903313A354000000000000144000
  0
ACAD_PROXY_OBJECT
  5
AE90
102
{ACAD_REACTORS
330
AE8B
102
}
330
AE8B
100
AcDbZombieObject
 90
      499
 91
      511
 93
      105
310
903313A384000000000000204000
  0
ACAD_PROXY_OBJECT
  5
AE91
102
{ACAD_REACTORS
330
AE8B
102
}
330
AE8B
100
AcDbZombieObject
 90
      499
 91
      511
 93
      113
310
904313A31304000000000000244000
  0
ACAD_PROXY_OBJECT
  5
AE92
102
{ACAD_REACTORS
330
AE8B
102
}
330
AE8B
100
AcDbZombieObject
 90
      499
 91
      511
 93
      113
310
904313A31364000000000000304000
  0
ACAD_PROXY_OBJECT
  5
AE93
102
{ACAD_REACTORS
330
AE8B
102
}
330
AE8B
100
AcDbZombieObject
 90
      499
 91
      511
 93
      113
310
904313A32304000000000000344000
  0
ACAD_PROXY_OBJECT
  5
AE94
102
{ACAD_REACTORS
330
AE8B
102
}
330
AE8B
100
AcDbZombieObject
 90
      499
 91
      511
 93
      113
310
904313A333040000000000003E4000
  0
ACAD_PROXY_OBJECT
  5
AE95
102
{ACAD_REACTORS
330
AE8B
102
}
330
AE8B
100
AcDbZombieObject
 90
      499
 91
      511
 93
      113
310
904313A34304000000000000444000
  0
ACAD_PROXY_OBJECT
  5
AE96
102
{ACAD_REACTORS
330
AE8B
102
}
330
AE8B
100
AcDbZombieObject
 90
      499
 91
      511
 93
      113
310
904313A35304000000000000494000
  0
ACAD_PROXY_OBJECT
  5
AE97
102
{ACAD_REACTORS
330
AE8B
102
}
330
AE8B
100
AcDbZombieObject
 90
      499
 91
      511
 93
      121
310
905313A3130304000000000000594000
  0
ACAD_PROXY_OBJECT
  5
AE98
102
{ACAD_REACTORS
330
AE8B
102
}
330
AE8B
100
AcDbZombieObject
 90
      499
 91
      511
 93
      105
310
903323A310000000000000010100
  0
ACAD_PROXY_OBJECT
  5
AE99
102
{ACAD_REACTORS
330
AE8B
102
}
330
AE8B
100
AcDbZombieObject
 90
      499
 91
      511
 93
      105
310
903343A310000000000000410100
  0
ACAD_PROXY_OBJECT
  5
AE9A
102
{ACAD_REACTORS
330
AE8B
102
}
330
AE8B
100
AcDbZombieObject
 90
      499
 91
      511
 93
      105
310
903383A310000000000000810100
  0
ACAD_PROXY_OBJECT
  5
AE9B
102
{ACAD_REACTORS
330
AE8B
102
}
330
AE8B
100
AcDbZombieObject
 90
      499
 91
      511
 93
      113
310
90431303A310000000000000910100
  0
ACAD_PROXY_OBJECT
  5
AE9C
102
{ACAD_REACTORS
330
AE8B
102
}
330
AE8B
100
AcDbZombieObject
 90
      499
 91
      511
 93
      121
310
9053130303A310000000000001650100
  0
ACAD_PROXY_OBJECT
  5
AE9D
102
{ACAD_REACTORS
330
AE8B
102
}
330
AE8B
100
AcDbZombieObject
 90
      499
 91
      511
 93
      257
310
90E312F31323822203D2031272D3022000000000000200FC000000000000284000
  0
ACAD_PROXY_OBJECT
  5
AE9E
102
{ACAD_REACTORS
330
AE8B
102
}
330
AE8B
100
AcDbZombieObject
 90
      499
 91
      511
 93
      249
310
90D312F363422203D2031272D3022000000000000240FC000000000000284000
  0
ACAD_PROXY_OBJECT
  5
AE9F
102
{ACAD_REACTORS
330
AE8B
102
}
330
AE8B
100
AcDbZombieObject
 90
      499
 91
      511
 93
      249
310
90D312F333222203D2031272D3022000000000000280FC000000000000284000
  0
ACAD_PROXY_OBJECT
  5
AEA0
102
{ACAD_REACTORS
330
AE8B
102
}
330
AE8B
100
AcDbZombieObject
 90
      499
 91
      511
 93
      249
310
90D312F313622203D2031272D30220000000000002C0FC000000000000284000
  0
ACAD_PROXY_OBJECT
  5
AEA1
102
{ACAD_REACTORS
330
AE8B
102
}
330
AE8B
100
AcDbZombieObject
 90
      499
 91
      511
 93
      249
310
90D332F333222203D2031272D30220000000000002E0FC000000000000284000
  0
ACAD_PROXY_OBJECT
  5
AEA2
102
{ACAD_REACTORS
330
AE8B
102
}
330
AE8B
100
AcDbZombieObject
 90
      499
 91
      511
 93
      241
310
90C312F3822203D2031272D3022000000000000300FC000000000000284000
  0
ACAD_PROXY_OBJECT
  5
AEA3
102
{ACAD_REACTORS
330
AE8B
102
}
330
AE8B
100
AcDbZombieObject
 90
      499
 91
      511
 93
      249
310
90D332F313622203D2031272D3022000000000000320FC000000000000284000
  0
ACAD_PROXY_OBJECT
  5
AEA4
102
{ACAD_REACTORS
330
AE8B
102
}
330
AE8B
100
AcDbZombieObject
 90
      499
 91
      511
 93
      241
310
90C312F3422203D2031272D3022000000000000340FC000000000000284000
  0
ACAD_PROXY_OBJECT
  5
AEA5
102
{ACAD_REACTORS
330
AE8B
102
}
330
AE8B
100
AcDbZombieObject
 90
      499
 91
      511
 93
      241
310
90C332F3822203D2031272D3022000000000000360FC000000000000284000
  0
ACAD_PROXY_OBJECT
  5
AEA6
102
{ACAD_REACTORS
330
AE8B
102
}
330
AE8B
100
AcDbZombieObject
 90
      499
 91
      511
 93
      241
310
90C312F3222203D2031272D3022000000000000380FC000000000000284000
  0
ACAD_PROXY_OBJECT
  5
AEA7
102
{ACAD_REACTORS
330
AE8B
102
}
330
AE8B
100
AcDbZombieObject
 90
      499
 91
      511
 93
      241
310
90C332F3422203D2031272D30220000000000003A0FC000000000000284000
  0
ACAD_PROXY_OBJECT
  5
AEA8
102
{ACAD_REACTORS
330
AE8B
102
}
330
AE8B
100
AcDbZombieObject
 90
      499
 91
      511
 93
      161
310
90A3122203D2031272D30224000000000000284000
  0
ACAD_PROXY_OBJECT
  5
AEA9
102
{ACAD_REACTORS
330
AE8B
102
}
330
AE8B
100
AcDbZombieObject
 90
      499
 91
      511
 93
      257
310
90E312D312F3222203D2031272D30220000000000003E0FC000000000000284000
  0
ACAD_PROXY_OBJECT
  5
AEAA
102
{ACAD_REACTORS
330
AE8B
102
}
330
AE8B
100
AcDbZombieObject
 90
      499
 91
      511
 93
      225
310
90A3322203D2031272D302200000000000002100000000000000284000
  0
ACAD_PROXY_OBJECT
  5
AEAB
102
{ACAD_REACTORS
330
AE8B
102
}
330
AE8B
100
AcDbZombieObject
 90
      499
 91
      511
 93
      225
310
90A3622203D2031272D302200000000000006100000000000000284000
  0
ACAD_PROXY_OBJECT
  5
AEAC
102
{ACAD_REACTORS
330
AE8B
102
}
330
AE8B
100
AcDbZombieObject
 90
      499
 91
      511
 93
      249
310
90D31272D3022203D2031272D30220000000000000A100000000000000284000
  0
ACAD_PROXY_OBJECT
  5
AE80
102
{ACAD_REACTORS
330
AE7A
102
}
330
AE7A
100
AcDbZombieObject
 90
      499
 91
      510
 93
      436
310
42CC9915DA5C99599C985B595049028333333333333E3BF0000000000000FB0107901411070040501600405405064090741402480A0340
1001
ACAD
1000
AcDbSavedByObjectVersion
1070
     0
  0
ACAD_PROXY_OBJECT
  5
AE82
102
{ACAD_REACTORS
330
AE7A
102
}
330
AE7A
100
AcDbZombieObject
 90
      499
 91
      510
 93
      500
310
424CD108121A5919195B90640502408333333333333E3BF0000000000000FB01079024090700405020000000000001110200405405064090740C02480A0340
1001
ACAD
1000
AcDbSavedByObjectVersion
1070
     0
  0
ACAD_PROXY_OBJECT
  5
AE81
102
{ACAD_REACTORS
330
AE7A
102
}
330
AE7A
100
AcDbZombieObject
 90
      499
 91
      510
 93
      436
310
42CCD915DA5C99599C985B595059028333333333333E3BF0000000000000FB0107901411070040501600405405064090741402480A0340
1001
ACAD
1000
AcDbSavedByObjectVersion
1070
     0
  0
ACAD_PROXY_OBJECT
  5
AE7F
102
{ACAD_REACTORS
330
AE7A
102
}
330
AE7A
100
AcDbZombieObject
 90
      499
 91
      510
 93
      388
310
4150985CDA58D07406404333333333333E3BF0000000000000FB0107A41107004050150841D405064090741402480A0350
1001
ACAD
1000
AcDbSavedByObjectVersion
1070
     0
  0
ACAD_PROXY_OBJECT
  5
AE86
102
{ACAD_REACTORS
330
AE7A
102
}
330
AE7A
100
AcDbZombieObject
 90
      499
 91
      510
 93
      428
310
42109C9A59DA1D195B90C409028333333333333E3BF0000000000000FB010790141107004050150841D405064090741402480A029950
1001
ACAD
1000
AcDbSavedByObjectVersion
1070
     0
  0
ACAD_PROXY_OBJECT
  5
AE8A
102
{ACAD_REACTORS
330
AE7A
102
}
330
AE7A
100
AcDbZombieObject
 90
      499
 91
      510
 93
      452
310
42D0DBDB1BDC90DA185B99D95104090240C333333333333E3BF0000000000000FB0108901411070040501508421405064090741402480A0350
1001
ACAD
1000
AcDbSavedByObjectVersion
1070
     0
  0
ACAD_PROXY_OBJECT
  5
AE83
102
{ACAD_REACTORS
330
AE7A
102
}
330
AE7A
100
AcDbZombieObject
 90
      499
 91
      510
 93
      500
310
4290DBDB98D95C1D1D585B10940D028333333333333E3BF0000000000000FB0107902409070040501000000000000111010841D405064090740C02480A0340
1001
ACAD
1000
AcDbSavedByObjectVersion
1070
     0
  0
ACAD_PROXY_OBJECT
  5
AE85
102
{ACAD_REACTORS
330
AE7A
102
}
330
AE7A
100
AcDbZombieObject
 90
      499
 91
      510
 93
      412
310
40D11A5B50B409028333333333333E3BF0000000000000FB010790141107004050150841D405064090741402480A02677FFFFFD0
1001
ACAD
1000
AcDbSavedByObjectVersion
1070
     0
  0
ACAD_PROXY_OBJECT
  5
BBB4
102
{ACAD_REACTORS
330
AE7A
102
}
330
AE7A
100
AcDbZombieObject
 90
      499
 91
      510
 93
      452
310
43115919D950DBDB1BDC93D999916409028333333333333E3BF0000000000000FB010790141107004050150841D405064090741402480A0350
1001
ACAD
1000
AcDbSavedByObjectVersion
1070
     0
  0
ACAD_PROXY_OBJECT
  5
AE89
102
{ACAD_REACTORS
330
AE7A
102
}
330
AE7A
100
AcDbZombieObject
 90
      499
 91
      510
 93
      444
310
42D19858D95C185D1D195C9B90F409028333333333333E3BF0000000000000FB010790141107004050150841D405064090741402480A0350
1001
ACAD
1000
AcDbSavedByObjectVersion
1070
     0
  0
ACAD_PROXY_OBJECT
  5
AE7B
102
{ACAD_REACTORS
330
AE7A
102
}
330
AE7A
100
AcDbZombieObject
 90
      499
 91
      510
 93
      388
310
41119B185D240901404333333333333E3BF0000000000000F9010740A41107004050150841D405064090741402480A1B50
1001
ACAD
1000
AcDbSavedByObjectVersion
1070
     0
  0
ACAD_PROXY_OBJECT
  5
AE7C
102
{ACAD_REACTORS
330
AE7A
102
}
330
AE7A
100
AcDbZombieObject
 90
      499
 91
      510
 93
      476
310
43519B185D15DA5D1A115919D95CD0140901404333333333333E3BF0000000000000F9010740901411070040501600405405064090741402480A1B50
1001
ACAD
1000
AcDbSavedByObjectVersion
1070
     0
  0
ACAD_PROXY_OBJECT
  5
AE7D
102
{ACAD_REACTORS
330
AE7A
102
}
330
AE7A
100
AcDbZombieObject
 90
      499
 91
      510
 93
      412
310
41D1DBDD5C985D5910240902404333333333333E3BF0000000000000F9010740A411070040501641D405064090741402480A1B50
1001
ACAD
1000
AcDbSavedByObjectVersion
1070
     0
  0
ACAD_PROXY_OBJECT
  5
AE7E
102
{ACAD_REACTORS
330
AE7A
102
}
330
AE7A
100
AcDbZombieObject
 90
      499
 91
      510
 93
      500
310
4411DBDD5C985D5915DA5D1A115919D95CD0340902404333333333333E3BF0000000000000F9010740901411070040501600405405064090741402480A1B50
1001
ACAD
1000
AcDbSavedByObjectVersion
1070
     0
  0
ACAD_PROXY_OBJECT
  5
BBAC
102
{ACAD_REACTORS
330
AE7A
102
}
330
AE7A
100
AcDbZombieObject
 90
      499
 91
      510
 93
      476
310
41921A5919195B90640502408333333333333E3BF0000000000000FB01079024090700405020000000000001110200405405064090740C02480A0340
1001
ACAD
1000
AcDbSavedByObjectVersion
1070
     0
  0
ACAD_PROXY_OBJECT
  5
BBB2
102
{ACAD_REACTORS
330
AE7A
102
}
330
AE7A
100
AcDbZombieObject
 90
      499
 91
      510
 93
      428
310
42529A5D1D195C93D999914409028333333333333E3BF0000000000000FB010790141107004050150A41D405064090741402480A0350
1001
ACAD
1000
AcDbSavedByObjectVersion
1070
     0
  0
ACAD_PROXY_OBJECT
  5
AE88
102
{ACAD_REACTORS
330
AE7A
102
}
330
AE7A
100
AcDbZombieObject
 90
      499
 91
      510
 93
      444
310
42D31A5B995C185D1D195C9B90E409028333333333333E3BF0000000000000FB010790141107004050750841D405064090741402483A0350
1001
ACAD
1000
AcDbSavedByObjectVersion
1070
     0
  0
ACAD_PROXY_OBJECT
  5
C528
102
{ACAD_REACTORS
330
AE7A
102
}
330
AE7A
100
AcDbZombieObject
 90
      499
 91
      510
 93
      484
310
42135BD9195B1A5B99D0A409038333333333333E33F0000000000000F901074090290700405010000000000201990108421405064090741402480A1B40
1001
ACAD
1000
AcDbSavedByObjectVersion
1070
     0
  0
ACAD_PROXY_OBJECT
  5
BBB3
102
{ACAD_REACTORS
330
AE7A
102
}
330
AE7A
100
AcDbZombieObject
 90
      499
 91
      510
 93
      444
310
42D3DD995C9A185B99D3D999915409028333333333333E3BF0000000000000FB010790141107004050150941D405064090741402480A0350
1001
ACAD
1000
AcDbSavedByObjectVersion
1070
     0
  0
ACAD_PROXY_OBJECT
  5
AE84
102
{ACAD_REACTORS
330
AE7A
102
}
330
AE7A
100
AcDbZombieObject
 90
      499
 91
      510
 93
      420
310
425499585B1A5CDD1A58D08409028333333333333E3BF0000000000000FB01079019070040501508421405064090741402480A1B40
1001
ACAD
1000
AcDbSavedByObjectVersion
1070
     0
  0
ACAD_PROXY_OBJECT
  5
BBB1
102
{ACAD_REACTORS
330
AE7A
102
}
330
AE7A
100
AcDbZombieObject
 90
      499
 91
      510
 93
      420
310
4194DA1859195911B40902404333333333333E3BF0000000000000F9010740A41107004050150800405405064090840C02480A0B40
1001
ACAD
1000
AcDbSavedByObjectVersion
1070
     0
  0
ACAD_PROXY_OBJECT
  5
BBB0
102
{ACAD_REACTORS
330
AE7A
102
}
330
AE7A
100
AcDbZombieObject
 90
      499
 91
      510
 93
      516
310
4454DA18591959081DDA5D1A08195919D95CD1A40902404333333333333E3BF0000000000000F901074090142907004050250800405405064090740C02480A0B40
1001
ACAD
1000
AcDbSavedByObjectVersion
1070
     0
  0
ACAD_PROXY_OBJECT
  5
BBAD
102
{ACAD_REACTORS
330
AE7A
102
}
330
AE7A
100
AcDbZombieObject
 90
      499
 91
      510
 93
      532
310
4394DA1859195CC81BD98811DC985E5174090240C333333333333E3BF0000000000000FB01079024090741D01000000000000111010841D405064090740C02480A0340
1001
ACAD
1000
AcDbSavedByObjectVersion
1070
     0
  0
ACAD_PROXY_OBJECT
  5
BBAE
102
{ACAD_REACTORS
330
AE7A
102
}
330
AE7A
100
AcDbZombieObject
 90
      499
 91
      510
 93
      476
310
41D4DAD95D18DA1E51840502408333333333333E3BF0000000000000FB01079024090741D01000000000000111010B41D405064090741802480A0340
1001
ACAD
1000
AcDbSavedByObjectVersion
1070
     0
  0
ACAD_PROXY_OBJECT
  5
AE87
102
{ACAD_REACTORS
330
AE7A
102
}
330
AE7A
100
AcDbZombieObject
 90
      499
 91
      510
 93
      412
310
41D51A1A58DAD95B90D409028333333333333E3BF0000000000000FB010790141107004050150C41D405064090741402480A0350
1001
ACAD
1000
AcDbSavedByObjectVersion
1070
     0
  0
ACAD_PROXY_OBJECT
  5
BBAB
102
{ACAD_REACTORS
330
AE7A
102
}
330
AE7A
100
AcDbZombieObject
 90
      499
 91
      510
 93
      420
310
4255DA5C99599C985B595059028333333333333E3BF0000000000000FB0107901411070040501600405405064090740C02480A0340
1001
ACAD
1000
AcDbSavedByObjectVersion
1070
     0
  0
ACAD_PROXY_OBJECT
  5
BBAF
102
{ACAD_REACTORS
330
AE7A
102
}
330
AE7A
100
AcDbZombieObject
 90
      499
 91
      510
 93
      404
310
41560B54985E51940902404000000000000E03F0000000000000FB010740501907004050150841D405064090740C02480A1B40
1001
ACAD
1000
AcDbSavedByObjectVersion
1070
     0
  0
XRECORD
  5
C86C
102
{ACAD_REACTORS
330
C86B
102
}
330
C86B
100
AcDbXrecord
340
2D0
  0
XRECORD
  5
C86D
102
{ACAD_REACTORS
330
C86B
102
}
330
C86B
100
AcDbXrecord
340
2CF
  0
DICTIONARYVAR
  5
BAFC
102
{ACAD_REACTORS
330
37
102
}
330
37
100
DictionaryVariables
280
     0
  1
1:1
  0
DICTIONARYVAR
  5
BAFB
102
{ACAD_REACTORS
330
37
102
}
330
37
100
DictionaryVariables
280
     0
  1
Standard
  0
DICTIONARYVAR
  5
4F1
102
{ACAD_REACTORS
330
37
102
}
330
37
100
DictionaryVariables
280
     0
  1
Standard
  0
DICTIONARYVAR
  5
38
102
{ACAD_REACTORS
330
37
102
}
330
37
100
DictionaryVariables
280
     0
  1
-1
  0
DICTIONARYVAR
  5
408
102
{ACAD_REACTORS
330
37
102
}
330
37
100
DictionaryVariables
280
     0
  1
2
  0
DICTIONARYVAR
  5
1891
102
{ACAD_REACTORS
330
37
102
}
330
37
100
DictionaryVariables
280
     0
  1
1
  0
DICTIONARYVAR
  5
BAFE
102
{ACAD_REACTORS
330
37
102
}
330
37
100
DictionaryVariables
280
     0
  1
0
  0
DICTIONARYVAR
  5
1895
102
{ACAD_REACTORS
330
37
102
}
330
37
100
DictionaryVariables
280
     0
  1
8
  0
DICTIONARYVAR
  5
1894
102
{ACAD_REACTORS
330
37
102
}
330
37
100
DictionaryVariables
280
     0
  1
1
  0
DICTIONARYVAR
  5
C596
102
{ACAD_REACTORS
330
37
102
}
330
37
100
DictionaryVariables
280
     0
  1
0
  0
DICTIONARYVAR
  5
1892
102
{ACAD_REACTORS
330
37
102
}
330
37
100
DictionaryVariables
280
     0
  1
8
  0
DICTIONARYVAR
  5
1893
102
{ACAD_REACTORS
330
37
102
}
330
37
100
DictionaryVariables
280
     0
  1
2
  0
DICTIONARYVAR
  5
409
102
{ACAD_REACTORS
330
37
102
}
330
37
100
DictionaryVariables
280
     0
  1

  0
DICTIONARYVAR
  5
BAFD
102
{ACAD_REACTORS
330
37
102
}
330
37
100
DictionaryVariables
280
     0
  1
127
  0
DICTIONARYVAR
  5
C527
102
{ACAD_REACTORS
330
37
102
}
330
37
100
DictionaryVariables
280
     0
  1
2
  0
DICTIONARY
  5
CA09
330
AE6A
100
AcDbDictionary
  3
ACAD_XREC_ROUNDTRIP
360
CA0A
1001
ACAD
1000
TREAT_AS_HARD
1070
     1
  0
DICTIONARY
  5
CA0B
330
AE62
100
AcDbDictionary
  3
ACAD_XREC_ROUNDTRIP
360
CA0C
1001
ACAD
1000
TREAT_AS_HARD
1070
     1
  0
DICTIONARY
  5
CA0D
330
AE72
100
AcDbDictionary
  3
ACAD_XREC_ROUNDTRIP
360
CA0E
1001
ACAD
1000
TREAT_AS_HARD
1070
     1
  0
XRECORD
  5
CA0A
102
{ACAD_REACTORS
330
CA09
102
}
330
CA09
100
AcDbXrecord
102
MATERIAL
148
0.0
149
0.0
149
0.0
 93
        0
 94
      127
282
     0
 72
     0
 77
     0
171
     0
175
     0
179
     0
273
     0
  0
XRECORD
  5
CA0C
102
{ACAD_REACTORS
330
CA0B
102
}
330
CA0B
100
AcDbXrecord
102
MATERIAL
148
0.0
149
0.0
149
0.0
 93
        0
 94
      127
282
     0
 72
     0
 77
     0
171
     0
175
     0
179
     0
273
     0
  0
XRECORD
  5
CA0E
102
{ACAD_REACTORS
330
CA0D
102
}
330
CA0D
100
AcDbXrecord
102
MATERIAL
148
0.0
149
0.0
149
0.0
 93
        0
 94
      127
282
     0
 72
     0
 77
     0
171
     0
175
     0
179
     0
273
     0
  0
ENDSEC
  0
EOF
