  0
SECTION
  2
HEADER
  9
$ACADVER
  1
AC1012
  9
$DWGCODEPAGE
  3
ansi_932
  9
$INSBASE
 10
0.0
 20
0.0
 30
0.0
  9
$EXTMIN
 10
-270.0407024767134
 20
-2229.244507485013
 30
0.0
  9
$EXTMAX
 10
-9.186647420086615
 20
-2014.991633480627
 30
0.0
  9
$LIMMIN
 10
0.0
 20
0.0
  9
$LIMMAX
 10
420.0
 20
297.0
  9
$ORTHOMODE
 70
     0
  9
$REGENMODE
 70
     1
  9
$FILLMODE
 70
     1
  9
$QTEXTMODE
 70
     0
  9
$MIRRTEXT
 70
     1
  9
$DRAGMODE
 70
     2
  9
$LTSCALE
 40
0.5
  9
$OSMODE
 70
 16383
  9
$ATTMODE
 70
     1
  9
$TEXTSIZE
 40
4.0
  9
$TRACEWID
 40
1.0
  9
$TEXTSTYLE
  7
STANDARD
  9
$CLAYER
  8
1TEXT
  9
$CELTYPE
  6
BYLAYER
  9
$CECOLOR
 62
   256
  9
$CELTSCALE
 40
1.0
  9
$DELOBJ
 70
     1
  9
$DISPSILH
 70
     0
  9
$DIMSCALE
 40
1.0
  9
$DIMASZ
 40
2.0
  9
$DIMEXO
 40
0.0
  9
$DIMDLI
 40
7.0
  9
$DIMRND
 40
0.0
  9
$DIMDLE
 40
0.0
  9
$DIMEXE
 40
1.0
  9
$DIMTP
 40
0.0
  9
$DIMTM
 40
0.0
  9
$DIMTXT
 40
3.5
  9
$DIMCEN
 40
0.0
  9
$DIMTSZ
 40
0.0
  9
$DIMTOL
 70
     0
  9
$DIMLIM
 70
     0
  9
$DIMTIH
 70
     0
  9
$DIMTOH
 70
     0
  9
$DIMSE1
 70
     0
  9
$DIMSE2
 70
     0
  9
$DIMTAD
 70
     1
  9
$DIMZIN
 70
     8
  9
$DIMBLK
  1

  9
$DIMASO
 70
     1
  9
$DIMSHO
 70
     1
  9
$DIMPOST
  1
 
  9
$DIMAPOST
  1

  9
$DIMALT
 70
     0
  9
$DIMALTD
 70
     2
  9
$DIMALTF
 40
25.4
  9
$DIMLFAC
 40
1.0
  9
$DIMTOFL
 70
     1
  9
$DIMTVP
 40
0.0
  9
$DIMTIX
 70
     0
  9
$DIMSOXD
 70
     0
  9
$DIMSAH
 70
     1
  9
$DIMBLK1
  1
OPEN30
  9
$DIMBLK2
  1
OPEN30
  9
$DIMSTYLE
  2
NEWX10
  9
$DIMCLRD
 70
   256
  9
$DIMCLRE
 70
   256
  9
$DIMCLRT
 70
   201
  9
$DIMTFAC
 40
0.7
  9
$DIMGAP
 40
0.7
  9
$DIMJUST
 70
     0
  9
$DIMSD1
 70
     0
  9
$DIMSD2
 70
     0
  9
$DIMTOLJ
 70
     1
  9
$DIMTZIN
 70
     8
  9
$DIMALTZ
 70
     0
  9
$DIMALTTZ
 70
     0
  9
$DIMFIT
 70
     2
  9
$DIMUPT
 70
     0
  9
$DIMUNIT
 70
     2
  9
$DIMDEC
 70
     2
  9
$DIMTDEC
 70
     4
  9
$DIMALTU
 70
     2
  9
$DIMALTTD
 70
     2
  9
$DIMTXSTY
  7
STANDARD
  9
$DIMAUNIT
 70
     0
  9
$LUNITS
 70
     2
  9
$LUPREC
 70
     4
  9
$SKETCHINC
 40
1.0
  9
$FILLETRAD
 40
0.0
  9
$AUNITS
 70
     0
  9
$AUPREC
 70
     2
  9
$MENU
  1
acad
  9
$ELEVATION
 40
0.0
  9
$PELEVATION
 40
0.0
  9
$THICKNESS
 40
0.0
  9
$LIMCHECK
 70
     0
  9
$CHAMFERA
 40
10.0
  9
$CHAMFERB
 40
10.0
  9
$CHAMFERC
 40
20.0
  9
$CHAMFERD
 40
0.0
  9
$SKPOLY
 70
     0
  9
$TDCREATE
 40
2453033.732663484
  9
$TDUPDATE
 40
2458726.390201956
  9
$TDINDWG
 40
0.651937963
  9
$TDUSRTIMER
 40
0.651937963
  9
$USRTIMER
 70
     1
  9
$ANGBASE
 50
0.0
  9
$ANGDIR
 70
     0
  9
$PDMODE
 70
     0
  9
$PDSIZE
 40
0.0
  9
$PLINEWID
 40
0.0
  9
$COORDS
 70
     2
  9
$SPLFRAME
 70
     0
  9
$SPLINETYPE
 70
     6
  9
$SPLINESEGS
 70
     8
  9
$ATTDIA
 70
     0
  9
$ATTREQ
 70
     1
  9
$HANDLING
 70
     1
  9
$HANDSEED
  5
C12C
  9
$SURFTAB1
 70
     6
  9
$SURFTAB2
 70
     6
  9
$SURFTYPE
 70
     6
  9
$SURFU
 70
     6
  9
$SURFV
 70
     6
  9
$UCSNAME
  2

  9
$UCSORG
 10
0.0
 20
0.0
 30
0.0
  9
$UCSXDIR
 10
1.0
 20
0.0
 30
0.0
  9
$UCSYDIR
 10
0.0
 20
1.0
 30
0.0
  9
$PUCSNAME
  2

  9
$PUCSORG
 10
0.0
 20
0.0
 30
0.0
  9
$PUCSXDIR
 10
1.0
 20
0.0
 30
0.0
  9
$PUCSYDIR
 10
0.0
 20
1.0
 30
0.0
  9
$USERI1
 70
     0
  9
$USERI2
 70
     0
  9
$USERI3
 70
     0
  9
$USERI4
 70
     0
  9
$USERI5
 70
     0
  9
$USERR1
 40
0.0
  9
$USERR2
 40
0.0
  9
$USERR3
 40
0.0
  9
$USERR4
 40
0.0
  9
$USERR5
 40
0.0
  9
$WORLDVIEW
 70
     1
  9
$SHADEDGE
 70
     3
  9
$SHADEDIF
 70
    70
  9
$TILEMODE
 70
     1
  9
$MAXACTVP
 70
    48
  9
$PINSBASE
 10
0.0
 20
0.0
 30
0.0
  9
$PLIMCHECK
 70
     0
  9
$PEXTMIN
 10
1.000000000000000E+20
 20
1.000000000000000E+20
 30
1.000000000000000E+20
  9
$PEXTMAX
 10
-1.000000000000000E+20
 20
-1.000000000000000E+20
 30
-1.000000000000000E+20
  9
$PLIMMIN
 10
0.0
 20
0.0
  9
$PLIMMAX
 10
420.0
 20
297.0
  9
$UNITMODE
 70
     0
  9
$VISRETAIN
 70
     1
  9
$PLINEGEN
 70
     0
  9
$PSLTSCALE
 70
     1
  9
$TREEDEPTH
 70
  3020
  9
$PICKSTYLE
 70
     1
  9
$CMLSTYLE
  2
STANDARD
  9
$CMLJUST
 70
     0
  9
$CMLSCALE
 40
20.0
  9
$SAVEIMAGES
 70
     1
  0
ENDSEC
  0
SECTION
  2
CLASSES
  0
CLASS
  1
DICTIONARYVAR
  2
AcDbDictionaryVar
  3
ObjectDBX Classes
 90
        0
280
     0
281
     0
  0
CLASS
  1
IDBUFFER
  2
AcDbIdBuffer
  3
ObjectDBX Classes
 90
    32768
280
     0
281
     0
  0
CLASS
  1
LWPOLYLINE
  2
AcDbPolyline
  3
ObjectDBX Classes
 90
    32768
280
     0
281
     1
  0
CLASS
  1
ACDBDICTIONARYWDFLT
  2
AcDbDictionaryWithDefault
  3
ObjectDBX Classes
 90
    32768
280
     0
281
     0
  0
CLASS
  1
ACDBPLACEHOLDER
  2
AcDbPlaceHolder
  3
ObjectDBX Classes
 90
        0
280
     0
281
     0
  0
CLASS
  1
LAYOUT
  2
AcDbLayout
  3
ObjectDBX Classes
 90
        0
280
     0
281
     0
  0
CLASS
  1
TABLESTYLE
  2
AcDbTableStyle
  3
ObjectDBX Classes
 90
     4095
280
     0
281
     0
  0
CLASS
  1
SORTENTSTABLE
  2
AcDbSortentsTable
  3
ObjectDBX Classes
 90
    32768
280
     0
281
     0
  0
CLASS
  1
DIMASSOC
  2
AcDbDimAssoc
  3
"AcDbDimAssoc|Product Desc:     AcDim ARX App For Dimension|Company:          Autodesk, Inc.|WEB Address:      www.autodesk.com"
 90
        0
280
     0
281
     0
  0
CLASS
  1
MATERIAL
  2
AcDbMaterial
  3
ObjectDBX Classes
 90
     1153
280
     0
281
     0
  0
CLASS
  1
VISUALSTYLE
  2
AcDbVisualStyle
  3
ObjectDBX Classes
 90
     4095
280
     0
281
     0
  0
CLASS
  1
SCALE
  2
AcDbScale
  3
ObjectDBX Classes
 90
     1153
280
     0
281
     0
  0
CLASS
  1
MLEADERSTYLE
  2
AcDbMLeaderStyle
  3
ACDB_MLEADERSTYLE_CLASS
 90
     4095
280
     0
281
     0
  0
CLASS
  1
CELLSTYLEMAP
  2
AcDbCellStyleMap
  3
ObjectDBX Classes
 90
     1152
280
     0
281
     0
  0
CLASS
  1
SUN
  2
AcDbSun
  3
SCENEOE
 90
     1153
280
     0
281
     0
  0
CLASS
  1
XRECORD
  2
AcDbXrecord
  3
ObjectDBX Classes
 90
    32768
280
     0
281
     0
  0
CLASS
  1
HATCH
  2
AcDbHatch
  3
ObjectDBX Classes
 90
    32768
280
     0
281
     1
  0
ENDSEC
  0
SECTION
  2
TABLES
  0
TABLE
  2
VPORT
  5
8
330
0
100
AcDbSymbolTable
 70
     1
  0
VPORT
  5
AEB6
330
8
100
AcDbSymbolTableRecord
100
AcDbViewportTableRecord
  2
*ACTIVE
 70
     0
 10
0.0
 20
0.0
 11
1.0
 21
1.0
 12
-139.6136749484
 22
-2122.11807048282
 13
0.0
 23
0.0
 14
10.0
 24
10.0
 15
10.0
 25
10.0
 16
0.0
 26
0.0
 36
1.0
 17
0.0
 27
0.0
 37
0.0
 40
230.0399278783935
 41
2.152122641509434
 42
50.0
 43
0.0
 44
0.0
 50
0.0
 51
0.0
 71
    16
 72
   100
 73
     1
 74
     1
 75
     0
 76
     0
 77
     0
 78
     0
1001
ACAD_NAV_VCDISPLAY
1070
     3
  0
ENDTAB
  0
TABLE
  2
LTYPE
  5
5
330
0
100
AcDbSymbolTable
 70
     4
  0
LTYPE
  5
12
330
5
100
AcDbSymbolTableRecord
100
AcDbLinetypeTableRecord
  2
BYBLOCK
 70
     0
  3

 72
    65
 73
     0
 40
0.0
  0
LTYPE
  5
13
330
5
100
AcDbSymbolTableRecord
100
AcDbLinetypeTableRecord
  2
BYLAYER
 70
     0
  3

 72
    65
 73
     0
 40
0.0
  0
LTYPE
  5
14
330
5
100
AcDbSymbolTableRecord
100
AcDbLinetypeTableRecord
  2
CONTINUOUS
 70
     0
  3
Solid line
 72
    65
 73
     0
 40
0.0
  0
LTYPE
  5
26
330
5
100
AcDbSymbolTableRecord
100
AcDbLinetypeTableRecord
  2
CENTER2
 70
     0
  3
Center (.5x) ___ _ ___ _ ___ _ ___ _ ___ _ ___
 72
    65
 73
     4
 40
28.575
 49
19.05
 74
     0
 49
-3.175
 74
     0
 49
3.175
 74
     0
 49
-3.175
 74
     0
  0
LTYPE
  5
6A
330
5
100
AcDbSymbolTableRecord
100
AcDbLinetypeTableRecord
  2
XREF1|CENTER2
 70
    16
  3
Center (.5x) ___ _ ___ _ ___ _ ___ _ ___ _ ___
 72
    65
 73
     4
 40
28.575
 49
19.05
 74
     0
 49
-3.175
 74
     0
 49
3.175
 74
     0
 49
-3.175
 74
     0
  0
LTYPE
  5
100
330
5
100
AcDbSymbolTableRecord
100
AcDbLinetypeTableRecord
  2
PHANTOM2
 70
     0
  3
Phantom (0.5x) ___ _ _ ___ _ _ ___ _ _ ___ _ _
 72
    65
 73
     6
 40
31.75
 49
15.875
 74
     0
 49
-3.175
 74
     0
 49
3.175
 74
     0
 49
-3.175
 74
     0
 49
3.175
 74
     0
 49
-3.175
 74
     0
  0
ENDTAB
  0
TABLE
  2
LAYER
  5
2
102
{ACAD_XDICTIONARY
360
AE03
102
}
330
0
100
AcDbSymbolTable
 70
     9
  0
LAYER
  5
E
102
{ACAD_XDICTIONARY
360
B2C0
102
}
330
2
100
AcDbSymbolTableRecord
100
AcDbLayerTableRecord
  2
0
 70
     0
 62
     7
  6
CONTINUOUS
  0
LAYER
  5
29
102
{ACAD_XDICTIONARY
360
B2C2
102
}
330
2
100
AcDbSymbolTableRecord
100
AcDbLayerTableRecord
  2
1CENTER
 70
     0
 62
     7
  6
CENTER2
  0
LAYER
  5
31
102
{ACAD_XDICTIONARY
360
B2C4
102
}
330
2
100
AcDbSymbolTableRecord
100
AcDbLayerTableRecord
  2
1TEXT
 70
     0
 62
     7
  6
CONTINUOUS
  0
LAYER
  5
60
330
2
100
AcDbSymbolTableRecord
100
AcDbLayerTableRecord
  2
DEFPOINTS
 70
     0
 62
     7
  6
CONTINUOUS
  0
LAYER
  5
101
102
{ACAD_XDICTIONARY
360
B2CE
102
}
330
2
100
AcDbSymbolTableRecord
100
AcDbLayerTableRecord
  2
1DIM
 70
     0
 62
     7
  6
CONTINUOUS
  0
LAYER
  5
103
102
{ACAD_XDICTIONARY
360
B2D2
102
}
330
2
100
AcDbSymbolTableRecord
100
AcDbLayerTableRecord
  2
1PHANTOM
 70
     0
 62
     7
  6
PHANTOM2
  0
LAYER
  5
25F
102
{ACAD_XDICTIONARY
360
B2D6
102
}
330
2
100
AcDbSymbolTableRecord
100
AcDbLayerTableRecord
  2
01
 70
     0
 62
     1
  6
CONTINUOUS
  0
LAYER
  5
26D
102
{ACAD_XDICTIONARY
360
B2F2
102
}
330
2
100
AcDbSymbolTableRecord
100
AcDbLayerTableRecord
  2
1HATCH
 70
     0
 62
     7
  6
CONTINUOUS
  0
LAYER
  5
276
102
{ACAD_XDICTIONARY
360
B302
102
}
330
2
100
AcDbSymbolTableRecord
100
AcDbLayerTableRecord
  2
THICK
 70
     0
 62
     7
  6
CONTINUOUS
  0
ENDTAB
  0
TABLE
  2
STYLE
  5
3
330
0
100
AcDbSymbolTable
 70
     1
  0
STYLE
  5
F
330
3
100
AcDbSymbolTableRecord
100
AcDbTextStyleTableRecord
  2
STANDARD
 70
     0
 40
0.0
 41
1.0
 50
0.0
 71
     0
 42
4.0
  3
txt.shx
  4
extfont.shx
  0
ENDTAB
  0
TABLE
  2
VIEW
  5
6
330
0
100
AcDbSymbolTable
 70
     0
  0
ENDTAB
  0
TABLE
  2
UCS
  5
7
330
0
100
AcDbSymbolTable
 70
     0
  0
ENDTAB
  0
TABLE
  2
APPID
  5
9
330
0
100
AcDbSymbolTable
 70
    15
  0
APPID
  5
10
330
9
100
AcDbSymbolTableRecord
100
AcDbRegAppTableRecord
  2
ACAD
 70
     0
  0
APPID
  5
21
330
9
100
AcDbSymbolTableRecord
100
AcDbRegAppTableRecord
  2
DRAWINGVARIABLESXDATA
 70
     0
  0
APPID
  5
64
330
9
100
AcDbSymbolTableRecord
100
AcDbRegAppTableRecord
  2
CONTENTTABDATA
 70
     0
  0
APPID
  5
65
330
9
100
AcDbSymbolTableRecord
100
AcDbRegAppTableRecord
  2
CONTENTCURRENTTAB
 70
     0
  0
APPID
  5
66
330
9
100
AcDbSymbolTableRecord
100
AcDbRegAppTableRecord
  2
CONTENTBLOCKDESCRIPTION
 70
     0
  0
APPID
  5
67
330
9
100
AcDbSymbolTableRecord
100
AcDbRegAppTableRecord
  2
CONTENTBLOCKICON
 70
     0
  0
APPID
  5
68
330
9
100
AcDbSymbolTableRecord
100
AcDbRegAppTableRecord
  2
CONTENTLONGBLOCKNAME
 70
     0
  0
APPID
  5
5A9
330
9
100
AcDbSymbolTableRecord
100
AcDbRegAppTableRecord
  2
ACAD_PSEXT
 70
     0
  0
APPID
  5
18AC
330
9
100
AcDbSymbolTableRecord
100
AcDbRegAppTableRecord
  2
ACAD_DSTYLE_DIMTEXT_FILL
 70
     0
  0
APPID
  5
AF0E
330
9
100
AcDbSymbolTableRecord
100
AcDbRegAppTableRecord
  2
ACAD_MLEADERVER
 70
     0
  0
APPID
  5
B508
330
9
100
AcDbSymbolTableRecord
100
AcDbRegAppTableRecord
  2
ACAD_NAV_VCDISPLAY
 70
     0
  0
APPID
  5
B53D
330
9
100
AcDbSymbolTableRecord
100
AcDbRegAppTableRecord
  2
ACAD_EXEMPT_FROM_CAD_STAND
 70
     0
  0
APPID
  5
B5D2
330
9
100
AcDbSymbolTableRecord
100
AcDbRegAppTableRecord
  2
ACLAYERTOOLS
 70
     0
  0
APPID
  5
BD48
330
9
100
AcDbSymbolTableRecord
100
AcDbRegAppTableRecord
  2
ACADANNOTATIVE
 70
     0
  0
APPID
  5
BD49
330
9
100
AcDbSymbolTableRecord
100
AcDbRegAppTableRecord
  2
ACDBBLOCKREPETAG
 70
     0
  0
ENDTAB
  0
TABLE
  2
DIMSTYLE
  5
A
330
0
100
AcDbSymbolTable
 70
     1
  0
DIMSTYLE
105
48
102
{ACAD_REACTORS
330
69D
330
6A0
102
}
330
A
100
AcDbSymbolTableRecord
100
AcDbDimStyleTableRecord
  2
NEWX10
 70
     0
  3
 
  4

  5

  6
OPEN30
  7
OPEN30
 40
1.0
 41
2.0
 42
0.0
 43
7.0
 44
1.0
 45
0.0
 46
0.0
 47
0.0
 48
0.0
140
3.5
141
0.0
142
0.0
143
25.4
144
1.0
145
0.0
146
0.7
147
0.7
 71
     0
 72
     0
 73
     0
 74
     0
 75
     0
 76
     0
 77
     1
 78
     8
170
     0
171
     2
172
     1
173
     1
174
     0
175
     0
176
   256
177
   256
178
   201
179
     2
270
     2
271
     2
272
     4
273
     2
274
     2
340
F
275
     0
280
     0
281
     0
282
     0
283
     1
284
     8
285
     0
286
     0
287
     2
288
     0
  0
ENDTAB
  0
TABLE
  2
BLOCK_RECORD
  5
1
330
0
100
AcDbSymbolTable
 70
    11
  0
BLOCK_RECORD
  5
18
102
{ACAD_XDICTIONARY
360
6E9
102
}
330
1
100
AcDbSymbolTableRecord
100
AcDbBlockTableRecord
  2
*MODEL_SPACE
  0
BLOCK_RECORD
  5
15
102
{ACAD_XDICTIONARY
360
59B
102
}
330
1
100
AcDbSymbolTableRecord
100
AcDbBlockTableRecord
  2
*PAPER_SPACE
  0
BLOCK_RECORD
  5
42
330
1
100
AcDbSymbolTableRecord
100
AcDbBlockTableRecord
  2
_OPEN30
  0
BLOCK_RECORD
  5
5B
330
1
100
AcDbSymbolTableRecord
100
AcDbBlockTableRecord
  2
XREF1
  0
BLOCK_RECORD
  5
523
330
1
100
AcDbSymbolTableRecord
100
AcDbBlockTableRecord
  2
部品表枠
  0
BLOCK_RECORD
  5
68D
330
1
100
AcDbSymbolTableRecord
100
AcDbBlockTableRecord
  2
*D9
  0
BLOCK_RECORD
  5
B8F6
330
1
100
AcDbSymbolTableRecord
100
AcDbBlockTableRecord
  2
A3WAKUKAWAJUN2017_HYOUDAI_
  0
BLOCK_RECORD
  5
BF8C
330
1
100
AcDbSymbolTableRecord
100
AcDbBlockTableRecord
  2
*X42
  0
BLOCK_RECORD
  5
BFDA
330
1
100
AcDbSymbolTableRecord
100
AcDbBlockTableRecord
  2
*X43
  0
BLOCK_RECORD
  5
C02C
330
1
100
AcDbSymbolTableRecord
100
AcDbBlockTableRecord
  2
*X44
  0
BLOCK_RECORD
  5
C07D
330
1
100
AcDbSymbolTableRecord
100
AcDbBlockTableRecord
  2
*X45
  0
BLOCK_RECORD
  5
C0BA
330
1
100
AcDbSymbolTableRecord
100
AcDbBlockTableRecord
  2
*X46
  0
BLOCK_RECORD
  5
C0FA
330
1
100
AcDbSymbolTableRecord
100
AcDbBlockTableRecord
  2
*X47
  0
ENDTAB
  0
ENDSEC
  0
SECTION
  2
BLOCKS
  0
BLOCK
  5
19
330
18
100
AcDbEntity
  8
0
100
AcDbBlockBegin
  2
*MODEL_SPACE
 70
     0
 10
0.0
 20
0.0
 30
0.0
  3
*MODEL_SPACE
  1

  0
ENDBLK
  5
1A
330
18
100
AcDbEntity
  8
0
100
AcDbBlockEnd
  0
BLOCK
  5
16
330
15
100
AcDbEntity
 67
     1
  8
0
100
AcDbBlockBegin
  2
*PAPER_SPACE
 70
     0
 10
0.0
 20
0.0
 30
0.0
  3
*PAPER_SPACE
  1

  0
ENDBLK
  5
17
330
15
100
AcDbEntity
 67
     1
  8
0
100
AcDbBlockEnd
  0
BLOCK
  5
43
330
42
100
AcDbEntity
  8
0
100
AcDbBlockBegin
  2
_OPEN30
 70
     0
 10
0.0
 20
0.0
 30
0.0
  3
_OPEN30
  1

  0
LINE
  5
44
330
42
100
AcDbEntity
  8
0
  6
BYBLOCK
 62
     0
100
AcDbLine
 10
-1.0
 20
0.26794919
 30
0.0
 11
0.0
 21
0.0
 31
0.0
  0
LINE
  5
45
330
42
100
AcDbEntity
  8
0
  6
BYBLOCK
 62
     0
100
AcDbLine
 10
0.0
 20
0.0
 30
0.0
 11
-1.0
 21
-0.26794919
 31
0.0
  0
LINE
  5
46
330
42
100
AcDbEntity
  8
0
  6
BYBLOCK
 62
     0
100
AcDbLine
 10
0.0
 20
0.0
 30
0.0
 11
-1.0
 21
0.0
 31
0.0
  0
ENDBLK
  5
47
330
42
100
AcDbEntity
  8
0
100
AcDbBlockEnd
  0
BLOCK
  5
5C
330
5B
100
AcDbEntity
  8
0
100
AcDbBlockBegin
  2
XREF1
 70
     4
 10
0.0
 20
0.0
 30
0.0
  3
XREF1
  1
D:\ACLT\FORMAT\KAWAJUN(9)図面用.dwg
  0
ENDBLK
  5
5D
330
5B
100
AcDbEntity
  8
0
100
AcDbBlockEnd
  0
BLOCK
  5
524
330
523
100
AcDbEntity
  8
0
100
AcDbBlockBegin
  2
部品表枠
 70
     0
 10
0.0
 20
0.0
 30
0.0
  3
部品表枠
  1

  0
LINE
  5
525
330
523
100
AcDbEntity
  8
THICK
100
AcDbLine
 10
0.0000276283344682
 20
0.0000042971153675
 30
0.0
 11
0.0000276283344682
 21
7.000004297115368
 31
0.0
  0
LINE
  5
526
330
523
100
AcDbEntity
  8
0
100
AcDbLine
 10
0.0000276283344682
 20
7.000004297115368
 30
0.0
 11
170.0000276283345
 21
7.000004297115368
 31
0.0
  0
LINE
  5
527
330
523
100
AcDbEntity
  8
0
100
AcDbLine
 10
8.000027628334468
 20
7.000004297115368
 30
0.0
 11
8.000027628334468
 21
0.0000042971153675
 31
0.0
  0
LINE
  5
528
330
523
100
AcDbEntity
  8
0
100
AcDbLine
 10
38.00002762833446
 20
7.000004297115368
 30
0.0
 11
38.00002762833446
 21
0.0000042971153675
 31
0.0
  0
LINE
  5
529
330
523
100
AcDbEntity
  8
0
100
AcDbLine
 10
88.00002762833446
 20
7.000004297115368
 30
0.0
 11
88.00002762833446
 21
0.0000042971153675
 31
0.0
  0
LINE
  5
52A
330
523
100
AcDbEntity
  8
0
100
AcDbLine
 10
96.00002762833446
 20
7.000004297115368
 30
0.0
 11
96.00002762833446
 21
0.0000042971153675
 31
0.0
  0
LINE
  5
52B
330
523
100
AcDbEntity
  8
0
100
AcDbLine
 10
131.0000276283345
 20
7.000004297115368
 30
0.0
 11
131.0000276283345
 21
0.0000042971153675
 31
0.0
  0
ENDBLK
  5
52C
330
523
100
AcDbEntity
  8
0
100
AcDbBlockEnd
  0
BLOCK
  5
68E
330
68D
100
AcDbEntity
  8
0
100
AcDbBlockBegin
  2
*D9
 70
     1
 10
0.0
 20
0.0
 30
0.0
  3
*D9
  1

  0
LINE
  5
68F
330
68D
100
AcDbEntity
  8
0
  6
BYBLOCK
100
AcDbLine
 10
-58.26387776171523
 20
1.361463227742888
 30
0.0
 11
-64.67124579898496
 21
-5.965433292118185
 31
0.0
  0
LINE
  5
690
330
68D
100
AcDbEntity
  8
0
  6
BYBLOCK
100
AcDbLine
 10
-70.59586692933682
 20
-12.7403033618524
 30
0.0
 11
-71.91244940274841
 21
-14.24583004401563
 31
0.0
  0
MTEXT
  5
691
330
68D
100
AcDbEntity
  8
0
  6
BYBLOCK
 62
   201
100
AcDbMText
 10
-62.65354072929426
 20
0.063591838823168
 30
0.0
 40
3.5
 41
0.0
 71
     5
 72
     1
  1
\A1;φ5
 11
0.6582912367057937
 21
0.7527633410816156
 31
0.0
  0
LINE
  5
692
330
68D
100
AcDbEntity
  8
0
  6
BYBLOCK
100
AcDbLine
 10
-69.27928445592524
 20
-11.23477667968916
 30
0.0
 11
-65.98782827239654
 21
-7.470959974281413
 31
0.0
  0
INSERT
  5
693
330
68D
100
AcDbEntity
  8
0
  6
BYBLOCK
100
AcDbBlockReference
  2
_OPEN30
 10
-69.27928445592524
 20
-11.23477667968916
 30
0.0
 41
2.0
 42
2.0
 43
2.0
 50
48.83031736650419
  0
INSERT
  5
694
330
68D
100
AcDbEntity
  8
0
  6
BYBLOCK
100
AcDbBlockReference
  2
_OPEN30
 10
-65.98782827239654
 20
-7.470959974281413
 30
0.0
 41
2.0
 42
2.0
 43
2.0
 50
228.8303173665042
  0
POINT
  5
695
330
68D
100
AcDbEntity
  8
DEFPOINTS
  6
BYBLOCK
 62
     0
100
AcDbPoint
 10
-65.98782827239654
 20
-7.470959974281413
 30
0.0
  0
POINT
  5
696
330
68D
100
AcDbEntity
  8
DEFPOINTS
  6
BYBLOCK
 62
     0
100
AcDbPoint
 10
-69.27928445592524
 20
-11.23477667968916
 30
0.0
  0
ENDBLK
  5
697
330
68D
100
AcDbEntity
  8
0
100
AcDbBlockEnd
  0
BLOCK
  5
B8F7
330
B8F6
100
AcDbEntity
  8
0
100
AcDbBlockBegin
  2
A3WAKUKAWAJUN2017_HYOUDAI_
 70
     0
 10
0.0
 20
0.0
 30
0.0
  3
A3WAKUKAWAJUN2017_HYOUDAI_
  1

  0
LINE
  5
B8F8
330
B8F6
100
AcDbEntity
  8
0
100
AcDbLine
 10
13.26299999998673
 20
-0.0001000000000317
 30
0.0
 11
9.236999999990758
 21
8.999899999990987
 31
0.0
1001
ACAD
1000
ASC_BOUNDS
1002
{
1070
    19
1005
B939
1002
}
  0
LINE
  5
B8F9
330
B8F6
100
AcDbEntity
  8
0
100
AcDbLine
 10
5.657999999994331
 20
0.9999999999989768
 30
0.0
 11
9.236999999990758
 21
8.999999999991019
 31
0.0
1001
ACAD
1000
ASC_BOUNDS
1002
{
1070
    19
1005
B939
1002
}
  0
LINE
  5
B8FA
330
B8F6
100
AcDbEntity
  8
0
100
AcDbLine
 10
18.59199999998134
 20
-0.2368999999997641
 30
0.0
 11
16.46099999998353
 21
5.432899999994561
 31
0.0
1001
ACAD
1000
ASC_BOUNDS
1002
{
1070
    19
1005
B93A
1002
}
  0
LINE
  5
B8FB
330
B8F6
100
AcDbEntity
  8
0
100
AcDbLine
 10
18.59199999998134
 20
-0.2368999999997641
 30
0.0
 11
22.38199999997767
 21
8.763099999991255
 31
0.0
1001
ACAD
1000
ASC_BOUNDS
1002
{
1070
    19
1005
B93A
1002
}
  0
LINE
  5
B8FC
330
B8F6
100
AcDbEntity
  8
0
100
AcDbLine
 10
14.32899999998563
 20
-0.2368999999997641
 30
0.0
 11
16.46099999998353
 21
5.432899999994561
 31
0.0
1001
ACAD
1000
ASC_BOUNDS
1002
{
1070
    19
1005
B93A
1002
}
  0
LINE
  5
B8FD
330
B8F6
100
AcDbEntity
  8
0
100
AcDbLine
 10
14.32899999998563
 20
-0.2368999999997641
 30
0.0
 11
10.53899999998941
 21
8.763099999991255
 31
0.0
1001
ACAD
1000
ASC_BOUNDS
1002
{
1070
    19
1005
B93A
1002
}
  0
LINE
  5
B8FE
330
B8F6
100
AcDbEntity
  8
0
100
AcDbLine
 10
19.53899999998043
 20
-0.0001000000000317
 30
0.0
 11
23.56599999997638
 21
8.999899999990987
 31
0.0
1001
ACAD
1000
ASC_BOUNDS
1002
{
1070
    19
1005
B93B
1002
}
  0
LINE
  5
B8FF
330
B8F6
100
AcDbEntity
  8
0
100
AcDbLine
 10
26.97358892824991
 20
1.383099999991202
 30
0.0
 11
23.56599999997638
 21
8.999899999990987
 31
0.0
1001
ACAD
1000
ASC_BOUNDS
1002
{
1070
    19
1005
B93B
1002
}
  0
LINE
  5
B900
330
B8F6
100
AcDbEntity
  8
0
100
AcDbLine
 10
5.657999999994331
 20
0.9999999999989768
 30
0.0
 11
3.181999999996833
 21
4.668599999995308
 31
0.0
1001
ACAD
1000
ASC_BOUNDS
1002
{
1070
    19
1005
B939
1002
}
  0
LINE
  5
B901
330
B8F6
100
AcDbEntity
  8
0
100
AcDbLine
 10
4.617999999995391
 20
-0.0001000000000317
 30
0.0
 11
1.420999999998571
 21
4.736799999995242
 31
0.0
1001
ACAD
1000
ASC_BOUNDS
1002
{
1070
    19
1005
B939
1002
}
  0
LINE
  5
B902
330
B8F6
100
AcDbEntity
  8
0
100
AcDbLine
 10
1.420999999998571
 20
8.763099999991255
 30
0.0
 11
1.420999999998571
 21
0.0
 31
0.0
1001
ACAD
1000
ASC_BOUNDS
1002
{
1070
    19
1005
B93E
1002
}
  0
LINE
  5
B903
330
B8F6
100
AcDbEntity
  8
0
100
AcDbLine
 10
0.0
 20
8.763099999991255
 30
0.0
 11
0.0
 21
0.0
 31
0.0
1001
ACAD
1000
ASC_BOUNDS
1002
{
1070
    19
1005
B93E
1002
}
  0
LINE
  5
B904
330
B8F6
100
AcDbEntity
  8
0
100
AcDbLine
 10
6.766999999993232
 20
-0.0001000000000317
 30
0.0
 11
7.826999999992154
 21
2.368399999997621
 31
0.0
1001
ACAD
1000
ASC_BOUNDS
1002
{
1070
    19
1005
B939
1002
}
  0
LINE
  5
B905
330
B8F6
100
AcDbEntity
  8
0
100
AcDbLine
 10
0.0
 20
0.0
 30
0.0
 11
1.420999999998571
 21
0.0
 31
0.0
1001
ACAD
1000
ASC_BOUNDS
1002
{
1070
    19
1005
B93E
1002
}
  0
LINE
  5
B906
330
B8F6
100
AcDbEntity
  8
0
100
AcDbLine
 10
4.617999999995391
 20
0.0
 30
0.0
 11
6.766999999993232
 21
0.0
 31
0.0
1001
ACAD
1000
ASC_BOUNDS
1002
{
1070
    19
1005
B939
1002
}
  0
LINE
  5
B907
330
B8F6
100
AcDbEntity
  8
0
100
AcDbLine
 10
11.70599999998831
 20
-0.0001000000000317
 30
0.0
 11
10.64699999998936
 21
2.368399999997621
 31
0.0
1001
ACAD
1000
ASC_BOUNDS
1002
{
1070
    19
1005
B939
1002
}
  0
LINE
  5
B908
330
B8F6
100
AcDbEntity
  8
0
100
AcDbLine
 10
7.826999999992154
 20
2.368399999997621
 30
0.0
 11
10.64699999998936
 21
2.368399999997621
 31
0.0
1001
ACAD
1000
ASC_BOUNDS
1002
{
1070
    19
1005
B939
1002
}
  0
LINE
  5
B909
330
B8F6
100
AcDbEntity
  8
0
100
AcDbLine
 10
11.70599999998831
 20
0.0
 30
0.0
 11
13.26299999998673
 21
0.0
 31
0.0
1001
ACAD
1000
ASC_BOUNDS
1002
{
1070
    19
1005
B939
1002
}
  0
LINE
  5
B90A
330
B8F6
100
AcDbEntity
  8
0
100
AcDbLine
 10
22.15599999997789
 20
2.368399999997621
 30
0.0
 11
24.97599999997499
 21
2.368399999997621
 31
0.0
1001
ACAD
1000
ASC_BOUNDS
1002
{
1070
    19
1005
B93B
1002
}
  0
LINE
  5
B90B
330
B8F6
100
AcDbEntity
  8
0
100
AcDbLine
 10
19.53899999998043
 20
0.0
 30
0.0
 11
21.09599999997886
 21
0.0
 31
0.0
1001
ACAD
1000
ASC_BOUNDS
1002
{
1070
    19
1005
B93B
1002
}
  0
LINE
  5
B90C
330
B8F6
100
AcDbEntity
  8
0
100
AcDbLine
 10
21.09599999997886
 20
-0.0001000000000317
 30
0.0
 11
22.15599999997789
 21
2.368399999997621
 31
0.0
1001
ACAD
1000
ASC_BOUNDS
1002
{
1070
    19
1005
B93B
1002
}
  0
LINE
  5
B90D
330
B8F6
100
AcDbEntity
  8
0
100
AcDbLine
 10
26.02015566812236
 20
0.0330999999912365
 30
0.0
 11
24.97599999997499
 21
2.368399999997621
 31
0.0
1001
ACAD
1000
ASC_BOUNDS
1002
{
1070
    19
1005
B93B
1002
}
  0
LINE
  5
B90E
330
B8F6
100
AcDbEntity
  8
0
100
AcDbLine
 10
14.32399999998563
 20
3.315799999996671
 30
0.0
 11
16.46099999998353
 21
8.999899999990987
 31
0.0
1001
ACAD
1000
ASC_BOUNDS
1002
{
1070
    19
1005
B93A
1002
}
  0
LINE
  5
B90F
330
B8F6
100
AcDbEntity
  8
0
100
AcDbLine
 10
6.432999999993513
 20
8.763099999991255
 30
0.0
 11
3.181999999996833
 21
4.668599999995308
 31
0.0
1001
ACAD
1000
ASC_BOUNDS
1002
{
1070
    19
1005
B939
1002
}
  0
LINE
  5
B910
330
B8F6
100
AcDbEntity
  8
0
100
AcDbLine
 10
4.617999999995391
 20
8.763099999991255
 30
0.0
 11
1.420999999998571
 21
4.736799999995242
 31
0.0
1001
ACAD
1000
ASC_BOUNDS
1002
{
1070
    19
1005
B939
1002
}
  0
LINE
  5
B911
330
B8F6
100
AcDbEntity
  8
0
100
AcDbLine
 10
0.0
 20
8.763099999991255
 30
0.0
 11
1.420999999998571
 21
8.763099999991255
 31
0.0
1001
ACAD
1000
ASC_BOUNDS
1002
{
1070
    19
1005
B93E
1002
}
  0
LINE
  5
B912
330
B8F6
100
AcDbEntity
  8
0
100
AcDbLine
 10
4.617999999995391
 20
8.763099999991255
 30
0.0
 11
6.432999999993513
 21
8.763099999991255
 31
0.0
1001
ACAD
1000
ASC_BOUNDS
1002
{
1070
    19
1005
B939
1002
}
  0
LINE
  5
B913
330
B8F6
100
AcDbEntity
  8
0
100
AcDbLine
 10
14.32399999998563
 20
3.315799999996671
 30
0.0
 11
12.02999999998792
 21
8.763099999991255
 31
0.0
1001
ACAD
1000
ASC_BOUNDS
1002
{
1070
    19
1005
B93A
1002
}
  0
LINE
  5
B914
330
B8F6
100
AcDbEntity
  8
0
100
AcDbLine
 10
10.06399999998996
 20
3.670999999996297
 30
0.0
 11
9.236999999990758
 21
5.5200999999945
 31
0.0
1001
ACAD
1000
ASC_BOUNDS
1002
{
1070
    19
1005
B939
1002
}
  0
LINE
  5
B915
330
B8F6
100
AcDbEntity
  8
0
100
AcDbLine
 10
8.409999999991555
 20
3.670999999996297
 30
0.0
 11
9.236999999990758
 21
5.5200999999945
 31
0.0
1001
ACAD
1000
ASC_BOUNDS
1002
{
1070
    19
1005
B939
1002
}
  0
LINE
  5
B916
330
B8F6
100
AcDbEntity
  8
0
100
AcDbLine
 10
8.409999999991555
 20
3.670999999996297
 30
0.0
 11
10.06399999998996
 21
3.670999999996297
 31
0.0
1001
ACAD
1000
ASC_BOUNDS
1002
{
1070
    19
1005
B939
1002
}
  0
LINE
  5
B917
330
B8F6
100
AcDbEntity
  8
0
100
AcDbLine
 10
10.53899999998941
 20
8.763099999991255
 30
0.0
 11
12.02999999998792
 21
8.763099999991255
 31
0.0
1001
ACAD
1000
ASC_BOUNDS
1002
{
1070
    19
1005
B93A
1002
}
  0
LINE
  5
B918
330
B8F6
100
AcDbEntity
  8
0
100
AcDbLine
 10
22.7389999999773
 20
3.670999999996297
 30
0.0
 11
23.56599999997638
 21
5.5200999999945
 31
0.0
1001
ACAD
1000
ASC_BOUNDS
1002
{
1070
    19
1005
B93B
1002
}
  0
LINE
  5
B919
330
B8F6
100
AcDbEntity
  8
0
100
AcDbLine
 10
22.7389999999773
 20
3.670999999996297
 30
0.0
 11
24.39299999997559
 21
3.670999999996297
 31
0.0
1001
ACAD
1000
ASC_BOUNDS
1002
{
1070
    19
1005
B93B
1002
}
  0
LINE
  5
B91A
330
B8F6
100
AcDbEntity
  8
0
100
AcDbLine
 10
18.59799999998143
 20
3.315799999996671
 30
0.0
 11
20.89099999997916
 21
8.763099999991255
 31
0.0
1001
ACAD
1000
ASC_BOUNDS
1002
{
1070
    19
1005
B93A
1002
}
  0
LINE
  5
B91B
330
B8F6
100
AcDbEntity
  8
0
100
AcDbLine
 10
18.59799999998143
 20
3.315799999996671
 30
0.0
 11
16.46099999998353
 21
8.999899999990987
 31
0.0
1001
ACAD
1000
ASC_BOUNDS
1002
{
1070
    19
1005
B93A
1002
}
  0
LINE
  5
B91C
330
B8F6
100
AcDbEntity
  8
0
100
AcDbLine
 10
20.89099999997916
 20
8.763099999991255
 30
0.0
 11
22.38199999997767
 21
8.763099999991255
 31
0.0
1001
ACAD
1000
ASC_BOUNDS
1002
{
1070
    19
1005
B93A
1002
}
  0
LINE
  5
B91D
330
B8F6
100
AcDbEntity
  8
0
100
AcDbLine
 10
24.39299999997559
 20
3.670999999996297
 30
0.0
 11
23.56599999997638
 21
5.5200999999945
 31
0.0
1001
ACAD
1000
ASC_BOUNDS
1002
{
1070
    19
1005
B93B
1002
}
  0
LINE
  5
B91E
330
B8F6
100
AcDbEntity
  8
0
100
AcDbLine
 10
44.99999999995498
 20
-0.2368999999997641
 30
0.0
 11
40.02599999995994
 21
5.341799999994635
 31
0.0
1001
ACAD
1000
ASC_BOUNDS
1002
{
1070
    19
1005
B93D
1002
}
  0
LINE
  5
B91F
330
B8F6
100
AcDbEntity
  8
0
100
AcDbLine
 10
40.02599999995994
 20
5.341799999994635
 30
0.0
 11
40.02599999995994
 21
0.0
 31
0.0
1001
ACAD
1000
ASC_BOUNDS
1002
{
1070
    19
1005
B93D
1002
}
  0
LINE
  5
B920
330
B8F6
100
AcDbEntity
  8
0
100
AcDbLine
 10
38.60499999996136
 20
8.999999999991019
 30
0.0
 11
38.60499999996136
 21
0.0
 31
0.0
1001
ACAD
1000
ASC_BOUNDS
1002
{
1070
    19
1005
B93D
1002
}
  0
LINE
  5
B921
330
B8F6
100
AcDbEntity
  8
0
100
AcDbLine
 10
44.99999999995498
 20
8.763099999991255
 30
0.0
 11
44.99999999995498
 21
-0.2368999999997641
 31
0.0
1001
ACAD
1000
ASC_BOUNDS
1002
{
1070
    19
1005
B93D
1002
}
  0
LINE
  5
B922
330
B8F6
100
AcDbEntity
  8
0
100
AcDbLine
 10
38.60499999996136
 20
0.0
 30
0.0
 11
40.02599999995994
 21
0.0
 31
0.0
1001
ACAD
1000
ASC_BOUNDS
1002
{
1070
    19
1005
B93D
1002
}
  0
LINE
  5
B923
330
B8F6
100
AcDbEntity
  8
0
100
AcDbLine
 10
43.57899999995641
 20
3.421199999996588
 30
0.0
 11
38.60499999996136
 21
8.999899999990987
 31
0.0
1001
ACAD
1000
ASC_BOUNDS
1002
{
1070
    19
1005
B93D
1002
}
  0
LINE
  5
B924
330
B8F6
100
AcDbEntity
  8
0
100
AcDbLine
 10
43.57899999995641
 20
8.763099999991255
 30
0.0
 11
43.57899999995641
 21
3.421199999996588
 31
0.0
1001
ACAD
1000
ASC_BOUNDS
1002
{
1070
    19
1005
B93D
1002
}
  0
LINE
  5
B925
330
B8F6
100
AcDbEntity
  8
0
100
AcDbLine
 10
43.57899999995641
 20
8.763099999991255
 30
0.0
 11
44.99999999995498
 21
8.763099999991255
 31
0.0
1001
ACAD
1000
ASC_BOUNDS
1002
{
1070
    19
1005
B93D
1002
}
  0
LINE
  5
B926
330
B8F6
100
AcDbEntity
  8
0
100
AcDbLine
 10
37.67199999996831
 20
8.763099999991255
 30
0.0
 11
36.23199999996837
 21
8.763099999991255
 31
0.0
  0
LINE
  5
B927
330
B8F6
100
AcDbEntity
  8
0
100
AcDbLine
 10
31.64199999996833
 20
8.763099999991255
 30
0.0
 11
31.64199999996833
 21
2.481619422925121
 31
0.0
  0
LINE
  5
B928
330
B8F6
100
AcDbEntity
  8
0
100
AcDbLine
 10
37.67199999996831
 20
8.763099999991255
 30
0.0
 11
37.67199999996831
 21
2.481619422925121
 31
0.0
  0
LINE
  5
B929
330
B8F6
100
AcDbEntity
  8
0
100
AcDbLine
 10
36.23199999996837
 20
8.763099999991255
 30
0.0
 11
36.23199999996837
 21
2.481619422925064
 31
0.0
  0
LINE
  5
B92A
330
B8F6
100
AcDbEntity
  8
0
100
AcDbLine
 10
33.08199999996839
 20
8.763099999991255
 30
0.0
 11
33.08199999996839
 21
2.481619422925121
 31
0.0
  0
ARC
  5
B92B
330
B8F6
100
AcDbEntity
  8
0
100
AcDbCircle
 10
34.65699999996832
 20
3.183099999991214
 30
0.0
 40
3.420000000000007
100
AcDbArc
 50
240.0000000000255
 51
299.9999999999766
  0
ARC
  5
B92C
330
B8F6
100
AcDbEntity
  8
0
100
AcDbCircle
 10
34.65699999996832
 20
3.183099999991214
 30
0.0
 40
1.97999999999999
100
AcDbArc
 50
240.000000000026
 51
299.9999999999703
  0
LINE
  5
B92D
330
B8F6
100
AcDbEntity
  8
0
100
AcDbLine
 10
33.08199999996828
 20
8.763099999991255
 30
0.0
 11
31.64199999996833
 21
8.763099999991255
 31
0.0
  0
ARC
  5
B92E
330
B8F6
100
AcDbEntity
  8
0
100
AcDbCircle
 10
35.06199999996829
 20
2.481619422925064
 30
0.0
 40
1.17
100
AcDbArc
 50
299.9999999999699
 51
0.0
  0
ARC
  5
B92F
330
B8F6
100
AcDbEntity
  8
0
100
AcDbCircle
 10
34.25199999996835
 20
2.481619422925121
 30
0.0
 40
1.17
100
AcDbArc
 50
180.0
 51
240.0000000000238
  0
ARC
  5
B930
330
B8F6
100
AcDbEntity
  8
0
100
AcDbCircle
 10
35.06199999996841
 20
2.481619422925121
 30
0.0
 40
2.61
100
AcDbArc
 50
299.9999999999756
 51
0.0
  0
ARC
  5
B931
330
B8F6
100
AcDbEntity
  8
0
100
AcDbCircle
 10
34.25199999996835
 20
2.481619422925121
 30
0.0
 40
2.61
100
AcDbArc
 50
180.0
 51
240.0000000000244
  0
LINE
  5
B932
330
B8F6
100
AcDbEntity
  8
0
100
AcDbLine
 10
29.30199999996933
 20
8.763099999991255
 30
0.0
 11
30.74199999996927
 21
8.763099999991255
 31
0.0
1001
ACAD
1000
ASC_BOUNDS
1002
{
1070
    19
1005
B93B
1002
}
  0
LINE
  5
B933
330
B8F6
100
AcDbEntity
  8
0
100
AcDbLine
 10
30.74199999996927
 20
8.763099999991255
 30
0.0
 11
30.74199999996927
 21
2.373099999991211
 31
0.0
1001
ACAD
1000
ASC_BOUNDS
1002
{
1070
    19
1005
B93B
1002
}
  0
LINE
  5
B934
330
B8F6
100
AcDbEntity
  8
0
100
AcDbLine
 10
26.02015566812236
 20
0.0330999999912365
 30
0.0
 11
28.40199999996923
 21
0.0330999999912365
 31
0.0
1001
ACAD
1000
ASC_BOUNDS
1002
{
1070
    19
1005
B93B
1002
}
  0
LINE
  5
B935
330
B8F6
100
AcDbEntity
  8
0
100
AcDbLine
 10
29.30199999996933
 20
8.763099999991255
 30
0.0
 11
29.30199999996933
 21
2.283099999991236
 31
0.0
1001
ACAD
1000
ASC_BOUNDS
1002
{
1070
    19
1005
B93B
1002
}
  0
LINE
  5
B936
330
B8F6
100
AcDbEntity
  8
0
100
AcDbLine
 10
26.97358892824991
 20
1.383099999991202
 30
0.0
 11
28.40199999996923
 21
1.383099999991202
 31
0.0
1001
ACAD
1000
ASC_BOUNDS
1002
{
1070
    19
1005
B93B
1002
}
  0
ARC
  5
B937
330
B8F6
100
AcDbEntity
  8
0
100
AcDbCircle
 10
28.40199999996923
 20
2.283099999991236
 30
0.0
 40
0.9
100
AcDbArc
 50
270.0
 51
0.0
1001
ACAD
1000
ASC_BOUNDS
1002
{
1070
    19
1005
B93B
1002
}
  0
ARC
  5
B938
330
B8F6
100
AcDbEntity
  8
0
100
AcDbCircle
 10
28.40199999996923
 20
2.373099999991211
 30
0.0
 40
2.34
100
AcDbArc
 50
270.0
 51
0.0
1001
ACAD
1000
ASC_BOUNDS
1002
{
1070
    19
1005
B93B
1002
}
  0
INSERT
  5
B939
330
B8F6
100
AcDbEntity
  8
0
100
AcDbBlockReference
  2
*X42
 10
0.0
 20
0.0
 30
0.0
1001
ACAD
1000
HATCH
1002
{
1070
    19
1000
ANSI37
1040
0.15
1040
0.0
1000
ASC_BOUNDS
1070
     2
1070
     2
1070
    12
1005
B8F8
1005
B8F9
1005
B900
1005
B90F
1005
B912
1005
B910
1005
B901
1005
B906
1005
B904
1005
B908
1005
B907
1005
B909
1070
     2
1070
     3
1005
B914
1005
B916
1005
B915
1000
ASC_SEEDPOINT
1011
3.614004224891801
1021
2.996669441146025
1031
0.0
1000
R14_HATCH_DATA
1000
B939
1011
1.0
1021
0.0
1031
0.0
1011
0.0
1021
1.0
1031
0.0
1011
0.0
1021
0.0
1031
1.0
1040
0.0
1010
0.0
1020
0.0
1030
1.0
1000
ANSI37
1070
     0
1070
     1
1071
        2
1071
        7
1070
     0
1070
     1
1071
       17
1040
13.26299999998673
1040
-0.0001000000000317
1040
9.236999999990758
1040
8.999899999990987
1040
9.236999999990758
1040
8.999999999991019
1040
5.657999999994331
1040
0.9999999999989768
1040
3.181999999996833
1040
4.668599999995308
1040
6.432999999993513
1040
8.763099999991255
1040
4.617999999995391
1040
8.763099999991255
1040
1.420999999998571
1040
4.736799999995242
1040
4.617999999995391
1040
-0.0001000000000317
1040
4.617999999995391
1040
0.0
1040
6.766999999993232
1040
0.0
1040
6.766999999993232
1040
-0.0001000000000317
1040
7.826999999992154
1040
2.368399999997621
1040
10.64699999998936
1040
2.368399999997621
1040
11.70599999998831
1040
-0.0001000000000317
1040
11.70599999998831
1040
0.0
1040
13.26299999998673
1040
0.0
1071
       12
1005
B8F8
1005
B8F9
1005
B900
1005
B90F
1005
B912
1005
B910
1005
B901
1005
B906
1005
B904
1005
B908
1005
B907
1005
B909
1071
       22
1070
     0
1070
     1
1071
        3
1040
9.236999999990758
1040
5.5200999999945
1040
10.06399999998996
1040
3.670999999996297
1040
8.409999999991555
1040
3.670999999996297
1071
        3
1005
B914
1005
B916
1005
B915
1070
     0
1070
     1
1040
0.0
1040
0.15
1070
     0
1070
     2
1040
0.7853981633974483
1040
49.29960901727088
1040
-10.17736998311392
1040
-0.3367596045400932
1040
0.3367596045400932
1070
     0
1040
2.356194490192345
1040
49.29960901727088
1040
-10.17736998311392
1040
-0.3367596045400932
1040
-0.3367596045400932
1070
     0
1040
0.0110235143455945
1071
        2
1040
3.614004224891801
1040
2.996669441146025
1040
0.0
1040
3.614004224891801
1040
2.996669441146025
1040
0.0
1002
}
  0
INSERT
  5
B93A
330
B8F6
100
AcDbEntity
  8
0
100
AcDbBlockReference
  2
*X43
 10
0.0
 20
0.0
 30
0.0
1001
ACAD
1000
HATCH
1002
{
1070
    19
1000
ANSI37
1040
0.15
1040
0.0
1000
ASC_BOUNDS
1070
     1
1070
     2
1070
    10
1005
B8FA
1005
B8FB
1005
B91C
1005
B91A
1005
B91B
1005
B90E
1005
B913
1005
B917
1005
B8FD
1005
B8FC
1000
ASC_SEEDPOINT
1011
14.73245321214324
1021
2.798246178283421
1031
0.0
1000
R14_HATCH_DATA
1000
B93A
1011
1.0
1021
0.0
1031
0.0
1011
0.0
1021
1.0
1031
0.0
1011
0.0
1021
0.0
1031
1.0
1040
0.0
1010
0.0
1020
0.0
1030
1.0
1000
ANSI37
1070
     0
1070
     1
1071
        1
1071
        7
1070
     0
1070
     1
1071
       10
1040
16.46099999998353
1040
5.432899999994561
1040
18.59199999998134
1040
-0.2368999999997641
1040
22.38199999997767
1040
8.763099999991255
1040
20.89099999997916
1040
8.763099999991255
1040
18.59799999998143
1040
3.315799999996671
1040
16.46099999998353
1040
8.999899999990987
1040
14.32399999998563
1040
3.315799999996671
1040
12.02999999998792
1040
8.763099999991255
1040
10.53899999998941
1040
8.763099999991255
1040
14.32899999998563
1040
-0.2368999999997641
1071
       10
1005
B8FA
1005
B8FB
1005
B91C
1005
B91A
1005
B91B
1005
B90E
1005
B913
1005
B917
1005
B8FD
1005
B8FC
1070
     0
1070
     1
1040
0.0
1040
0.15
1070
     0
1070
     2
1040
0.7853981633974483
1040
49.29960901727088
1040
-10.17736998311392
1040
-0.3367596045400932
1040
0.3367596045400932
1070
     0
1040
2.356194490192345
1040
49.29960901727088
1040
-10.17736998311392
1040
-0.3367596045400932
1040
-0.3367596045400932
1070
     0
1040
0.0110235143455945
1071
        1
1040
14.73245321214324
1040
2.798246178283421
1040
0.0
1002
}
  0
INSERT
  5
B93B
330
B8F6
100
AcDbEntity
  8
0
100
AcDbBlockReference
  2
*X44
 10
0.0
 20
0.0
 30
0.0
1001
ACAD
1000
HATCH
1002
{
1070
    19
1000
ANSI37
1040
0.15
1040
0.0
1000
ASC_BOUNDS
1070
     2
1070
     2
1070
    13
1005
B8FE
1005
B90B
1005
B90C
1005
B90A
1005
B90D
1005
B934
1005
B938
1005
B933
1005
B932
1005
B935
1005
B937
1005
B936
1005
B8FF
1070
     2
1070
     3
1005
B918
1005
B91D
1005
B919
1000
ASC_SEEDPOINT
1011
21.97929957367762
1021
3.294304244259308
1031
0.0
1000
R14_HATCH_DATA
1000
B93B
1011
1.0
1021
0.0
1031
0.0
1011
0.0
1021
1.0
1031
0.0
1011
0.0
1021
0.0
1031
1.0
1040
0.0
1010
0.0
1020
0.0
1030
1.0
1000
ANSI37
1070
     0
1070
     1
1071
        2
1071
        7
1070
     1
1070
     1
1071
       15
1040
23.56599999997638
1040
8.999899999990987
1040
0.0
1040
19.53899999998043
1040
-0.0001000000000317
1040
0.0
1040
19.53899999998043
1040
0.0
1040
0.0
1040
21.09599999997886
1040
0.0
1040
0.0
1040
21.09599999997886
1040
-0.0001000000000317
1040
0.0
1040
22.15599999997789
1040
2.368399999997621
1040
0.0
1040
24.97599999997499
1040
2.368399999997621
1040
0.0
1040
26.02015566812236
1040
0.0330999999912365
1040
0.0
1040
28.40199999996923
1040
0.0330999999912365
1040
0.414213562373095
1040
30.74199999996923
1040
2.373099999991211
1040
0.0
1040
30.74199999996927
1040
8.763099999991255
1040
0.0
1040
29.30199999996933
1040
8.763099999991255
1040
0.0
1040
29.30199999996933
1040
2.283099999991236
1040
-0.414213562373095
1040
28.40199999996923
1040
1.383099999991237
1040
0.0
1040
26.97358892824991
1040
1.383099999991202
1040
0.0
1071
       13
1005
B8FE
1005
B90B
1005
B90C
1005
B90A
1005
B90D
1005
B934
1005
B938
1005
B933
1005
B932
1005
B935
1005
B937
1005
B936
1005
B8FF
1071
       22
1070
     0
1070
     1
1071
        3
1040
22.7389999999773
1040
3.670999999996297
1040
23.56599999997638
1040
5.5200999999945
1040
24.39299999997559
1040
3.670999999996297
1071
        3
1005
B918
1005
B91D
1005
B919
1070
     0
1070
     1
1040
0.0
1040
0.15
1070
     0
1070
     2
1040
0.7853981633974483
1040
49.29960901727088
1040
-10.17736998311392
1040
-0.3367596045400932
1040
0.3367596045400932
1070
     0
1040
2.356194490192345
1040
49.29960901727088
1040
-10.17736998311392
1040
-0.3367596045400932
1040
-0.3367596045400932
1070
     0
1040
0.0110235143455945
1071
        2
1040
21.97929957367762
1040
3.294304244259308
1040
0.0
1040
21.97929957367762
1040
3.294304244259308
1040
0.0
1002
}
  0
INSERT
  5
B93C
330
B8F6
100
AcDbEntity
  8
0
100
AcDbBlockReference
  2
*X45
 10
0.0
 20
0.0
 30
0.0
1001
ACAD
1000
HATCH
1002
{
1070
    19
1000
ANSI37
1040
0.15
1040
0.0
1000
R14_HATCH_DATA
1000
B93C
1011
1.0
1021
0.0
1031
0.0
1011
0.0
1021
1.0
1031
0.0
1011
0.0
1021
0.0
1031
1.0
1040
0.0
1010
0.0
1020
0.0
1030
1.0
1000
ANSI37
1070
     0
1070
     1
1071
        1
1071
        7
1070
     1
1070
     1
1071
       12
1040
31.64199999996833
1040
2.481619422925121
1040
0.2679491924310942
1040
32.94699999997067
1040
0.2212931190493919
1040
0.2679491924301353
1040
36.36699999995983
1040
0.2212931190459813
1040
0.2679491924321411
1040
37.67199999996831
1040
2.481619422928361
1040
0.0
1040
37.67199999996831
1040
8.763099999991255
1040
0.0
1040
36.23199999996837
1040
8.763099999991255
1040
0.0
1040
36.23199999996837
1040
2.481619422925064
1040
-0.2679491924310291
1040
35.64699999996708
1040
1.468369700498386
1040
-0.267949192430519
1040
33.66699999997093
1040
1.468369700497703
1040
-0.267949192431809
1040
33.08199999996839
1040
2.481619422926997
1040
0.0
1040
33.08199999996839
1040
8.763099999991255
1040
0.0
1040
31.64199999996833
1040
8.763099999991255
1040
0.0
1071
        0
1070
     0
1070
     1
1040
0.0
1040
0.15
1070
     0
1070
     2
1040
0.7853981633974483
1040
49.29960901727088
1040
-10.17736998311392
1040
-0.3367596045400932
1040
0.3367596045400932
1070
     0
1040
2.356194490192345
1040
49.29960901727088
1040
-10.17736998311392
1040
-0.3367596045400932
1040
-0.3367596045400932
1070
     0
1040
0.0110235143455945
1071
        1
1040
32.30357378967278
1040
3.988785755459219
1040
0.0
1002
}
  0
INSERT
  5
B93D
330
B8F6
100
AcDbEntity
  8
0
100
AcDbBlockReference
  2
*X46
 10
0.0
 20
0.0
 30
0.0
1001
ACAD
1000
HATCH
1002
{
1070
    19
1000
ANSI37
1040
0.15
1040
0.0
1000
ASC_BOUNDS
1070
     1
1070
     2
1070
     8
1005
B91E
1005
B921
1005
B925
1005
B924
1005
B923
1005
B920
1005
B922
1005
B91F
1000
ASC_SEEDPOINT
1011
39.74896370716704
1021
4.484843821435049
1031
0.0
1000
R14_HATCH_DATA
1000
B93D
1011
1.0
1021
0.0
1031
0.0
1011
0.0
1021
1.0
1031
0.0
1011
0.0
1021
0.0
1031
1.0
1040
0.0
1010
0.0
1020
0.0
1030
1.0
1000
ANSI37
1070
     0
1070
     1
1071
        1
1071
        7
1070
     0
1070
     1
1071
        9
1040
40.02599999995994
1040
5.341799999994635
1040
44.99999999995498
1040
-0.2368999999997641
1040
44.99999999995498
1040
8.763099999991255
1040
43.57899999995641
1040
8.763099999991255
1040
43.57899999995641
1040
3.421199999996588
1040
38.60499999996136
1040
8.999899999990987
1040
38.60499999996136
1040
8.999999999991019
1040
38.60499999996136
1040
0.0
1040
40.02599999995994
1040
0.0
1071
        8
1005
B91E
1005
B921
1005
B925
1005
B924
1005
B923
1005
B920
1005
B922
1005
B91F
1070
     0
1070
     1
1040
0.0
1040
0.15
1070
     0
1070
     2
1040
0.7853981633974483
1040
49.29960901727088
1040
-10.17736998311392
1040
-0.3367596045400932
1040
0.3367596045400932
1070
     0
1040
2.356194490192345
1040
49.29960901727088
1040
-10.17736998311392
1040
-0.3367596045400932
1040
-0.3367596045400932
1070
     0
1040
0.0110235143455945
1071
        1
1040
39.74896370716704
1040
4.484843821435049
1040
0.0
1002
}
  0
INSERT
  5
B93E
330
B8F6
100
AcDbEntity
  8
0
100
AcDbBlockReference
  2
*X47
 10
0.0
 20
0.0
 30
0.0
1001
ACAD
1000
HATCH
1002
{
1070
    19
1000
ANSI37
1040
0.15
1040
0.0
1000
ASC_BOUNDS
1070
     1
1070
     2
1070
     4
1005
B902
1005
B911
1005
B903
1005
B905
1000
ASC_SEEDPOINT
1011
1.079051535452663
1021
4.148538732891836
1031
0.0
1000
R14_HATCH_DATA
1000
B93E
1011
1.0
1021
0.0
1031
0.0
1011
0.0
1021
1.0
1031
0.0
1011
0.0
1021
0.0
1031
1.0
1040
0.0
1010
0.0
1020
0.0
1030
1.0
1000
ANSI37
1070
     0
1070
     1
1071
        1
1071
        7
1070
     0
1070
     1
1071
        4
1040
1.420999999998571
1040
0.0
1040
1.420999999998571
1040
8.763099999991255
1040
0.0
1040
8.763099999991255
1040
0.0
1040
0.0
1071
        4
1005
B902
1005
B911
1005
B903
1005
B905
1070
     0
1070
     1
1040
0.0
1040
0.15
1070
     0
1070
     2
1040
0.7853981633974483
1040
49.29960901727088
1040
-10.17736998311392
1040
-0.3367596045400932
1040
0.3367596045400932
1070
     0
1040
2.356194490192345
1040
49.29960901727088
1040
-10.17736998311392
1040
-0.3367596045400932
1040
-0.3367596045400932
1070
     0
1040
0.0053004257112761
1071
        1
1040
1.079051535452663
1040
4.148538732891836
1040
0.0
1002
}
  0
ENDBLK
  5
B93F
330
B8F6
100
AcDbEntity
  8
0
100
AcDbBlockEnd
  0
BLOCK
  5
C11A
330
BF8C
100
AcDbEntity
  8
0
100
AcDbBlockBegin
  2
*X42
 70
     1
 10
0.0
 20
0.0
 30
0.0
  3
*X42
  1

  0
LINE
  5
BF8D
330
BF8C
100
AcDbEntity
  8
0
  6
CONTINUOUS
100
AcDbLine
 10
3.418023043697893
 20
7.251849696850613
 30
0.0
 11
4.929273346838536
 21
8.763099999991255
 31
0.0
  0
LINE
  5
BF8E
330
BF8C
100
AcDbEntity
  8
0
  6
CONTINUOUS
100
AcDbLine
 10
1.483656411257782
 20
4.643963855330318
 30
0.0
 11
5.60279255591872
 21
8.763099999991255
 31
0.0
  0
LINE
  5
BF8F
330
BF8C
100
AcDbEntity
  8
0
  6
CONTINUOUS
100
AcDbLine
 10
1.755053947328235
 20
4.241842182320584
 30
0.0
 11
6.276311764998907
 21
8.763099999991255
 31
0.0
  0
LINE
  5
BF90
330
BF8C
100
AcDbEntity
  8
0
  6
CONTINUOUS
100
AcDbLine
 10
2.026451483398688
 20
3.839720509310849
 30
0.0
 11
4.441040904851878
 21
6.254309930764039
 31
0.0
  0
LINE
  5
BF91
330
BF8C
100
AcDbEntity
  8
0
  6
CONTINUOUS
100
AcDbLine
 10
2.297849019469139
 20
3.437598836301114
 30
0.0
 11
3.321765168359338
 21
4.461514985191313
 31
0.0
  0
LINE
  5
BF92
330
BF8C
100
AcDbEntity
  8
0
  6
CONTINUOUS
100
AcDbLine
 10
2.569246555539591
 20
3.03547716329138
 30
0.0
 11
3.593163397972743
 21
4.059394005724531
 31
0.0
  0
LINE
  5
BF93
330
BF8C
100
AcDbEntity
  8
0
  6
CONTINUOUS
100
AcDbLine
 10
2.840644091610043
 20
2.633355490281646
 30
0.0
 11
3.864561627586149
 21
3.657273026257751
 31
0.0
  0
LINE
  5
BF94
330
BF8C
100
AcDbEntity
  8
0
  6
CONTINUOUS
100
AcDbLine
 10
3.112041627680496
 20
2.231233817271911
 30
0.0
 11
4.135959857199554
 21
3.25515204679097
 31
0.0
  0
LINE
  5
BF95
330
BF8C
100
AcDbEntity
  8
0
  6
CONTINUOUS
100
AcDbLine
 10
3.383439163750948
 20
1.829112144262177
 30
0.0
 11
4.40735808681296
 21
2.853031067324189
 31
0.0
  0
LINE
  5
BF96
330
BF8C
100
AcDbEntity
  8
0
  6
CONTINUOUS
100
AcDbLine
 10
3.654836699821399
 20
1.426990471252442
 30
0.0
 11
4.678756316426365
 21
2.450910087857407
 31
0.0
  0
LINE
  5
BF97
330
BF8C
100
AcDbEntity
  8
0
  6
CONTINUOUS
100
AcDbLine
 10
3.926234235891853
 20
1.024868798242709
 30
0.0
 11
4.95015454603977
 21
2.048789108390626
 31
0.0
  0
LINE
  5
BF98
330
BF8C
100
AcDbEntity
  8
0
  6
CONTINUOUS
100
AcDbLine
 10
4.197631771962304
 20
0.6227471252329737
 30
0.0
 11
5.221552775653176
 21
1.646668128923846
 31
0.0
  0
LINE
  5
BF99
330
BF8C
100
AcDbEntity
  8
0
  6
CONTINUOUS
100
AcDbLine
 10
8.715877546767851
 20
7.835069736359266
 30
0.0
 11
9.435953450375058
 21
8.555145639966472
 31
0.0
  0
LINE
  5
BF9A
330
BF8C
100
AcDbEntity
  8
0
  6
CONTINUOUS
100
AcDbLine
 10
8.170620868422267
 20
6.616293848933497
 30
0.0
 11
9.644120833743461
 21
8.08979381425469
 31
0.0
  0
LINE
  5
BF9B
330
BF8C
100
AcDbEntity
  8
0
  6
CONTINUOUS
100
AcDbLine
 10
7.625364190076684
 20
5.397517961507727
 30
0.0
 11
9.852288217111864
 21
7.624441988542907
 31
0.0
  0
LINE
  5
BF9C
330
BF8C
100
AcDbEntity
  8
0
  6
CONTINUOUS
100
AcDbLine
 10
7.080107511731101
 20
4.178742074081957
 30
0.0
 11
10.06045560048027
 21
7.159090162831124
 31
0.0
  0
LINE
  5
BF9D
330
BF8C
100
AcDbEntity
  8
0
  6
CONTINUOUS
100
AcDbLine
 10
6.534850833385518
 20
2.959966186656187
 30
0.0
 11
10.26862298384867
 21
6.693738337119342
 31
0.0
  0
LINE
  5
BF9E
330
BF8C
100
AcDbEntity
  8
0
  6
CONTINUOUS
100
AcDbLine
 10
4.469029308032756
 20
0.2206254522232385
 30
0.0
 11
5.492951005266582
 21
1.244547149457064
 31
0.0
  0
LINE
  5
BF9F
330
BF8C
100
AcDbEntity
  8
0
  6
CONTINUOUS
100
AcDbLine
 10
5.989594155039935
 20
1.741190299230417
 30
0.0
 11
8.806950407233131
 21
4.558546551423613
 31
0.0
  0
LINE
  5
BFA0
330
BF8C
100
AcDbEntity
  8
0
  6
CONTINUOUS
100
AcDbLine
 10
9.401251593263643
 20
5.152847737454126
 30
0.0
 11
10.47679036721708
 21
6.228386511407559
 31
0.0
  0
LINE
  5
BFA1
330
BF8C
100
AcDbEntity
  8
0
  6
CONTINUOUS
100
AcDbLine
 10
4.921837203428691
 20
-0.0000858614610131
 30
0.0
 11
8.592923064886001
 21
3.670999999996297
 31
0.0
  0
LINE
  5
BFA2
330
BF8C
100
AcDbEntity
  8
0
  6
CONTINUOUS
100
AcDbLine
 10
9.609390446785305
 20
4.6874673818956
 30
0.0
 11
10.68495775058548
 21
5.763034685695775
 31
0.0
  0
LINE
  5
BFA3
330
BF8C
100
AcDbEntity
  8
0
  6
CONTINUOUS
100
AcDbLine
 10
5.595387755019432
 20
-0.0000545189504582
 30
0.0
 11
7.716137258923768
 21
2.120694984953879
 31
0.0
  0
LINE
  5
BFA4
330
BF8C
100
AcDbEntity
  8
0
  6
CONTINUOUS
100
AcDbLine
 10
6.268938306610172
 20
-0.000023176439905
 30
0.0
 11
7.170485805526503
 21
0.9015243224764267
 31
0.0
  0
LINE
  5
BFA5
330
BF8C
100
AcDbEntity
  8
0
  6
CONTINUOUS
100
AcDbLine
 10
7.963842273967511
 20
2.368399999997621
 30
0.0
 11
9.266442273966188
 21
3.670999999996297
 31
0.0
  0
LINE
  5
BFA6
330
BF8C
100
AcDbEntity
  8
0
  6
CONTINUOUS
100
AcDbLine
 10
8.637361483047696
 20
2.368399999997621
 30
0.0
 11
9.939961483046375
 21
3.670999999996297
 31
0.0
  0
LINE
  5
BFA7
330
BF8C
100
AcDbEntity
  8
0
  6
CONTINUOUS
100
AcDbLine
 10
9.817529300306965
 20
4.222087026337075
 30
0.0
 11
10.89312513395388
 21
5.297682859983993
 31
0.0
  0
LINE
  5
BFA8
330
BF8C
100
AcDbEntity
  8
0
  6
CONTINUOUS
100
AcDbLine
 10
10.02566815382863
 20
3.756706670778549
 30
0.0
 11
11.10129251732229
 21
4.832331034272211
 31
0.0
  0
LINE
  5
BFA9
330
BF8C
100
AcDbEntity
  8
0
  6
CONTINUOUS
100
AcDbLine
 10
9.310880692127883
 20
2.368399999997621
 30
0.0
 11
11.30945990069069
 21
4.366979208560428
 31
0.0
  0
LINE
  5
BFAA
330
BF8C
100
AcDbEntity
  8
0
  6
CONTINUOUS
100
AcDbLine
 10
9.98439990120807
 20
2.36839999999762
 30
0.0
 11
11.5176272840591
 21
3.901627382848645
 31
0.0
  0
LINE
  5
BFAB
330
BF8C
100
AcDbEntity
  8
0
  6
CONTINUOUS
100
AcDbLine
 10
10.65037369446246
 20
2.36085458417182
 30
0.0
 11
11.7257946674275
 21
3.436275557136862
 31
0.0
  0
LINE
  5
BFAC
330
BF8C
100
AcDbEntity
  8
0
  6
CONTINUOUS
100
AcDbLine
 10
10.85847197087848
 20
1.895433651507656
 30
0.0
 11
11.9339620507959
 21
2.97092373142508
 31
0.0
  0
LINE
  5
BFAD
330
BF8C
100
AcDbEntity
  8
0
  6
CONTINUOUS
100
AcDbLine
 10
11.0665702472945
 20
1.430012718843491
 30
0.0
 11
12.14212943416431
 21
2.505571905713296
 31
0.0
  0
LINE
  5
BFAE
330
BF8C
100
AcDbEntity
  8
0
  6
CONTINUOUS
100
AcDbLine
 10
11.27466852371052
 20
0.9645917861793256
 30
0.0
 11
12.35029681753271
 21
2.040220080001513
 31
0.0
  0
LINE
  5
BFAF
330
BF8C
100
AcDbEntity
  8
0
  6
CONTINUOUS
100
AcDbLine
 10
11.48276680012654
 20
0.4991708535151611
 30
0.0
 11
12.55846420090111
 21
1.57486825428973
 31
0.0
  0
LINE
  5
BFB0
330
BF8C
100
AcDbEntity
  8
0
  6
CONTINUOUS
100
AcDbLine
 10
11.69086507654257
 20
0.0337499208509957
 30
0.0
 11
12.76663158426952
 21
1.109516428577947
 31
0.0
  0
LINE
  5
BFB1
330
BF8C
100
AcDbEntity
  8
0
  6
CONTINUOUS
100
AcDbLine
 10
12.33057447873954
 20
-0.0000598860322123
 30
0.0
 11
12.97479896763792
 21
0.6441646028661663
 31
0.0
  0
LINE
  5
BFB2
330
BF8C
100
AcDbEntity
  8
0
  6
CONTINUOUS
100
AcDbLine
 10
13.00413694809395
 20
-0.0000166257579952
 30
0.0
 11
13.18296635100632
 21
0.1788127771543824
 31
0.0
  0
LINE
  5
BFB3
330
BF8C
100
AcDbEntity
  8
0
  6
CONTINUOUS
100
AcDbLine
 10
4.772852165289667
 20
-0.000092794222212
 30
0.0
 11
4.296495091028902
 21
0.4762642800385528
 31
0.0
  0
LINE
  5
BFB4
330
BF8C
100
AcDbEntity
  8
0
  6
CONTINUOUS
100
AcDbLine
 10
5.446340034776103
 20
-0.0000614546284616
 30
0.0
 11
2.898195908335625
 21
2.548082671812017
 31
0.0
  0
LINE
  5
BFB5
330
BF8C
100
AcDbEntity
  8
0
  6
CONTINUOUS
100
AcDbLine
 10
6.119827904262539
 20
-0.0000301150347113
 30
0.0
 11
1.499896725642348
 21
4.61990106358548
 31
0.0
  0
LINE
  5
BFB6
330
BF8C
100
AcDbEntity
  8
0
  6
CONTINUOUS
100
AcDbLine
 10
6.775136745476159
 20
0.0181802528318542
 30
0.0
 11
5.699826040202669
 21
1.093490958105344
 31
0.0
  0
LINE
  5
BFB7
330
BF8C
100
AcDbEntity
  8
0
  6
CONTINUOUS
100
AcDbLine
 10
6.983376846288489
 20
0.4834593610997118
 30
0.0
 11
5.908008617934405
 21
1.558827589453796
 31
0.0
  0
LINE
  5
BFB8
330
BF8C
100
AcDbEntity
  8
0
  6
CONTINUOUS
100
AcDbLine
 10
5.377063484962296
 20
1.416253513345719
 30
0.0
 11
1.702276957014131
 21
5.091040041293883
 31
0.0
  0
LINE
  5
BFB9
330
BF8C
100
AcDbEntity
  8
0
  6
CONTINUOUS
100
AcDbLine
 10
3.978745891735324
 20
3.488090315652877
 30
0.0
 11
2.000373521109399
 21
5.466462686278803
 31
0.0
  0
LINE
  5
BFBA
330
BF8C
100
AcDbEntity
  8
0
  6
CONTINUOUS
100
AcDbLine
 10
7.191616947100819
 20
0.948738469367568
 30
0.0
 11
6.11619119566614
 21
2.024164220802247
 31
0.0
  0
LINE
  5
BFBB
330
BF8C
100
AcDbEntity
  8
0
  6
CONTINUOUS
100
AcDbLine
 10
7.399857047913149
 20
1.414017577635424
 30
0.0
 11
6.324373773397875
 21
2.489500852150698
 31
0.0
  0
LINE
  5
BFBC
330
BF8C
100
AcDbEntity
  8
0
  6
CONTINUOUS
100
AcDbLine
 10
7.608097148725479
 20
1.879296685903281
 30
0.0
 11
6.53255635112961
 21
2.95483748349915
 31
0.0
  0
LINE
  5
BFBD
330
BF8C
100
AcDbEntity
  8
0
  6
CONTINUOUS
100
AcDbLine
 10
7.816337249537808
 20
2.344575794171138
 30
0.0
 11
6.740738928861345
 21
3.420174114847601
 31
0.0
  0
LINE
  5
BFBE
330
BF8C
100
AcDbEntity
  8
0
  6
CONTINUOUS
100
AcDbLine
 10
3.310241080789734
 20
4.830114335678653
 30
0.0
 11
2.298470085204666
 21
5.84188533126372
 31
0.0
  0
LINE
  5
BFBF
330
BF8C
100
AcDbEntity
  8
0
  6
CONTINUOUS
100
AcDbLine
 10
3.60832983563551
 20
5.205544789913063
 30
0.0
 11
2.596566649299935
 21
6.217307976248638
 31
0.0
  0
LINE
  5
BFC0
330
BF8C
100
AcDbEntity
  8
0
  6
CONTINUOUS
100
AcDbLine
 10
3.906418590481286
 20
5.580975244147473
 30
0.0
 11
2.894663213395203
 21
6.592730621233557
 31
0.0
  0
LINE
  5
BFC1
330
BF8C
100
AcDbEntity
  8
0
  6
CONTINUOUS
100
AcDbLine
 10
4.204507345327062
 20
5.956405698381884
 30
0.0
 11
3.192759777490472
 21
6.968153266218474
 31
0.0
  0
LINE
  5
BFC2
330
BF8C
100
AcDbEntity
  8
0
  6
CONTINUOUS
100
AcDbLine
 10
8.466032252791512
 20
2.368399999997621
 30
0.0
 11
6.948921506593081
 21
3.885510746196053
 31
0.0
  0
LINE
  5
BFC3
330
BF8C
100
AcDbEntity
  8
0
  6
CONTINUOUS
100
AcDbLine
 10
9.139551461871699
 20
2.36839999999762
 30
0.0
 11
7.157104084324816
 21
4.350847377544504
 31
0.0
  0
LINE
  5
BFC4
330
BF8C
100
AcDbEntity
  8
0
  6
CONTINUOUS
100
AcDbLine
 10
4.502596100172839
 20
6.331836152616295
 30
0.0
 11
3.49085634158574
 21
7.343575911203393
 31
0.0
  0
LINE
  5
BFC5
330
BF8C
100
AcDbEntity
  8
0
  6
CONTINUOUS
100
AcDbLine
 10
4.800684855018615
 20
6.707266606850705
 30
0.0
 11
3.788952905681008
 21
7.718998556188312
 31
0.0
  0
LINE
  5
BFC6
330
BF8C
100
AcDbEntity
  8
0
  6
CONTINUOUS
100
AcDbLine
 10
12.18154012887317
 20
-0.0000694579236642
 30
0.0
 11
11.32140332908496
 21
0.8600673418645499
 31
0.0
  0
LINE
  5
BFC7
330
BF8C
100
AcDbEntity
  8
0
  6
CONTINUOUS
100
AcDbLine
 10
12.85501608323566
 20
-0.0000262032059659
 30
0.0
 11
10.77672456435345
 21
2.078265315676246
 31
0.0
  0
LINE
  5
BFC8
330
BF8C
100
AcDbEntity
  8
0
  6
CONTINUOUS
100
AcDbLine
 10
9.813070670951886
 20
2.36839999999762
 30
0.0
 11
8.51047067095321
 21
3.670999999996297
 31
0.0
  0
LINE
  5
BFC9
330
BF8C
100
AcDbEntity
  8
0
  6
CONTINUOUS
100
AcDbLine
 10
10.48658988003207
 20
2.36839999999762
 30
0.0
 11
9.183989880033396
 21
3.670999999996297
 31
0.0
  0
LINE
  5
BFCA
330
BF8C
100
AcDbEntity
  8
0
  6
CONTINUOUS
100
AcDbLine
 10
8.441048632286794
 20
3.740422038662712
 30
0.0
 11
7.365286662056551
 21
4.816184008892956
 31
0.0
  0
LINE
  5
BFCB
330
BF8C
100
AcDbEntity
  8
0
  6
CONTINUOUS
100
AcDbLine
 10
8.649187485808454
 20
4.205802394221237
 30
0.0
 11
7.573469239788285
 21
5.281520640241407
 31
0.0
  0
LINE
  5
BFCC
330
BF8C
100
AcDbEntity
  8
0
  6
CONTINUOUS
100
AcDbLine
 10
5.098773609864391
 20
7.082697061085115
 30
0.0
 11
4.087049469776277
 21
8.09442120117323
 31
0.0
  0
LINE
  5
BFCD
330
BF8C
100
AcDbEntity
  8
0
  6
CONTINUOUS
100
AcDbLine
 10
5.396862364710167
 20
7.458127515319526
 30
0.0
 11
4.385146033871544
 21
8.469843846158149
 31
0.0
  0
LINE
  5
BFCE
330
BF8C
100
AcDbEntity
  8
0
  6
CONTINUOUS
100
AcDbLine
 10
13.04801363231285
 20
0.4804954567970334
 30
0.0
 11
9.85750908911358
 21
3.670999999996297
 31
0.0
  0
LINE
  5
BFCF
330
BF8C
100
AcDbEntity
  8
0
  6
CONTINUOUS
100
AcDbLine
 10
8.857326339330116
 20
4.671182749779763
 30
0.0
 11
7.781651817520021
 21
5.746857271589858
 31
0.0
  0
LINE
  5
BFD0
330
BF8C
100
AcDbEntity
  8
0
  6
CONTINUOUS
100
AcDbLine
 10
5.694951119555943
 20
7.833557969553937
 30
0.0
 11
4.765409089118624
 21
8.763099999991255
 31
0.0
  0
LINE
  5
BFD1
330
BF8C
100
AcDbEntity
  8
0
  6
CONTINUOUS
100
AcDbLine
 10
12.50286117236978
 20
1.699167125820288
 30
0.0
 11
9.68611877250287
 21
4.515909525687196
 31
0.0
  0
LINE
  5
BFD2
330
BF8C
100
AcDbEntity
  8
0
  6
CONTINUOUS
100
AcDbLine
 10
9.065465192851777
 20
5.136563105338288
 30
0.0
 11
7.989834395251757
 21
6.21219390293831
 31
0.0
  0
LINE
  5
BFD3
330
BF8C
100
AcDbEntity
  8
0
  6
CONTINUOUS
100
AcDbLine
 10
5.993039874401719
 20
8.208988423788346
 30
0.0
 11
5.43892829819881
 21
8.763099999991255
 31
0.0
  0
LINE
  5
BFD4
330
BF8C
100
AcDbEntity
  8
0
  6
CONTINUOUS
100
AcDbLine
 10
11.95770871242671
 20
2.917838794843543
 30
0.0
 11
8.19801697298349
 21
6.677530534286761
 31
0.0
  0
LINE
  5
BFD5
330
BF8C
100
AcDbEntity
  8
0
  6
CONTINUOUS
100
AcDbLine
 10
6.291128629247495
 20
8.584418878022756
 30
0.0
 11
6.112447507278997
 21
8.763099999991255
 31
0.0
  0
LINE
  5
BFD6
330
BF8C
100
AcDbEntity
  8
0
  6
CONTINUOUS
100
AcDbLine
 10
11.41255625248364
 20
4.136510463866797
 30
0.0
 11
8.406199550715227
 21
7.142867165635211
 31
0.0
  0
LINE
  5
BFD7
330
BF8C
100
AcDbEntity
  8
0
  6
CONTINUOUS
100
AcDbLine
 10
10.86740379254057
 20
5.355182132890051
 30
0.0
 11
8.614382128446962
 21
7.608203796983664
 31
0.0
  0
LINE
  5
BFD8
330
BF8C
100
AcDbEntity
  8
0
  6
CONTINUOUS
100
AcDbLine
 10
10.3222513325975
 20
6.573853801913305
 30
0.0
 11
8.822564706178696
 21
8.073540428332114
 31
0.0
  0
LINE
  5
BFD9
330
BF8C
100
AcDbEntity
  8
0
  6
CONTINUOUS
100
AcDbLine
 10
9.777098872654436
 20
7.792525470936562
 30
0.0
 11
9.030747283910433
 21
8.538877059680566
 31
0.0
  0
ENDBLK
  5
C11B
330
BF8C
100
AcDbEntity
  8
0
100
AcDbBlockEnd
  0
BLOCK
  5
C11C
330
BFDA
100
AcDbEntity
  8
0
100
AcDbBlockBegin
  2
*X43
 70
     1
 10
0.0
 20
0.0
 30
0.0
  3
*X43
  1

  0
LINE
  5
BFDB
330
BFDA
100
AcDbEntity
  8
0
  6
CONTINUOUS
100
AcDbLine
 10
10.67292308101235
 20
8.445076852443387
 30
0.0
 11
10.99094622856022
 21
8.763099999991255
 31
0.0
  0
LINE
  5
BFDC
330
BFDA
100
AcDbEntity
  8
0
  6
CONTINUOUS
100
AcDbLine
 10
10.87250383178748
 20
7.971138394138331
 30
0.0
 11
11.6644654376404
 21
8.763099999991255
 31
0.0
  0
LINE
  5
BFDD
330
BFDA
100
AcDbEntity
  8
0
  6
CONTINUOUS
100
AcDbLine
 10
11.07208458256261
 20
7.497199935833273
 30
0.0
 11
12.12126590876355
 21
8.546381262034211
 31
0.0
  0
LINE
  5
BFDE
330
BFDA
100
AcDbEntity
  8
0
  6
CONTINUOUS
100
AcDbLine
 10
11.27166533333774
 20
7.023261477528216
 30
0.0
 11
12.32085164573666
 21
8.072447789927136
 31
0.0
  0
LINE
  5
BFDF
330
BFDA
100
AcDbEntity
  8
0
  6
CONTINUOUS
100
AcDbLine
 10
11.47124608411287
 20
6.549323019223158
 30
0.0
 11
12.52043738270977
 21
7.59851431782006
 31
0.0
  0
LINE
  5
BFE0
330
BFDA
100
AcDbEntity
  8
0
  6
CONTINUOUS
100
AcDbLine
 10
11.670826834888
 20
6.075384560918101
 30
0.0
 11
12.72002311968288
 21
7.124580845712984
 31
0.0
  0
LINE
  5
BFE1
330
BFDA
100
AcDbEntity
  8
0
  6
CONTINUOUS
100
AcDbLine
 10
11.87040758566313
 20
5.601446102613043
 30
0.0
 11
12.91960885665599
 21
6.650647373605907
 31
0.0
  0
LINE
  5
BFE2
330
BFDA
100
AcDbEntity
  8
0
  6
CONTINUOUS
100
AcDbLine
 10
12.06998833643825
 20
5.127507644307986
 30
0.0
 11
13.1191945936291
 21
6.176713901498832
 31
0.0
  0
LINE
  5
BFE3
330
BFDA
100
AcDbEntity
  8
0
  6
CONTINUOUS
100
AcDbLine
 10
12.26956908721338
 20
4.65356918600293
 30
0.0
 11
13.31878033060221
 21
5.702780429391757
 31
0.0
  0
LINE
  5
BFE4
330
BFDA
100
AcDbEntity
  8
0
  6
CONTINUOUS
100
AcDbLine
 10
12.46914983798851
 20
4.179630727697873
 30
0.0
 11
13.51836606757532
 21
5.228846957284683
 31
0.0
  0
LINE
  5
BFE5
330
BFDA
100
AcDbEntity
  8
0
  6
CONTINUOUS
100
AcDbLine
 10
12.66873058876364
 20
3.705692269392816
 30
0.0
 11
13.71795180454843
 21
4.754913485177607
 31
0.0
  0
LINE
  5
BFE6
330
BFDA
100
AcDbEntity
  8
0
  6
CONTINUOUS
100
AcDbLine
 10
12.86831133953877
 20
3.231753811087759
 30
0.0
 11
13.91753754152154
 21
4.280980013070531
 31
0.0
  0
LINE
  5
BFE7
330
BFDA
100
AcDbEntity
  8
0
  6
CONTINUOUS
100
AcDbLine
 10
13.0678920903139
 20
2.757815352782702
 30
0.0
 11
14.11712327849465
 21
3.807046540963456
 31
0.0
  0
LINE
  5
BFE8
330
BFDA
100
AcDbEntity
  8
0
  6
CONTINUOUS
100
AcDbLine
 10
13.26747284108903
 20
2.283876894477644
 30
0.0
 11
14.31670901546777
 21
3.333113068856379
 31
0.0
  0
LINE
  5
BFE9
330
BFDA
100
AcDbEntity
  8
0
  6
CONTINUOUS
100
AcDbLine
 10
16.36767838827179
 20
8.751678487061342
 30
0.0
 11
16.50332410898388
 21
8.887324207773432
 31
0.0
  0
LINE
  5
BFEA
330
BFDA
100
AcDbEntity
  8
0
  6
CONTINUOUS
100
AcDbLine
 10
15.96190732182191
 20
7.67238821153127
 30
0.0
 11
16.68735328004734
 21
8.397834169756699
 31
0.0
  0
LINE
  5
BFEB
330
BFDA
100
AcDbEntity
  8
0
  6
CONTINUOUS
100
AcDbLine
 10
15.55613625537202
 20
6.593097936001196
 30
0.0
 11
16.87138245111079
 21
7.908344131739965
 31
0.0
  0
LINE
  5
BFEC
330
BFDA
100
AcDbEntity
  8
0
  6
CONTINUOUS
100
AcDbLine
 10
15.15036518892213
 20
5.513807660471122
 30
0.0
 11
17.05541162217424
 21
7.418854093723231
 31
0.0
  0
LINE
  5
BFED
330
BFDA
100
AcDbEntity
  8
0
  6
CONTINUOUS
100
AcDbLine
 10
14.74459412247225
 20
4.434517384941048
 30
0.0
 11
17.2394407932377
 21
6.929364055706499
 31
0.0
  0
LINE
  5
BFEE
330
BFDA
100
AcDbEntity
  8
0
  6
CONTINUOUS
100
AcDbLine
 10
14.33882305602236
 20
3.355227109410975
 30
0.0
 11
17.42346996430115
 21
6.439874017689766
 31
0.0
  0
LINE
  5
BFEF
330
BFDA
100
AcDbEntity
  8
0
  6
CONTINUOUS
100
AcDbLine
 10
13.46705359186416
 20
1.809938436172586
 30
0.0
 11
16.0819338255367
 21
4.424818669845129
 31
0.0
  0
LINE
  5
BFF0
330
BFDA
100
AcDbEntity
  8
0
  6
CONTINUOUS
100
AcDbLine
 10
16.63283254238972
 20
4.975717386698149
 30
0.0
 11
17.60749913536461
 21
5.950383979673033
 31
0.0
  0
LINE
  5
BFF1
330
BFDA
100
AcDbEntity
  8
0
  6
CONTINUOUS
100
AcDbLine
 10
13.66663434263929
 20
1.335999977867529
 30
0.0
 11
15.67604797733754
 21
3.345413612565779
 31
0.0
  0
LINE
  5
BFF2
330
BFDA
100
AcDbEntity
  8
0
  6
CONTINUOUS
100
AcDbLine
 10
13.86621509341442
 20
0.8620615195624723
 30
0.0
 11
15.27016212913838
 21
2.26600855528643
 31
0.0
  0
LINE
  5
BFF3
330
BFDA
100
AcDbEntity
  8
0
  6
CONTINUOUS
100
AcDbLine
 10
16.81682257348267
 20
4.486188208710908
 30
0.0
 11
17.79152830642806
 21
5.460893941656299
 31
0.0
  0
LINE
  5
BFF4
330
BFDA
100
AcDbEntity
  8
0
  6
CONTINUOUS
100
AcDbLine
 10
17.00081260457561
 20
3.996659030723667
 30
0.0
 11
17.97555747749151
 21
4.971403903639565
 31
0.0
  0
LINE
  5
BFF5
330
BFDA
100
AcDbEntity
  8
0
  6
CONTINUOUS
100
AcDbLine
 10
20.74362343514722
 20
8.412989070375462
 30
0.0
 11
21.09373436476302
 21
8.763099999991256
 31
0.0
  0
LINE
  5
BFF6
330
BFDA
100
AcDbEntity
  8
0
  6
CONTINUOUS
100
AcDbLine
 10
20.25401257174777
 20
7.249858997895826
 30
0.0
 11
21.7672535738432
 21
8.763099999991255
 31
0.0
  0
LINE
  5
BFF7
330
BFDA
100
AcDbEntity
  8
0
  6
CONTINUOUS
100
AcDbLine
 10
14.06579584418955
 20
0.3881230612574149
 30
0.0
 11
14.86427628093921
 21
1.186603498007082
 31
0.0
  0
LINE
  5
BFF8
330
BFDA
100
AcDbEntity
  8
0
  6
CONTINUOUS
100
AcDbLine
 10
14.26537659496467
 20
-0.0858153970476412
 30
0.0
 11
14.45839043274005
 21
0.1071984407277329
 31
0.0
  0
LINE
  5
BFF9
330
BFDA
100
AcDbEntity
  8
0
  6
CONTINUOUS
100
AcDbLine
 10
17.18480263566856
 20
3.507129852736426
 30
0.0
 11
18.15958664855496
 21
4.481913865622833
 31
0.0
  0
LINE
  5
BFFA
330
BFDA
100
AcDbEntity
  8
0
  6
CONTINUOUS
100
AcDbLine
 10
17.3687926667615
 20
3.017600674749186
 30
0.0
 11
18.34361581961842
 21
3.9924238276061
 31
0.0
  0
LINE
  5
BFFB
330
BFDA
100
AcDbEntity
  8
0
  6
CONTINUOUS
100
AcDbLine
 10
19.76440170834832
 20
6.086728925416191
 30
0.0
 11
22.33924590259489
 21
8.661573119662755
 31
0.0
  0
LINE
  5
BFFC
330
BFDA
100
AcDbEntity
  8
0
  6
CONTINUOUS
100
AcDbLine
 10
19.27479084494887
 20
4.923598852936555
 30
0.0
 11
21.84929622842713
 21
7.498104236414807
 31
0.0
  0
LINE
  5
BFFD
330
BFDA
100
AcDbEntity
  8
0
  6
CONTINUOUS
100
AcDbLine
 10
17.55278269785445
 20
2.528071496761945
 30
0.0
 11
18.52764499068187
 21
3.502933789589366
 31
0.0
  0
LINE
  5
BFFE
330
BFDA
100
AcDbEntity
  8
0
  6
CONTINUOUS
100
AcDbLine
 10
18.78517998154942
 20
3.760468780456919
 30
0.0
 11
21.35934655425936
 21
6.33463535316686
 31
0.0
  0
LINE
  5
BFFF
330
BFDA
100
AcDbEntity
  8
0
  6
CONTINUOUS
100
AcDbLine
 10
17.73677272894739
 20
2.038542318774704
 30
0.0
 11
20.8693968800916
 21
5.171166469918914
 31
0.0
  0
LINE
  5
C000
330
BFDA
100
AcDbEntity
  8
0
  6
CONTINUOUS
100
AcDbLine
 10
17.92076276004034
 20
1.549013140787464
 30
0.0
 11
20.37944720592384
 21
4.007697586670968
 31
0.0
  0
LINE
  5
C001
330
BFDA
100
AcDbEntity
  8
0
  6
CONTINUOUS
100
AcDbLine
 10
18.10475279113329
 20
1.059483962800223
 30
0.0
 11
19.88949753175608
 21
2.84422870342302
 31
0.0
  0
LINE
  5
C002
330
BFDA
100
AcDbEntity
  8
0
  6
CONTINUOUS
100
AcDbLine
 10
18.28874282222623
 20
0.5699547848129822
 30
0.0
 11
19.39954785758832
 21
1.680759820175074
 31
0.0
  0
LINE
  5
C003
330
BFDA
100
AcDbEntity
  8
0
  6
CONTINUOUS
100
AcDbLine
 10
18.47273285331918
 20
0.0804256068257416
 30
0.0
 11
18.90959818342056
 21
0.517290936927127
 31
0.0
  0
LINE
  5
C004
330
BFDA
100
AcDbEntity
  8
0
  6
CONTINUOUS
100
AcDbLine
 10
14.3590401358224
 20
-0.1570118376323384
 30
0.0
 11
14.24903296539946
 21
-0.0470046672093929
 31
0.0
  0
LINE
  5
C005
330
BFDA
100
AcDbEntity
  8
0
  6
CONTINUOUS
100
AcDbLine
 10
14.54309291258661
 20
0.332454594683643
 30
0.0
 11
13.75908329123172
 21
1.116464216038529
 31
0.0
  0
LINE
  5
C006
330
BFDA
100
AcDbEntity
  8
0
  6
CONTINUOUS
100
AcDbLine
 10
14.72714568935081
 20
0.8219210269996244
 30
0.0
 11
13.26913361706399
 21
2.27993309928645
 31
0.0
  0
LINE
  5
C007
330
BFDA
100
AcDbEntity
  8
0
  6
CONTINUOUS
100
AcDbLine
 10
14.91119846611502
 20
1.311387459315606
 30
0.0
 11
12.77918394289625
 21
3.443401982534371
 31
0.0
  0
LINE
  5
C008
330
BFDA
100
AcDbEntity
  8
0
  6
CONTINUOUS
100
AcDbLine
 10
15.09525124287922
 20
1.800853891631587
 30
0.0
 11
12.28923426872852
 21
4.606870865782293
 31
0.0
  0
LINE
  5
C009
330
BFDA
100
AcDbEntity
  8
0
  6
CONTINUOUS
100
AcDbLine
 10
15.27930401964343
 20
2.290320323947569
 30
0.0
 11
11.79928459456078
 21
5.770339749030213
 31
0.0
  0
LINE
  5
C00A
330
BFDA
100
AcDbEntity
  8
0
  6
CONTINUOUS
100
AcDbLine
 10
15.46335679640763
 20
2.77978675626355
 30
0.0
 11
14.48885470994921
 21
3.754288842721972
 31
0.0
  0
LINE
  5
C00B
330
BFDA
100
AcDbEntity
  8
0
  6
CONTINUOUS
100
AcDbLine
 10
13.88507249233704
 20
4.358071060334137
 30
0.0
 11
11.30933492039305
 21
6.933808632278135
 31
0.0
  0
LINE
  5
C00C
330
BFDA
100
AcDbEntity
  8
0
  6
CONTINUOUS
100
AcDbLine
 10
18.75840522805855
 20
0.1582575336928151
 30
0.0
 11
18.25383727664818
 21
0.6628254851031863
 31
0.0
  0
LINE
  5
C00D
330
BFDA
100
AcDbEntity
  8
0
  6
CONTINUOUS
100
AcDbLine
 10
15.64740957317184
 20
3.269253188579531
 30
0.0
 11
14.67288388101266
 21
4.243778880738705
 31
0.0
  0
LINE
  5
C00E
330
BFDA
100
AcDbEntity
  8
0
  6
CONTINUOUS
100
AcDbLine
 10
13.39509276772158
 20
5.521569994029786
 30
0.0
 11
10.81938524622531
 21
8.097277515526056
 31
0.0
  0
LINE
  5
C00F
330
BFDA
100
AcDbEntity
  8
0
  6
CONTINUOUS
100
AcDbLine
 10
18.95798597883369
 20
0.6321959919978686
 30
0.0
 11
17.84825644852853
 21
1.741925522303024
 31
0.0
  0
LINE
  5
C010
330
BFDA
100
AcDbEntity
  8
0
  6
CONTINUOUS
100
AcDbLine
 10
19.15756672960882
 20
1.106134450302922
 30
0.0
 11
17.44267562040888
 21
2.821025559502861
 31
0.0
  0
LINE
  5
C011
330
BFDA
100
AcDbEntity
  8
0
  6
CONTINUOUS
100
AcDbLine
 10
15.83146234993604
 20
3.758719620895513
 30
0.0
 11
14.85691305207612
 21
4.733268918755439
 31
0.0
  0
LINE
  5
C012
330
BFDA
100
AcDbEntity
  8
0
  6
CONTINUOUS
100
AcDbLine
 10
16.01551512670025
 20
4.248186053211494
 30
0.0
 11
15.04094222313957
 21
5.222758956772172
 31
0.0
  0
LINE
  5
C013
330
BFDA
100
AcDbEntity
  8
0
  6
CONTINUOUS
100
AcDbLine
 10
12.90511304310612
 20
6.685068927725435
 30
0.0
 11
10.8270819708403
 21
8.763099999991255
 31
0.0
  0
LINE
  5
C014
330
BFDA
100
AcDbEntity
  8
0
  6
CONTINUOUS
100
AcDbLine
 10
12.41513331849066
 20
7.848567861421083
 30
0.0
 11
11.50060117992049
 21
8.763099999991255
 31
0.0
  0
LINE
  5
C015
330
BFDA
100
AcDbEntity
  8
0
  6
CONTINUOUS
100
AcDbLine
 10
19.35714748038395
 20
1.580072908607975
 30
0.0
 11
17.03709479228923
 21
3.900125596702697
 31
0.0
  0
LINE
  5
C016
330
BFDA
100
AcDbEntity
  8
0
  6
CONTINUOUS
100
AcDbLine
 10
19.55672823115909
 20
2.054011366913028
 30
0.0
 11
16.63151396416958
 21
4.979225633902534
 31
0.0
  0
LINE
  5
C017
330
BFDA
100
AcDbEntity
  8
0
  6
CONTINUOUS
100
AcDbLine
 10
16.19956790346445
 20
4.737652485527476
 30
0.0
 11
15.22497139420302
 21
5.712248994788904
 31
0.0
  0
LINE
  5
C018
330
BFDA
100
AcDbEntity
  8
0
  6
CONTINUOUS
100
AcDbLine
 10
16.38362068022866
 20
5.227118917843457
 30
0.0
 11
15.40900056526648
 21
6.201739032805637
 31
0.0
  0
LINE
  5
C019
330
BFDA
100
AcDbEntity
  8
0
  6
CONTINUOUS
100
AcDbLine
 10
19.75630898193422
 20
2.527949825218081
 30
0.0
 11
18.70774536448286
 21
3.576513442669441
 31
0.0
  0
LINE
  5
C01A
330
BFDA
100
AcDbEntity
  8
0
  6
CONTINUOUS
100
AcDbLine
 10
19.95588973270936
 20
3.001888283523134
 30
0.0
 11
18.90726987211446
 21
4.050508144118028
 31
0.0
  0
LINE
  5
C01B
330
BFDA
100
AcDbEntity
  8
0
  6
CONTINUOUS
100
AcDbLine
 10
20.15547048348449
 20
3.475826741828186
 30
0.0
 11
19.10679437974606
 21
4.524502845566614
 31
0.0
  0
LINE
  5
C01C
330
BFDA
100
AcDbEntity
  8
0
  6
CONTINUOUS
100
AcDbLine
 10
20.35505123425962
 20
3.94976520013324
 30
0.0
 11
19.30631888737766
 21
4.998497547015201
 31
0.0
  0
LINE
  5
C01D
330
BFDA
100
AcDbEntity
  8
0
  6
CONTINUOUS
100
AcDbLine
 10
20.55463198503475
 20
4.423703658438292
 30
0.0
 11
19.50584339500926
 21
5.472492248463787
 31
0.0
  0
LINE
  5
C01E
330
BFDA
100
AcDbEntity
  8
0
  6
CONTINUOUS
100
AcDbLine
 10
18.37481191085755
 20
3.909446896294752
 30
0.0
 11
15.59302973632993
 21
6.691229070822371
 31
0.0
  0
LINE
  5
C01F
330
BFDA
100
AcDbEntity
  8
0
  6
CONTINUOUS
100
AcDbLine
 10
17.96904084440766
 20
4.988737171824825
 30
0.0
 11
15.77705890739338
 21
7.180719108839104
 31
0.0
  0
LINE
  5
C020
330
BFDA
100
AcDbEntity
  8
0
  6
CONTINUOUS
100
AcDbLine
 10
17.56326977795777
 20
6.068027447354899
 30
0.0
 11
15.96108807845684
 21
7.670209146855838
 31
0.0
  0
LINE
  5
C021
330
BFDA
100
AcDbEntity
  8
0
  6
CONTINUOUS
100
AcDbLine
 10
17.15749871150789
 20
7.147317722884972
 30
0.0
 11
16.14511724952029
 21
8.15969918487257
 31
0.0
  0
LINE
  5
C022
330
BFDA
100
AcDbEntity
  8
0
  6
CONTINUOUS
100
AcDbLine
 10
16.751727645058
 20
8.226607998415046
 30
0.0
 11
16.32914642058374
 21
8.649189222889303
 31
0.0
  0
LINE
  5
C023
330
BFDA
100
AcDbEntity
  8
0
  6
CONTINUOUS
100
AcDbLine
 10
20.75421273580989
 20
4.897642116743345
 30
0.0
 11
19.70536790264086
 21
5.946486949912374
 31
0.0
  0
LINE
  5
C024
330
BFDA
100
AcDbEntity
  8
0
  6
CONTINUOUS
100
AcDbLine
 10
20.95379348658502
 20
5.371580575048398
 30
0.0
 11
19.90489241027246
 21
6.42048165136096
 31
0.0
  0
LINE
  5
C025
330
BFDA
100
AcDbEntity
  8
0
  6
CONTINUOUS
100
AcDbLine
 10
21.15337423736015
 20
5.845519033353452
 30
0.0
 11
20.10441691790406
 21
6.894476352809547
 31
0.0
  0
LINE
  5
C026
330
BFDA
100
AcDbEntity
  8
0
  6
CONTINUOUS
100
AcDbLine
 10
21.35295498813529
 20
6.319457491658505
 30
0.0
 11
20.30394142553566
 21
7.368471054258134
 31
0.0
  0
LINE
  5
C027
330
BFDA
100
AcDbEntity
  8
0
  6
CONTINUOUS
100
AcDbLine
 10
21.55253573891042
 20
6.793395949963558
 30
0.0
 11
20.50346593316726
 21
7.842465755706721
 31
0.0
  0
LINE
  5
C028
330
BFDA
100
AcDbEntity
  8
0
  6
CONTINUOUS
100
AcDbLine
 10
21.75211648968556
 20
7.267334408268612
 30
0.0
 11
20.70299044079886
 21
8.316460457155308
 31
0.0
  0
LINE
  5
C029
330
BFDA
100
AcDbEntity
  8
0
  6
CONTINUOUS
100
AcDbLine
 10
21.95169724046069
 20
7.741272866573663
 30
0.0
 11
20.9298701070431
 21
8.763099999991256
 31
0.0
  0
LINE
  5
C02A
330
BFDA
100
AcDbEntity
  8
0
  6
CONTINUOUS
100
AcDbLine
 10
22.15127799123582
 20
8.215211324878716
 30
0.0
 11
21.60338931612328
 21
8.763099999991256
 31
0.0
  0
LINE
  5
C02B
330
BFDA
100
AcDbEntity
  8
0
  6
CONTINUOUS
100
AcDbLine
 10
22.35085874201096
 20
8.689149783183769
 30
0.0
 11
22.27690852520347
 21
8.763099999991255
 31
0.0
  0
ENDBLK
  5
C11D
330
BFDA
100
AcDbEntity
  8
0
100
AcDbBlockEnd
  0
BLOCK
  5
C11E
330
C02C
100
AcDbEntity
  8
0
100
AcDbBlockBegin
  2
*X44
 70
     1
 10
0.0
 20
0.0
 30
0.0
  3
*X44
  1

  0
LINE
  5
C02D
330
C02C
100
AcDbEntity
  8
0
  6
CONTINUOUS
100
AcDbLine
 10
23.19462913593892
 20
8.169917934846424
 30
0.0
 11
23.70775465517246
 21
8.683043454079957
 31
0.0
  0
LINE
  5
C02E
330
C02C
100
AcDbEntity
  8
0
  6
CONTINUOUS
100
AcDbLine
 10
22.64923161835078
 20
6.951001208178088
 30
0.0
 11
23.9159364069932
 21
8.217705996820516
 31
0.0
  0
LINE
  5
C02F
330
C02C
100
AcDbEntity
  8
0
  6
CONTINUOUS
100
AcDbLine
 10
22.10383410076263
 20
5.732084481509751
 30
0.0
 11
24.12411815881395
 21
7.752368539561078
 31
0.0
  0
LINE
  5
C030
330
C02C
100
AcDbEntity
  8
0
  6
CONTINUOUS
100
AcDbLine
 10
21.55843658317447
 20
4.513167754841414
 30
0.0
 11
24.3322999106347
 21
7.287031082301639
 31
0.0
  0
LINE
  5
C031
330
C02C
100
AcDbEntity
  8
0
  6
CONTINUOUS
100
AcDbLine
 10
21.01303906558632
 20
3.294251028173077
 30
0.0
 11
24.54048166245544
 21
6.821693625042199
 31
0.0
  0
LINE
  5
C032
330
C02C
100
AcDbEntity
  8
0
  6
CONTINUOUS
100
AcDbLine
 10
20.46764154799817
 20
2.075334301504738
 30
0.0
 11
23.28571549467848
 21
4.89340824818505
 31
0.0
  0
LINE
  5
C033
330
C02C
100
AcDbEntity
  8
0
  6
CONTINUOUS
100
AcDbLine
 10
19.92224403041002
 20
0.8564175748364002
 30
0.0
 11
22.74075865492779
 21
3.674932199354171
 31
0.0
  0
LINE
  5
C034
330
C02C
100
AcDbEntity
  8
0
  6
CONTINUOUS
100
AcDbLine
 10
23.67305085490148
 20
5.280743608408048
 30
0.0
 11
24.74866341427619
 21
6.356356167782759
 31
0.0
  0
LINE
  5
C035
330
C02C
100
AcDbEntity
  8
0
  6
CONTINUOUS
100
AcDbLine
 10
23.88118970842314
 20
4.815363252849522
 30
0.0
 11
24.95684516609694
 21
5.89101871052332
 31
0.0
  0
LINE
  5
C036
330
C02C
100
AcDbEntity
  8
0
  6
CONTINUOUS
100
AcDbLine
 10
19.73925852647308
 20
-0.0000871381807288
 30
0.0
 11
23.4103456646501
 21
3.670999999996297
 31
0.0
  0
LINE
  5
C037
330
C02C
100
AcDbEntity
  8
0
  6
CONTINUOUS
100
AcDbLine
 10
24.0893285619448
 20
4.349982897290997
 30
0.0
 11
25.16502691791769
 21
5.42568125326388
 31
0.0
  0
LINE
  5
C038
330
C02C
100
AcDbEntity
  8
0
  6
CONTINUOUS
100
AcDbLine
 10
20.41282099582748
 20
-0.0000438779065108
 30
0.0
 11
21.64944178675636
 21
1.236576913022366
 31
0.0
  0
LINE
  5
C039
330
C02C
100
AcDbEntity
  8
0
  6
CONTINUOUS
100
AcDbLine
 10
22.78126487373161
 20
2.36839999999762
 30
0.0
 11
24.08386487373029
 21
3.670999999996297
 31
0.0
  0
LINE
  5
C03A
330
C02C
100
AcDbEntity
  8
0
  6
CONTINUOUS
100
AcDbLine
 10
24.29746741546646
 20
3.884602541732471
 30
0.0
 11
25.37320866973843
 21
4.960343796004441
 31
0.0
  0
LINE
  5
C03B
330
C02C
100
AcDbEntity
  8
0
  6
CONTINUOUS
100
AcDbLine
 10
21.08638346518189
 20
-0.0000006176322938
 30
0.0
 11
21.10379033335899
 21
0.0174062505448083
 31
0.0
  0
LINE
  5
C03C
330
C02C
100
AcDbEntity
  8
0
  6
CONTINUOUS
100
AcDbLine
 10
23.4547840828118
 20
2.36839999999762
 30
0.0
 11
25.58139042155918
 21
4.495006338745002
 31
0.0
  0
LINE
  5
C03D
330
C02C
100
AcDbEntity
  8
0
  6
CONTINUOUS
100
AcDbLine
 10
29.30199999996933
 20
8.215615917155148
 30
0.0
 11
29.84948408280543
 21
8.763099999991255
 31
0.0
  0
LINE
  5
C03E
330
C02C
100
AcDbEntity
  8
0
  6
CONTINUOUS
100
AcDbLine
 10
24.12830329189199
 20
2.36839999999762
 30
0.0
 11
25.78957217337993
 21
4.029668881485562
 31
0.0
  0
LINE
  5
C03F
330
C02C
100
AcDbEntity
  8
0
  6
CONTINUOUS
100
AcDbLine
 10
29.30199999996933
 20
7.54209670807496
 30
0.0
 11
30.52300329188562
 21
8.763099999991255
 31
0.0
  0
LINE
  5
C040
330
C02C
100
AcDbEntity
  8
0
  6
CONTINUOUS
100
AcDbLine
 10
24.80182250097217
 20
2.36839999999762
 30
0.0
 11
25.99775392520067
 21
3.564331424226122
 31
0.0
  0
LINE
  5
C041
330
C02C
100
AcDbEntity
  8
0
  6
CONTINUOUS
100
AcDbLine
 10
29.30199999996933
 20
6.868577498994774
 30
0.0
 11
30.74199999996926
 21
8.308577498994712
 31
0.0
  0
LINE
  5
C042
330
C02C
100
AcDbEntity
  8
0
  6
CONTINUOUS
100
AcDbLine
 10
25.13028238392013
 20
2.023340673865392
 30
0.0
 11
26.20593567702142
 21
3.098993966966683
 31
0.0
  0
LINE
  5
C043
330
C02C
100
AcDbEntity
  8
0
  6
CONTINUOUS
100
AcDbLine
 10
25.33838066033617
 20
1.557919741201244
 30
0.0
 11
26.41411742884217
 21
2.633656509707244
 31
0.0
  0
LINE
  5
C044
330
C02C
100
AcDbEntity
  8
0
  6
CONTINUOUS
100
AcDbLine
 10
25.54647893675221
 20
1.092498808537098
 30
0.0
 11
26.62229918066291
 21
2.168319052447804
 31
0.0
  0
LINE
  5
C045
330
C02C
100
AcDbEntity
  8
0
  6
CONTINUOUS
100
AcDbLine
 10
25.75457721316825
 20
0.62707787587295
 30
0.0
 11
26.83048093248366
 21
1.702981595188365
 31
0.0
  0
LINE
  5
C046
330
C02C
100
AcDbEntity
  8
0
  6
CONTINUOUS
100
AcDbLine
 10
29.30199999996933
 20
6.195058289914587
 30
0.0
 11
30.74199999996926
 21
7.635058289914522
 31
0.0
  0
LINE
  5
C047
330
C02C
100
AcDbEntity
  8
0
  6
CONTINUOUS
100
AcDbLine
 10
29.30199999996933
 20
5.521539080834401
 30
0.0
 11
30.74199999996926
 21
6.961539080834331
 31
0.0
  0
LINE
  5
C048
330
C02C
100
AcDbEntity
  8
0
  6
CONTINUOUS
100
AcDbLine
 10
29.30199999996933
 20
4.848019871754214
 30
0.0
 11
30.74199999996925
 21
6.288019871754143
 31
0.0
  0
LINE
  5
C049
330
C02C
100
AcDbEntity
  8
0
  6
CONTINUOUS
100
AcDbLine
 10
29.30199999996933
 20
4.174500662674028
 30
0.0
 11
30.74199999996925
 21
5.614500662673953
 31
0.0
  0
LINE
  5
C04A
330
C02C
100
AcDbEntity
  8
0
  6
CONTINUOUS
100
AcDbLine
 10
25.96267548958429
 20
0.1616569432088024
 30
0.0
 11
27.18411854636669
 21
1.383099999991207
 31
0.0
  0
LINE
  5
C04B
330
C02C
100
AcDbEntity
  8
0
  6
CONTINUOUS
100
AcDbLine
 10
29.30199999996933
 20
3.500981453593841
 30
0.0
 11
30.74199999996925
 21
4.940981453593762
 31
0.0
  0
LINE
  5
C04C
330
C02C
100
AcDbEntity
  8
0
  6
CONTINUOUS
100
AcDbLine
 10
26.50763775544691
 20
0.0330999999912356
 30
0.0
 11
27.85763775544689
 21
1.383099999991223
 31
0.0
  0
LINE
  5
C04D
330
C02C
100
AcDbEntity
  8
0
  6
CONTINUOUS
100
AcDbLine
 10
29.30199999996933
 20
2.827462244513656
 30
0.0
 11
30.74199999996925
 21
4.267462244513574
 31
0.0
  0
LINE
  5
C04E
330
C02C
100
AcDbEntity
  8
0
  6
CONTINUOUS
100
AcDbLine
 10
27.18115696452709
 20
0.0330999999912356
 30
0.0
 11
28.55073879889363
 21
1.402681834357775
 31
0.0
  0
LINE
  5
C04F
330
C02C
100
AcDbEntity
  8
0
  6
CONTINUOUS
100
AcDbLine
 10
29.28241816560272
 20
2.134361201066866
 30
0.0
 11
30.74199999996924
 21
3.593943035433383
 31
0.0
  0
LINE
  5
C050
330
C02C
100
AcDbEntity
  8
0
  6
CONTINUOUS
100
AcDbLine
 10
27.85467617360728
 20
0.0330999999912356
 30
0.0
 11
30.74199999996924
 21
2.920423826353195
 31
0.0
  0
LINE
  5
C051
330
C02C
100
AcDbEntity
  8
0
  6
CONTINUOUS
100
AcDbLine
 10
28.53897559587887
 20
0.0438802131826428
 30
0.0
 11
30.73121978677781
 21
2.236124404081585
 31
0.0
  0
LINE
  5
C052
330
C02C
100
AcDbEntity
  8
0
  6
CONTINUOUS
100
AcDbLine
 10
29.45140055588722
 20
0.2827859641107988
 30
0.0
 11
30.49231403584965
 21
1.323699444073236
 31
0.0
  0
LINE
  5
C053
330
C02C
100
AcDbEntity
  8
0
  6
CONTINUOUS
100
AcDbLine
 10
19.59027867740337
 20
-0.0000967065718083
 30
0.0
 11
19.55485265190471
 21
0.035329318926844
 31
0.0
  0
LINE
  5
C054
330
C02C
100
AcDbEntity
  8
0
  6
CONTINUOUS
100
AcDbLine
 10
20.26375463176586
 20
-0.0000534518541091
 30
0.0
 11
19.76305575737534
 21
0.5006454225364014
 31
0.0
  0
LINE
  5
C055
330
C02C
100
AcDbEntity
  8
0
  6
CONTINUOUS
100
AcDbLine
 10
20.93723058612834
 20
-0.0000101971364099
 30
0.0
 11
19.97125886284597
 21
0.965961526145958
 31
0.0
  0
LINE
  5
C056
330
C02C
100
AcDbEntity
  8
0
  6
CONTINUOUS
100
AcDbLine
 10
21.25514828313686
 20
0.355591314935257
 30
0.0
 11
20.1794619683166
 21
1.431277629755512
 31
0.0
  0
LINE
  5
C057
330
C02C
100
AcDbEntity
  8
0
  6
CONTINUOUS
100
AcDbLine
 10
21.46338838394921
 20
0.8208704232030986
 30
0.0
 11
20.38766507378723
 21
1.896593733365069
 31
0.0
  0
LINE
  5
C058
330
C02C
100
AcDbEntity
  8
0
  6
CONTINUOUS
100
AcDbLine
 10
21.67162848476155
 20
1.28614953147094
 30
0.0
 11
20.59586817925786
 21
2.361909836974626
 31
0.0
  0
LINE
  5
C059
330
C02C
100
AcDbEntity
  8
0
  6
CONTINUOUS
100
AcDbLine
 10
21.8798685855739
 20
1.751428639738782
 30
0.0
 11
20.80407128472849
 21
2.827225940584183
 31
0.0
  0
LINE
  5
C05A
330
C02C
100
AcDbEntity
  8
0
  6
CONTINUOUS
100
AcDbLine
 10
22.08810868638624
 20
2.216707748006623
 30
0.0
 11
21.01227439019912
 21
3.292542044193739
 31
0.0
  0
LINE
  5
C05B
330
C02C
100
AcDbEntity
  8
0
  6
CONTINUOUS
100
AcDbLine
 10
22.60993564347543
 20
2.36839999999762
 30
0.0
 11
21.22047749566975
 21
3.757858147803296
 31
0.0
  0
LINE
  5
C05C
330
C02C
100
AcDbEntity
  8
0
  6
CONTINUOUS
100
AcDbLine
 10
23.28345485255561
 20
2.36839999999762
 30
0.0
 11
21.42868060114038
 21
4.223174251412853
 31
0.0
  0
LINE
  5
C05D
330
C02C
100
AcDbEntity
  8
0
  6
CONTINUOUS
100
AcDbLine
 10
26.29227406164219
 20
0.0330999999912356
 30
0.0
 11
25.80009199592872
 21
0.5252820657046957
 31
0.0
  0
LINE
  5
C05E
330
C02C
100
AcDbEntity
  8
0
  6
CONTINUOUS
100
AcDbLine
 10
23.9569740616358
 20
2.36839999999762
 30
0.0
 11
21.63688370661101
 21
4.688490355022409
 31
0.0
  0
LINE
  5
C05F
330
C02C
100
AcDbEntity
  8
0
  6
CONTINUOUS
100
AcDbLine
 10
26.96579327072237
 20
0.0330999999912356
 30
0.0
 11
25.2554132311971
 21
1.743480039516508
 31
0.0
  0
LINE
  5
C060
330
C02C
100
AcDbEntity
  8
0
  6
CONTINUOUS
100
AcDbLine
 10
24.63049327071599
 20
2.36839999999762
 30
0.0
 11
23.32789327071731
 21
3.670999999996297
 31
0.0
  0
LINE
  5
C061
330
C02C
100
AcDbEntity
  8
0
  6
CONTINUOUS
100
AcDbLine
 10
22.92098674744635
 20
4.077906523267254
 30
0.0
 11
21.84508681208164
 21
5.153806458631966
 31
0.0
  0
LINE
  5
C062
330
C02C
100
AcDbEntity
  8
0
  6
CONTINUOUS
100
AcDbLine
 10
27.63931247980256
 20
0.0330999999912356
 30
0.0
 11
24.0014124797975
 21
3.670999999996297
 31
0.0
  0
LINE
  5
C063
330
C02C
100
AcDbEntity
  8
0
  6
CONTINUOUS
100
AcDbLine
 10
23.129125600968
 20
4.5432868788258
 30
0.0
 11
22.05328991755227
 21
5.619122562241522
 31
0.0
  0
LINE
  5
C064
330
C02C
100
AcDbEntity
  8
0
  6
CONTINUOUS
100
AcDbLine
 10
28.31283168888275
 20
0.0330999999912356
 30
0.0
 11
24.16488385994816
 21
4.181047828925828
 31
0.0
  0
LINE
  5
C065
330
C02C
100
AcDbEntity
  8
0
  6
CONTINUOUS
100
AcDbLine
 10
23.33726445448964
 20
5.008667234384345
 30
0.0
 11
22.2614930230229
 21
6.084438665851079
 31
0.0
  0
LINE
  5
C066
330
C02C
100
AcDbEntity
  8
0
  6
CONTINUOUS
100
AcDbLine
 10
28.92085740005492
 20
0.0985934978992438
 30
0.0
 11
27.63635089796295
 21
1.383099999991217
 31
0.0
  0
LINE
  5
C067
330
C02C
100
AcDbEntity
  8
0
  6
CONTINUOUS
100
AcDbLine
 10
26.43704649509776
 20
2.582404402856405
 30
0.0
 11
23.61992702019732
 21
5.399523877756844
 31
0.0
  0
LINE
  5
C068
330
C02C
100
AcDbEntity
  8
0
  6
CONTINUOUS
100
AcDbLine
 10
23.54540330801128
 20
5.47404758994289
 30
0.0
 11
22.46969612849353
 21
6.549754769460635
 31
0.0
  0
LINE
  5
C069
330
C02C
100
AcDbEntity
  8
0
  6
CONTINUOUS
100
AcDbLine
 10
29.42225615078443
 20
0.2707139562499279
 30
0.0
 11
28.30987010704312
 21
1.383099999991234
 31
0.0
  0
LINE
  5
C06A
330
C02C
100
AcDbEntity
  8
0
  6
CONTINUOUS
100
AcDbLine
 10
25.89179548232307
 20
3.801174624711282
 30
0.0
 11
22.67789923396416
 21
7.015070873070191
 31
0.0
  0
LINE
  5
C06B
330
C02C
100
AcDbEntity
  8
0
  6
CONTINUOUS
100
AcDbLine
 10
29.83624534690007
 20
0.5302439692144705
 30
0.0
 11
28.85811781497101
 21
1.508371501143527
 31
0.0
  0
LINE
  5
C06C
330
C02C
100
AcDbEntity
  8
0
  6
CONTINUOUS
100
AcDbLine
 10
25.34654446954838
 20
5.01994484656616
 30
0.0
 11
22.88610233943479
 21
7.480386976679748
 31
0.0
  0
LINE
  5
C06D
330
C02C
100
AcDbEntity
  8
0
  6
CONTINUOUS
100
AcDbLine
 10
30.17865975401872
 20
0.8613487711760022
 30
0.0
 11
29.18888744090175
 21
1.851121084292977
 31
0.0
  0
LINE
  5
C06E
330
C02C
100
AcDbEntity
  8
0
  6
CONTINUOUS
100
AcDbLine
 10
24.80129345677369
 20
6.238715068421037
 30
0.0
 11
23.09430544490542
 21
7.945703080289305
 31
0.0
  0
LINE
  5
C06F
330
C02C
100
AcDbEntity
  8
0
  6
CONTINUOUS
100
AcDbLine
 10
30.45496647202376
 20
1.258561262251155
 30
0.0
 11
29.30199999996933
 21
2.411527734305588
 31
0.0
  0
LINE
  5
C070
330
C02C
100
AcDbEntity
  8
0
  6
CONTINUOUS
100
AcDbLine
 10
24.256042443999
 20
7.457485290275915
 30
0.0
 11
23.30250855037605
 21
8.411019183898862
 31
0.0
  0
LINE
  5
C071
330
C02C
100
AcDbEntity
  8
0
  6
CONTINUOUS
100
AcDbLine
 10
30.64868582078271
 20
1.738361122572387
 30
0.0
 11
29.30199999996933
 21
3.085046943385775
 31
0.0
  0
LINE
  5
C072
330
C02C
100
AcDbEntity
  8
0
  6
CONTINUOUS
100
AcDbLine
 10
23.71079143122431
 20
8.676255512130794
 30
0.0
 11
23.51071165584668
 21
8.876335287508416
 31
0.0
  0
LINE
  5
C073
330
C02C
100
AcDbEntity
  8
0
  6
CONTINUOUS
100
AcDbLine
 10
30.73802122914428
 20
2.322544923291007
 30
0.0
 11
29.30199999996933
 21
3.758566152465961
 31
0.0
  0
LINE
  5
C074
330
C02C
100
AcDbEntity
  8
0
  6
CONTINUOUS
100
AcDbLine
 10
30.74199999996924
 20
2.992085361546236
 30
0.0
 11
29.30199999996933
 21
4.432085361546148
 31
0.0
  0
LINE
  5
C075
330
C02C
100
AcDbEntity
  8
0
  6
CONTINUOUS
100
AcDbLine
 10
30.74199999996924
 20
3.665604570626419
 30
0.0
 11
29.30199999996933
 21
5.105604570626333
 31
0.0
  0
LINE
  5
C076
330
C02C
100
AcDbEntity
  8
0
  6
CONTINUOUS
100
AcDbLine
 10
30.74199999996925
 20
4.339123779706602
 30
0.0
 11
29.30199999996933
 21
5.77912377970652
 31
0.0
  0
LINE
  5
C077
330
C02C
100
AcDbEntity
  8
0
  6
CONTINUOUS
100
AcDbLine
 10
30.74199999996925
 20
5.012642988786785
 30
0.0
 11
29.30199999996933
 21
6.452642988786707
 31
0.0
  0
LINE
  5
C078
330
C02C
100
AcDbEntity
  8
0
  6
CONTINUOUS
100
AcDbLine
 10
30.74199999996925
 20
5.68616219786697
 30
0.0
 11
29.30199999996933
 21
7.126162197866894
 31
0.0
  0
LINE
  5
C079
330
C02C
100
AcDbEntity
  8
0
  6
CONTINUOUS
100
AcDbLine
 10
30.74199999996925
 20
6.359681406947153
 30
0.0
 11
29.30199999996933
 21
7.799681406947081
 31
0.0
  0
LINE
  5
C07A
330
C02C
100
AcDbEntity
  8
0
  6
CONTINUOUS
100
AcDbLine
 10
30.74199999996926
 20
7.033200616027337
 30
0.0
 11
29.30199999996933
 21
8.473200616027269
 31
0.0
  0
LINE
  5
C07B
330
C02C
100
AcDbEntity
  8
0
  6
CONTINUOUS
100
AcDbLine
 10
30.74199999996926
 20
7.706719825107518
 30
0.0
 11
29.68561982508552
 21
8.763099999991255
 31
0.0
  0
LINE
  5
C07C
330
C02C
100
AcDbEntity
  8
0
  6
CONTINUOUS
100
AcDbLine
 10
30.74199999996926
 20
8.380239034187703
 30
0.0
 11
30.35913903416571
 21
8.763099999991255
 31
0.0
  0
ENDBLK
  5
C11F
330
C02C
100
AcDbEntity
  8
0
100
AcDbBlockEnd
  0
BLOCK
  5
C120
330
C07D
100
AcDbEntity
  8
0
100
AcDbBlockBegin
  2
*X45
 70
     1
 10
0.0
 20
0.0
 30
0.0
  3
*X45
  1

  0
LINE
  5
C07E
330
C07D
100
AcDbEntity
  8
0
  6
CONTINUOUS
100
AcDbLine
 10
31.64199999996833
 20
8.535058289913598
 30
0.0
 11
31.87004171004599
 21
8.763099999991255
 31
0.0
  0
LINE
  5
C07F
330
C07D
100
AcDbEntity
  8
0
  6
CONTINUOUS
100
AcDbLine
 10
31.64199999996833
 20
7.861539080833412
 30
0.0
 11
32.54356091912618
 21
8.763099999991255
 31
0.0
  0
LINE
  5
C080
330
C07D
100
AcDbEntity
  8
0
  6
CONTINUOUS
100
AcDbLine
 10
31.64199999996833
 20
7.188019871753226
 30
0.0
 11
33.08199999996839
 21
8.628019871753281
 31
0.0
  0
LINE
  5
C081
330
C07D
100
AcDbEntity
  8
0
  6
CONTINUOUS
100
AcDbLine
 10
31.64199999996833
 20
6.51450066267304
 30
0.0
 11
33.08199999996839
 21
7.954500662673095
 31
0.0
  0
LINE
  5
C082
330
C07D
100
AcDbEntity
  8
0
  6
CONTINUOUS
100
AcDbLine
 10
31.64199999996833
 20
5.840981453592853
 30
0.0
 11
33.08199999996839
 21
7.280981453592908
 31
0.0
  0
LINE
  5
C083
330
C07D
100
AcDbEntity
  8
0
  6
CONTINUOUS
100
AcDbLine
 10
31.64199999996833
 20
5.167462244512667
 30
0.0
 11
33.08199999996839
 21
6.607462244512721
 31
0.0
  0
LINE
  5
C084
330
C07D
100
AcDbEntity
  8
0
  6
CONTINUOUS
100
AcDbLine
 10
31.64199999996833
 20
4.493943035432481
 30
0.0
 11
33.08199999996839
 21
5.933943035432535
 31
0.0
  0
LINE
  5
C085
330
C07D
100
AcDbEntity
  8
0
  6
CONTINUOUS
100
AcDbLine
 10
31.64199999996833
 20
3.820423826352293
 30
0.0
 11
33.08199999996839
 21
5.260423826352348
 31
0.0
  0
LINE
  5
C086
330
C07D
100
AcDbEntity
  8
0
  6
CONTINUOUS
100
AcDbLine
 10
31.64199999996833
 20
3.146904617272106
 30
0.0
 11
33.08199999996839
 21
4.586904617272161
 31
0.0
  0
LINE
  5
C087
330
C07D
100
AcDbEntity
  8
0
  6
CONTINUOUS
100
AcDbLine
 10
36.23199999996837
 20
8.410423826352325
 30
0.0
 11
36.5846761736073
 21
8.763099999991255
 31
0.0
  0
LINE
  5
C088
330
C07D
100
AcDbEntity
  8
0
  6
CONTINUOUS
100
AcDbLine
 10
36.23199999996837
 20
7.73690461727214
 30
0.0
 11
37.25819538268748
 21
8.763099999991255
 31
0.0
  0
LINE
  5
C089
330
C07D
100
AcDbEntity
  8
0
  6
CONTINUOUS
100
AcDbLine
 10
31.64257403601376
 20
2.473959444237348
 30
0.0
 11
33.08199999996839
 21
3.913385408191974
 31
0.0
  0
LINE
  5
C08A
330
C07D
100
AcDbEntity
  8
0
  6
CONTINUOUS
100
AcDbLine
 10
36.23199999996837
 20
7.063385408191953
 30
0.0
 11
37.67199999996831
 21
8.503385408191894
 31
0.0
  0
LINE
  5
C08B
330
C07D
100
AcDbEntity
  8
0
  6
CONTINUOUS
100
AcDbLine
 10
31.72013636841932
 20
1.87800256756272
 30
0.0
 11
33.08199999996839
 21
3.239866199111788
 31
0.0
  0
LINE
  5
C08C
330
C07D
100
AcDbEntity
  8
0
  6
CONTINUOUS
100
AcDbLine
 10
36.23199999996837
 20
6.389866199111767
 30
0.0
 11
37.67199999996831
 21
7.829866199111708
 31
0.0
  0
LINE
  5
C08D
330
C07D
100
AcDbEntity
  8
0
  6
CONTINUOUS
100
AcDbLine
 10
31.89042734314753
 20
1.374774333210744
 30
0.0
 11
33.08199999996839
 21
2.566346990031601
 31
0.0
  0
LINE
  5
C08E
330
C07D
100
AcDbEntity
  8
0
  6
CONTINUOUS
100
AcDbLine
 10
36.23199999996837
 20
5.71634699003158
 30
0.0
 11
37.67199999996831
 21
7.156346990031521
 31
0.0
  0
LINE
  5
C08F
330
C07D
100
AcDbEntity
  8
0
  6
CONTINUOUS
100
AcDbLine
 10
32.14210568064475
 20
0.952933461627778
 30
0.0
 11
33.18745552475986
 21
1.998283305742888
 31
0.0
  0
LINE
  5
C090
330
C07D
100
AcDbEntity
  8
0
  6
CONTINUOUS
100
AcDbLine
 10
36.23199999996837
 20
5.042827780951393
 30
0.0
 11
37.67199999996831
 21
6.482827780951334
 31
0.0
  0
LINE
  5
C091
330
C07D
100
AcDbEntity
  8
0
  6
CONTINUOUS
100
AcDbLine
 10
32.45820639400955
 20
0.5955149659123915
 30
0.0
 11
33.47242681921943
 21
1.60973539112227
 31
0.0
  0
LINE
  5
C092
330
C07D
100
AcDbEntity
  8
0
  6
CONTINUOUS
100
AcDbLine
 10
36.23199999996837
 20
4.369308571871207
 30
0.0
 11
37.67199999996831
 21
5.809308571871147
 31
0.0
  0
LINE
  5
C093
330
C07D
100
AcDbEntity
  8
0
  6
CONTINUOUS
100
AcDbLine
 10
32.83432456621412
 20
0.2981139290367771
 30
0.0
 11
33.89722476612215
 21
1.361014128944803
 31
0.0
  0
LINE
  5
C094
330
C07D
100
AcDbEntity
  8
0
  6
CONTINUOUS
100
AcDbLine
 10
36.23199999996837
 20
3.69578936279102
 30
0.0
 11
37.67199999996831
 21
5.135789362790962
 31
0.0
  0
LINE
  5
C095
330
C07D
100
AcDbEntity
  8
0
  6
CONTINUOUS
100
AcDbLine
 10
33.2711633111245
 20
0.0614334648669672
 30
0.0
 11
34.43247338014423
 21
1.222743533886696
 31
0.0
  0
LINE
  5
C096
330
C07D
100
AcDbEntity
  8
0
  6
CONTINUOUS
100
AcDbLine
 10
36.23199999996837
 20
3.022270153710834
 30
0.0
 11
37.67199999996831
 21
4.462270153710775
 31
0.0
  0
LINE
  5
C097
330
C07D
100
AcDbEntity
  8
0
  6
CONTINUOUS
100
AcDbLine
 10
33.76515245874577
 20
-0.1180965965919523
 30
0.0
 11
35.1587445516215
 21
1.27549549628378
 31
0.0
  0
LINE
  5
C098
330
C07D
100
AcDbEntity
  8
0
  6
CONTINUOUS
100
AcDbLine
 10
36.21639478609585
 20
2.333145730758136
 30
0.0
 11
37.67199999996831
 21
3.788750944630588
 31
0.0
  0
LINE
  5
C099
330
C07D
100
AcDbEntity
  8
0
  6
CONTINUOUS
100
AcDbLine
 10
34.34060583368432
 20
-0.2161624307335863
 30
0.0
 11
37.67199999996831
 21
3.115231735550401
 31
0.0
  0
LINE
  5
C09A
330
C07D
100
AcDbEntity
  8
0
  6
CONTINUOUS
100
AcDbLine
 10
35.01698193613905
 20
-0.2133055373590427
 30
0.0
 11
37.66876712070525
 21
2.438479647207154
 31
0.0
  0
LINE
  5
C09B
330
C07D
100
AcDbEntity
  8
0
  6
CONTINUOUS
100
AcDbLine
 10
35.90743367693304
 20
0.0036269943547609
 30
0.0
 11
37.51723902192366
 21
1.613432339345381
 31
0.0
  0
LINE
  5
C09C
330
C07D
100
AcDbEntity
  8
0
  6
CONTINUOUS
100
AcDbLine
 10
32.55309425579761
 20
0.5074718966376706
 30
0.0
 11
32.27784730925847
 21
0.7827188431768102
 31
0.0
  0
LINE
  5
C09D
330
C07D
100
AcDbEntity
  8
0
  6
CONTINUOUS
100
AcDbLine
 10
33.87496468909684
 20
-0.1408793275813673
 30
0.0
 11
31.67993083278052
 21
2.054154528734943
 31
0.0
  0
LINE
  5
C09E
330
C07D
100
AcDbEntity
  8
0
  6
CONTINUOUS
100
AcDbLine
 10
34.64362813207632
 20
-0.2360235614806649
 30
0.0
 11
31.64199999996833
 21
2.765604570627322
 31
0.0
  0
LINE
  5
C09F
330
C07D
100
AcDbEntity
  8
0
  6
CONTINUOUS
100
AcDbLine
 10
35.25801106796118
 20
-0.1768872882853429
 30
0.0
 11
31.64199999996833
 21
3.439123779707508
 31
0.0
  0
LINE
  5
C0A0
330
C07D
100
AcDbEntity
  8
0
  6
CONTINUOUS
100
AcDbLine
 10
35.79065650332146
 20
-0.0360135145654361
 30
0.0
 11
34.54143210838231
 21
1.213210880373721
 31
0.0
  0
LINE
  5
C0A1
330
C07D
100
AcDbEntity
  8
0
  6
CONTINUOUS
100
AcDbLine
 10
33.08199999996839
 20
2.67264298878764
 30
0.0
 11
31.64199999996833
 21
4.112642988787695
 31
0.0
  0
LINE
  5
C0A2
330
C07D
100
AcDbEntity
  8
0
  6
CONTINUOUS
100
AcDbLine
 10
36.25975597779143
 20
0.1684062200447833
 30
0.0
 11
35.15395110240023
 21
1.274211095435983
 31
0.0
  0
LINE
  5
C0A3
330
C07D
100
AcDbEntity
  8
0
  6
CONTINUOUS
100
AcDbLine
 10
33.08199999996839
 20
3.346162197867826
 30
0.0
 11
31.64199999996833
 21
4.786162197867881
 31
0.0
  0
LINE
  5
C0A4
330
C07D
100
AcDbEntity
  8
0
  6
CONTINUOUS
100
AcDbLine
 10
36.67226329638774
 20
0.4294181105286579
 30
0.0
 11
35.63766478748767
 21
1.464016619428737
 31
0.0
  0
LINE
  5
C0A5
330
C07D
100
AcDbEntity
  8
0
  6
CONTINUOUS
100
AcDbLine
 10
33.08199999996839
 20
4.019681406948012
 30
0.0
 11
31.64199999996833
 21
5.459681406948068
 31
0.0
  0
LINE
  5
C0A6
330
C07D
100
AcDbEntity
  8
0
  6
CONTINUOUS
100
AcDbLine
 10
37.01677749710036
 20
0.7584231188962329
 30
0.0
 11
35.99563422741351
 21
1.779566388583076
 31
0.0
  0
LINE
  5
C0A7
330
C07D
100
AcDbEntity
  8
0
  6
CONTINUOUS
100
AcDbLine
 10
33.08199999996839
 20
4.693200616028199
 30
0.0
 11
31.64199999996833
 21
6.133200616028255
 31
0.0
  0
LINE
  5
C0A8
330
C07D
100
AcDbEntity
  8
0
  6
CONTINUOUS
100
AcDbLine
 10
37.29859977568887
 20
1.1501200493879
 30
0.0
 11
36.20680593341555
 21
2.241913891661226
 31
0.0
  0
LINE
  5
C0A9
330
C07D
100
AcDbEntity
  8
0
  6
CONTINUOUS
100
AcDbLine
 10
33.08199999996839
 20
5.366719825108386
 30
0.0
 11
31.64199999996833
 21
6.80671982510844
 31
0.0
  0
LINE
  5
C0AA
330
C07D
100
AcDbEntity
  8
0
  6
CONTINUOUS
100
AcDbLine
 10
37.5148623517228
 20
1.607376682434161
 30
0.0
 11
36.23199999996837
 21
2.890239034188594
 31
0.0
  0
LINE
  5
C0AB
330
C07D
100
AcDbEntity
  8
0
  6
CONTINUOUS
100
AcDbLine
 10
33.08199999996839
 20
6.040239034188573
 30
0.0
 11
31.64199999996833
 21
7.480239034188627
 31
0.0
  0
LINE
  5
C0AC
330
C07D
100
AcDbEntity
  8
0
  6
CONTINUOUS
100
AcDbLine
 10
37.64705163358367
 20
2.148706609653477
 30
0.0
 11
36.23199999996837
 21
3.56375824326878
 31
0.0
  0
LINE
  5
C0AD
330
C07D
100
AcDbEntity
  8
0
  6
CONTINUOUS
100
AcDbLine
 10
33.08199999996839
 20
6.713758243268758
 30
0.0
 11
31.64199999996833
 21
8.153758243268815
 31
0.0
  0
LINE
  5
C0AE
330
C07D
100
AcDbEntity
  8
0
  6
CONTINUOUS
100
AcDbLine
 10
37.67199999996831
 20
2.797277452349026
 30
0.0
 11
36.23199999996837
 21
4.237277452348967
 31
0.0
  0
LINE
  5
C0AF
330
C07D
100
AcDbEntity
  8
0
  6
CONTINUOUS
100
AcDbLine
 10
37.67199999996831
 20
3.470796661429213
 30
0.0
 11
36.23199999996837
 21
4.910796661429154
 31
0.0
  0
LINE
  5
C0B0
330
C07D
100
AcDbEntity
  8
0
  6
CONTINUOUS
100
AcDbLine
 10
37.67199999996831
 20
4.144315870509399
 30
0.0
 11
36.23199999996837
 21
5.58431587050934
 31
0.0
  0
LINE
  5
C0B1
330
C07D
100
AcDbEntity
  8
0
  6
CONTINUOUS
100
AcDbLine
 10
33.08199999996839
 20
7.387277452348945
 30
0.0
 11
31.70617745232608
 21
8.763099999991255
 31
0.0
  0
LINE
  5
C0B2
330
C07D
100
AcDbEntity
  8
0
  6
CONTINUOUS
100
AcDbLine
 10
33.08199999996839
 20
8.060796661429132
 30
0.0
 11
32.37969666140626
 21
8.763099999991255
 31
0.0
  0
LINE
  5
C0B3
330
C07D
100
AcDbEntity
  8
0
  6
CONTINUOUS
100
AcDbLine
 10
33.08199999996839
 20
8.734315870509318
 30
0.0
 11
33.05321587048645
 21
8.763099999991255
 31
0.0
  0
LINE
  5
C0B4
330
C07D
100
AcDbEntity
  8
0
  6
CONTINUOUS
100
AcDbLine
 10
37.67199999996831
 20
4.817835079589585
 30
0.0
 11
36.23199999996837
 21
6.257835079589526
 31
0.0
  0
LINE
  5
C0B5
330
C07D
100
AcDbEntity
  8
0
  6
CONTINUOUS
100
AcDbLine
 10
37.67199999996831
 20
5.491354288669771
 30
0.0
 11
36.23199999996837
 21
6.931354288669713
 31
0.0
  0
LINE
  5
C0B6
330
C07D
100
AcDbEntity
  8
0
  6
CONTINUOUS
100
AcDbLine
 10
37.67199999996831
 20
6.164873497749958
 30
0.0
 11
36.23199999996837
 21
7.6048734977499
 31
0.0
  0
LINE
  5
C0B7
330
C07D
100
AcDbEntity
  8
0
  6
CONTINUOUS
100
AcDbLine
 10
37.67199999996831
 20
6.838392706830144
 30
0.0
 11
36.23199999996837
 21
8.278392706830086
 31
0.0
  0
LINE
  5
C0B8
330
C07D
100
AcDbEntity
  8
0
  6
CONTINUOUS
100
AcDbLine
 10
37.67199999996831
 20
7.511911915910332
 30
0.0
 11
36.42081191588738
 21
8.763099999991255
 31
0.0
  0
LINE
  5
C0B9
330
C07D
100
AcDbEntity
  8
0
  6
CONTINUOUS
100
AcDbLine
 10
37.67199999996831
 20
8.185431124990519
 30
0.0
 11
37.09433112496757
 21
8.763099999991255
 31
0.0
  0
ENDBLK
  5
C121
330
C07D
100
AcDbEntity
  8
0
100
AcDbBlockEnd
  0
BLOCK
  5
C122
330
C0BA
100
AcDbEntity
  8
0
100
AcDbBlockBegin
  2
*X46
 70
     1
 10
0.0
 20
0.0
 30
0.0
  3
*X46
  1

  0
LINE
  5
C0BB
330
C0BA
100
AcDbEntity
  8
0
  6
CONTINUOUS
100
AcDbLine
 10
38.60499999996136
 20
8.762866199104765
 30
0.0
 11
38.71672554182345
 21
8.874591740966855
 31
0.0
  0
LINE
  5
C0BC
330
C0BA
100
AcDbEntity
  8
0
  6
CONTINUOUS
100
AcDbLine
 10
38.60499999996136
 20
8.089346990024577
 30
0.0
 11
39.03418785440363
 21
8.518534844466847
 31
0.0
  0
LINE
  5
C0BD
330
C0BA
100
AcDbEntity
  8
0
  6
CONTINUOUS
100
AcDbLine
 10
38.60499999996136
 20
7.41582778094439
 30
0.0
 11
39.35165016698382
 21
8.16247794796684
 31
0.0
  0
LINE
  5
C0BE
330
C0BA
100
AcDbEntity
  8
0
  6
CONTINUOUS
100
AcDbLine
 10
38.60499999996136
 20
6.742308571864204
 30
0.0
 11
39.66911247956399
 21
7.806421051466834
 31
0.0
  0
LINE
  5
C0BF
330
C0BA
100
AcDbEntity
  8
0
  6
CONTINUOUS
100
AcDbLine
 10
38.60499999996136
 20
6.068789362784018
 30
0.0
 11
39.98657479214418
 21
7.450364154966827
 31
0.0
  0
LINE
  5
C0C0
330
C0BA
100
AcDbEntity
  8
0
  6
CONTINUOUS
100
AcDbLine
 10
38.60499999996136
 20
5.395270153703832
 30
0.0
 11
40.30403710472435
 21
7.09430725846682
 31
0.0
  0
LINE
  5
C0C1
330
C0BA
100
AcDbEntity
  8
0
  6
CONTINUOUS
100
AcDbLine
 10
38.60499999996136
 20
4.721750944623645
 30
0.0
 11
40.62149941730453
 21
6.738250361966813
 31
0.0
  0
LINE
  5
C0C2
330
C0BA
100
AcDbEntity
  8
0
  6
CONTINUOUS
100
AcDbLine
 10
38.60499999996136
 20
4.048231735543458
 30
0.0
 11
40.93896172988471
 21
6.382193465466806
 31
0.0
  0
LINE
  5
C0C3
330
C0BA
100
AcDbEntity
  8
0
  6
CONTINUOUS
100
AcDbLine
 10
38.60499999996136
 20
3.374712526463272
 30
0.0
 11
40.02599999995994
 21
4.795712526461843
 31
0.0
  0
LINE
  5
C0C4
330
C0BA
100
AcDbEntity
  8
0
  6
CONTINUOUS
100
AcDbLine
 10
38.60499999996136
 20
2.701193317383085
 30
0.0
 11
40.02599999995994
 21
4.122193317381657
 31
0.0
  0
LINE
  5
C0C5
330
C0BA
100
AcDbEntity
  8
0
  6
CONTINUOUS
100
AcDbLine
 10
40.28339754687704
 20
5.053110073378947
 30
0.0
 11
41.25642404246489
 21
6.026136568966799
 31
0.0
  0
LINE
  5
C0C6
330
C0BA
100
AcDbEntity
  8
0
  6
CONTINUOUS
100
AcDbLine
 10
40.60085985945722
 20
4.697053176878939
 30
0.0
 11
41.57388635504507
 21
5.670079672466793
 31
0.0
  0
LINE
  5
C0C7
330
C0BA
100
AcDbEntity
  8
0
  6
CONTINUOUS
100
AcDbLine
 10
43.57899999995641
 20
8.348712526458318
 30
0.0
 11
43.99338747348935
 21
8.763099999991255
 31
0.0
  0
LINE
  5
C0C8
330
C0BA
100
AcDbEntity
  8
0
  6
CONTINUOUS
100
AcDbLine
 10
43.57899999995641
 20
7.675193317378131
 30
0.0
 11
44.66690668256953
 21
8.763099999991255
 31
0.0
  0
LINE
  5
C0C9
330
C0BA
100
AcDbEntity
  8
0
  6
CONTINUOUS
100
AcDbLine
 10
38.60499999996136
 20
2.027674108302898
 30
0.0
 11
40.02599999995994
 21
3.44867410830147
 31
0.0
  0
LINE
  5
C0CA
330
C0BA
100
AcDbEntity
  8
0
  6
CONTINUOUS
100
AcDbLine
 10
38.60499999996136
 20
1.354154899222712
 30
0.0
 11
40.02599999995994
 21
2.775154899221284
 31
0.0
  0
LINE
  5
C0CB
330
C0BA
100
AcDbEntity
  8
0
  6
CONTINUOUS
100
AcDbLine
 10
38.60499999996136
 20
0.6806356901425255
 30
0.0
 11
40.02599999995994
 21
2.101635690141098
 31
0.0
  0
LINE
  5
C0CC
330
C0BA
100
AcDbEntity
  8
0
  6
CONTINUOUS
100
AcDbLine
 10
38.60499999996136
 20
0.0071164810623383
 30
0.0
 11
40.02599999995994
 21
1.428116481060911
 31
0.0
  0
LINE
  5
C0CD
330
C0BA
100
AcDbEntity
  8
0
  6
CONTINUOUS
100
AcDbLine
 10
40.9183221720374
 20
4.340996280378933
 30
0.0
 11
41.89134866762525
 21
5.314022775966786
 31
0.0
  0
LINE
  5
C0CE
330
C0BA
100
AcDbEntity
  8
0
  6
CONTINUOUS
100
AcDbLine
 10
41.23578448461758
 20
3.984939383878926
 30
0.0
 11
42.20881098020543
 21
4.957965879466778
 31
0.0
  0
LINE
  5
C0CF
330
C0BA
100
AcDbEntity
  8
0
  6
CONTINUOUS
100
AcDbLine
 10
41.55324679719776
 20
3.628882487378919
 30
0.0
 11
42.52627329278561
 21
4.601908982966772
 31
0.0
  0
LINE
  5
C0D0
330
C0BA
100
AcDbEntity
  8
0
  6
CONTINUOUS
100
AcDbLine
 10
41.87070910977793
 20
3.272825590878912
 30
0.0
 11
42.84373560536579
 21
4.245852086466765
 31
0.0
  0
LINE
  5
C0D1
330
C0BA
100
AcDbEntity
  8
0
  6
CONTINUOUS
100
AcDbLine
 10
43.57899999995641
 20
7.001674108297943
 30
0.0
 11
44.99999999995498
 21
8.422674108296516
 31
0.0
  0
LINE
  5
C0D2
330
C0BA
100
AcDbEntity
  8
0
  6
CONTINUOUS
100
AcDbLine
 10
43.57899999995641
 20
6.328154899217758
 30
0.0
 11
44.99999999995498
 21
7.749154899216329
 31
0.0
  0
LINE
  5
C0D3
330
C0BA
100
AcDbEntity
  8
0
  6
CONTINUOUS
100
AcDbLine
 10
43.57899999995641
 20
5.654635690137571
 30
0.0
 11
44.99999999995498
 21
7.075635690136142
 31
0.0
  0
LINE
  5
C0D4
330
C0BA
100
AcDbEntity
  8
0
  6
CONTINUOUS
100
AcDbLine
 10
43.57899999995641
 20
4.981116481057384
 30
0.0
 11
44.99999999995498
 21
6.402116481055955
 31
0.0
  0
LINE
  5
C0D5
330
C0BA
100
AcDbEntity
  8
0
  6
CONTINUOUS
100
AcDbLine
 10
39.27140272797921
 20
-0.0000000000000009
 30
0.0
 11
40.02599999995994
 21
0.7545972719807246
 31
0.0
  0
LINE
  5
C0D6
330
C0BA
100
AcDbEntity
  8
0
  6
CONTINUOUS
100
AcDbLine
 10
39.9449219370594
 20
-0.0000000000000009
 30
0.0
 11
40.02599999995994
 21
0.0810780629005379
 31
0.0
  0
LINE
  5
C0D7
330
C0BA
100
AcDbEntity
  8
0
  6
CONTINUOUS
100
AcDbLine
 10
42.18817142235812
 20
2.916768694378905
 30
0.0
 11
43.16119791794597
 21
3.889795189966758
 31
0.0
  0
LINE
  5
C0D8
330
C0BA
100
AcDbEntity
  8
0
  6
CONTINUOUS
100
AcDbLine
 10
42.50563373493829
 20
2.560711797878898
 30
0.0
 11
43.47866023052615
 21
3.533738293466751
 31
0.0
  0
LINE
  5
C0D9
330
C0BA
100
AcDbEntity
  8
0
  6
CONTINUOUS
100
AcDbLine
 10
43.57899999995641
 20
4.307597271977198
 30
0.0
 11
44.99999999995498
 21
5.728597271975769
 31
0.0
  0
LINE
  5
C0DA
330
C0BA
100
AcDbEntity
  8
0
  6
CONTINUOUS
100
AcDbLine
 10
43.57899999995641
 20
3.634078062897011
 30
0.0
 11
44.99999999995498
 21
5.055078062895582
 31
0.0
  0
LINE
  5
C0DB
330
C0BA
100
AcDbEntity
  8
0
  6
CONTINUOUS
100
AcDbLine
 10
42.82309604751848
 20
2.204654901378891
 30
0.0
 11
44.99999999995498
 21
4.381558853815395
 31
0.0
  0
LINE
  5
C0DC
330
C0BA
100
AcDbEntity
  8
0
  6
CONTINUOUS
100
AcDbLine
 10
43.14055836009865
 20
1.848598004878885
 30
0.0
 11
44.99999999995498
 21
3.70803964473521
 31
0.0
  0
LINE
  5
C0DD
330
C0BA
100
AcDbEntity
  8
0
  6
CONTINUOUS
100
AcDbLine
 10
43.45802067267883
 20
1.492541108378878
 30
0.0
 11
44.99999999995498
 21
3.034520435655023
 31
0.0
  0
LINE
  5
C0DE
330
C0BA
100
AcDbEntity
  8
0
  6
CONTINUOUS
100
AcDbLine
 10
43.77548298525902
 20
1.136484211878871
 30
0.0
 11
44.99999999995498
 21
2.361001226574837
 31
0.0
  0
LINE
  5
C0DF
330
C0BA
100
AcDbEntity
  8
0
  6
CONTINUOUS
100
AcDbLine
 10
44.09294529783919
 20
0.7804273153788639
 30
0.0
 11
44.99999999995498
 21
1.687482017494649
 31
0.0
  0
LINE
  5
C0E0
330
C0BA
100
AcDbEntity
  8
0
  6
CONTINUOUS
100
AcDbLine
 10
44.41040761041938
 20
0.4243704188788566
 30
0.0
 11
44.99999999995498
 21
1.013962808414463
 31
0.0
  0
LINE
  5
C0E1
330
C0BA
100
AcDbEntity
  8
0
  6
CONTINUOUS
100
AcDbLine
 10
44.72786992299955
 20
0.0683135223788494
 30
0.0
 11
44.99999999995498
 21
0.340443599334276
 31
0.0
  0
LINE
  5
C0E2
330
C0BA
100
AcDbEntity
  8
0
  6
CONTINUOUS
100
AcDbLine
 10
39.12223903415696
 20
-0.0000000000000009
 30
0.0
 11
38.60499999996136
 21
0.5172390341955961
 31
0.0
  0
LINE
  5
C0E3
330
C0BA
100
AcDbEntity
  8
0
  6
CONTINUOUS
100
AcDbLine
 10
39.79575824323715
 20
-0.0000000000000009
 30
0.0
 11
38.60499999996136
 21
1.190758243275783
 31
0.0
  0
LINE
  5
C0E4
330
C0BA
100
AcDbEntity
  8
0
  6
CONTINUOUS
100
AcDbLine
 10
40.02599999995994
 20
0.443277452357397
 30
0.0
 11
38.60499999996136
 21
1.864277452355969
 31
0.0
  0
LINE
  5
C0E5
330
C0BA
100
AcDbEntity
  8
0
  6
CONTINUOUS
100
AcDbLine
 10
40.02599999995994
 20
1.116796661437583
 30
0.0
 11
38.60499999996136
 21
2.537796661436155
 31
0.0
  0
LINE
  5
C0E6
330
C0BA
100
AcDbEntity
  8
0
  6
CONTINUOUS
100
AcDbLine
 10
40.02599999995994
 20
1.79031587051777
 30
0.0
 11
38.60499999996136
 21
3.211315870516341
 31
0.0
  0
LINE
  5
C0E7
330
C0BA
100
AcDbEntity
  8
0
  6
CONTINUOUS
100
AcDbLine
 10
40.02599999995994
 20
2.463835079597956
 30
0.0
 11
38.60499999996136
 21
3.884835079596527
 31
0.0
  0
LINE
  5
C0E8
330
C0BA
100
AcDbEntity
  8
0
  6
CONTINUOUS
100
AcDbLine
 10
40.02599999995994
 20
3.137354288678143
 30
0.0
 11
38.60499999996136
 21
4.558354288676714
 31
0.0
  0
LINE
  5
C0E9
330
C0BA
100
AcDbEntity
  8
0
  6
CONTINUOUS
100
AcDbLine
 10
40.02599999995994
 20
3.810873497758329
 30
0.0
 11
38.60499999996136
 21
5.2318734977569
 31
0.0
  0
LINE
  5
C0EA
330
C0BA
100
AcDbEntity
  8
0
  6
CONTINUOUS
100
AcDbLine
 10
40.02599999995994
 20
4.484392706838515
 30
0.0
 11
38.60499999996136
 21
5.905392706837086
 31
0.0
  0
LINE
  5
C0EB
330
C0BA
100
AcDbEntity
  8
0
  6
CONTINUOUS
100
AcDbLine
 10
44.99999999995498
 20
0.183911915923658
 30
0.0
 11
41.53858364506288
 21
3.64532827081576
 31
0.0
  0
LINE
  5
C0EC
330
C0BA
100
AcDbEntity
  8
0
  6
CONTINUOUS
100
AcDbLine
 10
40.02599999995994
 20
5.157911915918703
 30
0.0
 11
38.60499999996136
 21
6.578911915917274
 31
0.0
  0
LINE
  5
C0ED
330
C0BA
100
AcDbEntity
  8
0
  6
CONTINUOUS
100
AcDbLine
 10
44.99999999995498
 20
0.8574311250038447
 30
0.0
 11
38.60499999996136
 21
7.25243112499746
 31
0.0
  0
LINE
  5
C0EE
330
C0BA
100
AcDbEntity
  8
0
  6
CONTINUOUS
100
AcDbLine
 10
44.99999999995498
 20
1.530950334084031
 30
0.0
 11
38.60499999996136
 21
7.925950334077647
 31
0.0
  0
LINE
  5
C0EF
330
C0BA
100
AcDbEntity
  8
0
  6
CONTINUOUS
100
AcDbLine
 10
44.99999999995498
 20
2.204469543164218
 30
0.0
 11
43.57899999995641
 21
3.625469543162789
 31
0.0
  0
LINE
  5
C0F0
330
C0BA
100
AcDbEntity
  8
0
  6
CONTINUOUS
100
AcDbLine
 10
41.89876730984767
 20
5.305702233271528
 30
0.0
 11
38.60499999996136
 21
8.599469543157834
 31
0.0
  0
LINE
  5
C0F1
330
C0BA
100
AcDbEntity
  8
0
  6
CONTINUOUS
100
AcDbLine
 10
44.99999999995498
 20
2.877988752244405
 30
0.0
 11
43.57899999995641
 21
4.298988752242975
 31
0.0
  0
LINE
  5
C0F2
330
C0BA
100
AcDbEntity
  8
0
  6
CONTINUOUS
100
AcDbLine
 10
44.99999999995498
 20
3.551507961324591
 30
0.0
 11
43.57899999995641
 21
4.972507961323163
 31
0.0
  0
LINE
  5
C0F3
330
C0BA
100
AcDbEntity
  8
0
  6
CONTINUOUS
100
AcDbLine
 10
44.99999999995498
 20
4.225027170404777
 30
0.0
 11
43.57899999995641
 21
5.646027170403348
 31
0.0
  0
LINE
  5
C0F4
330
C0BA
100
AcDbEntity
  8
0
  6
CONTINUOUS
100
AcDbLine
 10
44.99999999995498
 20
4.898546379484964
 30
0.0
 11
43.57899999995641
 21
6.319546379483535
 31
0.0
  0
LINE
  5
C0F5
330
C0BA
100
AcDbEntity
  8
0
  6
CONTINUOUS
100
AcDbLine
 10
44.99999999995498
 20
5.572065588565151
 30
0.0
 11
43.57899999995641
 21
6.993065588563722
 31
0.0
  0
LINE
  5
C0F6
330
C0BA
100
AcDbEntity
  8
0
  6
CONTINUOUS
100
AcDbLine
 10
44.99999999995498
 20
6.245584797645336
 30
0.0
 11
43.57899999995641
 21
7.666584797643908
 31
0.0
  0
LINE
  5
C0F7
330
C0BA
100
AcDbEntity
  8
0
  6
CONTINUOUS
100
AcDbLine
 10
44.99999999995498
 20
6.919104006725522
 30
0.0
 11
43.57899999995641
 21
8.340104006724093
 31
0.0
  0
LINE
  5
C0F8
330
C0BA
100
AcDbEntity
  8
0
  6
CONTINUOUS
100
AcDbLine
 10
44.99999999995498
 20
7.592623215805709
 30
0.0
 11
43.82952321576943
 21
8.763099999991255
 31
0.0
  0
LINE
  5
C0F9
330
C0BA
100
AcDbEntity
  8
0
  6
CONTINUOUS
100
AcDbLine
 10
44.99999999995498
 20
8.266142424885896
 30
0.0
 11
44.50304242484962
 21
8.763099999991255
 31
0.0
  0
ENDBLK
  5
C123
330
C0BA
100
AcDbEntity
  8
0
100
AcDbBlockEnd
  0
BLOCK
  5
C124
330
C0FA
100
AcDbEntity
  8
0
100
AcDbBlockBegin
  2
*X47
 70
     1
 10
0.0
 20
0.0
 30
0.0
  3
*X47
  1

  0
LINE
  5
C0FB
330
C0FA
100
AcDbEntity
  8
0
  6
CONTINUOUS
100
AcDbLine
 10
0.0
 20
8.548461116714023
 30
0.0
 11
0.2146388832772324
 21
8.763099999991255
 31
0.0
  0
LINE
  5
C0FC
330
C0FA
100
AcDbEntity
  8
0
  6
CONTINUOUS
100
AcDbLine
 10
-0.0000000000000002
 20
7.874941907633837
 30
0.0
 11
0.8881580923574184
 21
8.763099999991255
 31
0.0
  0
LINE
  5
C0FD
330
C0FA
100
AcDbEntity
  8
0
  6
CONTINUOUS
100
AcDbLine
 10
0.0
 20
7.20142269855365
 30
0.0
 11
1.420999999998572
 21
8.622422698552223
 31
0.0
  0
LINE
  5
C0FE
330
C0FA
100
AcDbEntity
  8
0
  6
CONTINUOUS
100
AcDbLine
 10
-0.0000000000000001
 20
6.527903489473465
 30
0.0
 11
1.420999999998571
 21
7.948903489472036
 31
0.0
  0
LINE
  5
C0FF
330
C0FA
100
AcDbEntity
  8
0
  6
CONTINUOUS
100
AcDbLine
 10
-0.0000000000000002
 20
5.854384280393278
 30
0.0
 11
1.420999999998571
 21
7.275384280391849
 31
0.0
  0
LINE
  5
C100
330
C0FA
100
AcDbEntity
  8
0
  6
CONTINUOUS
100
AcDbLine
 10
-0.0000000000000002
 20
5.180865071313091
 30
0.0
 11
1.420999999998571
 21
6.601865071311663
 31
0.0
  0
LINE
  5
C101
330
C0FA
100
AcDbEntity
  8
0
  6
CONTINUOUS
100
AcDbLine
 10
0.0
 20
4.507345862232905
 30
0.0
 11
1.420999999998571
 21
5.928345862231477
 31
0.0
  0
LINE
  5
C102
330
C0FA
100
AcDbEntity
  8
0
  6
CONTINUOUS
100
AcDbLine
 10
-0.0000000000000003
 20
3.833826653152718
 30
0.0
 11
1.420999999998571
 21
5.25482665315129
 31
0.0
  0
LINE
  5
C103
330
C0FA
100
AcDbEntity
  8
0
  6
CONTINUOUS
100
AcDbLine
 10
-0.0000000000000002
 20
3.160307444072532
 30
0.0
 11
1.420999999998571
 21
4.581307444071103
 31
0.0
  0
LINE
  5
C104
330
C0FA
100
AcDbEntity
  8
0
  6
CONTINUOUS
100
AcDbLine
 10
-0.0000000000000001
 20
2.486788234992345
 30
0.0
 11
1.420999999998571
 21
3.907788234990917
 31
0.0
  0
LINE
  5
C105
330
C0FA
100
AcDbEntity
  8
0
  6
CONTINUOUS
100
AcDbLine
 10
-0.0000000000000006
 20
1.813269025912159
 30
0.0
 11
1.420999999998571
 21
3.234269025910731
 31
0.0
  0
LINE
  5
C106
330
C0FA
100
AcDbEntity
  8
0
  6
CONTINUOUS
100
AcDbLine
 10
0.0
 20
1.139749816831973
 30
0.0
 11
1.420999999998571
 21
2.560749816830544
 31
0.0
  0
LINE
  5
C107
330
C0FA
100
AcDbEntity
  8
0
  6
CONTINUOUS
100
AcDbLine
 10
0.0000000000000002
 20
0.466230607751787
 30
0.0
 11
1.420999999998571
 21
1.887230607750358
 31
0.0
  0
LINE
  5
C108
330
C0FA
100
AcDbEntity
  8
0
  6
CONTINUOUS
100
AcDbLine
 10
0.2072886013284003
 20
-0.0000000000000009
 30
0.0
 11
1.420999999998571
 21
1.213711398670171
 31
0.0
  0
LINE
  5
C109
330
C0FA
100
AcDbEntity
  8
0
  6
CONTINUOUS
100
AcDbLine
 10
0.8808078104085864
 20
-0.0000000000000009
 30
0.0
 11
1.420999999998571
 21
0.5401921895899839
 31
0.0
  0
LINE
  5
C10A
330
C0FA
100
AcDbEntity
  8
0
  6
CONTINUOUS
100
AcDbLine
 10
0.0581249075061505
 20
-0.0000000000000009
 30
0.0
 11
-0.0000000000000002
 21
0.0581249075061496
 31
0.0
  0
LINE
  5
C10B
330
C0FA
100
AcDbEntity
  8
0
  6
CONTINUOUS
100
AcDbLine
 10
0.7316441165863372
 20
-0.0000000000000009
 30
0.0
 11
-0.0000000000000002
 21
0.7316441165863363
 31
0.0
  0
LINE
  5
C10C
330
C0FA
100
AcDbEntity
  8
0
  6
CONTINUOUS
100
AcDbLine
 10
1.405163325666523
 20
-0.0000000000000009
 30
0.0
 11
-0.0000000000000002
 21
1.405163325666523
 31
0.0
  0
LINE
  5
C10D
330
C0FA
100
AcDbEntity
  8
0
  6
CONTINUOUS
100
AcDbLine
 10
1.420999999998572
 20
0.6576825347481381
 30
0.0
 11
-0.0000000000000001
 21
2.07868253474671
 31
0.0
  0
LINE
  5
C10E
330
C0FA
100
AcDbEntity
  8
0
  6
CONTINUOUS
100
AcDbLine
 10
1.420999999998571
 20
1.331201743828324
 30
0.0
 11
-0.0000000000000001
 21
2.752201743826896
 31
0.0
  0
LINE
  5
C10F
330
C0FA
100
AcDbEntity
  8
0
  6
CONTINUOUS
100
AcDbLine
 10
1.420999999998571
 20
2.004720952908511
 30
0.0
 11
-0.0000000000000002
 21
3.425720952907082
 31
0.0
  0
LINE
  5
C110
330
C0FA
100
AcDbEntity
  8
0
  6
CONTINUOUS
100
AcDbLine
 10
1.420999999998571
 20
2.678240161988697
 30
0.0
 11
-0.0000000000000001
 21
4.099240161987269
 31
0.0
  0
LINE
  5
C111
330
C0FA
100
AcDbEntity
  8
0
  6
CONTINUOUS
100
AcDbLine
 10
1.420999999998572
 20
3.351759371068884
 30
0.0
 11
0.0
 21
4.772759371067455
 31
0.0
  0
LINE
  5
C112
330
C0FA
100
AcDbEntity
  8
0
  6
CONTINUOUS
100
AcDbLine
 10
1.420999999998571
 20
4.02527858014907
 30
0.0
 11
-0.0000000000000003
 21
5.446278580147642
 31
0.0
  0
LINE
  5
C113
330
C0FA
100
AcDbEntity
  8
0
  6
CONTINUOUS
100
AcDbLine
 10
1.420999999998571
 20
4.698797789229257
 30
0.0
 11
0.0
 21
6.119797789227828
 31
0.0
  0
LINE
  5
C114
330
C0FA
100
AcDbEntity
  8
0
  6
CONTINUOUS
100
AcDbLine
 10
1.420999999998571
 20
5.372316998309444
 30
0.0
 11
-0.0000000000000001
 21
6.793316998308015
 31
0.0
  0
LINE
  5
C115
330
C0FA
100
AcDbEntity
  8
0
  6
CONTINUOUS
100
AcDbLine
 10
1.420999999998572
 20
6.045836207389629
 30
0.0
 11
-0.0000000000000004
 21
7.466836207388202
 31
0.0
  0
LINE
  5
C116
330
C0FA
100
AcDbEntity
  8
0
  6
CONTINUOUS
100
AcDbLine
 10
1.420999999998571
 20
6.719355416469816
 30
0.0
 11
0.0
 21
8.140355416468388
 31
0.0
  0
LINE
  5
C117
330
C0FA
100
AcDbEntity
  8
0
  6
CONTINUOUS
100
AcDbLine
 10
1.420999999998571
 20
7.392874625550003
 30
0.0
 11
0.0507746255573185
 21
8.763099999991255
 31
0.0
  0
LINE
  5
C118
330
C0FA
100
AcDbEntity
  8
0
  6
CONTINUOUS
100
AcDbLine
 10
1.420999999998571
 20
8.06639383463019
 30
0.0
 11
0.7242938346375052
 21
8.763099999991255
 31
0.0
  0
LINE
  5
C119
330
C0FA
100
AcDbEntity
  8
0
  6
CONTINUOUS
100
AcDbLine
 10
1.420999999998571
 20
8.739913043710375
 30
0.0
 11
1.397813043717691
 21
8.763099999991255
 31
0.0
  0
ENDBLK
  5
C125
330
C0FA
100
AcDbEntity
  8
0
100
AcDbBlockEnd
  0
ENDSEC
  0
SECTION
  2
ENTITIES
  0
LINE
  5
9AE9
330
18
100
AcDbEntity
  8
01
100
AcDbLine
 10
-227.2189771574541
 20
-2174.69477606586
 30
0.0
 11
-198.2189771574541
 21
-2174.69477606586
 31
0.0
  0
LINE
  5
9AEA
330
18
100
AcDbEntity
  8
01
100
AcDbLine
 10
-229.7189771574541
 20
-2134.69477606586
 30
0.0
 11
-195.7189771574541
 21
-2134.69477606586
 31
0.0
  0
LINE
  5
9AEB
330
18
100
AcDbEntity
  8
01
100
AcDbLine
 10
-229.2189771574541
 20
-2167.694984362092
 30
0.0
 11
-196.2189771574544
 21
-2167.694984362092
 31
0.0
  0
ARC
  5
9AEC
330
18
100
AcDbEntity
  8
01
100
AcDbCircle
 10
-229.2189771574541
 20
-2166.694984362092
 30
0.0
 40
1.0
100
AcDbArc
 50
180.0
 51
270.0
  0
LINE
  5
9AEE
330
18
100
AcDbEntity
  8
01
100
AcDbLine
 10
-230.2189771574538
 20
-2135.19477606586
 30
0.0
 11
-230.2189771574541
 21
-2166.694984362092
 31
0.0
  0
LINE
  5
9AEF
330
18
100
AcDbEntity
  8
01
100
AcDbLine
 10
-227.2189771574541
 20
-2167.694984362091
 30
0.0
 11
-227.2189771574541
 21
-2174.69477606586
 31
0.0
  0
ARC
  5
9AF0
330
18
100
AcDbEntity
  8
01
100
AcDbCircle
 10
-229.7189771574541
 20
-2135.19477606586
 30
0.0
 40
0.5
100
AcDbArc
 50
90.0
 51
180.0
  0
LINE
  5
9AF1
330
18
100
AcDbEntity
  8
01
100
AcDbLine
 10
-198.2189771574541
 20
-2174.69477606586
 30
0.0
 11
-198.2189771574541
 21
-2167.694984362092
 31
0.0
  0
LINE
  5
9AF3
330
18
100
AcDbEntity
  8
01
100
AcDbLine
 10
-195.2189771574538
 20
-2135.19477606586
 30
0.0
 11
-195.2189771574544
 21
-2166.694984362092
 31
0.0
  0
ARC
  5
9AF4
330
18
100
AcDbEntity
  8
01
100
AcDbCircle
 10
-196.2189771574544
 20
-2166.694984362092
 30
0.0
 40
1.0
100
AcDbArc
 50
270.0
 51
359.9999999999996
  0
ARC
  5
9AF5
330
18
100
AcDbEntity
  8
01
100
AcDbCircle
 10
-195.7189771574541
 20
-2135.19477606586
 30
0.0
 40
0.5
100
AcDbArc
 50
0.0
 51
90.0
  0
ARC
  5
9AF6
330
18
100
AcDbEntity
  8
01
100
AcDbCircle
 10
-212.7189771574541
 20
-2150.19477606586
 30
0.0
 40
3.5
100
AcDbArc
 50
270.0
 51
90.0
  0
ARC
  5
9AF7
330
18
100
AcDbEntity
  8
1DIM
100
AcDbCircle
 10
-212.7189771574541
 20
-2150.19477606586
 30
0.0
 40
3.0
100
AcDbArc
 50
270.0
 51
90.0
  0
ARC
  5
9B07
330
18
100
AcDbEntity
  8
01
100
AcDbCircle
 10
-212.7189771574541
 20
-2150.19477606586
 30
0.0
 40
3.5
100
AcDbArc
 50
90.0
 51
270.0
  0
ARC
  5
9B08
330
18
100
AcDbEntity
  8
1DIM
100
AcDbCircle
 10
-212.7189771574541
 20
-2150.19477606586
 30
0.0
 40
3.0
100
AcDbArc
 50
90.0
 51
270.0
  0
ARC
  5
9BA2
330
18
100
AcDbEntity
  8
01
100
AcDbCircle
 10
-212.7189771574538
 20
-2079.443119917474
 30
0.0
 40
17.5
100
AcDbArc
 50
163.3984504009782
 51
16.6015495990172
  0
ARC
  5
9BA5
330
18
100
AcDbEntity
  8
01
100
AcDbCircle
 10
-212.7189771574538
 20
-2079.443119917474
 30
0.0
 40
17.5
100
AcDbArc
 50
16.6015495990172
 51
163.3984504009828
  0
LINE
  5
9BA6
330
18
100
AcDbEntity
  8
01
100
AcDbLine
 10
-229.4894869887021
 20
-2074.443119917473
 30
0.0
 11
-195.9484673262054
 21
-2074.443119917473
 31
0.0
  0
LINE
  5
9D99
330
18
100
AcDbEntity
  8
1CENTER
100
AcDbLine
 10
-212.7189771574538
 20
-2073.243119917473
 30
0.0
 11
-212.7189771574538
 21
-2067.243119917473
 31
0.0
  0
LINE
  5
9D9A
330
18
100
AcDbEntity
  8
1CENTER
100
AcDbLine
 10
-215.7189771574538
 20
-2070.243119917473
 30
0.0
 11
-209.7189771574538
 21
-2070.243119917473
 31
0.0
  0
LINE
  5
9D9B
330
18
100
AcDbEntity
  8
1CENTER
100
AcDbLine
 10
-220.686410872271
 20
-2087.043119917473
 30
0.0
 11
-220.686410872271
 21
-2081.043119917473
 31
0.0
  0
LINE
  5
9D9C
330
18
100
AcDbEntity
  8
1CENTER
100
AcDbLine
 10
-223.686410872271
 20
-2084.043119917473
 30
0.0
 11
-217.686410872271
 21
-2084.043119917473
 31
0.0
  0
LINE
  5
9D9D
330
18
100
AcDbEntity
  8
1CENTER
100
AcDbLine
 10
-204.751543442637
 20
-2087.043119917473
 30
0.0
 11
-204.751543442637
 21
-2081.043119917473
 31
0.0
  0
LINE
  5
9D9E
330
18
100
AcDbEntity
  8
1CENTER
100
AcDbLine
 10
-207.751543442637
 20
-2084.043119917473
 30
0.0
 11
-201.751543442637
 21
-2084.043119917473
 31
0.0
  0
LINE
  5
B0A2
330
18
100
AcDbEntity
  8
01
100
AcDbLine
 10
-154.7189771574519
 20
-2134.69477606586
 30
0.0
 11
-132.7189771574519
 21
-2134.69477606586
 31
0.0
  0
LINE
  5
B0A3
330
18
100
AcDbEntity
  8
01
100
AcDbLine
 10
-154.2189771574519
 20
-2167.694984362091
 30
0.0
 11
-152.2189771574519
 21
-2167.694984362092
 31
0.0
  0
LINE
  5
B0A4
330
18
100
AcDbEntity
  8
01
100
AcDbLine
 10
-152.2189771574519
 20
-2174.69477606586
 30
0.0
 11
-123.2189771574519
 21
-2174.69477606586
 31
0.0
  0
LINE
  5
B0A5
330
18
100
AcDbEntity
  8
01
100
AcDbLine
 10
-152.2189771574519
 20
-2167.694984362091
 30
0.0
 11
-121.2189771574519
 21
-2167.694984362091
 31
0.0
  0
LINE
  5
B0A6
330
18
100
AcDbEntity
  8
01
100
AcDbLine
 10
-155.2189771574519
 20
-2166.694984362091
 30
0.0
 11
-155.2189771574519
 21
-2153.69477606586
 31
0.0
  0
ARC
  5
B0A8
330
18
100
AcDbEntity
  8
01
100
AcDbCircle
 10
-154.2189771574519
 20
-2166.694984362091
 30
0.0
 40
1.0
100
AcDbArc
 50
180.0
 51
270.0
  0
LINE
  5
B0A9
330
18
100
AcDbEntity
  8
01
100
AcDbLine
 10
-152.2189771574519
 20
-2167.694984362092
 30
0.0
 11
-152.2189771574519
 21
-2174.69477606586
 31
0.0
  0
ARC
  5
B0AA
330
18
100
AcDbEntity
  8
01
100
AcDbCircle
 10
-154.7189771574519
 20
-2135.19477606586
 30
0.0
 40
0.5
100
AcDbArc
 50
90.0
 51
180.0
  0
LINE
  5
B0AB
330
18
100
AcDbEntity
  8
01
100
AcDbLine
 10
-120.2189771574519
 20
-2166.694984362091
 30
0.0
 11
-120.2189771574519
 21
-2135.19477606586
 31
0.0
  0
LINE
  5
B0AC
330
18
100
AcDbEntity
  8
01
100
AcDbLine
 10
-132.7189771574519
 20
-2134.69477606586
 30
0.0
 11
-132.7189771574519
 21
-2167.694984362091
 31
0.0
  0
ARC
  5
B0AD
330
18
100
AcDbEntity
  8
01
100
AcDbCircle
 10
-121.2189771574519
 20
-2166.694984362091
 30
0.0
 40
1.0
100
AcDbArc
 50
270.0
 51
0.0
  0
LINE
  5
B0AE
330
18
100
AcDbEntity
  8
01
100
AcDbLine
 10
-123.2189771574519
 20
-2174.69477606586
 30
0.0
 11
-123.2189771574519
 21
-2167.694984362091
 31
0.0
  0
LINE
  5
B0AF
330
18
100
AcDbEntity
  8
01
100
AcDbLine
 10
-132.7189771574519
 20
-2134.69477606586
 30
0.0
 11
-120.7189771574519
 21
-2134.69477606586
 31
0.0
  0
ARC
  5
B0B0
330
18
100
AcDbEntity
  8
01
100
AcDbCircle
 10
-120.7189771574519
 20
-2135.19477606586
 30
0.0
 40
0.5
100
AcDbArc
 50
0.0
 51
90.0
  0
ARC
  5
B0B3
330
18
100
AcDbEntity
  8
01
100
AcDbCircle
 10
-172.5439771574515
 20
-2150.19477606586
 30
0.0
 40
17.67499999999971
100
AcDbArc
 50
348.578813724981
 51
11.42118627501896
  0
LINE
  5
B0B9
330
18
100
AcDbEntity
  8
01
100
AcDbLine
 10
-155.2189771574519
 20
-2146.694776065859
 30
0.0
 11
-155.2189771574519
 21
-2135.19477606586
 31
0.0
  0
LINE
  5
B0C6
330
18
100
AcDbEntity
  8
01
100
AcDbLine
 10
-96.64358224903091
 20
-2174.69477606586
 30
0.0
 11
-166.1533651294922
 21
-2174.69477606586
 31
0.0
  0
LINE
  5
B0C7
330
18
100
AcDbEntity
  8
01
100
AcDbLine
 10
-96.64358224903091
 20
-2186.69477606586
 30
0.0
 11
-166.1533651294922
 21
-2186.69477606586
 31
0.0
  0
LINE
  5
B0F3
330
18
100
AcDbEntity
  8
1PHANTOM
100
AcDbLine
 10
-139.0689771574519
 20
-2171.994784209643
 30
0.0
 11
-141.0689771574519
 21
-2173.994770248922
 31
0.0
  0
LINE
  5
B0F4
330
18
100
AcDbEntity
  8
1PHANTOM
100
AcDbLine
 10
-139.0689771574514
 20
-2171.994783627944
 30
0.0
 11
-145.5689765757582
 21
-2171.994768503778
 31
0.0
  0
LINE
  5
B0F5
330
18
100
AcDbEntity
  8
1PHANTOM
100
AcDbLine
 10
-139.0689771574519
 20
-2171.694783627943
 30
0.0
 11
-145.5689771574519
 21
-2171.694768503776
 31
0.0
  0
LINE
  5
B0F6
330
18
100
AcDbEntity
  8
1PHANTOM
100
AcDbLine
 10
-141.0689771574519
 20
-2185.578104163862
 30
0.0
 11
-140.5689771574519
 21
-2185.678105327258
 31
0.0
  0
LINE
  5
B0F7
330
18
100
AcDbEntity
  8
1PHANTOM
100
AcDbLine
 10
-140.5689771574519
 20
-2180.878105327258
 30
0.0
 11
-144.0689771574519
 21
-2181.678096020081
 31
0.0
  0
LINE
  5
B0F8
330
18
100
AcDbEntity
  8
1PHANTOM
100
AcDbLine
 10
-141.0689771574519
 20
-2180.778104163861
 30
0.0
 11
-140.5689771574519
 21
-2180.878105327258
 31
0.0
  0
LINE
  5
B0F9
330
18
100
AcDbEntity
  8
1PHANTOM
100
AcDbLine
 10
-144.0689771574519
 20
-2181.678096020081
 30
0.0
 11
-143.5689771574519
 21
-2181.778097183479
 31
0.0
  0
LINE
  5
B0FA
330
18
100
AcDbEntity
  8
1PHANTOM
100
AcDbLine
 10
-140.5689771574519
 20
-2182.478105327259
 30
0.0
 11
-144.0689771574519
 21
-2183.278096020081
 31
0.0
  0
LINE
  5
B0FB
330
18
100
AcDbEntity
  8
1PHANTOM
100
AcDbLine
 10
-140.5689771574519
 20
-2184.078105327259
 30
0.0
 11
-144.0689771574519
 21
-2184.878096020082
 31
0.0
  0
LINE
  5
B0FC
330
18
100
AcDbEntity
  8
1PHANTOM
100
AcDbLine
 10
-141.0689771574519
 20
-2183.978104163861
 30
0.0
 11
-140.5689771574519
 21
-2184.078105327259
 31
0.0
  0
LINE
  5
B0FD
330
18
100
AcDbEntity
  8
1PHANTOM
100
AcDbLine
 10
-144.0689771574519
 20
-2184.878096020082
 30
0.0
 11
-143.5689771574519
 21
-2184.978097183478
 31
0.0
  0
LINE
  5
B0FE
330
18
100
AcDbEntity
  8
1PHANTOM
100
AcDbLine
 10
-144.0689771574519
 20
-2183.278096020081
 30
0.0
 11
-143.5689771574519
 21
-2183.378097183478
 31
0.0
  0
LINE
  5
B0FF
330
18
100
AcDbEntity
  8
1PHANTOM
100
AcDbLine
 10
-141.0689771574519
 20
-2182.378104163862
 30
0.0
 11
-140.5689771574519
 21
-2182.478105327259
 31
0.0
  0
LINE
  5
B100
330
18
100
AcDbEntity
  8
1PHANTOM
100
AcDbLine
 10
-145.5689771574519
 20
-2171.994767922078
 30
0.0
 11
-143.5689771574519
 21
-2173.994791190163
 31
0.0
  0
LINE
  5
B101
330
18
100
AcDbEntity
  8
1PHANTOM
100
AcDbLine
 10
-142.3189769928202
 20
-2191.694767340379
 30
0.0
 11
-141.0689771574519
 21
-2187.278104163861
 31
0.0
  0
LINE
  5
B102
330
18
100
AcDbEntity
  8
1PHANTOM
100
AcDbLine
 10
-142.3189769928202
 20
-2191.694767340379
 30
0.0
 11
-143.5689771574519
 21
-2187.278097183477
 31
0.0
  0
LINE
  5
B103
330
18
100
AcDbEntity
  8
1PHANTOM
100
AcDbLine
 10
-144.0689771574519
 20
-2186.478096020081
 30
0.0
 11
-143.5689771574519
 21
-2186.578097183478
 31
0.0
  0
LINE
  5
B104
330
18
100
AcDbEntity
  8
1PHANTOM
100
AcDbLine
 10
-143.8425701052477
 20
-2188.078096546883
 30
0.0
 11
-143.3059763699769
 21
-2188.207367244514
 31
0.0
  0
LINE
  5
B105
330
18
100
AcDbEntity
  8
1PHANTOM
100
AcDbLine
 10
-140.5689771574519
 20
-2187.278105327259
 30
0.0
 11
-143.8425701052477
 21
-2188.078096546883
 31
0.0
  0
LINE
  5
B106
330
18
100
AcDbEntity
  8
1PHANTOM
100
AcDbLine
 10
-141.4898917546605
 20
-2188.765334761298
 30
0.0
 11
-141.0217932995104
 21
-2188.878104273649
 31
0.0
  0
LINE
  5
B107
330
18
100
AcDbEntity
  8
1PHANTOM
100
AcDbLine
 10
-141.0689771574519
 20
-2187.178104163861
 30
0.0
 11
-140.5689771574519
 21
-2187.278105327259
 31
0.0
  0
LINE
  5
B108
330
18
100
AcDbEntity
  8
1PHANTOM
100
AcDbLine
 10
-142.9369418964345
 20
-2191.278098654095
 30
0.0
 11
-142.3486653213916
 21
-2191.589868510347
 31
0.0
  0
LINE
  5
B109
330
18
100
AcDbEntity
  8
1PHANTOM
100
AcDbLine
 10
-141.93177864819
 20
-2190.326667423603
 30
0.0
 11
-141.4746068075586
 21
-2190.478103220044
 31
0.0
  0
LINE
  5
B10A
330
18
100
AcDbEntity
  8
1PHANTOM
100
AcDbLine
 10
-143.3897560008411
 20
-2189.67809760049
 30
0.0
 11
-142.8380065370377
 21
-2189.860861743118
 31
0.0
  0
LINE
  5
B10B
330
18
100
AcDbEntity
  8
1PHANTOM
100
AcDbLine
 10
-141.4746068075586
 20
-2190.478103220044
 30
0.0
 11
-142.9369418964345
 21
-2191.278098654095
 31
0.0
  0
LINE
  5
B10C
330
18
100
AcDbEntity
  8
1PHANTOM
100
AcDbLine
 10
-141.0217932995104
 20
-2188.878104273649
 30
0.0
 11
-143.3897560008411
 21
-2189.67809760049
 31
0.0
  0
LINE
  5
B10D
330
18
100
AcDbEntity
  8
1CENTER
100
AcDbLine
 10
-142.3189771574519
 20
-2192.009020698291
 30
0.0
 11
-142.3189771574519
 21
-2171.331269609128
 31
0.0
  0
LINE
  5
B10E
330
18
100
AcDbEntity
  8
1PHANTOM
100
AcDbLine
 10
-141.0689771574523
 20
-2187.278104163861
 30
0.0
 11
-141.0689771574519
 21
-2173.994770248922
 31
0.0
  0
LINE
  5
B10F
330
18
100
AcDbEntity
  8
1PHANTOM
100
AcDbLine
 10
-143.5689771574505
 20
-2187.27809718348
 30
0.0
 11
-143.5689771574519
 21
-2173.994791190163
 31
0.0
  0
LINE
  5
B110
330
18
100
AcDbEntity
  8
1PHANTOM
100
AcDbLine
 10
-140.5689771574519
 20
-2185.678105327258
 30
0.0
 11
-144.0689771574519
 21
-2186.478096020081
 31
0.0
  0
LINE
  5
B111
330
18
100
AcDbEntity
  8
1PHANTOM
100
AcDbLine
 10
-145.5689771574519
 20
-2171.994767922078
 30
0.0
 11
-145.5689771574519
 21
-2171.694767922078
 31
0.0
  0
LINE
  5
B112
330
18
100
AcDbEntity
  8
1PHANTOM
100
AcDbLine
 10
-139.0689771574519
 20
-2171.994784209643
 30
0.0
 11
-139.0689771574519
 21
-2171.694783627943
 31
0.0
  0
LINE
  5
B113
330
18
100
AcDbEntity
  8
1PHANTOM
100
AcDbLine
 10
-141.0689771574519
 20
-2179.178104163861
 30
0.0
 11
-140.5689771574519
 21
-2179.278105327258
 31
0.0
  0
LINE
  5
B114
330
18
100
AcDbEntity
  8
1PHANTOM
100
AcDbLine
 10
-140.5689771574519
 20
-2179.278105327258
 30
0.0
 11
-144.0689771574519
 21
-2180.07809602008
 31
0.0
  0
LINE
  5
B115
330
18
100
AcDbEntity
  8
1PHANTOM
100
AcDbLine
 10
-144.0689771574519
 20
-2180.07809602008
 30
0.0
 11
-143.5689771574519
 21
-2180.178097183478
 31
0.0
  0
LINE
  5
B116
330
18
100
AcDbEntity
  8
1PHANTOM
100
AcDbLine
 10
-140.5689771574519
 20
-2177.678105327258
 30
0.0
 11
-144.0689771574519
 21
-2178.47809602008
 31
0.0
  0
LINE
  5
B117
330
18
100
AcDbEntity
  8
1PHANTOM
100
AcDbLine
 10
-141.0689771574519
 20
-2177.578104163861
 30
0.0
 11
-140.5689771574519
 21
-2177.678105327258
 31
0.0
  0
LINE
  5
B118
330
18
100
AcDbEntity
  8
1PHANTOM
100
AcDbLine
 10
-144.0689771574519
 20
-2178.47809602008
 30
0.0
 11
-143.5689771574519
 21
-2178.578097183478
 31
0.0
  0
LINE
  5
B119
330
18
100
AcDbEntity
  8
1PHANTOM
100
AcDbLine
 10
-141.0689771574519
 20
-2175.97810416386
 30
0.0
 11
-140.5689771574519
 21
-2176.078105327257
 31
0.0
  0
LINE
  5
B11A
330
18
100
AcDbEntity
  8
1PHANTOM
100
AcDbLine
 10
-140.5689771574519
 20
-2176.078105327257
 30
0.0
 11
-144.0689771574519
 21
-2176.87809602008
 31
0.0
  0
LINE
  5
B11B
330
18
100
AcDbEntity
  8
1PHANTOM
100
AcDbLine
 10
-144.0689771574519
 20
-2176.87809602008
 30
0.0
 11
-143.5689771574519
 21
-2176.978097183478
 31
0.0
  0
LINE
  5
B11C
330
18
100
AcDbEntity
  8
1PHANTOM
100
AcDbLine
 10
-141.0689771574519
 20
-2174.37810416386
 30
0.0
 11
-140.5689771574519
 21
-2174.478105327257
 31
0.0
  0
LINE
  5
B11D
330
18
100
AcDbEntity
  8
1PHANTOM
100
AcDbLine
 10
-140.5689771574519
 20
-2174.478105327257
 30
0.0
 11
-144.0689771574519
 21
-2175.278096020079
 31
0.0
  0
LINE
  5
B11E
330
18
100
AcDbEntity
  8
1PHANTOM
100
AcDbLine
 10
-144.0689771574519
 20
-2175.278096020079
 30
0.0
 11
-143.5689771574519
 21
-2175.378097183477
 31
0.0
  0
LINE
  5
B11F
330
18
100
AcDbEntity
  8
1PHANTOM
100
AcDbLine
 10
-125.2689771574519
 20
-2171.994784209643
 30
0.0
 11
-127.2689771574519
 21
-2173.994770248922
 31
0.0
  0
LINE
  5
B120
330
18
100
AcDbEntity
  8
1PHANTOM
100
AcDbLine
 10
-125.2689771574514
 20
-2171.994783627944
 30
0.0
 11
-131.7689765757582
 21
-2171.994768503778
 31
0.0
  0
LINE
  5
B121
330
18
100
AcDbEntity
  8
1PHANTOM
100
AcDbLine
 10
-125.2689771574519
 20
-2171.694783627943
 30
0.0
 11
-131.7689771574519
 21
-2171.694768503776
 31
0.0
  0
LINE
  5
B122
330
18
100
AcDbEntity
  8
1PHANTOM
100
AcDbLine
 10
-127.2689771574519
 20
-2185.578104163862
 30
0.0
 11
-126.7689771574519
 21
-2185.678105327258
 31
0.0
  0
LINE
  5
B123
330
18
100
AcDbEntity
  8
1PHANTOM
100
AcDbLine
 10
-126.7689771574519
 20
-2180.878105327258
 30
0.0
 11
-130.2689771574519
 21
-2181.678096020081
 31
0.0
  0
LINE
  5
B124
330
18
100
AcDbEntity
  8
1PHANTOM
100
AcDbLine
 10
-127.2689771574519
 20
-2180.778104163861
 30
0.0
 11
-126.7689771574519
 21
-2180.878105327258
 31
0.0
  0
LINE
  5
B125
330
18
100
AcDbEntity
  8
1PHANTOM
100
AcDbLine
 10
-130.2689771574519
 20
-2181.678096020081
 30
0.0
 11
-129.7689771574519
 21
-2181.778097183479
 31
0.0
  0
LINE
  5
B126
330
18
100
AcDbEntity
  8
1PHANTOM
100
AcDbLine
 10
-126.7689771574519
 20
-2182.478105327259
 30
0.0
 11
-130.2689771574519
 21
-2183.278096020081
 31
0.0
  0
LINE
  5
B127
330
18
100
AcDbEntity
  8
1PHANTOM
100
AcDbLine
 10
-126.7689771574519
 20
-2184.078105327259
 30
0.0
 11
-130.2689771574519
 21
-2184.878096020082
 31
0.0
  0
LINE
  5
B128
330
18
100
AcDbEntity
  8
1PHANTOM
100
AcDbLine
 10
-127.2689771574519
 20
-2183.978104163861
 30
0.0
 11
-126.7689771574519
 21
-2184.078105327259
 31
0.0
  0
LINE
  5
B129
330
18
100
AcDbEntity
  8
1PHANTOM
100
AcDbLine
 10
-130.2689771574519
 20
-2184.878096020082
 30
0.0
 11
-129.7689771574519
 21
-2184.978097183478
 31
0.0
  0
LINE
  5
B12A
330
18
100
AcDbEntity
  8
1PHANTOM
100
AcDbLine
 10
-130.2689771574519
 20
-2183.278096020081
 30
0.0
 11
-129.7689771574519
 21
-2183.378097183478
 31
0.0
  0
LINE
  5
B12B
330
18
100
AcDbEntity
  8
1PHANTOM
100
AcDbLine
 10
-127.2689771574519
 20
-2182.378104163862
 30
0.0
 11
-126.7689771574519
 21
-2182.478105327259
 31
0.0
  0
LINE
  5
B12C
330
18
100
AcDbEntity
  8
1PHANTOM
100
AcDbLine
 10
-131.7689771574519
 20
-2171.994767922078
 30
0.0
 11
-129.7689771574519
 21
-2173.994791190163
 31
0.0
  0
LINE
  5
B12D
330
18
100
AcDbEntity
  8
1PHANTOM
100
AcDbLine
 10
-128.5189769928202
 20
-2191.694767340379
 30
0.0
 11
-127.2689771574519
 21
-2187.278104163861
 31
0.0
  0
LINE
  5
B12E
330
18
100
AcDbEntity
  8
1PHANTOM
100
AcDbLine
 10
-128.5189769928202
 20
-2191.694767340379
 30
0.0
 11
-129.7689771574519
 21
-2187.278097183477
 31
0.0
  0
LINE
  5
B12F
330
18
100
AcDbEntity
  8
1PHANTOM
100
AcDbLine
 10
-130.2689771574519
 20
-2186.478096020081
 30
0.0
 11
-129.7689771574519
 21
-2186.578097183478
 31
0.0
  0
LINE
  5
B130
330
18
100
AcDbEntity
  8
1PHANTOM
100
AcDbLine
 10
-130.0425701052477
 20
-2188.078096546883
 30
0.0
 11
-129.5059763699769
 21
-2188.207367244514
 31
0.0
  0
LINE
  5
B131
330
18
100
AcDbEntity
  8
1PHANTOM
100
AcDbLine
 10
-126.7689771574519
 20
-2187.278105327259
 30
0.0
 11
-130.0425701052477
 21
-2188.078096546883
 31
0.0
  0
LINE
  5
B132
330
18
100
AcDbEntity
  8
1PHANTOM
100
AcDbLine
 10
-127.6898917546605
 20
-2188.765334761298
 30
0.0
 11
-127.2217932995104
 21
-2188.878104273649
 31
0.0
  0
LINE
  5
B133
330
18
100
AcDbEntity
  8
1PHANTOM
100
AcDbLine
 10
-127.2689771574519
 20
-2187.178104163861
 30
0.0
 11
-126.7689771574519
 21
-2187.278105327259
 31
0.0
  0
LINE
  5
B134
330
18
100
AcDbEntity
  8
1PHANTOM
100
AcDbLine
 10
-129.1369418964346
 20
-2191.278098654095
 30
0.0
 11
-128.5486653213916
 21
-2191.589868510347
 31
0.0
  0
LINE
  5
B135
330
18
100
AcDbEntity
  8
1PHANTOM
100
AcDbLine
 10
-128.13177864819
 20
-2190.326667423603
 30
0.0
 11
-127.6746068075586
 21
-2190.478103220044
 31
0.0
  0
LINE
  5
B136
330
18
100
AcDbEntity
  8
1PHANTOM
100
AcDbLine
 10
-129.5897560008411
 20
-2189.67809760049
 30
0.0
 11
-129.0380065370377
 21
-2189.860861743118
 31
0.0
  0
LINE
  5
B137
330
18
100
AcDbEntity
  8
1PHANTOM
100
AcDbLine
 10
-127.6746068075586
 20
-2190.478103220044
 30
0.0
 11
-129.1369418964346
 21
-2191.278098654095
 31
0.0
  0
LINE
  5
B138
330
18
100
AcDbEntity
  8
1PHANTOM
100
AcDbLine
 10
-127.2217932995104
 20
-2188.878104273649
 30
0.0
 11
-129.5897560008411
 21
-2189.67809760049
 31
0.0
  0
LINE
  5
B139
330
18
100
AcDbEntity
  8
1CENTER
100
AcDbLine
 10
-128.5189771574519
 20
-2192.009020698291
 30
0.0
 11
-128.5189771574519
 21
-2171.331269609128
 31
0.0
  0
LINE
  5
B13A
330
18
100
AcDbEntity
  8
1PHANTOM
100
AcDbLine
 10
-127.2689771574523
 20
-2187.278104163861
 30
0.0
 11
-127.2689771574519
 21
-2173.994770248922
 31
0.0
  0
LINE
  5
B13B
330
18
100
AcDbEntity
  8
1PHANTOM
100
AcDbLine
 10
-129.7689771574505
 20
-2187.27809718348
 30
0.0
 11
-129.7689771574519
 21
-2173.994791190163
 31
0.0
  0
LINE
  5
B13C
330
18
100
AcDbEntity
  8
1PHANTOM
100
AcDbLine
 10
-126.7689771574519
 20
-2185.678105327258
 30
0.0
 11
-130.2689771574519
 21
-2186.478096020081
 31
0.0
  0
LINE
  5
B13D
330
18
100
AcDbEntity
  8
1PHANTOM
100
AcDbLine
 10
-131.7689771574519
 20
-2171.994767922078
 30
0.0
 11
-131.7689771574519
 21
-2171.694767922078
 31
0.0
  0
LINE
  5
B13E
330
18
100
AcDbEntity
  8
1PHANTOM
100
AcDbLine
 10
-125.2689771574519
 20
-2171.994784209643
 30
0.0
 11
-125.2689771574519
 21
-2171.694783627943
 31
0.0
  0
LINE
  5
B13F
330
18
100
AcDbEntity
  8
1PHANTOM
100
AcDbLine
 10
-127.2689771574519
 20
-2179.178104163861
 30
0.0
 11
-126.7689771574519
 21
-2179.278105327258
 31
0.0
  0
LINE
  5
B140
330
18
100
AcDbEntity
  8
1PHANTOM
100
AcDbLine
 10
-126.7689771574519
 20
-2179.278105327258
 30
0.0
 11
-130.2689771574519
 21
-2180.07809602008
 31
0.0
  0
LINE
  5
B141
330
18
100
AcDbEntity
  8
1PHANTOM
100
AcDbLine
 10
-130.2689771574519
 20
-2180.07809602008
 30
0.0
 11
-129.7689771574519
 21
-2180.178097183478
 31
0.0
  0
LINE
  5
B142
330
18
100
AcDbEntity
  8
1PHANTOM
100
AcDbLine
 10
-126.7689771574519
 20
-2177.678105327258
 30
0.0
 11
-130.2689771574519
 21
-2178.47809602008
 31
0.0
  0
LINE
  5
B143
330
18
100
AcDbEntity
  8
1PHANTOM
100
AcDbLine
 10
-127.2689771574519
 20
-2177.578104163861
 30
0.0
 11
-126.7689771574519
 21
-2177.678105327258
 31
0.0
  0
LINE
  5
B144
330
18
100
AcDbEntity
  8
1PHANTOM
100
AcDbLine
 10
-130.2689771574519
 20
-2178.47809602008
 30
0.0
 11
-129.7689771574519
 21
-2178.578097183478
 31
0.0
  0
LINE
  5
B145
330
18
100
AcDbEntity
  8
1PHANTOM
100
AcDbLine
 10
-127.2689771574519
 20
-2175.97810416386
 30
0.0
 11
-126.7689771574519
 21
-2176.078105327257
 31
0.0
  0
LINE
  5
B146
330
18
100
AcDbEntity
  8
1PHANTOM
100
AcDbLine
 10
-126.7689771574519
 20
-2176.078105327257
 30
0.0
 11
-130.2689771574519
 21
-2176.87809602008
 31
0.0
  0
LINE
  5
B147
330
18
100
AcDbEntity
  8
1PHANTOM
100
AcDbLine
 10
-130.2689771574519
 20
-2176.87809602008
 30
0.0
 11
-129.7689771574519
 21
-2176.978097183478
 31
0.0
  0
LINE
  5
B148
330
18
100
AcDbEntity
  8
1PHANTOM
100
AcDbLine
 10
-127.2689771574519
 20
-2174.37810416386
 30
0.0
 11
-126.7689771574519
 21
-2174.478105327257
 31
0.0
  0
LINE
  5
B149
330
18
100
AcDbEntity
  8
1PHANTOM
100
AcDbLine
 10
-126.7689771574519
 20
-2174.478105327257
 30
0.0
 11
-130.2689771574519
 21
-2175.278096020079
 31
0.0
  0
LINE
  5
B14A
330
18
100
AcDbEntity
  8
1PHANTOM
100
AcDbLine
 10
-130.2689771574519
 20
-2175.278096020079
 30
0.0
 11
-129.7689771574519
 21
-2175.378097183477
 31
0.0
  0
LINE
  5
B152
330
18
100
AcDbEntity
  8
1PHANTOM
100
AcDbLine
 10
-150.9189771574519
 20
-2171.69477606586
 30
0.0
 11
-124.5189771574519
 21
-2171.69477606586
 31
0.0
  0
LINE
  5
B153
330
18
100
AcDbEntity
  8
1PHANTOM
100
AcDbLine
 10
-150.9189771574519
 20
-2171.69477606586
 30
0.0
 11
-150.9189771574519
 21
-2174.69477606586
 31
0.0
  0
LINE
  5
B154
330
18
100
AcDbEntity
  8
1PHANTOM
100
AcDbLine
 10
-144.7189771574519
 20
-2171.69477606586
 30
0.0
 11
-144.7189771574519
 21
-2154.19477606586
 31
0.0
  0
LINE
  5
B155
330
18
100
AcDbEntity
  8
1PHANTOM
100
AcDbLine
 10
-130.7189771574519
 20
-2171.69477606586
 30
0.0
 11
-130.7189771574519
 21
-2148.19477606586
 31
0.0
  0
LINE
  5
B156
330
18
100
AcDbEntity
  8
1PHANTOM
100
AcDbLine
 10
-124.5189771574519
 20
-2171.69477606586
 30
0.0
 11
-124.5189771574519
 21
-2174.69477606586
 31
0.0
  0
LINE
  5
B157
330
18
100
AcDbEntity
  8
1PHANTOM
100
AcDbLine
 10
-131.2189771574519
 20
-2147.69477606586
 30
0.0
 11
-144.2189771574519
 21
-2147.69477606586
 31
0.0
  0
LINE
  5
B158
330
18
100
AcDbEntity
  8
1PHANTOM
100
AcDbLine
 10
-144.7189771574519
 20
-2148.19477606586
 30
0.0
 11
-142.8654237668586
 21
-2150.048329456453
 31
0.0
  0
LINE
  5
B159
330
18
100
AcDbEntity
  8
1PHANTOM
100
AcDbLine
 10
-144.7189771574519
 20
-2148.19477606586
 30
0.0
 11
-144.7189771574519
 21
-2148.19477606586
 31
0.0
  0
LINE
  5
B15A
330
18
100
AcDbEntity
  8
1PHANTOM
100
AcDbLine
 10
-150.9189771574519
 20
-2174.69477606586
 30
0.0
 11
-124.5189771574519
 21
-2174.69477606586
 31
0.0
  0
ARC
  5
B15B
330
18
100
AcDbEntity
  8
1PHANTOM
100
AcDbCircle
 10
-144.2189771574519
 20
-2148.19477606586
 30
0.0
 40
0.5
100
AcDbArc
 50
90.0
 51
180.0
  0
ARC
  5
B15C
330
18
100
AcDbEntity
  8
1PHANTOM
100
AcDbCircle
 10
-131.2189771574519
 20
-2148.19477606586
 30
0.0
 40
0.5
100
AcDbArc
 50
0.0
 51
90.0
  0
ARC
  5
B15D
330
18
100
AcDbEntity
  8
1PHANTOM
100
AcDbCircle
 10
-143.2189771574519
 20
-2150.401882847046
 30
0.0
 40
0.5
100
AcDbArc
 50
0.0
 51
45.00000000000605
  0
ARC
  5
B15E
330
18
100
AcDbEntity
  8
1PHANTOM
100
AcDbCircle
 10
-143.2189771574519
 20
-2151.987669284673
 30
0.0
 40
0.5
100
AcDbArc
 50
314.9999999999911
 51
0.0
  0
LINE
  5
B15F
330
18
100
AcDbEntity
  8
1PHANTOM
100
AcDbLine
 10
-142.718977157452
 20
-2150.401882847046
 30
0.0
 11
-142.718977157452
 21
-2151.987669284673
 31
0.0
  0
LINE
  5
B160
330
18
100
AcDbEntity
  8
1PHANTOM
100
AcDbLine
 10
-144.7189771574519
 20
-2154.19477606586
 30
0.0
 11
-142.8654237668587
 21
-2152.341222675266
 31
0.0
  0
LINE
  5
B164
330
18
100
AcDbEntity
  8
01
100
AcDbLine
 10
-58.04649359281825
 20
-2134.69477606586
 30
0.0
 11
-36.04649359281825
 21
-2134.69477606586
 31
0.0
  0
LINE
  5
B165
330
18
100
AcDbEntity
  8
01
100
AcDbLine
 10
-57.54649359281825
 20
-2167.694984362091
 30
0.0
 11
-55.54649359281825
 21
-2167.694984362092
 31
0.0
  0
LINE
  5
B166
330
18
100
AcDbEntity
  8
01
100
AcDbLine
 10
-55.54649359281825
 20
-2174.69477606586
 30
0.0
 11
-26.54649359281825
 21
-2174.69477606586
 31
0.0
  0
LINE
  5
B167
330
18
100
AcDbEntity
  8
01
100
AcDbLine
 10
-55.54649359281825
 20
-2167.694984362091
 30
0.0
 11
-24.54649359281825
 21
-2167.694984362091
 31
0.0
  0
LINE
  5
B168
330
18
100
AcDbEntity
  8
01
100
AcDbLine
 10
-58.54649359281825
 20
-2166.694984362091
 30
0.0
 11
-58.54649359281825
 21
-2153.69477606586
 31
0.0
  0
ARC
  5
B16A
330
18
100
AcDbEntity
  8
01
100
AcDbCircle
 10
-57.54649359281825
 20
-2166.694984362091
 30
0.0
 40
1.0
100
AcDbArc
 50
180.0
 51
270.0
  0
LINE
  5
B16B
330
18
100
AcDbEntity
  8
01
100
AcDbLine
 10
-55.54649359281825
 20
-2167.694984362092
 30
0.0
 11
-55.54649359281825
 21
-2174.69477606586
 31
0.0
  0
ARC
  5
B16C
330
18
100
AcDbEntity
  8
01
100
AcDbCircle
 10
-58.04649359281825
 20
-2135.19477606586
 30
0.0
 40
0.5
100
AcDbArc
 50
90.0
 51
180.0
  0
LINE
  5
B16D
330
18
100
AcDbEntity
  8
01
100
AcDbLine
 10
-23.54649359281825
 20
-2166.694984362091
 30
0.0
 11
-23.54649359281825
 21
-2135.19477606586
 31
0.0
  0
LINE
  5
B16E
330
18
100
AcDbEntity
  8
01
100
AcDbLine
 10
-36.04649359281825
 20
-2134.69477606586
 30
0.0
 11
-36.04649359281825
 21
-2167.694984362091
 31
0.0
  0
ARC
  5
B16F
330
18
100
AcDbEntity
  8
01
100
AcDbCircle
 10
-24.54649359281825
 20
-2166.694984362091
 30
0.0
 40
1.0
100
AcDbArc
 50
270.0
 51
0.0
  0
LINE
  5
B170
330
18
100
AcDbEntity
  8
01
100
AcDbLine
 10
-26.54649359281825
 20
-2174.69477606586
 30
0.0
 11
-26.54649359281825
 21
-2167.694984362091
 31
0.0
  0
LINE
  5
B171
330
18
100
AcDbEntity
  8
01
100
AcDbLine
 10
-36.04649359281825
 20
-2134.69477606586
 30
0.0
 11
-24.04649359281825
 21
-2134.69477606586
 31
0.0
  0
ARC
  5
B172
330
18
100
AcDbEntity
  8
01
100
AcDbCircle
 10
-24.04649359281825
 20
-2135.19477606586
 30
0.0
 40
0.5
100
AcDbArc
 50
0.0
 51
90.0
  0
ARC
  5
B175
330
18
100
AcDbEntity
  8
01
100
AcDbCircle
 10
-75.87149359281784
 20
-2150.19477606586
 30
0.0
 40
17.67499999999971
100
AcDbArc
 50
348.5788137249811
 51
11.4211862750189
  0
LINE
  5
B17B
330
18
100
AcDbEntity
  8
01
100
AcDbLine
 10
-58.54649359281825
 20
-2146.694776065859
 30
0.0
 11
-58.54649359281825
 21
-2135.19477606586
 31
0.0
  0
LINE
  5
B188
330
18
100
AcDbEntity
  8
01
100
AcDbLine
 10
-9.186647420086615
 20
-2174.69477606586
 30
0.0
 11
-75.73438876243972
 21
-2174.69477606586
 31
0.0
  0
LINE
  5
B1B7
330
18
100
AcDbEntity
  8
1PHANTOM
100
AcDbLine
 10
-54.24649359281824
 20
-2171.69477606586
 30
0.0
 11
-27.84649359281821
 21
-2171.69477606586
 31
0.0
  0
LINE
  5
B1B8
330
18
100
AcDbEntity
  8
1PHANTOM
100
AcDbLine
 10
-54.24649359281824
 20
-2171.69477606586
 30
0.0
 11
-54.24649359281824
 21
-2174.69477606586
 31
0.0
  0
LINE
  5
B1B9
330
18
100
AcDbEntity
  8
1PHANTOM
100
AcDbLine
 10
-48.04649359281825
 20
-2171.69477606586
 30
0.0
 11
-48.04649359281825
 21
-2154.19477606586
 31
0.0
  0
LINE
  5
B1BA
330
18
100
AcDbEntity
  8
1PHANTOM
100
AcDbLine
 10
-34.04649359281825
 20
-2171.69477606586
 30
0.0
 11
-34.04649359281825
 21
-2148.19477606586
 31
0.0
  0
LINE
  5
B1BB
330
18
100
AcDbEntity
  8
1PHANTOM
100
AcDbLine
 10
-27.84649359281821
 20
-2171.69477606586
 30
0.0
 11
-27.84649359281826
 21
-2174.69477606586
 31
0.0
  0
LINE
  5
B1BC
330
18
100
AcDbEntity
  8
1PHANTOM
100
AcDbLine
 10
-34.54649359281825
 20
-2147.69477606586
 30
0.0
 11
-47.54649359281825
 21
-2147.69477606586
 31
0.0
  0
LINE
  5
B1BD
330
18
100
AcDbEntity
  8
1PHANTOM
100
AcDbLine
 10
-48.04649359281825
 20
-2148.19477606586
 30
0.0
 11
-46.19294020222492
 21
-2150.048329456453
 31
0.0
  0
LINE
  5
B1BE
330
18
100
AcDbEntity
  8
1PHANTOM
100
AcDbLine
 10
-48.04649359281825
 20
-2148.19477606586
 30
0.0
 11
-48.04649359281825
 21
-2148.19477606586
 31
0.0
  0
LINE
  5
B1BF
330
18
100
AcDbEntity
  8
1PHANTOM
100
AcDbLine
 10
-54.24649359281824
 20
-2174.69477606586
 30
0.0
 11
-27.84649359281826
 21
-2174.69477606586
 31
0.0
  0
ARC
  5
B1C0
330
18
100
AcDbEntity
  8
1PHANTOM
100
AcDbCircle
 10
-47.54649359281825
 20
-2148.19477606586
 30
0.0
 40
0.5
100
AcDbArc
 50
90.0
 51
180.0
  0
ARC
  5
B1C1
330
18
100
AcDbEntity
  8
1PHANTOM
100
AcDbCircle
 10
-34.54649359281825
 20
-2148.19477606586
 30
0.0
 40
0.5
100
AcDbArc
 50
0.0
 51
90.0
  0
ARC
  5
B1C2
330
18
100
AcDbEntity
  8
1PHANTOM
100
AcDbCircle
 10
-46.54649359281825
 20
-2150.401882847046
 30
0.0
 40
0.5
100
AcDbArc
 50
0.0
 51
45.00000000000618
  0
ARC
  5
B1C3
330
18
100
AcDbEntity
  8
1PHANTOM
100
AcDbCircle
 10
-46.54649359281825
 20
-2151.987669284673
 30
0.0
 40
0.5
100
AcDbArc
 50
314.9999999999912
 51
0.0
  0
LINE
  5
B1C4
330
18
100
AcDbEntity
  8
1PHANTOM
100
AcDbLine
 10
-46.04649359281834
 20
-2150.401882847046
 30
0.0
 11
-46.04649359281834
 21
-2151.987669284673
 31
0.0
  0
LINE
  5
B1C5
330
18
100
AcDbEntity
  8
1PHANTOM
100
AcDbLine
 10
-48.04649359281825
 20
-2154.19477606586
 30
0.0
 11
-46.19294020222503
 21
-2152.341222675266
 31
0.0
  0
ARC
  5
B1C6
330
18
100
AcDbEntity
  8
1PHANTOM
 48
0.25
100
AcDbCircle
 10
-38.04649359281836
 20
-2146.494769085471
 30
0.0
 40
4.0
100
AcDbArc
 50
0.0
 51
90.00013331552832
  0
LINE
  5
B1C7
330
18
100
AcDbEntity
  8
1PHANTOM
 48
0.25
100
AcDbLine
 10
-37.04644324524395
 20
-2147.694766758562
 30
0.0
 11
-45.04644324544597
 21
-2147.694785372922
 31
0.0
  0
LINE
  5
B1C8
330
18
100
AcDbEntity
  8
1PHANTOM
 48
0.25
100
AcDbLine
 10
-34.04649359281836
 20
-2146.494769085471
 30
0.0
 11
-34.04649359281836
 21
-2147.694759778295
 31
0.0
  0
LINE
  5
B1C9
330
18
100
AcDbEntity
  8
1PHANTOM
 48
0.25
100
AcDbLine
 10
-37.04644324524395
 20
-2147.694766758562
 30
0.0
 11
-34.04649359281836
 21
-2147.694759778295
 31
0.0
  0
ARC
  5
B1CA
330
18
100
AcDbEntity
  8
1PHANTOM
 48
0.25
100
AcDbCircle
 10
-44.04649359281825
 20
-2146.494783046241
 30
0.0
 40
4.0
100
AcDbArc
 50
90.00013331552832
 51
180.0
  0
LINE
  5
B1CB
330
18
100
AcDbEntity
  8
1PHANTOM
 48
0.25
100
AcDbLine
 10
-48.04649359281802
 20
-2147.694792353424
 30
0.0
 11
-45.04644324544597
 21
-2147.694785372922
 31
0.0
  0
LINE
  5
B1CC
330
18
100
AcDbEntity
  8
1PHANTOM
 48
0.25
100
AcDbLine
 10
-44.04650289999779
 20
-2142.494783046252
 30
0.0
 11
-38.0465028999979
 21
-2142.494769085482
 31
0.0
  0
LINE
  5
B1CD
330
18
100
AcDbEntity
  8
1PHANTOM
 48
0.25
100
AcDbLine
 10
-48.04649359281814
 20
-2146.494783046241
 30
0.0
 11
-48.04649359281802
 21
-2147.694792353424
 31
0.0
  0
LINE
  5
B1CE
330
18
100
AcDbEntity
  8
1PHANTOM
100
AcDbLine
 10
-47.04649359281825
 20
-2174.69477606586
 30
0.0
 11
-35.04649359281825
 21
-2174.69477606586
 31
0.0
  0
LINE
  5
B1CF
330
18
100
AcDbEntity
  8
1PHANTOM
100
AcDbLine
 10
-35.54649359281825
 20
-2209.69477606586
 30
0.0
 11
-46.54649359281825
 21
-2209.69477606586
 31
0.0
  0
LINE
  5
B1D0
330
18
100
AcDbEntity
  8
1PHANTOM
100
AcDbLine
 10
-47.04649359281825
 20
-2209.19477606586
 30
0.0
 11
-47.04649359281819
 21
-2204.194776065859
 31
0.0
  0
LINE
  5
B1D1
330
18
100
AcDbEntity
  8
1PHANTOM
100
AcDbLine
 10
-40.54649359281825
 20
-2192.69477606586
 30
0.0
 11
-41.54649359281825
 21
-2192.69477606586
 31
0.0
  0
LINE
  5
B1D2
330
18
100
AcDbEntity
  8
1PHANTOM
100
AcDbLine
 10
-41.54649359281825
 20
-2209.69477606586
 30
0.0
 11
-41.54649359281825
 21
-2192.69477606586
 31
0.0
  0
LINE
  5
B1D3
330
18
100
AcDbEntity
  8
1PHANTOM
100
AcDbLine
 10
-40.54649359281825
 20
-2209.69477606586
 30
0.0
 11
-40.54649359281825
 21
-2192.69477606586
 31
0.0
  0
LINE
  5
B1D4
330
18
100
AcDbEntity
  8
1PHANTOM
100
AcDbLine
 10
-47.04649359281819
 20
-2202.69477606586
 30
0.0
 11
-46.54649359281808
 21
-2202.69477606586
 31
0.0
  0
LINE
  5
B1D5
330
18
100
AcDbEntity
  8
1PHANTOM
100
AcDbLine
 10
-47.04649359281819
 20
-2199.69477606586
 30
0.0
 11
-46.54649359281819
 21
-2199.69477606586
 31
0.0
  0
LINE
  5
B1D6
330
18
100
AcDbEntity
  8
1PHANTOM
100
AcDbLine
 10
-47.04649359281825
 20
-2196.69477606586
 30
0.0
 11
-46.54649359281814
 21
-2196.69477606586
 31
0.0
  0
LINE
  5
B1D7
330
18
100
AcDbEntity
  8
1PHANTOM
100
AcDbLine
 10
-47.04649359281825
 20
-2204.19477606586
 30
0.0
 11
-46.54649359281825
 21
-2202.69477606586
 31
0.0
  0
LINE
  5
B1D8
330
18
100
AcDbEntity
  8
1PHANTOM
100
AcDbLine
 10
-47.04649359281825
 20
-2201.19477606586
 30
0.0
 11
-46.54649359281825
 21
-2199.69477606586
 31
0.0
  0
LINE
  5
B1D9
330
18
100
AcDbEntity
  8
1PHANTOM
100
AcDbLine
 10
-47.04649359281825
 20
-2198.19477606586
 30
0.0
 11
-46.54649359281825
 21
-2196.69477606586
 31
0.0
  0
LINE
  5
B1DA
330
18
100
AcDbEntity
  8
1PHANTOM
100
AcDbLine
 10
-47.04649359281825
 20
-2196.69477606586
 30
0.0
 11
-47.04649359281825
 21
-2174.69477606586
 31
0.0
  0
LINE
  5
B1DB
330
18
100
AcDbEntity
  8
1PHANTOM
100
AcDbLine
 10
-47.04649359281819
 20
-2199.69477606586
 30
0.0
 11
-47.04649359281819
 21
-2198.19477606586
 31
0.0
  0
LINE
  5
B1DC
330
18
100
AcDbEntity
  8
1PHANTOM
100
AcDbLine
 10
-47.04649359281825
 20
-2202.694776065859
 30
0.0
 11
-47.04649359281819
 21
-2201.194776065859
 31
0.0
  0
LINE
  5
B1DD
330
18
100
AcDbEntity
  8
1PHANTOM
100
AcDbLine
 10
-35.04649359281825
 20
-2209.19477606586
 30
0.0
 11
-35.04649359281831
 21
-2204.194776065859
 31
0.0
  0
LINE
  5
B1DE
330
18
100
AcDbEntity
  8
1PHANTOM
100
AcDbLine
 10
-35.04649359281825
 20
-2196.69477606586
 30
0.0
 11
-35.54649359281825
 21
-2196.69477606586
 31
0.0
  0
LINE
  5
B1DF
330
18
100
AcDbEntity
  8
1PHANTOM
100
AcDbLine
 10
-35.04649359281831
 20
-2199.69477606586
 30
0.0
 11
-35.54649359281825
 21
-2199.694776065859
 31
0.0
  0
LINE
  5
B1E0
330
18
100
AcDbEntity
  8
1PHANTOM
100
AcDbLine
 10
-35.04649359281831
 20
-2202.69477606586
 30
0.0
 11
-35.54649359281819
 21
-2202.69477606586
 31
0.0
  0
LINE
  5
B1E1
330
18
100
AcDbEntity
  8
1PHANTOM
100
AcDbLine
 10
-35.04649359281825
 20
-2202.694776065859
 30
0.0
 11
-35.04649359281831
 21
-2201.194776065859
 31
0.0
  0
LINE
  5
B1E2
330
18
100
AcDbEntity
  8
1PHANTOM
100
AcDbLine
 10
-35.04649359281831
 20
-2199.69477606586
 30
0.0
 11
-35.04649359281831
 21
-2198.19477606586
 31
0.0
  0
LINE
  5
B1E3
330
18
100
AcDbEntity
  8
1PHANTOM
100
AcDbLine
 10
-35.04649359281825
 20
-2196.69477606586
 30
0.0
 11
-35.04649359281825
 21
-2174.69477606586
 31
0.0
  0
LINE
  5
B1E4
330
18
100
AcDbEntity
  8
1PHANTOM
100
AcDbLine
 10
-35.04649359281825
 20
-2198.19477606586
 30
0.0
 11
-35.54649359281825
 21
-2196.69477606586
 31
0.0
  0
LINE
  5
B1E5
330
18
100
AcDbEntity
  8
1PHANTOM
100
AcDbLine
 10
-35.04649359281825
 20
-2201.19477606586
 30
0.0
 11
-35.54649359281825
 21
-2199.69477606586
 31
0.0
  0
LINE
  5
B1E6
330
18
100
AcDbEntity
  8
1PHANTOM
100
AcDbLine
 10
-35.04649359281825
 20
-2204.19477606586
 30
0.0
 11
-35.54649359281825
 21
-2202.69477606586
 31
0.0
  0
ARC
  5
B1E7
330
18
100
AcDbEntity
  8
1PHANTOM
100
AcDbCircle
 10
-46.54649359281825
 20
-2209.19477606586
 30
0.0
 40
0.5
100
AcDbArc
 50
180.0
 51
270.0
  0
ARC
  5
B1E8
330
18
100
AcDbEntity
  8
1PHANTOM
100
AcDbCircle
 10
-35.54649359281825
 20
-2209.19477606586
 30
0.0
 40
0.5
100
AcDbArc
 50
270.0
 51
0.0
  0
TEXT
  5
B1EB
330
18
100
AcDbEntity
  8
1TEXT
100
AcDbText
 10
-40.01189338230791
 20
-2226.373866797003
 30
0.0
 40
4.0
  1
コンクリート
100
AcDbText
  0
TEXT
  5
B526
330
18
100
AcDbEntity
  8
1TEXT
100
AcDbText
 10
-270.0407024767134
 20
-2021.991633480627
 30
0.0
 40
7.0
  1
AC-777-X
 41
1.0098214
100
AcDbText
  0
LINE
  5
B527
330
18
100
AcDbEntity
  8
1DIM
100
AcDbLine
 10
-268.9151460598958
 20
-2056.878246212275
 30
0.0
 11
-233.9151460598958
 21
-2056.878246212275
 31
0.0
  0
TEXT
  5
B528
330
18
100
AcDbEntity
  8
1TEXT
100
AcDbText
 10
-260.7818127265629
 20
-2034.378246212275
 30
0.0
 40
4.0
  1
表面処理
 72
     1
 11
-251.5151460598962
 21
-2034.378246212275
 31
0.0
100
AcDbText
  0
TEXT
  5
B529
330
18
100
AcDbEntity
  8
1TEXT
100
AcDbText
 10
-260.9818127265629
 20
-2041.35614123226
 30
0.0
 40
4.0
  1
クローム
 72
     1
 11
-251.5151460598962
 21
-2041.35614123226
 31
0.0
100
AcDbText
  0
LINE
  5
B52A
330
18
100
AcDbEntity
  8
1DIM
100
AcDbLine
 10
-268.9151460598958
 20
-2028.878246212275
 30
0.0
 11
-163.9151460598958
 21
-2028.878246212275
 31
0.0
  0
LINE
  5
B52B
330
18
100
AcDbEntity
  8
1DIM
100
AcDbLine
 10
-268.9151460598958
 20
-2042.878246212275
 30
0.0
 11
-163.9151460598959
 21
-2042.878246212275
 31
0.0
  0
LINE
  5
B52C
330
18
100
AcDbEntity
  8
1DIM
100
AcDbLine
 10
-268.9151460598958
 20
-2035.878246212275
 30
0.0
 11
-163.9151460598959
 21
-2035.878246212275
 31
0.0
  0
LINE
  5
B52D
330
18
100
AcDbEntity
  8
1DIM
100
AcDbLine
 10
-268.9151460598958
 20
-2049.878246212275
 30
0.0
 11
-198.9151460598958
 21
-2049.878246212275
 31
0.0
  0
LINE
  5
B52E
330
18
100
AcDbEntity
  8
1DIM
100
AcDbLine
 10
-268.9151460598958
 20
-2049.878246212275
 30
0.0
 11
-163.9151460598959
 21
-2049.878246212275
 31
0.0
  0
LINE
  5
B52F
330
18
100
AcDbEntity
  8
1DIM
100
AcDbLine
 10
-233.9151460598958
 20
-2028.878246212275
 30
0.0
 11
-233.9151460598958
 21
-2056.878246212275
 31
0.0
  0
TEXT
  5
B530
330
18
100
AcDbEntity
  8
1TEXT
100
AcDbText
 10
-230.0484793932286
 20
-2048.592603195925
 30
0.0
 40
4.0
  1
AC-777-XND
 41
0.7
 72
     1
 11
-216.5151460598953
 21
-2048.592603195925
 31
0.0
100
AcDbText
  0
TEXT
  5
B531
330
18
100
AcDbEntity
  8
1TEXT
100
AcDbText
 10
-230.0484793932286
 20
-2041.592603195925
 30
0.0
 40
4.0
  1
AC-777-XCD
 41
0.7
 72
     1
 11
-216.5151460598953
 21
-2041.592603195925
 31
0.0
100
AcDbText
  0
TEXT
  5
B532
330
18
100
AcDbEntity
  8
1TEXT
100
AcDbText
 10
-231.82317675073
 20
-2034.378246212275
 30
0.0
 40
4.0
  1
コード（緩衝材ライトグレー）
 41
0.5
 72
     1
 11
-215.82317675073
 21
-2034.378246212275
 31
0.0
100
AcDbText
  0
LINE
  5
B533
330
18
100
AcDbEntity
  8
1DIM
100
AcDbLine
 10
-268.9151460598958
 20
-2056.878246212275
 30
0.0
 11
-268.9151460598958
 21
-2028.878246212275
 31
0.0
  0
LINE
  5
B534
330
18
100
AcDbEntity
  8
1DIM
100
AcDbLine
 10
-198.9151460598958
 20
-2056.878246212275
 30
0.0
 11
-198.9151460598958
 21
-2028.878246212275
 31
0.0
  0
TEXT
  5
B535
330
18
100
AcDbEntity
  8
1TEXT
100
AcDbText
 10
-267.7151460598962
 20
-2055.189159823846
 30
0.0
 40
4.0
  1
ダークアンバー
 72
     1
 11
-251.5151460598962
 21
-2055.189159823846
 31
0.0
100
AcDbText
  0
TEXT
  5
B537
330
18
100
AcDbEntity
  8
1TEXT
100
AcDbText
 10
-268.0484793932296
 20
-2048.189159823846
 30
0.0
 40
4.0
  1
サテンニッケル
 72
     1
 11
-251.5151460598962
 21
-2048.189159823846
 31
0.0
100
AcDbText
  0
TEXT
  5
B538
330
18
100
AcDbEntity
  8
1TEXT
100
AcDbText
 10
-195.0484793932286
 20
-2048.592603195925
 30
0.0
 40
4.0
  1
AC-777-XNK
 41
0.7
 72
     1
 11
-181.5151460598953
 21
-2048.592603195925
 31
0.0
100
AcDbText
  0
TEXT
  5
B539
330
18
100
AcDbEntity
  8
1TEXT
100
AcDbText
 10
-195.0484793932286
 20
-2041.592603195925
 30
0.0
 40
4.0
  1
AC-777-XCK
 41
0.7
 72
     1
 11
-181.5151460598953
 21
-2041.592603195925
 31
0.0
100
AcDbText
  0
LINE
  5
B53A
330
18
100
AcDbEntity
  8
1DIM
100
AcDbLine
 10
-163.9151460598958
 20
-2056.878246212275
 30
0.0
 11
-163.9151460598958
 21
-2028.878246212275
 31
0.0
  0
TEXT
  5
B53B
330
18
100
AcDbEntity
  8
1TEXT
100
AcDbText
 10
-195.0484793932286
 20
-2055.592603195925
 30
0.0
 40
4.0
  1
AC-777-4QK
 41
0.7
 72
     1
 11
-181.5151460598953
 21
-2055.592603195925
 31
0.0
100
AcDbText
  0
TEXT
  5
B53C
330
18
100
AcDbEntity
  8
1TEXT
100
AcDbText
 10
-194.42317675073
 20
-2034.378246212275
 30
0.0
 40
4.0
  1
コード（緩衝材ブラック）
 41
0.5
 72
     1
 11
-180.82317675073
 21
-2034.378246212275
 31
0.0
100
AcDbText
  0
LINE
  5
BD72
330
18
100
AcDbEntity
  8
1DIM
100
AcDbLine
 10
-198.9151460598958
 20
-2056.878246212275
 30
0.0
 11
-163.9151460598958
 21
-2056.878246212275
 31
0.0
  0
LINE
  5
BE8B
330
18
100
AcDbEntity
  8
1DIM
100
AcDbLine
 10
-198.2189771574541
 20
-2174.69477606586
 30
0.0
 11
-198.2189771574541
 21
-2190.329988518425
 31
0.0
1001
ACAD
1000
DSTYLE
1002
{
1070
     3
1000
φ<>
1002
}
  0
LINE
  5
BE8C
330
18
100
AcDbEntity
  8
1DIM
100
AcDbLine
 10
-227.2189771574541
 20
-2174.69477606586
 30
0.0
 11
-227.2189771574541
 21
-2190.329988518425
 31
0.0
1001
ACAD
1000
DSTYLE
1002
{
1070
     3
1000
φ<>
1002
}
  0
LINE
  5
BE8D
330
18
100
AcDbEntity
  8
1DIM
100
AcDbLine
 10
-200.2189771574541
 20
-2189.329988518425
 30
0.0
 11
-225.2189771574541
 21
-2189.329988518425
 31
0.0
1001
ACAD
1000
DSTYLE
1002
{
1070
     3
1000
φ<>
1002
}
  0
LINE
  5
BE91
330
18
100
AcDbEntity
  8
1DIM
100
AcDbLine
 10
-230.2189771574541
 20
-2166.694984362092
 30
0.0
 11
-230.2189771574541
 21
-2197.131812154315
 31
0.0
1001
ACAD
1000
DSTYLE
1002
{
1070
     3
1000
φ<>
1002
}
  0
LINE
  5
BE92
330
18
100
AcDbEntity
  8
1DIM
100
AcDbLine
 10
-195.2189771574537
 20
-2166.694984362092
 30
0.0
 11
-195.2189771574537
 21
-2197.131812154315
 31
0.0
1001
ACAD
1000
DSTYLE
1002
{
1070
     3
1000
φ<>
1002
}
  0
LINE
  5
BE93
330
18
100
AcDbEntity
  8
1DIM
100
AcDbLine
 10
-228.2189771574541
 20
-2196.131812154315
 30
0.0
 11
-197.2189771574537
 21
-2196.131812154315
 31
0.0
1001
ACAD
1000
DSTYLE
1002
{
1070
     3
1000
φ<>
1002
}
  0
LINE
  5
BE97
330
18
100
AcDbEntity
  8
1DIM
100
AcDbLine
 10
-214.3684097940628
 20
-2150.732138781596
 30
0.0
 11
-213.2028636420243
 21
-2150.732146917557
 31
0.0
  0
LINE
  5
BE98
330
18
100
AcDbEntity
  8
1DIM
100
AcDbLine
 10
-213.2028555061113
 20
-2151.897686262258
 30
0.0
 11
-212.2276460240998
 21
-2151.897693069595
 31
0.0
  0
LINE
  5
BE99
330
18
100
AcDbEntity
  8
1DIM
100
AcDbLine
 10
-213.2028555061113
 20
-2151.897686262258
 30
0.0
 11
-213.2028636420243
 21
-2150.732146917557
 31
0.0
  0
LINE
  5
BE9A
330
18
100
AcDbEntity
  8
1DIM
100
AcDbLine
 10
-214.3684029867254
 20
-2149.756929299585
 30
0.0
 11
-214.3684097940628
 21
-2150.732138781596
 31
0.0
  0
LINE
  5
BE9B
330
18
100
AcDbEntity
  8
1DIM
100
AcDbLine
 10
-214.3684029867254
 20
-2149.756929299585
 30
0.0
 11
-213.2028704494753
 21
-2149.75692116372
 31
0.0
  0
LINE
  5
BE9C
330
18
100
AcDbEntity
  8
1DIM
100
AcDbLine
 10
-213.2028704494753
 20
-2149.75692116372
 30
0.0
 11
-213.2028785854358
 21
-2148.591375011472
 31
0.0
  0
LINE
  5
BE9D
330
18
100
AcDbEntity
  8
1DIM
100
AcDbLine
 10
-212.2276310806408
 20
-2149.756914356174
 30
0.0
 11
-211.0620917359396
 21
-2149.756906220261
 31
0.0
  0
LINE
  5
BE9E
330
18
100
AcDbEntity
  8
1DIM
100
AcDbLine
 10
-212.2276310806408
 20
-2149.756914356174
 30
0.0
 11
-212.2276229447753
 21
-2148.591381819132
 31
0.0
  0
LINE
  5
BE9F
330
18
100
AcDbEntity
  8
1DIM
100
AcDbLine
 10
-212.2276229447753
 20
-2148.591381819132
 30
0.0
 11
-213.2028785854358
 21
-2148.591375011472
 31
0.0
  0
LINE
  5
BEA0
330
18
100
AcDbEntity
  8
1DIM
100
AcDbLine
 10
-212.2276378881867
 20
-2150.732153725008
 30
0.0
 11
-211.0620985435992
 21
-2150.732161860921
 31
0.0
  0
LINE
  5
BEA1
330
18
100
AcDbEntity
  8
1DIM
100
AcDbLine
 10
-211.0620985435992
 20
-2150.732161860921
 30
0.0
 11
-211.0620917359396
 21
-2149.756906220261
 31
0.0
  0
LINE
  5
BEA2
330
18
100
AcDbEntity
  8
1DIM
100
AcDbLine
 10
-212.2276460240998
 20
-2151.897693069595
 30
0.0
 11
-212.2276378881867
 21
-2150.732153725008
 31
0.0
  0
LINE
  5
BEA3
330
18
100
AcDbEntity
  8
1DIM
100
AcDbLine
 10
-220.686410872271
 20
-2087.043119917473
 30
0.0
 11
-220.686410872271
 21
-2108.215169018036
 31
0.0
1001
ACAD
1000
DSTYLE
1002
{
1070
   271
1070
     0
1002
}
  0
LINE
  5
BEA4
330
18
100
AcDbEntity
  8
1DIM
100
AcDbLine
 10
-204.751543442637
 20
-2087.043119917473
 30
0.0
 11
-204.751543442637
 21
-2108.215169018036
 31
0.0
1001
ACAD
1000
DSTYLE
1002
{
1070
   271
1070
     0
1002
}
  0
LINE
  5
BEA5
330
18
100
AcDbEntity
  8
1DIM
100
AcDbLine
 10
-218.686410872271
 20
-2107.215169018036
 30
0.0
 11
-206.751543442637
 21
-2107.215169018036
 31
0.0
1001
ACAD
1000
DSTYLE
1002
{
1070
   271
1070
     0
1002
}
  0
LINE
  5
BEA9
330
18
100
AcDbEntity
  8
1DIM
100
AcDbLine
 10
-212.7189771574538
 20
-2096.943119917474
 30
0.0
 11
-181.9756136937799
 21
-2096.943119917474
 31
0.0
1001
ACAD
1000
DSTYLE
1002
{
1070
   271
1070
     0
1002
}
  0
LINE
  5
BEAA
330
18
100
AcDbEntity
  8
1DIM
100
AcDbLine
 10
-201.751543442637
 20
-2084.043119917473
 30
0.0
 11
-181.9756136937799
 21
-2084.043119917473
 31
0.0
1001
ACAD
1000
DSTYLE
1002
{
1070
   271
1070
     0
1002
}
  0
LINE
  5
BEAB
330
18
100
AcDbEntity
  8
1DIM
100
AcDbLine
 10
-182.9756136937799
 20
-2094.943119917474
 30
0.0
 11
-182.9756136937799
 21
-2086.043119917473
 31
0.0
1001
ACAD
1000
DSTYLE
1002
{
1070
   271
1070
     0
1002
}
  0
LINE
  5
BEAF
330
18
100
AcDbEntity
  8
1DIM
100
AcDbLine
 10
-201.751543442637
 20
-2084.043119917473
 30
0.0
 11
-181.9756136937799
 21
-2084.043119917473
 31
0.0
1001
ACAD
1000
DSTYLE
1002
{
1070
   271
1070
     0
1002
}
  0
LINE
  5
BEB0
330
18
100
AcDbEntity
  8
1DIM
100
AcDbLine
 10
-209.7189771574538
 20
-2070.243119917473
 30
0.0
 11
-181.9756136937799
 21
-2070.243119917473
 31
0.0
1001
ACAD
1000
DSTYLE
1002
{
1070
   271
1070
     0
1002
}
  0
LINE
  5
BEB1
330
18
100
AcDbEntity
  8
1DIM
100
AcDbLine
 10
-182.9756136937799
 20
-2082.043119917473
 30
0.0
 11
-182.9756136937799
 21
-2072.243119917473
 31
0.0
1001
ACAD
1000
DSTYLE
1002
{
1070
   271
1070
     0
1002
}
  0
LINE
  5
BEB5
330
18
100
AcDbEntity
  8
1DIM
100
AcDbLine
 10
-198.2189771574541
 20
-2174.69477606586
 30
0.0
 11
-174.2189771574538
 21
-2174.69477606586
 31
0.0
  0
LINE
  5
BEB6
330
18
100
AcDbEntity
  8
1DIM
100
AcDbLine
 10
-195.7189771574541
 20
-2134.69477606586
 30
0.0
 11
-174.2189771574538
 21
-2134.69477606586
 31
0.0
  0
LINE
  5
BEB7
330
18
100
AcDbEntity
  8
1DIM
100
AcDbLine
 10
-175.2189771574538
 20
-2172.69477606586
 30
0.0
 11
-175.2189771574538
 21
-2136.69477606586
 31
0.0
  0
LINE
  5
BEBB
330
18
100
AcDbEntity
  8
1HATCH
  6
CONTINUOUS
100
AcDbLine
 10
-166.1533651294922
 20
-2174.701120430588
 30
0.0
 11
-166.1470207647641
 21
-2174.69477606586
 31
0.0
1001
ACAD
1010
0.0
1020
0.0
1030
0.0
  0
LINE
  5
BEBC
330
18
100
AcDbEntity
  8
1HATCH
  6
CONTINUOUS
100
AcDbLine
 10
-166.1533651294922
 20
-2176.946184460855
 30
0.0
 11
-163.9019567344968
 21
-2174.69477606586
 31
0.0
1001
ACAD
1010
0.0
1020
0.0
1030
0.0
  0
LINE
  5
BEBD
330
18
100
AcDbEntity
  8
1HATCH
  6
CONTINUOUS
100
AcDbLine
 10
-166.1533651294922
 20
-2179.191248491122
 30
0.0
 11
-161.6568927042295
 21
-2174.69477606586
 31
0.0
1001
ACAD
1010
0.0
1020
0.0
1030
0.0
  0
LINE
  5
BEBE
330
18
100
AcDbEntity
  8
1HATCH
  6
CONTINUOUS
100
AcDbLine
 10
-166.1533651294922
 20
-2181.436312521389
 30
0.0
 11
-159.4118286739622
 21
-2174.69477606586
 31
0.0
1001
ACAD
1010
0.0
1020
0.0
1030
0.0
  0
LINE
  5
BEBF
330
18
100
AcDbEntity
  8
1HATCH
  6
CONTINUOUS
100
AcDbLine
 10
-166.1533651294922
 20
-2183.681376551657
 30
0.0
 11
-157.1667646436949
 21
-2174.69477606586
 31
0.0
1001
ACAD
1010
0.0
1020
0.0
1030
0.0
  0
LINE
  5
BEC0
330
18
100
AcDbEntity
  8
1HATCH
  6
CONTINUOUS
100
AcDbLine
 10
-166.1533651294922
 20
-2185.926440581924
 30
0.0
 11
-154.9217006134276
 21
-2174.69477606586
 31
0.0
1001
ACAD
1010
0.0
1020
0.0
1030
0.0
  0
LINE
  5
BEC1
330
18
100
AcDbEntity
  8
1HATCH
  6
CONTINUOUS
100
AcDbLine
 10
-164.6766365831599
 20
-2186.694776065859
 30
0.0
 11
-152.6766365831604
 21
-2174.69477606586
 31
0.0
1001
ACAD
1010
0.0
1020
0.0
1030
0.0
  0
LINE
  5
BEC2
330
18
100
AcDbEntity
  8
1HATCH
  6
CONTINUOUS
100
AcDbLine
 10
-162.4315725528926
 20
-2186.694776065859
 30
0.0
 11
-150.431572552893
 21
-2174.69477606586
 31
0.0
1001
ACAD
1010
0.0
1020
0.0
1030
0.0
  0
LINE
  5
BEC3
330
18
100
AcDbEntity
  8
1HATCH
  6
CONTINUOUS
100
AcDbLine
 10
-160.1865085226253
 20
-2186.694776065859
 30
0.0
 11
-148.1865085226256
 21
-2174.69477606586
 31
0.0
1001
ACAD
1010
0.0
1020
0.0
1030
0.0
  0
LINE
  5
BEC4
330
18
100
AcDbEntity
  8
1HATCH
  6
CONTINUOUS
100
AcDbLine
 10
-157.941444492358
 20
-2186.694776065859
 30
0.0
 11
-145.9414444923582
 21
-2174.694776065859
 31
0.0
1001
ACAD
1010
0.0
1020
0.0
1030
0.0
  0
LINE
  5
BEC5
330
18
100
AcDbEntity
  8
1HATCH
  6
CONTINUOUS
100
AcDbLine
 10
-155.6963804620908
 20
-2186.694776065859
 30
0.0
 11
-143.6963804620908
 21
-2174.694776065859
 31
0.0
1001
ACAD
1010
0.0
1020
0.0
1030
0.0
  0
LINE
  5
BEC6
330
18
100
AcDbEntity
  8
1HATCH
  6
CONTINUOUS
100
AcDbLine
 10
-153.4513164318234
 20
-2186.694776065859
 30
0.0
 11
-143.7070272164316
 21
-2176.950486850467
 31
0.0
1001
ACAD
1010
0.0
1020
0.0
1030
0.0
  0
LINE
  5
BEC7
330
18
100
AcDbEntity
  8
1HATCH
  6
CONTINUOUS
100
AcDbLine
 10
-151.2062524015562
 20
-2186.694776065859
 30
0.0
 11
-143.5689771574513
 21
-2179.057500821754
 31
0.0
1001
ACAD
1010
0.0
1020
0.0
1030
0.0
  0
LINE
  5
BEC8
330
18
100
AcDbEntity
  8
1HATCH
  6
CONTINUOUS
100
AcDbLine
 10
-141.068977157452
 20
-2176.557500821755
 30
0.0
 11
-140.5956866095515
 21
-2176.084210273854
 31
0.0
1001
ACAD
1010
0.0
1020
0.0
1030
0.0
  0
LINE
  5
BEC9
330
18
100
AcDbEntity
  8
1HATCH
  6
CONTINUOUS
100
AcDbLine
 10
-140.5861475454105
 20
-2176.074671209713
 30
0.0
 11
-139.2062524015566
 21
-2174.69477606586
 31
0.0
1001
ACAD
1010
0.0
1020
0.0
1030
0.0
  0
LINE
  5
BECA
330
18
100
AcDbEntity
  8
1HATCH
  6
CONTINUOUS
100
AcDbLine
 10
-148.9611883712889
 20
-2186.694776065859
 30
0.0
 11
-143.9652533319544
 21
-2181.698841026524
 31
0.0
1001
ACAD
1010
0.0
1020
0.0
1030
0.0
  0
LINE
  5
BECB
330
18
100
AcDbEntity
  8
1HATCH
  6
CONTINUOUS
100
AcDbLine
 10
-143.9076292277847
 20
-2181.641216922355
 30
0.0
 11
-143.5689771574511
 21
-2181.302564852022
 31
0.0
1001
ACAD
1010
0.0
1020
0.0
1030
0.0
  0
LINE
  5
BECC
330
18
100
AcDbEntity
  8
1HATCH
  6
CONTINUOUS
100
AcDbLine
 10
-141.068977157452
 20
-2178.802564852022
 30
0.0
 11
-136.9611883712892
 21
-2174.69477606586
 31
0.0
1001
ACAD
1010
0.0
1020
0.0
1030
0.0
  0
LINE
  5
BECD
330
18
100
AcDbEntity
  8
1HATCH
  6
CONTINUOUS
100
AcDbLine
 10
-146.7161243410216
 20
-2186.694776065859
 30
0.0
 11
-143.5689771574509
 21
-2183.547628882288
 31
0.0
1001
ACAD
1010
0.0
1020
0.0
1030
0.0
  0
LINE
  5
BECE
330
18
100
AcDbEntity
  8
1HATCH
  6
CONTINUOUS
100
AcDbLine
 10
-141.0689771574521
 20
-2181.04762888229
 30
0.0
 11
-140.9973710723595
 21
-2180.976022797197
 31
0.0
1001
ACAD
1010
0.0
1020
0.0
1030
0.0
  0
LINE
  5
BECF
330
18
100
AcDbEntity
  8
1HATCH
  6
CONTINUOUS
100
AcDbLine
 10
-140.8443736609332
 20
-2180.823025385771
 30
0.0
 11
-134.7161243410218
 21
-2174.694776065859
 31
0.0
1001
ACAD
1010
0.0
1020
0.0
1030
0.0
  0
LINE
  5
BED0
330
18
100
AcDbEntity
  8
1HATCH
  6
CONTINUOUS
100
AcDbLine
 10
-144.4710603107543
 20
-2186.694776065859
 30
0.0
 11
-143.5689771574507
 21
-2185.792692912556
 31
0.0
1001
ACAD
1010
0.0
1020
0.0
1030
0.0
  0
LINE
  5
BED1
330
18
100
AcDbEntity
  8
1HATCH
  6
CONTINUOUS
100
AcDbLine
 10
-141.0689771574522
 20
-2183.292692912557
 30
0.0
 11
-132.4710603107544
 21
-2174.694776065859
 31
0.0
1001
ACAD
1010
0.0
1020
0.0
1030
0.0
  0
LINE
  5
BED2
330
18
100
AcDbEntity
  8
1HATCH
  6
CONTINUOUS
100
AcDbLine
 10
-141.0689771574523
 20
-2185.537756942824
 30
0.0
 11
-130.225996280487
 21
-2174.694776065859
 31
0.0
1001
ACAD
1010
0.0
1020
0.0
1030
0.0
  0
LINE
  5
BED3
330
18
100
AcDbEntity
  8
1HATCH
  6
CONTINUOUS
100
AcDbLine
 10
-139.9809322502201
 20
-2186.69477606586
 30
0.0
 11
-130.1817065324931
 21
-2176.895550348132
 31
0.0
1001
ACAD
1010
0.0
1020
0.0
1030
0.0
  0
LINE
  5
BED4
330
18
100
AcDbEntity
  8
1HATCH
  6
CONTINUOUS
100
AcDbLine
 10
-130.1332230566916
 20
-2176.847066872331
 30
0.0
 11
-129.7689771574516
 21
-2176.482820973091
 31
0.0
1001
ACAD
1010
0.0
1020
0.0
1030
0.0
  0
LINE
  5
BED5
330
18
100
AcDbEntity
  8
1HATCH
  6
CONTINUOUS
100
AcDbLine
 10
-137.7358682199527
 20
-2186.69477606586
 30
0.0
 11
-129.7689771574514
 21
-2178.727885003358
 31
0.0
1001
ACAD
1010
0.0
1020
0.0
1030
0.0
  0
LINE
  5
BED6
330
18
100
AcDbEntity
  8
1HATCH
  6
CONTINUOUS
100
AcDbLine
 10
-127.268977157452
 20
-2176.227885003359
 30
0.0
 11
-127.2229649012667
 21
-2176.181872747173
 31
0.0
1001
ACAD
1010
0.0
1020
0.0
1030
0.0
  0
LINE
  5
BED7
330
18
100
AcDbEntity
  8
1HATCH
  6
CONTINUOUS
100
AcDbLine
 10
-127.0608268614724
 20
-2176.019734707379
 30
0.0
 11
-125.7358682199529
 21
-2174.69477606586
 31
0.0
1001
ACAD
1010
0.0
1020
0.0
1030
0.0
  0
LINE
  5
BED8
330
18
100
AcDbEntity
  8
1HATCH
  6
CONTINUOUS
100
AcDbLine
 10
-135.4908041896854
 20
-2186.69477606586
 30
0.0
 11
-129.7689771574512
 21
-2180.972949033625
 31
0.0
1001
ACAD
1010
0.0
1020
0.0
1030
0.0
  0
LINE
  5
BED9
330
18
100
AcDbEntity
  8
1HATCH
  6
CONTINUOUS
100
AcDbLine
 10
-127.268977157452
 20
-2178.472949033626
 30
0.0
 11
-123.4908041896856
 21
-2174.69477606586
 31
0.0
1001
ACAD
1010
0.0
1020
0.0
1030
0.0
  0
LINE
  5
BEDA
330
18
100
AcDbEntity
  8
1HATCH
  6
CONTINUOUS
100
AcDbLine
 10
-133.245740159418
 20
-2186.694776065859
 30
0.0
 11
-129.9023803317711
 21
-2183.351416238212
 31
0.0
1001
ACAD
1010
0.0
1020
0.0
1030
0.0
  0
LINE
  5
BEDB
330
18
100
AcDbEntity
  8
1HATCH
  6
CONTINUOUS
100
AcDbLine
 10
-127.2689771574521
 20
-2180.718013063894
 30
0.0
 11
-121.2457401594183
 21
-2174.69477606586
 31
0.0
1001
ACAD
1010
0.0
1020
0.0
1030
0.0
  0
LINE
  5
BEDC
330
18
100
AcDbEntity
  8
1HATCH
  6
CONTINUOUS
100
AcDbLine
 10
-131.0006761291506
 20
-2186.694776065859
 30
0.0
 11
-129.7689771574507
 21
-2185.463077094159
 31
0.0
1001
ACAD
1010
0.0
1020
0.0
1030
0.0
  0
LINE
  5
BEDD
330
18
100
AcDbEntity
  8
1HATCH
  6
CONTINUOUS
100
AcDbLine
 10
-127.2689771574522
 20
-2182.963077094161
 30
0.0
 11
-126.7884581332039
 21
-2182.482558069913
 31
0.0
1001
ACAD
1010
0.0
1020
0.0
1030
0.0
  0
LINE
  5
BEDE
330
18
100
AcDbEntity
  8
1HATCH
  6
CONTINUOUS
100
AcDbLine
 10
-126.7815006607508
 20
-2182.475600597459
 30
0.0
 11
-119.000676129151
 21
-2174.69477606586
 31
0.0
1001
ACAD
1010
0.0
1020
0.0
1030
0.0
  0
LINE
  5
BEDF
330
18
100
AcDbEntity
  8
1HATCH
  6
CONTINUOUS
100
AcDbLine
 10
-127.2689771574523
 20
-2185.208141124428
 30
0.0
 11
-116.7556120988837
 21
-2174.69477606586
 31
0.0
1001
ACAD
1010
0.0
1020
0.0
1030
0.0
  0
LINE
  5
BEE0
330
18
100
AcDbEntity
  8
1HATCH
  6
CONTINUOUS
100
AcDbLine
 10
-126.5105480686164
 20
-2186.69477606586
 30
0.0
 11
-114.5105480686165
 21
-2174.69477606586
 31
0.0
1001
ACAD
1010
0.0
1020
0.0
1030
0.0
  0
LINE
  5
BEE1
330
18
100
AcDbEntity
  8
1HATCH
  6
CONTINUOUS
100
AcDbLine
 10
-124.2654840383492
 20
-2186.69477606586
 30
0.0
 11
-112.2654840383492
 21
-2174.69477606586
 31
0.0
1001
ACAD
1010
0.0
1020
0.0
1030
0.0
  0
LINE
  5
BEE2
330
18
100
AcDbEntity
  8
1HATCH
  6
CONTINUOUS
100
AcDbLine
 10
-122.0204200080819
 20
-2186.69477606586
 30
0.0
 11
-110.0204200080819
 21
-2174.69477606586
 31
0.0
1001
ACAD
1010
0.0
1020
0.0
1030
0.0
  0
LINE
  5
BEE3
330
18
100
AcDbEntity
  8
1HATCH
  6
CONTINUOUS
100
AcDbLine
 10
-119.7753559778146
 20
-2186.69477606586
 30
0.0
 11
-107.7753559778146
 21
-2174.69477606586
 31
0.0
1001
ACAD
1010
0.0
1020
0.0
1030
0.0
  0
LINE
  5
BEE4
330
18
100
AcDbEntity
  8
1HATCH
  6
CONTINUOUS
100
AcDbLine
 10
-117.5302919475473
 20
-2186.69477606586
 30
0.0
 11
-105.5302919475473
 21
-2174.69477606586
 31
0.0
1001
ACAD
1010
0.0
1020
0.0
1030
0.0
  0
LINE
  5
BEE5
330
18
100
AcDbEntity
  8
1HATCH
  6
CONTINUOUS
100
AcDbLine
 10
-115.28522791728
 20
-2186.69477606586
 30
0.0
 11
-103.28522791728
 21
-2174.69477606586
 31
0.0
1001
ACAD
1010
0.0
1020
0.0
1030
0.0
  0
LINE
  5
BEE6
330
18
100
AcDbEntity
  8
1HATCH
  6
CONTINUOUS
100
AcDbLine
 10
-113.0401638870127
 20
-2186.69477606586
 30
0.0
 11
-101.0401638870127
 21
-2174.69477606586
 31
0.0
1001
ACAD
1010
0.0
1020
0.0
1030
0.0
  0
LINE
  5
BEE7
330
18
100
AcDbEntity
  8
1HATCH
  6
CONTINUOUS
100
AcDbLine
 10
-110.7950998567454
 20
-2186.69477606586
 30
0.0
 11
-98.79509985674542
 21
-2174.69477606586
 31
0.0
1001
ACAD
1010
0.0
1020
0.0
1030
0.0
  0
LINE
  5
BEE8
330
18
100
AcDbEntity
  8
1HATCH
  6
CONTINUOUS
100
AcDbLine
 10
-108.5500358264781
 20
-2186.69477606586
 30
0.0
 11
-96.64358224903091
 21
-2174.788322488412
 31
0.0
1001
ACAD
1010
0.0
1020
0.0
1030
0.0
  0
LINE
  5
BEE9
330
18
100
AcDbEntity
  8
1HATCH
  6
CONTINUOUS
100
AcDbLine
 10
-106.3049717962109
 20
-2186.69477606586
 30
0.0
 11
-96.64358224903091
 21
-2177.033386518679
 31
0.0
1001
ACAD
1010
0.0
1020
0.0
1030
0.0
  0
LINE
  5
BEEA
330
18
100
AcDbEntity
  8
1HATCH
  6
CONTINUOUS
100
AcDbLine
 10
-104.0599077659436
 20
-2186.69477606586
 30
0.0
 11
-96.64358224903091
 21
-2179.278450548947
 31
0.0
1001
ACAD
1010
0.0
1020
0.0
1030
0.0
  0
LINE
  5
BEEB
330
18
100
AcDbEntity
  8
1HATCH
  6
CONTINUOUS
100
AcDbLine
 10
-101.8148437356763
 20
-2186.69477606586
 30
0.0
 11
-96.64358224903091
 21
-2181.523514579214
 31
0.0
1001
ACAD
1010
0.0
1020
0.0
1030
0.0
  0
LINE
  5
BEEC
330
18
100
AcDbEntity
  8
1HATCH
  6
CONTINUOUS
100
AcDbLine
 10
-99.56977970540899
 20
-2186.69477606586
 30
0.0
 11
-96.64358224903091
 21
-2183.768578609481
 31
0.0
1001
ACAD
1010
0.0
1020
0.0
1030
0.0
  0
LINE
  5
BEED
330
18
100
AcDbEntity
  8
1HATCH
  6
CONTINUOUS
100
AcDbLine
 10
-97.3247156751417
 20
-2186.69477606586
 30
0.0
 11
-96.64358224903091
 21
-2186.013642639749
 31
0.0
1001
ACAD
1010
0.0
1020
0.0
1030
0.0
  0
SOLID
  5
BEEE
330
18
100
AcDbEntity
  8
1HATCH
100
AcDbTrace
 10
-125.6198316864326
 20
-2132.951933914454
 30
0.0
 11
-126.655984352015
 21
-2134.69477606586
 31
0.0
 12
-126.2410860417849
 22
-2132.710092085151
 32
0.0
 13
-126.2410860417849
 23
-2132.710092085151
 33
0.0
  0
LINE
  5
BEEF
330
18
100
AcDbEntity
  8
1HATCH
100
AcDbLine
 10
-125.9304588641088
 20
-2132.831012999803
 30
0.0
 11
-119.2310820064043
 21
-2115.621347231865
 31
0.0
  0
LINE
  5
BEF0
330
18
100
AcDbEntity
  8
1HATCH
100
AcDbLine
 10
-119.2310820064043
 20
-2115.621347231865
 30
0.0
 11
-116.5310820064043
 21
-2115.621347231865
 31
0.0
  0
TEXT
  5
BEF1
330
18
100
AcDbEntity
  8
1HATCH
  6
CONTINUOUS
100
AcDbText
 10
-116.5800306963963
 20
-2109.088013898532
 30
0.0
 40
3.5
  1
材質：亜鉛ダイキャスト
100
AcDbText
  0
TEXT
  5
BEF2
330
18
100
AcDbEntity
  8
1HATCH
  6
CONTINUOUS
100
AcDbText
 10
-116.4633640297297
 20
-2114.921347231866
 30
0.0
 40
3.5
  1
仕上げ：各種メッキ/塗装
100
AcDbText
  0
SOLID
  5
BEF3
330
18
100
AcDbEntity
  8
1HATCH
100
AcDbTrace
 10
-144.6403959757784
 20
-2132.95912280058
 30
0.0
 11
-143.5922457700178
 21
-2134.69477606586
 31
0.0
 12
-145.1466537804225
 22
-2133.392882503274
 32
0.0
 13
-145.1466537804225
 23
-2133.392882503274
 33
0.0
  0
LINE
  5
BEF4
330
18
100
AcDbEntity
  8
1HATCH
100
AcDbLine
 10
-144.8935248781005
 20
-2133.176002651927
 30
0.0
 11
-159.9342848348958
 21
-2115.621347231865
 31
0.0
  0
LINE
  5
BEF5
330
18
100
AcDbEntity
  8
1HATCH
100
AcDbLine
 10
-159.9342848348958
 20
-2115.621347231865
 30
0.0
 11
-162.6342848348958
 21
-2115.621347231865
 31
0.0
  0
TEXT
  5
BEF6
330
18
100
AcDbEntity
  8
1HATCH
  6
CONTINUOUS
100
AcDbText
 10
-199.2676181682289
 20
-2109.088013898532
 30
0.0
 40
3.5
  1
材質：エラストマー
100
AcDbText
  0
TEXT
  5
BEF7
330
18
100
AcDbEntity
  8
1HATCH
  6
CONTINUOUS
100
AcDbText
 10
-199.1509515015623
 20
-2114.921347231865
 30
0.0
 40
3.5
  1
仕上げ：各色
100
AcDbText
  0
LINE
  5
BEF8
330
18
100
AcDbEntity
  8
1DIM
100
AcDbLine
 10
-35.04649359281825
 20
-2209.19477606586
 30
0.0
 11
-35.04649359281825
 21
-2219.05380857183
 31
0.0
1001
ACAD
1000
DSTYLE
1002
{
1070
     3
1000
φ<>
1002
}
  0
LINE
  5
BEF9
330
18
100
AcDbEntity
  8
1DIM
100
AcDbLine
 10
-47.04649359281825
 20
-2209.19477606586
 30
0.0
 11
-47.04649359281825
 21
-2219.05380857183
 31
0.0
1001
ACAD
1000
DSTYLE
1002
{
1070
     3
1000
φ<>
1002
}
  0
LINE
  5
BEFA
330
18
100
AcDbEntity
  8
1DIM
100
AcDbLine
 10
-37.04649359281825
 20
-2218.05380857183
 30
0.0
 11
-45.04649359281825
 21
-2218.05380857183
 31
0.0
1001
ACAD
1000
DSTYLE
1002
{
1070
     3
1000
φ<>
1002
}
  0
LINE
  5
BEFE
330
18
100
AcDbEntity
  8
1DIM
100
AcDbLine
 10
-45.28005369776793
 20
-2209.69477606586
 30
0.0
 11
-65.36387983297574
 21
-2209.69477606586
 31
0.0
  0
LINE
  5
BEFF
330
18
100
AcDbEntity
  8
1DIM
100
AcDbLine
 10
-55.54649359281825
 20
-2174.69477606586
 30
0.0
 11
-65.36387983297573
 21
-2174.69477606586
 31
0.0
  0
LINE
  5
BF00
330
18
100
AcDbEntity
  8
1DIM
100
AcDbLine
 10
-64.36387983297573
 20
-2207.69477606586
 30
0.0
 11
-64.36387983297573
 21
-2176.69477606586
 31
0.0
  0
SOLID
  5
BF04
330
18
100
AcDbEntity
  8
1DIM
100
AcDbTrace
 10
-113.212846359552
 20
-2190.525169452061
 30
0.0
 11
-112.5670378695726
 21
-2188.603180246737
 31
0.0
 12
-112.5545899421508
 22
-2190.63072954582
 32
0.0
 13
-112.5545899421508
 23
-2190.63072954582
 33
0.0
  0
LINE
  5
BF05
330
18
100
AcDbEntity
  8
1DIM
100
AcDbLine
 10
-112.8837181508514
 20
-2190.577949498941
 30
0.0
 11
-115.5481537546222
 21
-2207.19295780813
 31
0.0
  0
LINE
  5
BF06
330
18
100
AcDbEntity
  8
1DIM
100
AcDbLine
 10
-115.5481537546222
 20
-2207.19295780813
 30
0.0
 11
-150.7981537546221
 21
-2207.19295780813
 31
0.0
  0
TEXT
  5
BF07
330
18
100
AcDbEntity
  8
1DIM
  6
CONTINUOUS
100
AcDbText
 10
-151.1481537546221
 20
-2206.49295780813
 30
0.0
 40
3.5
  1
フローリング床材
100
AcDbText
  0
SOLID
  5
BF08
330
18
100
AcDbEntity
  8
1DIM
100
AcDbTrace
 10
-49.7795368965965
 20
-2206.929442062578
 30
0.0
 11
-47.92980051448376
 21
-2206.099028654811
 31
0.0
 12
-49.41022787882807
 22
-2207.484469353655
 32
0.0
 13
-49.41022787882807
 23
-2207.484469353655
 33
0.0
  0
LINE
  5
BF09
330
18
100
AcDbEntity
  8
1DIM
100
AcDbLine
 10
-49.59488238771229
 20
-2207.206955708117
 30
0.0
 11
-82.71468741871588
 21
-2229.244507485013
 31
0.0
  0
LINE
  5
BF0A
330
18
100
AcDbEntity
  8
1DIM
100
AcDbLine
 10
-82.71468741871588
 20
-2229.244507485013
 30
0.0
 11
-142.4646874187159
 21
-2229.244507485013
 31
0.0
  0
TEXT
  5
BF0B
330
18
100
AcDbEntity
  8
1DIM
  6
CONTINUOUS
100
AcDbText
 10
-143.0480207520493
 20
-2216.868118596125
 30
0.0
 40
3.5
  1
コンクリート用カットアンカー
100
AcDbText
  0
TEXT
  5
BF0C
330
18
100
AcDbEntity
  8
1DIM
  6
CONTINUOUS
100
AcDbText
 10
-136.913298529827
 20
-2222.706313040569
 30
0.0
 40
3.5
  1
φ12-35（ネジM8-35）
100
AcDbText
  0
TEXT
  5
BF0D
330
18
100
AcDbEntity
  8
1DIM
  6
CONTINUOUS
100
AcDbText
 10
-135.3723263076048
 20
-2228.544507485014
 30
0.0
 40
3.5
  1
AC-0835（オプション）
100
AcDbText
  0
LINE
  5
BF0E
330
18
100
AcDbEntity
  8
1HATCH
  6
CONTINUOUS
100
AcDbLine
 10
-75.73438876243972
 20
-2177.114321092622
 30
0.0
 11
-73.31484373567734
 21
-2174.69477606586
 31
0.0
1001
ACAD
1010
0.0
1020
0.0
1030
0.0
  0
LINE
  5
BF0F
330
18
100
AcDbEntity
  8
1HATCH
  6
CONTINUOUS
100
AcDbLine
 10
-75.73438876243974
 20
-2183.849513183424
 30
0.0
 11
-66.57965164487547
 21
-2174.69477606586
 31
0.0
1001
ACAD
1010
0.0
1020
0.0
1030
0.0
  0
LINE
  5
BF10
330
18
100
AcDbEntity
  8
1HATCH
  6
CONTINUOUS
100
AcDbLine
 10
-75.73438876243972
 20
-2190.584705274226
 30
0.0
 11
-59.8444595540736
 21
-2174.69477606586
 31
0.0
1001
ACAD
1010
0.0
1020
0.0
1030
0.0
  0
LINE
  5
BF11
330
18
100
AcDbEntity
  8
1HATCH
  6
CONTINUOUS
100
AcDbLine
 10
-75.73438876243972
 20
-2197.319897365027
 30
0.0
 11
-69.43887983297537
 21
-2191.024388435563
 31
0.0
1001
ACAD
1010
0.0
1020
0.0
1030
0.0
  0
LINE
  5
BF12
330
18
100
AcDbEntity
  8
1HATCH
  6
CONTINUOUS
100
AcDbLine
 10
-66.90093412993872
 20
-2188.486442732526
 30
0.0
 11
-53.10926746327174
 21
-2174.69477606586
 31
0.0
1001
ACAD
1010
0.0
1020
0.0
1030
0.0
  0
LINE
  5
BF13
330
18
100
AcDbEntity
  8
1HATCH
  6
CONTINUOUS
100
AcDbLine
 10
-75.73438876243974
 20
-2204.055089455829
 30
0.0
 11
-67.58240870580336
 21
-2195.903109399193
 31
0.0
1001
ACAD
1010
0.0
1020
0.0
1030
0.0
  0
LINE
  5
BF14
330
18
100
AcDbEntity
  8
1HATCH
  6
CONTINUOUS
100
AcDbLine
 10
-64.18887983297537
 20
-2192.509580526365
 30
0.0
 11
-47.04649359281825
 21
-2175.367194286208
 31
0.0
1001
ACAD
1010
0.0
1020
0.0
1030
0.0
  0
LINE
  5
BF15
330
18
100
AcDbEntity
  8
1HATCH
  6
CONTINUOUS
100
AcDbLine
 10
-75.73438876243974
 20
-2210.790281546631
 30
0.0
 11
-47.04649359281825
 21
-2182.10238637701
 31
0.0
1001
ACAD
1010
0.0
1020
0.0
1030
0.0
  0
LINE
  5
BF16
330
18
100
AcDbEntity
  8
1HATCH
  6
CONTINUOUS
100
AcDbLine
 10
-75.73438876243974
 20
-2217.525473637433
 30
0.0
 11
-47.04649359281825
 21
-2188.837578467811
 31
0.0
1001
ACAD
1010
0.0
1020
0.0
1030
0.0
  0
LINE
  5
BF17
330
18
100
AcDbEntity
  8
1HATCH
  6
CONTINUOUS
100
AcDbLine
 10
-75.73438876243974
 20
-2224.260665728235
 30
0.0
 11
-47.04649359281825
 21
-2195.572770558614
 31
0.0
1001
ACAD
1010
0.0
1020
0.0
1030
0.0
  0
LINE
  5
BF18
330
18
100
AcDbEntity
  8
1HATCH
  6
CONTINUOUS
100
AcDbLine
 10
-35.04649359281825
 20
-2176.837578467811
 30
0.0
 11
-32.90369119086614
 21
-2174.69477606586
 31
0.0
1001
ACAD
1010
0.0
1020
0.0
1030
0.0
  0
LINE
  5
BF19
330
18
100
AcDbEntity
  8
1HATCH
  6
CONTINUOUS
100
AcDbLine
 10
-35.04649359281825
 20
-2183.572770558614
 30
0.0
 11
-26.16849910006427
 21
-2174.69477606586
 31
0.0
1001
ACAD
1010
0.0
1020
0.0
1030
0.0
  0
LINE
  5
BF1A
330
18
100
AcDbEntity
  8
1HATCH
  6
CONTINUOUS
100
AcDbLine
 10
-73.14173248637587
 20
-2228.403201542973
 30
0.0
 11
-47.04649359281824
 21
-2202.307962649415
 31
0.0
1001
ACAD
1010
0.0
1020
0.0
1030
0.0
  0
LINE
  5
BF1B
330
18
100
AcDbEntity
  8
1HATCH
  6
CONTINUOUS
100
AcDbLine
 10
-35.04649359281825
 20
-2190.307962649415
 30
0.0
 11
-19.4333070092624
 21
-2174.69477606586
 31
0.0
1001
ACAD
1010
0.0
1020
0.0
1030
0.0
  0
LINE
  5
BF1C
330
18
100
AcDbEntity
  8
1HATCH
  6
CONTINUOUS
100
AcDbLine
 10
-66.406540395574
 20
-2228.403201542973
 30
0.0
 11
-47.04649359281825
 21
-2209.043154740217
 31
0.0
1001
ACAD
1010
0.0
1020
0.0
1030
0.0
  0
LINE
  5
BF1D
330
18
100
AcDbEntity
  8
1HATCH
  6
CONTINUOUS
100
AcDbLine
 10
-35.33439892422881
 20
-2197.331060071628
 30
0.0
 11
-12.69811491846054
 21
-2174.69477606586
 31
0.0
1001
ACAD
1010
0.0
1020
0.0
1030
0.0
  0
LINE
  5
BF1E
330
18
100
AcDbEntity
  8
1HATCH
  6
CONTINUOUS
100
AcDbLine
 10
-59.67134830477212
 20
-2228.403201542973
 30
0.0
 11
-46.75482692615158
 21
-2215.486680164352
 31
0.0
1001
ACAD
1010
0.0
1020
0.0
1030
0.0
  0
LINE
  5
BF1F
330
18
100
AcDbEntity
  8
1HATCH
  6
CONTINUOUS
100
AcDbLine
 10
-44.2469553336297
 20
-2212.978808571831
 30
0.0
 11
-40.9629228276589
 21
-2209.69477606586
 31
0.0
1001
ACAD
1010
0.0
1020
0.0
1030
0.0
  0
LINE
  5
BF20
330
18
100
AcDbEntity
  8
1HATCH
  6
CONTINUOUS
100
AcDbLine
 10
-35.15060090152837
 20
-2203.882454139729
 30
0.0
 11
-9.186647420086615
 21
-2177.918500658287
 31
0.0
1001
ACAD
1010
0.0
1020
0.0
1030
0.0
  0
LINE
  5
BF21
330
18
100
AcDbEntity
  8
1HATCH
  6
CONTINUOUS
100
AcDbLine
 10
-52.93615621397026
 20
-2228.403201542973
 30
0.0
 11
-42.76176324282783
 21
-2218.228808571831
 31
0.0
1001
ACAD
1010
0.0
1020
0.0
1030
0.0
  0
LINE
  5
BF22
330
18
100
AcDbEntity
  8
1HATCH
  6
CONTINUOUS
100
AcDbLine
 10
-37.51176324282783
 20
-2212.978808571831
 30
0.0
 11
-9.186647420086615
 21
-2184.653692749089
 31
0.0
1001
ACAD
1010
0.0
1020
0.0
1030
0.0
  0
LINE
  5
BF23
330
18
100
AcDbEntity
  8
1HATCH
  6
CONTINUOUS
100
AcDbLine
 10
-46.20096412316839
 20
-2228.403201542973
 30
0.0
 11
-40.34522671564114
 21
-2222.547464135446
 31
0.0
1001
ACAD
1010
0.0
1020
0.0
1030
0.0
  0
LINE
  5
BF24
330
18
100
AcDbEntity
  8
1HATCH
  6
CONTINUOUS
100
AcDbLine
 10
-39.57162937719882
 20
-2221.773866797003
 30
0.0
 11
-36.02657115202597
 21
-2218.228808571831
 31
0.0
1001
ACAD
1010
0.0
1020
0.0
1030
0.0
  0
LINE
  5
BF25
330
18
100
AcDbEntity
  8
1HATCH
  6
CONTINUOUS
100
AcDbLine
 10
-35.33816025948491
 20
-2217.54039767929
 30
0.0
 11
-9.186647420086622
 21
-2191.388884839891
 31
0.0
1001
ACAD
1010
0.0
1020
0.0
1030
0.0
  0
LINE
  5
BF26
330
18
100
AcDbEntity
  8
1HATCH
  6
CONTINUOUS
100
AcDbLine
 10
-39.46577203236652
 20
-2228.403201542973
 30
0.0
 11
-38.03643728639677
 21
-2226.973866797003
 31
0.0
1001
ACAD
1010
0.0
1020
0.0
1030
0.0
  0
LINE
  5
BF27
330
18
100
AcDbEntity
  8
1HATCH
  6
CONTINUOUS
100
AcDbLine
 10
-32.73057994156466
 20
-2228.403201542973
 30
0.0
 11
-31.30124519559489
 21
-2226.973866797003
 31
0.0
1001
ACAD
1010
0.0
1020
0.0
1030
0.0
  0
LINE
  5
BF28
330
18
100
AcDbEntity
  8
1HATCH
  6
CONTINUOUS
100
AcDbLine
 10
-25.99538785076278
 20
-2228.403201542973
 30
0.0
 11
-24.56605310479303
 21
-2226.973866797003
 31
0.0
1001
ACAD
1010
0.0
1020
0.0
1030
0.0
  0
LINE
  5
BF29
330
18
100
AcDbEntity
  8
1HATCH
  6
CONTINUOUS
100
AcDbLine
 10
-19.26019575996091
 20
-2228.403201542973
 30
0.0
 11
-17.83086101399116
 21
-2226.973866797003
 31
0.0
1001
ACAD
1010
0.0
1020
0.0
1030
0.0
  0
LINE
  5
BF2A
330
18
100
AcDbEntity
  8
1HATCH
  6
CONTINUOUS
100
AcDbLine
 10
-32.83643728639695
 20
-2221.773866797003
 30
0.0
 11
-9.186647420086622
 21
-2198.124076930693
 31
0.0
1001
ACAD
1010
0.0
1020
0.0
1030
0.0
  0
LINE
  5
BF2B
330
18
100
AcDbEntity
  8
1HATCH
  6
CONTINUOUS
100
AcDbLine
 10
-26.10124519559508
 20
-2221.773866797003
 30
0.0
 11
-9.186647420086622
 21
-2204.859269021495
 31
0.0
1001
ACAD
1010
0.0
1020
0.0
1030
0.0
  0
LINE
  5
BF2C
330
18
100
AcDbEntity
  8
1HATCH
  6
CONTINUOUS
100
AcDbLine
 10
-19.36605310479321
 20
-2221.773866797003
 30
0.0
 11
-9.186647420086622
 21
-2211.594461112297
 31
0.0
1001
ACAD
1010
0.0
1020
0.0
1030
0.0
  0
LINE
  5
BF2D
330
18
100
AcDbEntity
  8
1HATCH
  6
CONTINUOUS
100
AcDbLine
 10
-12.63086101399134
 20
-2221.773866797003
 30
0.0
 11
-9.186647420086622
 21
-2218.329653203099
 31
0.0
1001
ACAD
1010
0.0
1020
0.0
1030
0.0
  0
LINE
  5
BF2E
330
18
100
AcDbEntity
  8
1HATCH
  6
CONTINUOUS
100
AcDbLine
 10
-12.52500366915906
 20
-2228.403201542973
 30
0.0
 11
-9.186647420086622
 21
-2225.0648452939
 31
0.0
1001
ACAD
1010
0.0
1020
0.0
1030
0.0
  0
LINE
  5
BF2F
330
18
100
AcDbEntity
  8
1HATCH
  6
CONTINUOUS
100
AcDbLine
 10
-75.73438876243972
 20
-2179.359386092622
 30
0.0
 11
-71.0697787356774
 21
-2174.69477606586
 31
0.0
1001
ACAD
1010
0.0
1020
0.0
1030
0.0
  0
LINE
  5
BF30
330
18
100
AcDbEntity
  8
1HATCH
  6
CONTINUOUS
100
AcDbLine
 10
-75.73438876243972
 20
-2186.094578183424
 30
0.0
 11
-64.33458664487554
 21
-2174.69477606586
 31
0.0
1001
ACAD
1010
0.0
1020
0.0
1030
0.0
  0
LINE
  5
BF31
330
18
100
AcDbEntity
  8
1HATCH
  6
CONTINUOUS
100
AcDbLine
 10
-75.73438876243974
 20
-2192.829770274226
 30
0.0
 11
-57.59939455407367
 21
-2174.69477606586
 31
0.0
1001
ACAD
1010
0.0
1020
0.0
1030
0.0
  0
LINE
  5
BF32
330
18
100
AcDbEntity
  8
1HATCH
  6
CONTINUOUS
100
AcDbLine
 10
-75.73438876243974
 20
-2199.564962365027
 30
0.0
 11
-69.43887983297537
 21
-2193.269453435563
 31
0.0
1001
ACAD
1010
0.0
1020
0.0
1030
0.0
  0
LINE
  5
BF33
330
18
100
AcDbEntity
  8
1HATCH
  6
CONTINUOUS
100
AcDbLine
 10
-64.65586912993878
 20
-2188.486442732526
 30
0.0
 11
-50.86420246327182
 21
-2174.69477606586
 31
0.0
1001
ACAD
1010
0.0
1020
0.0
1030
0.0
  0
LINE
  5
BF34
330
18
100
AcDbEntity
  8
1HATCH
  6
CONTINUOUS
100
AcDbLine
 10
-75.73438876243974
 20
-2206.300154455829
 30
0.0
 11
-65.33734370580343
 21
-2195.903109399193
 31
0.0
1001
ACAD
1010
0.0
1020
0.0
1030
0.0
  0
LINE
  5
BF35
330
18
100
AcDbEntity
  8
1HATCH
  6
CONTINUOUS
100
AcDbLine
 10
-64.18887983297537
 20
-2194.754645526365
 30
0.0
 11
-47.04649359281825
 21
-2177.612259286208
 31
0.0
1001
ACAD
1010
0.0
1020
0.0
1030
0.0
  0
LINE
  5
BF36
330
18
100
AcDbEntity
  8
1HATCH
  6
CONTINUOUS
100
AcDbLine
 10
-75.73438876243974
 20
-2213.035346546631
 30
0.0
 11
-47.04649359281825
 21
-2184.34745137701
 31
0.0
1001
ACAD
1010
0.0
1020
0.0
1030
0.0
  0
LINE
  5
BF37
330
18
100
AcDbEntity
  8
1HATCH
  6
CONTINUOUS
100
AcDbLine
 10
-75.73438876243974
 20
-2219.770538637433
 30
0.0
 11
-47.04649359281825
 21
-2191.082643467812
 31
0.0
1001
ACAD
1010
0.0
1020
0.0
1030
0.0
  0
LINE
  5
BF38
330
18
100
AcDbEntity
  8
1HATCH
  6
CONTINUOUS
100
AcDbLine
 10
-35.04649359281825
 20
-2179.082643467812
 30
0.0
 11
-30.6586261908662
 21
-2174.69477606586
 31
0.0
1001
ACAD
1010
0.0
1020
0.0
1030
0.0
  0
LINE
  5
BF39
330
18
100
AcDbEntity
  8
1HATCH
  6
CONTINUOUS
100
AcDbLine
 10
-75.73438876243974
 20
-2226.505730728235
 30
0.0
 11
-46.85802333919512
 21
-2197.62936530499
 31
0.0
1001
ACAD
1010
0.0
1020
0.0
1030
0.0
  0
LINE
  5
BF3A
330
18
100
AcDbEntity
  8
1HATCH
  6
CONTINUOUS
100
AcDbLine
 10
-35.04649359281825
 20
-2185.817835558613
 30
0.0
 11
-23.92343410006434
 21
-2174.69477606586
 31
0.0
1001
ACAD
1010
0.0
1020
0.0
1030
0.0
  0
LINE
  5
BF3B
330
18
100
AcDbEntity
  8
1HATCH
  6
CONTINUOUS
100
AcDbLine
 10
-70.89666748637593
 20
-2228.403201542973
 30
0.0
 11
-47.04649359281819
 21
-2204.553027649415
 31
0.0
1001
ACAD
1010
0.0
1020
0.0
1030
0.0
  0
LINE
  5
BF3C
330
18
100
AcDbEntity
  8
1HATCH
  6
CONTINUOUS
100
AcDbLine
 10
-35.04649359281825
 20
-2192.553027649415
 30
0.0
 11
-17.18824200926247
 21
-2174.69477606586
 31
0.0
1001
ACAD
1010
0.0
1020
0.0
1030
0.0
  0
LINE
  5
BF3D
330
18
100
AcDbEntity
  8
1HATCH
  6
CONTINUOUS
100
AcDbLine
 10
-64.16147539557406
 20
-2228.403201542973
 30
0.0
 11
-45.45304991846102
 21
-2209.69477606586
 31
0.0
1001
ACAD
1010
0.0
1020
0.0
1030
0.0
  0
LINE
  5
BF3E
330
18
100
AcDbEntity
  8
1HATCH
  6
CONTINUOUS
100
AcDbLine
 10
-35.52313267422876
 20
-2199.764858821628
 30
0.0
 11
-35.45304991846024
 21
-2199.694776065859
 31
0.0
1001
ACAD
1010
0.0
1020
0.0
1030
0.0
  0
LINE
  5
BF3F
330
18
100
AcDbEntity
  8
1HATCH
  6
CONTINUOUS
100
AcDbLine
 10
-35.04649359281805
 20
-2199.288219740217
 30
0.0
 11
-10.4530499184606
 21
-2174.69477606586
 31
0.0
1001
ACAD
1010
0.0
1020
0.0
1030
0.0
  0
LINE
  5
BF40
330
18
100
AcDbEntity
  8
1HATCH
  6
CONTINUOUS
100
AcDbLine
 10
-57.4262833047722
 20
-2228.403201542973
 30
0.0
 11
-46.75482692615158
 21
-2217.731745164353
 31
0.0
1001
ACAD
1010
0.0
1020
0.0
1030
0.0
  0
LINE
  5
BF41
330
18
100
AcDbEntity
  8
1HATCH
  6
CONTINUOUS
100
AcDbLine
 10
-42.00189033362977
 20
-2212.978808571831
 30
0.0
 11
-38.71785782765888
 21
-2209.69477606586
 31
0.0
1001
ACAD
1010
0.0
1020
0.0
1030
0.0
  0
LINE
  5
BF42
330
18
100
AcDbEntity
  8
1HATCH
  6
CONTINUOUS
100
AcDbLine
 10
-35.04649359281829
 20
-2206.023411831019
 30
0.0
 11
-9.186647420086615
 21
-2180.163565658288
 31
0.0
1001
ACAD
1010
0.0
1020
0.0
1030
0.0
  0
LINE
  5
BF43
330
18
100
AcDbEntity
  8
1HATCH
  6
CONTINUOUS
100
AcDbLine
 10
-50.69109121397032
 20
-2228.403201542973
 30
0.0
 11
-40.51669824282791
 21
-2218.228808571831
 31
0.0
1001
ACAD
1010
0.0
1020
0.0
1030
0.0
  0
LINE
  5
BF44
330
18
100
AcDbEntity
  8
1HATCH
  6
CONTINUOUS
100
AcDbLine
 10
-35.33816025948492
 20
-2213.050270588487
 30
0.0
 11
-9.186647420086615
 21
-2186.898757749089
 31
0.0
1001
ACAD
1010
0.0
1020
0.0
1030
0.0
  0
LINE
  5
BF45
330
18
100
AcDbEntity
  8
1HATCH
  6
CONTINUOUS
100
AcDbLine
 10
-43.95589912316846
 20
-2228.403201542973
 30
0.0
 11
-40.34522671564114
 21
-2224.792529135446
 31
0.0
1001
ACAD
1010
0.0
1020
0.0
1030
0.0
  0
LINE
  5
BF46
330
18
100
AcDbEntity
  8
1HATCH
  6
CONTINUOUS
100
AcDbLine
 10
-37.32656437719888
 20
-2221.773866797003
 30
0.0
 11
-9.186647420086615
 21
-2193.633949839891
 31
0.0
1001
ACAD
1010
0.0
1020
0.0
1030
0.0
  0
LINE
  5
BF47
330
18
100
AcDbEntity
  8
1HATCH
  6
CONTINUOUS
100
AcDbLine
 10
-37.22070703236659
 20
-2228.403201542973
 30
0.0
 11
-35.79137228639684
 21
-2226.973866797003
 31
0.0
1001
ACAD
1010
0.0
1020
0.0
1030
0.0
  0
LINE
  5
BF48
330
18
100
AcDbEntity
  8
1HATCH
  6
CONTINUOUS
100
AcDbLine
 10
-30.48551494156472
 20
-2228.403201542973
 30
0.0
 11
-29.05618019559497
 21
-2226.973866797003
 31
0.0
1001
ACAD
1010
0.0
1020
0.0
1030
0.0
  0
LINE
  5
BF49
330
18
100
AcDbEntity
  8
1HATCH
  6
CONTINUOUS
100
AcDbLine
 10
-23.75032285076285
 20
-2228.403201542973
 30
0.0
 11
-22.3209881047931
 21
-2226.973866797003
 31
0.0
1001
ACAD
1010
0.0
1020
0.0
1030
0.0
  0
LINE
  5
BF4A
330
18
100
AcDbEntity
  8
1HATCH
  6
CONTINUOUS
100
AcDbLine
 10
-30.59137228639702
 20
-2221.773866797003
 30
0.0
 11
-9.186647420086622
 21
-2200.369141930693
 31
0.0
1001
ACAD
1010
0.0
1020
0.0
1030
0.0
  0
LINE
  5
BF4B
330
18
100
AcDbEntity
  8
1HATCH
  6
CONTINUOUS
100
AcDbLine
 10
-23.85618019559515
 20
-2221.773866797003
 30
0.0
 11
-9.186647420086615
 21
-2207.104334021495
 31
0.0
1001
ACAD
1010
0.0
1020
0.0
1030
0.0
  0
LINE
  5
BF4C
330
18
100
AcDbEntity
  8
1HATCH
  6
CONTINUOUS
100
AcDbLine
 10
-17.12098810479328
 20
-2221.773866797003
 30
0.0
 11
-9.186647420086622
 21
-2213.839526112297
 31
0.0
1001
ACAD
1010
0.0
1020
0.0
1030
0.0
  0
LINE
  5
BF4D
330
18
100
AcDbEntity
  8
1HATCH
  6
CONTINUOUS
100
AcDbLine
 10
-17.015130759961
 20
-2228.403201542973
 30
0.0
 11
-15.58579601399124
 21
-2226.973866797003
 31
0.0
1001
ACAD
1010
0.0
1020
0.0
1030
0.0
  0
LINE
  5
BF4E
330
18
100
AcDbEntity
  8
1HATCH
  6
CONTINUOUS
100
AcDbLine
 10
-12.21189338230801
 20
-2223.59996416532
 30
0.0
 11
-9.186647420086622
 21
-2220.574718203099
 31
0.0
1001
ACAD
1010
0.0
1020
0.0
1030
0.0
  0
LINE
  5
BF4F
330
18
100
AcDbEntity
  8
1HATCH
  6
CONTINUOUS
100
AcDbLine
 10
-10.27993866915913
 20
-2228.403201542973
 30
0.0
 11
-9.18664742008663
 21
-2227.3099102939
 31
0.0
1001
ACAD
1010
0.0
1020
0.0
1030
0.0
  0
LINE
  5
BF50
330
18
100
AcDbEntity
  8
0
  6
BYBLOCK
100
AcDbLine
 10
-200.2189771574541
 20
-2188.794090138425
 30
0.0
 11
-198.2189771574541
 21
-2189.329988518425
 31
0.0
  0
LINE
  5
BF51
330
18
100
AcDbEntity
  8
0
  6
BYBLOCK
100
AcDbLine
 10
-198.2189771574541
 20
-2189.329988518425
 30
0.0
 11
-200.2189771574541
 21
-2189.865886898425
 31
0.0
  0
LINE
  5
BF52
330
18
100
AcDbEntity
  8
0
  6
BYBLOCK
100
AcDbLine
 10
-198.2189771574541
 20
-2189.329988518425
 30
0.0
 11
-200.2189771574541
 21
-2189.329988518425
 31
0.0
  0
LINE
  5
BF53
330
18
100
AcDbEntity
  8
0
  6
BYBLOCK
100
AcDbLine
 10
-225.2189771574541
 20
-2189.865886898425
 30
0.0
 11
-227.2189771574541
 21
-2189.329988518425
 31
0.0
  0
LINE
  5
BF54
330
18
100
AcDbEntity
  8
0
  6
BYBLOCK
100
AcDbLine
 10
-227.2189771574541
 20
-2189.329988518425
 30
0.0
 11
-225.2189771574541
 21
-2188.794090138425
 31
0.0
  0
LINE
  5
BF55
330
18
100
AcDbEntity
  8
0
  6
BYBLOCK
100
AcDbLine
 10
-227.2189771574541
 20
-2189.329988518425
 30
0.0
 11
-225.2189771574541
 21
-2189.329988518425
 31
0.0
  0
TEXT
  5
BF56
330
18
100
AcDbEntity
  8
1DIM
  6
CONTINUOUS
100
AcDbText
 10
-218.2031206759727
 20
-2188.629988518425
 30
0.0
 40
3.5
  1
φ29
100
AcDbText
1001
ACAD
1000
DSTYLE
1002
{
1070
     3
1000
φ<>
1002
}
  0
LINE
  5
BF57
330
18
100
AcDbEntity
  8
0
  6
BYBLOCK
100
AcDbLine
 10
-228.2189771574541
 20
-2196.667710534315
 30
0.0
 11
-230.2189771574541
 21
-2196.131812154315
 31
0.0
  0
LINE
  5
BF58
330
18
100
AcDbEntity
  8
0
  6
BYBLOCK
100
AcDbLine
 10
-230.2189771574541
 20
-2196.131812154315
 30
0.0
 11
-228.2189771574541
 21
-2195.595913774314
 31
0.0
  0
LINE
  5
BF59
330
18
100
AcDbEntity
  8
0
  6
BYBLOCK
100
AcDbLine
 10
-230.2189771574541
 20
-2196.131812154315
 30
0.0
 11
-228.2189771574541
 21
-2196.131812154315
 31
0.0
  0
LINE
  5
BF5A
330
18
100
AcDbEntity
  8
0
  6
BYBLOCK
100
AcDbLine
 10
-197.2189771574537
 20
-2195.595913774314
 30
0.0
 11
-195.2189771574537
 21
-2196.131812154315
 31
0.0
  0
LINE
  5
BF5B
330
18
100
AcDbEntity
  8
0
  6
BYBLOCK
100
AcDbLine
 10
-195.2189771574537
 20
-2196.131812154315
 30
0.0
 11
-197.2189771574537
 21
-2196.667710534315
 31
0.0
  0
LINE
  5
BF5C
330
18
100
AcDbEntity
  8
0
  6
BYBLOCK
100
AcDbLine
 10
-195.2189771574537
 20
-2196.131812154315
 30
0.0
 11
-197.2189771574537
 21
-2196.131812154315
 31
0.0
  0
TEXT
  5
BF5D
330
18
100
AcDbEntity
  8
1DIM
  6
CONTINUOUS
100
AcDbText
 10
-218.2023104907872
 20
-2195.431812154314
 30
0.0
 40
3.5
  1
φ35
100
AcDbText
1001
ACAD
1000
DSTYLE
1002
{
1070
     3
1000
φ<>
1002
}
  0
LINE
  5
BF5E
330
18
100
AcDbEntity
  8
0
  6
BYBLOCK
100
AcDbLine
 10
-218.686410872271
 20
-2107.751067398036
 30
0.0
 11
-220.686410872271
 21
-2107.215169018036
 31
0.0
  0
LINE
  5
BF5F
330
18
100
AcDbEntity
  8
0
  6
BYBLOCK
100
AcDbLine
 10
-220.686410872271
 20
-2107.215169018036
 30
0.0
 11
-218.686410872271
 21
-2106.679270638036
 31
0.0
  0
LINE
  5
BF60
330
18
100
AcDbEntity
  8
0
  6
BYBLOCK
100
AcDbLine
 10
-220.686410872271
 20
-2107.215169018036
 30
0.0
 11
-218.686410872271
 21
-2107.215169018036
 31
0.0
  0
LINE
  5
BF61
330
18
100
AcDbEntity
  8
0
  6
BYBLOCK
100
AcDbLine
 10
-206.751543442637
 20
-2106.679270638036
 30
0.0
 11
-204.751543442637
 21
-2107.215169018036
 31
0.0
  0
LINE
  5
BF62
330
18
100
AcDbEntity
  8
0
  6
BYBLOCK
100
AcDbLine
 10
-204.751543442637
 20
-2107.215169018036
 30
0.0
 11
-206.751543442637
 21
-2107.751067398036
 31
0.0
  0
LINE
  5
BF63
330
18
100
AcDbEntity
  8
0
  6
BYBLOCK
100
AcDbLine
 10
-204.751543442637
 20
-2107.215169018036
 30
0.0
 11
-206.751543442637
 21
-2107.215169018036
 31
0.0
  0
TEXT
  5
BF64
330
18
100
AcDbEntity
  8
1DIM
  6
CONTINUOUS
100
AcDbText
 10
-215.0523104907873
 20
-2106.515169018036
 30
0.0
 40
3.5
  1
16
100
AcDbText
1001
ACAD
1000
DSTYLE
1002
{
1070
   271
1070
     0
1002
}
  0
LINE
  5
BF65
330
18
100
AcDbEntity
  8
0
  6
BYBLOCK
100
AcDbLine
 10
-182.4397153137799
 20
-2094.943119917474
 30
0.0
 11
-182.9756136937799
 21
-2096.943119917474
 31
0.0
  0
LINE
  5
BF66
330
18
100
AcDbEntity
  8
0
  6
BYBLOCK
100
AcDbLine
 10
-182.9756136937799
 20
-2096.943119917474
 30
0.0
 11
-183.5115120737799
 21
-2094.943119917474
 31
0.0
  0
LINE
  5
BF67
330
18
100
AcDbEntity
  8
0
  6
BYBLOCK
100
AcDbLine
 10
-182.9756136937799
 20
-2096.943119917474
 30
0.0
 11
-182.9756136937799
 21
-2094.943119917474
 31
0.0
  0
LINE
  5
BF68
330
18
100
AcDbEntity
  8
0
  6
BYBLOCK
100
AcDbLine
 10
-183.5115120737799
 20
-2086.043119917473
 30
0.0
 11
-182.9756136937799
 21
-2084.043119917473
 31
0.0
  0
LINE
  5
BF69
330
18
100
AcDbEntity
  8
0
  6
BYBLOCK
100
AcDbLine
 10
-182.9756136937799
 20
-2084.043119917473
 30
0.0
 11
-182.4397153137799
 21
-2086.043119917473
 31
0.0
  0
LINE
  5
BF6A
330
18
100
AcDbEntity
  8
0
  6
BYBLOCK
100
AcDbLine
 10
-182.9756136937799
 20
-2084.043119917473
 30
0.0
 11
-182.9756136937799
 21
-2086.043119917473
 31
0.0
  0
TEXT
  5
BF6B
330
18
100
AcDbEntity
  8
1DIM
  6
CONTINUOUS
100
AcDbText
 10
-183.6756136937797
 20
-2092.826453250807
 30
0.0
 40
3.5
  1
13
 50
90.0
100
AcDbText
1001
ACAD
1000
DSTYLE
1002
{
1070
   271
1070
     0
1002
}
  0
LINE
  5
BF6C
330
18
100
AcDbEntity
  8
0
  6
BYBLOCK
100
AcDbLine
 10
-182.4397153137799
 20
-2082.043119917473
 30
0.0
 11
-182.9756136937799
 21
-2084.043119917473
 31
0.0
  0
LINE
  5
BF6D
330
18
100
AcDbEntity
  8
0
  6
BYBLOCK
100
AcDbLine
 10
-182.9756136937799
 20
-2084.043119917473
 30
0.0
 11
-183.5115120737799
 21
-2082.043119917473
 31
0.0
  0
LINE
  5
BF6E
330
18
100
AcDbEntity
  8
0
  6
BYBLOCK
100
AcDbLine
 10
-182.9756136937799
 20
-2084.043119917473
 30
0.0
 11
-182.9756136937799
 21
-2082.043119917473
 31
0.0
  0
LINE
  5
BF6F
330
18
100
AcDbEntity
  8
0
  6
BYBLOCK
100
AcDbLine
 10
-183.5115120737799
 20
-2072.243119917473
 30
0.0
 11
-182.9756136937799
 21
-2070.243119917473
 31
0.0
  0
LINE
  5
BF70
330
18
100
AcDbEntity
  8
0
  6
BYBLOCK
100
AcDbLine
 10
-182.9756136937799
 20
-2070.243119917473
 30
0.0
 11
-182.4397153137799
 21
-2072.243119917473
 31
0.0
  0
LINE
  5
BF71
330
18
100
AcDbEntity
  8
0
  6
BYBLOCK
100
AcDbLine
 10
-182.9756136937799
 20
-2070.243119917473
 30
0.0
 11
-182.9756136937799
 21
-2072.243119917473
 31
0.0
  0
TEXT
  5
BF72
330
18
100
AcDbEntity
  8
1DIM
  6
CONTINUOUS
100
AcDbText
 10
-183.6756136937797
 20
-2079.476453250807
 30
0.0
 40
3.5
  1
14
 50
90.0
100
AcDbText
1001
ACAD
1000
DSTYLE
1002
{
1070
   271
1070
     0
1002
}
  0
LINE
  5
BF73
330
18
100
AcDbEntity
  8
0
  6
BYBLOCK
100
AcDbLine
 10
-174.6830787774538
 20
-2172.69477606586
 30
0.0
 11
-175.2189771574538
 21
-2174.69477606586
 31
0.0
  0
LINE
  5
BF74
330
18
100
AcDbEntity
  8
0
  6
BYBLOCK
100
AcDbLine
 10
-175.2189771574538
 20
-2174.69477606586
 30
0.0
 11
-175.7548755374538
 21
-2172.69477606586
 31
0.0
  0
LINE
  5
BF75
330
18
100
AcDbEntity
  8
0
  6
BYBLOCK
100
AcDbLine
 10
-175.2189771574538
 20
-2174.69477606586
 30
0.0
 11
-175.2189771574538
 21
-2172.69477606586
 31
0.0
  0
LINE
  5
BF76
330
18
100
AcDbEntity
  8
0
  6
BYBLOCK
100
AcDbLine
 10
-175.7548755374538
 20
-2136.69477606586
 30
0.0
 11
-175.2189771574538
 21
-2134.69477606586
 31
0.0
  0
LINE
  5
BF77
330
18
100
AcDbEntity
  8
0
  6
BYBLOCK
100
AcDbLine
 10
-175.2189771574538
 20
-2134.69477606586
 30
0.0
 11
-174.6830787774538
 21
-2136.69477606586
 31
0.0
  0
LINE
  5
BF78
330
18
100
AcDbEntity
  8
0
  6
BYBLOCK
100
AcDbLine
 10
-175.2189771574538
 20
-2134.69477606586
 30
0.0
 11
-175.2189771574538
 21
-2136.69477606586
 31
0.0
  0
TEXT
  5
BF79
330
18
100
AcDbEntity
  8
1DIM
  6
CONTINUOUS
100
AcDbText
 10
-175.9189771574538
 20
-2157.392692732526
 30
0.0
 40
3.5
  1
40
 50
90.0
100
AcDbText
  0
LINE
  5
BF7A
330
18
100
AcDbEntity
  8
0
  6
BYBLOCK
100
AcDbLine
 10
-37.04649359281825
 20
-2217.51791019183
 30
0.0
 11
-35.04649359281825
 21
-2218.05380857183
 31
0.0
  0
LINE
  5
BF7B
330
18
100
AcDbEntity
  8
0
  6
BYBLOCK
100
AcDbLine
 10
-35.04649359281825
 20
-2218.05380857183
 30
0.0
 11
-37.04649359281825
 21
-2218.589706951831
 31
0.0
  0
LINE
  5
BF7C
330
18
100
AcDbEntity
  8
0
  6
BYBLOCK
100
AcDbLine
 10
-35.04649359281825
 20
-2218.05380857183
 30
0.0
 11
-37.04649359281825
 21
-2218.05380857183
 31
0.0
  0
LINE
  5
BF7D
330
18
100
AcDbEntity
  8
0
  6
BYBLOCK
100
AcDbLine
 10
-45.04649359281825
 20
-2218.589706951831
 30
0.0
 11
-47.04649359281825
 21
-2218.05380857183
 31
0.0
  0
LINE
  5
BF7E
330
18
100
AcDbEntity
  8
0
  6
BYBLOCK
100
AcDbLine
 10
-47.04649359281825
 20
-2218.05380857183
 30
0.0
 11
-45.04649359281825
 21
-2217.51791019183
 31
0.0
  0
LINE
  5
BF7F
330
18
100
AcDbEntity
  8
0
  6
BYBLOCK
100
AcDbLine
 10
-47.04649359281825
 20
-2218.05380857183
 30
0.0
 11
-45.04649359281825
 21
-2218.05380857183
 31
0.0
  0
TEXT
  5
BF80
330
18
100
AcDbEntity
  8
1DIM
  6
CONTINUOUS
100
AcDbText
 10
-45.94649359281825
 20
-2217.353808571831
 30
0.0
 40
3.5
  1
φ12
100
AcDbText
1001
ACAD
1000
DSTYLE
1002
{
1070
     3
1000
φ<>
1002
}
  0
LINE
  5
BF81
330
18
100
AcDbEntity
  8
0
  6
BYBLOCK
100
AcDbLine
 10
-63.82798145297574
 20
-2207.69477606586
 30
0.0
 11
-64.36387983297574
 21
-2209.69477606586
 31
0.0
  0
LINE
  5
BF82
330
18
100
AcDbEntity
  8
0
  6
BYBLOCK
100
AcDbLine
 10
-64.36387983297574
 20
-2209.69477606586
 30
0.0
 11
-64.89977821297575
 21
-2207.69477606586
 31
0.0
  0
LINE
  5
BF83
330
18
100
AcDbEntity
  8
0
  6
BYBLOCK
100
AcDbLine
 10
-64.36387983297574
 20
-2209.69477606586
 30
0.0
 11
-64.36387983297574
 21
-2207.69477606586
 31
0.0
  0
LINE
  5
BF84
330
18
100
AcDbEntity
  8
0
  6
BYBLOCK
100
AcDbLine
 10
-64.89977821297573
 20
-2176.69477606586
 30
0.0
 11
-64.36387983297573
 21
-2174.69477606586
 31
0.0
  0
LINE
  5
BF85
330
18
100
AcDbEntity
  8
0
  6
BYBLOCK
100
AcDbLine
 10
-64.36387983297573
 20
-2174.69477606586
 30
0.0
 11
-63.82798145297573
 21
-2176.69477606586
 31
0.0
  0
LINE
  5
BF86
330
18
100
AcDbEntity
  8
0
  6
BYBLOCK
100
AcDbLine
 10
-64.36387983297573
 20
-2174.69477606586
 30
0.0
 11
-64.36387983297573
 21
-2176.69477606586
 31
0.0
  0
TEXT
  5
BF87
330
18
100
AcDbEntity
  8
1DIM
  6
CONTINUOUS
100
AcDbText
 10
-65.063879832976
 20
-2195.111442732526
 30
0.0
 40
3.5
  1
35
 50
90.0
100
AcDbText
  0
VIEWPORT
  5
57
330
15
100
AcDbEntity
 67
     1
  8
0
100
AcDbViewport
 68
     1
 10
0.0
 20
0.0
 30
0.0
 40
639.1804245283018
 41
297.0
 68
     1
 69
     1
1001
ACAD
1000
MVIEW
1002
{
1070
    16
1010
0.0
1020
0.0
1030
0.0
1010
0.0
1020
0.0
1030
1.0
1040
0.0
1040
297.0
1040
-4.171999999999798
1040
12.839
1040
50.0
1040
0.0
1040
0.0
1070
    16
1070
   100
1070
     0
1070
     1
1070
     0
1070
     0
1070
     0
1070
     0
1040
0.0
1040
0.0
1040
0.0
1040
10.0
1040
10.0
1040
10.0
1040
10.0
1070
     0
1002
{
1002
}
1002
}
  0
ENDSEC
  0
SECTION
  2
OBJECTS
  0
DICTIONARY
  5
C
330
0
100
AcDbDictionary
  3
ACAD_CIP_PREVIOUS_PRODUCT_INFO
350
B500
  3
ACAD_COLOR
350
2D0
  3
ACAD_GROUP
350
D
  3
ACAD_LAYOUT
350
2D1
  3
ACAD_MATERIAL
350
2CF
  3
ACAD_MLEADERSTYLE
350
AF0C
  3
ACAD_MLINESTYLE
350
1B
  3
ACAD_PLOTSETTINGS
350
2D2
  3
ACAD_SCALELIST
350
AEEA
  3
ACAD_VISUALSTYLE
350
AED9
  3
ACDBHEADERROUNDTRIPXREC
350
BF88
  3
ACDBVARIABLEDICTIONARY
350
37
  3
AEC_PROPERTY_SET_DEFS
350
BD5C
  3
CONTENTDICTIONARY
350
D8
  3
DRAWINGVARIABLESDICT
350
20
  3
DWGPROPS
350
BF8B
1001
ACAD
1000
TREAT_AS_HARD
1070
     0
  0
DICTIONARY
  5
AE03
330
2
100
AcDbDictionary
  3
ACAD_LAYERSTATES
360
AE04
1001
ACAD
1000
TREAT_AS_HARD
1070
     1
  0
DICTIONARY
  5
B2C0
330
E
100
AcDbDictionary
  3
ADSK_XREC_LAYER_RECONCILED
360
B2C1
1001
ACAD
1000
TREAT_AS_HARD
1070
     1
  0
DICTIONARY
  5
B2C2
330
29
100
AcDbDictionary
  3
ADSK_XREC_LAYER_RECONCILED
360
B2C3
1001
ACAD
1000
TREAT_AS_HARD
1070
     1
  0
DICTIONARY
  5
B2C4
330
31
100
AcDbDictionary
  3
ADSK_XREC_LAYER_RECONCILED
360
B2C5
1001
ACAD
1000
TREAT_AS_HARD
1070
     1
  0
DICTIONARY
  5
B2CE
330
101
100
AcDbDictionary
  3
ADSK_XREC_LAYER_RECONCILED
360
B2CF
1001
ACAD
1000
TREAT_AS_HARD
1070
     1
  0
DICTIONARY
  5
B2D2
330
103
100
AcDbDictionary
  3
ADSK_XREC_LAYER_RECONCILED
360
B2D3
1001
ACAD
1000
TREAT_AS_HARD
1070
     1
  0
DICTIONARY
  5
B2D6
330
25F
100
AcDbDictionary
  3
ADSK_XREC_LAYER_RECONCILED
360
B2D7
1001
ACAD
1000
TREAT_AS_HARD
1070
     1
  0
DICTIONARY
  5
B2F2
330
26D
100
AcDbDictionary
  3
ADSK_XREC_LAYER_RECONCILED
360
B2F3
1001
ACAD
1000
TREAT_AS_HARD
1070
     1
  0
DICTIONARY
  5
B302
330
276
100
AcDbDictionary
  3
ADSK_XREC_LAYER_RECONCILED
360
B303
1001
ACAD
1000
TREAT_AS_HARD
1070
     1
  0
DICTIONARY
  5
6E9
330
18
100
AcDbDictionary
  3
ACAD_SORTENTS
360
6EA
1001
ACAD
1000
TREAT_AS_HARD
1070
     1
  0
DICTIONARY
  5
59B
330
15
100
AcDbDictionary
  3
ACAD_SORTENTS
360
59C
1001
ACAD
1000
TREAT_AS_HARD
1070
     1
  0
XRECORD
  5
B500
102
{ACAD_REACTORS
330
C
102
}
330
C
100
AcDbXrecord
300
ACDLT
300
2012
300
ACDLT_F_S
  0
DICTIONARY
  5
2D0
102
{ACAD_REACTORS
330
C
102
}
330
C
100
AcDbDictionary
1001
ACAD
1000
TREAT_AS_HARD
1070
     0
  0
DICTIONARY
  5
D
102
{ACAD_REACTORS
330
C
102
}
330
C
100
AcDbDictionary
1001
ACAD
1000
TREAT_AS_HARD
1070
     0
  0
DICTIONARY
  5
2D1
102
{ACAD_REACTORS
330
C
102
}
330
C
100
AcDbDictionary
1001
ACAD
1000
TREAT_AS_HARD
1070
     0
  0
DICTIONARY
  5
2CF
102
{ACAD_REACTORS
330
C
102
}
330
C
100
AcDbDictionary
  3
BYBLOCK
350
AEC9
  3
BYLAYER
350
AEC1
  3
GLOBAL
350
AED1
1001
ACAD
1000
TREAT_AS_HARD
1070
     0
  0
DICTIONARY
  5
AF0C
102
{ACAD_REACTORS
330
C
102
}
330
C
100
AcDbDictionary
  3
STANDARD
350
AF0D
1001
ACAD
1000
TREAT_AS_HARD
1070
     0
  0
DICTIONARY
  5
1B
102
{ACAD_REACTORS
330
C
102
}
330
C
100
AcDbDictionary
  3
STANDARD
350
1C
1001
ACAD
1000
TREAT_AS_HARD
1070
     0
  0
DICTIONARY
  5
2D2
102
{ACAD_REACTORS
330
C
102
}
330
C
100
AcDbDictionary
1001
ACAD
1000
TREAT_AS_HARD
1070
     0
  0
DICTIONARY
  5
AEEA
102
{ACAD_REACTORS
330
C
102
}
330
C
100
AcDbDictionary
  3
A0
350
AEEB
  3
A1
350
AEEC
  3
A2
350
AEED
  3
A3
350
AEEE
  3
A4
350
AEEF
  3
A5
350
AEF0
  3
A6
350
AEF1
  3
A7
350
AEF2
  3
A8
350
AEF3
  3
A9
350
AEF4
  3
B0
350
AEF5
  3
B1
350
AEF6
  3
B2
350
AEF7
  3
B3
350
AEF8
  3
B4
350
AEF9
  3
B5
350
AEFA
  3
B6
350
AEFB
  3
B7
350
AEFC
  3
B8
350
AEFD
  3
B9
350
AEFE
  3
C0
350
AEFF
  3
C1
350
AF00
  3
C2
350
AF01
  3
C3
350
AF02
  3
C4
350
AF03
  3
C5
350
AF04
  3
C6
350
AF05
  3
C7
350
AF06
  3
C8
350
AF07
  3
C9
350
AF08
  3
D0
350
AF09
  3
D1
350
AF0A
  3
D2
350
AF0B
1001
ACAD
1000
TREAT_AS_HARD
1070
     0
  0
DICTIONARY
  5
AED9
102
{ACAD_REACTORS
330
C
102
}
330
C
100
AcDbDictionary
  3
2DWIREFRAME
350
AEDF
  3
3D_HIDDEN
350
AEE1
  3
3DWIREFRAME
350
AEE0
  3
BASIC
350
AEDE
  3
BRIGHTEN
350
AEE5
  3
COLORCHANGE
350
AEE9
  3
CONCEPTUAL
350
AEE2
  3
DIM
350
AEE4
  3
EDGECOLOROFF
350
B4F0
  3
FACEPATTERN
350
AEE8
  3
FLAT
350
AEDA
  3
FLATWITHEDGES
350
AEDB
  3
GOURAUD
350
AEDC
  3
GOURAUDWITHEDGES
350
AEDD
  3
HIDDEN
350
B4E8
  3
JITTEROFF
350
B4EE
  3
LINEPATTERN
350
AEE7
  3
MODELING
350
BE08
  3
OVERHANGOFF
350
B4EF
  3
REALISTIC
350
AEE3
  3
SHADED
350
B4ED
  3
SHADED_WITH_EDGES
350
B4EC
  3
SHADES_OF_GRAY
350
B4E9
  3
SKETCHY
350
B4EA
  3
THICKEN
350
AEE6
  3
WIREFRAME
350
B4E7
  3
X-RAY
350
B4EB
1001
ACAD
1000
TREAT_AS_HARD
1070
     0
  0
DICTIONARY
  5
BF88
102
{ACAD_REACTORS
330
C
102
}
330
C
100
AcDbDictionary
  3
COLORDICT
350
BF89
  3
MATERIALDICT
350
BF8A
1001
ACAD
1000
TREAT_AS_HARD
1070
     0
  0
DICTIONARY
  5
37
102
{ACAD_REACTORS
330
C
102
}
330
C
100
AcDbDictionary
  3
CANNOSCALE
350
B350
  3
CMLEADERSTYLE
350
B34F
  3
CTABLESTYLE
350
4F1
  3
DIMADEC
350
38
  3
DIMASSOC
350
408
  3
HIDETEXT
350
1891
  3
INDEXCTL
350
B352
  3
INTERSECTIONCOLOR
350
1895
  3
INTERSECTIONDISPLAY
350
1894
  3
MSLTSCALE
350
BE87
  3
OBSCOLOR
350
1892
  3
OBSLTYPE
350
1893
  3
PROJECTNAME
350
409
  3
SORTENTS
350
B351
  3
XCLIPFRAME
350
BE07
1001
ACAD
1000
TREAT_AS_HARD
1070
     0
  0
DICTIONARY
  5
BD5C
102
{ACAD_REACTORS
330
C
102
}
330
C
100
AcDbDictionary
1001
ACAD
1000
TREAT_AS_HARD
1070
     0
  0
DICTIONARY
  5
D8
102
{ACAD_REACTORS
330
C
102
}
330
C
100
AcDbDictionary
1001
CONTENTTABDATA
1070
    11
1000
Child
1000
D:\ACLT\TABset\CHILDREN.dwg
1070
     0
1070
     0
1070
     1
1000
PK
1000
D:\ACLT\TABset\PK.dwg
1070
     0
1070
     0
1070
     1
1000
Lev1
1000
D:\ACLT\TABset\Lever01.dwg
1070
     0
1070
     0
1070
     1
1000
Lev2
1000
D:\ACLT\TABset\Lever02.dwg
1070
     0
1070
     0
1070
     1
1000
L3
1000
D:\Aclt\TABset\Lever03.dwg
1070
     0
1070
     0
1070
     1
1000
Form
1000
D:\ACLT\FORMAT
1070
     1
1070
     0
1070
     1
1000
Jnt
1000
D:\ACLT\TABset\JOINTPARTS.dwg
1070
     0
1070
     0
1070
     1
1000
ISO
1000
D:\ACLT\TABset\Isome01.dwg
1070
     0
1070
     0
1070
     1
1000
R
1000
D:\ACLT\TABset\REGION.dwg
1070
     0
1070
     0
1070
     1
1000
std
1000
D:\ACLT\TABset\std_sym_all.dwg
1070
     0
1070
     0
1070
     1
1000
丸
1000
D:\Aclt\TABset\MARU.dwg
1070
     0
1070
     0
1070
     1
1001
CONTENTCURRENTTAB
1070
     0
1001
ACAD
1000
TREAT_AS_HARD
1070
     0
  0
DICTIONARY
  5
20
102
{ACAD_REACTORS
330
C
102
}
330
C
100
AcDbDictionary
1001
DRAWINGVARIABLESXDATA
1000
POLARANG
1000
0.261799387799149410000000
1000
POLARMODE
1000
1
1000
POLARSTYLE
1000
1
1001
ACAD
1000
TREAT_AS_HARD
1070
     0
  0
XRECORD
  5
BF8B
102
{ACAD_REACTORS
330
C
102
}
330
C
100
AcDbXrecord
  1
DWGPROPS COOKIE
  2

  3

  4

  6

  7

  8
3684
  9

300
=
301
=
302
=
303
=
304
=
305
=
306
=
307
=
308
=
309
=
 40
0.0
 41
2453033.357663484
 42
2458726.015201956
  1

 90
        0
  0
DICTIONARY
  5
AE04
102
{ACAD_REACTORS
330
AE03
102
}
330
AE03
100
AcDbDictionary
1001
ACAD
1000
TREAT_AS_HARD
1070
     0
  0
ACAD_PROXY_OBJECT
  5
B2C1
102
{ACAD_REACTORS
330
B2C0
102
}
330
B2C0
100
AcDbZombieObject
 90
      499
 91
      515
 93
       34
310
40C8804040
  0
ACAD_PROXY_OBJECT
  5
B2C3
102
{ACAD_REACTORS
330
B2C2
102
}
330
B2C2
100
AcDbZombieObject
 90
      499
 91
      515
 93
       34
310
40C8804040
  0
ACAD_PROXY_OBJECT
  5
B2C5
102
{ACAD_REACTORS
330
B2C4
102
}
330
B2C4
100
AcDbZombieObject
 90
      499
 91
      515
 93
       34
310
40C8804040
  0
ACAD_PROXY_OBJECT
  5
B2CF
102
{ACAD_REACTORS
330
B2CE
102
}
330
B2CE
100
AcDbZombieObject
 90
      499
 91
      515
 93
       34
310
40C8804040
  0
ACAD_PROXY_OBJECT
  5
B2D3
102
{ACAD_REACTORS
330
B2D2
102
}
330
B2D2
100
AcDbZombieObject
 90
      499
 91
      515
 93
       34
310
40C8804040
  0
ACAD_PROXY_OBJECT
  5
B2D7
102
{ACAD_REACTORS
330
B2D6
102
}
330
B2D6
100
AcDbZombieObject
 90
      499
 91
      515
 93
       34
310
40C8804040
  0
ACAD_PROXY_OBJECT
  5
B2F3
102
{ACAD_REACTORS
330
B2F2
102
}
330
B2F2
100
AcDbZombieObject
 90
      499
 91
      515
 93
       34
310
40C8804040
  0
ACAD_PROXY_OBJECT
  5
B303
102
{ACAD_REACTORS
330
B302
102
}
330
B302
100
AcDbZombieObject
 90
      499
 91
      515
 93
       34
310
40C8804040
  0
SORTENTSTABLE
  5
6EA
102
{ACAD_REACTORS
330
6E9
102
}
330
6E9
100
AcDbSortentsTable
330
18
331
0
  5
B0A2
331
9AE9
  5
B0A3
331
9AEA
  5
B0A4
331
9AEB
  5
B0A5
331
9AEC
  5
B0A6
331
9AEE
  5
B0A8
331
9AEF
  5
B0A9
331
9AF0
  5
B0AA
331
9AF1
  5
B0AB
331
9AF3
  5
B0AC
331
9AF4
  5
B0AD
331
9AF5
  5
B0AE
331
9AF6
  5
B0AF
331
9AF7
  5
B0B0
331
9B07
  5
B0B3
331
9B08
  5
B0B9
331
9BA2
  5
B0C6
331
9BA5
  5
B0C7
331
9BA6
  5
B0F3
331
9D99
  5
B0F4
331
9D9A
  5
B0F5
331
9D9B
  5
B0F6
331
9D9C
  5
B0F7
331
9D9D
  5
B0F8
331
9D9E
  5
B0F9
331
0
  5
A3BE
331
0
  5
ABB2
331
0
  5
ABCA
331
0
  5
AC2A
331
0
  5
B130
331
0
  5
ACD8
331
B0A2
  5
B13B
331
B0A3
  5
B13C
331
B0A4
  5
B13D
331
B0A5
  5
B13E
331
B0A6
  5
B13F
331
B0A8
  5
B140
331
B0A9
  5
B141
331
B0AA
  5
B142
331
B0AB
  5
B143
331
B0AC
  5
B144
331
B0AD
  5
B145
331
B0AE
  5
B146
331
B0AF
  5
B147
331
B0B0
  5
B148
331
B0B3
  5
B149
331
B0B9
  5
B14A
331
B0C6
  5
B1CB
331
B0C7
  5
B1CC
331
B0F3
  5
B1CD
331
B0F4
  5
B1CE
331
B0F5
  5
B1CF
331
B0F6
  5
B1D0
331
B0F7
  5
B1D1
331
B0F8
  5
B1D2
331
B0F9
  5
B1D3
331
B0FA
  5
B1D4
331
B0FB
  5
B1D5
331
B0FC
  5
B1D6
331
B0FD
  5
B1D7
331
B0FE
  5
B1D8
331
B0FF
  5
B1D9
331
B100
  5
B1DA
331
B101
  5
B1DB
331
B102
  5
B1DC
331
B103
  5
B1DD
331
B104
  5
B1DE
331
B105
  5
B1DF
331
B106
  5
B1E0
331
B107
  5
B1E1
331
B108
  5
B1E2
331
B109
  5
B1E3
331
B10A
  5
B1E4
331
B10B
  5
B1E5
331
B10C
  5
B1E6
331
B10D
  5
B1E7
331
B10E
  5
B1E8
331
B10F
  5
B1E9
331
B110
  5
B1EE
331
B111
  5
B526
331
B112
  5
B527
331
B113
  5
B528
331
B114
  5
B529
331
B115
  5
B52A
331
B116
  5
B52B
331
B117
  5
B52C
331
B118
  5
B52D
331
B119
  5
B52E
331
B11A
  5
B52F
331
B11B
  5
B530
331
B11C
  5
B531
331
B11D
  5
B532
331
B11E
  5
B533
331
B11F
  5
B534
331
B120
  5
B535
331
B121
  5
B537
331
B122
  5
B538
331
B123
  5
B539
331
B124
  5
B53A
331
B125
  5
B53B
331
B126
  5
B53C
331
B127
  5
BD72
331
B128
  5
BE8B
331
B129
  5
BE8C
331
B12A
  5
BE8D
331
B12B
  5
BE8E
331
B12C
  5
BE8F
331
B12D
  5
BE90
331
B12E
  5
BE91
331
B12F
  5
BE92
331
B130
  5
BE93
331
B131
  5
BE94
331
B132
  5
BE95
331
B133
  5
BE96
331
B134
  5
BE97
331
B135
  5
BE98
331
B136
  5
BE99
331
B137
  5
BE9A
331
B138
  5
BE9B
331
B139
  5
BE9C
331
B13A
  5
BE9D
331
B13B
  5
BE9E
331
B13C
  5
BE9F
331
B13D
  5
BEA0
331
B13E
  5
BEA1
331
B13F
  5
BEA2
331
B140
  5
BEA3
331
B141
  5
BEA4
331
B142
  5
BEA5
331
B143
  5
BEA6
331
B144
  5
BEA7
331
B145
  5
BEA8
331
B146
  5
BEA9
331
B147
  5
BEAA
331
B148
  5
BEAB
331
B149
  5
BEAC
331
B14A
  5
BEAD
331
B152
  5
BEB8
331
B153
  5
BEB9
331
B154
  5
BEBA
331
B155
  5
BEBB
331
B156
  5
BEBC
331
B157
  5
BEBD
331
B158
  5
BEBE
331
B159
  5
BEBF
331
B15A
  5
BEC0
331
B15B
  5
BEC1
331
B15C
  5
BEC2
331
B15D
  5
BEC3
331
B15E
  5
BEC4
331
B15F
  5
BEC5
331
B160
  5
BEC6
331
B164
  5
BEC7
331
B165
  5
BEC8
331
B166
  5
BEC9
331
B167
  5
BECA
331
B168
  5
BECB
331
B16A
  5
BECC
331
B16B
  5
BECD
331
B16C
  5
BECE
331
B16D
  5
BECF
331
B16E
  5
BED0
331
B16F
  5
BED1
331
B170
  5
BED2
331
B171
  5
BED3
331
B172
  5
BED4
331
B175
  5
BED5
331
B17B
  5
BED6
331
B188
  5
BF19
331
B1B7
  5
BF1A
331
B1B8
  5
BF1B
331
B1B9
  5
BF1C
331
B1BA
  5
BF1D
331
B1BB
  5
BF1E
331
B1BC
  5
BF1F
331
B1BD
  5
BF20
331
B1BE
  5
BF21
331
B1BF
  5
BF22
331
B1C0
  5
BF23
331
B1C1
  5
BF24
331
B1C2
  5
BF28
331
B1C3
  5
BF29
331
B1C4
  5
BF2A
331
B1C5
  5
BF2E
331
B1C6
  5
BF2F
331
B1C7
  5
BF30
331
B1C8
  5
BF31
331
B1C9
  5
BF32
331
B1CA
  5
BF33
331
B1CB
  5
BF34
331
B1CC
  5
BF35
331
B1CD
  5
BF36
331
B1CE
  5
BF37
331
B1CF
  5
BF38
331
B1D0
  5
BF39
331
B1D1
  5
BF3A
331
B1D2
  5
BF3B
331
B1D3
  5
BF3C
331
B1D4
  5
BF3D
331
B1D5
  5
BF3E
331
B1D6
  5
BF3F
331
B1D7
  5
BF40
331
B1D8
  5
BF41
331
B1D9
  5
BF42
331
B1DA
  5
BF43
331
B1DB
  5
BF44
331
B1DC
  5
BF45
331
B1DD
  5
BF46
331
B1DE
  5
BF47
331
B1DF
  5
BF48
331
B1E0
  5
BF49
331
B1E1
  5
BF4A
331
B1E2
  5
BF4B
331
B1E3
  5
BF4C
331
B1E4
  5
BF4D
331
B1E5
  5
BF4E
331
B1E6
  5
BF4F
331
B1E7
  5
BF50
331
B1E8
  5
BF51
331
0
  5
B1EA
331
0
  5
B1EB
331
B1EB
  5
BF66
331
0
  5
B1EF
331
0
  5
B369
331
0
  5
B36A
331
0
  5
B43C
331
0
  5
B188
331
B526
  5
BF71
331
B527
  5
BF72
331
B528
  5
BF74
331
B529
  5
BF75
331
B52A
  5
BF76
331
B52B
  5
BF77
331
B52C
  5
BF78
331
B52D
  5
BF79
331
B52E
  5
BF7A
331
B52F
  5
BF7B
331
B530
  5
BF7C
331
B531
  5
BF7D
331
B532
  5
BF7E
331
B533
  5
BF7F
331
B534
  5
BF80
331
B535
  5
BF81
331
B537
  5
BF82
331
B538
  5
BF83
331
B539
  5
BF84
331
B53A
  5
BF85
331
B53B
  5
BF86
331
B53C
  5
BF87
331
BD72
  5
BF73
331
BE8B
  5
8239
331
BE8C
  5
9AE9
331
BE8D
  5
9AEA
331
0
  5
9AEB
331
0
  5
9AEC
331
0
  5
9AEE
331
BE91
  5
9BA6
331
BE92
  5
9BB6
331
BE93
  5
9BB7
331
0
  5
9AF3
331
0
  5
9AF4
331
0
  5
9AF5
331
BE97
  5
B0FA
331
BE98
  5
B0FE
331
BE99
  5
B0FF
331
BE9A
  5
B100
331
BE9B
  5
B104
331
BE9C
  5
B105
331
BE9D
  5
B106
331
BE9E
  5
B10A
331
BE9F
  5
B10B
331
BEA0
  5
B10C
331
BEA1
  5
B10D
331
BEA2
  5
B111
331
BEA3
  5
B112
331
BEA4
  5
B113
331
BEA5
  5
B114
331
0
  5
B0FB
331
0
  5
B0FC
331
0
  5
B0FD
331
BEA9
  5
B11C
331
BEAA
  5
B11D
331
BEAB
  5
B11E
331
0
  5
B101
331
0
  5
B102
331
0
  5
B103
331
BEAF
  5
B126
331
BEB0
  5
B127
331
BEB1
  5
B128
331
0
  5
B107
331
0
  5
B108
331
0
  5
B109
331
BEB5
  5
B131
331
BEB6
  5
B132
331
BEB7
  5
B133
331
0
  5
B10E
331
0
  5
B10F
331
0
  5
B110
331
BEBB
  5
B152
331
BEBC
  5
B153
331
BEBD
  5
B154
331
BEBE
  5
B155
331
BEBF
  5
B156
331
BEC0
  5
B157
331
BEC1
  5
B158
331
BEC2
  5
B159
331
BEC3
  5
B15A
331
BEC4
  5
B15B
331
BEC5
  5
B15C
331
BEC6
  5
B15D
331
BEC7
  5
B15E
331
BEC8
  5
B15F
331
BEC9
  5
B160
331
BECA
  5
B164
331
BECB
  5
B165
331
BECC
  5
B166
331
BECD
  5
B167
331
BECE
  5
B168
331
BECF
  5
B16A
331
BED0
  5
B16B
331
BED1
  5
B16C
331
BED2
  5
B16D
331
BED3
  5
B16E
331
BED4
  5
B16F
331
BED5
  5
B170
331
BED6
  5
B171
331
BED7
  5
B172
331
BED8
  5
B175
331
BED9
  5
B17B
331
BEDA
  5
B1B7
331
BEDB
  5
B1B8
331
BEDC
  5
B1B9
331
BEDD
  5
B1BA
331
BEDE
  5
B1BB
331
BEDF
  5
B1BC
331
BEE0
  5
B1BD
331
BEE1
  5
B1BE
331
BEE2
  5
B1BF
331
BEE3
  5
B1C0
331
BEE4
  5
B1C1
331
BEE5
  5
B1C2
331
BEE6
  5
B1C3
331
BEE7
  5
B1C4
331
BEE8
  5
B1C5
331
BEE9
  5
B1C6
331
BEEA
  5
B1C7
331
BEEB
  5
B1C8
331
BEEC
  5
B1C9
331
BEED
  5
B1CA
331
BEEE
  5
BEAE
331
BEEF
  5
BEAF
331
BEF0
  5
BEB0
331
BEF1
  5
BEB1
331
BEF2
  5
BEB2
331
BEF3
  5
BEB3
331
BEF4
  5
BEB4
331
BEF5
  5
BEB5
331
BEF6
  5
BEB6
331
BEF7
  5
BEB7
331
BEF8
  5
BF52
331
BEF9
  5
BF53
331
BEFA
  5
BF54
331
0
  5
BF25
331
0
  5
BF26
331
0
  5
BF27
331
BEFE
  5
BF5C
331
BEFF
  5
BF5D
331
BF00
  5
BF5E
331
0
  5
BF2B
331
0
  5
BF2C
331
0
  5
BF2D
331
BF04
  5
BF67
331
BF05
  5
BF68
331
BF06
  5
BF69
331
BF07
  5
BF6A
331
BF08
  5
BF6B
331
BF09
  5
BF6C
331
BF0A
  5
BF6D
331
BF0B
  5
BF6E
331
BF0C
  5
BF6F
331
BF0D
  5
BF70
331
BF0E
  5
BED7
331
BF0F
  5
BED8
331
BF10
  5
BED9
331
BF11
  5
BEDA
331
BF12
  5
BEDB
331
BF13
  5
BEDC
331
BF14
  5
BEDD
331
BF15
  5
BEDE
331
BF16
  5
BEDF
331
BF17
  5
BEE0
331
BF18
  5
BEE1
331
BF19
  5
BEE2
331
BF1A
  5
BEE3
331
BF1B
  5
BEE4
331
BF1C
  5
BEE5
331
BF1D
  5
BEE6
331
BF1E
  5
BEE7
331
BF1F
  5
BEE8
331
BF20
  5
BEE9
331
BF21
  5
BEEA
331
BF22
  5
BEEB
331
BF23
  5
BEEC
331
BF24
  5
BEED
331
BF25
  5
BEEE
331
BF26
  5
BEEF
331
BF27
  5
BEF0
331
BF28
  5
BEF1
331
BF29
  5
BEF2
331
BF2A
  5
BEF3
331
BF2B
  5
BEF4
331
BF2C
  5
BEF5
331
BF2D
  5
BEF6
331
BF2E
  5
BEF7
331
BF2F
  5
BEF8
331
BF30
  5
BEF9
331
BF31
  5
BEFA
331
BF32
  5
BEFB
331
BF33
  5
BEFC
331
BF34
  5
BEFD
331
BF35
  5
BEFE
331
BF36
  5
BEFF
331
BF37
  5
BF00
331
BF38
  5
BF01
331
BF39
  5
BF02
331
BF3A
  5
BF03
331
BF3B
  5
BF04
331
BF3C
  5
BF05
331
BF3D
  5
BF06
331
BF3E
  5
BF07
331
BF3F
  5
BF08
331
BF40
  5
BF09
331
BF41
  5
BF0A
331
BF42
  5
BF0B
331
BF43
  5
BF0C
331
BF44
  5
BF0D
331
BF45
  5
BF0E
331
BF46
  5
BF0F
331
BF47
  5
BF10
331
BF48
  5
BF11
331
BF49
  5
BF12
331
BF4A
  5
BF13
331
BF4B
  5
BF14
331
BF4C
  5
BF15
331
BF4D
  5
BF16
331
BF4E
  5
BF17
331
BF4F
  5
BF18
331
BF50
  5
9AEF
331
BF51
  5
9AF0
331
BF52
  5
9AF1
331
BF53
  5
9AF6
331
BF54
  5
9AF7
331
BF55
  5
9B07
331
BF56
  5
9B08
331
BF57
  5
9D9C
331
BF58
  5
9D9D
331
BF59
  5
9D9E
331
BF5A
  5
9F4B
331
BF5B
  5
9F4C
331
BF5C
  5
9F4D
331
BF5D
  5
AC59
331
BF5E
  5
B115
331
BF5F
  5
B116
331
BF60
  5
B117
331
BF61
  5
B118
331
BF62
  5
B119
331
BF63
  5
B11A
331
BF64
  5
B11B
331
BF65
  5
B11F
331
BF66
  5
B120
331
BF67
  5
B121
331
BF68
  5
B122
331
BF69
  5
B123
331
BF6A
  5
B124
331
BF6B
  5
B125
331
BF6C
  5
B129
331
BF6D
  5
B12A
331
BF6E
  5
B12B
331
BF6F
  5
B12C
331
BF70
  5
B12D
331
BF71
  5
B12E
331
BF72
  5
B12F
331
BF73
  5
B134
331
BF74
  5
B135
331
BF75
  5
B136
331
BF76
  5
B137
331
BF77
  5
B138
331
BF78
  5
B139
331
BF79
  5
B13A
331
BF7A
  5
BF55
331
BF7B
  5
BF56
331
BF7C
  5
BF57
331
BF7D
  5
BF58
331
BF7E
  5
BF59
331
BF7F
  5
BF5A
331
BF80
  5
BF5B
331
BF81
  5
BF5F
331
BF82
  5
BF60
331
BF83
  5
BF61
331
BF84
  5
BF62
331
BF85
  5
BF63
331
BF86
  5
BF64
331
BF87
  5
BF65
  0
SORTENTSTABLE
  5
59C
102
{ACAD_REACTORS
330
59B
102
}
330
59B
100
AcDbSortentsTable
330
15
331
57
  5
57
331
0
  5
70
  0
MATERIAL
  5
AEC9
102
{ACAD_REACTORS
330
2CF
102
}
102
{ACAD_XDICTIONARY
360
C126
102
}
330
2CF
100
AcDbMaterial
  1
BYBLOCK
 72
     0
 73
     2
 43
0.0208333333333333
 43
0.0
 43
0.0
 43
0.0
 43
0.0
 43
0.0208333333333333
 43
0.0
 43
0.0
 43
0.0
 43
0.0
 43
1.0
 43
0.0
 43
0.0
 43
0.0
 43
0.0
 43
1.0
 77
     0
 78
     2
 47
0.0208333333333333
 47
0.0
 47
0.0
 47
0.0
 47
0.0
 47
0.0208333333333333
 47
0.0
 47
0.0
 47
0.0
 47
0.0
 47
1.0
 47
0.0
 47
0.0
 47
0.0
 47
0.0
 47
1.0
171
     0
172
     2
 49
0.0208333333333333
 49
0.0
 49
0.0
 49
0.0
 49
0.0
 49
0.0208333333333333
 49
0.0
 49
0.0
 49
0.0
 49
0.0
 49
1.0
 49
0.0
 49
0.0
 49
0.0
 49
0.0
 49
1.0
175
     0
176
     2
142
0.0208333333333333
142
0.0
142
0.0
142
0.0
142
0.0
142
0.0208333333333333
142
0.0
142
0.0
142
0.0
142
0.0
142
1.0
142
0.0
142
0.0
142
0.0
142
0.0
142
1.0
179
     0
270
     2
144
0.0208333333333333
144
0.0
144
0.0
144
0.0
144
0.0
144
0.0208333333333333
144
0.0
144
0.0
144
0.0
144
0.0
144
1.0
144
0.0
144
0.0
144
0.0
144
0.0
144
1.0
274
     2
147
0.0208333333333333
147
0.0
147
0.0
147
0.0
147
0.0
147
0.0208333333333333
147
0.0
147
0.0
147
0.0
147
0.0
147
1.0
147
0.0
147
0.0
147
0.0
147
0.0
147
1.0
  0
MATERIAL
  5
AEC1
102
{ACAD_REACTORS
330
2CF
102
}
102
{ACAD_XDICTIONARY
360
C128
102
}
330
2CF
100
AcDbMaterial
  1
BYLAYER
 72
     0
 73
     2
 43
0.0208333333333333
 43
0.0
 43
0.0
 43
0.0
 43
0.0
 43
0.0208333333333333
 43
0.0
 43
0.0
 43
0.0
 43
0.0
 43
1.0
 43
0.0
 43
0.0
 43
0.0
 43
0.0
 43
1.0
 77
     0
 78
     2
 47
0.0208333333333333
 47
0.0
 47
0.0
 47
0.0
 47
0.0
 47
0.0208333333333333
 47
0.0
 47
0.0
 47
0.0
 47
0.0
 47
1.0
 47
0.0
 47
0.0
 47
0.0
 47
0.0
 47
1.0
171
     0
172
     2
 49
0.0208333333333333
 49
0.0
 49
0.0
 49
0.0
 49
0.0
 49
0.0208333333333333
 49
0.0
 49
0.0
 49
0.0
 49
0.0
 49
1.0
 49
0.0
 49
0.0
 49
0.0
 49
0.0
 49
1.0
175
     0
176
     2
142
0.0208333333333333
142
0.0
142
0.0
142
0.0
142
0.0
142
0.0208333333333333
142
0.0
142
0.0
142
0.0
142
0.0
142
1.0
142
0.0
142
0.0
142
0.0
142
0.0
142
1.0
179
     0
270
     2
144
0.0208333333333333
144
0.0
144
0.0
144
0.0
144
0.0
144
0.0208333333333333
144
0.0
144
0.0
144
0.0
144
0.0
144
1.0
144
0.0
144
0.0
144
0.0
144
0.0
144
1.0
274
     2
147
0.0208333333333333
147
0.0
147
0.0
147
0.0
147
0.0
147
0.0208333333333333
147
0.0
147
0.0
147
0.0
147
0.0
147
1.0
147
0.0
147
0.0
147
0.0
147
0.0
147
1.0
  0
MATERIAL
  5
AED1
102
{ACAD_REACTORS
330
2CF
102
}
102
{ACAD_XDICTIONARY
360
C12A
102
}
330
2CF
100
AcDbMaterial
  1
GLOBAL
 72
     0
 73
     2
 43
0.0208333333333333
 43
0.0
 43
0.0
 43
0.0
 43
0.0
 43
0.0208333333333333
 43
0.0
 43
0.0
 43
0.0
 43
0.0
 43
1.0
 43
0.0
 43
0.0
 43
0.0
 43
0.0
 43
1.0
 77
     0
 78
     2
 47
0.0208333333333333
 47
0.0
 47
0.0
 47
0.0
 47
0.0
 47
0.0208333333333333
 47
0.0
 47
0.0
 47
0.0
 47
0.0
 47
1.0
 47
0.0
 47
0.0
 47
0.0
 47
0.0
 47
1.0
171
     0
172
     2
 49
0.0208333333333333
 49
0.0
 49
0.0
 49
0.0
 49
0.0
 49
0.0208333333333333
 49
0.0
 49
0.0
 49
0.0
 49
0.0
 49
1.0
 49
0.0
 49
0.0
 49
0.0
 49
0.0
 49
1.0
175
     0
176
     2
142
0.0208333333333333
142
0.0
142
0.0
142
0.0
142
0.0
142
0.0208333333333333
142
0.0
142
0.0
142
0.0
142
0.0
142
1.0
142
0.0
142
0.0
142
0.0
142
0.0
142
1.0
179
     0
270
     2
144
0.0208333333333333
144
0.0
144
0.0
144
0.0
144
0.0
144
0.0208333333333333
144
0.0
144
0.0
144
0.0
144
0.0
144
1.0
144
0.0
144
0.0
144
0.0
144
0.0
144
1.0
274
     2
147
0.0208333333333333
147
0.0
147
0.0
147
0.0
147
0.0
147
0.0208333333333333
147
0.0
147
0.0
147
0.0
147
0.0
147
1.0
147
0.0
147
0.0
147
0.0
147
0.0
147
1.0
  0
ACAD_PROXY_OBJECT
  5
AF0D
102
{ACAD_REACTORS
330
AF0C
102
}
330
AF0C
100
AcDbZombieObject
 90
      499
 91
      512
 93
      610
310
40901902A4063FBFFFFFE000000000000002040AD7A3703D0AD73F4214DD185B99185C990000000000000104090141901A00000000000004100000000000000041025764000000000000300FC0
340
12
340
0
340
F
340
0
 94
        0
1001
ACAD_MLEADERVER
1070
     2
  0
MLINESTYLE
  5
1C
102
{ACAD_REACTORS
330
1B
102
}
330
1B
100
AcDbMlineStyle
  2
STANDARD
 70
     0
  3

 62
   256
 51
90.0
 52
90.0
 71
     2
 49
0.5
 62
   256
  6
BYLAYER
 49
-0.5
 62
   256
  6
BYLAYER
  0
ACAD_PROXY_OBJECT
  5
AEEB
102
{ACAD_REACTORS
330
AEEA
102
}
330
AEEA
100
AcDbZombieObject
 90
      499
 91
      511
 93
       41
310
903313A31580
  0
ACAD_PROXY_OBJECT
  5
AEEC
102
{ACAD_REACTORS
330
AEEA
102
}
330
AEEA
100
AcDbZombieObject
 90
      499
 91
      511
 93
      105
310
903313A324000000000000004000
  0
ACAD_PROXY_OBJECT
  5
AEED
102
{ACAD_REACTORS
330
AEEA
102
}
330
AEEA
100
AcDbZombieObject
 90
      499
 91
      511
 93
      105
310
903313A344000000000000104000
  0
ACAD_PROXY_OBJECT
  5
AEEE
102
{ACAD_REACTORS
330
AEEA
102
}
330
AEEA
100
AcDbZombieObject
 90
      499
 91
      511
 93
      105
310
903313A354000000000000144000
  0
ACAD_PROXY_OBJECT
  5
AEEF
102
{ACAD_REACTORS
330
AEEA
102
}
330
AEEA
100
AcDbZombieObject
 90
      499
 91
      511
 93
      105
310
903313A384000000000000204000
  0
ACAD_PROXY_OBJECT
  5
AEF0
102
{ACAD_REACTORS
330
AEEA
102
}
330
AEEA
100
AcDbZombieObject
 90
      499
 91
      511
 93
      113
310
904313A31304000000000000244000
  0
ACAD_PROXY_OBJECT
  5
AEF1
102
{ACAD_REACTORS
330
AEEA
102
}
330
AEEA
100
AcDbZombieObject
 90
      499
 91
      511
 93
      113
310
904313A31364000000000000304000
  0
ACAD_PROXY_OBJECT
  5
AEF2
102
{ACAD_REACTORS
330
AEEA
102
}
330
AEEA
100
AcDbZombieObject
 90
      499
 91
      511
 93
      113
310
904313A32304000000000000344000
  0
ACAD_PROXY_OBJECT
  5
AEF3
102
{ACAD_REACTORS
330
AEEA
102
}
330
AEEA
100
AcDbZombieObject
 90
      499
 91
      511
 93
      113
310
904313A333040000000000003E4000
  0
ACAD_PROXY_OBJECT
  5
AEF4
102
{ACAD_REACTORS
330
AEEA
102
}
330
AEEA
100
AcDbZombieObject
 90
      499
 91
      511
 93
      113
310
904313A34304000000000000444000
  0
ACAD_PROXY_OBJECT
  5
AEF5
102
{ACAD_REACTORS
330
AEEA
102
}
330
AEEA
100
AcDbZombieObject
 90
      499
 91
      511
 93
      113
310
904313A35304000000000000494000
  0
ACAD_PROXY_OBJECT
  5
AEF6
102
{ACAD_REACTORS
330
AEEA
102
}
330
AEEA
100
AcDbZombieObject
 90
      499
 91
      511
 93
      121
310
905313A3130304000000000000594000
  0
ACAD_PROXY_OBJECT
  5
AEF7
102
{ACAD_REACTORS
330
AEEA
102
}
330
AEEA
100
AcDbZombieObject
 90
      499
 91
      511
 93
      105
310
903323A310000000000000010100
  0
ACAD_PROXY_OBJECT
  5
AEF8
102
{ACAD_REACTORS
330
AEEA
102
}
330
AEEA
100
AcDbZombieObject
 90
      499
 91
      511
 93
      105
310
903343A310000000000000410100
  0
ACAD_PROXY_OBJECT
  5
AEF9
102
{ACAD_REACTORS
330
AEEA
102
}
330
AEEA
100
AcDbZombieObject
 90
      499
 91
      511
 93
      105
310
903383A310000000000000810100
  0
ACAD_PROXY_OBJECT
  5
AEFA
102
{ACAD_REACTORS
330
AEEA
102
}
330
AEEA
100
AcDbZombieObject
 90
      499
 91
      511
 93
      113
310
90431303A310000000000000910100
  0
ACAD_PROXY_OBJECT
  5
AEFB
102
{ACAD_REACTORS
330
AEEA
102
}
330
AEEA
100
AcDbZombieObject
 90
      499
 91
      511
 93
      121
310
9053130303A310000000000001650100
  0
ACAD_PROXY_OBJECT
  5
AEFC
102
{ACAD_REACTORS
330
AEEA
102
}
330
AEEA
100
AcDbZombieObject
 90
      499
 91
      511
 93
      257
310
90E312F31323822203D2031272D3022000000000000200FC000000000000284000
  0
ACAD_PROXY_OBJECT
  5
AEFD
102
{ACAD_REACTORS
330
AEEA
102
}
330
AEEA
100
AcDbZombieObject
 90
      499
 91
      511
 93
      249
310
90D312F363422203D2031272D3022000000000000240FC000000000000284000
  0
ACAD_PROXY_OBJECT
  5
AEFE
102
{ACAD_REACTORS
330
AEEA
102
}
330
AEEA
100
AcDbZombieObject
 90
      499
 91
      511
 93
      249
310
90D312F333222203D2031272D3022000000000000280FC000000000000284000
  0
ACAD_PROXY_OBJECT
  5
AEFF
102
{ACAD_REACTORS
330
AEEA
102
}
330
AEEA
100
AcDbZombieObject
 90
      499
 91
      511
 93
      249
310
90D312F313622203D2031272D30220000000000002C0FC000000000000284000
  0
ACAD_PROXY_OBJECT
  5
AF00
102
{ACAD_REACTORS
330
AEEA
102
}
330
AEEA
100
AcDbZombieObject
 90
      499
 91
      511
 93
      249
310
90D332F333222203D2031272D30220000000000002E0FC000000000000284000
  0
ACAD_PROXY_OBJECT
  5
AF01
102
{ACAD_REACTORS
330
AEEA
102
}
330
AEEA
100
AcDbZombieObject
 90
      499
 91
      511
 93
      241
310
90C312F3822203D2031272D3022000000000000300FC000000000000284000
  0
ACAD_PROXY_OBJECT
  5
AF02
102
{ACAD_REACTORS
330
AEEA
102
}
330
AEEA
100
AcDbZombieObject
 90
      499
 91
      511
 93
      249
310
90D332F313622203D2031272D3022000000000000320FC000000000000284000
  0
ACAD_PROXY_OBJECT
  5
AF03
102
{ACAD_REACTORS
330
AEEA
102
}
330
AEEA
100
AcDbZombieObject
 90
      499
 91
      511
 93
      241
310
90C312F3422203D2031272D3022000000000000340FC000000000000284000
  0
ACAD_PROXY_OBJECT
  5
AF04
102
{ACAD_REACTORS
330
AEEA
102
}
330
AEEA
100
AcDbZombieObject
 90
      499
 91
      511
 93
      241
310
90C332F3822203D2031272D3022000000000000360FC000000000000284000
  0
ACAD_PROXY_OBJECT
  5
AF05
102
{ACAD_REACTORS
330
AEEA
102
}
330
AEEA
100
AcDbZombieObject
 90
      499
 91
      511
 93
      241
310
90C312F3222203D2031272D3022000000000000380FC000000000000284000
  0
ACAD_PROXY_OBJECT
  5
AF06
102
{ACAD_REACTORS
330
AEEA
102
}
330
AEEA
100
AcDbZombieObject
 90
      499
 91
      511
 93
      241
310
90C332F3422203D2031272D30220000000000003A0FC000000000000284000
  0
ACAD_PROXY_OBJECT
  5
AF07
102
{ACAD_REACTORS
330
AEEA
102
}
330
AEEA
100
AcDbZombieObject
 90
      499
 91
      511
 93
      161
310
90A3122203D2031272D30224000000000000284000
  0
ACAD_PROXY_OBJECT
  5
AF08
102
{ACAD_REACTORS
330
AEEA
102
}
330
AEEA
100
AcDbZombieObject
 90
      499
 91
      511
 93
      257
310
90E312D312F3222203D2031272D30220000000000003E0FC000000000000284000
  0
ACAD_PROXY_OBJECT
  5
AF09
102
{ACAD_REACTORS
330
AEEA
102
}
330
AEEA
100
AcDbZombieObject
 90
      499
 91
      511
 93
      225
310
90A3322203D2031272D302200000000000002100000000000000284000
  0
ACAD_PROXY_OBJECT
  5
AF0A
102
{ACAD_REACTORS
330
AEEA
102
}
330
AEEA
100
AcDbZombieObject
 90
      499
 91
      511
 93
      225
310
90A3622203D2031272D302200000000000006100000000000000284000
  0
ACAD_PROXY_OBJECT
  5
AF0B
102
{ACAD_REACTORS
330
AEEA
102
}
330
AEEA
100
AcDbZombieObject
 90
      499
 91
      511
 93
      249
310
90D31272D3022203D2031272D30220000000000000A100000000000000284000
  0
ACAD_PROXY_OBJECT
  5
AEDF
102
{ACAD_REACTORS
330
AED9
102
}
330
AED9
100
AcDbZombieObject
 90
      499
 91
      510
 93
      436
310
42CC9915DA5C99599C985B595049028333333333333E3BF0000000000000FB0107901411070040501600405405064090741402480A0340
1001
ACAD
1000
AcDbSavedByObjectVersion
1070
     0
  0
ACAD_PROXY_OBJECT
  5
AEE1
102
{ACAD_REACTORS
330
AED9
102
}
330
AED9
100
AcDbZombieObject
 90
      499
 91
      510
 93
      500
310
424CD108121A5919195B90640502408333333333333E3BF0000000000000FB01079024090700405020000000000001110200405405064090740C02480A0340
1001
ACAD
1000
AcDbSavedByObjectVersion
1070
     0
  0
ACAD_PROXY_OBJECT
  5
AEE0
102
{ACAD_REACTORS
330
AED9
102
}
330
AED9
100
AcDbZombieObject
 90
      499
 91
      510
 93
      436
310
42CCD915DA5C99599C985B595059028333333333333E3BF0000000000000FB0107901411070040501600405405064090741402480A0340
1001
ACAD
1000
AcDbSavedByObjectVersion
1070
     0
  0
ACAD_PROXY_OBJECT
  5
AEDE
102
{ACAD_REACTORS
330
AED9
102
}
330
AED9
100
AcDbZombieObject
 90
      499
 91
      510
 93
      388
310
4150985CDA58D07406404333333333333E3BF0000000000000FB0107A41107004050150841D405064090741402480A0350
1001
ACAD
1000
AcDbSavedByObjectVersion
1070
     0
  0
ACAD_PROXY_OBJECT
  5
AEE5
102
{ACAD_REACTORS
330
AED9
102
}
330
AED9
100
AcDbZombieObject
 90
      499
 91
      510
 93
      428
310
42109C9A59DA1D195B90C409028333333333333E3BF0000000000000FB010790141107004050150841D405064090741402480A029950
1001
ACAD
1000
AcDbSavedByObjectVersion
1070
     0
  0
ACAD_PROXY_OBJECT
  5
AEE9
102
{ACAD_REACTORS
330
AED9
102
}
330
AED9
100
AcDbZombieObject
 90
      499
 91
      510
 93
      452
310
42D0DBDB1BDC90DA185B99D95104090240C333333333333E3BF0000000000000FB0108901411070040501508421405064090741402480A0350
1001
ACAD
1000
AcDbSavedByObjectVersion
1070
     0
  0
ACAD_PROXY_OBJECT
  5
AEE2
102
{ACAD_REACTORS
330
AED9
102
}
330
AED9
100
AcDbZombieObject
 90
      499
 91
      510
 93
      500
310
4290DBDB98D95C1D1D585B10940D028333333333333E3BF0000000000000FB0107902409070040501000000000000111010841D405064090740C02480A0340
1001
ACAD
1000
AcDbSavedByObjectVersion
1070
     0
  0
ACAD_PROXY_OBJECT
  5
AEE4
102
{ACAD_REACTORS
330
AED9
102
}
330
AED9
100
AcDbZombieObject
 90
      499
 91
      510
 93
      412
310
40D11A5B50B409028333333333333E3BF0000000000000FB010790141107004050150841D405064090741402480A02677FFFFFD0
1001
ACAD
1000
AcDbSavedByObjectVersion
1070
     0
  0
ACAD_PROXY_OBJECT
  5
B4F0
102
{ACAD_REACTORS
330
AED9
102
}
330
AED9
100
AcDbZombieObject
 90
      499
 91
      510
 93
      452
310
43115919D950DBDB1BDC93D999916409028333333333333E3BF0000000000000FB010790141107004050150841D405064090741402480A0350
1001
ACAD
1000
AcDbSavedByObjectVersion
1070
     0
  0
ACAD_PROXY_OBJECT
  5
AEE8
102
{ACAD_REACTORS
330
AED9
102
}
330
AED9
100
AcDbZombieObject
 90
      499
 91
      510
 93
      444
310
42D19858D95C185D1D195C9B90F409028333333333333E3BF0000000000000FB010790141107004050150841D405064090741402480A0350
1001
ACAD
1000
AcDbSavedByObjectVersion
1070
     0
  0
ACAD_PROXY_OBJECT
  5
AEDA
102
{ACAD_REACTORS
330
AED9
102
}
330
AED9
100
AcDbZombieObject
 90
      499
 91
      510
 93
      388
310
41119B185D240901404333333333333E3BF0000000000000F9010740A41107004050150841D405064090741402480A1B50
1001
ACAD
1000
AcDbSavedByObjectVersion
1070
     0
  0
ACAD_PROXY_OBJECT
  5
AEDB
102
{ACAD_REACTORS
330
AED9
102
}
330
AED9
100
AcDbZombieObject
 90
      499
 91
      510
 93
      476
310
43519B185D15DA5D1A115919D95CD0140901404333333333333E3BF0000000000000F9010740901411070040501600405405064090741402480A1B50
1001
ACAD
1000
AcDbSavedByObjectVersion
1070
     0
  0
ACAD_PROXY_OBJECT
  5
AEDC
102
{ACAD_REACTORS
330
AED9
102
}
330
AED9
100
AcDbZombieObject
 90
      499
 91
      510
 93
      412
310
41D1DBDD5C985D5910240902404333333333333E3BF0000000000000F9010740A411070040501641D405064090741402480A1B50
1001
ACAD
1000
AcDbSavedByObjectVersion
1070
     0
  0
ACAD_PROXY_OBJECT
  5
AEDD
102
{ACAD_REACTORS
330
AED9
102
}
330
AED9
100
AcDbZombieObject
 90
      499
 91
      510
 93
      500
310
4411DBDD5C985D5915DA5D1A115919D95CD0340902404333333333333E3BF0000000000000F9010740901411070040501600405405064090741402480A1B50
1001
ACAD
1000
AcDbSavedByObjectVersion
1070
     0
  0
ACAD_PROXY_OBJECT
  5
B4E8
102
{ACAD_REACTORS
330
AED9
102
}
330
AED9
100
AcDbZombieObject
 90
      499
 91
      510
 93
      476
310
41921A5919195B90640502408333333333333E3BF0000000000000FB01079024090700405020000000000001110200405405064090740C02480A0340
1001
ACAD
1000
AcDbSavedByObjectVersion
1070
     0
  0
ACAD_PROXY_OBJECT
  5
B4EE
102
{ACAD_REACTORS
330
AED9
102
}
330
AED9
100
AcDbZombieObject
 90
      499
 91
      510
 93
      428
310
42529A5D1D195C93D999914409028333333333333E3BF0000000000000FB010790141107004050150A41D405064090741402480A0350
1001
ACAD
1000
AcDbSavedByObjectVersion
1070
     0
  0
ACAD_PROXY_OBJECT
  5
AEE7
102
{ACAD_REACTORS
330
AED9
102
}
330
AED9
100
AcDbZombieObject
 90
      499
 91
      510
 93
      444
310
42D31A5B995C185D1D195C9B90E409028333333333333E3BF0000000000000FB010790141107004050750841D405064090741402483A0350
1001
ACAD
1000
AcDbSavedByObjectVersion
1070
     0
  0
ACAD_PROXY_OBJECT
  5
BE08
102
{ACAD_REACTORS
330
AED9
102
}
330
AED9
100
AcDbZombieObject
 90
      499
 91
      510
 93
      484
310
42135BD9195B1A5B99D0A409038333333333333E33F0000000000000F901074090290700405010000000000201990108421405064090741402480A1B40
1001
ACAD
1000
AcDbSavedByObjectVersion
1070
     0
  0
ACAD_PROXY_OBJECT
  5
B4EF
102
{ACAD_REACTORS
330
AED9
102
}
330
AED9
100
AcDbZombieObject
 90
      499
 91
      510
 93
      444
310
42D3DD995C9A185B99D3D999915409028333333333333E3BF0000000000000FB010790141107004050150941D405064090741402480A0350
1001
ACAD
1000
AcDbSavedByObjectVersion
1070
     0
  0
ACAD_PROXY_OBJECT
  5
AEE3
102
{ACAD_REACTORS
330
AED9
102
}
330
AED9
100
AcDbZombieObject
 90
      499
 91
      510
 93
      420
310
425499585B1A5CDD1A58D08409028333333333333E3BF0000000000000FB01079019070040501508421405064090741402480A1B40
1001
ACAD
1000
AcDbSavedByObjectVersion
1070
     0
  0
ACAD_PROXY_OBJECT
  5
B4ED
102
{ACAD_REACTORS
330
AED9
102
}
330
AED9
100
AcDbZombieObject
 90
      499
 91
      510
 93
      420
310
4194DA1859195911B40902404333333333333E3BF0000000000000F9010740A41107004050150800405405064090840C02480A0B40
1001
ACAD
1000
AcDbSavedByObjectVersion
1070
     0
  0
ACAD_PROXY_OBJECT
  5
B4EC
102
{ACAD_REACTORS
330
AED9
102
}
330
AED9
100
AcDbZombieObject
 90
      499
 91
      510
 93
      516
310
4454DA18591959081DDA5D1A08195919D95CD1A40902404333333333333E3BF0000000000000F901074090142907004050250800405405064090740C02480A0B40
1001
ACAD
1000
AcDbSavedByObjectVersion
1070
     0
  0
ACAD_PROXY_OBJECT
  5
B4E9
102
{ACAD_REACTORS
330
AED9
102
}
330
AED9
100
AcDbZombieObject
 90
      499
 91
      510
 93
      532
310
4394DA1859195CC81BD98811DC985E5174090240C333333333333E3BF0000000000000FB01079024090741D01000000000000111010841D405064090740C02480A0340
1001
ACAD
1000
AcDbSavedByObjectVersion
1070
     0
  0
ACAD_PROXY_OBJECT
  5
B4EA
102
{ACAD_REACTORS
330
AED9
102
}
330
AED9
100
AcDbZombieObject
 90
      499
 91
      510
 93
      476
310
41D4DAD95D18DA1E51840502408333333333333E3BF0000000000000FB01079024090741D01000000000000111010B41D405064090741802480A0340
1001
ACAD
1000
AcDbSavedByObjectVersion
1070
     0
  0
ACAD_PROXY_OBJECT
  5
AEE6
102
{ACAD_REACTORS
330
AED9
102
}
330
AED9
100
AcDbZombieObject
 90
      499
 91
      510
 93
      412
310
41D51A1A58DAD95B90D409028333333333333E3BF0000000000000FB010790141107004050150C41D405064090741402480A0350
1001
ACAD
1000
AcDbSavedByObjectVersion
1070
     0
  0
ACAD_PROXY_OBJECT
  5
B4E7
102
{ACAD_REACTORS
330
AED9
102
}
330
AED9
100
AcDbZombieObject
 90
      499
 91
      510
 93
      420
310
4255DA5C99599C985B595059028333333333333E3BF0000000000000FB0107901411070040501600405405064090740C02480A0340
1001
ACAD
1000
AcDbSavedByObjectVersion
1070
     0
  0
ACAD_PROXY_OBJECT
  5
B4EB
102
{ACAD_REACTORS
330
AED9
102
}
330
AED9
100
AcDbZombieObject
 90
      499
 91
      510
 93
      404
310
41560B54985E51940902404000000000000E03F0000000000000FB010740501907004050150841D405064090740C02480A1B40
1001
ACAD
1000
AcDbSavedByObjectVersion
1070
     0
  0
XRECORD
  5
BF89
102
{ACAD_REACTORS
330
BF88
102
}
330
BF88
100
AcDbXrecord
340
2D0
  0
XRECORD
  5
BF8A
102
{ACAD_REACTORS
330
BF88
102
}
330
BF88
100
AcDbXrecord
340
2CF
  0
DICTIONARYVAR
  5
B350
102
{ACAD_REACTORS
330
37
102
}
330
37
100
DictionaryVariables
280
     0
  1
1:1
  0
DICTIONARYVAR
  5
B34F
102
{ACAD_REACTORS
330
37
102
}
330
37
100
DictionaryVariables
280
     0
  1
Standard
  0
DICTIONARYVAR
  5
4F1
102
{ACAD_REACTORS
330
37
102
}
330
37
100
DictionaryVariables
280
     0
  1
Standard
  0
DICTIONARYVAR
  5
38
102
{ACAD_REACTORS
330
37
102
}
330
37
100
DictionaryVariables
280
     0
  1
-1
  0
DICTIONARYVAR
  5
408
102
{ACAD_REACTORS
330
37
102
}
330
37
100
DictionaryVariables
280
     0
  1
2
  0
DICTIONARYVAR
  5
1891
102
{ACAD_REACTORS
330
37
102
}
330
37
100
DictionaryVariables
280
     0
  1
1
  0
DICTIONARYVAR
  5
B352
102
{ACAD_REACTORS
330
37
102
}
330
37
100
DictionaryVariables
280
     0
  1
0
  0
DICTIONARYVAR
  5
1895
102
{ACAD_REACTORS
330
37
102
}
330
37
100
DictionaryVariables
280
     0
  1
8
  0
DICTIONARYVAR
  5
1894
102
{ACAD_REACTORS
330
37
102
}
330
37
100
DictionaryVariables
280
     0
  1
1
  0
DICTIONARYVAR
  5
BE87
102
{ACAD_REACTORS
330
37
102
}
330
37
100
DictionaryVariables
280
     0
  1
0
  0
DICTIONARYVAR
  5
1892
102
{ACAD_REACTORS
330
37
102
}
330
37
100
DictionaryVariables
280
     0
  1
8
  0
DICTIONARYVAR
  5
1893
102
{ACAD_REACTORS
330
37
102
}
330
37
100
DictionaryVariables
280
     0
  1
2
  0
DICTIONARYVAR
  5
409
102
{ACAD_REACTORS
330
37
102
}
330
37
100
DictionaryVariables
280
     0
  1

  0
DICTIONARYVAR
  5
B351
102
{ACAD_REACTORS
330
37
102
}
330
37
100
DictionaryVariables
280
     0
  1
127
  0
DICTIONARYVAR
  5
BE07
102
{ACAD_REACTORS
330
37
102
}
330
37
100
DictionaryVariables
280
     0
  1
2
  0
DICTIONARY
  5
C126
330
AEC9
100
AcDbDictionary
  3
ACAD_XREC_ROUNDTRIP
360
C127
1001
ACAD
1000
TREAT_AS_HARD
1070
     1
  0
DICTIONARY
  5
C128
330
AEC1
100
AcDbDictionary
  3
ACAD_XREC_ROUNDTRIP
360
C129
1001
ACAD
1000
TREAT_AS_HARD
1070
     1
  0
DICTIONARY
  5
C12A
330
AED1
100
AcDbDictionary
  3
ACAD_XREC_ROUNDTRIP
360
C12B
1001
ACAD
1000
TREAT_AS_HARD
1070
     1
  0
XRECORD
  5
C127
102
{ACAD_REACTORS
330
C126
102
}
330
C126
100
AcDbXrecord
102
MATERIAL
148
0.0
149
0.0
149
0.0
 93
        0
 94
      127
282
     0
 72
     0
 77
     0
171
     0
175
     0
179
     0
273
     0
  0
XRECORD
  5
C129
102
{ACAD_REACTORS
330
C128
102
}
330
C128
100
AcDbXrecord
102
MATERIAL
148
0.0
149
0.0
149
0.0
 93
        0
 94
      127
282
     0
 72
     0
 77
     0
171
     0
175
     0
179
     0
273
     0
  0
XRECORD
  5
C12B
102
{ACAD_REACTORS
330
C12A
102
}
330
C12A
100
AcDbXrecord
102
MATERIAL
148
0.0
149
0.0
149
0.0
 93
        0
 94
      127
282
     0
 72
     0
 77
     0
171
     0
175
     0
179
     0
273
     0
  0
ENDSEC
  0
EOF
