  0
SECTION
  2
HEADER
  9
$ACADVER
  1
AC1009
  9
$INSBASE
 10
0.0
 20
0.0
 30
0.0
  9
$EXTMIN
 10
-369.67094868015641
 20
-2268.4323457690339
 30
0.0
  9
$EXTMAX
 10
-45.469573685778776
 20
-2049.293598424114
 30
0.0
  9
$LIMMIN
 10
0.0
 20
0.0
  9
$LIMMAX
 10
420.0
 20
297.0
  9
$ORTHOMODE
 70
     0
  9
$REGENMODE
 70
     1
  9
$FILLMODE
 70
     1
  9
$QTEXTMODE
 70
     0
  9
$MIRRTEXT
 70
     0
  9
$DRAGMODE
 70
     2
  9
$LTSCALE
 40
0.5
  9
$OSMODE
 70
    63
  9
$ATTMODE
 70
     1
  9
$TEXTSIZE
 40
4.0
  9
$TRACEWID
 40
1.0
  9
$TEXTSTYLE
  7
STANDARD
  9
$CLAYER
  8
1TEXT
  9
$CELTYPE
  6
BYLAYER
  9
$CECOLOR
 62
   256
  9
$DIMSCALE
 40
1.0
  9
$DIMASZ
 40
2.0
  9
$DIMEXO
 40
0.0
  9
$DIMDLI
 40
7.0
  9
$DIMRND
 40
0.0
  9
$DIMDLE
 40
0.0
  9
$DIMEXE
 40
1.0
  9
$DIMTP
 40
0.0
  9
$DIMTM
 40
0.0
  9
$DIMTXT
 40
3.5
  9
$DIMCEN
 40
0.0
  9
$DIMTSZ
 40
0.0
  9
$DIMTOL
 70
     0
  9
$DIMLIM
 70
     0
  9
$DIMTIH
 70
     0
  9
$DIMTOH
 70
     0
  9
$DIMSE1
 70
     0
  9
$DIMSE2
 70
     0
  9
$DIMTAD
 70
     1
  9
$DIMZIN
 70
     8
  9
$DIMBLK
  1

  9
$DIMASO
 70
     1
  9
$DIMSHO
 70
     1
  9
$DIMPOST
  1
 
  9
$DIMAPOST
  1

  9
$DIMALT
 70
     0
  9
$DIMALTD
 70
     2
  9
$DIMALTF
 40
25.399999999999999
  9
$DIMLFAC
 40
1.0
  9
$DIMTOFL
 70
     1
  9
$DIMTVP
 40
0.0
  9
$DIMTIX
 70
     0
  9
$DIMSOXD
 70
     0
  9
$DIMSAH
 70
     1
  9
$DIMBLK1
  1
OPEN30
  9
$DIMBLK2
  1
OPEN30
  9
$DIMSTYLE
  2
NEWX10
  9
$DIMCLRD
 70
   256
  9
$DIMCLRE
 70
   256
  9
$DIMCLRT
 70
   201
  9
$DIMTFAC
 40
0.7
  9
$DIMGAP
 40
0.7
  9
$LUNITS
 70
     2
  9
$LUPREC
 70
     4
  9
$SKETCHINC
 40
1.0
  9
$FILLETRAD
 40
0.0
  9
$AUNITS
 70
     0
  9
$AUPREC
 70
     2
  9
$MENU
  1
acad
  9
$ELEVATION
 40
0.0
  9
$PELEVATION
 40
0.0
  9
$THICKNESS
 40
0.0
  9
$LIMCHECK
 70
     0
  9
$BLIPMODE
 70
     0
  9
$CHAMFERA
 40
10.0
  9
$CHAMFERB
 40
10.0
  9
$SKPOLY
 70
     0
  9
$TDCREATE
 40
2453033.7326634838
  9
$TDUPDATE
 40
2457014.6598137268
  9
$TDINDWG
 40
0.8137512731
  9
$TDUSRTIMER
 40
0.8137512731
  9
$USRTIMER
 70
     1
  9
$ANGBASE
 50
0.0
  9
$ANGDIR
 70
     0
  9
$PDMODE
 70
     0
  9
$PDSIZE
 40
0.0
  9
$PLINEWID
 40
0.0
  9
$COORDS
 70
     0
  9
$SPLFRAME
 70
     0
  9
$SPLINETYPE
 70
     6
  9
$SPLINESEGS
 70
     8
  9
$ATTDIA
 70
     0
  9
$ATTREQ
 70
     1
  9
$HANDLING
 70
     1
  9
$HANDSEED
  5
A7FE
  9
$SURFTAB1
 70
     6
  9
$SURFTAB2
 70
     6
  9
$SURFTYPE
 70
     6
  9
$SURFU
 70
     6
  9
$SURFV
 70
     6
  9
$UCSNAME
  2

  9
$UCSORG
 10
0.0
 20
0.0
 30
0.0
  9
$UCSXDIR
 10
1.0
 20
0.0
 30
0.0
  9
$UCSYDIR
 10
0.0
 20
1.0
 30
0.0
  9
$PUCSNAME
  2

  9
$PUCSORG
 10
0.0
 20
0.0
 30
0.0
  9
$PUCSXDIR
 10
1.0
 20
0.0
 30
0.0
  9
$PUCSYDIR
 10
0.0
 20
1.0
 30
0.0
  9
$USERI1
 70
     0
  9
$USERI2
 70
     0
  9
$USERI3
 70
     0
  9
$USERI4
 70
     0
  9
$USERI5
 70
     0
  9
$USERR1
 40
0.0
  9
$USERR2
 40
0.0
  9
$USERR3
 40
0.0
  9
$USERR4
 40
0.0
  9
$USERR5
 40
0.0
  9
$WORLDVIEW
 70
     1
  9
$SHADEDGE
 70
     3
  9
$SHADEDIF
 70
    70
  9
$TILEMODE
 70
     1
  9
$MAXACTVP
 70
    48
  9
$PLIMCHECK
 70
     0
  9
$PEXTMIN
 10
1.0000000000000000E+020
 20
1.0000000000000000E+020
 30
1.0000000000000000E+020
  9
$PEXTMAX
 10
-1.0000000000000000E+020
 20
-1.0000000000000000E+020
 30
-1.0000000000000000E+020
  9
$PLIMMIN
 10
0.0
 20
0.0
  9
$PLIMMAX
 10
420.0
 20
297.0
  9
$UNITMODE
 70
     0
  9
$VISRETAIN
 70
     1
  9
$PLINEGEN
 70
     0
  9
$PSLTSCALE
 70
     1
  0
ENDSEC
  0
SECTION
  2
TABLES
  0
TABLE
  2
VPORT
 70
     1
  0
VPORT
  2
*ACTIVE
 70
     0
 10
0.0
 20
0.0
 11
1.0
 21
1.0
 12
-207.5700670985502
 22
-2158.8056736150979
 13
0.0
 23
0.0
 14
10.0
 24
10.0
 15
10.0
 25
10.0
 16
0.0
 26
0.0
 36
1.0
 17
0.0
 27
0.0
 37
0.0
 40
232.67496252756919
 41
2.1749379652605461
 42
50.0
 43
0.0
 44
0.0
 50
0.0
 51
0.0
 71
     0
 72
   100
 73
     1
 74
     1
 75
     0
 76
     0
 77
     0
 78
     0
  0
ENDTAB
  0
TABLE
  2
LTYPE
 70
    12
  0
LTYPE
  2
CONTINUOUS
 70
     0
  3
Solid line
 72
    65
 73
     0
 40
0.0
  0
LTYPE
  2
XREF1|CENTER2
 70
    48
  3
Center (.5x) ___ _ ___ _ ___ _ ___ _ ___ _ ___
 72
    65
 73
     4
 40
28.574999999999999
 49
19.050000000000001
 49
-3.1749999999999989
 49
3.1749999999999989
 49
-3.1749999999999989
  0
LTYPE
  2
A3WAKUDAKE|CENTER2
 70
    48
  3
Center (.5x) ___ _ ___ _ ___ _ ___ _ ___ _ ___
 72
    65
 73
     4
 40
28.574999999999999
 49
19.050000000000001
 49
-3.1749999999999989
 49
3.1749999999999989
 49
-3.1749999999999989
  0
ENDTAB
  0
TABLE
  2
LAYER
 70
    37
  0
LAYER
  2
0
 70
     0
 62
     7
  6
CONTINUOUS
  0
LAYER
  2
1TEXT
 70
     0
 62
     7
  6
CONTINUOUS
  0
LAYER
  2
01
 70
     0
 62
     1
  6
CONTINUOUS
  0
LAYER
  2
A3WAKUDAKE|THICK
 70
    48
 62
     7
  6
CONTINUOUS
  0
LAYER
  2
A3WAKUDAKE|POINT
 70
    48
 62
     7
  6
CONTINUOUS
  0
LAYER
  2
A3WAKUDAKE|1CENTER
 70
    48
 62
     7
  6
A3WAKUDAKE|CENTER2
  0
LAYER
  2
A3WAKUDAKE|0-6
 70
    48
 62
     7
  6
CONTINUOUS
  0
LAYER
  2
A3WAKUDAKE|1DIM
 70
    48
 62
     7
  6
CONTINUOUS
  0
LAYER
  2
XREF1|1CENTER
 70
    48
 62
     7
  6
XREF1|CENTER2
  0
ENDTAB
  0
TABLE
  2
STYLE
 70
     5
  0
STYLE
  2
STANDARD
 70
     0
 40
0.0
 41
1.0
 50
0.0
 71
     0
 42
4.0
  3
romans.shx
  4
extfont.shx
  0
ENDTAB
  0
TABLE
  2
VIEW
 70
     5
  0
ENDTAB
  0
TABLE
  2
UCS
 70
     0
  0
ENDTAB
  0
TABLE
  2
APPID
 70
    13
  0
APPID
  2
ACAD
 70
     0
  0
APPID
  2
DRAWINGVARIABLESXDATA
 70
     0
  0
APPID
  2
CONTENTTABDATA
 70
     0
  0
APPID
  2
CONTENTCURRENTTAB
 70
     0
  0
APPID
  2
CONTENTBLOCKDESCRIPTION
 70
     0
  0
APPID
  2
CONTENTBLOCKICON
 70
     0
  0
APPID
  2
CONTENTLONGBLOCKNAME
 70
     0
  0
APPID
  2
ACAD_PSEXT
 70
     0
  0
APPID
  2
ACAD_DSTYLE_DIMTEXT_FILL
 70
     0
  0
APPID
  2
ACAD_MLEADERVER
 70
     0
  0
APPID
  2
ACAD_DSTYLE_DIMRADIAL_EXTENSION
 70
     0
  0
APPID
  2
ACAD_NAV_VCDISPLAY
 70
     0
  0
APPID
  2
ACLAYERTOOLS
 70
     0
  0
ENDTAB
  0
TABLE
  2
DIMSTYLE
 70
     5
  0
DIMSTYLE
  2
NEWX10
 70
     0
  3
 
  4

  5

  6
OPEN30
  7
OPEN30
 40
1.0
 41
2.0
 42
0.0
 43
7.0
 44
1.0
 45
0.0
 46
0.0
 47
0.0
 48
0.0
140
3.5
141
0.0
142
0.0
143
25.399999999999999
144
1.0
145
0.0
146
0.7
147
0.7
 71
     0
 72
     0
 73
     0
 74
     0
 75
     0
 76
     0
 77
     1
 78
     8
170
     0
171
     2
172
     1
173
     1
174
     0
175
     0
176
   256
177
   256
178
   201
  0
ENDTAB
  0
ENDSEC
  0
SECTION
  2
BLOCKS
  0
BLOCK
  8
0
  2
$MODEL_SPACE
 70
     0
 10
0.0
 20
0.0
 30
0.0
  3
$MODEL_SPACE
  1

  0
ENDBLK
  5
1A
  8
0
  0
BLOCK
 67
     1
  8
0
  2
$PAPER_SPACE
 70
     0
 10
0.0
 20
0.0
 30
0.0
  3
$PAPER_SPACE
  1

  0
ENDBLK
  5
17
 67
     1
  8
0
  0
BLOCK
  8
0
  2
_OPEN30
 70
     0
 10
0.0
 20
0.0
 30
0.0
  3
_OPEN30
  1

  0
LINE
  5
44
  8
0
  6
BYBLOCK
 62
     0
 10
-1.0
 20
0.26794919
 30
0.0
 11
0.0
 21
0.0
 31
0.0
  0
LINE
  5
45
  8
0
  6
BYBLOCK
 62
     0
 10
0.0
 20
0.0
 30
0.0
 11
-1.0
 21
-0.26794919
 31
0.0
  0
LINE
  5
46
  8
0
  6
BYBLOCK
 62
     0
 10
0.0
 20
0.0
 30
0.0
 11
-1.0
 21
0.0
 31
0.0
  0
ENDBLK
  5
47
  8
0
  0
BLOCK
  8
0
  2
XREF1
 70
    36
 10
0.0
 20
0.0
 30
0.0
  3
XREF1
  1
D:\ACLT\FORMAT\KAWAJUN(9)図面用.dwg
  0
ENDBLK
  5
5D
  8
0
  0
BLOCK
  8
0
  2
A3WAKUDAKE
 70
    36
 10
0.0
 20
0.0
 30
0.0
  3
A3WAKUDAKE
  1
D:\ACLT\FORMAT\A3WAKUdake.dwg
  0
ENDBLK
  5
6DC
  8
0
  0
ENDSEC
  0
SECTION
  2
ENTITIES
  0
TEXT
  5
7681
  8
01
 10
-369.67094868015641
 20
-2057.293598424113
 30
0.0
 40
8.0
  1
AC-803-X
  0
TEXT
  5
7685
  8
01
 10
-368.53761534682292
 20
-2088.814227646385
 30
0.0
 40
4.0
  1
サテンニッケル
 72
     1
 11
-352.27094868015632
 21
-2088.814227646385
 31
0.0
  0
TEXT
  5
7686
  8
01
 10
-361.33761534682287
 20
-2075.0033140348141
 30
0.0
 40
4.0
  1
表面処理
 72
     1
 11
-352.27094868015632
 21
-2075.0033140348141
 31
0.0
  0
TEXT
  5
7687
  8
01
 10
-361.60428201348958
 20
-2081.838602694339
 30
0.0
 40
4.0
  1
クローム
 72
     1
 11
-352.27094868015632
 21
-2081.838602694339
 31
0.0
  0
LINE
  5
7689
  8
01
 10
-369.67094868015641
 20
-2069.5033140348141
 30
0.0
 11
-299.6709486801563
 21
-2069.5033140348141
 31
0.0
  0
LINE
  5
768A
  8
01
 10
-369.67094868015641
 20
-2083.5033140348141
 30
0.0
 11
-299.6709486801563
 21
-2083.5033140348141
 31
0.0
  0
LINE
  5
768B
  8
01
 10
-369.67094868015641
 20
-2076.5033140348141
 30
0.0
 11
-299.6709486801563
 21
-2076.5033140348141
 31
0.0
  0
LINE
  5
768C
  8
01
 10
-369.67094868015641
 20
-2090.5033140348141
 30
0.0
 11
-299.6709486801563
 21
-2090.5033140348141
 31
0.0
  0
LINE
  5
768D
  8
01
 10
-369.67094868015641
 20
-2090.5033140348141
 30
0.0
 11
-299.6709486801563
 21
-2090.5033140348141
 31
0.0
  0
LINE
  5
768E
  8
01
 10
-334.67094868015641
 20
-2069.5033140348141
 30
0.0
 11
-334.67094868015641
 21
-2090.5033140348141
 31
0.0
  0
TEXT
  5
768F
  8
01
 10
-331.74713915634629
 20
-2082.2176710184631
 30
0.0
 40
4.0
  1
AC-803-XC
 41
0.8
 72
     1
 11
-317.27094868015581
 21
-2082.2176710184631
 31
0.0
  0
TEXT
  5
7690
  8
01
 10
-331.74713915634629
 20
-2089.217671018464
 30
0.0
 40
4.0
  1
AC-803-XN
 41
0.8
 72
     1
 11
-317.27094868015581
 21
-2089.217671018464
 31
0.0
  0
TEXT
  5
7692
  8
01
 10
-324.07094868015628
 20
-2075.0033140348141
 30
0.0
 40
4.0
  1
コード
 72
     1
 11
-317.27094868015632
 21
-2075.0033140348141
 31
0.0
  0
LINE
  5
7696
  8
01
 10
-369.67094868015641
 20
-2090.5033140348141
 30
0.0
 11
-369.67094868015641
 21
-2069.5033140348141
 31
0.0
  0
LINE
  5
7697
  8
01
 10
-299.6709486801563
 20
-2090.5033140348141
 30
0.0
 11
-299.6709486801563
 21
-2069.5033140348141
 31
0.0
  0
LINE
  5
8BFE
  8
01
 10
-253.011412122894
 20
-2138.2613957530898
 30
0.0
 11
-266.01141212289389
 21
-2138.2613957530898
 31
0.0
  0
LINE
  5
8BFF
  8
01
 10
-266.011412122894
 20
-2196.7613957530912
 30
0.0
 11
-253.0114121228938
 21
-2196.7613957530912
 31
0.0
  0
LINE
  5
8C00
  8
01
 10
-266.51141212289389
 20
-2138.7613957530898
 30
0.0
 11
-266.511412122894
 21
-2187.2613957530912
 31
0.0
  0
LINE
  5
8C01
  8
01
 10
-266.511412122894
 20
-2187.2613957530912
 30
0.0
 11
-266.511412122894
 21
-2196.2613957530898
 31
0.0
  0
ARC
  5
8C02
  8
01
 10
-266.01141212289389
 20
-2138.7613957530898
 30
0.0
 40
0.5
 50
90.0
 51
180.0
  0
ARC
  5
8C03
  8
01
 10
-266.011412122894
 20
-2196.2613957530898
 30
0.0
 40
0.5
 50
180.0
 51
270.0000000000033
  0
LINE
  5
8C04
  8
01
 10
-252.511412122894
 20
-2138.7613957530898
 30
0.0
 11
-252.5114121228938
 21
-2187.2613957530912
 31
0.0
  0
LINE
  5
8C05
  8
01
 10
-252.5114121228938
 20
-2187.2613957530912
 30
0.0
 11
-252.5114121228938
 21
-2196.2613957530898
 31
0.0
  0
ARC
  5
8C06
  8
01
 10
-253.011412122894
 20
-2138.7613957530898
 30
0.0
 40
0.5
 50
0.0
 51
90.0
  0
ARC
  5
8C07
  8
01
 10
-253.0114121228938
 20
-2196.2613957530898
 30
0.0
 40
0.5
 50
270.0
 51
0.0
  0
CIRCLE
  5
8C08
  8
01
 10
-259.51141212492308
 20
-2180.2613957408748
 30
0.0
 40
1.8999999999999999
  0
ARC
  5
8C09
  8
01
 10
-259.51141212492303
 20
-2146.2613957530898
 30
0.0
 40
1.8999999999999999
 50
0.0
 51
180.0
  0
ARC
  5
8C0A
  8
01
 10
-259.51141212492303
 20
-2147.7613957530898
 30
0.0
 40
1.8999999999999999
 50
180.0
 51
0.0
  0
LINE
  5
8C0B
  8
01
 10
-261.41141212492312
 20
-2146.2613957530898
 30
0.0
 11
-261.41141212492312
 21
-2147.7613957530898
 31
0.0
  0
LINE
  5
8C0C
  8
01
 10
-257.61141212492311
 20
-2146.2613957530898
 30
0.0
 11
-257.61141212492311
 21
-2147.7613957530898
 31
0.0
  0
LINE
  5
8C0D
  8
01
 10
-267.26141212289349
 20
-2123.2613957530912
 30
0.0
 11
-251.7614121228942
 21
-2123.2613957530912
 31
0.0
  0
ARC
  5
8C0E
  8
01
 10
-251.7614121228942
 20
-2124.2613957530912
 30
0.0
 40
1.0
 50
0.0
 51
90.0
  0
LINE
  5
8C0F
  8
01
 10
-267.76141212289377
 20
-2187.2613957530912
 30
0.0
 11
-251.2614121228942
 21
-2187.2613957530912
 31
0.0
  0
LINE
  5
8C10
  8
01
 10
-268.26141212289349
 20
-2124.2613957530912
 30
0.0
 11
-268.26141212289377
 21
-2186.7613957530912
 31
0.0
  0
ARC
  5
8C11
  8
01
 10
-267.26141212289349
 20
-2124.2613957530912
 30
0.0
 40
1.0
 50
90.0
 51
180.0
  0
ARC
  5
8C12
  8
01
 10
-267.76141212289377
 20
-2186.7613957530912
 30
0.0
 40
0.5
 50
180.0
 51
270.0
  0
LINE
  5
8C13
  8
01
 10
-250.7614121228942
 20
-2124.2613957530912
 30
0.0
 11
-250.7614121228942
 21
-2186.7613957530912
 31
0.0
  0
ARC
  5
8C14
  8
01
 10
-251.2614121228942
 20
-2186.7613957530912
 30
0.0
 40
0.5
 50
270.0
 51
0.0
  0
LINE
  5
8C15
  8
01
 10
-255.011412122894
 20
-2196.7613957530912
 30
0.0
 11
-255.011412122894
 21
-2205.0113957530912
 31
0.0
  0
ARC
  5
8C16
  8
01
 10
-255.511412122894
 20
-2205.0113957530912
 30
0.0
 40
0.5
 50
270.0
 51
0.0
  0
LINE
  5
8C17
  8
01
 10
-264.01141212289349
 20
-2196.7613957530912
 30
0.0
 11
-264.01141212289349
 21
-2205.0113957530912
 31
0.0
  0
ARC
  5
8C18
  8
01
 10
-263.51141212289349
 20
-2205.0113957530912
 30
0.0
 40
0.5
 50
180.0
 51
270.0
  0
LINE
  5
8C19
  8
01
 10
-255.511412122894
 20
-2205.5113957530921
 30
0.0
 11
-263.51141212289349
 21
-2205.5113957530921
 31
0.0
  0
LINE
  5
8C1A
  8
01
 10
-266.51141212289377
 20
-2084.2515468700672
 30
0.0
 11
-252.5114121228938
 21
-2084.2515468700672
 31
0.0
  0
ARC
  5
8C1B
  8
01
 10
-259.51141212289377
 20
-2098.5015468700681
 30
0.0
 40
7.0
 50
180.0
 51
0.0
  0
CIRCLE
  5
8C1C
  8
01
 10
-259.51141212289377
 20
-2098.0015468700681
 30
0.0
 40
4.75
  0
LINE
  5
8C1D
  8
01
 10
-266.51141212289377
 20
-2089.2515468700681
 30
0.0
 11
-252.51141212289389
 21
-2089.2515468700681
 31
0.0
  0
LINE
  5
8C1E
  8
01
 10
-252.51141212289389
 20
-2098.5015468700681
 30
0.0
 11
-252.51141212289389
 21
-2085.501546870169
 31
0.0
  0
LINE
  5
8C1F
  8
01
 10
-252.51141212289389
 20
-2085.501546870169
 30
0.0
 11
-252.5114121228938
 21
-2084.2515468700672
 31
0.0
  0
LINE
  5
8C20
  8
01
 10
-266.51141212289377
 20
-2098.5015468700681
 30
0.0
 11
-266.51141212289377
 21
-2085.501546870169
 31
0.0
  0
LINE
  5
8C21
  8
01
 10
-266.51141212289377
 20
-2085.501546870169
 30
0.0
 11
-266.51141212289377
 21
-2084.2515468700672
 31
0.0
  0
LINE
  5
8C22
  8
01
 10
-250.7614121228942
 20
-2098.5015468701699
 30
0.0
 11
-250.76141212289329
 21
-2085.501546870169
 31
0.0
  0
LINE
  5
8C23
  8
01
 10
-268.26141212289377
 20
-2098.501546870169
 30
0.0
 11
-268.26141212289389
 21
-2085.501546870169
 31
0.0
  0
ARC
  5
8C24
  8
01
 10
-259.51141212289377
 20
-2098.501546870169
 30
0.0
 40
8.7499999999997726
 50
180.0
 51
0.0
  0
LINE
  5
8C25
  8
01
 10
-250.76141212289329
 20
-2085.501546870169
 30
0.0
 11
-268.26141212289389
 21
-2085.501546870169
 31
0.0
  0
LINE
  5
8C64
  8
01
 10
-335.82532028868292
 20
-2138.2613957530898
 30
0.0
 11
-335.82532028868292
 21
-2196.7613957530912
 31
0.0
  0
LINE
  5
8C65
  8
01
 10
-315.0753202887841
 20
-2196.7613957530912
 30
0.0
 11
-335.82532028868292
 21
-2196.7613957530912
 31
0.0
  0
LINE
  5
8C66
  8
01
 10
-330.82532028868292
 20
-2138.7613957530898
 30
0.0
 11
-330.82532028868292
 21
-2183.7613957530898
 31
0.0
  0
ARC
  5
8C67
  8
01
 10
-329.82532028868292
 20
-2183.7613957530898
 30
0.0
 40
1.0
 50
180.0
 51
270.0
  0
LINE
  5
8C68
  8
01
 10
-331.32532028868292
 20
-2138.2613957530898
 30
0.0
 11
-334.57532028868269
 21
-2138.2613957530898
 31
0.0
  0
LINE
  5
8C69
  8
01
 10
-334.57532028868269
 20
-2138.2613957530898
 30
0.0
 11
-335.82532028868292
 21
-2138.2613957530898
 31
0.0
  0
ARC
  5
8C6A
  8
01
 10
-331.32532028868292
 20
-2138.7613957530898
 30
0.0
 40
0.5
 50
0.0
 51
90.0
  0
LINE
  5
8C6B
  8
01
 10
-315.0753202887841
 20
-2184.7613957530898
 30
0.0
 11
-329.82532028868292
 21
-2184.7613957530898
 31
0.0
  0
LINE
  5
8C6C
  8
01
 10
-314.5753202887841
 20
-2185.2613957530898
 30
0.0
 11
-314.5753202887841
 21
-2187.2613957530912
 31
0.0
  0
LINE
  5
8C6D
  8
01
 10
-314.5753202887841
 20
-2187.2613957530912
 30
0.0
 11
-314.5753202887841
 21
-2196.2613957530898
 31
0.0
  0
ARC
  5
8C6E
  8
01
 10
-315.0753202887841
 20
-2185.2613957530898
 30
0.0
 40
0.5
 50
0.0
 51
90.0
  0
ARC
  5
8C6F
  8
01
 10
-315.0753202887841
 20
-2196.2613957530898
 30
0.0
 40
0.5
 50
270.0
 51
0.0
  0
LINE
  5
8C70
  8
01
 10
-334.57532028868258
 20
-2123.2613957530912
 30
0.0
 11
-334.57532028868269
 21
-2186.7613957530912
 31
0.0
  0
ARC
  5
8C71
  8
01
 10
-334.07532028868269
 20
-2186.7613957530912
 30
0.0
 40
0.5
 50
180.0
 51
270.0
  0
LINE
  5
8C72
  8
01
 10
-313.32532028868258
 20
-2187.2613957530912
 30
0.0
 11
-334.07532028868269
 21
-2187.2613957530912
 31
0.0
  0
LINE
  5
8C73
  8
01
 10
-313.82532028868269
 20
-2123.2613957530912
 30
0.0
 11
-334.57532028868258
 21
-2123.2613957530912
 31
0.0
  0
ARC
  5
8C74
  8
01
 10
-313.82532028868269
 20
-2124.2613957530912
 30
0.0
 40
1.0
 50
0.0
 51
90.0
  0
LINE
  5
8C75
  8
01
 10
-312.8253202886828
 20
-2124.2613957530912
 30
0.0
 11
-312.82532028868258
 21
-2186.7613957530912
 31
0.0
  0
ARC
  5
8C76
  8
01
 10
-313.32532028868258
 20
-2186.7613957530912
 30
0.0
 40
0.5
 50
270.0
 51
0.0
  0
LINE
  5
8C77
  8
01
 10
-317.57532028878393
 20
-2196.7613957530912
 30
0.0
 11
-317.57532028878393
 21
-2205.0113957530912
 31
0.0
  0
ARC
  5
8C78
  8
01
 10
-318.07532028878393
 20
-2205.0113957530912
 30
0.0
 40
0.5
 50
270.0
 51
0.0
  0
LINE
  5
8C79
  8
01
 10
-326.57532028878342
 20
-2196.7613957530912
 30
0.0
 11
-326.57532028878342
 21
-2205.0113957530912
 31
0.0
  0
ARC
  5
8C7A
  8
01
 10
-326.07532028878342
 20
-2205.0113957530912
 30
0.0
 40
0.5
 50
180.0
 51
270.0
  0
LINE
  5
8C7B
  8
01
 10
-318.07532028878393
 20
-2205.5113957530921
 30
0.0
 11
-326.07532028878342
 21
-2205.5113957530921
 31
0.0
  0
LINE
  5
8C7C
  8
01
 10
-335.82532028868292
 20
-2199.0113957530939
 30
0.0
 11
-335.82532028868292
 21
-2111.7628639806931
 31
0.0
  0
LINE
  5
8C7E
  8
01
 10
-347.46064666556208
 20
-2199.0113957530939
 30
0.0
 11
-335.82532028868292
 21
-2199.0113957530939
 31
0.0
  0
LINE
  5
8C89
  8
01
 10
-328.0753202886832
 20
-2197.7613957530898
 30
0.0
 11
-334.07532028868269
 21
-2197.7613957530898
 31
0.0
  0
LINE
  5
8C8A
  8
01
 10
-328.57532028868309
 20
-2198.2613957530898
 30
0.0
 11
-333.57532028868269
 21
-2198.2613957530898
 31
0.0
  0
LINE
  5
8C8B
  8
01
 10
-328.0753202886832
 20
-2197.7613957530898
 30
0.0
 11
-328.0753202886832
 21
-2196.7613957530912
 31
0.0
  0
LINE
  5
8C8C
  8
01
 10
-334.07532028868269
 20
-2197.7613957530898
 30
0.0
 11
-334.07532028868292
 21
-2196.7613957530912
 31
0.0
  0
LINE
  5
8C8D
  8
01
 10
-328.57532028868309
 20
-2198.2613957530898
 30
0.0
 11
-328.0753202886832
 21
-2197.7613957530898
 31
0.0
  0
LINE
  5
8C8E
  8
01
 10
-333.57532028868269
 20
-2198.2613957530898
 30
0.0
 11
-334.07532028868269
 21
-2197.7613957530898
 31
0.0
  0
LINE
  5
8D4E
  8
01
 10
-347.31597748086341
 20
-2209.0113957530939
 30
0.0
 11
-124.5069708715658
 21
-2209.0113957530939
 31
0.0
  0
LINE
  5
8DCC
  8
01
 10
-161.7886649327227
 20
-2201.511395753098
 30
0.0
 11
-151.51141212492311
 21
-2201.5113957530989
 31
0.0
  0
LINE
  5
8DCD
  8
01
 10
-169.5114121249228
 20
-2209.011395753093
 30
0.0
 11
-151.51141212492311
 21
-2209.0113957530939
 31
0.0
  0
LINE
  5
8DCE
  8
01
 10
-133.51141212492311
 20
-2209.011395753093
 30
0.0
 11
-151.51141212492311
 21
-2209.0113957530939
 31
0.0
  0
ARC
  5
8DCF
  8
01
 10
-130.82974076043249
 20
-2240.1930671176151
 30
0.0
 40
50.0
 50
130.1639950347261
 51
140.26540252321499
  0
LINE
  5
8DD0
  8
01
 10
-169.5114121249228
 20
-2209.0113957530939
 30
0.0
 11
-169.5114121249228
 21
-2208.8706846542941
 31
0.0
  0
ARC
  5
8DD1
  8
01
 10
-161.7886649327229
 20
-2203.511395753098
 30
0.0
 40
2.0
 50
90.0
 51
130.1639950347261
  0
ARC
  5
8DD2
  8
01
 10
-168.5114121249228
 20
-2208.8706846542941
 30
0.0
 40
1.0
 50
140.26540252321499
 51
179.9999999999869
  0
ARC
  5
8DD3
  8
01
 10
-141.2341593171227
 20
-2203.511395753098
 30
0.0
 40
2.0
 50
49.836004965273808
 51
90.0
  0
ARC
  5
8DD4
  8
01
 10
-134.51141212492311
 20
-2208.8706846542941
 30
0.0
 40
1.0
 50
0.0000000000130153
 51
39.73459747678492
  0
ARC
  5
8DD5
  8
01
 10
-172.19308348941311
 20
-2240.193067117616
 30
0.0
 40
50.0
 50
39.73459747678492
 51
49.836004965273808
  0
LINE
  5
8DD6
  8
01
 10
-141.2341593171225
 20
-2201.5113957530989
 30
0.0
 11
-151.51141212492311
 21
-2201.5113957530989
 31
0.0
  0
LINE
  5
8DD7
  8
01
 10
-133.51141212492311
 20
-2208.8706846542941
 30
0.0
 11
-133.51141212492311
 21
-2209.011395753093
 31
0.0
  0
LINE
  5
8DD8
  8
01
 10
-160.98558755078631
 20
-2201.5113957530989
 30
0.0
 11
-151.51141212492311
 21
-2201.5113957530989
 31
0.0
  0
LINE
  5
8DD9
  8
01
 10
-142.0372366990598
 20
-2201.5113957530971
 30
0.0
 11
-151.51141212492311
 21
-2201.5113957530989
 31
0.0
  0
LINE
  5
8DDA
  8
01
 10
-145.51141212492121
 20
-2205.5113957530898
 30
0.0
 11
-157.5114121249247
 21
-2205.5113957530921
 31
0.0
  0
LINE
  5
8DDB
  8
01
 10
-158.0114121249247
 20
-2205.0113957530912
 30
0.0
 11
-158.0114121249247
 21
-2201.5113957530989
 31
0.0
  0
LINE
  5
8DDC
  8
01
 10
-145.01141212492121
 20
-2205.0113957530912
 30
0.0
 11
-145.01141212492121
 21
-2201.5113957530989
 31
0.0
  0
ARC
  5
8DDD
  8
01
 10
-157.51141212492479
 20
-2205.0113957530912
 30
0.0
 40
0.5
 50
180.0
 51
270.0
  0
ARC
  5
8DDE
  8
01
 10
-145.51141212492141
 20
-2205.0113957530912
 30
0.0
 40
0.5
 50
270.0
 51
0.0
  0
CIRCLE
  5
8E05
  8
01
 10
-151.51141212492311
 20
-2156.2105915184611
 30
0.0
 40
17.999999999999659
  0
CIRCLE
  5
8E07
  8
01
 10
-151.51141212492311
 20
-2156.2105915184611
 30
0.0
 40
6.500000000001477
  0
CIRCLE
  5
8F59
  8
01
 10
-151.51141212492311
 20
-2156.2105915184611
 30
0.0
 40
9.5000000000014762
  0
LINE
  5
8F5A
  8
01
 10
-142.01141212492161
 20
-2205.6113957530938
 30
0.0
 11
-142.01141212492161
 21
-2201.5113957530989
 31
0.0
  0
LINE
  5
8F5B
  8
01
 10
-161.0114121249245
 20
-2205.6113957530938
 30
0.0
 11
-161.0114121249245
 21
-2201.511395753098
 31
0.0
  0
LINE
  5
8F5C
  8
01
 10
-160.0114121249245
 20
-2206.6113957530938
 30
0.0
 11
-143.01141212492161
 21
-2206.6113957530938
 31
0.0
  0
ARC
  5
8F5E
  8
01
 10
-143.01141212492161
 20
-2205.6113957530938
 30
0.0
 40
1.0
 50
270.0
 51
0.0
  0
ARC
  5
8F5F
  8
01
 10
-160.0114121249245
 20
-2205.6113957530938
 30
0.0
 40
1.0
 50
180.0
 51
270.0
  0
LINE
  5
92C3
  8
01
 10
-151.51141212492311
 20
-2159.2105915184611
 30
0.0
 11
-151.51141212492311
 21
-2153.2105915184611
 31
0.0
  0
LINE
  5
92C4
  8
01
 10
-148.51141212492311
 20
-2156.2105915184611
 30
0.0
 11
-154.51141212492311
 21
-2156.2105915184611
 31
0.0
  0
LINE
  5
92CA
  8
01
 10
-259.51141212492308
 20
-2183.2613957408748
 30
0.0
 11
-259.51141212492308
 21
-2177.2613957408762
 31
0.0
  0
LINE
  5
92CB
  8
01
 10
-256.51141212492308
 20
-2180.2613957408748
 30
0.0
 11
-262.51141212492308
 21
-2180.2613957408748
 31
0.0
  0
LINE
  5
92CC
  8
01
 10
-259.51141212492303
 20
-2150.0113957530898
 30
0.0
 11
-259.51141212492303
 21
-2144.0113957530912
 31
0.0
  0
LINE
  5
92CD
  8
01
 10
-256.51141212492303
 20
-2147.0113957530898
 30
0.0
 11
-262.51141212492303
 21
-2147.0113957530898
 31
0.0
  0
LINE
  5
9B6B
  8
01
 10
-89.148969812842267
 20
-2201.5113957530971
 30
0.0
 11
-78.871717005042626
 21
-2201.5113957530989
 31
0.0
  0
LINE
  5
9B6C
  8
01
 10
-96.871717005042399
 20
-2209.011395753093
 30
0.0
 11
-78.871717005042626
 21
-2209.0113957530939
 31
0.0
  0
LINE
  5
9B6D
  8
01
 10
-60.871717005042633
 20
-2209.011395753093
 30
0.0
 11
-78.871717005042626
 21
-2209.0113957530939
 31
0.0
  0
ARC
  5
9B6E
  8
01
 10
-58.190045640552107
 20
-2240.1930671176142
 30
0.0
 40
50.0
 50
130.1639950347265
 51
140.2654025232051
  0
LINE
  5
9B6F
  8
01
 10
-96.871717005042399
 20
-2209.0113957530939
 30
0.0
 11
-96.871717005042399
 21
-2208.8706846542941
 31
0.0
  0
ARC
  5
9B70
  8
01
 10
-89.148969812842495
 20
-2203.511395753098
 30
0.0
 40
2.0
 50
90.0
 51
130.1639950347265
  0
ARC
  5
9B71
  8
01
 10
-95.871717005042399
 20
-2208.8706846542941
 30
0.0
 40
1.0
 50
140.2654025232051
 51
180.0
  0
ARC
  5
9B72
  8
01
 10
-68.594464197242303
 20
-2203.511395753098
 30
0.0
 40
2.0
 50
49.836004965273439
 51
90.0
  0
ARC
  5
9B73
  8
01
 10
-61.871717005042619
 20
-2208.8706846542941
 30
0.0
 40
1.0
 50
0.0000000000260428
 51
39.734597476794882
  0
ARC
  5
9B74
  8
01
 10
-99.553388369532684
 20
-2240.1930671176151
 30
0.0
 40
50.0
 50
39.734597476794882
 51
49.836004965273439
  0
LINE
  5
9B75
  8
01
 10
-68.594464197242075
 20
-2201.5113957530989
 30
0.0
 11
-78.871717005042626
 21
-2201.5113957530989
 31
0.0
  0
LINE
  5
9B76
  8
01
 10
-60.871717005042633
 20
-2208.8706846542932
 30
0.0
 11
-60.871717005042633
 21
-2209.011395753093
 31
0.0
  0
LINE
  5
9B77
  8
01
 10
-88.345892430905849
 20
-2201.511395753098
 30
0.0
 11
-78.871717005042626
 21
-2201.511395753098
 31
0.0
  0
LINE
  5
9B78
  8
01
 10
-69.397541579179403
 20
-2201.5113957530971
 30
0.0
 11
-78.871717005042626
 21
-2201.511395753098
 31
0.0
  0
LINE
  5
9B79
  8
01
 10
-72.871717005040807
 20
-2205.5113957530898
 30
0.0
 11
-84.871717005044218
 21
-2205.5113957530912
 31
0.0
  0
LINE
  5
9B7A
  8
01
 10
-85.371717005044204
 20
-2205.0113957530912
 30
0.0
 11
-85.371717005044204
 21
-2201.511395753098
 31
0.0
  0
LINE
  5
9B7B
  8
01
 10
-72.371717005040807
 20
-2205.0113957530898
 30
0.0
 11
-72.371717005040807
 21
-2201.5113957530989
 31
0.0
  0
ARC
  5
9B7C
  8
01
 10
-84.871717005044331
 20
-2205.0113957530912
 30
0.0
 40
0.5
 50
180.0
 51
270.0
  0
ARC
  5
9B7D
  8
01
 10
-72.871717005040921
 20
-2205.0113957530898
 30
0.0
 40
0.5
 50
270.0
 51
0.0
  0
LINE
  5
9CF6
  8
01
 10
-183.70347094849041
 20
-2221.0113957530939
 30
0.0
 11
-124.5069708715658
 21
-2221.0113957530939
 31
0.0
  0
TEXT
  5
9DAD
  8
01
 10
-104.4188998876797
 20
-2265.8569379497699
 30
0.0
 40
4.0
  1
コンクリート
  0
LINE
  5
9E64
  8
01
 10
-107.9021531977766
 20
-2209.0113957530939
 30
0.0
 11
-48.726638109593701
 21
-2209.0113957530939
 31
0.0
  0
LINE
  5
9E65
  8
01
 10
-107.9021531977766
 20
-2221.0113957530939
 30
0.0
 11
-48.72663810959375
 21
-2221.0113957530939
 31
0.0
  0
LINE
  5
9FED
  8
01
 10
-72.871717005042726
 20
-2207.0113957530939
 30
0.0
 11
-74.871717005042342
 21
-2209.0113957530939
 31
0.0
  0
LINE
  5
9FEE
  8
01
 10
-72.871717005042726
 20
-2207.0113957530939
 30
0.0
 11
-72.871717005042854
 21
-2206.6113957530938
 31
0.0
  0
LINE
  5
9FEF
  8
01
 10
-72.871717005042854
 20
-2206.6113957530938
 30
0.0
 11
-84.871717005042754
 21
-2206.6113957530938
 31
0.0
  0
LINE
  5
9FF0
  8
01
 10
-84.871717005042754
 20
-2207.0113957530939
 30
0.0
 11
-84.871717005042754
 21
-2206.6113957530938
 31
0.0
  0
LINE
  5
9FF1
  8
01
 10
-84.871717005042754
 20
-2207.0113957530939
 30
0.0
 11
-82.87171700504291
 21
-2209.0113957530939
 31
0.0
  0
LINE
  5
A0C2
  8
01
 10
-83.871717005042726
 20
-2209.0113957530939
 30
0.0
 11
-73.87171700504274
 21
-2209.0113957530939
 31
0.0
  0
LINE
  5
A0C3
  8
01
 10
-79.37171700504274
 20
-2217.011395753093
 30
0.0
 11
-78.37171700504274
 21
-2217.011395753093
 31
0.0
  0
LINE
  5
A0C4
  8
01
 10
-82.160392139637509
 20
-2249.011395753093
 30
0.0
 11
-79.37171700504274
 21
-2249.011395753093
 31
0.0
  0
LINE
  5
A0C5
  8
01
 10
-78.37171700504274
 20
-2249.011395753093
 30
0.0
 11
-75.583041870447744
 21
-2249.011395753093
 31
0.0
  0
LINE
  5
A0C6
  8
01
 10
-82.871717005042726
 20
-2244.511395753093
 30
0.0
 11
-80.87171700504274
 21
-2244.511395753093
 31
0.0
  0
LINE
  5
A0C7
  8
01
 10
-76.87171700504274
 20
-2244.511395753093
 30
0.0
 11
-74.87171700504274
 21
-2244.511395753093
 31
0.0
  0
LINE
  5
A0C8
  8
01
 10
-82.871717005042726
 20
-2239.5113957530939
 30
0.0
 11
-80.87171700504274
 21
-2239.5113957530939
 31
0.0
  0
LINE
  5
A0C9
  8
01
 10
-76.87171700504274
 20
-2239.5113957530939
 30
0.0
 11
-74.87171700504274
 21
-2239.5113957530939
 31
0.0
  0
LINE
  5
A0CA
  8
01
 10
-74.87171700504274
 20
-2209.0113957530939
 30
0.0
 11
-74.87171700504274
 21
-2220.3566952147139
 31
0.0
  0
LINE
  5
A0CB
  8
01
 10
-74.87171700504274
 20
-2224.511395753093
 30
0.0
 11
-74.87171700504274
 21
-2226.3566952147148
 31
0.0
  0
LINE
  5
A0CC
  8
01
 10
-74.87171700504274
 20
-2229.511395753093
 30
0.0
 11
-74.87171700504274
 21
-2231.3566952147139
 31
0.0
  0
LINE
  5
A0CD
  8
01
 10
-74.87171700504274
 20
-2234.511395753093
 30
0.0
 11
-74.87171700504274
 21
-2236.3566952147139
 31
0.0
  0
LINE
  5
A0CE
  8
01
 10
-74.87171700504274
 20
-2239.5113957530939
 30
0.0
 11
-74.87171700504274
 21
-2241.3566952147139
 31
0.0
  0
LINE
  5
A0CF
  8
01
 10
-74.87171700504274
 20
-2244.511395753093
 30
0.0
 11
-74.87171700504274
 21
-2246.3566952147139
 31
0.0
  0
LINE
  5
A0D0
  8
01
 10
-82.871717005042726
 20
-2209.0113957530939
 30
0.0
 11
-82.871717005042726
 21
-2220.3566952147139
 31
0.0
  0
LINE
  5
A0D1
  8
01
 10
-82.871717005042726
 20
-2224.511395753093
 30
0.0
 11
-82.871717005042726
 21
-2226.3566952147148
 31
0.0
  0
LINE
  5
A0D2
  8
01
 10
-82.871717005042726
 20
-2229.511395753093
 30
0.0
 11
-82.871717005042726
 21
-2231.3566952147139
 31
0.0
  0
LINE
  5
A0D3
  8
01
 10
-82.871717005042726
 20
-2234.511395753093
 30
0.0
 11
-82.871717005042726
 21
-2236.3566952147139
 31
0.0
  0
LINE
  5
A0D4
  8
01
 10
-82.871717005042726
 20
-2239.5113957530939
 30
0.0
 11
-82.871717005042726
 21
-2241.3566952147139
 31
0.0
  0
LINE
  5
A0D5
  8
01
 10
-82.871717005042726
 20
-2244.511395753093
 30
0.0
 11
-82.871717005042726
 21
-2246.3566952147139
 31
0.0
  0
LINE
  5
A0D6
  8
01
 10
-78.87171700504274
 20
-2206.0917878644091
 30
0.0
 11
-78.87171700504274
 21
-2253.105227707736
 31
0.0
  0
LINE
  5
A0D7
  8
01
 10
-80.87171700504274
 20
-2242.5113957530939
 30
0.0
 11
-80.87171700504274
 21
-2244.511395753093
 31
0.0
  0
LINE
  5
A0D8
  8
01
 10
-76.87171700504274
 20
-2242.5113957530939
 30
0.0
 11
-76.87171700504274
 21
-2244.511395753093
 31
0.0
  0
LINE
  5
A0D9
  8
01
 10
-78.37171700504274
 20
-2217.011395753093
 30
0.0
 11
-78.37171700504274
 21
-2249.011395753093
 31
0.0
  0
LINE
  5
A0DA
  8
01
 10
-79.37171700504274
 20
-2217.011395753093
 30
0.0
 11
-79.37171700504274
 21
-2249.011395753093
 31
0.0
  0
LINE
  5
A0DB
  8
01
 10
-80.87171700504274
 20
-2242.5113957530939
 30
0.0
 11
-82.871717005042726
 21
-2241.3566952147139
 31
0.0
  0
LINE
  5
A0DC
  8
01
 10
-76.87171700504274
 20
-2242.5113957530939
 30
0.0
 11
-74.87171700504274
 21
-2241.3566952147139
 31
0.0
  0
LINE
  5
A0DD
  8
01
 10
-74.87171700504274
 20
-2246.3566952147139
 30
0.0
 11
-78.37171700504274
 21
-2246.3566952147139
 31
0.0
  0
LINE
  5
A0DE
  8
01
 10
-79.37171700504274
 20
-2246.3566952147139
 30
0.0
 11
-82.871717005042726
 21
-2246.3566952147139
 31
0.0
  0
LINE
  5
A0DF
  8
01
 10
-74.87171700504274
 20
-2246.3566952147139
 30
0.0
 11
-75.583041870447971
 21
-2249.011395753093
 31
0.0
  0
LINE
  5
A0E0
  8
01
 10
-82.871717005042726
 20
-2246.3566952147139
 30
0.0
 11
-82.160392139637509
 21
-2249.011395753093
 31
0.0
  0
LINE
  5
A0E1
  8
01
 10
-82.871717005042726
 20
-2234.511395753093
 30
0.0
 11
-80.87171700504274
 21
-2234.511395753093
 31
0.0
  0
LINE
  5
A0E2
  8
01
 10
-76.87171700504274
 20
-2234.511395753093
 30
0.0
 11
-74.87171700504274
 21
-2234.511395753093
 31
0.0
  0
LINE
  5
A0E3
  8
01
 10
-80.87171700504274
 20
-2237.511395753093
 30
0.0
 11
-80.87171700504274
 21
-2239.5113957530939
 31
0.0
  0
LINE
  5
A0E4
  8
01
 10
-76.87171700504274
 20
-2237.511395753093
 30
0.0
 11
-76.87171700504274
 21
-2239.5113957530939
 31
0.0
  0
LINE
  5
A0E5
  8
01
 10
-80.87171700504274
 20
-2237.511395753093
 30
0.0
 11
-82.871717005042726
 21
-2236.3566952147139
 31
0.0
  0
LINE
  5
A0E6
  8
01
 10
-76.87171700504274
 20
-2237.511395753093
 30
0.0
 11
-74.87171700504274
 21
-2236.3566952147139
 31
0.0
  0
LINE
  5
A0E7
  8
01
 10
-82.871717005042726
 20
-2229.511395753093
 30
0.0
 11
-80.87171700504274
 21
-2229.511395753093
 31
0.0
  0
LINE
  5
A0E8
  8
01
 10
-76.87171700504274
 20
-2229.511395753093
 30
0.0
 11
-74.87171700504274
 21
-2229.511395753093
 31
0.0
  0
LINE
  5
A0E9
  8
01
 10
-80.87171700504274
 20
-2232.511395753093
 30
0.0
 11
-80.87171700504274
 21
-2234.511395753093
 31
0.0
  0
LINE
  5
A0EA
  8
01
 10
-76.87171700504274
 20
-2232.511395753093
 30
0.0
 11
-76.87171700504274
 21
-2234.511395753093
 31
0.0
  0
LINE
  5
A0EB
  8
01
 10
-80.87171700504274
 20
-2232.511395753093
 30
0.0
 11
-82.871717005042726
 21
-2231.3566952147148
 31
0.0
  0
LINE
  5
A0EC
  8
01
 10
-76.87171700504274
 20
-2232.511395753093
 30
0.0
 11
-74.87171700504274
 21
-2231.3566952147148
 31
0.0
  0
LINE
  5
A0ED
  8
01
 10
-80.87171700504274
 20
-2221.511395753093
 30
0.0
 11
-80.87171700504274
 21
-2229.511395753093
 31
0.0
  0
LINE
  5
A0EE
  8
01
 10
-76.87171700504274
 20
-2221.511395753093
 30
0.0
 11
-76.87171700504274
 21
-2229.511395753093
 31
0.0
  0
LINE
  5
A0EF
  8
01
 10
-80.87171700504274
 20
-2227.5113957530939
 30
0.0
 11
-82.871717005042726
 21
-2226.3566952147148
 31
0.0
  0
LINE
  5
A0F0
  8
01
 10
-76.87171700504274
 20
-2227.5113957530939
 30
0.0
 11
-74.87171700504274
 21
-2226.3566952147148
 31
0.0
  0
LINE
  5
A0F1
  8
01
 10
-80.87171700504274
 20
-2221.511395753093
 30
0.0
 11
-82.871717005042726
 21
-2220.3566952147139
 31
0.0
  0
LINE
  5
A0F2
  8
01
 10
-76.87171700504274
 20
-2221.511395753093
 30
0.0
 11
-74.87171700504274
 21
-2220.3566952147139
 31
0.0
  0
LINE
  5
A0F3
  8
01
 10
-82.871717005042726
 20
-2229.511395753093
 30
0.0
 11
-86.913168889370183
 21
-2222.511395753093
 31
0.0
  0
LINE
  5
A0F4
  8
01
 10
-81.717016466663438
 20
-2229.511395753093
 30
0.0
 11
-86.047143485585636
 21
-2222.0113957530939
 31
0.0
  0
LINE
  5
A0F5
  8
01
 10
-74.87171700504274
 20
-2224.511395753093
 30
0.0
 11
-76.87171700504274
 21
-2224.511395753093
 31
0.0
  0
LINE
  5
A0F6
  8
01
 10
-80.87171700504274
 20
-2224.511395753093
 30
0.0
 11
-82.871717005042726
 21
-2224.511395753093
 31
0.0
  0
LINE
  5
A0F7
  8
01
 10
-86.047143485585636
 20
-2222.0113957530939
 30
0.0
 11
-86.913168889370183
 21
-2222.511395753093
 31
0.0
  0
LINE
  5
A0F8
  8
01
 10
-74.871717005042512
 20
-2229.511395753093
 30
0.0
 11
-70.830265120715296
 21
-2222.511395753093
 31
0.0
  0
LINE
  5
A0F9
  8
01
 10
-76.026417543421815
 20
-2229.511395753093
 30
0.0
 11
-71.696290524499602
 21
-2222.0113957530939
 31
0.0
  0
LINE
  5
A0FA
  8
01
 10
-71.696290524499602
 20
-2222.0113957530939
 30
0.0
 11
-70.830265120715296
 21
-2222.511395753093
 31
0.0
  0
LINE
  5
A0FB
  8
01
 10
-82.871717005042726
 20
-2215.011395753093
 30
0.0
 11
-83.871717005042726
 21
-2209.0113957530939
 31
0.0
  0
LINE
  5
A0FC
  8
01
 10
-73.87171700504274
 20
-2209.0113957530939
 30
0.0
 11
-74.87171700504274
 21
-2215.011395753093
 31
0.0
  0
LINE
  5
A587
  8
01
 10
-161.7886649327229
 20
-2201.511395753098
 30
0.0
 11
-233.3117126065334
 21
-2201.511395753098
 31
0.0
  0
LINE
  5
A58A
  8
01
 10
-255.511412122894
 20
-2205.5113957530921
 30
0.0
 11
-231.3117126065334
 21
-2205.5113957530921
 31
0.0
  0
LINE
  5
A58B
  8
01
 10
-232.3117126065334
 20
-2199.511395753098
 30
0.0
 11
-232.3117126065334
 21
-2197.511395753098
 31
0.0
  0
LINE
  5
A58C
  8
01
 10
-232.3117126065334
 20
-2207.5113957530912
 30
0.0
 11
-232.3117126065334
 21
-2213.4113957530908
 31
0.0
  0
LINE
  5
A58D
  8
01
 10
-232.3117126065334
 20
-2201.511395753098
 30
0.0
 11
-232.3117126065334
 21
-2205.5113957530921
 31
0.0
  0
LINE
  5
A591
  8
01
 10
-107.9021531977764
 20
-2222.7524697095628
 30
0.0
 11
-106.161079241308
 21
-2221.0113957530939
 31
0.0
1001
ACAD
1010
0.0
1020
0.0
1030
0.0
  0
LINE
  5
A592
  8
01
 10
-107.9021531977766
 20
-2229.4876618003641
 30
0.0
 11
-99.425887150506256
 21
-2221.0113957530939
 31
0.0
1001
ACAD
1010
0.0
1020
0.0
1030
0.0
  0
LINE
  5
A593
  8
01
 10
-107.9021531977766
 20
-2236.2228538911659
 30
0.0
 11
-92.69069505970424
 21
-2221.0113957530939
 31
0.0
1001
ACAD
1010
0.0
1020
0.0
1030
0.0
  0
LINE
  5
A594
  8
01
 10
-107.9021531977766
 20
-2242.9580459819681
 30
0.0
 11
-85.955502968902465
 21
-2221.0113957530939
 31
0.0
1001
ACAD
1010
0.0
1020
0.0
1030
0.0
  0
LINE
  5
A595
  8
01
 10
-107.9021531977766
 20
-2249.6932380727699
 30
0.0
 11
-84.646425535215485
 21
-2226.4375104102078
 31
0.0
1001
ACAD
1010
0.0
1020
0.0
1030
0.0
  0
LINE
  5
A596
  8
01
 10
-79.371717005042683
 20
-2221.1628018800361
 30
0.0
 11
-79.22031087810069
 21
-2221.0113957530939
 31
0.0
1001
ACAD
1010
0.0
1020
0.0
1030
0.0
  0
LINE
  5
A597
  8
01
 10
-83.914374727646646
 20
-2225.7054596026392
 30
0.0
 11
-82.87171700504291
 21
-2224.6628018800361
 31
0.0
1001
ACAD
1010
0.0
1020
0.0
1030
0.0
  0
LINE
  5
A598
  8
01
 10
-82.720310878100463
 20
-2224.511395753093
 30
0.0
 11
-80.871717005042683
 21
-2222.6628018800361
 31
0.0
1001
ACAD
1010
0.0
1020
0.0
1030
0.0
  0
LINE
  5
A599
  8
01
 10
-107.9021531977764
 20
-2256.4284301635712
 30
0.0
 11
-82.845534642804523
 21
-2231.3718116086002
 31
0.0
1001
ACAD
1010
0.0
1020
0.0
1030
0.0
  0
LINE
  5
A59A
  8
01
 10
-75.985118787298234
 20
-2224.511395753093
 30
0.0
 11
-72.485118787298916
 21
-2221.0113957530939
 31
0.0
1001
ACAD
1010
0.0
1020
0.0
1030
0.0
  0
LINE
  5
A59B
  8
01
 10
-80.985118787298234
 20
-2229.511395753093
 30
0.0
 11
-80.871717005042456
 21
-2229.3979939708379
 31
0.0
1001
ACAD
1010
0.0
1020
0.0
1030
0.0
  0
LINE
  5
A59C
  8
01
 10
-79.371717005042456
 20
-2227.8979939708379
 30
0.0
 11
-78.371717005042456
 21
-2226.8979939708379
 31
0.0
1001
ACAD
1010
0.0
1020
0.0
1030
0.0
  0
LINE
  5
A59D
  8
01
 10
-107.9021531977764
 20
-2263.163622254373
 30
0.0
 11
-81.745466937682522
 21
-2237.006935994279
 31
0.0
1001
ACAD
1010
0.0
1020
0.0
1030
0.0
  0
LINE
  5
A59E
  8
01
 10
-74.871717005042683
 20
-2230.1331860616392
 30
0.0
 11
-65.749926696496914
 21
-2221.0113957530939
 31
0.0
1001
ACAD
1010
0.0
1020
0.0
1030
0.0
  0
LINE
  5
A59F
  8
01
 10
-79.371717005042683
 20
-2234.6331860616392
 30
0.0
 11
-78.371717005042683
 21
-2233.6331860616401
 31
0.0
1001
ACAD
1010
0.0
1020
0.0
1030
0.0
  0
LINE
  5
A5A0
  8
01
 10
-106.4356846216353
 20
-2268.4323457690339
 30
0.0
 11
-104.4602768023708
 21
-2266.4569379497698
 31
0.0
1001
ACAD
1010
0.0
1020
0.0
1030
0.0
  0
LINE
  5
A5A1
  8
01
 10
-76.871717005042683
 20
-2238.868378152441
 30
0.0
 11
-59.014734605695367
 21
-2221.0113957530948
 31
0.0
1001
ACAD
1010
0.0
1020
0.0
1030
0.0
  0
LINE
  5
A5A2
  8
01
 10
-99.260276802371209
 20
-2261.25693794977
 30
0.0
 11
-82.871717005042683
 21
-2244.8683781524419
 31
0.0
1001
ACAD
1010
0.0
1020
0.0
1030
0.0
  0
LINE
  5
A5A3
  8
01
 10
-79.371717005042683
 20
-2241.3683781524419
 30
0.0
 11
-78.371717005042683
 21
-2240.368378152441
 31
0.0
1001
ACAD
1010
0.0
1020
0.0
1030
0.0
  0
LINE
  5
A5A4
  8
01
 10
-82.514734605694684
 20
-2244.511395753093
 30
0.0
 11
-80.871717005042683
 21
-2242.8683781524419
 31
0.0
1001
ACAD
1010
0.0
1020
0.0
1030
0.0
  0
LINE
  5
A5A5
  8
01
 10
-99.700492530833586
 20
-2268.4323457690339
 30
0.0
 11
-97.725084711569252
 21
-2266.4569379497698
 31
0.0
1001
ACAD
1010
0.0
1020
0.0
1030
0.0
  0
LINE
  5
A5A6
  8
01
 10
-59.071209181560327
 20
-2227.8030624197609
 30
0.0
 11
-52.279542514893819
 21
-2221.0113957530948
 31
0.0
1001
ACAD
1010
0.0
1020
0.0
1030
0.0
  0
LINE
  5
A5A7
  8
01
 10
-92.525084711569207
 20
-2261.25693794977
 30
0.0
 11
-80.279542514892896
 21
-2249.011395753093
 31
0.0
1001
ACAD
1010
0.0
1020
0.0
1030
0.0
  0
LINE
  5
A5A8
  8
01
 10
-75.77954251489291
 20
-2244.511395753093
 30
0.0
 11
-62.802244582879439
 21
-2231.5340978210802
 31
0.0
1001
ACAD
1010
0.0
1020
0.0
1030
0.0
  0
LINE
  5
A5A9
  8
01
 10
-79.371717005042683
 20
-2248.1035702432432
 30
0.0
 11
-78.371717005042683
 21
-2247.1035702432441
 31
0.0
1001
ACAD
1010
0.0
1020
0.0
1030
0.0
  0
LINE
  5
A5AA
  8
01
 10
-92.965300440031797
 20
-2268.4323457690339
 30
0.0
 11
-90.989892620767264
 21
-2266.4569379497698
 31
0.0
1001
ACAD
1010
0.0
1020
0.0
1030
0.0
  0
LINE
  5
A5AB
  8
01
 10
-57.552244582879659
 20
-2233.019289911882
 30
0.0
 11
-48.726638109593978
 21
-2224.1936834385961
 31
0.0
1001
ACAD
1010
0.0
1020
0.0
1030
0.0
  0
LINE
  5
A5AC
  8
01
 10
-85.789892620767645
 20
-2261.25693794977
 30
0.0
 11
-82.519495784336414
 21
-2257.9865411133392
 31
0.0
1001
ACAD
1010
0.0
1020
0.0
1030
0.0
  0
LINE
  5
A5AD
  8
01
 10
-77.269495784336414
 20
-2252.7365411133392
 30
0.0
 11
-59.75268375742484
 21
-2235.2197290864269
 31
0.0
1001
ACAD
1010
0.0
1020
0.0
1030
0.0
  0
LINE
  5
A5AE
  8
01
 10
-86.230108349229795
 20
-2268.4323457690339
 30
0.0
 11
-84.254700529965248
 21
-2266.4569379497698
 31
0.0
1001
ACAD
1010
0.0
1020
0.0
1030
0.0
  0
LINE
  5
A5AF
  8
01
 10
-74.830050338376168
 20
-2257.0322877581798
 30
0.0
 11
-48.72663810959375
 21
-2230.9288755293978
 31
0.0
1001
ACAD
1010
0.0
1020
0.0
1030
0.0
  0
LINE
  5
A5B0
  8
01
 10
-79.05470052996543
 20
-2261.25693794977
 30
0.0
 11
-75.784303693534184
 21
-2257.9865411133392
 31
0.0
1001
ACAD
1010
0.0
1020
0.0
1030
0.0
  0
LINE
  5
A5B1
  8
01
 10
-79.49491625842802
 20
-2268.4323457690339
 30
0.0
 11
-77.519508439163474
 21
-2266.4569379497698
 31
0.0
1001
ACAD
1010
0.0
1020
0.0
1030
0.0
  0
LINE
  5
A5B2
  8
01
 10
-76.618899887679845
 20
-2265.5563293982859
 30
0.0
 11
-48.72663810959375
 21
-2237.6640676202001
 31
0.0
1001
ACAD
1010
0.0
1020
0.0
1030
0.0
  0
LINE
  5
A5B3
  8
01
 10
-72.759724167626018
 20
-2268.4323457690339
 30
0.0
 11
-48.72663810959375
 21
-2244.3992597110018
 31
0.0
1001
ACAD
1010
0.0
1020
0.0
1030
0.0
  0
LINE
  5
A5B4
  8
01
 10
-66.024532076824244
 20
-2268.4323457690339
 30
0.0
 11
-48.72663810959375
 21
-2251.1344518018032
 31
0.0
1001
ACAD
1010
0.0
1020
0.0
1030
0.0
  0
LINE
  5
A5B5
  8
01
 10
-59.289339986022462
 20
-2268.4323457690339
 30
0.0
 11
-48.72663810959375
 21
-2257.8696438926058
 31
0.0
1001
ACAD
1010
0.0
1020
0.0
1030
0.0
  0
LINE
  5
A5B6
  8
01
 10
-52.55414789522046
 20
-2268.4323457690339
 30
0.0
 11
-48.72663810959375
 21
-2264.6048359834081
 31
0.0
1001
ACAD
1010
0.0
1020
0.0
1030
0.0
  0
LINE
  5
A5B7
  8
01
 10
-107.9021531977769
 20
-2224.9975347095619
 30
0.0
 11
-103.91601424130771
 21
-2221.0113957530939
 31
0.0
1001
ACAD
1010
0.0
1020
0.0
1030
0.0
  0
LINE
  5
A5B8
  8
01
 10
-107.9021531977766
 20
-2231.7327268003642
 30
0.0
 11
-97.180822150506174
 21
-2221.0113957530939
 31
0.0
1001
ACAD
1010
0.0
1020
0.0
1030
0.0
  0
LINE
  5
A5B9
  8
01
 10
-107.9021531977766
 20
-2238.4679188911659
 30
0.0
 11
-90.445630059704172
 21
-2221.0113957530939
 31
0.0
1001
ACAD
1010
0.0
1020
0.0
1030
0.0
  0
LINE
  5
A5BA
  8
01
 10
-107.9021531977766
 20
-2245.2031109819682
 30
0.0
 11
-86.289926116669434
 21
-2223.5908839008612
 31
0.0
1001
ACAD
1010
0.0
1020
0.0
1030
0.0
  0
LINE
  5
A5BB
  8
01
 10
-85.557875309100609
 20
-2222.8588330932921
 30
0.0
 11
-83.710437968902383
 21
-2221.0113957530939
 31
0.0
1001
ACAD
1010
0.0
1020
0.0
1030
0.0
  0
LINE
  5
A5BC
  8
01
 10
-107.9021531977769
 20
-2251.9383030727699
 30
0.0
 11
-83.824674712068145
 21
-2227.860824587061
 31
0.0
1001
ACAD
1010
0.0
1020
0.0
1030
0.0
  0
LINE
  5
A5BD
  8
01
 10
-79.371717005042683
 20
-2223.4078668800362
 30
0.0
 11
-78.37171700504291
 21
-2222.4078668800362
 31
0.0
1001
ACAD
1010
0.0
1020
0.0
1030
0.0
  0
LINE
  5
A5BE
  8
01
 10
-83.092623904499305
 20
-2227.1287737794919
 30
0.0
 11
-82.522288171074933
 21
-2226.5584380460691
 31
0.0
1001
ACAD
1010
0.0
1020
0.0
1030
0.0
  0
LINE
  5
A5BF
  8
01
 10
-107.9021531977764
 20
-2258.6734951635722
 30
0.0
 11
-81.42222046595225
 21
-2232.1935624317471
 31
0.0
1001
ACAD
1010
0.0
1020
0.0
1030
0.0
  0
LINE
  5
A5C0
  8
01
 10
-71.407048023253537
 20
-2222.1783899890488
 30
0.0
 11
-70.240053787298621
 21
-2221.0113957530939
 31
0.0
1001
ACAD
1010
0.0
1020
0.0
1030
0.0
  0
LINE
  5
A5C1
  8
01
 10
-79.371717005042683
 20
-2230.143058970838
 30
0.0
 11
-78.371717005042683
 21
-2229.143058970838
 31
0.0
1001
ACAD
1010
0.0
1020
0.0
1030
0.0
  0
LINE
  5
A5C2
  8
01
 10
-74.871717005042683
 20
-2225.643058970838
 30
0.0
 11
-72.319521497655614
 21
-2223.0908634634502
 31
0.0
1001
ACAD
1010
0.0
1020
0.0
1030
0.0
  0
LINE
  5
A5C3
  8
01
 10
-76.871717005042683
 20
-2227.643058970838
 30
0.0
 11
-76.560198487115485
 21
-2227.3315404529098
 31
0.0
1001
ACAD
1010
0.0
1020
0.0
1030
0.0
  0
LINE
  5
A5C4
  8
01
 10
-107.9021531977764
 20
-2265.408687254373
 30
0.0
 11
-104.752233221013
 21
-2262.2587672776099
 31
0.0
1001
ACAD
1010
0.0
1020
0.0
1030
0.0
  0
LINE
  5
A5C5
  8
01
 10
-76.871717005042456
 20
-2234.3782510616388
 30
0.0
 11
-63.504861696496839
 21
-2221.0113957530939
 31
0.0
1001
ACAD
1010
0.0
1020
0.0
1030
0.0
  0
LINE
  5
A5C6
  8
01
 10
-103.7504038931727
 20
-2261.25693794977
 30
0.0
 11
-82.871717005042683
 21
-2240.3782510616388
 31
0.0
1001
ACAD
1010
0.0
1020
0.0
1030
0.0
  0
LINE
  5
A5C7
  8
01
 10
-79.371717005042683
 20
-2236.8782510616388
 30
0.0
 11
-78.371717005042683
 21
-2235.8782510616388
 31
0.0
1001
ACAD
1010
0.0
1020
0.0
1030
0.0
  0
LINE
  5
A5C8
  8
01
 10
-82.004861696496391
 20
-2239.511395753093
 30
0.0
 11
-80.871717005042683
 21
-2238.3782510616388
 31
0.0
1001
ACAD
1010
0.0
1020
0.0
1030
0.0
  0
LINE
  5
A5C9
  8
01
 10
-104.19061962163519
 20
-2268.4323457690339
 30
0.0
 11
-102.2152118023707
 21
-2266.4569379497698
 31
0.0
1001
ACAD
1010
0.0
1020
0.0
1030
0.0
  0
LINE
  5
A5CA
  8
01
 10
-75.269669605694617
 20
-2239.5113957530939
 30
0.0
 11
-56.769669605695292
 21
-2221.0113957530948
 31
0.0
1001
ACAD
1010
0.0
1020
0.0
1030
0.0
  0
LINE
  5
A5CB
  8
01
 10
-97.015211802370914
 20
-2261.25693794977
 30
0.0
 11
-82.711797348956907
 21
-2246.953523496356
 31
0.0
1001
ACAD
1010
0.0
1020
0.0
1030
0.0
  0
LINE
  5
A5CC
  8
01
 10
-79.371717005042683
 20
-2243.613443152442
 30
0.0
 11
-78.37171700504291
 21
-2242.6134431524411
 31
0.0
1001
ACAD
1010
0.0
1020
0.0
1030
0.0
  0
LINE
  5
A5CD
  8
01
 10
-97.455427530833504
 20
-2268.4323457690339
 30
0.0
 11
-95.480019711568957
 21
-2266.4569379497698
 31
0.0
1001
ACAD
1010
0.0
1020
0.0
1030
0.0
  0
LINE
  5
A5CE
  8
01
 10
-57.552244582879212
 20
-2228.5291628210798
 30
0.0
 11
-50.034477514893517
 21
-2221.0113957530939
 31
0.0
1001
ACAD
1010
0.0
1020
0.0
1030
0.0
  0
LINE
  5
A5CF
  8
01
 10
-90.280019711569139
 20
-2261.25693794977
 30
0.0
 11
-82.913383671709198
 21
-2253.8903019099098
 31
0.0
1001
ACAD
1010
0.0
1020
0.0
1030
0.0
  0
LINE
  5
A5D0
  8
01
 10
-74.871717005042456
 20
-2245.8486352432428
 30
0.0
 11
-62.802244582879439
 21
-2233.7791628210798
 31
0.0
1001
ACAD
1010
0.0
1020
0.0
1030
0.0
  0
LINE
  5
A5D1
  8
01
 10
-81.75962287513812
 20
-2252.7365411133392
 30
0.0
 11
-78.034477514892615
 21
-2249.011395753093
 31
0.0
1001
ACAD
1010
0.0
1020
0.0
1030
0.0
  0
LINE
  5
A5D2
  8
01
 10
-90.720235440031715
 20
-2268.4323457690339
 30
0.0
 11
-88.744827620767182
 21
-2266.4569379497698
 31
0.0
1001
ACAD
1010
0.0
1020
0.0
1030
0.0
  0
LINE
  5
A5D3
  8
01
 10
-75.024430784336346
 20
-2252.7365411133392
 30
0.0
 11
-48.726638109593978
 21
-2226.4387484385961
 31
0.0
1001
ACAD
1010
0.0
1020
0.0
1030
0.0
  0
LINE
  5
A5D4
  8
01
 10
-83.544827620767364
 20
-2261.25693794977
 30
0.0
 11
-80.274430784336346
 21
-2257.9865411133392
 31
0.0
1001
ACAD
1010
0.0
1020
0.0
1030
0.0
  0
LINE
  5
A5D5
  8
01
 10
-83.9850433492295
 20
-2268.4323457690339
 30
0.0
 11
-82.009635529965166
 21
-2266.4569379497698
 31
0.0
1001
ACAD
1010
0.0
1020
0.0
1030
0.0
  0
LINE
  5
A5D6
  8
01
 10
-76.809635529965362
 20
-2261.25693794977
 30
0.0
 11
-48.72663810959375
 21
-2233.1739405293988
 31
0.0
1001
ACAD
1010
0.0
1020
0.0
1030
0.0
  0
LINE
  5
A5D7
  8
01
 10
-77.249851258427725
 20
-2268.4323457690339
 30
0.0
 11
-48.726638109593523
 21
-2239.9091326202001
 31
0.0
1001
ACAD
1010
0.0
1020
0.0
1030
0.0
  0
LINE
  5
A5D8
  8
01
 10
-70.51465916762595
 20
-2268.4323457690339
 30
0.0
 11
-48.72663810959375
 21
-2246.6443247110019
 31
0.0
1001
ACAD
1010
0.0
1020
0.0
1030
0.0
  0
LINE
  5
A5D9
  8
01
 10
-63.779467076824183
 20
-2268.4323457690339
 30
0.0
 11
-48.726638109593523
 21
-2253.3795168018041
 31
0.0
1001
ACAD
1010
0.0
1020
0.0
1030
0.0
  0
LINE
  5
A5DA
  8
01
 10
-57.044274986022401
 20
-2268.4323457690339
 30
0.0
 11
-48.726638109593978
 21
-2260.1147088926059
 31
0.0
1001
ACAD
1010
0.0
1020
0.0
1030
0.0
  0
LINE
  5
A5DB
  8
01
 10
-50.309082895220172
 20
-2268.4323457690339
 30
0.0
 11
-48.72663810959375
 21
-2266.8499009834072
 31
0.0
1001
ACAD
1010
0.0
1020
0.0
1030
0.0
  0
SOLID
  5
A5DC
  8
01
 10
-110.8830305460634
 20
-2218.7462616267362
 30
0.0
 11
-109.3308702192663
 21
-2217.4416891178171
 31
0.0
 12
-110.3760253903709
 22
-2219.1791475430532
 32
0.0
 13
-110.3760253903709
 23
-2219.1791475430532
 33
0.0
  0
LINE
  5
A5DE
  8
01
 10
-183.70347094849029
 20
-2210.9962902798511
 30
0.0
 11
-181.718576421732
 21
-2209.011395753093
 31
0.0
1001
ACAD
1010
0.0
1020
0.0
1030
0.0
  0
LINE
  5
A5DF
  8
01
 10
-183.70347094849049
 20
-2213.2413543101188
 30
0.0
 11
-179.47351239146471
 21
-2209.011395753093
 31
0.0
1001
ACAD
1010
0.0
1020
0.0
1030
0.0
  0
LINE
  5
A5E0
  8
01
 10
-183.70347094849049
 20
-2215.4864183403861
 30
0.0
 11
-177.22844836119751
 21
-2209.011395753093
 31
0.0
1001
ACAD
1010
0.0
1020
0.0
1030
0.0
  0
LINE
  5
A5E1
  8
01
 10
-183.70347094849041
 20
-2217.7314823706538
 30
0.0
 11
-174.98338433093011
 21
-2209.011395753093
 31
0.0
1001
ACAD
1010
0.0
1020
0.0
1030
0.0
  0
LINE
  5
A5E2
  8
01
 10
-183.70347094849041
 20
-2219.9765464009211
 30
0.0
 11
-172.73832030066279
 21
-2209.011395753093
 31
0.0
1001
ACAD
1010
0.0
1020
0.0
1030
0.0
  0
LINE
  5
A5E3
  8
01
 10
-182.49325627039619
 20
-2221.0113957530939
 30
0.0
 11
-170.49325627039559
 21
-2209.011395753093
 31
0.0
1001
ACAD
1010
0.0
1020
0.0
1030
0.0
  0
LINE
  5
A5E4
  8
01
 10
-180.24819224012921
 20
-2221.0113957530939
 30
0.0
 11
-168.2481922401283
 21
-2209.011395753093
 31
0.0
1001
ACAD
1010
0.0
1020
0.0
1030
0.0
  0
LINE
  5
A5E5
  8
01
 10
-178.0031282098617
 20
-2221.0113957530939
 30
0.0
 11
-166.00312820986099
 21
-2209.011395753093
 31
0.0
1001
ACAD
1010
0.0
1020
0.0
1030
0.0
  0
LINE
  5
A5E6
  8
01
 10
-175.7580641795945
 20
-2221.0113957530939
 30
0.0
 11
-163.75806417959379
 21
-2209.011395753093
 31
0.0
1001
ACAD
1010
0.0
1020
0.0
1030
0.0
  0
LINE
  5
A5E7
  8
01
 10
-173.51300014932721
 20
-2221.0113957530939
 30
0.0
 11
-161.51300014932681
 21
-2209.0113957530939
 31
0.0
1001
ACAD
1010
0.0
1020
0.0
1030
0.0
  0
LINE
  5
A5E8
  8
01
 10
-171.2679361190599
 20
-2221.0113957530939
 30
0.0
 11
-159.26793611905941
 21
-2209.0113957530939
 31
0.0
1001
ACAD
1010
0.0
1020
0.0
1030
0.0
  0
LINE
  5
A5E9
  8
01
 10
-169.02287208879261
 20
-2221.0113957530939
 30
0.0
 11
-157.0228720887921
 21
-2209.0113957530939
 31
0.0
1001
ACAD
1010
0.0
1020
0.0
1030
0.0
  0
LINE
  5
A5EA
  8
01
 10
-166.7778080585253
 20
-2221.0113957530939
 30
0.0
 11
-155.14461009172459
 21
-2209.3781977862932
 31
0.0
1001
ACAD
1010
0.0
1020
0.0
1030
0.0
  0
LINE
  5
A5EB
  8
01
 10
-164.53274402825809
 20
-2221.0113957530939
 30
0.0
 11
-154.02207807659079
 21
-2210.500729801427
 31
0.0
1001
ACAD
1010
0.0
1020
0.0
1030
0.0
  0
LINE
  5
A5EC
  8
01
 10
-162.28767999799081
 20
-2221.0113957530939
 30
0.0
 11
-154.40022464259499
 21
-2213.1239403976979
 31
0.0
1001
ACAD
1010
0.0
1020
0.0
1030
0.0
  0
LINE
  5
A5ED
  8
01
 10
-154.3318017908623
 20
-2213.0555175459649
 30
0.0
 11
-153.761412124923
 21
-2212.4851278800261
 31
0.0
1001
ACAD
1010
0.0
1020
0.0
1030
0.0
  0
LINE
  5
A5EE
  8
01
 10
-160.04261596772361
 20
-2221.0113957530939
 30
0.0
 11
-154.19600501335299
 21
-2215.1647847987228
 31
0.0
1001
ACAD
1010
0.0
1020
0.0
1030
0.0
  0
LINE
  5
A5EF
  8
01
 10
-154.0019089372617
 20
-2214.9706887226321
 30
0.0
 11
-153.761412124923
 21
-2214.7301919102929
 31
0.0
1001
ACAD
1010
0.0
1020
0.0
1030
0.0
  0
LINE
  5
A5F0
  8
01
 10
-157.79755193745609
 20
-2221.0113957530939
 30
0.0
 11
-153.99178538411161
 21
-2217.2056291997492
 31
0.0
1001
ACAD
1010
0.0
1020
0.0
1030
0.0
  0
LINE
  5
A5F1
  8
01
 10
-149.26141212492351
 20
-2212.4752559405611
 30
0.0
 11
-145.79755193745629
 21
-2209.0113957530939
 31
0.0
1001
ACAD
1010
0.0
1020
0.0
1030
0.0
  0
LINE
  5
A5F2
  8
01
 10
-155.552487907189
 20
-2221.0113957530939
 30
0.0
 11
-153.78756575486969
 21
-2219.2464736007751
 31
0.0
1001
ACAD
1010
0.0
1020
0.0
1030
0.0
  0
LINE
  5
A5F3
  8
01
 10
-149.2614121249232
 20
-2214.7203199708279
 30
0.0
 11
-143.552487907189
 21
-2209.0113957530939
 31
0.0
1001
ACAD
1010
0.0
1020
0.0
1030
0.0
  0
LINE
  5
A5F4
  8
01
 10
-149.26141212492351
 20
-2216.9653840010951
 30
0.0
 11
-141.3074238769218
 21
-2209.0113957530939
 31
0.0
1001
ACAD
1010
0.0
1020
0.0
1030
0.0
  0
LINE
  5
A5F5
  8
01
 10
-149.2614121249232
 20
-2219.2104480313628
 30
0.0
 11
-139.06235984665449
 21
-2209.0113957530939
 31
0.0
1001
ACAD
1010
0.0
1020
0.0
1030
0.0
  0
LINE
  5
A5F6
  8
01
 10
-148.817295816387
 20
-2221.0113957530939
 30
0.0
 11
-136.81729581638729
 21
-2209.0113957530939
 31
0.0
1001
ACAD
1010
0.0
1020
0.0
1030
0.0
  0
LINE
  5
A5F7
  8
01
 10
-146.5722317861198
 20
-2221.0113957530939
 30
0.0
 11
-134.5722317861198
 21
-2209.0113957530939
 31
0.0
1001
ACAD
1010
0.0
1020
0.0
1030
0.0
  0
LINE
  5
A5F8
  8
01
 10
-144.32716775585229
 20
-2221.0113957530939
 30
0.0
 11
-132.32716775585251
 21
-2209.0113957530939
 31
0.0
1001
ACAD
1010
0.0
1020
0.0
1030
0.0
  0
LINE
  5
A5F9
  8
01
 10
-142.082103725585
 20
-2221.0113957530939
 30
0.0
 11
-130.082103725585
 21
-2209.0113957530939
 31
0.0
1001
ACAD
1010
0.0
1020
0.0
1030
0.0
  0
LINE
  5
A5FA
  8
01
 10
-139.8370396953178
 20
-2221.0113957530939
 30
0.0
 11
-127.837039695318
 21
-2209.0113957530939
 31
0.0
1001
ACAD
1010
0.0
1020
0.0
1030
0.0
  0
LINE
  5
A5FB
  8
01
 10
-137.59197566505031
 20
-2221.0113957530939
 30
0.0
 11
-125.5919756650505
 21
-2209.0113957530939
 31
0.0
1001
ACAD
1010
0.0
1020
0.0
1030
0.0
  0
LINE
  5
A5FC
  8
01
 10
-135.346911634783
 20
-2221.0113957530939
 30
0.0
 11
-124.5069708715657
 21
-2210.1714549898761
 31
0.0
1001
ACAD
1010
0.0
1020
0.0
1030
0.0
  0
LINE
  5
A5FD
  8
01
 10
-133.1018476045158
 20
-2221.0113957530939
 30
0.0
 11
-124.5069708715657
 21
-2212.4165190201438
 31
0.0
1001
ACAD
1010
0.0
1020
0.0
1030
0.0
  0
LINE
  5
A5FE
  8
01
 10
-130.85678357424831
 20
-2221.0113957530939
 30
0.0
 11
-124.5069708715657
 21
-2214.6615830504111
 31
0.0
1001
ACAD
1010
0.0
1020
0.0
1030
0.0
  0
LINE
  5
A5FF
  8
01
 10
-128.611719543981
 20
-2221.0113957530939
 30
0.0
 11
-124.5069708715659
 21
-2216.9066470806779
 31
0.0
1001
ACAD
1010
0.0
1020
0.0
1030
0.0
  0
LINE
  5
A600
  8
01
 10
-126.36665551371379
 20
-2221.0113957530939
 30
0.0
 11
-124.5069708715659
 21
-2219.1517111109461
 31
0.0
1001
ACAD
1010
0.0
1020
0.0
1030
0.0
  0
LINE
  5
A601
  8
01
 10
-107.9021531977764
 20
-2209.2820855279579
 30
0.0
 11
-107.6314634229124
 21
-2209.0113957530939
 31
0.0
1001
ACAD
1010
0.0
1020
0.0
1030
0.0
  0
LINE
  5
A602
  8
01
 10
-107.9021531977766
 20
-2211.527149558226
 30
0.0
 11
-105.386399392645
 21
-2209.0113957530939
 31
0.0
1001
ACAD
1010
0.0
1020
0.0
1030
0.0
  0
LINE
  5
A603
  8
01
 10
-107.9021531977766
 20
-2213.7722135884928
 30
0.0
 11
-103.1413353623775
 21
-2209.0113957530939
 31
0.0
1001
ACAD
1010
0.0
1020
0.0
1030
0.0
  0
LINE
  5
A604
  8
01
 10
-107.9021531977766
 20
-2216.0172776187601
 30
0.0
 11
-100.89627133211
 21
-2209.011395753093
 31
0.0
1001
ACAD
1010
0.0
1020
0.0
1030
0.0
  0
LINE
  5
A605
  8
01
 10
-107.9021531977764
 20
-2218.2623416490269
 30
0.0
 11
-98.651207301842305
 21
-2209.011395753093
 31
0.0
1001
ACAD
1010
0.0
1020
0.0
1030
0.0
  0
LINE
  5
A606
  8
01
 10
-107.9021531977764
 20
-2220.5074056792951
 30
0.0
 11
-96.406143271575047
 21
-2209.011395753093
 31
0.0
1001
ACAD
1010
0.0
1020
0.0
1030
0.0
  0
LINE
  5
A607
  8
01
 10
-106.1610792413084
 20
-2221.0113957530939
 30
0.0
 11
-94.161079241307789
 21
-2209.011395753093
 31
0.0
1001
ACAD
1010
0.0
1020
0.0
1030
0.0
  0
LINE
  5
A608
  8
01
 10
-103.9160152110412
 20
-2221.0113957530939
 30
0.0
 11
-91.916015211040516
 21
-2209.011395753093
 31
0.0
1001
ACAD
1010
0.0
1020
0.0
1030
0.0
  0
LINE
  5
A609
  8
01
 10
-101.6709511807739
 20
-2221.0113957530939
 30
0.0
 11
-89.670951180773514
 21
-2209.0113957530939
 31
0.0
1001
ACAD
1010
0.0
1020
0.0
1030
0.0
  0
LINE
  5
A60A
  8
01
 10
-99.425887150506696
 20
-2221.0113957530939
 30
0.0
 11
-87.425887150506014
 21
-2209.0113957530939
 31
0.0
1001
ACAD
1010
0.0
1020
0.0
1030
0.0
  0
LINE
  5
A60B
  8
01
 10
-97.180823120239452
 20
-2221.0113957530939
 30
0.0
 11
-85.180823120238969
 21
-2209.0113957530939
 31
0.0
1001
ACAD
1010
0.0
1020
0.0
1030
0.0
  0
LINE
  5
A60C
  8
01
 10
-94.935759089971953
 20
-2221.0113957530939
 30
0.0
 11
-83.738008731461136
 21
-2209.8136453945831
 31
0.0
1001
ACAD
1010
0.0
1020
0.0
1030
0.0
  0
LINE
  5
A60D
  8
01
 10
-92.690695059704922
 20
-2221.0113957530939
 30
0.0
 11
-83.417285298565716
 21
-2211.7379859919552
 31
0.0
1001
ACAD
1010
0.0
1020
0.0
1030
0.0
  0
LINE
  5
A60E
  8
01
 10
-90.445631029437436
 20
-2221.0113957530939
 30
0.0
 11
-83.096561865670523
 21
-2213.6623265893272
 31
0.0
1001
ACAD
1010
0.0
1020
0.0
1030
0.0
  0
LINE
  5
A60F
  8
01
 10
-88.200566999170405
 20
-2221.0113957530939
 30
0.0
 11
-82.871717005042683
 21
-2215.6825457589662
 31
0.0
1001
ACAD
1010
0.0
1020
0.0
1030
0.0
  0
LINE
  5
A610
  8
01
 10
-85.955502968902934
 20
-2221.0113957530939
 30
0.0
 11
-82.871717005042683
 21
-2217.927609789233
 31
0.0
1001
ACAD
1010
0.0
1020
0.0
1030
0.0
  0
LINE
  5
A611
  8
01
 10
-83.710438938635662
 20
-2221.0113957530939
 30
0.0
 11
-82.871717005042683
 21
-2220.1726738195011
 31
0.0
1001
ACAD
1010
0.0
1020
0.0
1030
0.0
  0
LINE
  5
A612
  8
01
 10
-74.303972618324224
 20
-2211.6049294327818
 30
0.0
 11
-71.710438938635889
 21
-2209.0113957530939
 31
0.0
1001
ACAD
1010
0.0
1020
0.0
1030
0.0
  0
LINE
  5
A613
  8
01
 10
-74.752985424377584
 20
-2214.2990062691028
 30
0.0
 11
-69.465374908368631
 21
-2209.0113957530939
 31
0.0
1001
ACAD
1010
0.0
1020
0.0
1030
0.0
  0
LINE
  5
A614
  8
01
 10
-74.871717005042683
 20
-2216.6628018800352
 30
0.0
 11
-67.220310878101145
 21
-2209.0113957530939
 31
0.0
1001
ACAD
1010
0.0
1020
0.0
1030
0.0
  0
LINE
  5
A615
  8
01
 10
-74.871717005042683
 20
-2218.9078659103029
 30
0.0
 11
-64.975246847834114
 21
-2209.0113957530939
 31
0.0
1001
ACAD
1010
0.0
1020
0.0
1030
0.0
  0
LINE
  5
A616
  8
01
 10
-74.730182817566401
 20
-2221.0113957530939
 30
0.0
 11
-62.730182817566401
 21
-2209.0113957530939
 31
0.0
1001
ACAD
1010
0.0
1020
0.0
1030
0.0
  0
LINE
  5
A617
  8
01
 10
-72.485118787299143
 20
-2221.0113957530939
 30
0.0
 11
-60.485118787299371
 21
-2209.0113957530939
 31
0.0
1001
ACAD
1010
0.0
1020
0.0
1030
0.0
  0
LINE
  5
A618
  8
01
 10
-70.240054757031885
 20
-2221.0113957530939
 30
0.0
 11
-58.240054757031878
 21
-2209.0113957530939
 31
0.0
1001
ACAD
1010
0.0
1020
0.0
1030
0.0
  0
LINE
  5
A619
  8
01
 10
-67.994990726764627
 20
-2221.0113957530939
 30
0.0
 11
-55.994990726764847
 21
-2209.0113957530939
 31
0.0
1001
ACAD
1010
0.0
1020
0.0
1030
0.0
  0
LINE
  5
A61A
  8
01
 10
-65.749926696497369
 20
-2221.0113957530939
 30
0.0
 11
-53.749926696497369
 21
-2209.0113957530939
 31
0.0
1001
ACAD
1010
0.0
1020
0.0
1030
0.0
  0
LINE
  5
A61B
  8
01
 10
-63.50486266623011
 20
-2221.0113957530939
 30
0.0
 11
-51.50486266623011
 21
-2209.0113957530939
 31
0.0
1001
ACAD
1010
0.0
1020
0.0
1030
0.0
  0
LINE
  5
A61C
  8
01
 10
-61.259798635962852
 20
-2221.0113957530939
 30
0.0
 11
-49.259798635962852
 21
-2209.0113957530939
 31
0.0
1001
ACAD
1010
0.0
1020
0.0
1030
0.0
  0
LINE
  5
A61D
  8
01
 10
-59.014734605695587
 20
-2221.0113957530939
 30
0.0
 11
-48.726638109593523
 21
-2210.723299256992
 31
0.0
1001
ACAD
1010
0.0
1020
0.0
1030
0.0
  0
LINE
  5
A61E
  8
01
 10
-56.769670575428329
 20
-2221.0113957530939
 30
0.0
 11
-48.72663810959375
 21
-2212.9683632872589
 31
0.0
1001
ACAD
1010
0.0
1020
0.0
1030
0.0
  0
LINE
  5
A61F
  8
01
 10
-54.524606545161078
 20
-2221.0113957530939
 30
0.0
 11
-48.72663810959375
 21
-2215.213427317527
 31
0.0
1001
ACAD
1010
0.0
1020
0.0
1030
0.0
  0
LINE
  5
A620
  8
01
 10
-52.279542514893592
 20
-2221.0113957530939
 30
0.0
 11
-48.72663810959375
 21
-2217.4584913477938
 31
0.0
1001
ACAD
1010
0.0
1020
0.0
1030
0.0
  0
LINE
  5
A621
  8
01
 10
-50.034478484626561
 20
-2221.0113957530939
 30
0.0
 11
-48.72663810959375
 21
-2219.7035553780611
 31
0.0
1001
ACAD
1010
0.0
1020
0.0
1030
0.0
  0
TEXT
  5
A622
  8
01
 10
-165.8516716298974
 20
-2241.5178598712059
 30
0.0
 40
3.5
  1
フローリング床材
  0
SOLID
  5
A623
  8
01
 10
-135.3903930614307
 20
-2223.034247677399
 30
0.0
 11
-135.5288892832057
 21
-2221.0113957530939
 31
0.0
 12
-134.7418192601304
 22
-2222.8799866365912
 32
0.0
 13
-134.7418192601304
 23
-2222.8799866365912
 33
0.0
  0
LINE
  5
A625
  8
01
 10
-48.726638109593701
 20
-2209.0113957530939
 30
0.0
 11
-58.727244582879798
 21
-2209.0113957530939
 31
0.0
  0
LINE
  5
A626
  8
01
 10
-75.583041870447744
 20
-2249.011395753093
 30
0.0
 11
-56.727244582879813
 21
-2249.011395753093
 31
0.0
  0
LINE
  5
A627
  8
01
 10
-57.727244582879813
 20
-2211.011395753093
 30
0.0
 11
-57.727244582879813
 21
-2247.011395753093
 31
0.0
  0
LINE
  5
A62B
  8
01
 10
-82.871717005042726
 20
-2246.3566952147139
 30
0.0
 11
-82.871717005042726
 21
-2258.811541113339
 31
0.0
  0
LINE
  5
A62C
  8
01
 10
-74.87171700504274
 20
-2246.3566952147139
 30
0.0
 11
-74.87171700504274
 21
-2258.811541113339
 31
0.0
  0
LINE
  5
A62D
  8
01
 10
-80.87171700504274
 20
-2257.811541113339
 30
0.0
 11
-76.87171700504274
 21
-2257.811541113339
 31
0.0
  0
TEXT
  5
A631
  8
01
 10
-99.802907019112098
 20
-2168.5503533676329
 30
0.0
 40
3.5
  1
コンクリート用樹脂プラグ
  0
TEXT
  5
A632
  8
01
 10
-100.0362403524454
 20
-2174.3836867009668
 30
0.0
 40
3.5
  1
\U+03C68-40（ネジ\U+03C66-45）
  0
TEXT
  5
A633
  8
01
 10
-99.502907019112101
 20
-2180.2170200342998
 30
0.0
 40
3.5
  1
AC-0645P（オプション）
  0
SOLID
  5
A634
  8
01
 10
-83.838086098657655
 20
-2203.7289138075948
 30
0.0
 11
-82.871717005042726
 21
-2205.5113957530912
 31
0.0
 12
-84.363952184028307
 22
-2204.1386811863622
 32
0.0
 13
-84.363952184028307
 23
-2204.1386811863622
 33
0.0
1001
ACAD
1000
DSTYLE
1002
{
1070
    79
1070
     2
1070
   179
1070
     2
1070
   272
1070
     2
1070
   341
1005
0
1002
}
  0
LINE
  5
A636
  8
01
 10
-69.397541579179403
 20
-2201.5113957530971
 30
0.0
 11
-56.727244582879052
 21
-2201.5113957530971
 31
0.0
  0
LINE
  5
A637
  8
01
 10
-57.727244582879052
 20
-2207.0113957530939
 30
0.0
 11
-57.727244582879052
 21
-2203.511395753098
 31
0.0
  0
LINE
  5
A638
  8
01
 10
-57.727244582879052
 20
-2201.5113957530971
 30
0.0
 11
-57.727244582879038
 21
-2190.7780624197649
 31
0.0
  0
TEXT
  5
A63C
  8
01
 10
-215.37039838881421
 20
-2130.9785932714472
 30
0.0
 40
3.5
  1
材質：エラストマー
  0
TEXT
  5
A63D
  8
01
 10
-215.37039838881421
 20
-2136.8119266047811
 30
0.0
 40
3.5
  1
仕上げ：ブラック
  0
SOLID
  5
A63E
  8
01
 10
-161.1389229197919
 20
-2149.9630957749191
 30
0.0
 11
-159.83254820190751
 21
-2151.5137395791448
 31
0.0
 12
-161.5712195742498
 22
-2150.4706034566229
 32
0.0
 13
-161.5712195742498
 23
-2150.4706034566229
 33
0.0
  0
TEXT
  5
A640
  8
01
 10
-225.09842574234881
 20
-2115.6509687225398
 30
0.0
 40
3.5
  1
材質：亜鉛ダイキャスト
  0
TEXT
  5
A641
  8
01
 10
-225.09842574234881
 20
-2121.4843020558742
 30
0.0
 40
3.5
  1
仕上げ：各種メッキ
  0
SOLID
  5
A642
  8
01
 10
-162.53787021656501
 20
-2139.5220776245892
 30
0.0
 11
-161.48972001080429
 21
-2141.2577308898681
 31
0.0
 12
-163.0441280212091
 22
-2139.955837327283
 32
0.0
 13
-163.0441280212091
 23
-2139.955837327283
 33
0.0
  0
TEXT
  5
A644
  8
01
 10
-238.41789284656511
 20
-2185.5426338399661
 30
0.0
 40
3.5
  1
材質：ポリアセタール
  0
TEXT
  5
A645
  8
01
 10
-238.41789284656511
 20
-2191.3759671732992
 30
0.0
 40
3.5
  1
仕上げ：ブラック
  0
SOLID
  5
A646
  8
01
 10
-253.19068708642669
 20
-2201.1191673895592
 30
0.0
 11
-255.011412122894
 21
-2202.0113957530912
 31
0.0
 12
-253.57847601711109
 22
-2200.5768905325158
 32
0.0
 13
-253.57847601711109
 23
-2200.5768905325158
 33
0.0
  0
TEXT
  5
A648
  8
01
 10
-233.469373058016
 20
-2166.654633585762
 30
0.0
 40
3.5
  1
材質：亜鉛ダイキャスト
  0
TEXT
  5
A649
  8
01
 10
-233.469373058016
 20
-2172.4879669190959
 30
0.0
 40
3.5
  1
仕上げ：各種メッキ
  0
SOLID
  5
A64A
  8
01
 10
-250.95700411248899
 20
-2190.9595021905052
 30
0.0
 11
-252.5114121228938
 21
-2192.2613957530898
 31
0.0
 12
-251.46326191713311
 22
-2190.5257424878109
 32
0.0
 13
-251.46326191713311
 23
-2190.5257424878109
 33
0.0
  0
TEXT
  5
A64C
  8
01
 10
-235.52905191968159
 20
-2150.5560762368382
 30
0.0
 40
3.5
  1
材質：亜鉛ダイキャスト
  0
TEXT
  5
A64D
  8
01
 10
-235.52905191968159
 20
-2156.3894095701721
 30
0.0
 40
3.5
  1
仕上げ：各種メッキ
  0
SOLID
  5
A64E
  8
01
 10
-249.54077514790751
 20
-2181.1423971470372
 30
0.0
 11
-250.7614121228942
 21
-2182.7613957530912
 31
0.0
 12
-250.1318361539245
 22
-2180.8340283230441
 32
0.0
 13
-250.1318361539245
 23
-2180.8340283230441
 33
0.0
  0
LINE
  5
A650
  8
01
 10
-133.5114121249234
 20
-2156.2105915184611
 30
0.0
 11
-133.5114121249234
 21
-2186.4605915185621
 31
0.0
  0
LINE
  5
A651
  8
01
 10
-169.51141212492271
 20
-2156.2105915184611
 30
0.0
 11
-169.51141212492271
 21
-2186.4605915185621
 31
0.0
  0
LINE
  5
A652
  8
01
 10
-135.5114121249234
 20
-2185.4605915185621
 30
0.0
 11
-167.51141212492271
 21
-2185.4605915185621
 31
0.0
  0
LINE
  5
A656
  8
01
 10
-169.5114121249228
 20
-2209.0113957530939
 30
0.0
 11
-190.5114121249228
 21
-2209.0113957530939
 31
0.0
  0
LINE
  5
A657
  8
01
 10
-161.7886649327227
 20
-2201.511395753098
 30
0.0
 11
-190.5114121249228
 21
-2201.511395753098
 31
0.0
  0
LINE
  5
A658
  8
01
 10
-189.5114121249228
 20
-2207.0113957530939
 30
0.0
 11
-189.5114121249228
 21
-2203.511395753098
 31
0.0
  0
LINE
  5
A659
  8
01
 10
-189.5114121249228
 20
-2201.511395753098
 30
0.0
 11
-189.5114121249228
 21
-2190.7780624197649
 31
0.0
  0
LINE
  5
A65D
  8
01
 10
-151.5114121249232
 20
-2234.1477826751911
 30
0.0
 11
-151.5114121249232
 21
-2203.874181741171
 31
0.0
  0
LINE
  5
A65E
  8
01
  6
BYBLOCK
 10
-149.2614121249232
 20
-2223.661390517726
 30
0.0
 11
-149.2614121249232
 21
-2210.7613957530939
 31
0.0
  0
LINE
  5
A65F
  8
01
  6
BYBLOCK
 10
-153.76141212492331
 20
-2223.661390517726
 30
0.0
 11
-153.7614121249232
 21
-2210.7613957530939
 31
0.0
  0
LINE
  5
A660
  8
01
 10
-157.5114121249232
 20
-2207.0113957530939
 30
0.0
 11
-145.5114121249232
 21
-2207.0113957530939
 31
0.0
  0
LINE
  5
A661
  8
01
 10
-157.5114121249232
 20
-2207.0113957530939
 30
0.0
 11
-153.7614121249232
 21
-2210.7613957530939
 31
0.0
  0
LINE
  5
A662
  8
01
 10
-157.5114121249232
 20
-2207.0113957530939
 30
0.0
 11
-157.51141212492311
 21
-2206.6113957530938
 31
0.0
  0
LINE
  5
A663
  8
01
 10
-157.51141212492311
 20
-2206.6113957530938
 30
0.0
 11
-145.5114121249232
 21
-2206.6113957530938
 31
0.0
  0
LINE
  5
A664
  8
01
 10
-145.5114121249232
 20
-2207.0113957530939
 30
0.0
 11
-145.5114121249232
 21
-2206.6113957530938
 31
0.0
  0
LINE
  5
A665
  8
01
 10
-145.5114121249232
 20
-2207.0113957530939
 30
0.0
 11
-149.2614121249232
 21
-2210.7613957530939
 31
0.0
  0
LINE
  5
A666
  8
01
  6
BYBLOCK
 10
-148.51141212492311
 20
-2211.558859460431
 30
0.0
 11
-154.51141212492311
 21
-2213.101702642522
 31
0.0
  0
LINE
  5
A667
  8
01
  6
BYBLOCK
 10
-153.76141212492331
 20
-2223.661390517726
 30
0.0
 11
-151.5114121249232
 21
-2231.6113957530938
 31
0.0
  0
LINE
  5
A668
  8
01
  6
BYBLOCK
 10
-149.2614121249232
 20
-2223.661390517726
 30
0.0
 11
-151.5114121249232
 21
-2231.6113957530938
 31
0.0
  0
LINE
  5
A669
  8
01
  6
BYBLOCK
 10
-154.51141212492311
 20
-2213.101702642522
 30
0.0
 11
-153.7614121249232
 21
-2213.2517043876178
 31
0.0
  0
LINE
  5
A66A
  8
01
  6
BYBLOCK
 10
-149.2614121249232
 20
-2211.4088577153361
 30
0.0
 11
-148.51141212492311
 21
-2211.558859460431
 31
0.0
  0
LINE
  5
A66B
  8
01
  6
BYBLOCK
 10
-148.51141212492311
 20
-2213.5588594604319
 30
0.0
 11
-154.51141212492311
 21
-2215.101702642522
 31
0.0
  0
LINE
  5
A66C
  8
01
  6
BYBLOCK
 10
-154.51141212492311
 20
-2215.101702642522
 30
0.0
 11
-153.7614121249232
 21
-2215.2517043876178
 31
0.0
  0
LINE
  5
A66D
  8
01
  6
BYBLOCK
 10
-149.2614121249232
 20
-2213.4088577153361
 30
0.0
 11
-148.51141212492311
 21
-2213.5588594604319
 31
0.0
  0
LINE
  5
A66E
  8
01
  6
BYBLOCK
 10
-148.51141212492311
 20
-2215.558859460431
 30
0.0
 11
-154.51141212492311
 21
-2217.101702642522
 31
0.0
  0
LINE
  5
A66F
  8
01
  6
BYBLOCK
 10
-154.51141212492311
 20
-2217.101702642522
 30
0.0
 11
-153.7614121249232
 21
-2217.2517043876178
 31
0.0
  0
LINE
  5
A670
  8
01
  6
BYBLOCK
 10
-149.2614121249232
 20
-2215.4088577153361
 30
0.0
 11
-148.51141212492311
 21
-2215.558859460431
 31
0.0
  0
LINE
  5
A671
  8
01
  6
BYBLOCK
 10
-148.51141212492311
 20
-2217.5588594604319
 30
0.0
 11
-154.51141212492311
 21
-2219.101702642522
 31
0.0
  0
LINE
  5
A672
  8
01
  6
BYBLOCK
 10
-154.51141212492311
 20
-2219.101702642522
 30
0.0
 11
-153.7614121249232
 21
-2219.2517043876178
 31
0.0
  0
LINE
  5
A673
  8
01
  6
BYBLOCK
 10
-149.2614121249232
 20
-2217.4088577153352
 30
0.0
 11
-148.51141212492311
 21
-2217.5588594604319
 31
0.0
  0
LINE
  5
A674
  8
01
  6
BYBLOCK
 10
-148.51141212492311
 20
-2219.558859460431
 30
0.0
 11
-154.51141212492311
 21
-2221.101702642522
 31
0.0
  0
LINE
  5
A675
  8
01
  6
BYBLOCK
 10
-154.51141212492311
 20
-2221.101702642522
 30
0.0
 11
-153.7614121249232
 21
-2221.2517043876178
 31
0.0
  0
LINE
  5
A676
  8
01
  6
BYBLOCK
 10
-149.2614121249232
 20
-2219.4088577153361
 30
0.0
 11
-148.51141212492311
 21
-2219.558859460431
 31
0.0
  0
LINE
  5
A677
  8
01
  6
BYBLOCK
 10
-148.51141212492311
 20
-2221.5588594604319
 30
0.0
 11
-154.51141212492311
 21
-2223.101702642522
 31
0.0
  0
LINE
  5
A678
  8
01
  6
BYBLOCK
 10
-154.51141212492311
 20
-2223.101702642522
 30
0.0
 11
-153.7614121249232
 21
-2223.2517043876178
 31
0.0
  0
LINE
  5
A679
  8
01
  6
BYBLOCK
 10
-149.2614121249232
 20
-2221.4088577153361
 30
0.0
 11
-148.51141212492311
 21
-2221.5588594604319
 31
0.0
  0
LINE
  5
A67A
  8
01
  6
BYBLOCK
 10
-148.51141212492311
 20
-2223.5588594604319
 30
0.0
 11
-154.07053927487479
 21
-2224.9883363640438
 31
0.0
  0
LINE
  5
A67B
  8
01
  6
BYBLOCK
 10
-154.07053927487479
 20
-2224.9883363640438
 30
0.0
 11
-153.34478052625249
 21
-2225.1334898024602
 31
0.0
  0
LINE
  5
A67C
  8
01
  6
BYBLOCK
 10
-149.2614121249232
 20
-2223.4088577153361
 30
0.0
 11
-148.51141212492311
 21
-2223.5588594604319
 31
0.0
  0
LINE
  5
A67D
  8
01
  6
BYBLOCK
 10
-149.05427653603519
 20
-2225.698451903012
 30
0.0
 11
-153.51736234555841
 21
-2226.8460921550641
 31
0.0
  0
LINE
  5
A67E
  8
01
  6
BYBLOCK
 10
-153.51736234555841
 20
-2226.8460921550641
 30
0.0
 11
-152.8206447908502
 21
-2226.9854372871241
 31
0.0
  0
LINE
  5
A67F
  8
01
  6
BYBLOCK
 10
-149.79595622259609
 20
-2225.5501142399639
 30
0.0
 11
-149.05427653603519
 21
-2225.698451903012
 31
0.0
  0
LINE
  5
A680
  8
01
  6
BYBLOCK
 10
-149.6746420048253
 20
-2227.8579730086672
 30
0.0
 11
-153.0093555415524
 21
-2228.7154630160612
 31
0.0
  0
LINE
  5
A681
  8
01
  6
BYBLOCK
 10
-153.0093555415524
 20
-2228.7154630160612
 30
0.0
 11
-152.2903142954051
 21
-2228.8592729383508
 31
0.0
  0
LINE
  5
A682
  8
01
  6
BYBLOCK
 10
-150.40763286447881
 20
-2227.711373131217
 30
0.0
 11
-149.6746420048253
 21
-2227.8579730086672
 31
0.0
  0
LINE
  5
A683
  8
01
 10
-263.51141212289349
 20
-2205.5113957530921
 30
0.0
 11
-299.26141212289377
 21
-2205.5113957530921
 31
0.0
  0
LINE
  5
A684
  8
01
 10
-267.26141212289349
 20
-2123.2613957530912
 30
0.0
 11
-299.26141212289372
 21
-2123.2613957530912
 31
0.0
  0
LINE
  5
A685
  8
01
 10
-298.26141212289377
 20
-2203.5113957530912
 30
0.0
 11
-298.26141212289372
 21
-2125.2613957530912
 31
0.0
  0
LINE
  5
A689
  8
01
 10
-266.011412122894
 20
-2196.7613957530912
 30
0.0
 11
-289.26141212289377
 21
-2196.7613957530912
 31
0.0
  0
LINE
  5
A68A
  8
01
 10
-267.26141212289349
 20
-2123.2613957530912
 30
0.0
 11
-289.26141212289372
 21
-2123.2613957530912
 31
0.0
  0
LINE
  5
A68B
  8
01
 10
-288.26141212289377
 20
-2194.7613957530898
 30
0.0
 11
-288.26141212289372
 21
-2125.2613957530912
 31
0.0
  0
LINE
  5
A68F
  8
01
 10
-263.51141212289349
 20
-2205.5113957530921
 30
0.0
 11
-289.26141212289377
 21
-2205.5113957530921
 31
0.0
  0
LINE
  5
A690
  8
01
 10
-266.01141212289389
 20
-2196.7613957530912
 30
0.0
 11
-289.26141212289377
 21
-2196.7613957530912
 31
0.0
  0
LINE
  5
A691
  8
01
 10
-288.26141212289377
 20
-2203.5113957530912
 30
0.0
 11
-288.26141212289377
 21
-2198.7613957530898
 31
0.0
  0
LINE
  5
A695
  8
01
 10
-347.31597748086341
 20
-2209.0113957530939
 30
0.0
 11
-366.45689189864481
 21
-2209.0113957530939
 31
0.0
  0
LINE
  5
A696
  8
01
 10
-355.11750955456353
 20
-2180.2613957408748
 30
0.0
 11
-366.45689189864481
 21
-2180.2613957408748
 31
0.0
  0
LINE
  5
A697
  8
01
 10
-365.45689189864481
 20
-2207.0113957530939
 30
0.0
 11
-365.45689189864481
 21
-2182.2613957408748
 31
0.0
  0
LINE
  5
A69B
  8
01
 10
-335.82532028868292
 20
-2199.0113957530939
 30
0.0
 11
-335.82532028868292
 21
-2222.8764547048622
 31
0.0
  0
LINE
  5
A69C
  8
01
 10
-312.82532028868258
 20
-2186.7613957530912
 30
0.0
 11
-312.82532028868258
 21
-2222.8764547048622
 31
0.0
  0
LINE
  5
A69D
  8
01
 10
-333.82532028868292
 20
-2221.8764547048622
 30
0.0
 11
-314.82532028868258
 21
-2221.8764547048622
 31
0.0
  0
LINE
  5
A6A1
  8
01
 10
-250.7614121228942
 20
-2186.7613957530912
 30
0.0
 11
-250.7614121228942
 21
-2222.8764547048622
 31
0.0
  0
LINE
  5
A6A2
  8
01
 10
-268.26141212289377
 20
-2186.7613957530912
 30
0.0
 11
-268.26141212289377
 21
-2222.8764547048622
 31
0.0
  0
LINE
  5
A6A3
  8
01
 10
-252.7614121228942
 20
-2221.8764547048622
 30
0.0
 11
-266.26141212289377
 21
-2221.8764547048622
 31
0.0
  0
LINE
  5
A6A7
  8
01
 10
-326.07532028878342
 20
-2205.5113957530921
 30
0.0
 11
-345.27791933494922
 21
-2205.5113957530921
 31
0.0
  0
LINE
  5
A6A8
  8
01
 10
-347.31597748086341
 20
-2209.0113957530939
 30
0.0
 11
-343.27791933494922
 21
-2209.0113957530939
 31
0.0
  0
LINE
  5
A6A9
  8
01
 10
-344.27791933494922
 20
-2203.5113957530912
 30
0.0
 11
-344.27791933494922
 21
-2201.5113957530912
 31
0.0
  0
LINE
  5
A6AA
  8
01
 10
-344.27791933494922
 20
-2211.0113957530939
 30
0.0
 11
-344.27791933494922
 21
-2221.744729086427
 31
0.0
  0
LINE
  5
A6AB
  8
01
 10
-344.27791933494922
 20
-2205.5113957530921
 30
0.0
 11
-344.27791933494922
 21
-2209.0113957530939
 31
0.0
  0
LINE
  5
A6AF
  8
01
 10
-347.46064666556208
 20
-2199.0113957530939
 30
0.0
 11
-353.95808534072307
 21
-2199.0113957530939
 31
0.0
  0
LINE
  5
A6B0
  8
01
 10
-347.31597748086341
 20
-2209.0113957530939
 30
0.0
 11
-353.95808534072307
 21
-2209.0113957530939
 31
0.0
  0
LINE
  5
A6B1
  8
01
 10
-352.95808534072307
 20
-2201.0113957530939
 30
0.0
 11
-352.95808534072307
 21
-2207.0113957530939
 31
0.0
  0
LINE
  5
A6B2
  8
01
 10
-352.95808534072307
 20
-2209.0113957530939
 30
0.0
 11
-352.95808534072307
 21
-2230.5447290864272
 31
0.0
  0
LINE
  5
A6B6
  8
01
 10
-355.11750955456353
 20
-2180.2613957408748
 30
0.0
 11
-366.45689189864493
 21
-2180.2613957408748
 31
0.0
  0
LINE
  5
A6B7
  8
01
 10
-355.11750955456353
 20
-2147.0113957530898
 30
0.0
 11
-366.45689189864481
 21
-2147.0113957530898
 31
0.0
  0
LINE
  5
A6B8
  8
01
 10
-365.45689189864493
 20
-2178.2613957408748
 30
0.0
 11
-365.45689189864481
 21
-2149.0113957530898
 31
0.0
  0
LINE
  5
A6BC
  8
01
 10
-351.98797351591389
 20
-2181.2189290781212
 30
0.0
 11
-352.68796952070858
 21
-2179.5018858753551
 31
0.0
  0
LINE
  5
A6BD
  8
01
 10
-352.68796952070858
 20
-2179.5018858753551
 30
0.0
 11
-352.96076814492909
 21
-2180.0166278785168
 31
0.0
  0
LINE
  5
A6BE
  8
01
 10
-334.26282436038161
 20
-2182.0113550219648
 30
0.0
 11
-334.96281621659762
 21
-2178.5113550219648
 31
0.0
  0
LINE
  5
A6BF
  8
01
 10
-344.06282436038538
 20
-2182.0113550219648
 30
0.0
 11
-344.76281621660502
 21
-2178.5113550219648
 31
0.0
  0
LINE
  5
A6C0
  8
01
 10
-345.46282436038553
 20
-2182.0113550219648
 30
0.0
 11
-346.16281621660511
 21
-2178.5113550219648
 31
0.0
  0
LINE
  5
A6C1
  8
01
 10
-345.37532334241303
 20
-2181.5738550219648
 30
0.0
 11
-345.46282436038553
 21
-2182.0113550219648
 31
0.0
  0
LINE
  5
A6C2
  8
01
 10
-346.77532334241312
 20
-2181.5738550219648
 30
0.0
 11
-346.86282436038562
 21
-2182.0113550219648
 31
0.0
  0
LINE
  5
A6C3
  8
01
 10
-346.16281621660511
 20
-2178.5113550219648
 30
0.0
 11
-346.25031723457761
 21
-2178.9488550219648
 31
0.0
  0
LINE
  5
A6C4
  8
01
 10
-344.76281621660502
 20
-2178.5113550219648
 30
0.0
 11
-344.85031723457769
 21
-2178.9488550219648
 31
0.0
  0
LINE
  5
A6C5
  8
01
 10
-348.17532334241292
 20
-2181.5738550219648
 30
0.0
 11
-348.26282436038542
 21
-2182.0113550219648
 31
0.0
  0
LINE
  5
A6C6
  8
01
 10
-347.5628162166052
 20
-2178.5113550219648
 30
0.0
 11
-347.6503172345777
 21
-2178.9488550219648
 31
0.0
  0
LINE
  5
A6C7
  8
01
 10
-346.86282436038562
 20
-2182.0113550219648
 30
0.0
 11
-347.5628162166052
 21
-2178.5113550219648
 31
0.0
  0
LINE
  5
A6C8
  8
01
 10
-349.18797535972658
 20
-2182.0113550219648
 30
0.0
 11
-349.88796767689871
 21
-2178.7094611926432
 31
0.0
  0
LINE
  5
A6C9
  8
01
 10
-350.58797443781771
 20
-2181.615140897663
 30
0.0
 11
-351.2879685988035
 21
-2179.1056735339989
 31
0.0
  0
LINE
  5
A6CA
  8
01
 10
-351.85546719402862
 20
-2180.8189037175689
 30
0.0
 11
-351.98797351591389
 21
-2181.2189290781212
 31
0.0
  0
LINE
  5
A6CB
  8
01
 10
-349.10047434175408
 20
-2181.5738550219648
 30
0.0
 11
-349.18797535972658
 21
-2182.0113550219648
 31
0.0
  0
LINE
  5
A6CC
  8
01
 10
-350.48930111451119
 20
-2181.2055547494069
 30
0.0
 11
-350.58797443781771
 21
-2181.615140897663
 31
0.0
  0
LINE
  5
A6CD
  8
01
 10
-349.88796767689871
 20
-2178.7094611926432
 30
0.0
 11
-350.00107953732493
 21
-2179.1789807110058
 31
0.0
  0
LINE
  5
A6CE
  8
01
 10
-348.96281621660529
 20
-2178.5113550219648
 30
0.0
 11
-349.05031723457762
 21
-2178.9488550219648
 31
0.0
  0
LINE
  5
A6CF
  8
01
 10
-351.2879685988035
 20
-2179.1056735339989
 30
0.0
 11
-351.447887223603
 21
-2179.5884543148268
 31
0.0
  0
LINE
  5
A6D0
  8
01
 10
-348.26282436038542
 20
-2182.0113550219648
 30
0.0
 11
-348.96281621660529
 21
-2178.5113550219648
 31
0.0
  0
LINE
  5
A6D1
  8
01
 10
-335.66282436038159
 20
-2182.0113550219648
 30
0.0
 11
-336.36281621659742
 21
-2178.5113550219648
 31
0.0
  0
LINE
  5
A6D2
  8
01
 10
-335.57532334240869
 20
-2181.5738550219648
 30
0.0
 11
-335.66282436038159
 21
-2182.0113550219648
 31
0.0
  0
LINE
  5
A6D3
  8
01
 10
-336.97532334240879
 20
-2181.5738550219648
 30
0.0
 11
-337.06282436038168
 21
-2182.0113550219648
 31
0.0
  0
LINE
  5
A6D4
  8
01
 10
-334.96281621659762
 20
-2178.5113550219648
 30
0.0
 11
-335.05031723457051
 21
-2178.9488550219648
 31
0.0
  0
LINE
  5
A6D5
  8
01
 10
-336.36281621659742
 20
-2178.5113550219648
 30
0.0
 11
-336.4503172345706
 21
-2178.9488550219648
 31
0.0
  0
LINE
  5
A6D6
  8
01
 10
-338.37532334241251
 20
-2181.5738550219648
 30
0.0
 11
-338.46282436038553
 21
-2182.0113550219648
 31
0.0
  0
LINE
  5
A6D7
  8
01
 10
-337.7628162165978
 20
-2178.5113550219648
 30
0.0
 11
-337.8503172345707
 21
-2178.9488550219648
 31
0.0
  0
LINE
  5
A6D8
  8
01
 10
-337.06282436038168
 20
-2182.0113550219648
 30
0.0
 11
-337.7628162165978
 21
-2178.5113550219648
 31
0.0
  0
LINE
  5
A6D9
  8
01
 10
-339.86282436038528
 20
-2182.0113550219648
 30
0.0
 11
-340.56281621660139
 21
-2178.5113550219648
 31
0.0
  0
LINE
  5
A6DA
  8
01
 10
-342.66282436038551
 20
-2182.0113550219648
 30
0.0
 11
-343.36281621660538
 21
-2178.5113550219648
 31
0.0
  0
LINE
  5
A6DB
  8
01
 10
-341.26282436038542
 20
-2182.0113550219648
 30
0.0
 11
-341.96281621660142
 21
-2178.5113550219648
 31
0.0
  0
LINE
  5
A6DC
  8
01
 10
-341.17532334241253
 20
-2181.5738550219648
 30
0.0
 11
-341.26282436038542
 21
-2182.0113550219648
 31
0.0
  0
LINE
  5
A6DD
  8
01
 10
-339.77532334241238
 20
-2181.5738550219648
 30
0.0
 11
-339.86282436038528
 21
-2182.0113550219648
 31
0.0
  0
LINE
  5
A6DE
  8
01
 10
-342.57532334241228
 20
-2181.5738550219648
 30
0.0
 11
-342.66282436038551
 21
-2182.0113550219648
 31
0.0
  0
LINE
  5
A6DF
  8
01
 10
-343.97532334241288
 20
-2181.5738550219648
 30
0.0
 11
-344.06282436038538
 21
-2182.0113550219648
 31
0.0
  0
LINE
  5
A6E0
  8
01
 10
-340.56281621660139
 20
-2178.5113550219648
 30
0.0
 11
-340.65031723457429
 21
-2178.9488550219648
 31
0.0
  0
LINE
  5
A6E1
  8
01
 10
-339.16281621660153
 20
-2178.5113550219648
 30
0.0
 11
-339.25031723457442
 21
-2178.9488550219648
 31
0.0
  0
LINE
  5
A6E2
  8
01
 10
-343.36281621660538
 20
-2178.5113550219648
 30
0.0
 11
-343.45031723457771
 21
-2178.9488550219648
 31
0.0
  0
LINE
  5
A6E3
  8
01
 10
-341.96281621660142
 20
-2178.5113550219648
 30
0.0
 11
-342.05031723457438
 21
-2178.9488550219648
 31
0.0
  0
LINE
  5
A6E4
  8
01
 10
-338.46282436038553
 20
-2182.0113550219648
 30
0.0
 11
-339.16281621660153
 21
-2178.5113550219648
 31
0.0
  0
LINE
  5
A6E5
  8
01
 10
-334.1753233424086
 20
-2181.5738550219648
 30
0.0
 11
-334.26282436038161
 21
-2182.0113550219648
 31
0.0
  0
LINE
  5
A6E6
  8
01
 10
-353.82547128788212
 20
-2180.2613550219648
 30
0.0
 11
-349.18796823391727
 21
-2178.9488550219648
 31
0.0
  0
LINE
  5
A6E7
  8
01
 10
-353.82547128788212
 20
-2180.2613550219648
 30
0.0
 11
-349.18797434175377
 21
-2181.5738550219648
 31
0.0
  0
LINE
  5
A6E8
  8
01
 10
-349.18796823391727
 20
-2178.9488550219648
 30
0.0
 11
-333.82531723467002
 21
-2178.9488550219648
 31
0.0
  0
LINE
  5
A6E9
  8
01
 10
-349.18797434175377
 20
-2181.5738550219648
 30
0.0
 11
-333.82532334250641
 21
-2181.5738550219639
 31
0.0
  0
LINE
  5
A6EA
  8
01
 10
-333.82532726906737
 20
-2183.2613957408748
 30
0.0
 11
-333.82531330829852
 21
-2177.2613957408762
 31
0.0
  0
LINE
  5
A6EB
  8
01
 10
-333.82532726906737
 20
-2183.2613957408748
 30
0.0
 11
-332.8628242151467
 21
-2183.2613957408748
 31
0.0
  0
ARC
  5
A6EC
  8
01
 10
-332.8628242151467
 20
-2181.9488957408762
 30
0.0
 40
1.3125
 50
270.0
 51
359.99986668444888
  0
LINE
  5
A6ED
  8
01
 10
-333.82531330829852
 20
-2177.2613957408762
 30
0.0
 11
-332.8628242151467
 21
-2177.2613957408748
 31
0.0
  0
ARC
  5
A6EE
  8
01
 10
-332.8628242151467
 20
-2178.5738957408748
 30
0.0
 40
1.3125
 50
0.0001333155250614
 51
90.0
  0
LINE
  5
A6EF
  8
01
 10
-331.5503242151504
 20
-2178.5738926869572
 30
0.0
 11
-331.5503242151504
 21
-2181.948898794793
 31
0.0
  0
LINE
  5
A6F0
  8
01
 10
-329.9714476917141
 20
-2180.2613957408748
 30
0.0
 11
-355.11750955456353
 21
-2180.2613957408748
 31
0.0
  0
LINE
  5
A6F1
  8
01
 10
-351.98797351591389
 20
-2147.9689290903361
 30
0.0
 11
-352.68796952070858
 21
-2146.2518858875701
 31
0.0
  0
LINE
  5
A6F2
  8
01
 10
-352.68796952070858
 20
-2146.2518858875701
 30
0.0
 11
-352.96076814492909
 21
-2146.7666278907318
 31
0.0
  0
LINE
  5
A6F3
  8
01
 10
-334.26282436038161
 20
-2148.7613550341798
 30
0.0
 11
-334.96281621659762
 21
-2145.2613550341789
 31
0.0
  0
LINE
  5
A6F4
  8
01
 10
-344.06282436038538
 20
-2148.7613550341798
 30
0.0
 11
-344.76281621660502
 21
-2145.2613550341789
 31
0.0
  0
LINE
  5
A6F5
  8
01
 10
-345.46282436038553
 20
-2148.7613550341798
 30
0.0
 11
-346.16281621660511
 21
-2145.2613550341789
 31
0.0
  0
LINE
  5
A6F6
  8
01
 10
-345.37532334241303
 20
-2148.3238550341789
 30
0.0
 11
-345.46282436038553
 21
-2148.7613550341798
 31
0.0
  0
LINE
  5
A6F7
  8
01
 10
-346.77532334241312
 20
-2148.3238550341789
 30
0.0
 11
-346.86282436038562
 21
-2148.7613550341798
 31
0.0
  0
LINE
  5
A6F8
  8
01
 10
-346.16281621660511
 20
-2145.2613550341789
 30
0.0
 11
-346.25031723457761
 21
-2145.6988550341789
 31
0.0
  0
LINE
  5
A6F9
  8
01
 10
-344.76281621660502
 20
-2145.2613550341789
 30
0.0
 11
-344.85031723457769
 21
-2145.6988550341789
 31
0.0
  0
LINE
  5
A6FA
  8
01
 10
-348.17532334241292
 20
-2148.3238550341789
 30
0.0
 11
-348.26282436038542
 21
-2148.7613550341798
 31
0.0
  0
LINE
  5
A6FB
  8
01
 10
-347.5628162166052
 20
-2145.2613550341789
 30
0.0
 11
-347.6503172345777
 21
-2145.6988550341789
 31
0.0
  0
LINE
  5
A6FC
  8
01
 10
-346.86282436038562
 20
-2148.7613550341798
 30
0.0
 11
-347.5628162166052
 21
-2145.2613550341789
 31
0.0
  0
LINE
  5
A6FD
  8
01
 10
-349.18797535972658
 20
-2148.7613550341798
 30
0.0
 11
-349.88796767689871
 21
-2145.4594612048581
 31
0.0
  0
LINE
  5
A6FE
  8
01
 10
-350.58797443781771
 20
-2148.3651409098779
 30
0.0
 11
-351.2879685988035
 21
-2145.8556735462139
 31
0.0
  0
LINE
  5
A6FF
  8
01
 10
-351.85546719402862
 20
-2147.5689037297839
 30
0.0
 11
-351.98797351591389
 21
-2147.9689290903361
 31
0.0
  0
LINE
  5
A700
  8
01
 10
-349.10047434175408
 20
-2148.3238550341789
 30
0.0
 11
-349.18797535972658
 21
-2148.7613550341798
 31
0.0
  0
LINE
  5
A701
  8
01
 10
-350.48930111451119
 20
-2147.9555547616219
 30
0.0
 11
-350.58797443781771
 21
-2148.3651409098779
 31
0.0
  0
LINE
  5
A702
  8
01
 10
-349.88796767689871
 20
-2145.4594612048581
 30
0.0
 11
-350.00107953732493
 21
-2145.9289807232199
 31
0.0
  0
LINE
  5
A703
  8
01
 10
-348.96281621660529
 20
-2145.2613550341789
 30
0.0
 11
-349.05031723457762
 21
-2145.6988550341789
 31
0.0
  0
LINE
  5
A704
  8
01
 10
-351.2879685988035
 20
-2145.8556735462139
 30
0.0
 11
-351.447887223603
 21
-2146.3384543270422
 31
0.0
  0
LINE
  5
A705
  8
01
 10
-348.26282436038542
 20
-2148.7613550341798
 30
0.0
 11
-348.96281621660529
 21
-2145.2613550341789
 31
0.0
  0
LINE
  5
A706
  8
01
 10
-335.66282436038159
 20
-2148.7613550341798
 30
0.0
 11
-336.36281621659742
 21
-2145.2613550341789
 31
0.0
  0
LINE
  5
A707
  8
01
 10
-335.57532334240869
 20
-2148.3238550341789
 30
0.0
 11
-335.66282436038159
 21
-2148.7613550341798
 31
0.0
  0
LINE
  5
A708
  8
01
 10
-336.97532334240879
 20
-2148.3238550341789
 30
0.0
 11
-337.06282436038168
 21
-2148.7613550341798
 31
0.0
  0
LINE
  5
A709
  8
01
 10
-334.96281621659762
 20
-2145.2613550341789
 30
0.0
 11
-335.05031723457051
 21
-2145.6988550341789
 31
0.0
  0
LINE
  5
A70A
  8
01
 10
-336.36281621659742
 20
-2145.2613550341789
 30
0.0
 11
-336.4503172345706
 21
-2145.6988550341789
 31
0.0
  0
LINE
  5
A70B
  8
01
 10
-338.37532334241251
 20
-2148.3238550341789
 30
0.0
 11
-338.46282436038553
 21
-2148.7613550341798
 31
0.0
  0
LINE
  5
A70C
  8
01
 10
-337.7628162165978
 20
-2145.2613550341789
 30
0.0
 11
-337.8503172345707
 21
-2145.6988550341789
 31
0.0
  0
LINE
  5
A70D
  8
01
 10
-337.06282436038168
 20
-2148.7613550341798
 30
0.0
 11
-337.7628162165978
 21
-2145.2613550341789
 31
0.0
  0
LINE
  5
A70E
  8
01
 10
-339.86282436038528
 20
-2148.7613550341798
 30
0.0
 11
-340.56281621660139
 21
-2145.2613550341789
 31
0.0
  0
LINE
  5
A70F
  8
01
 10
-342.66282436038551
 20
-2148.7613550341798
 30
0.0
 11
-343.36281621660538
 21
-2145.2613550341789
 31
0.0
  0
LINE
  5
A710
  8
01
 10
-341.26282436038542
 20
-2148.7613550341798
 30
0.0
 11
-341.96281621660142
 21
-2145.2613550341789
 31
0.0
  0
LINE
  5
A711
  8
01
 10
-341.17532334241253
 20
-2148.3238550341789
 30
0.0
 11
-341.26282436038542
 21
-2148.7613550341798
 31
0.0
  0
LINE
  5
A712
  8
01
 10
-339.77532334241238
 20
-2148.3238550341789
 30
0.0
 11
-339.86282436038528
 21
-2148.7613550341798
 31
0.0
  0
LINE
  5
A713
  8
01
 10
-342.57532334241228
 20
-2148.3238550341789
 30
0.0
 11
-342.66282436038551
 21
-2148.7613550341798
 31
0.0
  0
LINE
  5
A714
  8
01
 10
-343.97532334241288
 20
-2148.3238550341789
 30
0.0
 11
-344.06282436038538
 21
-2148.7613550341798
 31
0.0
  0
LINE
  5
A715
  8
01
 10
-340.56281621660139
 20
-2145.2613550341789
 30
0.0
 11
-340.65031723457429
 21
-2145.6988550341789
 31
0.0
  0
LINE
  5
A716
  8
01
 10
-339.16281621660153
 20
-2145.2613550341789
 30
0.0
 11
-339.25031723457442
 21
-2145.6988550341789
 31
0.0
  0
LINE
  5
A717
  8
01
 10
-343.36281621660538
 20
-2145.2613550341789
 30
0.0
 11
-343.45031723457771
 21
-2145.6988550341789
 31
0.0
  0
LINE
  5
A718
  8
01
 10
-341.96281621660142
 20
-2145.2613550341789
 30
0.0
 11
-342.05031723457438
 21
-2145.6988550341789
 31
0.0
  0
LINE
  5
A719
  8
01
 10
-338.46282436038553
 20
-2148.7613550341798
 30
0.0
 11
-339.16281621660153
 21
-2145.2613550341789
 31
0.0
  0
LINE
  5
A71A
  8
01
 10
-334.1753233424086
 20
-2148.3238550341789
 30
0.0
 11
-334.26282436038161
 21
-2148.7613550341798
 31
0.0
  0
LINE
  5
A71B
  8
01
 10
-353.82547128788212
 20
-2147.0113550341789
 30
0.0
 11
-349.18796823391727
 21
-2145.6988550341789
 31
0.0
  0
LINE
  5
A71C
  8
01
 10
-353.82547128788212
 20
-2147.0113550341789
 30
0.0
 11
-349.18797434175377
 21
-2148.3238550341789
 31
0.0
  0
LINE
  5
A71D
  8
01
 10
-349.18796823391727
 20
-2145.6988550341789
 30
0.0
 11
-333.82531723467002
 21
-2145.6988550341789
 31
0.0
  0
LINE
  5
A71E
  8
01
 10
-349.18797434175377
 20
-2148.3238550341789
 30
0.0
 11
-333.82532334250641
 21
-2148.3238550341789
 31
0.0
  0
LINE
  5
A71F
  8
01
 10
-333.82532726906737
 20
-2150.0113957530898
 30
0.0
 11
-333.82531330829852
 21
-2144.0113957530912
 31
0.0
  0
LINE
  5
A720
  8
01
 10
-333.82532726906737
 20
-2150.0113957530898
 30
0.0
 11
-332.8628242151467
 21
-2150.0113957530898
 31
0.0
  0
ARC
  5
A721
  8
01
 10
-332.8628242151467
 20
-2148.6988957530898
 30
0.0
 40
1.3125
 50
270.0
 51
359.99986668444888
  0
LINE
  5
A722
  8
01
 10
-333.82531330829852
 20
-2144.0113957530912
 30
0.0
 11
-332.8628242151467
 21
-2144.0113957530912
 31
0.0
  0
ARC
  5
A723
  8
01
 10
-332.8628242151467
 20
-2145.3238957530898
 30
0.0
 40
1.3125
 50
0.0001333155250614
 51
90.0
  0
LINE
  5
A724
  8
01
 10
-331.5503242151504
 20
-2145.3238926991721
 30
0.0
 11
-331.5503242151504
 21
-2148.6988988070088
 31
0.0
  0
LINE
  5
A725
  8
01
 10
-329.9714476917141
 20
-2147.0113957530898
 30
0.0
 11
-355.11750955456353
 21
-2147.0113957530898
 31
0.0
  0
LINE
  5
A726
  8
01
 10
-260.46894546013959
 20
-2068.088893642836
 30
0.0
 11
-258.75190225737362
 21
-2067.3888976380422
 31
0.0
  0
LINE
  5
A727
  8
01
 10
-258.75190225737362
 20
-2067.3888976380422
 30
0.0
 11
-259.26664426053571
 21
-2067.116099013821
 31
0.0
  0
LINE
  5
A728
  8
01
 10
-261.26137140398328
 20
-2085.814042798369
 30
0.0
 11
-257.76137140398328
 21
-2085.114050942153
 31
0.0
  0
LINE
  5
A729
  8
01
 10
-261.26137140398328
 20
-2076.0140427983652
 30
0.0
 11
-257.76137140398328
 21
-2075.314050942146
 31
0.0
  0
LINE
  5
A72A
  8
01
 10
-261.26137140398328
 20
-2074.6140427983651
 30
0.0
 11
-257.76137140398328
 21
-2073.914050942145
 31
0.0
  0
LINE
  5
A72B
  8
01
 10
-260.82387140398328
 20
-2074.701543816338
 30
0.0
 11
-261.26137140398328
 21
-2074.6140427983651
 31
0.0
  0
LINE
  5
A72C
  8
01
 10
-260.82387140398328
 20
-2073.3015438163379
 30
0.0
 11
-261.26137140398328
 21
-2073.214042798365
 31
0.0
  0
LINE
  5
A72D
  8
01
 10
-257.76137140398328
 20
-2073.914050942145
 30
0.0
 11
-258.19887140398328
 21
-2073.8265499241729
 31
0.0
  0
LINE
  5
A72E
  8
01
 10
-257.76137140398328
 20
-2075.314050942146
 30
0.0
 11
-258.19887140398328
 21
-2075.226549924173
 31
0.0
  0
LINE
  5
A72F
  8
01
 10
-260.82387140398328
 20
-2071.9015438163378
 30
0.0
 11
-261.26137140398328
 21
-2071.8140427983649
 31
0.0
  0
LINE
  5
A730
  8
01
 10
-257.76137140398328
 20
-2072.5140509421458
 30
0.0
 11
-258.19887140398328
 21
-2072.4265499241728
 31
0.0
  0
LINE
  5
A731
  8
01
 10
-261.26137140398328
 20
-2073.214042798365
 30
0.0
 11
-257.76137140398328
 21
-2072.5140509421458
 31
0.0
  0
LINE
  5
A732
  8
01
 10
-261.26137140398328
 20
-2070.8888917990239
 30
0.0
 11
-257.95947757466161
 21
-2070.1888994818519
 31
0.0
  0
LINE
  5
A733
  8
01
 10
-260.8651572796818
 20
-2069.4888927209331
 30
0.0
 11
-258.35568991601758
 21
-2068.788898559947
 31
0.0
  0
LINE
  5
A734
  8
01
 10
-260.06892009958727
 20
-2068.221399964722
 30
0.0
 11
-260.46894546013959
 21
-2068.088893642836
 31
0.0
  0
LINE
  5
A735
  8
01
 10
-260.82387140398328
 20
-2070.9763928169959
 30
0.0
 11
-261.26137140398328
 21
-2070.8888917990239
 31
0.0
  0
LINE
  5
A736
  8
01
 10
-260.45557113142559
 20
-2069.5875660442389
 30
0.0
 11
-260.8651572796818
 21
-2069.4888927209331
 31
0.0
  0
LINE
  5
A737
  8
01
 10
-257.95947757466161
 20
-2070.1888994818519
 30
0.0
 11
-258.42899709302401
 21
-2070.0757876214261
 31
0.0
  0
LINE
  5
A738
  8
01
 10
-257.76137140398328
 20
-2071.1140509421448
 30
0.0
 11
-258.19887140398328
 21
-2071.0265499241732
 31
0.0
  0
LINE
  5
A739
  8
01
 10
-258.35568991601758
 20
-2068.788898559947
 30
0.0
 11
-258.83847069684538
 21
-2068.628979935148
 31
0.0
  0
LINE
  5
A73A
  8
01
 10
-261.26137140398328
 20
-2071.8140427983649
 30
0.0
 11
-257.76137140398328
 21
-2071.1140509421448
 31
0.0
  0
LINE
  5
A73B
  8
01
 10
-261.26137140398328
 20
-2084.4140427983689
 30
0.0
 11
-257.76137140398328
 21
-2083.7140509421538
 31
0.0
  0
LINE
  5
A73C
  8
01
 10
-260.82387140398328
 20
-2084.5015438163418
 30
0.0
 11
-261.26137140398328
 21
-2084.4140427983689
 31
0.0
  0
LINE
  5
A73D
  8
01
 10
-260.82387140398328
 20
-2083.1015438163422
 30
0.0
 11
-261.26137140398328
 21
-2083.0140427983688
 31
0.0
  0
LINE
  5
A73E
  8
01
 10
-257.76137140398328
 20
-2085.114050942153
 30
0.0
 11
-258.19887140398328
 21
-2085.02654992418
 31
0.0
  0
LINE
  5
A73F
  8
01
 10
-257.76137140398328
 20
-2083.7140509421538
 30
0.0
 11
-258.19887140398328
 21
-2083.6265499241799
 31
0.0
  0
LINE
  5
A740
  8
01
 10
-260.82387140398328
 20
-2081.701543816338
 30
0.0
 11
-261.26137140398328
 21
-2081.6140427983651
 31
0.0
  0
LINE
  5
A741
  8
01
 10
-257.76137140398328
 20
-2082.3140509421528
 30
0.0
 11
-258.19887140398328
 21
-2082.2265499241798
 31
0.0
  0
LINE
  5
A742
  8
01
 10
-261.26137140398328
 20
-2083.0140427983688
 30
0.0
 11
-257.76137140398328
 21
-2082.3140509421528
 31
0.0
  0
LINE
  5
A743
  8
01
 10
-261.26137140398328
 20
-2080.214042798365
 30
0.0
 11
-257.76137140398328
 21
-2079.514050942149
 31
0.0
  0
LINE
  5
A744
  8
01
 10
-261.26137140398328
 20
-2077.4140427983648
 30
0.0
 11
-257.76137140398328
 21
-2076.7140509421451
 31
0.0
  0
LINE
  5
A745
  8
01
 10
-261.26137140398328
 20
-2078.8140427983649
 30
0.0
 11
-257.76137140398328
 21
-2078.1140509421489
 31
0.0
  0
LINE
  5
A746
  8
01
 10
-260.82387140398328
 20
-2078.9015438163378
 30
0.0
 11
-261.26137140398328
 21
-2078.8140427983649
 31
0.0
  0
LINE
  5
A747
  8
01
 10
-260.82387140398328
 20
-2080.3015438163388
 30
0.0
 11
-261.26137140398328
 21
-2080.214042798365
 31
0.0
  0
LINE
  5
A748
  8
01
 10
-260.82387140398328
 20
-2077.5015438163382
 30
0.0
 11
-261.26137140398328
 21
-2077.4140427983648
 31
0.0
  0
LINE
  5
A749
  8
01
 10
-260.82387140398328
 20
-2076.1015438163381
 30
0.0
 11
-261.26137140398328
 21
-2076.0140427983652
 31
0.0
  0
LINE
  5
A74A
  8
01
 10
-257.76137140398328
 20
-2079.514050942149
 30
0.0
 11
-258.19887140398328
 21
-2079.4265499241769
 31
0.0
  0
LINE
  5
A74B
  8
01
 10
-257.76137140398328
 20
-2080.9140509421491
 30
0.0
 11
-258.19887140398328
 21
-2080.8265499241761
 31
0.0
  0
LINE
  5
A74C
  8
01
 10
-257.76137140398328
 20
-2076.7140509421451
 30
0.0
 11
-258.19887140398328
 21
-2076.6265499241722
 31
0.0
  0
LINE
  5
A74D
  8
01
 10
-257.76137140398328
 20
-2078.1140509421489
 30
0.0
 11
-258.19887140398328
 21
-2078.0265499241759
 31
0.0
  0
LINE
  5
A74E
  8
01
 10
-261.26137140398328
 20
-2081.6140427983651
 30
0.0
 11
-257.76137140398328
 21
-2080.9140509421491
 31
0.0
  0
LINE
  5
A74F
  8
01
 10
-260.82387140398328
 20
-2085.9015438163419
 30
0.0
 11
-261.26137140398328
 21
-2085.814042798369
 31
0.0
  0
LINE
  5
A750
  8
01
 10
-259.51137140398328
 20
-2066.2513958708691
 30
0.0
 11
-258.19887140398328
 21
-2070.8888989248339
 31
0.0
  0
LINE
  5
A751
  8
01
 10
-259.51137140398328
 20
-2066.2513958708691
 30
0.0
 11
-260.82387140398328
 21
-2070.8888928169972
 31
0.0
  0
LINE
  5
A752
  8
01
 10
-258.19887140398328
 20
-2070.8888989248339
 30
0.0
 11
-258.19887140398328
 21
-2086.2515499240808
 31
0.0
  0
LINE
  5
A753
  8
01
 10
-260.82387140398328
 20
-2070.8888928169972
 30
0.0
 11
-260.82387140398299
 21
-2086.2515438162441
 31
0.0
  0
LINE
  5
A754
  8
01
 10
-262.51141212289389
 20
-2086.251539889683
 30
0.0
 11
-256.51141212289423
 21
-2086.2515538504522
 31
0.0
  0
LINE
  5
A755
  8
01
 10
-262.51141212289389
 20
-2086.251539889683
 30
0.0
 11
-262.51141212289389
 21
-2087.214042943604
 31
0.0
  0
ARC
  5
A756
  8
01
 10
-261.19891212289423
 20
-2087.214042943604
 30
0.0
 40
1.3125
 50
180.0
 51
269.99986668446189
  0
LINE
  5
A757
  8
01
 10
-256.51141212289423
 20
-2086.2515538504522
 30
0.0
 11
-256.51141212289372
 21
-2087.214042943604
 31
0.0
  0
ARC
  5
A758
  8
01
 10
-257.82391212289389
 20
-2087.214042943604
 30
0.0
 40
1.3125
 50
270.00013331552498
 51
0.0
  0
LINE
  5
A759
  8
01
 10
-257.8239090689753
 20
-2088.5265429436008
 30
0.0
 11
-261.19891517681231
 21
-2088.5265429435999
 31
0.0
  0
LINE
  5
A75A
  8
01
 10
-259.51141212289389
 20
-2090.105419467036
 30
0.0
 11
-259.51141212289389
 21
-2064.9593576041871
 31
0.0
  0
TEXT
  5
A75B
  8
01
 10
-366.15689189864452
 20
-2166.969729080316
 30
0.0
 40
3.5
  1
33
 50
90.0
  0
LINE
  5
A75C
  8
01
  6
BYBLOCK
 10
-365.9927902786448
 20
-2149.0113957530898
 30
0.0
 11
-365.45689189864481
 21
-2147.0113957530898
 31
0.0
  0
LINE
  5
A75D
  8
01
  6
BYBLOCK
 10
-365.45689189864481
 20
-2147.0113957530898
 30
0.0
 11
-364.92099351864482
 21
-2149.0113957530898
 31
0.0
  0
LINE
  5
A75E
  8
01
  6
BYBLOCK
 10
-365.45689189864481
 20
-2147.0113957530898
 30
0.0
 11
-365.45689189864481
 21
-2149.0113957530898
 31
0.0
  0
LINE
  5
A75F
  8
01
  6
BYBLOCK
 10
-364.92099351864488
 20
-2178.2613957408748
 30
0.0
 11
-365.45689189864493
 21
-2180.2613957408748
 31
0.0
  0
LINE
  5
A760
  8
01
  6
BYBLOCK
 10
-365.45689189864493
 20
-2180.2613957408748
 30
0.0
 11
-365.99279027864492
 21
-2178.2613957408748
 31
0.0
  0
LINE
  5
A761
  8
01
  6
BYBLOCK
 10
-365.45689189864493
 20
-2180.2613957408748
 30
0.0
 11
-365.45689189864493
 21
-2178.2613957408748
 31
0.0
  0
TEXT
  5
A762
  8
01
 10
-353.65808534072272
 20
-2230.8447290864269
 30
0.0
 40
3.5
  1
10 ～20
 50
90.0
  0
LINE
  5
A763
  8
01
  6
BYBLOCK
 10
-352.42218696072308
 20
-2207.0113957530939
 30
0.0
 11
-352.95808534072307
 21
-2209.0113957530939
 31
0.0
  0
LINE
  5
A764
  8
01
  6
BYBLOCK
 10
-352.95808534072307
 20
-2209.0113957530939
 30
0.0
 11
-353.49398372072312
 21
-2207.0113957530939
 31
0.0
  0
LINE
  5
A765
  8
01
  6
BYBLOCK
 10
-352.95808534072307
 20
-2209.0113957530939
 30
0.0
 11
-352.95808534072307
 21
-2207.0113957530939
 31
0.0
  0
LINE
  5
A766
  8
01
  6
BYBLOCK
 10
-353.49398372072312
 20
-2201.0113957530939
 30
0.0
 11
-352.95808534072307
 21
-2199.0113957530939
 31
0.0
  0
LINE
  5
A767
  8
01
  6
BYBLOCK
 10
-352.95808534072307
 20
-2199.0113957530939
 30
0.0
 11
-352.42218696072308
 21
-2201.0113957530939
 31
0.0
  0
LINE
  5
A768
  8
01
  6
BYBLOCK
 10
-352.95808534072307
 20
-2199.0113957530939
 30
0.0
 11
-352.95808534072307
 21
-2201.0113957530939
 31
0.0
  0
TEXT
  5
A769
  8
01
 10
-344.97791933494881
 20
-2221.5447290864272
 30
0.0
 40
3.5
  1
3.5
 50
90.0
  0
LINE
  5
A76A
  8
01
  6
BYBLOCK
 10
-344.81381771494921
 20
-2211.0113957530939
 30
0.0
 11
-344.27791933494922
 21
-2209.0113957530939
 31
0.0
  0
LINE
  5
A76B
  8
01
  6
BYBLOCK
 10
-344.27791933494922
 20
-2209.0113957530939
 30
0.0
 11
-343.74202095494923
 21
-2211.0113957530939
 31
0.0
  0
LINE
  5
A76C
  8
01
  6
BYBLOCK
 10
-344.27791933494922
 20
-2209.0113957530939
 30
0.0
 11
-344.27791933494922
 21
-2211.0113957530939
 31
0.0
  0
LINE
  5
A76D
  8
01
  6
BYBLOCK
 10
-343.74202095494923
 20
-2203.5113957530912
 30
0.0
 11
-344.27791933494922
 21
-2205.5113957530921
 31
0.0
  0
LINE
  5
A76E
  8
01
  6
BYBLOCK
 10
-344.27791933494922
 20
-2205.5113957530921
 30
0.0
 11
-344.81381771494921
 21
-2203.5113957530912
 31
0.0
  0
LINE
  5
A76F
  8
01
  6
BYBLOCK
 10
-344.27791933494922
 20
-2205.5113957530921
 30
0.0
 11
-344.27791933494922
 21
-2203.5113957530912
 31
0.0
  0
TEXT
  5
A770
  8
01
 10
-265.59474545622732
 20
-2221.176454704862
 30
0.0
 40
3.5
  1
17.5
  0
LINE
  5
A771
  8
01
  6
BYBLOCK
 10
-266.26141212289377
 20
-2222.4123530848619
 30
0.0
 11
-268.26141212289377
 21
-2221.8764547048622
 31
0.0
  0
LINE
  5
A772
  8
01
  6
BYBLOCK
 10
-268.26141212289377
 20
-2221.8764547048622
 30
0.0
 11
-266.26141212289377
 21
-2221.3405563248621
 31
0.0
  0
LINE
  5
A773
  8
01
  6
BYBLOCK
 10
-268.26141212289377
 20
-2221.8764547048622
 30
0.0
 11
-266.26141212289377
 21
-2221.8764547048622
 31
0.0
  0
LINE
  5
A774
  8
01
  6
BYBLOCK
 10
-252.7614121228942
 20
-2221.3405563248621
 30
0.0
 11
-250.7614121228942
 21
-2221.8764547048622
 31
0.0
  0
LINE
  5
A775
  8
01
  6
BYBLOCK
 10
-250.7614121228942
 20
-2221.8764547048622
 30
0.0
 11
-252.7614121228942
 21
-2222.4123530848619
 31
0.0
  0
LINE
  5
A776
  8
01
  6
BYBLOCK
 10
-250.7614121228942
 20
-2221.8764547048622
 30
0.0
 11
-252.7614121228942
 21
-2221.8764547048622
 31
0.0
  0
TEXT
  5
A777
  8
01
 10
-327.65865362201612
 20
-2221.176454704862
 30
0.0
 40
3.5
  1
23
  0
LINE
  5
A778
  8
01
  6
BYBLOCK
 10
-314.82532028868258
 20
-2221.3405563248621
 30
0.0
 11
-312.82532028868258
 21
-2221.8764547048622
 31
0.0
  0
LINE
  5
A779
  8
01
  6
BYBLOCK
 10
-312.82532028868258
 20
-2221.8764547048622
 30
0.0
 11
-314.82532028868258
 21
-2222.4123530848619
 31
0.0
  0
LINE
  5
A77A
  8
01
  6
BYBLOCK
 10
-312.82532028868258
 20
-2221.8764547048622
 30
0.0
 11
-314.82532028868258
 21
-2221.8764547048622
 31
0.0
  0
LINE
  5
A77B
  8
01
  6
BYBLOCK
 10
-333.82532028868292
 20
-2222.4123530848619
 30
0.0
 11
-335.82532028868292
 21
-2221.8764547048622
 31
0.0
  0
LINE
  5
A77C
  8
01
  6
BYBLOCK
 10
-335.82532028868292
 20
-2221.8764547048622
 30
0.0
 11
-333.82532028868292
 21
-2221.3405563248621
 31
0.0
  0
LINE
  5
A77D
  8
01
  6
BYBLOCK
 10
-335.82532028868292
 20
-2221.8764547048622
 30
0.0
 11
-333.82532028868292
 21
-2221.8764547048622
 31
0.0
  0
TEXT
  5
A77E
  8
01
 10
-366.1568918986444
 20
-2197.8863957469848
 30
0.0
 40
3.5
  1
29
 50
90.0
  0
LINE
  5
A77F
  8
01
  6
BYBLOCK
 10
-365.9927902786448
 20
-2182.2613957408748
 30
0.0
 11
-365.45689189864481
 21
-2180.2613957408748
 31
0.0
  0
LINE
  5
A780
  8
01
  6
BYBLOCK
 10
-365.45689189864481
 20
-2180.2613957408748
 30
0.0
 11
-364.92099351864482
 21
-2182.2613957408748
 31
0.0
  0
LINE
  5
A781
  8
01
  6
BYBLOCK
 10
-365.45689189864481
 20
-2180.2613957408748
 30
0.0
 11
-365.45689189864481
 21
-2182.2613957408748
 31
0.0
  0
LINE
  5
A782
  8
01
  6
BYBLOCK
 10
-364.92099351864482
 20
-2207.0113957530939
 30
0.0
 11
-365.45689189864481
 21
-2209.0113957530939
 31
0.0
  0
LINE
  5
A783
  8
01
  6
BYBLOCK
 10
-365.45689189864481
 20
-2209.0113957530939
 30
0.0
 11
-365.9927902786448
 21
-2207.0113957530939
 31
0.0
  0
LINE
  5
A784
  8
01
  6
BYBLOCK
 10
-365.45689189864481
 20
-2209.0113957530939
 30
0.0
 11
-365.45689189864481
 21
-2207.0113957530939
 31
0.0
  0
TEXT
  5
A785
  8
01
 10
-288.96141212289342
 20
-2202.7197290864251
 30
0.0
 40
3.5
  1
9
 50
90.0
  0
LINE
  5
A786
  8
01
  6
BYBLOCK
 10
-288.79731050289382
 20
-2198.7613957530898
 30
0.0
 11
-288.26141212289377
 21
-2196.7613957530912
 31
0.0
  0
LINE
  5
A787
  8
01
  6
BYBLOCK
 10
-288.26141212289377
 20
-2196.7613957530912
 30
0.0
 11
-287.72551374289378
 21
-2198.7613957530898
 31
0.0
  0
LINE
  5
A788
  8
01
  6
BYBLOCK
 10
-288.26141212289377
 20
-2196.7613957530912
 30
0.0
 11
-288.26141212289377
 21
-2198.7613957530898
 31
0.0
  0
LINE
  5
A789
  8
01
  6
BYBLOCK
 10
-287.72551374289378
 20
-2203.5113957530912
 30
0.0
 11
-288.26141212289377
 21
-2205.5113957530921
 31
0.0
  0
LINE
  5
A78A
  8
01
  6
BYBLOCK
 10
-288.26141212289377
 20
-2205.5113957530921
 30
0.0
 11
-288.79731050289382
 21
-2203.5113957530912
 31
0.0
  0
LINE
  5
A78B
  8
01
  6
BYBLOCK
 10
-288.26141212289377
 20
-2205.5113957530921
 30
0.0
 11
-288.26141212289377
 21
-2203.5113957530912
 31
0.0
  0
TEXT
  5
A78C
  8
01
 10
-288.96141212289342
 20
-2165.8447290864242
 30
0.0
 40
3.5
  1
73.5
 50
90.0
  0
LINE
  5
A78D
  8
01
  6
BYBLOCK
 10
-288.79731050289371
 20
-2125.2613957530912
 30
0.0
 11
-288.26141212289372
 21
-2123.2613957530912
 31
0.0
  0
LINE
  5
A78E
  8
01
  6
BYBLOCK
 10
-288.26141212289372
 20
-2123.2613957530912
 30
0.0
 11
-287.72551374289372
 21
-2125.2613957530912
 31
0.0
  0
LINE
  5
A78F
  8
01
  6
BYBLOCK
 10
-288.26141212289372
 20
-2123.2613957530912
 30
0.0
 11
-288.26141212289372
 21
-2125.2613957530912
 31
0.0
  0
LINE
  5
A790
  8
01
  6
BYBLOCK
 10
-287.72551374289378
 20
-2194.7613957530898
 30
0.0
 11
-288.26141212289377
 21
-2196.7613957530912
 31
0.0
  0
LINE
  5
A791
  8
01
  6
BYBLOCK
 10
-288.26141212289377
 20
-2196.7613957530912
 30
0.0
 11
-288.79731050289382
 21
-2194.7613957530898
 31
0.0
  0
LINE
  5
A792
  8
01
  6
BYBLOCK
 10
-288.26141212289377
 20
-2196.7613957530912
 30
0.0
 11
-288.26141212289377
 21
-2194.7613957530898
 31
0.0
  0
TEXT
  5
A793
  8
01
 10
-298.96141212289331
 20
-2170.2197290864251
 30
0.0
 40
3.5
  1
82.5
 50
90.0
  0
LINE
  5
A794
  8
01
  6
BYBLOCK
 10
-298.79731050289371
 20
-2125.2613957530912
 30
0.0
 11
-298.26141212289372
 21
-2123.2613957530912
 31
0.0
  0
LINE
  5
A795
  8
01
  6
BYBLOCK
 10
-298.26141212289372
 20
-2123.2613957530912
 30
0.0
 11
-297.72551374289372
 21
-2125.2613957530912
 31
0.0
  0
LINE
  5
A796
  8
01
  6
BYBLOCK
 10
-298.26141212289372
 20
-2123.2613957530912
 30
0.0
 11
-298.26141212289372
 21
-2125.2613957530912
 31
0.0
  0
LINE
  5
A797
  8
01
  6
BYBLOCK
 10
-297.72551374289378
 20
-2203.5113957530912
 30
0.0
 11
-298.26141212289377
 21
-2205.5113957530921
 31
0.0
  0
LINE
  5
A798
  8
01
  6
BYBLOCK
 10
-298.26141212289377
 20
-2205.5113957530921
 30
0.0
 11
-298.79731050289382
 21
-2203.5113957530912
 31
0.0
  0
LINE
  5
A799
  8
01
  6
BYBLOCK
 10
-298.26141212289377
 20
-2205.5113957530921
 30
0.0
 11
-298.26141212289377
 21
-2203.5113957530912
 31
0.0
  0
TEXT
  5
A79A
  8
01
 10
-190.2114121249225
 20
-2199.3113957530982
 30
0.0
 40
3.5
  1
7.5
 50
90.0
  0
LINE
  5
A79B
  8
01
  6
BYBLOCK
 10
-190.04731050492279
 20
-2203.511395753098
 30
0.0
 11
-189.5114121249228
 21
-2201.511395753098
 31
0.0
  0
LINE
  5
A79C
  8
01
  6
BYBLOCK
 10
-189.5114121249228
 20
-2201.511395753098
 30
0.0
 11
-188.97551374492281
 21
-2203.511395753098
 31
0.0
  0
LINE
  5
A79D
  8
01
  6
BYBLOCK
 10
-189.5114121249228
 20
-2201.511395753098
 30
0.0
 11
-189.5114121249228
 21
-2203.511395753098
 31
0.0
  0
LINE
  5
A79E
  8
01
  6
BYBLOCK
 10
-188.97551374492281
 20
-2207.0113957530939
 30
0.0
 11
-189.5114121249228
 21
-2209.0113957530939
 31
0.0
  0
LINE
  5
A79F
  8
01
  6
BYBLOCK
 10
-189.5114121249228
 20
-2209.0113957530939
 30
0.0
 11
-190.04731050492279
 21
-2207.0113957530939
 31
0.0
  0
LINE
  5
A7A0
  8
01
  6
BYBLOCK
 10
-189.5114121249228
 20
-2209.0113957530939
 30
0.0
 11
-189.5114121249228
 21
-2207.0113957530939
 31
0.0
  0
TEXT
  5
A7A1
  8
01
 10
-157.04474545825639
 20
-2184.7605915185618
 30
0.0
 40
3.5
  1
\U+03C636
  0
LINE
  5
A7A2
  8
01
  6
BYBLOCK
 10
-167.51141212492271
 20
-2185.9964898985618
 30
0.0
 11
-169.51141212492271
 21
-2185.4605915185621
 31
0.0
  0
LINE
  5
A7A3
  8
01
  6
BYBLOCK
 10
-169.51141212492271
 20
-2185.4605915185621
 30
0.0
 11
-167.51141212492271
 21
-2184.9246931385619
 31
0.0
  0
LINE
  5
A7A4
  8
01
  6
BYBLOCK
 10
-169.51141212492271
 20
-2185.4605915185621
 30
0.0
 11
-167.51141212492271
 21
-2185.4605915185621
 31
0.0
  0
LINE
  5
A7A5
  8
01
  6
BYBLOCK
 10
-135.5114121249234
 20
-2184.9246931385619
 30
0.0
 11
-133.5114121249234
 21
-2185.4605915185621
 31
0.0
  0
LINE
  5
A7A6
  8
01
  6
BYBLOCK
 10
-133.5114121249234
 20
-2185.4605915185621
 30
0.0
 11
-135.5114121249234
 21
-2185.9964898985618
 31
0.0
  0
LINE
  5
A7A7
  8
01
  6
BYBLOCK
 10
-133.5114121249234
 20
-2185.4605915185621
 30
0.0
 11
-135.5114121249234
 21
-2185.4605915185621
 31
0.0
  0
LINE
  5
A7A8
  8
01
 10
-249.83630565091599
 20
-2180.9882127350402
 30
0.0
 11
-237.7766313154674
 21
-2157.8730250430608
 31
0.0
  0
LINE
  5
A7A9
  8
01
 10
-237.7766313154674
 20
-2157.8730250430608
 30
0.0
 11
-235.07663131546741
 21
-2157.8730250430608
 31
0.0
  0
LINE
  5
A7AA
  8
01
 10
-251.21013301481111
 20
-2190.7426223391581
 30
0.0
 11
-236.16937305801571
 21
-2173.1879669190962
 31
0.0
  0
LINE
  5
A7AB
  8
01
 10
-236.16937305801571
 20
-2173.1879669190962
 30
0.0
 11
-233.4693730580158
 21
-2173.1879669190962
 31
0.0
  0
LINE
  5
A7AC
  8
01
 10
-253.38458155176889
 20
-2200.8480289610379
 30
0.0
 11
-241.1178928465651
 21
-2192.075967173299
 31
0.0
  0
LINE
  5
A7AD
  8
01
 10
-241.1178928465651
 20
-2192.075967173299
 30
0.0
 11
-238.41789284656511
 21
-2192.075967173299
 31
0.0
  0
LINE
  5
A7AE
  8
01
 10
-162.79099911888699
 20
-2139.7389574759359
 30
0.0
 11
-177.8317590756823
 21
-2122.184302055874
 31
0.0
  0
LINE
  5
A7AF
  8
01
 10
-177.8317590756823
 20
-2122.184302055874
 30
0.0
 11
-180.53175907568229
 21
-2122.184302055874
 31
0.0
  0
LINE
  5
A7B0
  8
01
 10
-161.35507124702079
 20
-2150.216849615771
 30
0.0
 11
-176.27039838881419
 21
-2137.51192660478
 31
0.0
  0
LINE
  5
A7B1
  8
01
 10
-176.27039838881419
 20
-2137.51192660478
 30
0.0
 11
-178.9703983888142
 21
-2137.51192660478
 31
0.0
  0
TEXT
  5
A7B2
  8
01
 10
-58.4272445828787
 20
-2199.3113957530968
 30
0.0
 40
3.5
  1
7.5
 50
90.0
  0
LINE
  5
A7B3
  8
01
  6
BYBLOCK
 10
-58.263142962879051
 20
-2203.511395753098
 30
0.0
 11
-57.727244582879052
 21
-2201.5113957530971
 31
0.0
  0
LINE
  5
A7B4
  8
01
  6
BYBLOCK
 10
-57.727244582879052
 20
-2201.5113957530971
 30
0.0
 11
-57.191346202879053
 21
-2203.511395753098
 31
0.0
  0
LINE
  5
A7B5
  8
01
  6
BYBLOCK
 10
-57.727244582879052
 20
-2201.5113957530971
 30
0.0
 11
-57.727244582879052
 21
-2203.511395753098
 31
0.0
  0
LINE
  5
A7B6
  8
01
  6
BYBLOCK
 10
-57.191346202879053
 20
-2207.0113957530939
 30
0.0
 11
-57.727244582879052
 21
-2209.0113957530939
 31
0.0
  0
LINE
  5
A7B7
  8
01
  6
BYBLOCK
 10
-57.727244582879052
 20
-2209.0113957530939
 30
0.0
 11
-58.263142962879051
 21
-2207.0113957530939
 31
0.0
  0
LINE
  5
A7B8
  8
01
  6
BYBLOCK
 10
-57.727244582879052
 20
-2209.0113957530939
 30
0.0
 11
-57.727244582879052
 21
-2207.0113957530939
 31
0.0
  0
LINE
  5
A7B9
  8
01
 10
-84.101019141342974
 20
-2203.933797496979
 30
0.0
 11
-102.0362403524454
 21
-2180.9170200343001
 31
0.0
1001
ACAD
1000
DSTYLE
1002
{
1070
    79
1070
     2
1070
   179
1070
     2
1070
   272
1070
     2
1070
   341
1005
0
1002
}
  0
LINE
  5
A7BA
  8
01
 10
-102.0362403524454
 20
-2180.9170200343001
 30
0.0
 11
-99.336240352445429
 21
-2180.9170200343001
 31
0.0
1001
ACAD
1000
DSTYLE
1002
{
1070
    79
1070
     2
1070
   179
1070
     2
1070
   272
1070
     2
1070
   341
1005
0
1002
}
  0
TEXT
  5
A7BB
  8
01
 10
-82.738383671709414
 20
-2257.1115411133392
 30
0.0
 40
3.5
  1
\U+03C68
  0
LINE
  5
A7BC
  8
01
  6
BYBLOCK
 10
-76.87171700504274
 20
-2257.2756427333379
 30
0.0
 11
-74.87171700504274
 21
-2257.811541113339
 31
0.0
  0
LINE
  5
A7BD
  8
01
  6
BYBLOCK
 10
-74.87171700504274
 20
-2257.811541113339
 30
0.0
 11
-76.87171700504274
 21
-2258.3474394933392
 31
0.0
  0
LINE
  5
A7BE
  8
01
  6
BYBLOCK
 10
-74.87171700504274
 20
-2257.811541113339
 30
0.0
 11
-76.87171700504274
 21
-2257.811541113339
 31
0.0
  0
LINE
  5
A7BF
  8
01
  6
BYBLOCK
 10
-80.87171700504274
 20
-2258.3474394933392
 30
0.0
 11
-82.871717005042726
 21
-2257.811541113339
 31
0.0
  0
LINE
  5
A7C0
  8
01
  6
BYBLOCK
 10
-82.871717005042726
 20
-2257.811541113339
 30
0.0
 11
-80.87171700504274
 21
-2257.2756427333379
 31
0.0
  0
LINE
  5
A7C1
  8
01
  6
BYBLOCK
 10
-82.871717005042726
 20
-2257.811541113339
 30
0.0
 11
-80.87171700504274
 21
-2257.811541113339
 31
0.0
  0
TEXT
  5
A7C2
  8
01
 10
-58.427244582879453
 20
-2234.8447290864269
 30
0.0
 40
3.5
  1
40
 50
90.0
  0
LINE
  5
A7C3
  8
01
  6
BYBLOCK
 10
-57.191346202879807
 20
-2247.011395753093
 30
0.0
 11
-57.727244582879813
 21
-2249.011395753093
 31
0.0
  0
LINE
  5
A7C4
  8
01
  6
BYBLOCK
 10
-57.727244582879813
 20
-2249.011395753093
 30
0.0
 11
-58.263142962879812
 21
-2247.011395753093
 31
0.0
  0
LINE
  5
A7C5
  8
01
  6
BYBLOCK
 10
-57.727244582879813
 20
-2249.011395753093
 30
0.0
 11
-57.727244582879813
 21
-2247.011395753093
 31
0.0
  0
LINE
  5
A7C6
  8
01
  6
BYBLOCK
 10
-58.263142962879797
 20
-2211.011395753093
 30
0.0
 11
-57.727244582879813
 21
-2209.0113957530939
 31
0.0
  0
LINE
  5
A7C7
  8
01
  6
BYBLOCK
 10
-57.727244582879813
 20
-2209.0113957530939
 30
0.0
 11
-57.191346202879807
 21
-2211.011395753093
 31
0.0
  0
LINE
  5
A7C8
  8
01
  6
BYBLOCK
 10
-57.727244582879813
 20
-2209.0113957530939
 30
0.0
 11
-57.727244582879813
 21
-2211.011395753093
 31
0.0
  0
LINE
  5
A7C9
  8
01
 10
-135.06610616078061
 20
-2222.9571171569951
 30
0.0
 11
-130.48500496323081
 21
-2242.2178598712048
 31
0.0
  0
LINE
  5
A7CA
  8
01
 10
-130.48500496323081
 20
-2242.2178598712048
 30
0.0
 11
-133.1850049632308
 21
-2242.2178598712048
 31
0.0
  0
LINE
  5
A7CB
  8
01
 10
-110.6295279682172
 20
-2218.9627045848938
 30
0.0
 11
-130.48500496323081
 21
-2242.2178598712048
 31
0.0
  0
TEXT
  5
A7CC
  8
01
 10
-233.01171260653311
 20
-2213.211395753091
 30
0.0
 40
3.5
  1
4
 50
90.0
  0
LINE
  5
A7CD
  8
01
  6
BYBLOCK
 10
-232.8476109865334
 20
-2207.5113957530912
 30
0.0
 11
-232.3117126065334
 21
-2205.5113957530921
 31
0.0
  0
LINE
  5
A7CE
  8
01
  6
BYBLOCK
 10
-232.3117126065334
 20
-2205.5113957530921
 30
0.0
 11
-231.7758142265335
 21
-2207.5113957530912
 31
0.0
  0
LINE
  5
A7CF
  8
01
  6
BYBLOCK
 10
-232.3117126065334
 20
-2205.5113957530921
 30
0.0
 11
-232.3117126065334
 21
-2207.5113957530912
 31
0.0
  0
LINE
  5
A7D0
  8
01
  6
BYBLOCK
 10
-231.7758142265335
 20
-2199.511395753098
 30
0.0
 11
-232.3117126065334
 21
-2201.511395753098
 31
0.0
  0
LINE
  5
A7D1
  8
01
  6
BYBLOCK
 10
-232.3117126065334
 20
-2201.511395753098
 30
0.0
 11
-232.8476109865334
 21
-2199.511395753098
 31
0.0
  0
LINE
  5
A7D2
  8
01
  6
BYBLOCK
 10
-232.3117126065334
 20
-2201.511395753098
 30
0.0
 11
-232.3117126065334
 21
-2199.511395753098
 31
0.0
  0
VIEWPORT
  5
57
 67
     1
  8
0
 10
-3.7717277109752549
 20
10.09791912461025
 30
0.0
 40
584.3119953342931
 41
268.65685581257293
 68
     1
 69
     1
1001
ACAD
1000
MVIEW
1002
{
1070
    16
1010
0.0
1020
0.0
1030
0.0
1010
0.0
1020
0.0
1030
1.0
1040
0.0
1040
268.65685581257293
1040
-3.7717277109752549
1040
10.09791912461025
1040
50.0
1040
0.0
1040
0.0
1070
     0
1070
   100
1070
     1
1070
     1
1070
     0
1070
     0
1070
     0
1070
     0
1040
0.0
1040
0.0
1040
0.0
1040
10.0
1040
10.0
1040
10.0
1040
10.0
1070
     0
1002
{
1002
}
1002
}
  0
ENDSEC
  0
EOF
