  0
SECTION
  2
HEADER
  9
$ACADVER
  1
AC1009
  9
$INSBASE
 10
0.0
 20
0.0
 30
0.0
  9
$EXTMIN
 10
1371.1262964357711
 20
260.4417527329137
 30
0.0
  9
$EXTMAX
 10
1723.89011724127
 20
475.1164130560623
 30
0.0
  9
$LIMMIN
 10
0.0
 20
0.0
  9
$LIMMAX
 10
420.0
 20
297.0
  9
$ORTHOMODE
 70
     0
  9
$REGENMODE
 70
     1
  9
$FILLMODE
 70
     1
  9
$QTEXTMODE
 70
     0
  9
$MIRRTEXT
 70
     1
  9
$DRAGMODE
 70
     2
  9
$LTSCALE
 40
0.5
  9
$OSMODE
 70
    63
  9
$ATTMODE
 70
     1
  9
$TEXTSIZE
 40
4.0
  9
$TRACEWID
 40
1.0
  9
$TEXTSTYLE
  7
STANDARD
  9
$CLAYER
  8
1TEXT
  9
$CELTYPE
  6
BYLAYER
  9
$CECOLOR
 62
   256
  9
$DIMSCALE
 40
1.0
  9
$DIMASZ
 40
2.0
  9
$DIMEXO
 40
0.0
  9
$DIMDLI
 40
7.0
  9
$DIMRND
 40
0.0
  9
$DIMDLE
 40
0.0
  9
$DIMEXE
 40
1.0
  9
$DIMTP
 40
0.0
  9
$DIMTM
 40
0.0
  9
$DIMTXT
 40
3.5
  9
$DIMCEN
 40
0.0
  9
$DIMTSZ
 40
0.0
  9
$DIMTOL
 70
     0
  9
$DIMLIM
 70
     0
  9
$DIMTIH
 70
     0
  9
$DIMTOH
 70
     0
  9
$DIMSE1
 70
     0
  9
$DIMSE2
 70
     0
  9
$DIMTAD
 70
     1
  9
$DIMZIN
 70
     8
  9
$DIMBLK
  1

  9
$DIMASO
 70
     1
  9
$DIMSHO
 70
     1
  9
$DIMPOST
  1
 
  9
$DIMAPOST
  1

  9
$DIMALT
 70
     0
  9
$DIMALTD
 70
     2
  9
$DIMALTF
 40
25.399999999999999
  9
$DIMLFAC
 40
1.0
  9
$DIMTOFL
 70
     1
  9
$DIMTVP
 40
0.0
  9
$DIMTIX
 70
     0
  9
$DIMSOXD
 70
     0
  9
$DIMSAH
 70
     1
  9
$DIMBLK1
  1
OPEN30
  9
$DIMBLK2
  1
OPEN30
  9
$DIMSTYLE
  2
NEWX10
  9
$DIMCLRD
 70
   256
  9
$DIMCLRE
 70
   256
  9
$DIMCLRT
 70
   201
  9
$DIMTFAC
 40
0.7
  9
$DIMGAP
 40
0.7
  9
$LUNITS
 70
     2
  9
$LUPREC
 70
     4
  9
$SKETCHINC
 40
1.0
  9
$FILLETRAD
 40
0.0
  9
$AUNITS
 70
     0
  9
$AUPREC
 70
     2
  9
$MENU
  1
acad
  9
$ELEVATION
 40
0.0
  9
$PELEVATION
 40
0.0
  9
$THICKNESS
 40
0.0
  9
$LIMCHECK
 70
     0
  9
$BLIPMODE
 70
     0
  9
$CHAMFERA
 40
0.5
  9
$CHAMFERB
 40
0.5
  9
$SKPOLY
 70
     0
  9
$TDCREATE
 40
2451318.621352917
  9
$TDUPDATE
 40
2454399.4448898612
  9
$TDINDWG
 40
2.7176566666999999
  9
$TDUSRTIMER
 40
2.7176566666999999
  9
$USRTIMER
 70
     1
  9
$ANGBASE
 50
0.0
  9
$ANGDIR
 70
     0
  9
$PDMODE
 70
     0
  9
$PDSIZE
 40
0.0
  9
$PLINEWID
 40
0.0
  9
$COORDS
 70
     2
  9
$SPLFRAME
 70
     0
  9
$SPLINETYPE
 70
     6
  9
$SPLINESEGS
 70
     8
  9
$ATTDIA
 70
     0
  9
$ATTREQ
 70
     1
  9
$HANDLING
 70
     1
  9
$HANDSEED
  5
B8F2
  9
$SURFTAB1
 70
     6
  9
$SURFTAB2
 70
     6
  9
$SURFTYPE
 70
     6
  9
$SURFU
 70
     6
  9
$SURFV
 70
     6
  9
$UCSNAME
  2

  9
$UCSORG
 10
0.0
 20
0.0
 30
0.0
  9
$UCSXDIR
 10
1.0
 20
0.0
 30
0.0
  9
$UCSYDIR
 10
0.0
 20
1.0
 30
0.0
  9
$PUCSNAME
  2

  9
$PUCSORG
 10
0.0
 20
0.0
 30
0.0
  9
$PUCSXDIR
 10
1.0
 20
0.0
 30
0.0
  9
$PUCSYDIR
 10
0.0
 20
1.0
 30
0.0
  9
$USERI1
 70
     0
  9
$USERI2
 70
     0
  9
$USERI3
 70
     0
  9
$USERI4
 70
     0
  9
$USERI5
 70
     0
  9
$USERR1
 40
0.0
  9
$USERR2
 40
0.0
  9
$USERR3
 40
0.0
  9
$USERR4
 40
0.0
  9
$USERR5
 40
11.5
  9
$WORLDVIEW
 70
     1
  9
$SHADEDGE
 70
     3
  9
$SHADEDIF
 70
    70
  9
$TILEMODE
 70
     1
  9
$MAXACTVP
 70
    48
  9
$PLIMCHECK
 70
     0
  9
$PEXTMIN
 10
1.0000000000000000E+020
 20
1.0000000000000000E+020
 30
1.0000000000000000E+020
  9
$PEXTMAX
 10
-1.0000000000000000E+020
 20
-1.0000000000000000E+020
 30
-1.0000000000000000E+020
  9
$PLIMMIN
 10
0.0
 20
0.0
  9
$PLIMMAX
 10
420.0
 20
297.0
  9
$UNITMODE
 70
     0
  9
$VISRETAIN
 70
     1
  9
$PLINEGEN
 70
     0
  9
$PSLTSCALE
 70
     1
  0
ENDSEC
  0
SECTION
  2
TABLES
  0
TABLE
  2
VPORT
 70
     4
  0
VPORT
  2
*ACTIVE
 70
     0
 10
0.0
 20
0.0
 11
1.0
 21
1.0
 12
1547.5054604753329
 22
367.78096427875971
 13
0.0
 23
0.0
 14
10.0
 24
10.0
 15
10.0
 25
10.0
 16
0.0
 26
0.0
 36
1.0
 17
0.0
 27
0.0
 37
0.0
 40
247.6223588183995
 41
1.508086253369272
 42
50.0
 43
0.0
 44
0.0
 50
0.0
 51
0.0
 71
     0
 72
   100
 73
     1
 74
     1
 75
     0
 76
     0
 77
     0
 78
     0
  0
ENDTAB
  0
TABLE
  2
LTYPE
 70
    15
  0
LTYPE
  2
CONTINUOUS
 70
     0
  3
Solid line
 72
    65
 73
     0
 40
0.0
  0
LTYPE
  2
CENTER2
 70
     0
  3
Center (.5x) ___ _ ___ _ ___ _ ___ _ ___ _ ___
 72
    65
 73
     4
 40
28.574999999999999
 49
19.050000000000001
 49
-3.1749999999999989
 49
3.1749999999999989
 49
-3.1749999999999989
  0
LTYPE
  2
XREF1|CENTER2
 70
    48
  3
Center (.5x) ___ _ ___ _ ___ _ ___ _ ___ _ ___
 72
    65
 73
     4
 40
28.574999999999999
 49
19.050000000000001
 49
-3.1749999999999989
 49
3.1749999999999989
 49
-3.1749999999999989
  0
LTYPE
  2
HIDDEN
 70
     0
  3
Hidden __ __ __ __ __ __ __ __ __ __ __ __ __ _
 72
    65
 73
     2
 40
9.5249999999999986
 49
6.3499999999999988
 49
-3.1749999999999989
  0
LTYPE
  2
PHANTOM2
 70
     0
  3
Phantom (.5x) ___ _ _ ___ _ _ ___ _ _ ___ _ _
 72
    65
 73
     6
 40
31.75
 49
15.875
 49
-3.1749999999999989
 49
3.1749999999999989
 49
-3.1749999999999989
 49
3.1749999999999989
 49
-3.1749999999999989
  0
ENDTAB
  0
TABLE
  2
LAYER
 70
    98
  0
LAYER
  2
0
 70
     0
 62
     7
  6
CONTINUOUS
  0
LAYER
  2
1CENTER
 70
     0
 62
     7
  6
CENTER2
  0
LAYER
  2
1TEXT
 70
     0
 62
     7
  6
CONTINUOUS
  0
LAYER
  2
1DIM
 70
     0
 62
     7
  6
CONTINUOUS
  0
LAYER
  2
1HIDDEN
 70
     0
 62
     7
  6
HIDDEN
  0
LAYER
  2
1PHANTOM
 70
     0
 62
     7
  6
PHANTOM2
  0
LAYER
  2
1HATCH
 70
     0
 62
     7
  6
CONTINUOUS
  0
LAYER
  2
01
 70
     0
 62
     1
  6
CONTINUOUS
  0
LAYER
  2
XREF1|1CENTER
 70
    48
 62
     7
  6
XREF1|CENTER2
  0
LAYER
  2
A3WAKUDAKE|THICK
 70
    48
 62
     7
  6
CONTINUOUS
  0
LAYER
  2
A3WAKUDAKE|POINT
 70
    48
 62
     7
  6
CONTINUOUS
  0
LAYER
  2
A3WAKUDAKE|1CENTER
 70
    48
 62
     7
  6
CONTINUOUS
  0
LAYER
  2
A3WAKUDAKE|0-6
 70
    48
 62
     7
  6
CONTINUOUS
  0
LAYER
  2
A3WAKUDAKE|1DIM
 70
    48
 62
     7
  6
CONTINUOUS
  0
ENDTAB
  0
TABLE
  2
STYLE
 70
    20
  0
STYLE
  2
STANDARD
 70
     0
 40
0.0
 41
1.0
 50
0.0
 71
     0
 42
4.0
  3
txt.shx
  4
extfont.shx
  0
ENDTAB
  0
TABLE
  2
VIEW
 70
     0
  0
ENDTAB
  0
TABLE
  2
UCS
 70
     0
  0
ENDTAB
  0
TABLE
  2
APPID
 70
     8
  0
APPID
  2
ACAD
 70
     0
  0
APPID
  2
DRAWINGVARIABLESXDATA
 70
     0
  0
APPID
  2
CONTENTTABDATA
 70
     0
  0
APPID
  2
CONTENTCURRENTTAB
 70
     0
  0
APPID
  2
CONTENTBLOCKDESCRIPTION
 70
     0
  0
APPID
  2
CONTENTBLOCKICON
 70
     0
  0
APPID
  2
CONTENTLONGBLOCKNAME
 70
     0
  0
APPID
  2
ACAD_PSEXT
 70
     0
  0
ENDTAB
  0
TABLE
  2
DIMSTYLE
 70
     7
  0
DIMSTYLE
  2
NEWX10
 70
     0
  3
 
  4

  5

  6
OPEN30
  7
OPEN30
 40
1.0
 41
2.0
 42
0.0
 43
7.0
 44
1.0
 45
0.0
 46
0.0
 47
0.0
 48
0.0
140
3.5
141
0.0
142
0.0
143
25.399999999999999
144
1.0
145
0.0
146
0.7
147
0.7
 71
     0
 72
     0
 73
     0
 74
     0
 75
     0
 76
     0
 77
     1
 78
     8
170
     0
171
     2
172
     1
173
     1
174
     0
175
     0
176
   256
177
   256
178
   201
  0
ENDTAB
  0
ENDSEC
  0
SECTION
  2
BLOCKS
  0
BLOCK
  8
0
  2
$MODEL_SPACE
 70
     0
 10
0.0
 20
0.0
 30
0.0
  3
$MODEL_SPACE
  1

  0
ENDBLK
  5
1A
  8
0
  0
BLOCK
 67
     1
  8
0
  2
$PAPER_SPACE
 70
     0
 10
0.0
 20
0.0
 30
0.0
  3
$PAPER_SPACE
  1

  0
ENDBLK
  5
17
 67
     1
  8
0
  0
BLOCK
  8
0
  2
_OPEN30
 70
     0
 10
0.0
 20
0.0
 30
0.0
  3
_OPEN30
  1

  0
LINE
  5
44
  8
0
  6
BYBLOCK
 62
     0
 10
-1.0
 20
0.26794919
 30
0.0
 11
0.0
 21
0.0
 31
0.0
  0
LINE
  5
45
  8
0
  6
BYBLOCK
 62
     0
 10
0.0
 20
0.0
 30
0.0
 11
-1.0
 21
-0.26794919
 31
0.0
  0
LINE
  5
46
  8
0
  6
BYBLOCK
 62
     0
 10
0.0
 20
0.0
 30
0.0
 11
-1.0
 21
0.0
 31
0.0
  0
ENDBLK
  5
47
  8
0
  0
BLOCK
  8
0
  2
XREF1
 70
    36
 10
0.0
 20
0.0
 30
0.0
  3
XREF1
  1
D:\ACLT\FORMAT\KAWAJUN(9)図面用.dwg
  0
ENDBLK
  5
5D
  8
0
  0
BLOCK
  8
0
  2
A3WAKUDAKE
 70
    36
 10
0.0
 20
0.0
 30
0.0
  3
A3WAKUDAKE
  1
D:\ACLT\FORMAT\A3WAKUdake.dwg
  0
ENDBLK
  5
8892
  8
0
  0
BLOCK
  8
0
  2
*U13
 70
     1
 10
0.0
 20
0.0
 30
0.0
  3
*U13
  1

  0
TEXT
  5
B6CF
  8
1DIM
 62
   201
 10
1460.483421517612
 20
294.1162974846651
 30
0.0
 40
3.5
  1
12.6 
  0
ENDBLK
  5
B6D1
  8
0
  0
BLOCK
  8
0
  2
*U14
 70
     1
 10
0.0
 20
0.0
 30
0.0
  3
*U14
  1

  0
TEXT
  5
B6D3
  8
1DIM
 62
   201
 10
1461.433928748291
 20
304.11629748460689
 30
0.0
 40
3.5
  1
φ9
  0
ENDBLK
  5
B6D5
  8
0
  0
BLOCK
  8
0
  2
*U15
 70
     1
 10
0.0
 20
0.0
 30
0.0
  3
*U15
  1

  0
TEXT
  5
B6D7
  8
1DIM
 62
   201
 10
1529.35059541907
 20
415.27494297441967
 30
0.0
 40
3.5
  1
26.5 
  0
ENDBLK
  5
B6D9
  8
0
  0
BLOCK
  8
0
  2
*U16
 70
     1
 10
0.0
 20
0.0
 30
0.0
  3
*U16
  1

  0
TEXT
  5
B6DB
  8
1DIM
 62
   201
 10
1587.150595423177
 20
360.16285475991481
 30
0.0
 40
3.5
  1
6.6 
 50
90.0
  0
ENDBLK
  5
B6DD
  8
0
  0
BLOCK
  8
0
  2
*U17
 70
     1
 10
0.0
 20
0.0
 30
0.0
  3
*U17
  1

  0
TEXT
  5
B6DF
  8
1DIM
 62
   201
 10
1587.150595423177
 20
337.69129754170922
 30
0.0
 40
3.5
  1
20 
 50
90.0
  0
ENDBLK
  5
B6E1
  8
0
  0
BLOCK
  8
0
  2
*U18
 70
     1
 10
0.0
 20
0.0
 30
0.0
  3
*U18
  1

  0
TEXT
  5
B6E3
  8
1DIM
 62
   201
 10
1533.9339028442339
 20
314.11629748386622
 30
0.0
 40
3.5
  1
22 
  0
ENDBLK
  5
B6E5
  8
0
  0
BLOCK
  8
0
  2
*U19
 70
     1
 10
0.0
 20
0.0
 30
0.0
  3
*U19
  1

  0
TEXT
  5
B6E7
  8
1DIM
 62
   201
 10
1500.6505954149641
 20
358.99963081715663
 30
0.0
 40
3.5
  1
77 
 50
90.0
  0
ENDBLK
  5
B6E9
  8
0
  0
ENDSEC
  0
SECTION
  2
ENTITIES
  0
LINE
  5
993D
  8
01
 10
1684.86767150434
 20
402.96343039637441
 30
0.0
 11
1684.86767150434
 21
293.46176132622708
 31
0.0
  0
LINE
  5
993E
  8
01
 10
1693.8676715043409
 20
402.96343039637441
 30
0.0
 11
1693.8676715043409
 21
293.46176132622708
 31
0.0
  0
LINE
  5
993F
  8
01
 10
1702.86767150434
 20
402.96343039637441
 30
0.0
 11
1702.86767150434
 21
293.46176132622708
 31
0.0
  0
LINE
  5
A4E7
  8
01
 10
1469.5505954149389
 20
323.91629748466511
 30
0.0
 11
1469.5505954149471
 21
399.91629748454869
 31
0.0
  0
ARC
  5
A4E8
  8
01
 10
1469.0505954149389
 20
323.91629748466511
 30
0.0
 40
0.5
 50
270.00000000041689
 51
0.0
  0
ARC
  5
A4E9
  8
01
 10
1469.0505954149471
 20
399.91629748454869
 30
0.0
 40
0.5
 50
0.0
 51
90.0
  0
LINE
  5
A4EA
  8
01
 10
1460.5505954149389
 20
323.9162974846069
 30
0.0
 11
1460.550595414946
 21
399.9162974845778
 31
0.0
  0
ARC
  5
A4EB
  8
01
 10
1461.0505954149471
 20
399.9162974845778
 30
0.0
 40
0.5
 50
90.0
 51
180.0
  0
LINE
  5
A4EC
  8
01
 10
1469.0505954149471
 20
400.41629748454858
 30
0.0
 11
1461.0505954149471
 21
400.4162974845778
 31
0.0
  0
LINE
  5
A4ED
  8
01
 10
1461.0505954149389
 20
323.4162974846069
 30
0.0
 11
1469.0505954149389
 21
323.41629748466511
 31
0.0
  0
ARC
  5
A4EE
  8
01
 10
1461.0505954149389
 20
323.9162974846069
 30
0.0
 40
0.5
 50
180.0
 51
270.0
  0
LINE
  5
A4EF
  8
1CENTER
 10
1483.964676933376
 20
340.41629748430159
 30
0.0
 11
1448.4661115619001
 21
340.4162974844167
 31
0.0
  0
LINE
  5
A4F1
  8
1PHANTOM
 10
1469.5505954149471
 20
347.51629748496202
 30
0.0
 11
1469.5505954149389
 21
332.81629748495033
 31
0.0
  0
LINE
  5
A4F2
  8
1PHANTOM
 10
1460.550595414946
 20
347.51629748496202
 30
0.0
 11
1460.550595414946
 21
332.81629748492122
 31
0.0
  0
LINE
  5
A4F3
  8
1PHANTOM
 10
1469.5505954149471
 20
347.51629748490382
 30
0.0
 11
1469.5505954149389
 21
332.81629748489212
 31
0.0
  0
LINE
  5
A4F4
  8
1PHANTOM
 10
1460.550595414946
 20
347.51629748490382
 30
0.0
 11
1460.550595414946
 21
332.81629748486301
 31
0.0
  0
LINE
  5
A4F5
  8
01
 10
1471.3505954149709
 20
349.9162974853345
 30
0.0
 11
1471.3505954149571
 21
330.66629748507262
 31
0.0
  0
LINE
  5
A4F6
  8
01
 10
1458.750595414951
 20
349.9162974853345
 30
0.0
 11
1458.750595414944
 21
330.66629748507262
 31
0.0
  0
POLYLINE
  5
A4F7
  8
01
 10
1458.7505954149431
 20
330.66629748504351
 30
0.0
 66
     1
 70
     8
  0
VERTEX
  8
01
  5
B6EA
 10
1458.75
 20
330.666
 30
0.000000
  70
    32
  0
VERTEX
  8
01
  5
B6EB
 10
1458.75
 20
330.625
 30
0.000000
  70
    32
  0
VERTEX
  8
01
  5
B6EC
 10
1458.75
 20
330.585
 30
0.000000
  70
    32
  0
VERTEX
  8
01
  5
B6ED
 10
1458.75
 20
330.544
 30
0.000000
  70
    32
  0
VERTEX
  8
01
  5
B6EE
 10
1458.75
 20
330.503
 30
0.000000
  70
    32
  0
VERTEX
  8
01
  5
B6EF
 10
1458.75
 20
330.462
 30
0.000000
  70
    32
  0
VERTEX
  8
01
  5
B6F0
 10
1458.75
 20
330.421
 30
0.000000
  70
    32
  0
VERTEX
  8
01
  5
B6F1
 10
1458.76
 20
330.380
 30
0.000000
  70
    32
  0
VERTEX
  8
01
  5
B6F2
 10
1458.76
 20
330.339
 30
0.000000
  70
    32
  0
VERTEX
  8
01
  5
B6F3
 10
1458.76
 20
330.299
 30
0.000000
  70
    32
  0
VERTEX
  8
01
  5
B6F4
 10
1458.76
 20
330.258
 30
0.000000
  70
    32
  0
VERTEX
  8
01
  5
B6F5
 10
1458.76
 20
330.217
 30
0.000000
  70
    32
  0
VERTEX
  8
01
  5
B6F6
 10
1458.77
 20
330.176
 30
0.000000
  70
    32
  0
VERTEX
  8
01
  5
B6F7
 10
1458.77
 20
330.135
 30
0.000000
  70
    32
  0
VERTEX
  8
01
  5
B6F8
 10
1458.77
 20
330.095
 30
0.000000
  70
    32
  0
VERTEX
  8
01
  5
B6F9
 10
1458.78
 20
330.054
 30
0.000000
  70
    32
  0
VERTEX
  8
01
  5
B6FA
 10
1458.78
 20
330.013
 30
0.000000
  70
    32
  0
VERTEX
  8
01
  5
B6FB
 10
1458.78
 20
329.973
 30
0.000000
  70
    32
  0
VERTEX
  8
01
  5
B6FC
 10
1458.79
 20
329.932
 30
0.000000
  70
    32
  0
VERTEX
  8
01
  5
B6FD
 10
1458.79
 20
329.891
 30
0.000000
  70
    32
  0
VERTEX
  8
01
  5
B6FE
 10
1458.80
 20
329.851
 30
0.000000
  70
    32
  0
VERTEX
  8
01
  5
B6FF
 10
1458.80
 20
329.810
 30
0.000000
  70
    32
  0
VERTEX
  8
01
  5
B700
 10
1458.81
 20
329.770
 30
0.000000
  70
    32
  0
VERTEX
  8
01
  5
B701
 10
1458.81
 20
329.729
 30
0.000000
  70
    32
  0
VERTEX
  8
01
  5
B702
 10
1458.82
 20
329.689
 30
0.000000
  70
    32
  0
VERTEX
  8
01
  5
B703
 10
1458.82
 20
329.648
 30
0.000000
  70
    32
  0
VERTEX
  8
01
  5
B704
 10
1458.83
 20
329.608
 30
0.000000
  70
    32
  0
VERTEX
  8
01
  5
B705
 10
1458.83
 20
329.567
 30
0.000000
  70
    32
  0
VERTEX
  8
01
  5
B706
 10
1458.84
 20
329.527
 30
0.000000
  70
    32
  0
VERTEX
  8
01
  5
B707
 10
1458.85
 20
329.487
 30
0.000000
  70
    32
  0
VERTEX
  8
01
  5
B708
 10
1458.85
 20
329.447
 30
0.000000
  70
    32
  0
VERTEX
  8
01
  5
B709
 10
1458.86
 20
329.406
 30
0.000000
  70
    32
  0
VERTEX
  8
01
  5
B70A
 10
1458.87
 20
329.366
 30
0.000000
  70
    32
  0
VERTEX
  8
01
  5
B70B
 10
1458.88
 20
329.326
 30
0.000000
  70
    32
  0
VERTEX
  8
01
  5
B70C
 10
1458.88
 20
329.286
 30
0.000000
  70
    32
  0
VERTEX
  8
01
  5
B70D
 10
1458.89
 20
329.246
 30
0.000000
  70
    32
  0
VERTEX
  8
01
  5
B70E
 10
1458.90
 20
329.206
 30
0.000000
  70
    32
  0
VERTEX
  8
01
  5
B70F
 10
1458.91
 20
329.166
 30
0.000000
  70
    32
  0
VERTEX
  8
01
  5
B710
 10
1458.92
 20
329.127
 30
0.000000
  70
    32
  0
VERTEX
  8
01
  5
B711
 10
1458.93
 20
329.087
 30
0.000000
  70
    32
  0
VERTEX
  8
01
  5
B712
 10
1458.93
 20
329.047
 30
0.000000
  70
    32
  0
VERTEX
  8
01
  5
B713
 10
1458.94
 20
329.007
 30
0.000000
  70
    32
  0
VERTEX
  8
01
  5
B714
 10
1458.95
 20
328.968
 30
0.000000
  70
    32
  0
VERTEX
  8
01
  5
B715
 10
1458.96
 20
328.928
 30
0.000000
  70
    32
  0
VERTEX
  8
01
  5
B716
 10
1458.97
 20
328.889
 30
0.000000
  70
    32
  0
VERTEX
  8
01
  5
B717
 10
1458.98
 20
328.849
 30
0.000000
  70
    32
  0
VERTEX
  8
01
  5
B718
 10
1458.99
 20
328.810
 30
0.000000
  70
    32
  0
VERTEX
  8
01
  5
B719
 10
1459.00
 20
328.771
 30
0.000000
  70
    32
  0
VERTEX
  8
01
  5
B71A
 10
1459.01
 20
328.732
 30
0.000000
  70
    32
  0
VERTEX
  8
01
  5
B71B
 10
1459.03
 20
328.692
 30
0.000000
  70
    32
  0
VERTEX
  8
01
  5
B71C
 10
1459.04
 20
328.653
 30
0.000000
  70
    32
  0
VERTEX
  8
01
  5
B71D
 10
1459.05
 20
328.614
 30
0.000000
  70
    32
  0
VERTEX
  8
01
  5
B71E
 10
1459.06
 20
328.576
 30
0.000000
  70
    32
  0
VERTEX
  8
01
  5
B71F
 10
1459.07
 20
328.537
 30
0.000000
  70
    32
  0
VERTEX
  8
01
  5
B720
 10
1459.08
 20
328.498
 30
0.000000
  70
    32
  0
VERTEX
  8
01
  5
B721
 10
1459.10
 20
328.459
 30
0.000000
  70
    32
  0
VERTEX
  8
01
  5
B722
 10
1459.11
 20
328.421
 30
0.000000
  70
    32
  0
VERTEX
  8
01
  5
B723
 10
1459.12
 20
328.382
 30
0.000000
  70
    32
  0
VERTEX
  8
01
  5
B724
 10
1459.14
 20
328.344
 30
0.000000
  70
    32
  0
VERTEX
  8
01
  5
B725
 10
1459.15
 20
328.305
 30
0.000000
  70
    32
  0
VERTEX
  8
01
  5
B726
 10
1459.16
 20
328.267
 30
0.000000
  70
    32
  0
VERTEX
  8
01
  5
B727
 10
1459.18
 20
328.229
 30
0.000000
  70
    32
  0
VERTEX
  8
01
  5
B728
 10
1459.19
 20
328.191
 30
0.000000
  70
    32
  0
VERTEX
  8
01
  5
B729
 10
1459.20
 20
328.153
 30
0.000000
  70
    32
  0
VERTEX
  8
01
  5
B72A
 10
1459.22
 20
328.115
 30
0.000000
  70
    32
  0
VERTEX
  8
01
  5
B72B
 10
1459.23
 20
328.077
 30
0.000000
  70
    32
  0
VERTEX
  8
01
  5
B72C
 10
1459.25
 20
328.040
 30
0.000000
  70
    32
  0
VERTEX
  8
01
  5
B72D
 10
1459.26
 20
328.002
 30
0.000000
  70
    32
  0
VERTEX
  8
01
  5
B72E
 10
1459.28
 20
327.964
 30
0.000000
  70
    32
  0
VERTEX
  8
01
  5
B72F
 10
1459.29
 20
327.927
 30
0.000000
  70
    32
  0
VERTEX
  8
01
  5
B730
 10
1459.31
 20
327.890
 30
0.000000
  70
    32
  0
VERTEX
  8
01
  5
B731
 10
1459.32
 20
327.852
 30
0.000000
  70
    32
  0
VERTEX
  8
01
  5
B732
 10
1459.34
 20
327.815
 30
0.000000
  70
    32
  0
VERTEX
  8
01
  5
B733
 10
1459.36
 20
327.778
 30
0.000000
  70
    32
  0
VERTEX
  8
01
  5
B734
 10
1459.37
 20
327.741
 30
0.000000
  70
    32
  0
VERTEX
  8
01
  5
B735
 10
1459.39
 20
327.705
 30
0.000000
  70
    32
  0
VERTEX
  8
01
  5
B736
 10
1459.41
 20
327.668
 30
0.000000
  70
    32
  0
VERTEX
  8
01
  5
B737
 10
1459.42
 20
327.631
 30
0.000000
  70
    32
  0
VERTEX
  8
01
  5
B738
 10
1459.44
 20
327.595
 30
0.000000
  70
    32
  0
VERTEX
  8
01
  5
B739
 10
1459.46
 20
327.559
 30
0.000000
  70
    32
  0
VERTEX
  8
01
  5
B73A
 10
1459.48
 20
327.522
 30
0.000000
  70
    32
  0
VERTEX
  8
01
  5
B73B
 10
1459.49
 20
327.486
 30
0.000000
  70
    32
  0
VERTEX
  8
01
  5
B73C
 10
1459.51
 20
327.450
 30
0.000000
  70
    32
  0
VERTEX
  8
01
  5
B73D
 10
1459.53
 20
327.414
 30
0.000000
  70
    32
  0
VERTEX
  8
01
  5
B73E
 10
1459.55
 20
327.379
 30
0.000000
  70
    32
  0
VERTEX
  8
01
  5
B73F
 10
1459.57
 20
327.343
 30
0.000000
  70
    32
  0
VERTEX
  8
01
  5
B740
 10
1459.59
 20
327.307
 30
0.000000
  70
    32
  0
VERTEX
  8
01
  5
B741
 10
1459.61
 20
327.272
 30
0.000000
  70
    32
  0
VERTEX
  8
01
  5
B742
 10
1459.62
 20
327.237
 30
0.000000
  70
    32
  0
VERTEX
  8
01
  5
B743
 10
1459.64
 20
327.202
 30
0.000000
  70
    32
  0
VERTEX
  8
01
  5
B744
 10
1459.66
 20
327.167
 30
0.000000
  70
    32
  0
VERTEX
  8
01
  5
B745
 10
1459.68
 20
327.132
 30
0.000000
  70
    32
  0
VERTEX
  8
01
  5
B746
 10
1459.70
 20
327.097
 30
0.000000
  70
    32
  0
VERTEX
  8
01
  5
B747
 10
1459.72
 20
327.062
 30
0.000000
  70
    32
  0
VERTEX
  8
01
  5
B748
 10
1459.74
 20
327.028
 30
0.000000
  70
    32
  0
VERTEX
  8
01
  5
B749
 10
1459.76
 20
326.993
 30
0.000000
  70
    32
  0
VERTEX
  8
01
  5
B74A
 10
1459.79
 20
326.959
 30
0.000000
  70
    32
  0
VERTEX
  8
01
  5
B74B
 10
1459.81
 20
326.925
 30
0.000000
  70
    32
  0
VERTEX
  8
01
  5
B74C
 10
1459.83
 20
326.891
 30
0.000000
  70
    32
  0
VERTEX
  8
01
  5
B74D
 10
1459.85
 20
326.857
 30
0.000000
  70
    32
  0
VERTEX
  8
01
  5
B74E
 10
1459.87
 20
326.824
 30
0.000000
  70
    32
  0
VERTEX
  8
01
  5
B74F
 10
1459.89
 20
326.790
 30
0.000000
  70
    32
  0
VERTEX
  8
01
  5
B750
 10
1459.91
 20
326.757
 30
0.000000
  70
    32
  0
VERTEX
  8
01
  5
B751
 10
1459.94
 20
326.724
 30
0.000000
  70
    32
  0
VERTEX
  8
01
  5
B752
 10
1459.96
 20
326.690
 30
0.000000
  70
    32
  0
VERTEX
  8
01
  5
B753
 10
1459.98
 20
326.657
 30
0.000000
  70
    32
  0
VERTEX
  8
01
  5
B754
 10
1460.00
 20
326.625
 30
0.000000
  70
    32
  0
VERTEX
  8
01
  5
B755
 10
1460.03
 20
326.592
 30
0.000000
  70
    32
  0
VERTEX
  8
01
  5
B756
 10
1460.05
 20
326.559
 30
0.000000
  70
    32
  0
VERTEX
  8
01
  5
B757
 10
1460.07
 20
326.527
 30
0.000000
  70
    32
  0
VERTEX
  8
01
  5
B758
 10
1460.10
 20
326.495
 30
0.000000
  70
    32
  0
VERTEX
  8
01
  5
B759
 10
1460.12
 20
326.463
 30
0.000000
  70
    32
  0
VERTEX
  8
01
  5
B75A
 10
1460.15
 20
326.431
 30
0.000000
  70
    32
  0
VERTEX
  8
01
  5
B75B
 10
1460.17
 20
326.399
 30
0.000000
  70
    32
  0
VERTEX
  8
01
  5
B75C
 10
1460.19
 20
326.368
 30
0.000000
  70
    32
  0
VERTEX
  8
01
  5
B75D
 10
1460.22
 20
326.336
 30
0.000000
  70
    32
  0
VERTEX
  8
01
  5
B75E
 10
1460.24
 20
326.305
 30
0.000000
  70
    32
  0
VERTEX
  8
01
  5
B75F
 10
1460.27
 20
326.274
 30
0.000000
  70
    32
  0
VERTEX
  8
01
  5
B760
 10
1460.29
 20
326.243
 30
0.000000
  70
    32
  0
VERTEX
  8
01
  5
B761
 10
1460.32
 20
326.212
 30
0.000000
  70
    32
  0
VERTEX
  8
01
  5
B762
 10
1460.34
 20
326.181
 30
0.000000
  70
    32
  0
VERTEX
  8
01
  5
B763
 10
1460.37
 20
326.151
 30
0.000000
  70
    32
  0
VERTEX
  8
01
  5
B764
 10
1460.39
 20
326.121
 30
0.000000
  70
    32
  0
VERTEX
  8
01
  5
B765
 10
1460.42
 20
326.090
 30
0.000000
  70
    32
  0
VERTEX
  8
01
  5
B766
 10
1460.45
 20
326.060
 30
0.000000
  70
    32
  0
VERTEX
  8
01
  5
B767
 10
1460.47
 20
326.031
 30
0.000000
  70
    32
  0
VERTEX
  8
01
  5
B768
 10
1460.50
 20
326.001
 30
0.000000
  70
    32
  0
VERTEX
  8
01
  5
B769
 10
1460.52
 20
325.972
 30
0.000000
  70
    32
  0
VERTEX
  8
01
  5
B76A
 10
1460.55
 20
325.942
 30
0.000000
  70
    32
  0
SEQEND
  8
01
  5
B76B
  0
POLYLINE
  5
A4F8
  8
01
 10
1469.5505954149442
 20
325.9422815525084
 30
0.0
 66
     1
 70
     8
  0
VERTEX
  8
01
  5
B76C
 10
1469.55
 20
325.942
 30
0.000000
  70
    32
  0
VERTEX
  8
01
  5
B76D
 10
1469.58
 20
325.972
 30
0.000000
  70
    32
  0
VERTEX
  8
01
  5
B76E
 10
1469.60
 20
326.001
 30
0.000000
  70
    32
  0
VERTEX
  8
01
  5
B76F
 10
1469.63
 20
326.031
 30
0.000000
  70
    32
  0
VERTEX
  8
01
  5
B770
 10
1469.66
 20
326.060
 30
0.000000
  70
    32
  0
VERTEX
  8
01
  5
B771
 10
1469.68
 20
326.090
 30
0.000000
  70
    32
  0
VERTEX
  8
01
  5
B772
 10
1469.71
 20
326.121
 30
0.000000
  70
    32
  0
VERTEX
  8
01
  5
B773
 10
1469.73
 20
326.151
 30
0.000000
  70
    32
  0
VERTEX
  8
01
  5
B774
 10
1469.76
 20
326.181
 30
0.000000
  70
    32
  0
VERTEX
  8
01
  5
B775
 10
1469.78
 20
326.212
 30
0.000000
  70
    32
  0
VERTEX
  8
01
  5
B776
 10
1469.81
 20
326.243
 30
0.000000
  70
    32
  0
VERTEX
  8
01
  5
B777
 10
1469.83
 20
326.274
 30
0.000000
  70
    32
  0
VERTEX
  8
01
  5
B778
 10
1469.86
 20
326.305
 30
0.000000
  70
    32
  0
VERTEX
  8
01
  5
B779
 10
1469.88
 20
326.336
 30
0.000000
  70
    32
  0
VERTEX
  8
01
  5
B77A
 10
1469.91
 20
326.368
 30
0.000000
  70
    32
  0
VERTEX
  8
01
  5
B77B
 10
1469.93
 20
326.399
 30
0.000000
  70
    32
  0
VERTEX
  8
01
  5
B77C
 10
1469.96
 20
326.431
 30
0.000000
  70
    32
  0
VERTEX
  8
01
  5
B77D
 10
1469.98
 20
326.463
 30
0.000000
  70
    32
  0
VERTEX
  8
01
  5
B77E
 10
1470.00
 20
326.495
 30
0.000000
  70
    32
  0
VERTEX
  8
01
  5
B77F
 10
1470.03
 20
326.527
 30
0.000000
  70
    32
  0
VERTEX
  8
01
  5
B780
 10
1470.05
 20
326.559
 30
0.000000
  70
    32
  0
VERTEX
  8
01
  5
B781
 10
1470.07
 20
326.592
 30
0.000000
  70
    32
  0
VERTEX
  8
01
  5
B782
 10
1470.10
 20
326.625
 30
0.000000
  70
    32
  0
VERTEX
  8
01
  5
B783
 10
1470.12
 20
326.657
 30
0.000000
  70
    32
  0
VERTEX
  8
01
  5
B784
 10
1470.14
 20
326.690
 30
0.000000
  70
    32
  0
VERTEX
  8
01
  5
B785
 10
1470.16
 20
326.724
 30
0.000000
  70
    32
  0
VERTEX
  8
01
  5
B786
 10
1470.19
 20
326.757
 30
0.000000
  70
    32
  0
VERTEX
  8
01
  5
B787
 10
1470.21
 20
326.790
 30
0.000000
  70
    32
  0
VERTEX
  8
01
  5
B788
 10
1470.23
 20
326.824
 30
0.000000
  70
    32
  0
VERTEX
  8
01
  5
B789
 10
1470.25
 20
326.857
 30
0.000000
  70
    32
  0
VERTEX
  8
01
  5
B78A
 10
1470.27
 20
326.891
 30
0.000000
  70
    32
  0
VERTEX
  8
01
  5
B78B
 10
1470.29
 20
326.925
 30
0.000000
  70
    32
  0
VERTEX
  8
01
  5
B78C
 10
1470.32
 20
326.959
 30
0.000000
  70
    32
  0
VERTEX
  8
01
  5
B78D
 10
1470.34
 20
326.993
 30
0.000000
  70
    32
  0
VERTEX
  8
01
  5
B78E
 10
1470.36
 20
327.028
 30
0.000000
  70
    32
  0
VERTEX
  8
01
  5
B78F
 10
1470.38
 20
327.062
 30
0.000000
  70
    32
  0
VERTEX
  8
01
  5
B790
 10
1470.40
 20
327.097
 30
0.000000
  70
    32
  0
VERTEX
  8
01
  5
B791
 10
1470.42
 20
327.132
 30
0.000000
  70
    32
  0
VERTEX
  8
01
  5
B792
 10
1470.44
 20
327.167
 30
0.000000
  70
    32
  0
VERTEX
  8
01
  5
B793
 10
1470.46
 20
327.202
 30
0.000000
  70
    32
  0
VERTEX
  8
01
  5
B794
 10
1470.48
 20
327.237
 30
0.000000
  70
    32
  0
VERTEX
  8
01
  5
B795
 10
1470.50
 20
327.272
 30
0.000000
  70
    32
  0
VERTEX
  8
01
  5
B796
 10
1470.52
 20
327.307
 30
0.000000
  70
    32
  0
VERTEX
  8
01
  5
B797
 10
1470.53
 20
327.343
 30
0.000000
  70
    32
  0
VERTEX
  8
01
  5
B798
 10
1470.55
 20
327.379
 30
0.000000
  70
    32
  0
VERTEX
  8
01
  5
B799
 10
1470.57
 20
327.414
 30
0.000000
  70
    32
  0
VERTEX
  8
01
  5
B79A
 10
1470.59
 20
327.450
 30
0.000000
  70
    32
  0
VERTEX
  8
01
  5
B79B
 10
1470.61
 20
327.486
 30
0.000000
  70
    32
  0
VERTEX
  8
01
  5
B79C
 10
1470.63
 20
327.522
 30
0.000000
  70
    32
  0
VERTEX
  8
01
  5
B79D
 10
1470.64
 20
327.559
 30
0.000000
  70
    32
  0
VERTEX
  8
01
  5
B79E
 10
1470.66
 20
327.595
 30
0.000000
  70
    32
  0
VERTEX
  8
01
  5
B79F
 10
1470.68
 20
327.631
 30
0.000000
  70
    32
  0
VERTEX
  8
01
  5
B7A0
 10
1470.69
 20
327.668
 30
0.000000
  70
    32
  0
VERTEX
  8
01
  5
B7A1
 10
1470.71
 20
327.705
 30
0.000000
  70
    32
  0
VERTEX
  8
01
  5
B7A2
 10
1470.73
 20
327.741
 30
0.000000
  70
    32
  0
VERTEX
  8
01
  5
B7A3
 10
1470.74
 20
327.778
 30
0.000000
  70
    32
  0
VERTEX
  8
01
  5
B7A4
 10
1470.76
 20
327.815
 30
0.000000
  70
    32
  0
VERTEX
  8
01
  5
B7A5
 10
1470.78
 20
327.852
 30
0.000000
  70
    32
  0
VERTEX
  8
01
  5
B7A6
 10
1470.79
 20
327.890
 30
0.000000
  70
    32
  0
VERTEX
  8
01
  5
B7A7
 10
1470.81
 20
327.927
 30
0.000000
  70
    32
  0
VERTEX
  8
01
  5
B7A8
 10
1470.82
 20
327.964
 30
0.000000
  70
    32
  0
VERTEX
  8
01
  5
B7A9
 10
1470.84
 20
328.002
 30
0.000000
  70
    32
  0
VERTEX
  8
01
  5
B7AA
 10
1470.85
 20
328.040
 30
0.000000
  70
    32
  0
VERTEX
  8
01
  5
B7AB
 10
1470.87
 20
328.077
 30
0.000000
  70
    32
  0
VERTEX
  8
01
  5
B7AC
 10
1470.88
 20
328.115
 30
0.000000
  70
    32
  0
VERTEX
  8
01
  5
B7AD
 10
1470.90
 20
328.153
 30
0.000000
  70
    32
  0
VERTEX
  8
01
  5
B7AE
 10
1470.91
 20
328.191
 30
0.000000
  70
    32
  0
VERTEX
  8
01
  5
B7AF
 10
1470.93
 20
328.229
 30
0.000000
  70
    32
  0
VERTEX
  8
01
  5
B7B0
 10
1470.94
 20
328.267
 30
0.000000
  70
    32
  0
VERTEX
  8
01
  5
B7B1
 10
1470.95
 20
328.305
 30
0.000000
  70
    32
  0
VERTEX
  8
01
  5
B7B2
 10
1470.97
 20
328.344
 30
0.000000
  70
    32
  0
VERTEX
  8
01
  5
B7B3
 10
1470.98
 20
328.382
 30
0.000000
  70
    32
  0
VERTEX
  8
01
  5
B7B4
 10
1470.99
 20
328.421
 30
0.000000
  70
    32
  0
VERTEX
  8
01
  5
B7B5
 10
1471.00
 20
328.459
 30
0.000000
  70
    32
  0
VERTEX
  8
01
  5
B7B6
 10
1471.02
 20
328.498
 30
0.000000
  70
    32
  0
VERTEX
  8
01
  5
B7B7
 10
1471.03
 20
328.537
 30
0.000000
  70
    32
  0
VERTEX
  8
01
  5
B7B8
 10
1471.04
 20
328.576
 30
0.000000
  70
    32
  0
VERTEX
  8
01
  5
B7B9
 10
1471.05
 20
328.614
 30
0.000000
  70
    32
  0
VERTEX
  8
01
  5
B7BA
 10
1471.06
 20
328.653
 30
0.000000
  70
    32
  0
VERTEX
  8
01
  5
B7BB
 10
1471.08
 20
328.692
 30
0.000000
  70
    32
  0
VERTEX
  8
01
  5
B7BC
 10
1471.09
 20
328.732
 30
0.000000
  70
    32
  0
VERTEX
  8
01
  5
B7BD
 10
1471.10
 20
328.771
 30
0.000000
  70
    32
  0
VERTEX
  8
01
  5
B7BE
 10
1471.11
 20
328.810
 30
0.000000
  70
    32
  0
VERTEX
  8
01
  5
B7BF
 10
1471.12
 20
328.849
 30
0.000000
  70
    32
  0
VERTEX
  8
01
  5
B7C0
 10
1471.13
 20
328.889
 30
0.000000
  70
    32
  0
VERTEX
  8
01
  5
B7C1
 10
1471.14
 20
328.928
 30
0.000000
  70
    32
  0
VERTEX
  8
01
  5
B7C2
 10
1471.15
 20
328.968
 30
0.000000
  70
    32
  0
VERTEX
  8
01
  5
B7C3
 10
1471.16
 20
329.007
 30
0.000000
  70
    32
  0
VERTEX
  8
01
  5
B7C4
 10
1471.17
 20
329.047
 30
0.000000
  70
    32
  0
VERTEX
  8
01
  5
B7C5
 10
1471.18
 20
329.087
 30
0.000000
  70
    32
  0
VERTEX
  8
01
  5
B7C6
 10
1471.18
 20
329.127
 30
0.000000
  70
    32
  0
VERTEX
  8
01
  5
B7C7
 10
1471.19
 20
329.166
 30
0.000000
  70
    32
  0
VERTEX
  8
01
  5
B7C8
 10
1471.20
 20
329.206
 30
0.000000
  70
    32
  0
VERTEX
  8
01
  5
B7C9
 10
1471.21
 20
329.246
 30
0.000000
  70
    32
  0
VERTEX
  8
01
  5
B7CA
 10
1471.22
 20
329.286
 30
0.000000
  70
    32
  0
VERTEX
  8
01
  5
B7CB
 10
1471.23
 20
329.326
 30
0.000000
  70
    32
  0
VERTEX
  8
01
  5
B7CC
 10
1471.23
 20
329.366
 30
0.000000
  70
    32
  0
VERTEX
  8
01
  5
B7CD
 10
1471.24
 20
329.406
 30
0.000000
  70
    32
  0
VERTEX
  8
01
  5
B7CE
 10
1471.25
 20
329.447
 30
0.000000
  70
    32
  0
VERTEX
  8
01
  5
B7CF
 10
1471.25
 20
329.487
 30
0.000000
  70
    32
  0
VERTEX
  8
01
  5
B7D0
 10
1471.26
 20
329.527
 30
0.000000
  70
    32
  0
VERTEX
  8
01
  5
B7D1
 10
1471.27
 20
329.567
 30
0.000000
  70
    32
  0
VERTEX
  8
01
  5
B7D2
 10
1471.27
 20
329.608
 30
0.000000
  70
    32
  0
VERTEX
  8
01
  5
B7D3
 10
1471.28
 20
329.648
 30
0.000000
  70
    32
  0
VERTEX
  8
01
  5
B7D4
 10
1471.28
 20
329.689
 30
0.000000
  70
    32
  0
VERTEX
  8
01
  5
B7D5
 10
1471.29
 20
329.729
 30
0.000000
  70
    32
  0
VERTEX
  8
01
  5
B7D6
 10
1471.29
 20
329.770
 30
0.000000
  70
    32
  0
VERTEX
  8
01
  5
B7D7
 10
1471.30
 20
329.810
 30
0.000000
  70
    32
  0
VERTEX
  8
01
  5
B7D8
 10
1471.30
 20
329.851
 30
0.000000
  70
    32
  0
VERTEX
  8
01
  5
B7D9
 10
1471.31
 20
329.891
 30
0.000000
  70
    32
  0
VERTEX
  8
01
  5
B7DA
 10
1471.31
 20
329.932
 30
0.000000
  70
    32
  0
VERTEX
  8
01
  5
B7DB
 10
1471.32
 20
329.973
 30
0.000000
  70
    32
  0
VERTEX
  8
01
  5
B7DC
 10
1471.32
 20
330.013
 30
0.000000
  70
    32
  0
VERTEX
  8
01
  5
B7DD
 10
1471.32
 20
330.054
 30
0.000000
  70
    32
  0
VERTEX
  8
01
  5
B7DE
 10
1471.33
 20
330.095
 30
0.000000
  70
    32
  0
VERTEX
  8
01
  5
B7DF
 10
1471.33
 20
330.135
 30
0.000000
  70
    32
  0
VERTEX
  8
01
  5
B7E0
 10
1471.33
 20
330.176
 30
0.000000
  70
    32
  0
VERTEX
  8
01
  5
B7E1
 10
1471.34
 20
330.217
 30
0.000000
  70
    32
  0
VERTEX
  8
01
  5
B7E2
 10
1471.34
 20
330.258
 30
0.000000
  70
    32
  0
VERTEX
  8
01
  5
B7E3
 10
1471.34
 20
330.299
 30
0.000000
  70
    32
  0
VERTEX
  8
01
  5
B7E4
 10
1471.34
 20
330.339
 30
0.000000
  70
    32
  0
VERTEX
  8
01
  5
B7E5
 10
1471.34
 20
330.380
 30
0.000000
  70
    32
  0
VERTEX
  8
01
  5
B7E6
 10
1471.35
 20
330.421
 30
0.000000
  70
    32
  0
VERTEX
  8
01
  5
B7E7
 10
1471.35
 20
330.462
 30
0.000000
  70
    32
  0
VERTEX
  8
01
  5
B7E8
 10
1471.35
 20
330.503
 30
0.000000
  70
    32
  0
VERTEX
  8
01
  5
B7E9
 10
1471.35
 20
330.544
 30
0.000000
  70
    32
  0
VERTEX
  8
01
  5
B7EA
 10
1471.35
 20
330.585
 30
0.000000
  70
    32
  0
VERTEX
  8
01
  5
B7EB
 10
1471.35
 20
330.625
 30
0.000000
  70
    32
  0
VERTEX
  8
01
  5
B7EC
 10
1471.35
 20
330.666
 30
0.000000
  70
    32
  0
SEQEND
  8
01
  5
B7ED
  0
POLYLINE
  5
A4F9
  8
01
 10
1471.3505954149562
 20
349.91629748530539
 30
0.0
 66
     1
 70
     8
  0
VERTEX
  8
01
  5
B7EE
 10
1471.35
 20
349.916
 30
0.000000
  70
    32
  0
VERTEX
  8
01
  5
B7EF
 10
1471.35
 20
349.959
 30
0.000000
  70
    32
  0
VERTEX
  8
01
  5
B7F0
 10
1471.35
 20
350.001
 30
0.000000
  70
    32
  0
VERTEX
  8
01
  5
B7F1
 10
1471.35
 20
350.043
 30
0.000000
  70
    32
  0
VERTEX
  8
01
  5
B7F2
 10
1471.35
 20
350.086
 30
0.000000
  70
    32
  0
VERTEX
  8
01
  5
B7F3
 10
1471.35
 20
350.128
 30
0.000000
  70
    32
  0
VERTEX
  8
01
  5
B7F4
 10
1471.35
 20
350.171
 30
0.000000
  70
    32
  0
VERTEX
  8
01
  5
B7F5
 10
1471.34
 20
350.213
 30
0.000000
  70
    32
  0
VERTEX
  8
01
  5
B7F6
 10
1471.34
 20
350.255
 30
0.000000
  70
    32
  0
VERTEX
  8
01
  5
B7F7
 10
1471.34
 20
350.298
 30
0.000000
  70
    32
  0
VERTEX
  8
01
  5
B7F8
 10
1471.34
 20
350.340
 30
0.000000
  70
    32
  0
VERTEX
  8
01
  5
B7F9
 10
1471.34
 20
350.382
 30
0.000000
  70
    32
  0
VERTEX
  8
01
  5
B7FA
 10
1471.33
 20
350.425
 30
0.000000
  70
    32
  0
VERTEX
  8
01
  5
B7FB
 10
1471.33
 20
350.467
 30
0.000000
  70
    32
  0
VERTEX
  8
01
  5
B7FC
 10
1471.33
 20
350.509
 30
0.000000
  70
    32
  0
VERTEX
  8
01
  5
B7FD
 10
1471.32
 20
350.551
 30
0.000000
  70
    32
  0
VERTEX
  8
01
  5
B7FE
 10
1471.32
 20
350.594
 30
0.000000
  70
    32
  0
VERTEX
  8
01
  5
B7FF
 10
1471.32
 20
350.636
 30
0.000000
  70
    32
  0
VERTEX
  8
01
  5
B800
 10
1471.31
 20
350.678
 30
0.000000
  70
    32
  0
VERTEX
  8
01
  5
B801
 10
1471.31
 20
350.720
 30
0.000000
  70
    32
  0
VERTEX
  8
01
  5
B802
 10
1471.30
 20
350.762
 30
0.000000
  70
    32
  0
VERTEX
  8
01
  5
B803
 10
1471.30
 20
350.804
 30
0.000000
  70
    32
  0
VERTEX
  8
01
  5
B804
 10
1471.29
 20
350.846
 30
0.000000
  70
    32
  0
VERTEX
  8
01
  5
B805
 10
1471.29
 20
350.888
 30
0.000000
  70
    32
  0
VERTEX
  8
01
  5
B806
 10
1471.28
 20
350.930
 30
0.000000
  70
    32
  0
VERTEX
  8
01
  5
B807
 10
1471.28
 20
350.972
 30
0.000000
  70
    32
  0
VERTEX
  8
01
  5
B808
 10
1471.27
 20
351.014
 30
0.000000
  70
    32
  0
VERTEX
  8
01
  5
B809
 10
1471.27
 20
351.056
 30
0.000000
  70
    32
  0
VERTEX
  8
01
  5
B80A
 10
1471.26
 20
351.098
 30
0.000000
  70
    32
  0
VERTEX
  8
01
  5
B80B
 10
1471.25
 20
351.139
 30
0.000000
  70
    32
  0
VERTEX
  8
01
  5
B80C
 10
1471.25
 20
351.181
 30
0.000000
  70
    32
  0
VERTEX
  8
01
  5
B80D
 10
1471.24
 20
351.223
 30
0.000000
  70
    32
  0
VERTEX
  8
01
  5
B80E
 10
1471.23
 20
351.264
 30
0.000000
  70
    32
  0
VERTEX
  8
01
  5
B80F
 10
1471.23
 20
351.306
 30
0.000000
  70
    32
  0
VERTEX
  8
01
  5
B810
 10
1471.22
 20
351.348
 30
0.000000
  70
    32
  0
VERTEX
  8
01
  5
B811
 10
1471.21
 20
351.389
 30
0.000000
  70
    32
  0
VERTEX
  8
01
  5
B812
 10
1471.20
 20
351.430
 30
0.000000
  70
    32
  0
VERTEX
  8
01
  5
B813
 10
1471.19
 20
351.472
 30
0.000000
  70
    32
  0
VERTEX
  8
01
  5
B814
 10
1471.18
 20
351.513
 30
0.000000
  70
    32
  0
VERTEX
  8
01
  5
B815
 10
1471.18
 20
351.554
 30
0.000000
  70
    32
  0
VERTEX
  8
01
  5
B816
 10
1471.17
 20
351.595
 30
0.000000
  70
    32
  0
VERTEX
  8
01
  5
B817
 10
1471.16
 20
351.637
 30
0.000000
  70
    32
  0
VERTEX
  8
01
  5
B818
 10
1471.15
 20
351.678
 30
0.000000
  70
    32
  0
VERTEX
  8
01
  5
B819
 10
1471.14
 20
351.719
 30
0.000000
  70
    32
  0
VERTEX
  8
01
  5
B81A
 10
1471.13
 20
351.760
 30
0.000000
  70
    32
  0
VERTEX
  8
01
  5
B81B
 10
1471.12
 20
351.800
 30
0.000000
  70
    32
  0
VERTEX
  8
01
  5
B81C
 10
1471.11
 20
351.841
 30
0.000000
  70
    32
  0
VERTEX
  8
01
  5
B81D
 10
1471.10
 20
351.882
 30
0.000000
  70
    32
  0
VERTEX
  8
01
  5
B81E
 10
1471.09
 20
351.923
 30
0.000000
  70
    32
  0
VERTEX
  8
01
  5
B81F
 10
1471.08
 20
351.963
 30
0.000000
  70
    32
  0
VERTEX
  8
01
  5
B820
 10
1471.06
 20
352.004
 30
0.000000
  70
    32
  0
VERTEX
  8
01
  5
B821
 10
1471.05
 20
352.044
 30
0.000000
  70
    32
  0
VERTEX
  8
01
  5
B822
 10
1471.04
 20
352.084
 30
0.000000
  70
    32
  0
VERTEX
  8
01
  5
B823
 10
1471.03
 20
352.125
 30
0.000000
  70
    32
  0
VERTEX
  8
01
  5
B824
 10
1471.02
 20
352.165
 30
0.000000
  70
    32
  0
VERTEX
  8
01
  5
B825
 10
1471.00
 20
352.205
 30
0.000000
  70
    32
  0
VERTEX
  8
01
  5
B826
 10
1470.99
 20
352.245
 30
0.000000
  70
    32
  0
VERTEX
  8
01
  5
B827
 10
1470.98
 20
352.285
 30
0.000000
  70
    32
  0
VERTEX
  8
01
  5
B828
 10
1470.97
 20
352.325
 30
0.000000
  70
    32
  0
VERTEX
  8
01
  5
B829
 10
1470.95
 20
352.365
 30
0.000000
  70
    32
  0
VERTEX
  8
01
  5
B82A
 10
1470.94
 20
352.404
 30
0.000000
  70
    32
  0
VERTEX
  8
01
  5
B82B
 10
1470.93
 20
352.444
 30
0.000000
  70
    32
  0
VERTEX
  8
01
  5
B82C
 10
1470.91
 20
352.483
 30
0.000000
  70
    32
  0
VERTEX
  8
01
  5
B82D
 10
1470.90
 20
352.523
 30
0.000000
  70
    32
  0
VERTEX
  8
01
  5
B82E
 10
1470.88
 20
352.562
 30
0.000000
  70
    32
  0
VERTEX
  8
01
  5
B82F
 10
1470.87
 20
352.601
 30
0.000000
  70
    32
  0
VERTEX
  8
01
  5
B830
 10
1470.85
 20
352.640
 30
0.000000
  70
    32
  0
VERTEX
  8
01
  5
B831
 10
1470.84
 20
352.679
 30
0.000000
  70
    32
  0
VERTEX
  8
01
  5
B832
 10
1470.82
 20
352.718
 30
0.000000
  70
    32
  0
VERTEX
  8
01
  5
B833
 10
1470.81
 20
352.757
 30
0.000000
  70
    32
  0
VERTEX
  8
01
  5
B834
 10
1470.79
 20
352.796
 30
0.000000
  70
    32
  0
VERTEX
  8
01
  5
B835
 10
1470.78
 20
352.834
 30
0.000000
  70
    32
  0
VERTEX
  8
01
  5
B836
 10
1470.76
 20
352.873
 30
0.000000
  70
    32
  0
VERTEX
  8
01
  5
B837
 10
1470.74
 20
352.911
 30
0.000000
  70
    32
  0
VERTEX
  8
01
  5
B838
 10
1470.73
 20
352.949
 30
0.000000
  70
    32
  0
VERTEX
  8
01
  5
B839
 10
1470.71
 20
352.988
 30
0.000000
  70
    32
  0
VERTEX
  8
01
  5
B83A
 10
1470.69
 20
353.026
 30
0.000000
  70
    32
  0
VERTEX
  8
01
  5
B83B
 10
1470.68
 20
353.064
 30
0.000000
  70
    32
  0
VERTEX
  8
01
  5
B83C
 10
1470.66
 20
353.101
 30
0.000000
  70
    32
  0
VERTEX
  8
01
  5
B83D
 10
1470.64
 20
353.139
 30
0.000000
  70
    32
  0
VERTEX
  8
01
  5
B83E
 10
1470.63
 20
353.177
 30
0.000000
  70
    32
  0
VERTEX
  8
01
  5
B83F
 10
1470.61
 20
353.214
 30
0.000000
  70
    32
  0
VERTEX
  8
01
  5
B840
 10
1470.59
 20
353.251
 30
0.000000
  70
    32
  0
VERTEX
  8
01
  5
B841
 10
1470.57
 20
353.289
 30
0.000000
  70
    32
  0
VERTEX
  8
01
  5
B842
 10
1470.55
 20
353.326
 30
0.000000
  70
    32
  0
VERTEX
  8
01
  5
B843
 10
1470.53
 20
353.363
 30
0.000000
  70
    32
  0
VERTEX
  8
01
  5
B844
 10
1470.52
 20
353.400
 30
0.000000
  70
    32
  0
VERTEX
  8
01
  5
B845
 10
1470.50
 20
353.436
 30
0.000000
  70
    32
  0
VERTEX
  8
01
  5
B846
 10
1470.48
 20
353.473
 30
0.000000
  70
    32
  0
VERTEX
  8
01
  5
B847
 10
1470.46
 20
353.509
 30
0.000000
  70
    32
  0
VERTEX
  8
01
  5
B848
 10
1470.44
 20
353.546
 30
0.000000
  70
    32
  0
VERTEX
  8
01
  5
B849
 10
1470.42
 20
353.582
 30
0.000000
  70
    32
  0
VERTEX
  8
01
  5
B84A
 10
1470.40
 20
353.618
 30
0.000000
  70
    32
  0
VERTEX
  8
01
  5
B84B
 10
1470.38
 20
353.654
 30
0.000000
  70
    32
  0
VERTEX
  8
01
  5
B84C
 10
1470.36
 20
353.689
 30
0.000000
  70
    32
  0
VERTEX
  8
01
  5
B84D
 10
1470.34
 20
353.725
 30
0.000000
  70
    32
  0
VERTEX
  8
01
  5
B84E
 10
1470.32
 20
353.761
 30
0.000000
  70
    32
  0
VERTEX
  8
01
  5
B84F
 10
1470.29
 20
353.796
 30
0.000000
  70
    32
  0
VERTEX
  8
01
  5
B850
 10
1470.27
 20
353.831
 30
0.000000
  70
    32
  0
VERTEX
  8
01
  5
B851
 10
1470.25
 20
353.866
 30
0.000000
  70
    32
  0
VERTEX
  8
01
  5
B852
 10
1470.23
 20
353.901
 30
0.000000
  70
    32
  0
VERTEX
  8
01
  5
B853
 10
1470.21
 20
353.936
 30
0.000000
  70
    32
  0
VERTEX
  8
01
  5
B854
 10
1470.19
 20
353.971
 30
0.000000
  70
    32
  0
VERTEX
  8
01
  5
B855
 10
1470.16
 20
354.005
 30
0.000000
  70
    32
  0
VERTEX
  8
01
  5
B856
 10
1470.14
 20
354.039
 30
0.000000
  70
    32
  0
VERTEX
  8
01
  5
B857
 10
1470.12
 20
354.074
 30
0.000000
  70
    32
  0
VERTEX
  8
01
  5
B858
 10
1470.10
 20
354.108
 30
0.000000
  70
    32
  0
VERTEX
  8
01
  5
B859
 10
1470.07
 20
354.142
 30
0.000000
  70
    32
  0
VERTEX
  8
01
  5
B85A
 10
1470.05
 20
354.175
 30
0.000000
  70
    32
  0
VERTEX
  8
01
  5
B85B
 10
1470.03
 20
354.209
 30
0.000000
  70
    32
  0
VERTEX
  8
01
  5
B85C
 10
1470.00
 20
354.242
 30
0.000000
  70
    32
  0
VERTEX
  8
01
  5
B85D
 10
1469.98
 20
354.275
 30
0.000000
  70
    32
  0
VERTEX
  8
01
  5
B85E
 10
1469.96
 20
354.309
 30
0.000000
  70
    32
  0
VERTEX
  8
01
  5
B85F
 10
1469.93
 20
354.341
 30
0.000000
  70
    32
  0
VERTEX
  8
01
  5
B860
 10
1469.91
 20
354.374
 30
0.000000
  70
    32
  0
VERTEX
  8
01
  5
B861
 10
1469.88
 20
354.407
 30
0.000000
  70
    32
  0
VERTEX
  8
01
  5
B862
 10
1469.86
 20
354.439
 30
0.000000
  70
    32
  0
VERTEX
  8
01
  5
B863
 10
1469.83
 20
354.472
 30
0.000000
  70
    32
  0
VERTEX
  8
01
  5
B864
 10
1469.81
 20
354.504
 30
0.000000
  70
    32
  0
VERTEX
  8
01
  5
B865
 10
1469.78
 20
354.536
 30
0.000000
  70
    32
  0
VERTEX
  8
01
  5
B866
 10
1469.76
 20
354.567
 30
0.000000
  70
    32
  0
VERTEX
  8
01
  5
B867
 10
1469.73
 20
354.599
 30
0.000000
  70
    32
  0
VERTEX
  8
01
  5
B868
 10
1469.71
 20
354.630
 30
0.000000
  70
    32
  0
VERTEX
  8
01
  5
B869
 10
1469.68
 20
354.662
 30
0.000000
  70
    32
  0
VERTEX
  8
01
  5
B86A
 10
1469.66
 20
354.693
 30
0.000000
  70
    32
  0
VERTEX
  8
01
  5
B86B
 10
1469.63
 20
354.724
 30
0.000000
  70
    32
  0
VERTEX
  8
01
  5
B86C
 10
1469.60
 20
354.754
 30
0.000000
  70
    32
  0
VERTEX
  8
01
  5
B86D
 10
1469.58
 20
354.785
 30
0.000000
  70
    32
  0
VERTEX
  8
01
  5
B86E
 10
1469.55
 20
354.815
 30
0.000000
  70
    32
  0
SEQEND
  8
01
  5
B86F
  0
POLYLINE
  5
A4FA
  8
01
 10
1460.5505954149355
 20
354.81527697072158
 30
0.0
 66
     1
 70
     8
  0
VERTEX
  8
01
  5
B870
 10
1460.55
 20
354.815
 30
0.000000
  70
    32
  0
VERTEX
  8
01
  5
B871
 10
1460.52
 20
354.785
 30
0.000000
  70
    32
  0
VERTEX
  8
01
  5
B872
 10
1460.50
 20
354.754
 30
0.000000
  70
    32
  0
VERTEX
  8
01
  5
B873
 10
1460.47
 20
354.724
 30
0.000000
  70
    32
  0
VERTEX
  8
01
  5
B874
 10
1460.45
 20
354.693
 30
0.000000
  70
    32
  0
VERTEX
  8
01
  5
B875
 10
1460.42
 20
354.662
 30
0.000000
  70
    32
  0
VERTEX
  8
01
  5
B876
 10
1460.39
 20
354.630
 30
0.000000
  70
    32
  0
VERTEX
  8
01
  5
B877
 10
1460.37
 20
354.599
 30
0.000000
  70
    32
  0
VERTEX
  8
01
  5
B878
 10
1460.34
 20
354.567
 30
0.000000
  70
    32
  0
VERTEX
  8
01
  5
B879
 10
1460.32
 20
354.536
 30
0.000000
  70
    32
  0
VERTEX
  8
01
  5
B87A
 10
1460.29
 20
354.504
 30
0.000000
  70
    32
  0
VERTEX
  8
01
  5
B87B
 10
1460.27
 20
354.472
 30
0.000000
  70
    32
  0
VERTEX
  8
01
  5
B87C
 10
1460.24
 20
354.439
 30
0.000000
  70
    32
  0
VERTEX
  8
01
  5
B87D
 10
1460.22
 20
354.407
 30
0.000000
  70
    32
  0
VERTEX
  8
01
  5
B87E
 10
1460.19
 20
354.374
 30
0.000000
  70
    32
  0
VERTEX
  8
01
  5
B87F
 10
1460.17
 20
354.341
 30
0.000000
  70
    32
  0
VERTEX
  8
01
  5
B880
 10
1460.15
 20
354.309
 30
0.000000
  70
    32
  0
VERTEX
  8
01
  5
B881
 10
1460.12
 20
354.275
 30
0.000000
  70
    32
  0
VERTEX
  8
01
  5
B882
 10
1460.10
 20
354.242
 30
0.000000
  70
    32
  0
VERTEX
  8
01
  5
B883
 10
1460.07
 20
354.209
 30
0.000000
  70
    32
  0
VERTEX
  8
01
  5
B884
 10
1460.05
 20
354.175
 30
0.000000
  70
    32
  0
VERTEX
  8
01
  5
B885
 10
1460.03
 20
354.142
 30
0.000000
  70
    32
  0
VERTEX
  8
01
  5
B886
 10
1460.00
 20
354.108
 30
0.000000
  70
    32
  0
VERTEX
  8
01
  5
B887
 10
1459.98
 20
354.074
 30
0.000000
  70
    32
  0
VERTEX
  8
01
  5
B888
 10
1459.96
 20
354.039
 30
0.000000
  70
    32
  0
VERTEX
  8
01
  5
B889
 10
1459.94
 20
354.005
 30
0.000000
  70
    32
  0
VERTEX
  8
01
  5
B88A
 10
1459.91
 20
353.971
 30
0.000000
  70
    32
  0
VERTEX
  8
01
  5
B88B
 10
1459.89
 20
353.936
 30
0.000000
  70
    32
  0
VERTEX
  8
01
  5
B88C
 10
1459.87
 20
353.901
 30
0.000000
  70
    32
  0
VERTEX
  8
01
  5
B88D
 10
1459.85
 20
353.866
 30
0.000000
  70
    32
  0
VERTEX
  8
01
  5
B88E
 10
1459.83
 20
353.831
 30
0.000000
  70
    32
  0
VERTEX
  8
01
  5
B88F
 10
1459.81
 20
353.796
 30
0.000000
  70
    32
  0
VERTEX
  8
01
  5
B890
 10
1459.79
 20
353.761
 30
0.000000
  70
    32
  0
VERTEX
  8
01
  5
B891
 10
1459.76
 20
353.725
 30
0.000000
  70
    32
  0
VERTEX
  8
01
  5
B892
 10
1459.74
 20
353.689
 30
0.000000
  70
    32
  0
VERTEX
  8
01
  5
B893
 10
1459.72
 20
353.654
 30
0.000000
  70
    32
  0
VERTEX
  8
01
  5
B894
 10
1459.70
 20
353.618
 30
0.000000
  70
    32
  0
VERTEX
  8
01
  5
B895
 10
1459.68
 20
353.582
 30
0.000000
  70
    32
  0
VERTEX
  8
01
  5
B896
 10
1459.66
 20
353.546
 30
0.000000
  70
    32
  0
VERTEX
  8
01
  5
B897
 10
1459.64
 20
353.509
 30
0.000000
  70
    32
  0
VERTEX
  8
01
  5
B898
 10
1459.62
 20
353.473
 30
0.000000
  70
    32
  0
VERTEX
  8
01
  5
B899
 10
1459.61
 20
353.436
 30
0.000000
  70
    32
  0
VERTEX
  8
01
  5
B89A
 10
1459.59
 20
353.400
 30
0.000000
  70
    32
  0
VERTEX
  8
01
  5
B89B
 10
1459.57
 20
353.363
 30
0.000000
  70
    32
  0
VERTEX
  8
01
  5
B89C
 10
1459.55
 20
353.326
 30
0.000000
  70
    32
  0
VERTEX
  8
01
  5
B89D
 10
1459.53
 20
353.289
 30
0.000000
  70
    32
  0
VERTEX
  8
01
  5
B89E
 10
1459.51
 20
353.251
 30
0.000000
  70
    32
  0
VERTEX
  8
01
  5
B89F
 10
1459.49
 20
353.214
 30
0.000000
  70
    32
  0
VERTEX
  8
01
  5
B8A0
 10
1459.48
 20
353.177
 30
0.000000
  70
    32
  0
VERTEX
  8
01
  5
B8A1
 10
1459.46
 20
353.139
 30
0.000000
  70
    32
  0
VERTEX
  8
01
  5
B8A2
 10
1459.44
 20
353.101
 30
0.000000
  70
    32
  0
VERTEX
  8
01
  5
B8A3
 10
1459.42
 20
353.064
 30
0.000000
  70
    32
  0
VERTEX
  8
01
  5
B8A4
 10
1459.41
 20
353.026
 30
0.000000
  70
    32
  0
VERTEX
  8
01
  5
B8A5
 10
1459.39
 20
352.988
 30
0.000000
  70
    32
  0
VERTEX
  8
01
  5
B8A6
 10
1459.37
 20
352.949
 30
0.000000
  70
    32
  0
VERTEX
  8
01
  5
B8A7
 10
1459.36
 20
352.911
 30
0.000000
  70
    32
  0
VERTEX
  8
01
  5
B8A8
 10
1459.34
 20
352.873
 30
0.000000
  70
    32
  0
VERTEX
  8
01
  5
B8A9
 10
1459.32
 20
352.834
 30
0.000000
  70
    32
  0
VERTEX
  8
01
  5
B8AA
 10
1459.31
 20
352.796
 30
0.000000
  70
    32
  0
VERTEX
  8
01
  5
B8AB
 10
1459.29
 20
352.757
 30
0.000000
  70
    32
  0
VERTEX
  8
01
  5
B8AC
 10
1459.28
 20
352.718
 30
0.000000
  70
    32
  0
VERTEX
  8
01
  5
B8AD
 10
1459.26
 20
352.679
 30
0.000000
  70
    32
  0
VERTEX
  8
01
  5
B8AE
 10
1459.25
 20
352.640
 30
0.000000
  70
    32
  0
VERTEX
  8
01
  5
B8AF
 10
1459.23
 20
352.601
 30
0.000000
  70
    32
  0
VERTEX
  8
01
  5
B8B0
 10
1459.22
 20
352.562
 30
0.000000
  70
    32
  0
VERTEX
  8
01
  5
B8B1
 10
1459.20
 20
352.523
 30
0.000000
  70
    32
  0
VERTEX
  8
01
  5
B8B2
 10
1459.19
 20
352.483
 30
0.000000
  70
    32
  0
VERTEX
  8
01
  5
B8B3
 10
1459.18
 20
352.444
 30
0.000000
  70
    32
  0
VERTEX
  8
01
  5
B8B4
 10
1459.16
 20
352.404
 30
0.000000
  70
    32
  0
VERTEX
  8
01
  5
B8B5
 10
1459.15
 20
352.365
 30
0.000000
  70
    32
  0
VERTEX
  8
01
  5
B8B6
 10
1459.14
 20
352.325
 30
0.000000
  70
    32
  0
VERTEX
  8
01
  5
B8B7
 10
1459.12
 20
352.285
 30
0.000000
  70
    32
  0
VERTEX
  8
01
  5
B8B8
 10
1459.11
 20
352.245
 30
0.000000
  70
    32
  0
VERTEX
  8
01
  5
B8B9
 10
1459.10
 20
352.205
 30
0.000000
  70
    32
  0
VERTEX
  8
01
  5
B8BA
 10
1459.08
 20
352.165
 30
0.000000
  70
    32
  0
VERTEX
  8
01
  5
B8BB
 10
1459.07
 20
352.125
 30
0.000000
  70
    32
  0
VERTEX
  8
01
  5
B8BC
 10
1459.06
 20
352.084
 30
0.000000
  70
    32
  0
VERTEX
  8
01
  5
B8BD
 10
1459.05
 20
352.044
 30
0.000000
  70
    32
  0
VERTEX
  8
01
  5
B8BE
 10
1459.04
 20
352.004
 30
0.000000
  70
    32
  0
VERTEX
  8
01
  5
B8BF
 10
1459.03
 20
351.963
 30
0.000000
  70
    32
  0
VERTEX
  8
01
  5
B8C0
 10
1459.01
 20
351.923
 30
0.000000
  70
    32
  0
VERTEX
  8
01
  5
B8C1
 10
1459.00
 20
351.882
 30
0.000000
  70
    32
  0
VERTEX
  8
01
  5
B8C2
 10
1458.99
 20
351.841
 30
0.000000
  70
    32
  0
VERTEX
  8
01
  5
B8C3
 10
1458.98
 20
351.800
 30
0.000000
  70
    32
  0
VERTEX
  8
01
  5
B8C4
 10
1458.97
 20
351.760
 30
0.000000
  70
    32
  0
VERTEX
  8
01
  5
B8C5
 10
1458.96
 20
351.719
 30
0.000000
  70
    32
  0
VERTEX
  8
01
  5
B8C6
 10
1458.95
 20
351.678
 30
0.000000
  70
    32
  0
VERTEX
  8
01
  5
B8C7
 10
1458.94
 20
351.637
 30
0.000000
  70
    32
  0
VERTEX
  8
01
  5
B8C8
 10
1458.93
 20
351.595
 30
0.000000
  70
    32
  0
VERTEX
  8
01
  5
B8C9
 10
1458.93
 20
351.554
 30
0.000000
  70
    32
  0
VERTEX
  8
01
  5
B8CA
 10
1458.92
 20
351.513
 30
0.000000
  70
    32
  0
VERTEX
  8
01
  5
B8CB
 10
1458.91
 20
351.472
 30
0.000000
  70
    32
  0
VERTEX
  8
01
  5
B8CC
 10
1458.90
 20
351.430
 30
0.000000
  70
    32
  0
VERTEX
  8
01
  5
B8CD
 10
1458.89
 20
351.389
 30
0.000000
  70
    32
  0
VERTEX
  8
01
  5
B8CE
 10
1458.88
 20
351.348
 30
0.000000
  70
    32
  0
VERTEX
  8
01
  5
B8CF
 10
1458.88
 20
351.306
 30
0.000000
  70
    32
  0
VERTEX
  8
01
  5
B8D0
 10
1458.87
 20
351.264
 30
0.000000
  70
    32
  0
VERTEX
  8
01
  5
B8D1
 10
1458.86
 20
351.223
 30
0.000000
  70
    32
  0
VERTEX
  8
01
  5
B8D2
 10
1458.85
 20
351.181
 30
0.000000
  70
    32
  0
VERTEX
  8
01
  5
B8D3
 10
1458.85
 20
351.139
 30
0.000000
  70
    32
  0
VERTEX
  8
01
  5
B8D4
 10
1458.84
 20
351.098
 30
0.000000
  70
    32
  0
VERTEX
  8
01
  5
B8D5
 10
1458.83
 20
351.056
 30
0.000000
  70
    32
  0
VERTEX
  8
01
  5
B8D6
 10
1458.83
 20
351.014
 30
0.000000
  70
    32
  0
VERTEX
  8
01
  5
B8D7
 10
1458.82
 20
350.972
 30
0.000000
  70
    32
  0
VERTEX
  8
01
  5
B8D8
 10
1458.82
 20
350.930
 30
0.000000
  70
    32
  0
VERTEX
  8
01
  5
B8D9
 10
1458.81
 20
350.888
 30
0.000000
  70
    32
  0
VERTEX
  8
01
  5
B8DA
 10
1458.81
 20
350.846
 30
0.000000
  70
    32
  0
VERTEX
  8
01
  5
B8DB
 10
1458.80
 20
350.804
 30
0.000000
  70
    32
  0
VERTEX
  8
01
  5
B8DC
 10
1458.80
 20
350.762
 30
0.000000
  70
    32
  0
VERTEX
  8
01
  5
B8DD
 10
1458.79
 20
350.720
 30
0.000000
  70
    32
  0
VERTEX
  8
01
  5
B8DE
 10
1458.79
 20
350.678
 30
0.000000
  70
    32
  0
VERTEX
  8
01
  5
B8DF
 10
1458.78
 20
350.636
 30
0.000000
  70
    32
  0
VERTEX
  8
01
  5
B8E0
 10
1458.78
 20
350.594
 30
0.000000
  70
    32
  0
VERTEX
  8
01
  5
B8E1
 10
1458.78
 20
350.551
 30
0.000000
  70
    32
  0
VERTEX
  8
01
  5
B8E2
 10
1458.77
 20
350.509
 30
0.000000
  70
    32
  0
VERTEX
  8
01
  5
B8E3
 10
1458.77
 20
350.467
 30
0.000000
  70
    32
  0
VERTEX
  8
01
  5
B8E4
 10
1458.77
 20
350.425
 30
0.000000
  70
    32
  0
VERTEX
  8
01
  5
B8E5
 10
1458.76
 20
350.382
 30
0.000000
  70
    32
  0
VERTEX
  8
01
  5
B8E6
 10
1458.76
 20
350.340
 30
0.000000
  70
    32
  0
VERTEX
  8
01
  5
B8E7
 10
1458.76
 20
350.298
 30
0.000000
  70
    32
  0
VERTEX
  8
01
  5
B8E8
 10
1458.76
 20
350.255
 30
0.000000
  70
    32
  0
VERTEX
  8
01
  5
B8E9
 10
1458.76
 20
350.213
 30
0.000000
  70
    32
  0
VERTEX
  8
01
  5
B8EA
 10
1458.75
 20
350.171
 30
0.000000
  70
    32
  0
VERTEX
  8
01
  5
B8EB
 10
1458.75
 20
350.128
 30
0.000000
  70
    32
  0
VERTEX
  8
01
  5
B8EC
 10
1458.75
 20
350.086
 30
0.000000
  70
    32
  0
VERTEX
  8
01
  5
B8ED
 10
1458.75
 20
350.043
 30
0.000000
  70
    32
  0
VERTEX
  8
01
  5
B8EE
 10
1458.75
 20
350.001
 30
0.000000
  70
    32
  0
VERTEX
  8
01
  5
B8EF
 10
1458.75
 20
349.959
 30
0.000000
  70
    32
  0
VERTEX
  8
01
  5
B8F0
 10
1458.75
 20
349.916
 30
0.000000
  70
    32
  0
SEQEND
  8
01
  5
B8F1
  0
ARC
  5
A512
  8
01
 10
1465.050595414772
 20
424.91629748456319
 30
0.0
 40
4.5
 50
184.6390419576567
 51
355.36095804276272
  0
LINE
  5
A513
  8
01
 10
1471.350595414804
 20
446.91629748476697
 30
0.0
 11
1458.7506380740681
 21
446.9162974850114
 31
0.0
  0
LINE
  5
A517
  8
01
 10
1471.3485491567019
 20
446.89160557815478
 30
0.0
 11
1469.5358534086749
 21
424.55234593801572
 31
0.0
  0
LINE
  5
A519
  8
01
 10
1458.7506380740681
 20
446.9162974850114
 30
0.0
 11
1460.565337420898
 21
424.55234593804482
 31
0.0
  0
ARC
  5
A521
  8
1PHANTOM
 10
1465.0505954149901
 20
424.9162974845778
 30
0.0
 40
2.7999999999999989
 50
180.0
 51
0.0
  0
LINE
  5
A524
  8
1PHANTOM
 10
1469.5505954150051
 20
445.11641304853691
 30
0.0
 11
1469.5505954150919
 21
446.91629748478152
 31
0.0
  0
LINE
  5
A525
  8
1PHANTOM
 10
1460.550595414918
 20
445.11641304853691
 30
0.0
 11
1460.5505954150051
 21
446.91629748481063
 31
0.0
  0
LINE
  5
A526
  8
1PHANTOM
 10
1466.950595415005
 20
445.116413048997
 30
0.0
 11
1466.950595414947
 21
446.91629748478152
 31
0.0
  0
LINE
  5
A527
  8
1PHANTOM
 10
1463.1505954149759
 20
445.11641304897898
 30
0.0
 11
1463.1505954149461
 21
446.91629748478152
 31
0.0
  0
LINE
  5
A528
  8
1PHANTOM
 10
1466.17563031687
 20
446.91629748478152
 30
0.0
 11
1469.0505954149471
 21
446.91629748478152
 31
0.0
  0
LINE
  5
A529
  8
1PHANTOM
 10
1461.30748930502
 20
443.11641304778021
 30
0.0
 11
1468.7937015248881
 21
443.11641304769279
 31
0.0
  0
ARC
  5
A52A
  8
1PHANTOM
 10
1461.307489305027
 20
443.61641304778021
 30
0.0
 40
0.5
 50
189.46221694091929
 51
269.99999999958311
  0
ARC
  5
A52B
  8
1PHANTOM
 10
1468.7937015248881
 20
443.6164130476929
 30
0.0
 40
0.5
 50
270.0
 51
350.53778305908071
  0
LINE
  5
A52D
  8
1PHANTOM
 10
1460.5505954150051
 20
446.91629748481063
 30
0.0
 11
1469.5505954150919
 21
446.91629748478152
 31
0.0
  0
LINE
  5
A52E
  8
1PHANTOM
 10
1468.150595414952
 20
445.11641304900257
 30
0.0
 11
1468.150595414982
 21
443.11641304775111
 31
0.0
  0
LINE
  5
A52F
  8
1PHANTOM
 10
1461.9505954149699
 20
445.11641304897341
 30
0.0
 11
1461.9505954149699
 21
443.11641304775111
 31
0.0
  0
LINE
  5
A530
  8
1PHANTOM
 10
1467.8505954149059
 20
424.91629748454869
 30
0.0
 11
1467.8505954149059
 21
434.91629748481051
 31
0.0
  0
LINE
  5
A531
  8
1PHANTOM
 10
1462.2505954149869
 20
424.91629748454869
 30
0.0
 11
1462.2505954150161
 21
434.91629748481051
 31
0.0
  0
LINE
  5
A532
  8
1PHANTOM
 10
1461.9505954149699
 20
445.11641304897341
 30
0.0
 11
1463.1505954149759
 21
445.11641304897898
 31
0.0
  0
LINE
  5
A533
  8
1HIDDEN
 10
1465.0505605130229
 20
445.11641304898802
 30
0.0
 11
1465.0505954149471
 21
445.11641304898802
 31
0.0
  0
LINE
  5
A534
  8
1PHANTOM
 10
1466.950595415005
 20
445.116413048997
 30
0.0
 11
1468.150595414952
 21
445.11641304900257
 31
0.0
  0
LINE
  5
A535
  8
1PHANTOM
 10
1462.2505954150161
 20
434.91629748481051
 30
0.0
 11
1460.8142921921001
 21
443.53421446024288
 31
0.0
  0
LINE
  5
A536
  8
1PHANTOM
 10
1460.814292192093
 20
443.53421446024288
 30
0.0
 11
1460.550595414946
 21
445.11641304897341
 31
0.0
  0
LINE
  5
A537
  8
1PHANTOM
 10
1467.8505954149059
 20
434.91629748481051
 30
0.0
 11
1469.2868986378221
 21
443.53421446015551
 31
0.0
  0
LINE
  5
A538
  8
1PHANTOM
 10
1469.2868986378221
 20
443.53421446015551
 30
0.0
 11
1469.5505954150051
 21
445.11641304900257
 31
0.0
  0
LINE
  5
A53A
  8
1CENTER
 10
1465.050595414946
 20
466.7705509767722
 30
0.0
 11
1465.050595414946
 21
442.07589665932329
 31
0.0
  0
LINE
  5
A568
  8
01
 10
1547.8505954149491
 20
356.91629748378011
 30
0.0
 11
1547.8505954149789
 21
354.81629748374507
 31
0.0
  0
LINE
  5
A56A
  8
01
 10
1530.3505954149421
 20
399.91629748378011
 30
0.0
 11
1530.350595414913
 21
354.88605936357459
 31
0.0
  0
ARC
  5
A56B
  8
01
 10
1529.8505954149421
 20
399.91629748378011
 30
0.0
 40
0.5
 50
0.0
 51
90.0
  0
LINE
  5
A56C
  8
01
 10
1530.3505954146581
 20
325.94653560404259
 30
0.0
 11
1530.350595414666
 21
323.91629748389528
 31
0.0
  0
LINE
  5
A56D
  8
01
 10
1521.3505954149639
 20
399.91629748380922
 30
0.0
 11
1521.3505954149421
 21
323.91629748383832
 31
0.0
  0
ARC
  5
A56E
  8
01
 10
1521.8505954149639
 20
399.91629748380922
 30
0.0
 40
0.5
 50
90.0
 51
180.0
  0
LINE
  5
A56F
  8
01
 10
1529.8505954149421
 20
400.41629748378
 30
0.0
 11
1521.8505954149639
 21
400.41629748380922
 31
0.0
  0
LINE
  5
A571
  8
01
 10
1529.8505954146731
 20
323.41629748389528
 30
0.0
 11
1521.8505954146799
 21
323.41629748383713
 31
0.0
  0
ARC
  5
A572
  8
01
 10
1521.8505954146731
 20
323.91629748383713
 30
0.0
 40
0.5
 50
180.0
 51
270.00000000041689
  0
ARC
  5
A573
  8
01
 10
1529.850595414666
 20
323.91629748389528
 30
0.0
 40
0.5
 50
270.00000000041689
 51
0.0
  0
LINE
  5
A57C
  8
01
 10
1547.8505954149491
 20
356.91629748378011
 30
0.0
 11
1525.850595414684
 21
352.01158550295332
 31
0.0
  0
ARC
  5
A57D
  8
01
 10
1531.850595414913
 20
354.88605936357459
 30
0.0
 40
1.5
 50
180.0
 51
282.5680714058841
  0
LINE
  5
A57F
  8
01
 10
1547.8505954146799
 20
323.91629748372071
 30
0.0
 11
1525.8505630875261
 21
328.8210166717231
 31
0.0
  0
ARC
  5
A580
  8
01
 10
1531.8505954146581
 20
325.94653560404259
 30
0.0
 40
1.5
 50
77.431928593716066
 51
180.0
  0
LINE
  5
A594
  8
01
 10
1547.850595419063
 20
356.91629748378011
 30
0.0
 11
1547.8505954149491
 21
323.9162974836625
 31
0.0
  0
LINE
  5
A59A
  8
1PHANTOM
 10
1546.5505884348879
 20
326.2162974840769
 30
0.0
 11
1544.550595414488
 21
326.2162974840769
 31
0.0
  0
LINE
  5
A59B
  8
1PHANTOM
 10
1547.8505954149209
 20
326.21629748411613
 30
0.0
 11
1544.5505954144589
 21
326.21629748416422
 31
0.0
  0
LINE
  5
A59D
  8
1PHANTOM
 10
1547.8505954149821
 20
326.21629745853892
 30
0.0
 11
1547.8505954149821
 21
329.19126255659211
 31
0.0
  0
LINE
  5
A59E
  8
1PHANTOM
 10
1547.8505954149821
 20
331.44126255659148
 30
0.0
 11
1547.8505954149821
 21
348.41629745845739
 31
0.0
  0
LINE
  5
A59F
  8
1PHANTOM
 10
1547.850595414983
 20
352.21629745851573
 30
0.0
 11
1547.8505954149821
 21
354.4162974584342
 31
0.0
  0
LINE
  5
A5A0
  8
1PHANTOM
 10
1547.8505954149821
 20
332.21629745845752
 30
0.0
 11
1546.0505954149789
 21
332.21629745845752
 31
0.0
  0
LINE
  5
A5A1
  8
1PHANTOM
 10
1547.8505954149821
 20
328.41629745845728
 30
0.0
 11
1546.050595414986
 21
328.4162974584865
 31
0.0
  0
LINE
  5
A5A2
  8
1PHANTOM
 10
1546.0505954149719
 20
333.41629745860882
 30
0.0
 11
1543.7509848965869
 21
333.41629745849229
 31
0.0
  0
LINE
  5
A5A4
  8
1PHANTOM
 10
1547.8505954149821
 20
326.21629745853892
 30
0.0
 11
1544.5506023945941
 21
326.2162974584225
 31
0.0
  0
LINE
  5
A5A5
  8
1PHANTOM
 10
1523.0505954146879
 20
335.30453439976731
 30
0.0
 11
1523.0505954147029
 21
345.3277773410972
 31
0.0
  0
ARC
  5
A5A6
  8
1PHANTOM
 10
1523.550595414695
 20
335.30453439976731
 30
0.0
 40
0.5
 50
180.0
 51
268.63607246830918
  0
LINE
  5
A5A9
  8
1PHANTOM
 10
1544.050595414164
 20
348.26924522401708
 30
0.0
 11
1544.0505954141861
 21
353.91629745834689
 31
0.0
  0
ARC
  5
A5AA
  8
1PHANTOM
 10
1542.050595414172
 20
348.26924522401708
 30
0.0
 40
2.0
 50
271.36392753132583
 51
0.0
  0
LINE
  5
A5AB
  8
1PHANTOM
 10
1546.0505954149719
 20
333.41629745860882
 30
0.0
 11
1546.0505954149789
 21
332.31629745845743
 31
0.0
  0
LINE
  5
A5AD
  8
1PHANTOM
 10
1544.05060239458
 20
326.7162974584225
 30
0.0
 11
1544.050602394565
 21
332.36334952677311
 31
0.0
  0
ARC
  5
A5AF
  8
1PHANTOM
 10
1544.55060239458
 20
326.7162974584225
 30
0.0
 40
0.5
 50
180.0
 51
270.00000000125073
  0
LINE
  5
A5B0
  8
1PHANTOM
 10
1547.850595414895
 20
352.21629745851578
 30
0.0
 11
1546.0505954148989
 21
352.21629745845757
 31
0.0
  0
LINE
  5
A5B1
  8
1PHANTOM
 10
1546.050595414885
 20
353.4162974584633
 30
0.0
 11
1544.0506023944849
 21
353.4162974584633
 31
0.0
  0
LINE
  5
A5B2
  8
1PHANTOM
 10
1546.050595414885
 20
352.31629745839928
 30
0.0
 11
1546.050595414885
 21
353.4162974584633
 31
0.0
  0
LINE
  5
A5B3
  8
1PHANTOM
 10
1547.850595414902
 20
348.41629745845728
 30
0.0
 11
1546.0505954148989
 21
348.41629745842829
 31
0.0
  0
LINE
  5
A5B4
  8
1PHANTOM
 10
1547.8505954148659
 20
352.21629745845757
 30
0.0
 11
1546.05059541487
 21
352.21629745839942
 31
0.0
  0
LINE
  5
A5B5
  8
1PHANTOM
 10
1546.0505954149071
 20
347.21629745827698
 30
0.0
 11
1543.7509780189951
 21
347.21629745836429
 31
0.0
  0
LINE
  5
A5B6
  8
1PHANTOM
 10
1546.0505954148559
 20
353.4162974584051
 30
0.0
 11
1544.0506023944561
 21
353.41629745837599
 31
0.0
  0
LINE
  5
A5B7
  8
1PHANTOM
 10
1547.8505954149821
 20
354.4162974584342
 30
0.0
 11
1544.550595414179
 21
354.41629745834689
 31
0.0
  0
ARC
  5
A5B8
  8
1PHANTOM
 10
1544.5505954141861
 20
353.91629745834689
 30
0.0
 40
0.5
 50
90.000000000833779
 51
180.0
  0
LINE
  5
A5B9
  8
1PHANTOM
 10
1546.0505954149071
 20
347.21629745827698
 30
0.0
 11
1546.0505954148989
 21
348.31629745842832
 31
0.0
  0
LINE
  5
A5BA
  8
1PHANTOM
 10
1546.0505954148559
 20
352.31629745834101
 30
0.0
 11
1546.0505954148559
 21
353.4162974584051
 31
0.0
  0
LINE
  5
A5BC
  8
1PHANTOM
 10
1523.538694025722
 20
334.80467606291722
 30
0.0
 11
1542.0982079504629
 21
334.36278287420458
 31
0.0
  0
ARC
  5
A5BE
  8
1PHANTOM
 10
1542.0506023945729
 20
332.36334952677311
 30
0.0
 40
2.0
 50
0.0
 51
88.636072468674143
  0
LINE
  5
A5BF
  8
1PHANTOM
 10
1523.538694025754
 20
345.82791885413639
 30
0.0
 11
1525.850595414684
 21
345.88296412522499
 31
0.0
  0
ARC
  5
A5C0
  8
1PHANTOM
 10
1523.55059541471
 20
345.32806051726402
 30
0.0
 40
0.5
 50
91.363927530908853
 51
180.0
  0
LINE
  5
A5C1
  8
1PHANTOM
 10
1525.8505954146769
 20
345.88296412525409
 30
0.0
 11
1542.098200970062
 21
346.26981187661471
 31
0.0
  0
LINE
  5
A5C3
  8
1CENTER
 10
1557.7140262247799
 20
340.31629745848647
 30
0.0
 11
1523.050595414695
 21
340.31629745855793
 31
0.0
  0
LINE
  5
A5C4
  8
1CENTER
 10
1539.6689253295831
 20
330.31629745851558
 30
0.0
 11
1550.006276332193
 21
330.31629745851558
 31
0.0
  0
LINE
  5
A5C5
  8
1CENTER
 10
1539.6689253295831
 20
350.31629762490229
 30
0.0
 11
1550.006276332193
 21
350.31629762490229
 31
0.0
  0
LINE
  5
A5C6
  8
1PHANTOM
 10
1546.0505954148989
 20
348.31629745842832
 30
0.0
 11
1546.0505954148559
 21
352.31629745834101
 31
0.0
  0
LINE
  5
A5D4
  8
1PHANTOM
 10
1572.075598038798
 20
351.44126272297882
 30
0.0
 11
1546.0506198455071
 21
351.44126272297808
 31
0.0
  0
LINE
  5
A5D5
  8
1PHANTOM
 10
1576.050595421194
 20
350.31626272297882
 30
0.0
 11
1572.075598038798
 21
351.44126272297882
 31
0.0
  0
LINE
  5
A5D6
  8
1PHANTOM
 10
1576.050595421194
 20
350.31626272297882
 30
0.0
 11
1572.0755928035089
 21
349.19126272297882
 31
0.0
  0
LINE
  5
A5D7
  8
1PHANTOM
 10
1572.0755928035089
 20
349.19126272297882
 30
0.0
 11
1546.0505709827321
 21
349.19126272297871
 31
0.0
  0
LINE
  5
A5D8
  8
1CENTER
 10
1581.4627326886371
 20
350.31629762490229
 30
0.0
 11
1540.1327615929081
 21
350.31629762490229
 31
0.0
  0
LINE
  5
A5D9
  8
1PHANTOM
 10
1546.0505367929391
 20
347.6169142266325
 30
0.0
 11
1545.050558509492
 21
347.6169142266325
 31
0.0
  0
ARC
  5
A5DA
  8
1PHANTOM
 10
1545.050558509492
 20
348.6169142266325
 30
0.0
 40
1.0
 50
179.9987557196761
 51
270.0
  0
LINE
  5
A5DB
  8
1PHANTOM
 10
1546.050654063597
 20
353.01691422663248
 30
0.0
 11
1545.0506323465729
 21
353.01691422663248
 31
0.0
  0
LINE
  5
A5DC
  8
1PHANTOM
 10
1554.0755989113461
 20
351.81626272297882
 30
0.0
 11
1554.675591930963
 21
348.81626272297882
 31
0.0
  0
LINE
  5
A5DD
  8
1PHANTOM
 10
1557.675598911346
 20
351.81626272297882
 30
0.0
 11
1558.2755919309629
 21
348.81626272297882
 31
0.0
  0
LINE
  5
A5DE
  8
1PHANTOM
 10
1556.475598911346
 20
351.81626272297882
 30
0.0
 11
1557.0755919309629
 21
348.81626272297882
 31
0.0
  0
LINE
  5
A5DF
  8
1PHANTOM
 10
1555.2755989113459
 20
351.81626272297882
 30
0.0
 11
1555.8755919309631
 21
348.81626272297882
 31
0.0
  0
LINE
  5
A5E0
  8
1PHANTOM
 10
1554.000598038798
 20
351.44126272297882
 30
0.0
 11
1554.0755989113461
 21
351.81626272297882
 31
0.0
  0
LINE
  5
A5E1
  8
1PHANTOM
 10
1557.6005980387979
 20
351.44126272297882
 30
0.0
 11
1557.675598911346
 21
351.81626272297882
 31
0.0
  0
LINE
  5
A5E2
  8
1PHANTOM
 10
1556.4005980387981
 20
351.44126272297882
 30
0.0
 11
1556.475598911346
 21
351.81626272297882
 31
0.0
  0
LINE
  5
A5E3
  8
1PHANTOM
 10
1555.200598038798
 20
351.44126272297882
 30
0.0
 11
1555.2755989113459
 21
351.81626272297882
 31
0.0
  0
LINE
  5
A5E4
  8
1PHANTOM
 10
1554.675591930963
 20
348.81626272297882
 30
0.0
 11
1554.7505928035109
 21
349.19126272297882
 31
0.0
  0
LINE
  5
A5E5
  8
1PHANTOM
 10
1558.2755919309629
 20
348.81626272297882
 30
0.0
 11
1558.3505928035111
 21
349.19126272297882
 31
0.0
  0
LINE
  5
A5E6
  8
1PHANTOM
 10
1557.0755919309629
 20
348.81626272297882
 30
0.0
 11
1557.150592803511
 21
349.19126272297882
 31
0.0
  0
LINE
  5
A5E7
  8
1PHANTOM
 10
1555.8755919309631
 20
348.81626272297882
 30
0.0
 11
1555.950592803511
 21
349.19126272297882
 31
0.0
  0
LINE
  5
A5E8
  8
1PHANTOM
 10
1558.8005980387979
 20
351.44126272297882
 30
0.0
 11
1558.8755989113461
 21
351.81626272297882
 31
0.0
  0
LINE
  5
A5E9
  8
1PHANTOM
 10
1546.0505367929391
 20
347.6169142266325
 30
0.0
 11
1546.050654063597
 21
353.01691422663248
 31
0.0
  0
LINE
  5
A5EA
  8
1PHANTOM
 10
1544.050558509728
 20
348.61693594342103
 30
0.0
 11
1544.0506323468089
 21
352.016935943421
 31
0.0
  0
ARC
  5
A5EB
  8
1PHANTOM
 10
1545.0506323465729
 20
352.01691422663248
 30
0.0
 40
1.0
 50
90.0
 51
179.9987557196761
  0
LINE
  5
A5EC
  8
1PHANTOM
 10
1563.675598911346
 20
351.81626272297882
 30
0.0
 11
1564.2755919309629
 21
348.81626272297882
 31
0.0
  0
LINE
  5
A5ED
  8
1PHANTOM
 10
1564.8755989113461
 20
351.81626272297882
 30
0.0
 11
1565.475591930963
 21
348.81626272297882
 31
0.0
  0
LINE
  5
A5EE
  8
1PHANTOM
 10
1569.675598911346
 20
351.81626272297882
 30
0.0
 11
1570.2755919309629
 21
348.81626272297882
 31
0.0
  0
LINE
  5
A5EF
  8
1PHANTOM
 10
1568.475598911346
 20
351.81626272297882
 30
0.0
 11
1569.0755919309629
 21
348.81626272297882
 31
0.0
  0
LINE
  5
A5F0
  8
1PHANTOM
 10
1567.2755989113459
 20
351.81626272297882
 30
0.0
 11
1567.8755919309631
 21
348.81626272297882
 31
0.0
  0
LINE
  5
A5F1
  8
1PHANTOM
 10
1572.0755989113461
 20
351.81626272297882
 30
0.0
 11
1572.675592326065
 21
348.98606801213168
 31
0.0
  0
LINE
  5
A5F2
  8
1PHANTOM
 10
1572.675592326065
 20
348.98606801213168
 30
0.0
 11
1572.7725453492881
 21
349.38851331358518
 31
0.0
  0
LINE
  5
A5F3
  8
1PHANTOM
 10
1570.8755989113461
 20
351.81626272297882
 30
0.0
 11
1571.475591930963
 21
348.81626272297882
 31
0.0
  0
LINE
  5
A5F4
  8
1PHANTOM
 10
1566.0755989113461
 20
351.81626272297882
 30
0.0
 11
1566.675591930963
 21
348.81626272297882
 31
0.0
  0
LINE
  5
A5F5
  8
1PHANTOM
 10
1563.600598038799
 20
351.44126272297882
 30
0.0
 11
1563.675598911346
 21
351.81626272297882
 31
0.0
  0
LINE
  5
A5F6
  8
1PHANTOM
 10
1564.8005980387979
 20
351.44126272297882
 30
0.0
 11
1564.8755989113461
 21
351.81626272297882
 31
0.0
  0
LINE
  5
A5F7
  8
1PHANTOM
 10
1568.4005980387981
 20
351.44126272297882
 30
0.0
 11
1568.475598911346
 21
351.81626272297882
 31
0.0
  0
LINE
  5
A5F8
  8
1PHANTOM
 10
1570.8005980387979
 20
351.44126272297882
 30
0.0
 11
1570.8755989113461
 21
351.81626272297882
 31
0.0
  0
LINE
  5
A5F9
  8
1PHANTOM
 10
1569.6005980387979
 20
351.44126272297882
 30
0.0
 11
1569.675598911346
 21
351.81626272297882
 31
0.0
  0
LINE
  5
A5FA
  8
1PHANTOM
 10
1567.200598038798
 20
351.44126272297882
 30
0.0
 11
1567.2755989113459
 21
351.81626272297882
 31
0.0
  0
LINE
  5
A5FB
  8
1PHANTOM
 10
1574.475597330935
 20
351.13704048539847
 30
0.0
 11
1575.0755939064741
 21
349.66528916874199
 31
0.0
  0
LINE
  5
A5FC
  8
1PHANTOM
 10
1575.0755939064741
 20
349.66528916874199
 30
0.0
 11
1575.3094212986621
 21
350.10649660002377
 31
0.0
  0
LINE
  5
A5FD
  8
1PHANTOM
 10
1573.275598121138
 20
351.47665061643488
 30
0.0
 11
1573.87559311627
 21
349.32567859043712
 31
0.0
  0
LINE
  5
A5FE
  8
1PHANTOM
 10
1573.87559311627
 20
349.32567859043712
 30
0.0
 11
1574.0126662232401
 21
349.73949068828938
 31
0.0
  0
LINE
  5
A5FF
  8
1PHANTOM
 10
1574.362020483605
 20
350.79416160492542
 30
0.0
 11
1574.475597330935
 21
351.13704048539847
 31
0.0
  0
LINE
  5
A600
  8
1PHANTOM
 10
1572.000598038798
 20
351.44126272297882
 30
0.0
 11
1572.0755989113461
 21
351.81626272297882
 31
0.0
  0
LINE
  5
A601
  8
1PHANTOM
 10
1573.1910209868761
 20
351.12557677507249
 30
0.0
 11
1573.275598121138
 21
351.47665061643488
 31
0.0
  0
LINE
  5
A602
  8
1PHANTOM
 10
1566.000598038798
 20
351.44126272297882
 30
0.0
 11
1566.0755989113461
 21
351.81626272297882
 31
0.0
  0
LINE
  5
A603
  8
1PHANTOM
 10
1564.2755919309629
 20
348.81626272297882
 30
0.0
 11
1564.3505928035111
 21
349.19126272297882
 31
0.0
  0
LINE
  5
A604
  8
1PHANTOM
 10
1565.475591930963
 20
348.81626272297882
 30
0.0
 11
1565.5505928035111
 21
349.19126272297882
 31
0.0
  0
LINE
  5
A605
  8
1PHANTOM
 10
1569.0755919309629
 20
348.81626272297882
 30
0.0
 11
1569.150592803511
 21
349.19126272297882
 31
0.0
  0
LINE
  5
A606
  8
1PHANTOM
 10
1570.2755919309629
 20
348.81626272297882
 30
0.0
 11
1570.3505928035111
 21
349.19126272297882
 31
0.0
  0
LINE
  5
A607
  8
1PHANTOM
 10
1567.8755919309631
 20
348.81626272297882
 30
0.0
 11
1567.950592803511
 21
349.19126272297882
 31
0.0
  0
LINE
  5
A608
  8
1PHANTOM
 10
1566.675591930963
 20
348.81626272297882
 30
0.0
 11
1566.7505928035109
 21
349.19126272297882
 31
0.0
  0
LINE
  5
A609
  8
1PHANTOM
 10
1571.475591930963
 20
348.81626272297882
 30
0.0
 11
1571.5505928035111
 21
349.19126272297882
 31
0.0
  0
LINE
  5
A60A
  8
1PHANTOM
 10
1560.675591930963
 20
348.81626272297882
 30
0.0
 11
1560.7505928035109
 21
349.19126272297882
 31
0.0
  0
LINE
  5
A60B
  8
1PHANTOM
 10
1561.8755919309631
 20
348.81626272297882
 30
0.0
 11
1561.950592803511
 21
349.19126272297882
 31
0.0
  0
LINE
  5
A60C
  8
1PHANTOM
 10
1563.0755919309629
 20
348.81626272297882
 30
0.0
 11
1563.150592803511
 21
349.19126272297882
 31
0.0
  0
LINE
  5
A60D
  8
1PHANTOM
 10
1559.475591930963
 20
348.81626272297882
 30
0.0
 11
1559.5505928035111
 21
349.19126272297882
 31
0.0
  0
LINE
  5
A60E
  8
1PHANTOM
 10
1560.000598038798
 20
351.44126272297882
 30
0.0
 11
1560.0755989113461
 21
351.81626272297882
 31
0.0
  0
LINE
  5
A60F
  8
1PHANTOM
 10
1561.200598038798
 20
351.44126272297882
 30
0.0
 11
1561.2755989113459
 21
351.81626272297882
 31
0.0
  0
LINE
  5
A610
  8
1PHANTOM
 10
1562.4005980387981
 20
351.44126272297882
 30
0.0
 11
1562.475598911346
 21
351.81626272297882
 31
0.0
  0
LINE
  5
A611
  8
1PHANTOM
 10
1558.8005980387979
 20
351.44126272297882
 30
0.0
 11
1558.8755989113461
 21
351.81626272297882
 31
0.0
  0
LINE
  5
A612
  8
1PHANTOM
 10
1560.0755989113461
 20
351.81626272297882
 30
0.0
 11
1560.675591930963
 21
348.81626272297882
 31
0.0
  0
LINE
  5
A613
  8
1PHANTOM
 10
1561.2755989113459
 20
351.81626272297882
 30
0.0
 11
1561.8755919309631
 21
348.81626272297882
 31
0.0
  0
LINE
  5
A614
  8
1PHANTOM
 10
1562.475598911346
 20
351.81626272297882
 30
0.0
 11
1563.0755919309629
 21
348.81626272297882
 31
0.0
  0
LINE
  5
A615
  8
1PHANTOM
 10
1558.8755989113461
 20
351.81626272297882
 30
0.0
 11
1559.475591930963
 21
348.81626272297882
 31
0.0
  0
LINE
  5
A616
  8
1PHANTOM
 10
1546.8755989113461
 20
351.81626272297882
 30
0.0
 11
1547.475591930963
 21
348.81626272297882
 31
0.0
  0
LINE
  5
A617
  8
1PHANTOM
 10
1550.475598911346
 20
351.81626272297882
 30
0.0
 11
1551.0755919309629
 21
348.81626272297882
 31
0.0
  0
LINE
  5
A618
  8
1PHANTOM
 10
1549.2755989113459
 20
351.81626272297882
 30
0.0
 11
1549.8755919309631
 21
348.81626272297882
 31
0.0
  0
LINE
  5
A619
  8
1PHANTOM
 10
1548.0755989113461
 20
351.81626272297882
 30
0.0
 11
1548.675591930963
 21
348.81626272297882
 31
0.0
  0
LINE
  5
A61A
  8
1PHANTOM
 10
1546.8005980387979
 20
351.44126272297882
 30
0.0
 11
1546.8755989113461
 21
351.81626272297882
 31
0.0
  0
LINE
  5
A61B
  8
1PHANTOM
 10
1550.4005980387981
 20
351.44126272297882
 30
0.0
 11
1550.475598911346
 21
351.81626272297882
 31
0.0
  0
LINE
  5
A61C
  8
1PHANTOM
 10
1549.200598038798
 20
351.44126272297882
 30
0.0
 11
1549.2755989113459
 21
351.81626272297882
 31
0.0
  0
LINE
  5
A61D
  8
1PHANTOM
 10
1548.000598038798
 20
351.44126272297882
 30
0.0
 11
1548.0755989113461
 21
351.81626272297882
 31
0.0
  0
LINE
  5
A61E
  8
1PHANTOM
 10
1547.475591930963
 20
348.81626272297882
 30
0.0
 11
1547.5505928035111
 21
349.19126272297882
 31
0.0
  0
LINE
  5
A61F
  8
1PHANTOM
 10
1551.0755919309629
 20
348.81626272297882
 30
0.0
 11
1551.150592803511
 21
349.19126272297882
 31
0.0
  0
LINE
  5
A620
  8
1PHANTOM
 10
1549.8755919309631
 20
348.81626272297882
 30
0.0
 11
1549.950592803511
 21
349.19126272297882
 31
0.0
  0
LINE
  5
A621
  8
1PHANTOM
 10
1548.675591930963
 20
348.81626272297882
 30
0.0
 11
1548.7505928035109
 21
349.19126272297882
 31
0.0
  0
LINE
  5
A622
  8
1PHANTOM
 10
1551.6005980387979
 20
351.44126272297882
 30
0.0
 11
1551.675598911346
 21
351.81626272297882
 31
0.0
  0
LINE
  5
A623
  8
1PHANTOM
 10
1553.475591930963
 20
348.81626272297882
 30
0.0
 11
1553.5505928035111
 21
349.19126272297882
 31
0.0
  0
LINE
  5
A624
  8
1PHANTOM
 10
1552.2755919309629
 20
348.81626272297882
 30
0.0
 11
1552.3505928035111
 21
349.19126272297882
 31
0.0
  0
LINE
  5
A625
  8
1PHANTOM
 10
1552.8005980387979
 20
351.44126272297882
 30
0.0
 11
1552.8755989113461
 21
351.81626272297882
 31
0.0
  0
LINE
  5
A626
  8
1PHANTOM
 10
1551.6005980387979
 20
351.44126272297882
 30
0.0
 11
1551.675598911346
 21
351.81626272297882
 31
0.0
  0
LINE
  5
A627
  8
1PHANTOM
 10
1552.8755989113461
 20
351.81626272297882
 30
0.0
 11
1553.475591930963
 21
348.81626272297882
 31
0.0
  0
LINE
  5
A628
  8
1PHANTOM
 10
1551.675598911346
 20
351.81626272297882
 30
0.0
 11
1552.2755919309629
 21
348.81626272297882
 31
0.0
  0
LINE
  5
A629
  8
1PHANTOM
 10
1572.0755980388819
 20
331.44126255659211
 30
0.0
 11
1546.0506198455901
 21
331.44126255659148
 31
0.0
  0
LINE
  5
A62A
  8
1PHANTOM
 10
1576.0505954212781
 20
330.31626255659211
 30
0.0
 11
1572.0755980388819
 21
331.44126255659211
 31
0.0
  0
LINE
  5
A62B
  8
1PHANTOM
 10
1576.0505954212781
 20
330.31626255659211
 30
0.0
 11
1572.0755928035931
 21
329.19126255659211
 31
0.0
  0
LINE
  5
A62C
  8
1PHANTOM
 10
1572.0755928035931
 20
329.19126255659211
 30
0.0
 11
1546.050570982816
 21
329.19126255659211
 31
0.0
  0
LINE
  5
A62D
  8
1CENTER
 10
1581.462732688721
 20
330.31629745851558
 30
0.0
 11
1540.1327615929911
 21
330.31629745851558
 31
0.0
  0
LINE
  5
A62E
  8
1PHANTOM
 10
1546.050536793023
 20
327.6169140602459
 30
0.0
 11
1545.050558509575
 21
327.6169140602459
 31
0.0
  0
ARC
  5
A62F
  8
1PHANTOM
 10
1545.050558509575
 20
328.6169140602459
 30
0.0
 40
1.0
 50
179.9987557196761
 51
270.0
  0
LINE
  5
A630
  8
1PHANTOM
 10
1546.05065406368
 20
333.01691406024588
 30
0.0
 11
1545.0506323466559
 21
333.01691406024588
 31
0.0
  0
LINE
  5
A631
  8
1PHANTOM
 10
1554.07559891143
 20
331.81626255659211
 30
0.0
 11
1554.6755919310469
 21
328.81626255659211
 31
0.0
  0
LINE
  5
A632
  8
1PHANTOM
 10
1557.6755989114299
 20
331.81626255659211
 30
0.0
 11
1558.2755919310471
 21
328.81626255659211
 31
0.0
  0
LINE
  5
A633
  8
1PHANTOM
 10
1556.4755989114301
 20
331.81626255659211
 30
0.0
 11
1557.075591931047
 21
328.81626255659211
 31
0.0
  0
LINE
  5
A634
  8
1PHANTOM
 10
1555.2755989114301
 20
331.81626255659211
 30
0.0
 11
1555.875591931047
 21
328.81626255659211
 31
0.0
  0
LINE
  5
A635
  8
1PHANTOM
 10
1554.0005980388819
 20
331.44126255659211
 30
0.0
 11
1554.07559891143
 21
331.81626255659211
 31
0.0
  0
LINE
  5
A636
  8
1PHANTOM
 10
1557.600598038882
 20
331.44126255659211
 30
0.0
 11
1557.6755989114299
 21
331.81626255659211
 31
0.0
  0
LINE
  5
A637
  8
1PHANTOM
 10
1556.400598038882
 20
331.44126255659211
 30
0.0
 11
1556.4755989114301
 21
331.81626255659211
 31
0.0
  0
LINE
  5
A638
  8
1PHANTOM
 10
1555.2005980388819
 20
331.44126255659211
 30
0.0
 11
1555.2755989114301
 21
331.81626255659211
 31
0.0
  0
LINE
  5
A639
  8
1PHANTOM
 10
1554.6755919310469
 20
328.81626255659211
 30
0.0
 11
1554.7505928035951
 21
329.19126255659211
 31
0.0
  0
LINE
  5
A63A
  8
1PHANTOM
 10
1558.2755919310471
 20
328.81626255659211
 30
0.0
 11
1558.350592803595
 21
329.19126255659211
 31
0.0
  0
LINE
  5
A63B
  8
1PHANTOM
 10
1557.075591931047
 20
328.81626255659211
 30
0.0
 11
1557.1505928035949
 21
329.19126255659211
 31
0.0
  0
LINE
  5
A63C
  8
1PHANTOM
 10
1555.875591931047
 20
328.81626255659211
 30
0.0
 11
1555.9505928035951
 21
329.19126255659211
 31
0.0
  0
LINE
  5
A63D
  8
1PHANTOM
 10
1558.8005980388821
 20
331.44126255659211
 30
0.0
 11
1558.87559891143
 21
331.81626255659211
 31
0.0
  0
LINE
  5
A63E
  8
1PHANTOM
 10
1546.050536793023
 20
327.6169140602459
 30
0.0
 11
1546.05065406368
 21
333.01691406024588
 31
0.0
  0
LINE
  5
A63F
  8
1PHANTOM
 10
1544.050558509811
 20
328.61693577703443
 30
0.0
 11
1544.0506323468919
 21
332.0169357770344
 31
0.0
  0
ARC
  5
A640
  8
1PHANTOM
 10
1545.0506323466559
 20
332.01691406024588
 30
0.0
 40
1.0
 50
90.0
 51
179.9987557196761
  0
LINE
  5
A641
  8
1PHANTOM
 10
1563.6755989114299
 20
331.81626255659211
 30
0.0
 11
1564.2755919310471
 21
328.81626255659211
 31
0.0
  0
LINE
  5
A642
  8
1PHANTOM
 10
1564.87559891143
 20
331.81626255659211
 30
0.0
 11
1565.4755919310469
 21
328.81626255659211
 31
0.0
  0
LINE
  5
A643
  8
1PHANTOM
 10
1569.6755989114299
 20
331.81626255659211
 30
0.0
 11
1570.2755919310471
 21
328.81626255659211
 31
0.0
  0
LINE
  5
A644
  8
1PHANTOM
 10
1568.4755989114301
 20
331.81626255659211
 30
0.0
 11
1569.075591931047
 21
328.81626255659211
 31
0.0
  0
LINE
  5
A645
  8
1PHANTOM
 10
1567.2755989114301
 20
331.81626255659211
 30
0.0
 11
1567.875591931047
 21
328.81626255659211
 31
0.0
  0
LINE
  5
A646
  8
1PHANTOM
 10
1572.07559891143
 20
331.81626255659211
 30
0.0
 11
1572.6755923261489
 21
328.98606784574503
 31
0.0
  0
LINE
  5
A647
  8
1PHANTOM
 10
1572.6755923261489
 20
328.98606784574503
 30
0.0
 11
1572.7725453493711
 21
329.38851314719858
 31
0.0
  0
LINE
  5
A648
  8
1PHANTOM
 10
1570.87559891143
 20
331.81626255659211
 30
0.0
 11
1571.4755919310469
 21
328.81626255659211
 31
0.0
  0
LINE
  5
A649
  8
1PHANTOM
 10
1566.07559891143
 20
331.81626255659211
 30
0.0
 11
1566.6755919310469
 21
328.81626255659211
 31
0.0
  0
LINE
  5
A64A
  8
1PHANTOM
 10
1563.600598038882
 20
331.44126255659211
 30
0.0
 11
1563.6755989114299
 21
331.81626255659211
 31
0.0
  0
LINE
  5
A64B
  8
1PHANTOM
 10
1564.8005980388821
 20
331.44126255659211
 30
0.0
 11
1564.87559891143
 21
331.81626255659211
 31
0.0
  0
LINE
  5
A64C
  8
1PHANTOM
 10
1568.400598038882
 20
331.44126255659211
 30
0.0
 11
1568.4755989114301
 21
331.81626255659211
 31
0.0
  0
LINE
  5
A64D
  8
1PHANTOM
 10
1570.8005980388821
 20
331.44126255659211
 30
0.0
 11
1570.87559891143
 21
331.81626255659211
 31
0.0
  0
LINE
  5
A64E
  8
1PHANTOM
 10
1569.600598038882
 20
331.44126255659211
 30
0.0
 11
1569.6755989114299
 21
331.81626255659211
 31
0.0
  0
LINE
  5
A64F
  8
1PHANTOM
 10
1567.2005980388819
 20
331.44126255659211
 30
0.0
 11
1567.2755989114301
 21
331.81626255659211
 31
0.0
  0
LINE
  5
A650
  8
1PHANTOM
 10
1574.4755973310189
 20
331.13704031901187
 30
0.0
 11
1575.0755939065571
 21
329.66528900235528
 31
0.0
  0
LINE
  5
A651
  8
1PHANTOM
 10
1575.0755939065571
 20
329.66528900235528
 30
0.0
 11
1575.309421298746
 21
330.10649643363712
 31
0.0
  0
LINE
  5
A652
  8
1PHANTOM
 10
1573.2755981212219
 20
331.47665045004823
 30
0.0
 11
1573.875593116353
 21
329.32567842405041
 31
0.0
  0
LINE
  5
A653
  8
1PHANTOM
 10
1573.875593116353
 20
329.32567842405041
 30
0.0
 11
1574.012666223324
 21
329.73949052190272
 31
0.0
  0
LINE
  5
A654
  8
1PHANTOM
 10
1574.3620204836891
 20
330.79416143853882
 30
0.0
 11
1574.4755973310189
 21
331.13704031901187
 31
0.0
  0
LINE
  5
A655
  8
1PHANTOM
 10
1572.0005980388819
 20
331.44126255659211
 30
0.0
 11
1572.07559891143
 21
331.81626255659211
 31
0.0
  0
LINE
  5
A656
  8
1PHANTOM
 10
1573.19102098696
 20
331.12557660868578
 30
0.0
 11
1573.2755981212219
 21
331.47665045004823
 31
0.0
  0
LINE
  5
A657
  8
1PHANTOM
 10
1566.0005980388819
 20
331.44126255659211
 30
0.0
 11
1566.07559891143
 21
331.81626255659211
 31
0.0
  0
LINE
  5
A658
  8
1PHANTOM
 10
1564.2755919310471
 20
328.81626255659211
 30
0.0
 11
1564.3505928035941
 21
329.19126255659211
 31
0.0
  0
LINE
  5
A659
  8
1PHANTOM
 10
1565.4755919310469
 20
328.81626255659211
 30
0.0
 11
1565.550592803595
 21
329.19126255659211
 31
0.0
  0
LINE
  5
A65A
  8
1PHANTOM
 10
1569.075591931047
 20
328.81626255659211
 30
0.0
 11
1569.1505928035949
 21
329.19126255659211
 31
0.0
  0
LINE
  5
A65B
  8
1PHANTOM
 10
1570.2755919310471
 20
328.81626255659211
 30
0.0
 11
1570.350592803595
 21
329.19126255659211
 31
0.0
  0
LINE
  5
A65C
  8
1PHANTOM
 10
1567.875591931047
 20
328.81626255659211
 30
0.0
 11
1567.9505928035951
 21
329.19126255659211
 31
0.0
  0
LINE
  5
A65D
  8
1PHANTOM
 10
1566.6755919310469
 20
328.81626255659211
 30
0.0
 11
1566.7505928035951
 21
329.19126255659211
 31
0.0
  0
LINE
  5
A65E
  8
1PHANTOM
 10
1571.4755919310469
 20
328.81626255659211
 30
0.0
 11
1571.550592803595
 21
329.19126255659211
 31
0.0
  0
LINE
  5
A65F
  8
1PHANTOM
 10
1560.6755919310469
 20
328.81626255659211
 30
0.0
 11
1560.7505928035951
 21
329.19126255659211
 31
0.0
  0
LINE
  5
A660
  8
1PHANTOM
 10
1561.875591931047
 20
328.81626255659211
 30
0.0
 11
1561.9505928035951
 21
329.19126255659211
 31
0.0
  0
LINE
  5
A661
  8
1PHANTOM
 10
1563.075591931047
 20
328.81626255659211
 30
0.0
 11
1563.1505928035949
 21
329.19126255659211
 31
0.0
  0
LINE
  5
A662
  8
1PHANTOM
 10
1559.4755919310469
 20
328.81626255659211
 30
0.0
 11
1559.550592803595
 21
329.19126255659211
 31
0.0
  0
LINE
  5
A663
  8
1PHANTOM
 10
1560.0005980388819
 20
331.44126255659211
 30
0.0
 11
1560.07559891143
 21
331.81626255659211
 31
0.0
  0
LINE
  5
A664
  8
1PHANTOM
 10
1561.2005980388819
 20
331.44126255659211
 30
0.0
 11
1561.2755989114301
 21
331.81626255659211
 31
0.0
  0
LINE
  5
A665
  8
1PHANTOM
 10
1562.400598038882
 20
331.44126255659211
 30
0.0
 11
1562.4755989114301
 21
331.81626255659211
 31
0.0
  0
LINE
  5
A666
  8
1PHANTOM
 10
1558.8005980388821
 20
331.44126255659211
 30
0.0
 11
1558.87559891143
 21
331.81626255659211
 31
0.0
  0
LINE
  5
A667
  8
1PHANTOM
 10
1560.07559891143
 20
331.81626255659211
 30
0.0
 11
1560.6755919310469
 21
328.81626255659211
 31
0.0
  0
LINE
  5
A668
  8
1PHANTOM
 10
1561.2755989114301
 20
331.81626255659211
 30
0.0
 11
1561.875591931047
 21
328.81626255659211
 31
0.0
  0
LINE
  5
A669
  8
1PHANTOM
 10
1562.4755989114301
 20
331.81626255659211
 30
0.0
 11
1563.075591931047
 21
328.81626255659211
 31
0.0
  0
LINE
  5
A66A
  8
1PHANTOM
 10
1558.87559891143
 20
331.81626255659211
 30
0.0
 11
1559.4755919310469
 21
328.81626255659211
 31
0.0
  0
LINE
  5
A66B
  8
1PHANTOM
 10
1546.8755989114291
 20
331.81626255659211
 30
0.0
 11
1547.475591931046
 21
328.81626255659211
 31
0.0
  0
LINE
  5
A66C
  8
1PHANTOM
 10
1550.4755989114301
 20
331.81626255659211
 30
0.0
 11
1551.0755919310459
 21
328.81626255659211
 31
0.0
  0
LINE
  5
A66D
  8
1PHANTOM
 10
1549.2755989114301
 20
331.81626255659211
 30
0.0
 11
1549.875591931047
 21
328.81626255659211
 31
0.0
  0
LINE
  5
A66E
  8
1PHANTOM
 10
1548.0755989114291
 20
331.81626255659211
 30
0.0
 11
1548.6755919310469
 21
328.81626255659211
 31
0.0
  0
LINE
  5
A66F
  8
1PHANTOM
 10
1546.8005980388821
 20
331.44126255659211
 30
0.0
 11
1546.8755989114291
 21
331.81626255659211
 31
0.0
  0
LINE
  5
A670
  8
1PHANTOM
 10
1550.400598038882
 20
331.44126255659211
 30
0.0
 11
1550.4755989114301
 21
331.81626255659211
 31
0.0
  0
LINE
  5
A671
  8
1PHANTOM
 10
1549.2005980388819
 20
331.44126255659211
 30
0.0
 11
1549.2755989114301
 21
331.81626255659211
 31
0.0
  0
LINE
  5
A672
  8
1PHANTOM
 10
1548.0005980388819
 20
331.44126255659211
 30
0.0
 11
1548.0755989114291
 21
331.81626255659211
 31
0.0
  0
LINE
  5
A673
  8
1PHANTOM
 10
1547.475591931046
 20
328.81626255659211
 30
0.0
 11
1547.5505928035941
 21
329.19126255659211
 31
0.0
  0
LINE
  5
A674
  8
1PHANTOM
 10
1551.0755919310459
 20
328.81626255659211
 30
0.0
 11
1551.150592803594
 21
329.19126255659211
 31
0.0
  0
LINE
  5
A675
  8
1PHANTOM
 10
1549.875591931047
 20
328.81626255659211
 30
0.0
 11
1549.950592803594
 21
329.19126255659211
 31
0.0
  0
LINE
  5
A676
  8
1PHANTOM
 10
1548.6755919310469
 20
328.81626255659211
 30
0.0
 11
1548.7505928035939
 21
329.19126255659211
 31
0.0
  0
LINE
  5
A677
  8
1PHANTOM
 10
1551.600598038882
 20
331.44126255659211
 30
0.0
 11
1551.6755989114299
 21
331.81626255659211
 31
0.0
  0
LINE
  5
A678
  8
1PHANTOM
 10
1553.4755919310469
 20
328.81626255659211
 30
0.0
 11
1553.5505928035941
 21
329.19126255659211
 31
0.0
  0
LINE
  5
A679
  8
1PHANTOM
 10
1552.2755919310459
 20
328.81626255659211
 30
0.0
 11
1552.350592803595
 21
329.19126255659211
 31
0.0
  0
LINE
  5
A67A
  8
1PHANTOM
 10
1552.8005980388821
 20
331.44126255659211
 30
0.0
 11
1552.87559891143
 21
331.81626255659211
 31
0.0
  0
LINE
  5
A67B
  8
1PHANTOM
 10
1551.600598038882
 20
331.44126255659211
 30
0.0
 11
1551.6755989114299
 21
331.81626255659211
 31
0.0
  0
LINE
  5
A67C
  8
1PHANTOM
 10
1552.87559891143
 20
331.81626255659211
 30
0.0
 11
1553.4755919310469
 21
328.81626255659211
 31
0.0
  0
LINE
  5
A67D
  8
1PHANTOM
 10
1551.6755989114299
 20
331.81626255659211
 30
0.0
 11
1552.2755919310459
 21
328.81626255659211
 31
0.0
  0
LINE
  5
A67E
  8
1PHANTOM
 10
1527.3506069486191
 20
344.00609676339121
 30
0.0
 11
1527.3505548122789
 21
325.95609957183501
 31
0.0
  0
LINE
  5
A67F
  8
1PHANTOM
 10
1527.1005954149309
 20
344.25610829712258
 30
0.0
 11
1527.3506069486191
 21
344.00609676339121
 31
0.0
  0
LINE
  5
A680
  8
1PHANTOM
 10
1528.850540851543
 20
324.45609608167462
 30
0.0
 11
1527.3505548122789
 21
325.95609957183501
 31
0.0
  0
LINE
  5
A681
  8
1PHANTOM
 10
1527.1005954149309
 20
344.25610829712258
 30
0.0
 11
1524.600595414968
 21
344.25612574807042
 31
0.0
  0
LINE
  5
A682
  8
1PHANTOM
 10
1528.850540851543
 20
324.45609608167462
 30
0.0
 11
1528.850538990105
 21
324.25609608169202
 31
0.0
  0
LINE
  5
A683
  8
1PHANTOM
 10
1524.600595414968
 20
344.25612574807042
 30
0.0
 11
1524.350606948612
 21
344.0061372817438
 31
0.0
  0
LINE
  5
A684
  8
1PHANTOM
 10
1524.350606948612
 20
344.0061372817438
 30
0.0
 11
1524.3505548125411
 21
325.9561414542261
 31
0.0
  0
LINE
  5
A685
  8
1PHANTOM
 10
1522.8505408516739
 20
324.45613796397839
 30
0.0
 11
1522.8505389902359
 21
324.2561379639958
 31
0.0
  0
LINE
  5
A686
  8
1PHANTOM
 10
1522.8505408516739
 20
324.45613796397839
 30
0.0
 11
1524.3505548125411
 21
325.9561414542261
 31
0.0
  0
LINE
  5
A687
  8
1PHANTOM
 10
1527.100609275376
 20
344.25609443668532
 30
0.0
 11
1527.1005571390649
 21
326.20610015353333
 31
0.0
  0
LINE
  5
A688
  8
1PHANTOM
 10
1524.6006092753689
 20
344.25612574798311
 30
0.0
 11
1524.6005571393489
 21
326.2061420359243
 31
0.0
  0
LINE
  5
A689
  8
1PHANTOM
 10
1527.3505925064619
 20
344.00611120558477
 30
0.0
 11
1524.3505925064401
 21
344.00612283955002
 31
0.0
  0
LINE
  5
A68A
  8
1PHANTOM
 10
1527.1005571390649
 20
326.20610015353333
 30
0.0
 11
1527.3505548122789
 21
325.95609957183501
 31
0.0
  0
LINE
  5
A68B
  8
1PHANTOM
 10
1524.3505548125411
 20
325.9561414542261
 30
0.0
 11
1524.6005571393489
 21
326.2061420359243
 31
0.0
  0
LINE
  5
A68F
  8
1PHANTOM
 10
1522.8505389902359
 20
324.2561379639958
 30
0.0
 11
1528.850538990105
 21
324.25609608169202
 31
0.0
  0
ARC
  5
A751
  8
1PHANTOM
 10
1465.050595414946
 20
350.31629745850722
 30
0.0
 40
4.0999999999476131
 50
24.340646730093251
 51
155.6593532681924
  0
LINE
  5
A753
  8
1PHANTOM
 10
1469.550595414976
 20
350.31629745850722
 30
0.0
 11
1469.550595414976
 21
330.31629745798341
 31
0.0
  0
LINE
  5
A754
  8
1PHANTOM
 10
1460.5505954148809
 20
350.31629745844901
 30
0.0
 11
1460.550595414888
 21
330.31629745798341
 31
0.0
  0
LINE
  5
A755
  8
1PHANTOM
 10
1460.5505954148809
 20
350.31629745844901
 30
0.0
 11
1461.3150398595369
 21
352.00615682897541
 31
0.0
  0
LINE
  5
A756
  8
1PHANTOM
 10
1469.550595414976
 20
350.31629745850722
 30
0.0
 11
1468.7861509703851
 21
352.0061568289463
 31
0.0
  0
ARC
  5
A75A
  8
1PHANTOM
 10
1465.050595414946
 20
330.31629745798341
 30
0.0
 40
4.0999999999476131
 50
204.3406467319769
 51
335.65935326990677
  0
LINE
  5
A75B
  8
1PHANTOM
 10
1460.550595414888
 20
330.31629745798341
 30
0.0
 11
1461.3150398595369
 21
328.62643808751523
 31
0.0
  0
LINE
  5
A75C
  8
1PHANTOM
 10
1469.550595414976
 20
330.31629745798341
 30
0.0
 11
1468.7861509703851
 21
328.62643808754427
 31
0.0
  0
LINE
  5
A777
  8
1CENTER
 10
1525.850612369693
 20
345.88296412517599
 30
0.0
 11
1525.8505436071221
 21
322.07671831476267
 31
0.0
  0
LINE
  5
A798
  8
01
 10
1684.8676715002259
 20
356.91629748378011
 30
0.0
 11
1684.8676715002559
 21
354.81629748374507
 31
0.0
  0
LINE
  5
A799
  8
01
 10
1667.3676715002191
 20
399.91629748378011
 30
0.0
 11
1667.36767150019
 21
354.88605936357459
 31
0.0
  0
ARC
  5
A79A
  8
01
 10
1666.8676715002191
 20
399.91629748378011
 30
0.0
 40
0.5
 50
0.0
 51
90.0
  0
LINE
  5
A79B
  8
01
 10
1667.3676714999351
 20
325.94653560404259
 30
0.0
 11
1667.3676714999431
 21
323.91629748389528
 31
0.0
  0
LINE
  5
A79C
  8
01
 10
1658.3676715002409
 20
399.91629748380922
 30
0.0
 11
1658.3676715002191
 21
323.91629748383832
 31
0.0
  0
ARC
  5
A79D
  8
01
 10
1658.8676715002409
 20
399.91629748380922
 30
0.0
 40
0.5
 50
90.0
 51
180.0
  0
LINE
  5
A79E
  8
01
 10
1666.8676715002191
 20
400.41629748378
 30
0.0
 11
1658.8676715002409
 21
400.41629748380922
 31
0.0
  0
LINE
  5
A79F
  8
01
 10
1666.8676714999499
 20
323.41629748389528
 30
0.0
 11
1658.8676714999569
 21
323.41629748383713
 31
0.0
  0
ARC
  5
A7A0
  8
01
 10
1658.8676714999499
 20
323.91629748383713
 30
0.0
 40
0.5
 50
180.0
 51
270.00000000041689
  0
ARC
  5
A7A1
  8
01
 10
1666.8676714999431
 20
323.91629748389528
 30
0.0
 40
0.5
 50
270.00000000041689
 51
0.0
  0
LINE
  5
A7A2
  8
01
 10
1684.8676715002259
 20
356.91629748378011
 30
0.0
 11
1662.867671499961
 21
352.01158550295332
 31
0.0
  0
ARC
  5
A7A3
  8
01
 10
1668.86767150019
 20
354.88605936357459
 30
0.0
 40
1.5
 50
180.0
 51
282.5680714058841
  0
LINE
  5
A7A4
  8
01
 10
1684.8676714999569
 20
323.91629748372071
 30
0.0
 11
1662.8676391728029
 21
328.8210166717231
 31
0.0
  0
ARC
  5
A7A5
  8
01
 10
1668.867671499936
 20
325.94653560404259
 30
0.0
 40
1.5
 50
77.431928593716066
 51
180.0
  0
LINE
  5
A7A6
  8
01
 10
1684.86767150434
 20
356.91629748378011
 30
0.0
 11
1684.8676715002259
 21
323.9162974836625
 31
0.0
  0
LINE
  5
A7A7
  8
1PHANTOM
 10
1683.567664520165
 20
326.2162974840769
 30
0.0
 11
1681.5676714997651
 21
326.2162974840769
 31
0.0
  0
LINE
  5
A7A8
  8
1PHANTOM
 10
1684.867671500198
 20
326.21629748411613
 30
0.0
 11
1681.567671499736
 21
326.21629748416422
 31
0.0
  0
LINE
  5
A7A9
  8
1PHANTOM
 10
1684.8676715002589
 20
326.21629745853892
 30
0.0
 11
1684.8676715002589
 21
329.19126255659211
 31
0.0
  0
LINE
  5
A7AA
  8
1PHANTOM
 10
1684.8676715002589
 20
331.44126255659148
 30
0.0
 11
1684.8676715002589
 21
348.41629745845739
 31
0.0
  0
LINE
  5
A7AB
  8
1PHANTOM
 10
1684.8676715002589
 20
352.21629745851573
 30
0.0
 11
1684.8676715002589
 21
354.4162974584342
 31
0.0
  0
LINE
  5
A7AC
  8
1PHANTOM
 10
1684.8676715002589
 20
332.21629745845752
 30
0.0
 11
1683.067671500256
 21
332.21629745845752
 31
0.0
  0
LINE
  5
A7AD
  8
1PHANTOM
 10
1684.8676715002589
 20
328.41629745845728
 30
0.0
 11
1683.0676715002639
 21
328.4162974584865
 31
0.0
  0
LINE
  5
A7AE
  8
1PHANTOM
 10
1683.0676715002489
 20
333.41629745860882
 30
0.0
 11
1680.768060981864
 21
333.41629745849229
 31
0.0
  0
LINE
  5
A7AF
  8
1PHANTOM
 10
1684.8676715002589
 20
326.21629745853892
 30
0.0
 11
1681.5676784798709
 21
326.2162974584225
 31
0.0
  0
LINE
  5
A7B0
  8
1PHANTOM
 10
1660.0676714999649
 20
335.30453439976731
 30
0.0
 11
1660.06767149998
 21
345.3277773410972
 31
0.0
  0
ARC
  5
A7B1
  8
1PHANTOM
 10
1660.5676714999729
 20
335.30453439976731
 30
0.0
 40
0.5
 50
180.0
 51
268.63607246830918
  0
LINE
  5
A7B2
  8
1PHANTOM
 10
1681.0676714994411
 20
348.26924522401708
 30
0.0
 11
1681.0676714994629
 21
353.91629745834689
 31
0.0
  0
ARC
  5
A7B3
  8
1PHANTOM
 10
1679.067671499449
 20
348.26924522401708
 30
0.0
 40
2.0
 50
271.36392753132583
 51
0.0
  0
LINE
  5
A7B4
  8
1PHANTOM
 10
1683.0676715002489
 20
333.41629745860882
 30
0.0
 11
1683.067671500256
 21
332.31629745845743
 31
0.0
  0
LINE
  5
A7B5
  8
1PHANTOM
 10
1681.067678479857
 20
326.7162974584225
 30
0.0
 11
1681.067678479842
 21
332.36334952677311
 31
0.0
  0
ARC
  5
A7B6
  8
1PHANTOM
 10
1681.567678479857
 20
326.7162974584225
 30
0.0
 40
0.5
 50
180.0
 51
270.00000000125073
  0
LINE
  5
A7B7
  8
1PHANTOM
 10
1684.867671500172
 20
352.21629745851578
 30
0.0
 11
1683.0676715001759
 21
352.21629745845757
 31
0.0
  0
LINE
  5
A7B8
  8
1PHANTOM
 10
1683.0676715001621
 20
353.4162974584633
 30
0.0
 11
1681.067678479762
 21
353.4162974584633
 31
0.0
  0
LINE
  5
A7B9
  8
1PHANTOM
 10
1683.0676715001621
 20
352.31629745839928
 30
0.0
 11
1683.0676715001621
 21
353.4162974584633
 31
0.0
  0
LINE
  5
A7BA
  8
1PHANTOM
 10
1684.8676715001791
 20
348.41629745845728
 30
0.0
 11
1683.0676715001759
 21
348.41629745842829
 31
0.0
  0
LINE
  5
A7BB
  8
1PHANTOM
 10
1684.8676715001429
 20
352.21629745845757
 30
0.0
 11
1683.0676715001471
 21
352.21629745839942
 31
0.0
  0
LINE
  5
A7BC
  8
1PHANTOM
 10
1683.067671500183
 20
347.21629745827698
 30
0.0
 11
1680.768054104273
 21
347.21629745836429
 31
0.0
  0
LINE
  5
A7BD
  8
1PHANTOM
 10
1683.067671500133
 20
353.4162974584051
 30
0.0
 11
1681.0676784797331
 21
353.41629745837599
 31
0.0
  0
LINE
  5
A7BE
  8
1PHANTOM
 10
1684.8676715002589
 20
354.4162974584342
 30
0.0
 11
1681.5676714994561
 21
354.41629745834689
 31
0.0
  0
ARC
  5
A7BF
  8
1PHANTOM
 10
1681.5676714994629
 20
353.91629745834689
 30
0.0
 40
0.5
 50
90.000000000833779
 51
180.0
  0
LINE
  5
A7C0
  8
1PHANTOM
 10
1683.067671500183
 20
347.21629745827698
 30
0.0
 11
1683.0676715001759
 21
348.31629745842832
 31
0.0
  0
LINE
  5
A7C1
  8
1PHANTOM
 10
1683.067671500133
 20
352.31629745834101
 30
0.0
 11
1683.067671500133
 21
353.4162974584051
 31
0.0
  0
LINE
  5
A7C2
  8
1PHANTOM
 10
1660.555770110999
 20
334.80467606291722
 30
0.0
 11
1679.1152840357399
 21
334.36278287420458
 31
0.0
  0
ARC
  5
A7C3
  8
1PHANTOM
 10
1679.06767847985
 20
332.36334952677311
 30
0.0
 40
2.0
 50
0.0
 51
88.636072468674143
  0
LINE
  5
A7C4
  8
1PHANTOM
 10
1660.5557701110311
 20
345.82791885413639
 30
0.0
 11
1662.867671499961
 21
345.88296412522499
 31
0.0
  0
ARC
  5
A7C5
  8
1PHANTOM
 10
1660.567671499987
 20
345.32806051726402
 30
0.0
 40
0.5
 50
91.363927530908853
 51
180.0
  0
LINE
  5
A7C6
  8
1PHANTOM
 10
1662.867671499954
 20
345.88296412525409
 30
0.0
 11
1679.115277055339
 21
346.26981187661471
 31
0.0
  0
LINE
  5
A7C7
  8
1CENTER
 10
1694.7311023100569
 20
340.31629745848647
 30
0.0
 11
1660.067671499972
 21
340.31629745855793
 31
0.0
  0
LINE
  5
A7C8
  8
1CENTER
 10
1676.6860014148599
 20
330.31629745851558
 30
0.0
 11
1687.0233524174701
 21
330.31629745851558
 31
0.0
  0
LINE
  5
A7C9
  8
1CENTER
 10
1676.6860014148599
 20
350.31629762490229
 30
0.0
 11
1687.0233524174701
 21
350.31629762490229
 31
0.0
  0
LINE
  5
A7CA
  8
1PHANTOM
 10
1683.0676715001759
 20
348.31629745842832
 30
0.0
 11
1683.067671500133
 21
352.31629745834101
 31
0.0
  0
LINE
  5
A7CB
  8
1PHANTOM
 10
1709.0926741240751
 20
351.44126272297882
 30
0.0
 11
1683.0676959307841
 21
351.44126272297808
 31
0.0
  0
LINE
  5
A7CC
  8
1PHANTOM
 10
1713.067671506471
 20
350.31626272297882
 30
0.0
 11
1709.0926741240751
 21
351.44126272297882
 31
0.0
  0
LINE
  5
A7CD
  8
1PHANTOM
 10
1713.067671506471
 20
350.31626272297882
 30
0.0
 11
1709.092668888786
 21
349.19126272297882
 31
0.0
  0
LINE
  5
A7CE
  8
1PHANTOM
 10
1709.092668888786
 20
349.19126272297882
 30
0.0
 11
1683.0676470680089
 21
349.19126272297871
 31
0.0
  0
LINE
  5
A7CF
  8
1CENTER
 10
1718.4798087739141
 20
350.31629762490229
 30
0.0
 11
1677.1498376781849
 21
350.31629762490229
 31
0.0
  0
LINE
  5
A7D0
  8
1PHANTOM
 10
1683.0676128782161
 20
347.6169142266325
 30
0.0
 11
1682.0676345947691
 21
347.6169142266325
 31
0.0
  0
ARC
  5
A7D1
  8
1PHANTOM
 10
1682.0676345947691
 20
348.6169142266325
 30
0.0
 40
1.0
 50
179.9987557196761
 51
270.0
  0
LINE
  5
A7D2
  8
1PHANTOM
 10
1683.067730148874
 20
353.01691422663248
 30
0.0
 11
1682.06770843185
 21
353.01691422663248
 31
0.0
  0
LINE
  5
A7D3
  8
1PHANTOM
 10
1691.0926749966229
 20
351.81626272297882
 30
0.0
 11
1691.6926680162401
 21
348.81626272297882
 31
0.0
  0
LINE
  5
A7D4
  8
1PHANTOM
 10
1694.6926749966231
 20
351.81626272297882
 30
0.0
 11
1695.29266801624
 21
348.81626272297882
 31
0.0
  0
LINE
  5
A7D5
  8
1PHANTOM
 10
1693.492674996623
 20
351.81626272297882
 30
0.0
 11
1694.0926680162399
 21
348.81626272297882
 31
0.0
  0
LINE
  5
A7D6
  8
1PHANTOM
 10
1692.292674996623
 20
351.81626272297882
 30
0.0
 11
1692.8926680162399
 21
348.81626272297882
 31
0.0
  0
LINE
  5
A7D7
  8
1PHANTOM
 10
1691.017674124075
 20
351.44126272297882
 30
0.0
 11
1691.0926749966229
 21
351.81626272297882
 31
0.0
  0
LINE
  5
A7D8
  8
1PHANTOM
 10
1694.6176741240749
 20
351.44126272297882
 30
0.0
 11
1694.6926749966231
 21
351.81626272297882
 31
0.0
  0
LINE
  5
A7D9
  8
1PHANTOM
 10
1693.4176741240749
 20
351.44126272297882
 30
0.0
 11
1693.492674996623
 21
351.81626272297882
 31
0.0
  0
LINE
  5
A7DA
  8
1PHANTOM
 10
1692.2176741240751
 20
351.44126272297882
 30
0.0
 11
1692.292674996623
 21
351.81626272297882
 31
0.0
  0
LINE
  5
A7DB
  8
1PHANTOM
 10
1691.6926680162401
 20
348.81626272297882
 30
0.0
 11
1691.767668888788
 21
349.19126272297882
 31
0.0
  0
LINE
  5
A7DC
  8
1PHANTOM
 10
1695.29266801624
 20
348.81626272297882
 30
0.0
 11
1695.3676688887881
 21
349.19126272297882
 31
0.0
  0
LINE
  5
A7DD
  8
1PHANTOM
 10
1694.0926680162399
 20
348.81626272297882
 30
0.0
 11
1694.1676688887881
 21
349.19126272297882
 31
0.0
  0
LINE
  5
A7DE
  8
1PHANTOM
 10
1692.8926680162399
 20
348.81626272297882
 30
0.0
 11
1692.967668888788
 21
349.19126272297882
 31
0.0
  0
LINE
  5
A7DF
  8
1PHANTOM
 10
1695.817674124075
 20
351.44126272297882
 30
0.0
 11
1695.8926749966231
 21
351.81626272297882
 31
0.0
  0
LINE
  5
A7E0
  8
1PHANTOM
 10
1683.0676128782161
 20
347.6169142266325
 30
0.0
 11
1683.067730148874
 21
353.01691422663248
 31
0.0
  0
LINE
  5
A7E1
  8
1PHANTOM
 10
1681.0676345950051
 20
348.61693594342103
 30
0.0
 11
1681.067708432086
 21
352.016935943421
 31
0.0
  0
ARC
  5
A7E2
  8
1PHANTOM
 10
1682.06770843185
 20
352.01691422663248
 30
0.0
 40
1.0
 50
90.0
 51
179.9987557196761
  0
LINE
  5
A7E3
  8
1PHANTOM
 10
1700.6926749966231
 20
351.81626272297882
 30
0.0
 11
1701.29266801624
 21
348.81626272297882
 31
0.0
  0
LINE
  5
A7E4
  8
1PHANTOM
 10
1701.8926749966231
 20
351.81626272297882
 30
0.0
 11
1702.49266801624
 21
348.81626272297882
 31
0.0
  0
LINE
  5
A7E5
  8
1PHANTOM
 10
1706.6926749966231
 20
351.81626272297882
 30
0.0
 11
1707.29266801624
 21
348.81626272297882
 31
0.0
  0
LINE
  5
A7E6
  8
1PHANTOM
 10
1705.492674996623
 20
351.81626272297882
 30
0.0
 11
1706.0926680162399
 21
348.81626272297882
 31
0.0
  0
LINE
  5
A7E7
  8
1PHANTOM
 10
1704.292674996623
 20
351.81626272297882
 30
0.0
 11
1704.8926680162399
 21
348.81626272297882
 31
0.0
  0
LINE
  5
A7E8
  8
1PHANTOM
 10
1709.0926749966229
 20
351.81626272297882
 30
0.0
 11
1709.6926684113421
 21
348.98606801213168
 31
0.0
  0
LINE
  5
A7E9
  8
1PHANTOM
 10
1709.6926684113421
 20
348.98606801213168
 30
0.0
 11
1709.789621434564
 21
349.38851331358518
 31
0.0
  0
LINE
  5
A7EA
  8
1PHANTOM
 10
1707.8926749966231
 20
351.81626272297882
 30
0.0
 11
1708.49266801624
 21
348.81626272297882
 31
0.0
  0
LINE
  5
A7EB
  8
1PHANTOM
 10
1703.0926749966229
 20
351.81626272297882
 30
0.0
 11
1703.6926680162401
 21
348.81626272297882
 31
0.0
  0
LINE
  5
A7EC
  8
1PHANTOM
 10
1700.6176741240761
 20
351.44126272297882
 30
0.0
 11
1700.6926749966231
 21
351.81626272297882
 31
0.0
  0
LINE
  5
A7ED
  8
1PHANTOM
 10
1701.817674124075
 20
351.44126272297882
 30
0.0
 11
1701.8926749966231
 21
351.81626272297882
 31
0.0
  0
LINE
  5
A7EE
  8
1PHANTOM
 10
1705.4176741240749
 20
351.44126272297882
 30
0.0
 11
1705.492674996623
 21
351.81626272297882
 31
0.0
  0
LINE
  5
A7EF
  8
1PHANTOM
 10
1707.817674124075
 20
351.44126272297882
 30
0.0
 11
1707.8926749966231
 21
351.81626272297882
 31
0.0
  0
LINE
  5
A7F0
  8
1PHANTOM
 10
1706.6176741240749
 20
351.44126272297882
 30
0.0
 11
1706.6926749966231
 21
351.81626272297882
 31
0.0
  0
LINE
  5
A7F1
  8
1PHANTOM
 10
1704.2176741240751
 20
351.44126272297882
 30
0.0
 11
1704.292674996623
 21
351.81626272297882
 31
0.0
  0
LINE
  5
A7F2
  8
1PHANTOM
 10
1711.4926734162129
 20
351.13704048539847
 30
0.0
 11
1712.0926699917511
 21
349.66528916874199
 31
0.0
  0
LINE
  5
A7F3
  8
1PHANTOM
 10
1712.0926699917511
 20
349.66528916874199
 30
0.0
 11
1712.32649738394
 21
350.10649660002377
 31
0.0
  0
LINE
  5
A7F4
  8
1PHANTOM
 10
1710.2926742064151
 20
351.47665061643488
 30
0.0
 11
1710.8926692015471
 21
349.32567859043712
 31
0.0
  0
LINE
  5
A7F5
  8
1PHANTOM
 10
1710.8926692015471
 20
349.32567859043712
 30
0.0
 11
1711.0297423085181
 21
349.73949068828938
 31
0.0
  0
LINE
  5
A7F6
  8
1PHANTOM
 10
1711.379096568882
 20
350.79416160492542
 30
0.0
 11
1711.4926734162129
 21
351.13704048539847
 31
0.0
  0
LINE
  5
A7F7
  8
1PHANTOM
 10
1709.017674124075
 20
351.44126272297882
 30
0.0
 11
1709.0926749966229
 21
351.81626272297882
 31
0.0
  0
LINE
  5
A7F8
  8
1PHANTOM
 10
1710.2080970721529
 20
351.12557677507249
 30
0.0
 11
1710.2926742064151
 21
351.47665061643488
 31
0.0
  0
LINE
  5
A7F9
  8
1PHANTOM
 10
1703.017674124075
 20
351.44126272297882
 30
0.0
 11
1703.0926749966229
 21
351.81626272297882
 31
0.0
  0
LINE
  5
A7FA
  8
1PHANTOM
 10
1701.29266801624
 20
348.81626272297882
 30
0.0
 11
1701.3676688887881
 21
349.19126272297882
 31
0.0
  0
LINE
  5
A7FB
  8
1PHANTOM
 10
1702.49266801624
 20
348.81626272297882
 30
0.0
 11
1702.5676688887879
 21
349.19126272297882
 31
0.0
  0
LINE
  5
A7FC
  8
1PHANTOM
 10
1706.0926680162399
 20
348.81626272297882
 30
0.0
 11
1706.1676688887881
 21
349.19126272297882
 31
0.0
  0
LINE
  5
A7FD
  8
1PHANTOM
 10
1707.29266801624
 20
348.81626272297882
 30
0.0
 11
1707.3676688887881
 21
349.19126272297882
 31
0.0
  0
LINE
  5
A7FE
  8
1PHANTOM
 10
1704.8926680162399
 20
348.81626272297882
 30
0.0
 11
1704.967668888788
 21
349.19126272297882
 31
0.0
  0
LINE
  5
A7FF
  8
1PHANTOM
 10
1703.6926680162401
 20
348.81626272297882
 30
0.0
 11
1703.767668888788
 21
349.19126272297882
 31
0.0
  0
LINE
  5
A800
  8
1PHANTOM
 10
1708.49266801624
 20
348.81626272297882
 30
0.0
 11
1708.5676688887879
 21
349.19126272297882
 31
0.0
  0
LINE
  5
A801
  8
1PHANTOM
 10
1697.6926680162401
 20
348.81626272297882
 30
0.0
 11
1697.767668888788
 21
349.19126272297882
 31
0.0
  0
LINE
  5
A802
  8
1PHANTOM
 10
1698.8926680162399
 20
348.81626272297882
 30
0.0
 11
1698.967668888788
 21
349.19126272297882
 31
0.0
  0
LINE
  5
A803
  8
1PHANTOM
 10
1700.0926680162399
 20
348.81626272297882
 30
0.0
 11
1700.1676688887881
 21
349.19126272297882
 31
0.0
  0
LINE
  5
A804
  8
1PHANTOM
 10
1696.49266801624
 20
348.81626272297882
 30
0.0
 11
1696.5676688887879
 21
349.19126272297882
 31
0.0
  0
LINE
  5
A805
  8
1PHANTOM
 10
1697.017674124075
 20
351.44126272297882
 30
0.0
 11
1697.0926749966229
 21
351.81626272297882
 31
0.0
  0
LINE
  5
A806
  8
1PHANTOM
 10
1698.217674124076
 20
351.44126272297882
 30
0.0
 11
1698.292674996623
 21
351.81626272297882
 31
0.0
  0
LINE
  5
A807
  8
1PHANTOM
 10
1699.417674124076
 20
351.44126272297882
 30
0.0
 11
1699.492674996623
 21
351.81626272297882
 31
0.0
  0
LINE
  5
A808
  8
1PHANTOM
 10
1695.817674124075
 20
351.44126272297882
 30
0.0
 11
1695.8926749966231
 21
351.81626272297882
 31
0.0
  0
LINE
  5
A809
  8
1PHANTOM
 10
1697.0926749966229
 20
351.81626272297882
 30
0.0
 11
1697.6926680162401
 21
348.81626272297882
 31
0.0
  0
LINE
  5
A80A
  8
1PHANTOM
 10
1698.292674996623
 20
351.81626272297882
 30
0.0
 11
1698.8926680162399
 21
348.81626272297882
 31
0.0
  0
LINE
  5
A80B
  8
1PHANTOM
 10
1699.492674996623
 20
351.81626272297882
 30
0.0
 11
1700.0926680162399
 21
348.81626272297882
 31
0.0
  0
LINE
  5
A80C
  8
1PHANTOM
 10
1695.8926749966231
 20
351.81626272297882
 30
0.0
 11
1696.49266801624
 21
348.81626272297882
 31
0.0
  0
LINE
  5
A80D
  8
1PHANTOM
 10
1683.8926749966231
 20
351.81626272297882
 30
0.0
 11
1684.49266801624
 21
348.81626272297882
 31
0.0
  0
LINE
  5
A80E
  8
1PHANTOM
 10
1687.492674996623
 20
351.81626272297882
 30
0.0
 11
1688.0926680162399
 21
348.81626272297882
 31
0.0
  0
LINE
  5
A80F
  8
1PHANTOM
 10
1686.292674996623
 20
351.81626272297882
 30
0.0
 11
1686.8926680162399
 21
348.81626272297882
 31
0.0
  0
LINE
  5
A810
  8
1PHANTOM
 10
1685.0926749966229
 20
351.81626272297882
 30
0.0
 11
1685.6926680162401
 21
348.81626272297882
 31
0.0
  0
LINE
  5
A811
  8
1PHANTOM
 10
1683.817674124075
 20
351.44126272297882
 30
0.0
 11
1683.8926749966231
 21
351.81626272297882
 31
0.0
  0
LINE
  5
A812
  8
1PHANTOM
 10
1687.4176741240749
 20
351.44126272297882
 30
0.0
 11
1687.492674996623
 21
351.81626272297882
 31
0.0
  0
LINE
  5
A813
  8
1PHANTOM
 10
1686.2176741240751
 20
351.44126272297882
 30
0.0
 11
1686.292674996623
 21
351.81626272297882
 31
0.0
  0
LINE
  5
A814
  8
1PHANTOM
 10
1685.017674124075
 20
351.44126272297882
 30
0.0
 11
1685.0926749966229
 21
351.81626272297882
 31
0.0
  0
LINE
  5
A815
  8
1PHANTOM
 10
1684.49266801624
 20
348.81626272297882
 30
0.0
 11
1684.5676688887879
 21
349.19126272297882
 31
0.0
  0
LINE
  5
A816
  8
1PHANTOM
 10
1688.0926680162399
 20
348.81626272297882
 30
0.0
 11
1688.1676688887881
 21
349.19126272297882
 31
0.0
  0
LINE
  5
A817
  8
1PHANTOM
 10
1686.8926680162399
 20
348.81626272297882
 30
0.0
 11
1686.967668888788
 21
349.19126272297882
 31
0.0
  0
LINE
  5
A818
  8
1PHANTOM
 10
1685.6926680162401
 20
348.81626272297882
 30
0.0
 11
1685.767668888788
 21
349.19126272297882
 31
0.0
  0
LINE
  5
A819
  8
1PHANTOM
 10
1688.6176741240749
 20
351.44126272297882
 30
0.0
 11
1688.6926749966231
 21
351.81626272297882
 31
0.0
  0
LINE
  5
A81A
  8
1PHANTOM
 10
1690.49266801624
 20
348.81626272297882
 30
0.0
 11
1690.5676688887879
 21
349.19126272297882
 31
0.0
  0
LINE
  5
A81B
  8
1PHANTOM
 10
1689.29266801624
 20
348.81626272297882
 30
0.0
 11
1689.3676688887881
 21
349.19126272297882
 31
0.0
  0
LINE
  5
A81C
  8
1PHANTOM
 10
1689.817674124075
 20
351.44126272297882
 30
0.0
 11
1689.8926749966231
 21
351.81626272297882
 31
0.0
  0
LINE
  5
A81D
  8
1PHANTOM
 10
1688.6176741240749
 20
351.44126272297882
 30
0.0
 11
1688.6926749966231
 21
351.81626272297882
 31
0.0
  0
LINE
  5
A81E
  8
1PHANTOM
 10
1689.8926749966231
 20
351.81626272297882
 30
0.0
 11
1690.49266801624
 21
348.81626272297882
 31
0.0
  0
LINE
  5
A81F
  8
1PHANTOM
 10
1688.6926749966231
 20
351.81626272297882
 30
0.0
 11
1689.29266801624
 21
348.81626272297882
 31
0.0
  0
LINE
  5
A820
  8
1PHANTOM
 10
1709.092674124159
 20
331.44126255659211
 30
0.0
 11
1683.0676959308671
 21
331.44126255659148
 31
0.0
  0
LINE
  5
A821
  8
1PHANTOM
 10
1713.0676715065549
 20
330.31626255659211
 30
0.0
 11
1709.092674124159
 21
331.44126255659211
 31
0.0
  0
LINE
  5
A822
  8
1PHANTOM
 10
1713.0676715065549
 20
330.31626255659211
 30
0.0
 11
1709.0926688888701
 21
329.19126255659211
 31
0.0
  0
LINE
  5
A823
  8
1PHANTOM
 10
1709.0926688888701
 20
329.19126255659211
 30
0.0
 11
1683.067647068093
 21
329.19126255659211
 31
0.0
  0
LINE
  5
A824
  8
1CENTER
 10
1718.479808773998
 20
330.31629745851558
 30
0.0
 11
1677.1498376782681
 21
330.31629745851558
 31
0.0
  0
LINE
  5
A825
  8
1PHANTOM
 10
1683.0676128783
 20
327.6169140602459
 30
0.0
 11
1682.067634594853
 21
327.6169140602459
 31
0.0
  0
ARC
  5
A826
  8
1PHANTOM
 10
1682.067634594853
 20
328.6169140602459
 30
0.0
 40
1.0
 50
179.9987557196761
 51
270.0
  0
LINE
  5
A827
  8
1PHANTOM
 10
1683.067730148957
 20
333.01691406024588
 30
0.0
 11
1682.0677084319329
 21
333.01691406024588
 31
0.0
  0
LINE
  5
A828
  8
1PHANTOM
 10
1691.092674996707
 20
331.81626255659211
 30
0.0
 11
1691.6926680163231
 21
328.81626255659211
 31
0.0
  0
LINE
  5
A829
  8
1PHANTOM
 10
1694.692674996707
 20
331.81626255659211
 30
0.0
 11
1695.2926680163239
 21
328.81626255659211
 31
0.0
  0
LINE
  5
A82A
  8
1PHANTOM
 10
1693.4926749967069
 20
331.81626255659211
 30
0.0
 11
1694.0926680163241
 21
328.81626255659211
 31
0.0
  0
LINE
  5
A82B
  8
1PHANTOM
 10
1692.2926749967071
 20
331.81626255659211
 30
0.0
 11
1692.892668016324
 21
328.81626255659211
 31
0.0
  0
LINE
  5
A82C
  8
1PHANTOM
 10
1691.0176741241589
 20
331.44126255659211
 30
0.0
 11
1691.092674996707
 21
331.81626255659211
 31
0.0
  0
LINE
  5
A82D
  8
1PHANTOM
 10
1694.6176741241591
 20
331.44126255659211
 30
0.0
 11
1694.692674996707
 21
331.81626255659211
 31
0.0
  0
LINE
  5
A82E
  8
1PHANTOM
 10
1693.417674124159
 20
331.44126255659211
 30
0.0
 11
1693.4926749967069
 21
331.81626255659211
 31
0.0
  0
LINE
  5
A82F
  8
1PHANTOM
 10
1692.217674124159
 20
331.44126255659211
 30
0.0
 11
1692.2926749967071
 21
331.81626255659211
 31
0.0
  0
LINE
  5
A830
  8
1PHANTOM
 10
1691.6926680163231
 20
328.81626255659211
 30
0.0
 11
1691.7676688888721
 21
329.19126255659211
 31
0.0
  0
LINE
  5
A831
  8
1PHANTOM
 10
1695.2926680163239
 20
328.81626255659211
 30
0.0
 11
1695.3676688888711
 21
329.19126255659211
 31
0.0
  0
LINE
  5
A832
  8
1PHANTOM
 10
1694.0926680163241
 20
328.81626255659211
 30
0.0
 11
1694.167668888872
 21
329.19126255659211
 31
0.0
  0
LINE
  5
A833
  8
1PHANTOM
 10
1692.892668016324
 20
328.81626255659211
 30
0.0
 11
1692.9676688888719
 21
329.19126255659211
 31
0.0
  0
LINE
  5
A834
  8
1PHANTOM
 10
1695.8176741241591
 20
331.44126255659211
 30
0.0
 11
1695.892674996707
 21
331.81626255659211
 31
0.0
  0
LINE
  5
A835
  8
1PHANTOM
 10
1683.0676128783
 20
327.6169140602459
 30
0.0
 11
1683.067730148957
 21
333.01691406024588
 31
0.0
  0
LINE
  5
A836
  8
1PHANTOM
 10
1681.0676345950881
 20
328.61693577703443
 30
0.0
 11
1681.067708432169
 21
332.0169357770344
 31
0.0
  0
ARC
  5
A837
  8
1PHANTOM
 10
1682.0677084319329
 20
332.01691406024588
 30
0.0
 40
1.0
 50
90.0
 51
179.9987557196761
  0
LINE
  5
A838
  8
1PHANTOM
 10
1700.692674996707
 20
331.81626255659211
 30
0.0
 11
1701.2926680163239
 21
328.81626255659211
 31
0.0
  0
LINE
  5
A839
  8
1PHANTOM
 10
1701.892674996707
 20
331.81626255659211
 30
0.0
 11
1702.4926680163239
 21
328.81626255659211
 31
0.0
  0
LINE
  5
A83A
  8
1PHANTOM
 10
1706.692674996707
 20
331.81626255659211
 30
0.0
 11
1707.2926680163239
 21
328.81626255659211
 31
0.0
  0
LINE
  5
A83B
  8
1PHANTOM
 10
1705.4926749967069
 20
331.81626255659211
 30
0.0
 11
1706.0926680163241
 21
328.81626255659211
 31
0.0
  0
LINE
  5
A83C
  8
1PHANTOM
 10
1704.2926749967071
 20
331.81626255659211
 30
0.0
 11
1704.892668016324
 21
328.81626255659211
 31
0.0
  0
LINE
  5
A83D
  8
1PHANTOM
 10
1709.092674996707
 20
331.81626255659211
 30
0.0
 11
1709.692668411426
 21
328.98606784574503
 31
0.0
  0
LINE
  5
A83E
  8
1PHANTOM
 10
1709.692668411426
 20
328.98606784574503
 30
0.0
 11
1709.7896214346481
 21
329.38851314719858
 31
0.0
  0
LINE
  5
A83F
  8
1PHANTOM
 10
1707.892674996707
 20
331.81626255659211
 30
0.0
 11
1708.4926680163239
 21
328.81626255659211
 31
0.0
  0
LINE
  5
A840
  8
1PHANTOM
 10
1703.092674996707
 20
331.81626255659211
 30
0.0
 11
1703.692668016324
 21
328.81626255659211
 31
0.0
  0
LINE
  5
A841
  8
1PHANTOM
 10
1700.6176741241591
 20
331.44126255659211
 30
0.0
 11
1700.692674996707
 21
331.81626255659211
 31
0.0
  0
LINE
  5
A842
  8
1PHANTOM
 10
1701.8176741241591
 20
331.44126255659211
 30
0.0
 11
1701.892674996707
 21
331.81626255659211
 31
0.0
  0
LINE
  5
A843
  8
1PHANTOM
 10
1705.417674124159
 20
331.44126255659211
 30
0.0
 11
1705.4926749967069
 21
331.81626255659211
 31
0.0
  0
LINE
  5
A844
  8
1PHANTOM
 10
1707.8176741241591
 20
331.44126255659211
 30
0.0
 11
1707.892674996707
 21
331.81626255659211
 31
0.0
  0
LINE
  5
A845
  8
1PHANTOM
 10
1706.6176741241591
 20
331.44126255659211
 30
0.0
 11
1706.692674996707
 21
331.81626255659211
 31
0.0
  0
LINE
  5
A846
  8
1PHANTOM
 10
1704.217674124159
 20
331.44126255659211
 30
0.0
 11
1704.2926749967071
 21
331.81626255659211
 31
0.0
  0
LINE
  5
A847
  8
1PHANTOM
 10
1711.4926734162959
 20
331.13704031901187
 30
0.0
 11
1712.0926699918341
 21
329.66528900235528
 31
0.0
  0
LINE
  5
A848
  8
1PHANTOM
 10
1712.0926699918341
 20
329.66528900235528
 30
0.0
 11
1712.326497384023
 21
330.10649643363712
 31
0.0
  0
LINE
  5
A849
  8
1PHANTOM
 10
1710.292674206499
 20
331.47665045004823
 30
0.0
 11
1710.89266920163
 21
329.32567842405041
 31
0.0
  0
LINE
  5
A84A
  8
1PHANTOM
 10
1710.89266920163
 20
329.32567842405041
 30
0.0
 11
1711.029742308602
 21
329.73949052190272
 31
0.0
  0
LINE
  5
A84B
  8
1PHANTOM
 10
1711.3790965689659
 20
330.79416143853882
 30
0.0
 11
1711.4926734162959
 21
331.13704031901187
 31
0.0
  0
LINE
  5
A84C
  8
1PHANTOM
 10
1709.0176741241589
 20
331.44126255659211
 30
0.0
 11
1709.092674996707
 21
331.81626255659211
 31
0.0
  0
LINE
  5
A84D
  8
1PHANTOM
 10
1710.208097072237
 20
331.12557660868578
 30
0.0
 11
1710.292674206499
 21
331.47665045004823
 31
0.0
  0
LINE
  5
A84E
  8
1PHANTOM
 10
1703.0176741241589
 20
331.44126255659211
 30
0.0
 11
1703.092674996707
 21
331.81626255659211
 31
0.0
  0
LINE
  5
A84F
  8
1PHANTOM
 10
1701.2926680163239
 20
328.81626255659211
 30
0.0
 11
1701.367668888872
 21
329.19126255659211
 31
0.0
  0
LINE
  5
A850
  8
1PHANTOM
 10
1702.4926680163239
 20
328.81626255659211
 30
0.0
 11
1702.567668888872
 21
329.19126255659211
 31
0.0
  0
LINE
  5
A851
  8
1PHANTOM
 10
1706.0926680163241
 20
328.81626255659211
 30
0.0
 11
1706.167668888872
 21
329.19126255659211
 31
0.0
  0
LINE
  5
A852
  8
1PHANTOM
 10
1707.2926680163239
 20
328.81626255659211
 30
0.0
 11
1707.367668888872
 21
329.19126255659211
 31
0.0
  0
LINE
  5
A853
  8
1PHANTOM
 10
1704.892668016324
 20
328.81626255659211
 30
0.0
 11
1704.9676688888719
 21
329.19126255659211
 31
0.0
  0
LINE
  5
A854
  8
1PHANTOM
 10
1703.692668016324
 20
328.81626255659211
 30
0.0
 11
1703.7676688888721
 21
329.19126255659211
 31
0.0
  0
LINE
  5
A855
  8
1PHANTOM
 10
1708.4926680163239
 20
328.81626255659211
 30
0.0
 11
1708.5676688888709
 21
329.19126255659211
 31
0.0
  0
LINE
  5
A856
  8
1PHANTOM
 10
1697.692668016324
 20
328.81626255659211
 30
0.0
 11
1697.7676688888721
 21
329.19126255659211
 31
0.0
  0
LINE
  5
A857
  8
1PHANTOM
 10
1698.892668016324
 20
328.81626255659211
 30
0.0
 11
1698.9676688888719
 21
329.19126255659211
 31
0.0
  0
LINE
  5
A858
  8
1PHANTOM
 10
1700.0926680163241
 20
328.81626255659211
 30
0.0
 11
1700.167668888872
 21
329.19126255659211
 31
0.0
  0
LINE
  5
A859
  8
1PHANTOM
 10
1696.4926680163239
 20
328.81626255659211
 30
0.0
 11
1696.567668888872
 21
329.19126255659211
 31
0.0
  0
LINE
  5
A85A
  8
1PHANTOM
 10
1697.0176741241589
 20
331.44126255659211
 30
0.0
 11
1697.092674996707
 21
331.81626255659211
 31
0.0
  0
LINE
  5
A85B
  8
1PHANTOM
 10
1698.217674124159
 20
331.44126255659211
 30
0.0
 11
1698.2926749967071
 21
331.81626255659211
 31
0.0
  0
LINE
  5
A85C
  8
1PHANTOM
 10
1699.417674124159
 20
331.44126255659211
 30
0.0
 11
1699.4926749967069
 21
331.81626255659211
 31
0.0
  0
LINE
  5
A85D
  8
1PHANTOM
 10
1695.8176741241591
 20
331.44126255659211
 30
0.0
 11
1695.892674996707
 21
331.81626255659211
 31
0.0
  0
LINE
  5
A85E
  8
1PHANTOM
 10
1697.092674996707
 20
331.81626255659211
 30
0.0
 11
1697.692668016324
 21
328.81626255659211
 31
0.0
  0
LINE
  5
A85F
  8
1PHANTOM
 10
1698.2926749967071
 20
331.81626255659211
 30
0.0
 11
1698.892668016324
 21
328.81626255659211
 31
0.0
  0
LINE
  5
A860
  8
1PHANTOM
 10
1699.4926749967069
 20
331.81626255659211
 30
0.0
 11
1700.0926680163241
 21
328.81626255659211
 31
0.0
  0
LINE
  5
A861
  8
1PHANTOM
 10
1695.892674996707
 20
331.81626255659211
 30
0.0
 11
1696.4926680163239
 21
328.81626255659211
 31
0.0
  0
LINE
  5
A862
  8
1PHANTOM
 10
1683.892674996707
 20
331.81626255659211
 30
0.0
 11
1684.492668016323
 21
328.81626255659211
 31
0.0
  0
LINE
  5
A863
  8
1PHANTOM
 10
1687.4926749967069
 20
331.81626255659211
 30
0.0
 11
1688.0926680163229
 21
328.81626255659211
 31
0.0
  0
LINE
  5
A864
  8
1PHANTOM
 10
1686.2926749967071
 20
331.81626255659211
 30
0.0
 11
1686.892668016324
 21
328.81626255659211
 31
0.0
  0
LINE
  5
A865
  8
1PHANTOM
 10
1685.0926749967059
 20
331.81626255659211
 30
0.0
 11
1685.692668016324
 21
328.81626255659211
 31
0.0
  0
LINE
  5
A866
  8
1PHANTOM
 10
1683.8176741241591
 20
331.44126255659211
 30
0.0
 11
1683.892674996707
 21
331.81626255659211
 31
0.0
  0
LINE
  5
A867
  8
1PHANTOM
 10
1687.417674124159
 20
331.44126255659211
 30
0.0
 11
1687.4926749967069
 21
331.81626255659211
 31
0.0
  0
LINE
  5
A868
  8
1PHANTOM
 10
1686.217674124159
 20
331.44126255659211
 30
0.0
 11
1686.2926749967071
 21
331.81626255659211
 31
0.0
  0
LINE
  5
A869
  8
1PHANTOM
 10
1685.0176741241589
 20
331.44126255659211
 30
0.0
 11
1685.0926749967059
 21
331.81626255659211
 31
0.0
  0
LINE
  5
A86A
  8
1PHANTOM
 10
1684.492668016323
 20
328.81626255659211
 30
0.0
 11
1684.5676688888709
 21
329.19126255659211
 31
0.0
  0
LINE
  5
A86B
  8
1PHANTOM
 10
1688.0926680163229
 20
328.81626255659211
 30
0.0
 11
1688.167668888871
 21
329.19126255659211
 31
0.0
  0
LINE
  5
A86C
  8
1PHANTOM
 10
1686.892668016324
 20
328.81626255659211
 30
0.0
 11
1686.967668888871
 21
329.19126255659211
 31
0.0
  0
LINE
  5
A86D
  8
1PHANTOM
 10
1685.692668016324
 20
328.81626255659211
 30
0.0
 11
1685.767668888871
 21
329.19126255659211
 31
0.0
  0
LINE
  5
A86E
  8
1PHANTOM
 10
1688.6176741241591
 20
331.44126255659211
 30
0.0
 11
1688.692674996707
 21
331.81626255659211
 31
0.0
  0
LINE
  5
A86F
  8
1PHANTOM
 10
1690.492668016323
 20
328.81626255659211
 30
0.0
 11
1690.5676688888709
 21
329.19126255659211
 31
0.0
  0
LINE
  5
A870
  8
1PHANTOM
 10
1689.292668016323
 20
328.81626255659211
 30
0.0
 11
1689.367668888872
 21
329.19126255659211
 31
0.0
  0
LINE
  5
A871
  8
1PHANTOM
 10
1689.8176741241591
 20
331.44126255659211
 30
0.0
 11
1689.892674996707
 21
331.81626255659211
 31
0.0
  0
LINE
  5
A872
  8
1PHANTOM
 10
1688.6176741241591
 20
331.44126255659211
 30
0.0
 11
1688.692674996707
 21
331.81626255659211
 31
0.0
  0
LINE
  5
A873
  8
1PHANTOM
 10
1689.892674996707
 20
331.81626255659211
 30
0.0
 11
1690.492668016323
 21
328.81626255659211
 31
0.0
  0
LINE
  5
A874
  8
1PHANTOM
 10
1688.692674996707
 20
331.81626255659211
 30
0.0
 11
1689.292668016323
 21
328.81626255659211
 31
0.0
  0
LINE
  5
A875
  8
1PHANTOM
 10
1664.3676830338959
 20
344.00609676339121
 30
0.0
 11
1664.367630897556
 21
325.95609957183501
 31
0.0
  0
LINE
  5
A876
  8
1PHANTOM
 10
1664.117671500208
 20
344.25610829712258
 30
0.0
 11
1664.3676830338959
 21
344.00609676339121
 31
0.0
  0
LINE
  5
A877
  8
1PHANTOM
 10
1665.86761693682
 20
324.45609608167462
 30
0.0
 11
1664.367630897556
 21
325.95609957183501
 31
0.0
  0
LINE
  5
A878
  8
1PHANTOM
 10
1664.117671500208
 20
344.25610829712258
 30
0.0
 11
1661.617671500245
 21
344.25612574807042
 31
0.0
  0
LINE
  5
A879
  8
1PHANTOM
 10
1665.86761693682
 20
324.45609608167462
 30
0.0
 11
1665.8676150753829
 21
324.25609608169202
 31
0.0
  0
LINE
  5
A87A
  8
1PHANTOM
 10
1661.617671500245
 20
344.25612574807042
 30
0.0
 11
1661.3676830338891
 21
344.0061372817438
 31
0.0
  0
LINE
  5
A87B
  8
1PHANTOM
 10
1661.3676830338891
 20
344.0061372817438
 30
0.0
 11
1661.3676308978179
 21
325.9561414542261
 31
0.0
  0
LINE
  5
A87C
  8
1CENTER
 10
1662.86768845497
 20
345.88296412517599
 30
0.0
 11
1662.8676196923991
 21
322.07671831476267
 31
0.0
  0
LINE
  5
A87D
  8
1PHANTOM
 10
1659.867616936951
 20
324.45613796397839
 30
0.0
 11
1659.867615075513
 21
324.2561379639958
 31
0.0
  0
LINE
  5
A87E
  8
1PHANTOM
 10
1659.867616936951
 20
324.45613796397839
 30
0.0
 11
1661.3676308978179
 21
325.9561414542261
 31
0.0
  0
LINE
  5
A87F
  8
1PHANTOM
 10
1664.117685360653
 20
344.25609443668532
 30
0.0
 11
1664.1176332243419
 21
326.20610015353333
 31
0.0
  0
LINE
  5
A880
  8
1PHANTOM
 10
1661.617685360646
 20
344.25612574798311
 30
0.0
 11
1661.6176332246259
 21
326.2061420359243
 31
0.0
  0
LINE
  5
A881
  8
1PHANTOM
 10
1664.3676685917389
 20
344.00611120558477
 30
0.0
 11
1661.3676685917169
 21
344.00612283955002
 31
0.0
  0
LINE
  5
A882
  8
1PHANTOM
 10
1664.1176332243419
 20
326.20610015353333
 30
0.0
 11
1664.367630897556
 21
325.95609957183501
 31
0.0
  0
LINE
  5
A883
  8
1PHANTOM
 10
1661.3676308978179
 20
325.9561414542261
 30
0.0
 11
1661.6176332246259
 21
326.2061420359243
 31
0.0
  0
LINE
  5
A884
  8
1PHANTOM
 10
1659.867615075513
 20
324.2561379639958
 30
0.0
 11
1665.8676150753829
 21
324.25609608169202
 31
0.0
  0
LINE
  5
A8C9
  8
1CENTER
 10
1467.9974050212129
 20
350.31629745850722
 30
0.0
 11
1462.10378580868
 21
350.31629745850722
 31
0.0
  0
LINE
  5
A8CA
  8
1CENTER
 10
1465.050595414946
 20
353.2631070647742
 30
0.0
 11
1465.050595414946
 21
347.3694878522403
 31
0.0
  0
LINE
  5
A8CC
  8
1CENTER
 10
1467.9974050212129
 20
330.31629729209152
 30
0.0
 11
1462.10378580868
 21
330.31629729209152
 31
0.0
  0
LINE
  5
A8CD
  8
1CENTER
 10
1465.050595414946
 20
333.26310689835839
 30
0.0
 11
1465.050595414946
 21
327.36948768582459
 31
0.0
  0
LINE
  5
A8D7
  8
1PHANTOM
 10
1468.1505606796479
 20
445.11641304977502
 30
0.0
 11
1467.050560679497
 21
445.11641304976769
 31
0.0
  0
LINE
  5
A8D9
  8
1PHANTOM
 10
1467.050560679497
 20
445.11641304976769
 30
0.0
 11
1463.0505606795839
 21
445.11641304972409
 31
0.0
  0
LINE
  5
A8DA
  8
1PHANTOM
 10
1463.9255954149471
 20
471.14141567366642
 30
0.0
 11
1463.9255954149471
 21
445.11643748037523
 31
0.0
  0
LINE
  5
A8DB
  8
1PHANTOM
 10
1465.0505954149471
 20
475.1164130560623
 30
0.0
 11
1463.9255954149471
 21
471.14141567366642
 31
0.0
  0
LINE
  5
A8DC
  8
1PHANTOM
 10
1465.0505954149471
 20
475.1164130560623
 30
0.0
 11
1466.1755954149471
 21
471.14141043837799
 31
0.0
  0
LINE
  5
A8DD
  8
1PHANTOM
 10
1466.1755954149471
 20
471.14141043837799
 30
0.0
 11
1466.1755954149471
 21
445.11638861760099
 31
0.0
  0
LINE
  5
A8DE
  8
1PHANTOM
 10
1467.749943911293
 20
445.11635442780772
 30
0.0
 11
1467.749943911293
 21
444.1163761443604
 31
0.0
  0
ARC
  5
A8DF
  8
1PHANTOM
 10
1466.749943911293
 20
444.11637614436052
 30
0.0
 40
1.0
 50
269.99875571967618
 51
0.0
  0
LINE
  5
A8E0
  8
1PHANTOM
 10
1462.3499439112929
 20
445.11647169846538
 30
0.0
 11
1462.3499439112929
 21
444.11644998144129
 31
0.0
  0
LINE
  5
A8E1
  8
1PHANTOM
 10
1463.5505954149471
 20
453.14141654621471
 30
0.0
 11
1466.5505954149471
 21
453.74140956583147
 31
0.0
  0
LINE
  5
A8E2
  8
1PHANTOM
 10
1463.5505954149471
 20
456.74141654621462
 30
0.0
 11
1466.5505954149471
 21
457.34140956583161
 31
0.0
  0
LINE
  5
A8E3
  8
1PHANTOM
 10
1463.5505954149471
 20
455.5414165462148
 30
0.0
 11
1466.5505954149471
 21
456.14140956583168
 31
0.0
  0
LINE
  5
A8E4
  8
1PHANTOM
 10
1463.5505954149471
 20
454.34141654621448
 30
0.0
 11
1466.5505954149471
 21
454.94140956583169
 31
0.0
  0
LINE
  5
A8E5
  8
1PHANTOM
 10
1463.9255954149471
 20
453.06641567366682
 30
0.0
 11
1463.5505954149471
 21
453.14141654621471
 31
0.0
  0
LINE
  5
A8E6
  8
1PHANTOM
 10
1463.9255954149471
 20
456.66641567366702
 30
0.0
 11
1463.5505954149471
 21
456.74141654621462
 31
0.0
  0
LINE
  5
A8E7
  8
1PHANTOM
 10
1463.9255954149471
 20
455.46641567366692
 30
0.0
 11
1463.5505954149471
 21
455.5414165462148
 31
0.0
  0
LINE
  5
A8E8
  8
1PHANTOM
 10
1463.9255954149471
 20
454.26641567366693
 30
0.0
 11
1463.5505954149471
 21
454.34141654621448
 31
0.0
  0
LINE
  5
A8E9
  8
1PHANTOM
 10
1466.5505954149471
 20
453.74140956583147
 30
0.0
 11
1466.1755954149471
 21
453.81641043837948
 31
0.0
  0
LINE
  5
A8EA
  8
1PHANTOM
 10
1466.5505954149471
 20
457.34140956583161
 30
0.0
 11
1466.1755954149471
 21
457.4164104383795
 31
0.0
  0
LINE
  5
A8EB
  8
1PHANTOM
 10
1466.5505954149471
 20
456.14140956583168
 30
0.0
 11
1466.1755954149471
 21
456.21641043837963
 31
0.0
  0
LINE
  5
A8EC
  8
1PHANTOM
 10
1466.5505954149471
 20
454.94140956583169
 30
0.0
 11
1466.1755954149471
 21
455.01641043837958
 31
0.0
  0
LINE
  5
A8ED
  8
1PHANTOM
 10
1463.9255954149471
 20
457.86641567366678
 30
0.0
 11
1463.5505954149471
 21
457.94141654621461
 31
0.0
  0
LINE
  5
A8EE
  8
1PHANTOM
 10
1467.749943911293
 20
445.11635442780772
 30
0.0
 11
1462.3499439112929
 21
445.11647169846538
 31
0.0
  0
LINE
  5
A8EF
  8
1PHANTOM
 10
1466.7499221945041
 20
443.11637614459619
 30
0.0
 11
1463.349922194504
 21
443.11644998167708
 31
0.0
  0
ARC
  5
A8F0
  8
1PHANTOM
 10
1463.3499439112929
 20
444.11644998144141
 30
0.0
 40
1.0
 50
180.0
 51
269.99875571967618
  0
LINE
  5
A8F1
  8
1PHANTOM
 10
1463.5505954149471
 20
462.74141654621468
 30
0.0
 11
1466.5505954149471
 21
463.34140956583178
 31
0.0
  0
LINE
  5
A8F2
  8
1PHANTOM
 10
1463.5505954149471
 20
463.94141654621438
 30
0.0
 11
1466.5505954149471
 21
464.5414095658316
 31
0.0
  0
LINE
  5
A8F3
  8
1PHANTOM
 10
1463.5505954149471
 20
468.74141654621462
 30
0.0
 11
1466.5505954149471
 21
469.34140956583161
 31
0.0
  0
LINE
  5
A8F4
  8
1PHANTOM
 10
1463.5505954149471
 20
467.54141654621458
 30
0.0
 11
1466.5505954149471
 21
468.14140956583162
 31
0.0
  0
LINE
  5
A8F5
  8
1PHANTOM
 10
1463.5505954149471
 20
466.34141654621482
 30
0.0
 11
1466.5505954149471
 21
466.94140956583169
 31
0.0
  0
LINE
  5
A8F6
  8
1PHANTOM
 10
1463.5505954149471
 20
471.14141654621471
 30
0.0
 11
1466.380790125794
 21
471.74140996093371
 31
0.0
  0
LINE
  5
A8F7
  8
1PHANTOM
 10
1466.380790125794
 20
471.74140996093371
 30
0.0
 11
1465.97834482434
 21
471.83836298415599
 31
0.0
  0
LINE
  5
A8F8
  8
1PHANTOM
 10
1463.5505954149471
 20
469.94141654621473
 30
0.0
 11
1466.5505954149471
 21
470.54140956583171
 31
0.0
  0
LINE
  5
A8F9
  8
1PHANTOM
 10
1463.5505954149471
 20
465.14141654621471
 30
0.0
 11
1466.5505954149471
 21
465.74140956583147
 31
0.0
  0
LINE
  5
A8FA
  8
1PHANTOM
 10
1463.9255954149471
 20
462.66641567366702
 30
0.0
 11
1463.5505954149471
 21
462.74141654621468
 31
0.0
  0
LINE
  5
A8FB
  8
1PHANTOM
 10
1463.9255954149471
 20
463.86641567366678
 30
0.0
 11
1463.5505954149471
 21
463.94141654621438
 31
0.0
  0
LINE
  5
A8FC
  8
1PHANTOM
 10
1463.9255954149471
 20
467.46641567366669
 30
0.0
 11
1463.5505954149471
 21
467.54141654621458
 31
0.0
  0
LINE
  5
A8FD
  8
1PHANTOM
 10
1463.9255954149471
 20
469.86641567366678
 30
0.0
 11
1463.5505954149471
 21
469.94141654621473
 31
0.0
  0
LINE
  5
A8FE
  8
1PHANTOM
 10
1463.9255954149471
 20
468.66641567366668
 30
0.0
 11
1463.5505954149471
 21
468.74141654621462
 31
0.0
  0
LINE
  5
A8FF
  8
1PHANTOM
 10
1463.9255954149471
 20
466.26641567366693
 30
0.0
 11
1463.5505954149471
 21
466.34141654621482
 31
0.0
  0
LINE
  5
A900
  8
1PHANTOM
 10
1464.2298176525269
 20
473.54141496580411
 30
0.0
 11
1465.7015689691841
 21
474.14141154134222
 31
0.0
  0
LINE
  5
A901
  8
1PHANTOM
 10
1465.7015689691841
 20
474.14141154134222
 30
0.0
 11
1465.2603615379021
 21
474.37523893353091
 31
0.0
  0
LINE
  5
A902
  8
1PHANTOM
 10
1463.8902075214901
 20
472.34141575600688
 30
0.0
 11
1466.0411795474879
 21
472.94141075113822
 31
0.0
  0
LINE
  5
A903
  8
1PHANTOM
 10
1466.0411795474879
 20
472.94141075113822
 30
0.0
 11
1465.627367449636
 21
473.07848385810922
 31
0.0
  0
LINE
  5
A904
  8
1PHANTOM
 10
1464.572696533
 20
473.42783811847352
 30
0.0
 11
1464.2298176525269
 21
473.54141496580411
 31
0.0
  0
LINE
  5
A905
  8
1PHANTOM
 10
1463.9255954149471
 20
471.06641567366682
 30
0.0
 11
1463.5505954149471
 21
471.14141654621471
 31
0.0
  0
LINE
  5
A906
  8
1PHANTOM
 10
1464.241281362853
 20
472.25683862174452
 30
0.0
 11
1463.8902075214901
 21
472.34141575600688
 31
0.0
  0
LINE
  5
A907
  8
1PHANTOM
 10
1463.9255954149471
 20
465.06641567366682
 30
0.0
 11
1463.5505954149471
 21
465.14141654621471
 31
0.0
  0
LINE
  5
A908
  8
1PHANTOM
 10
1466.5505954149471
 20
463.34140956583178
 30
0.0
 11
1466.1755954149471
 21
463.4164104383795
 31
0.0
  0
LINE
  5
A909
  8
1PHANTOM
 10
1466.5505954149471
 20
464.5414095658316
 30
0.0
 11
1466.1755954149471
 21
464.61641043837949
 31
0.0
  0
LINE
  5
A90A
  8
1PHANTOM
 10
1466.5505954149471
 20
468.14140956583162
 30
0.0
 11
1466.1755954149471
 21
468.21641043837963
 31
0.0
  0
LINE
  5
A90B
  8
1PHANTOM
 10
1466.5505954149471
 20
469.34140956583161
 30
0.0
 11
1466.1755954149471
 21
469.41641043837939
 31
0.0
  0
LINE
  5
A90C
  8
1PHANTOM
 10
1466.5505954149471
 20
466.94140956583169
 30
0.0
 11
1466.1755954149471
 21
467.0164104383793
 31
0.0
  0
LINE
  5
A90D
  8
1PHANTOM
 10
1466.5505954149471
 20
465.74140956583147
 30
0.0
 11
1466.1755954149471
 21
465.81641043837959
 31
0.0
  0
LINE
  5
A90E
  8
1PHANTOM
 10
1466.5505954149471
 20
470.54140956583171
 30
0.0
 11
1466.1755954149471
 21
470.61641043837949
 31
0.0
  0
LINE
  5
A90F
  8
1PHANTOM
 10
1466.5505954149471
 20
459.7414095658317
 30
0.0
 11
1466.1755954149471
 21
459.81641043837959
 31
0.0
  0
LINE
  5
A910
  8
1PHANTOM
 10
1466.5505954149471
 20
460.94140956583169
 30
0.0
 11
1466.1755954149471
 21
461.01641043837958
 31
0.0
  0
LINE
  5
A911
  8
1PHANTOM
 10
1466.5505954149471
 20
462.14140956583151
 30
0.0
 11
1466.1755954149471
 21
462.21641043837968
 31
0.0
  0
LINE
  5
A912
  8
1PHANTOM
 10
1466.5505954149471
 20
458.5414095658316
 30
0.0
 11
1466.1755954149471
 21
458.61641043837972
 31
0.0
  0
LINE
  5
A913
  8
1PHANTOM
 10
1463.9255954149471
 20
459.06641567366711
 30
0.0
 11
1463.5505954149471
 21
459.14141654621471
 31
0.0
  0
LINE
  5
A914
  8
1PHANTOM
 10
1463.9255954149471
 20
460.26641567366693
 30
0.0
 11
1463.5505954149471
 21
460.34141654621499
 31
0.0
  0
LINE
  5
A915
  8
1PHANTOM
 10
1463.9255954149471
 20
461.46641567366697
 30
0.0
 11
1463.5505954149471
 21
461.5414165462148
 31
0.0
  0
LINE
  5
A916
  8
1PHANTOM
 10
1463.9255954149471
 20
457.86641567366678
 30
0.0
 11
1463.5505954149471
 21
457.94141654621461
 31
0.0
  0
LINE
  5
A917
  8
1PHANTOM
 10
1463.5505954149471
 20
459.14141654621471
 30
0.0
 11
1466.5505954149471
 21
459.7414095658317
 31
0.0
  0
LINE
  5
A918
  8
1PHANTOM
 10
1463.5505954149471
 20
460.34141654621499
 30
0.0
 11
1466.5505954149471
 21
460.94140956583169
 31
0.0
  0
LINE
  5
A919
  8
1PHANTOM
 10
1463.5505954149471
 20
461.5414165462148
 30
0.0
 11
1466.5505954149471
 21
462.14140956583151
 31
0.0
  0
LINE
  5
A91A
  8
1PHANTOM
 10
1463.5505954149471
 20
457.94141654621461
 30
0.0
 11
1466.5505954149471
 21
458.5414095658316
 31
0.0
  0
LINE
  5
A91B
  8
1PHANTOM
 10
1463.5505954149471
 20
445.9414165462145
 30
0.0
 11
1466.5505954149471
 21
446.5414095658312
 31
0.0
  0
LINE
  5
A91C
  8
1PHANTOM
 10
1463.5505954149471
 20
449.54141654621429
 30
0.0
 11
1466.5505954149471
 21
450.14140956583128
 31
0.0
  0
LINE
  5
A91D
  8
1PHANTOM
 10
1463.5505954149471
 20
448.34141654621448
 30
0.0
 11
1466.5505954149471
 21
448.94140956583152
 31
0.0
  0
LINE
  5
A91E
  8
1PHANTOM
 10
1463.5505954149471
 20
447.1414165462142
 30
0.0
 11
1466.5505954149471
 21
447.74140956583142
 31
0.0
  0
LINE
  5
A91F
  8
1PHANTOM
 10
1463.9255954149471
 20
445.86641567366661
 30
0.0
 11
1463.5505954149471
 21
445.9414165462145
 31
0.0
  0
LINE
  5
A920
  8
1PHANTOM
 10
1463.9255954149471
 20
449.46641567366669
 30
0.0
 11
1463.5505954149471
 21
449.54141654621429
 31
0.0
  0
LINE
  5
A921
  8
1PHANTOM
 10
1463.9255954149471
 20
448.26641567366659
 30
0.0
 11
1463.5505954149471
 21
448.34141654621448
 31
0.0
  0
LINE
  5
A922
  8
1PHANTOM
 10
1463.9255954149471
 20
447.0664156736666
 30
0.0
 11
1463.5505954149471
 21
447.1414165462142
 31
0.0
  0
LINE
  5
A923
  8
1PHANTOM
 10
1466.5505954149471
 20
446.5414095658312
 30
0.0
 11
1466.1755954149471
 21
446.61641043837932
 31
0.0
  0
LINE
  5
A924
  8
1PHANTOM
 10
1466.5505954149471
 20
450.14140956583128
 30
0.0
 11
1466.1755954149471
 21
450.21641043837923
 31
0.0
  0
LINE
  5
A925
  8
1PHANTOM
 10
1466.5505954149471
 20
448.94140956583152
 30
0.0
 11
1466.1755954149471
 21
449.01641043837941
 31
0.0
  0
LINE
  5
A926
  8
1PHANTOM
 10
1466.5505954149471
 20
447.74140956583142
 30
0.0
 11
1466.1755954149471
 21
447.81641043837931
 31
0.0
  0
LINE
  5
A927
  8
1PHANTOM
 10
1463.9255954149471
 20
450.66641567366662
 30
0.0
 11
1463.5505954149471
 21
450.7414165462144
 31
0.0
  0
LINE
  5
A928
  8
1PHANTOM
 10
1466.5505954149471
 20
452.54140956583137
 30
0.0
 11
1466.1755954149471
 21
452.61641043837932
 31
0.0
  0
LINE
  5
A929
  8
1PHANTOM
 10
1466.5505954149471
 20
451.34140956583138
 30
0.0
 11
1466.1755954149471
 21
451.4164104383795
 31
0.0
  0
LINE
  5
A92A
  8
1PHANTOM
 10
1463.9255954149471
 20
451.86641567366678
 30
0.0
 11
1463.5505954149471
 21
451.94141654621438
 31
0.0
  0
LINE
  5
A92B
  8
1PHANTOM
 10
1463.9255954149471
 20
450.66641567366662
 30
0.0
 11
1463.5505954149471
 21
450.7414165462144
 31
0.0
  0
LINE
  5
A92C
  8
1PHANTOM
 10
1463.5505954149471
 20
451.94141654621438
 30
0.0
 11
1466.5505954149471
 21
452.54140956583137
 31
0.0
  0
LINE
  5
A92D
  8
1PHANTOM
 10
1463.5505954149471
 20
450.7414165462144
 30
0.0
 11
1466.5505954149471
 21
451.34140956583138
 31
0.0
  0
LINE
  5
A9AD
  8
1PHANTOM
 10
1551.9632934914259
 20
347.81629762490178
 30
0.0
 11
1547.8505954179291
 21
347.81629762490212
 31
0.0
  0
LINE
  5
A9AE
  8
1PHANTOM
 10
1551.9632934914221
 20
352.81629762490229
 30
0.0
 11
1547.8505954149821
 21
352.81629762490229
 31
0.0
  0
LINE
  5
A9AF
  8
1PHANTOM
 10
1569.008759461406
 20
351.50823271827488
 30
0.0
 11
1568.8347930852069
 21
353.99606780420208
 31
0.0
  0
LINE
  5
A9B0
  8
1PHANTOM
 10
1551.9632934914221
 20
352.81629762490229
 30
0.0
 11
1568.8347930852069
 21
353.99606780420208
 31
0.0
  0
LINE
  5
A9B1
  8
1PHANTOM
 10
1569.008759461406
 20
349.12436253152958
 30
0.0
 11
1568.8347930852069
 21
346.6365274456025
 31
0.0
  0
LINE
  5
A9B2
  8
1PHANTOM
 10
1551.9632934914259
 20
347.81629762490178
 30
0.0
 11
1568.8347930852069
 21
346.6365274456025
 31
0.0
  0
LINE
  5
A9B3
  8
1PHANTOM
 10
1551.9632934915101
 20
327.81629745851518
 30
0.0
 11
1547.8505954149821
 21
327.81629745851552
 31
0.0
  0
LINE
  5
A9B4
  8
1PHANTOM
 10
1551.9632934915051
 20
332.81629745851558
 30
0.0
 11
1547.8505954160589
 21
332.81629745851558
 31
0.0
  0
LINE
  5
A9B5
  8
1PHANTOM
 10
1569.0087594614899
 20
331.50823255188828
 30
0.0
 11
1568.834793085291
 21
333.99606763781537
 31
0.0
  0
LINE
  5
A9B6
  8
1PHANTOM
 10
1551.9632934915051
 20
332.81629745851558
 30
0.0
 11
1568.834793085291
 21
333.99606763781537
 31
0.0
  0
LINE
  5
A9B7
  8
1PHANTOM
 10
1569.0087594614899
 20
329.12436236514299
 30
0.0
 11
1568.834793085291
 21
326.6365272792159
 31
0.0
  0
LINE
  5
A9B8
  8
1PHANTOM
 10
1551.9632934915101
 20
327.81629745851518
 30
0.0
 11
1568.834793085291
 21
326.6365272792159
 31
0.0
  0
LINE
  5
A9B9
  8
01
 10
1547.8505954231771
 20
402.96343039637441
 30
0.0
 11
1547.8505954231771
 21
293.4617613271443
 31
0.0
  0
LINE
  5
A9BE
  8
1DIM
 10
1560.816153494535
 20
446.3932801213362
 30
0.0
 11
1582.6353242562129
 21
446.3932801213362
 31
0.0
  0
TEXT
  5
A9CD
  8
1TEXT
 10
1371.1262964357711
 20
436.91629748476743
 30
0.0
 40
8.0
  1
AC809--
  0
TEXT
  5
A9D0
  8
1TEXT
 10
1520.575665570494
 20
275.94176025286549
 30
0.0
 40
4.0
  1
クロムめっき
 41
0.9
 72
     1
 11
1533.1756655704939
 21
277.94176025286549
 31
0.0
 73
     2
  0
TEXT
  5
A9D1
  8
1TEXT
 10
1553.8183300307321
 20
275.81286678518973
 30
0.0
 40
4.0
  1
AC809XC
 41
0.9
 72
     1
 11
1565.5183300307319
 21
277.81286678518973
 31
0.0
 73
     2
  0
LINE
  5
A9D2
  8
1DIM
 10
1580.8505954231709
 20
260.4417527329137
 30
0.0
 11
1517.1757103138241
 21
260.4417527329137
 31
0.0
  0
LINE
  5
A9D3
  8
1DIM
 10
1580.8505954231709
 20
267.4417527329137
 30
0.0
 11
1517.1757103138241
 21
267.4417527329137
 31
0.0
  0
LINE
  5
A9D4
  8
1DIM
 10
1580.8505954231709
 20
281.44175703002873
 30
0.0
 11
1517.1757103138241
 21
281.44175703002878
 31
0.0
  0
LINE
  5
A9D5
  8
1DIM
 10
1580.8505954231709
 20
288.44176132714432
 30
0.0
 11
1517.1757103138241
 21
288.44176132714432
 31
0.0
  0
TEXT
  5
A9D6
  8
1TEXT
 10
1520.6473409379551
 20
269.50827244465279
 30
0.0
 40
4.0
  1
サテンニッケル
 41
0.8
 72
     1
 11
1533.6606742712891
 21
271.50827244465279
 31
0.0
 73
     2
  0
TEXT
  5
A9D7
  8
1TEXT
 10
1518.3489989038269
 20
262.31273817671621
 30
0.0
 40
4.0
  1
シルキーホワイト
 41
0.8
 72
     1
 11
1533.1756655704939
 21
264.31273817671621
 31
0.0
 73
     2
  0
LINE
  5
A9D8
  8
1DIM
 10
1517.1757103138241
 20
288.44176132714438
 30
0.0
 11
1517.1757103138241
 21
260.44175273291381
 31
0.0
  0
LINE
  5
A9D9
  8
1DIM
 10
1549.8845781522209
 20
288.44176132714432
 30
0.0
 11
1549.8845781522209
 21
260.4417527329137
 31
0.0
  0
LINE
  5
A9DA
  8
1DIM
 10
1580.8505954231709
 20
288.44176132714432
 30
0.0
 11
1580.8505954231709
 21
260.4417527329137
 31
0.0
  0
LINE
  5
A9DB
  8
1DIM
 10
1580.8505954231709
 20
274.44175703002878
 30
0.0
 11
1517.1757103138241
 21
274.44175703002878
 31
0.0
  0
TEXT
  5
A9DC
  8
1TEXT
 10
1559.2641260263099
 20
282.70000278988113
 30
0.0
 40
4.0
  1
コード
 72
     1
 11
1566.0641260263101
 21
282.70000278988113
 31
0.0
  0
TEXT
  5
A9DD
  8
1TEXT
 10
1523.928091266205
 20
282.94176132714432
 30
0.0
 40
4.0
  1
表面処理：
 72
     1
 11
1534.5757103138239
 21
282.94176132714432
 31
0.0
  0
TEXT
  5
A9DE
  8
1TEXT
 10
1553.8183300307321
 20
268.81286678518978
 30
0.0
 40
4.0
  1
AC809XN
 41
0.9
 72
     1
 11
1565.5183300307319
 21
270.81286678518978
 31
0.0
 73
     2
  0
TEXT
  5
A9DF
  8
1TEXT
 10
1554.4183300307311
 20
261.8128624880747
 30
0.0
 40
4.0
  1
AC8091M
 41
0.9
 72
     1
 11
1565.518330030731
 21
263.8128624880747
 31
0.0
 73
     2
  0
LINE
  5
AC40
  8
1DIM
 10
1568.7241548368149
 20
436.96657350000532
 30
0.0
 11
1590.5433255984931
 21
436.96657350000532
 31
0.0
  0
LINE
  5
AC42
  8
1DIM
 10
1590.5433255984931
 20
436.96657350000532
 30
0.0
 11
1706.049996724309
 21
436.96657350000532
 31
0.0
  0
LINE
  5
AC5E
  8
01
 10
1559.8505954231771
 20
402.96343039637441
 30
0.0
 11
1559.8505954231771
 21
293.4617613271443
 31
0.0
  0
LINE
  5
AD65
  8
1PHANTOM
 10
1546.0506497068479
 20
352.81629762490229
 30
0.0
 11
1546.0505954148771
 21
352.81629762490229
 31
0.0
  0
LINE
  5
AD66
  8
1PHANTOM
 10
1546.0506497069321
 20
332.81629745851569
 30
0.0
 11
1546.050595414961
 21
332.81629745851558
 31
0.0
  0
ARC
  5
B1D4
  8
01
 10
1465.050595414772
 20
424.91629748456319
 30
0.0
 40
4.5
 50
355.36095804276272
 51
184.6390419571643
  0
LINE
  5
B639
  8
1DIM
 10
1521.8505954149659
 20
400.41629748380922
 30
0.0
 11
1500.3505954149639
 21
400.41629748380922
 31
0.0
  0
LINE
  5
B63A
  8
1DIM
 10
1521.8505954149659
 20
323.41629748383713
 30
0.0
 11
1500.3505954149639
 21
323.41629748383713
 31
0.0
  0
LINE
  5
B63B
  8
1DIM
 10
1501.3505954149639
 20
398.41629748380922
 30
0.0
 11
1501.3505954149639
 21
325.41629748383713
 31
0.0
  0
TEXT
  5
B63F
  8
1HATCH
 10
1562.8908215034819
 20
437.66657350000509
 30
0.0
 40
3.5
  1
別売り：推奨ボードアンカー　（トグラー　アリゲーターＡ５）下穴径Φ4
  0
LINE
  5
B642
  8
1DIM
 10
1525.8505436071221
 20
322.07671831476267
 30
0.0
 11
1525.8505436071221
 21
312.41629748386617
 31
0.0
  0
LINE
  5
B643
  8
1DIM
 10
1547.8505954146799
 20
323.91629748372071
 30
0.0
 11
1547.8505954146799
 21
312.41629748386617
 31
0.0
  0
LINE
  5
B644
  8
1DIM
 10
1527.8505436071221
 20
313.41629748386617
 30
0.0
 11
1545.8505954146799
 21
313.41629748386617
 31
0.0
  0
LINE
  5
B648
  8
1DIM
 10
1581.4627326886371
 20
350.31629762490229
 30
0.0
 11
1588.8505954231771
 21
350.31629762490229
 31
0.0
  0
LINE
  5
B649
  8
1DIM
 10
1581.462732688721
 20
330.31629745851558
 30
0.0
 11
1588.8505954231771
 21
330.31629745851558
 31
0.0
  0
LINE
  5
B64A
  8
1DIM
 10
1587.8505954231771
 20
348.31629762490229
 30
0.0
 11
1587.8505954231771
 21
332.31629745851558
 31
0.0
  0
LINE
  5
B64E
  8
1DIM
 10
1547.850595419063
 20
356.91629748378011
 30
0.0
 11
1588.8505954231771
 21
356.91629748378011
 31
0.0
  0
LINE
  5
B64F
  8
1DIM
 10
1581.4627326886371
 20
350.31629762490229
 30
0.0
 11
1588.8505954231771
 21
350.31629762490229
 31
0.0
  0
LINE
  5
B650
  8
1DIM
 10
1587.8505954231771
 20
352.31629762490229
 30
0.0
 11
1587.8505954231771
 21
354.91629748378011
 31
0.0
  0
LINE
  5
B651
  8
1DIM
 10
1587.8505954231771
 20
356.91629748378011
 30
0.0
 11
1587.8505954231771
 21
367.94618809324783
 31
0.0
  0
LINE
  5
B655
  8
1DIM
 10
1521.3505954149639
 20
399.91629748380922
 30
0.0
 11
1521.3505954149639
 21
415.57494297441968
 31
0.0
  0
LINE
  5
B656
  8
1DIM
 10
1547.8505954231771
 20
402.96343039637441
 30
0.0
 11
1547.8505954231771
 21
415.57494297441968
 31
0.0
  0
LINE
  5
B657
  8
1DIM
 10
1523.3505954149639
 20
414.57494297441968
 30
0.0
 11
1545.8505954231771
 21
414.57494297441968
 31
0.0
  0
LINE
  5
B65B
  8
1DIM
 10
1460.5505954149401
 20
330.3162974578695
 30
0.0
 11
1460.5505954149401
 21
302.4162974846069
 31
0.0
  0
LINE
  5
B65C
  8
1DIM
 10
1469.550595414976
 20
330.31629745798341
 30
0.0
 11
1469.550595414976
 21
302.4162974846069
 31
0.0
  0
LINE
  5
B65D
  8
1DIM
 10
1462.5505954149401
 20
303.4162974846069
 30
0.0
 11
1467.550595414976
 21
303.4162974846069
 31
0.0
  0
LINE
  5
B661
  8
1DIM
 10
1458.750595414944
 20
330.66629748504351
 30
0.0
 11
1458.750595414944
 21
292.41629748466511
 31
0.0
  0
LINE
  5
B662
  8
1DIM
 10
1471.3505954149571
 20
330.666297485038
 30
0.0
 11
1471.3505954149571
 21
292.41629748466511
 31
0.0
  0
LINE
  5
B663
  8
1DIM
 10
1460.750595414944
 20
293.41629748466511
 30
0.0
 11
1469.3505954149571
 21
293.41629748466511
 31
0.0
  0
TEXT
  5
B667
  8
1DIM
 10
1398.7247290710461
 20
393.30824913770442
 30
0.0
 40
3.5
  1
材質：亜鉛ダイキャスト
  0
TEXT
  5
B66A
  8
1TEXT
 10
1679.7868473416031
 20
283.53729930578129
 30
0.0
 40
4.0
  1
直止めの場合
  0
TEXT
  5
B66B
  8
1HATCH
 10
1554.982820161202
 20
447.09328012133608
 30
0.0
 40
3.5
  1
PB12mm
  0
TEXT
  5
B66E
  8
1HATCH
 10
1684.184865960571
 20
420.1827558306486
 30
0.0
 40
3.5
  1
PB
  0
TEXT
  5
B673
  8
1DIM
 10
1694.6901172412699
 20
414.18140981352462
 30
0.0
 40
3.5
  1
合板9mm以上
  0
LINE
  5
B674
  8
1DIM
 10
1697.182695680217
 20
400.89845385350242
 30
0.0
 11
1691.9901172412699
 21
413.48140981352469
 31
0.0
  0
LINE
  5
B675
  8
1DIM
 10
1691.9901172412699
 20
413.48140981352469
 30
0.0
 11
1723.89011724127
 21
413.48140981352469
 31
0.0
  0
LINE
  5
B676
  8
0
  6
BYBLOCK
 10
1697.6780715533439
 20
401.10287943411709
 30
0.0
 11
1697.9456223403599
 21
399.04968590937239
 31
0.0
  0
LINE
  5
B677
  8
0
  6
BYBLOCK
 10
1697.9456223403599
 20
399.04968590937239
 30
0.0
 11
1696.6873198070889
 21
400.69402827288769
 31
0.0
  0
LINE
  5
B678
  8
0
  6
BYBLOCK
 10
1697.9456223403599
 20
399.04968590937239
 30
0.0
 11
1697.182695680217
 21
400.89845385350242
 31
0.0
  0
LINE
  5
B679
  8
1HATCH
 10
1688.7770116660181
 20
400.86476247605731
 30
0.0
 11
1681.4848659605709
 21
419.48275583064878
 31
0.0
  0
LINE
  5
B67A
  8
1HATCH
 10
1681.4848659605709
 20
419.48275583064878
 30
0.0
 11
1690.018199293904
 21
419.48275583064878
 31
0.0
  0
LINE
  5
B67B
  8
0
  6
BYBLOCK
 10
1689.276000892457
 20
401.06020255788258
 30
0.0
 11
1689.506403987843
 21
399.00250931365917
 31
0.0
  0
LINE
  5
B67C
  8
0
  6
BYBLOCK
 10
1689.506403987843
 20
399.00250931365917
 30
0.0
 11
1688.2780224395781
 21
400.66932239423198
 31
0.0
  0
LINE
  5
B67D
  8
0
  6
BYBLOCK
 10
1689.506403987843
 20
399.00250931365917
 30
0.0
 11
1688.7770116660181
 21
400.86476247605731
 31
0.0
  0
LINE
  5
B67E
  8
1HATCH
 10
1554.8806164898699
 20
403.91655176930578
 30
0.0
 11
1552.2828201612019
 21
446.3932801213362
 31
0.0
  0
LINE
  5
B67F
  8
1HATCH
 10
1552.2828201612019
 20
446.3932801213362
 30
0.0
 11
1560.816153494535
 21
446.3932801213362
 31
0.0
  0
LINE
  5
B680
  8
0
  6
BYBLOCK
 10
1555.415515458438
 20
403.94926517805141
 30
0.0
 11
1555.0027045945051
 21
401.92028162358241
 31
0.0
  0
LINE
  5
B681
  8
0
  6
BYBLOCK
 10
1555.0027045945051
 20
401.92028162358241
 30
0.0
 11
1554.345717521303
 21
403.88383836056028
 31
0.0
  0
LINE
  5
B682
  8
0
  6
BYBLOCK
 10
1555.0027045945051
 20
401.92028162358241
 30
0.0
 11
1554.8806164898699
 21
403.91655176930578
 31
0.0
  0
LINE
  5
B683
  8
1DIM
 10
1462.2977140118769
 20
418.76558969133868
 30
0.0
 11
1445.991395737713
 21
390.28302420476888
 31
0.0
  0
LINE
  5
B684
  8
1DIM
 10
1445.991395737713
 20
390.28302420476888
 30
0.0
 11
1398.0247290710461
 21
390.28302420476888
 31
0.0
  0
LINE
  5
B685
  8
0
  6
BYBLOCK
 10
1461.8326390690679
 20
419.03184590489411
 30
0.0
 11
1463.2913957377129
 21
420.50127302298091
 31
0.0
  0
LINE
  5
B686
  8
0
  6
BYBLOCK
 10
1463.2913957377129
 20
420.50127302298091
 30
0.0
 11
1462.7627889546879
 21
418.4993334777833
 31
0.0
  0
LINE
  5
B687
  8
0
  6
BYBLOCK
 10
1463.2913957377129
 20
420.50127302298091
 30
0.0
 11
1462.2977140118769
 21
418.76558969133868
 31
0.0
  0
TEXT
  5
B688
  8
1DIM
 10
1460.483421517612
 20
294.1162974846651
 30
0.0
 40
3.5
  1
12.6 
  0
LINE
  5
B689
  8
0
  6
BYBLOCK
 10
1469.3505954149571
 20
293.9521958646651
 30
0.0
 11
1471.3505954149571
 21
293.41629748466511
 31
0.0
  0
LINE
  5
B68A
  8
0
  6
BYBLOCK
 10
1471.3505954149571
 20
293.41629748466511
 30
0.0
 11
1469.3505954149571
 21
292.88039910466512
 31
0.0
  0
LINE
  5
B68B
  8
0
  6
BYBLOCK
 10
1471.3505954149571
 20
293.41629748466511
 30
0.0
 11
1469.3505954149571
 21
293.41629748466511
 31
0.0
  0
LINE
  5
B68C
  8
0
  6
BYBLOCK
 10
1460.750595414944
 20
292.88039910466512
 30
0.0
 11
1458.750595414944
 21
293.41629748466511
 31
0.0
  0
LINE
  5
B68D
  8
0
  6
BYBLOCK
 10
1458.750595414944
 20
293.41629748466511
 30
0.0
 11
1460.750595414944
 21
293.9521958646651
 31
0.0
  0
LINE
  5
B68E
  8
0
  6
BYBLOCK
 10
1458.750595414944
 20
293.41629748466511
 30
0.0
 11
1460.750595414944
 21
293.41629748466511
 31
0.0
  0
TEXT
  5
B68F
  8
1DIM
 10
1461.433928748291
 20
304.11629748460689
 30
0.0
 40
3.5
  1
φ9
  0
LINE
  5
B690
  8
0
  6
BYBLOCK
 10
1467.550595414976
 20
303.95219586460689
 30
0.0
 11
1469.550595414976
 21
303.4162974846069
 31
0.0
  0
LINE
  5
B691
  8
0
  6
BYBLOCK
 10
1469.550595414976
 20
303.4162974846069
 30
0.0
 11
1467.550595414976
 21
302.88039910460691
 31
0.0
  0
LINE
  5
B692
  8
0
  6
BYBLOCK
 10
1469.550595414976
 20
303.4162974846069
 30
0.0
 11
1467.550595414976
 21
303.4162974846069
 31
0.0
  0
LINE
  5
B693
  8
0
  6
BYBLOCK
 10
1462.5505954149401
 20
302.88039910460691
 30
0.0
 11
1460.5505954149401
 21
303.4162974846069
 31
0.0
  0
LINE
  5
B694
  8
0
  6
BYBLOCK
 10
1460.5505954149401
 20
303.4162974846069
 30
0.0
 11
1462.5505954149401
 21
303.95219586460689
 31
0.0
  0
LINE
  5
B695
  8
0
  6
BYBLOCK
 10
1460.5505954149401
 20
303.4162974846069
 30
0.0
 11
1462.5505954149401
 21
303.4162974846069
 31
0.0
  0
TEXT
  5
B696
  8
1DIM
 10
1529.35059541907
 20
415.27494297441967
 30
0.0
 40
3.5
  1
26.5 
  0
LINE
  5
B697
  8
0
  6
BYBLOCK
 10
1545.8505954231771
 20
415.11084135441968
 30
0.0
 11
1547.8505954231771
 21
414.57494297441968
 31
0.0
  0
LINE
  5
B698
  8
0
  6
BYBLOCK
 10
1547.8505954231771
 20
414.57494297441968
 30
0.0
 11
1545.8505954231771
 21
414.03904459441969
 31
0.0
  0
LINE
  5
B699
  8
0
  6
BYBLOCK
 10
1547.8505954231771
 20
414.57494297441968
 30
0.0
 11
1545.8505954231771
 21
414.57494297441968
 31
0.0
  0
LINE
  5
B69A
  8
0
  6
BYBLOCK
 10
1523.3505954149639
 20
414.03904459441969
 30
0.0
 11
1521.3505954149639
 21
414.57494297441968
 31
0.0
  0
LINE
  5
B69B
  8
0
  6
BYBLOCK
 10
1521.3505954149639
 20
414.57494297441968
 30
0.0
 11
1523.3505954149639
 21
415.11084135441968
 31
0.0
  0
LINE
  5
B69C
  8
0
  6
BYBLOCK
 10
1521.3505954149639
 20
414.57494297441968
 30
0.0
 11
1523.3505954149639
 21
414.57494297441968
 31
0.0
  0
TEXT
  5
B69D
  8
1DIM
 10
1587.150595423177
 20
360.16285475991481
 30
0.0
 40
3.5
  1
6.6 
 50
90.0
  0
LINE
  5
B69E
  8
0
  6
BYBLOCK
 10
1587.3146970431769
 20
354.91629748378011
 30
0.0
 11
1587.8505954231771
 21
356.91629748378011
 31
0.0
  0
LINE
  5
B69F
  8
0
  6
BYBLOCK
 10
1587.8505954231771
 20
356.91629748378011
 30
0.0
 11
1588.386493803177
 21
354.91629748378011
 31
0.0
  0
LINE
  5
B6A0
  8
0
  6
BYBLOCK
 10
1587.8505954231771
 20
356.91629748378011
 30
0.0
 11
1587.8505954231771
 21
354.91629748378011
 31
0.0
  0
LINE
  5
B6A1
  8
0
  6
BYBLOCK
 10
1588.386493803177
 20
352.31629762490229
 30
0.0
 11
1587.8505954231771
 21
350.31629762490229
 31
0.0
  0
LINE
  5
B6A2
  8
0
  6
BYBLOCK
 10
1587.8505954231771
 20
350.31629762490229
 30
0.0
 11
1587.3146970431769
 21
352.31629762490229
 31
0.0
  0
LINE
  5
B6A3
  8
0
  6
BYBLOCK
 10
1587.8505954231771
 20
350.31629762490229
 30
0.0
 11
1587.8505954231771
 21
352.31629762490229
 31
0.0
  0
TEXT
  5
B6A4
  8
1DIM
 10
1587.150595423177
 20
337.69129754170922
 30
0.0
 40
3.5
  1
20 
 50
90.0
  0
LINE
  5
B6A5
  8
0
  6
BYBLOCK
 10
1588.386493803177
 20
332.31629745851558
 30
0.0
 11
1587.8505954231771
 21
330.31629745851558
 31
0.0
  0
LINE
  5
B6A6
  8
0
  6
BYBLOCK
 10
1587.8505954231771
 20
330.31629745851558
 30
0.0
 11
1587.3146970431769
 21
332.31629745851558
 31
0.0
  0
LINE
  5
B6A7
  8
0
  6
BYBLOCK
 10
1587.8505954231771
 20
330.31629745851558
 30
0.0
 11
1587.8505954231771
 21
332.31629745851558
 31
0.0
  0
LINE
  5
B6A8
  8
0
  6
BYBLOCK
 10
1587.3146970431769
 20
348.31629762490229
 30
0.0
 11
1587.8505954231771
 21
350.31629762490229
 31
0.0
  0
LINE
  5
B6A9
  8
0
  6
BYBLOCK
 10
1587.8505954231771
 20
350.31629762490229
 30
0.0
 11
1588.386493803177
 21
348.31629762490229
 31
0.0
  0
LINE
  5
B6AA
  8
0
  6
BYBLOCK
 10
1587.8505954231771
 20
350.31629762490229
 30
0.0
 11
1587.8505954231771
 21
348.31629762490229
 31
0.0
  0
TEXT
  5
B6AB
  8
1DIM
 10
1533.9339028442339
 20
314.11629748386622
 30
0.0
 40
3.5
  1
22 
  0
LINE
  5
B6AC
  8
0
  6
BYBLOCK
 10
1545.8505954146799
 20
313.95219586386622
 30
0.0
 11
1547.8505954146799
 21
313.41629748386617
 31
0.0
  0
LINE
  5
B6AD
  8
0
  6
BYBLOCK
 10
1547.8505954146799
 20
313.41629748386617
 30
0.0
 11
1545.8505954146799
 21
312.88039910386618
 31
0.0
  0
LINE
  5
B6AE
  8
0
  6
BYBLOCK
 10
1547.8505954146799
 20
313.41629748386617
 30
0.0
 11
1545.8505954146799
 21
313.41629748386617
 31
0.0
  0
LINE
  5
B6AF
  8
0
  6
BYBLOCK
 10
1527.8505436071221
 20
312.88039910386618
 30
0.0
 11
1525.8505436071221
 21
313.41629748386617
 31
0.0
  0
LINE
  5
B6B0
  8
0
  6
BYBLOCK
 10
1525.8505436071221
 20
313.41629748386617
 30
0.0
 11
1527.8505436071221
 21
313.95219586386622
 31
0.0
  0
LINE
  5
B6B1
  8
0
  6
BYBLOCK
 10
1525.8505436071221
 20
313.41629748386617
 30
0.0
 11
1527.8505436071221
 21
313.41629748386617
 31
0.0
  0
LINE
  5
B6B2
  8
1HATCH
 10
1565.220869399792
 20
355.99222016271739
 30
0.0
 11
1560.1908215034821
 21
436.96657350000532
 31
0.0
  0
LINE
  5
B6B3
  8
1HATCH
 10
1560.1908215034821
 20
436.96657350000532
 30
0.0
 11
1568.7241548368149
 21
436.96657350000532
 31
0.0
  0
LINE
  5
B6B4
  8
0
  6
BYBLOCK
 10
1565.7557368073719
 20
356.02544560469278
 30
0.0
 11
1565.344868438473
 21
353.99606780420208
 31
0.0
  0
LINE
  5
B6B5
  8
0
  6
BYBLOCK
 10
1565.344868438473
 20
353.99606780420208
 30
0.0
 11
1564.686001992211
 21
355.95899472074188
 31
0.0
  0
LINE
  5
B6B6
  8
0
  6
BYBLOCK
 10
1565.344868438473
 20
353.99606780420208
 30
0.0
 11
1565.220869399792
 21
355.99222016271739
 31
0.0
  0
TEXT
  5
B6B7
  8
1DIM
 10
1500.6505954149641
 20
358.99963081715663
 30
0.0
 40
3.5
  1
77 
 50
90.0
  0
LINE
  5
B6B8
  8
0
  6
BYBLOCK
 10
1501.8864937949641
 20
325.41629748383713
 30
0.0
 11
1501.3505954149639
 21
323.41629748383713
 31
0.0
  0
LINE
  5
B6B9
  8
0
  6
BYBLOCK
 10
1501.3505954149639
 20
323.41629748383713
 30
0.0
 11
1500.814697034964
 21
325.41629748383713
 31
0.0
  0
LINE
  5
B6BA
  8
0
  6
BYBLOCK
 10
1501.3505954149639
 20
323.41629748383713
 30
0.0
 11
1501.3505954149639
 21
325.41629748383713
 31
0.0
  0
LINE
  5
B6BB
  8
0
  6
BYBLOCK
 10
1500.814697034964
 20
398.41629748380922
 30
0.0
 11
1501.3505954149639
 21
400.41629748380922
 31
0.0
  0
LINE
  5
B6BC
  8
0
  6
BYBLOCK
 10
1501.3505954149639
 20
400.41629748380922
 30
0.0
 11
1501.8864937949641
 21
398.41629748380922
 31
0.0
  0
LINE
  5
B6BD
  8
0
  6
BYBLOCK
 10
1501.3505954149639
 20
400.41629748380922
 30
0.0
 11
1501.3505954149639
 21
398.41629748380922
 31
0.0
  0
VIEWPORT
  5
57
 67
     1
  8
0
 10
7.37155324177371
 20
127.396585293431
 30
0.0
 40
889.19801898831133
 41
589.62013412808494
 68
     1
 69
     1
1001
ACAD
1000
MVIEW
1002
{
1070
    16
1010
0.0
1020
0.0
1030
0.0
1010
0.0
1020
0.0
1030
1.0
1040
0.0
1040
589.62013412808494
1040
7.37155324177371
1040
127.396585293431
1040
50.0
1040
0.0
1040
0.0
1070
     0
1070
   100
1070
     1
1070
     1
1070
     0
1070
     0
1070
     0
1070
     0
1040
0.0
1040
0.0
1040
0.0
1040
10.0
1040
10.0
1040
10.0
1040
10.0
1070
     0
1002
{
1002
}
1002
}
  0
ENDSEC
  0
EOF
