  0
SECTION
  2
HEADER
  9
$ACADVER
  1
AC1009
  9
$INSBASE
 10
0.0
 20
0.0
 30
0.0
  9
$EXTMIN
 10
-412.38340829761643
 20
-456.59147442606888
 30
0.0
  9
$EXTMAX
 10
-83.183406119791215
 20
-235.1337356619762
 30
0.0
  9
$LIMMIN
 10
0.0
 20
0.0
  9
$LIMMAX
 10
420.0
 20
297.0
  9
$ORTHOMODE
 70
     0
  9
$REGENMODE
 70
     1
  9
$FILLMODE
 70
     1
  9
$QTEXTMODE
 70
     0
  9
$MIRRTEXT
 70
     1
  9
$DRAGMODE
 70
     2
  9
$LTSCALE
 40
0.5
  9
$OSMODE
 70
  2175
  9
$ATTMODE
 70
     1
  9
$TEXTSIZE
 40
4.0
  9
$TRACEWID
 40
1.0
  9
$TEXTSTYLE
  7
STANDARD
  9
$CLAYER
  8
1TEXT
  9
$CELTYPE
  6
BYLAYER
  9
$CECOLOR
 62
   256
  9
$DIMSCALE
 40
1.0
  9
$DIMASZ
 40
2.0
  9
$DIMEXO
 40
0.0
  9
$DIMDLI
 40
7.0
  9
$DIMRND
 40
0.0
  9
$DIMDLE
 40
0.0
  9
$DIMEXE
 40
1.0
  9
$DIMTP
 40
0.0
  9
$DIMTM
 40
0.0
  9
$DIMTXT
 40
3.5
  9
$DIMCEN
 40
0.0
  9
$DIMTSZ
 40
0.0
  9
$DIMTOL
 70
     0
  9
$DIMLIM
 70
     0
  9
$DIMTIH
 70
     0
  9
$DIMTOH
 70
     0
  9
$DIMSE1
 70
     0
  9
$DIMSE2
 70
     0
  9
$DIMTAD
 70
     1
  9
$DIMZIN
 70
     8
  9
$DIMBLK
  1

  9
$DIMASO
 70
     1
  9
$DIMSHO
 70
     1
  9
$DIMPOST
  1
 
  9
$DIMAPOST
  1

  9
$DIMALT
 70
     0
  9
$DIMALTD
 70
     2
  9
$DIMALTF
 40
25.399999999999999
  9
$DIMLFAC
 40
1.0
  9
$DIMTOFL
 70
     1
  9
$DIMTVP
 40
0.0
  9
$DIMTIX
 70
     0
  9
$DIMSOXD
 70
     0
  9
$DIMSAH
 70
     1
  9
$DIMBLK1
  1
OPEN30
  9
$DIMBLK2
  1
OPEN30
  9
$DIMSTYLE
  2
NEWX10
  9
$DIMCLRD
 70
   256
  9
$DIMCLRE
 70
   256
  9
$DIMCLRT
 70
   201
  9
$DIMTFAC
 40
0.7
  9
$DIMGAP
 40
0.7
  9
$LUNITS
 70
     2
  9
$LUPREC
 70
     4
  9
$SKETCHINC
 40
1.0
  9
$FILLETRAD
 40
0.0
  9
$AUNITS
 70
     0
  9
$AUPREC
 70
     2
  9
$MENU
  1
acad
  9
$ELEVATION
 40
0.0
  9
$PELEVATION
 40
0.0
  9
$THICKNESS
 40
0.0
  9
$LIMCHECK
 70
     0
  9
$BLIPMODE
 70
     0
  9
$CHAMFERA
 40
10.0
  9
$CHAMFERB
 40
10.0
  9
$SKPOLY
 70
     0
  9
$TDCREATE
 40
2453033.7326634838
  9
$TDUPDATE
 40
2455958.8222491671
  9
$TDINDWG
 40
0.5458076505
  9
$TDUSRTIMER
 40
0.5458076505
  9
$USRTIMER
 70
     1
  9
$ANGBASE
 50
0.0
  9
$ANGDIR
 70
     0
  9
$PDMODE
 70
     0
  9
$PDSIZE
 40
0.0
  9
$PLINEWID
 40
0.0
  9
$COORDS
 70
     2
  9
$SPLFRAME
 70
     0
  9
$SPLINETYPE
 70
     6
  9
$SPLINESEGS
 70
     8
  9
$ATTDIA
 70
     0
  9
$ATTREQ
 70
     1
  9
$HANDLING
 70
     1
  9
$HANDSEED
  5
D033
  9
$SURFTAB1
 70
     6
  9
$SURFTAB2
 70
     6
  9
$SURFTYPE
 70
     6
  9
$SURFU
 70
     6
  9
$SURFV
 70
     6
  9
$UCSNAME
  2

  9
$UCSORG
 10
0.0
 20
0.0
 30
0.0
  9
$UCSXDIR
 10
1.0
 20
0.0
 30
0.0
  9
$UCSYDIR
 10
0.0
 20
1.0
 30
0.0
  9
$PUCSNAME
  2

  9
$PUCSORG
 10
0.0
 20
0.0
 30
0.0
  9
$PUCSXDIR
 10
1.0
 20
0.0
 30
0.0
  9
$PUCSYDIR
 10
0.0
 20
1.0
 30
0.0
  9
$USERI1
 70
     0
  9
$USERI2
 70
     0
  9
$USERI3
 70
     0
  9
$USERI4
 70
     0
  9
$USERI5
 70
     0
  9
$USERR1
 40
0.0
  9
$USERR2
 40
0.0
  9
$USERR3
 40
0.0
  9
$USERR4
 40
0.0
  9
$USERR5
 40
0.0
  9
$WORLDVIEW
 70
     1
  9
$SHADEDGE
 70
     3
  9
$SHADEDIF
 70
    70
  9
$TILEMODE
 70
     1
  9
$MAXACTVP
 70
    48
  9
$PLIMCHECK
 70
     0
  9
$PEXTMIN
 10
1.0000000000000000E+020
 20
1.0000000000000000E+020
 30
1.0000000000000000E+020
  9
$PEXTMAX
 10
-1.0000000000000000E+020
 20
-1.0000000000000000E+020
 30
-1.0000000000000000E+020
  9
$PLIMMIN
 10
0.0
 20
0.0
  9
$PLIMMAX
 10
420.0
 20
297.0
  9
$UNITMODE
 70
     0
  9
$VISRETAIN
 70
     1
  9
$PLINEGEN
 70
     0
  9
$PSLTSCALE
 70
     1
  0
ENDSEC
  0
SECTION
  2
TABLES
  0
TABLE
  2
VPORT
 70
     1
  0
VPORT
  2
*ACTIVE
 70
     0
 10
0.0
 20
0.0
 11
1.0
 21
1.0
 12
-247.769985582483
 22
-345.85138059747459
 13
0.0
 23
0.0
 14
10.0
 24
10.0
 15
10.0
 25
10.0
 16
0.0
 26
0.0
 36
1.0
 17
0.0
 27
0.0
 37
0.0
 40
246.72392262771911
 41
1.4123581336696089
 42
50.0
 43
0.0
 44
0.0
 50
0.0
 51
0.0
 71
     0
 72
   100
 73
     1
 74
     1
 75
     0
 76
     0
 77
     0
 78
     0
  0
ENDTAB
  0
TABLE
  2
LTYPE
 70
    12
  0
LTYPE
  2
CONTINUOUS
 70
     0
  3
Solid line
 72
    65
 73
     0
 40
0.0
  0
LTYPE
  2
XREF1|CENTER2
 70
    48
  3
Center (.5x) ___ _ ___ _ ___ _ ___ _ ___ _ ___
 72
    65
 73
     4
 40
28.574999999999999
 49
19.050000000000001
 49
-3.1749999999999989
 49
3.1749999999999989
 49
-3.1749999999999989
  0
LTYPE
  2
A3WAKUDAKE|CENTER2
 70
    48
  3
Center (.5x) ___ _ ___ _ ___ _ ___ _ ___ _ ___
 72
    65
 73
     4
 40
28.574999999999999
 49
19.050000000000001
 49
-3.1749999999999989
 49
3.1749999999999989
 49
-3.1749999999999989
  0
ENDTAB
  0
TABLE
  2
LAYER
 70
    37
  0
LAYER
  2
0
 70
     0
 62
     7
  6
CONTINUOUS
  0
LAYER
  2
1TEXT
 70
     0
 62
     7
  6
CONTINUOUS
  0
LAYER
  2
A3WAKUDAKE|THICK
 70
    48
 62
     7
  6
CONTINUOUS
  0
LAYER
  2
A3WAKUDAKE|POINT
 70
    48
 62
     7
  6
CONTINUOUS
  0
LAYER
  2
A3WAKUDAKE|1CENTER
 70
    48
 62
     7
  6
A3WAKUDAKE|CENTER2
  0
LAYER
  2
A3WAKUDAKE|0-6
 70
    48
 62
     7
  6
CONTINUOUS
  0
LAYER
  2
01
 70
     0
 62
     1
  6
CONTINUOUS
  0
LAYER
  2
A3WAKUDAKE|1DIM
 70
    48
 62
     7
  6
CONTINUOUS
  0
LAYER
  2
XREF1|1CENTER
 70
    48
 62
     7
  6
XREF1|CENTER2
  0
ENDTAB
  0
TABLE
  2
STYLE
 70
     4
  0
STYLE
  2
STANDARD
 70
     0
 40
0.0
 41
1.0
 50
0.0
 71
     0
 42
4.0
  3
romans.shx
  4
extfont2.shx
  0
ENDTAB
  0
TABLE
  2
VIEW
 70
     0
  0
ENDTAB
  0
TABLE
  2
UCS
 70
     0
  0
ENDTAB
  0
TABLE
  2
APPID
 70
    10
  0
APPID
  2
ACAD
 70
     0
  0
APPID
  2
DRAWINGVARIABLESXDATA
 70
     0
  0
APPID
  2
CONTENTTABDATA
 70
     0
  0
APPID
  2
CONTENTCURRENTTAB
 70
     0
  0
APPID
  2
CONTENTBLOCKDESCRIPTION
 70
     0
  0
APPID
  2
CONTENTBLOCKICON
 70
     0
  0
APPID
  2
CONTENTLONGBLOCKNAME
 70
     0
  0
APPID
  2
ACAD_PSEXT
 70
     0
  0
APPID
  2
ACAD_DSTYLE_DIMTEXT_FILL
 70
     0
  0
APPID
  2
ACAD_MLEADERVER
 70
     0
  0
ENDTAB
  0
TABLE
  2
DIMSTYLE
 70
     5
  0
DIMSTYLE
  2
NEWX10
 70
     0
  3
 
  4

  5

  6
OPEN30
  7
OPEN30
 40
1.0
 41
2.0
 42
0.0
 43
7.0
 44
1.0
 45
0.0
 46
0.0
 47
0.0
 48
0.0
140
3.5
141
0.0
142
0.0
143
25.399999999999999
144
1.0
145
0.0
146
0.7
147
0.7
 71
     0
 72
     0
 73
     0
 74
     0
 75
     0
 76
     0
 77
     1
 78
     8
170
     0
171
     2
172
     1
173
     1
174
     0
175
     0
176
   256
177
   256
178
   201
  0
ENDTAB
  0
ENDSEC
  0
SECTION
  2
BLOCKS
  0
BLOCK
  8
0
  2
$MODEL_SPACE
 70
     0
 10
0.0
 20
0.0
 30
0.0
  3
$MODEL_SPACE
  1

  0
ENDBLK
  5
1A
  8
0
  0
BLOCK
 67
     1
  8
0
  2
$PAPER_SPACE
 70
     0
 10
0.0
 20
0.0
 30
0.0
  3
$PAPER_SPACE
  1

  0
ENDBLK
  5
17
 67
     1
  8
0
  0
BLOCK
  8
0
  2
_OPEN30
 70
     0
 10
0.0
 20
0.0
 30
0.0
  3
_OPEN30
  1

  0
LINE
  5
44
  8
0
  6
BYBLOCK
 62
     0
 10
-1.0
 20
0.26794919
 30
0.0
 11
0.0
 21
0.0
 31
0.0
  0
LINE
  5
45
  8
0
  6
BYBLOCK
 62
     0
 10
0.0
 20
0.0
 30
0.0
 11
-1.0
 21
-0.26794919
 31
0.0
  0
LINE
  5
46
  8
0
  6
BYBLOCK
 62
     0
 10
0.0
 20
0.0
 30
0.0
 11
-1.0
 21
0.0
 31
0.0
  0
ENDBLK
  5
47
  8
0
  0
BLOCK
  8
0
  2
XREF1
 70
    36
 10
0.0
 20
0.0
 30
0.0
  3
XREF1
  1
D:\ACLT\FORMAT\KAWAJUN(9)図面用.dwg
  0
ENDBLK
  5
5D
  8
0
  0
BLOCK
  8
0
  2
A3WAKUDAKE
 70
    36
 10
0.0
 20
0.0
 30
0.0
  3
A3WAKUDAKE
  1
D:\ACLT\FORMAT\A3WAKUdake.dwg
  0
ENDBLK
  5
6DC
  8
0
  0
BLOCK
  8
0
  2
*U23
 70
     1
 10
0.0
 20
0.0
 30
0.0
  3
*U23
  1

  0
LINE
  5
CFEF
  8
0
 10
-19.650000000000031
 20
-2.0
 30
0.0
 11
-1.3000001740740139
 21
-2.0
 31
0.0
  0
LINE
  5
CFF0
  8
0
 10
-1.3000001740740139
 20
-2.0
 30
0.0
 11
-0.3000001000000054
 21
-3.0
 31
0.0
  0
LINE
  5
CFF1
  8
0
 10
-20.000000000000011
 20
-1.6499999999998629
 30
0.0
 11
-19.650000000000031
 21
-2.0
 31
0.0
  0
LINE
  5
CFF2
  8
0
 10
-0.3000001000000054
 20
-3.0
 30
0.0
 11
0.0
 21
-3.0
 31
0.0
  0
LINE
  5
CFF3
  8
0
 10
-20.000000000000011
 20
1.649999999999977
 30
0.0
 11
-20.000000000000011
 21
-1.6499999999998629
 31
0.0
  0
LINE
  5
CFF4
  8
0
 10
0.0
 20
3.0
 30
0.0
 11
0.0
 21
-3.0
 31
0.0
  0
LINE
  5
CFF5
  8
0
 10
-19.650000000000031
 20
2.0
 30
0.0
 11
-20.000000000000011
 21
1.649999999999977
 31
0.0
  0
LINE
  5
CFF6
  8
0
 10
-0.3000000100000193
 20
3.0
 30
0.0
 11
0.0
 21
3.0
 31
0.0
  0
LINE
  5
CFF7
  8
0
 10
-19.650000000000031
 20
2.0
 30
0.0
 11
-1.3000001740740139
 21
2.0
 31
0.0
  0
LINE
  5
CFF8
  8
0
 10
-1.3000001740740139
 20
2.0
 30
0.0
 11
-0.3000000100000193
 21
3.0
 31
0.0
  0
ENDBLK
  5
CFFA
  8
0
  0
BLOCK
  8
0
  2
*U24
 70
     1
 10
0.0
 20
0.0
 30
0.0
  3
*U24
  1

  0
TEXT
  5
CFFC
  8
1TEXT
 62
   201
 10
-84.883406119791175
 20
-393.02345592710873
 30
0.0
 40
3.5
  1
22.5
 50
90.0
  0
ENDBLK
  5
CFFE
  8
0
  0
BLOCK
  8
0
  2
*U25
 70
     1
 10
0.0
 20
0.0
 30
0.0
  3
*U25
  1

  0
TEXT
  5
D000
  8
1TEXT
 62
   201
 10
-84.883406119791175
 20
-424.27345618395469
 30
0.0
 40
3.5
  1
40
 50
90.0
  0
ENDBLK
  5
D002
  8
0
  0
BLOCK
  8
0
  2
*U26
 70
     1
 10
0.0
 20
0.0
 30
0.0
  3
*U26
  1

  0
TEXT
  5
D004
  8
1TEXT
 62
   201
 10
-304.36712029384989
 20
-262.5112921683359
 30
0.0
 40
3.5
  1
11
  0
ENDBLK
  5
D006
  8
0
  0
BLOCK
  8
0
  2
*U27
 70
     1
 10
0.0
 20
0.0
 30
0.0
  3
*U27
  1

  0
TEXT
  5
D008
  8
1TEXT
 62
   201
 10
-318.23379024704008
 20
-286.56483958893318
 30
0.0
 40
3.5
  1
23
 50
90.0
  0
ENDBLK
  5
D00A
  8
0
  0
BLOCK
  8
0
  2
*U28
 70
     1
 10
0.0
 20
0.0
 30
0.0
  3
*U28
  1

  0
TEXT
  5
D00C
  8
1TEXT
 62
   201
 10
-330.7337869584872
 20
-357.77345389561572
 30
0.0
 40
3.5
  1
36
 50
90.0
  0
ENDBLK
  5
D00E
  8
0
  0
BLOCK
  8
0
  2
*U29
 70
     1
 10
0.0
 20
0.0
 30
0.0
  3
*U29
  1

  0
TEXT
  5
D010
  8
1TEXT
 62
   201
 10
-340.7337869584872
 20
-362.77345393112699
 30
0.0
 40
3.5
  1
58
 50
90.0
  0
ENDBLK
  5
D012
  8
0
  0
BLOCK
  8
0
  2
*U30
 70
     1
 10
0.0
 20
0.0
 30
0.0
  3
*U30
  1

  0
TEXT
  5
D014
  8
1TEXT
 62
   201
 10
-330.7337869584872
 20
-384.02345389561577
 30
0.0
 40
3.5
  1
16
 50
90.0
  0
ENDBLK
  5
D016
  8
0
  0
BLOCK
  8
0
  2
*U31
 70
     1
 10
0.0
 20
0.0
 30
0.0
  3
*U31
  1

  0
TEXT
  5
D018
  8
1TEXT
 62
   201
 10
-407.92926673423818
 20
-360.12345036987
 30
0.0
 40
3.5
  1
11
 50
90.0
  0
ENDBLK
  5
D01A
  8
0
  0
BLOCK
  8
0
  2
*U32
 70
     1
 10
0.0
 20
0.0
 30
0.0
  3
*U32
  1

  0
TEXT
  5
D01C
  8
1TEXT
 62
   201
 10
-275.79388014594127
 20
-383.1692815453718
 30
0.0
 40
3.5
  1
1～2 ｍｍ
 50
90.0
  0
ENDBLK
  5
D01E
  8
0
  0
BLOCK
  8
0
  2
*U33
 70
     1
 10
0.0
 20
0.0
 30
0.0
  3
*U33
  1

  0
TEXT
  5
D020
  8
1TEXT
 62
   201
 10
-164.5708254978743
 20
-330.2648451282808
 30
0.0
 40
3.5
  1
φ32.5
 50
90.0
  0
ENDBLK
  5
D022
  8
0
  0
BLOCK
  8
0
  2
*U34
 70
     1
 10
0.0
 20
0.0
 30
0.0
  3
*U34
  1

  0
TEXT
  5
D024
  8
1TEXT
 62
   201
 10
-407.92926673423813
 20
-383.8234515317962
 30
0.0
 40
3.5
  1
36
 50
90.0
  0
ENDBLK
  5
D026
  8
0
  0
BLOCK
  8
0
  2
*U35
 70
     1
 10
0.0
 20
0.0
 30
0.0
  3
*U35
  1

  0
TEXT
  5
D028
  8
1TEXT
 62
   201
 10
-365.13102845760972
 20
-325.62544164745668
 30
0.0
 40
3.5
  1
φ10
  0
ENDBLK
  5
D02A
  8
0
  0
BLOCK
  8
0
  2
*U36
 70
     1
 10
0.0
 20
0.0
 30
0.0
  3
*U36
  1

  0
TEXT
  5
D02C
  8
1TEXT
 62
   201
 10
-164.89241336104499
 20
-372.90711560295267
 30
0.0
 40
3.5
  1
22.5
 50
90.0
  0
ENDBLK
  5
D02E
  8
0
  0
BLOCK
  8
0
  2
*U37
 70
     1
 10
0.0
 20
0.0
 30
0.0
  3
*U37
  1

  0
TEXT
  5
D030
  8
1TEXT
 62
   201
 10
-124.510758507303
 20
-445.07456660747249
 30
0.0
 40
3.5
  1
φ8
  0
ENDBLK
  5
D032
  8
0
  0
ENDSEC
  0
SECTION
  2
ENTITIES
  0
LINE
  5
39BF
  8
01
 10
-410.3099901824159
 20
-275.33373566197622
 30
0.0
 11
-328.30999018241619
 21
-275.33373566197622
 31
0.0
  0
TEXT
  5
39C0
  8
01
 10
-398.97665684908372
 20
-266.64464927354709
 30
0.0
 40
4.0
  1
クローム
 72
     1
 11
-389.909990182417
 21
-266.64464927354709
 31
0.0
  0
TEXT
  5
39C1
  8
01
 10
-398.97665684908338
 20
-259.83373566197622
 30
0.0
 40
4.0
  1
表面処理
 72
     1
 11
-389.90999018241678
 21
-259.83373566197622
 31
0.0
  0
LINE
  5
39C3
  8
01
 10
-410.30999018241641
 20
-254.33373566197619
 30
0.0
 11
-328.30999018241641
 21
-254.33373566197631
 31
0.0
  0
LINE
  5
39C4
  8
01
 10
-410.30999018241619
 20
-261.33373566197622
 30
0.0
 11
-328.30999018241641
 21
-261.33373566197622
 31
0.0
  0
LINE
  5
39C5
  8
01
 10
-407.3099901824163
 20
-268.33373566197622
 30
0.0
 11
-337.30999018241641
 21
-268.33373566197622
 31
0.0
  0
LINE
  5
39C6
  8
01
 10
-410.30999018241607
 20
-268.33373566197622
 30
0.0
 11
-328.30999018241641
 21
-268.33373566197622
 31
0.0
  0
LINE
  5
39C7
  8
01
 10
-369.30999018241641
 20
-254.33373566197619
 30
0.0
 11
-369.30999018241579
 21
-282.33373566197622
 31
0.0
  0
TEXT
  5
39CA
  8
01
 10
-354.90803417594418
 20
-259.83373566197622
 30
0.0
 40
4.0
  1
コード
 72
     1
 11
-348.24136750927761
 21
-259.83373566197622
 31
0.0
  0
LINE
  5
39CB
  8
01
 10
-410.30999018241579
 20
-282.33373566197622
 30
0.0
 11
-328.30999018241619
 21
-282.33373566197622
 31
0.0
  0
TEXT
  5
8A57
  8
01
 10
-364.698744927169
 20
-266.83373566197668
 30
0.0
 40
4.0
  1
AC-812-XCK
 41
0.8
 72
     1
 11
-348.6225544509785
 21
-266.83373566197668
 31
0.0
  0
ARC
  5
9603
  8
01
 10
-193.28378696051669
 20
-322.23151179494738
 30
0.0
 40
12.5
 50
140.31203671553271
 51
180.0
  0
ARC
  5
9604
  8
01
 10
-193.28378696051669
 20
-322.23151179494738
 30
0.0
 40
12.5
 50
180.0
 51
219.68773581675441
  0
ARC
  5
9630
  8
01
 10
-193.28378696051669
 20
-322.2315085084241
 30
0.0
 40
12.699999999999999
 50
180.0
 51
219.24664721883721
  0
ARC
  5
9631
  8
01
 10
-193.28378696051669
 20
-322.2315085084241
 30
0.0
 40
12.699999999999999
 50
140.75332238210319
 51
180.0
  0
ARC
  5
9632
  8
01
 10
-193.28378696051669
 20
-322.2315085084241
 30
0.0
 40
14.199999999999999
 50
180.0
 51
216.37201356905371
  0
ARC
  5
9633
  8
01
 10
-193.28378696051669
 20
-322.2315085084241
 30
0.0
 40
14.199999999999999
 50
143.62774178285579
 51
180.0
  0
LINE
  5
9634
  8
01
 10
-176.21590825320871
 20
-320.73150850842421
 30
0.0
 11
-175.28378696051669
 21
-320.73150850842421
 31
0.0
  0
LINE
  5
9636
  8
01
 10
-175.28378696051669
 20
-323.73150850842421
 30
0.0
 11
-176.2159072904285
 21
-323.73150850842421
 31
0.0
  0
ARC
  5
9638
  8
01
 10
-193.2841232418296
 20
-322.23151179494738
 30
0.0
 40
5.50000286203203
 50
283.58453398495482
 51
359.99997653142532
  0
ARC
  5
9639
  8
01
 10
-193.28412324182941
 20
-322.23151630059368
 30
0.0
 40
5.5000028620317583
 50
0.0000234685746987
 51
76.41546601505857
  0
LINE
  5
963A
  8
01
 10
-191.99228399793381
 20
-316.88537911096859
 30
0.0
 11
-205.40145867222671
 21
-313.64519965756222
 31
0.0
  0
LINE
  5
963B
  8
01
 10
-205.40148864920491
 20
-330.81777379892679
 30
0.0
 11
-191.99228399793381
 21
-327.57764898457248
 31
0.0
  0
ARC
  5
9661
  8
01
 10
-193.28962427011311
 20
-322.13189909557661
 30
0.0
 40
5.0999999999997243
 50
242.53887745350889
 51
270.0
  0
LINE
  5
9663
  8
01
 10
-192.2837653788622
 20
-327.2318990955763
 30
0.0
 11
-193.28962427011311
 21
-327.2318990955763
 31
0.0
  0
ARC
  5
9664
  8
01
 10
-192.2837653788622
 20
-323.2318990955763
 30
0.0
 40
3.9999999999999991
 50
270.0
 51
359.99999999405941
  0
LINE
  5
9669
  8
01
 10
-188.2837653788622
 20
-321.2318990955763
 30
0.0
 11
-188.2837653788622
 21
-323.23189909599131
 31
0.0
  0
LINE
  5
9670
  8
01
 10
-197.7118297316716
 20
-326.79423361025619
 30
0.0
 11
-199.30779755550481
 21
-327.91306635308308
 31
0.0
  0
ARC
  5
9673
  8
01
 10
-196.5637653788622
 20
-328.43189909557628
 30
0.0
 40
1.999999999999996
 50
62.538877453508881
 51
125.03188305674389
  0
ARC
  5
9675
  8
01
 10
-198.7337653788623
 20
-328.73189909557618
 30
0.0
 40
0.9999999999999991
 50
125.03188305674389
 51
221.06453330843451
  0
ARC
  5
96A7
  8
01
 10
-192.2837653788622
 20
-321.2318990955763
 30
0.0
 40
3.9999999999999889
 50
0.0
 51
89.999999994059436
  0
LINE
  5
96A8
  8
01
 10
-193.28962427011311
 20
-317.23189909557618
 30
0.0
 11
-192.2837653784471
 21
-317.23189909557618
 31
0.0
  0
ARC
  5
96A9
  8
01
 10
-193.28962427011311
 20
-322.33189909557609
 30
0.0
 40
5.0999999999998709
 50
90.0
 51
117.4611225464911
  0
ARC
  5
96AA
  8
01
 10
-196.5637653788622
 20
-316.03189909557631
 30
0.0
 40
1.999999999999958
 50
234.96811694325609
 51
297.46112254649108
  0
LINE
  5
96AB
  8
01
 10
-199.30779755526669
 20
-316.55073183823629
 30
0.0
 11
-197.7118297316716
 21
-317.66956458089629
 31
0.0
  0
ARC
  5
96AC
  8
01
 10
-198.73487278125279
 20
-315.73112388114902
 30
0.0
 40
1.0000000000000191
 50
138.91681669335199
 51
235.0455679899095
  0
CIRCLE
  5
96AF
  8
01
 10
-201.2838535946974
 20
-322.2314736746111
 30
0.0
 40
1.0
  0
LINE
  5
96BC
  8
01
 10
-296.78378696051658
 20
-386.44012059779362
 30
0.0
 11
-305.78378696051658
 21
-386.44012059779362
 31
0.0
  0
LINE
  5
96BF
  8
01
 10
-296.28378696051658
 20
-385.94012059779328
 30
0.0
 11
-296.78378696051658
 21
-386.44012059779362
 31
0.0
  0
LINE
  5
96C1
  8
01
 10
-364.59769512427641
 20
-385.94012059779362
 30
0.0
 11
-364.59769512427641
 21
-372.44012052677112
 31
0.0
  0
LINE
  5
96C2
  8
01
 10
-305.78378696051658
 20
-386.44012059779362
 30
0.0
 11
-306.28378696051652
 21
-385.94012059779362
 31
0.0
  0
LINE
  5
96CE
  8
01
 10
-354.59769512427641
 20
-385.94012059779328
 30
0.0
 11
-354.59769512427641
 21
-336.44012059779362
 31
0.0
  0
LINE
  5
96F6
  8
01
 10
-377.59769512427653
 20
-378.44012285062189
 30
0.0
 11
-377.59769512427641
 21
-314.08798065417631
 31
0.0
  0
LINE
  5
96F7
  8
01
 10
-377.59769512427641
 20
-372.44012052677112
 30
0.0
 11
-362.95785748508541
 21
-372.44012052677112
 31
0.0
  0
LINE
  5
96F8
  8
01
 10
-377.59769512427641
 20
-336.44012052677112
 30
0.0
 11
-362.95785748508541
 21
-336.44012052677112
 31
0.0
  0
LINE
  5
9701
  8
01
 10
-355.09769512427641
 20
-330.44012059779368
 30
0.0
 11
-364.09769512427641
 21
-330.44012059779368
 31
0.0
  0
LINE
  5
9702
  8
01
 10
-364.59769512427641
 20
-330.94012059779379
 30
0.0
 11
-364.09769512427641
 21
-330.44012059779368
 31
0.0
  0
LINE
  5
9703
  8
01
 10
-354.59769512427641
 20
-330.94012059779379
 30
0.0
 11
-355.09769512427641
 21
-330.44012059779368
 31
0.0
  0
LINE
  5
9704
  8
01
 10
-354.59769512427641
 20
-336.44012059779368
 30
0.0
 11
-354.59769512427641
 21
-330.94012059779379
 31
0.0
  0
LINE
  5
9705
  8
01
 10
-364.59769512427641
 20
-336.44012052677112
 30
0.0
 11
-364.59769512427641
 21
-330.94012059779379
 31
0.0
  0
LINE
  5
972A
  8
01
 10
-295.78378696051658
 20
-271.73150625559981
 30
0.0
 11
-306.78378696051658
 21
-271.73150625559981
 31
0.0
  0
LINE
  5
972B
  8
01
 10
-295.78378696051658
 20
-272.23150625559981
 30
0.0
 11
-296.72798729529489
 21
-285.90578656542709
 31
0.0
  0
ARC
  5
972C
  8
01
 10
-301.28378696051658
 20
-289.73150625559981
 30
0.0
 40
5.1000000000000023
 50
43.5758864654996
 51
136.42411353450041
  0
LINE
  5
972D
  8
01
 10
-305.83958662573792
 20
-285.90578656542709
 30
0.0
 11
-306.78378696051658
 21
-272.23150625559981
 31
0.0
  0
ARC
  5
972E
  8
01
 10
-297.2267995870838
 20
-285.87134389479081
 30
0.0
 40
0.5000000000000036
 50
223.57588646549959
 51
356.05003257336102
  0
ARC
  5
972F
  8
01
 10
-305.3407743339493
 20
-285.87134389479081
 30
0.0
 40
0.4999999999999952
 50
183.94996742663901
 51
316.42411353450041
  0
LINE
  5
9730
  8
01
 10
-304.7837885867412
 20
-286.02206039180498
 30
0.0
 11
-304.63639958108217
 21
-286.02206039180498
 31
0.0
  0
LINE
  5
9731
  8
01
 10
-297.93117433995093
 20
-286.0220603918051
 30
0.0
 11
-297.78378533429191
 21
-286.0220603918047
 31
0.0
  0
CIRCLE
  5
9732
  8
01
 10
-301.28378696051658
 20
-289.73150625559981
 30
0.0
 40
5.0
  0
LINE
  5
976D
  8
01
 10
-296.78378696051658
 20
-386.44012059779362
 30
0.0
 11
-296.78378696051658
 21
-386.78958351545771
 31
0.0
  0
LINE
  5
9775
  8
01
 10
-305.78378696051658
 20
-386.44012059779362
 30
0.0
 11
-305.78378696051658
 21
-386.78958351545748
 31
0.0
  0
ARC
  5
9782
  8
01
 10
-301.28378696051641
 20
-381.04502086891972
 30
0.0
 40
7.4999999999994991
 50
279.5940682268913
 51
304.84990457905332
  0
ARC
  5
9783
  8
01
 10
-297.28378696051641
 20
-386.78958351545771
 30
0.0
 40
0.5
 50
304.84990457905332
 51
0.0
  0
ARC
  5
9784
  8
01
 10
-301.28378696051641
 20
-381.04502086891972
 30
0.0
 40
7.4999999999994991
 50
235.1500954209468
 51
260.40593177313508
  0
ARC
  5
9785
  8
01
 10
-305.28378696051681
 20
-386.78958351545748
 30
0.0
 40
0.5
 50
180.0
 51
235.1500954209468
  0
LINE
  5
9786
  8
01
 10
-300.03378696051232
 20
-388.44012059779368
 30
0.0
 11
-302.53378696051658
 21
-388.44012059779368
 31
0.0
  0
ARC
  5
978A
  8
01
 10
-193.28378696051601
 20
-322.2315117949467
 30
0.0
 40
11.100014964460719
 50
140.23511069509101
 51
219.76488930491979
  0
ARC
  5
9791
  8
01
 10
-193.2838019249769
 20
-322.23151179494738
 30
0.0
 40
11.0
 50
141.967189250231
 51
218.0328107497613
  0
ARC
  5
9792
  8
01
 10
-201.5542115803685
 20
-328.70069444285622
 30
0.0
 40
0.5
 50
218.0328107497576
 51
277.35000000001048
  0
ARC
  5
9793
  8
01
 10
-201.5542115803683
 20
-315.76232914703832
 30
0.0
 40
0.5
 50
82.650000000015808
 51
141.96718925024209
  0
LINE
  5
9794
  8
01
 10
-201.49024650471739
 20
-315.2664375569737
 30
0.0
 11
-199.7069505539491
 21
-315.49646497160239
 31
0.0
  0
LINE
  5
9796
  8
01
 10
-201.81609803145929
 20
-315.13151179494679
 30
0.0
 11
-199.6808653402864
 21
-315.40693554352271
 31
0.0
  0
LINE
  5
97A2
  8
01
 10
-201.49024650471759
 20
-329.19658603292129
 30
0.0
 11
-199.70587643908721
 21
-328.96642006817427
 31
0.0
  0
LINE
  5
97A4
  8
01
 10
-201.8160980314581
 20
-329.33151179494803
 30
0.0
 11
-199.67980460596851
 21
-329.05595122221081
 31
0.0
  0
LINE
  5
97C7
  8
01
 10
-178.0337870160557
 20
-375.94012233692928
 30
0.0
 11
-191.87484432685531
 21
-375.94012310554842
 31
0.0
  0
ARC
  5
97C8
  8
01
 10
-178.03378696052371
 20
-376.94012233692928
 30
0.0
 40
1.0
 50
0.0
 51
90.000003181745043
  0
LINE
  5
97CC
  8
01
 10
-209.53378696051669
 20
-394.94012285062138
 30
0.0
 11
-209.53378696051689
 21
-391.44012285061729
 31
0.0
  0
ARC
  5
97CD
  8
01
 10
-208.53378696051689
 20
-391.44012285061729
 30
0.0
 40
1.0
 50
90.0
 51
180.0
  0
LINE
  5
97CE
  8
01
 10
-206.57376582374911
 20
-377.94012323967922
 30
0.0
 11
-206.57376582374911
 21
-389.44012325935728
 31
0.0
  0
ARC
  5
97CF
  8
01
 10
-204.57376582374911
 20
-377.94012323967928
 30
0.0
 40
2.0
 50
90.000000605181896
 51
180.0
  0
LINE
  5
97D1
  8
01
 10
-191.87484447493759
 20
-375.94012310554842
 30
0.0
 11
-204.57376584487369
 21
-375.94012323967928
 31
0.0
  0
LINE
  5
97D4
  8
01
 10
-173.78378696051669
 20
-383.44012285061677
 30
0.0
 11
-173.78378696051669
 21
-388.44012285061672
 31
0.0
  0
LINE
  5
97D5
  8
01
 10
-177.0337869605205
 20
-394.94012285061712
 30
0.0
 11
-209.53378696051669
 21
-394.94012285062138
 31
0.0
  0
LINE
  5
97D7
  8
01
 10
-174.78378696051689
 20
-382.44012285061677
 30
0.0
 11
-176.03378696052351
 21
-382.44012285061717
 31
0.0
  0
ARC
  5
97D8
  8
01
 10
-174.78378696051669
 20
-383.44012285061677
 30
0.0
 40
1.0
 50
0.0
 51
90.000000000026048
  0
LINE
  5
97DA
  8
01
 10
-177.03378696052371
 20
-376.94012233692928
 30
0.0
 11
-177.03378696052371
 21
-381.44012285061717
 31
0.0
  0
ARC
  5
97DB
  8
01
 10
-176.03378696052371
 20
-381.44012285061717
 30
0.0
 40
1.0
 50
180.0
 51
270.00000000002598
  0
LINE
  5
97DC
  8
01
 10
-207.48378696051671
 20
-390.44012285061729
 30
0.0
 11
-208.53378696051689
 21
-390.44012285061729
 31
0.0
  0
LINE
  5
97E5
  8
01
 10
-209.53378696051669
 20
-398.44012285062138
 30
0.0
 11
-209.53378696051669
 21
-395.44012285062138
 31
0.0
  0
LINE
  5
97F2
  8
01
 10
-177.03378696051669
 20
-398.44012285062138
 30
0.0
 11
-177.03378696051669
 21
-395.44012285062138
 31
0.0
  0
LINE
  5
97F3
  8
01
 10
-209.53378696051669
 20
-395.44012285062138
 30
0.0
 11
-177.03378696051669
 21
-395.44012285062138
 31
0.0
  0
LINE
  5
97F8
  8
01
 10
-209.53378696051669
 20
-398.44012285062138
 30
0.0
 11
-177.03378696051669
 21
-398.44012285062138
 31
0.0
  0
ARC
  5
9814
  8
01
 10
-175.28378696051669
 20
-322.2315085084241
 30
0.0
 40
1.5
 50
270.0
 51
90.0
  0
ARC
  5
9815
  8
01
 10
-176.21590825320871
 20
-319.73150850842421
 30
0.0
 40
1.0
 50
188.33309402893369
 51
270.0
  0
ARC
  5
9816
  8
01
 10
-176.2159072904285
 20
-324.73150850842421
 30
0.0
 40
1.0
 50
90.0
 51
171.66692803635931
  0
CIRCLE
  5
9817
  8
01
 10
-193.28378696051669
 20
-322.23151179494738
 30
0.0
 40
16.25000000000033
  0
ARC
  5
9818
  8
01
 10
-205.16661384157811
 20
-331.7897994286003
 30
0.0
 40
1.0
 50
103.58424322958579
 51
218.81245246003689
  0
ARC
  5
9819
  8
01
 10
-205.16657962623469
 20
-312.67317505203317
 30
0.0
 40
1.0
 50
141.18734244153899
 51
256.41550694101869
  0
ARC
  5
9820
  8
01
 10
-193.28378696051669
 20
-322.23151179494738
 30
0.0
 40
15.2503656552169
 50
145.27588984569991
 51
214.72387797173991
  0
LINE
  5
9830
  8
01
 10
-295.78378696051658
 20
-271.73150625559981
 30
0.0
 11
-295.78378696051658
 21
-272.23150625559981
 31
0.0
  0
LINE
  5
9831
  8
01
 10
-306.78378696051658
 20
-271.73150625559981
 30
0.0
 11
-306.78378696051658
 21
-272.23150625559981
 31
0.0
  0
LINE
  5
9945
  8
01
 10
-180.78378696051669
 20
-395.44012285062138
 30
0.0
 11
-180.78378696051669
 21
-394.94012285061763
 31
0.0
  0
LINE
  5
9946
  8
01
 10
-205.78378696051669
 20
-395.44012285062138
 30
0.0
 11
-205.78378696051669
 21
-394.94012285062092
 31
0.0
  0
LINE
  5
A0A6
  8
01
 10
-362.95785748508541
 20
-336.44012059779368
 30
0.0
 11
-354.59769512427641
 21
-336.44012059779362
 31
0.0
  0
LINE
  5
A0A7
  8
01
 10
-362.95785748508541
 20
-336.44012052677112
 30
0.0
 11
-362.95785748508541
 21
-372.44012052677112
 31
0.0
  0
LINE
  5
A330
  8
01
 10
-174.78378696051439
 20
-389.44012285061672
 30
0.0
 11
-176.03378696052101
 21
-389.44012285061717
 31
0.0
  0
ARC
  5
A331
  8
01
 10
-174.7837869605149
 20
-388.44012285061672
 30
0.0
 40
1.0
 50
270.00000000001472
 51
0.0
  0
ARC
  5
A332
  8
01
 10
-176.0337869605205
 20
-390.44012285061717
 30
0.0
 40
1.0
 50
90.000000000014623
 51
180.00000000003911
  0
LINE
  5
A333
  8
01
 10
-177.0337869605205
 20
-390.44012285061717
 30
0.0
 11
-177.0337869605205
 21
-394.94012285061712
 31
0.0
  0
LINE
  5
A339
  8
01
 10
-410.30999018241579
 20
-282.33373566197628
 30
0.0
 11
-410.30999018241641
 21
-254.33373566197631
 31
0.0
  0
LINE
  5
B980
  8
01
 10
-328.30999018241641
 20
-254.33373566197531
 30
0.0
 11
-328.30999018241579
 21
-282.33373566197622
 31
0.0
  0
LINE
  5
BD18
  8
01
 10
-193.2848120458855
 20
-391.88334884662652
 30
0.0
 11
-193.2848120458855
 21
-413.08042859216403
 31
0.0
  0
LINE
  5
BD22
  8
01
 10
-201.28377916039221
 20
-412.81887014726499
 30
0.0
 11
-201.28377915703379
 21
-391.63930763057232
 31
0.0
  0
LINE
  5
BD37
  8
01
 10
-189.2848120458855
 20
-392.23971190281429
 30
0.0
 11
-197.2848120458855
 21
-392.23969328845499
 31
0.0
  0
LINE
  5
BD38
  8
01
 10
-197.2848120458855
 20
-392.53969328845602
 30
0.0
 11
-197.2848120458855
 21
-392.23969328845499
 31
0.0
  0
LINE
  5
BD39
  8
01
 10
-189.2848120458855
 20
-392.53971190281521
 30
0.0
 11
-189.2848120458855
 21
-392.23971190281429
 31
0.0
  0
LINE
  5
BD3A
  8
01
 10
-197.2848120458855
 20
-392.53969328845602
 30
0.0
 11
-195.1598120458857
 21
-394.66471801079553
 31
0.0
  0
LINE
  5
BD3B
  8
01
 10
-189.2848120458855
 20
-392.53971190281521
 30
0.0
 11
-191.4098120458857
 21
-394.6646970695495
 31
0.0
  0
LINE
  5
BD3C
  8
01
 10
-195.1598120458857
 20
-405.61469823288178
 30
0.0
 11
-195.1598120458857
 21
-394.66471801079553
 31
0.0
  0
LINE
  5
BD3D
  8
01
 10
-191.4098120458857
 20
-405.61470695836272
 30
0.0
 11
-191.4098120458857
 21
-394.6646970695495
 31
0.0
  0
LINE
  5
BD3E
  8
01
 10
-193.2848120458857
 20
-412.23970259568881
 30
0.0
 11
-195.1598120458857
 21
-405.61469823288178
 31
0.0
  0
LINE
  5
BD3F
  8
01
 10
-193.2848120458857
 20
-412.23970259568881
 30
0.0
 11
-191.4098120458857
 21
-405.61470695836272
 31
0.0
  0
LINE
  5
BD40
  8
01
 10
-189.2848120458855
 20
-392.53971190281521
 30
0.0
 11
-197.2848120458855
 21
-392.53969328845602
 31
0.0
  0
LINE
  5
BD41
  8
01
 10
-190.7848120458857
 20
-395.6147084126095
 30
0.0
 11
-195.7848120458857
 21
-396.61469677863778
 31
0.0
  0
LINE
  5
BD42
  8
01
 10
-190.7848120458857
 20
-399.6147084126095
 30
0.0
 11
-195.7848120458857
 21
-400.61469677863772
 31
0.0
  0
LINE
  5
BD43
  8
01
 10
-190.7848120458857
 20
-397.61470841260979
 30
0.0
 11
-195.7848120458857
 21
-398.61469677863801
 31
0.0
  0
LINE
  5
BD44
  8
01
 10
-190.7848120458857
 20
-403.61470841260962
 30
0.0
 11
-195.7848120458857
 21
-404.61469677863772
 31
0.0
  0
LINE
  5
BD45
  8
01
 10
-195.50180323063071
 20
-406.61469743714122
 30
0.0
 11
-194.83106106154179
 21
-406.77628580917838
 31
0.0
  0
LINE
  5
BD46
  8
01
 10
-190.7848120458857
 20
-405.6147084126095
 30
0.0
 11
-195.50180323063071
 21
-406.61469743714122
 31
0.0
  0
LINE
  5
BD47
  8
01
 10
-190.7848120458857
 20
-401.6147084126095
 30
0.0
 11
-195.7848120458857
 21
-402.61469677863772
 31
0.0
  0
LINE
  5
BD48
  8
01
 10
-195.7848120458857
 20
-396.61469677863778
 30
0.0
 11
-195.1598120458857
 21
-396.73969823288411
 31
0.0
  0
LINE
  5
BD49
  8
01
 10
-195.7848120458857
 20
-400.61469677863772
 30
0.0
 11
-195.1598120458857
 21
-400.73969823288411
 31
0.0
  0
LINE
  5
BD4A
  8
01
 10
-195.7848120458857
 20
-398.61469677863801
 30
0.0
 11
-195.1598120458857
 21
-398.73969823288439
 31
0.0
  0
LINE
  5
BD4B
  8
01
 10
-195.7848120458857
 20
-404.61469677863772
 30
0.0
 11
-195.1598120458857
 21
-404.73969823288428
 31
0.0
  0
LINE
  5
BD4C
  8
01
 10
-195.7848120458857
 20
-402.61469677863772
 30
0.0
 11
-195.1598120458857
 21
-402.739698232884
 31
0.0
  0
LINE
  5
BD4D
  8
01
 10
-191.93595529239661
 20
-407.47374520515922
 30
0.0
 11
-191.35083222345889
 21
-407.61470709559683
 31
0.0
  0
LINE
  5
BD4E
  8
01
 10
-194.36976796961341
 20
-410.6147000711552
 30
0.0
 11
-193.63442225081059
 21
-411.00441239147028
 31
0.0
  0
LINE
  5
BD4F
  8
01
 10
-192.48831390930809
 20
-409.42541103304109
 30
0.0
 11
-191.9168491085193
 21
-409.61470577859137
 31
0.0
  0
LINE
  5
BD50
  8
01
 10
-194.9357856001221
 20
-408.61469875414821
 30
0.0
 11
-194.24609877036801
 21
-408.84315393243321
 31
0.0
  0
LINE
  5
BD51
  8
01
 10
-191.9168491085193
 20
-409.61470577859137
 30
0.0
 11
-194.36976796961341
 21
-410.6147000711552
 31
0.0
  0
LINE
  5
BD52
  8
01
 10
-191.35083222345889
 20
-407.61470709559683
 30
0.0
 11
-194.9357856001221
 21
-408.61469875414821
 31
0.0
  0
LINE
  5
BD53
  8
01
 10
-191.4098120458857
 20
-395.48970695836317
 30
0.0
 11
-190.7848120458857
 21
-395.6147084126095
 31
0.0
  0
LINE
  5
BD54
  8
01
 10
-191.4098120458857
 20
-401.48970695836289
 30
0.0
 11
-190.7848120458857
 21
-401.6147084126095
 31
0.0
  0
LINE
  5
BD55
  8
01
 10
-191.4098120458857
 20
-399.48970695836317
 30
0.0
 11
-190.7848120458857
 21
-399.6147084126095
 31
0.0
  0
LINE
  5
BD56
  8
01
 10
-191.4098120458857
 20
-397.48970695836329
 30
0.0
 11
-190.7848120458857
 21
-397.61470841260979
 31
0.0
  0
LINE
  5
BD57
  8
01
 10
-191.4098120458857
 20
-403.48970695836317
 30
0.0
 11
-190.7848120458857
 21
-403.61470841260962
 31
0.0
  0
LINE
  5
BD58
  8
01
 10
-191.4098120458857
 20
-405.48970695836317
 30
0.0
 11
-190.7848120458857
 21
-405.6147084126095
 31
0.0
  0
LINE
  5
BD59
  8
01
 10
-198.28377915717661
 20
-392.5395125739326
 30
0.0
 11
-199.78377915741461
 21
-394.03950210315401
 31
0.0
  0
LINE
  5
BD5A
  8
01
 10
-198.28377915717661
 20
-392.5395125739326
 30
0.0
 11
-198.28377915714091
 21
-392.31451257393201
 31
0.0
  0
LINE
  5
BD5B
  8
01
 10
-198.28377915714091
 20
-392.31451257393201
 30
0.0
 11
-204.28377915714091
 21
-392.3144986122108
 31
0.0
  0
LINE
  5
BD5C
  8
01
 10
-204.28377915717661
 20
-392.53949861221162
 30
0.0
 11
-204.28377915714091
 21
-392.3144986122108
 31
0.0
  0
LINE
  5
BD5D
  8
01
 10
-204.28377915717661
 20
-392.53949861221162
 30
0.0
 11
-202.78377915741461
 21
-394.03951606351268
 31
0.0
  0
LINE
  5
BD5E
  8
01
 10
-198.28377915717661
 20
-392.5395125739326
 30
0.0
 11
-204.28377915717661
 21
-392.53949861221162
 31
0.0
  0
LINE
  5
BD5F
  8
01
 10
-202.7837791594728
 20
-407.01450210264193
 30
0.0
 11
-202.7837791574143
 21
-394.03951606351319
 31
0.0
  0
LINE
  5
BD60
  8
01
 10
-199.7837791594728
 20
-407.01450908350262
 30
0.0
 11
-199.78377915741461
 21
-394.03950210315372
 31
0.0
  0
LINE
  5
BD61
  8
01
 10
-201.2837791603136
 20
-412.3145055931256
 30
0.0
 11
-202.7837791594728
 21
-407.01450210264193
 31
0.0
  0
LINE
  5
BD62
  8
01
 10
-201.2837791603136
 20
-412.3145055931256
 30
0.0
 11
-199.7837791594728
 21
-407.01450908350262
 31
0.0
  0
LINE
  5
BD63
  8
01
 10
-199.2837791576961
 20
-395.81451024697941
 30
0.0
 11
-203.28377915782309
 21
-396.61450093916312
 31
0.0
  0
LINE
  5
BD64
  8
01
 10
-203.28377915782309
 20
-396.61450093916312
 30
0.0
 11
-202.78377915783889
 21
-396.71450210264021
 31
0.0
  0
LINE
  5
BD65
  8
01
 10
-199.28377915820371
 20
-399.0145102469794
 30
0.0
 11
-203.2837791583307
 21
-399.81450093916749
 31
0.0
  0
LINE
  5
BD66
  8
01
 10
-199.28377915794999
 20
-397.41451024697949
 30
0.0
 11
-203.2837791580769
 21
-398.21450093916752
 31
0.0
  0
LINE
  5
BD67
  8
01
 10
-199.28377915871141
 20
-402.21451024697939
 30
0.0
 11
-203.28377915883831
 21
-403.01450093916748
 31
0.0
  0
LINE
  5
BD68
  8
01
 10
-199.28377915845761
 20
-400.61451024697948
 30
0.0
 11
-203.28377915858451
 21
-401.41450093916751
 31
0.0
  0
LINE
  5
BD69
  8
01
 10
-199.28377915921899
 20
-405.41451024697938
 30
0.0
 11
-203.2837791593459
 21
-406.21450093916752
 31
0.0
  0
LINE
  5
BD6A
  8
01
 10
-203.05737210739579
 20
-407.81450146600599
 30
0.0
 11
-202.5207783721452
 21
-407.94377216372101
 31
0.0
  0
LINE
  5
BD6B
  8
01
 10
-199.2837791594728
 20
-407.01451024697928
 30
0.0
 11
-203.05737210739579
 21
-407.81450146600599
 31
0.0
  0
LINE
  5
BD6C
  8
01
 10
-199.28377915896519
 20
-403.8145102469793
 30
0.0
 11
-203.28377915909209
 21
-404.61450093916739
 31
0.0
  0
LINE
  5
BD6D
  8
01
 10
-203.2837791583307
 20
-399.81450093916749
 30
0.0
 11
-202.7837791583465
 21
-399.91450210264389
 31
0.0
  0
LINE
  5
BD6E
  8
01
 10
-203.2837791580769
 20
-398.21450093916752
 30
0.0
 11
-202.7837791580927
 21
-398.31450210264398
 31
0.0
  0
LINE
  5
BD6F
  8
01
 10
-203.28377915883831
 20
-403.01450093916748
 30
0.0
 11
-202.78377915885409
 21
-403.11450210264388
 31
0.0
  0
LINE
  5
BD70
  8
01
 10
-203.28377915858451
 20
-401.41450093916751
 30
0.0
 11
-202.78377915860031
 21
-401.51450210264397
 31
0.0
  0
LINE
  5
BD71
  8
01
 10
-203.2837791593459
 20
-406.21450093916752
 30
0.0
 11
-202.78377915936181
 21
-406.31450210264393
 31
0.0
  0
LINE
  5
BD72
  8
01
 10
-203.28377915909209
 20
-404.61450093916739
 30
0.0
 11
-202.78377915910801
 21
-404.71450210264379
 31
0.0
  0
LINE
  5
BD73
  8
01
 10
-200.20469375691761
 20
-408.50173968087307
 30
0.0
 11
-199.7365953017854
 21
-408.61450919329741
 31
0.0
  0
LINE
  5
BD74
  8
01
 10
-202.15174389908981
 20
-411.01450357336103
 30
0.0
 11
-201.56346732409699
 21
-411.32627342970642
 31
0.0
  0
LINE
  5
BD75
  8
01
 10
-200.64658065069449
 20
-410.06307234310839
 30
0.0
 11
-200.18940881008751
 21
-410.21450813962139
 31
0.0
  0
LINE
  5
BD76
  8
01
 10
-202.6045580032428
 20
-409.41450251968348
 30
0.0
 11
-202.0528085394686
 21
-409.59726666239908
 31
0.0
  0
LINE
  5
BD77
  8
01
 10
-200.18940881008751
 20
-410.21450813962139
 30
0.0
 11
-202.15174389908981
 21
-411.01450357336103
 31
0.0
  0
LINE
  5
BD78
  8
01
 10
-199.7365953017854
 20
-408.61450919329741
 30
0.0
 11
-202.6045580032428
 21
-409.41450251968348
 31
0.0
  0
LINE
  5
BD79
  8
01
 10
-199.78377915818791
 20
-398.91450908350299
 30
0.0
 11
-199.28377915820371
 21
-399.0145102469794
 31
0.0
  0
LINE
  5
BD7A
  8
01
 10
-199.78377915793411
 20
-397.3145090835024
 30
0.0
 11
-199.28377915794999
 21
-397.41451024697949
 31
0.0
  0
LINE
  5
BD7B
  8
01
 10
-199.7837791589493
 20
-403.71450908350289
 30
0.0
 11
-199.28377915896519
 21
-403.8145102469793
 31
0.0
  0
LINE
  5
BD7C
  8
01
 10
-199.78377915869549
 20
-402.11450908350298
 30
0.0
 11
-199.28377915871141
 21
-402.21451024697939
 31
0.0
  0
LINE
  5
BD7D
  8
01
 10
-199.78377915844169
 20
-400.51450908350313
 30
0.0
 11
-199.28377915845761
 21
-400.61451024697948
 31
0.0
  0
LINE
  5
BD7E
  8
01
 10
-199.78377915920311
 20
-405.31450908350303
 30
0.0
 11
-199.28377915921899
 21
-405.41451024697938
 31
0.0
  0
LINE
  5
BD7F
  8
01
 10
-199.78377915945691
 20
-406.91450908350288
 30
0.0
 11
-199.2837791594728
 21
-407.01451024697928
 31
0.0
  0
LINE
  5
BD80
  8
01
 10
-199.7837791576803
 20
-395.71450908350249
 30
0.0
 11
-199.2837791576961
 21
-395.81451024697941
 31
0.0
  0
LINE
  5
BD81
  8
01
 10
-199.2837791574423
 20
-394.21451024697922
 30
0.0
 11
-203.28377915756931
 21
-395.01450093916287
 31
0.0
  0
LINE
  5
BD82
  8
01
 10
-203.28377915756931
 20
-395.01450093916287
 30
0.0
 11
-202.78377915758509
 21
-395.11450210264007
 31
0.0
  0
LINE
  5
BD83
  8
01
 10
-199.78377915742641
 20
-394.1145090835023
 30
0.0
 11
-199.2837791574423
 21
-394.21451024697922
 31
0.0
  0
LINE
  5
BD84
  8
01
 10
-394.8485865499544
 20
-362.5401135463037
 30
0.0
 11
-368.79748948329939
 21
-362.54011354630541
 31
0.0
  0
LINE
  5
BD85
  8
01
 10
-369.697694426184
 20
-365.54011354630529
 30
0.0
 11
-371.19768395564307
 21
-364.04011354630512
 31
0.0
  0
LINE
  5
BD86
  8
01
 10
-369.697694426184
 20
-365.54011354630529
 30
0.0
 11
-369.47269442618352
 21
-365.54011354630529
 31
0.0
  0
LINE
  5
BD87
  8
01
 10
-369.47269442618352
 20
-365.54011354630529
 30
0.0
 11
-369.47268046541308
 21
-359.54011354630529
 31
0.0
  0
LINE
  5
BD88
  8
01
 10
-369.6976804654139
 20
-359.54011354630529
 30
0.0
 11
-369.47268046541308
 21
-359.54011354630529
 31
0.0
  0
LINE
  5
BD89
  8
01
 10
-369.6976804654139
 20
-359.54011354630529
 30
0.0
 11
-371.19769791647741
 21
-361.04011354630501
 31
0.0
  0
LINE
  5
BD8A
  8
01
 10
-369.697694426184
 20
-365.54011354630529
 30
0.0
 11
-369.6976804654139
 21
-359.54011354630529
 31
0.0
  0
LINE
  5
BD8B
  8
01
 10
-389.17268395562331
 20
-361.04011354630268
 30
0.0
 11
-371.19769791647781
 21
-361.04011354630529
 31
0.0
  0
LINE
  5
BD8C
  8
01
 10
-389.17269093601072
 20
-364.04011354630279
 30
0.0
 11
-371.19768395564267
 21
-364.04011354630512
 31
0.0
  0
LINE
  5
BD8D
  8
01
 10
-394.47268744587069
 20
-362.54011354630239
 30
0.0
 11
-389.17268395562331
 21
-361.04011354630268
 31
0.0
  0
LINE
  5
BD8E
  8
01
 10
-394.47268744587069
 20
-362.54011354630239
 30
0.0
 11
-389.17269093601072
 21
-364.04011354630279
 31
0.0
  0
LINE
  5
BD8F
  8
01
 10
-372.97269209938941
 20
-364.54011354630478
 30
0.0
 11
-373.77268279220692
 21
-360.54011354630472
 31
0.0
  0
LINE
  5
BD90
  8
01
 10
-373.77268279220692
 20
-360.54011354630472
 30
0.0
 11
-373.87268395560483
 21
-361.04011354630472
 31
0.0
  0
LINE
  5
BD91
  8
01
 10
-376.17269209938922
 20
-364.54011354630438
 30
0.0
 11
-376.97268279221117
 21
-360.54011354630433
 31
0.0
  0
LINE
  5
BD92
  8
01
 10
-374.57269209938931
 20
-364.54011354630472
 30
0.0
 11
-375.37268279221132
 21
-360.54011354630461
 31
0.0
  0
LINE
  5
BD93
  8
01
 10
-379.3726920993895
 20
-364.54011354630399
 30
0.0
 11
-380.1726827922115
 21
-360.54011354630393
 31
0.0
  0
LINE
  5
BD94
  8
01
 10
-377.77269209938959
 20
-364.54011354630421
 30
0.0
 11
-378.57268279221159
 21
-360.54011354630421
 31
0.0
  0
LINE
  5
BD95
  8
01
 10
-382.57269209938931
 20
-364.54011354630359
 30
0.0
 11
-383.37268279221132
 21
-360.54011354630347
 31
0.0
  0
LINE
  5
BD96
  8
01
 10
-389.97268331903228
 20
-360.76652059850687
 30
0.0
 11
-390.10195401666198
 21
-361.30311433377801
 31
0.0
  0
LINE
  5
BD97
  8
01
 10
-389.17269209940719
 20
-364.54011354630308
 30
0.0
 11
-389.97268331903228
 21
-360.76652059850687
 31
0.0
  0
LINE
  5
BD98
  8
01
 10
-380.97269209938941
 20
-364.54011354630381
 30
0.0
 11
-381.77268279221141
 21
-360.5401135463037
 31
0.0
  0
LINE
  5
BD99
  8
01
 10
-376.97268279221117
 20
-360.54011354630433
 30
0.0
 11
-377.07268395560868
 21
-361.04011354630433
 31
0.0
  0
LINE
  5
BD9A
  8
01
 10
-375.37268279221132
 20
-360.54011354630461
 30
0.0
 11
-375.47268395560877
 21
-361.04011354630461
 31
0.0
  0
LINE
  5
BD9B
  8
01
 10
-380.1726827922115
 20
-360.54011354630393
 30
0.0
 11
-380.2726839556085
 21
-361.04011354630393
 31
0.0
  0
LINE
  5
BD9C
  8
01
 10
-378.57268279221159
 20
-360.54011354630421
 30
0.0
 11
-378.67268395560859
 21
-361.0401135463041
 31
0.0
  0
LINE
  5
BD9D
  8
01
 10
-383.37268279221132
 20
-360.54011354630347
 30
0.0
 11
-383.47268395560877
 21
-361.04011354630347
 31
0.0
  0
LINE
  5
BD9E
  8
01
 10
-381.77268279221141
 20
-360.5401135463037
 30
0.0
 11
-381.87268395560841
 21
-361.0401135463037
 31
0.0
  0
LINE
  5
BD9F
  8
01
 10
-390.65992153344689
 20
-363.61919894909403
 30
0.0
 11
-390.77269104579699
 21
-364.08729740424411
 31
0.0
  0
LINE
  5
BDA0
  8
01
 10
-393.17268542624367
 20
-361.67214880732013
 30
0.0
 11
-393.48445528249562
 21
-362.26042538236243
 31
0.0
  0
LINE
  5
BDA1
  8
01
 10
-392.22125419575252
 20
-363.17731205556458
 30
0.0
 11
-392.3726899921927
 21
-363.6344838961956
 31
0.0
  0
LINE
  5
BDA2
  8
01
 10
-391.5726843726377
 20
-361.2193347029135
 30
0.0
 11
-391.75544851526581
 21
-361.77108416671672
 31
0.0
  0
LINE
  5
BDA3
  8
01
 10
-392.3726899921927
 20
-363.6344838961956
 30
0.0
 11
-393.17268542624367
 21
-361.67214880732013
 31
0.0
  0
LINE
  5
BDA4
  8
01
 10
-390.77269104579699
 20
-364.08729740424411
 30
0.0
 11
-391.5726843726377
 21
-361.2193347029135
 31
0.0
  0
LINE
  5
BDA5
  8
01
 10
-376.07269093599223
 20
-364.0401135463045
 30
0.0
 11
-376.17269209938922
 21
-364.54011354630438
 31
0.0
  0
LINE
  5
BDA6
  8
01
 10
-374.47269093599141
 20
-364.04011354630472
 30
0.0
 11
-374.57269209938931
 21
-364.54011354630472
 31
0.0
  0
LINE
  5
BDA7
  8
01
 10
-380.8726909359919
 20
-364.04011354630381
 30
0.0
 11
-380.97269209938941
 21
-364.54011354630381
 31
0.0
  0
LINE
  5
BDA8
  8
01
 10
-379.2726909359921
 20
-364.0401135463041
 30
0.0
 11
-379.3726920993895
 21
-364.54011354630399
 31
0.0
  0
LINE
  5
BDA9
  8
01
 10
-377.67269093599219
 20
-364.04011354630433
 30
0.0
 11
-377.77269209938959
 21
-364.54011354630421
 31
0.0
  0
LINE
  5
BDAA
  8
01
 10
-382.47269093599232
 20
-364.0401135463037
 30
0.0
 11
-382.57269209938931
 21
-364.54011354630359
 31
0.0
  0
LINE
  5
BDAB
  8
01
 10
-389.0726909360103
 20
-364.04011354630308
 30
0.0
 11
-389.17269209940719
 21
-364.54011354630308
 31
0.0
  0
LINE
  5
BDAC
  8
01
 10
-372.8726909359915
 20
-364.04011354630478
 30
0.0
 11
-372.97269209938941
 21
-364.54011354630478
 31
0.0
  0
LINE
  5
BDAD
  8
01
 10
-371.37269209938898
 20
-364.54011354630512
 30
0.0
 11
-372.1726827922069
 21
-360.54011354630501
 31
0.0
  0
LINE
  5
BDAE
  8
01
 10
-372.1726827922069
 20
-360.54011354630501
 30
0.0
 11
-372.27268395560492
 21
-361.04011354630501
 31
0.0
  0
LINE
  5
BDAF
  8
01
 10
-371.27269093599159
 20
-364.04011354630512
 30
0.0
 11
-371.37269209938898
 21
-364.54011354630512
 31
0.0
  0
LINE
  5
BDB0
  8
01
 10
-394.84858654995372
 20
-351.5401205267695
 30
0.0
 11
-368.79748948329888
 21
-351.54012052677109
 31
0.0
  0
LINE
  5
BDB1
  8
01
 10
-369.6976944261836
 20
-354.54012052677098
 30
0.0
 11
-371.19768395564267
 21
-353.04012052677081
 31
0.0
  0
LINE
  5
BDB2
  8
01
 10
-369.6976944261836
 20
-354.54012052677098
 30
0.0
 11
-369.47269442618301
 21
-354.54012052677098
 31
0.0
  0
LINE
  5
BDB3
  8
01
 10
-369.47269442618301
 20
-354.54012052677098
 30
0.0
 11
-369.47268046541262
 21
-348.54012052677098
 31
0.0
  0
LINE
  5
BDB4
  8
01
 10
-369.6976804654135
 20
-348.54012052677098
 30
0.0
 11
-369.47268046541262
 21
-348.54012052677098
 31
0.0
  0
LINE
  5
BDB5
  8
01
 10
-369.6976804654135
 20
-348.54012052677098
 30
0.0
 11
-371.19769791647701
 21
-350.04012052677081
 31
0.0
  0
LINE
  5
BDB6
  8
01
 10
-369.6976944261836
 20
-354.54012052677098
 30
0.0
 11
-369.6976804654135
 21
-348.54012052677098
 31
0.0
  0
LINE
  5
BDB7
  8
01
 10
-389.17268395562292
 20
-350.04012052676842
 30
0.0
 11
-371.19769791647741
 21
-350.04012052677098
 31
0.0
  0
LINE
  5
BDB8
  8
01
 10
-389.17269093601021
 20
-353.04012052676859
 30
0.0
 11
-371.19768395564222
 21
-353.04012052677081
 31
0.0
  0
LINE
  5
BDB9
  8
01
 10
-394.47268744587018
 20
-351.54012052676808
 30
0.0
 11
-389.17268395562292
 21
-350.04012052676842
 31
0.0
  0
LINE
  5
BDBA
  8
01
 10
-394.47268744587018
 20
-351.54012052676808
 30
0.0
 11
-389.17269093601021
 21
-353.04012052676859
 31
0.0
  0
LINE
  5
BDBB
  8
01
 10
-372.97269209938889
 20
-353.54012052677058
 30
0.0
 11
-373.77268279220641
 21
-349.54012052677052
 31
0.0
  0
LINE
  5
BDBC
  8
01
 10
-373.77268279220641
 20
-349.54012052677052
 30
0.0
 11
-373.87268395560432
 21
-350.04012052677052
 31
0.0
  0
LINE
  5
BDBD
  8
01
 10
-376.17269209938883
 20
-353.54012052677018
 30
0.0
 11
-376.97268279221078
 21
-349.54012052677012
 31
0.0
  0
LINE
  5
BDBE
  8
01
 10
-374.57269209938892
 20
-353.54012052677041
 30
0.0
 11
-375.37268279221081
 21
-349.54012052677029
 31
0.0
  0
LINE
  5
BDBF
  8
01
 10
-379.37269209938898
 20
-353.54012052676978
 30
0.0
 11
-380.17268279221099
 21
-349.54012052676973
 31
0.0
  0
LINE
  5
BDC0
  8
01
 10
-377.77269209938908
 20
-353.5401205267699
 30
0.0
 11
-378.5726827922112
 21
-349.5401205267699
 31
0.0
  0
LINE
  5
BDC1
  8
01
 10
-382.57269209938892
 20
-353.54012052676927
 30
0.0
 11
-383.37268279221092
 21
-349.54012052676927
 31
0.0
  0
LINE
  5
BDC2
  8
01
 10
-389.97268331903177
 20
-349.76652757897273
 30
0.0
 11
-390.10195401666152
 21
-350.3031213142437
 31
0.0
  0
LINE
  5
BDC3
  8
01
 10
-389.17269209940679
 20
-353.54012052676882
 30
0.0
 11
-389.97268331903177
 21
-349.76652757897273
 31
0.0
  0
LINE
  5
BDC4
  8
01
 10
-380.97269209938901
 20
-353.5401205267695
 30
0.0
 11
-381.7726827922109
 21
-349.5401205267695
 31
0.0
  0
LINE
  5
BDC5
  8
01
 10
-376.97268279221078
 20
-349.54012052677012
 30
0.0
 11
-377.07268395560823
 21
-350.04012052677012
 31
0.0
  0
LINE
  5
BDC6
  8
01
 10
-375.37268279221081
 20
-349.54012052677029
 30
0.0
 11
-375.47268395560832
 21
-350.04012052677029
 31
0.0
  0
LINE
  5
BDC7
  8
01
 10
-380.17268279221099
 20
-349.54012052676973
 30
0.0
 11
-380.2726839556081
 21
-350.04012052676973
 31
0.0
  0
LINE
  5
BDC8
  8
01
 10
-378.5726827922112
 20
-349.5401205267699
 30
0.0
 11
-378.67268395560808
 21
-350.04012052676978
 31
0.0
  0
LINE
  5
BDC9
  8
01
 10
-383.37268279221092
 20
-349.54012052676927
 30
0.0
 11
-383.47268395560832
 21
-350.04012052676921
 31
0.0
  0
LINE
  5
BDCA
  8
01
 10
-381.7726827922109
 20
-349.5401205267695
 30
0.0
 11
-381.8726839556079
 21
-350.04012052676939
 31
0.0
  0
LINE
  5
BDCB
  8
01
 10
-390.65992153344649
 20
-352.61920592955983
 30
0.0
 11
-390.77269104579648
 21
-353.0873043847098
 31
0.0
  0
LINE
  5
BDCC
  8
01
 10
-393.17268542624322
 20
-350.67215578778593
 30
0.0
 11
-393.48445528249522
 21
-351.26043236282811
 31
0.0
  0
LINE
  5
BDCD
  8
01
 10
-392.22125419575201
 20
-352.17731903603033
 30
0.0
 11
-392.37268999219231
 21
-352.63449087666129
 31
0.0
  0
LINE
  5
BDCE
  8
01
 10
-391.5726843726373
 20
-350.21934168337918
 30
0.0
 11
-391.75544851526541
 21
-350.7710911471824
 31
0.0
  0
LINE
  5
BDCF
  8
01
 10
-392.37268999219231
 20
-352.63449087666129
 30
0.0
 11
-393.17268542624322
 21
-350.67215578778593
 31
0.0
  0
LINE
  5
BDD0
  8
01
 10
-390.77269104579648
 20
-353.0873043847098
 30
0.0
 11
-391.5726843726373
 21
-350.21934168337918
 31
0.0
  0
LINE
  5
BDD1
  8
01
 10
-376.07269093599177
 20
-353.04012052677018
 30
0.0
 11
-376.17269209938883
 21
-353.54012052677018
 31
0.0
  0
LINE
  5
BDD2
  8
01
 10
-374.47269093599101
 20
-353.04012052677041
 30
0.0
 11
-374.57269209938892
 21
-353.54012052677041
 31
0.0
  0
LINE
  5
BDD3
  8
01
 10
-380.8726909359915
 20
-353.04012052676961
 30
0.0
 11
-380.97269209938901
 21
-353.5401205267695
 31
0.0
  0
LINE
  5
BDD4
  8
01
 10
-379.27269093599159
 20
-353.04012052676978
 30
0.0
 11
-379.37269209938898
 21
-353.54012052676978
 31
0.0
  0
LINE
  5
BDD5
  8
01
 10
-377.67269093599168
 20
-353.04012052677001
 30
0.0
 11
-377.77269209938908
 21
-353.5401205267699
 31
0.0
  0
LINE
  5
BDD6
  8
01
 10
-382.47269093599181
 20
-353.04012052676939
 30
0.0
 11
-382.57269209938892
 21
-353.54012052676927
 31
0.0
  0
LINE
  5
BDD7
  8
01
 10
-389.07269093600979
 20
-353.04012052676882
 30
0.0
 11
-389.17269209940679
 21
-353.54012052676882
 31
0.0
  0
LINE
  5
BDD8
  8
01
 10
-372.87269093599099
 20
-353.04012052677058
 30
0.0
 11
-372.97269209938889
 21
-353.54012052677058
 31
0.0
  0
LINE
  5
BDD9
  8
01
 10
-371.37269209938859
 20
-353.54012052677081
 30
0.0
 11
-372.1726827922065
 21
-349.54012052677069
 31
0.0
  0
LINE
  5
BDDA
  8
01
 10
-372.1726827922065
 20
-349.54012052677069
 30
0.0
 11
-372.27268395560441
 21
-350.04012052677069
 31
0.0
  0
LINE
  5
BDDB
  8
01
 10
-371.27269093599108
 20
-353.04012052677081
 30
0.0
 11
-371.37269209938859
 21
-353.54012052677081
 31
0.0
  0
TEXT
  5
BEF3
  8
01
 10
-406.17665684908411
 20
-273.64464927354709
 30
0.0
 40
4.0
  1
サテンニッケル
 72
     1
 11
-389.9099901824174
 21
-273.64464927354709
 31
0.0
  0
TEXT
  5
BEF4
  8
01
 10
-364.77493540335939
 20
-273.83373566197668
 30
0.0
 40
4.0
  1
AC-812-XNK
 41
0.8
 72
     1
 11
-348.62255445097838
 21
-273.83373566197668
 31
0.0
  0
TEXT
  5
BEF5
  8
01
 10
-406.17665684908491
 20
-280.64464927354709
 30
0.0
 40
4.0
  1
ライトゴールド
 72
     1
 11
-389.9099901824182
 21
-280.64464927354709
 31
0.0
  0
TEXT
  5
BEF6
  8
01
 10
-365.22650126700779
 20
-280.83373566197668
 30
0.0
 40
4.0
  1
AC-812-2MK
 41
0.8
 72
     1
 11
-348.92173936224589
 21
-280.83373566197668
 31
0.0
  0
TEXT
  5
BF28
  8
01
 10
-410.30999018241641
 20
-242.13373566197629
 30
0.0
 40
7.0
  1
AC-812-XXK
 41
1.0098214000000001
  0
LINE
  5
C075
  8
01
 10
-105.3930668108064
 20
-375.94012233692928
 30
0.0
 11
-119.234124121606
 21
-375.94012310554842
 31
0.0
  0
ARC
  5
C076
  8
01
 10
-105.3930667552745
 20
-376.94012233692928
 30
0.0
 40
1.0
 50
0.0
 51
90.000003181745043
  0
LINE
  5
C078
  8
01
 10
-136.8930667552674
 20
-394.94012285062138
 30
0.0
 11
-136.8930667552676
 21
-391.44012285061729
 31
0.0
  0
ARC
  5
C079
  8
01
 10
-135.8930667552676
 20
-391.44012285061729
 30
0.0
 40
1.0
 50
90.0
 51
180.0
  0
LINE
  5
C07A
  8
01
 10
-133.9330456184997
 20
-377.94012323967922
 30
0.0
 11
-133.9330456184997
 21
-389.44012325935728
 31
0.0
  0
ARC
  5
C07B
  8
01
 10
-131.9330456184997
 20
-377.94012323967928
 30
0.0
 40
2.0
 50
90.000000605181896
 51
180.0
  0
LINE
  5
C07C
  8
01
 10
-119.23412426968839
 20
-375.94012310554842
 30
0.0
 11
-131.9330456396244
 21
-375.94012323967928
 31
0.0
  0
LINE
  5
C07D
  8
01
 10
-101.1430667552674
 20
-383.44012285061677
 30
0.0
 11
-101.1430667552674
 21
-388.44012285061672
 31
0.0
  0
LINE
  5
C07E
  8
01
 10
-104.39306675527109
 20
-394.94012285061712
 30
0.0
 11
-136.8930667552674
 21
-394.94012285062138
 31
0.0
  0
LINE
  5
C07F
  8
01
 10
-102.1430667552676
 20
-382.44012285061677
 30
0.0
 11
-103.3930667552743
 21
-382.44012285061717
 31
0.0
  0
ARC
  5
C080
  8
01
 10
-102.1430667552674
 20
-383.44012285061677
 30
0.0
 40
1.0
 50
0.0
 51
90.000000000026048
  0
LINE
  5
C081
  8
01
 10
-104.3930667552745
 20
-376.94012233692928
 30
0.0
 11
-104.3930667552745
 21
-381.44012285061717
 31
0.0
  0
ARC
  5
C082
  8
01
 10
-103.3930667552745
 20
-381.44012285061717
 30
0.0
 40
1.0
 50
180.0
 51
270.00000000002598
  0
LINE
  5
C083
  8
01
 10
-134.84306675526739
 20
-390.44012285061729
 30
0.0
 11
-135.8930667552676
 21
-390.44012285061729
 31
0.0
  0
LINE
  5
C084
  8
01
 10
-136.8930667552674
 20
-398.44012285062138
 30
0.0
 11
-136.8930667552674
 21
-395.44012285062138
 31
0.0
  0
LINE
  5
C085
  8
01
 10
-104.3930667552674
 20
-398.44012285062138
 30
0.0
 11
-104.3930667552674
 21
-395.44012285062138
 31
0.0
  0
LINE
  5
C086
  8
01
 10
-136.8930667552674
 20
-395.44012285062138
 30
0.0
 11
-104.3930667552674
 21
-395.44012285062138
 31
0.0
  0
LINE
  5
C088
  8
01
 10
-104.395116926005
 20
-398.44012285062138
 30
0.0
 11
-149.67452803337011
 21
-398.44012285062138
 31
0.0
  0
LINE
  5
C089
  8
01
 10
-108.1430667552674
 20
-395.44012285062138
 30
0.0
 11
-108.1430667552674
 21
-394.94012285061763
 31
0.0
  0
LINE
  5
C08A
  8
01
 10
-133.1430667552674
 20
-395.44012285062138
 30
0.0
 11
-133.1430667552674
 21
-394.94012285062092
 31
0.0
  0
LINE
  5
C08C
  8
01
 10
-102.1430667552652
 20
-389.44012285061672
 30
0.0
 11
-103.3930667552718
 21
-389.44012285061717
 31
0.0
  0
ARC
  5
C08D
  8
01
 10
-102.14306675526559
 20
-388.44012285061672
 30
0.0
 40
1.0
 50
270.00000000001961
 51
0.0
  0
ARC
  5
C08E
  8
01
 10
-103.39306675527121
 20
-390.44012285061717
 30
0.0
 40
1.0
 50
90.000000000019526
 51
180.00000000003911
  0
LINE
  5
C08F
  8
01
 10
-104.39306675527121
 20
-390.44012285061717
 30
0.0
 11
-104.39306675527109
 21
-394.94012285061712
 31
0.0
  0
LINE
  5
C092
  8
01
 10
-104.395116926005
 20
-398.44012285062138
 30
0.0
 11
-90.49901294518736
 21
-398.44012285062138
 31
0.0
  0
LINE
  5
C095
  8
01
 10
-120.64409184063619
 20
-391.88334884662652
 30
0.0
 11
-120.64409184063619
 21
-413.08042859216403
 31
0.0
  0
LINE
  5
C096
  8
01
 10
-128.64305895514241
 20
-405.0455281111312
 30
0.0
 11
-128.6430589551415
 21
-391.63930763057232
 31
0.0
  0
LINE
  5
C097
  8
01
 10
-116.64409184063619
 20
-392.23971190281429
 30
0.0
 11
-124.64409184063619
 21
-392.23969328845499
 31
0.0
  0
LINE
  5
C098
  8
01
 10
-124.64409184063619
 20
-392.53969328845602
 30
0.0
 11
-124.64409184063619
 21
-392.23969328845499
 31
0.0
  0
LINE
  5
C099
  8
01
 10
-116.64409184063619
 20
-392.53971190281521
 30
0.0
 11
-116.64409184063619
 21
-392.23971190281429
 31
0.0
  0
LINE
  5
C09A
  8
01
 10
-124.64409184063619
 20
-392.53969328845602
 30
0.0
 11
-122.51909184063641
 21
-394.66471801079553
 31
0.0
  0
LINE
  5
C09B
  8
01
 10
-116.64409184063619
 20
-392.53971190281521
 30
0.0
 11
-118.76909184063641
 21
-394.6646970695495
 31
0.0
  0
LINE
  5
C09C
  8
01
 10
-122.51909184063641
 20
-398.44012285062138
 30
0.0
 11
-122.51909184063641
 21
-394.66471801079553
 31
0.0
  0
LINE
  5
C09D
  8
01
 10
-118.76909184063641
 20
-398.44012285062138
 30
0.0
 11
-118.76909184063641
 21
-394.6646970695495
 31
0.0
  0
LINE
  5
C09E
  8
01
 10
-116.64409184063619
 20
-392.53971190281521
 30
0.0
 11
-124.64409184063619
 21
-392.53969328845602
 31
0.0
  0
LINE
  5
C09F
  8
01
 10
-118.14409184063641
 20
-395.6147084126095
 30
0.0
 11
-123.14409184063641
 21
-396.61469677863778
 31
0.0
  0
LINE
  5
C0A0
  8
01
 10
-118.14409184063641
 20
-397.61470841260979
 30
0.0
 11
-122.27121204549429
 21
-398.44012285062138
 31
0.0
  0
LINE
  5
C0A1
  8
01
 10
-123.14409184063641
 20
-396.61469677863778
 30
0.0
 11
-122.51909184063641
 21
-396.73969823288411
 31
0.0
  0
LINE
  5
C0A2
  8
01
 10
-118.76909184063641
 20
-395.48970695836317
 30
0.0
 11
-118.14409184063641
 21
-395.6147084126095
 31
0.0
  0
LINE
  5
C0A3
  8
01
 10
-118.76909184063641
 20
-397.48970695836329
 30
0.0
 11
-118.14409184063641
 21
-397.61470841260979
 31
0.0
  0
LINE
  5
C0A4
  8
01
 10
-125.6430589551416
 20
-392.5395125734571
 30
0.0
 11
-127.1430589551418
 21
-394.03950210291617
 31
0.0
  0
LINE
  5
C0A5
  8
01
 10
-125.6430589551416
 20
-392.5395125734571
 30
0.0
 11
-125.6430589551416
 21
-392.3145125734564
 31
0.0
  0
LINE
  5
C0A6
  8
01
 10
-125.6430589551416
 20
-392.3145125734564
 30
0.0
 11
-131.64305895514161
 21
-392.31449861268629
 31
0.0
  0
LINE
  5
C0A7
  8
01
 10
-131.6430589551417
 20
-392.53949861268711
 30
0.0
 11
-131.64305895514161
 21
-392.31449861268629
 31
0.0
  0
LINE
  5
C0A8
  8
01
 10
-131.6430589551417
 20
-392.53949861268711
 30
0.0
 11
-130.14305895514181
 21
-394.03951606375051
 31
0.0
  0
LINE
  5
C0A9
  8
01
 10
-125.6430589551416
 20
-392.5395125734571
 30
0.0
 11
-131.6430589551417
 21
-392.53949861268711
 31
0.0
  0
LINE
  5
C0AA
  8
01
 10
-130.14305895514229
 20
-399.01450210286509
 30
0.0
 11
-130.14305895514161
 21
-394.03951606375091
 31
0.0
  0
LINE
  5
C0AB
  8
01
 10
-127.14305895514249
 20
-399.01450908324608
 30
0.0
 11
-127.1430589551418
 21
-394.03950210291589
 31
0.0
  0
LINE
  5
C0AC
  8
01
 10
-128.64305895514369
 20
-404.31450559310861
 30
0.0
 11
-130.14305895514229
 21
-399.01450210286509
 31
0.0
  0
LINE
  5
C0AD
  8
01
 10
-128.64305895514369
 20
-404.31450559310861
 30
0.0
 11
-127.14305895514249
 21
-399.01450908324608
 31
0.0
  0
LINE
  5
C0AE
  8
01
 10
-126.643058955142
 20
-395.81451024666239
 30
0.0
 11
-130.64305895514221
 21
-396.61450093948008
 31
0.0
  0
LINE
  5
C0AF
  8
01
 10
-130.64305895514221
 20
-396.61450093948008
 30
0.0
 11
-130.1430589551421
 21
-396.71450210287787
 31
0.0
  0
LINE
  5
C0B0
  8
01
 10
-126.64305895514229
 20
-397.41451024666247
 30
0.0
 11
-130.64305895514241
 21
-398.21450093948448
 31
0.0
  0
LINE
  5
C0B1
  8
01
 10
-130.41665190293909
 20
-399.81450146627031
 30
0.0
 11
-129.8800581676681
 21
-399.94377216390018
 31
0.0
  0
LINE
  5
C0B2
  8
01
 10
-126.643058955143
 20
-399.01451024664539
 30
0.0
 11
-130.41665190293909
 21
-399.81450146627031
 31
0.0
  0
LINE
  5
C0B3
  8
01
 10
-130.64305895514241
 20
-398.21450093948448
 30
0.0
 11
-130.14305895514241
 21
-398.3145021028817
 31
0.0
  0
LINE
  5
C0B4
  8
01
 10
-127.563973552352
 20
-400.50173968068498
 30
0.0
 11
-127.0958750972019
 21
-400.61450919303519
 31
0.0
  0
LINE
  5
C0B5
  8
01
 10
-129.5110236941259
 20
-403.01450357348159
 30
0.0
 11
-128.92274711908371
 21
-403.32627342973382
 31
0.0
  0
LINE
  5
C0B6
  8
01
 10
-128.00586044588141
 20
-402.06307234299038
 30
0.0
 11
-127.5486886052505
 21
-402.2145081394309
 31
0.0
  0
LINE
  5
C0B7
  8
01
 10
-129.9638377985325
 20
-401.4145025198759
 30
0.0
 11
-129.41208833472939
 21
-401.59726666250401
 31
0.0
  0
LINE
  5
C0B8
  8
01
 10
-127.5486886052505
 20
-402.2145081394309
 30
0.0
 11
-129.5110236941259
 21
-403.01450357348159
 31
0.0
  0
LINE
  5
C0B9
  8
01
 10
-127.0958750972019
 20
-400.61450919303519
 30
0.0
 11
-129.9638377985325
 21
-401.4145025198759
 31
0.0
  0
LINE
  5
C0BA
  8
01
 10
-127.14305895514229
 20
-397.31450908326462
 30
0.0
 11
-126.64305895514229
 21
-397.41451024666247
 31
0.0
  0
LINE
  5
C0BB
  8
01
 10
-127.143058955143
 20
-398.91450908324822
 30
0.0
 11
-126.643058955143
 21
-399.01451024664539
 31
0.0
  0
LINE
  5
C0BC
  8
01
 10
-127.143058955142
 20
-395.71450908326472
 30
0.0
 11
-126.643058955142
 21
-395.81451024666239
 31
0.0
  0
LINE
  5
C0BD
  8
01
 10
-126.6430589551418
 20
-394.2145102466622
 30
0.0
 11
-130.64305895514201
 21
-395.01450093948
 31
0.0
  0
LINE
  5
C0BE
  8
01
 10
-130.64305895514201
 20
-395.01450093948
 30
0.0
 11
-130.14305895514201
 21
-395.11450210287779
 31
0.0
  0
LINE
  5
C0BF
  8
01
 10
-127.1430589551418
 20
-394.11450908326458
 30
0.0
 11
-126.6430589551418
 21
-394.2145102466622
 31
0.0
  0
LINE
  5
C0C1
  8
01
 10
-149.67452803337011
 20
-409.44012285062138
 30
0.0
 11
-124.64409184063631
 21
-409.44012285062138
 31
0.0
  0
LINE
  5
C0C2
  8
01
 10
-116.64409184063631
 20
-409.44012285062138
 30
0.0
 11
-90.49901294518736
 21
-409.44012285062138
 31
0.0
  0
LINE
  5
C0C3
  8
01
 10
-125.64409184063631
 20
-398.44012285062098
 30
0.0
 11
-115.64409184063631
 21
-398.44012285062098
 31
0.0
  0
LINE
  5
C0C4
  8
01
 10
-121.14409184063631
 20
-406.44012285062092
 30
0.0
 11
-120.14409184063631
 21
-406.44012285062092
 31
0.0
  0
LINE
  5
C0C5
  8
01
 10
-123.9327669752311
 20
-438.44012285062092
 30
0.0
 11
-121.14409184063631
 21
-438.44012285062092
 31
0.0
  0
LINE
  5
C0C6
  8
01
 10
-120.14409184063631
 20
-438.44012285062092
 30
0.0
 11
-117.3554167060413
 21
-438.44012285062092
 31
0.0
  0
LINE
  5
C0C7
  8
01
 10
-124.64409184063631
 20
-433.94012285062098
 30
0.0
 11
-122.64409184063631
 21
-433.94012285062098
 31
0.0
  0
LINE
  5
C0C8
  8
01
 10
-118.64409184063631
 20
-433.94012285062098
 30
0.0
 11
-116.64409184063631
 21
-433.94012285062098
 31
0.0
  0
LINE
  5
C0C9
  8
01
 10
-124.64409184063631
 20
-428.94012285062098
 30
0.0
 11
-122.64409184063631
 21
-428.94012285062098
 31
0.0
  0
LINE
  5
C0CA
  8
01
 10
-118.64409184063631
 20
-428.94012285062098
 30
0.0
 11
-116.64409184063631
 21
-428.94012285062098
 31
0.0
  0
LINE
  5
C0CB
  8
01
 10
-116.64409184063631
 20
-398.44012285062098
 30
0.0
 11
-116.64409184063631
 21
-409.78542231224139
 31
0.0
  0
LINE
  5
C0CC
  8
01
 10
-116.64409184063631
 20
-413.94012285062092
 30
0.0
 11
-116.64409184063631
 21
-415.78542231224179
 31
0.0
  0
LINE
  5
C0CD
  8
01
 10
-116.64409184063631
 20
-418.94012285062092
 30
0.0
 11
-116.64409184063631
 21
-420.78542231224139
 31
0.0
  0
LINE
  5
C0CE
  8
01
 10
-116.64409184063631
 20
-423.94012285062092
 30
0.0
 11
-116.64409184063631
 21
-425.78542231224139
 31
0.0
  0
LINE
  5
C0CF
  8
01
 10
-116.64409184063631
 20
-428.94012285062098
 30
0.0
 11
-116.64409184063631
 21
-430.78542231224191
 31
0.0
  0
LINE
  5
C0D0
  8
01
 10
-116.64409184063631
 20
-433.94012285062098
 30
0.0
 11
-116.64409184063631
 21
-435.78542231224179
 31
0.0
  0
LINE
  5
C0D1
  8
01
 10
-124.64409184063631
 20
-398.44012285062098
 30
0.0
 11
-124.64409184063631
 21
-409.78542231224191
 31
0.0
  0
LINE
  5
C0D2
  8
01
 10
-124.64409184063631
 20
-413.94012285062092
 30
0.0
 11
-124.64409184063631
 21
-415.78542231224179
 31
0.0
  0
LINE
  5
C0D3
  8
01
 10
-124.64409184063631
 20
-418.94012285062092
 30
0.0
 11
-124.64409184063631
 21
-420.78542231224139
 31
0.0
  0
LINE
  5
C0D4
  8
01
 10
-124.64409184063631
 20
-423.94012285062092
 30
0.0
 11
-124.64409184063631
 21
-425.78542231224139
 31
0.0
  0
LINE
  5
C0D5
  8
01
 10
-124.64409184063631
 20
-428.94012285062098
 30
0.0
 11
-124.64409184063631
 21
-430.78542231224191
 31
0.0
  0
LINE
  5
C0D6
  8
01
 10
-124.64409184063631
 20
-433.94012285062098
 30
0.0
 11
-124.64409184063631
 21
-435.78542231224179
 31
0.0
  0
LINE
  5
C0D7
  8
01
 10
-122.64409184063631
 20
-431.94012285062092
 30
0.0
 11
-122.64409184063631
 21
-433.94012285062098
 31
0.0
  0
LINE
  5
C0D8
  8
01
 10
-118.64409184063631
 20
-431.94012285062092
 30
0.0
 11
-118.64409184063631
 21
-433.94012285062098
 31
0.0
  0
LINE
  5
C0D9
  8
01
 10
-120.14409184063631
 20
-406.44012285062092
 30
0.0
 11
-120.14409184063631
 21
-438.44012285062092
 31
0.0
  0
LINE
  5
C0DA
  8
01
 10
-121.14409184063631
 20
-406.44012285062092
 30
0.0
 11
-121.14409184063631
 21
-438.44012285062092
 31
0.0
  0
LINE
  5
C0DB
  8
01
 10
-122.64409184063631
 20
-431.94012285062092
 30
0.0
 11
-124.64409184063631
 21
-430.78542231224191
 31
0.0
  0
LINE
  5
C0DC
  8
01
 10
-118.64409184063631
 20
-431.94012285062092
 30
0.0
 11
-116.64409184063631
 21
-430.78542231224191
 31
0.0
  0
LINE
  5
C0DD
  8
01
 10
-116.64409184063631
 20
-435.78542231224179
 30
0.0
 11
-120.14409184063631
 21
-435.78542231224179
 31
0.0
  0
LINE
  5
C0DE
  8
01
 10
-121.14409184063631
 20
-435.78542231224179
 30
0.0
 11
-124.64409184063631
 21
-435.78542231224179
 31
0.0
  0
LINE
  5
C0DF
  8
01
 10
-116.64409184063631
 20
-435.78542231224179
 30
0.0
 11
-117.35541670604159
 21
-438.44012285062092
 31
0.0
  0
LINE
  5
C0E0
  8
01
 10
-124.64409184063631
 20
-435.78542231224179
 30
0.0
 11
-123.9327669752311
 21
-438.44012285062092
 31
0.0
  0
LINE
  5
C0E1
  8
01
 10
-124.64409184063631
 20
-423.94012285062092
 30
0.0
 11
-122.64409184063631
 21
-423.94012285062092
 31
0.0
  0
LINE
  5
C0E2
  8
01
 10
-118.64409184063631
 20
-423.94012285062092
 30
0.0
 11
-116.64409184063631
 21
-423.94012285062092
 31
0.0
  0
LINE
  5
C0E3
  8
01
 10
-122.64409184063631
 20
-426.94012285062092
 30
0.0
 11
-122.64409184063631
 21
-428.94012285062098
 31
0.0
  0
LINE
  5
C0E4
  8
01
 10
-118.64409184063631
 20
-426.94012285062092
 30
0.0
 11
-118.64409184063631
 21
-428.94012285062098
 31
0.0
  0
LINE
  5
C0E5
  8
01
 10
-122.64409184063631
 20
-426.94012285062092
 30
0.0
 11
-124.64409184063631
 21
-425.78542231224191
 31
0.0
  0
LINE
  5
C0E6
  8
01
 10
-118.64409184063631
 20
-426.94012285062092
 30
0.0
 11
-116.64409184063631
 21
-425.78542231224191
 31
0.0
  0
LINE
  5
C0E7
  8
01
 10
-124.64409184063631
 20
-418.94012285062092
 30
0.0
 11
-122.64409184063631
 21
-418.94012285062092
 31
0.0
  0
LINE
  5
C0E8
  8
01
 10
-118.64409184063631
 20
-418.94012285062092
 30
0.0
 11
-116.64409184063631
 21
-418.94012285062092
 31
0.0
  0
LINE
  5
C0E9
  8
01
 10
-122.64409184063631
 20
-421.94012285062092
 30
0.0
 11
-122.64409184063631
 21
-423.94012285062092
 31
0.0
  0
LINE
  5
C0EA
  8
01
 10
-118.64409184063631
 20
-421.94012285062092
 30
0.0
 11
-118.64409184063631
 21
-423.94012285062092
 31
0.0
  0
LINE
  5
C0EB
  8
01
 10
-122.64409184063631
 20
-421.94012285062092
 30
0.0
 11
-124.64409184063631
 21
-420.78542231224191
 31
0.0
  0
LINE
  5
C0EC
  8
01
 10
-118.64409184063631
 20
-421.94012285062092
 30
0.0
 11
-116.64409184063631
 21
-420.78542231224191
 31
0.0
  0
LINE
  5
C0ED
  8
01
 10
-122.64409184063631
 20
-410.94012285062092
 30
0.0
 11
-122.64409184063631
 21
-418.94012285062092
 31
0.0
  0
LINE
  5
C0EE
  8
01
 10
-118.64409184063631
 20
-410.94012285062092
 30
0.0
 11
-118.64409184063631
 21
-418.94012285062092
 31
0.0
  0
LINE
  5
C0EF
  8
01
 10
-122.64409184063631
 20
-416.94012285062098
 30
0.0
 11
-124.64409184063631
 21
-415.78542231224179
 31
0.0
  0
LINE
  5
C0F0
  8
01
 10
-118.64409184063631
 20
-416.94012285062098
 30
0.0
 11
-116.64409184063631
 21
-415.78542231224179
 31
0.0
  0
LINE
  5
C0F1
  8
01
 10
-122.64409184063631
 20
-410.94012285062092
 30
0.0
 11
-124.64409184063631
 21
-409.78542231224191
 31
0.0
  0
LINE
  5
C0F2
  8
01
 10
-118.64409184063631
 20
-410.94012285062092
 30
0.0
 11
-116.64409184063631
 21
-409.78542231224191
 31
0.0
  0
LINE
  5
C0F3
  8
01
 10
-124.64409184063631
 20
-418.94012285062092
 30
0.0
 11
-128.68554372496379
 21
-411.94012285062098
 31
0.0
  0
LINE
  5
C0F4
  8
01
 10
-123.489391302257
 20
-418.94012285062092
 30
0.0
 11
-127.8195183211792
 21
-411.44012285062092
 31
0.0
  0
LINE
  5
C0F5
  8
01
 10
-116.64409184063631
 20
-413.94012285062092
 30
0.0
 11
-118.64409184063631
 21
-413.94012285062092
 31
0.0
  0
LINE
  5
C0F6
  8
01
 10
-122.64409184063631
 20
-413.94012285062092
 30
0.0
 11
-124.64409184063631
 21
-413.94012285062092
 31
0.0
  0
LINE
  5
C0F7
  8
01
 10
-127.8195183211792
 20
-411.44012285062092
 30
0.0
 11
-128.68554372496379
 21
-411.94012285062098
 31
0.0
  0
LINE
  5
C0F8
  8
01
 10
-116.64409184063609
 20
-418.94012285062092
 30
0.0
 11
-112.60263995630891
 21
-411.94012285062098
 31
0.0
  0
LINE
  5
C0F9
  8
01
 10
-117.7987923790154
 20
-418.94012285062092
 30
0.0
 11
-113.4686653600932
 21
-411.44012285062092
 31
0.0
  0
LINE
  5
C0FA
  8
01
 10
-124.64409184063631
 20
-404.44012285062098
 30
0.0
 11
-125.64409184063631
 21
-398.44012285062098
 31
0.0
  0
LINE
  5
C0FB
  8
01
 10
-115.64409184063631
 20
-398.44012285062098
 30
0.0
 11
-116.64409184063631
 21
-404.44012285062098
 31
0.0
  0
TEXT
  5
C100
  8
01
 10
-144.9336279811167
 20
-453.90048387101882
 30
0.0
 40
4.0
  1
コンクリート
  0
LINE
  5
C6B0
  8
01
 10
-209.53378696051669
 20
-398.44012285062189
 30
0.0
 11
-389.04983512427629
 21
-398.44012285062189
 31
0.0
  0
LINE
  5
C6B1
  8
01
 10
-222.31422315325059
 20
-409.44012285062178
 30
0.0
 11
-162.86824376102649
 21
-409.44012285062178
 31
0.0
  0
LINE
  5
C6B2
  8
01
 10
-177.03378696051669
 20
-398.44012285062138
 30
0.0
 11
-162.86824376102649
 21
-398.44012285062138
 31
0.0
  0
LINE
  5
C7EF
  8
01
 10
-384.17269209938922
 20
-364.54011354630347
 30
0.0
 11
-384.97268279221117
 21
-360.54011354630342
 31
0.0
  0
LINE
  5
C7F0
  8
01
 10
-384.97268279221117
 20
-360.54011354630342
 30
0.0
 11
-385.07268395560868
 21
-361.04011354630342
 31
0.0
  0
LINE
  5
C7F1
  8
01
 10
-384.07269093599223
 20
-364.04011354630347
 30
0.0
 11
-384.17269209938922
 21
-364.54011354630347
 31
0.0
  0
LINE
  5
C7F2
  8
01
 10
-384.17269209938883
 20
-353.54012052676921
 30
0.0
 11
-384.97268279221078
 21
-349.5401205267691
 31
0.0
  0
LINE
  5
C7F3
  8
01
 10
-384.97268279221078
 20
-349.5401205267691
 30
0.0
 11
-385.07268395560823
 21
-350.0401205267691
 31
0.0
  0
LINE
  5
C7F4
  8
01
 10
-384.07269093599177
 20
-353.04012052676927
 30
0.0
 11
-384.17269209938883
 21
-353.54012052676921
 31
0.0
  0
LINE
  5
C7F5
  8
01
 10
-385.77269209938908
 20
-364.54011354630342
 30
0.0
 11
-386.57268279221108
 21
-360.5401135463033
 31
0.0
  0
LINE
  5
C7F6
  8
01
 10
-386.57268279221108
 20
-360.5401135463033
 30
0.0
 11
-386.67268395560859
 21
-361.04011354630319
 31
0.0
  0
LINE
  5
C7F7
  8
01
 10
-385.67269093599208
 20
-364.04011354630342
 30
0.0
 11
-385.77269209938908
 21
-364.54011354630342
 31
0.0
  0
LINE
  5
C7F8
  8
01
 10
-385.77269209938868
 20
-353.5401205267691
 30
0.0
 11
-386.57268279221068
 21
-349.5401205267691
 31
0.0
  0
LINE
  5
C7F9
  8
01
 10
-386.57268279221068
 20
-349.5401205267691
 30
0.0
 11
-386.67268395560808
 21
-350.04012052676899
 31
0.0
  0
LINE
  5
C7FA
  8
01
 10
-385.67269093599168
 20
-353.04012052676921
 30
0.0
 11
-385.77269209938868
 21
-353.5401205267691
 31
0.0
  0
LINE
  5
C7FB
  8
01
 10
-387.37269209938898
 20
-364.54011354630319
 30
0.0
 11
-388.17268279221099
 21
-360.54011354630319
 31
0.0
  0
LINE
  5
C7FC
  8
01
 10
-388.17268279221099
 20
-360.54011354630319
 30
0.0
 11
-388.2726839556085
 21
-361.04011354630308
 31
0.0
  0
LINE
  5
C7FD
  8
01
 10
-387.27269093599199
 20
-364.0401135463033
 30
0.0
 11
-387.37269209938898
 21
-364.54011354630319
 31
0.0
  0
LINE
  5
C7FE
  8
01
 10
-387.37269209938859
 20
-353.54012052676899
 30
0.0
 11
-388.17268279221059
 21
-349.54012052676887
 31
0.0
  0
LINE
  5
C7FF
  8
01
 10
-388.17268279221059
 20
-349.54012052676887
 30
0.0
 11
-388.2726839556081
 21
-350.04012052676887
 31
0.0
  0
LINE
  5
C800
  8
01
 10
-387.27269093599159
 20
-353.04012052676899
 30
0.0
 11
-387.37269209938859
 21
-353.54012052676899
 31
0.0
  0
LINE
  5
C83C
  8
01
 10
-296.28378696051658
 20
-330.94012059779362
 30
0.0
 11
-296.28378696051658
 21
-385.94012059779328
 31
0.0
  0
LINE
  5
C83D
  8
01
 10
-306.28378696051669
 20
-330.94012059779368
 30
0.0
 11
-306.28378696051652
 21
-385.94012059779362
 31
0.0
  0
LINE
  5
C83E
  8
01
 10
-295.78378696051658
 20
-336.44012059779362
 30
0.0
 11
-295.78378696051658
 21
-372.44012052677112
 31
0.0
  0
LINE
  5
C83F
  8
01
 10
-306.78378696051652
 20
-336.44012059779362
 30
0.0
 11
-306.78378696051658
 21
-372.44012052677112
 31
0.0
  0
LINE
  5
C840
  8
01
 10
-306.78378696051652
 20
-336.44012059779362
 30
0.0
 11
-295.78378696051658
 21
-336.44012059779362
 31
0.0
  0
LINE
  5
C841
  8
01
 10
-306.78378696051658
 20
-372.44012052677112
 30
0.0
 11
-306.28378696051658
 21
-372.44012052677118
 31
0.0
  0
LINE
  5
C842
  8
01
 10
-296.28378696051658
 20
-372.44012052677112
 30
0.0
 11
-295.78378696051658
 21
-372.44012052677112
 31
0.0
  0
LINE
  5
C84F
  8
01
 10
-296.78378696051658
 20
-330.44012059779362
 30
0.0
 11
-305.78378696051658
 21
-330.44012059779362
 31
0.0
  0
LINE
  5
C850
  8
01
 10
-306.28378696051669
 20
-330.94012059779368
 30
0.0
 11
-305.78378696051658
 21
-330.44012059779362
 31
0.0
  0
LINE
  5
C851
  8
01
 10
-296.28378696051658
 20
-330.94012059779362
 30
0.0
 11
-296.78378696051658
 21
-330.44012059779362
 31
0.0
  0
LINE
  5
C927
  8
01
 10
-355.09769512427641
 20
-386.44012059779362
 30
0.0
 11
-364.09769512427641
 21
-386.44012059779362
 31
0.0
  0
LINE
  5
C928
  8
01
 10
-354.59769512427641
 20
-385.94012059779328
 30
0.0
 11
-355.09769512427641
 21
-386.44012059779362
 31
0.0
  0
LINE
  5
C929
  8
01
 10
-364.09769512427641
 20
-386.44012059779362
 30
0.0
 11
-364.59769512427641
 21
-385.94012059779362
 31
0.0
  0
LINE
  5
C92A
  8
01
 10
-355.09769512427641
 20
-386.44012059779362
 30
0.0
 11
-355.09769512427641
 21
-386.78958351545771
 31
0.0
  0
LINE
  5
C92B
  8
01
 10
-364.09769512427641
 20
-386.44012059779362
 30
0.0
 11
-364.09769512427641
 21
-386.78958351545748
 31
0.0
  0
ARC
  5
C92C
  8
01
 10
-359.59769512427619
 20
-381.04502086891972
 30
0.0
 40
7.4999999999994991
 50
279.5940682268913
 51
304.84990457905332
  0
ARC
  5
C92D
  8
01
 10
-355.59769512427619
 20
-386.78958351545771
 30
0.0
 40
0.5
 50
304.84990457905332
 51
0.0
  0
ARC
  5
C92E
  8
01
 10
-359.59769512427619
 20
-381.04502086891972
 30
0.0
 40
7.4999999999994991
 50
235.1500954209468
 51
260.40593177313508
  0
ARC
  5
C92F
  8
01
 10
-363.5976951242767
 20
-386.78958351545748
 30
0.0
 40
0.5
 50
180.0
 51
235.1500954209468
  0
LINE
  5
C930
  8
01
 10
-358.34769512427209
 20
-388.44012059779368
 30
0.0
 11
-360.84769512427641
 21
-388.44012059779368
 31
0.0
  0
ARC
  5
CB72
  8
01
 10
-301.28378696051658
 20
-351.54012059779342
 30
0.0
 40
2.1000000000000001
 50
0.0000000000032569
 51
180.0
  0
LINE
  5
CB73
  8
01
 10
-303.38378696051649
 20
-368.04012059779359
 30
0.0
 11
-303.38378696051649
 21
-362.54012059779359
 31
0.0
  0
LINE
  5
CB74
  8
01
 10
-303.38378696051649
 20
-357.04012059779342
 30
0.0
 11
-303.38378696051649
 21
-351.54012059779342
 31
0.0
  0
LINE
  5
CB75
  8
01
 10
-299.1837869605169
 20
-351.5401205977933
 30
0.0
 11
-299.1837869605165
 21
-357.04012059779319
 31
0.0
  0
LINE
  5
CB76
  8
01
 10
-299.1837869605165
 20
-362.54012059779348
 30
0.0
 11
-299.18378696051599
 21
-368.04012059779342
 31
0.0
  0
ARC
  5
CB77
  8
01
 10
-301.28378696051658
 20
-368.04012059779348
 30
0.0
 40
2.1000000000000001
 50
180.0
 51
0.0000000000032569
  0
ARC
  5
CB78
  8
01
 10
-301.28378696051658
 20
-362.54012059779348
 30
0.0
 40
2.1000000000000001
 50
0.0000000000032569
 51
180.0
  0
ARC
  5
CB79
  8
01
 10
-301.28378696051658
 20
-357.04012059779342
 30
0.0
 40
2.1000000000000001
 50
180.0
 51
0.0000000000032569
  0
LINE
  5
CCD9
  8
01
 10
-389.04983512427629
 20
-378.44012285062189
 30
0.0
 11
-396.96503101577321
 21
-378.44012285062189
 31
0.0
  0
LINE
  5
CCDB
  8
01
 10
-395.96503101577321
 20
-378.44012285062189
 30
0.0
 11
-395.96503101577321
 21
-396.44012285062189
 31
0.0
  0
LINE
  5
CCDF
  8
01
 10
-377.59769512427653
 20
-378.44012285062189
 30
0.0
 11
-389.04983512427629
 21
-378.44012285062189
 31
0.0
  0
LINE
  5
CD0B
  8
01
 10
-296.6757944735819
 20
-351.54012059779342
 30
0.0
 11
-305.8917794474512
 21
-351.54012059779342
 31
0.0
  0
LINE
  5
CD0C
  8
01
 10
-301.28378696051658
 20
-346.93212811085868
 30
0.0
 11
-301.28378696051658
 21
-372.05887645122561
 31
0.0
  0
LINE
  5
CD0E
  8
01
 10
-296.67579447358241
 20
-362.54011361732768
 30
0.0
 11
-305.89177944745171
 21
-362.54011361732768
 31
0.0
  0
SOLID
  5
CE33
  8
01
 10
-126.5078691752194
 20
-426.58382393937291
 30
0.0
 11
-124.64409184063631
 21
-425.78542231224191
 31
0.0
 12
-126.14818338617241
 22
-427.14513541939277
 32
0.0
 13
-126.14818338617241
 23
-427.14513541939277
 33
0.0
  0
TEXT
  5
CE35
  8
01
 10
-187.08393382987879
 20
-445.12512779182248
 30
0.0
 40
3.5
  1
付属樹脂プラグ
  0
SOLID
  5
CE36
  8
01
 10
-303.5991395471388
 20
-390.1652684109647
 30
0.0
 11
-302.53378696051658
 21
-388.44012059779368
 31
0.0
 12
-302.98204552196859
 22
-390.41753693564368
 32
0.0
 13
-302.98204552196859
 23
-390.41753693564368
 33
0.0
  0
TEXT
  5
CE38
  8
01
 10
-355.75974703923799
 20
-405.04591432891368
 30
0.0
 40
3.5
  1
材質：ポリアセタール
  0
TEXT
  5
CE39
  8
01
 10
-355.75974703923799
 20
-410.87924766224688
 30
0.0
 40
3.5
  1
仕上げ：ブラック
  0
SOLID
  5
CE3A
  8
01
 10
-202.6504291273875
 20
-324.82618984087838
 30
0.0
 11
-200.8368627476784
 21
-325.73288058060177
 31
0.0
 12
-202.8464603738
 22
-325.46338384185009
 32
0.0
 13
-202.8464603738
 23
-325.46338384185009
 33
0.0
  0
TEXT
  5
CE3C
  8
01
 10
-265.5075249991894
 20
-312.7684818209637
 30
0.0
 40
3.5
  1
材質：ポリアセタール
  0
TEXT
  5
CE3D
  8
01
 10
-265.5075249991894
 20
-318.60181515429701
 30
0.0
 40
3.5
  1
仕上げ：ブラック
  0
SOLID
  5
CE3E
  8
01
 10
-201.7941865509778
 20
-373.99023555752967
 30
0.0
 11
-201.2382645461021
 21
-375.94012320444841
 31
0.0
 12
-202.3965327064717
 22
-374.27593391840389
 32
0.0
 13
-202.3965327064717
 23
-374.27593391840389
 33
0.0
  0
TEXT
  5
CE40
  8
01
 10
-273.7570378069417
 20
-344.48892679854703
 30
0.0
 40
3.5
  1
材質：ナイロン+エラストマー
  0
TEXT
  5
CE41
  8
01
 10
-273.7570378069417
 20
-350.32226013188028
 30
0.0
 40
3.5
  1
仕上げ：ブラック
  0
LINE
  5
CE42
  8
01
 10
-149.67452803337011
 20
-412.3470195746429
 30
0.0
 11
-146.7676313093487
 21
-409.44012285062132
 31
0.0
1001
ACAD
1010
0.0
1020
0.0
1030
0.0
  0
LINE
  5
CE43
  8
01
 10
-149.67452803337011
 20
-419.08221166544462
 30
0.0
 11
-140.03243921854681
 21
-409.44012285062132
 31
0.0
1001
ACAD
1010
0.0
1020
0.0
1030
0.0
  0
LINE
  5
CE44
  8
01
 10
-149.67452803337019
 20
-425.81740375624662
 30
0.0
 11
-133.2972471277449
 21
-409.44012285062132
 31
0.0
1001
ACAD
1010
0.0
1020
0.0
1030
0.0
  0
LINE
  5
CE45
  8
01
 10
-149.67452803337011
 20
-432.55259584704851
 30
0.0
 11
-126.56205503694309
 21
-409.44012285062138
 31
0.0
1001
ACAD
1010
0.0
1020
0.0
1030
0.0
  0
LINE
  5
CE46
  8
01
 10
-149.67452803337019
 20
-439.28778793785028
 30
0.0
 11
-126.3581050253587
 21
-415.97136492983878
 31
0.0
1001
ACAD
1010
0.0
1020
0.0
1030
0.0
  0
LINE
  5
CE47
  8
01
 10
-121.14409184063631
 20
-410.75735174511652
 30
0.0
 11
-120.14409184063631
 21
-409.75735174511652
 31
0.0
1001
ACAD
1010
0.0
1020
0.0
1030
0.0
  0
LINE
  5
CE48
  8
01
 10
-125.6260542177898
 20
-415.23931412227
 30
0.0
 11
-124.64409184063631
 21
-414.25735174511652
 31
0.0
1001
ACAD
1010
0.0
1020
0.0
1030
0.0
  0
LINE
  5
CE49
  8
01
 10
-124.32686294614069
 20
-413.94012285062081
 30
0.0
 11
-122.64409184063631
 21
-412.25735174511641
 31
0.0
1001
ACAD
1010
0.0
1020
0.0
1030
0.0
  0
LINE
  5
CE4A
  8
01
 10
-149.67452803337011
 20
-446.02298002865223
 30
0.0
 11
-124.5127820562959
 21
-420.86123405157809
 31
0.0
1001
ACAD
1010
0.0
1020
0.0
1030
0.0
  0
LINE
  5
CE4B
  8
01
 10
-117.5916708553389
 20
-413.94012285062098
 30
0.0
 11
-113.0916708553393
 21
-409.44012285062132
 31
0.0
1001
ACAD
1010
0.0
1020
0.0
1030
0.0
  0
LINE
  5
CE4C
  8
01
 10
-121.14409184063641
 20
-417.49254383591841
 30
0.0
 11
-120.14409184063631
 21
-416.4925438359183
 31
0.0
1001
ACAD
1010
0.0
1020
0.0
1030
0.0
  0
LINE
  5
CE4D
  8
01
 10
-149.67452803337011
 20
-452.75817211945412
 30
0.0
 11
-123.41271435117331
 21
-426.4963584372573
 31
0.0
1001
ACAD
1010
0.0
1020
0.0
1030
0.0
  0
LINE
  5
CE4E
  8
01
 10
-116.64409184063631
 20
-419.72773592672019
 30
0.0
 11
-106.3564787645375
 21
-409.44012285062132
 31
0.0
1001
ACAD
1010
0.0
1020
0.0
1030
0.0
  0
LINE
  5
CE4F
  8
01
 10
-121.14409184063631
 20
-424.22773592672019
 30
0.0
 11
-120.14409184063631
 21
-423.22773592672019
 31
0.0
1001
ACAD
1010
0.0
1020
0.0
1030
0.0
  0
LINE
  5
CE50
  8
01
 10
-146.7726382491831
 20
-456.59147442606883
 30
0.0
 11
-144.9816476941331
 21
-454.80048387101891
 31
0.0
1001
ACAD
1010
0.0
1020
0.0
1030
0.0
  0
LINE
  5
CE51
  8
01
 10
-118.64409184063641
 20
-428.46292801752207
 30
0.0
 11
-99.621286673735625
 21
-409.44012285062132
 31
0.0
1001
ACAD
1010
0.0
1020
0.0
1030
0.0
  0
LINE
  5
CE52
  8
01
 10
-139.5816476941331
 20
-449.40048387101882
 30
0.0
 11
-124.64409184063641
 21
-434.46292801752207
 31
0.0
1001
ACAD
1010
0.0
1020
0.0
1030
0.0
  0
LINE
  5
CE53
  8
01
 10
-121.14409184063631
 20
-430.96292801752207
 30
0.0
 11
-120.14409184063641
 21
-429.96292801752207
 31
0.0
1001
ACAD
1010
0.0
1020
0.0
1030
0.0
  0
LINE
  5
CE54
  8
01
 10
-124.1212866737351
 20
-433.94012285062098
 30
0.0
 11
-122.64409184063641
 21
-432.46292801752207
 31
0.0
1001
ACAD
1010
0.0
1020
0.0
1030
0.0
  0
LINE
  5
CE55
  8
01
 10
-140.03744615838119
 20
-456.59147442606888
 30
0.0
 11
-138.24645560333121
 21
-454.80048387101891
 31
0.0
1001
ACAD
1010
0.0
1020
0.0
1030
0.0
  0
LINE
  5
CE56
  8
01
 10
-117.3860945829333
 20
-433.94012285062098
 30
0.0
 11
-92.886094582933737
 21
-409.44012285062132
 31
0.0
1001
ACAD
1010
0.0
1020
0.0
1030
0.0
  0
LINE
  5
CE57
  8
01
 10
-132.84645560333121
 20
-449.40048387101882
 30
0.0
 11
-124.68575850730301
 21
-441.23978677499059
 31
0.0
1001
ACAD
1010
0.0
1020
0.0
1030
0.0
  0
LINE
  5
CE58
  8
01
 10
-121.14409184063631
 20
-437.69812010832391
 30
0.0
 11
-120.14409184063631
 21
-436.69812010832391
 31
0.0
1001
ACAD
1010
0.0
1020
0.0
1030
0.0
  0
LINE
  5
CE59
  8
01
 10
-124.14553833978491
 20
-440.69956660747249
 30
0.0
 11
-121.8860945829333
 21
-438.44012285062092
 31
0.0
1001
ACAD
1010
0.0
1020
0.0
1030
0.0
  0
LINE
  5
CE5A
  8
01
 10
-133.30225406757941
 20
-456.59147442606883
 30
0.0
 11
-131.5112635125293
 21
-454.80048387101891
 31
0.0
1001
ACAD
1010
0.0
1020
0.0
1030
0.0
  0
LINE
  5
CE5B
  8
01
 10
-117.410346248983
 20
-440.69956660747249
 30
0.0
 11
-90.499012945187374
 21
-413.78823330367692
 31
0.0
1001
ACAD
1010
0.0
1020
0.0
1030
0.0
  0
LINE
  5
CE5C
  8
01
 10
-126.11126351252931
 20
-449.40048387101882
 30
0.0
 11
-122.660346248983
 21
-445.94956660747249
 31
0.0
1001
ACAD
1010
0.0
1020
0.0
1030
0.0
  0
LINE
  5
CE5D
  8
01
 10
-126.5670619767775
 20
-456.59147442606883
 30
0.0
 11
-124.77607142172749
 21
-454.80048387101891
 31
0.0
1001
ACAD
1010
0.0
1020
0.0
1030
0.0
  0
LINE
  5
CE5E
  8
01
 10
-119.3760714217275
 20
-449.40048387101882
 30
0.0
 11
-90.49901294518736
 21
-420.52342539447869
 31
0.0
1001
ACAD
1010
0.0
1020
0.0
1030
0.0
  0
LINE
  5
CE5F
  8
01
 10
-119.83186988597561
 20
-456.59147442606883
 30
0.0
 11
-118.04087933092551
 21
-454.8004838710188
 31
0.0
1001
ACAD
1010
0.0
1020
0.0
1030
0.0
  0
LINE
  5
CE60
  8
01
 10
-116.3002946477833
 20
-453.05989918787662
 30
0.0
 11
-90.49901294518736
 21
-427.25861748528052
 31
0.0
1001
ACAD
1010
0.0
1020
0.0
1030
0.0
  0
LINE
  5
CE61
  8
01
 10
-113.0966777951737
 20
-456.59147442606883
 30
0.0
 11
-90.499012945187332
 21
-433.99380957608253
 31
0.0
1001
ACAD
1010
0.0
1020
0.0
1030
0.0
  0
LINE
  5
CE62
  8
01
 10
-106.3614857043719
 20
-456.59147442606883
 30
0.0
 11
-90.499012945187332
 21
-440.72900166688419
 31
0.0
1001
ACAD
1010
0.0
1020
0.0
1030
0.0
  0
LINE
  5
CE63
  8
01
 10
-99.626293613570056
 20
-456.59147442606883
 30
0.0
 11
-90.49901294518736
 21
-447.46419375768608
 31
0.0
1001
ACAD
1010
0.0
1020
0.0
1030
0.0
  0
LINE
  5
CE64
  8
01
 10
-92.891101522768167
 20
-456.59147442606883
 30
0.0
 11
-90.499012945187303
 21
-454.19938584848808
 31
0.0
1001
ACAD
1010
0.0
1020
0.0
1030
0.0
  0
LINE
  5
CE65
  8
01
 10
-149.67452803337011
 20
-414.5920845746428
 30
0.0
 11
-144.52256630934869
 21
-409.44012285062132
 31
0.0
1001
ACAD
1010
0.0
1020
0.0
1030
0.0
  0
LINE
  5
CE66
  8
01
 10
-149.67452803337011
 20
-421.32727666544457
 30
0.0
 11
-137.7873742185468
 21
-409.44012285062138
 31
0.0
1001
ACAD
1010
0.0
1020
0.0
1030
0.0
  0
LINE
  5
CE67
  8
01
 10
-149.67452803337019
 20
-428.06246875624657
 30
0.0
 11
-131.05218212774491
 21
-409.44012285062132
 31
0.0
1001
ACAD
1010
0.0
1020
0.0
1030
0.0
  0
LINE
  5
CE68
  8
01
 10
-149.67452803337011
 20
-434.79766084704841
 30
0.0
 11
-128.00160560681289
 21
-413.12473842049121
 31
0.0
1001
ACAD
1010
0.0
1020
0.0
1030
0.0
  0
LINE
  5
CE69
  8
01
 10
-127.26955479924401
 20
-412.39268761292232
 30
0.0
 11
-124.64409184063631
 21
-409.76722465431459
 31
0.0
1001
ACAD
1010
0.0
1020
0.0
1030
0.0
  0
LINE
  5
CE6A
  8
01
 10
-149.67452803337019
 20
-441.53285293785041
 30
0.0
 11
-125.5363542022114
 21
-417.39467910669151
 31
0.0
1001
ACAD
1010
0.0
1020
0.0
1030
0.0
  0
LINE
  5
CE6B
  8
01
 10
-121.14409184063631
 20
-413.00241674511648
 30
0.0
 11
-120.14409184063631
 21
-412.00241674511648
 31
0.0
1001
ACAD
1010
0.0
1020
0.0
1030
0.0
  0
LINE
  5
CE6C
  8
01
 10
-124.8043033946424
 20
-416.66262829912267
 30
0.0
 11
-124.1895355845658
 21
-416.04786048904589
 31
0.0
1001
ACAD
1010
0.0
1020
0.0
1030
0.0
  0
LINE
  5
CE6D
  8
01
 10
-149.67452803337011
 20
-448.26804502865218
 30
0.0
 11
-123.08946787944321
 21
-421.68298487472532
 31
0.0
1001
ACAD
1010
0.0
1020
0.0
1030
0.0
  0
LINE
  5
CE6E
  8
01
 10
-116.64409184063631
 20
-415.23760883591842
 30
0.0
 11
-110.84660585533931
 21
-409.44012285062132
 31
0.0
1001
ACAD
1010
0.0
1020
0.0
1030
0.0
  0
LINE
  5
CE6F
  8
01
 10
-121.14409184063631
 20
-419.73760883591842
 30
0.0
 11
-120.14409184063631
 21
-418.73760883591831
 31
0.0
1001
ACAD
1010
0.0
1020
0.0
1030
0.0
  0
LINE
  5
CE70
  8
01
 10
-118.64409184063631
 20
-417.23760883591842
 30
0.0
 11
-117.940232442153
 21
-416.53374943743501
 31
0.0
1001
ACAD
1010
0.0
1020
0.0
1030
0.0
  0
LINE
  5
CE71
  8
01
 10
-149.67452803337011
 20
-455.00323711945401
 30
0.0
 11
-145.83362798111671
 21
-451.16233706720061
 31
0.0
1001
ACAD
1010
0.0
1020
0.0
1030
0.0
  0
LINE
  5
CE72
  8
01
 10
-118.61141376453701
 20
-423.94012285062092
 30
0.0
 11
-104.1114137645374
 21
-409.44012285062132
 31
0.0
1001
ACAD
1010
0.0
1020
0.0
1030
0.0
  0
LINE
  5
CE73
  8
01
 10
-144.07177478493489
 20
-449.40048387101882
 30
0.0
 11
-124.64409184063631
 21
-429.9728009267202
 31
0.0
1001
ACAD
1010
0.0
1020
0.0
1030
0.0
  0
LINE
  5
CE74
  8
01
 10
-121.14409184063631
 20
-426.47280092672008
 30
0.0
 11
-120.14409184063631
 21
-425.4728009267202
 31
0.0
1001
ACAD
1010
0.0
1020
0.0
1030
0.0
  0
LINE
  5
CE75
  8
01
 10
-123.6114137645371
 20
-428.94012285062098
 30
0.0
 11
-122.64409184063631
 21
-427.97280092672008
 31
0.0
1001
ACAD
1010
0.0
1020
0.0
1030
0.0
  0
LINE
  5
CE76
  8
01
 10
-144.52757324918309
 20
-456.59147442606883
 30
0.0
 11
-142.73658269413309
 21
-454.80048387101891
 31
0.0
1001
ACAD
1010
0.0
1020
0.0
1030
0.0
  0
LINE
  5
CE77
  8
01
 10
-116.8762216737352
 20
-428.94012285062098
 30
0.0
 11
-97.376221673735614
 21
-409.44012285062132
 31
0.0
1001
ACAD
1010
0.0
1020
0.0
1030
0.0
  0
LINE
  5
CE78
  8
01
 10
-137.33658269413311
 20
-449.40048387101882
 30
0.0
 11
-124.4491297105162
 21
-436.51303088740201
 31
0.0
1001
ACAD
1010
0.0
1020
0.0
1030
0.0
  0
LINE
  5
CE79
  8
01
 10
-121.14409184063631
 20
-433.20799301752203
 30
0.0
 11
-120.14409184063619
 21
-432.20799301752203
 31
0.0
1001
ACAD
1010
0.0
1020
0.0
1030
0.0
  0
LINE
  5
CE7A
  8
01
 10
-137.7923811583812
 20
-456.59147442606888
 30
0.0
 11
-136.0013906033312
 21
-454.80048387101891
 31
0.0
1001
ACAD
1010
0.0
1020
0.0
1030
0.0
  0
LINE
  5
CE7B
  8
01
 10
-116.64409184063631
 20
-435.44318510832397
 30
0.0
 11
-90.641029582933726
 21
-409.44012285062132
 31
0.0
1001
ACAD
1010
0.0
1020
0.0
1030
0.0
  0
LINE
  5
CE7C
  8
01
 10
-130.6013906033312
 20
-449.40048387101882
 30
0.0
 11
-124.68575850730301
 21
-443.4848517749906
 31
0.0
1001
ACAD
1010
0.0
1020
0.0
1030
0.0
  0
LINE
  5
CE7D
  8
01
 10
-121.9004733397849
 20
-440.69956660747249
 30
0.0
 11
-119.6410295829333
 21
-438.44012285062098
 31
0.0
1001
ACAD
1010
0.0
1020
0.0
1030
0.0
  0
LINE
  5
CE7E
  8
01
 10
-131.0571890675794
 20
-456.59147442606883
 30
0.0
 11
-129.26619851252929
 21
-454.80048387101891
 31
0.0
1001
ACAD
1010
0.0
1020
0.0
1030
0.0
  0
LINE
  5
CE7F
  8
01
 10
-116.60242517396971
 20
-442.13671053245918
 30
0.0
 11
-90.499012945187374
 21
-416.03329830367682
 31
0.0
1001
ACAD
1010
0.0
1020
0.0
1030
0.0
  0
LINE
  5
CE80
  8
01
 10
-123.86619851252929
 20
-449.40048387101882
 30
0.0
 11
-120.41528124898301
 21
-445.94956660747249
 31
0.0
1001
ACAD
1010
0.0
1020
0.0
1030
0.0
  0
LINE
  5
CE81
  8
01
 10
-124.3219969767775
 20
-456.59147442606883
 30
0.0
 11
-122.5310064217275
 21
-454.80048387101891
 31
0.0
1001
ACAD
1010
0.0
1020
0.0
1030
0.0
  0
LINE
  5
CE82
  8
01
 10
-117.13100642172751
 20
-449.40048387101882
 30
0.0
 11
-90.499012945187303
 21
-422.7684903944787
 31
0.0
1001
ACAD
1010
0.0
1020
0.0
1030
0.0
  0
LINE
  5
CE83
  8
01
 10
-117.5868048859756
 20
-456.59147442606883
 30
0.0
 11
-90.49901294518736
 21
-429.50368248528059
 31
0.0
1001
ACAD
1010
0.0
1020
0.0
1030
0.0
  0
LINE
  5
CE84
  8
01
 10
-110.85161279517369
 20
-456.59147442606883
 30
0.0
 11
-90.499012945187332
 21
-436.23887457608242
 31
0.0
1001
ACAD
1010
0.0
1020
0.0
1030
0.0
  0
LINE
  5
CE85
  8
01
 10
-104.1164207043719
 20
-456.59147442606883
 30
0.0
 11
-90.499012945187332
 21
-442.97406666688431
 31
0.0
1001
ACAD
1010
0.0
1020
0.0
1030
0.0
  0
LINE
  5
CE86
  8
01
 10
-97.381228613570045
 20
-456.59147442606883
 30
0.0
 11
-90.49901294518736
 21
-449.70925875768609
 31
0.0
1001
ACAD
1010
0.0
1020
0.0
1030
0.0
  0
LINE
  5
CE87
  8
01
 10
-90.646036522768156
 20
-456.59147442606883
 30
0.0
 11
-90.499012945187303
 21
-456.44445084848797
 31
0.0
1001
ACAD
1010
0.0
1020
0.0
1030
0.0
  0
TEXT
  5
CE88
  8
01
 10
-396.66503101577308
 20
-397.95321518269049
 30
0.0
 40
3.5
  1
20mm以内
 50
90.0
  0
LINE
  5
CE89
  8
01
  6
BYBLOCK
 10
-395.42913263577321
 20
-396.44012285062189
 30
0.0
 11
-395.96503101577321
 21
-398.44012285062189
 31
0.0
  0
LINE
  5
CE8A
  8
01
  6
BYBLOCK
 10
-395.96503101577321
 20
-398.44012285062189
 30
0.0
 11
-396.5009293957732
 21
-396.44012285062189
 31
0.0
  0
LINE
  5
CE8B
  8
01
  6
BYBLOCK
 10
-395.96503101577321
 20
-398.44012285062189
 30
0.0
 11
-395.96503101577321
 21
-396.44012285062189
 31
0.0
  0
LINE
  5
CE8C
  8
01
  6
BYBLOCK
 10
-396.5009293957732
 20
-380.44012285062189
 30
0.0
 11
-395.96503101577321
 21
-378.44012285062189
 31
0.0
  0
LINE
  5
CE8D
  8
01
  6
BYBLOCK
 10
-395.96503101577321
 20
-378.44012285062189
 30
0.0
 11
-395.42913263577321
 21
-380.44012285062189
 31
0.0
  0
LINE
  5
CE8E
  8
01
  6
BYBLOCK
 10
-395.96503101577321
 20
-378.44012285062189
 30
0.0
 11
-395.96503101577321
 21
-380.44012285062189
 31
0.0
  0
SOLID
  5
CE8F
  8
01
 10
-210.2213105568726
 20
-395.06172947065733
 30
0.0
 11
-209.4748529243771
 21
-396.94691172020248
 31
0.0
 12
-210.79237195496859
 22
-395.40572558117179
 32
0.0
 13
-210.79237195496859
 23
-395.40572558117179
 33
0.0
  0
TEXT
  5
CE91
  8
01
 10
-267.52946734674902
 20
-373.66676825382501
 30
0.0
 40
3.5
  1
材質：亜鉛ダイキャスト
  0
TEXT
  5
CE92
  8
01
 10
-267.52946734674902
 20
-379.50010158715833
 30
0.0
 40
3.5
  1
仕上げ：各種メッキ
  0
SOLID
  5
CE93
  8
01
 10
-370.45487656436319
 20
-334.55459165422349
 30
0.0
 11
-371.20045820436007
 21
-336.44012052677112
 31
0.0
 12
-371.10670115221637
 22
-334.41470187220011
 32
0.0
 13
-371.10670115221637
 23
-334.41470187220011
 33
0.0
  0
TEXT
  5
CE95
  8
01
 10
-412.38340829761643
 20
-298.29766467128508
 30
0.0
 40
3.5
  1
材質：亜鉛ダイキャスト
  0
TEXT
  5
CE96
  8
01
 10
-412.38340829761643
 20
-304.13099800461839
 30
0.0
 40
3.5
  1
仕上げ：各種メッキ
  0
SOLID
  5
CE97
  8
01
 10
-299.20255674225928
 20
-328.95767113417378
 30
0.0
 11
-300.68457816796541
 21
-330.34140651525621
 31
0.0
 12
-299.73144505102692
 22
-328.55181204373298
 32
0.0
 13
-299.73144505102692
 23
-328.55181204373298
 33
0.0
  0
TEXT
  5
CE99
  8
01
 10
-274.15937431933997
 20
-292.76066765046647
 30
0.0
 40
3.5
  1
材質：亜鉛ダイキャスト
  0
TEXT
  5
CE9A
  8
01
 10
-274.15937431933997
 20
-298.59400098379979
 30
0.0
 40
3.5
  1
仕上げ：各種メッキ
  0
SOLID
  5
CE9B
  8
01
 10
-294.82747183823881
 20
-280.38578248131398
 30
0.0
 11
-296.34333265976278
 21
-281.73236225276452
 31
0.0
 12
-295.3461388355484
 22
-279.9669400403576
 32
0.0
 13
-295.3461388355484
 23
-279.9669400403576
 33
0.0
  0
TEXT
  5
CE9D
  8
01
 10
-275.0013269278254
 20
-252.11399218167281
 30
0.0
 40
3.5
  1
材質：亜鉛ダイキャスト
  0
TEXT
  5
CE9E
  8
01
 10
-275.0013269278254
 20
-257.94732551500618
 30
0.0
 40
3.5
  1
仕上げ：各種メッキ
  0
LINE
  5
CE9F
  8
01
 10
-394.8485865499544
 20
-362.5401135463037
 30
0.0
 11
-408.22926673423819
 21
-362.5401135463037
 31
0.0
  0
LINE
  5
CEA0
  8
01
 10
-389.04983512427629
 20
-398.44012285062189
 30
0.0
 11
-408.22926673423819
 21
-398.44012285062189
 31
0.0
  0
LINE
  5
CEA1
  8
01
 10
-407.22926673423819
 20
-364.5401135463037
 30
0.0
 11
-407.22926673423831
 21
-396.44012285062189
 31
0.0
  0
LINE
  5
CEA5
  8
01
 10
-394.84858654995372
 20
-351.5401205267695
 30
0.0
 11
-408.22926673423819
 21
-351.5401205267695
 31
0.0
  0
LINE
  5
CEA6
  8
01
 10
-394.8485865499544
 20
-362.5401135463037
 30
0.0
 11
-408.22926673423819
 21
-362.5401135463037
 31
0.0
  0
LINE
  5
CEA7
  8
01
 10
-407.22926673423831
 20
-353.5401205267695
 30
0.0
 11
-407.22926673423831
 21
-360.5401135463037
 31
0.0
  0
LINE
  5
CEAB
  8
01
 10
-222.31422315325059
 20
-399.67428154436629
 30
0.0
 11
-221.08006445950619
 21
-398.44012285062189
 31
0.0
1001
ACAD
1010
0.0
1020
0.0
1030
0.0
  0
LINE
  5
CEAC
  8
01
 10
-222.31422315325059
 20
-401.9193455746335
 30
0.0
 11
-218.83500042923879
 21
-398.44012285062178
 31
0.0
1001
ACAD
1010
0.0
1020
0.0
1030
0.0
  0
LINE
  5
CEAD
  8
01
 10
-222.31422315325059
 20
-404.16440960490092
 30
0.0
 11
-216.5899363989715
 21
-398.44012285062172
 31
0.0
1001
ACAD
1010
0.0
1020
0.0
1030
0.0
  0
LINE
  5
CEAE
  8
01
 10
-222.31422315325059
 20
-406.40947363516813
 30
0.0
 11
-214.3448723687041
 21
-398.44012285062172
 31
0.0
1001
ACAD
1010
0.0
1020
0.0
1030
0.0
  0
LINE
  5
CEAF
  8
01
 10
-222.31422315325059
 20
-408.65453766543538
 30
0.0
 11
-212.0998083384367
 21
-398.44012285062149
 31
0.0
1001
ACAD
1010
0.0
1020
0.0
1030
0.0
  0
LINE
  5
CEB0
  8
01
 10
-220.8547443081697
 20
-409.44012285062178
 30
0.0
 11
-209.8547443081693
 21
-398.44012285062138
 31
0.0
1001
ACAD
1010
0.0
1020
0.0
1030
0.0
  0
LINE
  5
CEB1
  8
01
 10
-218.6096802779025
 20
-409.44012285062189
 30
0.0
 11
-207.60968027790199
 21
-398.44012285062149
 31
0.0
1001
ACAD
1010
0.0
1020
0.0
1030
0.0
  0
LINE
  5
CEB2
  8
01
 10
-216.3646162476351
 20
-409.44012285062189
 30
0.0
 11
-205.3646162476347
 21
-398.44012285062138
 31
0.0
1001
ACAD
1010
0.0
1020
0.0
1030
0.0
  0
LINE
  5
CEB3
  8
01
 10
-214.1195522173679
 20
-409.44012285062178
 30
0.0
 11
-203.1195522173673
 21
-398.44012285062138
 31
0.0
1001
ACAD
1010
0.0
1020
0.0
1030
0.0
  0
LINE
  5
CEB4
  8
01
 10
-211.8744881871005
 20
-409.44012285062178
 30
0.0
 11
-202.7837791584154
 21
-400.34941382193659
 31
0.0
1001
ACAD
1010
0.0
1020
0.0
1030
0.0
  0
LINE
  5
CEB5
  8
01
 10
-209.62942415683321
 20
-409.44012285062178
 30
0.0
 11
-203.2171318601934
 21
-403.02783055398203
 31
0.0
1001
ACAD
1010
0.0
1020
0.0
1030
0.0
  0
LINE
  5
CEB6
  8
01
 10
-199.7837791582958
 20
-399.59447785208442
 30
0.0
 11
-198.6294241568329
 21
-398.44012285062149
 31
0.0
1001
ACAD
1010
0.0
1020
0.0
1030
0.0
  0
LINE
  5
CEB7
  8
01
 10
-203.1838083077991
 20
-402.99450700158769
 30
0.0
 11
-202.78377915877161
 21
-402.5944778525602
 31
0.0
1001
ACAD
1010
0.0
1020
0.0
1030
0.0
  0
LINE
  5
CEB8
  8
01
 10
-207.38436012656601
 20
-409.44012285062178
 30
0.0
 11
-202.78377915912779
 21
-404.83954188318359
 31
0.0
1001
ACAD
1010
0.0
1020
0.0
1030
0.0
  0
LINE
  5
CEB9
  8
01
 10
-199.7837791586519
 20
-401.83954188270769
 30
0.0
 11
-196.38436012656561
 21
-398.44012285062149
 31
0.0
1001
ACAD
1010
0.0
1020
0.0
1030
0.0
  0
LINE
  5
CEBA
  8
01
 10
-205.13929609629869
 20
-409.44012285062178
 30
0.0
 11
-202.7683150914275
 21
-407.06914184575061
 31
0.0
1001
ACAD
1010
0.0
1020
0.0
1030
0.0
  0
LINE
  5
CEBB
  8
01
 10
-199.47536573219591
 20
-403.77619248651922
 30
0.0
 11
-195.1598120458857
 21
-399.46063880020893
 31
0.0
1001
ACAD
1010
0.0
1020
0.0
1030
0.0
  0
LINE
  5
CEBC
  8
01
 10
-199.78377915900799
 20
-404.08460591333107
 30
0.0
 11
-199.57115874017811
 21
-403.87198549450119
 31
0.0
1001
ACAD
1010
0.0
1020
0.0
1030
0.0
  0
LINE
  5
CEBD
  8
01
 10
-202.89423206603141
 20
-409.44012285062178
 30
0.0
 11
-202.27308063329201
 21
-408.81897141788232
 31
0.0
1001
ACAD
1010
0.0
1020
0.0
1030
0.0
  0
LINE
  5
CEBE
  8
01
 10
-199.7837791593642
 20
-406.32966994395463
 30
0.0
 11
-195.1598120458857
 21
-401.70570283047613
 31
0.0
1001
ACAD
1010
0.0
1020
0.0
1030
0.0
  0
LINE
  5
CEBF
  8
01
 10
-200.39965797203089
 20
-409.19061278688861
 30
0.0
 11
-199.8571944709046
 21
-408.64814928576237
 31
0.0
1001
ACAD
1010
0.0
1020
0.0
1030
0.0
  0
LINE
  5
CEC0
  8
01
 10
-190.81726327618469
 20
-399.60821809104249
 30
0.0
 11
-189.64916803576369
 21
-398.44012285062149
 31
0.0
1001
ACAD
1010
0.0
1020
0.0
1030
0.0
  0
LINE
  5
CEC1
  8
01
 10
-199.8066721724602
 20
-408.59762698731788
 30
0.0
 11
-195.1598120458857
 21
-403.95076686074339
 31
0.0
1001
ACAD
1010
0.0
1020
0.0
1030
0.0
  0
LINE
  5
CEC2
  8
01
 10
-191.4098120458857
 20
-400.2007668607435
 30
0.0
 11
-190.83348884414221
 21
-399.62444365900012
 31
0.0
1001
ACAD
1010
0.0
1020
0.0
1030
0.0
  0
LINE
  5
CEC3
  8
01
 10
-198.40410400549689
 20
-409.44012285062189
 30
0.0
 11
-195.03162108415401
 21
-406.06763992927898
 31
0.0
1001
ACAD
1010
0.0
1020
0.0
1030
0.0
  0
LINE
  5
CEC4
  8
01
 10
-191.4098120458857
 20
-402.4458308910107
 30
0.0
 11
-187.40410400549641
 21
-398.44012285062149
 31
0.0
1001
ACAD
1010
0.0
1020
0.0
1030
0.0
  0
LINE
  5
CEC5
  8
01
 10
-196.1590399752296
 20
-409.44012285062189
 30
0.0
 11
-194.53638662578479
 21
-407.81746950117707
 31
0.0
1001
ACAD
1010
0.0
1020
0.0
1030
0.0
  0
LINE
  5
CEC6
  8
01
 10
-191.4098120458857
 20
-404.69089492127802
 30
0.0
 11
-185.15903997522909
 21
-398.44012285062138
 31
0.0
1001
ACAD
1010
0.0
1020
0.0
1030
0.0
  0
LINE
  5
CEC7
  8
01
 10
-191.93135936431909
 20
-407.45750626997858
 30
0.0
 11
-182.91397594496181
 21
-398.44012285062149
 31
0.0
1001
ACAD
1010
0.0
1020
0.0
1030
0.0
  0
LINE
  5
CEC8
  8
01
 10
-191.668911914695
 20
-409.44012285062189
 30
0.0
 11
-180.66891191469449
 21
-398.44012285062138
 31
0.0
1001
ACAD
1010
0.0
1020
0.0
1030
0.0
  0
LINE
  5
CEC9
  8
01
 10
-189.42384788442769
 20
-409.44012285062178
 30
0.0
 11
-178.4238478844272
 21
-398.44012285062138
 31
0.0
1001
ACAD
1010
0.0
1020
0.0
1030
0.0
  0
LINE
  5
CECA
  8
01
 10
-187.17878385416029
 20
-409.44012285062178
 30
0.0
 11
-176.17878385415989
 21
-398.44012285062138
 31
0.0
1001
ACAD
1010
0.0
1020
0.0
1030
0.0
  0
LINE
  5
CECB
  8
01
 10
-184.93371982389311
 20
-409.44012285062189
 30
0.0
 11
-173.9337198238926
 21
-398.44012285062149
 31
0.0
1001
ACAD
1010
0.0
1020
0.0
1030
0.0
  0
LINE
  5
CECC
  8
01
 10
-182.6886557936258
 20
-409.44012285062189
 30
0.0
 11
-171.6886557936254
 21
-398.44012285062149
 31
0.0
1001
ACAD
1010
0.0
1020
0.0
1030
0.0
  0
LINE
  5
CECD
  8
01
 10
-180.44359176335851
 20
-409.44012285062178
 30
0.0
 11
-169.44359176335811
 21
-398.44012285062138
 31
0.0
1001
ACAD
1010
0.0
1020
0.0
1030
0.0
  0
LINE
  5
CECE
  8
01
 10
-178.19852773309131
 20
-409.44012285062178
 30
0.0
 11
-167.1985277330908
 21
-398.44012285062138
 31
0.0
1001
ACAD
1010
0.0
1020
0.0
1030
0.0
  0
LINE
  5
CECF
  8
01
 10
-175.95346370282391
 20
-409.44012285062178
 30
0.0
 11
-164.95346370282351
 21
-398.44012285062149
 31
0.0
1001
ACAD
1010
0.0
1020
0.0
1030
0.0
  0
LINE
  5
CED0
  8
01
 10
-173.7083996725566
 20
-409.44012285062178
 30
0.0
 11
-162.8682437610266
 21
-398.59996693909181
 31
0.0
1001
ACAD
1010
0.0
1020
0.0
1030
0.0
  0
LINE
  5
CED1
  8
01
 10
-171.46333564228931
 20
-409.44012285062178
 30
0.0
 11
-162.86824376102649
 21
-400.84503096935902
 31
0.0
1001
ACAD
1010
0.0
1020
0.0
1030
0.0
  0
LINE
  5
CED2
  8
01
 10
-169.21827161202199
 20
-409.44012285062178
 30
0.0
 11
-162.86824376102649
 21
-403.09009499962627
 31
0.0
1001
ACAD
1010
0.0
1020
0.0
1030
0.0
  0
LINE
  5
CED3
  8
01
 10
-166.97320758175471
 20
-409.44012285062178
 30
0.0
 11
-162.86824376102649
 21
-405.33515902989359
 31
0.0
1001
ACAD
1010
0.0
1020
0.0
1030
0.0
  0
LINE
  5
CED4
  8
01
 10
-164.72814355148751
 20
-409.44012285062178
 30
0.0
 11
-162.86824376102649
 21
-407.5802230601609
 31
0.0
1001
ACAD
1010
0.0
1020
0.0
1030
0.0
  0
LINE
  5
CED5
  8
01
 10
-149.67452803337011
 20
-398.87663539303912
 30
0.0
 11
-149.23801549095239
 21
-398.44012285062138
 31
0.0
1001
ACAD
1010
0.0
1020
0.0
1030
0.0
  0
LINE
  5
CED6
  8
01
 10
-149.67452803337011
 20
-401.12169942330632
 30
0.0
 11
-146.99295146068511
 21
-398.44012285062138
 31
0.0
1001
ACAD
1010
0.0
1020
0.0
1030
0.0
  0
LINE
  5
CED7
  8
01
 10
-149.67452803337011
 20
-403.36676345357358
 30
0.0
 11
-144.7478874304179
 21
-398.44012285062138
 31
0.0
1001
ACAD
1010
0.0
1020
0.0
1030
0.0
  0
LINE
  5
CED8
  8
01
 10
-149.67452803337011
 20
-405.6118274838409
 30
0.0
 11
-142.50282340015059
 21
-398.44012285062138
 31
0.0
1001
ACAD
1010
0.0
1020
0.0
1030
0.0
  0
LINE
  5
CED9
  8
01
 10
-149.67452803337011
 20
-407.85689151410821
 30
0.0
 11
-140.2577593698833
 21
-398.44012285062138
 31
0.0
1001
ACAD
1010
0.0
1020
0.0
1030
0.0
  0
LINE
  5
CEDA
  8
01
 10
-149.01269533961599
 20
-409.44012285062138
 30
0.0
 11
-138.01269533961599
 21
-398.44012285062138
 31
0.0
1001
ACAD
1010
0.0
1020
0.0
1030
0.0
  0
LINE
  5
CEDB
  8
01
 10
-146.76763130934879
 20
-409.44012285062138
 30
0.0
 11
-135.76763130934879
 21
-398.44012285062138
 31
0.0
1001
ACAD
1010
0.0
1020
0.0
1030
0.0
  0
LINE
  5
CEDC
  8
01
 10
-144.52256727908139
 20
-409.44012285062149
 30
0.0
 11
-133.5225672790815
 21
-398.44012285062149
 31
0.0
1001
ACAD
1010
0.0
1020
0.0
1030
0.0
  0
LINE
  5
CEDD
  8
01
 10
-142.27750324881421
 20
-409.44012285062149
 30
0.0
 11
-131.27750324881421
 21
-398.44012285062149
 31
0.0
1001
ACAD
1010
0.0
1020
0.0
1030
0.0
  0
LINE
  5
CEDE
  8
01
 10
-140.0324392185469
 20
-409.44012285062138
 30
0.0
 11
-130.40872701700249
 21
-399.81641064907711
 31
0.0
1001
ACAD
1010
0.0
1020
0.0
1030
0.0
  0
LINE
  5
CEDF
  8
01
 10
-130.4041721642752
 20
-399.81185579634968
 30
0.0
 11
-130.02477067372001
 21
-399.43245430579452
 31
0.0
1001
ACAD
1010
0.0
1020
0.0
1030
0.0
  0
LINE
  5
CEE0
  8
01
 10
-137.78737518827961
 20
-409.44012285062138
 30
0.0
 11
-129.81203781366719
 21
-401.46478547600901
 31
0.0
1001
ACAD
1010
0.0
1020
0.0
1030
0.0
  0
LINE
  5
CEE1
  8
01
 10
-127.14305895514239
 20
-398.79580661748417
 30
0.0
 11
-126.7873751882796
 21
-398.44012285062138
 31
0.0
1001
ACAD
1010
0.0
1020
0.0
1030
0.0
  0
LINE
  5
CEE2
  8
01
 10
-129.68357913295071
 20
-401.33632679529251
 30
0.0
 11
-129.5295362153509
 21
-401.18228387769273
 31
0.0
1001
ACAD
1010
0.0
1020
0.0
1030
0.0
  0
LINE
  5
CEE3
  8
01
 10
-135.5423111580123
 20
-409.44012285062149
 30
0.0
 11
-129.253285692546
 21
-403.15109738515508
 31
0.0
1001
ACAD
1010
0.0
1020
0.0
1030
0.0
  0
LINE
  5
CEE4
  8
01
 10
-127.94293925473561
 20
-401.8407509473447
 30
0.0
 11
-125.4866946002614
 21
-399.38450629287058
 31
0.0
1001
ACAD
1010
0.0
1020
0.0
1030
0.0
  0
LINE
  5
CEE5
  8
01
 10
-133.29724712774501
 20
-409.44012285062132
 30
0.0
 11
-125.1659711673661
 21
-401.30884689024248
 31
0.0
1001
ACAD
1010
0.0
1020
0.0
1030
0.0
  0
LINE
  5
CEE6
  8
01
 10
-131.05218309747769
 20
-409.44012285062138
 30
0.0
 11
-124.8452477344707
 21
-403.23318748761437
 31
0.0
1001
ACAD
1010
0.0
1020
0.0
1030
0.0
  0
LINE
  5
CEE7
  8
01
 10
-128.80711906721041
 20
-409.44012285062138
 30
0.0
 11
-124.64409184063641
 21
-405.27709562404732
 31
0.0
1001
ACAD
1010
0.0
1020
0.0
1030
0.0
  0
LINE
  5
CEE8
  8
01
 10
-126.56205503694309
 20
-409.44012285062149
 30
0.0
 11
-124.64409184063631
 21
-407.52215965431452
 31
0.0
1001
ACAD
1010
0.0
1020
0.0
1030
0.0
  0
LINE
  5
CEE9
  8
01
 10
-115.6604992013751
 20
-398.53856701505327
 30
0.0
 11
-115.56205503694309
 21
-398.44012285062138
 31
0.0
1001
ACAD
1010
0.0
1020
0.0
1030
0.0
  0
LINE
  5
CEEA
  8
01
 10
-116.10951200742851
 20
-401.23264385137401
 30
0.0
 11
-113.31699100667581
 21
-398.44012285062138
 31
0.0
1001
ACAD
1010
0.0
1020
0.0
1030
0.0
  0
LINE
  5
CEEB
  8
01
 10
-116.5585248134819
 20
-403.9267206876948
 30
0.0
 11
-111.07192697640851
 21
-398.44012285062138
 31
0.0
1001
ACAD
1010
0.0
1020
0.0
1030
0.0
  0
LINE
  5
CEEC
  8
01
 10
-116.64409184063631
 20
-406.25735174511652
 30
0.0
 11
-108.8268629461413
 21
-398.44012285062149
 31
0.0
1001
ACAD
1010
0.0
1020
0.0
1030
0.0
  0
LINE
  5
CEED
  8
01
 10
-116.64409184063631
 20
-408.50241577538378
 30
0.0
 11
-106.581798915874
 21
-398.44012285062149
 31
0.0
1001
ACAD
1010
0.0
1020
0.0
1030
0.0
  0
LINE
  5
CEEE
  8
01
 10
-115.3367348856067
 20
-409.44012285062138
 30
0.0
 11
-104.3367348856067
 21
-398.44012285062149
 31
0.0
1001
ACAD
1010
0.0
1020
0.0
1030
0.0
  0
LINE
  5
CEEF
  8
01
 10
-113.0916708553394
 20
-409.44012285062138
 30
0.0
 11
-102.0916708553394
 21
-398.44012285062138
 31
0.0
1001
ACAD
1010
0.0
1020
0.0
1030
0.0
  0
LINE
  5
CEF0
  8
01
 10
-110.8466068250721
 20
-409.44012285062149
 30
0.0
 11
-99.846606825072186
 21
-398.44012285062149
 31
0.0
1001
ACAD
1010
0.0
1020
0.0
1030
0.0
  0
LINE
  5
CEF1
  8
01
 10
-108.6015427948048
 20
-409.44012285062132
 30
0.0
 11
-97.601542794804914
 21
-398.44012285062149
 31
0.0
1001
ACAD
1010
0.0
1020
0.0
1030
0.0
  0
LINE
  5
CEF2
  8
01
 10
-106.3564787645375
 20
-409.44012285062138
 30
0.0
 11
-95.356478764537627
 21
-398.44012285062149
 31
0.0
1001
ACAD
1010
0.0
1020
0.0
1030
0.0
  0
LINE
  5
CEF3
  8
01
 10
-104.1114147342703
 20
-409.44012285062138
 30
0.0
 11
-93.111414734270312
 21
-398.44012285062149
 31
0.0
1001
ACAD
1010
0.0
1020
0.0
1030
0.0
  0
LINE
  5
CEF4
  8
01
 10
-101.8663507040029
 20
-409.44012285062132
 30
0.0
 11
-90.866350704003025
 21
-398.44012285062149
 31
0.0
1001
ACAD
1010
0.0
1020
0.0
1030
0.0
  0
LINE
  5
CEF5
  8
01
 10
-99.62128667373571
 20
-409.44012285062132
 30
0.0
 11
-90.499012945187374
 21
-400.31784912207303
 31
0.0
1001
ACAD
1010
0.0
1020
0.0
1030
0.0
  0
LINE
  5
CEF6
  8
01
 10
-97.376222643468367
 20
-409.44012285062132
 30
0.0
 11
-90.49901294518736
 21
-402.56291315234029
 31
0.0
1001
ACAD
1010
0.0
1020
0.0
1030
0.0
  0
LINE
  5
CEF7
  8
01
 10
-95.131158613201137
 20
-409.44012285062132
 30
0.0
 11
-90.49901294518736
 21
-404.8079771826076
 31
0.0
1001
ACAD
1010
0.0
1020
0.0
1030
0.0
  0
LINE
  5
CEF8
  8
01
 10
-92.886094582933836
 20
-409.44012285062138
 30
0.0
 11
-90.499012945187332
 21
-407.05304121287492
 31
0.0
1001
ACAD
1010
0.0
1020
0.0
1030
0.0
  0
LINE
  5
CEF9
  8
01
 10
-90.641030552666535
 20
-409.44012285062132
 30
0.0
 11
-90.49901294518736
 21
-409.29810524314217
 31
0.0
1001
ACAD
1010
0.0
1020
0.0
1030
0.0
  0
SOLID
  5
CEFA
  8
01
 10
-146.33034592676751
 20
-404.01593809981648
 30
0.0
 11
-144.7781855999703
 21
-402.71136559089717
 31
0.0
 12
-145.8233407710749
 22
-404.44882401613353
 32
0.0
 13
-145.8233407710749
 23
-404.44882401613353
 33
0.0
  0
TEXT
  5
CEFC
  8
01
 10
-201.29898701060131
 20
-426.78753634428602
 30
0.0
 40
3.5
  1
フローリング床材
  0
SOLID
  5
CEFD
  8
01
 10
-170.83770844213461
 20
-408.30392415047959
 30
0.0
 11
-170.9762046639095
 21
-406.2810722261745
 31
0.0
 12
-170.18913464083431
 22
-408.14966310967128
 32
0.0
 13
-170.18913464083431
 23
-408.14966310967128
 33
0.0
  0
LINE
  5
CEFF
  8
01
 10
-90.499012945187303
 20
-398.44012285062098
 30
0.0
 11
-83.183406119791215
 21
-398.44012285062098
 31
0.0
  0
LINE
  5
CF00
  8
01
 10
-117.3554167060413
 20
-438.44012285062092
 30
0.0
 11
-83.183406119791243
 21
-438.44012285062092
 31
0.0
  0
LINE
  5
CF01
  8
01
 10
-84.183406119791229
 20
-400.44012285062098
 30
0.0
 11
-84.183406119791229
 21
-436.44012285062092
 31
0.0
  0
LINE
  5
CF05
  8
01
 10
-124.64409184063631
 20
-435.78542231224179
 30
0.0
 11
-124.64409184063631
 21
-446.77456660747248
 31
0.0
  0
LINE
  5
CF06
  8
01
 10
-116.64409184063631
 20
-435.78542231224179
 30
0.0
 11
-116.64409184063631
 21
-446.77456660747248
 31
0.0
  0
LINE
  5
CF07
  8
01
 10
-122.64409184063631
 20
-445.77456660747248
 30
0.0
 11
-118.64409184063631
 21
-445.77456660747248
 31
0.0
  0
LINE
  5
CF0B
  8
01
 10
-105.3930685336601
 20
-375.94012233692928
 30
0.0
 11
-83.183406119791243
 21
-375.94012233692928
 31
0.0
  0
LINE
  5
CF0C
  8
01
 10
-90.49901294518736
 20
-398.44012285062138
 30
0.0
 11
-83.183406119791243
 21
-398.44012285062138
 31
0.0
  0
LINE
  5
CF0D
  8
01
 10
-84.183406119791229
 20
-377.94012233692928
 30
0.0
 11
-84.183406119791229
 21
-396.44012285062138
 31
0.0
  0
LINE
  5
CF11
  8
01
 10
-134.84306675526739
 20
-390.44012285061729
 30
0.0
 11
-134.15883246274231
 21
-390.4401228506174
 31
0.0
  0
LINE
  5
CF12
  8
01
 10
-134.15883246274231
 20
-390.4401228506174
 30
0.0
 11
-134.10631890869101
 21
-390.32738137515861
 31
0.0
  0
LINE
  5
CF13
  8
01
 10
-134.10631890869101
 20
-390.32738137515861
 30
0.0
 11
-134.03618944673909
 21
-390.13845424044962
 31
0.0
  0
LINE
  5
CF14
  8
01
 10
-134.03618944673909
 20
-390.13845424044962
 30
0.0
 11
-133.9848136045274
 21
-389.94245892131909
 31
0.0
  0
LINE
  5
CF15
  8
01
 10
-133.9848136045274
 20
-389.94245892131909
 30
0.0
 11
-133.95137226329589
 21
-389.74222603760848
 31
0.0
  0
LINE
  5
CF16
  8
01
 10
-133.95137226329589
 20
-389.74222603760848
 30
0.0
 11
-133.9375680225115
 21
-389.59097326781807
 31
0.0
  0
LINE
  5
CF17
  8
01
 10
-133.9375680225115
 20
-389.59097326781807
 30
0.0
 11
-133.9330456184997
 21
-389.44012325935739
 31
0.0
  0
LINE
  5
CF18
  8
01
 10
-302.53378696051658
 20
-388.44012059779368
 30
0.0
 11
-274.0938801459414
 21
-388.44012059779368
 31
0.0
  0
LINE
  5
CF19
  8
01
 10
-208.53378696051689
 20
-390.44012285061729
 30
0.0
 11
-276.0938801459414
 21
-390.44012285061729
 31
0.0
  0
LINE
  5
CF1A
  8
01
 10
-275.0938801459414
 20
-392.44012285061729
 30
0.0
 11
-275.0938801459414
 21
-394.4401228506174
 31
0.0
  0
LINE
  5
CF1B
  8
01
 10
-275.0938801459414
 20
-386.44012059779368
 30
0.0
 11
-275.0938801459414
 21
-361.33594821203837
 31
0.0
  0
LINE
  5
CF1C
  8
01
 10
-275.0938801459414
 20
-390.44012285061729
 30
0.0
 11
-275.0938801459414
 21
-388.44012059779368
 31
0.0
  0
LINE
  5
CF20
  8
01
 10
-306.78378696051658
 20
-372.44012052677112
 30
0.0
 11
-331.03378695848733
 21
-372.44012052677112
 31
0.0
  0
LINE
  5
CF21
  8
01
 10
-302.53378696051658
 20
-388.44012059779368
 30
0.0
 11
-331.03378695848733
 21
-388.44012059779368
 31
0.0
  0
LINE
  5
CF22
  8
01
 10
-330.03378695848733
 20
-374.44012052677112
 30
0.0
 11
-330.03378695848733
 21
-386.44012059779368
 31
0.0
  0
LINE
  5
CF26
  8
01
 10
-305.78378696051658
 20
-330.44012059779362
 30
0.0
 11
-341.03378695848721
 21
-330.44012059779362
 31
0.0
  0
LINE
  5
CF27
  8
01
 10
-302.53378696051698
 20
-388.44012059779351
 30
0.0
 11
-341.03378695848733
 21
-388.44012059779351
 31
0.0
  0
LINE
  5
CF28
  8
01
 10
-340.03378695848721
 20
-332.44012059779362
 30
0.0
 11
-340.03378695848733
 21
-386.44012059779362
 31
0.0
  0
LINE
  5
CF2C
  8
01
 10
-354.59769512427641
 20
-330.94012059779379
 30
0.0
 11
-354.59769512427641
 21
-325.32544164745673
 31
0.0
  0
LINE
  5
CF2D
  8
01
 10
-364.59769512427641
 20
-330.94012059779379
 30
0.0
 11
-364.59769512427641
 21
-325.32544164745673
 31
0.0
  0
LINE
  5
CF2E
  8
01
 10
-356.59769512427641
 20
-326.32544164745673
 30
0.0
 11
-362.59769512427641
 21
-326.32544164745673
 31
0.0
  0
LINE
  5
CF32
  8
01
 10
-306.78378696051652
 20
-336.44012059779362
 30
0.0
 11
-331.03378695848733
 21
-336.44012059779362
 31
0.0
  0
LINE
  5
CF33
  8
01
 10
-306.78378696051658
 20
-372.44012052677112
 30
0.0
 11
-331.03378695848733
 21
-372.44012052677112
 31
0.0
  0
LINE
  5
CF34
  8
01
 10
-330.03378695848733
 20
-338.44012059779362
 30
0.0
 11
-330.03378695848733
 21
-370.44012052677112
 31
0.0
  0
LINE
  5
CF38
  8
01
 10
-178.0337870160557
 20
-375.94012233692928
 30
0.0
 11
-163.19241336104511
 21
-375.94012233692928
 31
0.0
  0
LINE
  5
CF39
  8
01
 10
-162.86824376102649
 20
-398.44012285062138
 30
0.0
 11
-165.19241336104511
 21
-398.44012285062138
 31
0.0
  0
LINE
  5
CF3A
  8
01
 10
-164.19241336104511
 20
-396.44012285062138
 30
0.0
 11
-164.19241336104511
 21
-377.94012233692928
 31
0.0
  0
LINE
  5
CF3B
  8
01
 10
-164.19241336104511
 20
-375.94012233692928
 30
0.0
 11
-164.19241336104511
 21
-361.040448936286
 31
0.0
  0
LINE
  5
CF3F
  8
01
 10
-301.28378696051658
 20
-294.73150625559981
 30
0.0
 11
-318.5337902470402
 21
-294.73150625559981
 31
0.0
  0
LINE
  5
CF40
  8
01
 10
-306.78378696051658
 20
-271.73150625559981
 30
0.0
 11
-318.5337902470402
 21
-271.73150625559981
 31
0.0
  0
LINE
  5
CF41
  8
01
 10
-317.53379024704009
 20
-292.73150625559981
 30
0.0
 11
-317.53379024704009
 21
-273.73150625559981
 31
0.0
  0
LINE
  5
CF45
  8
01
 10
-295.78378696051658
 20
-271.73150625559981
 30
0.0
 11
-295.78378696051658
 21
-262.21129216833589
 31
0.0
  0
LINE
  5
CF46
  8
01
 10
-306.78378696051658
 20
-271.73150625559981
 30
0.0
 11
-306.78378696051658
 21
-262.21129216833589
 31
0.0
  0
LINE
  5
CF47
  8
01
 10
-297.78378696051658
 20
-263.211292168336
 30
0.0
 11
-304.78378696051658
 21
-263.211292168336
 31
0.0
  0
LINE
  5
CF4B
  8
01
 10
-193.28378696051669
 20
-305.9815117949471
 30
0.0
 11
-162.87082549787439
 21
-305.9815117949471
 31
0.0
  0
LINE
  5
CF4C
  8
01
 10
-193.28378696051669
 20
-338.48151179494772
 30
0.0
 11
-162.87082549787439
 21
-338.48151179494772
 31
0.0
  0
LINE
  5
CF4D
  8
01
 10
-163.87082549787439
 20
-307.9815117949471
 30
0.0
 11
-163.87082549787439
 21
-336.48151179494772
 31
0.0
  0
LINE
  5
CF51
  8
01
 10
-207.48378696051671
 20
-390.44012285061729
 30
0.0
 11
-206.79955266799161
 21
-390.4401228506174
 31
0.0
  0
LINE
  5
CF52
  8
01
 10
-206.79955266799161
 20
-390.4401228506174
 30
0.0
 11
-206.7470391139403
 21
-390.32738137515861
 31
0.0
  0
LINE
  5
CF53
  8
01
 10
-206.7470391139403
 20
-390.32738137515861
 30
0.0
 11
-206.67690965198841
 21
-390.13845424044962
 31
0.0
  0
LINE
  5
CF54
  8
01
 10
-206.67690965198841
 20
-390.13845424044962
 30
0.0
 11
-206.6255338097767
 21
-389.94245892131909
 31
0.0
  0
LINE
  5
CF55
  8
01
 10
-206.6255338097767
 20
-389.94245892131909
 30
0.0
 11
-206.59209246854519
 21
-389.74222603760848
 31
0.0
  0
LINE
  5
CF56
  8
01
 10
-206.59209246854519
 20
-389.74222603760848
 30
0.0
 11
-206.57828822776091
 21
-389.59097326781807
 31
0.0
  0
LINE
  5
CF57
  8
01
 10
-206.57828822776091
 20
-389.59097326781807
 30
0.0
 11
-206.57376582374911
 21
-389.44012325935739
 31
0.0
  0
LINE
  5
CF58
  8
01
 10
-357.94769512427638
 20
-358.24012059779352
 30
0.0
 11
-357.94769512427638
 21
-339.8901205977935
 31
0.0
  0
LINE
  5
CF59
  8
01
 10
-359.59769512427641
 20
-359.84179559779352
 30
0.0
 11
-359.59769512427641
 21
-336.6813516977935
 31
0.0
  0
LINE
  5
CF5A
  8
01
 10
-361.24769512427639
 20
-358.24012059779352
 30
0.0
 11
-361.24769512427639
 21
-339.8901205977935
 31
0.0
  0
LINE
  5
CF5C
  8
01
 10
-357.59769512427641
 20
-357.89012059779361
 30
0.0
 11
-361.59769512427641
 21
-357.89012059779361
 31
0.0
  0
LINE
  5
CF5D
  8
01
 10
-356.59769512427641
 20
-338.54012060779348
 30
0.0
 11
-362.59769512427641
 21
-338.54012060779348
 31
0.0
  0
LINE
  5
CF5E
  8
01
 10
-361.59769512427641
 20
-339.54012077186752
 30
0.0
 11
-361.24769512427639
 21
-339.8901205977935
 31
0.0
  0
LINE
  5
CF5F
  8
01
 10
-357.94769512427638
 20
-339.8901205977935
 30
0.0
 11
-357.59769512427641
 21
-339.54012077186752
 31
0.0
  0
LINE
  5
CF60
  8
01
 10
-361.59769512427641
 20
-357.89012059779361
 30
0.0
 11
-361.59769512427641
 21
-339.54012077186752
 31
0.0
  0
LINE
  5
CF61
  8
01
 10
-361.24769512427628
 20
-358.24012059779352
 30
0.0
 11
-361.59769512427641
 21
-357.89012059779361
 31
0.0
  0
LINE
  5
CF62
  8
01
 10
-361.59769512427641
 20
-339.54012077186752
 30
0.0
 11
-362.59769512427641
 21
-338.5401206977935
 31
0.0
  0
LINE
  5
CF63
  8
01
 10
-357.94769512427638
 20
-358.24012059779352
 30
0.0
 11
-361.24769512427628
 21
-358.24012059779352
 31
0.0
  0
LINE
  5
CF64
  8
01
 10
-362.59769512427641
 20
-338.5401206977935
 30
0.0
 11
-362.59769512427641
 21
-338.24012059779352
 31
0.0
  0
LINE
  5
CF65
  8
01
 10
-357.59769512427641
 20
-357.89012059779361
 30
0.0
 11
-357.94769512427638
 21
-358.24012059779352
 31
0.0
  0
LINE
  5
CF66
  8
01
 10
-356.59769512427641
 20
-338.24012059779352
 30
0.0
 11
-362.59769512427641
 21
-338.24012059779352
 31
0.0
  0
LINE
  5
CF67
  8
01
 10
-357.59769512427641
 20
-357.89012059779361
 30
0.0
 11
-357.59769512427641
 21
-339.54012077186752
 31
0.0
  0
LINE
  5
CF68
  8
01
 10
-356.59769512427641
 20
-338.54012060779348
 30
0.0
 11
-356.59769512427641
 21
-338.24012059779352
 31
0.0
  0
LINE
  5
CF69
  8
01
 10
-357.59769512427641
 20
-339.54012077186752
 30
0.0
 11
-356.59769512427641
 21
-338.54012060779348
 31
0.0
  0
TEXT
  5
CF6A
  8
01
 10
-164.5708254978743
 20
-330.2648451282808
 30
0.0
 40
3.5
  1
φ32.5
 50
90.0
  0
LINE
  5
CF6B
  8
01
  6
BYBLOCK
 10
-163.3349271178744
 20
-336.48151179494772
 30
0.0
 11
-163.87082549787439
 21
-338.48151179494772
 31
0.0
  0
LINE
  5
CF6C
  8
01
  6
BYBLOCK
 10
-163.87082549787439
 20
-338.48151179494772
 30
0.0
 11
-164.40672387787441
 21
-336.48151179494772
 31
0.0
  0
LINE
  5
CF6D
  8
01
  6
BYBLOCK
 10
-163.87082549787439
 20
-338.48151179494772
 30
0.0
 11
-163.87082549787439
 21
-336.48151179494772
 31
0.0
  0
LINE
  5
CF6E
  8
01
  6
BYBLOCK
 10
-164.40672387787441
 20
-307.9815117949471
 30
0.0
 11
-163.87082549787439
 21
-305.9815117949471
 31
0.0
  0
LINE
  5
CF6F
  8
01
  6
BYBLOCK
 10
-163.87082549787439
 20
-305.9815117949471
 30
0.0
 11
-163.3349271178744
 21
-307.9815117949471
 31
0.0
  0
LINE
  5
CF70
  8
01
  6
BYBLOCK
 10
-163.87082549787439
 20
-305.9815117949471
 30
0.0
 11
-163.87082549787439
 21
-307.9815117949471
 31
0.0
  0
TEXT
  5
CF71
  8
01
 10
-304.36712029384989
 20
-262.5112921683359
 30
0.0
 40
3.5
  1
11
  0
LINE
  5
CF72
  8
01
  6
BYBLOCK
 10
-304.78378696051658
 20
-263.74719054833588
 30
0.0
 11
-306.78378696051658
 21
-263.211292168336
 31
0.0
  0
LINE
  5
CF73
  8
01
  6
BYBLOCK
 10
-306.78378696051658
 20
-263.211292168336
 30
0.0
 11
-304.78378696051658
 21
-262.67539378833601
 31
0.0
  0
LINE
  5
CF74
  8
01
  6
BYBLOCK
 10
-306.78378696051658
 20
-263.211292168336
 30
0.0
 11
-304.78378696051658
 21
-263.211292168336
 31
0.0
  0
LINE
  5
CF75
  8
01
  6
BYBLOCK
 10
-297.78378696051658
 20
-262.67539378833601
 30
0.0
 11
-295.78378696051658
 21
-263.211292168336
 31
0.0
  0
LINE
  5
CF76
  8
01
  6
BYBLOCK
 10
-295.78378696051658
 20
-263.211292168336
 30
0.0
 11
-297.78378696051658
 21
-263.74719054833588
 31
0.0
  0
LINE
  5
CF77
  8
01
  6
BYBLOCK
 10
-295.78378696051658
 20
-263.211292168336
 30
0.0
 11
-297.78378696051658
 21
-263.211292168336
 31
0.0
  0
TEXT
  5
CF78
  8
01
 10
-318.23379024704008
 20
-286.56483958893318
 30
0.0
 40
3.5
  1
23
 50
90.0
  0
LINE
  5
CF79
  8
01
  6
BYBLOCK
 10
-318.06968862704008
 20
-273.73150625559981
 30
0.0
 11
-317.53379024704009
 21
-271.73150625559981
 31
0.0
  0
LINE
  5
CF7A
  8
01
  6
BYBLOCK
 10
-317.53379024704009
 20
-271.73150625559981
 30
0.0
 11
-316.9978918670401
 21
-273.73150625559981
 31
0.0
  0
LINE
  5
CF7B
  8
01
  6
BYBLOCK
 10
-317.53379024704009
 20
-271.73150625559981
 30
0.0
 11
-317.53379024704009
 21
-273.73150625559981
 31
0.0
  0
LINE
  5
CF7C
  8
01
  6
BYBLOCK
 10
-316.9978918670401
 20
-292.73150625559981
 30
0.0
 11
-317.53379024704009
 21
-294.73150625559981
 31
0.0
  0
LINE
  5
CF7D
  8
01
  6
BYBLOCK
 10
-317.53379024704009
 20
-294.73150625559981
 30
0.0
 11
-318.06968862704008
 21
-292.73150625559981
 31
0.0
  0
LINE
  5
CF7E
  8
01
  6
BYBLOCK
 10
-317.53379024704009
 20
-294.73150625559981
 30
0.0
 11
-317.53379024704009
 21
-292.73150625559981
 31
0.0
  0
TEXT
  5
CF7F
  8
01
 10
-164.89241336104499
 20
-372.90711560295267
 30
0.0
 40
3.5
  1
22.5
 50
90.0
  0
LINE
  5
CF80
  8
01
  6
BYBLOCK
 10
-164.7283117410451
 20
-377.94012233692928
 30
0.0
 11
-164.19241336104511
 21
-375.94012233692928
 31
0.0
  0
LINE
  5
CF81
  8
01
  6
BYBLOCK
 10
-164.19241336104511
 20
-375.94012233692928
 30
0.0
 11
-163.65651498104509
 21
-377.94012233692928
 31
0.0
  0
LINE
  5
CF82
  8
01
  6
BYBLOCK
 10
-164.19241336104511
 20
-375.94012233692928
 30
0.0
 11
-164.19241336104511
 21
-377.94012233692928
 31
0.0
  0
LINE
  5
CF83
  8
01
  6
BYBLOCK
 10
-163.65651498104509
 20
-396.44012285062138
 30
0.0
 11
-164.19241336104511
 21
-398.44012285062138
 31
0.0
  0
LINE
  5
CF84
  8
01
  6
BYBLOCK
 10
-164.19241336104511
 20
-398.44012285062138
 30
0.0
 11
-164.7283117410451
 21
-396.44012285062138
 31
0.0
  0
LINE
  5
CF85
  8
01
  6
BYBLOCK
 10
-164.19241336104511
 20
-398.44012285062138
 30
0.0
 11
-164.19241336104511
 21
-396.44012285062138
 31
0.0
  0
TEXT
  5
CF86
  8
01
 10
-330.7337869584872
 20
-357.77345389561572
 30
0.0
 40
3.5
  1
36
 50
90.0
  0
LINE
  5
CF87
  8
01
  6
BYBLOCK
 10
-329.49788857848728
 20
-370.44012052677112
 30
0.0
 11
-330.03378695848733
 21
-372.44012052677112
 31
0.0
  0
LINE
  5
CF88
  8
01
  6
BYBLOCK
 10
-330.03378695848733
 20
-372.44012052677112
 30
0.0
 11
-330.56968533848732
 21
-370.44012052677112
 31
0.0
  0
LINE
  5
CF89
  8
01
  6
BYBLOCK
 10
-330.03378695848733
 20
-372.44012052677112
 30
0.0
 11
-330.03378695848733
 21
-370.44012052677112
 31
0.0
  0
LINE
  5
CF8A
  8
01
  6
BYBLOCK
 10
-330.56968533848732
 20
-338.44012059779362
 30
0.0
 11
-330.03378695848733
 21
-336.44012059779362
 31
0.0
  0
LINE
  5
CF8B
  8
01
  6
BYBLOCK
 10
-330.03378695848733
 20
-336.44012059779362
 30
0.0
 11
-329.49788857848728
 21
-338.44012059779362
 31
0.0
  0
LINE
  5
CF8C
  8
01
  6
BYBLOCK
 10
-330.03378695848733
 20
-336.44012059779362
 30
0.0
 11
-330.03378695848733
 21
-338.44012059779362
 31
0.0
  0
TEXT
  5
CF8D
  8
01
 10
-365.13102845760972
 20
-325.62544164745668
 30
0.0
 40
3.5
  1
φ10
  0
LINE
  5
CF8E
  8
01
  6
BYBLOCK
 10
-362.59769512427641
 20
-326.86134002745672
 30
0.0
 11
-364.59769512427641
 21
-326.32544164745673
 31
0.0
  0
LINE
  5
CF8F
  8
01
  6
BYBLOCK
 10
-364.59769512427641
 20
-326.32544164745673
 30
0.0
 11
-362.59769512427641
 21
-325.78954326745668
 31
0.0
  0
LINE
  5
CF90
  8
01
  6
BYBLOCK
 10
-364.59769512427641
 20
-326.32544164745673
 30
0.0
 11
-362.59769512427641
 21
-326.32544164745673
 31
0.0
  0
LINE
  5
CF91
  8
01
  6
BYBLOCK
 10
-356.59769512427641
 20
-325.78954326745668
 30
0.0
 11
-354.59769512427641
 21
-326.32544164745673
 31
0.0
  0
LINE
  5
CF92
  8
01
  6
BYBLOCK
 10
-354.59769512427641
 20
-326.32544164745673
 30
0.0
 11
-356.59769512427641
 21
-326.86134002745672
 31
0.0
  0
LINE
  5
CF93
  8
01
  6
BYBLOCK
 10
-354.59769512427641
 20
-326.32544164745673
 30
0.0
 11
-356.59769512427641
 21
-326.32544164745673
 31
0.0
  0
TEXT
  5
CF94
  8
01
 10
-340.7337869584872
 20
-362.77345393112699
 30
0.0
 40
3.5
  1
58
 50
90.0
  0
LINE
  5
CF95
  8
01
  6
BYBLOCK
 10
-339.49788857848728
 20
-386.44012059779362
 30
0.0
 11
-340.03378695848733
 21
-388.44012059779351
 31
0.0
  0
LINE
  5
CF96
  8
01
  6
BYBLOCK
 10
-340.03378695848733
 20
-388.44012059779351
 30
0.0
 11
-340.56968533848732
 21
-386.44012059779362
 31
0.0
  0
LINE
  5
CF97
  8
01
  6
BYBLOCK
 10
-340.03378695848733
 20
-388.44012059779351
 30
0.0
 11
-340.03378695848733
 21
-386.44012059779362
 31
0.0
  0
LINE
  5
CF98
  8
01
  6
BYBLOCK
 10
-340.5696853384872
 20
-332.44012059779362
 30
0.0
 11
-340.03378695848721
 21
-330.44012059779362
 31
0.0
  0
LINE
  5
CF99
  8
01
  6
BYBLOCK
 10
-340.03378695848721
 20
-330.44012059779362
 30
0.0
 11
-339.49788857848722
 21
-332.44012059779362
 31
0.0
  0
LINE
  5
CF9A
  8
01
  6
BYBLOCK
 10
-340.03378695848721
 20
-330.44012059779362
 30
0.0
 11
-340.03378695848721
 21
-332.44012059779362
 31
0.0
  0
TEXT
  5
CF9B
  8
01
 10
-330.7337869584872
 20
-384.02345389561577
 30
0.0
 40
3.5
  1
16
 50
90.0
  0
LINE
  5
CF9C
  8
01
  6
BYBLOCK
 10
-329.49788857848728
 20
-386.44012059779368
 30
0.0
 11
-330.03378695848733
 21
-388.44012059779368
 31
0.0
  0
LINE
  5
CF9D
  8
01
  6
BYBLOCK
 10
-330.03378695848733
 20
-388.44012059779368
 30
0.0
 11
-330.56968533848732
 21
-386.44012059779368
 31
0.0
  0
LINE
  5
CF9E
  8
01
  6
BYBLOCK
 10
-330.03378695848733
 20
-388.44012059779368
 30
0.0
 11
-330.03378695848733
 21
-386.44012059779368
 31
0.0
  0
LINE
  5
CF9F
  8
01
  6
BYBLOCK
 10
-330.56968533848732
 20
-374.44012052677112
 30
0.0
 11
-330.03378695848733
 21
-372.44012052677112
 31
0.0
  0
LINE
  5
CFA0
  8
01
  6
BYBLOCK
 10
-330.03378695848733
 20
-372.44012052677112
 30
0.0
 11
-329.49788857848728
 21
-374.44012052677112
 31
0.0
  0
LINE
  5
CFA1
  8
01
  6
BYBLOCK
 10
-330.03378695848733
 20
-372.44012052677112
 30
0.0
 11
-330.03378695848733
 21
-374.44012052677112
 31
0.0
  0
TEXT
  5
CFA2
  8
01
 10
-275.79388014594127
 20
-383.1692815453718
 30
0.0
 40
3.5
  1
1～2 ｍｍ
 50
90.0
  0
LINE
  5
CFA3
  8
01
  6
BYBLOCK
 10
-274.55798176594141
 20
-386.44012059779368
 30
0.0
 11
-275.0938801459414
 21
-388.44012059779368
 31
0.0
  0
LINE
  5
CFA4
  8
01
  6
BYBLOCK
 10
-275.0938801459414
 20
-388.44012059779368
 30
0.0
 11
-275.62977852594139
 21
-386.44012059779368
 31
0.0
  0
LINE
  5
CFA5
  8
01
  6
BYBLOCK
 10
-275.0938801459414
 20
-388.44012059779368
 30
0.0
 11
-275.0938801459414
 21
-386.44012059779368
 31
0.0
  0
LINE
  5
CFA6
  8
01
  6
BYBLOCK
 10
-275.62977852594139
 20
-392.44012285061729
 30
0.0
 11
-275.0938801459414
 21
-390.44012285061729
 31
0.0
  0
LINE
  5
CFA7
  8
01
  6
BYBLOCK
 10
-275.0938801459414
 20
-390.44012285061729
 30
0.0
 11
-274.55798176594141
 21
-392.44012285061729
 31
0.0
  0
LINE
  5
CFA8
  8
01
  6
BYBLOCK
 10
-275.0938801459414
 20
-390.44012285061729
 30
0.0
 11
-275.0938801459414
 21
-392.44012285061729
 31
0.0
  0
TEXT
  5
CFA9
  8
01
 10
-84.883406119791175
 20
-393.02345592710873
 30
0.0
 40
3.5
  1
22.5
 50
90.0
  0
LINE
  5
CFAA
  8
01
  6
BYBLOCK
 10
-83.647507739791223
 20
-396.44012285062138
 30
0.0
 11
-84.183406119791229
 21
-398.44012285062138
 31
0.0
  0
LINE
  5
CFAB
  8
01
  6
BYBLOCK
 10
-84.183406119791229
 20
-398.44012285062138
 30
0.0
 11
-84.719304499791235
 21
-396.44012285062138
 31
0.0
  0
LINE
  5
CFAC
  8
01
  6
BYBLOCK
 10
-84.183406119791229
 20
-398.44012285062138
 30
0.0
 11
-84.183406119791229
 21
-396.44012285062138
 31
0.0
  0
LINE
  5
CFAD
  8
01
  6
BYBLOCK
 10
-84.719304499791235
 20
-377.94012233692928
 30
0.0
 11
-84.183406119791229
 21
-375.94012233692928
 31
0.0
  0
LINE
  5
CFAE
  8
01
  6
BYBLOCK
 10
-84.183406119791229
 20
-375.94012233692928
 30
0.0
 11
-83.647507739791223
 21
-377.94012233692928
 31
0.0
  0
LINE
  5
CFAF
  8
01
  6
BYBLOCK
 10
-84.183406119791229
 20
-375.94012233692928
 30
0.0
 11
-84.183406119791229
 21
-377.94012233692928
 31
0.0
  0
TEXT
  5
CFB0
  8
01
 10
-124.510758507303
 20
-445.07456660747249
 30
0.0
 40
3.5
  1
φ8
  0
LINE
  5
CFB1
  8
01
  6
BYBLOCK
 10
-118.64409184063631
 20
-445.23866822747249
 30
0.0
 11
-116.64409184063631
 21
-445.77456660747248
 31
0.0
  0
LINE
  5
CFB2
  8
01
  6
BYBLOCK
 10
-116.64409184063631
 20
-445.77456660747248
 30
0.0
 11
-118.64409184063631
 21
-446.31046498747253
 31
0.0
  0
LINE
  5
CFB3
  8
01
  6
BYBLOCK
 10
-116.64409184063631
 20
-445.77456660747248
 30
0.0
 11
-118.64409184063631
 21
-445.77456660747248
 31
0.0
  0
LINE
  5
CFB4
  8
01
  6
BYBLOCK
 10
-122.64409184063631
 20
-446.31046498747253
 30
0.0
 11
-124.64409184063631
 21
-445.77456660747248
 31
0.0
  0
LINE
  5
CFB5
  8
01
  6
BYBLOCK
 10
-124.64409184063631
 20
-445.77456660747248
 30
0.0
 11
-122.64409184063631
 21
-445.23866822747249
 31
0.0
  0
LINE
  5
CFB6
  8
01
  6
BYBLOCK
 10
-124.64409184063631
 20
-445.77456660747248
 30
0.0
 11
-122.64409184063631
 21
-445.77456660747248
 31
0.0
  0
TEXT
  5
CFB7
  8
01
 10
-84.883406119791175
 20
-424.27345618395469
 30
0.0
 40
3.5
  1
40
 50
90.0
  0
LINE
  5
CFB8
  8
01
  6
BYBLOCK
 10
-83.647507739791223
 20
-436.44012285062092
 30
0.0
 11
-84.183406119791229
 21
-438.44012285062092
 31
0.0
  0
LINE
  5
CFB9
  8
01
  6
BYBLOCK
 10
-84.183406119791229
 20
-438.44012285062092
 30
0.0
 11
-84.719304499791235
 21
-436.44012285062092
 31
0.0
  0
LINE
  5
CFBA
  8
01
  6
BYBLOCK
 10
-84.183406119791229
 20
-438.44012285062092
 30
0.0
 11
-84.183406119791229
 21
-436.44012285062092
 31
0.0
  0
LINE
  5
CFBB
  8
01
  6
BYBLOCK
 10
-84.719304499791235
 20
-400.44012285062098
 30
0.0
 11
-84.183406119791229
 21
-398.44012285062098
 31
0.0
  0
LINE
  5
CFBC
  8
01
  6
BYBLOCK
 10
-84.183406119791229
 20
-398.44012285062098
 30
0.0
 11
-83.647507739791223
 21
-400.44012285062098
 31
0.0
  0
LINE
  5
CFBD
  8
01
  6
BYBLOCK
 10
-84.183406119791229
 20
-398.44012285062098
 30
0.0
 11
-84.183406119791229
 21
-400.44012285062098
 31
0.0
  0
LINE
  5
CFBE
  8
01
 10
-170.5134215414844
 20
-408.22679363007552
 30
0.0
 11
-165.93232034393461
 21
-427.48753634428601
 31
0.0
  0
LINE
  5
CFBF
  8
01
 10
-165.93232034393461
 20
-427.48753634428601
 30
0.0
 11
-201.29898701060131
 21
-427.48753634428601
 31
0.0
  0
LINE
  5
CFC0
  8
01
 10
-146.07684334892119
 20
-404.23238105797498
 30
0.0
 11
-165.93232034393469
 21
-427.48753634428579
 31
0.0
  0
TEXT
  5
CFC1
  8
01
 10
-407.92926673423818
 20
-360.12345036987
 30
0.0
 40
3.5
  1
11
 50
90.0
  0
LINE
  5
CFC2
  8
01
  6
BYBLOCK
 10
-406.69336835423832
 20
-360.5401135463037
 30
0.0
 11
-407.22926673423831
 21
-362.5401135463037
 31
0.0
  0
LINE
  5
CFC3
  8
01
  6
BYBLOCK
 10
-407.22926673423831
 20
-362.5401135463037
 30
0.0
 11
-407.7651651142383
 21
-360.5401135463037
 31
0.0
  0
LINE
  5
CFC4
  8
01
  6
BYBLOCK
 10
-407.22926673423831
 20
-362.5401135463037
 30
0.0
 11
-407.22926673423831
 21
-360.5401135463037
 31
0.0
  0
LINE
  5
CFC5
  8
01
  6
BYBLOCK
 10
-407.7651651142383
 20
-353.5401205267695
 30
0.0
 11
-407.22926673423831
 21
-351.5401205267695
 31
0.0
  0
LINE
  5
CFC6
  8
01
  6
BYBLOCK
 10
-407.22926673423831
 20
-351.5401205267695
 30
0.0
 11
-406.69336835423832
 21
-353.5401205267695
 31
0.0
  0
LINE
  5
CFC7
  8
01
  6
BYBLOCK
 10
-407.22926673423831
 20
-351.5401205267695
 30
0.0
 11
-407.22926673423831
 21
-353.5401205267695
 31
0.0
  0
TEXT
  5
CFC8
  8
01
 10
-407.92926673423813
 20
-383.8234515317962
 30
0.0
 40
3.5
  1
36
 50
90.0
  0
LINE
  5
CFC9
  8
01
  6
BYBLOCK
 10
-406.69336835423832
 20
-396.44012285062189
 30
0.0
 11
-407.22926673423831
 21
-398.44012285062189
 31
0.0
  0
LINE
  5
CFCA
  8
01
  6
BYBLOCK
 10
-407.22926673423831
 20
-398.44012285062189
 30
0.0
 11
-407.7651651142383
 21
-396.44012285062189
 31
0.0
  0
LINE
  5
CFCB
  8
01
  6
BYBLOCK
 10
-407.22926673423831
 20
-398.44012285062189
 30
0.0
 11
-407.22926673423831
 21
-396.44012285062189
 31
0.0
  0
LINE
  5
CFCC
  8
01
  6
BYBLOCK
 10
-407.76516511423819
 20
-364.5401135463037
 30
0.0
 11
-407.22926673423819
 21
-362.5401135463037
 31
0.0
  0
LINE
  5
CFCD
  8
01
  6
BYBLOCK
 10
-407.22926673423819
 20
-362.5401135463037
 30
0.0
 11
-406.6933683542382
 21
-364.5401135463037
 31
0.0
  0
LINE
  5
CFCE
  8
01
  6
BYBLOCK
 10
-407.22926673423819
 20
-362.5401135463037
 30
0.0
 11
-407.22926673423819
 21
-364.5401135463037
 31
0.0
  0
LINE
  5
CFCF
  8
01
 10
-295.08680533689358
 20
-280.17636126083579
 30
0.0
 11
-277.70132692782539
 21
-258.64732551500617
 31
0.0
  0
LINE
  5
CFD0
  8
01
 10
-277.70132692782539
 20
-258.64732551500617
 30
0.0
 11
-229.73466026115869
 21
-258.64732551500617
 31
0.0
  0
LINE
  5
CFD1
  8
01
 10
-299.46700089664313
 20
-328.75474158895338
 30
0.0
 11
-276.85937431934002
 21
-299.29400098379978
 31
0.0
  0
LINE
  5
CFD2
  8
01
 10
-276.85937431934002
 20
-299.29400098379978
 30
0.0
 11
-228.89270765267341
 21
-299.29400098379978
 31
0.0
  0
LINE
  5
CFD3
  8
01
 10
-370.7807888582899
 20
-334.4846467632118
 30
0.0
 11
-364.41674163094967
 21
-304.83099800461838
 31
0.0
  0
LINE
  5
CFD4
  8
01
 10
-364.41674163094967
 20
-304.83099800461838
 30
0.0
 11
-412.38340829761643
 21
-304.83099800461838
 31
0.0
  0
LINE
  5
CFD5
  8
01
 10
-210.50684125592059
 20
-395.23372752591462
 30
0.0
 11
-219.5628006800824
 21
-380.2001015871582
 31
0.0
  0
LINE
  5
CFD6
  8
01
 10
-219.5628006800824
 20
-380.2001015871582
 30
0.0
 11
-267.52946734674902
 21
-380.2001015871582
 31
0.0
  0
LINE
  5
CFD7
  8
01
 10
-202.09535962872479
 20
-374.13308473796678
 30
0.0
 11
-213.05703780694179
 21
-351.02226013188027
 31
0.0
  0
LINE
  5
CFD8
  8
01
 10
-213.05703780694179
 20
-351.02226013188027
 30
0.0
 11
-273.7570378069417
 21
-351.02226013188027
 31
0.0
  0
LINE
  5
CFD9
  8
01
 10
-202.74844475059371
 20
-325.14478684136429
 30
0.0
 11
-221.74085833252281
 21
-319.301815154297
 31
0.0
  0
LINE
  5
CFDA
  8
01
 10
-221.74085833252281
 20
-319.301815154297
 30
0.0
 11
-265.5075249991894
 21
-319.301815154297
 31
0.0
  0
LINE
  5
CFDB
  8
01
 10
-303.2905925345537
 20
-390.29140267330411
 30
0.0
 11
-311.99308037257128
 21
-411.57924766224698
 31
0.0
  0
LINE
  5
CFDC
  8
01
 10
-311.99308037257128
 20
-411.57924766224698
 30
0.0
 11
-355.75974703923799
 21
-411.57924766224698
 31
0.0
  0
LINE
  5
CFDD
  8
01
 10
-126.32802628069589
 20
-426.8644796793829
 30
0.0
 11
-155.9172671632121
 21
-445.82512779182252
 31
0.0
  0
LINE
  5
CFDE
  8
01
 10
-155.9172671632121
 20
-445.82512779182252
 30
0.0
 11
-187.08393382987879
 21
-445.82512779182252
 31
0.0
  0
VIEWPORT
  5
57
 67
     1
  8
0
 10
-12.71992488646128
 20
10.089164235928759
 30
0.0
 40
405.34199234641852
 41
286.996607080991
 68
     1
 69
     1
1001
ACAD
1000
MVIEW
1002
{
1070
    16
1010
0.0
1020
0.0
1030
0.0
1010
0.0
1020
0.0
1030
1.0
1040
0.0
1040
286.996607080991
1040
-12.71992488646128
1040
10.089164235928759
1040
50.0
1040
0.0
1040
0.0
1070
     0
1070
   100
1070
     1
1070
     1
1070
     0
1070
     0
1070
     0
1070
     0
1040
0.0
1040
0.0
1040
0.0
1040
10.0
1040
10.0
1040
10.0
1040
10.0
1070
     0
1002
{
1002
}
1002
}
  0
ENDSEC
  0
EOF
