  0
SECTION
  2
HEADER
  9
$ACADVER
  1
AC1012
  9
$DWGCODEPAGE
  3
ansi_932
  9
$INSBASE
 10
0.0
 20
0.0
 30
0.0
  9
$EXTMIN
 10
-34.21350816958414
 20
458.2125769569854
 30
0.0
  9
$EXTMAX
 10
671.2112473961666
 20
770.3742595279082
 30
0.0
  9
$LIMMIN
 10
0.0
 20
0.0
  9
$LIMMAX
 10
420.0
 20
297.0
  9
$ORTHOMODE
 70
     0
  9
$REGENMODE
 70
     1
  9
$FILLMODE
 70
     1
  9
$QTEXTMODE
 70
     0
  9
$MIRRTEXT
 70
     0
  9
$DRAGMODE
 70
     2
  9
$LTSCALE
 40
0.5
  9
$OSMODE
 70
 14463
  9
$ATTMODE
 70
     1
  9
$TEXTSIZE
 40
4.0
  9
$TRACEWID
 40
1.0
  9
$TEXTSTYLE
  7
STANDARD
  9
$CLAYER
  8
1TEXT
  9
$CELTYPE
  6
BYLAYER
  9
$CECOLOR
 62
   256
  9
$CELTSCALE
 40
1.0
  9
$DELOBJ
 70
     1
  9
$DISPSILH
 70
     0
  9
$DIMSCALE
 40
1.0
  9
$DIMASZ
 40
2.0
  9
$DIMEXO
 40
0.0
  9
$DIMDLI
 40
7.0
  9
$DIMRND
 40
0.0
  9
$DIMDLE
 40
0.0
  9
$DIMEXE
 40
1.0
  9
$DIMTP
 40
0.0
  9
$DIMTM
 40
0.0
  9
$DIMTXT
 40
3.5
  9
$DIMCEN
 40
0.0
  9
$DIMTSZ
 40
0.0
  9
$DIMTOL
 70
     0
  9
$DIMLIM
 70
     0
  9
$DIMTIH
 70
     0
  9
$DIMTOH
 70
     0
  9
$DIMSE1
 70
     0
  9
$DIMSE2
 70
     0
  9
$DIMTAD
 70
     1
  9
$DIMZIN
 70
     8
  9
$DIMBLK
  1

  9
$DIMASO
 70
     1
  9
$DIMSHO
 70
     1
  9
$DIMPOST
  1
 
  9
$DIMAPOST
  1

  9
$DIMALT
 70
     0
  9
$DIMALTD
 70
     2
  9
$DIMALTF
 40
25.4
  9
$DIMLFAC
 40
1.0
  9
$DIMTOFL
 70
     1
  9
$DIMTVP
 40
0.0
  9
$DIMTIX
 70
     0
  9
$DIMSOXD
 70
     0
  9
$DIMSAH
 70
     1
  9
$DIMBLK1
  1
OPEN30
  9
$DIMBLK2
  1
OPEN30
  9
$DIMSTYLE
  2
NEWX10
  9
$DIMCLRD
 70
   256
  9
$DIMCLRE
 70
   256
  9
$DIMCLRT
 70
   201
  9
$DIMTFAC
 40
0.7
  9
$DIMGAP
 40
0.7
  9
$DIMJUST
 70
     0
  9
$DIMSD1
 70
     0
  9
$DIMSD2
 70
     0
  9
$DIMTOLJ
 70
     1
  9
$DIMTZIN
 70
     8
  9
$DIMALTZ
 70
     0
  9
$DIMALTTZ
 70
     0
  9
$DIMFIT
 70
     3
  9
$DIMUPT
 70
     0
  9
$DIMUNIT
 70
     2
  9
$DIMDEC
 70
     2
  9
$DIMTDEC
 70
     4
  9
$DIMALTU
 70
     2
  9
$DIMALTTD
 70
     2
  9
$DIMTXSTY
  7
STANDARD
  9
$DIMAUNIT
 70
     0
  9
$LUNITS
 70
     2
  9
$LUPREC
 70
     4
  9
$SKETCHINC
 40
1.0
  9
$FILLETRAD
 40
0.0
  9
$AUNITS
 70
     0
  9
$AUPREC
 70
     2
  9
$MENU
  1
acad
  9
$ELEVATION
 40
0.0
  9
$PELEVATION
 40
0.0
  9
$THICKNESS
 40
0.0
  9
$LIMCHECK
 70
     0
  9
$CHAMFERA
 40
0.5
  9
$CHAMFERB
 40
0.5
  9
$CHAMFERC
 40
20.0
  9
$CHAMFERD
 40
0.0
  9
$SKPOLY
 70
     0
  9
$TDCREATE
 40
2451318.621352917
  9
$TDUPDATE
 40
2458149.696813379
  9
$TDINDWG
 40
2.910883287
  9
$TDUSRTIMER
 40
2.910883287
  9
$USRTIMER
 70
     1
  9
$ANGBASE
 50
0.0
  9
$ANGDIR
 70
     0
  9
$PDMODE
 70
     0
  9
$PDSIZE
 40
0.0
  9
$PLINEWID
 40
0.0
  9
$COORDS
 70
     2
  9
$SPLFRAME
 70
     0
  9
$SPLINETYPE
 70
     6
  9
$SPLINESEGS
 70
     8
  9
$ATTDIA
 70
     0
  9
$ATTREQ
 70
     1
  9
$HANDLING
 70
     1
  9
$HANDSEED
  5
B908
  9
$SURFTAB1
 70
     6
  9
$SURFTAB2
 70
     6
  9
$SURFTYPE
 70
     6
  9
$SURFU
 70
     6
  9
$SURFV
 70
     6
  9
$UCSNAME
  2

  9
$UCSORG
 10
0.0
 20
0.0
 30
0.0
  9
$UCSXDIR
 10
1.0
 20
0.0
 30
0.0
  9
$UCSYDIR
 10
0.0
 20
1.0
 30
0.0
  9
$PUCSNAME
  2

  9
$PUCSORG
 10
0.0
 20
0.0
 30
0.0
  9
$PUCSXDIR
 10
1.0
 20
0.0
 30
0.0
  9
$PUCSYDIR
 10
0.0
 20
1.0
 30
0.0
  9
$USERI1
 70
     0
  9
$USERI2
 70
     0
  9
$USERI3
 70
     0
  9
$USERI4
 70
     0
  9
$USERI5
 70
     0
  9
$USERR1
 40
0.0
  9
$USERR2
 40
0.0
  9
$USERR3
 40
0.0
  9
$USERR4
 40
0.0
  9
$USERR5
 40
11.5
  9
$WORLDVIEW
 70
     1
  9
$SHADEDGE
 70
     3
  9
$SHADEDIF
 70
    70
  9
$TILEMODE
 70
     1
  9
$MAXACTVP
 70
    48
  9
$PINSBASE
 10
0.0
 20
0.0
 30
0.0
  9
$PLIMCHECK
 70
     0
  9
$PEXTMIN
 10
1.000000000000000E+20
 20
1.000000000000000E+20
 30
1.000000000000000E+20
  9
$PEXTMAX
 10
-1.000000000000000E+20
 20
-1.000000000000000E+20
 30
-1.000000000000000E+20
  9
$PLIMMIN
 10
0.0
 20
0.0
  9
$PLIMMAX
 10
420.0
 20
297.0
  9
$UNITMODE
 70
     0
  9
$VISRETAIN
 70
     1
  9
$PLINEGEN
 70
     0
  9
$PSLTSCALE
 70
     1
  9
$TREEDEPTH
 70
  3020
  9
$PICKSTYLE
 70
     1
  9
$CMLSTYLE
  2
STANDARD
  9
$CMLJUST
 70
     0
  9
$CMLSCALE
 40
20.0
  9
$SAVEIMAGES
 70
     1
  0
ENDSEC
  0
SECTION
  2
CLASSES
  0
CLASS
  1
DICTIONARYVAR
  2
AcDbDictionaryVar
  3
ObjectDBX Classes
 90
        0
280
     0
281
     0
  0
CLASS
  1
IDBUFFER
  2
AcDbIdBuffer
  3
ObjectDBX Classes
 90
    32768
280
     0
281
     0
  0
CLASS
  1
LWPOLYLINE
  2
AcDbPolyline
  3
ObjectDBX Classes
 90
    32768
280
     0
281
     1
  0
CLASS
  1
HATCH
  2
AcDbHatch
  3
ObjectDBX Classes
 90
    32768
280
     0
281
     1
  0
CLASS
  1
ACDBDICTIONARYWDFLT
  2
AcDbDictionaryWithDefault
  3
ObjectDBX Classes
 90
    32768
280
     0
281
     0
  0
CLASS
  1
TABLESTYLE
  2
AcDbTableStyle
  3
ObjectDBX Classes
 90
     4095
280
     0
281
     0
  0
CLASS
  1
SORTENTSTABLE
  2
AcDbSortentsTable
  3
ObjectDBX Classes
 90
    32768
280
     0
281
     0
  0
CLASS
  1
ACDBPLACEHOLDER
  2
AcDbPlaceHolder
  3
ObjectDBX Classes
 90
        0
280
     0
281
     0
  0
CLASS
  1
LAYOUT
  2
AcDbLayout
  3
ObjectDBX Classes
 90
        0
280
     0
281
     0
  0
CLASS
  1
MATERIAL
  2
AcDbMaterial
  3
ObjectDBX Classes
 90
     1153
280
     0
281
     0
  0
CLASS
  1
VISUALSTYLE
  2
AcDbVisualStyle
  3
ObjectDBX Classes
 90
     4095
280
     0
281
     0
  0
CLASS
  1
SCALE
  2
AcDbScale
  3
ObjectDBX Classes
 90
     1153
280
     0
281
     0
  0
CLASS
  1
MLEADERSTYLE
  2
AcDbMLeaderStyle
  3
ACDB_MLEADERSTYLE_CLASS
 90
     4095
280
     0
281
     0
  0
CLASS
  1
CELLSTYLEMAP
  2
AcDbCellStyleMap
  3
ObjectDBX Classes
 90
     1152
280
     0
281
     0
  0
CLASS
  1
DIMASSOC
  2
AcDbDimAssoc
  3
"AcDbDimAssoc|Product Desc:     AcDim ARX App For Dimension|Company:          Autodesk, Inc.|WEB Address:      www.autodesk.com"
 90
        0
280
     0
281
     0
  0
CLASS
  1
SUN
  2
AcDbSun
  3
SCENEOE
 90
     1153
280
     0
281
     0
  0
CLASS
  1
XRECORD
  2
AcDbXrecord
  3
ObjectDBX Classes
 90
    32768
280
     0
281
     0
  0
ENDSEC
  0
SECTION
  2
TABLES
  0
TABLE
  2
VPORT
  5
8
330
0
100
AcDbSymbolTable
 70
     1
  0
VPORT
  5
8D3B
330
8
100
AcDbSymbolTableRecord
100
AcDbViewportTableRecord
  2
*ACTIVE
 70
     0
 10
0.0
 20
0.0
 11
1.0
 21
1.0
 12
318.4988696132912
 22
614.2934182424468
 13
0.0
 23
0.0
 14
10.0
 24
10.0
 15
10.0
 25
10.0
 16
0.0
 26
0.0
 36
1.0
 17
0.0
 27
0.0
 37
0.0
 40
339.0677236067269
 41
2.233782129742962
 42
50.0
 43
0.0
 44
0.0
 50
0.0
 51
0.0
 71
    16
 72
   100
 73
     1
 74
     1
 75
     0
 76
     0
 77
     0
 78
     0
1001
ACAD_NAV_VCDISPLAY
1070
     3
  0
ENDTAB
  0
TABLE
  2
LTYPE
  5
5
330
0
100
AcDbSymbolTable
 70
     6
  0
LTYPE
  5
12
330
5
100
AcDbSymbolTableRecord
100
AcDbLinetypeTableRecord
  2
BYBLOCK
 70
     0
  3

 72
    65
 73
     0
 40
0.0
  0
LTYPE
  5
13
330
5
100
AcDbSymbolTableRecord
100
AcDbLinetypeTableRecord
  2
BYLAYER
 70
     0
  3

 72
    65
 73
     0
 40
0.0
  0
LTYPE
  5
14
330
5
100
AcDbSymbolTableRecord
100
AcDbLinetypeTableRecord
  2
CONTINUOUS
 70
     0
  3
Solid line
 72
    65
 73
     0
 40
0.0
  0
LTYPE
  5
6A
330
5
100
AcDbSymbolTableRecord
100
AcDbLinetypeTableRecord
  2
XREF1|CENTER2
 70
    48
  3
Center (.5x) ___ _ ___ _ ___ _ ___ _ ___ _ ___
 72
    65
 73
     4
 40
28.575
 49
19.05
 74
     0
 49
-3.175
 74
     0
 49
3.175
 74
     0
 49
-3.175
 74
     0
  0
LTYPE
  5
FF
330
5
100
AcDbSymbolTableRecord
100
AcDbLinetypeTableRecord
  2
HIDDEN
 70
     0
  3
Hidden __ __ __ __ __ __ __ __ __ __ __ __ __ _
 72
    65
 73
     2
 40
9.524999999999999
 49
6.35
 74
     0
 49
-3.175
 74
     0
  0
LTYPE
  5
100
330
5
100
AcDbSymbolTableRecord
100
AcDbLinetypeTableRecord
  2
PHANTOM2
 70
     0
  3
Phantom (0.5x) ___ _ _ ___ _ _ ___ _ _ ___ _ _
 72
    65
 73
     6
 40
31.75
 49
15.875
 74
     0
 49
-3.175
 74
     0
 49
3.175
 74
     0
 49
-3.175
 74
     0
 49
3.175
 74
     0
 49
-3.175
 74
     0
  0
LTYPE
  5
A9D8
330
5
100
AcDbSymbolTableRecord
100
AcDbLinetypeTableRecord
  2
CENTER2
 70
     0
  3
Center (.5x) ___ _ ___ _ ___ _ ___ _ ___ _ ___
 72
    65
 73
     4
 40
28.575
 49
19.05
 74
     0
 49
-3.175
 74
     0
 49
3.175
 74
     0
 49
-3.175
 74
     0
  0
LTYPE
  5
AA2F
330
5
100
AcDbSymbolTableRecord
100
AcDbLinetypeTableRecord
  2
A3WAKUDAKE|CENTER2
 70
    48
  3
Center (.5x) ___ _ ___ _ ___ _ ___ _ ___ _ ___
 72
    65
 73
     4
 40
28.575
 49
19.05
 74
     0
 49
-3.175
 74
     0
 49
3.175
 74
     0
 49
-3.175
 74
     0
  0
ENDTAB
  0
TABLE
  2
LAYER
  5
2
102
{ACAD_XDICTIONARY
360
8F7F
102
}
330
0
100
AcDbSymbolTable
 70
    12
  0
LAYER
  5
E
102
{ACAD_XDICTIONARY
360
8D9E
102
}
330
2
100
AcDbSymbolTableRecord
100
AcDbLayerTableRecord
  2
0
 70
     0
 62
     7
  6
CONTINUOUS
  0
LAYER
  5
29
102
{ACAD_XDICTIONARY
360
8DA0
102
}
330
2
100
AcDbSymbolTableRecord
100
AcDbLayerTableRecord
  2
1CENTER
 70
     0
 62
     7
  6
CENTER2
  0
LAYER
  5
31
102
{ACAD_XDICTIONARY
360
8DA2
102
}
330
2
100
AcDbSymbolTableRecord
100
AcDbLayerTableRecord
  2
1TEXT
 70
     0
 62
     7
  6
CONTINUOUS
  0
LAYER
  5
101
102
{ACAD_XDICTIONARY
360
8DB2
102
}
330
2
100
AcDbSymbolTableRecord
100
AcDbLayerTableRecord
  2
1DIM
 70
     0
 62
     7
  6
CONTINUOUS
  0
LAYER
  5
102
102
{ACAD_XDICTIONARY
360
8DB4
102
}
330
2
100
AcDbSymbolTableRecord
100
AcDbLayerTableRecord
  2
1HIDDEN
 70
     0
 62
     7
  6
HIDDEN
  0
LAYER
  5
103
102
{ACAD_XDICTIONARY
360
8DB6
102
}
330
2
100
AcDbSymbolTableRecord
100
AcDbLayerTableRecord
  2
1PHANTOM
 70
     0
 62
     7
  6
PHANTOM2
  0
LAYER
  5
159
102
{ACAD_XDICTIONARY
360
8DBE
102
}
330
2
100
AcDbSymbolTableRecord
100
AcDbLayerTableRecord
  2
1HATCH
 70
     0
 62
     7
  6
CONTINUOUS
  0
LAYER
  5
15C
102
{ACAD_XDICTIONARY
360
8DC4
102
}
330
2
100
AcDbSymbolTableRecord
100
AcDbLayerTableRecord
  2
01
 70
     0
 62
     1
  6
CONTINUOUS
  0
LAYER
  5
8893
102
{ACAD_XDICTIONARY
360
8E4A
102
}
330
2
100
AcDbSymbolTableRecord
100
AcDbLayerTableRecord
  2
A3WAKUDAKE|THICK
 70
    48
 62
     7
  6
CONTINUOUS
  0
LAYER
  5
8894
102
{ACAD_XDICTIONARY
360
8E4C
102
}
330
2
100
AcDbSymbolTableRecord
100
AcDbLayerTableRecord
  2
A3WAKUDAKE|POINT
 70
    48
 62
     7
  6
CONTINUOUS
  0
LAYER
  5
8895
102
{ACAD_XDICTIONARY
360
8E4E
102
}
330
2
100
AcDbSymbolTableRecord
100
AcDbLayerTableRecord
  2
A3WAKUDAKE|1CENTER
 70
    48
 62
     7
  6
CONTINUOUS
  0
LAYER
  5
8896
102
{ACAD_XDICTIONARY
360
8E50
102
}
330
2
100
AcDbSymbolTableRecord
100
AcDbLayerTableRecord
  2
A3WAKUDAKE|0-6
 70
    48
 62
     7
  6
CONTINUOUS
  0
ENDTAB
  0
TABLE
  2
STYLE
  5
3
330
0
100
AcDbSymbolTable
 70
     3
  0
STYLE
  5
F
330
3
100
AcDbSymbolTableRecord
100
AcDbTextStyleTableRecord
  2
STANDARD
 70
     0
 40
0.0
 41
1.0
 50
0.0
 71
     0
 42
4.0
  3
txt.shx
  4
extfont.shx
  0
STYLE
  5
AA31
330
3
100
AcDbSymbolTableRecord
100
AcDbTextStyleTableRecord
  2
A3WAKUDAKE|STANDARD
 70
    48
 40
0.0
 41
1.0
 50
0.0
 71
     0
 42
4.0
  3
romans.shx
  4
extfont.shx
  0
STYLE
  5
AA59
330
3
100
AcDbSymbolTableRecord
100
AcDbTextStyleTableRecord
  2
XREF1|STANDARD
 70
    48
 40
0.0
 41
1.0
 50
0.0
 71
     0
 42
4.0
  3
romans.shx
  4
extfont.shx
  0
ENDTAB
  0
TABLE
  2
VIEW
  5
6
330
0
100
AcDbSymbolTable
 70
     0
  0
ENDTAB
  0
TABLE
  2
UCS
  5
7
330
0
100
AcDbSymbolTable
 70
     5
  0
UCS
  5
A448
330
7
100
AcDbSymbolTableRecord
100
AcDbUCSTableRecord
  2
U
 70
     0
 10
0.0
 20
0.0
 30
0.0
 11
1.0
 21
0.0
 31
0.0
 12
0.0
 22
2.220446049250313E-16
 32
1.0
 79
     0
146
0.0
  0
UCS
  5
A449
330
7
100
AcDbSymbolTableRecord
100
AcDbUCSTableRecord
  2
L
 70
     0
 10
0.0
 20
0.0
 30
0.0
 11
-2.220446049250313E-16
 21
-1.0
 31
2.220446049250313E-16
 12
0.0
 22
2.220446049250313E-16
 32
1.0
 79
     0
146
0.0
  0
UCS
  5
A44A
330
7
100
AcDbSymbolTableRecord
100
AcDbUCSTableRecord
  2
R
 70
     0
 10
0.0
 20
0.0
 30
0.0
 11
3.445092848397667E-16
 21
1.0
 31
-2.220446049250313E-16
 12
0.0
 22
2.220446049250313E-16
 32
1.0
 79
     0
146
0.0
  0
UCS
  5
A44B
330
7
100
AcDbSymbolTableRecord
100
AcDbUCSTableRecord
  2
ISOME
 70
     0
 10
0.0
 20
0.0
 30
0.0
 11
0.7071450863198265
 21
-0.7070684729403536
 31
-3.830824619466267E-5
 12
0.4082704059428734
 22
0.4082704077401151
 32
0.8164744636514736
 79
     0
146
0.0
  0
UCS
  5
A44C
330
7
100
AcDbSymbolTableRecord
100
AcDbUCSTableRecord
  2
PERSPECTIVE
 70
     0
 10
0.0
 20
0.0
 30
0.0
 11
0.8191477691768964
 21
-0.5735823260466403
 31
-0.0004974931557765462
 12
0.1584844715982971
 22
0.225502028986108
 32
0.961265575782966
 79
     0
146
0.0
  0
ENDTAB
  0
TABLE
  2
APPID
  5
9
330
0
100
AcDbSymbolTable
 70
    19
  0
APPID
  5
10
330
9
100
AcDbSymbolTableRecord
100
AcDbRegAppTableRecord
  2
ACAD
 70
     0
  0
APPID
  5
21
330
9
100
AcDbSymbolTableRecord
100
AcDbRegAppTableRecord
  2
DRAWINGVARIABLESXDATA
 70
     0
  0
APPID
  5
64
330
9
100
AcDbSymbolTableRecord
100
AcDbRegAppTableRecord
  2
CONTENTTABDATA
 70
     0
  0
APPID
  5
65
330
9
100
AcDbSymbolTableRecord
100
AcDbRegAppTableRecord
  2
CONTENTCURRENTTAB
 70
     0
  0
APPID
  5
66
330
9
100
AcDbSymbolTableRecord
100
AcDbRegAppTableRecord
  2
CONTENTBLOCKDESCRIPTION
 70
     0
  0
APPID
  5
67
330
9
100
AcDbSymbolTableRecord
100
AcDbRegAppTableRecord
  2
CONTENTBLOCKICON
 70
     0
  0
APPID
  5
68
330
9
100
AcDbSymbolTableRecord
100
AcDbRegAppTableRecord
  2
CONTENTLONGBLOCKNAME
 70
     0
  0
APPID
  5
8AF7
330
9
100
AcDbSymbolTableRecord
100
AcDbRegAppTableRecord
  2
ACAD_PSEXT
 70
     0
  0
APPID
  5
8D96
330
9
100
AcDbSymbolTableRecord
100
AcDbRegAppTableRecord
  2
ACAD_MLEADERVER
 70
     0
  0
APPID
  5
9DE0
330
9
100
AcDbSymbolTableRecord
100
AcDbRegAppTableRecord
  2
ACAD_DSTYLE_DIMRADIAL_EXTE
 70
     0
  0
APPID
  5
A35B
330
9
100
AcDbSymbolTableRecord
100
AcDbRegAppTableRecord
  2
ACAD_NAV_VCDISPLAY
 70
     0
  0
APPID
  5
A3BE
330
9
100
AcDbSymbolTableRecord
100
AcDbRegAppTableRecord
  2
ACAD_EXEMPT_FROM_CAD_STAND
 70
     0
  0
APPID
  5
AA80
330
9
100
AcDbSymbolTableRecord
100
AcDbRegAppTableRecord
  2
ACAD_OBJECT_CHANGE_GUID
 70
     0
  0
APPID
  5
AB3F
330
9
100
AcDbSymbolTableRecord
100
AcDbRegAppTableRecord
  2
ACAD_DIMASSOC_CALC_DIMLFAC
 70
     0
  0
APPID
  5
AB40
330
9
100
AcDbSymbolTableRecord
100
AcDbRegAppTableRecord
  2
ACAD_DIMASSOC_OVERRIDDEN_D
 70
     0
  0
APPID
  5
AB41
330
9
100
AcDbSymbolTableRecord
100
AcDbRegAppTableRecord
  2
ACAD_DIMASSOC_DIMLFAC
 70
     0
  0
APPID
  5
AB81
330
9
100
AcDbSymbolTableRecord
100
AcDbRegAppTableRecord
  2
ACADANNOTATIVE
 70
     0
  0
APPID
  5
AB82
330
9
100
AcDbSymbolTableRecord
100
AcDbRegAppTableRecord
  2
ACDBBLOCKREPETAG
 70
     0
  0
APPID
  5
AB83
330
9
100
AcDbSymbolTableRecord
100
AcDbRegAppTableRecord
  2
ACLAYERTOOLS
 70
     0
  0
ENDTAB
  0
TABLE
  2
DIMSTYLE
  5
A
330
0
100
AcDbSymbolTable
 70
     1
  0
DIMSTYLE
105
48
102
{ACAD_REACTORS
102
}
330
A
100
AcDbSymbolTableRecord
100
AcDbDimStyleTableRecord
  2
NEWX10
 70
     0
  3
 
  4

  5

  6
OPEN30
  7
OPEN30
 40
1.0
 41
2.0
 42
0.0
 43
7.0
 44
1.0
 45
0.0
 46
0.0
 47
0.0
 48
0.0
140
3.5
141
0.0
142
0.0
143
25.4
144
1.0
145
0.0
146
0.7
147
0.7
 71
     0
 72
     0
 73
     0
 74
     0
 75
     0
 76
     0
 77
     1
 78
     8
170
     0
171
     2
172
     1
173
     1
174
     0
175
     0
176
   256
177
   256
178
   201
179
     1
270
     2
271
     2
272
     4
273
     2
274
     2
340
F
275
     0
280
     0
281
     0
282
     0
283
     1
284
     8
285
     0
286
     0
287
     3
288
     0
  0
ENDTAB
  0
TABLE
  2
BLOCK_RECORD
  5
1
330
0
100
AcDbSymbolTable
 70
    10
  0
BLOCK_RECORD
  5
18
102
{ACAD_XDICTIONARY
360
8B62
102
}
330
1
100
AcDbSymbolTableRecord
100
AcDbBlockTableRecord
  2
*MODEL_SPACE
  0
BLOCK_RECORD
  5
15
330
1
100
AcDbSymbolTableRecord
100
AcDbBlockTableRecord
  2
*PAPER_SPACE
  0
BLOCK_RECORD
  5
42
330
1
100
AcDbSymbolTableRecord
100
AcDbBlockTableRecord
  2
_OPEN30
  0
BLOCK_RECORD
  5
5B
330
1
100
AcDbSymbolTableRecord
100
AcDbBlockTableRecord
  2
XREF1
  0
BLOCK_RECORD
  5
8890
330
1
100
AcDbSymbolTableRecord
100
AcDbBlockTableRecord
  2
A3WAKUDAKE
  0
BLOCK_RECORD
  5
ABD3
330
1
100
AcDbSymbolTableRecord
100
AcDbBlockTableRecord
  2
A3WAKUKAWAJUN2017_HYOUDAI_
  0
BLOCK_RECORD
  5
B768
330
1
100
AcDbSymbolTableRecord
100
AcDbBlockTableRecord
  2
*X29
  0
BLOCK_RECORD
  5
B7B6
330
1
100
AcDbSymbolTableRecord
100
AcDbBlockTableRecord
  2
*X30
  0
BLOCK_RECORD
  5
B808
330
1
100
AcDbSymbolTableRecord
100
AcDbBlockTableRecord
  2
*X31
  0
BLOCK_RECORD
  5
B859
330
1
100
AcDbSymbolTableRecord
100
AcDbBlockTableRecord
  2
*X32
  0
BLOCK_RECORD
  5
B896
330
1
100
AcDbSymbolTableRecord
100
AcDbBlockTableRecord
  2
*X33
  0
BLOCK_RECORD
  5
B8D6
330
1
100
AcDbSymbolTableRecord
100
AcDbBlockTableRecord
  2
*X34
  0
ENDTAB
  0
ENDSEC
  0
SECTION
  2
BLOCKS
  0
BLOCK
  5
19
330
18
100
AcDbEntity
  8
0
100
AcDbBlockBegin
  2
*MODEL_SPACE
 70
     0
 10
0.0
 20
0.0
 30
0.0
  3
*MODEL_SPACE
  1

  0
ENDBLK
  5
1A
330
18
100
AcDbEntity
  8
0
100
AcDbBlockEnd
  0
BLOCK
  5
16
330
15
100
AcDbEntity
 67
     1
  8
0
100
AcDbBlockBegin
  2
*PAPER_SPACE
 70
     0
 10
0.0
 20
0.0
 30
0.0
  3
*PAPER_SPACE
  1

  0
ENDBLK
  5
17
330
15
100
AcDbEntity
 67
     1
  8
0
100
AcDbBlockEnd
  0
BLOCK
  5
43
330
42
100
AcDbEntity
  8
0
100
AcDbBlockBegin
  2
_OPEN30
 70
     0
 10
0.0
 20
0.0
 30
0.0
  3
_OPEN30
  1

  0
LINE
  5
44
330
42
100
AcDbEntity
  8
0
  6
BYBLOCK
 62
     0
100
AcDbLine
 10
-1.0
 20
0.26794919
 30
0.0
 11
0.0
 21
0.0
 31
0.0
  0
LINE
  5
45
330
42
100
AcDbEntity
  8
0
  6
BYBLOCK
 62
     0
100
AcDbLine
 10
0.0
 20
0.0
 30
0.0
 11
-1.0
 21
-0.26794919
 31
0.0
  0
LINE
  5
46
330
42
100
AcDbEntity
  8
0
  6
BYBLOCK
 62
     0
100
AcDbLine
 10
0.0
 20
0.0
 30
0.0
 11
-1.0
 21
0.0
 31
0.0
  0
ENDBLK
  5
47
330
42
100
AcDbEntity
  8
0
100
AcDbBlockEnd
  0
BLOCK
  5
5C
330
5B
100
AcDbEntity
  8
0
100
AcDbBlockBegin
  2
XREF1
 70
    36
 10
0.0
 20
0.0
 30
0.0
  3
XREF1
  1
D:\ACLT\FORMAT\KAWAJUN(9)図面用.dwg
  0
ENDBLK
  5
5D
330
5B
100
AcDbEntity
  8
0
100
AcDbBlockEnd
  0
BLOCK
  5
8891
330
8890
100
AcDbEntity
  8
0
100
AcDbBlockBegin
  2
A3WAKUDAKE
 70
    36
 10
0.0
 20
0.0
 30
0.0
  3
A3WAKUDAKE
  1
D:\ACLT\FORMAT\A3WAKUdake.dwg
  0
ENDBLK
  5
8892
330
8890
100
AcDbEntity
  8
0
100
AcDbBlockEnd
  0
BLOCK
  5
B2E5
330
ABD3
100
AcDbEntity
  8
0
100
AcDbBlockBegin
  2
A3WAKUKAWAJUN2017_HYOUDAI_
 70
     0
 10
0.0
 20
0.0
 30
0.0
  3
A3WAKUKAWAJUN2017_HYOUDAI_
  1

  0
LINE
  5
ABD5
330
ABD3
100
AcDbEntity
  8
0
100
AcDbLine
 10
13.26299999998673
 20
-0.0001000000000317
 30
0.0
 11
9.236999999990758
 21
8.999899999990987
 31
0.0
1001
ACAD
1000
ASC_BOUNDS
1002
{
1070
    19
1005
AC16
1002
}
  0
LINE
  5
ABD6
330
ABD3
100
AcDbEntity
  8
0
100
AcDbLine
 10
5.657999999994331
 20
0.9999999999989768
 30
0.0
 11
9.236999999990758
 21
8.999999999991019
 31
0.0
1001
ACAD
1000
ASC_BOUNDS
1002
{
1070
    19
1005
AC16
1002
}
  0
LINE
  5
ABD7
330
ABD3
100
AcDbEntity
  8
0
100
AcDbLine
 10
18.59199999998134
 20
-0.2368999999997641
 30
0.0
 11
16.46099999998353
 21
5.432899999994561
 31
0.0
1001
ACAD
1000
ASC_BOUNDS
1002
{
1070
    19
1005
AC17
1002
}
  0
LINE
  5
ABD8
330
ABD3
100
AcDbEntity
  8
0
100
AcDbLine
 10
18.59199999998134
 20
-0.2368999999997641
 30
0.0
 11
22.38199999997767
 21
8.763099999991255
 31
0.0
1001
ACAD
1000
ASC_BOUNDS
1002
{
1070
    19
1005
AC17
1002
}
  0
LINE
  5
ABD9
330
ABD3
100
AcDbEntity
  8
0
100
AcDbLine
 10
14.32899999998563
 20
-0.2368999999997641
 30
0.0
 11
16.46099999998353
 21
5.432899999994561
 31
0.0
1001
ACAD
1000
ASC_BOUNDS
1002
{
1070
    19
1005
AC17
1002
}
  0
LINE
  5
ABDA
330
ABD3
100
AcDbEntity
  8
0
100
AcDbLine
 10
14.32899999998563
 20
-0.2368999999997641
 30
0.0
 11
10.53899999998941
 21
8.763099999991255
 31
0.0
1001
ACAD
1000
ASC_BOUNDS
1002
{
1070
    19
1005
AC17
1002
}
  0
LINE
  5
ABDB
330
ABD3
100
AcDbEntity
  8
0
100
AcDbLine
 10
19.53899999998043
 20
-0.0001000000000317
 30
0.0
 11
23.56599999997638
 21
8.999899999990987
 31
0.0
1001
ACAD
1000
ASC_BOUNDS
1002
{
1070
    19
1005
AC18
1002
}
  0
LINE
  5
ABDC
330
ABD3
100
AcDbEntity
  8
0
100
AcDbLine
 10
26.97358892824991
 20
1.383099999991202
 30
0.0
 11
23.56599999997638
 21
8.999899999990987
 31
0.0
1001
ACAD
1000
ASC_BOUNDS
1002
{
1070
    19
1005
AC18
1002
}
  0
LINE
  5
ABDD
330
ABD3
100
AcDbEntity
  8
0
100
AcDbLine
 10
5.657999999994331
 20
0.9999999999989768
 30
0.0
 11
3.181999999996833
 21
4.668599999995308
 31
0.0
1001
ACAD
1000
ASC_BOUNDS
1002
{
1070
    19
1005
AC16
1002
}
  0
LINE
  5
ABDE
330
ABD3
100
AcDbEntity
  8
0
100
AcDbLine
 10
4.617999999995391
 20
-0.0001000000000317
 30
0.0
 11
1.420999999998571
 21
4.736799999995242
 31
0.0
1001
ACAD
1000
ASC_BOUNDS
1002
{
1070
    19
1005
AC16
1002
}
  0
LINE
  5
ABDF
330
ABD3
100
AcDbEntity
  8
0
100
AcDbLine
 10
1.420999999998571
 20
8.763099999991255
 30
0.0
 11
1.420999999998571
 21
0.0
 31
0.0
1001
ACAD
1000
ASC_BOUNDS
1002
{
1070
    19
1005
AC1B
1002
}
  0
LINE
  5
ABE0
330
ABD3
100
AcDbEntity
  8
0
100
AcDbLine
 10
0.0
 20
8.763099999991255
 30
0.0
 11
0.0
 21
0.0
 31
0.0
1001
ACAD
1000
ASC_BOUNDS
1002
{
1070
    19
1005
AC1B
1002
}
  0
LINE
  5
ABE1
330
ABD3
100
AcDbEntity
  8
0
100
AcDbLine
 10
6.766999999993232
 20
-0.0001000000000317
 30
0.0
 11
7.826999999992154
 21
2.368399999997621
 31
0.0
1001
ACAD
1000
ASC_BOUNDS
1002
{
1070
    19
1005
AC16
1002
}
  0
LINE
  5
ABE2
330
ABD3
100
AcDbEntity
  8
0
100
AcDbLine
 10
0.0
 20
0.0
 30
0.0
 11
1.420999999998571
 21
0.0
 31
0.0
1001
ACAD
1000
ASC_BOUNDS
1002
{
1070
    19
1005
AC1B
1002
}
  0
LINE
  5
ABE3
330
ABD3
100
AcDbEntity
  8
0
100
AcDbLine
 10
4.617999999995391
 20
0.0
 30
0.0
 11
6.766999999993232
 21
0.0
 31
0.0
1001
ACAD
1000
ASC_BOUNDS
1002
{
1070
    19
1005
AC16
1002
}
  0
LINE
  5
ABE4
330
ABD3
100
AcDbEntity
  8
0
100
AcDbLine
 10
11.70599999998831
 20
-0.0001000000000317
 30
0.0
 11
10.64699999998936
 21
2.368399999997621
 31
0.0
1001
ACAD
1000
ASC_BOUNDS
1002
{
1070
    19
1005
AC16
1002
}
  0
LINE
  5
ABE5
330
ABD3
100
AcDbEntity
  8
0
100
AcDbLine
 10
7.826999999992154
 20
2.368399999997621
 30
0.0
 11
10.64699999998936
 21
2.368399999997621
 31
0.0
1001
ACAD
1000
ASC_BOUNDS
1002
{
1070
    19
1005
AC16
1002
}
  0
LINE
  5
ABE6
330
ABD3
100
AcDbEntity
  8
0
100
AcDbLine
 10
11.70599999998831
 20
0.0
 30
0.0
 11
13.26299999998673
 21
0.0
 31
0.0
1001
ACAD
1000
ASC_BOUNDS
1002
{
1070
    19
1005
AC16
1002
}
  0
LINE
  5
ABE7
330
ABD3
100
AcDbEntity
  8
0
100
AcDbLine
 10
22.15599999997789
 20
2.368399999997621
 30
0.0
 11
24.97599999997499
 21
2.368399999997621
 31
0.0
1001
ACAD
1000
ASC_BOUNDS
1002
{
1070
    19
1005
AC18
1002
}
  0
LINE
  5
ABE8
330
ABD3
100
AcDbEntity
  8
0
100
AcDbLine
 10
19.53899999998043
 20
0.0
 30
0.0
 11
21.09599999997886
 21
0.0
 31
0.0
1001
ACAD
1000
ASC_BOUNDS
1002
{
1070
    19
1005
AC18
1002
}
  0
LINE
  5
ABE9
330
ABD3
100
AcDbEntity
  8
0
100
AcDbLine
 10
21.09599999997886
 20
-0.0001000000000317
 30
0.0
 11
22.15599999997789
 21
2.368399999997621
 31
0.0
1001
ACAD
1000
ASC_BOUNDS
1002
{
1070
    19
1005
AC18
1002
}
  0
LINE
  5
ABEA
330
ABD3
100
AcDbEntity
  8
0
100
AcDbLine
 10
26.02015566812236
 20
0.0330999999912365
 30
0.0
 11
24.97599999997499
 21
2.368399999997621
 31
0.0
1001
ACAD
1000
ASC_BOUNDS
1002
{
1070
    19
1005
AC18
1002
}
  0
LINE
  5
ABEB
330
ABD3
100
AcDbEntity
  8
0
100
AcDbLine
 10
14.32399999998563
 20
3.315799999996671
 30
0.0
 11
16.46099999998353
 21
8.999899999990987
 31
0.0
1001
ACAD
1000
ASC_BOUNDS
1002
{
1070
    19
1005
AC17
1002
}
  0
LINE
  5
ABEC
330
ABD3
100
AcDbEntity
  8
0
100
AcDbLine
 10
6.432999999993513
 20
8.763099999991255
 30
0.0
 11
3.181999999996833
 21
4.668599999995308
 31
0.0
1001
ACAD
1000
ASC_BOUNDS
1002
{
1070
    19
1005
AC16
1002
}
  0
LINE
  5
ABED
330
ABD3
100
AcDbEntity
  8
0
100
AcDbLine
 10
4.617999999995391
 20
8.763099999991255
 30
0.0
 11
1.420999999998571
 21
4.736799999995242
 31
0.0
1001
ACAD
1000
ASC_BOUNDS
1002
{
1070
    19
1005
AC16
1002
}
  0
LINE
  5
ABEE
330
ABD3
100
AcDbEntity
  8
0
100
AcDbLine
 10
0.0
 20
8.763099999991255
 30
0.0
 11
1.420999999998571
 21
8.763099999991255
 31
0.0
1001
ACAD
1000
ASC_BOUNDS
1002
{
1070
    19
1005
AC1B
1002
}
  0
LINE
  5
ABEF
330
ABD3
100
AcDbEntity
  8
0
100
AcDbLine
 10
4.617999999995391
 20
8.763099999991255
 30
0.0
 11
6.432999999993513
 21
8.763099999991255
 31
0.0
1001
ACAD
1000
ASC_BOUNDS
1002
{
1070
    19
1005
AC16
1002
}
  0
LINE
  5
ABF0
330
ABD3
100
AcDbEntity
  8
0
100
AcDbLine
 10
14.32399999998563
 20
3.315799999996671
 30
0.0
 11
12.02999999998792
 21
8.763099999991255
 31
0.0
1001
ACAD
1000
ASC_BOUNDS
1002
{
1070
    19
1005
AC17
1002
}
  0
LINE
  5
ABF1
330
ABD3
100
AcDbEntity
  8
0
100
AcDbLine
 10
10.06399999998996
 20
3.670999999996297
 30
0.0
 11
9.236999999990758
 21
5.5200999999945
 31
0.0
1001
ACAD
1000
ASC_BOUNDS
1002
{
1070
    19
1005
AC16
1002
}
  0
LINE
  5
ABF2
330
ABD3
100
AcDbEntity
  8
0
100
AcDbLine
 10
8.409999999991555
 20
3.670999999996297
 30
0.0
 11
9.236999999990758
 21
5.5200999999945
 31
0.0
1001
ACAD
1000
ASC_BOUNDS
1002
{
1070
    19
1005
AC16
1002
}
  0
LINE
  5
ABF3
330
ABD3
100
AcDbEntity
  8
0
100
AcDbLine
 10
8.409999999991555
 20
3.670999999996297
 30
0.0
 11
10.06399999998996
 21
3.670999999996297
 31
0.0
1001
ACAD
1000
ASC_BOUNDS
1002
{
1070
    19
1005
AC16
1002
}
  0
LINE
  5
ABF4
330
ABD3
100
AcDbEntity
  8
0
100
AcDbLine
 10
10.53899999998941
 20
8.763099999991255
 30
0.0
 11
12.02999999998792
 21
8.763099999991255
 31
0.0
1001
ACAD
1000
ASC_BOUNDS
1002
{
1070
    19
1005
AC17
1002
}
  0
LINE
  5
ABF5
330
ABD3
100
AcDbEntity
  8
0
100
AcDbLine
 10
22.7389999999773
 20
3.670999999996297
 30
0.0
 11
23.56599999997638
 21
5.5200999999945
 31
0.0
1001
ACAD
1000
ASC_BOUNDS
1002
{
1070
    19
1005
AC18
1002
}
  0
LINE
  5
ABF6
330
ABD3
100
AcDbEntity
  8
0
100
AcDbLine
 10
22.7389999999773
 20
3.670999999996297
 30
0.0
 11
24.39299999997559
 21
3.670999999996297
 31
0.0
1001
ACAD
1000
ASC_BOUNDS
1002
{
1070
    19
1005
AC18
1002
}
  0
LINE
  5
ABF7
330
ABD3
100
AcDbEntity
  8
0
100
AcDbLine
 10
18.59799999998143
 20
3.315799999996671
 30
0.0
 11
20.89099999997916
 21
8.763099999991255
 31
0.0
1001
ACAD
1000
ASC_BOUNDS
1002
{
1070
    19
1005
AC17
1002
}
  0
LINE
  5
ABF8
330
ABD3
100
AcDbEntity
  8
0
100
AcDbLine
 10
18.59799999998143
 20
3.315799999996671
 30
0.0
 11
16.46099999998353
 21
8.999899999990987
 31
0.0
1001
ACAD
1000
ASC_BOUNDS
1002
{
1070
    19
1005
AC17
1002
}
  0
LINE
  5
ABF9
330
ABD3
100
AcDbEntity
  8
0
100
AcDbLine
 10
20.89099999997916
 20
8.763099999991255
 30
0.0
 11
22.38199999997767
 21
8.763099999991255
 31
0.0
1001
ACAD
1000
ASC_BOUNDS
1002
{
1070
    19
1005
AC17
1002
}
  0
LINE
  5
ABFA
330
ABD3
100
AcDbEntity
  8
0
100
AcDbLine
 10
24.39299999997559
 20
3.670999999996297
 30
0.0
 11
23.56599999997638
 21
5.5200999999945
 31
0.0
1001
ACAD
1000
ASC_BOUNDS
1002
{
1070
    19
1005
AC18
1002
}
  0
LINE
  5
ABFB
330
ABD3
100
AcDbEntity
  8
0
100
AcDbLine
 10
44.99999999995498
 20
-0.2368999999997641
 30
0.0
 11
40.02599999995994
 21
5.341799999994635
 31
0.0
1001
ACAD
1000
ASC_BOUNDS
1002
{
1070
    19
1005
AC1A
1002
}
  0
LINE
  5
ABFC
330
ABD3
100
AcDbEntity
  8
0
100
AcDbLine
 10
40.02599999995994
 20
5.341799999994635
 30
0.0
 11
40.02599999995994
 21
0.0
 31
0.0
1001
ACAD
1000
ASC_BOUNDS
1002
{
1070
    19
1005
AC1A
1002
}
  0
LINE
  5
ABFD
330
ABD3
100
AcDbEntity
  8
0
100
AcDbLine
 10
38.60499999996136
 20
8.999999999991019
 30
0.0
 11
38.60499999996136
 21
0.0
 31
0.0
1001
ACAD
1000
ASC_BOUNDS
1002
{
1070
    19
1005
AC1A
1002
}
  0
LINE
  5
ABFE
330
ABD3
100
AcDbEntity
  8
0
100
AcDbLine
 10
44.99999999995498
 20
8.763099999991255
 30
0.0
 11
44.99999999995498
 21
-0.2368999999997641
 31
0.0
1001
ACAD
1000
ASC_BOUNDS
1002
{
1070
    19
1005
AC1A
1002
}
  0
LINE
  5
ABFF
330
ABD3
100
AcDbEntity
  8
0
100
AcDbLine
 10
38.60499999996136
 20
0.0
 30
0.0
 11
40.02599999995994
 21
0.0
 31
0.0
1001
ACAD
1000
ASC_BOUNDS
1002
{
1070
    19
1005
AC1A
1002
}
  0
LINE
  5
AC00
330
ABD3
100
AcDbEntity
  8
0
100
AcDbLine
 10
43.57899999995641
 20
3.421199999996588
 30
0.0
 11
38.60499999996136
 21
8.999899999990987
 31
0.0
1001
ACAD
1000
ASC_BOUNDS
1002
{
1070
    19
1005
AC1A
1002
}
  0
LINE
  5
AC01
330
ABD3
100
AcDbEntity
  8
0
100
AcDbLine
 10
43.57899999995641
 20
8.763099999991255
 30
0.0
 11
43.57899999995641
 21
3.421199999996588
 31
0.0
1001
ACAD
1000
ASC_BOUNDS
1002
{
1070
    19
1005
AC1A
1002
}
  0
LINE
  5
AC02
330
ABD3
100
AcDbEntity
  8
0
100
AcDbLine
 10
43.57899999995641
 20
8.763099999991255
 30
0.0
 11
44.99999999995498
 21
8.763099999991255
 31
0.0
1001
ACAD
1000
ASC_BOUNDS
1002
{
1070
    19
1005
AC1A
1002
}
  0
LINE
  5
AC03
330
ABD3
100
AcDbEntity
  8
0
100
AcDbLine
 10
37.67199999996831
 20
8.763099999991255
 30
0.0
 11
36.23199999996837
 21
8.763099999991255
 31
0.0
  0
LINE
  5
AC04
330
ABD3
100
AcDbEntity
  8
0
100
AcDbLine
 10
31.64199999996833
 20
8.763099999991255
 30
0.0
 11
31.64199999996833
 21
2.481619422925121
 31
0.0
  0
LINE
  5
AC05
330
ABD3
100
AcDbEntity
  8
0
100
AcDbLine
 10
37.67199999996831
 20
8.763099999991255
 30
0.0
 11
37.67199999996831
 21
2.481619422925121
 31
0.0
  0
LINE
  5
AC06
330
ABD3
100
AcDbEntity
  8
0
100
AcDbLine
 10
36.23199999996837
 20
8.763099999991255
 30
0.0
 11
36.23199999996837
 21
2.481619422925064
 31
0.0
  0
LINE
  5
AC07
330
ABD3
100
AcDbEntity
  8
0
100
AcDbLine
 10
33.08199999996839
 20
8.763099999991255
 30
0.0
 11
33.08199999996839
 21
2.481619422925121
 31
0.0
  0
ARC
  5
AC08
330
ABD3
100
AcDbEntity
  8
0
100
AcDbCircle
 10
34.65699999996832
 20
3.183099999991214
 30
0.0
 40
3.420000000000007
100
AcDbArc
 50
240.0000000000255
 51
299.9999999999766
  0
ARC
  5
AC09
330
ABD3
100
AcDbEntity
  8
0
100
AcDbCircle
 10
34.65699999996832
 20
3.183099999991214
 30
0.0
 40
1.97999999999999
100
AcDbArc
 50
240.000000000026
 51
299.9999999999703
  0
LINE
  5
AC0A
330
ABD3
100
AcDbEntity
  8
0
100
AcDbLine
 10
33.08199999996828
 20
8.763099999991255
 30
0.0
 11
31.64199999996833
 21
8.763099999991255
 31
0.0
  0
ARC
  5
AC0B
330
ABD3
100
AcDbEntity
  8
0
100
AcDbCircle
 10
35.06199999996829
 20
2.481619422925064
 30
0.0
 40
1.17
100
AcDbArc
 50
299.9999999999699
 51
0.0
  0
ARC
  5
AC0C
330
ABD3
100
AcDbEntity
  8
0
100
AcDbCircle
 10
34.25199999996835
 20
2.481619422925121
 30
0.0
 40
1.17
100
AcDbArc
 50
180.0
 51
240.0000000000238
  0
ARC
  5
AC0D
330
ABD3
100
AcDbEntity
  8
0
100
AcDbCircle
 10
35.06199999996841
 20
2.481619422925121
 30
0.0
 40
2.61
100
AcDbArc
 50
299.9999999999756
 51
0.0
  0
ARC
  5
AC0E
330
ABD3
100
AcDbEntity
  8
0
100
AcDbCircle
 10
34.25199999996835
 20
2.481619422925121
 30
0.0
 40
2.61
100
AcDbArc
 50
180.0
 51
240.0000000000244
  0
LINE
  5
AC0F
330
ABD3
100
AcDbEntity
  8
0
100
AcDbLine
 10
29.30199999996933
 20
8.763099999991255
 30
0.0
 11
30.74199999996927
 21
8.763099999991255
 31
0.0
1001
ACAD
1000
ASC_BOUNDS
1002
{
1070
    19
1005
AC18
1002
}
  0
LINE
  5
AC10
330
ABD3
100
AcDbEntity
  8
0
100
AcDbLine
 10
30.74199999996927
 20
8.763099999991255
 30
0.0
 11
30.74199999996927
 21
2.373099999991211
 31
0.0
1001
ACAD
1000
ASC_BOUNDS
1002
{
1070
    19
1005
AC18
1002
}
  0
LINE
  5
AC11
330
ABD3
100
AcDbEntity
  8
0
100
AcDbLine
 10
26.02015566812236
 20
0.0330999999912365
 30
0.0
 11
28.40199999996923
 21
0.0330999999912365
 31
0.0
1001
ACAD
1000
ASC_BOUNDS
1002
{
1070
    19
1005
AC18
1002
}
  0
LINE
  5
AC12
330
ABD3
100
AcDbEntity
  8
0
100
AcDbLine
 10
29.30199999996933
 20
8.763099999991255
 30
0.0
 11
29.30199999996933
 21
2.283099999991236
 31
0.0
1001
ACAD
1000
ASC_BOUNDS
1002
{
1070
    19
1005
AC18
1002
}
  0
LINE
  5
AC13
330
ABD3
100
AcDbEntity
  8
0
100
AcDbLine
 10
26.97358892824991
 20
1.383099999991202
 30
0.0
 11
28.40199999996923
 21
1.383099999991202
 31
0.0
1001
ACAD
1000
ASC_BOUNDS
1002
{
1070
    19
1005
AC18
1002
}
  0
ARC
  5
AC14
330
ABD3
100
AcDbEntity
  8
0
100
AcDbCircle
 10
28.40199999996923
 20
2.283099999991236
 30
0.0
 40
0.9
100
AcDbArc
 50
270.0
 51
0.0
1001
ACAD
1000
ASC_BOUNDS
1002
{
1070
    19
1005
AC18
1002
}
  0
ARC
  5
AC15
330
ABD3
100
AcDbEntity
  8
0
100
AcDbCircle
 10
28.40199999996923
 20
2.373099999991211
 30
0.0
 40
2.34
100
AcDbArc
 50
270.0
 51
0.0
1001
ACAD
1000
ASC_BOUNDS
1002
{
1070
    19
1005
AC18
1002
}
  0
INSERT
  5
AC16
330
ABD3
100
AcDbEntity
  8
0
100
AcDbBlockReference
  2
*X29
 10
0.0
 20
0.0
 30
0.0
1001
ACAD
1000
HATCH
1002
{
1070
    19
1000
ANSI37
1040
0.15
1040
0.0
1000
ASC_BOUNDS
1070
     2
1070
     2
1070
    12
1005
ABD5
1005
ABD6
1005
ABDD
1005
ABEC
1005
ABEF
1005
ABED
1005
ABDE
1005
ABE3
1005
ABE1
1005
ABE5
1005
ABE4
1005
ABE6
1070
     2
1070
     3
1005
ABF1
1005
ABF3
1005
ABF2
1000
ASC_SEEDPOINT
1011
3.614004224891801
1021
2.996669441146025
1031
0.0
1000
R14_HATCH_DATA
1000
AC16
1011
1.0
1021
0.0
1031
0.0
1011
0.0
1021
1.0
1031
0.0
1011
0.0
1021
0.0
1031
1.0
1040
0.0
1010
0.0
1020
0.0
1030
1.0
1000
ANSI37
1070
     0
1070
     1
1071
        2
1071
        7
1070
     0
1070
     1
1071
       17
1040
13.26299999998673
1040
-0.0001000000000317
1040
9.236999999990758
1040
8.999899999990987
1040
9.236999999990758
1040
8.999999999991019
1040
5.657999999994331
1040
0.9999999999989768
1040
3.181999999996833
1040
4.668599999995308
1040
6.432999999993513
1040
8.763099999991255
1040
4.617999999995391
1040
8.763099999991255
1040
1.420999999998571
1040
4.736799999995242
1040
4.617999999995391
1040
-0.0001000000000317
1040
4.617999999995391
1040
0.0
1040
6.766999999993232
1040
0.0
1040
6.766999999993232
1040
-0.0001000000000317
1040
7.826999999992154
1040
2.368399999997621
1040
10.64699999998936
1040
2.368399999997621
1040
11.70599999998831
1040
-0.0001000000000317
1040
11.70599999998831
1040
0.0
1040
13.26299999998673
1040
0.0
1071
       12
1005
ABD5
1005
ABD6
1005
ABDD
1005
ABEC
1005
ABEF
1005
ABED
1005
ABDE
1005
ABE3
1005
ABE1
1005
ABE5
1005
ABE4
1005
ABE6
1071
       22
1070
     0
1070
     1
1071
        3
1040
9.236999999990758
1040
5.5200999999945
1040
10.06399999998996
1040
3.670999999996297
1040
8.409999999991555
1040
3.670999999996297
1071
        3
1005
ABF1
1005
ABF3
1005
ABF2
1070
     0
1070
     1
1040
0.0
1040
0.15
1070
     0
1070
     2
1040
0.7853981633974483
1040
49.29960901727088
1040
-10.17736998311392
1040
-0.3367596045400932
1040
0.3367596045400932
1070
     0
1040
2.356194490192345
1040
49.29960901727088
1040
-10.17736998311392
1040
-0.3367596045400932
1040
-0.3367596045400932
1070
     0
1040
0.0110235143455945
1071
        2
1040
3.614004224891801
1040
2.996669441146025
1040
0.0
1040
3.614004224891801
1040
2.996669441146025
1040
0.0
1002
}
  0
INSERT
  5
AC17
330
ABD3
100
AcDbEntity
  8
0
100
AcDbBlockReference
  2
*X30
 10
0.0
 20
0.0
 30
0.0
1001
ACAD
1000
HATCH
1002
{
1070
    19
1000
ANSI37
1040
0.15
1040
0.0
1000
ASC_BOUNDS
1070
     1
1070
     2
1070
    10
1005
ABD7
1005
ABD8
1005
ABF9
1005
ABF7
1005
ABF8
1005
ABEB
1005
ABF0
1005
ABF4
1005
ABDA
1005
ABD9
1000
ASC_SEEDPOINT
1011
14.73245321214324
1021
2.798246178283421
1031
0.0
1000
R14_HATCH_DATA
1000
AC17
1011
1.0
1021
0.0
1031
0.0
1011
0.0
1021
1.0
1031
0.0
1011
0.0
1021
0.0
1031
1.0
1040
0.0
1010
0.0
1020
0.0
1030
1.0
1000
ANSI37
1070
     0
1070
     1
1071
        1
1071
        7
1070
     0
1070
     1
1071
       10
1040
16.46099999998353
1040
5.432899999994561
1040
18.59199999998134
1040
-0.2368999999997641
1040
22.38199999997767
1040
8.763099999991255
1040
20.89099999997916
1040
8.763099999991255
1040
18.59799999998143
1040
3.315799999996671
1040
16.46099999998353
1040
8.999899999990987
1040
14.32399999998563
1040
3.315799999996671
1040
12.02999999998792
1040
8.763099999991255
1040
10.53899999998941
1040
8.763099999991255
1040
14.32899999998563
1040
-0.2368999999997641
1071
       10
1005
ABD7
1005
ABD8
1005
ABF9
1005
ABF7
1005
ABF8
1005
ABEB
1005
ABF0
1005
ABF4
1005
ABDA
1005
ABD9
1070
     0
1070
     1
1040
0.0
1040
0.15
1070
     0
1070
     2
1040
0.7853981633974483
1040
49.29960901727088
1040
-10.17736998311392
1040
-0.3367596045400932
1040
0.3367596045400932
1070
     0
1040
2.356194490192345
1040
49.29960901727088
1040
-10.17736998311392
1040
-0.3367596045400932
1040
-0.3367596045400932
1070
     0
1040
0.0110235143455945
1071
        1
1040
14.73245321214324
1040
2.798246178283421
1040
0.0
1002
}
  0
INSERT
  5
AC18
330
ABD3
100
AcDbEntity
  8
0
100
AcDbBlockReference
  2
*X31
 10
0.0
 20
0.0
 30
0.0
1001
ACAD
1000
HATCH
1002
{
1070
    19
1000
ANSI37
1040
0.15
1040
0.0
1000
ASC_BOUNDS
1070
     2
1070
     2
1070
    13
1005
ABDB
1005
ABE8
1005
ABE9
1005
ABE7
1005
ABEA
1005
AC11
1005
AC15
1005
AC10
1005
AC0F
1005
AC12
1005
AC14
1005
AC13
1005
ABDC
1070
     2
1070
     3
1005
ABF5
1005
ABFA
1005
ABF6
1000
ASC_SEEDPOINT
1011
21.97929957367762
1021
3.294304244259308
1031
0.0
1000
R14_HATCH_DATA
1000
AC18
1011
1.0
1021
0.0
1031
0.0
1011
0.0
1021
1.0
1031
0.0
1011
0.0
1021
0.0
1031
1.0
1040
0.0
1010
0.0
1020
0.0
1030
1.0
1000
ANSI37
1070
     0
1070
     1
1071
        2
1071
        7
1070
     1
1070
     1
1071
       15
1040
23.56599999997638
1040
8.999899999990987
1040
0.0
1040
19.53899999998043
1040
-0.0001000000000317
1040
0.0
1040
19.53899999998043
1040
0.0
1040
0.0
1040
21.09599999997886
1040
0.0
1040
0.0
1040
21.09599999997886
1040
-0.0001000000000317
1040
0.0
1040
22.15599999997789
1040
2.368399999997621
1040
0.0
1040
24.97599999997499
1040
2.368399999997621
1040
0.0
1040
26.02015566812236
1040
0.0330999999912365
1040
0.0
1040
28.40199999996923
1040
0.0330999999912365
1040
0.414213562373095
1040
30.74199999996923
1040
2.373099999991211
1040
0.0
1040
30.74199999996927
1040
8.763099999991255
1040
0.0
1040
29.30199999996933
1040
8.763099999991255
1040
0.0
1040
29.30199999996933
1040
2.283099999991236
1040
-0.414213562373095
1040
28.40199999996923
1040
1.383099999991237
1040
0.0
1040
26.97358892824991
1040
1.383099999991202
1040
0.0
1071
       13
1005
ABDB
1005
ABE8
1005
ABE9
1005
ABE7
1005
ABEA
1005
AC11
1005
AC15
1005
AC10
1005
AC0F
1005
AC12
1005
AC14
1005
AC13
1005
ABDC
1071
       22
1070
     0
1070
     1
1071
        3
1040
22.7389999999773
1040
3.670999999996297
1040
23.56599999997638
1040
5.5200999999945
1040
24.39299999997559
1040
3.670999999996297
1071
        3
1005
ABF5
1005
ABFA
1005
ABF6
1070
     0
1070
     1
1040
0.0
1040
0.15
1070
     0
1070
     2
1040
0.7853981633974483
1040
49.29960901727088
1040
-10.17736998311392
1040
-0.3367596045400932
1040
0.3367596045400932
1070
     0
1040
2.356194490192345
1040
49.29960901727088
1040
-10.17736998311392
1040
-0.3367596045400932
1040
-0.3367596045400932
1070
     0
1040
0.0110235143455945
1071
        2
1040
21.97929957367762
1040
3.294304244259308
1040
0.0
1040
21.97929957367762
1040
3.294304244259308
1040
0.0
1002
}
  0
INSERT
  5
AC19
330
ABD3
100
AcDbEntity
  8
0
100
AcDbBlockReference
  2
*X32
 10
0.0
 20
0.0
 30
0.0
1001
ACAD
1000
HATCH
1002
{
1070
    19
1000
ANSI37
1040
0.15
1040
0.0
1000
R14_HATCH_DATA
1000
AC19
1011
1.0
1021
0.0
1031
0.0
1011
0.0
1021
1.0
1031
0.0
1011
0.0
1021
0.0
1031
1.0
1040
0.0
1010
0.0
1020
0.0
1030
1.0
1000
ANSI37
1070
     0
1070
     1
1071
        1
1071
        7
1070
     1
1070
     1
1071
       12
1040
31.64199999996833
1040
2.481619422925121
1040
0.2679491924310942
1040
32.94699999997067
1040
0.2212931190493919
1040
0.2679491924301353
1040
36.36699999995983
1040
0.2212931190459813
1040
0.2679491924321411
1040
37.67199999996831
1040
2.481619422928361
1040
0.0
1040
37.67199999996831
1040
8.763099999991255
1040
0.0
1040
36.23199999996837
1040
8.763099999991255
1040
0.0
1040
36.23199999996837
1040
2.481619422925064
1040
-0.2679491924310291
1040
35.64699999996708
1040
1.468369700498386
1040
-0.267949192430519
1040
33.66699999997093
1040
1.468369700497703
1040
-0.267949192431809
1040
33.08199999996839
1040
2.481619422926997
1040
0.0
1040
33.08199999996839
1040
8.763099999991255
1040
0.0
1040
31.64199999996833
1040
8.763099999991255
1040
0.0
1071
        0
1070
     0
1070
     1
1040
0.0
1040
0.15
1070
     0
1070
     2
1040
0.7853981633974483
1040
49.29960901727088
1040
-10.17736998311392
1040
-0.3367596045400932
1040
0.3367596045400932
1070
     0
1040
2.356194490192345
1040
49.29960901727088
1040
-10.17736998311392
1040
-0.3367596045400932
1040
-0.3367596045400932
1070
     0
1040
0.0110235143455945
1071
        1
1040
32.30357378967278
1040
3.988785755459219
1040
0.0
1002
}
  0
INSERT
  5
AC1A
330
ABD3
100
AcDbEntity
  8
0
100
AcDbBlockReference
  2
*X33
 10
0.0
 20
0.0
 30
0.0
1001
ACAD
1000
HATCH
1002
{
1070
    19
1000
ANSI37
1040
0.15
1040
0.0
1000
ASC_BOUNDS
1070
     1
1070
     2
1070
     8
1005
ABFB
1005
ABFE
1005
AC02
1005
AC01
1005
AC00
1005
ABFD
1005
ABFF
1005
ABFC
1000
ASC_SEEDPOINT
1011
39.74896370716704
1021
4.484843821435049
1031
0.0
1000
R14_HATCH_DATA
1000
AC1A
1011
1.0
1021
0.0
1031
0.0
1011
0.0
1021
1.0
1031
0.0
1011
0.0
1021
0.0
1031
1.0
1040
0.0
1010
0.0
1020
0.0
1030
1.0
1000
ANSI37
1070
     0
1070
     1
1071
        1
1071
        7
1070
     0
1070
     1
1071
        9
1040
40.02599999995994
1040
5.341799999994635
1040
44.99999999995498
1040
-0.2368999999997641
1040
44.99999999995498
1040
8.763099999991255
1040
43.57899999995641
1040
8.763099999991255
1040
43.57899999995641
1040
3.421199999996588
1040
38.60499999996136
1040
8.999899999990987
1040
38.60499999996136
1040
8.999999999991019
1040
38.60499999996136
1040
0.0
1040
40.02599999995994
1040
0.0
1071
        8
1005
ABFB
1005
ABFE
1005
AC02
1005
AC01
1005
AC00
1005
ABFD
1005
ABFF
1005
ABFC
1070
     0
1070
     1
1040
0.0
1040
0.15
1070
     0
1070
     2
1040
0.7853981633974483
1040
49.29960901727088
1040
-10.17736998311392
1040
-0.3367596045400932
1040
0.3367596045400932
1070
     0
1040
2.356194490192345
1040
49.29960901727088
1040
-10.17736998311392
1040
-0.3367596045400932
1040
-0.3367596045400932
1070
     0
1040
0.0110235143455945
1071
        1
1040
39.74896370716704
1040
4.484843821435049
1040
0.0
1002
}
  0
INSERT
  5
AC1B
330
ABD3
100
AcDbEntity
  8
0
100
AcDbBlockReference
  2
*X34
 10
0.0
 20
0.0
 30
0.0
1001
ACAD
1000
HATCH
1002
{
1070
    19
1000
ANSI37
1040
0.15
1040
0.0
1000
ASC_BOUNDS
1070
     1
1070
     2
1070
     4
1005
ABDF
1005
ABEE
1005
ABE0
1005
ABE2
1000
ASC_SEEDPOINT
1011
1.079051535452663
1021
4.148538732891836
1031
0.0
1000
R14_HATCH_DATA
1000
AC1B
1011
1.0
1021
0.0
1031
0.0
1011
0.0
1021
1.0
1031
0.0
1011
0.0
1021
0.0
1031
1.0
1040
0.0
1010
0.0
1020
0.0
1030
1.0
1000
ANSI37
1070
     0
1070
     1
1071
        1
1071
        7
1070
     0
1070
     1
1071
        4
1040
1.420999999998571
1040
0.0
1040
1.420999999998571
1040
8.763099999991255
1040
0.0
1040
8.763099999991255
1040
0.0
1040
0.0
1071
        4
1005
ABDF
1005
ABEE
1005
ABE0
1005
ABE2
1070
     0
1070
     1
1040
0.0
1040
0.15
1070
     0
1070
     2
1040
0.7853981633974483
1040
49.29960901727088
1040
-10.17736998311392
1040
-0.3367596045400932
1040
0.3367596045400932
1070
     0
1040
2.356194490192345
1040
49.29960901727088
1040
-10.17736998311392
1040
-0.3367596045400932
1040
-0.3367596045400932
1070
     0
1040
0.0053004257112761
1071
        1
1040
1.079051535452663
1040
4.148538732891836
1040
0.0
1002
}
  0
ENDBLK
  5
B2E6
330
ABD3
100
AcDbEntity
  8
0
100
AcDbBlockEnd
  0
BLOCK
  5
B8F6
330
B768
100
AcDbEntity
  8
0
100
AcDbBlockBegin
  2
*X29
 70
     1
 10
0.0
 20
0.0
 30
0.0
  3
*X29
  1

  0
LINE
  5
B769
330
B768
100
AcDbEntity
  8
0
  6
CONTINUOUS
100
AcDbLine
 10
3.418023043697893
 20
7.251849696850613
 30
0.0
 11
4.929273346838536
 21
8.763099999991255
 31
0.0
  0
LINE
  5
B76A
330
B768
100
AcDbEntity
  8
0
  6
CONTINUOUS
100
AcDbLine
 10
1.483656411257782
 20
4.643963855330318
 30
0.0
 11
5.60279255591872
 21
8.763099999991255
 31
0.0
  0
LINE
  5
B76B
330
B768
100
AcDbEntity
  8
0
  6
CONTINUOUS
100
AcDbLine
 10
1.755053947328235
 20
4.241842182320584
 30
0.0
 11
6.276311764998907
 21
8.763099999991255
 31
0.0
  0
LINE
  5
B76C
330
B768
100
AcDbEntity
  8
0
  6
CONTINUOUS
100
AcDbLine
 10
2.026451483398688
 20
3.839720509310849
 30
0.0
 11
4.441040904851878
 21
6.254309930764039
 31
0.0
  0
LINE
  5
B76D
330
B768
100
AcDbEntity
  8
0
  6
CONTINUOUS
100
AcDbLine
 10
2.297849019469139
 20
3.437598836301114
 30
0.0
 11
3.321765168359338
 21
4.461514985191313
 31
0.0
  0
LINE
  5
B76E
330
B768
100
AcDbEntity
  8
0
  6
CONTINUOUS
100
AcDbLine
 10
2.569246555539591
 20
3.03547716329138
 30
0.0
 11
3.593163397972743
 21
4.059394005724531
 31
0.0
  0
LINE
  5
B76F
330
B768
100
AcDbEntity
  8
0
  6
CONTINUOUS
100
AcDbLine
 10
2.840644091610043
 20
2.633355490281646
 30
0.0
 11
3.864561627586149
 21
3.657273026257751
 31
0.0
  0
LINE
  5
B770
330
B768
100
AcDbEntity
  8
0
  6
CONTINUOUS
100
AcDbLine
 10
3.112041627680496
 20
2.231233817271911
 30
0.0
 11
4.135959857199554
 21
3.25515204679097
 31
0.0
  0
LINE
  5
B771
330
B768
100
AcDbEntity
  8
0
  6
CONTINUOUS
100
AcDbLine
 10
3.383439163750948
 20
1.829112144262177
 30
0.0
 11
4.40735808681296
 21
2.853031067324189
 31
0.0
  0
LINE
  5
B772
330
B768
100
AcDbEntity
  8
0
  6
CONTINUOUS
100
AcDbLine
 10
3.654836699821399
 20
1.426990471252442
 30
0.0
 11
4.678756316426365
 21
2.450910087857407
 31
0.0
  0
LINE
  5
B773
330
B768
100
AcDbEntity
  8
0
  6
CONTINUOUS
100
AcDbLine
 10
3.926234235891853
 20
1.024868798242709
 30
0.0
 11
4.95015454603977
 21
2.048789108390626
 31
0.0
  0
LINE
  5
B774
330
B768
100
AcDbEntity
  8
0
  6
CONTINUOUS
100
AcDbLine
 10
4.197631771962304
 20
0.6227471252329737
 30
0.0
 11
5.221552775653176
 21
1.646668128923846
 31
0.0
  0
LINE
  5
B775
330
B768
100
AcDbEntity
  8
0
  6
CONTINUOUS
100
AcDbLine
 10
8.715877546767851
 20
7.835069736359266
 30
0.0
 11
9.435953450375058
 21
8.555145639966472
 31
0.0
  0
LINE
  5
B776
330
B768
100
AcDbEntity
  8
0
  6
CONTINUOUS
100
AcDbLine
 10
8.170620868422267
 20
6.616293848933497
 30
0.0
 11
9.644120833743461
 21
8.08979381425469
 31
0.0
  0
LINE
  5
B777
330
B768
100
AcDbEntity
  8
0
  6
CONTINUOUS
100
AcDbLine
 10
7.625364190076684
 20
5.397517961507727
 30
0.0
 11
9.852288217111864
 21
7.624441988542907
 31
0.0
  0
LINE
  5
B778
330
B768
100
AcDbEntity
  8
0
  6
CONTINUOUS
100
AcDbLine
 10
7.080107511731101
 20
4.178742074081957
 30
0.0
 11
10.06045560048027
 21
7.159090162831124
 31
0.0
  0
LINE
  5
B779
330
B768
100
AcDbEntity
  8
0
  6
CONTINUOUS
100
AcDbLine
 10
6.534850833385518
 20
2.959966186656187
 30
0.0
 11
10.26862298384867
 21
6.693738337119342
 31
0.0
  0
LINE
  5
B77A
330
B768
100
AcDbEntity
  8
0
  6
CONTINUOUS
100
AcDbLine
 10
4.469029308032756
 20
0.2206254522232385
 30
0.0
 11
5.492951005266582
 21
1.244547149457064
 31
0.0
  0
LINE
  5
B77B
330
B768
100
AcDbEntity
  8
0
  6
CONTINUOUS
100
AcDbLine
 10
5.989594155039935
 20
1.741190299230417
 30
0.0
 11
8.806950407233131
 21
4.558546551423613
 31
0.0
  0
LINE
  5
B77C
330
B768
100
AcDbEntity
  8
0
  6
CONTINUOUS
100
AcDbLine
 10
9.401251593263643
 20
5.152847737454126
 30
0.0
 11
10.47679036721708
 21
6.228386511407559
 31
0.0
  0
LINE
  5
B77D
330
B768
100
AcDbEntity
  8
0
  6
CONTINUOUS
100
AcDbLine
 10
4.921837203428691
 20
-0.0000858614610131
 30
0.0
 11
8.592923064886001
 21
3.670999999996297
 31
0.0
  0
LINE
  5
B77E
330
B768
100
AcDbEntity
  8
0
  6
CONTINUOUS
100
AcDbLine
 10
9.609390446785305
 20
4.6874673818956
 30
0.0
 11
10.68495775058548
 21
5.763034685695775
 31
0.0
  0
LINE
  5
B77F
330
B768
100
AcDbEntity
  8
0
  6
CONTINUOUS
100
AcDbLine
 10
5.595387755019432
 20
-0.0000545189504582
 30
0.0
 11
7.716137258923768
 21
2.120694984953879
 31
0.0
  0
LINE
  5
B780
330
B768
100
AcDbEntity
  8
0
  6
CONTINUOUS
100
AcDbLine
 10
6.268938306610172
 20
-0.000023176439905
 30
0.0
 11
7.170485805526503
 21
0.9015243224764267
 31
0.0
  0
LINE
  5
B781
330
B768
100
AcDbEntity
  8
0
  6
CONTINUOUS
100
AcDbLine
 10
7.963842273967511
 20
2.368399999997621
 30
0.0
 11
9.266442273966188
 21
3.670999999996297
 31
0.0
  0
LINE
  5
B782
330
B768
100
AcDbEntity
  8
0
  6
CONTINUOUS
100
AcDbLine
 10
8.637361483047696
 20
2.368399999997621
 30
0.0
 11
9.939961483046375
 21
3.670999999996297
 31
0.0
  0
LINE
  5
B783
330
B768
100
AcDbEntity
  8
0
  6
CONTINUOUS
100
AcDbLine
 10
9.817529300306965
 20
4.222087026337075
 30
0.0
 11
10.89312513395388
 21
5.297682859983993
 31
0.0
  0
LINE
  5
B784
330
B768
100
AcDbEntity
  8
0
  6
CONTINUOUS
100
AcDbLine
 10
10.02566815382863
 20
3.756706670778549
 30
0.0
 11
11.10129251732229
 21
4.832331034272211
 31
0.0
  0
LINE
  5
B785
330
B768
100
AcDbEntity
  8
0
  6
CONTINUOUS
100
AcDbLine
 10
9.310880692127883
 20
2.368399999997621
 30
0.0
 11
11.30945990069069
 21
4.366979208560428
 31
0.0
  0
LINE
  5
B786
330
B768
100
AcDbEntity
  8
0
  6
CONTINUOUS
100
AcDbLine
 10
9.98439990120807
 20
2.36839999999762
 30
0.0
 11
11.5176272840591
 21
3.901627382848645
 31
0.0
  0
LINE
  5
B787
330
B768
100
AcDbEntity
  8
0
  6
CONTINUOUS
100
AcDbLine
 10
10.65037369446246
 20
2.36085458417182
 30
0.0
 11
11.7257946674275
 21
3.436275557136862
 31
0.0
  0
LINE
  5
B788
330
B768
100
AcDbEntity
  8
0
  6
CONTINUOUS
100
AcDbLine
 10
10.85847197087848
 20
1.895433651507656
 30
0.0
 11
11.9339620507959
 21
2.97092373142508
 31
0.0
  0
LINE
  5
B789
330
B768
100
AcDbEntity
  8
0
  6
CONTINUOUS
100
AcDbLine
 10
11.0665702472945
 20
1.430012718843491
 30
0.0
 11
12.14212943416431
 21
2.505571905713296
 31
0.0
  0
LINE
  5
B78A
330
B768
100
AcDbEntity
  8
0
  6
CONTINUOUS
100
AcDbLine
 10
11.27466852371052
 20
0.9645917861793256
 30
0.0
 11
12.35029681753271
 21
2.040220080001513
 31
0.0
  0
LINE
  5
B78B
330
B768
100
AcDbEntity
  8
0
  6
CONTINUOUS
100
AcDbLine
 10
11.48276680012654
 20
0.4991708535151611
 30
0.0
 11
12.55846420090111
 21
1.57486825428973
 31
0.0
  0
LINE
  5
B78C
330
B768
100
AcDbEntity
  8
0
  6
CONTINUOUS
100
AcDbLine
 10
11.69086507654257
 20
0.0337499208509957
 30
0.0
 11
12.76663158426952
 21
1.109516428577947
 31
0.0
  0
LINE
  5
B78D
330
B768
100
AcDbEntity
  8
0
  6
CONTINUOUS
100
AcDbLine
 10
12.33057447873954
 20
-0.0000598860322123
 30
0.0
 11
12.97479896763792
 21
0.6441646028661663
 31
0.0
  0
LINE
  5
B78E
330
B768
100
AcDbEntity
  8
0
  6
CONTINUOUS
100
AcDbLine
 10
13.00413694809395
 20
-0.0000166257579952
 30
0.0
 11
13.18296635100632
 21
0.1788127771543824
 31
0.0
  0
LINE
  5
B78F
330
B768
100
AcDbEntity
  8
0
  6
CONTINUOUS
100
AcDbLine
 10
4.772852165289667
 20
-0.000092794222212
 30
0.0
 11
4.296495091028902
 21
0.4762642800385528
 31
0.0
  0
LINE
  5
B790
330
B768
100
AcDbEntity
  8
0
  6
CONTINUOUS
100
AcDbLine
 10
5.446340034776103
 20
-0.0000614546284616
 30
0.0
 11
2.898195908335625
 21
2.548082671812017
 31
0.0
  0
LINE
  5
B791
330
B768
100
AcDbEntity
  8
0
  6
CONTINUOUS
100
AcDbLine
 10
6.119827904262539
 20
-0.0000301150347113
 30
0.0
 11
1.499896725642348
 21
4.61990106358548
 31
0.0
  0
LINE
  5
B792
330
B768
100
AcDbEntity
  8
0
  6
CONTINUOUS
100
AcDbLine
 10
6.775136745476159
 20
0.0181802528318542
 30
0.0
 11
5.699826040202669
 21
1.093490958105344
 31
0.0
  0
LINE
  5
B793
330
B768
100
AcDbEntity
  8
0
  6
CONTINUOUS
100
AcDbLine
 10
6.983376846288489
 20
0.4834593610997118
 30
0.0
 11
5.908008617934405
 21
1.558827589453796
 31
0.0
  0
LINE
  5
B794
330
B768
100
AcDbEntity
  8
0
  6
CONTINUOUS
100
AcDbLine
 10
5.377063484962296
 20
1.416253513345719
 30
0.0
 11
1.702276957014131
 21
5.091040041293883
 31
0.0
  0
LINE
  5
B795
330
B768
100
AcDbEntity
  8
0
  6
CONTINUOUS
100
AcDbLine
 10
3.978745891735324
 20
3.488090315652877
 30
0.0
 11
2.000373521109399
 21
5.466462686278803
 31
0.0
  0
LINE
  5
B796
330
B768
100
AcDbEntity
  8
0
  6
CONTINUOUS
100
AcDbLine
 10
7.191616947100819
 20
0.948738469367568
 30
0.0
 11
6.11619119566614
 21
2.024164220802247
 31
0.0
  0
LINE
  5
B797
330
B768
100
AcDbEntity
  8
0
  6
CONTINUOUS
100
AcDbLine
 10
7.399857047913149
 20
1.414017577635424
 30
0.0
 11
6.324373773397875
 21
2.489500852150698
 31
0.0
  0
LINE
  5
B798
330
B768
100
AcDbEntity
  8
0
  6
CONTINUOUS
100
AcDbLine
 10
7.608097148725479
 20
1.879296685903281
 30
0.0
 11
6.53255635112961
 21
2.95483748349915
 31
0.0
  0
LINE
  5
B799
330
B768
100
AcDbEntity
  8
0
  6
CONTINUOUS
100
AcDbLine
 10
7.816337249537808
 20
2.344575794171138
 30
0.0
 11
6.740738928861345
 21
3.420174114847601
 31
0.0
  0
LINE
  5
B79A
330
B768
100
AcDbEntity
  8
0
  6
CONTINUOUS
100
AcDbLine
 10
3.310241080789734
 20
4.830114335678653
 30
0.0
 11
2.298470085204666
 21
5.84188533126372
 31
0.0
  0
LINE
  5
B79B
330
B768
100
AcDbEntity
  8
0
  6
CONTINUOUS
100
AcDbLine
 10
3.60832983563551
 20
5.205544789913063
 30
0.0
 11
2.596566649299935
 21
6.217307976248638
 31
0.0
  0
LINE
  5
B79C
330
B768
100
AcDbEntity
  8
0
  6
CONTINUOUS
100
AcDbLine
 10
3.906418590481286
 20
5.580975244147473
 30
0.0
 11
2.894663213395203
 21
6.592730621233557
 31
0.0
  0
LINE
  5
B79D
330
B768
100
AcDbEntity
  8
0
  6
CONTINUOUS
100
AcDbLine
 10
4.204507345327062
 20
5.956405698381884
 30
0.0
 11
3.192759777490472
 21
6.968153266218474
 31
0.0
  0
LINE
  5
B79E
330
B768
100
AcDbEntity
  8
0
  6
CONTINUOUS
100
AcDbLine
 10
8.466032252791512
 20
2.368399999997621
 30
0.0
 11
6.948921506593081
 21
3.885510746196053
 31
0.0
  0
LINE
  5
B79F
330
B768
100
AcDbEntity
  8
0
  6
CONTINUOUS
100
AcDbLine
 10
9.139551461871699
 20
2.36839999999762
 30
0.0
 11
7.157104084324816
 21
4.350847377544504
 31
0.0
  0
LINE
  5
B7A0
330
B768
100
AcDbEntity
  8
0
  6
CONTINUOUS
100
AcDbLine
 10
4.502596100172839
 20
6.331836152616295
 30
0.0
 11
3.49085634158574
 21
7.343575911203393
 31
0.0
  0
LINE
  5
B7A1
330
B768
100
AcDbEntity
  8
0
  6
CONTINUOUS
100
AcDbLine
 10
4.800684855018615
 20
6.707266606850705
 30
0.0
 11
3.788952905681008
 21
7.718998556188312
 31
0.0
  0
LINE
  5
B7A2
330
B768
100
AcDbEntity
  8
0
  6
CONTINUOUS
100
AcDbLine
 10
12.18154012887317
 20
-0.0000694579236642
 30
0.0
 11
11.32140332908496
 21
0.8600673418645499
 31
0.0
  0
LINE
  5
B7A3
330
B768
100
AcDbEntity
  8
0
  6
CONTINUOUS
100
AcDbLine
 10
12.85501608323566
 20
-0.0000262032059659
 30
0.0
 11
10.77672456435345
 21
2.078265315676246
 31
0.0
  0
LINE
  5
B7A4
330
B768
100
AcDbEntity
  8
0
  6
CONTINUOUS
100
AcDbLine
 10
9.813070670951886
 20
2.36839999999762
 30
0.0
 11
8.51047067095321
 21
3.670999999996297
 31
0.0
  0
LINE
  5
B7A5
330
B768
100
AcDbEntity
  8
0
  6
CONTINUOUS
100
AcDbLine
 10
10.48658988003207
 20
2.36839999999762
 30
0.0
 11
9.183989880033396
 21
3.670999999996297
 31
0.0
  0
LINE
  5
B7A6
330
B768
100
AcDbEntity
  8
0
  6
CONTINUOUS
100
AcDbLine
 10
8.441048632286794
 20
3.740422038662712
 30
0.0
 11
7.365286662056551
 21
4.816184008892956
 31
0.0
  0
LINE
  5
B7A7
330
B768
100
AcDbEntity
  8
0
  6
CONTINUOUS
100
AcDbLine
 10
8.649187485808454
 20
4.205802394221237
 30
0.0
 11
7.573469239788285
 21
5.281520640241407
 31
0.0
  0
LINE
  5
B7A8
330
B768
100
AcDbEntity
  8
0
  6
CONTINUOUS
100
AcDbLine
 10
5.098773609864391
 20
7.082697061085115
 30
0.0
 11
4.087049469776277
 21
8.09442120117323
 31
0.0
  0
LINE
  5
B7A9
330
B768
100
AcDbEntity
  8
0
  6
CONTINUOUS
100
AcDbLine
 10
5.396862364710167
 20
7.458127515319526
 30
0.0
 11
4.385146033871544
 21
8.469843846158149
 31
0.0
  0
LINE
  5
B7AA
330
B768
100
AcDbEntity
  8
0
  6
CONTINUOUS
100
AcDbLine
 10
13.04801363231285
 20
0.4804954567970334
 30
0.0
 11
9.85750908911358
 21
3.670999999996297
 31
0.0
  0
LINE
  5
B7AB
330
B768
100
AcDbEntity
  8
0
  6
CONTINUOUS
100
AcDbLine
 10
8.857326339330116
 20
4.671182749779763
 30
0.0
 11
7.781651817520021
 21
5.746857271589858
 31
0.0
  0
LINE
  5
B7AC
330
B768
100
AcDbEntity
  8
0
  6
CONTINUOUS
100
AcDbLine
 10
5.694951119555943
 20
7.833557969553937
 30
0.0
 11
4.765409089118624
 21
8.763099999991255
 31
0.0
  0
LINE
  5
B7AD
330
B768
100
AcDbEntity
  8
0
  6
CONTINUOUS
100
AcDbLine
 10
12.50286117236978
 20
1.699167125820288
 30
0.0
 11
9.68611877250287
 21
4.515909525687196
 31
0.0
  0
LINE
  5
B7AE
330
B768
100
AcDbEntity
  8
0
  6
CONTINUOUS
100
AcDbLine
 10
9.065465192851777
 20
5.136563105338288
 30
0.0
 11
7.989834395251757
 21
6.21219390293831
 31
0.0
  0
LINE
  5
B7AF
330
B768
100
AcDbEntity
  8
0
  6
CONTINUOUS
100
AcDbLine
 10
5.993039874401719
 20
8.208988423788346
 30
0.0
 11
5.43892829819881
 21
8.763099999991255
 31
0.0
  0
LINE
  5
B7B0
330
B768
100
AcDbEntity
  8
0
  6
CONTINUOUS
100
AcDbLine
 10
11.95770871242671
 20
2.917838794843543
 30
0.0
 11
8.19801697298349
 21
6.677530534286761
 31
0.0
  0
LINE
  5
B7B1
330
B768
100
AcDbEntity
  8
0
  6
CONTINUOUS
100
AcDbLine
 10
6.291128629247495
 20
8.584418878022756
 30
0.0
 11
6.112447507278997
 21
8.763099999991255
 31
0.0
  0
LINE
  5
B7B2
330
B768
100
AcDbEntity
  8
0
  6
CONTINUOUS
100
AcDbLine
 10
11.41255625248364
 20
4.136510463866797
 30
0.0
 11
8.406199550715227
 21
7.142867165635211
 31
0.0
  0
LINE
  5
B7B3
330
B768
100
AcDbEntity
  8
0
  6
CONTINUOUS
100
AcDbLine
 10
10.86740379254057
 20
5.355182132890051
 30
0.0
 11
8.614382128446962
 21
7.608203796983664
 31
0.0
  0
LINE
  5
B7B4
330
B768
100
AcDbEntity
  8
0
  6
CONTINUOUS
100
AcDbLine
 10
10.3222513325975
 20
6.573853801913305
 30
0.0
 11
8.822564706178696
 21
8.073540428332114
 31
0.0
  0
LINE
  5
B7B5
330
B768
100
AcDbEntity
  8
0
  6
CONTINUOUS
100
AcDbLine
 10
9.777098872654436
 20
7.792525470936562
 30
0.0
 11
9.030747283910433
 21
8.538877059680566
 31
0.0
  0
ENDBLK
  5
B8F7
330
B768
100
AcDbEntity
  8
0
100
AcDbBlockEnd
  0
BLOCK
  5
B8F8
330
B7B6
100
AcDbEntity
  8
0
100
AcDbBlockBegin
  2
*X30
 70
     1
 10
0.0
 20
0.0
 30
0.0
  3
*X30
  1

  0
LINE
  5
B7B7
330
B7B6
100
AcDbEntity
  8
0
  6
CONTINUOUS
100
AcDbLine
 10
10.67292308101235
 20
8.445076852443387
 30
0.0
 11
10.99094622856022
 21
8.763099999991255
 31
0.0
  0
LINE
  5
B7B8
330
B7B6
100
AcDbEntity
  8
0
  6
CONTINUOUS
100
AcDbLine
 10
10.87250383178748
 20
7.971138394138331
 30
0.0
 11
11.6644654376404
 21
8.763099999991255
 31
0.0
  0
LINE
  5
B7B9
330
B7B6
100
AcDbEntity
  8
0
  6
CONTINUOUS
100
AcDbLine
 10
11.07208458256261
 20
7.497199935833273
 30
0.0
 11
12.12126590876355
 21
8.546381262034211
 31
0.0
  0
LINE
  5
B7BA
330
B7B6
100
AcDbEntity
  8
0
  6
CONTINUOUS
100
AcDbLine
 10
11.27166533333774
 20
7.023261477528216
 30
0.0
 11
12.32085164573666
 21
8.072447789927136
 31
0.0
  0
LINE
  5
B7BB
330
B7B6
100
AcDbEntity
  8
0
  6
CONTINUOUS
100
AcDbLine
 10
11.47124608411287
 20
6.549323019223158
 30
0.0
 11
12.52043738270977
 21
7.59851431782006
 31
0.0
  0
LINE
  5
B7BC
330
B7B6
100
AcDbEntity
  8
0
  6
CONTINUOUS
100
AcDbLine
 10
11.670826834888
 20
6.075384560918101
 30
0.0
 11
12.72002311968288
 21
7.124580845712984
 31
0.0
  0
LINE
  5
B7BD
330
B7B6
100
AcDbEntity
  8
0
  6
CONTINUOUS
100
AcDbLine
 10
11.87040758566313
 20
5.601446102613043
 30
0.0
 11
12.91960885665599
 21
6.650647373605907
 31
0.0
  0
LINE
  5
B7BE
330
B7B6
100
AcDbEntity
  8
0
  6
CONTINUOUS
100
AcDbLine
 10
12.06998833643825
 20
5.127507644307986
 30
0.0
 11
13.1191945936291
 21
6.176713901498832
 31
0.0
  0
LINE
  5
B7BF
330
B7B6
100
AcDbEntity
  8
0
  6
CONTINUOUS
100
AcDbLine
 10
12.26956908721338
 20
4.65356918600293
 30
0.0
 11
13.31878033060221
 21
5.702780429391757
 31
0.0
  0
LINE
  5
B7C0
330
B7B6
100
AcDbEntity
  8
0
  6
CONTINUOUS
100
AcDbLine
 10
12.46914983798851
 20
4.179630727697873
 30
0.0
 11
13.51836606757532
 21
5.228846957284683
 31
0.0
  0
LINE
  5
B7C1
330
B7B6
100
AcDbEntity
  8
0
  6
CONTINUOUS
100
AcDbLine
 10
12.66873058876364
 20
3.705692269392816
 30
0.0
 11
13.71795180454843
 21
4.754913485177607
 31
0.0
  0
LINE
  5
B7C2
330
B7B6
100
AcDbEntity
  8
0
  6
CONTINUOUS
100
AcDbLine
 10
12.86831133953877
 20
3.231753811087759
 30
0.0
 11
13.91753754152154
 21
4.280980013070531
 31
0.0
  0
LINE
  5
B7C3
330
B7B6
100
AcDbEntity
  8
0
  6
CONTINUOUS
100
AcDbLine
 10
13.0678920903139
 20
2.757815352782702
 30
0.0
 11
14.11712327849465
 21
3.807046540963456
 31
0.0
  0
LINE
  5
B7C4
330
B7B6
100
AcDbEntity
  8
0
  6
CONTINUOUS
100
AcDbLine
 10
13.26747284108903
 20
2.283876894477644
 30
0.0
 11
14.31670901546777
 21
3.333113068856379
 31
0.0
  0
LINE
  5
B7C5
330
B7B6
100
AcDbEntity
  8
0
  6
CONTINUOUS
100
AcDbLine
 10
16.36767838827179
 20
8.751678487061342
 30
0.0
 11
16.50332410898388
 21
8.887324207773432
 31
0.0
  0
LINE
  5
B7C6
330
B7B6
100
AcDbEntity
  8
0
  6
CONTINUOUS
100
AcDbLine
 10
15.96190732182191
 20
7.67238821153127
 30
0.0
 11
16.68735328004734
 21
8.397834169756699
 31
0.0
  0
LINE
  5
B7C7
330
B7B6
100
AcDbEntity
  8
0
  6
CONTINUOUS
100
AcDbLine
 10
15.55613625537202
 20
6.593097936001196
 30
0.0
 11
16.87138245111079
 21
7.908344131739965
 31
0.0
  0
LINE
  5
B7C8
330
B7B6
100
AcDbEntity
  8
0
  6
CONTINUOUS
100
AcDbLine
 10
15.15036518892213
 20
5.513807660471122
 30
0.0
 11
17.05541162217424
 21
7.418854093723231
 31
0.0
  0
LINE
  5
B7C9
330
B7B6
100
AcDbEntity
  8
0
  6
CONTINUOUS
100
AcDbLine
 10
14.74459412247225
 20
4.434517384941048
 30
0.0
 11
17.2394407932377
 21
6.929364055706499
 31
0.0
  0
LINE
  5
B7CA
330
B7B6
100
AcDbEntity
  8
0
  6
CONTINUOUS
100
AcDbLine
 10
14.33882305602236
 20
3.355227109410975
 30
0.0
 11
17.42346996430115
 21
6.439874017689766
 31
0.0
  0
LINE
  5
B7CB
330
B7B6
100
AcDbEntity
  8
0
  6
CONTINUOUS
100
AcDbLine
 10
13.46705359186416
 20
1.809938436172586
 30
0.0
 11
16.0819338255367
 21
4.424818669845129
 31
0.0
  0
LINE
  5
B7CC
330
B7B6
100
AcDbEntity
  8
0
  6
CONTINUOUS
100
AcDbLine
 10
16.63283254238972
 20
4.975717386698149
 30
0.0
 11
17.60749913536461
 21
5.950383979673033
 31
0.0
  0
LINE
  5
B7CD
330
B7B6
100
AcDbEntity
  8
0
  6
CONTINUOUS
100
AcDbLine
 10
13.66663434263929
 20
1.335999977867529
 30
0.0
 11
15.67604797733754
 21
3.345413612565779
 31
0.0
  0
LINE
  5
B7CE
330
B7B6
100
AcDbEntity
  8
0
  6
CONTINUOUS
100
AcDbLine
 10
13.86621509341442
 20
0.8620615195624723
 30
0.0
 11
15.27016212913838
 21
2.26600855528643
 31
0.0
  0
LINE
  5
B7CF
330
B7B6
100
AcDbEntity
  8
0
  6
CONTINUOUS
100
AcDbLine
 10
16.81682257348267
 20
4.486188208710908
 30
0.0
 11
17.79152830642806
 21
5.460893941656299
 31
0.0
  0
LINE
  5
B7D0
330
B7B6
100
AcDbEntity
  8
0
  6
CONTINUOUS
100
AcDbLine
 10
17.00081260457561
 20
3.996659030723667
 30
0.0
 11
17.97555747749151
 21
4.971403903639565
 31
0.0
  0
LINE
  5
B7D1
330
B7B6
100
AcDbEntity
  8
0
  6
CONTINUOUS
100
AcDbLine
 10
20.74362343514722
 20
8.412989070375462
 30
0.0
 11
21.09373436476302
 21
8.763099999991256
 31
0.0
  0
LINE
  5
B7D2
330
B7B6
100
AcDbEntity
  8
0
  6
CONTINUOUS
100
AcDbLine
 10
20.25401257174777
 20
7.249858997895826
 30
0.0
 11
21.7672535738432
 21
8.763099999991255
 31
0.0
  0
LINE
  5
B7D3
330
B7B6
100
AcDbEntity
  8
0
  6
CONTINUOUS
100
AcDbLine
 10
14.06579584418955
 20
0.3881230612574149
 30
0.0
 11
14.86427628093921
 21
1.186603498007082
 31
0.0
  0
LINE
  5
B7D4
330
B7B6
100
AcDbEntity
  8
0
  6
CONTINUOUS
100
AcDbLine
 10
14.26537659496467
 20
-0.0858153970476412
 30
0.0
 11
14.45839043274005
 21
0.1071984407277329
 31
0.0
  0
LINE
  5
B7D5
330
B7B6
100
AcDbEntity
  8
0
  6
CONTINUOUS
100
AcDbLine
 10
17.18480263566856
 20
3.507129852736426
 30
0.0
 11
18.15958664855496
 21
4.481913865622833
 31
0.0
  0
LINE
  5
B7D6
330
B7B6
100
AcDbEntity
  8
0
  6
CONTINUOUS
100
AcDbLine
 10
17.3687926667615
 20
3.017600674749186
 30
0.0
 11
18.34361581961842
 21
3.9924238276061
 31
0.0
  0
LINE
  5
B7D7
330
B7B6
100
AcDbEntity
  8
0
  6
CONTINUOUS
100
AcDbLine
 10
19.76440170834832
 20
6.086728925416191
 30
0.0
 11
22.33924590259489
 21
8.661573119662755
 31
0.0
  0
LINE
  5
B7D8
330
B7B6
100
AcDbEntity
  8
0
  6
CONTINUOUS
100
AcDbLine
 10
19.27479084494887
 20
4.923598852936555
 30
0.0
 11
21.84929622842713
 21
7.498104236414807
 31
0.0
  0
LINE
  5
B7D9
330
B7B6
100
AcDbEntity
  8
0
  6
CONTINUOUS
100
AcDbLine
 10
17.55278269785445
 20
2.528071496761945
 30
0.0
 11
18.52764499068187
 21
3.502933789589366
 31
0.0
  0
LINE
  5
B7DA
330
B7B6
100
AcDbEntity
  8
0
  6
CONTINUOUS
100
AcDbLine
 10
18.78517998154942
 20
3.760468780456919
 30
0.0
 11
21.35934655425936
 21
6.33463535316686
 31
0.0
  0
LINE
  5
B7DB
330
B7B6
100
AcDbEntity
  8
0
  6
CONTINUOUS
100
AcDbLine
 10
17.73677272894739
 20
2.038542318774704
 30
0.0
 11
20.8693968800916
 21
5.171166469918914
 31
0.0
  0
LINE
  5
B7DC
330
B7B6
100
AcDbEntity
  8
0
  6
CONTINUOUS
100
AcDbLine
 10
17.92076276004034
 20
1.549013140787464
 30
0.0
 11
20.37944720592384
 21
4.007697586670968
 31
0.0
  0
LINE
  5
B7DD
330
B7B6
100
AcDbEntity
  8
0
  6
CONTINUOUS
100
AcDbLine
 10
18.10475279113329
 20
1.059483962800223
 30
0.0
 11
19.88949753175608
 21
2.84422870342302
 31
0.0
  0
LINE
  5
B7DE
330
B7B6
100
AcDbEntity
  8
0
  6
CONTINUOUS
100
AcDbLine
 10
18.28874282222623
 20
0.5699547848129822
 30
0.0
 11
19.39954785758832
 21
1.680759820175074
 31
0.0
  0
LINE
  5
B7DF
330
B7B6
100
AcDbEntity
  8
0
  6
CONTINUOUS
100
AcDbLine
 10
18.47273285331918
 20
0.0804256068257416
 30
0.0
 11
18.90959818342056
 21
0.517290936927127
 31
0.0
  0
LINE
  5
B7E0
330
B7B6
100
AcDbEntity
  8
0
  6
CONTINUOUS
100
AcDbLine
 10
14.3590401358224
 20
-0.1570118376323384
 30
0.0
 11
14.24903296539946
 21
-0.0470046672093929
 31
0.0
  0
LINE
  5
B7E1
330
B7B6
100
AcDbEntity
  8
0
  6
CONTINUOUS
100
AcDbLine
 10
14.54309291258661
 20
0.332454594683643
 30
0.0
 11
13.75908329123172
 21
1.116464216038529
 31
0.0
  0
LINE
  5
B7E2
330
B7B6
100
AcDbEntity
  8
0
  6
CONTINUOUS
100
AcDbLine
 10
14.72714568935081
 20
0.8219210269996244
 30
0.0
 11
13.26913361706399
 21
2.27993309928645
 31
0.0
  0
LINE
  5
B7E3
330
B7B6
100
AcDbEntity
  8
0
  6
CONTINUOUS
100
AcDbLine
 10
14.91119846611502
 20
1.311387459315606
 30
0.0
 11
12.77918394289625
 21
3.443401982534371
 31
0.0
  0
LINE
  5
B7E4
330
B7B6
100
AcDbEntity
  8
0
  6
CONTINUOUS
100
AcDbLine
 10
15.09525124287922
 20
1.800853891631587
 30
0.0
 11
12.28923426872852
 21
4.606870865782293
 31
0.0
  0
LINE
  5
B7E5
330
B7B6
100
AcDbEntity
  8
0
  6
CONTINUOUS
100
AcDbLine
 10
15.27930401964343
 20
2.290320323947569
 30
0.0
 11
11.79928459456078
 21
5.770339749030213
 31
0.0
  0
LINE
  5
B7E6
330
B7B6
100
AcDbEntity
  8
0
  6
CONTINUOUS
100
AcDbLine
 10
15.46335679640763
 20
2.77978675626355
 30
0.0
 11
14.48885470994921
 21
3.754288842721972
 31
0.0
  0
LINE
  5
B7E7
330
B7B6
100
AcDbEntity
  8
0
  6
CONTINUOUS
100
AcDbLine
 10
13.88507249233704
 20
4.358071060334137
 30
0.0
 11
11.30933492039305
 21
6.933808632278135
 31
0.0
  0
LINE
  5
B7E8
330
B7B6
100
AcDbEntity
  8
0
  6
CONTINUOUS
100
AcDbLine
 10
18.75840522805855
 20
0.1582575336928151
 30
0.0
 11
18.25383727664818
 21
0.6628254851031863
 31
0.0
  0
LINE
  5
B7E9
330
B7B6
100
AcDbEntity
  8
0
  6
CONTINUOUS
100
AcDbLine
 10
15.64740957317184
 20
3.269253188579531
 30
0.0
 11
14.67288388101266
 21
4.243778880738705
 31
0.0
  0
LINE
  5
B7EA
330
B7B6
100
AcDbEntity
  8
0
  6
CONTINUOUS
100
AcDbLine
 10
13.39509276772158
 20
5.521569994029786
 30
0.0
 11
10.81938524622531
 21
8.097277515526056
 31
0.0
  0
LINE
  5
B7EB
330
B7B6
100
AcDbEntity
  8
0
  6
CONTINUOUS
100
AcDbLine
 10
18.95798597883369
 20
0.6321959919978686
 30
0.0
 11
17.84825644852853
 21
1.741925522303024
 31
0.0
  0
LINE
  5
B7EC
330
B7B6
100
AcDbEntity
  8
0
  6
CONTINUOUS
100
AcDbLine
 10
19.15756672960882
 20
1.106134450302922
 30
0.0
 11
17.44267562040888
 21
2.821025559502861
 31
0.0
  0
LINE
  5
B7ED
330
B7B6
100
AcDbEntity
  8
0
  6
CONTINUOUS
100
AcDbLine
 10
15.83146234993604
 20
3.758719620895513
 30
0.0
 11
14.85691305207612
 21
4.733268918755439
 31
0.0
  0
LINE
  5
B7EE
330
B7B6
100
AcDbEntity
  8
0
  6
CONTINUOUS
100
AcDbLine
 10
16.01551512670025
 20
4.248186053211494
 30
0.0
 11
15.04094222313957
 21
5.222758956772172
 31
0.0
  0
LINE
  5
B7EF
330
B7B6
100
AcDbEntity
  8
0
  6
CONTINUOUS
100
AcDbLine
 10
12.90511304310612
 20
6.685068927725435
 30
0.0
 11
10.8270819708403
 21
8.763099999991255
 31
0.0
  0
LINE
  5
B7F0
330
B7B6
100
AcDbEntity
  8
0
  6
CONTINUOUS
100
AcDbLine
 10
12.41513331849066
 20
7.848567861421083
 30
0.0
 11
11.50060117992049
 21
8.763099999991255
 31
0.0
  0
LINE
  5
B7F1
330
B7B6
100
AcDbEntity
  8
0
  6
CONTINUOUS
100
AcDbLine
 10
19.35714748038395
 20
1.580072908607975
 30
0.0
 11
17.03709479228923
 21
3.900125596702697
 31
0.0
  0
LINE
  5
B7F2
330
B7B6
100
AcDbEntity
  8
0
  6
CONTINUOUS
100
AcDbLine
 10
19.55672823115909
 20
2.054011366913028
 30
0.0
 11
16.63151396416958
 21
4.979225633902534
 31
0.0
  0
LINE
  5
B7F3
330
B7B6
100
AcDbEntity
  8
0
  6
CONTINUOUS
100
AcDbLine
 10
16.19956790346445
 20
4.737652485527476
 30
0.0
 11
15.22497139420302
 21
5.712248994788904
 31
0.0
  0
LINE
  5
B7F4
330
B7B6
100
AcDbEntity
  8
0
  6
CONTINUOUS
100
AcDbLine
 10
16.38362068022866
 20
5.227118917843457
 30
0.0
 11
15.40900056526648
 21
6.201739032805637
 31
0.0
  0
LINE
  5
B7F5
330
B7B6
100
AcDbEntity
  8
0
  6
CONTINUOUS
100
AcDbLine
 10
19.75630898193422
 20
2.527949825218081
 30
0.0
 11
18.70774536448286
 21
3.576513442669441
 31
0.0
  0
LINE
  5
B7F6
330
B7B6
100
AcDbEntity
  8
0
  6
CONTINUOUS
100
AcDbLine
 10
19.95588973270936
 20
3.001888283523134
 30
0.0
 11
18.90726987211446
 21
4.050508144118028
 31
0.0
  0
LINE
  5
B7F7
330
B7B6
100
AcDbEntity
  8
0
  6
CONTINUOUS
100
AcDbLine
 10
20.15547048348449
 20
3.475826741828186
 30
0.0
 11
19.10679437974606
 21
4.524502845566614
 31
0.0
  0
LINE
  5
B7F8
330
B7B6
100
AcDbEntity
  8
0
  6
CONTINUOUS
100
AcDbLine
 10
20.35505123425962
 20
3.94976520013324
 30
0.0
 11
19.30631888737766
 21
4.998497547015201
 31
0.0
  0
LINE
  5
B7F9
330
B7B6
100
AcDbEntity
  8
0
  6
CONTINUOUS
100
AcDbLine
 10
20.55463198503475
 20
4.423703658438292
 30
0.0
 11
19.50584339500926
 21
5.472492248463787
 31
0.0
  0
LINE
  5
B7FA
330
B7B6
100
AcDbEntity
  8
0
  6
CONTINUOUS
100
AcDbLine
 10
18.37481191085755
 20
3.909446896294752
 30
0.0
 11
15.59302973632993
 21
6.691229070822371
 31
0.0
  0
LINE
  5
B7FB
330
B7B6
100
AcDbEntity
  8
0
  6
CONTINUOUS
100
AcDbLine
 10
17.96904084440766
 20
4.988737171824825
 30
0.0
 11
15.77705890739338
 21
7.180719108839104
 31
0.0
  0
LINE
  5
B7FC
330
B7B6
100
AcDbEntity
  8
0
  6
CONTINUOUS
100
AcDbLine
 10
17.56326977795777
 20
6.068027447354899
 30
0.0
 11
15.96108807845684
 21
7.670209146855838
 31
0.0
  0
LINE
  5
B7FD
330
B7B6
100
AcDbEntity
  8
0
  6
CONTINUOUS
100
AcDbLine
 10
17.15749871150789
 20
7.147317722884972
 30
0.0
 11
16.14511724952029
 21
8.15969918487257
 31
0.0
  0
LINE
  5
B7FE
330
B7B6
100
AcDbEntity
  8
0
  6
CONTINUOUS
100
AcDbLine
 10
16.751727645058
 20
8.226607998415046
 30
0.0
 11
16.32914642058374
 21
8.649189222889303
 31
0.0
  0
LINE
  5
B7FF
330
B7B6
100
AcDbEntity
  8
0
  6
CONTINUOUS
100
AcDbLine
 10
20.75421273580989
 20
4.897642116743345
 30
0.0
 11
19.70536790264086
 21
5.946486949912374
 31
0.0
  0
LINE
  5
B800
330
B7B6
100
AcDbEntity
  8
0
  6
CONTINUOUS
100
AcDbLine
 10
20.95379348658502
 20
5.371580575048398
 30
0.0
 11
19.90489241027246
 21
6.42048165136096
 31
0.0
  0
LINE
  5
B801
330
B7B6
100
AcDbEntity
  8
0
  6
CONTINUOUS
100
AcDbLine
 10
21.15337423736015
 20
5.845519033353452
 30
0.0
 11
20.10441691790406
 21
6.894476352809547
 31
0.0
  0
LINE
  5
B802
330
B7B6
100
AcDbEntity
  8
0
  6
CONTINUOUS
100
AcDbLine
 10
21.35295498813529
 20
6.319457491658505
 30
0.0
 11
20.30394142553566
 21
7.368471054258134
 31
0.0
  0
LINE
  5
B803
330
B7B6
100
AcDbEntity
  8
0
  6
CONTINUOUS
100
AcDbLine
 10
21.55253573891042
 20
6.793395949963558
 30
0.0
 11
20.50346593316726
 21
7.842465755706721
 31
0.0
  0
LINE
  5
B804
330
B7B6
100
AcDbEntity
  8
0
  6
CONTINUOUS
100
AcDbLine
 10
21.75211648968556
 20
7.267334408268612
 30
0.0
 11
20.70299044079886
 21
8.316460457155308
 31
0.0
  0
LINE
  5
B805
330
B7B6
100
AcDbEntity
  8
0
  6
CONTINUOUS
100
AcDbLine
 10
21.95169724046069
 20
7.741272866573663
 30
0.0
 11
20.9298701070431
 21
8.763099999991256
 31
0.0
  0
LINE
  5
B806
330
B7B6
100
AcDbEntity
  8
0
  6
CONTINUOUS
100
AcDbLine
 10
22.15127799123582
 20
8.215211324878716
 30
0.0
 11
21.60338931612328
 21
8.763099999991256
 31
0.0
  0
LINE
  5
B807
330
B7B6
100
AcDbEntity
  8
0
  6
CONTINUOUS
100
AcDbLine
 10
22.35085874201096
 20
8.689149783183769
 30
0.0
 11
22.27690852520347
 21
8.763099999991255
 31
0.0
  0
ENDBLK
  5
B8F9
330
B7B6
100
AcDbEntity
  8
0
100
AcDbBlockEnd
  0
BLOCK
  5
B8FA
330
B808
100
AcDbEntity
  8
0
100
AcDbBlockBegin
  2
*X31
 70
     1
 10
0.0
 20
0.0
 30
0.0
  3
*X31
  1

  0
LINE
  5
B809
330
B808
100
AcDbEntity
  8
0
  6
CONTINUOUS
100
AcDbLine
 10
23.19462913593892
 20
8.169917934846424
 30
0.0
 11
23.70775465517246
 21
8.683043454079957
 31
0.0
  0
LINE
  5
B80A
330
B808
100
AcDbEntity
  8
0
  6
CONTINUOUS
100
AcDbLine
 10
22.64923161835078
 20
6.951001208178088
 30
0.0
 11
23.9159364069932
 21
8.217705996820516
 31
0.0
  0
LINE
  5
B80B
330
B808
100
AcDbEntity
  8
0
  6
CONTINUOUS
100
AcDbLine
 10
22.10383410076263
 20
5.732084481509751
 30
0.0
 11
24.12411815881395
 21
7.752368539561078
 31
0.0
  0
LINE
  5
B80C
330
B808
100
AcDbEntity
  8
0
  6
CONTINUOUS
100
AcDbLine
 10
21.55843658317447
 20
4.513167754841414
 30
0.0
 11
24.3322999106347
 21
7.287031082301639
 31
0.0
  0
LINE
  5
B80D
330
B808
100
AcDbEntity
  8
0
  6
CONTINUOUS
100
AcDbLine
 10
21.01303906558632
 20
3.294251028173077
 30
0.0
 11
24.54048166245544
 21
6.821693625042199
 31
0.0
  0
LINE
  5
B80E
330
B808
100
AcDbEntity
  8
0
  6
CONTINUOUS
100
AcDbLine
 10
20.46764154799817
 20
2.075334301504738
 30
0.0
 11
23.28571549467848
 21
4.89340824818505
 31
0.0
  0
LINE
  5
B80F
330
B808
100
AcDbEntity
  8
0
  6
CONTINUOUS
100
AcDbLine
 10
19.92224403041002
 20
0.8564175748364002
 30
0.0
 11
22.74075865492779
 21
3.674932199354171
 31
0.0
  0
LINE
  5
B810
330
B808
100
AcDbEntity
  8
0
  6
CONTINUOUS
100
AcDbLine
 10
23.67305085490148
 20
5.280743608408048
 30
0.0
 11
24.74866341427619
 21
6.356356167782759
 31
0.0
  0
LINE
  5
B811
330
B808
100
AcDbEntity
  8
0
  6
CONTINUOUS
100
AcDbLine
 10
23.88118970842314
 20
4.815363252849522
 30
0.0
 11
24.95684516609694
 21
5.89101871052332
 31
0.0
  0
LINE
  5
B812
330
B808
100
AcDbEntity
  8
0
  6
CONTINUOUS
100
AcDbLine
 10
19.73925852647308
 20
-0.0000871381807288
 30
0.0
 11
23.4103456646501
 21
3.670999999996297
 31
0.0
  0
LINE
  5
B813
330
B808
100
AcDbEntity
  8
0
  6
CONTINUOUS
100
AcDbLine
 10
24.0893285619448
 20
4.349982897290997
 30
0.0
 11
25.16502691791769
 21
5.42568125326388
 31
0.0
  0
LINE
  5
B814
330
B808
100
AcDbEntity
  8
0
  6
CONTINUOUS
100
AcDbLine
 10
20.41282099582748
 20
-0.0000438779065108
 30
0.0
 11
21.64944178675636
 21
1.236576913022366
 31
0.0
  0
LINE
  5
B815
330
B808
100
AcDbEntity
  8
0
  6
CONTINUOUS
100
AcDbLine
 10
22.78126487373161
 20
2.36839999999762
 30
0.0
 11
24.08386487373029
 21
3.670999999996297
 31
0.0
  0
LINE
  5
B816
330
B808
100
AcDbEntity
  8
0
  6
CONTINUOUS
100
AcDbLine
 10
24.29746741546646
 20
3.884602541732471
 30
0.0
 11
25.37320866973843
 21
4.960343796004441
 31
0.0
  0
LINE
  5
B817
330
B808
100
AcDbEntity
  8
0
  6
CONTINUOUS
100
AcDbLine
 10
21.08638346518189
 20
-0.0000006176322938
 30
0.0
 11
21.10379033335899
 21
0.0174062505448083
 31
0.0
  0
LINE
  5
B818
330
B808
100
AcDbEntity
  8
0
  6
CONTINUOUS
100
AcDbLine
 10
23.4547840828118
 20
2.36839999999762
 30
0.0
 11
25.58139042155918
 21
4.495006338745002
 31
0.0
  0
LINE
  5
B819
330
B808
100
AcDbEntity
  8
0
  6
CONTINUOUS
100
AcDbLine
 10
29.30199999996933
 20
8.215615917155148
 30
0.0
 11
29.84948408280543
 21
8.763099999991255
 31
0.0
  0
LINE
  5
B81A
330
B808
100
AcDbEntity
  8
0
  6
CONTINUOUS
100
AcDbLine
 10
24.12830329189199
 20
2.36839999999762
 30
0.0
 11
25.78957217337993
 21
4.029668881485562
 31
0.0
  0
LINE
  5
B81B
330
B808
100
AcDbEntity
  8
0
  6
CONTINUOUS
100
AcDbLine
 10
29.30199999996933
 20
7.54209670807496
 30
0.0
 11
30.52300329188562
 21
8.763099999991255
 31
0.0
  0
LINE
  5
B81C
330
B808
100
AcDbEntity
  8
0
  6
CONTINUOUS
100
AcDbLine
 10
24.80182250097217
 20
2.36839999999762
 30
0.0
 11
25.99775392520067
 21
3.564331424226122
 31
0.0
  0
LINE
  5
B81D
330
B808
100
AcDbEntity
  8
0
  6
CONTINUOUS
100
AcDbLine
 10
29.30199999996933
 20
6.868577498994774
 30
0.0
 11
30.74199999996926
 21
8.308577498994712
 31
0.0
  0
LINE
  5
B81E
330
B808
100
AcDbEntity
  8
0
  6
CONTINUOUS
100
AcDbLine
 10
25.13028238392013
 20
2.023340673865392
 30
0.0
 11
26.20593567702142
 21
3.098993966966683
 31
0.0
  0
LINE
  5
B81F
330
B808
100
AcDbEntity
  8
0
  6
CONTINUOUS
100
AcDbLine
 10
25.33838066033617
 20
1.557919741201244
 30
0.0
 11
26.41411742884217
 21
2.633656509707244
 31
0.0
  0
LINE
  5
B820
330
B808
100
AcDbEntity
  8
0
  6
CONTINUOUS
100
AcDbLine
 10
25.54647893675221
 20
1.092498808537098
 30
0.0
 11
26.62229918066291
 21
2.168319052447804
 31
0.0
  0
LINE
  5
B821
330
B808
100
AcDbEntity
  8
0
  6
CONTINUOUS
100
AcDbLine
 10
25.75457721316825
 20
0.62707787587295
 30
0.0
 11
26.83048093248366
 21
1.702981595188365
 31
0.0
  0
LINE
  5
B822
330
B808
100
AcDbEntity
  8
0
  6
CONTINUOUS
100
AcDbLine
 10
29.30199999996933
 20
6.195058289914587
 30
0.0
 11
30.74199999996926
 21
7.635058289914522
 31
0.0
  0
LINE
  5
B823
330
B808
100
AcDbEntity
  8
0
  6
CONTINUOUS
100
AcDbLine
 10
29.30199999996933
 20
5.521539080834401
 30
0.0
 11
30.74199999996926
 21
6.961539080834331
 31
0.0
  0
LINE
  5
B824
330
B808
100
AcDbEntity
  8
0
  6
CONTINUOUS
100
AcDbLine
 10
29.30199999996933
 20
4.848019871754214
 30
0.0
 11
30.74199999996925
 21
6.288019871754143
 31
0.0
  0
LINE
  5
B825
330
B808
100
AcDbEntity
  8
0
  6
CONTINUOUS
100
AcDbLine
 10
29.30199999996933
 20
4.174500662674028
 30
0.0
 11
30.74199999996925
 21
5.614500662673953
 31
0.0
  0
LINE
  5
B826
330
B808
100
AcDbEntity
  8
0
  6
CONTINUOUS
100
AcDbLine
 10
25.96267548958429
 20
0.1616569432088024
 30
0.0
 11
27.18411854636669
 21
1.383099999991207
 31
0.0
  0
LINE
  5
B827
330
B808
100
AcDbEntity
  8
0
  6
CONTINUOUS
100
AcDbLine
 10
29.30199999996933
 20
3.500981453593841
 30
0.0
 11
30.74199999996925
 21
4.940981453593762
 31
0.0
  0
LINE
  5
B828
330
B808
100
AcDbEntity
  8
0
  6
CONTINUOUS
100
AcDbLine
 10
26.50763775544691
 20
0.0330999999912356
 30
0.0
 11
27.85763775544689
 21
1.383099999991223
 31
0.0
  0
LINE
  5
B829
330
B808
100
AcDbEntity
  8
0
  6
CONTINUOUS
100
AcDbLine
 10
29.30199999996933
 20
2.827462244513656
 30
0.0
 11
30.74199999996925
 21
4.267462244513574
 31
0.0
  0
LINE
  5
B82A
330
B808
100
AcDbEntity
  8
0
  6
CONTINUOUS
100
AcDbLine
 10
27.18115696452709
 20
0.0330999999912356
 30
0.0
 11
28.55073879889363
 21
1.402681834357775
 31
0.0
  0
LINE
  5
B82B
330
B808
100
AcDbEntity
  8
0
  6
CONTINUOUS
100
AcDbLine
 10
29.28241816560272
 20
2.134361201066866
 30
0.0
 11
30.74199999996924
 21
3.593943035433383
 31
0.0
  0
LINE
  5
B82C
330
B808
100
AcDbEntity
  8
0
  6
CONTINUOUS
100
AcDbLine
 10
27.85467617360728
 20
0.0330999999912356
 30
0.0
 11
30.74199999996924
 21
2.920423826353195
 31
0.0
  0
LINE
  5
B82D
330
B808
100
AcDbEntity
  8
0
  6
CONTINUOUS
100
AcDbLine
 10
28.53897559587887
 20
0.0438802131826428
 30
0.0
 11
30.73121978677781
 21
2.236124404081585
 31
0.0
  0
LINE
  5
B82E
330
B808
100
AcDbEntity
  8
0
  6
CONTINUOUS
100
AcDbLine
 10
29.45140055588722
 20
0.2827859641107988
 30
0.0
 11
30.49231403584965
 21
1.323699444073236
 31
0.0
  0
LINE
  5
B82F
330
B808
100
AcDbEntity
  8
0
  6
CONTINUOUS
100
AcDbLine
 10
19.59027867740337
 20
-0.0000967065718083
 30
0.0
 11
19.55485265190471
 21
0.035329318926844
 31
0.0
  0
LINE
  5
B830
330
B808
100
AcDbEntity
  8
0
  6
CONTINUOUS
100
AcDbLine
 10
20.26375463176586
 20
-0.0000534518541091
 30
0.0
 11
19.76305575737534
 21
0.5006454225364014
 31
0.0
  0
LINE
  5
B831
330
B808
100
AcDbEntity
  8
0
  6
CONTINUOUS
100
AcDbLine
 10
20.93723058612834
 20
-0.0000101971364099
 30
0.0
 11
19.97125886284597
 21
0.965961526145958
 31
0.0
  0
LINE
  5
B832
330
B808
100
AcDbEntity
  8
0
  6
CONTINUOUS
100
AcDbLine
 10
21.25514828313686
 20
0.355591314935257
 30
0.0
 11
20.1794619683166
 21
1.431277629755512
 31
0.0
  0
LINE
  5
B833
330
B808
100
AcDbEntity
  8
0
  6
CONTINUOUS
100
AcDbLine
 10
21.46338838394921
 20
0.8208704232030986
 30
0.0
 11
20.38766507378723
 21
1.896593733365069
 31
0.0
  0
LINE
  5
B834
330
B808
100
AcDbEntity
  8
0
  6
CONTINUOUS
100
AcDbLine
 10
21.67162848476155
 20
1.28614953147094
 30
0.0
 11
20.59586817925786
 21
2.361909836974626
 31
0.0
  0
LINE
  5
B835
330
B808
100
AcDbEntity
  8
0
  6
CONTINUOUS
100
AcDbLine
 10
21.8798685855739
 20
1.751428639738782
 30
0.0
 11
20.80407128472849
 21
2.827225940584183
 31
0.0
  0
LINE
  5
B836
330
B808
100
AcDbEntity
  8
0
  6
CONTINUOUS
100
AcDbLine
 10
22.08810868638624
 20
2.216707748006623
 30
0.0
 11
21.01227439019912
 21
3.292542044193739
 31
0.0
  0
LINE
  5
B837
330
B808
100
AcDbEntity
  8
0
  6
CONTINUOUS
100
AcDbLine
 10
22.60993564347543
 20
2.36839999999762
 30
0.0
 11
21.22047749566975
 21
3.757858147803296
 31
0.0
  0
LINE
  5
B838
330
B808
100
AcDbEntity
  8
0
  6
CONTINUOUS
100
AcDbLine
 10
23.28345485255561
 20
2.36839999999762
 30
0.0
 11
21.42868060114038
 21
4.223174251412853
 31
0.0
  0
LINE
  5
B839
330
B808
100
AcDbEntity
  8
0
  6
CONTINUOUS
100
AcDbLine
 10
26.29227406164219
 20
0.0330999999912356
 30
0.0
 11
25.80009199592872
 21
0.5252820657046957
 31
0.0
  0
LINE
  5
B83A
330
B808
100
AcDbEntity
  8
0
  6
CONTINUOUS
100
AcDbLine
 10
23.9569740616358
 20
2.36839999999762
 30
0.0
 11
21.63688370661101
 21
4.688490355022409
 31
0.0
  0
LINE
  5
B83B
330
B808
100
AcDbEntity
  8
0
  6
CONTINUOUS
100
AcDbLine
 10
26.96579327072237
 20
0.0330999999912356
 30
0.0
 11
25.2554132311971
 21
1.743480039516508
 31
0.0
  0
LINE
  5
B83C
330
B808
100
AcDbEntity
  8
0
  6
CONTINUOUS
100
AcDbLine
 10
24.63049327071599
 20
2.36839999999762
 30
0.0
 11
23.32789327071731
 21
3.670999999996297
 31
0.0
  0
LINE
  5
B83D
330
B808
100
AcDbEntity
  8
0
  6
CONTINUOUS
100
AcDbLine
 10
22.92098674744635
 20
4.077906523267254
 30
0.0
 11
21.84508681208164
 21
5.153806458631966
 31
0.0
  0
LINE
  5
B83E
330
B808
100
AcDbEntity
  8
0
  6
CONTINUOUS
100
AcDbLine
 10
27.63931247980256
 20
0.0330999999912356
 30
0.0
 11
24.0014124797975
 21
3.670999999996297
 31
0.0
  0
LINE
  5
B83F
330
B808
100
AcDbEntity
  8
0
  6
CONTINUOUS
100
AcDbLine
 10
23.129125600968
 20
4.5432868788258
 30
0.0
 11
22.05328991755227
 21
5.619122562241522
 31
0.0
  0
LINE
  5
B840
330
B808
100
AcDbEntity
  8
0
  6
CONTINUOUS
100
AcDbLine
 10
28.31283168888275
 20
0.0330999999912356
 30
0.0
 11
24.16488385994816
 21
4.181047828925828
 31
0.0
  0
LINE
  5
B841
330
B808
100
AcDbEntity
  8
0
  6
CONTINUOUS
100
AcDbLine
 10
23.33726445448964
 20
5.008667234384345
 30
0.0
 11
22.2614930230229
 21
6.084438665851079
 31
0.0
  0
LINE
  5
B842
330
B808
100
AcDbEntity
  8
0
  6
CONTINUOUS
100
AcDbLine
 10
28.92085740005492
 20
0.0985934978992438
 30
0.0
 11
27.63635089796295
 21
1.383099999991217
 31
0.0
  0
LINE
  5
B843
330
B808
100
AcDbEntity
  8
0
  6
CONTINUOUS
100
AcDbLine
 10
26.43704649509776
 20
2.582404402856405
 30
0.0
 11
23.61992702019732
 21
5.399523877756844
 31
0.0
  0
LINE
  5
B844
330
B808
100
AcDbEntity
  8
0
  6
CONTINUOUS
100
AcDbLine
 10
23.54540330801128
 20
5.47404758994289
 30
0.0
 11
22.46969612849353
 21
6.549754769460635
 31
0.0
  0
LINE
  5
B845
330
B808
100
AcDbEntity
  8
0
  6
CONTINUOUS
100
AcDbLine
 10
29.42225615078443
 20
0.2707139562499279
 30
0.0
 11
28.30987010704312
 21
1.383099999991234
 31
0.0
  0
LINE
  5
B846
330
B808
100
AcDbEntity
  8
0
  6
CONTINUOUS
100
AcDbLine
 10
25.89179548232307
 20
3.801174624711282
 30
0.0
 11
22.67789923396416
 21
7.015070873070191
 31
0.0
  0
LINE
  5
B847
330
B808
100
AcDbEntity
  8
0
  6
CONTINUOUS
100
AcDbLine
 10
29.83624534690007
 20
0.5302439692144705
 30
0.0
 11
28.85811781497101
 21
1.508371501143527
 31
0.0
  0
LINE
  5
B848
330
B808
100
AcDbEntity
  8
0
  6
CONTINUOUS
100
AcDbLine
 10
25.34654446954838
 20
5.01994484656616
 30
0.0
 11
22.88610233943479
 21
7.480386976679748
 31
0.0
  0
LINE
  5
B849
330
B808
100
AcDbEntity
  8
0
  6
CONTINUOUS
100
AcDbLine
 10
30.17865975401872
 20
0.8613487711760022
 30
0.0
 11
29.18888744090175
 21
1.851121084292977
 31
0.0
  0
LINE
  5
B84A
330
B808
100
AcDbEntity
  8
0
  6
CONTINUOUS
100
AcDbLine
 10
24.80129345677369
 20
6.238715068421037
 30
0.0
 11
23.09430544490542
 21
7.945703080289305
 31
0.0
  0
LINE
  5
B84B
330
B808
100
AcDbEntity
  8
0
  6
CONTINUOUS
100
AcDbLine
 10
30.45496647202376
 20
1.258561262251155
 30
0.0
 11
29.30199999996933
 21
2.411527734305588
 31
0.0
  0
LINE
  5
B84C
330
B808
100
AcDbEntity
  8
0
  6
CONTINUOUS
100
AcDbLine
 10
24.256042443999
 20
7.457485290275915
 30
0.0
 11
23.30250855037605
 21
8.411019183898862
 31
0.0
  0
LINE
  5
B84D
330
B808
100
AcDbEntity
  8
0
  6
CONTINUOUS
100
AcDbLine
 10
30.64868582078271
 20
1.738361122572387
 30
0.0
 11
29.30199999996933
 21
3.085046943385775
 31
0.0
  0
LINE
  5
B84E
330
B808
100
AcDbEntity
  8
0
  6
CONTINUOUS
100
AcDbLine
 10
23.71079143122431
 20
8.676255512130794
 30
0.0
 11
23.51071165584668
 21
8.876335287508416
 31
0.0
  0
LINE
  5
B84F
330
B808
100
AcDbEntity
  8
0
  6
CONTINUOUS
100
AcDbLine
 10
30.73802122914428
 20
2.322544923291007
 30
0.0
 11
29.30199999996933
 21
3.758566152465961
 31
0.0
  0
LINE
  5
B850
330
B808
100
AcDbEntity
  8
0
  6
CONTINUOUS
100
AcDbLine
 10
30.74199999996924
 20
2.992085361546236
 30
0.0
 11
29.30199999996933
 21
4.432085361546148
 31
0.0
  0
LINE
  5
B851
330
B808
100
AcDbEntity
  8
0
  6
CONTINUOUS
100
AcDbLine
 10
30.74199999996924
 20
3.665604570626419
 30
0.0
 11
29.30199999996933
 21
5.105604570626333
 31
0.0
  0
LINE
  5
B852
330
B808
100
AcDbEntity
  8
0
  6
CONTINUOUS
100
AcDbLine
 10
30.74199999996925
 20
4.339123779706602
 30
0.0
 11
29.30199999996933
 21
5.77912377970652
 31
0.0
  0
LINE
  5
B853
330
B808
100
AcDbEntity
  8
0
  6
CONTINUOUS
100
AcDbLine
 10
30.74199999996925
 20
5.012642988786785
 30
0.0
 11
29.30199999996933
 21
6.452642988786707
 31
0.0
  0
LINE
  5
B854
330
B808
100
AcDbEntity
  8
0
  6
CONTINUOUS
100
AcDbLine
 10
30.74199999996925
 20
5.68616219786697
 30
0.0
 11
29.30199999996933
 21
7.126162197866894
 31
0.0
  0
LINE
  5
B855
330
B808
100
AcDbEntity
  8
0
  6
CONTINUOUS
100
AcDbLine
 10
30.74199999996925
 20
6.359681406947153
 30
0.0
 11
29.30199999996933
 21
7.799681406947081
 31
0.0
  0
LINE
  5
B856
330
B808
100
AcDbEntity
  8
0
  6
CONTINUOUS
100
AcDbLine
 10
30.74199999996926
 20
7.033200616027337
 30
0.0
 11
29.30199999996933
 21
8.473200616027269
 31
0.0
  0
LINE
  5
B857
330
B808
100
AcDbEntity
  8
0
  6
CONTINUOUS
100
AcDbLine
 10
30.74199999996926
 20
7.706719825107518
 30
0.0
 11
29.68561982508552
 21
8.763099999991255
 31
0.0
  0
LINE
  5
B858
330
B808
100
AcDbEntity
  8
0
  6
CONTINUOUS
100
AcDbLine
 10
30.74199999996926
 20
8.380239034187703
 30
0.0
 11
30.35913903416571
 21
8.763099999991255
 31
0.0
  0
ENDBLK
  5
B8FB
330
B808
100
AcDbEntity
  8
0
100
AcDbBlockEnd
  0
BLOCK
  5
B8FC
330
B859
100
AcDbEntity
  8
0
100
AcDbBlockBegin
  2
*X32
 70
     1
 10
0.0
 20
0.0
 30
0.0
  3
*X32
  1

  0
LINE
  5
B85A
330
B859
100
AcDbEntity
  8
0
  6
CONTINUOUS
100
AcDbLine
 10
31.64199999996833
 20
8.535058289913598
 30
0.0
 11
31.87004171004599
 21
8.763099999991255
 31
0.0
  0
LINE
  5
B85B
330
B859
100
AcDbEntity
  8
0
  6
CONTINUOUS
100
AcDbLine
 10
31.64199999996833
 20
7.861539080833412
 30
0.0
 11
32.54356091912618
 21
8.763099999991255
 31
0.0
  0
LINE
  5
B85C
330
B859
100
AcDbEntity
  8
0
  6
CONTINUOUS
100
AcDbLine
 10
31.64199999996833
 20
7.188019871753226
 30
0.0
 11
33.08199999996839
 21
8.628019871753281
 31
0.0
  0
LINE
  5
B85D
330
B859
100
AcDbEntity
  8
0
  6
CONTINUOUS
100
AcDbLine
 10
31.64199999996833
 20
6.51450066267304
 30
0.0
 11
33.08199999996839
 21
7.954500662673095
 31
0.0
  0
LINE
  5
B85E
330
B859
100
AcDbEntity
  8
0
  6
CONTINUOUS
100
AcDbLine
 10
31.64199999996833
 20
5.840981453592853
 30
0.0
 11
33.08199999996839
 21
7.280981453592908
 31
0.0
  0
LINE
  5
B85F
330
B859
100
AcDbEntity
  8
0
  6
CONTINUOUS
100
AcDbLine
 10
31.64199999996833
 20
5.167462244512667
 30
0.0
 11
33.08199999996839
 21
6.607462244512721
 31
0.0
  0
LINE
  5
B860
330
B859
100
AcDbEntity
  8
0
  6
CONTINUOUS
100
AcDbLine
 10
31.64199999996833
 20
4.493943035432481
 30
0.0
 11
33.08199999996839
 21
5.933943035432535
 31
0.0
  0
LINE
  5
B861
330
B859
100
AcDbEntity
  8
0
  6
CONTINUOUS
100
AcDbLine
 10
31.64199999996833
 20
3.820423826352293
 30
0.0
 11
33.08199999996839
 21
5.260423826352348
 31
0.0
  0
LINE
  5
B862
330
B859
100
AcDbEntity
  8
0
  6
CONTINUOUS
100
AcDbLine
 10
31.64199999996833
 20
3.146904617272106
 30
0.0
 11
33.08199999996839
 21
4.586904617272161
 31
0.0
  0
LINE
  5
B863
330
B859
100
AcDbEntity
  8
0
  6
CONTINUOUS
100
AcDbLine
 10
36.23199999996837
 20
8.410423826352325
 30
0.0
 11
36.5846761736073
 21
8.763099999991255
 31
0.0
  0
LINE
  5
B864
330
B859
100
AcDbEntity
  8
0
  6
CONTINUOUS
100
AcDbLine
 10
36.23199999996837
 20
7.73690461727214
 30
0.0
 11
37.25819538268748
 21
8.763099999991255
 31
0.0
  0
LINE
  5
B865
330
B859
100
AcDbEntity
  8
0
  6
CONTINUOUS
100
AcDbLine
 10
31.64257403601376
 20
2.473959444237348
 30
0.0
 11
33.08199999996839
 21
3.913385408191974
 31
0.0
  0
LINE
  5
B866
330
B859
100
AcDbEntity
  8
0
  6
CONTINUOUS
100
AcDbLine
 10
36.23199999996837
 20
7.063385408191953
 30
0.0
 11
37.67199999996831
 21
8.503385408191894
 31
0.0
  0
LINE
  5
B867
330
B859
100
AcDbEntity
  8
0
  6
CONTINUOUS
100
AcDbLine
 10
31.72013636841932
 20
1.87800256756272
 30
0.0
 11
33.08199999996839
 21
3.239866199111788
 31
0.0
  0
LINE
  5
B868
330
B859
100
AcDbEntity
  8
0
  6
CONTINUOUS
100
AcDbLine
 10
36.23199999996837
 20
6.389866199111767
 30
0.0
 11
37.67199999996831
 21
7.829866199111708
 31
0.0
  0
LINE
  5
B869
330
B859
100
AcDbEntity
  8
0
  6
CONTINUOUS
100
AcDbLine
 10
31.89042734314753
 20
1.374774333210744
 30
0.0
 11
33.08199999996839
 21
2.566346990031601
 31
0.0
  0
LINE
  5
B86A
330
B859
100
AcDbEntity
  8
0
  6
CONTINUOUS
100
AcDbLine
 10
36.23199999996837
 20
5.71634699003158
 30
0.0
 11
37.67199999996831
 21
7.156346990031521
 31
0.0
  0
LINE
  5
B86B
330
B859
100
AcDbEntity
  8
0
  6
CONTINUOUS
100
AcDbLine
 10
32.14210568064475
 20
0.952933461627778
 30
0.0
 11
33.18745552475986
 21
1.998283305742888
 31
0.0
  0
LINE
  5
B86C
330
B859
100
AcDbEntity
  8
0
  6
CONTINUOUS
100
AcDbLine
 10
36.23199999996837
 20
5.042827780951393
 30
0.0
 11
37.67199999996831
 21
6.482827780951334
 31
0.0
  0
LINE
  5
B86D
330
B859
100
AcDbEntity
  8
0
  6
CONTINUOUS
100
AcDbLine
 10
32.45820639400955
 20
0.5955149659123915
 30
0.0
 11
33.47242681921943
 21
1.60973539112227
 31
0.0
  0
LINE
  5
B86E
330
B859
100
AcDbEntity
  8
0
  6
CONTINUOUS
100
AcDbLine
 10
36.23199999996837
 20
4.369308571871207
 30
0.0
 11
37.67199999996831
 21
5.809308571871147
 31
0.0
  0
LINE
  5
B86F
330
B859
100
AcDbEntity
  8
0
  6
CONTINUOUS
100
AcDbLine
 10
32.83432456621412
 20
0.2981139290367771
 30
0.0
 11
33.89722476612215
 21
1.361014128944803
 31
0.0
  0
LINE
  5
B870
330
B859
100
AcDbEntity
  8
0
  6
CONTINUOUS
100
AcDbLine
 10
36.23199999996837
 20
3.69578936279102
 30
0.0
 11
37.67199999996831
 21
5.135789362790962
 31
0.0
  0
LINE
  5
B871
330
B859
100
AcDbEntity
  8
0
  6
CONTINUOUS
100
AcDbLine
 10
33.2711633111245
 20
0.0614334648669672
 30
0.0
 11
34.43247338014423
 21
1.222743533886696
 31
0.0
  0
LINE
  5
B872
330
B859
100
AcDbEntity
  8
0
  6
CONTINUOUS
100
AcDbLine
 10
36.23199999996837
 20
3.022270153710834
 30
0.0
 11
37.67199999996831
 21
4.462270153710775
 31
0.0
  0
LINE
  5
B873
330
B859
100
AcDbEntity
  8
0
  6
CONTINUOUS
100
AcDbLine
 10
33.76515245874577
 20
-0.1180965965919523
 30
0.0
 11
35.1587445516215
 21
1.27549549628378
 31
0.0
  0
LINE
  5
B874
330
B859
100
AcDbEntity
  8
0
  6
CONTINUOUS
100
AcDbLine
 10
36.21639478609585
 20
2.333145730758136
 30
0.0
 11
37.67199999996831
 21
3.788750944630588
 31
0.0
  0
LINE
  5
B875
330
B859
100
AcDbEntity
  8
0
  6
CONTINUOUS
100
AcDbLine
 10
34.34060583368432
 20
-0.2161624307335863
 30
0.0
 11
37.67199999996831
 21
3.115231735550401
 31
0.0
  0
LINE
  5
B876
330
B859
100
AcDbEntity
  8
0
  6
CONTINUOUS
100
AcDbLine
 10
35.01698193613905
 20
-0.2133055373590427
 30
0.0
 11
37.66876712070525
 21
2.438479647207154
 31
0.0
  0
LINE
  5
B877
330
B859
100
AcDbEntity
  8
0
  6
CONTINUOUS
100
AcDbLine
 10
35.90743367693304
 20
0.0036269943547609
 30
0.0
 11
37.51723902192366
 21
1.613432339345381
 31
0.0
  0
LINE
  5
B878
330
B859
100
AcDbEntity
  8
0
  6
CONTINUOUS
100
AcDbLine
 10
32.55309425579761
 20
0.5074718966376706
 30
0.0
 11
32.27784730925847
 21
0.7827188431768102
 31
0.0
  0
LINE
  5
B879
330
B859
100
AcDbEntity
  8
0
  6
CONTINUOUS
100
AcDbLine
 10
33.87496468909684
 20
-0.1408793275813673
 30
0.0
 11
31.67993083278052
 21
2.054154528734943
 31
0.0
  0
LINE
  5
B87A
330
B859
100
AcDbEntity
  8
0
  6
CONTINUOUS
100
AcDbLine
 10
34.64362813207632
 20
-0.2360235614806649
 30
0.0
 11
31.64199999996833
 21
2.765604570627322
 31
0.0
  0
LINE
  5
B87B
330
B859
100
AcDbEntity
  8
0
  6
CONTINUOUS
100
AcDbLine
 10
35.25801106796118
 20
-0.1768872882853429
 30
0.0
 11
31.64199999996833
 21
3.439123779707508
 31
0.0
  0
LINE
  5
B87C
330
B859
100
AcDbEntity
  8
0
  6
CONTINUOUS
100
AcDbLine
 10
35.79065650332146
 20
-0.0360135145654361
 30
0.0
 11
34.54143210838231
 21
1.213210880373721
 31
0.0
  0
LINE
  5
B87D
330
B859
100
AcDbEntity
  8
0
  6
CONTINUOUS
100
AcDbLine
 10
33.08199999996839
 20
2.67264298878764
 30
0.0
 11
31.64199999996833
 21
4.112642988787695
 31
0.0
  0
LINE
  5
B87E
330
B859
100
AcDbEntity
  8
0
  6
CONTINUOUS
100
AcDbLine
 10
36.25975597779143
 20
0.1684062200447833
 30
0.0
 11
35.15395110240023
 21
1.274211095435983
 31
0.0
  0
LINE
  5
B87F
330
B859
100
AcDbEntity
  8
0
  6
CONTINUOUS
100
AcDbLine
 10
33.08199999996839
 20
3.346162197867826
 30
0.0
 11
31.64199999996833
 21
4.786162197867881
 31
0.0
  0
LINE
  5
B880
330
B859
100
AcDbEntity
  8
0
  6
CONTINUOUS
100
AcDbLine
 10
36.67226329638774
 20
0.4294181105286579
 30
0.0
 11
35.63766478748767
 21
1.464016619428737
 31
0.0
  0
LINE
  5
B881
330
B859
100
AcDbEntity
  8
0
  6
CONTINUOUS
100
AcDbLine
 10
33.08199999996839
 20
4.019681406948012
 30
0.0
 11
31.64199999996833
 21
5.459681406948068
 31
0.0
  0
LINE
  5
B882
330
B859
100
AcDbEntity
  8
0
  6
CONTINUOUS
100
AcDbLine
 10
37.01677749710036
 20
0.7584231188962329
 30
0.0
 11
35.99563422741351
 21
1.779566388583076
 31
0.0
  0
LINE
  5
B883
330
B859
100
AcDbEntity
  8
0
  6
CONTINUOUS
100
AcDbLine
 10
33.08199999996839
 20
4.693200616028199
 30
0.0
 11
31.64199999996833
 21
6.133200616028255
 31
0.0
  0
LINE
  5
B884
330
B859
100
AcDbEntity
  8
0
  6
CONTINUOUS
100
AcDbLine
 10
37.29859977568887
 20
1.1501200493879
 30
0.0
 11
36.20680593341555
 21
2.241913891661226
 31
0.0
  0
LINE
  5
B885
330
B859
100
AcDbEntity
  8
0
  6
CONTINUOUS
100
AcDbLine
 10
33.08199999996839
 20
5.366719825108386
 30
0.0
 11
31.64199999996833
 21
6.80671982510844
 31
0.0
  0
LINE
  5
B886
330
B859
100
AcDbEntity
  8
0
  6
CONTINUOUS
100
AcDbLine
 10
37.5148623517228
 20
1.607376682434161
 30
0.0
 11
36.23199999996837
 21
2.890239034188594
 31
0.0
  0
LINE
  5
B887
330
B859
100
AcDbEntity
  8
0
  6
CONTINUOUS
100
AcDbLine
 10
33.08199999996839
 20
6.040239034188573
 30
0.0
 11
31.64199999996833
 21
7.480239034188627
 31
0.0
  0
LINE
  5
B888
330
B859
100
AcDbEntity
  8
0
  6
CONTINUOUS
100
AcDbLine
 10
37.64705163358367
 20
2.148706609653477
 30
0.0
 11
36.23199999996837
 21
3.56375824326878
 31
0.0
  0
LINE
  5
B889
330
B859
100
AcDbEntity
  8
0
  6
CONTINUOUS
100
AcDbLine
 10
33.08199999996839
 20
6.713758243268758
 30
0.0
 11
31.64199999996833
 21
8.153758243268815
 31
0.0
  0
LINE
  5
B88A
330
B859
100
AcDbEntity
  8
0
  6
CONTINUOUS
100
AcDbLine
 10
37.67199999996831
 20
2.797277452349026
 30
0.0
 11
36.23199999996837
 21
4.237277452348967
 31
0.0
  0
LINE
  5
B88B
330
B859
100
AcDbEntity
  8
0
  6
CONTINUOUS
100
AcDbLine
 10
37.67199999996831
 20
3.470796661429213
 30
0.0
 11
36.23199999996837
 21
4.910796661429154
 31
0.0
  0
LINE
  5
B88C
330
B859
100
AcDbEntity
  8
0
  6
CONTINUOUS
100
AcDbLine
 10
37.67199999996831
 20
4.144315870509399
 30
0.0
 11
36.23199999996837
 21
5.58431587050934
 31
0.0
  0
LINE
  5
B88D
330
B859
100
AcDbEntity
  8
0
  6
CONTINUOUS
100
AcDbLine
 10
33.08199999996839
 20
7.387277452348945
 30
0.0
 11
31.70617745232608
 21
8.763099999991255
 31
0.0
  0
LINE
  5
B88E
330
B859
100
AcDbEntity
  8
0
  6
CONTINUOUS
100
AcDbLine
 10
33.08199999996839
 20
8.060796661429132
 30
0.0
 11
32.37969666140626
 21
8.763099999991255
 31
0.0
  0
LINE
  5
B88F
330
B859
100
AcDbEntity
  8
0
  6
CONTINUOUS
100
AcDbLine
 10
33.08199999996839
 20
8.734315870509318
 30
0.0
 11
33.05321587048645
 21
8.763099999991255
 31
0.0
  0
LINE
  5
B890
330
B859
100
AcDbEntity
  8
0
  6
CONTINUOUS
100
AcDbLine
 10
37.67199999996831
 20
4.817835079589585
 30
0.0
 11
36.23199999996837
 21
6.257835079589526
 31
0.0
  0
LINE
  5
B891
330
B859
100
AcDbEntity
  8
0
  6
CONTINUOUS
100
AcDbLine
 10
37.67199999996831
 20
5.491354288669771
 30
0.0
 11
36.23199999996837
 21
6.931354288669713
 31
0.0
  0
LINE
  5
B892
330
B859
100
AcDbEntity
  8
0
  6
CONTINUOUS
100
AcDbLine
 10
37.67199999996831
 20
6.164873497749958
 30
0.0
 11
36.23199999996837
 21
7.6048734977499
 31
0.0
  0
LINE
  5
B893
330
B859
100
AcDbEntity
  8
0
  6
CONTINUOUS
100
AcDbLine
 10
37.67199999996831
 20
6.838392706830144
 30
0.0
 11
36.23199999996837
 21
8.278392706830086
 31
0.0
  0
LINE
  5
B894
330
B859
100
AcDbEntity
  8
0
  6
CONTINUOUS
100
AcDbLine
 10
37.67199999996831
 20
7.511911915910332
 30
0.0
 11
36.42081191588738
 21
8.763099999991255
 31
0.0
  0
LINE
  5
B895
330
B859
100
AcDbEntity
  8
0
  6
CONTINUOUS
100
AcDbLine
 10
37.67199999996831
 20
8.185431124990519
 30
0.0
 11
37.09433112496757
 21
8.763099999991255
 31
0.0
  0
ENDBLK
  5
B8FD
330
B859
100
AcDbEntity
  8
0
100
AcDbBlockEnd
  0
BLOCK
  5
B8FE
330
B896
100
AcDbEntity
  8
0
100
AcDbBlockBegin
  2
*X33
 70
     1
 10
0.0
 20
0.0
 30
0.0
  3
*X33
  1

  0
LINE
  5
B897
330
B896
100
AcDbEntity
  8
0
  6
CONTINUOUS
100
AcDbLine
 10
38.60499999996136
 20
8.762866199104765
 30
0.0
 11
38.71672554182345
 21
8.874591740966855
 31
0.0
  0
LINE
  5
B898
330
B896
100
AcDbEntity
  8
0
  6
CONTINUOUS
100
AcDbLine
 10
38.60499999996136
 20
8.089346990024577
 30
0.0
 11
39.03418785440363
 21
8.518534844466847
 31
0.0
  0
LINE
  5
B899
330
B896
100
AcDbEntity
  8
0
  6
CONTINUOUS
100
AcDbLine
 10
38.60499999996136
 20
7.41582778094439
 30
0.0
 11
39.35165016698382
 21
8.16247794796684
 31
0.0
  0
LINE
  5
B89A
330
B896
100
AcDbEntity
  8
0
  6
CONTINUOUS
100
AcDbLine
 10
38.60499999996136
 20
6.742308571864204
 30
0.0
 11
39.66911247956399
 21
7.806421051466834
 31
0.0
  0
LINE
  5
B89B
330
B896
100
AcDbEntity
  8
0
  6
CONTINUOUS
100
AcDbLine
 10
38.60499999996136
 20
6.068789362784018
 30
0.0
 11
39.98657479214418
 21
7.450364154966827
 31
0.0
  0
LINE
  5
B89C
330
B896
100
AcDbEntity
  8
0
  6
CONTINUOUS
100
AcDbLine
 10
38.60499999996136
 20
5.395270153703832
 30
0.0
 11
40.30403710472435
 21
7.09430725846682
 31
0.0
  0
LINE
  5
B89D
330
B896
100
AcDbEntity
  8
0
  6
CONTINUOUS
100
AcDbLine
 10
38.60499999996136
 20
4.721750944623645
 30
0.0
 11
40.62149941730453
 21
6.738250361966813
 31
0.0
  0
LINE
  5
B89E
330
B896
100
AcDbEntity
  8
0
  6
CONTINUOUS
100
AcDbLine
 10
38.60499999996136
 20
4.048231735543458
 30
0.0
 11
40.93896172988471
 21
6.382193465466806
 31
0.0
  0
LINE
  5
B89F
330
B896
100
AcDbEntity
  8
0
  6
CONTINUOUS
100
AcDbLine
 10
38.60499999996136
 20
3.374712526463272
 30
0.0
 11
40.02599999995994
 21
4.795712526461843
 31
0.0
  0
LINE
  5
B8A0
330
B896
100
AcDbEntity
  8
0
  6
CONTINUOUS
100
AcDbLine
 10
38.60499999996136
 20
2.701193317383085
 30
0.0
 11
40.02599999995994
 21
4.122193317381657
 31
0.0
  0
LINE
  5
B8A1
330
B896
100
AcDbEntity
  8
0
  6
CONTINUOUS
100
AcDbLine
 10
40.28339754687704
 20
5.053110073378947
 30
0.0
 11
41.25642404246489
 21
6.026136568966799
 31
0.0
  0
LINE
  5
B8A2
330
B896
100
AcDbEntity
  8
0
  6
CONTINUOUS
100
AcDbLine
 10
40.60085985945722
 20
4.697053176878939
 30
0.0
 11
41.57388635504507
 21
5.670079672466793
 31
0.0
  0
LINE
  5
B8A3
330
B896
100
AcDbEntity
  8
0
  6
CONTINUOUS
100
AcDbLine
 10
43.57899999995641
 20
8.348712526458318
 30
0.0
 11
43.99338747348935
 21
8.763099999991255
 31
0.0
  0
LINE
  5
B8A4
330
B896
100
AcDbEntity
  8
0
  6
CONTINUOUS
100
AcDbLine
 10
43.57899999995641
 20
7.675193317378131
 30
0.0
 11
44.66690668256953
 21
8.763099999991255
 31
0.0
  0
LINE
  5
B8A5
330
B896
100
AcDbEntity
  8
0
  6
CONTINUOUS
100
AcDbLine
 10
38.60499999996136
 20
2.027674108302898
 30
0.0
 11
40.02599999995994
 21
3.44867410830147
 31
0.0
  0
LINE
  5
B8A6
330
B896
100
AcDbEntity
  8
0
  6
CONTINUOUS
100
AcDbLine
 10
38.60499999996136
 20
1.354154899222712
 30
0.0
 11
40.02599999995994
 21
2.775154899221284
 31
0.0
  0
LINE
  5
B8A7
330
B896
100
AcDbEntity
  8
0
  6
CONTINUOUS
100
AcDbLine
 10
38.60499999996136
 20
0.6806356901425255
 30
0.0
 11
40.02599999995994
 21
2.101635690141098
 31
0.0
  0
LINE
  5
B8A8
330
B896
100
AcDbEntity
  8
0
  6
CONTINUOUS
100
AcDbLine
 10
38.60499999996136
 20
0.0071164810623383
 30
0.0
 11
40.02599999995994
 21
1.428116481060911
 31
0.0
  0
LINE
  5
B8A9
330
B896
100
AcDbEntity
  8
0
  6
CONTINUOUS
100
AcDbLine
 10
40.9183221720374
 20
4.340996280378933
 30
0.0
 11
41.89134866762525
 21
5.314022775966786
 31
0.0
  0
LINE
  5
B8AA
330
B896
100
AcDbEntity
  8
0
  6
CONTINUOUS
100
AcDbLine
 10
41.23578448461758
 20
3.984939383878926
 30
0.0
 11
42.20881098020543
 21
4.957965879466778
 31
0.0
  0
LINE
  5
B8AB
330
B896
100
AcDbEntity
  8
0
  6
CONTINUOUS
100
AcDbLine
 10
41.55324679719776
 20
3.628882487378919
 30
0.0
 11
42.52627329278561
 21
4.601908982966772
 31
0.0
  0
LINE
  5
B8AC
330
B896
100
AcDbEntity
  8
0
  6
CONTINUOUS
100
AcDbLine
 10
41.87070910977793
 20
3.272825590878912
 30
0.0
 11
42.84373560536579
 21
4.245852086466765
 31
0.0
  0
LINE
  5
B8AD
330
B896
100
AcDbEntity
  8
0
  6
CONTINUOUS
100
AcDbLine
 10
43.57899999995641
 20
7.001674108297943
 30
0.0
 11
44.99999999995498
 21
8.422674108296516
 31
0.0
  0
LINE
  5
B8AE
330
B896
100
AcDbEntity
  8
0
  6
CONTINUOUS
100
AcDbLine
 10
43.57899999995641
 20
6.328154899217758
 30
0.0
 11
44.99999999995498
 21
7.749154899216329
 31
0.0
  0
LINE
  5
B8AF
330
B896
100
AcDbEntity
  8
0
  6
CONTINUOUS
100
AcDbLine
 10
43.57899999995641
 20
5.654635690137571
 30
0.0
 11
44.99999999995498
 21
7.075635690136142
 31
0.0
  0
LINE
  5
B8B0
330
B896
100
AcDbEntity
  8
0
  6
CONTINUOUS
100
AcDbLine
 10
43.57899999995641
 20
4.981116481057384
 30
0.0
 11
44.99999999995498
 21
6.402116481055955
 31
0.0
  0
LINE
  5
B8B1
330
B896
100
AcDbEntity
  8
0
  6
CONTINUOUS
100
AcDbLine
 10
39.27140272797921
 20
-0.0000000000000009
 30
0.0
 11
40.02599999995994
 21
0.7545972719807246
 31
0.0
  0
LINE
  5
B8B2
330
B896
100
AcDbEntity
  8
0
  6
CONTINUOUS
100
AcDbLine
 10
39.9449219370594
 20
-0.0000000000000009
 30
0.0
 11
40.02599999995994
 21
0.0810780629005379
 31
0.0
  0
LINE
  5
B8B3
330
B896
100
AcDbEntity
  8
0
  6
CONTINUOUS
100
AcDbLine
 10
42.18817142235812
 20
2.916768694378905
 30
0.0
 11
43.16119791794597
 21
3.889795189966758
 31
0.0
  0
LINE
  5
B8B4
330
B896
100
AcDbEntity
  8
0
  6
CONTINUOUS
100
AcDbLine
 10
42.50563373493829
 20
2.560711797878898
 30
0.0
 11
43.47866023052615
 21
3.533738293466751
 31
0.0
  0
LINE
  5
B8B5
330
B896
100
AcDbEntity
  8
0
  6
CONTINUOUS
100
AcDbLine
 10
43.57899999995641
 20
4.307597271977198
 30
0.0
 11
44.99999999995498
 21
5.728597271975769
 31
0.0
  0
LINE
  5
B8B6
330
B896
100
AcDbEntity
  8
0
  6
CONTINUOUS
100
AcDbLine
 10
43.57899999995641
 20
3.634078062897011
 30
0.0
 11
44.99999999995498
 21
5.055078062895582
 31
0.0
  0
LINE
  5
B8B7
330
B896
100
AcDbEntity
  8
0
  6
CONTINUOUS
100
AcDbLine
 10
42.82309604751848
 20
2.204654901378891
 30
0.0
 11
44.99999999995498
 21
4.381558853815395
 31
0.0
  0
LINE
  5
B8B8
330
B896
100
AcDbEntity
  8
0
  6
CONTINUOUS
100
AcDbLine
 10
43.14055836009865
 20
1.848598004878885
 30
0.0
 11
44.99999999995498
 21
3.70803964473521
 31
0.0
  0
LINE
  5
B8B9
330
B896
100
AcDbEntity
  8
0
  6
CONTINUOUS
100
AcDbLine
 10
43.45802067267883
 20
1.492541108378878
 30
0.0
 11
44.99999999995498
 21
3.034520435655023
 31
0.0
  0
LINE
  5
B8BA
330
B896
100
AcDbEntity
  8
0
  6
CONTINUOUS
100
AcDbLine
 10
43.77548298525902
 20
1.136484211878871
 30
0.0
 11
44.99999999995498
 21
2.361001226574837
 31
0.0
  0
LINE
  5
B8BB
330
B896
100
AcDbEntity
  8
0
  6
CONTINUOUS
100
AcDbLine
 10
44.09294529783919
 20
0.7804273153788639
 30
0.0
 11
44.99999999995498
 21
1.687482017494649
 31
0.0
  0
LINE
  5
B8BC
330
B896
100
AcDbEntity
  8
0
  6
CONTINUOUS
100
AcDbLine
 10
44.41040761041938
 20
0.4243704188788566
 30
0.0
 11
44.99999999995498
 21
1.013962808414463
 31
0.0
  0
LINE
  5
B8BD
330
B896
100
AcDbEntity
  8
0
  6
CONTINUOUS
100
AcDbLine
 10
44.72786992299955
 20
0.0683135223788494
 30
0.0
 11
44.99999999995498
 21
0.340443599334276
 31
0.0
  0
LINE
  5
B8BE
330
B896
100
AcDbEntity
  8
0
  6
CONTINUOUS
100
AcDbLine
 10
39.12223903415696
 20
-0.0000000000000009
 30
0.0
 11
38.60499999996136
 21
0.5172390341955961
 31
0.0
  0
LINE
  5
B8BF
330
B896
100
AcDbEntity
  8
0
  6
CONTINUOUS
100
AcDbLine
 10
39.79575824323715
 20
-0.0000000000000009
 30
0.0
 11
38.60499999996136
 21
1.190758243275783
 31
0.0
  0
LINE
  5
B8C0
330
B896
100
AcDbEntity
  8
0
  6
CONTINUOUS
100
AcDbLine
 10
40.02599999995994
 20
0.443277452357397
 30
0.0
 11
38.60499999996136
 21
1.864277452355969
 31
0.0
  0
LINE
  5
B8C1
330
B896
100
AcDbEntity
  8
0
  6
CONTINUOUS
100
AcDbLine
 10
40.02599999995994
 20
1.116796661437583
 30
0.0
 11
38.60499999996136
 21
2.537796661436155
 31
0.0
  0
LINE
  5
B8C2
330
B896
100
AcDbEntity
  8
0
  6
CONTINUOUS
100
AcDbLine
 10
40.02599999995994
 20
1.79031587051777
 30
0.0
 11
38.60499999996136
 21
3.211315870516341
 31
0.0
  0
LINE
  5
B8C3
330
B896
100
AcDbEntity
  8
0
  6
CONTINUOUS
100
AcDbLine
 10
40.02599999995994
 20
2.463835079597956
 30
0.0
 11
38.60499999996136
 21
3.884835079596527
 31
0.0
  0
LINE
  5
B8C4
330
B896
100
AcDbEntity
  8
0
  6
CONTINUOUS
100
AcDbLine
 10
40.02599999995994
 20
3.137354288678143
 30
0.0
 11
38.60499999996136
 21
4.558354288676714
 31
0.0
  0
LINE
  5
B8C5
330
B896
100
AcDbEntity
  8
0
  6
CONTINUOUS
100
AcDbLine
 10
40.02599999995994
 20
3.810873497758329
 30
0.0
 11
38.60499999996136
 21
5.2318734977569
 31
0.0
  0
LINE
  5
B8C6
330
B896
100
AcDbEntity
  8
0
  6
CONTINUOUS
100
AcDbLine
 10
40.02599999995994
 20
4.484392706838515
 30
0.0
 11
38.60499999996136
 21
5.905392706837086
 31
0.0
  0
LINE
  5
B8C7
330
B896
100
AcDbEntity
  8
0
  6
CONTINUOUS
100
AcDbLine
 10
44.99999999995498
 20
0.183911915923658
 30
0.0
 11
41.53858364506288
 21
3.64532827081576
 31
0.0
  0
LINE
  5
B8C8
330
B896
100
AcDbEntity
  8
0
  6
CONTINUOUS
100
AcDbLine
 10
40.02599999995994
 20
5.157911915918703
 30
0.0
 11
38.60499999996136
 21
6.578911915917274
 31
0.0
  0
LINE
  5
B8C9
330
B896
100
AcDbEntity
  8
0
  6
CONTINUOUS
100
AcDbLine
 10
44.99999999995498
 20
0.8574311250038447
 30
0.0
 11
38.60499999996136
 21
7.25243112499746
 31
0.0
  0
LINE
  5
B8CA
330
B896
100
AcDbEntity
  8
0
  6
CONTINUOUS
100
AcDbLine
 10
44.99999999995498
 20
1.530950334084031
 30
0.0
 11
38.60499999996136
 21
7.925950334077647
 31
0.0
  0
LINE
  5
B8CB
330
B896
100
AcDbEntity
  8
0
  6
CONTINUOUS
100
AcDbLine
 10
44.99999999995498
 20
2.204469543164218
 30
0.0
 11
43.57899999995641
 21
3.625469543162789
 31
0.0
  0
LINE
  5
B8CC
330
B896
100
AcDbEntity
  8
0
  6
CONTINUOUS
100
AcDbLine
 10
41.89876730984767
 20
5.305702233271528
 30
0.0
 11
38.60499999996136
 21
8.599469543157834
 31
0.0
  0
LINE
  5
B8CD
330
B896
100
AcDbEntity
  8
0
  6
CONTINUOUS
100
AcDbLine
 10
44.99999999995498
 20
2.877988752244405
 30
0.0
 11
43.57899999995641
 21
4.298988752242975
 31
0.0
  0
LINE
  5
B8CE
330
B896
100
AcDbEntity
  8
0
  6
CONTINUOUS
100
AcDbLine
 10
44.99999999995498
 20
3.551507961324591
 30
0.0
 11
43.57899999995641
 21
4.972507961323163
 31
0.0
  0
LINE
  5
B8CF
330
B896
100
AcDbEntity
  8
0
  6
CONTINUOUS
100
AcDbLine
 10
44.99999999995498
 20
4.225027170404777
 30
0.0
 11
43.57899999995641
 21
5.646027170403348
 31
0.0
  0
LINE
  5
B8D0
330
B896
100
AcDbEntity
  8
0
  6
CONTINUOUS
100
AcDbLine
 10
44.99999999995498
 20
4.898546379484964
 30
0.0
 11
43.57899999995641
 21
6.319546379483535
 31
0.0
  0
LINE
  5
B8D1
330
B896
100
AcDbEntity
  8
0
  6
CONTINUOUS
100
AcDbLine
 10
44.99999999995498
 20
5.572065588565151
 30
0.0
 11
43.57899999995641
 21
6.993065588563722
 31
0.0
  0
LINE
  5
B8D2
330
B896
100
AcDbEntity
  8
0
  6
CONTINUOUS
100
AcDbLine
 10
44.99999999995498
 20
6.245584797645336
 30
0.0
 11
43.57899999995641
 21
7.666584797643908
 31
0.0
  0
LINE
  5
B8D3
330
B896
100
AcDbEntity
  8
0
  6
CONTINUOUS
100
AcDbLine
 10
44.99999999995498
 20
6.919104006725522
 30
0.0
 11
43.57899999995641
 21
8.340104006724093
 31
0.0
  0
LINE
  5
B8D4
330
B896
100
AcDbEntity
  8
0
  6
CONTINUOUS
100
AcDbLine
 10
44.99999999995498
 20
7.592623215805709
 30
0.0
 11
43.82952321576943
 21
8.763099999991255
 31
0.0
  0
LINE
  5
B8D5
330
B896
100
AcDbEntity
  8
0
  6
CONTINUOUS
100
AcDbLine
 10
44.99999999995498
 20
8.266142424885896
 30
0.0
 11
44.50304242484962
 21
8.763099999991255
 31
0.0
  0
ENDBLK
  5
B8FF
330
B896
100
AcDbEntity
  8
0
100
AcDbBlockEnd
  0
BLOCK
  5
B900
330
B8D6
100
AcDbEntity
  8
0
100
AcDbBlockBegin
  2
*X34
 70
     1
 10
0.0
 20
0.0
 30
0.0
  3
*X34
  1

  0
LINE
  5
B8D7
330
B8D6
100
AcDbEntity
  8
0
  6
CONTINUOUS
100
AcDbLine
 10
0.0
 20
8.548461116714023
 30
0.0
 11
0.2146388832772324
 21
8.763099999991255
 31
0.0
  0
LINE
  5
B8D8
330
B8D6
100
AcDbEntity
  8
0
  6
CONTINUOUS
100
AcDbLine
 10
-0.0000000000000002
 20
7.874941907633837
 30
0.0
 11
0.8881580923574184
 21
8.763099999991255
 31
0.0
  0
LINE
  5
B8D9
330
B8D6
100
AcDbEntity
  8
0
  6
CONTINUOUS
100
AcDbLine
 10
0.0
 20
7.20142269855365
 30
0.0
 11
1.420999999998572
 21
8.622422698552223
 31
0.0
  0
LINE
  5
B8DA
330
B8D6
100
AcDbEntity
  8
0
  6
CONTINUOUS
100
AcDbLine
 10
-0.0000000000000001
 20
6.527903489473465
 30
0.0
 11
1.420999999998571
 21
7.948903489472036
 31
0.0
  0
LINE
  5
B8DB
330
B8D6
100
AcDbEntity
  8
0
  6
CONTINUOUS
100
AcDbLine
 10
-0.0000000000000002
 20
5.854384280393278
 30
0.0
 11
1.420999999998571
 21
7.275384280391849
 31
0.0
  0
LINE
  5
B8DC
330
B8D6
100
AcDbEntity
  8
0
  6
CONTINUOUS
100
AcDbLine
 10
-0.0000000000000002
 20
5.180865071313091
 30
0.0
 11
1.420999999998571
 21
6.601865071311663
 31
0.0
  0
LINE
  5
B8DD
330
B8D6
100
AcDbEntity
  8
0
  6
CONTINUOUS
100
AcDbLine
 10
0.0
 20
4.507345862232905
 30
0.0
 11
1.420999999998571
 21
5.928345862231477
 31
0.0
  0
LINE
  5
B8DE
330
B8D6
100
AcDbEntity
  8
0
  6
CONTINUOUS
100
AcDbLine
 10
-0.0000000000000003
 20
3.833826653152718
 30
0.0
 11
1.420999999998571
 21
5.25482665315129
 31
0.0
  0
LINE
  5
B8DF
330
B8D6
100
AcDbEntity
  8
0
  6
CONTINUOUS
100
AcDbLine
 10
-0.0000000000000002
 20
3.160307444072532
 30
0.0
 11
1.420999999998571
 21
4.581307444071103
 31
0.0
  0
LINE
  5
B8E0
330
B8D6
100
AcDbEntity
  8
0
  6
CONTINUOUS
100
AcDbLine
 10
-0.0000000000000001
 20
2.486788234992345
 30
0.0
 11
1.420999999998571
 21
3.907788234990917
 31
0.0
  0
LINE
  5
B8E1
330
B8D6
100
AcDbEntity
  8
0
  6
CONTINUOUS
100
AcDbLine
 10
-0.0000000000000006
 20
1.813269025912159
 30
0.0
 11
1.420999999998571
 21
3.234269025910731
 31
0.0
  0
LINE
  5
B8E2
330
B8D6
100
AcDbEntity
  8
0
  6
CONTINUOUS
100
AcDbLine
 10
0.0
 20
1.139749816831973
 30
0.0
 11
1.420999999998571
 21
2.560749816830544
 31
0.0
  0
LINE
  5
B8E3
330
B8D6
100
AcDbEntity
  8
0
  6
CONTINUOUS
100
AcDbLine
 10
0.0000000000000002
 20
0.466230607751787
 30
0.0
 11
1.420999999998571
 21
1.887230607750358
 31
0.0
  0
LINE
  5
B8E4
330
B8D6
100
AcDbEntity
  8
0
  6
CONTINUOUS
100
AcDbLine
 10
0.2072886013284003
 20
-0.0000000000000009
 30
0.0
 11
1.420999999998571
 21
1.213711398670171
 31
0.0
  0
LINE
  5
B8E5
330
B8D6
100
AcDbEntity
  8
0
  6
CONTINUOUS
100
AcDbLine
 10
0.8808078104085864
 20
-0.0000000000000009
 30
0.0
 11
1.420999999998571
 21
0.5401921895899839
 31
0.0
  0
LINE
  5
B8E6
330
B8D6
100
AcDbEntity
  8
0
  6
CONTINUOUS
100
AcDbLine
 10
0.0581249075061505
 20
-0.0000000000000009
 30
0.0
 11
-0.0000000000000002
 21
0.0581249075061496
 31
0.0
  0
LINE
  5
B8E7
330
B8D6
100
AcDbEntity
  8
0
  6
CONTINUOUS
100
AcDbLine
 10
0.7316441165863372
 20
-0.0000000000000009
 30
0.0
 11
-0.0000000000000002
 21
0.7316441165863363
 31
0.0
  0
LINE
  5
B8E8
330
B8D6
100
AcDbEntity
  8
0
  6
CONTINUOUS
100
AcDbLine
 10
1.405163325666523
 20
-0.0000000000000009
 30
0.0
 11
-0.0000000000000002
 21
1.405163325666523
 31
0.0
  0
LINE
  5
B8E9
330
B8D6
100
AcDbEntity
  8
0
  6
CONTINUOUS
100
AcDbLine
 10
1.420999999998572
 20
0.6576825347481381
 30
0.0
 11
-0.0000000000000001
 21
2.07868253474671
 31
0.0
  0
LINE
  5
B8EA
330
B8D6
100
AcDbEntity
  8
0
  6
CONTINUOUS
100
AcDbLine
 10
1.420999999998571
 20
1.331201743828324
 30
0.0
 11
-0.0000000000000001
 21
2.752201743826896
 31
0.0
  0
LINE
  5
B8EB
330
B8D6
100
AcDbEntity
  8
0
  6
CONTINUOUS
100
AcDbLine
 10
1.420999999998571
 20
2.004720952908511
 30
0.0
 11
-0.0000000000000002
 21
3.425720952907082
 31
0.0
  0
LINE
  5
B8EC
330
B8D6
100
AcDbEntity
  8
0
  6
CONTINUOUS
100
AcDbLine
 10
1.420999999998571
 20
2.678240161988697
 30
0.0
 11
-0.0000000000000001
 21
4.099240161987269
 31
0.0
  0
LINE
  5
B8ED
330
B8D6
100
AcDbEntity
  8
0
  6
CONTINUOUS
100
AcDbLine
 10
1.420999999998572
 20
3.351759371068884
 30
0.0
 11
0.0
 21
4.772759371067455
 31
0.0
  0
LINE
  5
B8EE
330
B8D6
100
AcDbEntity
  8
0
  6
CONTINUOUS
100
AcDbLine
 10
1.420999999998571
 20
4.02527858014907
 30
0.0
 11
-0.0000000000000003
 21
5.446278580147642
 31
0.0
  0
LINE
  5
B8EF
330
B8D6
100
AcDbEntity
  8
0
  6
CONTINUOUS
100
AcDbLine
 10
1.420999999998571
 20
4.698797789229257
 30
0.0
 11
0.0
 21
6.119797789227828
 31
0.0
  0
LINE
  5
B8F0
330
B8D6
100
AcDbEntity
  8
0
  6
CONTINUOUS
100
AcDbLine
 10
1.420999999998571
 20
5.372316998309444
 30
0.0
 11
-0.0000000000000001
 21
6.793316998308015
 31
0.0
  0
LINE
  5
B8F1
330
B8D6
100
AcDbEntity
  8
0
  6
CONTINUOUS
100
AcDbLine
 10
1.420999999998572
 20
6.045836207389629
 30
0.0
 11
-0.0000000000000004
 21
7.466836207388202
 31
0.0
  0
LINE
  5
B8F2
330
B8D6
100
AcDbEntity
  8
0
  6
CONTINUOUS
100
AcDbLine
 10
1.420999999998571
 20
6.719355416469816
 30
0.0
 11
0.0
 21
8.140355416468388
 31
0.0
  0
LINE
  5
B8F3
330
B8D6
100
AcDbEntity
  8
0
  6
CONTINUOUS
100
AcDbLine
 10
1.420999999998571
 20
7.392874625550003
 30
0.0
 11
0.0507746255573185
 21
8.763099999991255
 31
0.0
  0
LINE
  5
B8F4
330
B8D6
100
AcDbEntity
  8
0
  6
CONTINUOUS
100
AcDbLine
 10
1.420999999998571
 20
8.06639383463019
 30
0.0
 11
0.7242938346375052
 21
8.763099999991255
 31
0.0
  0
LINE
  5
B8F5
330
B8D6
100
AcDbEntity
  8
0
  6
CONTINUOUS
100
AcDbLine
 10
1.420999999998571
 20
8.739913043710375
 30
0.0
 11
1.397813043717691
 21
8.763099999991255
 31
0.0
  0
ENDBLK
  5
B901
330
B8D6
100
AcDbEntity
  8
0
100
AcDbBlockEnd
  0
ENDSEC
  0
SECTION
  2
ENTITIES
  0
LINE
  5
941A
330
18
100
AcDbEntity
  8
01
100
AcDbLine
 10
469.5425535442383
 20
491.6595500777535
 30
0.0
 11
469.5425535442383
 21
540.6587069909269
 31
0.0
  0
LINE
  5
941B
330
18
100
AcDbEntity
  8
01
100
AcDbLine
 10
425.342553544238
 20
491.1595500777516
 30
0.0
 11
469.0425535442383
 21
491.1595500777535
 31
0.0
  0
ARC
  5
941C
330
18
100
AcDbEntity
  8
01
100
AcDbCircle
 10
469.0425535442383
 20
491.6595500777535
 30
0.0
 40
0.5
100
AcDbArc
 50
270.0
 51
0.0
  0
LINE
  5
941D
330
18
100
AcDbEntity
  8
01
100
AcDbLine
 10
425.342553544238
 20
541.1587069909278
 30
0.0
 11
469.0425535442383
 21
541.1587069909269
 31
0.0
  0
ARC
  5
941F
330
18
100
AcDbEntity
  8
01
100
AcDbCircle
 10
469.0425535442383
 20
540.6587069909269
 30
0.0
 40
0.5
100
AcDbArc
 50
0.0
 51
90.0
  0
LINE
  5
9420
330
18
100
AcDbEntity
  8
01
100
AcDbLine
 10
425.342553544238
 20
541.1587069909278
 30
0.0
 11
425.342553544238
 21
491.1595500777516
 31
0.0
  0
CIRCLE
  5
9425
330
18
100
AcDbEntity
  8
1HIDDEN
100
AcDbCircle
 10
234.5425535442346
 20
518.751633560456
 30
0.0
 40
2.25
  0
CIRCLE
  5
9426
330
18
100
AcDbEntity
  8
1HIDDEN
100
AcDbCircle
 10
204.5425535442346
 20
518.7516335604514
 30
0.0
 40
2.25
  0
LINE
  5
9485
330
18
100
AcDbEntity
  8
01
100
AcDbLine
 10
24.84255370159198
 20
539.9595500777559
 30
0.0
 11
24.84255370159198
 21
492.3595500777561
 31
0.0
  0
LINE
  5
9486
330
18
100
AcDbEntity
  8
01
100
AcDbLine
 10
214.2425533868775
 20
539.9595500777559
 30
0.0
 11
213.7425535442385
 21
539.9595500777559
 31
0.0
  0
LINE
  5
9487
330
18
100
AcDbEntity
  8
01
100
AcDbLine
 10
214.2425533868775
 20
539.9595500777559
 30
0.0
 11
214.2425533868775
 21
492.359550077756
 31
0.0
  0
LINE
  5
948B
330
18
100
AcDbEntity
  8
01
100
AcDbLine
 10
214.2425533868775
 20
492.359550077756
 30
0.0
 11
213.7425535442385
 21
492.359550077756
 31
0.0
  0
LINE
  5
94A8
330
18
100
AcDbEntity
  8
01
100
AcDbLine
 10
24.84255370159198
 20
539.9595500777559
 30
0.0
 11
25.34255354423121
 21
539.9595500777559
 31
0.0
  0
LINE
  5
94AD
330
18
100
AcDbEntity
  8
01
100
AcDbLine
 10
24.84255370159198
 20
492.3595500777561
 30
0.0
 11
25.34255354423121
 21
492.359550077756
 31
0.0
  0
LINE
  5
94CD
330
18
100
AcDbEntity
  8
01
100
AcDbLine
 10
213.7425535442385
 20
541.1595500777557
 30
0.0
 11
25.34255354423121
 21
541.1595500777557
 31
0.0
  0
LINE
  5
94D1
330
18
100
AcDbEntity
  8
01
100
AcDbLine
 10
213.7425535442381
 20
491.1595500777557
 30
0.0
 11
25.34255354423121
 21
491.1595500777557
 31
0.0
  0
LINE
  5
94D5
330
18
100
AcDbEntity
  8
01
100
AcDbLine
 10
414.2425533868848
 20
539.9666235082263
 30
0.0
 11
413.7425535442458
 21
539.9666235082263
 31
0.0
  0
LINE
  5
94D6
330
18
100
AcDbEntity
  8
01
100
AcDbLine
 10
414.2425533868848
 20
539.9666235082263
 30
0.0
 11
414.2425533868848
 21
492.3666235082264
 31
0.0
  0
LINE
  5
94DA
330
18
100
AcDbEntity
  8
01
100
AcDbLine
 10
414.2425533868848
 20
492.3666235082264
 30
0.0
 11
413.7425535442458
 21
492.3666235082264
 31
0.0
  0
LINE
  5
94F7
330
18
100
AcDbEntity
  8
01
100
AcDbLine
 10
224.8425537015988
 20
539.9587069909276
 30
0.0
 11
225.342553544238
 21
539.9587069909276
 31
0.0
  0
LINE
  5
94F8
330
18
100
AcDbEntity
  8
01
100
AcDbLine
 10
224.8425537015988
 20
539.9587069909276
 30
0.0
 11
224.8425537015988
 21
492.3587069909277
 31
0.0
  0
LINE
  5
94FB
330
18
100
AcDbEntity
  8
01
100
AcDbLine
 10
224.8425537015988
 20
492.3587069909277
 30
0.0
 11
225.342553544238
 21
492.3587069909277
 31
0.0
  0
LINE
  5
9519
330
18
100
AcDbEntity
  8
01
100
AcDbLine
 10
413.7425535442465
 20
541.1587069909274
 30
0.0
 11
225.342553544238
 21
541.1587069909274
 31
0.0
  0
LINE
  5
951D
330
18
100
AcDbEntity
  8
01
100
AcDbLine
 10
413.7425535442456
 20
491.1587069909274
 30
0.0
 11
225.342553544238
 21
491.1587069909274
 31
0.0
  0
LINE
  5
9526
330
18
100
AcDbEntity
  8
01
100
AcDbLine
 10
14.24255354423101
 20
491.0513535610148
 30
0.0
 11
14.24255354423101
 21
541.2505104741881
 31
0.0
  0
ARC
  5
9527
330
18
100
AcDbEntity
  8
01
100
AcDbCircle
 10
14.74255354423056
 20
541.2505104741881
 30
0.0
 40
0.5
100
AcDbArc
 50
90.0
 51
180.0
  0
LINE
  5
9528
330
18
100
AcDbEntity
  8
01
100
AcDbLine
 10
24.84255354423149
 20
491.0513535610148
 30
0.0
 11
24.84255354423149
 21
541.2505104741881
 31
0.0
  0
ARC
  5
9529
330
18
100
AcDbEntity
  8
01
100
AcDbCircle
 10
24.34255354423104
 20
541.2505104741881
 30
0.0
 40
0.5
100
AcDbArc
 50
0.0
 51
90.0
  0
LINE
  5
952A
330
18
100
AcDbEntity
  8
01
100
AcDbLine
 10
14.74255354423101
 20
490.5513535610148
 30
0.0
 11
24.34255354423149
 21
490.5513535610148
 31
0.0
  0
ARC
  5
952B
330
18
100
AcDbEntity
  8
01
100
AcDbCircle
 10
24.34255354423149
 20
491.0513535610148
 30
0.0
 40
0.5
100
AcDbArc
 50
270.0
 51
0.0
  0
ARC
  5
952C
330
18
100
AcDbEntity
  8
01
100
AcDbCircle
 10
14.74255354423101
 20
491.0513535610148
 30
0.0
 40
0.5
100
AcDbArc
 50
180.0
 51
270.0
  0
LINE
  5
952D
330
18
100
AcDbEntity
  8
01
100
AcDbLine
 10
14.74255354423056
 20
541.7505104741881
 30
0.0
 11
24.34255354423104
 21
541.7505104741881
 31
0.0
  0
LINE
  5
9531
330
18
100
AcDbEntity
  8
01
100
AcDbLine
 10
214.2425535442378
 20
491.0513535610148
 30
0.0
 11
214.2425535442378
 21
541.2505104741881
 31
0.0
  0
ARC
  5
9532
330
18
100
AcDbEntity
  8
01
100
AcDbCircle
 10
214.7425535442374
 20
541.2505104741881
 30
0.0
 40
0.5
100
AcDbArc
 50
90.0
 51
180.0
  0
LINE
  5
9533
330
18
100
AcDbEntity
  8
01
100
AcDbLine
 10
224.8425535442383
 20
491.0513535610148
 30
0.0
 11
224.8425535442383
 21
541.2505104741881
 31
0.0
  0
ARC
  5
9534
330
18
100
AcDbEntity
  8
01
100
AcDbCircle
 10
224.3425535442378
 20
541.2505104741881
 30
0.0
 40
0.5
100
AcDbArc
 50
0.0
 51
90.0
  0
LINE
  5
9535
330
18
100
AcDbEntity
  8
01
100
AcDbLine
 10
214.7425535442378
 20
490.5513535610148
 30
0.0
 11
224.3425535442383
 21
490.5513535610148
 31
0.0
  0
ARC
  5
9536
330
18
100
AcDbEntity
  8
01
100
AcDbCircle
 10
224.3425535442383
 20
491.0513535610148
 30
0.0
 40
0.5
100
AcDbArc
 50
270.0
 51
0.0
  0
ARC
  5
9537
330
18
100
AcDbEntity
  8
01
100
AcDbCircle
 10
214.7425535442378
 20
491.0513535610148
 30
0.0
 40
0.5
100
AcDbArc
 50
180.0
 51
270.0
  0
LINE
  5
9538
330
18
100
AcDbEntity
  8
01
100
AcDbLine
 10
214.7425535442374
 20
541.7505104741881
 30
0.0
 11
224.3425535442379
 21
541.7505104741881
 31
0.0
  0
LINE
  5
953C
330
18
100
AcDbEntity
  8
01
100
AcDbLine
 10
414.2425535442451
 20
491.0592700783136
 30
0.0
 11
414.2425535442451
 21
541.2584269914869
 31
0.0
  0
LINE
  5
953D
330
18
100
AcDbEntity
  8
1CENTER
100
AcDbLine
 10
419.5425535442451
 20
487.2639141981026
 30
0.0
 11
419.5425535442451
 21
546.4481115059034
 31
0.0
  0
ARC
  5
953E
330
18
100
AcDbEntity
  8
01
100
AcDbCircle
 10
414.7425535442446
 20
541.2584269914869
 30
0.0
 40
0.5
100
AcDbArc
 50
90.0
 51
180.0
  0
LINE
  5
953F
330
18
100
AcDbEntity
  8
01
100
AcDbLine
 10
424.8425535442451
 20
491.0592700783136
 30
0.0
 11
424.8425535442451
 21
541.2584269914869
 31
0.0
  0
ARC
  5
9540
330
18
100
AcDbEntity
  8
01
100
AcDbCircle
 10
424.3425535442451
 20
541.2584269914869
 30
0.0
 40
0.5
100
AcDbArc
 50
0.0
 51
90.0
  0
LINE
  5
9541
330
18
100
AcDbEntity
  8
01
100
AcDbLine
 10
414.7425535442451
 20
490.5592700783136
 30
0.0
 11
424.3425535442451
 21
490.5592700783137
 31
0.0
  0
ARC
  5
9542
330
18
100
AcDbEntity
  8
01
100
AcDbCircle
 10
424.3425535442451
 20
491.0592700783136
 30
0.0
 40
0.5
100
AcDbArc
 50
270.0
 51
0.0
  0
ARC
  5
9543
330
18
100
AcDbEntity
  8
01
100
AcDbCircle
 10
414.7425535442451
 20
491.0592700783136
 30
0.0
 40
0.5
100
AcDbArc
 50
180.0
 51
270.0
  0
LINE
  5
9544
330
18
100
AcDbEntity
  8
01
100
AcDbLine
 10
414.7425535442446
 20
541.7584269914869
 30
0.0
 11
424.3425535442451
 21
541.7584269914869
 31
0.0
  0
LINE
  5
954D
330
18
100
AcDbEntity
  8
1CENTER
100
AcDbLine
 10
219.5425535442383
 20
543.2268909611839
 30
0.0
 11
219.5425535442383
 21
490.5513535610148
 31
0.0
  0
LINE
  5
954E
330
18
100
AcDbEntity
  8
1CENTER
100
AcDbLine
 10
19.54255354423148
 20
543.2268909611839
 30
0.0
 11
19.54255354423148
 21
489.3916797624242
 31
0.0
  0
LINE
  5
95C5
330
18
100
AcDbEntity
  8
1PHANTOM
100
AcDbLine
 10
579.4098818905433
 20
490.6248631671577
 30
0.0
 11
579.5564959675932
 21
496.2238288809508
 31
0.0
  0
ARC
  5
95C6
330
18
100
AcDbEntity
  8
1PHANTOM
100
AcDbCircle
 10
529.2279269746913
 20
491.9389239027726
 30
0.0
 40
1.0
100
AcDbArc
 50
178.5000000000006
 51
268.4999999999973
  0
LINE
  5
95C7
330
18
100
AcDbEntity
  8
1PHANTOM
100
AcDbLine
 10
528.4246126028169
 20
499.4631357238397
 30
0.0
 11
528.2282696497157
 21
491.9651008510804
 31
0.0
  0
ARC
  5
95C8
330
18
100
AcDbEntity
  8
1PHANTOM
100
AcDbCircle
 10
578.4102245655677
 20
490.6510401154655
 30
0.0
 40
1.0
100
AcDbArc
 50
268.4999999999999
 51
358.4999999999999
  0
LINE
  5
95C9
330
18
100
AcDbEntity
  8
1PHANTOM
100
AcDbLine
 10
529.2017500263835
 20
490.9392665777972
 30
0.0
 11
578.3840476172597
 21
489.6513827904899
 31
0.0
  0
LINE
  5
95CA
330
18
100
AcDbEntity
  8
1PHANTOM
100
AcDbLine
 10
529.4504468761003
 20
500.4366161005075
 30
0.0
 11
530.4501042010766
 21
500.4104391521997
 31
0.0
  0
ARC
  5
95CB
330
18
100
AcDbEntity
  8
1PHANTOM
100
AcDbCircle
 10
529.4242699277924
 20
499.4369587755319
 30
0.0
 40
1.0
100
AcDbArc
 50
88.49999999999993
 51
178.4999999999999
  0
LINE
  5
95D8
330
18
100
AcDbEntity
  8
1PHANTOM
100
AcDbLine
 10
578.4370992666188
 20
496.2595499467217
 30
0.0
 11
580.34254854424
 21
496.2595499467204
 31
0.0
  0
LINE
  5
95E6
330
18
100
AcDbEntity
  8
01
100
AcDbLine
 10
580.3425485442384
 20
503.6592700783125
 30
0.0
 11
580.3425485442384
 21
528.6592700783121
 31
0.0
  0
LINE
  5
961D
330
18
100
AcDbEntity
  8
1PHANTOM
100
AcDbLine
 10
579.5564728816765
 20
496.2229442635178
 30
0.0
 11
578.4379866484824
 21
496.2522328562964
 31
0.0
  0
LINE
  5
9622
330
18
100
AcDbEntity
  8
1PHANTOM
100
AcDbLine
 10
570.8057554298781
 20
497.882173414957
 30
0.0
 11
570.8120213251871
 21
496.6854864974682
 31
0.0
  0
LINE
  5
9623
330
18
100
AcDbEntity
  8
1PHANTOM
100
AcDbLine
 10
570.8120213251871
 20
496.6854864974682
 30
0.0
 11
570.2390946244692
 21
495.6810390643828
 31
0.0
  0
LINE
  5
9624
330
18
100
AcDbEntity
  8
1PHANTOM
100
AcDbLine
 10
570.2390946244692
 20
495.6810390643828
 30
0.0
 11
570.2046881679574
 21
494.3671095003325
 31
0.0
  0
ARC
  5
9625
330
18
100
AcDbEntity
  8
01
  6
BYBLOCK
100
AcDbCircle
 10
-574.342548622819
 20
495.7592699997335
 30
0.0
 40
4.125000000000001
210
0.0
220
0.0
230
-1.0
100
AcDbArc
 50
30.97361244699745
 51
173.1363982109754
  0
LINE
  5
9626
330
18
100
AcDbEntity
  8
1PHANTOM
100
AcDbLine
 10
570.2046881679574
 20
494.3671095003325
 30
0.0
 11
532.8175042138713
 21
495.3461273670474
 31
0.0
  0
ARC
  5
9627
330
18
100
AcDbEntity
  8
1PHANTOM
100
AcDbCircle
 10
532.8436811621792
 20
496.3457846920229
 30
0.0
 40
1.0
100
AcDbArc
 50
178.4999999999999
 51
268.4999999999999
  0
CIRCLE
  5
9628
330
18
100
AcDbEntity
  8
01
100
AcDbCircle
 10
574.342548622819
 20
495.7592699997335
 30
0.0
 40
2.15
  0
ARC
  5
962A
330
18
100
AcDbEntity
  8
1PHANTOM
100
AcDbCircle
 10
532.8436811621792
 20
496.3457846920229
 30
0.0
 40
1.0
100
AcDbArc
 50
178.4999999999999
 51
268.4999999999999
  0
LINE
  5
962B
330
18
100
AcDbEntity
  8
1PHANTOM
100
AcDbLine
 10
531.8440238372037
 20
496.3719616403307
 30
0.0
 11
531.9225546821273
 21
499.3709336152565
 31
0.0
  0
ARC
  5
962C
330
18
100
AcDbEntity
  8
1PHANTOM
100
AcDbCircle
 10
530.9228973571519
 20
499.3971105635644
 30
0.0
 40
1.0
100
AcDbArc
 50
358.4999999999999
 51
88.49999999997397
  0
LINE
  5
962D
330
18
100
AcDbEntity
  8
1PHANTOM
100
AcDbLine
 10
530.9490743054598
 20
500.39676788854
 30
0.0
 11
529.4495883179964
 21
500.4360333110027
 31
0.0
  0
ARC
  5
962E
330
18
100
AcDbEntity
  8
1PHANTOM
100
AcDbCircle
 10
529.4234113696884
 20
499.4363759860271
 30
0.0
 40
1.0
100
AcDbArc
 50
88.49999999999993
 51
178.4999999999999
  0
LINE
  5
9811
330
18
100
AcDbEntity
  8
1CENTER
100
AcDbLine
 10
434.5425535442455
 20
526.6060375868053
 30
0.0
 11
434.5425535442455
 21
512.02345698672
 31
0.0
  0
CIRCLE
  5
9821
330
18
100
AcDbEntity
  8
1HIDDEN
100
AcDbCircle
 10
-434.5425535442455
 20
518.7595500777543
 30
0.0
 40
2.25
210
0.0
220
0.0
230
-1.0
  0
CIRCLE
  5
9822
330
18
100
AcDbEntity
  8
1HIDDEN
100
AcDbCircle
 10
-404.5425535442455
 20
518.7595500777543
 30
0.0
 40
2.25
210
0.0
220
0.0
230
-1.0
  0
LINE
  5
982B
330
18
100
AcDbEntity
  8
01
100
AcDbLine
 10
-30.4574464557617
 20
491.6595500777535
 30
0.0
 11
-30.4574464557617
 21
540.6587069909269
 31
0.0
  0
LINE
  5
982C
330
18
100
AcDbEntity
  8
01
100
AcDbLine
 10
13.74255354423858
 20
491.1595500777516
 30
0.0
 11
-29.9574464557617
 21
491.1595500777535
 31
0.0
  0
ARC
  5
982D
330
18
100
AcDbEntity
  8
01
100
AcDbCircle
 10
-29.9574464557617
 20
491.6595500777535
 30
0.0
 40
0.5
100
AcDbArc
 50
180.0
 51
270.0
  0
LINE
  5
982E
330
18
100
AcDbEntity
  8
01
100
AcDbLine
 10
13.74255354423858
 20
541.1587069909278
 30
0.0
 11
-29.9574464557617
 21
541.1587069909269
 31
0.0
  0
ARC
  5
982F
330
18
100
AcDbEntity
  8
01
100
AcDbCircle
 10
-29.9574464557617
 20
540.6587069909269
 30
0.0
 40
0.5
100
AcDbArc
 50
90.0
 51
180.0
  0
LINE
  5
9830
330
18
100
AcDbEntity
  8
01
100
AcDbLine
 10
13.74255354423858
 20
541.1587069909278
 30
0.0
 11
13.74255354423858
 21
491.1595500777516
 31
0.0
  0
LINE
  5
983A
330
18
100
AcDbEntity
  8
1CENTER
100
AcDbLine
 10
4.542553544231026
 20
525.8815728612044
 30
0.0
 11
4.542553544231026
 21
512.02345698672
 31
0.0
  0
CIRCLE
  5
9849
330
18
100
AcDbEntity
  8
1HIDDEN
100
AcDbCircle
 10
-4.542553544231026
 20
518.7595500777543
 30
0.0
 40
2.25
210
0.0
220
0.0
230
-1.0
  0
CIRCLE
  5
984A
330
18
100
AcDbEntity
  8
1HIDDEN
100
AcDbCircle
 10
-34.54255354423103
 20
518.7595500777543
 30
0.0
 40
2.25
210
0.0
220
0.0
230
-1.0
  0
LINE
  5
9A29
330
18
100
AcDbEntity
  8
1CENTER
100
AcDbLine
 10
-34.21350816958414
 20
518.7595500777543
 30
0.0
 11
472.9886285418934
 21
518.7595500777543
 31
0.0
  0
LINE
  5
9A2A
330
18
100
AcDbEntity
  8
1CENTER
100
AcDbLine
 10
404.5425535442455
 20
512.02345698672
 30
0.0
 11
404.5425535442455
 21
526.6060375868053
 31
0.0
  0
LINE
  5
9A2B
330
18
100
AcDbEntity
  8
1CENTER
100
AcDbLine
 10
234.5425535442346
 20
512.02345698672
 30
0.0
 11
234.5425535442346
 21
526.6060375868053
 31
0.0
  0
LINE
  5
9A2C
330
18
100
AcDbEntity
  8
1CENTER
100
AcDbLine
 10
204.5425535442346
 20
512.0155404694171
 30
0.0
 11
204.5425535442346
 21
526.5981210695024
 31
0.0
  0
LINE
  5
9A2D
330
18
100
AcDbEntity
  8
1CENTER
100
AcDbLine
 10
34.54255354423103
 20
512.02345698672
 30
0.0
 11
34.54255354423103
 21
526.6060375868053
 31
0.0
  0
LINE
  5
9A76
330
18
100
AcDbEntity
  8
1HATCH
100
AcDbLine
 10
580.3425485442384
 20
568.1598299986113
 30
0.0
 11
580.3425485442384
 21
468.1598299986113
 31
0.0
  0
LINE
  5
9A77
330
18
100
AcDbEntity
  8
1HATCH
100
AcDbLine
 10
589.3425485442385
 20
568.1598299986113
 30
0.0
 11
589.3425485442384
 21
468.1598299986113
 31
0.0
  0
LINE
  5
9A78
330
18
100
AcDbEntity
  8
1HATCH
100
AcDbLine
 10
598.3425485442384
 20
568.1598299986113
 30
0.0
 11
598.3425485442385
 21
468.1598299986113
 31
0.0
  0
LINE
  5
9A8E
330
18
100
AcDbEntity
  8
01
100
AcDbLine
 10
469.5425535442383
 20
639.8383051679905
 30
0.0
 11
469.5425535442382
 21
645.3383051679901
 31
0.0
  0
LINE
  5
9A8F
330
18
100
AcDbEntity
  8
01
100
AcDbLine
 10
-30.4574464557617
 20
639.8383051679905
 30
0.0
 11
-30.4574464557617
 21
645.8383051679906
 31
0.0
  0
LINE
  5
9A90
330
18
100
AcDbEntity
  8
01
100
AcDbLine
 10
424.8425535442436
 20
639.3383051679901
 30
0.0
 11
414.2425535442436
 21
639.3383051679901
 31
0.0
  0
LINE
  5
9B06
330
18
100
AcDbEntity
  8
01
100
AcDbLine
 10
413.7425535442466
 20
648.8383052465715
 30
0.0
 11
225.342553544238
 21
648.8383052465715
 31
0.0
  0
LINE
  5
9B07
330
18
100
AcDbEntity
  8
01
100
AcDbLine
 10
425.342553544238
 20
639.8383051679905
 30
0.0
 11
425.342553544238
 21
645.3383051679901
 31
0.0
  0
LINE
  5
9B08
330
18
100
AcDbEntity
  8
01
100
AcDbLine
 10
413.7425535442466
 20
639.8383051679906
 30
0.0
 11
413.7425535442465
 21
648.8383052465715
 31
0.0
  0
LINE
  5
9B09
330
18
100
AcDbEntity
  8
01
100
AcDbLine
 10
225.342553544238
 20
639.8383051679906
 30
0.0
 11
225.342553544238
 21
648.8383052465715
 31
0.0
  0
LINE
  5
9B0A
330
18
100
AcDbEntity
  8
01
100
AcDbLine
 10
213.7425535442386
 20
639.8383051679905
 30
0.0
 11
213.7425535442386
 21
648.8383052465714
 31
0.0
  0
LINE
  5
9B0B
330
18
100
AcDbEntity
  8
01
100
AcDbLine
 10
25.34255354423121
 20
639.8383051679906
 30
0.0
 11
25.34255354423121
 21
648.8383052465716
 31
0.0
  0
LINE
  5
9B0C
330
18
100
AcDbEntity
  8
01
100
AcDbLine
 10
13.74255354423858
 20
639.8383051679905
 30
0.0
 11
13.74255354423858
 21
645.8383051679905
 31
0.0
  0
LINE
  5
9B0E
330
18
100
AcDbEntity
  8
01
100
AcDbLine
 10
223.7995622473787
 20
639.33830516799
 30
0.0
 11
215.2855448410979
 21
639.3383051679903
 31
0.0
  0
LINE
  5
9B0F
330
18
100
AcDbEntity
  8
01
100
AcDbLine
 10
23.79956224737193
 20
639.3383051679901
 30
0.0
 11
15.28554484109107
 21
639.3383051679901
 31
0.0
  0
LINE
  5
9B10
330
18
100
AcDbEntity
  8
01
100
AcDbLine
 10
459.5425535442382
 20
651.3383051679905
 30
0.0
 11
-20.4574464557617
 21
651.3383051679905
 31
0.0
  0
LINE
  5
9B11
330
18
100
AcDbEntity
  8
01
100
AcDbLine
 10
459.5425535442382
 20
645.3383051679901
 30
0.0
 11
459.5425535442382
 21
651.3383051679905
 31
0.0
  0
LINE
  5
9B12
330
18
100
AcDbEntity
  8
01
100
AcDbLine
 10
469.5425535442382
 20
645.3383051679901
 30
0.0
 11
424.8425535442379
 21
645.3383051679901
 31
0.0
  0
LINE
  5
9B13
330
18
100
AcDbEntity
  8
01
100
AcDbLine
 10
469.5425535442383
 20
639.8383051679905
 30
0.0
 11
425.342553544238
 21
639.8383051679905
 31
0.0
  0
LINE
  5
9B14
330
18
100
AcDbEntity
  8
01
100
AcDbLine
 10
413.7425535442466
 20
639.8383051679906
 30
0.0
 11
225.342553544238
 21
639.8383051679906
 31
0.0
  0
LINE
  5
9B15
330
18
100
AcDbEntity
  8
01
100
AcDbLine
 10
213.7425535442386
 20
639.8383051679905
 30
0.0
 11
25.34255354423121
 21
639.8383051679906
 31
0.0
  0
LINE
  5
9B16
330
18
100
AcDbEntity
  8
01
100
AcDbLine
 10
13.74255354423858
 20
639.8383051679905
 30
0.0
 11
-30.4574464557617
 21
639.8383051679905
 31
0.0
  0
LINE
  5
9B17
330
18
100
AcDbEntity
  8
01
100
AcDbLine
 10
413.7425535442465
 20
645.8383051679906
 30
0.0
 11
225.342553544238
 21
645.8383051679907
 31
0.0
  0
LINE
  5
9B18
330
18
100
AcDbEntity
  8
01
100
AcDbLine
 10
213.7425535442386
 20
645.8383051679904
 30
0.0
 11
25.34255354423121
 21
645.8383051679905
 31
0.0
  0
LINE
  5
9B19
330
18
100
AcDbEntity
  8
01
100
AcDbLine
 10
14.24255354423858
 20
645.8383051679904
 30
0.0
 11
-30.4574464557617
 21
645.8383051679906
 31
0.0
  0
LINE
  5
9B1A
330
18
100
AcDbEntity
  8
01
100
AcDbLine
 10
213.7425535442386
 20
648.8383052465714
 30
0.0
 11
25.34255354423121
 21
648.8383052465716
 31
0.0
  0
LINE
  5
9B27
330
18
100
AcDbEntity
  8
01
100
AcDbLine
 10
414.2425535442432
 20
648.8383052465714
 30
0.0
 11
424.842553544238
 21
648.8383052465716
 31
0.0
  0
LINE
  5
9B28
330
18
100
AcDbEntity
  8
01
100
AcDbLine
 10
223.4837727729979
 20
648.8383052465714
 30
0.0
 11
215.6013343154787
 21
648.8383052465715
 31
0.0
  0
LINE
  5
9B29
330
18
100
AcDbEntity
  8
01
100
AcDbLine
 10
15.60133431547183
 20
648.8383052465717
 30
0.0
 11
23.48377277299116
 21
648.8383052465714
 31
0.0
  0
LINE
  5
9B2A
330
18
100
AcDbEntity
  8
01
100
AcDbLine
 10
-20.4574464557617
 20
645.8383051679906
 30
0.0
 11
-20.4574464557617
 21
651.3383051679905
 31
0.0
  0
LINE
  5
9B2F
330
18
100
AcDbEntity
  8
01
100
AcDbLine
 10
214.2864300907865
 20
640.380373157129
 30
0.0
 11
214.6022195651672
 21
647.8803732357103
 31
0.0
  0
LINE
  5
9B30
330
18
100
AcDbEntity
  8
01
100
AcDbLine
 10
224.7986769976901
 20
640.3803731571289
 30
0.0
 11
224.4828875233093
 21
647.8803732357102
 31
0.0
  0
LINE
  5
9B31
330
18
100
AcDbEntity
  8
01
100
AcDbLine
 10
14.28643009077967
 20
640.3803731571289
 30
0.0
 11
14.60221956516039
 21
647.8803732357105
 31
0.0
  0
LINE
  5
9B32
330
18
100
AcDbEntity
  8
01
100
AcDbLine
 10
24.79867699768334
 20
640.3803731571289
 30
0.0
 11
24.48288752330253
 21
647.8803732357103
 31
0.0
  0
LINE
  5
9B33
330
18
100
AcDbEntity
  8
01
100
AcDbLine
 10
424.8425535442379
 20
645.3383051679901
 30
0.0
 11
424.8425535442379
 21
651.3383051679905
 31
0.0
  0
LINE
  5
9B34
330
18
100
AcDbEntity
  8
01
100
AcDbLine
 10
14.24255354423858
 20
645.8383051679904
 30
0.0
 11
14.24255354423858
 21
651.3383051679905
 31
0.0
  0
LINE
  5
9B35
330
18
100
AcDbEntity
  8
01
100
AcDbLine
 10
423.842553544245
 20
599.338305246571
 30
0.0
 11
415.2425535442451
 21
599.3383052465709
 31
0.0
  0
LINE
  5
9B36
330
18
100
AcDbEntity
  8
01
100
AcDbLine
 10
423.842553544245
 20
602.838305246571
 30
0.0
 11
415.242553544245
 21
602.8383052465712
 31
0.0
  0
LINE
  5
9B37
330
18
100
AcDbEntity
  8
01
100
AcDbLine
 10
424.8425535442432
 20
648.8383052465715
 30
0.0
 11
424.842553544245
 21
600.338305246571
 31
0.0
  0
LINE
  5
9B38
330
18
100
AcDbEntity
  8
01
100
AcDbLine
 10
414.2425535442433
 20
648.8383052465714
 30
0.0
 11
414.2425535442451
 21
600.3383052465709
 31
0.0
  0
LINE
  5
9B39
330
18
100
AcDbEntity
  8
01
100
AcDbLine
 10
421.2925535442451
 20
641.2383052465711
 30
0.0
 11
417.7925535442451
 21
641.2383052465711
 31
0.0
  0
LINE
  5
9B3A
330
18
100
AcDbEntity
  8
01
100
AcDbLine
 10
421.2925535442451
 20
641.7471528913611
 30
0.0
 11
417.7925535442451
 21
641.7471528913611
 31
0.0
  0
LINE
  5
9B3B
330
18
100
AcDbEntity
  8
01
100
AcDbLine
 10
424.8425535442434
 20
644.08830516799
 30
0.0
 11
414.2425535442434
 21
644.08830516799
 31
0.0
  0
LINE
  5
9B3D
330
18
100
AcDbEntity
  8
01
100
AcDbLine
 10
417.7925535442451
 20
644.08830516799
 30
0.0
 11
417.7925535442451
 21
639.3383051679901
 31
0.0
  0
LINE
  5
9B3E
330
18
100
AcDbEntity
  8
01
100
AcDbLine
 10
421.2925535442451
 20
644.08830516799
 30
0.0
 11
421.2925535442451
 21
639.3383051679901
 31
0.0
  0
LINE
  5
9DB1
330
18
100
AcDbEntity
  8
01
100
AcDbLine
 10
569.342548544238
 20
490.5592700783126
 30
0.0
 11
574.9425486228189
 21
490.5592700783125
 31
0.0
  0
ARC
  5
9DB2
330
18
100
AcDbEntity
  8
01
100
AcDbCircle
 10
569.342548544238
 20
540.7584269914869
 30
0.0
 40
1.0
100
AcDbArc
 50
90.0
 51
180.0
  0
LINE
  5
9DB3
330
18
100
AcDbEntity
  8
01
100
AcDbLine
 10
576.8431536870479
 20
541.7584269914869
 30
0.0
 11
569.342548544238
 21
541.7584269914869
 31
0.0
  0
ARC
  5
9DB4
330
18
100
AcDbEntity
  8
01
100
AcDbCircle
 10
569.342548544238
 20
491.5592700783126
 30
0.0
 40
1.0
100
AcDbArc
 50
180.0
 51
270.0
  0
LINE
  5
9DB5
330
18
100
AcDbEntity
  8
01
100
AcDbLine
 10
568.3425485442381
 20
540.7584269914869
 30
0.0
 11
568.342548544238
 21
491.5592700783126
 31
0.0
  0
LINE
  5
9DB6
330
18
100
AcDbEntity
  8
01
100
AcDbLine
 10
577.8431536870479
 20
540.7584269914869
 30
0.0
 11
577.8431536870481
 21
539.758426991486
 31
0.0
  0
ARC
  5
9DB7
330
18
100
AcDbEntity
  8
01
100
AcDbCircle
 10
576.8431536870479
 20
540.7584269914869
 30
0.0
 40
1.0
100
AcDbArc
 50
0.0
 51
90.0
  0
LINE
  5
9DB8
330
18
100
AcDbEntity
  8
01
100
AcDbLine
 10
574.9425486228189
 20
490.5592700783125
 30
0.0
 11
574.9425486228189
 21
491.6342700493149
 31
0.0
  0
ARC
  5
9DC1
330
18
100
AcDbEntity
  8
01
100
AcDbCircle
 10
576.8425486228185
 20
539.2592699997335
 30
0.0
 40
1.0
100
AcDbArc
 50
306.7893207162778
 51
359.999999999974
  0
LINE
  5
9DC2
330
18
100
AcDbEntity
  8
01
100
AcDbLine
 10
577.8425486228185
 20
539.2592699997335
 30
0.0
 11
577.8425486228194
 21
540.7592699997335
 31
0.0
  0
ARC
  5
9DC3
330
18
100
AcDbEntity
  8
01
100
AcDbCircle
 10
576.8425486228194
 20
540.7592699997335
 30
0.0
 40
1.0
100
AcDbArc
 50
0.0
 51
90.0
  0
LINE
  5
9DCE
330
18
100
AcDbEntity
  8
01
100
AcDbLine
 10
574.3425485442381
 20
538.4584269914869
 30
0.0
 11
580.3425485442384
 21
538.4584269914869
 31
0.0
  0
LINE
  5
9DCF
330
18
100
AcDbEntity
  8
01
100
AcDbLine
 10
574.3425485442382
 20
540.6587069909269
 30
0.0
 11
574.342548544238
 21
491.6595500777536
 31
0.0
  0
LINE
  5
9DD5
330
18
100
AcDbEntity
  8
01
100
AcDbLine
 10
578.0425485442387
 20
539.159270078313
 30
0.0
 11
577.8375360678227
 21
539.159270078313
 31
0.0
  0
LINE
  5
9DDA
330
18
100
AcDbEntity
  8
01
100
AcDbLine
 10
578.5425485442387
 20
538.659270078313
 30
0.0
 11
578.5425485442387
 21
538.4584269914869
 31
0.0
  0
ARC
  5
9DDB
330
18
100
AcDbEntity
  8
01
100
AcDbCircle
 10
578.0425485442387
 20
538.659270078313
 30
0.0
 40
0.5
100
AcDbArc
 50
0.0
 51
89.99999999998697
  0
LINE
  5
9DDF
330
18
100
AcDbEntity
  8
01
100
AcDbLine
 10
574.3425485442381
 20
493.8592700783127
 30
0.0
 11
580.3425485442384
 21
493.8592700783126
 31
0.0
  0
LINE
  5
9DE3
330
18
100
AcDbEntity
  8
01
100
AcDbLine
 10
569.3425485442384
 20
541.1587069909269
 30
0.0
 11
573.8425485442382
 21
541.1587069909269
 31
0.0
  0
LINE
  5
9DE4
330
18
100
AcDbEntity
  8
01
100
AcDbLine
 10
569.3425485442384
 20
491.1595500777535
 30
0.0
 11
573.842548544238
 21
491.1595500777536
 31
0.0
  0
LINE
  5
9DE5
330
18
100
AcDbEntity
  8
01
100
AcDbLine
 10
568.8425485442384
 20
540.6587069909269
 30
0.0
 11
568.8425485442384
 21
491.6595500777535
 31
0.0
  0
ARC
  5
9DE6
330
18
100
AcDbEntity
  8
01
100
AcDbCircle
 10
569.3425485442384
 20
540.6587069909269
 30
0.0
 40
0.5
100
AcDbArc
 50
90.0
 51
180.0
  0
ARC
  5
9DE7
330
18
100
AcDbEntity
  8
01
100
AcDbCircle
 10
573.8425485442382
 20
540.6587069909269
 30
0.0
 40
0.5
100
AcDbArc
 50
359.9999999999999
 51
90.0
  0
ARC
  5
9DE8
330
18
100
AcDbEntity
  8
01
100
AcDbCircle
 10
569.3425485442384
 20
491.6595500777535
 30
0.0
 40
0.5
100
AcDbArc
 50
180.0
 51
270.0
  0
ARC
  5
9DE9
330
18
100
AcDbEntity
  8
01
100
AcDbCircle
 10
573.842548544238
 20
491.6595500777536
 30
0.0
 40
0.5
100
AcDbArc
 50
269.9999999999999
 51
359.9999999999998
  0
LINE
  5
9DEA
330
18
100
AcDbEntity
  8
01
100
AcDbLine
 10
574.3419090553409
 20
491.6342700493149
 30
0.0
 11
574.9425486228189
 21
491.6342700493149
 31
0.0
  0
LINE
  5
9DEB
330
18
100
AcDbEntity
  8
01
100
AcDbLine
 10
25.34255354423121
 20
541.1595500777557
 30
0.0
 11
25.34255354423121
 21
491.1595500777557
 31
0.0
  0
LINE
  5
9DEC
330
18
100
AcDbEntity
  8
01
100
AcDbLine
 10
213.7425535442385
 20
541.1595500777557
 30
0.0
 11
213.7425535442381
 21
491.1595500777557
 31
0.0
  0
LINE
  5
9DED
330
18
100
AcDbEntity
  8
01
100
AcDbLine
 10
225.342553544238
 20
541.1587069909274
 30
0.0
 11
225.342553544238
 21
491.1587069909274
 31
0.0
  0
LINE
  5
9DEE
330
18
100
AcDbEntity
  8
01
100
AcDbLine
 10
413.7425535442465
 20
541.1587069909274
 30
0.0
 11
413.7425535442456
 21
491.1587069909274
 31
0.0
  0
ARC
  5
9DEF
330
18
100
AcDbEntity
  8
01
100
AcDbCircle
 10
223.7995622473787
 20
640.3383051679901
 30
0.0
 40
1.0
100
AcDbArc
 50
269.9999999999984
 51
2.411029726691587
  0
ARC
  5
9DF0
330
18
100
AcDbEntity
  8
01
100
AcDbCircle
 10
215.2855448410979
 20
640.3383051679903
 30
0.0
 40
1.0
100
AcDbArc
 50
177.5889702733089
 51
269.9999999999984
  0
ARC
  5
9DF1
330
18
100
AcDbEntity
  8
01
100
AcDbCircle
 10
23.79956224737193
 20
640.3383051679901
 30
0.0
 40
1.0
100
AcDbArc
 50
270.0
 51
2.411029726691639
  0
ARC
  5
9DF2
330
18
100
AcDbEntity
  8
01
100
AcDbCircle
 10
15.28554484109107
 20
640.3383051679901
 30
0.0
 40
1.0
100
AcDbArc
 50
177.5889702733091
 51
270.0
  0
ARC
  5
9DF3
330
18
100
AcDbEntity
  8
01
100
AcDbCircle
 10
15.60133431547179
 20
647.8383052465717
 30
0.0
 40
1.0
100
AcDbArc
 50
89.99999999999746
 51
177.5889702733091
  0
ARC
  5
9DF4
330
18
100
AcDbEntity
  8
01
100
AcDbCircle
 10
23.48377277299113
 20
647.8383052465715
 30
0.0
 40
1.0
100
AcDbArc
 50
2.411029726691639
 51
89.99999999999817
  0
ARC
  5
9DF5
330
18
100
AcDbEntity
  8
01
100
AcDbCircle
 10
215.6013343154786
 20
647.8383052465715
 30
0.0
 40
1.0
100
AcDbArc
 50
89.99999999999837
 51
177.5889702733093
  0
ARC
  5
9DF6
330
18
100
AcDbEntity
  8
01
100
AcDbCircle
 10
223.4837727729979
 20
647.8383052465714
 30
0.0
 40
1.0
100
AcDbArc
 50
2.411029726691587
 51
89.99999999999837
  0
ARC
  5
9DF7
330
18
100
AcDbEntity
  8
01
100
AcDbCircle
 10
415.242553544245
 20
601.8383052465712
 30
0.0
 40
1.0
100
AcDbArc
 50
90.0
 51
180.0
  0
ARC
  5
9DF8
330
18
100
AcDbEntity
  8
01
100
AcDbCircle
 10
423.842553544245
 20
601.838305246571
 30
0.0
 40
1.0
100
AcDbArc
 50
359.9999999999999
 51
90.0
  0
ARC
  5
9DF9
330
18
100
AcDbEntity
  8
01
100
AcDbCircle
 10
423.842553544245
 20
600.338305246571
 30
0.0
 40
1.0
100
AcDbArc
 50
270.0
 51
0.0000000000013231
  0
ARC
  5
9DFA
330
18
100
AcDbEntity
  8
01
100
AcDbCircle
 10
415.2425535442451
 20
600.3383052465709
 30
0.0
 40
1.0
100
AcDbArc
 50
180.0
 51
270.0
  0
TEXT
  5
A294
330
18
100
AcDbEntity
  8
1TEXT
100
AcDbText
 10
-13.99501260403926
 20
733.3742595279081
 30
0.0
 40
8.0
  1
表面処理：
 72
     1
 11
7.604987395960734
 21
733.3742595279081
 31
0.0
100
AcDbText
  0
TEXT
  5
A295
330
18
100
AcDbEntity
  8
1TEXT
100
AcDbText
 10
-10.79501260403927
 20
719.7036822088593
 30
0.0
 40
8.0
  1
シルバー
 72
     1
 11
7.604987395960734
 21
719.7036822088593
 31
0.0
100
AcDbText
  0
LINE
  5
A296
330
18
100
AcDbEntity
  8
1DIM
100
AcDbLine
 10
-27.19501260403945
 20
744.3742595279081
 30
0.0
 11
112.8049873959606
 21
744.3742595279081
 31
0.0
  0
LINE
  5
A297
330
18
100
AcDbEntity
  8
1DIM
100
AcDbLine
 10
-27.19501260403945
 20
716.3742595279081
 30
0.0
 11
112.8049873959606
 21
716.3742595279081
 31
0.0
  0
LINE
  5
A298
330
18
100
AcDbEntity
  8
1DIM
100
AcDbLine
 10
-27.19501260403945
 20
730.3742595279081
 30
0.0
 11
112.8049873959606
 21
730.3742595279081
 31
0.0
  0
LINE
  5
A299
330
18
100
AcDbEntity
  8
1DIM
100
AcDbLine
 10
42.80498739596055
 20
744.3742595279081
 30
0.0
 11
42.80498739595979
 21
688.3742595279072
 31
0.0
  0
TEXT
  5
A29A
330
18
100
AcDbEntity
  8
1TEXT
100
AcDbText
 10
46.40498739596164
 20
718.9455455606093
 30
0.0
 40
8.0
  1
AC-822-BC
 41
0.9
 72
     1
 11
77.60498739596164
 21
718.9455455606093
 31
0.0
100
AcDbText
  0
TEXT
  5
A29B
330
18
100
AcDbEntity
  8
1TEXT
100
AcDbText
 10
63.8716540626274
 20
733.3742595279081
 30
0.0
 40
8.0
  1
コード
 72
     1
 11
77.60498739596073
 21
733.3742595279081
 31
0.0
100
AcDbText
  0
LINE
  5
A29C
330
18
100
AcDbEntity
  8
1DIM
100
AcDbLine
 10
-27.1950126040399
 20
688.3742595279081
 30
0.0
 11
-27.19501260403945
 21
744.3742595279081
 31
0.0
  0
LINE
  5
A29D
330
18
100
AcDbEntity
  8
1DIM
100
AcDbLine
 10
112.8049873959601
 20
688.3742595279065
 30
0.0
 11
112.8049873959606
 21
744.3742595279081
 31
0.0
  0
TEXT
  5
A29E
330
18
100
AcDbEntity
  8
1TEXT
100
AcDbText
 10
-27.19501260403945
 20
754.3742595279081
 30
0.0
 40
16.0
  1
AC-822-X
100
AcDbText
  0
TEXT
  5
A29F
330
18
100
AcDbEntity
  8
1TEXT
100
AcDbText
 10
-10.26167927070616
 20
705.7036822088593
 30
0.0
 40
8.0
  1
ホワイト
 72
     1
 11
7.604987395960507
 21
705.7036822088593
 31
0.0
100
AcDbText
  0
LINE
  5
A2A0
330
18
100
AcDbEntity
  8
1DIM
100
AcDbLine
 10
-27.19501260403968
 20
702.3742595279081
 30
0.0
 11
112.8049873959603
 21
702.3742595279081
 31
0.0
  0
TEXT
  5
A2A1
330
18
100
AcDbEntity
  8
1TEXT
100
AcDbText
 10
46.40498739596141
 20
704.9455455606093
 30
0.0
 40
8.0
  1
AC-822-SC
 41
0.9
 72
     1
 11
77.60498739596142
 21
704.9455455606093
 31
0.0
100
AcDbText
  0
TEXT
  5
A3BB
330
18
100
AcDbEntity
  8
1TEXT
100
AcDbText
 10
-24.79501260403926
 20
691.7036822088593
 30
0.0
 40
8.0
  1
ダークアンバー
 72
     1
 11
7.604987395960734
 21
691.7036822088593
 31
0.0
100
AcDbText
  0
LINE
  5
A3BC
330
18
100
AcDbEntity
  8
1DIM
100
AcDbLine
 10
-27.19501260403945
 20
688.3742595279081
 30
0.0
 11
112.8049873959606
 21
688.3742595279081
 31
0.0
  0
TEXT
  5
A3BD
330
18
100
AcDbEntity
  8
1TEXT
100
AcDbText
 10
46.67165406262831
 20
690.9455455606093
 30
0.0
 40
8.0
  1
AC-822-4QC
 41
0.8
 72
     1
 11
77.60498739596164
 21
690.9455455606093
 31
0.0
100
AcDbText
  0
LINE
  5
A7EF
330
18
100
AcDbEntity
  8
1PHANTOM
100
AcDbLine
 10
451.5425535442455
 20
648.5383051679905
 30
0.0
 11
436.0425535442455
 21
648.5383051679906
 31
0.0
  0
LINE
  5
A7F0
330
18
100
AcDbEntity
  8
1PHANTOM
100
AcDbLine
 10
403.042553544245
 20
648.5383051679906
 30
0.0
 11
236.0425535442386
 21
648.5383051679905
 31
0.0
  0
LINE
  5
A7F1
330
18
100
AcDbEntity
  8
1PHANTOM
100
AcDbLine
 10
436.0425535442455
 20
646.0383051679905
 30
0.0
 11
424.8425535442379
 21
646.0383051679905
 31
0.0
  0
LINE
  5
A7F2
330
18
100
AcDbEntity
  8
1PHANTOM
100
AcDbLine
 10
414.2425535442434
 20
646.0383051679905
 30
0.0
 11
403.042553544245
 21
646.0383051679905
 31
0.0
  0
LINE
  5
A7F3
330
18
100
AcDbEntity
  8
1PHANTOM
100
AcDbLine
 10
451.5425535442455
 20
648.5383051679905
 30
0.0
 11
451.5425535442455
 21
651.3383051679905
 31
0.0
  0
LINE
  5
A7F4
330
18
100
AcDbEntity
  8
1PHANTOM
100
AcDbLine
 10
436.0425535442455
 20
646.0383051679905
 30
0.0
 11
436.0425535442455
 21
648.5383051679905
 31
0.0
  0
LINE
  5
A7F5
330
18
100
AcDbEntity
  8
1PHANTOM
100
AcDbLine
 10
403.042553544245
 20
646.0383051679905
 30
0.0
 11
403.042553544245
 21
648.5383051679906
 31
0.0
  0
LINE
  5
A7F6
330
18
100
AcDbEntity
  8
1PHANTOM
100
AcDbLine
 10
3.042553544234124
 20
648.5383051679905
 30
0.0
 11
-12.45744645576906
 21
648.5383051679905
 31
0.0
  0
LINE
  5
A7F7
330
18
100
AcDbEntity
  8
1PHANTOM
100
AcDbLine
 10
-12.45744645576906
 20
648.5383051679905
 30
0.0
 11
-12.45744645576906
 21
651.3383051679905
 31
0.0
  0
LINE
  5
A7F8
330
18
100
AcDbEntity
  8
1PHANTOM
100
AcDbLine
 10
36.04255354423503
 20
646.0383051679905
 30
0.0
 11
36.04255354423503
 21
648.5383051679905
 31
0.0
  0
LINE
  5
A7F9
330
18
100
AcDbEntity
  8
1PHANTOM
100
AcDbLine
 10
3.042553544234124
 20
646.0383051679905
 30
0.0
 11
3.042553544234124
 21
648.5383051679905
 31
0.0
  0
LINE
  5
A7FA
330
18
100
AcDbEntity
  8
1PHANTOM
100
AcDbLine
 10
36.04255354423503
 20
646.0383051679905
 30
0.0
 11
24.56044828340703
 21
646.0383051679904
 31
0.0
  0
LINE
  5
A7FB
330
18
100
AcDbEntity
  8
1PHANTOM
100
AcDbLine
 10
14.52465880505576
 20
646.0383051679904
 30
0.0
 11
3.042553544234124
 21
646.0383051679905
 31
0.0
  0
LINE
  5
A7FE
330
18
100
AcDbEntity
  8
1PHANTOM
100
AcDbLine
 10
236.0425535442386
 20
646.0383051679905
 30
0.0
 11
236.0425535442386
 21
648.5383051679905
 31
0.0
  0
LINE
  5
A7FF
330
18
100
AcDbEntity
  8
1PHANTOM
100
AcDbLine
 10
203.0425535442377
 20
646.0383051679905
 30
0.0
 11
203.0425535442377
 21
648.5383051679905
 31
0.0
  0
LINE
  5
A800
330
18
100
AcDbEntity
  8
1PHANTOM
100
AcDbLine
 10
236.0425535442386
 20
646.0383051679905
 30
0.0
 11
224.5604482834106
 21
646.0383051679904
 31
0.0
  0
LINE
  5
A801
330
18
100
AcDbEntity
  8
1PHANTOM
100
AcDbLine
 10
214.5246588050594
 20
646.0383051679904
 30
0.0
 11
203.0425535442377
 21
646.0383051679905
 31
0.0
  0
LINE
  5
A802
330
18
100
AcDbEntity
  8
1PHANTOM
100
AcDbLine
 10
203.0425535442378
 20
648.5383051679905
 30
0.0
 11
36.04255354423503
 21
648.5383051679904
 31
0.0
  0
LINE
  5
A972
330
18
100
AcDbEntity
  8
1PHANTOM
100
AcDbLine
 10
575.0425485442378
 20
527.5005104741858
 30
0.0
 11
575.0425485442382
 21
510.0005104741867
 31
0.0
  0
LINE
  5
A973
330
18
100
AcDbEntity
  8
1PHANTOM
100
AcDbLine
 10
578.5425485442385
 20
530.1592700783121
 30
0.0
 11
578.0425485442385
 21
530.1592700783117
 31
0.0
  0
ARC
  5
A974
330
18
100
AcDbEntity
  8
1PHANTOM
100
AcDbCircle
 10
578.0425485442382
 20
529.6592700783117
 30
0.0
 40
0.5
100
AcDbArc
 50
89.99999999997394
 51
180.0
  0
LINE
  5
A975
330
18
100
AcDbEntity
  8
1PHANTOM
100
AcDbLine
 10
578.5425485442385
 20
528.6592700783121
 30
0.0
 11
578.5425485442385
 21
530.1592700783121
 31
0.0
  0
LINE
  5
A976
330
18
100
AcDbEntity
  8
1PHANTOM
100
AcDbLine
 10
580.3425485442384
 20
528.6592700783121
 30
0.0
 11
578.5425485442385
 21
528.6592700783121
 31
0.0
  0
LINE
  5
A977
330
18
100
AcDbEntity
  8
1PHANTOM
100
AcDbLine
 10
578.0425485442385
 20
502.1592700783121
 30
0.0
 11
578.5425485442385
 21
502.1592700783121
 31
0.0
  0
ARC
  5
A978
330
18
100
AcDbEntity
  8
1PHANTOM
100
AcDbCircle
 10
578.0425485442385
 20
502.6592700783121
 30
0.0
 40
0.5
100
AcDbArc
 50
180.0
 51
270.0
  0
LINE
  5
A979
330
18
100
AcDbEntity
  8
1PHANTOM
100
AcDbLine
 10
578.5425485442385
 20
503.6592700783121
 30
0.0
 11
580.3425485442384
 21
503.6592700783125
 31
0.0
  0
LINE
  5
A97A
330
18
100
AcDbEntity
  8
1PHANTOM
100
AcDbLine
 10
578.5425485442385
 20
502.1592700783121
 30
0.0
 11
578.5425485442385
 21
503.6592700783121
 31
0.0
  0
LINE
  5
A97B
330
18
100
AcDbEntity
  8
1PHANTOM
100
AcDbLine
 10
575.0425485442378
 20
527.5005104741858
 30
0.0
 11
577.5425485442385
 21
527.5005104741858
 31
0.0
  0
LINE
  5
A97C
330
18
100
AcDbEntity
  8
1PHANTOM
100
AcDbLine
 10
575.0425485442382
 20
510.0005104741867
 30
0.0
 11
577.5425485442389
 21
510.0005104741867
 31
0.0
  0
LINE
  5
A97D
330
18
100
AcDbEntity
  8
1PHANTOM
100
AcDbLine
 10
577.5425485442385
 20
527.5005104741858
 30
0.0
 11
577.5425485442385
 21
529.6592700783117
 31
0.0
  0
LINE
  5
A97E
330
18
100
AcDbEntity
  8
1PHANTOM
100
AcDbLine
 10
577.5425485442389
 20
510.0005104741867
 30
0.0
 11
577.5425485442389
 21
502.6592700783121
 31
0.0
  0
LINE
  5
B4B9
330
18
100
AcDbEntity
  8
1CENTER
100
AcDbLine
 10
611.7970462472567
 20
518.7595499991712
 30
0.0
 11
573.963913199882
 21
518.7595499991712
 31
0.0
  0
LINE
  5
B4BA
330
18
100
AcDbEntity
  8
01
100
AcDbLine
 10
603.142553546596
 20
520.2595034632733
 30
0.0
 11
603.2425547099931
 21
520.7595034632733
 31
0.0
  0
LINE
  5
B4BB
330
18
100
AcDbEntity
  8
01
100
AcDbLine
 10
603.2425547099931
 20
520.7595034632733
 30
0.0
 11
604.0425454028157
 21
516.7595034632733
 31
0.0
  0
LINE
  5
B4BC
330
18
100
AcDbEntity
  8
01
100
AcDbLine
 10
604.0425454028157
 20
516.7595034632733
 30
0.0
 11
604.1425465662128
 21
517.2595034632733
 31
0.0
  0
LINE
  5
B4BD
330
18
100
AcDbEntity
  8
01
100
AcDbLine
 10
601.5425535465959
 20
520.2595034632733
 30
0.0
 11
601.642554709993
 21
520.7595034632733
 31
0.0
  0
LINE
  5
B4BE
330
18
100
AcDbEntity
  8
01
100
AcDbLine
 10
602.4425454028155
 20
516.7595034632733
 30
0.0
 11
602.5425465662126
 21
517.2595034632733
 31
0.0
  0
LINE
  5
B4BF
330
18
100
AcDbEntity
  8
01
100
AcDbLine
 10
601.642554709993
 20
520.7595034632733
 30
0.0
 11
602.4425454028155
 21
516.7595034632733
 31
0.0
  0
LINE
  5
B4C0
330
18
100
AcDbEntity
  8
01
100
AcDbLine
 10
599.942553546596
 20
520.2595034632733
 30
0.0
 11
600.042554709993
 21
520.7595034632733
 31
0.0
  0
LINE
  5
B4C1
330
18
100
AcDbEntity
  8
01
100
AcDbLine
 10
600.042554709993
 20
520.7595034632733
 30
0.0
 11
600.8425454028156
 21
516.7595034632733
 31
0.0
  0
LINE
  5
B4C2
330
18
100
AcDbEntity
  8
01
100
AcDbLine
 10
600.8425454028156
 20
516.7595034632733
 30
0.0
 11
600.9425465662127
 21
517.2595034632733
 31
0.0
  0
LINE
  5
B4C3
330
18
100
AcDbEntity
  8
01
100
AcDbLine
 10
591.9425535465957
 20
520.2595034632733
 30
0.0
 11
592.0425547099928
 21
520.7595034632733
 31
0.0
  0
LINE
  5
B4C4
330
18
100
AcDbEntity
  8
01
100
AcDbLine
 10
592.8425454028154
 20
516.7595034632733
 30
0.0
 11
592.9425465662127
 21
517.2595034632733
 31
0.0
  0
LINE
  5
B4C5
330
18
100
AcDbEntity
  8
01
100
AcDbLine
 10
594.4425454028155
 20
516.7595034632733
 30
0.0
 11
594.5425465662126
 21
517.2595034632733
 31
0.0
  0
LINE
  5
B4C6
330
18
100
AcDbEntity
  8
01
100
AcDbLine
 10
593.5425535465959
 20
520.2595034632733
 30
0.0
 11
593.642554709993
 21
520.7595034632733
 31
0.0
  0
LINE
  5
B4C7
330
18
100
AcDbEntity
  8
01
100
AcDbLine
 10
595.1425535465958
 20
520.2595034632733
 30
0.0
 11
595.2425547099929
 21
520.7595034632733
 31
0.0
  0
LINE
  5
B4C8
330
18
100
AcDbEntity
  8
01
100
AcDbLine
 10
593.642554709993
 20
520.7595034632733
 30
0.0
 11
594.4425454028155
 21
516.7595034632733
 31
0.0
  0
LINE
  5
B4C9
330
18
100
AcDbEntity
  8
01
100
AcDbLine
 10
592.0425547099928
 20
520.7595034632733
 30
0.0
 11
592.8425454028154
 21
516.7595034632733
 31
0.0
  0
LINE
  5
B4CA
330
18
100
AcDbEntity
  8
01
100
AcDbLine
 10
596.7425535465957
 20
520.2595034632733
 30
0.0
 11
596.842554709993
 21
520.7595034632733
 31
0.0
  0
LINE
  5
B4CB
330
18
100
AcDbEntity
  8
01
100
AcDbLine
 10
604.9425535465957
 20
520.2595034632733
 30
0.0
 11
605.0425547099928
 21
520.7595034632733
 31
0.0
  0
LINE
  5
B4CC
330
18
100
AcDbEntity
  8
01
100
AcDbLine
 10
605.0425547099928
 20
520.7595034632733
 30
0.0
 11
605.8425459296182
 21
516.9859105154773
 31
0.0
  0
LINE
  5
B4CD
330
18
100
AcDbEntity
  8
01
100
AcDbLine
 10
605.8425459296182
 20
516.9859105154773
 30
0.0
 11
605.971816627248
 21
517.5225042507484
 31
0.0
  0
LINE
  5
B4CE
330
18
100
AcDbEntity
  8
01
100
AcDbLine
 10
597.6425454028156
 20
516.7595034632733
 30
0.0
 11
597.7425465662125
 21
517.2595034632733
 31
0.0
  0
LINE
  5
B4CF
330
18
100
AcDbEntity
  8
01
100
AcDbLine
 10
599.2425454028155
 20
516.7595034632733
 30
0.0
 11
599.3425465662126
 21
517.2595034632733
 31
0.0
  0
LINE
  5
B4D0
330
18
100
AcDbEntity
  8
01
100
AcDbLine
 10
598.3425535465958
 20
520.2595034632733
 30
0.0
 11
598.4425547099929
 21
520.7595034632733
 31
0.0
  0
LINE
  5
B4D1
330
18
100
AcDbEntity
  8
01
100
AcDbLine
 10
598.4425547099929
 20
520.7595034632733
 30
0.0
 11
599.2425454028155
 21
516.7595034632733
 31
0.0
  0
LINE
  5
B4D2
330
18
100
AcDbEntity
  8
01
100
AcDbLine
 10
596.842554709993
 20
520.7595034632733
 30
0.0
 11
597.6425454028156
 21
516.7595034632733
 31
0.0
  0
LINE
  5
B4D3
330
18
100
AcDbEntity
  8
01
100
AcDbLine
 10
606.6425536563827
 20
520.3066873212146
 30
0.0
 11
607.4425469832238
 21
517.438724619884
 31
0.0
  0
LINE
  5
B4D4
330
18
100
AcDbEntity
  8
01
100
AcDbLine
 10
608.2425526027785
 20
519.8538738131663
 30
0.0
 11
609.0425480368294
 21
517.8915387242909
 31
0.0
  0
LINE
  5
B4D5
330
18
100
AcDbEntity
  8
01
100
AcDbLine
 10
607.4425469832238
 20
517.438724619884
 30
0.0
 11
607.6253111258518
 21
517.9904740836873
 31
0.0
  0
LINE
  5
B4D6
330
18
100
AcDbEntity
  8
01
100
AcDbLine
 10
608.091116806338
 20
519.3967019725352
 30
0.0
 11
608.2425526027785
 21
519.8538738131663
 31
0.0
  0
LINE
  5
B4D7
330
18
100
AcDbEntity
  8
01
100
AcDbLine
 10
609.0425480368294
 20
517.8915387242909
 30
0.0
 11
609.3543178930815
 21
518.4798152993333
 31
0.0
  0
LINE
  5
B4D8
330
18
100
AcDbEntity
  8
01
100
AcDbLine
 10
606.5297841440326
 20
519.8385888660646
 30
0.0
 11
606.6425536563827
 21
520.3066873212146
 31
0.0
  0
LINE
  5
B4D9
330
18
100
AcDbEntity
  8
01
100
AcDbLine
 10
596.0425454028154
 20
516.7595034632733
 30
0.0
 11
596.1425465662128
 21
517.2595034632733
 31
0.0
  0
LINE
  5
B4DA
330
18
100
AcDbEntity
  8
01
100
AcDbLine
 10
595.2425547099929
 20
520.7595034632733
 30
0.0
 11
596.0425454028154
 21
516.7595034632733
 31
0.0
  0
LINE
  5
B4DB
330
18
100
AcDbEntity
  8
01
100
AcDbLine
 10
578.3425465661958
 20
517.2595034632733
 30
0.0
 11
578.442545402798
 21
516.7595034632733
 31
0.0
  0
LINE
  5
B4DC
330
18
100
AcDbEntity
  8
01
100
AcDbLine
 10
579.2425547099842
 20
520.7595034632733
 30
0.0
 11
580.0425454028025
 21
516.7595034632733
 31
0.0
  0
LINE
  5
B4DD
330
18
100
AcDbEntity
  8
01
100
AcDbLine
 10
582.4425547099843
 20
520.7595034632733
 30
0.0
 11
583.2425454028025
 21
516.7595034632733
 31
0.0
  0
LINE
  5
B4DE
330
18
100
AcDbEntity
  8
01
100
AcDbLine
 10
583.2425454028025
 20
516.7595034632733
 30
0.0
 11
583.3425465662001
 21
517.2595034632733
 31
0.0
  0
LINE
  5
B4DF
330
18
100
AcDbEntity
  8
01
100
AcDbLine
 10
580.0425454028025
 20
516.7595034632733
 30
0.0
 11
580.1425465662
 21
517.2595034632733
 31
0.0
  0
LINE
  5
B4E0
330
18
100
AcDbEntity
  8
01
100
AcDbLine
 10
580.7425535465864
 20
520.2595034632733
 30
0.0
 11
580.8425547099841
 21
520.7595034632733
 31
0.0
  0
LINE
  5
B4E1
330
18
100
AcDbEntity
  8
01
100
AcDbLine
 10
581.6425454028024
 20
516.7595034632733
 30
0.0
 11
581.7425465662
 21
517.2595034632733
 31
0.0
  0
LINE
  5
B4E2
330
18
100
AcDbEntity
  8
01
100
AcDbLine
 10
580.8425547099841
 20
520.7595034632733
 30
0.0
 11
581.6425454028024
 21
516.7595034632733
 31
0.0
  0
LINE
  5
B4E3
330
18
100
AcDbEntity
  8
01
100
AcDbLine
 10
582.3425535465865
 20
520.2595034632733
 30
0.0
 11
582.4425547099843
 21
520.7595034632733
 31
0.0
  0
LINE
  5
B4E4
330
18
100
AcDbEntity
  8
01
100
AcDbLine
 10
578.442545402798
 20
516.7595034632733
 30
0.0
 11
578.5425465661958
 21
517.2595034632733
 31
0.0
  0
LINE
  5
B4E5
330
18
100
AcDbEntity
  8
01
100
AcDbLine
 10
579.1425535465864
 20
520.2595034632733
 30
0.0
 11
579.2425547099842
 21
520.7595034632733
 31
0.0
  0
LINE
  5
B4E6
330
18
100
AcDbEntity
  8
01
100
AcDbLine
 10
575.6425593637994
 20
522.7595499991712
 30
0.0
 11
575.6425407494402
 21
514.7595499991712
 31
0.0
  0
LINE
  5
B4E7
330
18
100
AcDbEntity
  8
01
100
AcDbLine
 10
583.942553546591
 20
520.2595034632733
 30
0.0
 11
584.0425547099885
 21
520.7595034632733
 31
0.0
  0
LINE
  5
B4E8
330
18
100
AcDbEntity
  8
01
100
AcDbLine
 10
585.5425535465952
 20
520.2595034632733
 30
0.0
 11
585.642554709993
 21
520.7595034632733
 31
0.0
  0
LINE
  5
B4E9
330
18
100
AcDbEntity
  8
01
100
AcDbLine
 10
584.8425454028068
 20
516.7595034632733
 30
0.0
 11
584.9425465662046
 21
517.2595034632733
 31
0.0
  0
LINE
  5
B4EA
330
18
100
AcDbEntity
  8
01
100
AcDbLine
 10
588.7425535465952
 20
520.2595034632733
 30
0.0
 11
588.842554709993
 21
520.7595034632733
 31
0.0
  0
LINE
  5
B4EB
330
18
100
AcDbEntity
  8
01
100
AcDbLine
 10
587.2425547099929
 20
520.7595034632733
 30
0.0
 11
588.0425454028111
 21
516.7595034632733
 31
0.0
  0
LINE
  5
B4EC
330
18
100
AcDbEntity
  8
01
100
AcDbLine
 10
588.0425454028111
 20
516.7595034632733
 30
0.0
 11
588.1425465662087
 21
517.2595034632733
 31
0.0
  0
LINE
  5
B4ED
330
18
100
AcDbEntity
  8
01
100
AcDbLine
 10
587.1425535465951
 20
520.2595034632733
 30
0.0
 11
587.2425547099929
 21
520.7595034632733
 31
0.0
  0
LINE
  5
B4EE
330
18
100
AcDbEntity
  8
01
100
AcDbLine
 10
586.4425454028112
 20
516.7595034632733
 30
0.0
 11
586.5425465662088
 21
517.2595034632733
 31
0.0
  0
LINE
  5
B4EF
330
18
100
AcDbEntity
  8
01
100
AcDbLine
 10
591.2425454028155
 20
516.7595034632733
 30
0.0
 11
591.3425465662126
 21
517.2595034632733
 31
0.0
  0
LINE
  5
B4F0
330
18
100
AcDbEntity
  8
01
100
AcDbLine
 10
589.6425454028113
 20
516.7595034632733
 30
0.0
 11
589.7425465662088
 21
517.2595034632733
 31
0.0
  0
LINE
  5
B4F1
330
18
100
AcDbEntity
  8
01
100
AcDbLine
 10
590.3425535465951
 20
520.2595034632733
 30
0.0
 11
590.4425547099929
 21
520.7595034632733
 31
0.0
  0
LINE
  5
B4F2
330
18
100
AcDbEntity
  8
01
100
AcDbLine
 10
590.4425547099929
 20
520.7595034632733
 30
0.0
 11
591.2425454028155
 21
516.7595034632733
 31
0.0
  0
LINE
  5
B4F3
330
18
100
AcDbEntity
  8
01
100
AcDbLine
 10
588.842554709993
 20
520.7595034632733
 30
0.0
 11
589.6425454028113
 21
516.7595034632733
 31
0.0
  0
LINE
  5
B4F4
330
18
100
AcDbEntity
  8
01
100
AcDbLine
 10
585.642554709993
 20
520.7595034632733
 30
0.0
 11
586.4425454028112
 21
516.7595034632733
 31
0.0
  0
LINE
  5
B4F5
330
18
100
AcDbEntity
  8
01
100
AcDbLine
 10
584.0425547099885
 20
520.7595034632733
 30
0.0
 11
584.8425454028068
 21
516.7595034632733
 31
0.0
  0
LINE
  5
B4F7
330
18
100
AcDbEntity
  8
1CENTER
100
AcDbLine
 10
434.5425535442455
 20
682.7928028710088
 30
0.0
 11
434.5425535442455
 21
644.959669823634
 31
0.0
  0
LINE
  5
B4F8
330
18
100
AcDbEntity
  8
01
100
AcDbLine
 10
433.0426000801434
 20
674.138310170348
 30
0.0
 11
432.5426000801434
 21
674.2383113337451
 31
0.0
  0
LINE
  5
B4F9
330
18
100
AcDbEntity
  8
01
100
AcDbLine
 10
432.5426000801434
 20
674.2383113337451
 30
0.0
 11
436.5426000801434
 21
675.0383020265676
 31
0.0
  0
LINE
  5
B4FA
330
18
100
AcDbEntity
  8
01
100
AcDbLine
 10
436.5426000801434
 20
675.0383020265676
 30
0.0
 11
436.0426000801434
 21
675.1383031899647
 31
0.0
  0
LINE
  5
B4FB
330
18
100
AcDbEntity
  8
01
100
AcDbLine
 10
433.0426000801434
 20
672.538310170348
 30
0.0
 11
432.5426000801434
 21
672.6383113337452
 31
0.0
  0
LINE
  5
B4FC
330
18
100
AcDbEntity
  8
01
100
AcDbLine
 10
436.5426000801434
 20
673.4383020265677
 30
0.0
 11
436.0426000801434
 21
673.5383031899648
 31
0.0
  0
LINE
  5
B4FD
330
18
100
AcDbEntity
  8
01
100
AcDbLine
 10
432.5426000801434
 20
672.6383113337452
 30
0.0
 11
436.5426000801434
 21
673.4383020265677
 31
0.0
  0
LINE
  5
B4FE
330
18
100
AcDbEntity
  8
01
100
AcDbLine
 10
433.0426000801434
 20
670.9383101703479
 30
0.0
 11
432.5426000801434
 21
671.038311333745
 31
0.0
  0
LINE
  5
B4FF
330
18
100
AcDbEntity
  8
01
100
AcDbLine
 10
432.5426000801434
 20
671.038311333745
 30
0.0
 11
436.5426000801434
 21
671.8383020265676
 31
0.0
  0
LINE
  5
B500
330
18
100
AcDbEntity
  8
01
100
AcDbLine
 10
436.5426000801434
 20
671.8383020265676
 30
0.0
 11
436.0426000801434
 21
671.9383031899647
 31
0.0
  0
LINE
  5
B501
330
18
100
AcDbEntity
  8
01
100
AcDbLine
 10
433.0426000801434
 20
662.9383101703479
 30
0.0
 11
432.5426000801434
 21
663.038311333745
 31
0.0
  0
LINE
  5
B502
330
18
100
AcDbEntity
  8
01
100
AcDbLine
 10
436.5426000801434
 20
663.8383020265676
 30
0.0
 11
436.0426000801434
 21
663.9383031899647
 31
0.0
  0
LINE
  5
B503
330
18
100
AcDbEntity
  8
01
100
AcDbLine
 10
436.5426000801434
 20
665.4383020265677
 30
0.0
 11
436.0426000801434
 21
665.5383031899648
 31
0.0
  0
LINE
  5
B504
330
18
100
AcDbEntity
  8
01
100
AcDbLine
 10
433.0426000801434
 20
664.538310170348
 30
0.0
 11
432.5426000801434
 21
664.6383113337452
 31
0.0
  0
LINE
  5
B505
330
18
100
AcDbEntity
  8
01
100
AcDbLine
 10
433.0426000801434
 20
666.138310170348
 30
0.0
 11
432.5426000801434
 21
666.2383113337451
 31
0.0
  0
LINE
  5
B506
330
18
100
AcDbEntity
  8
01
100
AcDbLine
 10
432.5426000801434
 20
664.6383113337452
 30
0.0
 11
436.5426000801434
 21
665.4383020265677
 31
0.0
  0
LINE
  5
B507
330
18
100
AcDbEntity
  8
01
100
AcDbLine
 10
432.5426000801434
 20
663.038311333745
 30
0.0
 11
436.5426000801434
 21
663.8383020265676
 31
0.0
  0
LINE
  5
B508
330
18
100
AcDbEntity
  8
01
100
AcDbLine
 10
433.0426000801434
 20
667.7383101703479
 30
0.0
 11
432.5426000801434
 21
667.838311333745
 31
0.0
  0
LINE
  5
B509
330
18
100
AcDbEntity
  8
01
100
AcDbLine
 10
433.0426000801434
 20
675.9383101703479
 30
0.0
 11
432.5426000801434
 21
676.038311333745
 31
0.0
  0
LINE
  5
B50A
330
18
100
AcDbEntity
  8
01
100
AcDbLine
 10
432.5426000801434
 20
676.038311333745
 30
0.0
 11
436.3161930279394
 21
676.8383025533702
 31
0.0
  0
LINE
  5
B50B
330
18
100
AcDbEntity
  8
01
100
AcDbLine
 10
436.3161930279394
 20
676.8383025533702
 30
0.0
 11
435.7795992926683
 21
676.9675732510001
 31
0.0
  0
LINE
  5
B50C
330
18
100
AcDbEntity
  8
01
100
AcDbLine
 10
436.5426000801434
 20
668.6383020265675
 30
0.0
 11
436.0426000801434
 21
668.7383031899647
 31
0.0
  0
LINE
  5
B50D
330
18
100
AcDbEntity
  8
01
100
AcDbLine
 10
436.5426000801434
 20
670.2383020265677
 30
0.0
 11
436.0426000801434
 21
670.3383031899648
 31
0.0
  0
LINE
  5
B50E
330
18
100
AcDbEntity
  8
01
100
AcDbLine
 10
433.0426000801434
 20
669.338310170348
 30
0.0
 11
432.5426000801434
 21
669.4383113337451
 31
0.0
  0
LINE
  5
B50F
330
18
100
AcDbEntity
  8
01
100
AcDbLine
 10
432.5426000801434
 20
669.4383113337451
 30
0.0
 11
436.5426000801434
 21
670.2383020265677
 31
0.0
  0
LINE
  5
B510
330
18
100
AcDbEntity
  8
01
100
AcDbLine
 10
432.5426000801434
 20
667.838311333745
 30
0.0
 11
436.5426000801434
 21
668.6383020265675
 31
0.0
  0
LINE
  5
B511
330
18
100
AcDbEntity
  8
01
100
AcDbLine
 10
432.9954162222022
 20
677.6383102801348
 30
0.0
 11
435.8633789235327
 21
678.4383036069759
 31
0.0
  0
LINE
  5
B512
330
18
100
AcDbEntity
  8
01
100
AcDbLine
 10
433.4482297302504
 20
679.2383092265305
 30
0.0
 11
435.4105648191259
 21
680.0383046605815
 31
0.0
  0
LINE
  5
B513
330
18
100
AcDbEntity
  8
01
100
AcDbLine
 10
435.8633789235327
 20
678.4383036069759
 30
0.0
 11
435.3116294597294
 21
678.6210677496039
 31
0.0
  0
LINE
  5
B514
330
18
100
AcDbEntity
  8
01
100
AcDbLine
 10
433.9054015708815
 20
679.0868734300901
 30
0.0
 11
433.4482297302504
 21
679.2383092265305
 31
0.0
  0
LINE
  5
B515
330
18
100
AcDbEntity
  8
01
100
AcDbLine
 10
435.4105648191259
 20
680.0383046605815
 30
0.0
 11
434.8222882440834
 21
680.3500745168336
 31
0.0
  0
LINE
  5
B516
330
18
100
AcDbEntity
  8
01
100
AcDbLine
 10
433.4635146773521
 20
677.5255407677847
 30
0.0
 11
432.9954162222022
 21
677.6383102801348
 31
0.0
  0
LINE
  5
B517
330
18
100
AcDbEntity
  8
01
100
AcDbLine
 10
436.5426000801434
 20
667.0383020265676
 30
0.0
 11
436.0426000801434
 21
667.1383031899647
 31
0.0
  0
LINE
  5
B518
330
18
100
AcDbEntity
  8
01
100
AcDbLine
 10
432.5426000801434
 20
666.2383113337451
 30
0.0
 11
436.5426000801434
 21
667.0383020265676
 31
0.0
  0
LINE
  5
B519
330
18
100
AcDbEntity
  8
01
100
AcDbLine
 10
436.0426000801434
 20
649.3383031899479
 30
0.0
 11
436.5426000801434
 21
649.4383020265501
 31
0.0
  0
LINE
  5
B51A
330
18
100
AcDbEntity
  8
01
100
AcDbLine
 10
432.5426000801434
 20
650.2383113337363
 30
0.0
 11
436.5426000801434
 21
651.0383020265544
 31
0.0
  0
LINE
  5
B51B
330
18
100
AcDbEntity
  8
01
100
AcDbLine
 10
432.5426000801434
 20
653.4383113337362
 30
0.0
 11
436.5426000801434
 21
654.2383020265545
 31
0.0
  0
LINE
  5
B51C
330
18
100
AcDbEntity
  8
01
100
AcDbLine
 10
436.5426000801434
 20
654.2383020265545
 30
0.0
 11
436.0426000801434
 21
654.3383031899523
 31
0.0
  0
LINE
  5
B51D
330
18
100
AcDbEntity
  8
01
100
AcDbLine
 10
436.5426000801434
 20
651.0383020265544
 30
0.0
 11
436.0426000801434
 21
651.1383031899522
 31
0.0
  0
LINE
  5
B51E
330
18
100
AcDbEntity
  8
01
100
AcDbLine
 10
433.0426000801434
 20
651.7383101703385
 30
0.0
 11
432.5426000801434
 21
651.8383113337361
 31
0.0
  0
LINE
  5
B51F
330
18
100
AcDbEntity
  8
01
100
AcDbLine
 10
436.5426000801434
 20
652.6383020265544
 30
0.0
 11
436.0426000801434
 21
652.7383031899521
 31
0.0
  0
LINE
  5
B520
330
18
100
AcDbEntity
  8
01
100
AcDbLine
 10
432.5426000801434
 20
651.8383113337361
 30
0.0
 11
436.5426000801434
 21
652.6383020265544
 31
0.0
  0
LINE
  5
B521
330
18
100
AcDbEntity
  8
01
100
AcDbLine
 10
433.0426000801434
 20
653.3383101703387
 30
0.0
 11
432.5426000801434
 21
653.4383113337362
 31
0.0
  0
LINE
  5
B522
330
18
100
AcDbEntity
  8
01
100
AcDbLine
 10
436.5426000801434
 20
649.4383020265501
 30
0.0
 11
436.0426000801434
 21
649.5383031899478
 31
0.0
  0
LINE
  5
B523
330
18
100
AcDbEntity
  8
01
100
AcDbLine
 10
433.0426000801434
 20
650.1383101703386
 30
0.0
 11
432.5426000801434
 21
650.2383113337363
 31
0.0
  0
LINE
  5
B524
330
18
100
AcDbEntity
  8
01
100
AcDbLine
 10
430.5425535442455
 20
646.6383159875514
 30
0.0
 11
438.5425535442455
 21
646.6382973731922
 31
0.0
  0
LINE
  5
B525
330
18
100
AcDbEntity
  8
01
100
AcDbLine
 10
433.0426000801434
 20
654.9383101703429
 30
0.0
 11
432.5426000801434
 21
655.0383113337407
 31
0.0
  0
LINE
  5
B526
330
18
100
AcDbEntity
  8
01
100
AcDbLine
 10
433.0426000801434
 20
656.5383101703474
 30
0.0
 11
432.5426000801434
 21
656.6383113337449
 31
0.0
  0
LINE
  5
B527
330
18
100
AcDbEntity
  8
01
100
AcDbLine
 10
436.5426000801434
 20
655.838302026559
 30
0.0
 11
436.0426000801434
 21
655.9383031899565
 31
0.0
  0
LINE
  5
B528
330
18
100
AcDbEntity
  8
01
100
AcDbLine
 10
433.0426000801434
 20
659.7383101703474
 30
0.0
 11
432.5426000801434
 21
659.838311333745
 31
0.0
  0
LINE
  5
B529
330
18
100
AcDbEntity
  8
01
100
AcDbLine
 10
432.5426000801434
 20
658.2383113337448
 30
0.0
 11
436.5426000801434
 21
659.0383020265631
 31
0.0
  0
LINE
  5
B52A
330
18
100
AcDbEntity
  8
01
100
AcDbLine
 10
436.5426000801434
 20
659.0383020265631
 30
0.0
 11
436.0426000801434
 21
659.1383031899609
 31
0.0
  0
LINE
  5
B52B
330
18
100
AcDbEntity
  8
01
100
AcDbLine
 10
433.0426000801434
 20
658.1383101703473
 30
0.0
 11
432.5426000801434
 21
658.2383113337448
 31
0.0
  0
LINE
  5
B52C
330
18
100
AcDbEntity
  8
01
100
AcDbLine
 10
436.5426000801434
 20
657.4383020265632
 30
0.0
 11
436.0426000801434
 21
657.538303189961
 31
0.0
  0
LINE
  5
B52D
330
18
100
AcDbEntity
  8
01
100
AcDbLine
 10
436.5426000801434
 20
662.2383020265677
 30
0.0
 11
436.0426000801434
 21
662.3383031899648
 31
0.0
  0
LINE
  5
B52E
330
18
100
AcDbEntity
  8
01
100
AcDbLine
 10
436.5426000801434
 20
660.6383020265632
 30
0.0
 11
436.0426000801434
 21
660.738303189961
 31
0.0
  0
LINE
  5
B52F
330
18
100
AcDbEntity
  8
01
100
AcDbLine
 10
433.0426000801434
 20
661.3383101703473
 30
0.0
 11
432.5426000801434
 21
661.4383113337451
 31
0.0
  0
LINE
  5
B530
330
18
100
AcDbEntity
  8
01
100
AcDbLine
 10
432.5426000801434
 20
661.4383113337451
 30
0.0
 11
436.5426000801434
 21
662.2383020265677
 31
0.0
  0
LINE
  5
B531
330
18
100
AcDbEntity
  8
01
100
AcDbLine
 10
432.5426000801434
 20
659.838311333745
 30
0.0
 11
436.5426000801434
 21
660.6383020265632
 31
0.0
  0
LINE
  5
B532
330
18
100
AcDbEntity
  8
01
100
AcDbLine
 10
432.5426000801434
 20
656.6383113337449
 30
0.0
 11
436.5426000801434
 21
657.4383020265632
 31
0.0
  0
LINE
  5
B533
330
18
100
AcDbEntity
  8
01
100
AcDbLine
 10
432.5426000801434
 20
655.0383113337407
 30
0.0
 11
436.5426000801434
 21
655.838302026559
 31
0.0
  0
LINE
  5
B535
330
18
100
AcDbEntity
  8
1CENTER
100
AcDbLine
 10
404.5425535442455
 20
682.7928028710088
 30
0.0
 11
404.5425535442455
 21
644.959669823634
 31
0.0
  0
LINE
  5
B536
330
18
100
AcDbEntity
  8
01
100
AcDbLine
 10
403.0426000801434
 20
674.138310170348
 30
0.0
 11
402.5426000801434
 21
674.2383113337451
 31
0.0
  0
LINE
  5
B537
330
18
100
AcDbEntity
  8
01
100
AcDbLine
 10
402.5426000801434
 20
674.2383113337451
 30
0.0
 11
406.5426000801434
 21
675.0383020265676
 31
0.0
  0
LINE
  5
B538
330
18
100
AcDbEntity
  8
01
100
AcDbLine
 10
406.5426000801434
 20
675.0383020265676
 30
0.0
 11
406.0426000801434
 21
675.1383031899647
 31
0.0
  0
LINE
  5
B539
330
18
100
AcDbEntity
  8
01
100
AcDbLine
 10
403.0426000801434
 20
672.538310170348
 30
0.0
 11
402.5426000801434
 21
672.6383113337452
 31
0.0
  0
LINE
  5
B53A
330
18
100
AcDbEntity
  8
01
100
AcDbLine
 10
406.5426000801434
 20
673.4383020265677
 30
0.0
 11
406.0426000801434
 21
673.5383031899648
 31
0.0
  0
LINE
  5
B53B
330
18
100
AcDbEntity
  8
01
100
AcDbLine
 10
402.5426000801434
 20
672.6383113337452
 30
0.0
 11
406.5426000801434
 21
673.4383020265677
 31
0.0
  0
LINE
  5
B53C
330
18
100
AcDbEntity
  8
01
100
AcDbLine
 10
403.0426000801434
 20
670.9383101703479
 30
0.0
 11
402.5426000801434
 21
671.038311333745
 31
0.0
  0
LINE
  5
B53D
330
18
100
AcDbEntity
  8
01
100
AcDbLine
 10
402.5426000801434
 20
671.038311333745
 30
0.0
 11
406.5426000801434
 21
671.8383020265676
 31
0.0
  0
LINE
  5
B53E
330
18
100
AcDbEntity
  8
01
100
AcDbLine
 10
406.5426000801434
 20
671.8383020265676
 30
0.0
 11
406.0426000801434
 21
671.9383031899647
 31
0.0
  0
LINE
  5
B53F
330
18
100
AcDbEntity
  8
01
100
AcDbLine
 10
403.0426000801434
 20
662.9383101703479
 30
0.0
 11
402.5426000801434
 21
663.038311333745
 31
0.0
  0
LINE
  5
B540
330
18
100
AcDbEntity
  8
01
100
AcDbLine
 10
406.5426000801434
 20
663.8383020265676
 30
0.0
 11
406.0426000801434
 21
663.9383031899647
 31
0.0
  0
LINE
  5
B541
330
18
100
AcDbEntity
  8
01
100
AcDbLine
 10
406.5426000801434
 20
665.4383020265677
 30
0.0
 11
406.0426000801434
 21
665.5383031899648
 31
0.0
  0
LINE
  5
B542
330
18
100
AcDbEntity
  8
01
100
AcDbLine
 10
403.0426000801434
 20
664.538310170348
 30
0.0
 11
402.5426000801434
 21
664.6383113337452
 31
0.0
  0
LINE
  5
B543
330
18
100
AcDbEntity
  8
01
100
AcDbLine
 10
403.0426000801434
 20
666.138310170348
 30
0.0
 11
402.5426000801434
 21
666.2383113337451
 31
0.0
  0
LINE
  5
B544
330
18
100
AcDbEntity
  8
01
100
AcDbLine
 10
402.5426000801434
 20
664.6383113337452
 30
0.0
 11
406.5426000801434
 21
665.4383020265677
 31
0.0
  0
LINE
  5
B545
330
18
100
AcDbEntity
  8
01
100
AcDbLine
 10
402.5426000801434
 20
663.038311333745
 30
0.0
 11
406.5426000801434
 21
663.8383020265676
 31
0.0
  0
LINE
  5
B546
330
18
100
AcDbEntity
  8
01
100
AcDbLine
 10
403.0426000801434
 20
667.7383101703479
 30
0.0
 11
402.5426000801434
 21
667.838311333745
 31
0.0
  0
LINE
  5
B547
330
18
100
AcDbEntity
  8
01
100
AcDbLine
 10
403.0426000801434
 20
675.9383101703479
 30
0.0
 11
402.5426000801434
 21
676.038311333745
 31
0.0
  0
LINE
  5
B548
330
18
100
AcDbEntity
  8
01
100
AcDbLine
 10
402.5426000801434
 20
676.038311333745
 30
0.0
 11
406.3161930279394
 21
676.8383025533702
 31
0.0
  0
LINE
  5
B549
330
18
100
AcDbEntity
  8
01
100
AcDbLine
 10
406.3161930279394
 20
676.8383025533702
 30
0.0
 11
405.7795992926683
 21
676.9675732510001
 31
0.0
  0
LINE
  5
B54A
330
18
100
AcDbEntity
  8
01
100
AcDbLine
 10
406.5426000801434
 20
668.6383020265675
 30
0.0
 11
406.0426000801434
 21
668.7383031899647
 31
0.0
  0
LINE
  5
B54B
330
18
100
AcDbEntity
  8
01
100
AcDbLine
 10
406.5426000801434
 20
670.2383020265677
 30
0.0
 11
406.0426000801434
 21
670.3383031899648
 31
0.0
  0
LINE
  5
B54C
330
18
100
AcDbEntity
  8
01
100
AcDbLine
 10
403.0426000801434
 20
669.338310170348
 30
0.0
 11
402.5426000801434
 21
669.4383113337451
 31
0.0
  0
LINE
  5
B54D
330
18
100
AcDbEntity
  8
01
100
AcDbLine
 10
402.5426000801434
 20
669.4383113337451
 30
0.0
 11
406.5426000801434
 21
670.2383020265677
 31
0.0
  0
LINE
  5
B54E
330
18
100
AcDbEntity
  8
01
100
AcDbLine
 10
402.5426000801434
 20
667.838311333745
 30
0.0
 11
406.5426000801434
 21
668.6383020265675
 31
0.0
  0
LINE
  5
B54F
330
18
100
AcDbEntity
  8
01
100
AcDbLine
 10
402.9954162222022
 20
677.6383102801348
 30
0.0
 11
405.8633789235327
 21
678.4383036069759
 31
0.0
  0
LINE
  5
B550
330
18
100
AcDbEntity
  8
01
100
AcDbLine
 10
403.4482297302504
 20
679.2383092265305
 30
0.0
 11
405.4105648191259
 21
680.0383046605815
 31
0.0
  0
LINE
  5
B551
330
18
100
AcDbEntity
  8
01
100
AcDbLine
 10
405.8633789235327
 20
678.4383036069759
 30
0.0
 11
405.3116294597294
 21
678.6210677496039
 31
0.0
  0
LINE
  5
B552
330
18
100
AcDbEntity
  8
01
100
AcDbLine
 10
403.9054015708815
 20
679.0868734300901
 30
0.0
 11
403.4482297302504
 21
679.2383092265305
 31
0.0
  0
LINE
  5
B553
330
18
100
AcDbEntity
  8
01
100
AcDbLine
 10
405.4105648191259
 20
680.0383046605815
 30
0.0
 11
404.8222882440834
 21
680.3500745168336
 31
0.0
  0
LINE
  5
B554
330
18
100
AcDbEntity
  8
01
100
AcDbLine
 10
403.4635146773521
 20
677.5255407677847
 30
0.0
 11
402.9954162222022
 21
677.6383102801348
 31
0.0
  0
LINE
  5
B555
330
18
100
AcDbEntity
  8
01
100
AcDbLine
 10
406.5426000801434
 20
667.0383020265676
 30
0.0
 11
406.0426000801434
 21
667.1383031899647
 31
0.0
  0
LINE
  5
B556
330
18
100
AcDbEntity
  8
01
100
AcDbLine
 10
402.5426000801434
 20
666.2383113337451
 30
0.0
 11
406.5426000801434
 21
667.0383020265676
 31
0.0
  0
LINE
  5
B557
330
18
100
AcDbEntity
  8
01
100
AcDbLine
 10
406.0426000801434
 20
649.3383031899479
 30
0.0
 11
406.5426000801434
 21
649.4383020265501
 31
0.0
  0
LINE
  5
B558
330
18
100
AcDbEntity
  8
01
100
AcDbLine
 10
402.5426000801434
 20
650.2383113337363
 30
0.0
 11
406.5426000801434
 21
651.0383020265544
 31
0.0
  0
LINE
  5
B559
330
18
100
AcDbEntity
  8
01
100
AcDbLine
 10
402.5426000801434
 20
653.4383113337362
 30
0.0
 11
406.5426000801434
 21
654.2383020265545
 31
0.0
  0
LINE
  5
B55A
330
18
100
AcDbEntity
  8
01
100
AcDbLine
 10
406.5426000801434
 20
654.2383020265545
 30
0.0
 11
406.0426000801434
 21
654.3383031899523
 31
0.0
  0
LINE
  5
B55B
330
18
100
AcDbEntity
  8
01
100
AcDbLine
 10
406.5426000801434
 20
651.0383020265544
 30
0.0
 11
406.0426000801434
 21
651.1383031899522
 31
0.0
  0
LINE
  5
B55C
330
18
100
AcDbEntity
  8
01
100
AcDbLine
 10
403.0426000801434
 20
651.7383101703385
 30
0.0
 11
402.5426000801434
 21
651.8383113337361
 31
0.0
  0
LINE
  5
B55D
330
18
100
AcDbEntity
  8
01
100
AcDbLine
 10
406.5426000801434
 20
652.6383020265544
 30
0.0
 11
406.0426000801434
 21
652.7383031899521
 31
0.0
  0
LINE
  5
B55E
330
18
100
AcDbEntity
  8
01
100
AcDbLine
 10
402.5426000801434
 20
651.8383113337361
 30
0.0
 11
406.5426000801434
 21
652.6383020265544
 31
0.0
  0
LINE
  5
B55F
330
18
100
AcDbEntity
  8
01
100
AcDbLine
 10
403.0426000801434
 20
653.3383101703387
 30
0.0
 11
402.5426000801434
 21
653.4383113337362
 31
0.0
  0
LINE
  5
B560
330
18
100
AcDbEntity
  8
01
100
AcDbLine
 10
406.5426000801434
 20
649.4383020265501
 30
0.0
 11
406.0426000801434
 21
649.5383031899478
 31
0.0
  0
LINE
  5
B561
330
18
100
AcDbEntity
  8
01
100
AcDbLine
 10
403.0426000801434
 20
650.1383101703386
 30
0.0
 11
402.5426000801434
 21
650.2383113337363
 31
0.0
  0
LINE
  5
B562
330
18
100
AcDbEntity
  8
01
100
AcDbLine
 10
400.5425535442455
 20
646.6383159875514
 30
0.0
 11
408.5425535442455
 21
646.6382973731922
 31
0.0
  0
LINE
  5
B563
330
18
100
AcDbEntity
  8
01
100
AcDbLine
 10
403.0426000801434
 20
654.9383101703429
 30
0.0
 11
402.5426000801434
 21
655.0383113337407
 31
0.0
  0
LINE
  5
B564
330
18
100
AcDbEntity
  8
01
100
AcDbLine
 10
403.0426000801434
 20
656.5383101703474
 30
0.0
 11
402.5426000801434
 21
656.6383113337449
 31
0.0
  0
LINE
  5
B565
330
18
100
AcDbEntity
  8
01
100
AcDbLine
 10
406.5426000801434
 20
655.838302026559
 30
0.0
 11
406.0426000801434
 21
655.9383031899565
 31
0.0
  0
LINE
  5
B566
330
18
100
AcDbEntity
  8
01
100
AcDbLine
 10
403.0426000801434
 20
659.7383101703474
 30
0.0
 11
402.5426000801434
 21
659.838311333745
 31
0.0
  0
LINE
  5
B567
330
18
100
AcDbEntity
  8
01
100
AcDbLine
 10
402.5426000801434
 20
658.2383113337448
 30
0.0
 11
406.5426000801434
 21
659.0383020265631
 31
0.0
  0
LINE
  5
B568
330
18
100
AcDbEntity
  8
01
100
AcDbLine
 10
406.5426000801434
 20
659.0383020265631
 30
0.0
 11
406.0426000801434
 21
659.1383031899609
 31
0.0
  0
LINE
  5
B569
330
18
100
AcDbEntity
  8
01
100
AcDbLine
 10
403.0426000801434
 20
658.1383101703473
 30
0.0
 11
402.5426000801434
 21
658.2383113337448
 31
0.0
  0
LINE
  5
B56A
330
18
100
AcDbEntity
  8
01
100
AcDbLine
 10
406.5426000801434
 20
657.4383020265632
 30
0.0
 11
406.0426000801434
 21
657.538303189961
 31
0.0
  0
LINE
  5
B56B
330
18
100
AcDbEntity
  8
01
100
AcDbLine
 10
406.5426000801434
 20
662.2383020265677
 30
0.0
 11
406.0426000801434
 21
662.3383031899648
 31
0.0
  0
LINE
  5
B56C
330
18
100
AcDbEntity
  8
01
100
AcDbLine
 10
406.5426000801434
 20
660.6383020265632
 30
0.0
 11
406.0426000801434
 21
660.738303189961
 31
0.0
  0
LINE
  5
B56D
330
18
100
AcDbEntity
  8
01
100
AcDbLine
 10
403.0426000801434
 20
661.3383101703473
 30
0.0
 11
402.5426000801434
 21
661.4383113337451
 31
0.0
  0
LINE
  5
B56E
330
18
100
AcDbEntity
  8
01
100
AcDbLine
 10
402.5426000801434
 20
661.4383113337451
 30
0.0
 11
406.5426000801434
 21
662.2383020265677
 31
0.0
  0
LINE
  5
B56F
330
18
100
AcDbEntity
  8
01
100
AcDbLine
 10
402.5426000801434
 20
659.838311333745
 30
0.0
 11
406.5426000801434
 21
660.6383020265632
 31
0.0
  0
LINE
  5
B570
330
18
100
AcDbEntity
  8
01
100
AcDbLine
 10
402.5426000801434
 20
656.6383113337449
 30
0.0
 11
406.5426000801434
 21
657.4383020265632
 31
0.0
  0
LINE
  5
B571
330
18
100
AcDbEntity
  8
01
100
AcDbLine
 10
402.5426000801434
 20
655.0383113337407
 30
0.0
 11
406.5426000801434
 21
655.838302026559
 31
0.0
  0
LINE
  5
B573
330
18
100
AcDbEntity
  8
1CENTER
100
AcDbLine
 10
34.54255354423459
 20
682.7928028710088
 30
0.0
 11
34.54255354423458
 21
644.959669823634
 31
0.0
  0
LINE
  5
B574
330
18
100
AcDbEntity
  8
01
100
AcDbLine
 10
33.04260008013251
 20
674.138310170348
 30
0.0
 11
32.54260008013251
 21
674.2383113337451
 31
0.0
  0
LINE
  5
B575
330
18
100
AcDbEntity
  8
01
100
AcDbLine
 10
32.54260008013251
 20
674.2383113337451
 30
0.0
 11
36.54260008013251
 21
675.0383020265676
 31
0.0
  0
LINE
  5
B576
330
18
100
AcDbEntity
  8
01
100
AcDbLine
 10
36.54260008013251
 20
675.0383020265676
 30
0.0
 11
36.04260008013251
 21
675.1383031899647
 31
0.0
  0
LINE
  5
B577
330
18
100
AcDbEntity
  8
01
100
AcDbLine
 10
33.04260008013251
 20
672.538310170348
 30
0.0
 11
32.54260008013251
 21
672.6383113337452
 31
0.0
  0
LINE
  5
B578
330
18
100
AcDbEntity
  8
01
100
AcDbLine
 10
36.54260008013251
 20
673.4383020265677
 30
0.0
 11
36.04260008013251
 21
673.5383031899648
 31
0.0
  0
LINE
  5
B579
330
18
100
AcDbEntity
  8
01
100
AcDbLine
 10
32.54260008013251
 20
672.6383113337452
 30
0.0
 11
36.54260008013251
 21
673.4383020265677
 31
0.0
  0
LINE
  5
B57A
330
18
100
AcDbEntity
  8
01
100
AcDbLine
 10
33.04260008013251
 20
670.9383101703479
 30
0.0
 11
32.54260008013251
 21
671.038311333745
 31
0.0
  0
LINE
  5
B57B
330
18
100
AcDbEntity
  8
01
100
AcDbLine
 10
32.54260008013251
 20
671.038311333745
 30
0.0
 11
36.54260008013251
 21
671.8383020265676
 31
0.0
  0
LINE
  5
B57C
330
18
100
AcDbEntity
  8
01
100
AcDbLine
 10
36.54260008013251
 20
671.8383020265676
 30
0.0
 11
36.04260008013251
 21
671.9383031899647
 31
0.0
  0
LINE
  5
B57D
330
18
100
AcDbEntity
  8
01
100
AcDbLine
 10
33.0426000801325
 20
662.9383101703479
 30
0.0
 11
32.5426000801325
 21
663.038311333745
 31
0.0
  0
LINE
  5
B57E
330
18
100
AcDbEntity
  8
01
100
AcDbLine
 10
36.5426000801325
 20
663.8383020265676
 30
0.0
 11
36.0426000801325
 21
663.9383031899647
 31
0.0
  0
LINE
  5
B57F
330
18
100
AcDbEntity
  8
01
100
AcDbLine
 10
36.5426000801325
 20
665.4383020265677
 30
0.0
 11
36.0426000801325
 21
665.5383031899648
 31
0.0
  0
LINE
  5
B580
330
18
100
AcDbEntity
  8
01
100
AcDbLine
 10
33.0426000801325
 20
664.538310170348
 30
0.0
 11
32.5426000801325
 21
664.6383113337452
 31
0.0
  0
LINE
  5
B581
330
18
100
AcDbEntity
  8
01
100
AcDbLine
 10
33.0426000801325
 20
666.138310170348
 30
0.0
 11
32.5426000801325
 21
666.2383113337451
 31
0.0
  0
LINE
  5
B582
330
18
100
AcDbEntity
  8
01
100
AcDbLine
 10
32.5426000801325
 20
664.6383113337452
 30
0.0
 11
36.5426000801325
 21
665.4383020265677
 31
0.0
  0
LINE
  5
B583
330
18
100
AcDbEntity
  8
01
100
AcDbLine
 10
32.5426000801325
 20
663.038311333745
 30
0.0
 11
36.5426000801325
 21
663.8383020265676
 31
0.0
  0
LINE
  5
B584
330
18
100
AcDbEntity
  8
01
100
AcDbLine
 10
33.04260008013251
 20
667.7383101703479
 30
0.0
 11
32.54260008013251
 21
667.838311333745
 31
0.0
  0
LINE
  5
B585
330
18
100
AcDbEntity
  8
01
100
AcDbLine
 10
33.04260008013251
 20
675.9383101703479
 30
0.0
 11
32.54260008013251
 21
676.038311333745
 31
0.0
  0
LINE
  5
B586
330
18
100
AcDbEntity
  8
01
100
AcDbLine
 10
32.54260008013251
 20
676.038311333745
 30
0.0
 11
36.31619302792854
 21
676.8383025533702
 31
0.0
  0
LINE
  5
B587
330
18
100
AcDbEntity
  8
01
100
AcDbLine
 10
36.31619302792854
 20
676.8383025533702
 30
0.0
 11
35.7795992926574
 21
676.9675732510001
 31
0.0
  0
LINE
  5
B588
330
18
100
AcDbEntity
  8
01
100
AcDbLine
 10
36.54260008013251
 20
668.6383020265675
 30
0.0
 11
36.04260008013251
 21
668.7383031899647
 31
0.0
  0
LINE
  5
B589
330
18
100
AcDbEntity
  8
01
100
AcDbLine
 10
36.54260008013251
 20
670.2383020265677
 30
0.0
 11
36.04260008013251
 21
670.3383031899648
 31
0.0
  0
LINE
  5
B58A
330
18
100
AcDbEntity
  8
01
100
AcDbLine
 10
33.04260008013251
 20
669.338310170348
 30
0.0
 11
32.54260008013251
 21
669.4383113337451
 31
0.0
  0
LINE
  5
B58B
330
18
100
AcDbEntity
  8
01
100
AcDbLine
 10
32.54260008013251
 20
669.4383113337451
 30
0.0
 11
36.54260008013251
 21
670.2383020265677
 31
0.0
  0
LINE
  5
B58C
330
18
100
AcDbEntity
  8
01
100
AcDbLine
 10
32.54260008013251
 20
667.838311333745
 30
0.0
 11
36.54260008013251
 21
668.6383020265675
 31
0.0
  0
LINE
  5
B58D
330
18
100
AcDbEntity
  8
01
100
AcDbLine
 10
32.99541622219125
 20
677.6383102801348
 30
0.0
 11
35.86337892352174
 21
678.4383036069759
 31
0.0
  0
LINE
  5
B58E
330
18
100
AcDbEntity
  8
01
100
AcDbLine
 10
33.44822973023953
 20
679.2383092265305
 30
0.0
 11
35.41056481911495
 21
680.0383046605815
 31
0.0
  0
LINE
  5
B58F
330
18
100
AcDbEntity
  8
01
100
AcDbLine
 10
35.86337892352174
 20
678.4383036069759
 30
0.0
 11
35.31162945971847
 21
678.6210677496039
 31
0.0
  0
LINE
  5
B590
330
18
100
AcDbEntity
  8
01
100
AcDbLine
 10
33.9054015708706
 20
679.0868734300901
 30
0.0
 11
33.44822973023953
 21
679.2383092265305
 31
0.0
  0
LINE
  5
B591
330
18
100
AcDbEntity
  8
01
100
AcDbLine
 10
35.41056481911495
 20
680.0383046605815
 30
0.0
 11
34.82228824407253
 21
680.3500745168336
 31
0.0
  0
LINE
  5
B592
330
18
100
AcDbEntity
  8
01
100
AcDbLine
 10
33.46351467734122
 20
677.5255407677847
 30
0.0
 11
32.99541622219125
 21
677.6383102801348
 31
0.0
  0
LINE
  5
B593
330
18
100
AcDbEntity
  8
01
100
AcDbLine
 10
36.54260008013251
 20
667.0383020265676
 30
0.0
 11
36.04260008013251
 21
667.1383031899647
 31
0.0
  0
LINE
  5
B594
330
18
100
AcDbEntity
  8
01
100
AcDbLine
 10
32.5426000801325
 20
666.2383113337451
 30
0.0
 11
36.54260008013251
 21
667.0383020265676
 31
0.0
  0
LINE
  5
B595
330
18
100
AcDbEntity
  8
01
100
AcDbLine
 10
36.0426000801325
 20
649.3383031899479
 30
0.0
 11
36.5426000801325
 21
649.4383020265501
 31
0.0
  0
LINE
  5
B596
330
18
100
AcDbEntity
  8
01
100
AcDbLine
 10
32.5426000801325
 20
650.2383113337363
 30
0.0
 11
36.5426000801325
 21
651.0383020265544
 31
0.0
  0
LINE
  5
B597
330
18
100
AcDbEntity
  8
01
100
AcDbLine
 10
32.5426000801325
 20
653.4383113337362
 30
0.0
 11
36.5426000801325
 21
654.2383020265545
 31
0.0
  0
LINE
  5
B598
330
18
100
AcDbEntity
  8
01
100
AcDbLine
 10
36.5426000801325
 20
654.2383020265545
 30
0.0
 11
36.0426000801325
 21
654.3383031899523
 31
0.0
  0
LINE
  5
B599
330
18
100
AcDbEntity
  8
01
100
AcDbLine
 10
36.5426000801325
 20
651.0383020265544
 30
0.0
 11
36.0426000801325
 21
651.1383031899522
 31
0.0
  0
LINE
  5
B59A
330
18
100
AcDbEntity
  8
01
100
AcDbLine
 10
33.0426000801325
 20
651.7383101703385
 30
0.0
 11
32.5426000801325
 21
651.8383113337361
 31
0.0
  0
LINE
  5
B59B
330
18
100
AcDbEntity
  8
01
100
AcDbLine
 10
36.5426000801325
 20
652.6383020265544
 30
0.0
 11
36.0426000801325
 21
652.7383031899521
 31
0.0
  0
LINE
  5
B59C
330
18
100
AcDbEntity
  8
01
100
AcDbLine
 10
32.5426000801325
 20
651.8383113337361
 30
0.0
 11
36.5426000801325
 21
652.6383020265544
 31
0.0
  0
LINE
  5
B59D
330
18
100
AcDbEntity
  8
01
100
AcDbLine
 10
33.0426000801325
 20
653.3383101703387
 30
0.0
 11
32.5426000801325
 21
653.4383113337362
 31
0.0
  0
LINE
  5
B59E
330
18
100
AcDbEntity
  8
01
100
AcDbLine
 10
36.5426000801325
 20
649.4383020265501
 30
0.0
 11
36.0426000801325
 21
649.5383031899478
 31
0.0
  0
LINE
  5
B59F
330
18
100
AcDbEntity
  8
01
100
AcDbLine
 10
33.0426000801325
 20
650.1383101703386
 30
0.0
 11
32.5426000801325
 21
650.2383113337363
 31
0.0
  0
LINE
  5
B5A0
330
18
100
AcDbEntity
  8
01
100
AcDbLine
 10
30.54255354423458
 20
646.6383159875514
 30
0.0
 11
38.54255354423458
 21
646.6382973731922
 31
0.0
  0
LINE
  5
B5A1
330
18
100
AcDbEntity
  8
01
100
AcDbLine
 10
33.0426000801325
 20
654.9383101703429
 30
0.0
 11
32.5426000801325
 21
655.0383113337407
 31
0.0
  0
LINE
  5
B5A2
330
18
100
AcDbEntity
  8
01
100
AcDbLine
 10
33.0426000801325
 20
656.5383101703474
 30
0.0
 11
32.5426000801325
 21
656.6383113337449
 31
0.0
  0
LINE
  5
B5A3
330
18
100
AcDbEntity
  8
01
100
AcDbLine
 10
36.5426000801325
 20
655.838302026559
 30
0.0
 11
36.0426000801325
 21
655.9383031899565
 31
0.0
  0
LINE
  5
B5A4
330
18
100
AcDbEntity
  8
01
100
AcDbLine
 10
33.0426000801325
 20
659.7383101703474
 30
0.0
 11
32.5426000801325
 21
659.838311333745
 31
0.0
  0
LINE
  5
B5A5
330
18
100
AcDbEntity
  8
01
100
AcDbLine
 10
32.5426000801325
 20
658.2383113337448
 30
0.0
 11
36.5426000801325
 21
659.0383020265631
 31
0.0
  0
LINE
  5
B5A6
330
18
100
AcDbEntity
  8
01
100
AcDbLine
 10
36.5426000801325
 20
659.0383020265631
 30
0.0
 11
36.0426000801325
 21
659.1383031899609
 31
0.0
  0
LINE
  5
B5A7
330
18
100
AcDbEntity
  8
01
100
AcDbLine
 10
33.0426000801325
 20
658.1383101703473
 30
0.0
 11
32.5426000801325
 21
658.2383113337448
 31
0.0
  0
LINE
  5
B5A8
330
18
100
AcDbEntity
  8
01
100
AcDbLine
 10
36.5426000801325
 20
657.4383020265632
 30
0.0
 11
36.0426000801325
 21
657.538303189961
 31
0.0
  0
LINE
  5
B5A9
330
18
100
AcDbEntity
  8
01
100
AcDbLine
 10
36.5426000801325
 20
662.2383020265677
 30
0.0
 11
36.0426000801325
 21
662.3383031899648
 31
0.0
  0
LINE
  5
B5AA
330
18
100
AcDbEntity
  8
01
100
AcDbLine
 10
36.5426000801325
 20
660.6383020265632
 30
0.0
 11
36.0426000801325
 21
660.738303189961
 31
0.0
  0
LINE
  5
B5AB
330
18
100
AcDbEntity
  8
01
100
AcDbLine
 10
33.0426000801325
 20
661.3383101703473
 30
0.0
 11
32.5426000801325
 21
661.4383113337451
 31
0.0
  0
LINE
  5
B5AC
330
18
100
AcDbEntity
  8
01
100
AcDbLine
 10
32.5426000801325
 20
661.4383113337451
 30
0.0
 11
36.5426000801325
 21
662.2383020265677
 31
0.0
  0
LINE
  5
B5AD
330
18
100
AcDbEntity
  8
01
100
AcDbLine
 10
32.5426000801325
 20
659.838311333745
 30
0.0
 11
36.5426000801325
 21
660.6383020265632
 31
0.0
  0
LINE
  5
B5AE
330
18
100
AcDbEntity
  8
01
100
AcDbLine
 10
32.5426000801325
 20
656.6383113337449
 30
0.0
 11
36.5426000801325
 21
657.4383020265632
 31
0.0
  0
LINE
  5
B5AF
330
18
100
AcDbEntity
  8
01
100
AcDbLine
 10
32.5426000801325
 20
655.0383113337407
 30
0.0
 11
36.5426000801325
 21
655.838302026559
 31
0.0
  0
LINE
  5
B5B1
330
18
100
AcDbEntity
  8
1CENTER
100
AcDbLine
 10
4.542553544230948
 20
682.7928028710088
 30
0.0
 11
4.542553544230941
 21
644.959669823634
 31
0.0
  0
LINE
  5
B5B2
330
18
100
AcDbEntity
  8
01
100
AcDbLine
 10
3.042600080128869
 20
674.138310170348
 30
0.0
 11
2.542600080128869
 21
674.2383113337451
 31
0.0
  0
LINE
  5
B5B3
330
18
100
AcDbEntity
  8
01
100
AcDbLine
 10
2.542600080128869
 20
674.2383113337451
 30
0.0
 11
6.542600080128869
 21
675.0383020265676
 31
0.0
  0
LINE
  5
B5B4
330
18
100
AcDbEntity
  8
01
100
AcDbLine
 10
6.542600080128869
 20
675.0383020265676
 30
0.0
 11
6.042600080128869
 21
675.1383031899647
 31
0.0
  0
LINE
  5
B5B5
330
18
100
AcDbEntity
  8
01
100
AcDbLine
 10
3.042600080128869
 20
672.538310170348
 30
0.0
 11
2.542600080128869
 21
672.6383113337452
 31
0.0
  0
LINE
  5
B5B6
330
18
100
AcDbEntity
  8
01
100
AcDbLine
 10
6.542600080128869
 20
673.4383020265677
 30
0.0
 11
6.042600080128869
 21
673.5383031899648
 31
0.0
  0
LINE
  5
B5B7
330
18
100
AcDbEntity
  8
01
100
AcDbLine
 10
2.542600080128869
 20
672.6383113337452
 30
0.0
 11
6.542600080128869
 21
673.4383020265677
 31
0.0
  0
LINE
  5
B5B8
330
18
100
AcDbEntity
  8
01
100
AcDbLine
 10
3.042600080128868
 20
670.9383101703479
 30
0.0
 11
2.542600080128868
 21
671.038311333745
 31
0.0
  0
LINE
  5
B5B9
330
18
100
AcDbEntity
  8
01
100
AcDbLine
 10
2.542600080128868
 20
671.038311333745
 30
0.0
 11
6.542600080128869
 21
671.8383020265676
 31
0.0
  0
LINE
  5
B5BA
330
18
100
AcDbEntity
  8
01
100
AcDbLine
 10
6.542600080128869
 20
671.8383020265676
 30
0.0
 11
6.042600080128868
 21
671.9383031899647
 31
0.0
  0
LINE
  5
B5BB
330
18
100
AcDbEntity
  8
01
100
AcDbLine
 10
3.042600080128867
 20
662.9383101703479
 30
0.0
 11
2.542600080128867
 21
663.038311333745
 31
0.0
  0
LINE
  5
B5BC
330
18
100
AcDbEntity
  8
01
100
AcDbLine
 10
6.542600080128867
 20
663.8383020265676
 30
0.0
 11
6.042600080128867
 21
663.9383031899647
 31
0.0
  0
LINE
  5
B5BD
330
18
100
AcDbEntity
  8
01
100
AcDbLine
 10
6.542600080128867
 20
665.4383020265677
 30
0.0
 11
6.042600080128867
 21
665.5383031899648
 31
0.0
  0
LINE
  5
B5BE
330
18
100
AcDbEntity
  8
01
100
AcDbLine
 10
3.042600080128867
 20
664.538310170348
 30
0.0
 11
2.542600080128867
 21
664.6383113337452
 31
0.0
  0
LINE
  5
B5BF
330
18
100
AcDbEntity
  8
01
100
AcDbLine
 10
3.042600080128867
 20
666.138310170348
 30
0.0
 11
2.542600080128867
 21
666.2383113337451
 31
0.0
  0
LINE
  5
B5C0
330
18
100
AcDbEntity
  8
01
100
AcDbLine
 10
2.542600080128867
 20
664.6383113337452
 30
0.0
 11
6.542600080128867
 21
665.4383020265677
 31
0.0
  0
LINE
  5
B5C1
330
18
100
AcDbEntity
  8
01
100
AcDbLine
 10
2.542600080128867
 20
663.038311333745
 30
0.0
 11
6.542600080128867
 21
663.8383020265676
 31
0.0
  0
LINE
  5
B5C2
330
18
100
AcDbEntity
  8
01
100
AcDbLine
 10
3.042600080128868
 20
667.7383101703479
 30
0.0
 11
2.542600080128868
 21
667.838311333745
 31
0.0
  0
LINE
  5
B5C3
330
18
100
AcDbEntity
  8
01
100
AcDbLine
 10
3.042600080128869
 20
675.9383101703479
 30
0.0
 11
2.542600080128869
 21
676.038311333745
 31
0.0
  0
LINE
  5
B5C4
330
18
100
AcDbEntity
  8
01
100
AcDbLine
 10
2.542600080128869
 20
676.038311333745
 30
0.0
 11
6.316193027924902
 21
676.8383025533702
 31
0.0
  0
LINE
  5
B5C5
330
18
100
AcDbEntity
  8
01
100
AcDbLine
 10
6.316193027924902
 20
676.8383025533702
 30
0.0
 11
5.779599292653762
 21
676.9675732510001
 31
0.0
  0
LINE
  5
B5C6
330
18
100
AcDbEntity
  8
01
100
AcDbLine
 10
6.542600080128867
 20
668.6383020265675
 30
0.0
 11
6.042600080128868
 21
668.7383031899647
 31
0.0
  0
LINE
  5
B5C7
330
18
100
AcDbEntity
  8
01
100
AcDbLine
 10
6.542600080128868
 20
670.2383020265677
 30
0.0
 11
6.042600080128868
 21
670.3383031899648
 31
0.0
  0
LINE
  5
B5C8
330
18
100
AcDbEntity
  8
01
100
AcDbLine
 10
3.042600080128868
 20
669.338310170348
 30
0.0
 11
2.542600080128868
 21
669.4383113337451
 31
0.0
  0
LINE
  5
B5C9
330
18
100
AcDbEntity
  8
01
100
AcDbLine
 10
2.542600080128868
 20
669.4383113337451
 30
0.0
 11
6.542600080128868
 21
670.2383020265677
 31
0.0
  0
LINE
  5
B5CA
330
18
100
AcDbEntity
  8
01
100
AcDbLine
 10
2.542600080128868
 20
667.838311333745
 30
0.0
 11
6.542600080128867
 21
668.6383020265675
 31
0.0
  0
LINE
  5
B5CB
330
18
100
AcDbEntity
  8
01
100
AcDbLine
 10
2.995416222187606
 20
677.6383102801348
 30
0.0
 11
5.863378923518105
 21
678.4383036069759
 31
0.0
  0
LINE
  5
B5CC
330
18
100
AcDbEntity
  8
01
100
AcDbLine
 10
3.448229730235886
 20
679.2383092265305
 30
0.0
 11
5.410564819111307
 21
680.0383046605815
 31
0.0
  0
LINE
  5
B5CD
330
18
100
AcDbEntity
  8
01
100
AcDbLine
 10
5.863378923518105
 20
678.4383036069759
 30
0.0
 11
5.311629459714829
 21
678.6210677496039
 31
0.0
  0
LINE
  5
B5CE
330
18
100
AcDbEntity
  8
01
100
AcDbLine
 10
3.905401570866963
 20
679.0868734300901
 30
0.0
 11
3.448229730235886
 21
679.2383092265305
 31
0.0
  0
LINE
  5
B5CF
330
18
100
AcDbEntity
  8
01
100
AcDbLine
 10
5.410564819111307
 20
680.0383046605815
 30
0.0
 11
4.822288244068893
 21
680.3500745168336
 31
0.0
  0
LINE
  5
B5D0
330
18
100
AcDbEntity
  8
01
100
AcDbLine
 10
3.463514677337577
 20
677.5255407677847
 30
0.0
 11
2.995416222187606
 21
677.6383102801348
 31
0.0
  0
LINE
  5
B5D1
330
18
100
AcDbEntity
  8
01
100
AcDbLine
 10
6.542600080128867
 20
667.0383020265676
 30
0.0
 11
6.042600080128867
 21
667.1383031899647
 31
0.0
  0
LINE
  5
B5D2
330
18
100
AcDbEntity
  8
01
100
AcDbLine
 10
2.542600080128867
 20
666.2383113337451
 30
0.0
 11
6.542600080128867
 21
667.0383020265676
 31
0.0
  0
LINE
  5
B5D3
330
18
100
AcDbEntity
  8
01
100
AcDbLine
 10
6.042600080128864
 20
649.3383031899479
 30
0.0
 11
6.542600080128864
 21
649.4383020265501
 31
0.0
  0
LINE
  5
B5D4
330
18
100
AcDbEntity
  8
01
100
AcDbLine
 10
2.542600080128865
 20
650.2383113337363
 30
0.0
 11
6.542600080128865
 21
651.0383020265544
 31
0.0
  0
LINE
  5
B5D5
330
18
100
AcDbEntity
  8
01
100
AcDbLine
 10
2.542600080128865
 20
653.4383113337362
 30
0.0
 11
6.542600080128866
 21
654.2383020265545
 31
0.0
  0
LINE
  5
B5D6
330
18
100
AcDbEntity
  8
01
100
AcDbLine
 10
6.542600080128866
 20
654.2383020265545
 30
0.0
 11
6.042600080128866
 21
654.3383031899523
 31
0.0
  0
LINE
  5
B5D7
330
18
100
AcDbEntity
  8
01
100
AcDbLine
 10
6.542600080128865
 20
651.0383020265544
 30
0.0
 11
6.042600080128865
 21
651.1383031899522
 31
0.0
  0
LINE
  5
B5D8
330
18
100
AcDbEntity
  8
01
100
AcDbLine
 10
3.042600080128865
 20
651.7383101703385
 30
0.0
 11
2.542600080128865
 21
651.8383113337361
 31
0.0
  0
LINE
  5
B5D9
330
18
100
AcDbEntity
  8
01
100
AcDbLine
 10
6.542600080128866
 20
652.6383020265544
 30
0.0
 11
6.042600080128865
 21
652.7383031899521
 31
0.0
  0
LINE
  5
B5DA
330
18
100
AcDbEntity
  8
01
100
AcDbLine
 10
2.542600080128865
 20
651.8383113337361
 30
0.0
 11
6.542600080128866
 21
652.6383020265544
 31
0.0
  0
LINE
  5
B5DB
330
18
100
AcDbEntity
  8
01
100
AcDbLine
 10
3.042600080128865
 20
653.3383101703387
 30
0.0
 11
2.542600080128865
 21
653.4383113337362
 31
0.0
  0
LINE
  5
B5DC
330
18
100
AcDbEntity
  8
01
100
AcDbLine
 10
6.542600080128864
 20
649.4383020265501
 30
0.0
 11
6.042600080128865
 21
649.5383031899478
 31
0.0
  0
LINE
  5
B5DD
330
18
100
AcDbEntity
  8
01
100
AcDbLine
 10
3.042600080128865
 20
650.1383101703386
 30
0.0
 11
2.542600080128865
 21
650.2383113337363
 31
0.0
  0
LINE
  5
B5DE
330
18
100
AcDbEntity
  8
01
100
AcDbLine
 10
0.542553544230941
 20
646.6383159875514
 30
0.0
 11
8.542553544230941
 21
646.6382973731922
 31
0.0
  0
LINE
  5
B5DF
330
18
100
AcDbEntity
  8
01
100
AcDbLine
 10
3.042600080128866
 20
654.9383101703429
 30
0.0
 11
2.542600080128866
 21
655.0383113337407
 31
0.0
  0
LINE
  5
B5E0
330
18
100
AcDbEntity
  8
01
100
AcDbLine
 10
3.042600080128866
 20
656.5383101703474
 30
0.0
 11
2.542600080128866
 21
656.6383113337449
 31
0.0
  0
LINE
  5
B5E1
330
18
100
AcDbEntity
  8
01
100
AcDbLine
 10
6.542600080128866
 20
655.838302026559
 30
0.0
 11
6.042600080128866
 21
655.9383031899565
 31
0.0
  0
LINE
  5
B5E2
330
18
100
AcDbEntity
  8
01
100
AcDbLine
 10
3.042600080128866
 20
659.7383101703474
 30
0.0
 11
2.542600080128866
 21
659.838311333745
 31
0.0
  0
LINE
  5
B5E3
330
18
100
AcDbEntity
  8
01
100
AcDbLine
 10
2.542600080128866
 20
658.2383113337448
 30
0.0
 11
6.542600080128866
 21
659.0383020265631
 31
0.0
  0
LINE
  5
B5E4
330
18
100
AcDbEntity
  8
01
100
AcDbLine
 10
6.542600080128866
 20
659.0383020265631
 30
0.0
 11
6.042600080128866
 21
659.1383031899609
 31
0.0
  0
LINE
  5
B5E5
330
18
100
AcDbEntity
  8
01
100
AcDbLine
 10
3.042600080128866
 20
658.1383101703473
 30
0.0
 11
2.542600080128866
 21
658.2383113337448
 31
0.0
  0
LINE
  5
B5E6
330
18
100
AcDbEntity
  8
01
100
AcDbLine
 10
6.542600080128866
 20
657.4383020265632
 30
0.0
 11
6.042600080128866
 21
657.538303189961
 31
0.0
  0
LINE
  5
B5E7
330
18
100
AcDbEntity
  8
01
100
AcDbLine
 10
6.542600080128867
 20
662.2383020265677
 30
0.0
 11
6.042600080128866
 21
662.3383031899648
 31
0.0
  0
LINE
  5
B5E8
330
18
100
AcDbEntity
  8
01
100
AcDbLine
 10
6.542600080128866
 20
660.6383020265632
 30
0.0
 11
6.042600080128866
 21
660.738303189961
 31
0.0
  0
LINE
  5
B5E9
330
18
100
AcDbEntity
  8
01
100
AcDbLine
 10
3.042600080128866
 20
661.3383101703473
 30
0.0
 11
2.542600080128866
 21
661.4383113337451
 31
0.0
  0
LINE
  5
B5EA
330
18
100
AcDbEntity
  8
01
100
AcDbLine
 10
2.542600080128866
 20
661.4383113337451
 30
0.0
 11
6.542600080128867
 21
662.2383020265677
 31
0.0
  0
LINE
  5
B5EB
330
18
100
AcDbEntity
  8
01
100
AcDbLine
 10
2.542600080128866
 20
659.838311333745
 30
0.0
 11
6.542600080128866
 21
660.6383020265632
 31
0.0
  0
LINE
  5
B5EC
330
18
100
AcDbEntity
  8
01
100
AcDbLine
 10
2.542600080128866
 20
656.6383113337449
 30
0.0
 11
6.542600080128866
 21
657.4383020265632
 31
0.0
  0
LINE
  5
B5ED
330
18
100
AcDbEntity
  8
01
100
AcDbLine
 10
2.542600080128866
 20
655.0383113337407
 30
0.0
 11
6.542600080128866
 21
655.838302026559
 31
0.0
  0
LINE
  5
B5EF
330
18
100
AcDbEntity
  8
1CENTER
100
AcDbLine
 10
234.5425535442382
 20
682.7928028710088
 30
0.0
 11
234.5425535442382
 21
644.959669823634
 31
0.0
  0
LINE
  5
B5F0
330
18
100
AcDbEntity
  8
01
100
AcDbLine
 10
233.0426000801361
 20
674.138310170348
 30
0.0
 11
232.5426000801361
 21
674.2383113337451
 31
0.0
  0
LINE
  5
B5F1
330
18
100
AcDbEntity
  8
01
100
AcDbLine
 10
232.5426000801361
 20
674.2383113337451
 30
0.0
 11
236.5426000801361
 21
675.0383020265676
 31
0.0
  0
LINE
  5
B5F2
330
18
100
AcDbEntity
  8
01
100
AcDbLine
 10
236.5426000801361
 20
675.0383020265676
 30
0.0
 11
236.0426000801361
 21
675.1383031899647
 31
0.0
  0
LINE
  5
B5F3
330
18
100
AcDbEntity
  8
01
100
AcDbLine
 10
233.0426000801361
 20
672.538310170348
 30
0.0
 11
232.5426000801361
 21
672.6383113337452
 31
0.0
  0
LINE
  5
B5F4
330
18
100
AcDbEntity
  8
01
100
AcDbLine
 10
236.5426000801361
 20
673.4383020265677
 30
0.0
 11
236.0426000801361
 21
673.5383031899648
 31
0.0
  0
LINE
  5
B5F5
330
18
100
AcDbEntity
  8
01
100
AcDbLine
 10
232.5426000801361
 20
672.6383113337452
 30
0.0
 11
236.5426000801361
 21
673.4383020265677
 31
0.0
  0
LINE
  5
B5F6
330
18
100
AcDbEntity
  8
01
100
AcDbLine
 10
233.0426000801361
 20
670.9383101703479
 30
0.0
 11
232.5426000801361
 21
671.038311333745
 31
0.0
  0
LINE
  5
B5F7
330
18
100
AcDbEntity
  8
01
100
AcDbLine
 10
232.5426000801361
 20
671.038311333745
 30
0.0
 11
236.5426000801361
 21
671.8383020265676
 31
0.0
  0
LINE
  5
B5F8
330
18
100
AcDbEntity
  8
01
100
AcDbLine
 10
236.5426000801361
 20
671.8383020265676
 30
0.0
 11
236.0426000801361
 21
671.9383031899647
 31
0.0
  0
LINE
  5
B5F9
330
18
100
AcDbEntity
  8
01
100
AcDbLine
 10
233.0426000801361
 20
662.9383101703479
 30
0.0
 11
232.5426000801361
 21
663.038311333745
 31
0.0
  0
LINE
  5
B5FA
330
18
100
AcDbEntity
  8
01
100
AcDbLine
 10
236.5426000801361
 20
663.8383020265676
 30
0.0
 11
236.0426000801361
 21
663.9383031899647
 31
0.0
  0
LINE
  5
B5FB
330
18
100
AcDbEntity
  8
01
100
AcDbLine
 10
236.5426000801361
 20
665.4383020265677
 30
0.0
 11
236.0426000801361
 21
665.5383031899648
 31
0.0
  0
LINE
  5
B5FC
330
18
100
AcDbEntity
  8
01
100
AcDbLine
 10
233.0426000801361
 20
664.538310170348
 30
0.0
 11
232.5426000801361
 21
664.6383113337452
 31
0.0
  0
LINE
  5
B5FD
330
18
100
AcDbEntity
  8
01
100
AcDbLine
 10
233.0426000801361
 20
666.138310170348
 30
0.0
 11
232.5426000801361
 21
666.2383113337451
 31
0.0
  0
LINE
  5
B5FE
330
18
100
AcDbEntity
  8
01
100
AcDbLine
 10
232.5426000801361
 20
664.6383113337452
 30
0.0
 11
236.5426000801361
 21
665.4383020265677
 31
0.0
  0
LINE
  5
B5FF
330
18
100
AcDbEntity
  8
01
100
AcDbLine
 10
232.5426000801361
 20
663.038311333745
 30
0.0
 11
236.5426000801361
 21
663.8383020265676
 31
0.0
  0
LINE
  5
B600
330
18
100
AcDbEntity
  8
01
100
AcDbLine
 10
233.0426000801361
 20
667.7383101703479
 30
0.0
 11
232.5426000801361
 21
667.838311333745
 31
0.0
  0
LINE
  5
B601
330
18
100
AcDbEntity
  8
01
100
AcDbLine
 10
233.0426000801361
 20
675.9383101703479
 30
0.0
 11
232.5426000801361
 21
676.038311333745
 31
0.0
  0
LINE
  5
B602
330
18
100
AcDbEntity
  8
01
100
AcDbLine
 10
232.5426000801361
 20
676.038311333745
 30
0.0
 11
236.3161930279321
 21
676.8383025533702
 31
0.0
  0
LINE
  5
B603
330
18
100
AcDbEntity
  8
01
100
AcDbLine
 10
236.3161930279321
 20
676.8383025533702
 30
0.0
 11
235.779599292661
 21
676.9675732510001
 31
0.0
  0
LINE
  5
B604
330
18
100
AcDbEntity
  8
01
100
AcDbLine
 10
236.5426000801361
 20
668.6383020265675
 30
0.0
 11
236.0426000801361
 21
668.7383031899647
 31
0.0
  0
LINE
  5
B605
330
18
100
AcDbEntity
  8
01
100
AcDbLine
 10
236.5426000801361
 20
670.2383020265677
 30
0.0
 11
236.0426000801361
 21
670.3383031899648
 31
0.0
  0
LINE
  5
B606
330
18
100
AcDbEntity
  8
01
100
AcDbLine
 10
233.0426000801361
 20
669.338310170348
 30
0.0
 11
232.5426000801361
 21
669.4383113337451
 31
0.0
  0
LINE
  5
B607
330
18
100
AcDbEntity
  8
01
100
AcDbLine
 10
232.5426000801361
 20
669.4383113337451
 30
0.0
 11
236.5426000801361
 21
670.2383020265677
 31
0.0
  0
LINE
  5
B608
330
18
100
AcDbEntity
  8
01
100
AcDbLine
 10
232.5426000801361
 20
667.838311333745
 30
0.0
 11
236.5426000801361
 21
668.6383020265675
 31
0.0
  0
LINE
  5
B609
330
18
100
AcDbEntity
  8
01
100
AcDbLine
 10
232.9954162221948
 20
677.6383102801348
 30
0.0
 11
235.8633789235253
 21
678.4383036069759
 31
0.0
  0
LINE
  5
B60A
330
18
100
AcDbEntity
  8
01
100
AcDbLine
 10
233.4482297302431
 20
679.2383092265305
 30
0.0
 11
235.4105648191185
 21
680.0383046605815
 31
0.0
  0
LINE
  5
B60B
330
18
100
AcDbEntity
  8
01
100
AcDbLine
 10
235.8633789235253
 20
678.4383036069759
 30
0.0
 11
235.3116294597221
 21
678.6210677496039
 31
0.0
  0
LINE
  5
B60C
330
18
100
AcDbEntity
  8
01
100
AcDbLine
 10
233.9054015708742
 20
679.0868734300901
 30
0.0
 11
233.4482297302431
 21
679.2383092265305
 31
0.0
  0
LINE
  5
B60D
330
18
100
AcDbEntity
  8
01
100
AcDbLine
 10
235.4105648191185
 20
680.0383046605815
 30
0.0
 11
234.8222882440761
 21
680.3500745168336
 31
0.0
  0
LINE
  5
B60E
330
18
100
AcDbEntity
  8
01
100
AcDbLine
 10
233.4635146773448
 20
677.5255407677847
 30
0.0
 11
232.9954162221948
 21
677.6383102801348
 31
0.0
  0
LINE
  5
B60F
330
18
100
AcDbEntity
  8
01
100
AcDbLine
 10
236.5426000801361
 20
667.0383020265676
 30
0.0
 11
236.0426000801361
 21
667.1383031899647
 31
0.0
  0
LINE
  5
B610
330
18
100
AcDbEntity
  8
01
100
AcDbLine
 10
232.5426000801361
 20
666.2383113337451
 30
0.0
 11
236.5426000801361
 21
667.0383020265676
 31
0.0
  0
LINE
  5
B611
330
18
100
AcDbEntity
  8
01
100
AcDbLine
 10
236.0426000801361
 20
649.3383031899479
 30
0.0
 11
236.5426000801361
 21
649.4383020265501
 31
0.0
  0
LINE
  5
B612
330
18
100
AcDbEntity
  8
01
100
AcDbLine
 10
232.5426000801361
 20
650.2383113337363
 30
0.0
 11
236.5426000801361
 21
651.0383020265544
 31
0.0
  0
LINE
  5
B613
330
18
100
AcDbEntity
  8
01
100
AcDbLine
 10
232.5426000801361
 20
653.4383113337362
 30
0.0
 11
236.5426000801361
 21
654.2383020265545
 31
0.0
  0
LINE
  5
B614
330
18
100
AcDbEntity
  8
01
100
AcDbLine
 10
236.5426000801361
 20
654.2383020265545
 30
0.0
 11
236.0426000801361
 21
654.3383031899523
 31
0.0
  0
LINE
  5
B615
330
18
100
AcDbEntity
  8
01
100
AcDbLine
 10
236.5426000801361
 20
651.0383020265544
 30
0.0
 11
236.0426000801361
 21
651.1383031899522
 31
0.0
  0
LINE
  5
B616
330
18
100
AcDbEntity
  8
01
100
AcDbLine
 10
233.0426000801361
 20
651.7383101703385
 30
0.0
 11
232.5426000801361
 21
651.8383113337361
 31
0.0
  0
LINE
  5
B617
330
18
100
AcDbEntity
  8
01
100
AcDbLine
 10
236.5426000801361
 20
652.6383020265544
 30
0.0
 11
236.0426000801361
 21
652.7383031899521
 31
0.0
  0
LINE
  5
B618
330
18
100
AcDbEntity
  8
01
100
AcDbLine
 10
232.5426000801361
 20
651.8383113337361
 30
0.0
 11
236.5426000801361
 21
652.6383020265544
 31
0.0
  0
LINE
  5
B619
330
18
100
AcDbEntity
  8
01
100
AcDbLine
 10
233.0426000801361
 20
653.3383101703387
 30
0.0
 11
232.5426000801361
 21
653.4383113337362
 31
0.0
  0
LINE
  5
B61A
330
18
100
AcDbEntity
  8
01
100
AcDbLine
 10
236.5426000801361
 20
649.4383020265501
 30
0.0
 11
236.0426000801361
 21
649.5383031899478
 31
0.0
  0
LINE
  5
B61B
330
18
100
AcDbEntity
  8
01
100
AcDbLine
 10
233.0426000801361
 20
650.1383101703386
 30
0.0
 11
232.5426000801361
 21
650.2383113337363
 31
0.0
  0
LINE
  5
B61C
330
18
100
AcDbEntity
  8
01
100
AcDbLine
 10
230.5425535442382
 20
646.6383159875514
 30
0.0
 11
238.5425535442382
 21
646.6382973731922
 31
0.0
  0
LINE
  5
B61D
330
18
100
AcDbEntity
  8
01
100
AcDbLine
 10
233.0426000801361
 20
654.9383101703429
 30
0.0
 11
232.5426000801361
 21
655.0383113337407
 31
0.0
  0
LINE
  5
B61E
330
18
100
AcDbEntity
  8
01
100
AcDbLine
 10
233.0426000801361
 20
656.5383101703474
 30
0.0
 11
232.5426000801361
 21
656.6383113337449
 31
0.0
  0
LINE
  5
B61F
330
18
100
AcDbEntity
  8
01
100
AcDbLine
 10
236.5426000801361
 20
655.838302026559
 30
0.0
 11
236.0426000801361
 21
655.9383031899565
 31
0.0
  0
LINE
  5
B620
330
18
100
AcDbEntity
  8
01
100
AcDbLine
 10
233.0426000801361
 20
659.7383101703474
 30
0.0
 11
232.5426000801361
 21
659.838311333745
 31
0.0
  0
LINE
  5
B621
330
18
100
AcDbEntity
  8
01
100
AcDbLine
 10
232.5426000801361
 20
658.2383113337448
 30
0.0
 11
236.5426000801361
 21
659.0383020265631
 31
0.0
  0
LINE
  5
B622
330
18
100
AcDbEntity
  8
01
100
AcDbLine
 10
236.5426000801361
 20
659.0383020265631
 30
0.0
 11
236.0426000801361
 21
659.1383031899609
 31
0.0
  0
LINE
  5
B623
330
18
100
AcDbEntity
  8
01
100
AcDbLine
 10
233.0426000801361
 20
658.1383101703473
 30
0.0
 11
232.5426000801361
 21
658.2383113337448
 31
0.0
  0
LINE
  5
B624
330
18
100
AcDbEntity
  8
01
100
AcDbLine
 10
236.5426000801361
 20
657.4383020265632
 30
0.0
 11
236.0426000801361
 21
657.538303189961
 31
0.0
  0
LINE
  5
B625
330
18
100
AcDbEntity
  8
01
100
AcDbLine
 10
236.5426000801361
 20
662.2383020265677
 30
0.0
 11
236.0426000801361
 21
662.3383031899648
 31
0.0
  0
LINE
  5
B626
330
18
100
AcDbEntity
  8
01
100
AcDbLine
 10
236.5426000801361
 20
660.6383020265632
 30
0.0
 11
236.0426000801361
 21
660.738303189961
 31
0.0
  0
LINE
  5
B627
330
18
100
AcDbEntity
  8
01
100
AcDbLine
 10
233.0426000801361
 20
661.3383101703473
 30
0.0
 11
232.5426000801361
 21
661.4383113337451
 31
0.0
  0
LINE
  5
B628
330
18
100
AcDbEntity
  8
01
100
AcDbLine
 10
232.5426000801361
 20
661.4383113337451
 30
0.0
 11
236.5426000801361
 21
662.2383020265677
 31
0.0
  0
LINE
  5
B629
330
18
100
AcDbEntity
  8
01
100
AcDbLine
 10
232.5426000801361
 20
659.838311333745
 30
0.0
 11
236.5426000801361
 21
660.6383020265632
 31
0.0
  0
LINE
  5
B62A
330
18
100
AcDbEntity
  8
01
100
AcDbLine
 10
232.5426000801361
 20
656.6383113337449
 30
0.0
 11
236.5426000801361
 21
657.4383020265632
 31
0.0
  0
LINE
  5
B62B
330
18
100
AcDbEntity
  8
01
100
AcDbLine
 10
232.5426000801361
 20
655.0383113337407
 30
0.0
 11
236.5426000801361
 21
655.838302026559
 31
0.0
  0
LINE
  5
B62D
330
18
100
AcDbEntity
  8
1CENTER
100
AcDbLine
 10
204.5425535442382
 20
682.7928028710088
 30
0.0
 11
204.5425535442382
 21
644.959669823634
 31
0.0
  0
LINE
  5
B62E
330
18
100
AcDbEntity
  8
01
100
AcDbLine
 10
203.0426000801361
 20
674.138310170348
 30
0.0
 11
202.5426000801361
 21
674.2383113337451
 31
0.0
  0
LINE
  5
B62F
330
18
100
AcDbEntity
  8
01
100
AcDbLine
 10
202.5426000801361
 20
674.2383113337451
 30
0.0
 11
206.5426000801361
 21
675.0383020265676
 31
0.0
  0
LINE
  5
B630
330
18
100
AcDbEntity
  8
01
100
AcDbLine
 10
206.5426000801361
 20
675.0383020265676
 30
0.0
 11
206.0426000801361
 21
675.1383031899647
 31
0.0
  0
LINE
  5
B631
330
18
100
AcDbEntity
  8
01
100
AcDbLine
 10
203.0426000801361
 20
672.538310170348
 30
0.0
 11
202.5426000801361
 21
672.6383113337452
 31
0.0
  0
LINE
  5
B632
330
18
100
AcDbEntity
  8
01
100
AcDbLine
 10
206.5426000801361
 20
673.4383020265677
 30
0.0
 11
206.0426000801361
 21
673.5383031899648
 31
0.0
  0
LINE
  5
B633
330
18
100
AcDbEntity
  8
01
100
AcDbLine
 10
202.5426000801361
 20
672.6383113337452
 30
0.0
 11
206.5426000801361
 21
673.4383020265677
 31
0.0
  0
LINE
  5
B634
330
18
100
AcDbEntity
  8
01
100
AcDbLine
 10
203.0426000801361
 20
670.9383101703479
 30
0.0
 11
202.5426000801361
 21
671.038311333745
 31
0.0
  0
LINE
  5
B635
330
18
100
AcDbEntity
  8
01
100
AcDbLine
 10
202.5426000801361
 20
671.038311333745
 30
0.0
 11
206.5426000801361
 21
671.8383020265676
 31
0.0
  0
LINE
  5
B636
330
18
100
AcDbEntity
  8
01
100
AcDbLine
 10
206.5426000801361
 20
671.8383020265676
 30
0.0
 11
206.0426000801361
 21
671.9383031899647
 31
0.0
  0
LINE
  5
B637
330
18
100
AcDbEntity
  8
01
100
AcDbLine
 10
203.0426000801361
 20
662.9383101703479
 30
0.0
 11
202.5426000801361
 21
663.038311333745
 31
0.0
  0
LINE
  5
B638
330
18
100
AcDbEntity
  8
01
100
AcDbLine
 10
206.5426000801361
 20
663.8383020265676
 30
0.0
 11
206.0426000801361
 21
663.9383031899647
 31
0.0
  0
LINE
  5
B639
330
18
100
AcDbEntity
  8
01
100
AcDbLine
 10
206.5426000801361
 20
665.4383020265677
 30
0.0
 11
206.0426000801361
 21
665.5383031899648
 31
0.0
  0
LINE
  5
B63A
330
18
100
AcDbEntity
  8
01
100
AcDbLine
 10
203.0426000801361
 20
664.538310170348
 30
0.0
 11
202.5426000801361
 21
664.6383113337452
 31
0.0
  0
LINE
  5
B63B
330
18
100
AcDbEntity
  8
01
100
AcDbLine
 10
203.0426000801361
 20
666.138310170348
 30
0.0
 11
202.5426000801361
 21
666.2383113337451
 31
0.0
  0
LINE
  5
B63C
330
18
100
AcDbEntity
  8
01
100
AcDbLine
 10
202.5426000801361
 20
664.6383113337452
 30
0.0
 11
206.5426000801361
 21
665.4383020265677
 31
0.0
  0
LINE
  5
B63D
330
18
100
AcDbEntity
  8
01
100
AcDbLine
 10
202.5426000801361
 20
663.038311333745
 30
0.0
 11
206.5426000801361
 21
663.8383020265676
 31
0.0
  0
LINE
  5
B63E
330
18
100
AcDbEntity
  8
01
100
AcDbLine
 10
203.0426000801361
 20
667.7383101703479
 30
0.0
 11
202.5426000801361
 21
667.838311333745
 31
0.0
  0
LINE
  5
B63F
330
18
100
AcDbEntity
  8
01
100
AcDbLine
 10
203.0426000801361
 20
675.9383101703479
 30
0.0
 11
202.5426000801361
 21
676.038311333745
 31
0.0
  0
LINE
  5
B640
330
18
100
AcDbEntity
  8
01
100
AcDbLine
 10
202.5426000801361
 20
676.038311333745
 30
0.0
 11
206.3161930279321
 21
676.8383025533702
 31
0.0
  0
LINE
  5
B641
330
18
100
AcDbEntity
  8
01
100
AcDbLine
 10
206.3161930279321
 20
676.8383025533702
 30
0.0
 11
205.779599292661
 21
676.9675732510001
 31
0.0
  0
LINE
  5
B642
330
18
100
AcDbEntity
  8
01
100
AcDbLine
 10
206.5426000801361
 20
668.6383020265675
 30
0.0
 11
206.0426000801361
 21
668.7383031899647
 31
0.0
  0
LINE
  5
B643
330
18
100
AcDbEntity
  8
01
100
AcDbLine
 10
206.5426000801361
 20
670.2383020265677
 30
0.0
 11
206.0426000801361
 21
670.3383031899648
 31
0.0
  0
LINE
  5
B644
330
18
100
AcDbEntity
  8
01
100
AcDbLine
 10
203.0426000801361
 20
669.338310170348
 30
0.0
 11
202.5426000801361
 21
669.4383113337451
 31
0.0
  0
LINE
  5
B645
330
18
100
AcDbEntity
  8
01
100
AcDbLine
 10
202.5426000801361
 20
669.4383113337451
 30
0.0
 11
206.5426000801361
 21
670.2383020265677
 31
0.0
  0
LINE
  5
B646
330
18
100
AcDbEntity
  8
01
100
AcDbLine
 10
202.5426000801361
 20
667.838311333745
 30
0.0
 11
206.5426000801361
 21
668.6383020265675
 31
0.0
  0
LINE
  5
B647
330
18
100
AcDbEntity
  8
01
100
AcDbLine
 10
202.9954162221948
 20
677.6383102801348
 30
0.0
 11
205.8633789235253
 21
678.4383036069759
 31
0.0
  0
LINE
  5
B648
330
18
100
AcDbEntity
  8
01
100
AcDbLine
 10
203.4482297302431
 20
679.2383092265305
 30
0.0
 11
205.4105648191185
 21
680.0383046605815
 31
0.0
  0
LINE
  5
B649
330
18
100
AcDbEntity
  8
01
100
AcDbLine
 10
205.8633789235253
 20
678.4383036069759
 30
0.0
 11
205.3116294597221
 21
678.6210677496039
 31
0.0
  0
LINE
  5
B64A
330
18
100
AcDbEntity
  8
01
100
AcDbLine
 10
203.9054015708742
 20
679.0868734300901
 30
0.0
 11
203.4482297302431
 21
679.2383092265305
 31
0.0
  0
LINE
  5
B64B
330
18
100
AcDbEntity
  8
01
100
AcDbLine
 10
205.4105648191185
 20
680.0383046605815
 30
0.0
 11
204.8222882440761
 21
680.3500745168336
 31
0.0
  0
LINE
  5
B64C
330
18
100
AcDbEntity
  8
01
100
AcDbLine
 10
203.4635146773448
 20
677.5255407677847
 30
0.0
 11
202.9954162221948
 21
677.6383102801348
 31
0.0
  0
LINE
  5
B64D
330
18
100
AcDbEntity
  8
01
100
AcDbLine
 10
206.5426000801361
 20
667.0383020265676
 30
0.0
 11
206.0426000801361
 21
667.1383031899647
 31
0.0
  0
LINE
  5
B64E
330
18
100
AcDbEntity
  8
01
100
AcDbLine
 10
202.5426000801361
 20
666.2383113337451
 30
0.0
 11
206.5426000801361
 21
667.0383020265676
 31
0.0
  0
LINE
  5
B64F
330
18
100
AcDbEntity
  8
01
100
AcDbLine
 10
206.0426000801361
 20
649.3383031899479
 30
0.0
 11
206.5426000801361
 21
649.4383020265501
 31
0.0
  0
LINE
  5
B650
330
18
100
AcDbEntity
  8
01
100
AcDbLine
 10
202.5426000801361
 20
650.2383113337363
 30
0.0
 11
206.5426000801361
 21
651.0383020265544
 31
0.0
  0
LINE
  5
B651
330
18
100
AcDbEntity
  8
01
100
AcDbLine
 10
202.5426000801361
 20
653.4383113337362
 30
0.0
 11
206.5426000801361
 21
654.2383020265545
 31
0.0
  0
LINE
  5
B652
330
18
100
AcDbEntity
  8
01
100
AcDbLine
 10
206.5426000801361
 20
654.2383020265545
 30
0.0
 11
206.0426000801361
 21
654.3383031899523
 31
0.0
  0
LINE
  5
B653
330
18
100
AcDbEntity
  8
01
100
AcDbLine
 10
206.5426000801361
 20
651.0383020265544
 30
0.0
 11
206.0426000801361
 21
651.1383031899522
 31
0.0
  0
LINE
  5
B654
330
18
100
AcDbEntity
  8
01
100
AcDbLine
 10
203.0426000801361
 20
651.7383101703385
 30
0.0
 11
202.5426000801361
 21
651.8383113337361
 31
0.0
  0
LINE
  5
B655
330
18
100
AcDbEntity
  8
01
100
AcDbLine
 10
206.5426000801361
 20
652.6383020265544
 30
0.0
 11
206.0426000801361
 21
652.7383031899521
 31
0.0
  0
LINE
  5
B656
330
18
100
AcDbEntity
  8
01
100
AcDbLine
 10
202.5426000801361
 20
651.8383113337361
 30
0.0
 11
206.5426000801361
 21
652.6383020265544
 31
0.0
  0
LINE
  5
B657
330
18
100
AcDbEntity
  8
01
100
AcDbLine
 10
203.0426000801361
 20
653.3383101703387
 30
0.0
 11
202.5426000801361
 21
653.4383113337362
 31
0.0
  0
LINE
  5
B658
330
18
100
AcDbEntity
  8
01
100
AcDbLine
 10
206.5426000801361
 20
649.4383020265501
 30
0.0
 11
206.0426000801361
 21
649.5383031899478
 31
0.0
  0
LINE
  5
B659
330
18
100
AcDbEntity
  8
01
100
AcDbLine
 10
203.0426000801361
 20
650.1383101703386
 30
0.0
 11
202.5426000801361
 21
650.2383113337363
 31
0.0
  0
LINE
  5
B65A
330
18
100
AcDbEntity
  8
01
100
AcDbLine
 10
200.5425535442382
 20
646.6383159875514
 30
0.0
 11
208.5425535442382
 21
646.6382973731922
 31
0.0
  0
LINE
  5
B65B
330
18
100
AcDbEntity
  8
01
100
AcDbLine
 10
203.0426000801361
 20
654.9383101703429
 30
0.0
 11
202.5426000801361
 21
655.0383113337407
 31
0.0
  0
LINE
  5
B65C
330
18
100
AcDbEntity
  8
01
100
AcDbLine
 10
203.0426000801361
 20
656.5383101703474
 30
0.0
 11
202.5426000801361
 21
656.6383113337449
 31
0.0
  0
LINE
  5
B65D
330
18
100
AcDbEntity
  8
01
100
AcDbLine
 10
206.5426000801361
 20
655.838302026559
 30
0.0
 11
206.0426000801361
 21
655.9383031899565
 31
0.0
  0
LINE
  5
B65E
330
18
100
AcDbEntity
  8
01
100
AcDbLine
 10
203.0426000801361
 20
659.7383101703474
 30
0.0
 11
202.5426000801361
 21
659.838311333745
 31
0.0
  0
LINE
  5
B65F
330
18
100
AcDbEntity
  8
01
100
AcDbLine
 10
202.5426000801361
 20
658.2383113337448
 30
0.0
 11
206.5426000801361
 21
659.0383020265631
 31
0.0
  0
LINE
  5
B660
330
18
100
AcDbEntity
  8
01
100
AcDbLine
 10
206.5426000801361
 20
659.0383020265631
 30
0.0
 11
206.0426000801361
 21
659.1383031899609
 31
0.0
  0
LINE
  5
B661
330
18
100
AcDbEntity
  8
01
100
AcDbLine
 10
203.0426000801361
 20
658.1383101703473
 30
0.0
 11
202.5426000801361
 21
658.2383113337448
 31
0.0
  0
LINE
  5
B662
330
18
100
AcDbEntity
  8
01
100
AcDbLine
 10
206.5426000801361
 20
657.4383020265632
 30
0.0
 11
206.0426000801361
 21
657.538303189961
 31
0.0
  0
LINE
  5
B663
330
18
100
AcDbEntity
  8
01
100
AcDbLine
 10
206.5426000801361
 20
662.2383020265677
 30
0.0
 11
206.0426000801361
 21
662.3383031899648
 31
0.0
  0
LINE
  5
B664
330
18
100
AcDbEntity
  8
01
100
AcDbLine
 10
206.5426000801361
 20
660.6383020265632
 30
0.0
 11
206.0426000801361
 21
660.738303189961
 31
0.0
  0
LINE
  5
B665
330
18
100
AcDbEntity
  8
01
100
AcDbLine
 10
203.0426000801361
 20
661.3383101703473
 30
0.0
 11
202.5426000801361
 21
661.4383113337451
 31
0.0
  0
LINE
  5
B666
330
18
100
AcDbEntity
  8
01
100
AcDbLine
 10
202.5426000801361
 20
661.4383113337451
 30
0.0
 11
206.5426000801361
 21
662.2383020265677
 31
0.0
  0
LINE
  5
B667
330
18
100
AcDbEntity
  8
01
100
AcDbLine
 10
202.5426000801361
 20
659.838311333745
 30
0.0
 11
206.5426000801361
 21
660.6383020265632
 31
0.0
  0
LINE
  5
B668
330
18
100
AcDbEntity
  8
01
100
AcDbLine
 10
202.5426000801361
 20
656.6383113337449
 30
0.0
 11
206.5426000801361
 21
657.4383020265632
 31
0.0
  0
LINE
  5
B669
330
18
100
AcDbEntity
  8
01
100
AcDbLine
 10
202.5426000801361
 20
655.0383113337407
 30
0.0
 11
206.5426000801361
 21
655.838302026559
 31
0.0
  0
LINE
  5
B66A
330
18
100
AcDbEntity
  8
01
100
AcDbLine
 10
605.0425535465953
 20
520.2595034632733
 30
0.0
 11
578.1425884484714
 21
520.2595034632733
 31
0.0
  0
LINE
  5
B66B
330
18
100
AcDbEntity
  8
01
100
AcDbLine
 10
578.1425884484714
 20
520.2595034632733
 30
0.0
 11
575.6425593637994
 21
522.7595499991712
 31
0.0
  0
LINE
  5
B66C
330
18
100
AcDbEntity
  8
01
100
AcDbLine
 10
575.6425593637994
 20
522.7595499991712
 30
0.0
 11
575.3425593637983
 21
522.7595499991712
 31
0.0
  0
LINE
  5
B66D
330
18
100
AcDbEntity
  8
01
100
AcDbLine
 10
575.3425593637983
 20
522.7595499991712
 30
0.0
 11
575.3425407494392
 21
514.7595499991712
 31
0.0
  0
LINE
  5
B66E
330
18
100
AcDbEntity
  8
01
100
AcDbLine
 10
575.3425407494392
 20
514.7595499991712
 30
0.0
 11
575.6425407494403
 21
514.7595499991712
 31
0.0
  0
LINE
  5
B66F
330
18
100
AcDbEntity
  8
01
100
AcDbLine
 10
575.6425407494403
 20
514.7595499991712
 30
0.0
 11
578.1425232981062
 21
517.2595034632733
 31
0.0
  0
LINE
  5
B670
330
18
100
AcDbEntity
  8
01
100
AcDbLine
 10
578.1425232981062
 20
517.2595034632733
 30
0.0
 11
605.042546566211
 21
517.2595034632733
 31
0.0
  0
LINE
  5
B671
330
18
100
AcDbEntity
  8
01
100
AcDbLine
 10
605.042546566211
 20
517.2595034632733
 30
0.0
 11
610.3425500564563
 21
518.7595034632733
 31
0.0
  0
LINE
  5
B672
330
18
100
AcDbEntity
  8
01
100
AcDbLine
 10
610.3425500564563
 20
518.7595034632733
 30
0.0
 11
605.0425535465953
 21
520.2595034632733
 31
0.0
  0
LINE
  5
B673
330
18
100
AcDbEntity
  8
01
100
AcDbLine
 10
433.0426000801434
 20
676.0383101703474
 30
0.0
 11
433.0426000801434
 21
649.1383450722235
 31
0.0
  0
LINE
  5
B674
330
18
100
AcDbEntity
  8
01
100
AcDbLine
 10
433.0426000801434
 20
649.1383450722235
 30
0.0
 11
430.5425535442455
 21
646.6383159875513
 31
0.0
  0
LINE
  5
B675
330
18
100
AcDbEntity
  8
01
100
AcDbLine
 10
430.5425535442455
 20
646.6383159875513
 30
0.0
 11
430.5425535442455
 21
646.3383159875505
 31
0.0
  0
LINE
  5
B676
330
18
100
AcDbEntity
  8
01
100
AcDbLine
 10
430.5425535442455
 20
646.3383159875505
 30
0.0
 11
438.5425535442455
 21
646.3382973731912
 31
0.0
  0
LINE
  5
B677
330
18
100
AcDbEntity
  8
01
100
AcDbLine
 10
438.5425535442455
 20
646.3382973731912
 30
0.0
 11
438.5425535442455
 21
646.6382973731922
 31
0.0
  0
LINE
  5
B678
330
18
100
AcDbEntity
  8
01
100
AcDbLine
 10
438.5425535442455
 20
646.6382973731922
 30
0.0
 11
436.0426000801434
 21
649.1382799218583
 31
0.0
  0
LINE
  5
B679
330
18
100
AcDbEntity
  8
01
100
AcDbLine
 10
436.0426000801434
 20
649.1382799218583
 30
0.0
 11
436.0426000801434
 21
676.038303189963
 31
0.0
  0
LINE
  5
B67A
330
18
100
AcDbEntity
  8
01
100
AcDbLine
 10
436.0426000801434
 20
676.038303189963
 30
0.0
 11
434.5426000801434
 21
681.3383066802083
 31
0.0
  0
LINE
  5
B67B
330
18
100
AcDbEntity
  8
01
100
AcDbLine
 10
434.5426000801434
 20
681.3383066802083
 30
0.0
 11
433.0426000801434
 21
676.0383101703474
 31
0.0
  0
LINE
  5
B67C
330
18
100
AcDbEntity
  8
01
100
AcDbLine
 10
403.0426000801434
 20
676.0383101703474
 30
0.0
 11
403.0426000801434
 21
649.1383450722235
 31
0.0
  0
LINE
  5
B67D
330
18
100
AcDbEntity
  8
01
100
AcDbLine
 10
403.0426000801434
 20
649.1383450722235
 30
0.0
 11
400.5425535442455
 21
646.6383159875513
 31
0.0
  0
LINE
  5
B67E
330
18
100
AcDbEntity
  8
01
100
AcDbLine
 10
400.5425535442455
 20
646.6383159875513
 30
0.0
 11
400.5425535442455
 21
646.3383159875505
 31
0.0
  0
LINE
  5
B67F
330
18
100
AcDbEntity
  8
01
100
AcDbLine
 10
400.5425535442455
 20
646.3383159875505
 30
0.0
 11
408.5425535442455
 21
646.3382973731912
 31
0.0
  0
LINE
  5
B680
330
18
100
AcDbEntity
  8
01
100
AcDbLine
 10
408.5425535442455
 20
646.3382973731912
 30
0.0
 11
408.5425535442455
 21
646.6382973731922
 31
0.0
  0
LINE
  5
B681
330
18
100
AcDbEntity
  8
01
100
AcDbLine
 10
408.5425535442455
 20
646.6382973731922
 30
0.0
 11
406.0426000801434
 21
649.1382799218583
 31
0.0
  0
LINE
  5
B682
330
18
100
AcDbEntity
  8
01
100
AcDbLine
 10
406.0426000801434
 20
649.1382799218583
 30
0.0
 11
406.0426000801434
 21
676.038303189963
 31
0.0
  0
LINE
  5
B683
330
18
100
AcDbEntity
  8
01
100
AcDbLine
 10
406.0426000801434
 20
676.038303189963
 30
0.0
 11
404.5426000801434
 21
681.3383066802083
 31
0.0
  0
LINE
  5
B684
330
18
100
AcDbEntity
  8
01
100
AcDbLine
 10
404.5426000801434
 20
681.3383066802083
 30
0.0
 11
403.0426000801434
 21
676.0383101703474
 31
0.0
  0
LINE
  5
B685
330
18
100
AcDbEntity
  8
01
100
AcDbLine
 10
33.04260008013251
 20
676.0383101703474
 30
0.0
 11
33.0426000801325
 21
649.1383450722235
 31
0.0
  0
LINE
  5
B686
330
18
100
AcDbEntity
  8
01
100
AcDbLine
 10
33.0426000801325
 20
649.1383450722235
 30
0.0
 11
30.54255354423458
 21
646.6383159875513
 31
0.0
  0
LINE
  5
B687
330
18
100
AcDbEntity
  8
01
100
AcDbLine
 10
30.54255354423458
 20
646.6383159875513
 30
0.0
 11
30.54255354423458
 21
646.3383159875505
 31
0.0
  0
LINE
  5
B688
330
18
100
AcDbEntity
  8
01
100
AcDbLine
 10
30.54255354423458
 20
646.3383159875505
 30
0.0
 11
38.54255354423458
 21
646.3382973731912
 31
0.0
  0
LINE
  5
B689
330
18
100
AcDbEntity
  8
01
100
AcDbLine
 10
38.54255354423458
 20
646.3382973731912
 30
0.0
 11
38.54255354423458
 21
646.6382973731922
 31
0.0
  0
LINE
  5
B68A
330
18
100
AcDbEntity
  8
01
100
AcDbLine
 10
38.54255354423458
 20
646.6382973731922
 30
0.0
 11
36.0426000801325
 21
649.1382799218583
 31
0.0
  0
LINE
  5
B68B
330
18
100
AcDbEntity
  8
01
100
AcDbLine
 10
36.0426000801325
 20
649.1382799218583
 30
0.0
 11
36.04260008013251
 21
676.038303189963
 31
0.0
  0
LINE
  5
B68C
330
18
100
AcDbEntity
  8
01
100
AcDbLine
 10
36.04260008013251
 20
676.038303189963
 30
0.0
 11
34.54260008013251
 21
681.3383066802083
 31
0.0
  0
LINE
  5
B68D
330
18
100
AcDbEntity
  8
01
100
AcDbLine
 10
34.54260008013251
 20
681.3383066802083
 30
0.0
 11
33.04260008013251
 21
676.0383101703474
 31
0.0
  0
LINE
  5
B68E
330
18
100
AcDbEntity
  8
01
100
AcDbLine
 10
3.042600080128869
 20
676.0383101703474
 30
0.0
 11
3.042600080128864
 21
649.1383450722235
 31
0.0
  0
LINE
  5
B68F
330
18
100
AcDbEntity
  8
01
100
AcDbLine
 10
3.042600080128864
 20
649.1383450722235
 30
0.0
 11
0.542553544230941
 21
646.6383159875513
 31
0.0
  0
LINE
  5
B690
330
18
100
AcDbEntity
  8
01
100
AcDbLine
 10
0.542553544230941
 20
646.6383159875513
 30
0.0
 11
0.542553544230941
 21
646.3383159875505
 31
0.0
  0
LINE
  5
B691
330
18
100
AcDbEntity
  8
01
100
AcDbLine
 10
0.542553544230941
 20
646.3383159875505
 30
0.0
 11
8.542553544230941
 21
646.3382973731912
 31
0.0
  0
LINE
  5
B692
330
18
100
AcDbEntity
  8
01
100
AcDbLine
 10
8.542553544230941
 20
646.3382973731912
 30
0.0
 11
8.542553544230941
 21
646.6382973731922
 31
0.0
  0
LINE
  5
B693
330
18
100
AcDbEntity
  8
01
100
AcDbLine
 10
8.542553544230941
 20
646.6382973731922
 30
0.0
 11
6.042600080128864
 21
649.1382799218583
 31
0.0
  0
LINE
  5
B694
330
18
100
AcDbEntity
  8
01
100
AcDbLine
 10
6.042600080128864
 20
649.1382799218583
 30
0.0
 11
6.042600080128869
 21
676.038303189963
 31
0.0
  0
LINE
  5
B695
330
18
100
AcDbEntity
  8
01
100
AcDbLine
 10
6.042600080128869
 20
676.038303189963
 30
0.0
 11
4.54260008012887
 21
681.3383066802083
 31
0.0
  0
LINE
  5
B696
330
18
100
AcDbEntity
  8
01
100
AcDbLine
 10
4.54260008012887
 20
681.3383066802083
 30
0.0
 11
3.042600080128869
 21
676.0383101703474
 31
0.0
  0
LINE
  5
B697
330
18
100
AcDbEntity
  8
01
100
AcDbLine
 10
233.0426000801361
 20
676.0383101703474
 30
0.0
 11
233.0426000801361
 21
649.1383450722235
 31
0.0
  0
LINE
  5
B698
330
18
100
AcDbEntity
  8
01
100
AcDbLine
 10
233.0426000801361
 20
649.1383450722235
 30
0.0
 11
230.5425535442382
 21
646.6383159875513
 31
0.0
  0
LINE
  5
B699
330
18
100
AcDbEntity
  8
01
100
AcDbLine
 10
230.5425535442382
 20
646.6383159875513
 30
0.0
 11
230.5425535442382
 21
646.3383159875505
 31
0.0
  0
LINE
  5
B69A
330
18
100
AcDbEntity
  8
01
100
AcDbLine
 10
230.5425535442382
 20
646.3383159875505
 30
0.0
 11
238.5425535442382
 21
646.3382973731912
 31
0.0
  0
LINE
  5
B69B
330
18
100
AcDbEntity
  8
01
100
AcDbLine
 10
238.5425535442382
 20
646.3382973731912
 30
0.0
 11
238.5425535442382
 21
646.6382973731922
 31
0.0
  0
LINE
  5
B69C
330
18
100
AcDbEntity
  8
01
100
AcDbLine
 10
238.5425535442382
 20
646.6382973731922
 30
0.0
 11
236.0426000801361
 21
649.1382799218583
 31
0.0
  0
LINE
  5
B69D
330
18
100
AcDbEntity
  8
01
100
AcDbLine
 10
236.0426000801361
 20
649.1382799218583
 30
0.0
 11
236.0426000801361
 21
676.038303189963
 31
0.0
  0
LINE
  5
B69E
330
18
100
AcDbEntity
  8
01
100
AcDbLine
 10
236.0426000801361
 20
676.038303189963
 30
0.0
 11
234.5426000801361
 21
681.3383066802083
 31
0.0
  0
LINE
  5
B69F
330
18
100
AcDbEntity
  8
01
100
AcDbLine
 10
234.5426000801361
 20
681.3383066802083
 30
0.0
 11
233.0426000801361
 21
676.0383101703474
 31
0.0
  0
LINE
  5
B6A0
330
18
100
AcDbEntity
  8
01
100
AcDbLine
 10
203.0426000801361
 20
676.0383101703474
 30
0.0
 11
203.0426000801361
 21
649.1383450722235
 31
0.0
  0
LINE
  5
B6A1
330
18
100
AcDbEntity
  8
01
100
AcDbLine
 10
203.0426000801361
 20
649.1383450722235
 30
0.0
 11
200.5425535442382
 21
646.6383159875513
 31
0.0
  0
LINE
  5
B6A2
330
18
100
AcDbEntity
  8
01
100
AcDbLine
 10
200.5425535442382
 20
646.6383159875513
 30
0.0
 11
200.5425535442382
 21
646.3383159875505
 31
0.0
  0
LINE
  5
B6A3
330
18
100
AcDbEntity
  8
01
100
AcDbLine
 10
200.5425535442382
 20
646.3383159875505
 30
0.0
 11
208.5425535442382
 21
646.3382973731912
 31
0.0
  0
LINE
  5
B6A4
330
18
100
AcDbEntity
  8
01
100
AcDbLine
 10
208.5425535442382
 20
646.3382973731912
 30
0.0
 11
208.5425535442382
 21
646.6382973731922
 31
0.0
  0
LINE
  5
B6A5
330
18
100
AcDbEntity
  8
01
100
AcDbLine
 10
208.5425535442382
 20
646.6382973731922
 30
0.0
 11
206.0426000801361
 21
649.1382799218583
 31
0.0
  0
LINE
  5
B6A6
330
18
100
AcDbEntity
  8
01
100
AcDbLine
 10
206.0426000801361
 20
649.1382799218583
 30
0.0
 11
206.0426000801361
 21
676.038303189963
 31
0.0
  0
LINE
  5
B6A7
330
18
100
AcDbEntity
  8
01
100
AcDbLine
 10
206.0426000801361
 20
676.038303189963
 30
0.0
 11
204.5426000801361
 21
681.3383066802083
 31
0.0
  0
LINE
  5
B6A8
330
18
100
AcDbEntity
  8
01
100
AcDbLine
 10
204.5426000801361
 20
681.3383066802083
 30
0.0
 11
203.0426000801361
 21
676.0383101703474
 31
0.0
  0
LINE
  5
B6AA
330
18
100
AcDbEntity
  8
1DIM
100
AcDbLine
 10
81.07421677646504
 20
486.6311470481187
 30
0.0
 11
84.751280734294
 21
468.49862749061
 31
0.0
1001
ACAD
1000
DSTYLE
1002
{
1070
    40
1040
2.0
1002
}
  0
LINE
  5
B6AB
330
18
100
AcDbEntity
  8
1DIM
100
AcDbLine
 10
84.751280734294
 20
468.49862749061
 30
0.0
 11
147.3179474009607
 21
468.49862749061
 31
0.0
1001
ACAD
1000
DSTYLE
1002
{
1070
    40
1040
2.0
1002
}
  0
TEXT
  5
B6AC
330
18
100
AcDbEntity
  8
1DIM
  6
CONTINUOUS
100
AcDbText
 10
89.68461406762734
 20
481.5652941572767
 30
0.0
 40
7.0
  1
材質：アルミ
100
AcDbText
  0
TEXT
  5
B6AD
330
18
100
AcDbEntity
  8
1DIM
  6
CONTINUOUS
100
AcDbText
 10
89.91794740096067
 20
469.89862749061
 30
0.0
 40
7.0
  1
仕上：各種仕上
100
AcDbText
  0
LINE
  5
B6AF
330
18
100
AcDbEntity
  8
1DIM
100
AcDbLine
 10
220.1277597545829
 20
486.6491219097599
 30
0.0
 11
224.1934929870207
 21
468.59909273116
 31
0.0
1001
ACAD
1000
DSTYLE
1002
{
1070
    40
1040
2.0
1002
}
  0
LINE
  5
B6B0
330
18
100
AcDbEntity
  8
1DIM
100
AcDbLine
 10
224.1934929870207
 20
468.59909273116
 30
0.0
 11
390.3601596536874
 21
468.59909273116
 31
0.0
1001
ACAD
1000
DSTYLE
1002
{
1070
    40
1040
2.0
1002
}
  0
TEXT
  5
B6B1
330
18
100
AcDbEntity
  8
1DIM
  6
CONTINUOUS
100
AcDbText
 10
229.126826320354
 20
469.99909273116
 30
0.0
 40
7.0
  1
材質：亜鉛ダイキャスト（クロームメッキ）
100
AcDbText
  0
LINE
  5
B6B3
330
18
100
AcDbEntity
  8
1DIM
100
AcDbLine
 10
302.8157965732527
 20
654.9600454634108
 30
0.0
 11
322.9804816369066
 21
681.9583415151277
 31
0.0
1001
ACAD
1000
DSTYLE
1002
{
1070
    40
1040
2.0
1002
}
  0
LINE
  5
B6B4
330
18
100
AcDbEntity
  8
1DIM
100
AcDbLine
 10
322.9804816369066
 20
681.9583415151277
 30
0.0
 11
392.5471483035732
 21
681.9583415151277
 31
0.0
1001
ACAD
1000
DSTYLE
1002
{
1070
    40
1040
2.0
1002
}
  0
TEXT
  5
B6B5
330
18
100
AcDbEntity
  8
1DIM
  6
CONTINUOUS
100
AcDbText
 10
327.9138149702399
 20
695.0250081817943
 30
0.0
 40
7.0
  1
材質：アルミ
100
AcDbText
  0
TEXT
  5
B6B6
330
18
100
AcDbEntity
  8
1DIM
  6
CONTINUOUS
100
AcDbText
 10
328.1471483035732
 20
683.3583415151277
 30
0.0
 40
7.0
  1
仕上：アルマイト
100
AcDbText
  0
LINE
  5
B6B8
330
18
100
AcDbEntity
  8
1DIM
100
AcDbLine
 10
456.0426951729274
 20
654.8760565028953
 30
0.0
 11
466.2377374458849
 21
668.3040705803083
 31
0.0
1001
ACAD
1000
DSTYLE
1002
{
1070
    40
1040
2.0
1002
}
  0
LINE
  5
B6B9
330
18
100
AcDbEntity
  8
1DIM
100
AcDbLine
 10
466.2377374458849
 20
668.3040705803083
 30
0.0
 11
556.8044041125517
 21
668.3040705803083
 31
0.0
1001
ACAD
1000
DSTYLE
1002
{
1070
    40
1040
2.0
1002
}
  0
TEXT
  5
B6BA
330
18
100
AcDbEntity
  8
1DIM
  6
CONTINUOUS
100
AcDbText
 10
471.1710707792183
 20
669.7040705803083
 30
0.0
 40
7.0
  1
材質：樹脂（グレー色）
100
AcDbText
  0
LINE
  5
B6BC
330
18
100
AcDbEntity
  8
1DIM
100
AcDbLine
 10
586.6583602637496
 20
566.0133022511617
 30
0.0
 11
603.5411621046196
 21
595.4497224873852
 31
0.0
1001
ACAD
1000
DSTYLE
1002
{
1070
    40
1040
2.0
1002
}
  0
LINE
  5
B6BD
330
18
100
AcDbEntity
  8
1DIM
100
AcDbLine
 10
603.5411621046196
 20
595.4497224873852
 30
0.0
 11
623.9411621046196
 21
595.4497224873852
 31
0.0
1001
ACAD
1000
DSTYLE
1002
{
1070
    40
1040
2.0
1002
}
  0
TEXT
  5
B6BE
330
18
100
AcDbEntity
  8
1DIM
  6
CONTINUOUS
100
AcDbText
 10
608.9411621046196
 20
596.8497224873852
 30
0.0
 40
7.0
  1
P.B
100
AcDbText
  0
LINE
  5
B6C0
330
18
100
AcDbEntity
  8
1DIM
100
AcDbLine
 10
597.5798077191374
 20
566.7421832528964
 30
0.0
 11
606.9445807295
 21
582.892626923776
 31
0.0
1001
ACAD
1000
DSTYLE
1002
{
1070
    40
1040
2.0
1002
}
  0
LINE
  5
B6C1
330
18
100
AcDbEntity
  8
1DIM
100
AcDbLine
 10
606.9445807295
 20
582.892626923776
 30
0.0
 11
671.2112473961666
 21
582.892626923776
 31
0.0
1001
ACAD
1000
DSTYLE
1002
{
1070
    40
1040
2.0
1002
}
  0
TEXT
  5
B6C2
330
18
100
AcDbEntity
  8
1DIM
  6
CONTINUOUS
100
AcDbText
 10
612.3445807295
 20
584.292626923776
 30
0.0
 40
7.0
  1
合板9mm以上
100
AcDbText
  0
LINE
  5
B6C3
330
18
100
AcDbEntity
  8
1DIM
100
AcDbLine
 10
-30.45744645577261
 20
540.6595500777539
 30
0.0
 11
-30.45744645577261
 21
552.0698710106763
 31
0.0
1001
ACAD
1000
DSTYLE
1002
{
1070
    40
1040
2.0
1002
}
  0
LINE
  5
B6C4
330
18
100
AcDbEntity
  8
1DIM
100
AcDbLine
 10
19.54255354423148
 20
543.2268909611839
 30
0.0
 11
19.54255354423148
 21
552.0698710106763
 31
0.0
1001
ACAD
1000
DSTYLE
1002
{
1070
    40
1040
2.0
1002
}
  0
LINE
  5
B6C5
330
18
100
AcDbEntity
  8
1DIM
100
AcDbLine
 10
-26.45744645577261
 20
550.0698710106763
 30
0.0
 11
15.54255354423148
 21
550.0698710106763
 31
0.0
1001
ACAD
1000
DSTYLE
1002
{
1070
    40
1040
2.0
1002
}
  0
LINE
  5
B6C9
330
18
100
AcDbEntity
  8
1DIM
100
AcDbLine
 10
469.0425535442383
 20
541.1587069909269
 30
0.0
 11
510.9262751176834
 21
541.1587069909269
 31
0.0
1001
ACAD
1000
DSTYLE
1002
{
1070
    40
1040
2.0
1070
   271
1070
     1
1002
}
  0
LINE
  5
B6CA
330
18
100
AcDbEntity
  8
1DIM
100
AcDbLine
 10
469.0425535442383
 20
491.1595500777535
 30
0.0
 11
510.9262751176834
 21
491.1595500777535
 31
0.0
1001
ACAD
1000
DSTYLE
1002
{
1070
    40
1040
2.0
1070
   271
1070
     1
1002
}
  0
LINE
  5
B6CB
330
18
100
AcDbEntity
  8
1DIM
100
AcDbLine
 10
508.9262751176834
 20
537.1587069909269
 30
0.0
 11
508.9262751176834
 21
495.1595500777535
 31
0.0
1001
ACAD
1000
DSTYLE
1002
{
1070
    40
1040
2.0
1070
   271
1070
     1
1002
}
  0
LINE
  5
B6CF
330
18
100
AcDbEntity
  8
1DIM
100
AcDbLine
 10
14.24261621940536
 20
491.0592700783138
 30
0.0
 11
14.24261621940536
 21
466.4944287748917
 31
0.0
1001
ACAD
1000
DSTYLE
1002
{
1070
    40
1040
2.0
1002
}
  0
LINE
  5
B6D0
330
18
100
AcDbEntity
  8
1DIM
100
AcDbLine
 10
24.84261621940539
 20
491.0592700783138
 30
0.0
 11
24.84261621940539
 21
466.4944287748917
 31
0.0
1001
ACAD
1000
DSTYLE
1002
{
1070
    40
1040
2.0
1002
}
  0
LINE
  5
B6D1
330
18
100
AcDbEntity
  8
1DIM
100
AcDbLine
 10
10.24261621940536
 20
468.4944287748917
 30
0.0
 11
6.242616219405361
 21
468.4944287748917
 31
0.0
1001
ACAD
1000
DSTYLE
1002
{
1070
    40
1040
2.0
1002
}
  0
LINE
  5
B6D2
330
18
100
AcDbEntity
  8
1DIM
100
AcDbLine
 10
28.84261621940539
 20
468.4944287748917
 30
0.0
 11
55.97594955273871
 21
468.4944287748917
 31
0.0
1001
ACAD
1000
DSTYLE
1002
{
1070
    40
1040
2.0
1002
}
  0
LINE
  5
B6D3
330
18
100
AcDbEntity
  8
1DIM
100
AcDbLine
 10
14.24261621940536
 20
468.4944287748917
 30
0.0
 11
24.84261621940539
 21
468.4944287748917
 31
0.0
1001
ACAD
1000
DSTYLE
1002
{
1070
    40
1040
2.0
1002
}
  0
LINE
  5
B6D7
330
18
100
AcDbEntity
  8
1DIM
100
AcDbLine
 10
-30.4574464557617
 20
540.6587069909269
 30
0.0
 11
-30.4574464557617
 21
562.6254734894446
 31
0.0
1001
ACAD
1000
DSTYLE
1002
{
1070
    40
1040
2.0
1002
}
  0
LINE
  5
B6D8
330
18
100
AcDbEntity
  8
1DIM
100
AcDbLine
 10
469.5425535442383
 20
540.6587069909269
 30
0.0
 11
469.5425535442383
 21
562.6254734894446
 31
0.0
1001
ACAD
1000
DSTYLE
1002
{
1070
    40
1040
2.0
1002
}
  0
LINE
  5
B6D9
330
18
100
AcDbEntity
  8
1DIM
100
AcDbLine
 10
-26.4574464557617
 20
560.6254734894446
 30
0.0
 11
465.5425535442383
 21
560.6254734894446
 31
0.0
1001
ACAD
1000
DSTYLE
1002
{
1070
    40
1040
2.0
1002
}
  0
LINE
  5
B6DD
330
18
100
AcDbEntity
  8
1DIM
100
AcDbLine
 10
219.5425535442383
 20
543.2268909611839
 30
0.0
 11
219.5425535442383
 21
552.0698710106763
 31
0.0
1001
ACAD
1000
DSTYLE
1002
{
1070
    40
1040
2.0
1002
}
  0
LINE
  5
B6DE
330
18
100
AcDbEntity
  8
1DIM
100
AcDbLine
 10
419.542593059363
 20
544.4481115062938
 30
0.0
 11
419.542593059363
 21
552.0698710106763
 31
0.0
1001
ACAD
1000
DSTYLE
1002
{
1070
    40
1040
2.0
1002
}
  0
LINE
  5
B6DF
330
18
100
AcDbEntity
  8
1DIM
100
AcDbLine
 10
223.5425535442383
 20
550.0698710106763
 30
0.0
 11
415.542593059363
 21
550.0698710106763
 31
0.0
1001
ACAD
1000
DSTYLE
1002
{
1070
    40
1040
2.0
1002
}
  0
LINE
  5
B6E3
330
18
100
AcDbEntity
  8
1DIM
100
AcDbLine
 10
219.5425535442383
 20
543.2268909611839
 30
0.0
 11
219.5425535442383
 21
552.0698710106763
 31
0.0
1001
ACAD
1000
DSTYLE
1002
{
1070
    40
1040
2.0
1002
}
  0
LINE
  5
B6E4
330
18
100
AcDbEntity
  8
1DIM
100
AcDbLine
 10
19.54255354423148
 20
543.2268909611839
 30
0.0
 11
19.54255354423148
 21
552.0698710106763
 31
0.0
1001
ACAD
1000
DSTYLE
1002
{
1070
    40
1040
2.0
1002
}
  0
LINE
  5
B6E5
330
18
100
AcDbEntity
  8
1DIM
100
AcDbLine
 10
215.5425535442383
 20
550.0698710106763
 30
0.0
 11
23.54255354423148
 21
550.0698710106763
 31
0.0
1001
ACAD
1000
DSTYLE
1002
{
1070
    40
1040
2.0
1002
}
  0
LINE
  5
B6E9
330
18
100
AcDbEntity
  8
1DIM
100
AcDbLine
 10
568.342548544238
 20
491.5592700783126
 30
0.0
 11
568.342548544238
 21
458.2125769569854
 31
0.0
1001
ACAD
1000
DSTYLE
1002
{
1070
    40
1040
2.0
1002
}
  0
LINE
  5
B6EA
330
18
100
AcDbEntity
  8
1DIM
100
AcDbLine
 10
580.3425485442384
 20
503.6592700783125
 30
0.0
 11
580.3425485442384
 21
458.2125769569854
 31
0.0
1001
ACAD
1000
DSTYLE
1002
{
1070
    40
1040
2.0
1002
}
  0
LINE
  5
B6EB
330
18
100
AcDbEntity
  8
1DIM
100
AcDbLine
 10
576.3425485442384
 20
460.2125769569854
 30
0.0
 11
572.342548544238
 21
460.2125769569854
 31
0.0
1001
ACAD
1000
DSTYLE
1002
{
1070
    40
1040
2.0
1002
}
  0
LINE
  5
B6EC
330
18
100
AcDbEntity
  8
1DIM
100
AcDbLine
 10
568.342548544238
 20
460.2125769569854
 30
0.0
 11
551.2092152109046
 21
460.2125769569854
 31
0.0
1001
ACAD
1000
DSTYLE
1002
{
1070
    40
1040
2.0
1002
}
  0
LINE
  5
B6F0
330
18
100
AcDbEntity
  8
1DIM
100
AcDbLine
 10
469.0425535442383
 20
541.1587069909269
 30
0.0
 11
489.0790755879252
 21
541.1587069909269
 31
0.0
1001
ACAD
1000
DSTYLE
1002
{
1070
    40
1040
2.0
1002
}
  0
LINE
  5
B6F1
330
18
100
AcDbEntity
  8
1DIM
100
AcDbLine
 10
472.9886285418934
 20
518.7595500777543
 30
0.0
 11
489.0790755879252
 21
518.7595500777543
 31
0.0
1001
ACAD
1000
DSTYLE
1002
{
1070
    40
1040
2.0
1002
}
  0
LINE
  5
B6F2
330
18
100
AcDbEntity
  8
1DIM
100
AcDbLine
 10
487.0790755879252
 20
522.7595500777543
 30
0.0
 11
487.0790755879252
 21
537.1587069909269
 31
0.0
1001
ACAD
1000
DSTYLE
1002
{
1070
    40
1040
2.0
1002
}
  0
LINE
  5
B6F3
330
18
100
AcDbEntity
  8
1DIM
100
AcDbLine
 10
487.0790755879252
 20
541.1587069909269
 30
0.0
 11
487.0790755879252
 21
569.6253736575936
 31
0.0
1001
ACAD
1000
DSTYLE
1002
{
1070
    40
1040
2.0
1002
}
  0
LINE
  5
B6F7
330
18
100
AcDbEntity
  8
1DIM
100
AcDbLine
 10
424.542553544245
 20
599.338305246571
 30
0.0
 11
510.9262751176834
 21
599.338305246571
 31
0.0
1001
ACAD
1000
DSTYLE
1002
{
1070
    40
1040
2.0
1002
}
  0
LINE
  5
B6F8
330
18
100
AcDbEntity
  8
1DIM
100
AcDbLine
 10
459.5425535442382
 20
651.3383051679905
 30
0.0
 11
510.9262751176835
 21
651.3383051679905
 31
0.0
1001
ACAD
1000
DSTYLE
1002
{
1070
    40
1040
2.0
1002
}
  0
LINE
  5
B6F9
330
18
100
AcDbEntity
  8
1DIM
100
AcDbLine
 10
508.9262751176834
 20
603.338305246571
 30
0.0
 11
508.9262751176835
 21
647.3383051679905
 31
0.0
1001
ACAD
1000
DSTYLE
1002
{
1070
    40
1040
2.0
1002
}
  0
LINE
  5
B6FD
330
18
100
AcDbEntity
  8
1DIM
100
AcDbLine
 10
404.5425535442455
 20
512.02345698672
 30
0.0
 11
404.5425535442455
 21
466.4944287748916
 31
0.0
1001
ACAD
1000
DSTYLE
1002
{
1070
    40
1040
2.0
1002
}
  0
LINE
  5
B6FE
330
18
100
AcDbEntity
  8
1DIM
100
AcDbLine
 10
434.5425535442455
 20
512.02345698672
 30
0.0
 11
434.5425535442455
 21
466.4944287748916
 31
0.0
1001
ACAD
1000
DSTYLE
1002
{
1070
    40
1040
2.0
1002
}
  0
LINE
  5
B6FF
330
18
100
AcDbEntity
  8
1DIM
100
AcDbLine
 10
408.5425535442455
 20
468.4944287748916
 30
0.0
 11
430.5425535442455
 21
468.4944287748916
 31
0.0
1001
ACAD
1000
DSTYLE
1002
{
1070
    40
1040
2.0
1002
}
  0
LINE
  5
B704
330
18
100
AcDbEntity
  8
1DIM
100
AcDbLine
 10
454.8334307150052
 20
486.6311470481187
 30
0.0
 11
458.5104946728342
 21
468.49862749061
 31
0.0
1001
ACAD
1000
DSTYLE
1002
{
1070
    40
1040
2.0
1002
}
  0
LINE
  5
B705
330
18
100
AcDbEntity
  8
1DIM
100
AcDbLine
 10
458.5104946728342
 20
468.49862749061
 30
0.0
 11
521.0771613395009
 21
468.49862749061
 31
0.0
1001
ACAD
1000
DSTYLE
1002
{
1070
    40
1040
2.0
1002
}
  0
TEXT
  5
B706
330
18
100
AcDbEntity
  8
1DIM
  6
CONTINUOUS
100
AcDbText
 10
463.4438280061675
 20
481.5652941572767
 30
0.0
 40
7.0
  1
材質：アルミ
100
AcDbText
  0
TEXT
  5
B707
330
18
100
AcDbEntity
  8
1DIM
  6
CONTINUOUS
100
AcDbText
 10
463.6771613395008
 20
469.89862749061
 30
0.0
 40
7.0
  1
仕上：各種仕上
100
AcDbText
  0
LINE
  5
B708
330
18
100
AcDbEntity
  8
0
  6
BYBLOCK
100
AcDbLine
 10
80.02380061670179
 20
486.4181348746292
 30
0.0
 11
80.27924451515855
 21
490.5513535610148
 31
0.0
  0
LINE
  5
B709
330
18
100
AcDbEntity
  8
0
  6
BYBLOCK
100
AcDbLine
 10
80.27924451515855
 20
490.5513535610148
 30
0.0
 11
82.12463293622828
 21
486.8441592216082
 31
0.0
  0
LINE
  5
B70A
330
18
100
AcDbEntity
  8
0
  6
BYBLOCK
100
AcDbLine
 10
80.27924451515855
 20
490.5513535610148
 30
0.0
 11
81.07421677646504
 21
486.6311470481187
 31
0.0
  0
LINE
  5
B70B
330
18
100
AcDbEntity
  8
0
  6
BYBLOCK
100
AcDbLine
 10
219.0821599444368
 20
486.4136026286619
 30
0.0
 11
219.2487898233881
 21
490.5513535610148
 31
0.0
  0
LINE
  5
B70C
330
18
100
AcDbEntity
  8
0
  6
BYBLOCK
100
AcDbLine
 10
219.2487898233881
 20
490.5513535610148
 30
0.0
 11
221.173359564729
 21
486.8846411908579
 31
0.0
  0
LINE
  5
B70D
330
18
100
AcDbEntity
  8
0
  6
BYBLOCK
100
AcDbLine
 10
219.2487898233881
 20
490.5513535610148
 30
0.0
 11
220.1277597545829
 21
486.6491219097599
 31
0.0
  0
LINE
  5
B70E
330
18
100
AcDbEntity
  8
0
  6
BYBLOCK
100
AcDbLine
 10
303.6745152734801
 20
654.318679352187
 30
0.0
 11
300.4221856381955
 21
651.7552636156753
 31
0.0
  0
LINE
  5
B70F
330
18
100
AcDbEntity
  8
0
  6
BYBLOCK
100
AcDbLine
 10
300.4221856381955
 20
651.7552636156753
 30
0.0
 11
301.9570778730252
 21
655.6014115746344
 31
0.0
  0
LINE
  5
B710
330
18
100
AcDbEntity
  8
0
  6
BYBLOCK
100
AcDbLine
 10
300.4221856381955
 20
651.7552636156753
 30
0.0
 11
302.8157965732527
 21
654.9600454634108
 31
0.0
  0
LINE
  5
B711
330
18
100
AcDbEntity
  8
0
  6
BYBLOCK
100
AcDbLine
 10
456.8963329929105
 20
654.2279432666154
 30
0.0
 11
453.6239036241275
 21
651.6902367585509
 31
0.0
  0
LINE
  5
B712
330
18
100
AcDbEntity
  8
0
  6
BYBLOCK
100
AcDbLine
 10
453.6239036241275
 20
651.6902367585509
 30
0.0
 11
455.1890573529443
 21
655.524169739175
 31
0.0
  0
LINE
  5
B713
330
18
100
AcDbEntity
  8
0
  6
BYBLOCK
100
AcDbLine
 10
453.6239036241275
 20
651.6902367585509
 30
0.0
 11
456.0426951729274
 21
654.8760565028953
 31
0.0
  0
LINE
  5
B714
330
18
100
AcDbEntity
  8
0
  6
BYBLOCK
100
AcDbLine
 10
587.5880958621365
 20
565.4800668323844
 30
0.0
 11
584.6682985704213
 21
562.5434817288944
 31
0.0
  0
LINE
  5
B715
330
18
100
AcDbEntity
  8
0
  6
BYBLOCK
100
AcDbLine
 10
584.6682985704213
 20
562.5434817288944
 30
0.0
 11
585.7286246653626
 21
566.5465376699391
 31
0.0
  0
LINE
  5
B716
330
18
100
AcDbEntity
  8
0
  6
BYBLOCK
100
AcDbLine
 10
584.6682985704213
 20
562.5434817288944
 30
0.0
 11
586.6583602637496
 21
566.0133022511617
 31
0.0
  0
LINE
  5
B717
330
18
100
AcDbEntity
  8
0
  6
BYBLOCK
100
AcDbLine
 10
598.5070072385078
 20
566.2045501567928
 30
0.0
 11
595.5733336704436
 21
563.2818275064567
 31
0.0
  0
LINE
  5
B718
330
18
100
AcDbEntity
  8
0
  6
BYBLOCK
100
AcDbLine
 10
595.5733336704436
 20
563.2818275064567
 30
0.0
 11
596.6526081997671
 21
567.2798163489999
 31
0.0
  0
LINE
  5
B719
330
18
100
AcDbEntity
  8
0
  6
BYBLOCK
100
AcDbLine
 10
595.5733336704436
 20
563.2818275064567
 30
0.0
 11
597.5798077191374
 21
566.7421832528964
 31
0.0
  0
LINE
  5
B71A
330
18
100
AcDbEntity
  8
0
  6
BYBLOCK
100
AcDbLine
 10
-26.45744645577261
 20
548.9980742506763
 30
0.0
 11
-30.45744645577261
 21
550.0698710106763
 31
0.0
  0
LINE
  5
B71B
330
18
100
AcDbEntity
  8
0
  6
BYBLOCK
100
AcDbLine
 10
-30.45744645577261
 20
550.0698710106763
 30
0.0
 11
-26.45744645577261
 21
551.1416677706762
 31
0.0
  0
LINE
  5
B71C
330
18
100
AcDbEntity
  8
0
  6
BYBLOCK
100
AcDbLine
 10
-30.45744645577261
 20
550.0698710106763
 30
0.0
 11
-26.45744645577261
 21
550.0698710106763
 31
0.0
  0
LINE
  5
B71D
330
18
100
AcDbEntity
  8
0
  6
BYBLOCK
100
AcDbLine
 10
15.54255354423148
 20
551.1416677706762
 30
0.0
 11
19.54255354423148
 21
550.0698710106763
 31
0.0
  0
LINE
  5
B71E
330
18
100
AcDbEntity
  8
0
  6
BYBLOCK
100
AcDbLine
 10
19.54255354423148
 20
550.0698710106763
 30
0.0
 11
15.54255354423148
 21
548.9980742506763
 31
0.0
  0
LINE
  5
B71F
330
18
100
AcDbEntity
  8
0
  6
BYBLOCK
100
AcDbLine
 10
19.54255354423148
 20
550.0698710106763
 30
0.0
 11
15.54255354423148
 21
550.0698710106763
 31
0.0
  0
TEXT
  5
B720
330
18
100
AcDbEntity
  8
1DIM
  6
CONTINUOUS
100
AcDbText
 10
-10.87758534465945
 20
551.4698710106763
 30
0.0
 40
7.0
  1
50
100
AcDbText
1001
ACAD
1000
DSTYLE
1002
{
1070
    40
1040
2.0
1002
}
  0
LINE
  5
B721
330
18
100
AcDbEntity
  8
0
  6
BYBLOCK
100
AcDbLine
 10
507.8544783576834
 20
537.1587069909269
 30
0.0
 11
508.9262751176834
 21
541.1587069909269
 31
0.0
  0
LINE
  5
B722
330
18
100
AcDbEntity
  8
0
  6
BYBLOCK
100
AcDbLine
 10
508.9262751176834
 20
541.1587069909269
 30
0.0
 11
509.9980718776834
 21
537.1587069909269
 31
0.0
  0
LINE
  5
B723
330
18
100
AcDbEntity
  8
0
  6
BYBLOCK
100
AcDbLine
 10
508.9262751176834
 20
541.1587069909269
 30
0.0
 11
508.9262751176834
 21
537.1587069909269
 31
0.0
  0
LINE
  5
B724
330
18
100
AcDbEntity
  8
0
  6
BYBLOCK
100
AcDbLine
 10
509.9980718776834
 20
495.1595500777535
 30
0.0
 11
508.9262751176834
 21
491.1595500777535
 31
0.0
  0
LINE
  5
B725
330
18
100
AcDbEntity
  8
0
  6
BYBLOCK
100
AcDbLine
 10
508.9262751176834
 20
491.1595500777535
 30
0.0
 11
507.8544783576834
 21
495.1595500777535
 31
0.0
  0
LINE
  5
B726
330
18
100
AcDbEntity
  8
0
  6
BYBLOCK
100
AcDbLine
 10
508.9262751176834
 20
491.1595500777535
 30
0.0
 11
508.9262751176834
 21
495.1595500777535
 31
0.0
  0
TEXT
  5
B727
330
18
100
AcDbEntity
  8
1DIM
  6
CONTINUOUS
100
AcDbText
 10
507.5262751176833
 20
510.7389896454514
 30
0.0
 40
7.0
  1
50
 50
90.0
100
AcDbText
1001
ACAD
1000
DSTYLE
1002
{
1070
    40
1040
2.0
1070
   271
1070
     1
1002
}
  0
LINE
  5
B728
330
18
100
AcDbEntity
  8
0
  6
BYBLOCK
100
AcDbLine
 10
10.24261621940536
 20
469.5662255348917
 30
0.0
 11
14.24261621940536
 21
468.4944287748917
 31
0.0
  0
LINE
  5
B729
330
18
100
AcDbEntity
  8
0
  6
BYBLOCK
100
AcDbLine
 10
14.24261621940536
 20
468.4944287748917
 30
0.0
 11
10.24261621940536
 21
467.4226320148917
 31
0.0
  0
LINE
  5
B72A
330
18
100
AcDbEntity
  8
0
  6
BYBLOCK
100
AcDbLine
 10
14.24261621940536
 20
468.4944287748917
 30
0.0
 11
10.24261621940536
 21
468.4944287748917
 31
0.0
  0
LINE
  5
B72B
330
18
100
AcDbEntity
  8
0
  6
BYBLOCK
100
AcDbLine
 10
28.84261621940539
 20
467.4226320148917
 30
0.0
 11
24.84261621940539
 21
468.4944287748917
 31
0.0
  0
LINE
  5
B72C
330
18
100
AcDbEntity
  8
0
  6
BYBLOCK
100
AcDbLine
 10
24.84261621940539
 20
468.4944287748917
 30
0.0
 11
28.84261621940539
 21
469.5662255348917
 31
0.0
  0
LINE
  5
B72D
330
18
100
AcDbEntity
  8
0
  6
BYBLOCK
100
AcDbLine
 10
24.84261621940539
 20
468.4944287748917
 30
0.0
 11
28.84261621940539
 21
468.4944287748917
 31
0.0
  0
TEXT
  5
B72E
330
18
100
AcDbEntity
  8
1DIM
  6
CONTINUOUS
100
AcDbText
 10
35.65928288607205
 20
469.8944287748917
 30
0.0
 40
7.0
  1
10.6
100
AcDbText
1001
ACAD
1000
DSTYLE
1002
{
1070
    40
1040
2.0
1002
}
  0
LINE
  5
B72F
330
18
100
AcDbEntity
  8
0
  6
BYBLOCK
100
AcDbLine
 10
-26.4574464557617
 20
559.5536767294446
 30
0.0
 11
-30.4574464557617
 21
560.6254734894446
 31
0.0
  0
LINE
  5
B730
330
18
100
AcDbEntity
  8
0
  6
BYBLOCK
100
AcDbLine
 10
-30.4574464557617
 20
560.6254734894446
 30
0.0
 11
-26.4574464557617
 21
561.6972702494446
 31
0.0
  0
LINE
  5
B731
330
18
100
AcDbEntity
  8
0
  6
BYBLOCK
100
AcDbLine
 10
-30.4574464557617
 20
560.6254734894446
 30
0.0
 11
-26.4574464557617
 21
560.6254734894446
 31
0.0
  0
LINE
  5
B732
330
18
100
AcDbEntity
  8
0
  6
BYBLOCK
100
AcDbLine
 10
465.5425535442383
 20
561.6972702494446
 30
0.0
 11
469.5425535442383
 21
560.6254734894446
 31
0.0
  0
LINE
  5
B733
330
18
100
AcDbEntity
  8
0
  6
BYBLOCK
100
AcDbLine
 10
469.5425535442383
 20
560.6254734894446
 30
0.0
 11
465.5425535442383
 21
559.5536767294446
 31
0.0
  0
LINE
  5
B734
330
18
100
AcDbEntity
  8
0
  6
BYBLOCK
100
AcDbLine
 10
469.5425535442383
 20
560.6254734894446
 30
0.0
 11
465.5425535442383
 21
560.6254734894446
 31
0.0
  0
TEXT
  5
B735
330
18
100
AcDbEntity
  8
1DIM
  6
CONTINUOUS
100
AcDbText
 10
211.2057479886827
 20
562.0254734894447
 30
0.0
 40
7.0
  1
500
100
AcDbText
1001
ACAD
1000
DSTYLE
1002
{
1070
    40
1040
2.0
1002
}
  0
LINE
  5
B736
330
18
100
AcDbEntity
  8
0
  6
BYBLOCK
100
AcDbLine
 10
223.5425535442383
 20
548.9980742506763
 30
0.0
 11
219.5425535442383
 21
550.0698710106763
 31
0.0
  0
LINE
  5
B737
330
18
100
AcDbEntity
  8
0
  6
BYBLOCK
100
AcDbLine
 10
219.5425535442383
 20
550.0698710106763
 30
0.0
 11
223.5425535442383
 21
551.1416677706762
 31
0.0
  0
LINE
  5
B738
330
18
100
AcDbEntity
  8
0
  6
BYBLOCK
100
AcDbLine
 10
219.5425535442383
 20
550.0698710106763
 30
0.0
 11
223.5425535442383
 21
550.0698710106763
 31
0.0
  0
LINE
  5
B739
330
18
100
AcDbEntity
  8
0
  6
BYBLOCK
100
AcDbLine
 10
415.542593059363
 20
551.1416677706762
 30
0.0
 11
419.542593059363
 21
550.0698710106763
 31
0.0
  0
LINE
  5
B73A
330
18
100
AcDbEntity
  8
0
  6
BYBLOCK
100
AcDbLine
 10
419.542593059363
 20
550.0698710106763
 30
0.0
 11
415.542593059363
 21
548.9980742506763
 31
0.0
  0
LINE
  5
B73B
330
18
100
AcDbEntity
  8
0
  6
BYBLOCK
100
AcDbLine
 10
419.542593059363
 20
550.0698710106763
 30
0.0
 11
415.542593059363
 21
550.0698710106763
 31
0.0
  0
TEXT
  5
B73C
330
18
100
AcDbEntity
  8
1DIM
  6
CONTINUOUS
100
AcDbText
 10
311.2300733018006
 20
551.4698710106762
 30
0.0
 40
7.0
  1
200
100
AcDbText
1001
ACAD
1000
DSTYLE
1002
{
1070
    40
1040
2.0
1002
}
  0
LINE
  5
B73D
330
18
100
AcDbEntity
  8
0
  6
BYBLOCK
100
AcDbLine
 10
215.5425535442383
 20
551.1416677706762
 30
0.0
 11
219.5425535442383
 21
550.0698710106763
 31
0.0
  0
LINE
  5
B73E
330
18
100
AcDbEntity
  8
0
  6
BYBLOCK
100
AcDbLine
 10
219.5425535442383
 20
550.0698710106763
 30
0.0
 11
215.5425535442383
 21
548.9980742506763
 31
0.0
  0
LINE
  5
B73F
330
18
100
AcDbEntity
  8
0
  6
BYBLOCK
100
AcDbLine
 10
219.5425535442383
 20
550.0698710106763
 30
0.0
 11
215.5425535442383
 21
550.0698710106763
 31
0.0
  0
LINE
  5
B740
330
18
100
AcDbEntity
  8
0
  6
BYBLOCK
100
AcDbLine
 10
23.54255354423148
 20
548.9980742506763
 30
0.0
 11
19.54255354423148
 21
550.0698710106763
 31
0.0
  0
LINE
  5
B741
330
18
100
AcDbEntity
  8
0
  6
BYBLOCK
100
AcDbLine
 10
19.54255354423148
 20
550.0698710106763
 30
0.0
 11
23.54255354423148
 21
551.1416677706762
 31
0.0
  0
LINE
  5
B742
330
18
100
AcDbEntity
  8
0
  6
BYBLOCK
100
AcDbLine
 10
19.54255354423148
 20
550.0698710106763
 30
0.0
 11
23.54255354423148
 21
550.0698710106763
 31
0.0
  0
TEXT
  5
B743
330
18
100
AcDbEntity
  8
1DIM
  6
CONTINUOUS
100
AcDbText
 10
111.2300535442349
 20
551.4698710106762
 30
0.0
 40
7.0
  1
200
100
AcDbText
1001
ACAD
1000
DSTYLE
1002
{
1070
    40
1040
2.0
1002
}
  0
LINE
  5
B744
330
18
100
AcDbEntity
  8
0
  6
BYBLOCK
100
AcDbLine
 10
576.3425485442384
 20
461.2843737169854
 30
0.0
 11
580.3425485442384
 21
460.2125769569854
 31
0.0
  0
LINE
  5
B745
330
18
100
AcDbEntity
  8
0
  6
BYBLOCK
100
AcDbLine
 10
580.3425485442384
 20
460.2125769569854
 30
0.0
 11
576.3425485442384
 21
459.1407801969854
 31
0.0
  0
LINE
  5
B746
330
18
100
AcDbEntity
  8
0
  6
BYBLOCK
100
AcDbLine
 10
580.3425485442384
 20
460.2125769569854
 30
0.0
 11
576.3425485442384
 21
460.2125769569854
 31
0.0
  0
LINE
  5
B747
330
18
100
AcDbEntity
  8
0
  6
BYBLOCK
100
AcDbLine
 10
572.342548544238
 20
459.1407801969854
 30
0.0
 11
568.342548544238
 21
460.2125769569854
 31
0.0
  0
LINE
  5
B748
330
18
100
AcDbEntity
  8
0
  6
BYBLOCK
100
AcDbLine
 10
568.342548544238
 20
460.2125769569854
 30
0.0
 11
572.342548544238
 21
461.2843737169854
 31
0.0
  0
LINE
  5
B749
330
18
100
AcDbEntity
  8
0
  6
BYBLOCK
100
AcDbLine
 10
568.342548544238
 20
460.2125769569854
 30
0.0
 11
572.342548544238
 21
460.2125769569854
 31
0.0
  0
TEXT
  5
B74A
330
18
100
AcDbEntity
  8
1DIM
  6
CONTINUOUS
100
AcDbText
 10
553.1092152109046
 20
461.6125769569854
 30
0.0
 40
7.0
  1
12
100
AcDbText
1001
ACAD
1000
DSTYLE
1002
{
1070
    40
1040
2.0
1002
}
  0
LINE
  5
B74B
330
18
100
AcDbEntity
  8
0
  6
BYBLOCK
100
AcDbLine
 10
488.1508723479252
 20
522.7595500777543
 30
0.0
 11
487.0790755879252
 21
518.7595500777543
 31
0.0
  0
LINE
  5
B74C
330
18
100
AcDbEntity
  8
0
  6
BYBLOCK
100
AcDbLine
 10
487.0790755879252
 20
518.7595500777543
 30
0.0
 11
486.0072788279252
 21
522.7595500777543
 31
0.0
  0
LINE
  5
B74D
330
18
100
AcDbEntity
  8
0
  6
BYBLOCK
100
AcDbLine
 10
487.0790755879252
 20
518.7595500777543
 30
0.0
 11
487.0790755879252
 21
522.7595500777543
 31
0.0
  0
LINE
  5
B74E
330
18
100
AcDbEntity
  8
0
  6
BYBLOCK
100
AcDbLine
 10
486.0072788279252
 20
537.1587069909269
 30
0.0
 11
487.0790755879252
 21
541.1587069909269
 31
0.0
  0
LINE
  5
B74F
330
18
100
AcDbEntity
  8
0
  6
BYBLOCK
100
AcDbLine
 10
487.0790755879252
 20
541.1587069909269
 30
0.0
 11
488.1508723479252
 21
537.1587069909269
 31
0.0
  0
LINE
  5
B750
330
18
100
AcDbEntity
  8
0
  6
BYBLOCK
100
AcDbLine
 10
487.0790755879252
 20
541.1587069909269
 30
0.0
 11
487.0790755879252
 21
537.1587069909269
 31
0.0
  0
TEXT
  5
B751
330
18
100
AcDbEntity
  8
1DIM
  6
CONTINUOUS
100
AcDbText
 10
485.6790755879252
 20
546.8920403242604
 30
0.0
 40
7.0
  1
22.4
 50
90.0
100
AcDbText
1001
ACAD
1000
DSTYLE
1002
{
1070
    40
1040
2.0
1002
}
  0
LINE
  5
B752
330
18
100
AcDbEntity
  8
0
  6
BYBLOCK
100
AcDbLine
 10
509.9980718776834
 20
603.338305246571
 30
0.0
 11
508.9262751176834
 21
599.338305246571
 31
0.0
  0
LINE
  5
B753
330
18
100
AcDbEntity
  8
0
  6
BYBLOCK
100
AcDbLine
 10
508.9262751176834
 20
599.338305246571
 30
0.0
 11
507.8544783576834
 21
603.338305246571
 31
0.0
  0
LINE
  5
B754
330
18
100
AcDbEntity
  8
0
  6
BYBLOCK
100
AcDbLine
 10
508.9262751176834
 20
599.338305246571
 30
0.0
 11
508.9262751176834
 21
603.338305246571
 31
0.0
  0
LINE
  5
B755
330
18
100
AcDbEntity
  8
0
  6
BYBLOCK
100
AcDbLine
 10
507.8544783576835
 20
647.3383051679905
 30
0.0
 11
508.9262751176835
 21
651.3383051679905
 31
0.0
  0
LINE
  5
B756
330
18
100
AcDbEntity
  8
0
  6
BYBLOCK
100
AcDbLine
 10
508.9262751176835
 20
651.3383051679905
 30
0.0
 11
509.9980718776835
 21
647.3383051679905
 31
0.0
  0
LINE
  5
B757
330
18
100
AcDbEntity
  8
0
  6
BYBLOCK
100
AcDbLine
 10
508.9262751176835
 20
651.3383051679905
 30
0.0
 11
508.9262751176835
 21
647.3383051679905
 31
0.0
  0
TEXT
  5
B758
330
18
100
AcDbEntity
  8
1DIM
  6
CONTINUOUS
100
AcDbText
 10
495.8547473399057
 20
613.4383052072809
 30
0.0
 40
7.0
  1
使用時
 50
90.0
100
AcDbText
1001
ACAD
1000
DSTYLE
1002
{
1070
    40
1040
2.0
1002
}
  0
TEXT
  5
B759
330
18
100
AcDbEntity
  8
1DIM
  6
CONTINUOUS
100
AcDbText
 10
507.5262751176834
 20
619.480666318392
 30
0.0
 40
7.0
  1
52
 50
90.0
100
AcDbText
1001
ACAD
1000
DSTYLE
1002
{
1070
    40
1040
2.0
1002
}
  0
LINE
  5
B75A
330
18
100
AcDbEntity
  8
0
  6
BYBLOCK
100
AcDbLine
 10
408.5425535442455
 20
467.4226320148916
 30
0.0
 11
404.5425535442455
 21
468.4944287748916
 31
0.0
  0
LINE
  5
B75B
330
18
100
AcDbEntity
  8
0
  6
BYBLOCK
100
AcDbLine
 10
404.5425535442455
 20
468.4944287748916
 30
0.0
 11
408.5425535442455
 21
469.5662255348915
 31
0.0
  0
LINE
  5
B75C
330
18
100
AcDbEntity
  8
0
  6
BYBLOCK
100
AcDbLine
 10
404.5425535442455
 20
468.4944287748916
 30
0.0
 11
408.5425535442455
 21
468.4944287748916
 31
0.0
  0
LINE
  5
B75D
330
18
100
AcDbEntity
  8
0
  6
BYBLOCK
100
AcDbLine
 10
430.5425535442455
 20
469.5662255348915
 30
0.0
 11
434.5425535442455
 21
468.4944287748916
 31
0.0
  0
LINE
  5
B75E
330
18
100
AcDbEntity
  8
0
  6
BYBLOCK
100
AcDbLine
 10
434.5425535442455
 20
468.4944287748916
 30
0.0
 11
430.5425535442455
 21
467.4226320148916
 31
0.0
  0
LINE
  5
B75F
330
18
100
AcDbEntity
  8
0
  6
BYBLOCK
100
AcDbLine
 10
434.5425535442455
 20
468.4944287748916
 30
0.0
 11
430.5425535442455
 21
468.4944287748916
 31
0.0
  0
TEXT
  5
B760
330
18
100
AcDbEntity
  8
1DIM
  6
CONTINUOUS
100
AcDbText
 10
410.6467202109122
 20
469.8944287748915
 30
0.0
 40
7.0
  1
P30
100
AcDbText
1001
ACAD
1000
DSTYLE
1002
{
1070
    40
1040
2.0
1002
}
  0
LINE
  5
B761
330
18
100
AcDbEntity
  8
0
  6
BYBLOCK
100
AcDbLine
 10
453.7830145552419
 20
486.4181348746292
 30
0.0
 11
454.0384584536987
 21
490.5513535610148
 31
0.0
  0
LINE
  5
B762
330
18
100
AcDbEntity
  8
0
  6
BYBLOCK
100
AcDbLine
 10
454.0384584536987
 20
490.5513535610148
 30
0.0
 11
455.8838468747684
 21
486.8441592216082
 31
0.0
  0
LINE
  5
B763
330
18
100
AcDbEntity
  8
0
  6
BYBLOCK
100
AcDbLine
 10
454.0384584536987
 20
490.5513535610148
 30
0.0
 11
454.8334307150052
 21
486.6311470481187
 31
0.0
  0
VIEWPORT
  5
57
330
15
100
AcDbEntity
 67
     1
  8
0
100
AcDbViewport
 68
     1
 10
0.0
 20
0.0
 30
0.0
 40
663.4332925336597
 41
297.0
 68
     1
 69
     1
1001
ACAD
1000
MVIEW
1002
{
1070
    16
1010
0.0
1020
0.0
1030
0.0
1010
0.0
1020
0.0
1030
1.0
1040
0.0
1040
297.0
1040
0.9626976744187061
1040
9.232558445532504
1040
50.0
1040
0.0
1040
0.0
1070
    16
1070
  1000
1070
     0
1070
     1
1070
     0
1070
     0
1070
     0
1070
     0
1040
0.0
1040
0.0
1040
0.0
1040
10.0
1040
10.0
1040
10.0
1040
10.0
1070
     0
1002
{
1002
}
1002
}
  0
ENDSEC
  0
SECTION
  2
OBJECTS
  0
DICTIONARY
  5
C
330
0
100
AcDbDictionary
  3
ACAD_CIP_PREVIOUS_PRODUCT_INFO
350
A30A
  3
ACAD_COLOR
350
8AE3
  3
ACAD_GROUP
350
D
  3
ACAD_LAYOUT
350
8AE6
  3
ACAD_MATERIAL
350
8AE2
  3
ACAD_MLEADERSTYLE
350
8D94
  3
ACAD_MLINESTYLE
350
1B
  3
ACAD_PLOTSETTINGS
350
8AE7
  3
ACAD_SCALELIST
350
8D72
  3
ACAD_VISUALSTYLE
350
8D61
  3
ACDBHEADERROUNDTRIPXREC
350
B764
  3
ACDBVARIABLEDICTIONARY
350
37
  3
CONTENTDICTIONARY
350
D8
  3
DRAWINGVARIABLESDICT
350
20
  3
DWGPROPS
350
B767
1001
ACAD
1000
TREAT_AS_HARD
1070
     0
  0
DICTIONARY
  5
8F7F
330
2
100
AcDbDictionary
  3
ACAD_LAYERSTATES
360
8F80
1001
ACAD
1000
TREAT_AS_HARD
1070
     1
  0
DICTIONARY
  5
8D9E
330
E
100
AcDbDictionary
  3
ADSK_XREC_LAYER_RECONCILED
360
8D9F
1001
ACAD
1000
TREAT_AS_HARD
1070
     1
  0
DICTIONARY
  5
8DA0
330
29
100
AcDbDictionary
  3
ADSK_XREC_LAYER_RECONCILED
360
8DA1
1001
ACAD
1000
TREAT_AS_HARD
1070
     1
  0
DICTIONARY
  5
8DA2
330
31
100
AcDbDictionary
  3
ADSK_XREC_LAYER_RECONCILED
360
8DA3
1001
ACAD
1000
TREAT_AS_HARD
1070
     1
  0
DICTIONARY
  5
8DB2
330
101
100
AcDbDictionary
  3
ADSK_XREC_LAYER_RECONCILED
360
8DB3
1001
ACAD
1000
TREAT_AS_HARD
1070
     1
  0
DICTIONARY
  5
8DB4
330
102
100
AcDbDictionary
  3
ADSK_XREC_LAYER_RECONCILED
360
8DB5
1001
ACAD
1000
TREAT_AS_HARD
1070
     1
  0
DICTIONARY
  5
8DB6
330
103
100
AcDbDictionary
  3
ADSK_XREC_LAYER_RECONCILED
360
8DB7
1001
ACAD
1000
TREAT_AS_HARD
1070
     1
  0
DICTIONARY
  5
8DBE
330
159
100
AcDbDictionary
  3
ADSK_XREC_LAYER_RECONCILED
360
8DBF
1001
ACAD
1000
TREAT_AS_HARD
1070
     1
  0
DICTIONARY
  5
8DC4
330
15C
100
AcDbDictionary
  3
ADSK_XREC_LAYER_RECONCILED
360
8DC5
1001
ACAD
1000
TREAT_AS_HARD
1070
     1
  0
DICTIONARY
  5
8E4A
330
8893
100
AcDbDictionary
  3
ADSK_XREC_LAYER_RECONCILED
360
8E4B
1001
ACAD
1000
TREAT_AS_HARD
1070
     1
  0
DICTIONARY
  5
8E4C
330
8894
100
AcDbDictionary
  3
ADSK_XREC_LAYER_RECONCILED
360
8E4D
1001
ACAD
1000
TREAT_AS_HARD
1070
     1
  0
DICTIONARY
  5
8E4E
330
8895
100
AcDbDictionary
  3
ADSK_XREC_LAYER_RECONCILED
360
8E4F
1001
ACAD
1000
TREAT_AS_HARD
1070
     1
  0
DICTIONARY
  5
8E50
330
8896
100
AcDbDictionary
  3
ADSK_XREC_LAYER_RECONCILED
360
8E51
1001
ACAD
1000
TREAT_AS_HARD
1070
     1
  0
DICTIONARY
  5
8B62
330
18
100
AcDbDictionary
  3
ACAD_SORTENTS
360
8B63
1001
ACAD
1000
TREAT_AS_HARD
1070
     1
  0
XRECORD
  5
A30A
102
{ACAD_REACTORS
330
C
102
}
330
C
100
AcDbXrecord
300
ACDLT
300
2012
300
ACDLT_F_S
  0
DICTIONARY
  5
8AE3
102
{ACAD_REACTORS
330
C
102
}
330
C
100
AcDbDictionary
1001
ACAD
1000
TREAT_AS_HARD
1070
     0
  0
DICTIONARY
  5
D
102
{ACAD_REACTORS
330
C
102
}
330
C
100
AcDbDictionary
1001
ACAD
1000
TREAT_AS_HARD
1070
     0
  0
DICTIONARY
  5
8AE6
102
{ACAD_REACTORS
330
C
102
}
330
C
100
AcDbDictionary
1001
ACAD
1000
TREAT_AS_HARD
1070
     0
  0
DICTIONARY
  5
8AE2
102
{ACAD_REACTORS
330
C
102
}
330
C
100
AcDbDictionary
  3
BYBLOCK
350
8D51
  3
BYLAYER
350
8D49
  3
GLOBAL
350
8D59
1001
ACAD
1000
TREAT_AS_HARD
1070
     0
  0
DICTIONARY
  5
8D94
102
{ACAD_REACTORS
330
C
102
}
330
C
100
AcDbDictionary
  3
STANDARD
350
8D95
1001
ACAD
1000
TREAT_AS_HARD
1070
     0
  0
DICTIONARY
  5
1B
102
{ACAD_REACTORS
330
C
102
}
330
C
100
AcDbDictionary
  3
STANDARD
350
1C
1001
ACAD
1000
TREAT_AS_HARD
1070
     0
  0
DICTIONARY
  5
8AE7
102
{ACAD_REACTORS
330
C
102
}
330
C
100
AcDbDictionary
1001
ACAD
1000
TREAT_AS_HARD
1070
     0
  0
DICTIONARY
  5
8D72
102
{ACAD_REACTORS
330
C
102
}
330
C
100
AcDbDictionary
  3
A0
350
8D73
  3
A1
350
8D74
  3
A2
350
8D75
  3
A3
350
8D76
  3
A4
350
8D77
  3
A5
350
8D78
  3
A6
350
8D79
  3
A7
350
8D7A
  3
A8
350
8D7B
  3
A9
350
8D7C
  3
B0
350
8D7D
  3
B1
350
8D7E
  3
B2
350
8D7F
  3
B3
350
8D80
  3
B4
350
8D81
  3
B5
350
8D82
  3
B6
350
8D83
  3
B7
350
8D84
  3
B8
350
8D85
  3
B9
350
8D86
  3
C0
350
8D87
  3
C1
350
8D88
  3
C2
350
8D89
  3
C3
350
8D8A
  3
C4
350
8D8B
  3
C5
350
8D8C
  3
C6
350
8D8D
  3
C7
350
8D8E
  3
C8
350
8D8F
  3
C9
350
8D90
  3
D0
350
8D91
  3
D1
350
8D92
  3
D2
350
8D93
1001
ACAD
1000
TREAT_AS_HARD
1070
     0
  0
DICTIONARY
  5
8D61
102
{ACAD_REACTORS
330
C
102
}
330
C
100
AcDbDictionary
  3
2DWIREFRAME
350
8D67
  3
3D_HIDDEN
350
8D69
  3
3DWIREFRAME
350
8D68
  3
BASIC
350
8D66
  3
BRIGHTEN
350
8D6D
  3
COLORCHANGE
350
8D71
  3
CONCEPTUAL
350
8D6A
  3
DIM
350
8D6C
  3
EDGECOLOROFF
350
A306
  3
FACEPATTERN
350
8D70
  3
FLAT
350
8D62
  3
FLATWITHEDGES
350
8D63
  3
GOURAUD
350
8D64
  3
GOURAUDWITHEDGES
350
8D65
  3
HIDDEN
350
A2FE
  3
JITTEROFF
350
A304
  3
LINEPATTERN
350
8D6F
  3
MODELING
350
AA23
  3
OVERHANGOFF
350
A305
  3
REALISTIC
350
8D6B
  3
SHADED
350
A303
  3
SHADED_WITH_EDGES
350
A302
  3
SHADES_OF_GRAY
350
A2FF
  3
SKETCHY
350
A300
  3
THICKEN
350
8D6E
  3
WIREFRAME
350
A2FD
  3
X-RAY
350
A301
1001
ACAD
1000
TREAT_AS_HARD
1070
     0
  0
DICTIONARY
  5
B764
102
{ACAD_REACTORS
330
C
102
}
330
C
100
AcDbDictionary
  3
COLORDICT
350
B765
  3
MATERIALDICT
350
B766
1001
ACAD
1000
TREAT_AS_HARD
1070
     0
  0
DICTIONARY
  5
37
102
{ACAD_REACTORS
330
C
102
}
330
C
100
AcDbDictionary
  3
CANNOSCALE
350
AA93
  3
CMLEADERSTYLE
350
8EC5
  3
CTABLESTYLE
350
8B4D
  3
DIMADEC
350
38
  3
DIMASSOC
350
8D46
  3
HIDETEXT
350
A491
  3
INDEXCTL
350
8EC7
  3
INTERSECTIONCOLOR
350
A494
  3
INTERSECTIONDISPLAY
350
A493
  3
LAYEREVAL
350
A48F
  3
LAYERNOTIFY
350
A490
  3
MSLTSCALE
350
AAE3
  3
OBSCOLOR
350
A492
  3
PROJECTNAME
350
8D47
  3
SORTENTS
350
5EC
  3
XCLIPFRAME
350
AA22
1001
ACAD
1000
TREAT_AS_HARD
1070
     0
  0
DICTIONARY
  5
D8
102
{ACAD_REACTORS
330
C
102
}
330
C
100
AcDbDictionary
1001
CONTENTTABDATA
1070
     3
1000
CHILD
1000
D:\ACLT\TABSET\CHILDREN.dwg
1070
     0
1070
     0
1070
     1
1000
REG
1000
D:\ACLT\TABSET\REGION.dwg
1070
     0
1070
     0
1070
     1
1000
std
1000
D:\ACLT\TABSET\std_sym_all.dwg
1070
     0
1070
     0
1070
     1
1001
CONTENTCURRENTTAB
1070
     4
1001
ACAD
1000
TREAT_AS_HARD
1070
     0
  0
DICTIONARY
  5
20
102
{ACAD_REACTORS
330
C
102
}
330
C
100
AcDbDictionary
1001
DRAWINGVARIABLESXDATA
1000
POLARANG
1000
0.261799387799149410000000
1000
POLARMODE
1000
1
1000
POLARSTYLE
1000
1
1001
ACAD
1000
TREAT_AS_HARD
1070
     0
  0
XRECORD
  5
B767
102
{ACAD_REACTORS
330
C
102
}
330
C
100
AcDbXrecord
  1
DWGPROPS COOKIE
  2

  3

  4

  6

  7

  8
3684
  9

300
=
301
=
302
=
303
=
304
=
305
=
306
=
307
=
308
=
309
=
 40
0.0
 41
2451318.246352917
 42
2458149.321813379
  1

 90
        0
  0
DICTIONARY
  5
8F80
102
{ACAD_REACTORS
330
8F7F
102
}
330
8F7F
100
AcDbDictionary
1001
ACAD
1000
TREAT_AS_HARD
1070
     0
  0
ACAD_PROXY_OBJECT
  5
8D9F
102
{ACAD_REACTORS
330
8D9E
102
}
330
8D9E
100
AcDbZombieObject
 90
      499
 91
      516
 93
       34
310
40C8804040
  0
ACAD_PROXY_OBJECT
  5
8DA1
102
{ACAD_REACTORS
330
8DA0
102
}
330
8DA0
100
AcDbZombieObject
 90
      499
 91
      516
 93
       34
310
40C8804040
  0
ACAD_PROXY_OBJECT
  5
8DA3
102
{ACAD_REACTORS
330
8DA2
102
}
330
8DA2
100
AcDbZombieObject
 90
      499
 91
      516
 93
       34
310
40C8804040
  0
ACAD_PROXY_OBJECT
  5
8DB3
102
{ACAD_REACTORS
330
8DB2
102
}
330
8DB2
100
AcDbZombieObject
 90
      499
 91
      516
 93
       34
310
40C8804040
  0
ACAD_PROXY_OBJECT
  5
8DB5
102
{ACAD_REACTORS
330
8DB4
102
}
330
8DB4
100
AcDbZombieObject
 90
      499
 91
      516
 93
       34
310
40C8804040
  0
ACAD_PROXY_OBJECT
  5
8DB7
102
{ACAD_REACTORS
330
8DB6
102
}
330
8DB6
100
AcDbZombieObject
 90
      499
 91
      516
 93
       34
310
40C8804040
  0
ACAD_PROXY_OBJECT
  5
8DBF
102
{ACAD_REACTORS
330
8DBE
102
}
330
8DBE
100
AcDbZombieObject
 90
      499
 91
      516
 93
       34
310
40C8804040
  0
ACAD_PROXY_OBJECT
  5
8DC5
102
{ACAD_REACTORS
330
8DC4
102
}
330
8DC4
100
AcDbZombieObject
 90
      499
 91
      516
 93
       34
310
40C8804040
  0
ACAD_PROXY_OBJECT
  5
8E4B
102
{ACAD_REACTORS
330
8E4A
102
}
330
8E4A
100
AcDbZombieObject
 90
      499
 91
      516
 93
       34
310
40C8804040
  0
ACAD_PROXY_OBJECT
  5
8E4D
102
{ACAD_REACTORS
330
8E4C
102
}
330
8E4C
100
AcDbZombieObject
 90
      499
 91
      516
 93
       34
310
40C8804040
  0
ACAD_PROXY_OBJECT
  5
8E4F
102
{ACAD_REACTORS
330
8E4E
102
}
330
8E4E
100
AcDbZombieObject
 90
      499
 91
      516
 93
       34
310
40C8804040
  0
ACAD_PROXY_OBJECT
  5
8E51
102
{ACAD_REACTORS
330
8E50
102
}
330
8E50
100
AcDbZombieObject
 90
      499
 91
      516
 93
       34
310
40C8804040
  0
SORTENTSTABLE
  5
8B63
102
{ACAD_REACTORS
330
8B62
102
}
330
8B62
100
AcDbSortentsTable
330
18
331
941A
  5
9540
331
941B
  5
9541
331
941C
  5
9542
331
941D
  5
9543
331
941F
  5
9544
331
9420
  5
954D
331
9425
  5
9550
331
9426
  5
95C7
331
9485
  5
95C8
331
9486
  5
95C9
331
9487
  5
95CA
331
948B
  5
95CB
331
94A8
  5
95CC
331
94AD
  5
95CD
331
94CD
  5
95DA
331
94D1
  5
95E8
331
94D5
  5
9624
331
94D6
  5
9625
331
94DA
  5
9626
331
94F7
  5
9627
331
94F8
  5
9628
331
94FB
  5
9629
331
9519
  5
962A
331
951D
  5
962C
331
9526
  5
962D
331
9527
  5
962E
331
9528
  5
962F
331
9529
  5
9630
331
952A
  5
9813
331
952B
  5
9823
331
952C
  5
9824
331
952D
  5
982D
331
9531
  5
982E
331
9532
  5
982F
331
9533
  5
9830
331
9534
  5
9831
331
9535
  5
984C
331
9536
  5
995D
331
9537
  5
996A
331
9538
  5
9A2B
331
953C
  5
9A2C
331
953D
  5
9A2D
331
953E
  5
9A68
331
953F
  5
9A76
331
9540
  5
9A8F
331
9541
  5
9A90
331
9542
  5
9A91
331
9543
  5
9A92
331
9544
  5
9A94
331
954D
  5
9A95
331
954E
  5
9A96
331
0
  5
9553
331
0
  5
9554
331
0
  5
955C
331
95C5
  5
9B3D
331
95C6
  5
9B3E
331
95C7
  5
9BFC
331
95C8
  5
9C4F
331
95C9
  5
9DB1
331
95CA
  5
9DB2
331
95CB
  5
9DB3
331
95D8
  5
9DB4
331
95E6
  5
9DB5
331
0
  5
95F4
331
961D
  5
A97D
331
9622
  5
A97E
331
9623
  5
B4B8
331
9624
  5
B4B9
331
9625
  5
B4BD
331
9626
  5
B4BE
331
9627
  5
B4BF
331
9628
  5
B4C0
331
962A
  5
B4C1
331
962B
  5
B4C2
331
962C
  5
B4C3
331
962D
  5
B4C4
331
962E
  5
B4C5
331
9811
  5
B4C6
331
9821
  5
B4C7
331
9822
  5
B4C8
331
982B
  5
B4C9
331
982C
  5
B4CA
331
982D
  5
B4CB
331
982E
  5
B4CC
331
982F
  5
B4CD
331
9830
  5
B4CE
331
983A
  5
B4CF
331
9849
  5
B4D0
331
984A
  5
B4D1
331
0
  5
9DDA
331
0
  5
9DDB
331
0
  5
9DE2
331
9A29
  5
B4F2
331
9A2A
  5
B4F3
331
9A2B
  5
B4F4
331
9A2C
  5
B4F5
331
9A2D
  5
B4F6
331
0
  5
9DE9
331
9A76
  5
B508
331
9A77
  5
B50A
331
9A78
  5
B50B
331
9A8E
  5
B50C
331
9A8F
  5
B50E
331
9A90
  5
B510
331
9B06
  5
B516
331
9B07
  5
B518
331
9B08
  5
B51A
331
9B09
  5
B51B
331
9B0A
  5
B51C
331
9B0B
  5
B51D
331
9B0C
  5
B51E
331
9B0E
  5
B512
331
9B0F
  5
B514
331
9B10
  5
B520
331
9B11
  5
B50D
331
9B12
  5
B511
331
9B13
  5
B521
331
9B14
  5
B522
331
9B15
  5
B524
331
9B16
  5
B527
331
9B17
  5
B523
331
9B18
  5
B526
331
9B19
  5
B528
331
9B1A
  5
B517
331
9B27
  5
B529
331
9B28
  5
B52A
331
9B29
  5
B52C
331
9B2A
  5
B50F
331
9B2F
  5
B52E
331
9B30
  5
B52F
331
9B31
  5
B532
331
9B32
  5
B533
331
9B33
  5
B519
331
9B34
  5
B51F
331
9B35
  5
B536
331
9B36
  5
B53B
331
9B37
  5
B53D
331
9B38
  5
B540
331
9B39
  5
B543
331
9B3A
  5
B544
331
9B3B
  5
B545
331
9B3D
  5
B542
331
9B3E
  5
B541
331
0
  5
A975
331
0
  5
A976
331
9DB1
  5
B55C
331
9DB2
  5
B55E
331
9DB3
  5
B55F
331
9DB4
  5
B561
331
9DB5
  5
B562
331
9DB6
  5
B567
331
9DB7
  5
B568
331
9DB8
  5
B569
331
9DC1
  5
B56A
331
9DC2
  5
B56B
331
9DC3
  5
B56C
331
9DCE
  5
B560
331
9DCF
  5
B564
331
9DD5
  5
B56D
331
9DDA
  5
B56E
331
9DDB
  5
B56F
331
9DDF
  5
B55D
331
9DE3
  5
B570
331
9DE4
  5
B572
331
9DE5
  5
B509
331
9DE6
  5
B571
331
9DE7
  5
B566
331
9DE8
  5
B573
331
9DE9
  5
B565
331
9DEA
  5
B574
331
9DEB
  5
B575
331
9DEC
  5
B576
331
9DED
  5
B577
331
9DEE
  5
B578
331
9DEF
  5
B531
331
9DF0
  5
B513
331
9DF1
  5
B535
331
9DF2
  5
B515
331
9DF3
  5
B52D
331
9DF4
  5
B534
331
9DF5
  5
B52B
331
9DF6
  5
B530
331
9DF7
  5
B53C
331
9DF8
  5
B53F
331
9DF9
  5
B53E
331
9DFA
  5
B53A
331
A294
  5
B579
331
A295
  5
B57A
331
A296
  5
B57B
331
A297
  5
B57C
331
A298
  5
B57D
331
A299
  5
B57E
331
A29A
  5
B57F
331
A29B
  5
B580
331
A29C
  5
B581
331
A29D
  5
B582
331
A29E
  5
B583
331
A29F
  5
B584
331
A2A0
  5
B585
331
A2A1
  5
B586
331
A3BB
  5
B587
331
A3BC
  5
B588
331
A3BD
  5
B589
331
0
  5
B4DD
331
A7EF
  5
B594
331
A7F0
  5
B595
331
A7F1
  5
B597
331
A7F2
  5
B598
331
A7F3
  5
B599
331
A7F4
  5
B59A
331
A7F5
  5
B59B
331
A7F6
  5
B59C
331
A7F7
  5
B59D
331
A7F8
  5
B59E
331
A7F9
  5
B59F
331
A7FA
  5
B5A0
331
A7FB
  5
B5A2
331
A7FE
  5
B5A3
331
A7FF
  5
B5A4
331
A800
  5
B5A5
331
A801
  5
B5A6
331
A802
  5
B596
331
0
  5
B69A
331
0
  5
B69B
331
A972
  5
B757
331
A973
  5
B758
331
A974
  5
B759
331
A975
  5
B75A
331
A976
  5
B75B
331
A977
  5
B75C
331
A978
  5
B75D
331
A979
  5
B75E
331
A97A
  5
B75F
331
A97B
  5
B760
331
A97C
  5
B761
331
A97D
  5
B762
331
A97E
  5
B763
331
0
  5
961F
331
B4B9
  5
9DD6
331
B4BA
  5
9DE4
331
B4BB
  5
9DE5
331
B4BC
  5
9DE6
331
B4BD
  5
9DE7
331
B4BE
  5
9DE8
331
B4BF
  5
9DEA
331
B4C0
  5
9DEB
331
B4C1
  5
9DEC
331
B4C2
  5
9DED
331
B4C3
  5
9DEE
331
B4C4
  5
9DEF
331
B4C5
  5
9DF0
331
B4C6
  5
9DF1
331
B4C7
  5
9DF2
331
B4C8
  5
9DF3
331
B4C9
  5
9DF4
331
B4CA
  5
9DF5
331
B4CB
  5
9DF6
331
B4CC
  5
9DF7
331
B4CD
  5
9DF8
331
B4CE
  5
9DF9
331
B4CF
  5
9DFA
331
B4D0
  5
A294
331
B4D1
  5
A295
331
B4D2
  5
A296
331
B4D3
  5
A297
331
B4D4
  5
A298
331
B4D5
  5
A299
331
B4D6
  5
A29A
331
B4D7
  5
A29B
331
B4D8
  5
A29C
331
B4D9
  5
A29D
331
B4DA
  5
A29E
331
B4DB
  5
A29F
331
B4DC
  5
A2A0
331
B4DD
  5
A2A1
331
B4DE
  5
A3BB
331
B4DF
  5
A3BC
331
B4E0
  5
A3BD
331
B4E1
  5
A714
331
B4E2
  5
A7EF
331
B4E3
  5
A7F0
331
B4E4
  5
A7F1
331
B4E5
  5
A7F2
331
B4E6
  5
A7F3
331
B4E7
  5
A7F4
331
B4E8
  5
A7F5
331
B4E9
  5
A7F6
331
B4EA
  5
A7F7
331
B4EB
  5
A7FB
331
B4EC
  5
A7FE
331
B4ED
  5
A7FF
331
B4EE
  5
A822
331
B4EF
  5
A823
331
B4F0
  5
A972
331
B4F1
  5
A978
331
B4F2
  5
A979
331
B4F3
  5
A97A
331
B4F4
  5
A97B
331
B4F5
  5
A97C
331
0
  5
B4E7
331
B4F7
  5
B5B0
331
B4F8
  5
B5B1
331
B4F9
  5
B5B2
331
B4FA
  5
B5B3
331
B4FB
  5
B5B4
331
B4FC
  5
B5B5
331
B4FD
  5
B5B6
331
B4FE
  5
B5B7
331
B4FF
  5
B5B8
331
B500
  5
B5B9
331
B501
  5
B5BA
331
B502
  5
B5BB
331
B503
  5
B5BC
331
B504
  5
B5BD
331
B505
  5
B5BE
331
B506
  5
B5BF
331
B507
  5
B5C0
331
B508
  5
B5C1
331
B509
  5
B5C2
331
B50A
  5
B5C3
331
B50B
  5
B5C4
331
B50C
  5
B5C5
331
B50D
  5
B5C6
331
B50E
  5
B5C7
331
B50F
  5
B5C8
331
B510
  5
B5C9
331
B511
  5
B5CA
331
B512
  5
B5CB
331
B513
  5
B5CC
331
B514
  5
B5CD
331
B515
  5
B5CE
331
B516
  5
B5CF
331
B517
  5
B5D0
331
B518
  5
B5D1
331
B519
  5
B5D2
331
B51A
  5
B5D3
331
B51B
  5
B5D4
331
B51C
  5
B5D5
331
B51D
  5
B5D6
331
B51E
  5
B5D7
331
B51F
  5
B5D8
331
B520
  5
B5D9
331
B521
  5
B5DA
331
B522
  5
B5DB
331
B523
  5
B5DC
331
B524
  5
B5DD
331
B525
  5
B5DE
331
B526
  5
B5E0
331
B527
  5
B5E1
331
B528
  5
B5E2
331
B529
  5
B5E3
331
B52A
  5
B5E4
331
B52B
  5
B5E5
331
B52C
  5
B5E6
331
B52D
  5
B5E7
331
B52E
  5
B5E8
331
B52F
  5
B5E9
331
B530
  5
B5EA
331
B531
  5
B5EB
331
B532
  5
B5EC
331
B533
  5
B5ED
331
0
  5
B525
331
B535
  5
B5F7
331
B536
  5
B5F8
331
B537
  5
B5F9
331
B538
  5
B5FA
331
B539
  5
B5FB
331
B53A
  5
B5FC
331
B53B
  5
B5FD
331
B53C
  5
B5FE
331
B53D
  5
B5FF
331
B53E
  5
B600
331
B53F
  5
B601
331
B540
  5
B602
331
B541
  5
B603
331
B542
  5
B604
331
B543
  5
B605
331
B544
  5
B606
331
B545
  5
B607
331
B546
  5
B608
331
B547
  5
B609
331
B548
  5
B60A
331
B549
  5
B60B
331
B54A
  5
B60C
331
B54B
  5
B60D
331
B54C
  5
B60E
331
B54D
  5
B60F
331
B54E
  5
B610
331
B54F
  5
B611
331
B550
  5
B612
331
B551
  5
B613
331
B552
  5
B614
331
B553
  5
B615
331
B554
  5
B616
331
B555
  5
B617
331
B556
  5
B618
331
B557
  5
B619
331
B558
  5
B61A
331
B559
  5
B61B
331
B55A
  5
B61C
331
B55B
  5
B61E
331
B55C
  5
B61F
331
B55D
  5
B620
331
B55E
  5
B621
331
B55F
  5
B622
331
B560
  5
B623
331
B561
  5
B624
331
B562
  5
B625
331
B563
  5
B626
331
B564
  5
B627
331
B565
  5
B628
331
B566
  5
B629
331
B567
  5
B62A
331
B568
  5
B62B
331
B569
  5
B62C
331
B56A
  5
B62D
331
B56B
  5
B62E
331
B56C
  5
B62F
331
B56D
  5
B630
331
B56E
  5
B631
331
B56F
  5
B632
331
B570
  5
B633
331
B571
  5
B634
331
0
  5
B563
331
B573
  5
B63E
331
B574
  5
B63F
331
B575
  5
B640
331
B576
  5
B641
331
B577
  5
B642
331
B578
  5
B643
331
B579
  5
B644
331
B57A
  5
B645
331
B57B
  5
B646
331
B57C
  5
B647
331
B57D
  5
B648
331
B57E
  5
B649
331
B57F
  5
B64A
331
B580
  5
B64B
331
B581
  5
B64C
331
B582
  5
B64D
331
B583
  5
B64E
331
B584
  5
B64F
331
B585
  5
B650
331
B586
  5
B651
331
B587
  5
B652
331
B588
  5
B653
331
B589
  5
B654
331
B58A
  5
B655
331
B58B
  5
B656
331
B58C
  5
B657
331
B58D
  5
B658
331
B58E
  5
B659
331
B58F
  5
B65A
331
B590
  5
B65B
331
B591
  5
B65C
331
B592
  5
B65D
331
B593
  5
B65E
331
B594
  5
B65F
331
B595
  5
B660
331
B596
  5
B661
331
B597
  5
B662
331
B598
  5
B663
331
B599
  5
B664
331
B59A
  5
B665
331
B59B
  5
B666
331
B59C
  5
B667
331
B59D
  5
B668
331
B59E
  5
B669
331
B59F
  5
B66A
331
B5A0
  5
B66B
331
B5A1
  5
B66C
331
B5A2
  5
B66D
331
B5A3
  5
B66E
331
B5A4
  5
B66F
331
B5A5
  5
B670
331
B5A6
  5
B671
331
B5A7
  5
B672
331
B5A8
  5
B673
331
B5A9
  5
B674
331
B5AA
  5
B675
331
B5AB
  5
B676
331
B5AC
  5
B677
331
B5AD
  5
B678
331
B5AE
  5
B679
331
B5AF
  5
B67A
331
0
  5
B5A1
331
B5B1
  5
B684
331
B5B2
  5
B685
331
B5B3
  5
B686
331
B5B4
  5
B687
331
B5B5
  5
B688
331
B5B6
  5
B689
331
B5B7
  5
B68A
331
B5B8
  5
B68B
331
B5B9
  5
B68C
331
B5BA
  5
B68D
331
B5BB
  5
B68E
331
B5BC
  5
B68F
331
B5BD
  5
B690
331
B5BE
  5
B691
331
B5BF
  5
B692
331
B5C0
  5
B693
331
B5C1
  5
B694
331
B5C2
  5
B695
331
B5C3
  5
B696
331
B5C4
  5
B697
331
B5C5
  5
B698
331
B5C6
  5
B699
331
B5C7
  5
B69C
331
B5C8
  5
B69D
331
B5C9
  5
B69E
331
B5CA
  5
B69F
331
B5CB
  5
B6A0
331
B5CC
  5
B6A1
331
B5CD
  5
B6A2
331
B5CE
  5
B6A3
331
B5CF
  5
B6A4
331
B5D0
  5
B6A5
331
B5D1
  5
B6A6
331
B5D2
  5
B6A7
331
B5D3
  5
B6A8
331
B5D4
  5
B6A9
331
B5D5
  5
B6AA
331
B5D6
  5
B6AB
331
B5D7
  5
B6AC
331
B5D8
  5
B6AD
331
B5D9
  5
B6AE
331
B5DA
  5
B6AF
331
B5DB
  5
B6B0
331
B5DC
  5
B6B1
331
B5DD
  5
B6B2
331
B5DE
  5
B6B3
331
B5DF
  5
B6B4
331
B5E0
  5
B6B5
331
B5E1
  5
B6B6
331
B5E2
  5
B6B7
331
B5E3
  5
B6B8
331
B5E4
  5
B6B9
331
B5E5
  5
B6BA
331
B5E6
  5
B6BB
331
B5E7
  5
B6BC
331
B5E8
  5
B6BD
331
B5E9
  5
B6BE
331
B5EA
  5
B6BF
331
B5EB
  5
B6C0
331
B5EC
  5
B6C1
331
B5ED
  5
B6C2
331
0
  5
B5DF
331
B5EF
  5
B6CC
331
B5F0
  5
B6CD
331
B5F1
  5
B6CE
331
B5F2
  5
B6CF
331
B5F3
  5
B6D0
331
B5F4
  5
B6D1
331
B5F5
  5
B6D2
331
B5F6
  5
B6D3
331
B5F7
  5
B6D4
331
B5F8
  5
B6D5
331
B5F9
  5
B6D6
331
B5FA
  5
B6D7
331
B5FB
  5
B6D8
331
B5FC
  5
B6D9
331
B5FD
  5
B6DA
331
B5FE
  5
B6DB
331
B5FF
  5
B6DC
331
B600
  5
B6DD
331
B601
  5
B6DE
331
B602
  5
B6DF
331
B603
  5
B6E0
331
B604
  5
B6E1
331
B605
  5
B6E2
331
B606
  5
B6E3
331
B607
  5
B6E4
331
B608
  5
B6E5
331
B609
  5
B6E6
331
B60A
  5
B6E7
331
B60B
  5
B6E8
331
B60C
  5
B6E9
331
B60D
  5
B6EA
331
B60E
  5
B6EB
331
B60F
  5
B6EC
331
B610
  5
B6ED
331
B611
  5
B6EE
331
B612
  5
B6EF
331
B613
  5
B6F0
331
B614
  5
B6F1
331
B615
  5
B6F2
331
B616
  5
B6F3
331
B617
  5
B6F4
331
B618
  5
B6F5
331
B619
  5
B6F7
331
B61A
  5
B6F8
331
B61B
  5
B6F9
331
B61C
  5
B6FA
331
B61D
  5
B6FB
331
B61E
  5
B6FC
331
B61F
  5
B6FD
331
B620
  5
B6FE
331
B621
  5
B6FF
331
B622
  5
B700
331
B623
  5
B701
331
B624
  5
B702
331
B625
  5
B703
331
B626
  5
B704
331
B627
  5
B705
331
B628
  5
B706
331
B629
  5
B707
331
B62A
  5
B708
331
B62B
  5
B709
331
0
  5
B61D
331
B62D
  5
B713
331
B62E
  5
B714
331
B62F
  5
B715
331
B630
  5
B716
331
B631
  5
B717
331
B632
  5
B718
331
B633
  5
B719
331
B634
  5
B71A
331
B635
  5
B71B
331
B636
  5
B71C
331
B637
  5
B71D
331
B638
  5
B71E
331
B639
  5
B71F
331
B63A
  5
B720
331
B63B
  5
B721
331
B63C
  5
B722
331
B63D
  5
B723
331
B63E
  5
B724
331
B63F
  5
B725
331
B640
  5
B726
331
B641
  5
B727
331
B642
  5
B728
331
B643
  5
B729
331
B644
  5
B72A
331
B645
  5
B72B
331
B646
  5
B72C
331
B647
  5
B72D
331
B648
  5
B72E
331
B649
  5
B72F
331
B64A
  5
B730
331
B64B
  5
B731
331
B64C
  5
B732
331
B64D
  5
B733
331
B64E
  5
B734
331
B64F
  5
B735
331
B650
  5
B736
331
B651
  5
B737
331
B652
  5
B738
331
B653
  5
B739
331
B654
  5
B73A
331
B655
  5
B73B
331
B656
  5
B73C
331
B657
  5
B73D
331
B658
  5
B73E
331
B659
  5
B73F
331
B65A
  5
B740
331
B65B
  5
B741
331
B65C
  5
B742
331
B65D
  5
B743
331
B65E
  5
B744
331
B65F
  5
B745
331
B660
  5
B746
331
B661
  5
B747
331
B662
  5
B748
331
B663
  5
B749
331
B664
  5
B74A
331
B665
  5
B74B
331
B666
  5
B74C
331
B667
  5
B74D
331
B668
  5
B74E
331
B669
  5
B74F
331
B66A
  5
9DB6
331
B66B
  5
9DB7
331
B66C
  5
9DB8
331
B66D
  5
9DBD
331
B66E
  5
9DBE
331
B66F
  5
9DC0
331
B670
  5
9DC2
331
B671
  5
9DC3
331
B672
  5
9DCE
331
B673
  5
B5A7
331
B674
  5
B5A8
331
B675
  5
B5A9
331
B676
  5
B5AA
331
B677
  5
B5AB
331
B678
  5
B5AC
331
B679
  5
B5AD
331
B67A
  5
B5AE
331
B67B
  5
B5AF
331
B67C
  5
B5EE
331
B67D
  5
B5EF
331
B67E
  5
B5F0
331
B67F
  5
B5F1
331
B680
  5
B5F2
331
B681
  5
B5F3
331
B682
  5
B5F4
331
B683
  5
B5F5
331
B684
  5
B5F6
331
B685
  5
B635
331
B686
  5
B636
331
B687
  5
B637
331
B688
  5
B638
331
B689
  5
B639
331
B68A
  5
B63A
331
B68B
  5
B63B
331
B68C
  5
B63C
331
B68D
  5
B63D
331
B68E
  5
B67B
331
B68F
  5
B67C
331
B690
  5
B67D
331
B691
  5
B67E
331
B692
  5
B67F
331
B693
  5
B680
331
B694
  5
B681
331
B695
  5
B682
331
B696
  5
B683
331
B697
  5
B6C3
331
B698
  5
B6C4
331
B699
  5
B6C5
331
B69A
  5
B6C6
331
B69B
  5
B6C7
331
B69C
  5
B6C8
331
B69D
  5
B6C9
331
B69E
  5
B6CA
331
B69F
  5
B6CB
331
B6A0
  5
B70A
331
B6A1
  5
B70B
331
B6A2
  5
B70C
331
B6A3
  5
B70D
331
B6A4
  5
B70E
331
B6A5
  5
B70F
331
B6A6
  5
B710
331
B6A7
  5
B711
331
B6A8
  5
B712
331
0
  5
941A
331
B6AA
  5
941F
331
B6AB
  5
9425
331
B6AC
  5
9426
331
B6AD
  5
9485
331
0
  5
9420
331
B6AF
  5
94AD
331
B6B0
  5
94D1
331
B6B1
  5
94D5
331
0
  5
9486
331
B6B3
  5
94FB
331
B6B4
  5
951D
331
B6B5
  5
9526
331
B6B6
  5
9527
331
0
  5
94CD
331
B6B8
  5
952B
331
B6B9
  5
952C
331
B6BA
  5
952D
331
0
  5
94DA
331
B6BC
  5
9534
331
B6BD
  5
9535
331
B6BE
  5
9536
331
0
  5
9519
331
B6C0
  5
953D
331
B6C1
  5
953E
331
B6C2
  5
953F
331
B6C3
  5
9B0C
331
B6C4
  5
9B0D
331
B6C5
  5
9B0F
331
0
  5
9832
331
0
  5
983C
331
0
  5
984B
331
B6C9
  5
9B17
331
B6CA
  5
9B18
331
B6CB
  5
9B19
331
0
  5
9977
331
0
  5
9A29
331
0
  5
9A2A
331
B6CF
  5
9B2E
331
B6D0
  5
9B31
331
B6D1
  5
9B32
331
B6D2
  5
9B33
331
B6D3
  5
9B34
331
0
  5
9A77
331
0
  5
9A78
331
0
  5
9A8E
331
B6D7
  5
B4D2
331
B6D8
  5
B4D3
331
B6D9
  5
B4D4
331
0
  5
A7F8
331
0
  5
A7F9
331
0
  5
A7FA
331
B6DD
  5
B4DC
331
B6DE
  5
B4DE
331
B6DF
  5
B4DF
331
0
  5
A800
331
0
  5
A801
331
0
  5
A802
331
B6E3
  5
B4E8
331
B6E4
  5
B4E9
331
B6E5
  5
B4EA
331
0
  5
A973
331
0
  5
A974
331
0
  5
A977
331
B6E9
  5
B4F7
331
B6EA
  5
B4F8
331
B6EB
  5
B4F9
331
B6EC
  5
B4FA
331
0
  5
B4BA
331
0
  5
B4BB
331
0
  5
B4BC
331
B6F0
  5
B546
331
B6F1
  5
B547
331
B6F2
  5
B548
331
B6F3
  5
B549
331
0
  5
B4FD
331
0
  5
B4FE
331
0
  5
B4FF
331
B6F7
  5
B551
331
B6F8
  5
B552
331
B6F9
  5
B553
331
0
  5
B503
331
0
  5
B504
331
0
  5
B505
331
B6FD
  5
B58A
331
B6FE
  5
B58B
331
B6FF
  5
B58C
331
0
  5
B537
331
0
  5
B538
331
0
  5
B539
331
0
  5
B6F6
331
B704
  5
B753
331
B705
  5
B754
331
B706
  5
B755
331
B707
  5
B756
331
B708
  5
941B
331
B709
  5
941C
331
B70A
  5
941D
331
B70B
  5
9487
331
B70C
  5
948B
331
B70D
  5
94A8
331
B70E
  5
94D6
331
B70F
  5
94F7
331
B710
  5
94F8
331
B711
  5
9528
331
B712
  5
9529
331
B713
  5
952A
331
B714
  5
9531
331
B715
  5
9532
331
B716
  5
9533
331
B717
  5
9537
331
B718
  5
9538
331
B719
  5
953C
331
B71A
  5
9B10
331
B71B
  5
9B11
331
B71C
  5
9B12
331
B71D
  5
9B13
331
B71E
  5
9B14
331
B71F
  5
9B15
331
B720
  5
9B16
331
B721
  5
9B1A
331
B722
  5
9B1B
331
B723
  5
9B20
331
B724
  5
9B2A
331
B725
  5
9B2B
331
B726
  5
9B2C
331
B727
  5
9B2D
331
B728
  5
9B35
331
B729
  5
9B36
331
B72A
  5
9B37
331
B72B
  5
9B38
331
B72C
  5
9B3A
331
B72D
  5
9B3B
331
B72E
  5
9B3C
331
B72F
  5
B4D5
331
B730
  5
B4D6
331
B731
  5
B4D7
331
B732
  5
B4D8
331
B733
  5
B4D9
331
B734
  5
B4DA
331
B735
  5
B4DB
331
B736
  5
B4E0
331
B737
  5
B4E1
331
B738
  5
B4E2
331
B739
  5
B4E3
331
B73A
  5
B4E4
331
B73B
  5
B4E5
331
B73C
  5
B4E6
331
B73D
  5
B4EB
331
B73E
  5
B4EC
331
B73F
  5
B4ED
331
B740
  5
B4EE
331
B741
  5
B4EF
331
B742
  5
B4F0
331
B743
  5
B4F1
331
B744
  5
B4FB
331
B745
  5
B4FC
331
B746
  5
B500
331
B747
  5
B501
331
B748
  5
B502
331
B749
  5
B506
331
B74A
  5
B507
331
B74B
  5
B54A
331
B74C
  5
B54B
331
B74D
  5
B54C
331
B74E
  5
B54D
331
B74F
  5
B54E
331
B750
  5
B54F
331
B751
  5
B550
331
B752
  5
B554
331
B753
  5
B555
331
B754
  5
B556
331
B755
  5
B557
331
B756
  5
B558
331
B757
  5
B559
331
B758
  5
B55A
331
B759
  5
B55B
331
B75A
  5
B58D
331
B75B
  5
B58E
331
B75C
  5
B58F
331
B75D
  5
B590
331
B75E
  5
B591
331
B75F
  5
B592
331
B760
  5
B593
331
B761
  5
B750
331
B762
  5
B751
331
B763
  5
B752
  0
MATERIAL
  5
8D51
102
{ACAD_REACTORS
330
8AE2
102
}
102
{ACAD_XDICTIONARY
360
B902
102
}
330
8AE2
100
AcDbMaterial
  1
BYBLOCK
 72
     0
 73
     2
 43
0.0208333333333333
 43
0.0
 43
0.0
 43
0.0
 43
0.0
 43
0.0208333333333333
 43
0.0
 43
0.0
 43
0.0
 43
0.0
 43
1.0
 43
0.0
 43
0.0
 43
0.0
 43
0.0
 43
1.0
 77
     0
 78
     2
 47
0.0208333333333333
 47
0.0
 47
0.0
 47
0.0
 47
0.0
 47
0.0208333333333333
 47
0.0
 47
0.0
 47
0.0
 47
0.0
 47
1.0
 47
0.0
 47
0.0
 47
0.0
 47
0.0
 47
1.0
171
     0
172
     2
 49
0.0208333333333333
 49
0.0
 49
0.0
 49
0.0
 49
0.0
 49
0.0208333333333333
 49
0.0
 49
0.0
 49
0.0
 49
0.0
 49
1.0
 49
0.0
 49
0.0
 49
0.0
 49
0.0
 49
1.0
175
     0
176
     2
142
0.0208333333333333
142
0.0
142
0.0
142
0.0
142
0.0
142
0.0208333333333333
142
0.0
142
0.0
142
0.0
142
0.0
142
1.0
142
0.0
142
0.0
142
0.0
142
0.0
142
1.0
179
     0
270
     2
144
0.0208333333333333
144
0.0
144
0.0
144
0.0
144
0.0
144
0.0208333333333333
144
0.0
144
0.0
144
0.0
144
0.0
144
1.0
144
0.0
144
0.0
144
0.0
144
0.0
144
1.0
274
     2
147
0.0208333333333333
147
0.0
147
0.0
147
0.0
147
0.0
147
0.0208333333333333
147
0.0
147
0.0
147
0.0
147
0.0
147
1.0
147
0.0
147
0.0
147
0.0
147
0.0
147
1.0
  0
MATERIAL
  5
8D49
102
{ACAD_REACTORS
330
8AE2
102
}
102
{ACAD_XDICTIONARY
360
B904
102
}
330
8AE2
100
AcDbMaterial
  1
BYLAYER
 72
     0
 73
     2
 43
0.0208333333333333
 43
0.0
 43
0.0
 43
0.0
 43
0.0
 43
0.0208333333333333
 43
0.0
 43
0.0
 43
0.0
 43
0.0
 43
1.0
 43
0.0
 43
0.0
 43
0.0
 43
0.0
 43
1.0
 77
     0
 78
     2
 47
0.0208333333333333
 47
0.0
 47
0.0
 47
0.0
 47
0.0
 47
0.0208333333333333
 47
0.0
 47
0.0
 47
0.0
 47
0.0
 47
1.0
 47
0.0
 47
0.0
 47
0.0
 47
0.0
 47
1.0
171
     0
172
     2
 49
0.0208333333333333
 49
0.0
 49
0.0
 49
0.0
 49
0.0
 49
0.0208333333333333
 49
0.0
 49
0.0
 49
0.0
 49
0.0
 49
1.0
 49
0.0
 49
0.0
 49
0.0
 49
0.0
 49
1.0
175
     0
176
     2
142
0.0208333333333333
142
0.0
142
0.0
142
0.0
142
0.0
142
0.0208333333333333
142
0.0
142
0.0
142
0.0
142
0.0
142
1.0
142
0.0
142
0.0
142
0.0
142
0.0
142
1.0
179
     0
270
     2
144
0.0208333333333333
144
0.0
144
0.0
144
0.0
144
0.0
144
0.0208333333333333
144
0.0
144
0.0
144
0.0
144
0.0
144
1.0
144
0.0
144
0.0
144
0.0
144
0.0
144
1.0
274
     2
147
0.0208333333333333
147
0.0
147
0.0
147
0.0
147
0.0
147
0.0208333333333333
147
0.0
147
0.0
147
0.0
147
0.0
147
1.0
147
0.0
147
0.0
147
0.0
147
0.0
147
1.0
  0
MATERIAL
  5
8D59
102
{ACAD_REACTORS
330
8AE2
102
}
102
{ACAD_XDICTIONARY
360
B906
102
}
330
8AE2
100
AcDbMaterial
  1
GLOBAL
 72
     0
 73
     2
 43
0.0208333333333333
 43
0.0
 43
0.0
 43
0.0
 43
0.0
 43
0.0208333333333333
 43
0.0
 43
0.0
 43
0.0
 43
0.0
 43
1.0
 43
0.0
 43
0.0
 43
0.0
 43
0.0
 43
1.0
 77
     0
 78
     2
 47
0.0208333333333333
 47
0.0
 47
0.0
 47
0.0
 47
0.0
 47
0.0208333333333333
 47
0.0
 47
0.0
 47
0.0
 47
0.0
 47
1.0
 47
0.0
 47
0.0
 47
0.0
 47
0.0
 47
1.0
171
     0
172
     2
 49
0.0208333333333333
 49
0.0
 49
0.0
 49
0.0
 49
0.0
 49
0.0208333333333333
 49
0.0
 49
0.0
 49
0.0
 49
0.0
 49
1.0
 49
0.0
 49
0.0
 49
0.0
 49
0.0
 49
1.0
175
     0
176
     2
142
0.0208333333333333
142
0.0
142
0.0
142
0.0
142
0.0
142
0.0208333333333333
142
0.0
142
0.0
142
0.0
142
0.0
142
1.0
142
0.0
142
0.0
142
0.0
142
0.0
142
1.0
179
     0
270
     2
144
0.0208333333333333
144
0.0
144
0.0
144
0.0
144
0.0
144
0.0208333333333333
144
0.0
144
0.0
144
0.0
144
0.0
144
1.0
144
0.0
144
0.0
144
0.0
144
0.0
144
1.0
274
     2
147
0.0208333333333333
147
0.0
147
0.0
147
0.0
147
0.0
147
0.0208333333333333
147
0.0
147
0.0
147
0.0
147
0.0
147
1.0
147
0.0
147
0.0
147
0.0
147
0.0
147
1.0
  0
ACAD_PROXY_OBJECT
  5
8D95
102
{ACAD_REACTORS
330
8D94
102
}
330
8D94
100
AcDbZombieObject
 90
      499
 91
      512
 93
      610
310
40901902A4063FBFFFFFE000000000000002040AD7A3703D0AD73F4214DD185B99185C990000000000000104090141901A00000000000004100000000000000041025764000000000000300FC0
340
12
340
0
340
F
340
0
 94
        0
1001
ACAD_MLEADERVER
1070
     2
  0
MLINESTYLE
  5
1C
102
{ACAD_REACTORS
330
1B
102
}
330
1B
100
AcDbMlineStyle
  2
STANDARD
 70
     0
  3

 62
   256
 51
90.0
 52
90.0
 71
     2
 49
0.5
 62
   256
  6
BYLAYER
 49
-0.5
 62
   256
  6
BYLAYER
  0
ACAD_PROXY_OBJECT
  5
8D73
102
{ACAD_REACTORS
330
8D72
102
}
330
8D72
100
AcDbZombieObject
 90
      499
 91
      511
 93
       41
310
903313A31580
  0
ACAD_PROXY_OBJECT
  5
8D74
102
{ACAD_REACTORS
330
8D72
102
}
330
8D72
100
AcDbZombieObject
 90
      499
 91
      511
 93
      105
310
903313A324000000000000004000
  0
ACAD_PROXY_OBJECT
  5
8D75
102
{ACAD_REACTORS
330
8D72
102
}
330
8D72
100
AcDbZombieObject
 90
      499
 91
      511
 93
      105
310
903313A344000000000000104000
  0
ACAD_PROXY_OBJECT
  5
8D76
102
{ACAD_REACTORS
330
8D72
102
}
330
8D72
100
AcDbZombieObject
 90
      499
 91
      511
 93
      105
310
903313A354000000000000144000
  0
ACAD_PROXY_OBJECT
  5
8D77
102
{ACAD_REACTORS
330
8D72
102
}
330
8D72
100
AcDbZombieObject
 90
      499
 91
      511
 93
      105
310
903313A384000000000000204000
  0
ACAD_PROXY_OBJECT
  5
8D78
102
{ACAD_REACTORS
330
8D72
102
}
330
8D72
100
AcDbZombieObject
 90
      499
 91
      511
 93
      113
310
904313A31304000000000000244000
  0
ACAD_PROXY_OBJECT
  5
8D79
102
{ACAD_REACTORS
330
8D72
102
}
330
8D72
100
AcDbZombieObject
 90
      499
 91
      511
 93
      113
310
904313A31364000000000000304000
  0
ACAD_PROXY_OBJECT
  5
8D7A
102
{ACAD_REACTORS
330
8D72
102
}
330
8D72
100
AcDbZombieObject
 90
      499
 91
      511
 93
      113
310
904313A32304000000000000344000
  0
ACAD_PROXY_OBJECT
  5
8D7B
102
{ACAD_REACTORS
330
8D72
102
}
330
8D72
100
AcDbZombieObject
 90
      499
 91
      511
 93
      113
310
904313A333040000000000003E4000
  0
ACAD_PROXY_OBJECT
  5
8D7C
102
{ACAD_REACTORS
330
8D72
102
}
330
8D72
100
AcDbZombieObject
 90
      499
 91
      511
 93
      113
310
904313A34304000000000000444000
  0
ACAD_PROXY_OBJECT
  5
8D7D
102
{ACAD_REACTORS
330
8D72
102
}
330
8D72
100
AcDbZombieObject
 90
      499
 91
      511
 93
      113
310
904313A35304000000000000494000
  0
ACAD_PROXY_OBJECT
  5
8D7E
102
{ACAD_REACTORS
330
8D72
102
}
330
8D72
100
AcDbZombieObject
 90
      499
 91
      511
 93
      121
310
905313A3130304000000000000594000
  0
ACAD_PROXY_OBJECT
  5
8D7F
102
{ACAD_REACTORS
330
8D72
102
}
330
8D72
100
AcDbZombieObject
 90
      499
 91
      511
 93
      105
310
903323A310000000000000010100
  0
ACAD_PROXY_OBJECT
  5
8D80
102
{ACAD_REACTORS
330
8D72
102
}
330
8D72
100
AcDbZombieObject
 90
      499
 91
      511
 93
      105
310
903343A310000000000000410100
  0
ACAD_PROXY_OBJECT
  5
8D81
102
{ACAD_REACTORS
330
8D72
102
}
330
8D72
100
AcDbZombieObject
 90
      499
 91
      511
 93
      105
310
903383A310000000000000810100
  0
ACAD_PROXY_OBJECT
  5
8D82
102
{ACAD_REACTORS
330
8D72
102
}
330
8D72
100
AcDbZombieObject
 90
      499
 91
      511
 93
      113
310
90431303A310000000000000910100
  0
ACAD_PROXY_OBJECT
  5
8D83
102
{ACAD_REACTORS
330
8D72
102
}
330
8D72
100
AcDbZombieObject
 90
      499
 91
      511
 93
      121
310
9053130303A310000000000001650100
  0
ACAD_PROXY_OBJECT
  5
8D84
102
{ACAD_REACTORS
330
8D72
102
}
330
8D72
100
AcDbZombieObject
 90
      499
 91
      511
 93
      257
310
90E312F31323822203D2031272D3022000000000000200FC000000000000284000
  0
ACAD_PROXY_OBJECT
  5
8D85
102
{ACAD_REACTORS
330
8D72
102
}
330
8D72
100
AcDbZombieObject
 90
      499
 91
      511
 93
      249
310
90D312F363422203D2031272D3022000000000000240FC000000000000284000
  0
ACAD_PROXY_OBJECT
  5
8D86
102
{ACAD_REACTORS
330
8D72
102
}
330
8D72
100
AcDbZombieObject
 90
      499
 91
      511
 93
      249
310
90D312F333222203D2031272D3022000000000000280FC000000000000284000
  0
ACAD_PROXY_OBJECT
  5
8D87
102
{ACAD_REACTORS
330
8D72
102
}
330
8D72
100
AcDbZombieObject
 90
      499
 91
      511
 93
      249
310
90D312F313622203D2031272D30220000000000002C0FC000000000000284000
  0
ACAD_PROXY_OBJECT
  5
8D88
102
{ACAD_REACTORS
330
8D72
102
}
330
8D72
100
AcDbZombieObject
 90
      499
 91
      511
 93
      249
310
90D332F333222203D2031272D30220000000000002E0FC000000000000284000
  0
ACAD_PROXY_OBJECT
  5
8D89
102
{ACAD_REACTORS
330
8D72
102
}
330
8D72
100
AcDbZombieObject
 90
      499
 91
      511
 93
      241
310
90C312F3822203D2031272D3022000000000000300FC000000000000284000
  0
ACAD_PROXY_OBJECT
  5
8D8A
102
{ACAD_REACTORS
330
8D72
102
}
330
8D72
100
AcDbZombieObject
 90
      499
 91
      511
 93
      249
310
90D332F313622203D2031272D3022000000000000320FC000000000000284000
  0
ACAD_PROXY_OBJECT
  5
8D8B
102
{ACAD_REACTORS
330
8D72
102
}
330
8D72
100
AcDbZombieObject
 90
      499
 91
      511
 93
      241
310
90C312F3422203D2031272D3022000000000000340FC000000000000284000
  0
ACAD_PROXY_OBJECT
  5
8D8C
102
{ACAD_REACTORS
330
8D72
102
}
330
8D72
100
AcDbZombieObject
 90
      499
 91
      511
 93
      241
310
90C332F3822203D2031272D3022000000000000360FC000000000000284000
  0
ACAD_PROXY_OBJECT
  5
8D8D
102
{ACAD_REACTORS
330
8D72
102
}
330
8D72
100
AcDbZombieObject
 90
      499
 91
      511
 93
      241
310
90C312F3222203D2031272D3022000000000000380FC000000000000284000
  0
ACAD_PROXY_OBJECT
  5
8D8E
102
{ACAD_REACTORS
330
8D72
102
}
330
8D72
100
AcDbZombieObject
 90
      499
 91
      511
 93
      241
310
90C332F3422203D2031272D30220000000000003A0FC000000000000284000
  0
ACAD_PROXY_OBJECT
  5
8D8F
102
{ACAD_REACTORS
330
8D72
102
}
330
8D72
100
AcDbZombieObject
 90
      499
 91
      511
 93
      161
310
90A3122203D2031272D30224000000000000284000
  0
ACAD_PROXY_OBJECT
  5
8D90
102
{ACAD_REACTORS
330
8D72
102
}
330
8D72
100
AcDbZombieObject
 90
      499
 91
      511
 93
      257
310
90E312D312F3222203D2031272D30220000000000003E0FC000000000000284000
  0
ACAD_PROXY_OBJECT
  5
8D91
102
{ACAD_REACTORS
330
8D72
102
}
330
8D72
100
AcDbZombieObject
 90
      499
 91
      511
 93
      225
310
90A3322203D2031272D302200000000000002100000000000000284000
  0
ACAD_PROXY_OBJECT
  5
8D92
102
{ACAD_REACTORS
330
8D72
102
}
330
8D72
100
AcDbZombieObject
 90
      499
 91
      511
 93
      225
310
90A3622203D2031272D302200000000000006100000000000000284000
  0
ACAD_PROXY_OBJECT
  5
8D93
102
{ACAD_REACTORS
330
8D72
102
}
330
8D72
100
AcDbZombieObject
 90
      499
 91
      511
 93
      249
310
90D31272D3022203D2031272D30220000000000000A100000000000000284000
  0
ACAD_PROXY_OBJECT
  5
8D67
102
{ACAD_REACTORS
330
8D61
102
}
330
8D61
100
AcDbZombieObject
 90
      499
 91
      510
 93
      436
310
42CC9915DA5C99599C985B595049028333333333333E3BF0000000000000FB0107901411070040501600405405064090741402480A0340
1001
ACAD
1000
AcDbSavedByObjectVersion
1070
     0
  0
ACAD_PROXY_OBJECT
  5
8D69
102
{ACAD_REACTORS
330
8D61
102
}
330
8D61
100
AcDbZombieObject
 90
      499
 91
      510
 93
      500
310
424CD108121A5919195B90640502408333333333333E3BF0000000000000FB01079024090700405020000000000001110200405405064090740C02480A0340
1001
ACAD
1000
AcDbSavedByObjectVersion
1070
     0
  0
ACAD_PROXY_OBJECT
  5
8D68
102
{ACAD_REACTORS
330
8D61
102
}
330
8D61
100
AcDbZombieObject
 90
      499
 91
      510
 93
      436
310
42CCD915DA5C99599C985B595059028333333333333E3BF0000000000000FB0107901411070040501600405405064090741402480A0340
1001
ACAD
1000
AcDbSavedByObjectVersion
1070
     0
  0
ACAD_PROXY_OBJECT
  5
8D66
102
{ACAD_REACTORS
330
8D61
102
}
330
8D61
100
AcDbZombieObject
 90
      499
 91
      510
 93
      388
310
4150985CDA58D07406404333333333333E3BF0000000000000FB0107A41107004050150841D405064090741402480A0350
1001
ACAD
1000
AcDbSavedByObjectVersion
1070
     0
  0
ACAD_PROXY_OBJECT
  5
8D6D
102
{ACAD_REACTORS
330
8D61
102
}
330
8D61
100
AcDbZombieObject
 90
      499
 91
      510
 93
      428
310
42109C9A59DA1D195B90C409028333333333333E3BF0000000000000FB010790141107004050150841D405064090741402480A029950
1001
ACAD
1000
AcDbSavedByObjectVersion
1070
     0
  0
ACAD_PROXY_OBJECT
  5
8D71
102
{ACAD_REACTORS
330
8D61
102
}
330
8D61
100
AcDbZombieObject
 90
      499
 91
      510
 93
      452
310
42D0DBDB1BDC90DA185B99D95104090240C333333333333E3BF0000000000000FB0108901411070040501508421405064090741402480A0350
1001
ACAD
1000
AcDbSavedByObjectVersion
1070
     0
  0
ACAD_PROXY_OBJECT
  5
8D6A
102
{ACAD_REACTORS
330
8D61
102
}
330
8D61
100
AcDbZombieObject
 90
      499
 91
      510
 93
      500
310
4290DBDB98D95C1D1D585B10940D028333333333333E3BF0000000000000FB0107902409070040501000000000000111010841D405064090740C02480A0340
1001
ACAD
1000
AcDbSavedByObjectVersion
1070
     0
  0
ACAD_PROXY_OBJECT
  5
8D6C
102
{ACAD_REACTORS
330
8D61
102
}
330
8D61
100
AcDbZombieObject
 90
      499
 91
      510
 93
      412
310
40D11A5B50B409028333333333333E3BF0000000000000FB010790141107004050150841D405064090741402480A02677FFFFFD0
1001
ACAD
1000
AcDbSavedByObjectVersion
1070
     0
  0
ACAD_PROXY_OBJECT
  5
A306
102
{ACAD_REACTORS
330
8D61
102
}
330
8D61
100
AcDbZombieObject
 90
      499
 91
      510
 93
      452
310
43115919D950DBDB1BDC93D999916409028333333333333E3BF0000000000000FB010790141107004050150841D405064090741402480A0350
1001
ACAD
1000
AcDbSavedByObjectVersion
1070
     0
  0
ACAD_PROXY_OBJECT
  5
8D70
102
{ACAD_REACTORS
330
8D61
102
}
330
8D61
100
AcDbZombieObject
 90
      499
 91
      510
 93
      444
310
42D19858D95C185D1D195C9B90F409028333333333333E3BF0000000000000FB010790141107004050150841D405064090741402480A0350
1001
ACAD
1000
AcDbSavedByObjectVersion
1070
     0
  0
ACAD_PROXY_OBJECT
  5
8D62
102
{ACAD_REACTORS
330
8D61
102
}
330
8D61
100
AcDbZombieObject
 90
      499
 91
      510
 93
      388
310
41119B185D240901404333333333333E3BF0000000000000F9010740A41107004050150841D405064090741402480A1B50
1001
ACAD
1000
AcDbSavedByObjectVersion
1070
     0
  0
ACAD_PROXY_OBJECT
  5
8D63
102
{ACAD_REACTORS
330
8D61
102
}
330
8D61
100
AcDbZombieObject
 90
      499
 91
      510
 93
      476
310
43519B185D15DA5D1A115919D95CD0140901404333333333333E3BF0000000000000F9010740901411070040501600405405064090741402480A1B50
1001
ACAD
1000
AcDbSavedByObjectVersion
1070
     0
  0
ACAD_PROXY_OBJECT
  5
8D64
102
{ACAD_REACTORS
330
8D61
102
}
330
8D61
100
AcDbZombieObject
 90
      499
 91
      510
 93
      412
310
41D1DBDD5C985D5910240902404333333333333E3BF0000000000000F9010740A411070040501641D405064090741402480A1B50
1001
ACAD
1000
AcDbSavedByObjectVersion
1070
     0
  0
ACAD_PROXY_OBJECT
  5
8D65
102
{ACAD_REACTORS
330
8D61
102
}
330
8D61
100
AcDbZombieObject
 90
      499
 91
      510
 93
      500
310
4411DBDD5C985D5915DA5D1A115919D95CD0340902404333333333333E3BF0000000000000F9010740901411070040501600405405064090741402480A1B50
1001
ACAD
1000
AcDbSavedByObjectVersion
1070
     0
  0
ACAD_PROXY_OBJECT
  5
A2FE
102
{ACAD_REACTORS
330
8D61
102
}
330
8D61
100
AcDbZombieObject
 90
      499
 91
      510
 93
      476
310
41921A5919195B90640502408333333333333E3BF0000000000000FB01079024090700405020000000000001110200405405064090740C02480A0340
1001
ACAD
1000
AcDbSavedByObjectVersion
1070
     0
  0
ACAD_PROXY_OBJECT
  5
A304
102
{ACAD_REACTORS
330
8D61
102
}
330
8D61
100
AcDbZombieObject
 90
      499
 91
      510
 93
      428
310
42529A5D1D195C93D999914409028333333333333E3BF0000000000000FB010790141107004050150A41D405064090741402480A0350
1001
ACAD
1000
AcDbSavedByObjectVersion
1070
     0
  0
ACAD_PROXY_OBJECT
  5
8D6F
102
{ACAD_REACTORS
330
8D61
102
}
330
8D61
100
AcDbZombieObject
 90
      499
 91
      510
 93
      444
310
42D31A5B995C185D1D195C9B90E409028333333333333E3BF0000000000000FB010790141107004050750841D405064090741402483A0350
1001
ACAD
1000
AcDbSavedByObjectVersion
1070
     0
  0
ACAD_PROXY_OBJECT
  5
AA23
102
{ACAD_REACTORS
330
8D61
102
}
330
8D61
100
AcDbZombieObject
 90
      499
 91
      510
 93
      484
310
42135BD9195B1A5B99D0A409038333333333333E33F0000000000000F901074090290700405010000000000201990108421405064090741402480A1B40
1001
ACAD
1000
AcDbSavedByObjectVersion
1070
     0
  0
ACAD_PROXY_OBJECT
  5
A305
102
{ACAD_REACTORS
330
8D61
102
}
330
8D61
100
AcDbZombieObject
 90
      499
 91
      510
 93
      444
310
42D3DD995C9A185B99D3D999915409028333333333333E3BF0000000000000FB010790141107004050150941D405064090741402480A0350
1001
ACAD
1000
AcDbSavedByObjectVersion
1070
     0
  0
ACAD_PROXY_OBJECT
  5
8D6B
102
{ACAD_REACTORS
330
8D61
102
}
330
8D61
100
AcDbZombieObject
 90
      499
 91
      510
 93
      420
310
425499585B1A5CDD1A58D08409028333333333333E3BF0000000000000FB01079019070040501508421405064090741402480A1B40
1001
ACAD
1000
AcDbSavedByObjectVersion
1070
     0
  0
ACAD_PROXY_OBJECT
  5
A303
102
{ACAD_REACTORS
330
8D61
102
}
330
8D61
100
AcDbZombieObject
 90
      499
 91
      510
 93
      420
310
4194DA1859195911B40902404333333333333E3BF0000000000000F9010740A41107004050150800405405064090840C02480A0B40
1001
ACAD
1000
AcDbSavedByObjectVersion
1070
     0
  0
ACAD_PROXY_OBJECT
  5
A302
102
{ACAD_REACTORS
330
8D61
102
}
330
8D61
100
AcDbZombieObject
 90
      499
 91
      510
 93
      516
310
4454DA18591959081DDA5D1A08195919D95CD1A40902404333333333333E3BF0000000000000F901074090142907004050250800405405064090740C02480A0B40
1001
ACAD
1000
AcDbSavedByObjectVersion
1070
     0
  0
ACAD_PROXY_OBJECT
  5
A2FF
102
{ACAD_REACTORS
330
8D61
102
}
330
8D61
100
AcDbZombieObject
 90
      499
 91
      510
 93
      532
310
4394DA1859195CC81BD98811DC985E5174090240C333333333333E3BF0000000000000FB01079024090741D01000000000000111010841D405064090740C02480A0340
1001
ACAD
1000
AcDbSavedByObjectVersion
1070
     0
  0
ACAD_PROXY_OBJECT
  5
A300
102
{ACAD_REACTORS
330
8D61
102
}
330
8D61
100
AcDbZombieObject
 90
      499
 91
      510
 93
      476
310
41D4DAD95D18DA1E51840502408333333333333E3BF0000000000000FB01079024090741D01000000000000111010B41D405064090741802480A0340
1001
ACAD
1000
AcDbSavedByObjectVersion
1070
     0
  0
ACAD_PROXY_OBJECT
  5
8D6E
102
{ACAD_REACTORS
330
8D61
102
}
330
8D61
100
AcDbZombieObject
 90
      499
 91
      510
 93
      412
310
41D51A1A58DAD95B90D409028333333333333E3BF0000000000000FB010790141107004050150C41D405064090741402480A0350
1001
ACAD
1000
AcDbSavedByObjectVersion
1070
     0
  0
ACAD_PROXY_OBJECT
  5
A2FD
102
{ACAD_REACTORS
330
8D61
102
}
330
8D61
100
AcDbZombieObject
 90
      499
 91
      510
 93
      420
310
4255DA5C99599C985B595059028333333333333E3BF0000000000000FB0107901411070040501600405405064090740C02480A0340
1001
ACAD
1000
AcDbSavedByObjectVersion
1070
     0
  0
ACAD_PROXY_OBJECT
  5
A301
102
{ACAD_REACTORS
330
8D61
102
}
330
8D61
100
AcDbZombieObject
 90
      499
 91
      510
 93
      404
310
41560B54985E51940902404000000000000E03F0000000000000FB010740501907004050150841D405064090740C02480A1B40
1001
ACAD
1000
AcDbSavedByObjectVersion
1070
     0
  0
XRECORD
  5
B765
102
{ACAD_REACTORS
330
B764
102
}
330
B764
100
AcDbXrecord
340
8AE3
  0
XRECORD
  5
B766
102
{ACAD_REACTORS
330
B764
102
}
330
B764
100
AcDbXrecord
340
8AE2
  0
DICTIONARYVAR
  5
AA93
102
{ACAD_REACTORS
330
37
102
}
330
37
100
DictionaryVariables
280
     0
  1
1:1
  0
DICTIONARYVAR
  5
8EC5
102
{ACAD_REACTORS
330
37
102
}
330
37
100
DictionaryVariables
280
     0
  1
Standard
  0
DICTIONARYVAR
  5
8B4D
102
{ACAD_REACTORS
330
37
102
}
330
37
100
DictionaryVariables
280
     0
  1
Standard
  0
DICTIONARYVAR
  5
38
102
{ACAD_REACTORS
330
37
102
}
330
37
100
DictionaryVariables
280
     0
  1
-1
  0
DICTIONARYVAR
  5
8D46
102
{ACAD_REACTORS
330
37
102
}
330
37
100
DictionaryVariables
280
     0
  1
2
  0
DICTIONARYVAR
  5
A491
102
{ACAD_REACTORS
330
37
102
}
330
37
100
DictionaryVariables
280
     0
  1
1
  0
DICTIONARYVAR
  5
8EC7
102
{ACAD_REACTORS
330
37
102
}
330
37
100
DictionaryVariables
280
     0
  1
0
  0
DICTIONARYVAR
  5
A494
102
{ACAD_REACTORS
330
37
102
}
330
37
100
DictionaryVariables
280
     0
  1
8
  0
DICTIONARYVAR
  5
A493
102
{ACAD_REACTORS
330
37
102
}
330
37
100
DictionaryVariables
280
     0
  1
1
  0
DICTIONARYVAR
  5
A48F
102
{ACAD_REACTORS
330
37
102
}
330
37
100
DictionaryVariables
280
     0
  1
0
  0
DICTIONARYVAR
  5
A490
102
{ACAD_REACTORS
330
37
102
}
330
37
100
DictionaryVariables
280
     0
  1
0
  0
DICTIONARYVAR
  5
AAE3
102
{ACAD_REACTORS
330
37
102
}
330
37
100
DictionaryVariables
280
     0
  1
0
  0
DICTIONARYVAR
  5
A492
102
{ACAD_REACTORS
330
37
102
}
330
37
100
DictionaryVariables
280
     0
  1
120
  0
DICTIONARYVAR
  5
8D47
102
{ACAD_REACTORS
330
37
102
}
330
37
100
DictionaryVariables
280
     0
  1

  0
DICTIONARYVAR
  5
5EC
102
{ACAD_REACTORS
330
37
102
}
330
37
100
DictionaryVariables
280
     0
  1
96
  0
DICTIONARYVAR
  5
AA22
102
{ACAD_REACTORS
330
37
102
}
330
37
100
DictionaryVariables
280
     0
  1
2
  0
DICTIONARY
  5
B902
330
8D51
100
AcDbDictionary
  3
ACAD_XREC_ROUNDTRIP
360
B903
1001
ACAD
1000
TREAT_AS_HARD
1070
     1
  0
DICTIONARY
  5
B904
330
8D49
100
AcDbDictionary
  3
ACAD_XREC_ROUNDTRIP
360
B905
1001
ACAD
1000
TREAT_AS_HARD
1070
     1
  0
DICTIONARY
  5
B906
330
8D59
100
AcDbDictionary
  3
ACAD_XREC_ROUNDTRIP
360
B907
1001
ACAD
1000
TREAT_AS_HARD
1070
     1
  0
XRECORD
  5
B903
102
{ACAD_REACTORS
330
B902
102
}
330
B902
100
AcDbXrecord
102
MATERIAL
148
0.0
149
0.0
149
0.0
 93
        0
 94
      127
282
     0
 72
     0
 77
     0
171
     0
175
     0
179
     0
273
     0
  0
XRECORD
  5
B905
102
{ACAD_REACTORS
330
B904
102
}
330
B904
100
AcDbXrecord
102
MATERIAL
148
0.0
149
0.0
149
0.0
 93
        0
 94
      127
282
     0
 72
     0
 77
     0
171
     0
175
     0
179
     0
273
     0
  0
XRECORD
  5
B907
102
{ACAD_REACTORS
330
B906
102
}
330
B906
100
AcDbXrecord
102
MATERIAL
148
0.0
149
0.0
149
0.0
 93
        0
 94
      127
282
     0
 72
     0
 77
     0
171
     0
175
     0
179
     0
273
     0
  0
ENDSEC
  0
EOF
