  0
SECTION
  2
HEADER
  9
$ACADVER
  1
AC1012
  9
$DWGCODEPAGE
  3
ansi_932
  9
$INSBASE
 10
0.0
 20
0.0
 30
0.0
  9
$EXTMIN
 10
-33.54473259533
 20
-184.527396343196
 30
0.0
  9
$EXTMAX
 10
900.6445807295067
 20
260.1489370473161
 30
0.0
  9
$LIMMIN
 10
0.0
 20
0.0
  9
$LIMMAX
 10
420.0
 20
297.0
  9
$ORTHOMODE
 70
     0
  9
$REGENMODE
 70
     1
  9
$FILLMODE
 70
     1
  9
$QTEXTMODE
 70
     0
  9
$MIRRTEXT
 70
     0
  9
$DRAGMODE
 70
     2
  9
$LTSCALE
 40
0.5
  9
$OSMODE
 70
 14463
  9
$ATTMODE
 70
     1
  9
$TEXTSIZE
 40
4.0
  9
$TRACEWID
 40
1.0
  9
$TEXTSTYLE
  7
STANDARD
  9
$CLAYER
  8
1TEXT
  9
$CELTYPE
  6
BYLAYER
  9
$CECOLOR
 62
   256
  9
$CELTSCALE
 40
1.0
  9
$DELOBJ
 70
     1
  9
$DISPSILH
 70
     0
  9
$DIMSCALE
 40
1.0
  9
$DIMASZ
 40
2.0
  9
$DIMEXO
 40
0.0
  9
$DIMDLI
 40
7.0
  9
$DIMRND
 40
0.0
  9
$DIMDLE
 40
0.0
  9
$DIMEXE
 40
1.0
  9
$DIMTP
 40
0.0
  9
$DIMTM
 40
0.0
  9
$DIMTXT
 40
3.5
  9
$DIMCEN
 40
0.0
  9
$DIMTSZ
 40
0.0
  9
$DIMTOL
 70
     0
  9
$DIMLIM
 70
     0
  9
$DIMTIH
 70
     0
  9
$DIMTOH
 70
     0
  9
$DIMSE1
 70
     0
  9
$DIMSE2
 70
     0
  9
$DIMTAD
 70
     1
  9
$DIMZIN
 70
     8
  9
$DIMBLK
  1

  9
$DIMASO
 70
     1
  9
$DIMSHO
 70
     1
  9
$DIMPOST
  1
 
  9
$DIMAPOST
  1

  9
$DIMALT
 70
     0
  9
$DIMALTD
 70
     2
  9
$DIMALTF
 40
25.4
  9
$DIMLFAC
 40
1.0
  9
$DIMTOFL
 70
     1
  9
$DIMTVP
 40
0.0
  9
$DIMTIX
 70
     0
  9
$DIMSOXD
 70
     0
  9
$DIMSAH
 70
     1
  9
$DIMBLK1
  1
OPEN30
  9
$DIMBLK2
  1
OPEN30
  9
$DIMSTYLE
  2
NEWX10
  9
$DIMCLRD
 70
   256
  9
$DIMCLRE
 70
   256
  9
$DIMCLRT
 70
   201
  9
$DIMTFAC
 40
0.7
  9
$DIMGAP
 40
0.7
  9
$DIMJUST
 70
     0
  9
$DIMSD1
 70
     0
  9
$DIMSD2
 70
     0
  9
$DIMTOLJ
 70
     1
  9
$DIMTZIN
 70
     8
  9
$DIMALTZ
 70
     0
  9
$DIMALTTZ
 70
     0
  9
$DIMFIT
 70
     3
  9
$DIMUPT
 70
     0
  9
$DIMUNIT
 70
     2
  9
$DIMDEC
 70
     2
  9
$DIMTDEC
 70
     4
  9
$DIMALTU
 70
     2
  9
$DIMALTTD
 70
     2
  9
$DIMTXSTY
  7
STANDARD
  9
$DIMAUNIT
 70
     0
  9
$LUNITS
 70
     2
  9
$LUPREC
 70
     4
  9
$SKETCHINC
 40
1.0
  9
$FILLETRAD
 40
0.0
  9
$AUNITS
 70
     0
  9
$AUPREC
 70
     2
  9
$MENU
  1
acad
  9
$ELEVATION
 40
0.0
  9
$PELEVATION
 40
0.0
  9
$THICKNESS
 40
0.0
  9
$LIMCHECK
 70
     0
  9
$CHAMFERA
 40
0.5
  9
$CHAMFERB
 40
0.5
  9
$CHAMFERC
 40
20.0
  9
$CHAMFERD
 40
0.0
  9
$SKPOLY
 70
     0
  9
$TDCREATE
 40
2451318.621352917
  9
$TDUPDATE
 40
2458149.696701262
  9
$TDINDWG
 40
2.8746922917
  9
$TDUSRTIMER
 40
2.8746922917
  9
$USRTIMER
 70
     1
  9
$ANGBASE
 50
0.0
  9
$ANGDIR
 70
     0
  9
$PDMODE
 70
     0
  9
$PDSIZE
 40
0.0
  9
$PLINEWID
 40
0.0
  9
$COORDS
 70
     2
  9
$SPLFRAME
 70
     0
  9
$SPLINETYPE
 70
     6
  9
$SPLINESEGS
 70
     8
  9
$ATTDIA
 70
     0
  9
$ATTREQ
 70
     1
  9
$HANDLING
 70
     1
  9
$HANDSEED
  5
BBEB
  9
$SURFTAB1
 70
     6
  9
$SURFTAB2
 70
     6
  9
$SURFTYPE
 70
     6
  9
$SURFU
 70
     6
  9
$SURFV
 70
     6
  9
$UCSNAME
  2

  9
$UCSORG
 10
0.0
 20
0.0
 30
0.0
  9
$UCSXDIR
 10
1.0
 20
0.0
 30
0.0
  9
$UCSYDIR
 10
0.0
 20
1.0
 30
0.0
  9
$PUCSNAME
  2

  9
$PUCSORG
 10
0.0
 20
0.0
 30
0.0
  9
$PUCSXDIR
 10
1.0
 20
0.0
 30
0.0
  9
$PUCSYDIR
 10
0.0
 20
1.0
 30
0.0
  9
$USERI1
 70
     0
  9
$USERI2
 70
     0
  9
$USERI3
 70
     0
  9
$USERI4
 70
     0
  9
$USERI5
 70
     0
  9
$USERR1
 40
0.0
  9
$USERR2
 40
0.0
  9
$USERR3
 40
0.0
  9
$USERR4
 40
0.0
  9
$USERR5
 40
11.5
  9
$WORLDVIEW
 70
     1
  9
$SHADEDGE
 70
     3
  9
$SHADEDIF
 70
    70
  9
$TILEMODE
 70
     1
  9
$MAXACTVP
 70
    48
  9
$PINSBASE
 10
0.0
 20
0.0
 30
0.0
  9
$PLIMCHECK
 70
     0
  9
$PEXTMIN
 10
1.000000000000000E+20
 20
1.000000000000000E+20
 30
1.000000000000000E+20
  9
$PEXTMAX
 10
-1.000000000000000E+20
 20
-1.000000000000000E+20
 30
-1.000000000000000E+20
  9
$PLIMMIN
 10
0.0
 20
0.0
  9
$PLIMMAX
 10
420.0
 20
297.0
  9
$UNITMODE
 70
     0
  9
$VISRETAIN
 70
     1
  9
$PLINEGEN
 70
     0
  9
$PSLTSCALE
 70
     1
  9
$TREEDEPTH
 70
  3020
  9
$PICKSTYLE
 70
     1
  9
$CMLSTYLE
  2
STANDARD
  9
$CMLJUST
 70
     0
  9
$CMLSCALE
 40
20.0
  9
$SAVEIMAGES
 70
     1
  0
ENDSEC
  0
SECTION
  2
CLASSES
  0
CLASS
  1
DICTIONARYVAR
  2
AcDbDictionaryVar
  3
ObjectDBX Classes
 90
        0
280
     0
281
     0
  0
CLASS
  1
IDBUFFER
  2
AcDbIdBuffer
  3
ObjectDBX Classes
 90
    32768
280
     0
281
     0
  0
CLASS
  1
LWPOLYLINE
  2
AcDbPolyline
  3
ObjectDBX Classes
 90
    32768
280
     0
281
     1
  0
CLASS
  1
HATCH
  2
AcDbHatch
  3
ObjectDBX Classes
 90
    32768
280
     0
281
     1
  0
CLASS
  1
ACDBDICTIONARYWDFLT
  2
AcDbDictionaryWithDefault
  3
ObjectDBX Classes
 90
    32768
280
     0
281
     0
  0
CLASS
  1
TABLESTYLE
  2
AcDbTableStyle
  3
ObjectDBX Classes
 90
     4095
280
     0
281
     0
  0
CLASS
  1
SORTENTSTABLE
  2
AcDbSortentsTable
  3
ObjectDBX Classes
 90
    32768
280
     0
281
     0
  0
CLASS
  1
ACDBPLACEHOLDER
  2
AcDbPlaceHolder
  3
ObjectDBX Classes
 90
        0
280
     0
281
     0
  0
CLASS
  1
LAYOUT
  2
AcDbLayout
  3
ObjectDBX Classes
 90
        0
280
     0
281
     0
  0
CLASS
  1
MATERIAL
  2
AcDbMaterial
  3
ObjectDBX Classes
 90
     1153
280
     0
281
     0
  0
CLASS
  1
VISUALSTYLE
  2
AcDbVisualStyle
  3
ObjectDBX Classes
 90
     4095
280
     0
281
     0
  0
CLASS
  1
SCALE
  2
AcDbScale
  3
ObjectDBX Classes
 90
     1153
280
     0
281
     0
  0
CLASS
  1
MLEADERSTYLE
  2
AcDbMLeaderStyle
  3
ACDB_MLEADERSTYLE_CLASS
 90
     4095
280
     0
281
     0
  0
CLASS
  1
CELLSTYLEMAP
  2
AcDbCellStyleMap
  3
ObjectDBX Classes
 90
     1152
280
     0
281
     0
  0
CLASS
  1
SUN
  2
AcDbSun
  3
SCENEOE
 90
     1153
280
     0
281
     0
  0
CLASS
  1
XRECORD
  2
AcDbXrecord
  3
ObjectDBX Classes
 90
    32768
280
     0
281
     0
  0
ENDSEC
  0
SECTION
  2
TABLES
  0
TABLE
  2
VPORT
  5
8
330
0
100
AcDbSymbolTable
 70
     1
  0
VPORT
  5
8D3B
330
8
100
AcDbSymbolTableRecord
100
AcDbViewportTableRecord
  2
*ACTIVE
 70
     0
 10
0.0
 20
0.0
 11
1.0
 21
1.0
 12
433.5499240670883
 22
37.81077035206
 13
0.0
 23
0.0
 14
10.0
 24
10.0
 15
10.0
 25
10.0
 16
0.0
 26
0.0
 36
1.0
 17
0.0
 27
0.0
 37
0.0
 40
477.4419579561288
 41
2.233782129742962
 42
50.0
 43
0.0
 44
0.0
 50
0.0
 51
0.0
 71
    16
 72
  1000
 73
     1
 74
     1
 75
     0
 76
     0
 77
     0
 78
     0
1001
ACAD_NAV_VCDISPLAY
1070
     3
  0
ENDTAB
  0
TABLE
  2
LTYPE
  5
5
330
0
100
AcDbSymbolTable
 70
     6
  0
LTYPE
  5
12
330
5
100
AcDbSymbolTableRecord
100
AcDbLinetypeTableRecord
  2
BYBLOCK
 70
     0
  3

 72
    65
 73
     0
 40
0.0
  0
LTYPE
  5
13
330
5
100
AcDbSymbolTableRecord
100
AcDbLinetypeTableRecord
  2
BYLAYER
 70
     0
  3

 72
    65
 73
     0
 40
0.0
  0
LTYPE
  5
14
330
5
100
AcDbSymbolTableRecord
100
AcDbLinetypeTableRecord
  2
CONTINUOUS
 70
     0
  3
Solid line
 72
    65
 73
     0
 40
0.0
  0
LTYPE
  5
6A
330
5
100
AcDbSymbolTableRecord
100
AcDbLinetypeTableRecord
  2
XREF1|CENTER2
 70
    48
  3
Center (.5x) ___ _ ___ _ ___ _ ___ _ ___ _ ___
 72
    65
 73
     4
 40
28.575
 49
19.05
 74
     0
 49
-3.175
 74
     0
 49
3.175
 74
     0
 49
-3.175
 74
     0
  0
LTYPE
  5
FF
330
5
100
AcDbSymbolTableRecord
100
AcDbLinetypeTableRecord
  2
HIDDEN
 70
     0
  3
Hidden __ __ __ __ __ __ __ __ __ __ __ __ __ _
 72
    65
 73
     2
 40
9.524999999999999
 49
6.35
 74
     0
 49
-3.175
 74
     0
  0
LTYPE
  5
100
330
5
100
AcDbSymbolTableRecord
100
AcDbLinetypeTableRecord
  2
PHANTOM2
 70
     0
  3
Phantom (0.5x) ___ _ _ ___ _ _ ___ _ _ ___ _ _
 72
    65
 73
     6
 40
31.75
 49
15.875
 74
     0
 49
-3.175
 74
     0
 49
3.175
 74
     0
 49
-3.175
 74
     0
 49
3.175
 74
     0
 49
-3.175
 74
     0
  0
LTYPE
  5
ACCA
330
5
100
AcDbSymbolTableRecord
100
AcDbLinetypeTableRecord
  2
CENTER2
 70
     0
  3
Center (.5x) ___ _ ___ _ ___ _ ___ _ ___ _ ___
 72
    65
 73
     4
 40
28.575
 49
19.05
 74
     0
 49
-3.175
 74
     0
 49
3.175
 74
     0
 49
-3.175
 74
     0
  0
LTYPE
  5
AD21
330
5
100
AcDbSymbolTableRecord
100
AcDbLinetypeTableRecord
  2
A3WAKUDAKE|CENTER2
 70
    48
  3
Center (.5x) ___ _ ___ _ ___ _ ___ _ ___ _ ___
 72
    65
 73
     4
 40
28.575
 49
19.05
 74
     0
 49
-3.175
 74
     0
 49
3.175
 74
     0
 49
-3.175
 74
     0
  0
ENDTAB
  0
TABLE
  2
LAYER
  5
2
102
{ACAD_XDICTIONARY
360
8F7F
102
}
330
0
100
AcDbSymbolTable
 70
    12
  0
LAYER
  5
E
102
{ACAD_XDICTIONARY
360
8D9E
102
}
330
2
100
AcDbSymbolTableRecord
100
AcDbLayerTableRecord
  2
0
 70
     0
 62
     7
  6
CONTINUOUS
  0
LAYER
  5
29
102
{ACAD_XDICTIONARY
360
8DA0
102
}
330
2
100
AcDbSymbolTableRecord
100
AcDbLayerTableRecord
  2
1CENTER
 70
     0
 62
     7
  6
CENTER2
  0
LAYER
  5
31
102
{ACAD_XDICTIONARY
360
8DA2
102
}
330
2
100
AcDbSymbolTableRecord
100
AcDbLayerTableRecord
  2
1TEXT
 70
     0
 62
     7
  6
CONTINUOUS
  0
LAYER
  5
101
102
{ACAD_XDICTIONARY
360
8DB2
102
}
330
2
100
AcDbSymbolTableRecord
100
AcDbLayerTableRecord
  2
1DIM
 70
     0
 62
     7
  6
CONTINUOUS
  0
LAYER
  5
102
102
{ACAD_XDICTIONARY
360
8DB4
102
}
330
2
100
AcDbSymbolTableRecord
100
AcDbLayerTableRecord
  2
1HIDDEN
 70
     0
 62
     7
  6
HIDDEN
  0
LAYER
  5
103
102
{ACAD_XDICTIONARY
360
8DB6
102
}
330
2
100
AcDbSymbolTableRecord
100
AcDbLayerTableRecord
  2
1PHANTOM
 70
     0
 62
     7
  6
PHANTOM2
  0
LAYER
  5
159
102
{ACAD_XDICTIONARY
360
8DBE
102
}
330
2
100
AcDbSymbolTableRecord
100
AcDbLayerTableRecord
  2
1HATCH
 70
     0
 62
     7
  6
CONTINUOUS
  0
LAYER
  5
15C
102
{ACAD_XDICTIONARY
360
8DC4
102
}
330
2
100
AcDbSymbolTableRecord
100
AcDbLayerTableRecord
  2
01
 70
     0
 62
     1
  6
CONTINUOUS
  0
LAYER
  5
8893
102
{ACAD_XDICTIONARY
360
8E4A
102
}
330
2
100
AcDbSymbolTableRecord
100
AcDbLayerTableRecord
  2
A3WAKUDAKE|THICK
 70
    48
 62
     7
  6
CONTINUOUS
  0
LAYER
  5
8894
102
{ACAD_XDICTIONARY
360
8E4C
102
}
330
2
100
AcDbSymbolTableRecord
100
AcDbLayerTableRecord
  2
A3WAKUDAKE|POINT
 70
    48
 62
     7
  6
CONTINUOUS
  0
LAYER
  5
8895
102
{ACAD_XDICTIONARY
360
8E4E
102
}
330
2
100
AcDbSymbolTableRecord
100
AcDbLayerTableRecord
  2
A3WAKUDAKE|1CENTER
 70
    48
 62
     7
  6
CONTINUOUS
  0
LAYER
  5
8896
102
{ACAD_XDICTIONARY
360
8E50
102
}
330
2
100
AcDbSymbolTableRecord
100
AcDbLayerTableRecord
  2
A3WAKUDAKE|0-6
 70
    48
 62
     7
  6
CONTINUOUS
  0
ENDTAB
  0
TABLE
  2
STYLE
  5
3
330
0
100
AcDbSymbolTable
 70
     3
  0
STYLE
  5
F
330
3
100
AcDbSymbolTableRecord
100
AcDbTextStyleTableRecord
  2
STANDARD
 70
     0
 40
0.0
 41
1.0
 50
0.0
 71
     0
 42
4.0
  3
txt.shx
  4
extfont.shx
  0
STYLE
  5
AD23
330
3
100
AcDbSymbolTableRecord
100
AcDbTextStyleTableRecord
  2
A3WAKUDAKE|STANDARD
 70
    48
 40
0.0
 41
1.0
 50
0.0
 71
     0
 42
4.0
  3
romans.shx
  4
extfont.shx
  0
STYLE
  5
AD4B
330
3
100
AcDbSymbolTableRecord
100
AcDbTextStyleTableRecord
  2
XREF1|STANDARD
 70
    48
 40
0.0
 41
1.0
 50
0.0
 71
     0
 42
4.0
  3
romans.shx
  4
extfont.shx
  0
ENDTAB
  0
TABLE
  2
VIEW
  5
6
330
0
100
AcDbSymbolTable
 70
     0
  0
ENDTAB
  0
TABLE
  2
UCS
  5
7
330
0
100
AcDbSymbolTable
 70
     5
  0
UCS
  5
A69D
330
7
100
AcDbSymbolTableRecord
100
AcDbUCSTableRecord
  2
U
 70
     0
 10
0.0
 20
0.0
 30
0.0
 11
1.0
 21
0.0
 31
0.0
 12
0.0
 22
2.220446049250313E-16
 32
1.0
 79
     0
146
0.0
  0
UCS
  5
A69E
330
7
100
AcDbSymbolTableRecord
100
AcDbUCSTableRecord
  2
L
 70
     0
 10
0.0
 20
0.0
 30
0.0
 11
-2.220446049250313E-16
 21
-1.0
 31
2.220446049250313E-16
 12
0.0
 22
2.220446049250313E-16
 32
1.0
 79
     0
146
0.0
  0
UCS
  5
A69F
330
7
100
AcDbSymbolTableRecord
100
AcDbUCSTableRecord
  2
R
 70
     0
 10
0.0
 20
0.0
 30
0.0
 11
3.445092848397667E-16
 21
1.0
 31
-2.220446049250313E-16
 12
0.0
 22
2.220446049250313E-16
 32
1.0
 79
     0
146
0.0
  0
UCS
  5
A6A0
330
7
100
AcDbSymbolTableRecord
100
AcDbUCSTableRecord
  2
ISOME
 70
     0
 10
0.0
 20
0.0
 30
0.0
 11
0.7071450863198265
 21
-0.7070684729403536
 31
-3.830824619466267E-5
 12
0.4082704059428734
 22
0.4082704077401151
 32
0.8164744636514736
 79
     0
146
0.0
  0
UCS
  5
A6A1
330
7
100
AcDbSymbolTableRecord
100
AcDbUCSTableRecord
  2
PERSPECTIVE
 70
     0
 10
0.0
 20
0.0
 30
0.0
 11
0.8191477691768964
 21
-0.5735823260466403
 31
-0.0004974931557765462
 12
0.1584844715982971
 22
0.225502028986108
 32
0.961265575782966
 79
     0
146
0.0
  0
ENDTAB
  0
TABLE
  2
APPID
  5
9
330
0
100
AcDbSymbolTable
 70
    15
  0
APPID
  5
10
330
9
100
AcDbSymbolTableRecord
100
AcDbRegAppTableRecord
  2
ACAD
 70
     0
  0
APPID
  5
21
330
9
100
AcDbSymbolTableRecord
100
AcDbRegAppTableRecord
  2
DRAWINGVARIABLESXDATA
 70
     0
  0
APPID
  5
64
330
9
100
AcDbSymbolTableRecord
100
AcDbRegAppTableRecord
  2
CONTENTTABDATA
 70
     0
  0
APPID
  5
65
330
9
100
AcDbSymbolTableRecord
100
AcDbRegAppTableRecord
  2
CONTENTCURRENTTAB
 70
     0
  0
APPID
  5
66
330
9
100
AcDbSymbolTableRecord
100
AcDbRegAppTableRecord
  2
CONTENTBLOCKDESCRIPTION
 70
     0
  0
APPID
  5
67
330
9
100
AcDbSymbolTableRecord
100
AcDbRegAppTableRecord
  2
CONTENTBLOCKICON
 70
     0
  0
APPID
  5
68
330
9
100
AcDbSymbolTableRecord
100
AcDbRegAppTableRecord
  2
CONTENTLONGBLOCKNAME
 70
     0
  0
APPID
  5
8AF7
330
9
100
AcDbSymbolTableRecord
100
AcDbRegAppTableRecord
  2
ACAD_PSEXT
 70
     0
  0
APPID
  5
8D96
330
9
100
AcDbSymbolTableRecord
100
AcDbRegAppTableRecord
  2
ACAD_MLEADERVER
 70
     0
  0
APPID
  5
9DE0
330
9
100
AcDbSymbolTableRecord
100
AcDbRegAppTableRecord
  2
ACAD_DSTYLE_DIMRADIAL_EXTE
 70
     0
  0
APPID
  5
A5A7
330
9
100
AcDbSymbolTableRecord
100
AcDbRegAppTableRecord
  2
ACAD_NAV_VCDISPLAY
 70
     0
  0
APPID
  5
A60A
330
9
100
AcDbSymbolTableRecord
100
AcDbRegAppTableRecord
  2
ACAD_EXEMPT_FROM_CAD_STAND
 70
     0
  0
APPID
  5
ADDA
330
9
100
AcDbSymbolTableRecord
100
AcDbRegAppTableRecord
  2
ACAD_OBJECT_CHANGE_GUID
 70
     0
  0
APPID
  5
AEFD
330
9
100
AcDbSymbolTableRecord
100
AcDbRegAppTableRecord
  2
ACADANNOTATIVE
 70
     0
  0
APPID
  5
AEFE
330
9
100
AcDbSymbolTableRecord
100
AcDbRegAppTableRecord
  2
ACDBBLOCKREPETAG
 70
     0
  0
ENDTAB
  0
TABLE
  2
DIMSTYLE
  5
A
330
0
100
AcDbSymbolTable
 70
     1
  0
DIMSTYLE
105
48
102
{ACAD_REACTORS
102
}
330
A
100
AcDbSymbolTableRecord
100
AcDbDimStyleTableRecord
  2
NEWX10
 70
     0
  3
 
  4

  5

  6
OPEN30
  7
OPEN30
 40
1.0
 41
2.0
 42
0.0
 43
7.0
 44
1.0
 45
0.0
 46
0.0
 47
0.0
 48
0.0
140
3.5
141
0.0
142
0.0
143
25.4
144
1.0
145
0.0
146
0.7
147
0.7
 71
     0
 72
     0
 73
     0
 74
     0
 75
     0
 76
     0
 77
     1
 78
     8
170
     0
171
     2
172
     1
173
     1
174
     0
175
     0
176
   256
177
   256
178
   201
179
     1
270
     2
271
     2
272
     4
273
     2
274
     2
340
F
275
     0
280
     0
281
     0
282
     0
283
     1
284
     8
285
     0
286
     0
287
     3
288
     0
  0
ENDTAB
  0
TABLE
  2
BLOCK_RECORD
  5
1
330
0
100
AcDbSymbolTable
 70
    10
  0
BLOCK_RECORD
  5
18
102
{ACAD_XDICTIONARY
360
8B62
102
}
330
1
100
AcDbSymbolTableRecord
100
AcDbBlockTableRecord
  2
*MODEL_SPACE
  0
BLOCK_RECORD
  5
15
330
1
100
AcDbSymbolTableRecord
100
AcDbBlockTableRecord
  2
*PAPER_SPACE
  0
BLOCK_RECORD
  5
42
330
1
100
AcDbSymbolTableRecord
100
AcDbBlockTableRecord
  2
_OPEN30
  0
BLOCK_RECORD
  5
5B
330
1
100
AcDbSymbolTableRecord
100
AcDbBlockTableRecord
  2
XREF1
  0
BLOCK_RECORD
  5
8890
330
1
100
AcDbSymbolTableRecord
100
AcDbBlockTableRecord
  2
A3WAKUDAKE
  0
BLOCK_RECORD
  5
AF4D
330
1
100
AcDbSymbolTableRecord
100
AcDbBlockTableRecord
  2
A3WAKUKAWAJUN2017_HYOUDAI_
  0
BLOCK_RECORD
  5
BA4B
330
1
100
AcDbSymbolTableRecord
100
AcDbBlockTableRecord
  2
*X25
  0
BLOCK_RECORD
  5
BA99
330
1
100
AcDbSymbolTableRecord
100
AcDbBlockTableRecord
  2
*X26
  0
BLOCK_RECORD
  5
BAEB
330
1
100
AcDbSymbolTableRecord
100
AcDbBlockTableRecord
  2
*X27
  0
BLOCK_RECORD
  5
BB3C
330
1
100
AcDbSymbolTableRecord
100
AcDbBlockTableRecord
  2
*X28
  0
BLOCK_RECORD
  5
BB79
330
1
100
AcDbSymbolTableRecord
100
AcDbBlockTableRecord
  2
*X29
  0
BLOCK_RECORD
  5
BBB9
330
1
100
AcDbSymbolTableRecord
100
AcDbBlockTableRecord
  2
*X30
  0
ENDTAB
  0
ENDSEC
  0
SECTION
  2
BLOCKS
  0
BLOCK
  5
19
330
18
100
AcDbEntity
  8
0
100
AcDbBlockBegin
  2
*MODEL_SPACE
 70
     0
 10
0.0
 20
0.0
 30
0.0
  3
*MODEL_SPACE
  1

  0
ENDBLK
  5
1A
330
18
100
AcDbEntity
  8
0
100
AcDbBlockEnd
  0
BLOCK
  5
16
330
15
100
AcDbEntity
 67
     1
  8
0
100
AcDbBlockBegin
  2
*PAPER_SPACE
 70
     0
 10
0.0
 20
0.0
 30
0.0
  3
*PAPER_SPACE
  1

  0
ENDBLK
  5
17
330
15
100
AcDbEntity
 67
     1
  8
0
100
AcDbBlockEnd
  0
BLOCK
  5
43
330
42
100
AcDbEntity
  8
0
100
AcDbBlockBegin
  2
_OPEN30
 70
     0
 10
0.0
 20
0.0
 30
0.0
  3
_OPEN30
  1

  0
LINE
  5
44
330
42
100
AcDbEntity
  8
0
  6
BYBLOCK
 62
     0
100
AcDbLine
 10
-1.0
 20
0.26794919
 30
0.0
 11
0.0
 21
0.0
 31
0.0
  0
LINE
  5
45
330
42
100
AcDbEntity
  8
0
  6
BYBLOCK
 62
     0
100
AcDbLine
 10
0.0
 20
0.0
 30
0.0
 11
-1.0
 21
-0.26794919
 31
0.0
  0
LINE
  5
46
330
42
100
AcDbEntity
  8
0
  6
BYBLOCK
 62
     0
100
AcDbLine
 10
0.0
 20
0.0
 30
0.0
 11
-1.0
 21
0.0
 31
0.0
  0
ENDBLK
  5
47
330
42
100
AcDbEntity
  8
0
100
AcDbBlockEnd
  0
BLOCK
  5
5C
330
5B
100
AcDbEntity
  8
0
100
AcDbBlockBegin
  2
XREF1
 70
    36
 10
0.0
 20
0.0
 30
0.0
  3
XREF1
  1
D:\ACLT\FORMAT\KAWAJUN(9)図面用.dwg
  0
ENDBLK
  5
5D
330
5B
100
AcDbEntity
  8
0
100
AcDbBlockEnd
  0
BLOCK
  5
8891
330
8890
100
AcDbEntity
  8
0
100
AcDbBlockBegin
  2
A3WAKUDAKE
 70
    36
 10
0.0
 20
0.0
 30
0.0
  3
A3WAKUDAKE
  1
D:\ACLT\FORMAT\A3WAKUdake.dwg
  0
ENDBLK
  5
8892
330
8890
100
AcDbEntity
  8
0
100
AcDbBlockEnd
  0
BLOCK
  5
B64C
330
AF4D
100
AcDbEntity
  8
0
100
AcDbBlockBegin
  2
A3WAKUKAWAJUN2017_HYOUDAI_
 70
     0
 10
0.0
 20
0.0
 30
0.0
  3
A3WAKUKAWAJUN2017_HYOUDAI_
  1

  0
LINE
  5
AF4F
330
AF4D
100
AcDbEntity
  8
0
100
AcDbLine
 10
13.26299999998673
 20
-0.0001000000000317
 30
0.0
 11
9.236999999990758
 21
8.999899999990987
 31
0.0
1001
ACAD
1000
ASC_BOUNDS
1002
{
1070
    19
1005
AF90
1002
}
  0
LINE
  5
AF50
330
AF4D
100
AcDbEntity
  8
0
100
AcDbLine
 10
5.657999999994331
 20
0.9999999999989768
 30
0.0
 11
9.236999999990758
 21
8.999999999991019
 31
0.0
1001
ACAD
1000
ASC_BOUNDS
1002
{
1070
    19
1005
AF90
1002
}
  0
LINE
  5
AF51
330
AF4D
100
AcDbEntity
  8
0
100
AcDbLine
 10
18.59199999998134
 20
-0.2368999999997641
 30
0.0
 11
16.46099999998353
 21
5.432899999994561
 31
0.0
1001
ACAD
1000
ASC_BOUNDS
1002
{
1070
    19
1005
AF91
1002
}
  0
LINE
  5
AF52
330
AF4D
100
AcDbEntity
  8
0
100
AcDbLine
 10
18.59199999998134
 20
-0.2368999999997641
 30
0.0
 11
22.38199999997767
 21
8.763099999991255
 31
0.0
1001
ACAD
1000
ASC_BOUNDS
1002
{
1070
    19
1005
AF91
1002
}
  0
LINE
  5
AF53
330
AF4D
100
AcDbEntity
  8
0
100
AcDbLine
 10
14.32899999998563
 20
-0.2368999999997641
 30
0.0
 11
16.46099999998353
 21
5.432899999994561
 31
0.0
1001
ACAD
1000
ASC_BOUNDS
1002
{
1070
    19
1005
AF91
1002
}
  0
LINE
  5
AF54
330
AF4D
100
AcDbEntity
  8
0
100
AcDbLine
 10
14.32899999998563
 20
-0.2368999999997641
 30
0.0
 11
10.53899999998941
 21
8.763099999991255
 31
0.0
1001
ACAD
1000
ASC_BOUNDS
1002
{
1070
    19
1005
AF91
1002
}
  0
LINE
  5
AF55
330
AF4D
100
AcDbEntity
  8
0
100
AcDbLine
 10
19.53899999998043
 20
-0.0001000000000317
 30
0.0
 11
23.56599999997638
 21
8.999899999990987
 31
0.0
1001
ACAD
1000
ASC_BOUNDS
1002
{
1070
    19
1005
AF92
1002
}
  0
LINE
  5
AF56
330
AF4D
100
AcDbEntity
  8
0
100
AcDbLine
 10
26.97358892824991
 20
1.383099999991202
 30
0.0
 11
23.56599999997638
 21
8.999899999990987
 31
0.0
1001
ACAD
1000
ASC_BOUNDS
1002
{
1070
    19
1005
AF92
1002
}
  0
LINE
  5
AF57
330
AF4D
100
AcDbEntity
  8
0
100
AcDbLine
 10
5.657999999994331
 20
0.9999999999989768
 30
0.0
 11
3.181999999996833
 21
4.668599999995308
 31
0.0
1001
ACAD
1000
ASC_BOUNDS
1002
{
1070
    19
1005
AF90
1002
}
  0
LINE
  5
AF58
330
AF4D
100
AcDbEntity
  8
0
100
AcDbLine
 10
4.617999999995391
 20
-0.0001000000000317
 30
0.0
 11
1.420999999998571
 21
4.736799999995242
 31
0.0
1001
ACAD
1000
ASC_BOUNDS
1002
{
1070
    19
1005
AF90
1002
}
  0
LINE
  5
AF59
330
AF4D
100
AcDbEntity
  8
0
100
AcDbLine
 10
1.420999999998571
 20
8.763099999991255
 30
0.0
 11
1.420999999998571
 21
0.0
 31
0.0
1001
ACAD
1000
ASC_BOUNDS
1002
{
1070
    19
1005
AF95
1002
}
  0
LINE
  5
AF5A
330
AF4D
100
AcDbEntity
  8
0
100
AcDbLine
 10
0.0
 20
8.763099999991255
 30
0.0
 11
0.0
 21
0.0
 31
0.0
1001
ACAD
1000
ASC_BOUNDS
1002
{
1070
    19
1005
AF95
1002
}
  0
LINE
  5
AF5B
330
AF4D
100
AcDbEntity
  8
0
100
AcDbLine
 10
6.766999999993232
 20
-0.0001000000000317
 30
0.0
 11
7.826999999992154
 21
2.368399999997621
 31
0.0
1001
ACAD
1000
ASC_BOUNDS
1002
{
1070
    19
1005
AF90
1002
}
  0
LINE
  5
AF5C
330
AF4D
100
AcDbEntity
  8
0
100
AcDbLine
 10
0.0
 20
0.0
 30
0.0
 11
1.420999999998571
 21
0.0
 31
0.0
1001
ACAD
1000
ASC_BOUNDS
1002
{
1070
    19
1005
AF95
1002
}
  0
LINE
  5
AF5D
330
AF4D
100
AcDbEntity
  8
0
100
AcDbLine
 10
4.617999999995391
 20
0.0
 30
0.0
 11
6.766999999993232
 21
0.0
 31
0.0
1001
ACAD
1000
ASC_BOUNDS
1002
{
1070
    19
1005
AF90
1002
}
  0
LINE
  5
AF5E
330
AF4D
100
AcDbEntity
  8
0
100
AcDbLine
 10
11.70599999998831
 20
-0.0001000000000317
 30
0.0
 11
10.64699999998936
 21
2.368399999997621
 31
0.0
1001
ACAD
1000
ASC_BOUNDS
1002
{
1070
    19
1005
AF90
1002
}
  0
LINE
  5
AF5F
330
AF4D
100
AcDbEntity
  8
0
100
AcDbLine
 10
7.826999999992154
 20
2.368399999997621
 30
0.0
 11
10.64699999998936
 21
2.368399999997621
 31
0.0
1001
ACAD
1000
ASC_BOUNDS
1002
{
1070
    19
1005
AF90
1002
}
  0
LINE
  5
AF60
330
AF4D
100
AcDbEntity
  8
0
100
AcDbLine
 10
11.70599999998831
 20
0.0
 30
0.0
 11
13.26299999998673
 21
0.0
 31
0.0
1001
ACAD
1000
ASC_BOUNDS
1002
{
1070
    19
1005
AF90
1002
}
  0
LINE
  5
AF61
330
AF4D
100
AcDbEntity
  8
0
100
AcDbLine
 10
22.15599999997789
 20
2.368399999997621
 30
0.0
 11
24.97599999997499
 21
2.368399999997621
 31
0.0
1001
ACAD
1000
ASC_BOUNDS
1002
{
1070
    19
1005
AF92
1002
}
  0
LINE
  5
AF62
330
AF4D
100
AcDbEntity
  8
0
100
AcDbLine
 10
19.53899999998043
 20
0.0
 30
0.0
 11
21.09599999997886
 21
0.0
 31
0.0
1001
ACAD
1000
ASC_BOUNDS
1002
{
1070
    19
1005
AF92
1002
}
  0
LINE
  5
AF63
330
AF4D
100
AcDbEntity
  8
0
100
AcDbLine
 10
21.09599999997886
 20
-0.0001000000000317
 30
0.0
 11
22.15599999997789
 21
2.368399999997621
 31
0.0
1001
ACAD
1000
ASC_BOUNDS
1002
{
1070
    19
1005
AF92
1002
}
  0
LINE
  5
AF64
330
AF4D
100
AcDbEntity
  8
0
100
AcDbLine
 10
26.02015566812236
 20
0.0330999999912365
 30
0.0
 11
24.97599999997499
 21
2.368399999997621
 31
0.0
1001
ACAD
1000
ASC_BOUNDS
1002
{
1070
    19
1005
AF92
1002
}
  0
LINE
  5
AF65
330
AF4D
100
AcDbEntity
  8
0
100
AcDbLine
 10
14.32399999998563
 20
3.315799999996671
 30
0.0
 11
16.46099999998353
 21
8.999899999990987
 31
0.0
1001
ACAD
1000
ASC_BOUNDS
1002
{
1070
    19
1005
AF91
1002
}
  0
LINE
  5
AF66
330
AF4D
100
AcDbEntity
  8
0
100
AcDbLine
 10
6.432999999993513
 20
8.763099999991255
 30
0.0
 11
3.181999999996833
 21
4.668599999995308
 31
0.0
1001
ACAD
1000
ASC_BOUNDS
1002
{
1070
    19
1005
AF90
1002
}
  0
LINE
  5
AF67
330
AF4D
100
AcDbEntity
  8
0
100
AcDbLine
 10
4.617999999995391
 20
8.763099999991255
 30
0.0
 11
1.420999999998571
 21
4.736799999995242
 31
0.0
1001
ACAD
1000
ASC_BOUNDS
1002
{
1070
    19
1005
AF90
1002
}
  0
LINE
  5
AF68
330
AF4D
100
AcDbEntity
  8
0
100
AcDbLine
 10
0.0
 20
8.763099999991255
 30
0.0
 11
1.420999999998571
 21
8.763099999991255
 31
0.0
1001
ACAD
1000
ASC_BOUNDS
1002
{
1070
    19
1005
AF95
1002
}
  0
LINE
  5
AF69
330
AF4D
100
AcDbEntity
  8
0
100
AcDbLine
 10
4.617999999995391
 20
8.763099999991255
 30
0.0
 11
6.432999999993513
 21
8.763099999991255
 31
0.0
1001
ACAD
1000
ASC_BOUNDS
1002
{
1070
    19
1005
AF90
1002
}
  0
LINE
  5
AF6A
330
AF4D
100
AcDbEntity
  8
0
100
AcDbLine
 10
14.32399999998563
 20
3.315799999996671
 30
0.0
 11
12.02999999998792
 21
8.763099999991255
 31
0.0
1001
ACAD
1000
ASC_BOUNDS
1002
{
1070
    19
1005
AF91
1002
}
  0
LINE
  5
AF6B
330
AF4D
100
AcDbEntity
  8
0
100
AcDbLine
 10
10.06399999998996
 20
3.670999999996297
 30
0.0
 11
9.236999999990758
 21
5.5200999999945
 31
0.0
1001
ACAD
1000
ASC_BOUNDS
1002
{
1070
    19
1005
AF90
1002
}
  0
LINE
  5
AF6C
330
AF4D
100
AcDbEntity
  8
0
100
AcDbLine
 10
8.409999999991555
 20
3.670999999996297
 30
0.0
 11
9.236999999990758
 21
5.5200999999945
 31
0.0
1001
ACAD
1000
ASC_BOUNDS
1002
{
1070
    19
1005
AF90
1002
}
  0
LINE
  5
AF6D
330
AF4D
100
AcDbEntity
  8
0
100
AcDbLine
 10
8.409999999991555
 20
3.670999999996297
 30
0.0
 11
10.06399999998996
 21
3.670999999996297
 31
0.0
1001
ACAD
1000
ASC_BOUNDS
1002
{
1070
    19
1005
AF90
1002
}
  0
LINE
  5
AF6E
330
AF4D
100
AcDbEntity
  8
0
100
AcDbLine
 10
10.53899999998941
 20
8.763099999991255
 30
0.0
 11
12.02999999998792
 21
8.763099999991255
 31
0.0
1001
ACAD
1000
ASC_BOUNDS
1002
{
1070
    19
1005
AF91
1002
}
  0
LINE
  5
AF6F
330
AF4D
100
AcDbEntity
  8
0
100
AcDbLine
 10
22.7389999999773
 20
3.670999999996297
 30
0.0
 11
23.56599999997638
 21
5.5200999999945
 31
0.0
1001
ACAD
1000
ASC_BOUNDS
1002
{
1070
    19
1005
AF92
1002
}
  0
LINE
  5
AF70
330
AF4D
100
AcDbEntity
  8
0
100
AcDbLine
 10
22.7389999999773
 20
3.670999999996297
 30
0.0
 11
24.39299999997559
 21
3.670999999996297
 31
0.0
1001
ACAD
1000
ASC_BOUNDS
1002
{
1070
    19
1005
AF92
1002
}
  0
LINE
  5
AF71
330
AF4D
100
AcDbEntity
  8
0
100
AcDbLine
 10
18.59799999998143
 20
3.315799999996671
 30
0.0
 11
20.89099999997916
 21
8.763099999991255
 31
0.0
1001
ACAD
1000
ASC_BOUNDS
1002
{
1070
    19
1005
AF91
1002
}
  0
LINE
  5
AF72
330
AF4D
100
AcDbEntity
  8
0
100
AcDbLine
 10
18.59799999998143
 20
3.315799999996671
 30
0.0
 11
16.46099999998353
 21
8.999899999990987
 31
0.0
1001
ACAD
1000
ASC_BOUNDS
1002
{
1070
    19
1005
AF91
1002
}
  0
LINE
  5
AF73
330
AF4D
100
AcDbEntity
  8
0
100
AcDbLine
 10
20.89099999997916
 20
8.763099999991255
 30
0.0
 11
22.38199999997767
 21
8.763099999991255
 31
0.0
1001
ACAD
1000
ASC_BOUNDS
1002
{
1070
    19
1005
AF91
1002
}
  0
LINE
  5
AF74
330
AF4D
100
AcDbEntity
  8
0
100
AcDbLine
 10
24.39299999997559
 20
3.670999999996297
 30
0.0
 11
23.56599999997638
 21
5.5200999999945
 31
0.0
1001
ACAD
1000
ASC_BOUNDS
1002
{
1070
    19
1005
AF92
1002
}
  0
LINE
  5
AF75
330
AF4D
100
AcDbEntity
  8
0
100
AcDbLine
 10
44.99999999995498
 20
-0.2368999999997641
 30
0.0
 11
40.02599999995994
 21
5.341799999994635
 31
0.0
1001
ACAD
1000
ASC_BOUNDS
1002
{
1070
    19
1005
AF94
1002
}
  0
LINE
  5
AF76
330
AF4D
100
AcDbEntity
  8
0
100
AcDbLine
 10
40.02599999995994
 20
5.341799999994635
 30
0.0
 11
40.02599999995994
 21
0.0
 31
0.0
1001
ACAD
1000
ASC_BOUNDS
1002
{
1070
    19
1005
AF94
1002
}
  0
LINE
  5
AF77
330
AF4D
100
AcDbEntity
  8
0
100
AcDbLine
 10
38.60499999996136
 20
8.999999999991019
 30
0.0
 11
38.60499999996136
 21
0.0
 31
0.0
1001
ACAD
1000
ASC_BOUNDS
1002
{
1070
    19
1005
AF94
1002
}
  0
LINE
  5
AF78
330
AF4D
100
AcDbEntity
  8
0
100
AcDbLine
 10
44.99999999995498
 20
8.763099999991255
 30
0.0
 11
44.99999999995498
 21
-0.2368999999997641
 31
0.0
1001
ACAD
1000
ASC_BOUNDS
1002
{
1070
    19
1005
AF94
1002
}
  0
LINE
  5
AF79
330
AF4D
100
AcDbEntity
  8
0
100
AcDbLine
 10
38.60499999996136
 20
0.0
 30
0.0
 11
40.02599999995994
 21
0.0
 31
0.0
1001
ACAD
1000
ASC_BOUNDS
1002
{
1070
    19
1005
AF94
1002
}
  0
LINE
  5
AF7A
330
AF4D
100
AcDbEntity
  8
0
100
AcDbLine
 10
43.57899999995641
 20
3.421199999996588
 30
0.0
 11
38.60499999996136
 21
8.999899999990987
 31
0.0
1001
ACAD
1000
ASC_BOUNDS
1002
{
1070
    19
1005
AF94
1002
}
  0
LINE
  5
AF7B
330
AF4D
100
AcDbEntity
  8
0
100
AcDbLine
 10
43.57899999995641
 20
8.763099999991255
 30
0.0
 11
43.57899999995641
 21
3.421199999996588
 31
0.0
1001
ACAD
1000
ASC_BOUNDS
1002
{
1070
    19
1005
AF94
1002
}
  0
LINE
  5
AF7C
330
AF4D
100
AcDbEntity
  8
0
100
AcDbLine
 10
43.57899999995641
 20
8.763099999991255
 30
0.0
 11
44.99999999995498
 21
8.763099999991255
 31
0.0
1001
ACAD
1000
ASC_BOUNDS
1002
{
1070
    19
1005
AF94
1002
}
  0
LINE
  5
AF7D
330
AF4D
100
AcDbEntity
  8
0
100
AcDbLine
 10
37.67199999996831
 20
8.763099999991255
 30
0.0
 11
36.23199999996837
 21
8.763099999991255
 31
0.0
  0
LINE
  5
AF7E
330
AF4D
100
AcDbEntity
  8
0
100
AcDbLine
 10
31.64199999996833
 20
8.763099999991255
 30
0.0
 11
31.64199999996833
 21
2.481619422925121
 31
0.0
  0
LINE
  5
AF7F
330
AF4D
100
AcDbEntity
  8
0
100
AcDbLine
 10
37.67199999996831
 20
8.763099999991255
 30
0.0
 11
37.67199999996831
 21
2.481619422925121
 31
0.0
  0
LINE
  5
AF80
330
AF4D
100
AcDbEntity
  8
0
100
AcDbLine
 10
36.23199999996837
 20
8.763099999991255
 30
0.0
 11
36.23199999996837
 21
2.481619422925064
 31
0.0
  0
LINE
  5
AF81
330
AF4D
100
AcDbEntity
  8
0
100
AcDbLine
 10
33.08199999996839
 20
8.763099999991255
 30
0.0
 11
33.08199999996839
 21
2.481619422925121
 31
0.0
  0
ARC
  5
AF82
330
AF4D
100
AcDbEntity
  8
0
100
AcDbCircle
 10
34.65699999996832
 20
3.183099999991214
 30
0.0
 40
3.420000000000007
100
AcDbArc
 50
240.0000000000255
 51
299.9999999999766
  0
ARC
  5
AF83
330
AF4D
100
AcDbEntity
  8
0
100
AcDbCircle
 10
34.65699999996832
 20
3.183099999991214
 30
0.0
 40
1.97999999999999
100
AcDbArc
 50
240.000000000026
 51
299.9999999999703
  0
LINE
  5
AF84
330
AF4D
100
AcDbEntity
  8
0
100
AcDbLine
 10
33.08199999996828
 20
8.763099999991255
 30
0.0
 11
31.64199999996833
 21
8.763099999991255
 31
0.0
  0
ARC
  5
AF85
330
AF4D
100
AcDbEntity
  8
0
100
AcDbCircle
 10
35.06199999996829
 20
2.481619422925064
 30
0.0
 40
1.17
100
AcDbArc
 50
299.9999999999699
 51
0.0
  0
ARC
  5
AF86
330
AF4D
100
AcDbEntity
  8
0
100
AcDbCircle
 10
34.25199999996835
 20
2.481619422925121
 30
0.0
 40
1.17
100
AcDbArc
 50
180.0
 51
240.0000000000238
  0
ARC
  5
AF87
330
AF4D
100
AcDbEntity
  8
0
100
AcDbCircle
 10
35.06199999996841
 20
2.481619422925121
 30
0.0
 40
2.61
100
AcDbArc
 50
299.9999999999756
 51
0.0
  0
ARC
  5
AF88
330
AF4D
100
AcDbEntity
  8
0
100
AcDbCircle
 10
34.25199999996835
 20
2.481619422925121
 30
0.0
 40
2.61
100
AcDbArc
 50
180.0
 51
240.0000000000244
  0
LINE
  5
AF89
330
AF4D
100
AcDbEntity
  8
0
100
AcDbLine
 10
29.30199999996933
 20
8.763099999991255
 30
0.0
 11
30.74199999996927
 21
8.763099999991255
 31
0.0
1001
ACAD
1000
ASC_BOUNDS
1002
{
1070
    19
1005
AF92
1002
}
  0
LINE
  5
AF8A
330
AF4D
100
AcDbEntity
  8
0
100
AcDbLine
 10
30.74199999996927
 20
8.763099999991255
 30
0.0
 11
30.74199999996927
 21
2.373099999991211
 31
0.0
1001
ACAD
1000
ASC_BOUNDS
1002
{
1070
    19
1005
AF92
1002
}
  0
LINE
  5
AF8B
330
AF4D
100
AcDbEntity
  8
0
100
AcDbLine
 10
26.02015566812236
 20
0.0330999999912365
 30
0.0
 11
28.40199999996923
 21
0.0330999999912365
 31
0.0
1001
ACAD
1000
ASC_BOUNDS
1002
{
1070
    19
1005
AF92
1002
}
  0
LINE
  5
AF8C
330
AF4D
100
AcDbEntity
  8
0
100
AcDbLine
 10
29.30199999996933
 20
8.763099999991255
 30
0.0
 11
29.30199999996933
 21
2.283099999991236
 31
0.0
1001
ACAD
1000
ASC_BOUNDS
1002
{
1070
    19
1005
AF92
1002
}
  0
LINE
  5
AF8D
330
AF4D
100
AcDbEntity
  8
0
100
AcDbLine
 10
26.97358892824991
 20
1.383099999991202
 30
0.0
 11
28.40199999996923
 21
1.383099999991202
 31
0.0
1001
ACAD
1000
ASC_BOUNDS
1002
{
1070
    19
1005
AF92
1002
}
  0
ARC
  5
AF8E
330
AF4D
100
AcDbEntity
  8
0
100
AcDbCircle
 10
28.40199999996923
 20
2.283099999991236
 30
0.0
 40
0.9
100
AcDbArc
 50
270.0
 51
0.0
1001
ACAD
1000
ASC_BOUNDS
1002
{
1070
    19
1005
AF92
1002
}
  0
ARC
  5
AF8F
330
AF4D
100
AcDbEntity
  8
0
100
AcDbCircle
 10
28.40199999996923
 20
2.373099999991211
 30
0.0
 40
2.34
100
AcDbArc
 50
270.0
 51
0.0
1001
ACAD
1000
ASC_BOUNDS
1002
{
1070
    19
1005
AF92
1002
}
  0
INSERT
  5
AF90
330
AF4D
100
AcDbEntity
  8
0
100
AcDbBlockReference
  2
*X25
 10
0.0
 20
0.0
 30
0.0
1001
ACAD
1000
HATCH
1002
{
1070
    19
1000
ANSI37
1040
0.15
1040
0.0
1000
ASC_BOUNDS
1070
     2
1070
     2
1070
    12
1005
AF4F
1005
AF50
1005
AF57
1005
AF66
1005
AF69
1005
AF67
1005
AF58
1005
AF5D
1005
AF5B
1005
AF5F
1005
AF5E
1005
AF60
1070
     2
1070
     3
1005
AF6B
1005
AF6D
1005
AF6C
1000
ASC_SEEDPOINT
1011
3.614004224891801
1021
2.996669441146025
1031
0.0
1000
R14_HATCH_DATA
1000
AF90
1011
1.0
1021
0.0
1031
0.0
1011
0.0
1021
1.0
1031
0.0
1011
0.0
1021
0.0
1031
1.0
1040
0.0
1010
0.0
1020
0.0
1030
1.0
1000
ANSI37
1070
     0
1070
     1
1071
        2
1071
        7
1070
     0
1070
     1
1071
       17
1040
13.26299999998673
1040
-0.0001000000000317
1040
9.236999999990758
1040
8.999899999990987
1040
9.236999999990758
1040
8.999999999991019
1040
5.657999999994331
1040
0.9999999999989768
1040
3.181999999996833
1040
4.668599999995308
1040
6.432999999993513
1040
8.763099999991255
1040
4.617999999995391
1040
8.763099999991255
1040
1.420999999998571
1040
4.736799999995242
1040
4.617999999995391
1040
-0.0001000000000317
1040
4.617999999995391
1040
0.0
1040
6.766999999993232
1040
0.0
1040
6.766999999993232
1040
-0.0001000000000317
1040
7.826999999992154
1040
2.368399999997621
1040
10.64699999998936
1040
2.368399999997621
1040
11.70599999998831
1040
-0.0001000000000317
1040
11.70599999998831
1040
0.0
1040
13.26299999998673
1040
0.0
1071
       12
1005
AF4F
1005
AF50
1005
AF57
1005
AF66
1005
AF69
1005
AF67
1005
AF58
1005
AF5D
1005
AF5B
1005
AF5F
1005
AF5E
1005
AF60
1071
       22
1070
     0
1070
     1
1071
        3
1040
9.236999999990758
1040
5.5200999999945
1040
10.06399999998996
1040
3.670999999996297
1040
8.409999999991555
1040
3.670999999996297
1071
        3
1005
AF6B
1005
AF6D
1005
AF6C
1070
     0
1070
     1
1040
0.0
1040
0.15
1070
     0
1070
     2
1040
0.7853981633974483
1040
49.29960901727088
1040
-10.17736998311392
1040
-0.3367596045400932
1040
0.3367596045400932
1070
     0
1040
2.356194490192345
1040
49.29960901727088
1040
-10.17736998311392
1040
-0.3367596045400932
1040
-0.3367596045400932
1070
     0
1040
0.0110235143455945
1071
        2
1040
3.614004224891801
1040
2.996669441146025
1040
0.0
1040
3.614004224891801
1040
2.996669441146025
1040
0.0
1002
}
  0
INSERT
  5
AF91
330
AF4D
100
AcDbEntity
  8
0
100
AcDbBlockReference
  2
*X26
 10
0.0
 20
0.0
 30
0.0
1001
ACAD
1000
HATCH
1002
{
1070
    19
1000
ANSI37
1040
0.15
1040
0.0
1000
ASC_BOUNDS
1070
     1
1070
     2
1070
    10
1005
AF51
1005
AF52
1005
AF73
1005
AF71
1005
AF72
1005
AF65
1005
AF6A
1005
AF6E
1005
AF54
1005
AF53
1000
ASC_SEEDPOINT
1011
14.73245321214324
1021
2.798246178283421
1031
0.0
1000
R14_HATCH_DATA
1000
AF91
1011
1.0
1021
0.0
1031
0.0
1011
0.0
1021
1.0
1031
0.0
1011
0.0
1021
0.0
1031
1.0
1040
0.0
1010
0.0
1020
0.0
1030
1.0
1000
ANSI37
1070
     0
1070
     1
1071
        1
1071
        7
1070
     0
1070
     1
1071
       10
1040
16.46099999998353
1040
5.432899999994561
1040
18.59199999998134
1040
-0.2368999999997641
1040
22.38199999997767
1040
8.763099999991255
1040
20.89099999997916
1040
8.763099999991255
1040
18.59799999998143
1040
3.315799999996671
1040
16.46099999998353
1040
8.999899999990987
1040
14.32399999998563
1040
3.315799999996671
1040
12.02999999998792
1040
8.763099999991255
1040
10.53899999998941
1040
8.763099999991255
1040
14.32899999998563
1040
-0.2368999999997641
1071
       10
1005
AF51
1005
AF52
1005
AF73
1005
AF71
1005
AF72
1005
AF65
1005
AF6A
1005
AF6E
1005
AF54
1005
AF53
1070
     0
1070
     1
1040
0.0
1040
0.15
1070
     0
1070
     2
1040
0.7853981633974483
1040
49.29960901727088
1040
-10.17736998311392
1040
-0.3367596045400932
1040
0.3367596045400932
1070
     0
1040
2.356194490192345
1040
49.29960901727088
1040
-10.17736998311392
1040
-0.3367596045400932
1040
-0.3367596045400932
1070
     0
1040
0.0110235143455945
1071
        1
1040
14.73245321214324
1040
2.798246178283421
1040
0.0
1002
}
  0
INSERT
  5
AF92
330
AF4D
100
AcDbEntity
  8
0
100
AcDbBlockReference
  2
*X27
 10
0.0
 20
0.0
 30
0.0
1001
ACAD
1000
HATCH
1002
{
1070
    19
1000
ANSI37
1040
0.15
1040
0.0
1000
ASC_BOUNDS
1070
     2
1070
     2
1070
    13
1005
AF55
1005
AF62
1005
AF63
1005
AF61
1005
AF64
1005
AF8B
1005
AF8F
1005
AF8A
1005
AF89
1005
AF8C
1005
AF8E
1005
AF8D
1005
AF56
1070
     2
1070
     3
1005
AF6F
1005
AF74
1005
AF70
1000
ASC_SEEDPOINT
1011
21.97929957367762
1021
3.294304244259308
1031
0.0
1000
R14_HATCH_DATA
1000
AF92
1011
1.0
1021
0.0
1031
0.0
1011
0.0
1021
1.0
1031
0.0
1011
0.0
1021
0.0
1031
1.0
1040
0.0
1010
0.0
1020
0.0
1030
1.0
1000
ANSI37
1070
     0
1070
     1
1071
        2
1071
        7
1070
     1
1070
     1
1071
       15
1040
23.56599999997638
1040
8.999899999990987
1040
0.0
1040
19.53899999998043
1040
-0.0001000000000317
1040
0.0
1040
19.53899999998043
1040
0.0
1040
0.0
1040
21.09599999997886
1040
0.0
1040
0.0
1040
21.09599999997886
1040
-0.0001000000000317
1040
0.0
1040
22.15599999997789
1040
2.368399999997621
1040
0.0
1040
24.97599999997499
1040
2.368399999997621
1040
0.0
1040
26.02015566812236
1040
0.0330999999912365
1040
0.0
1040
28.40199999996923
1040
0.0330999999912365
1040
0.414213562373095
1040
30.74199999996923
1040
2.373099999991211
1040
0.0
1040
30.74199999996927
1040
8.763099999991255
1040
0.0
1040
29.30199999996933
1040
8.763099999991255
1040
0.0
1040
29.30199999996933
1040
2.283099999991236
1040
-0.414213562373095
1040
28.40199999996923
1040
1.383099999991237
1040
0.0
1040
26.97358892824991
1040
1.383099999991202
1040
0.0
1071
       13
1005
AF55
1005
AF62
1005
AF63
1005
AF61
1005
AF64
1005
AF8B
1005
AF8F
1005
AF8A
1005
AF89
1005
AF8C
1005
AF8E
1005
AF8D
1005
AF56
1071
       22
1070
     0
1070
     1
1071
        3
1040
22.7389999999773
1040
3.670999999996297
1040
23.56599999997638
1040
5.5200999999945
1040
24.39299999997559
1040
3.670999999996297
1071
        3
1005
AF6F
1005
AF74
1005
AF70
1070
     0
1070
     1
1040
0.0
1040
0.15
1070
     0
1070
     2
1040
0.7853981633974483
1040
49.29960901727088
1040
-10.17736998311392
1040
-0.3367596045400932
1040
0.3367596045400932
1070
     0
1040
2.356194490192345
1040
49.29960901727088
1040
-10.17736998311392
1040
-0.3367596045400932
1040
-0.3367596045400932
1070
     0
1040
0.0110235143455945
1071
        2
1040
21.97929957367762
1040
3.294304244259308
1040
0.0
1040
21.97929957367762
1040
3.294304244259308
1040
0.0
1002
}
  0
INSERT
  5
AF93
330
AF4D
100
AcDbEntity
  8
0
100
AcDbBlockReference
  2
*X28
 10
0.0
 20
0.0
 30
0.0
1001
ACAD
1000
HATCH
1002
{
1070
    19
1000
ANSI37
1040
0.15
1040
0.0
1000
R14_HATCH_DATA
1000
AF93
1011
1.0
1021
0.0
1031
0.0
1011
0.0
1021
1.0
1031
0.0
1011
0.0
1021
0.0
1031
1.0
1040
0.0
1010
0.0
1020
0.0
1030
1.0
1000
ANSI37
1070
     0
1070
     1
1071
        1
1071
        7
1070
     1
1070
     1
1071
       12
1040
31.64199999996833
1040
2.481619422925121
1040
0.2679491924310942
1040
32.94699999997067
1040
0.2212931190493919
1040
0.2679491924301353
1040
36.36699999995983
1040
0.2212931190459813
1040
0.2679491924321411
1040
37.67199999996831
1040
2.481619422928361
1040
0.0
1040
37.67199999996831
1040
8.763099999991255
1040
0.0
1040
36.23199999996837
1040
8.763099999991255
1040
0.0
1040
36.23199999996837
1040
2.481619422925064
1040
-0.2679491924310291
1040
35.64699999996708
1040
1.468369700498386
1040
-0.267949192430519
1040
33.66699999997093
1040
1.468369700497703
1040
-0.267949192431809
1040
33.08199999996839
1040
2.481619422926997
1040
0.0
1040
33.08199999996839
1040
8.763099999991255
1040
0.0
1040
31.64199999996833
1040
8.763099999991255
1040
0.0
1071
        0
1070
     0
1070
     1
1040
0.0
1040
0.15
1070
     0
1070
     2
1040
0.7853981633974483
1040
49.29960901727088
1040
-10.17736998311392
1040
-0.3367596045400932
1040
0.3367596045400932
1070
     0
1040
2.356194490192345
1040
49.29960901727088
1040
-10.17736998311392
1040
-0.3367596045400932
1040
-0.3367596045400932
1070
     0
1040
0.0110235143455945
1071
        1
1040
32.30357378967278
1040
3.988785755459219
1040
0.0
1002
}
  0
INSERT
  5
AF94
330
AF4D
100
AcDbEntity
  8
0
100
AcDbBlockReference
  2
*X29
 10
0.0
 20
0.0
 30
0.0
1001
ACAD
1000
HATCH
1002
{
1070
    19
1000
ANSI37
1040
0.15
1040
0.0
1000
ASC_BOUNDS
1070
     1
1070
     2
1070
     8
1005
AF75
1005
AF78
1005
AF7C
1005
AF7B
1005
AF7A
1005
AF77
1005
AF79
1005
AF76
1000
ASC_SEEDPOINT
1011
39.74896370716704
1021
4.484843821435049
1031
0.0
1000
R14_HATCH_DATA
1000
AF94
1011
1.0
1021
0.0
1031
0.0
1011
0.0
1021
1.0
1031
0.0
1011
0.0
1021
0.0
1031
1.0
1040
0.0
1010
0.0
1020
0.0
1030
1.0
1000
ANSI37
1070
     0
1070
     1
1071
        1
1071
        7
1070
     0
1070
     1
1071
        9
1040
40.02599999995994
1040
5.341799999994635
1040
44.99999999995498
1040
-0.2368999999997641
1040
44.99999999995498
1040
8.763099999991255
1040
43.57899999995641
1040
8.763099999991255
1040
43.57899999995641
1040
3.421199999996588
1040
38.60499999996136
1040
8.999899999990987
1040
38.60499999996136
1040
8.999999999991019
1040
38.60499999996136
1040
0.0
1040
40.02599999995994
1040
0.0
1071
        8
1005
AF75
1005
AF78
1005
AF7C
1005
AF7B
1005
AF7A
1005
AF77
1005
AF79
1005
AF76
1070
     0
1070
     1
1040
0.0
1040
0.15
1070
     0
1070
     2
1040
0.7853981633974483
1040
49.29960901727088
1040
-10.17736998311392
1040
-0.3367596045400932
1040
0.3367596045400932
1070
     0
1040
2.356194490192345
1040
49.29960901727088
1040
-10.17736998311392
1040
-0.3367596045400932
1040
-0.3367596045400932
1070
     0
1040
0.0110235143455945
1071
        1
1040
39.74896370716704
1040
4.484843821435049
1040
0.0
1002
}
  0
INSERT
  5
AF95
330
AF4D
100
AcDbEntity
  8
0
100
AcDbBlockReference
  2
*X30
 10
0.0
 20
0.0
 30
0.0
1001
ACAD
1000
HATCH
1002
{
1070
    19
1000
ANSI37
1040
0.15
1040
0.0
1000
ASC_BOUNDS
1070
     1
1070
     2
1070
     4
1005
AF59
1005
AF68
1005
AF5A
1005
AF5C
1000
ASC_SEEDPOINT
1011
1.079051535452663
1021
4.148538732891836
1031
0.0
1000
R14_HATCH_DATA
1000
AF95
1011
1.0
1021
0.0
1031
0.0
1011
0.0
1021
1.0
1031
0.0
1011
0.0
1021
0.0
1031
1.0
1040
0.0
1010
0.0
1020
0.0
1030
1.0
1000
ANSI37
1070
     0
1070
     1
1071
        1
1071
        7
1070
     0
1070
     1
1071
        4
1040
1.420999999998571
1040
0.0
1040
1.420999999998571
1040
8.763099999991255
1040
0.0
1040
8.763099999991255
1040
0.0
1040
0.0
1071
        4
1005
AF59
1005
AF68
1005
AF5A
1005
AF5C
1070
     0
1070
     1
1040
0.0
1040
0.15
1070
     0
1070
     2
1040
0.7853981633974483
1040
49.29960901727088
1040
-10.17736998311392
1040
-0.3367596045400932
1040
0.3367596045400932
1070
     0
1040
2.356194490192345
1040
49.29960901727088
1040
-10.17736998311392
1040
-0.3367596045400932
1040
-0.3367596045400932
1070
     0
1040
0.0053004257112761
1071
        1
1040
1.079051535452663
1040
4.148538732891836
1040
0.0
1002
}
  0
ENDBLK
  5
B64D
330
AF4D
100
AcDbEntity
  8
0
100
AcDbBlockEnd
  0
BLOCK
  5
BBD9
330
BA4B
100
AcDbEntity
  8
0
100
AcDbBlockBegin
  2
*X25
 70
     1
 10
0.0
 20
0.0
 30
0.0
  3
*X25
  1

  0
LINE
  5
BA4C
330
BA4B
100
AcDbEntity
  8
0
  6
CONTINUOUS
100
AcDbLine
 10
3.418023043697893
 20
7.251849696850613
 30
0.0
 11
4.929273346838536
 21
8.763099999991255
 31
0.0
  0
LINE
  5
BA4D
330
BA4B
100
AcDbEntity
  8
0
  6
CONTINUOUS
100
AcDbLine
 10
1.483656411257782
 20
4.643963855330318
 30
0.0
 11
5.60279255591872
 21
8.763099999991255
 31
0.0
  0
LINE
  5
BA4E
330
BA4B
100
AcDbEntity
  8
0
  6
CONTINUOUS
100
AcDbLine
 10
1.755053947328235
 20
4.241842182320584
 30
0.0
 11
6.276311764998907
 21
8.763099999991255
 31
0.0
  0
LINE
  5
BA4F
330
BA4B
100
AcDbEntity
  8
0
  6
CONTINUOUS
100
AcDbLine
 10
2.026451483398688
 20
3.839720509310849
 30
0.0
 11
4.441040904851878
 21
6.254309930764039
 31
0.0
  0
LINE
  5
BA50
330
BA4B
100
AcDbEntity
  8
0
  6
CONTINUOUS
100
AcDbLine
 10
2.297849019469139
 20
3.437598836301114
 30
0.0
 11
3.321765168359338
 21
4.461514985191313
 31
0.0
  0
LINE
  5
BA51
330
BA4B
100
AcDbEntity
  8
0
  6
CONTINUOUS
100
AcDbLine
 10
2.569246555539591
 20
3.03547716329138
 30
0.0
 11
3.593163397972743
 21
4.059394005724531
 31
0.0
  0
LINE
  5
BA52
330
BA4B
100
AcDbEntity
  8
0
  6
CONTINUOUS
100
AcDbLine
 10
2.840644091610043
 20
2.633355490281646
 30
0.0
 11
3.864561627586149
 21
3.657273026257751
 31
0.0
  0
LINE
  5
BA53
330
BA4B
100
AcDbEntity
  8
0
  6
CONTINUOUS
100
AcDbLine
 10
3.112041627680496
 20
2.231233817271911
 30
0.0
 11
4.135959857199554
 21
3.25515204679097
 31
0.0
  0
LINE
  5
BA54
330
BA4B
100
AcDbEntity
  8
0
  6
CONTINUOUS
100
AcDbLine
 10
3.383439163750948
 20
1.829112144262177
 30
0.0
 11
4.40735808681296
 21
2.853031067324189
 31
0.0
  0
LINE
  5
BA55
330
BA4B
100
AcDbEntity
  8
0
  6
CONTINUOUS
100
AcDbLine
 10
3.654836699821399
 20
1.426990471252442
 30
0.0
 11
4.678756316426365
 21
2.450910087857407
 31
0.0
  0
LINE
  5
BA56
330
BA4B
100
AcDbEntity
  8
0
  6
CONTINUOUS
100
AcDbLine
 10
3.926234235891853
 20
1.024868798242709
 30
0.0
 11
4.95015454603977
 21
2.048789108390626
 31
0.0
  0
LINE
  5
BA57
330
BA4B
100
AcDbEntity
  8
0
  6
CONTINUOUS
100
AcDbLine
 10
4.197631771962304
 20
0.6227471252329737
 30
0.0
 11
5.221552775653176
 21
1.646668128923846
 31
0.0
  0
LINE
  5
BA58
330
BA4B
100
AcDbEntity
  8
0
  6
CONTINUOUS
100
AcDbLine
 10
8.715877546767851
 20
7.835069736359266
 30
0.0
 11
9.435953450375058
 21
8.555145639966472
 31
0.0
  0
LINE
  5
BA59
330
BA4B
100
AcDbEntity
  8
0
  6
CONTINUOUS
100
AcDbLine
 10
8.170620868422267
 20
6.616293848933497
 30
0.0
 11
9.644120833743461
 21
8.08979381425469
 31
0.0
  0
LINE
  5
BA5A
330
BA4B
100
AcDbEntity
  8
0
  6
CONTINUOUS
100
AcDbLine
 10
7.625364190076684
 20
5.397517961507727
 30
0.0
 11
9.852288217111864
 21
7.624441988542907
 31
0.0
  0
LINE
  5
BA5B
330
BA4B
100
AcDbEntity
  8
0
  6
CONTINUOUS
100
AcDbLine
 10
7.080107511731101
 20
4.178742074081957
 30
0.0
 11
10.06045560048027
 21
7.159090162831124
 31
0.0
  0
LINE
  5
BA5C
330
BA4B
100
AcDbEntity
  8
0
  6
CONTINUOUS
100
AcDbLine
 10
6.534850833385518
 20
2.959966186656187
 30
0.0
 11
10.26862298384867
 21
6.693738337119342
 31
0.0
  0
LINE
  5
BA5D
330
BA4B
100
AcDbEntity
  8
0
  6
CONTINUOUS
100
AcDbLine
 10
4.469029308032756
 20
0.2206254522232385
 30
0.0
 11
5.492951005266582
 21
1.244547149457064
 31
0.0
  0
LINE
  5
BA5E
330
BA4B
100
AcDbEntity
  8
0
  6
CONTINUOUS
100
AcDbLine
 10
5.989594155039935
 20
1.741190299230417
 30
0.0
 11
8.806950407233131
 21
4.558546551423613
 31
0.0
  0
LINE
  5
BA5F
330
BA4B
100
AcDbEntity
  8
0
  6
CONTINUOUS
100
AcDbLine
 10
9.401251593263643
 20
5.152847737454126
 30
0.0
 11
10.47679036721708
 21
6.228386511407559
 31
0.0
  0
LINE
  5
BA60
330
BA4B
100
AcDbEntity
  8
0
  6
CONTINUOUS
100
AcDbLine
 10
4.921837203428691
 20
-0.0000858614610131
 30
0.0
 11
8.592923064886001
 21
3.670999999996297
 31
0.0
  0
LINE
  5
BA61
330
BA4B
100
AcDbEntity
  8
0
  6
CONTINUOUS
100
AcDbLine
 10
9.609390446785305
 20
4.6874673818956
 30
0.0
 11
10.68495775058548
 21
5.763034685695775
 31
0.0
  0
LINE
  5
BA62
330
BA4B
100
AcDbEntity
  8
0
  6
CONTINUOUS
100
AcDbLine
 10
5.595387755019432
 20
-0.0000545189504582
 30
0.0
 11
7.716137258923768
 21
2.120694984953879
 31
0.0
  0
LINE
  5
BA63
330
BA4B
100
AcDbEntity
  8
0
  6
CONTINUOUS
100
AcDbLine
 10
6.268938306610172
 20
-0.000023176439905
 30
0.0
 11
7.170485805526503
 21
0.9015243224764267
 31
0.0
  0
LINE
  5
BA64
330
BA4B
100
AcDbEntity
  8
0
  6
CONTINUOUS
100
AcDbLine
 10
7.963842273967511
 20
2.368399999997621
 30
0.0
 11
9.266442273966188
 21
3.670999999996297
 31
0.0
  0
LINE
  5
BA65
330
BA4B
100
AcDbEntity
  8
0
  6
CONTINUOUS
100
AcDbLine
 10
8.637361483047696
 20
2.368399999997621
 30
0.0
 11
9.939961483046375
 21
3.670999999996297
 31
0.0
  0
LINE
  5
BA66
330
BA4B
100
AcDbEntity
  8
0
  6
CONTINUOUS
100
AcDbLine
 10
9.817529300306965
 20
4.222087026337075
 30
0.0
 11
10.89312513395388
 21
5.297682859983993
 31
0.0
  0
LINE
  5
BA67
330
BA4B
100
AcDbEntity
  8
0
  6
CONTINUOUS
100
AcDbLine
 10
10.02566815382863
 20
3.756706670778549
 30
0.0
 11
11.10129251732229
 21
4.832331034272211
 31
0.0
  0
LINE
  5
BA68
330
BA4B
100
AcDbEntity
  8
0
  6
CONTINUOUS
100
AcDbLine
 10
9.310880692127883
 20
2.368399999997621
 30
0.0
 11
11.30945990069069
 21
4.366979208560428
 31
0.0
  0
LINE
  5
BA69
330
BA4B
100
AcDbEntity
  8
0
  6
CONTINUOUS
100
AcDbLine
 10
9.98439990120807
 20
2.36839999999762
 30
0.0
 11
11.5176272840591
 21
3.901627382848645
 31
0.0
  0
LINE
  5
BA6A
330
BA4B
100
AcDbEntity
  8
0
  6
CONTINUOUS
100
AcDbLine
 10
10.65037369446246
 20
2.36085458417182
 30
0.0
 11
11.7257946674275
 21
3.436275557136862
 31
0.0
  0
LINE
  5
BA6B
330
BA4B
100
AcDbEntity
  8
0
  6
CONTINUOUS
100
AcDbLine
 10
10.85847197087848
 20
1.895433651507656
 30
0.0
 11
11.9339620507959
 21
2.97092373142508
 31
0.0
  0
LINE
  5
BA6C
330
BA4B
100
AcDbEntity
  8
0
  6
CONTINUOUS
100
AcDbLine
 10
11.0665702472945
 20
1.430012718843491
 30
0.0
 11
12.14212943416431
 21
2.505571905713296
 31
0.0
  0
LINE
  5
BA6D
330
BA4B
100
AcDbEntity
  8
0
  6
CONTINUOUS
100
AcDbLine
 10
11.27466852371052
 20
0.9645917861793256
 30
0.0
 11
12.35029681753271
 21
2.040220080001513
 31
0.0
  0
LINE
  5
BA6E
330
BA4B
100
AcDbEntity
  8
0
  6
CONTINUOUS
100
AcDbLine
 10
11.48276680012654
 20
0.4991708535151611
 30
0.0
 11
12.55846420090111
 21
1.57486825428973
 31
0.0
  0
LINE
  5
BA6F
330
BA4B
100
AcDbEntity
  8
0
  6
CONTINUOUS
100
AcDbLine
 10
11.69086507654257
 20
0.0337499208509957
 30
0.0
 11
12.76663158426952
 21
1.109516428577947
 31
0.0
  0
LINE
  5
BA70
330
BA4B
100
AcDbEntity
  8
0
  6
CONTINUOUS
100
AcDbLine
 10
12.33057447873954
 20
-0.0000598860322123
 30
0.0
 11
12.97479896763792
 21
0.6441646028661663
 31
0.0
  0
LINE
  5
BA71
330
BA4B
100
AcDbEntity
  8
0
  6
CONTINUOUS
100
AcDbLine
 10
13.00413694809395
 20
-0.0000166257579952
 30
0.0
 11
13.18296635100632
 21
0.1788127771543824
 31
0.0
  0
LINE
  5
BA72
330
BA4B
100
AcDbEntity
  8
0
  6
CONTINUOUS
100
AcDbLine
 10
4.772852165289667
 20
-0.000092794222212
 30
0.0
 11
4.296495091028902
 21
0.4762642800385528
 31
0.0
  0
LINE
  5
BA73
330
BA4B
100
AcDbEntity
  8
0
  6
CONTINUOUS
100
AcDbLine
 10
5.446340034776103
 20
-0.0000614546284616
 30
0.0
 11
2.898195908335625
 21
2.548082671812017
 31
0.0
  0
LINE
  5
BA74
330
BA4B
100
AcDbEntity
  8
0
  6
CONTINUOUS
100
AcDbLine
 10
6.119827904262539
 20
-0.0000301150347113
 30
0.0
 11
1.499896725642348
 21
4.61990106358548
 31
0.0
  0
LINE
  5
BA75
330
BA4B
100
AcDbEntity
  8
0
  6
CONTINUOUS
100
AcDbLine
 10
6.775136745476159
 20
0.0181802528318542
 30
0.0
 11
5.699826040202669
 21
1.093490958105344
 31
0.0
  0
LINE
  5
BA76
330
BA4B
100
AcDbEntity
  8
0
  6
CONTINUOUS
100
AcDbLine
 10
6.983376846288489
 20
0.4834593610997118
 30
0.0
 11
5.908008617934405
 21
1.558827589453796
 31
0.0
  0
LINE
  5
BA77
330
BA4B
100
AcDbEntity
  8
0
  6
CONTINUOUS
100
AcDbLine
 10
5.377063484962296
 20
1.416253513345719
 30
0.0
 11
1.702276957014131
 21
5.091040041293883
 31
0.0
  0
LINE
  5
BA78
330
BA4B
100
AcDbEntity
  8
0
  6
CONTINUOUS
100
AcDbLine
 10
3.978745891735324
 20
3.488090315652877
 30
0.0
 11
2.000373521109399
 21
5.466462686278803
 31
0.0
  0
LINE
  5
BA79
330
BA4B
100
AcDbEntity
  8
0
  6
CONTINUOUS
100
AcDbLine
 10
7.191616947100819
 20
0.948738469367568
 30
0.0
 11
6.11619119566614
 21
2.024164220802247
 31
0.0
  0
LINE
  5
BA7A
330
BA4B
100
AcDbEntity
  8
0
  6
CONTINUOUS
100
AcDbLine
 10
7.399857047913149
 20
1.414017577635424
 30
0.0
 11
6.324373773397875
 21
2.489500852150698
 31
0.0
  0
LINE
  5
BA7B
330
BA4B
100
AcDbEntity
  8
0
  6
CONTINUOUS
100
AcDbLine
 10
7.608097148725479
 20
1.879296685903281
 30
0.0
 11
6.53255635112961
 21
2.95483748349915
 31
0.0
  0
LINE
  5
BA7C
330
BA4B
100
AcDbEntity
  8
0
  6
CONTINUOUS
100
AcDbLine
 10
7.816337249537808
 20
2.344575794171138
 30
0.0
 11
6.740738928861345
 21
3.420174114847601
 31
0.0
  0
LINE
  5
BA7D
330
BA4B
100
AcDbEntity
  8
0
  6
CONTINUOUS
100
AcDbLine
 10
3.310241080789734
 20
4.830114335678653
 30
0.0
 11
2.298470085204666
 21
5.84188533126372
 31
0.0
  0
LINE
  5
BA7E
330
BA4B
100
AcDbEntity
  8
0
  6
CONTINUOUS
100
AcDbLine
 10
3.60832983563551
 20
5.205544789913063
 30
0.0
 11
2.596566649299935
 21
6.217307976248638
 31
0.0
  0
LINE
  5
BA7F
330
BA4B
100
AcDbEntity
  8
0
  6
CONTINUOUS
100
AcDbLine
 10
3.906418590481286
 20
5.580975244147473
 30
0.0
 11
2.894663213395203
 21
6.592730621233557
 31
0.0
  0
LINE
  5
BA80
330
BA4B
100
AcDbEntity
  8
0
  6
CONTINUOUS
100
AcDbLine
 10
4.204507345327062
 20
5.956405698381884
 30
0.0
 11
3.192759777490472
 21
6.968153266218474
 31
0.0
  0
LINE
  5
BA81
330
BA4B
100
AcDbEntity
  8
0
  6
CONTINUOUS
100
AcDbLine
 10
8.466032252791512
 20
2.368399999997621
 30
0.0
 11
6.948921506593081
 21
3.885510746196053
 31
0.0
  0
LINE
  5
BA82
330
BA4B
100
AcDbEntity
  8
0
  6
CONTINUOUS
100
AcDbLine
 10
9.139551461871699
 20
2.36839999999762
 30
0.0
 11
7.157104084324816
 21
4.350847377544504
 31
0.0
  0
LINE
  5
BA83
330
BA4B
100
AcDbEntity
  8
0
  6
CONTINUOUS
100
AcDbLine
 10
4.502596100172839
 20
6.331836152616295
 30
0.0
 11
3.49085634158574
 21
7.343575911203393
 31
0.0
  0
LINE
  5
BA84
330
BA4B
100
AcDbEntity
  8
0
  6
CONTINUOUS
100
AcDbLine
 10
4.800684855018615
 20
6.707266606850705
 30
0.0
 11
3.788952905681008
 21
7.718998556188312
 31
0.0
  0
LINE
  5
BA85
330
BA4B
100
AcDbEntity
  8
0
  6
CONTINUOUS
100
AcDbLine
 10
12.18154012887317
 20
-0.0000694579236642
 30
0.0
 11
11.32140332908496
 21
0.8600673418645499
 31
0.0
  0
LINE
  5
BA86
330
BA4B
100
AcDbEntity
  8
0
  6
CONTINUOUS
100
AcDbLine
 10
12.85501608323566
 20
-0.0000262032059659
 30
0.0
 11
10.77672456435345
 21
2.078265315676246
 31
0.0
  0
LINE
  5
BA87
330
BA4B
100
AcDbEntity
  8
0
  6
CONTINUOUS
100
AcDbLine
 10
9.813070670951886
 20
2.36839999999762
 30
0.0
 11
8.51047067095321
 21
3.670999999996297
 31
0.0
  0
LINE
  5
BA88
330
BA4B
100
AcDbEntity
  8
0
  6
CONTINUOUS
100
AcDbLine
 10
10.48658988003207
 20
2.36839999999762
 30
0.0
 11
9.183989880033396
 21
3.670999999996297
 31
0.0
  0
LINE
  5
BA89
330
BA4B
100
AcDbEntity
  8
0
  6
CONTINUOUS
100
AcDbLine
 10
8.441048632286794
 20
3.740422038662712
 30
0.0
 11
7.365286662056551
 21
4.816184008892956
 31
0.0
  0
LINE
  5
BA8A
330
BA4B
100
AcDbEntity
  8
0
  6
CONTINUOUS
100
AcDbLine
 10
8.649187485808454
 20
4.205802394221237
 30
0.0
 11
7.573469239788285
 21
5.281520640241407
 31
0.0
  0
LINE
  5
BA8B
330
BA4B
100
AcDbEntity
  8
0
  6
CONTINUOUS
100
AcDbLine
 10
5.098773609864391
 20
7.082697061085115
 30
0.0
 11
4.087049469776277
 21
8.09442120117323
 31
0.0
  0
LINE
  5
BA8C
330
BA4B
100
AcDbEntity
  8
0
  6
CONTINUOUS
100
AcDbLine
 10
5.396862364710167
 20
7.458127515319526
 30
0.0
 11
4.385146033871544
 21
8.469843846158149
 31
0.0
  0
LINE
  5
BA8D
330
BA4B
100
AcDbEntity
  8
0
  6
CONTINUOUS
100
AcDbLine
 10
13.04801363231285
 20
0.4804954567970334
 30
0.0
 11
9.85750908911358
 21
3.670999999996297
 31
0.0
  0
LINE
  5
BA8E
330
BA4B
100
AcDbEntity
  8
0
  6
CONTINUOUS
100
AcDbLine
 10
8.857326339330116
 20
4.671182749779763
 30
0.0
 11
7.781651817520021
 21
5.746857271589858
 31
0.0
  0
LINE
  5
BA8F
330
BA4B
100
AcDbEntity
  8
0
  6
CONTINUOUS
100
AcDbLine
 10
5.694951119555943
 20
7.833557969553937
 30
0.0
 11
4.765409089118624
 21
8.763099999991255
 31
0.0
  0
LINE
  5
BA90
330
BA4B
100
AcDbEntity
  8
0
  6
CONTINUOUS
100
AcDbLine
 10
12.50286117236978
 20
1.699167125820288
 30
0.0
 11
9.68611877250287
 21
4.515909525687196
 31
0.0
  0
LINE
  5
BA91
330
BA4B
100
AcDbEntity
  8
0
  6
CONTINUOUS
100
AcDbLine
 10
9.065465192851777
 20
5.136563105338288
 30
0.0
 11
7.989834395251757
 21
6.21219390293831
 31
0.0
  0
LINE
  5
BA92
330
BA4B
100
AcDbEntity
  8
0
  6
CONTINUOUS
100
AcDbLine
 10
5.993039874401719
 20
8.208988423788346
 30
0.0
 11
5.43892829819881
 21
8.763099999991255
 31
0.0
  0
LINE
  5
BA93
330
BA4B
100
AcDbEntity
  8
0
  6
CONTINUOUS
100
AcDbLine
 10
11.95770871242671
 20
2.917838794843543
 30
0.0
 11
8.19801697298349
 21
6.677530534286761
 31
0.0
  0
LINE
  5
BA94
330
BA4B
100
AcDbEntity
  8
0
  6
CONTINUOUS
100
AcDbLine
 10
6.291128629247495
 20
8.584418878022756
 30
0.0
 11
6.112447507278997
 21
8.763099999991255
 31
0.0
  0
LINE
  5
BA95
330
BA4B
100
AcDbEntity
  8
0
  6
CONTINUOUS
100
AcDbLine
 10
11.41255625248364
 20
4.136510463866797
 30
0.0
 11
8.406199550715227
 21
7.142867165635211
 31
0.0
  0
LINE
  5
BA96
330
BA4B
100
AcDbEntity
  8
0
  6
CONTINUOUS
100
AcDbLine
 10
10.86740379254057
 20
5.355182132890051
 30
0.0
 11
8.614382128446962
 21
7.608203796983664
 31
0.0
  0
LINE
  5
BA97
330
BA4B
100
AcDbEntity
  8
0
  6
CONTINUOUS
100
AcDbLine
 10
10.3222513325975
 20
6.573853801913305
 30
0.0
 11
8.822564706178696
 21
8.073540428332114
 31
0.0
  0
LINE
  5
BA98
330
BA4B
100
AcDbEntity
  8
0
  6
CONTINUOUS
100
AcDbLine
 10
9.777098872654436
 20
7.792525470936562
 30
0.0
 11
9.030747283910433
 21
8.538877059680566
 31
0.0
  0
ENDBLK
  5
BBDA
330
BA4B
100
AcDbEntity
  8
0
100
AcDbBlockEnd
  0
BLOCK
  5
BBDB
330
BA99
100
AcDbEntity
  8
0
100
AcDbBlockBegin
  2
*X26
 70
     1
 10
0.0
 20
0.0
 30
0.0
  3
*X26
  1

  0
LINE
  5
BA9A
330
BA99
100
AcDbEntity
  8
0
  6
CONTINUOUS
100
AcDbLine
 10
10.67292308101235
 20
8.445076852443387
 30
0.0
 11
10.99094622856022
 21
8.763099999991255
 31
0.0
  0
LINE
  5
BA9B
330
BA99
100
AcDbEntity
  8
0
  6
CONTINUOUS
100
AcDbLine
 10
10.87250383178748
 20
7.971138394138331
 30
0.0
 11
11.6644654376404
 21
8.763099999991255
 31
0.0
  0
LINE
  5
BA9C
330
BA99
100
AcDbEntity
  8
0
  6
CONTINUOUS
100
AcDbLine
 10
11.07208458256261
 20
7.497199935833273
 30
0.0
 11
12.12126590876355
 21
8.546381262034211
 31
0.0
  0
LINE
  5
BA9D
330
BA99
100
AcDbEntity
  8
0
  6
CONTINUOUS
100
AcDbLine
 10
11.27166533333774
 20
7.023261477528216
 30
0.0
 11
12.32085164573666
 21
8.072447789927136
 31
0.0
  0
LINE
  5
BA9E
330
BA99
100
AcDbEntity
  8
0
  6
CONTINUOUS
100
AcDbLine
 10
11.47124608411287
 20
6.549323019223158
 30
0.0
 11
12.52043738270977
 21
7.59851431782006
 31
0.0
  0
LINE
  5
BA9F
330
BA99
100
AcDbEntity
  8
0
  6
CONTINUOUS
100
AcDbLine
 10
11.670826834888
 20
6.075384560918101
 30
0.0
 11
12.72002311968288
 21
7.124580845712984
 31
0.0
  0
LINE
  5
BAA0
330
BA99
100
AcDbEntity
  8
0
  6
CONTINUOUS
100
AcDbLine
 10
11.87040758566313
 20
5.601446102613043
 30
0.0
 11
12.91960885665599
 21
6.650647373605907
 31
0.0
  0
LINE
  5
BAA1
330
BA99
100
AcDbEntity
  8
0
  6
CONTINUOUS
100
AcDbLine
 10
12.06998833643825
 20
5.127507644307986
 30
0.0
 11
13.1191945936291
 21
6.176713901498832
 31
0.0
  0
LINE
  5
BAA2
330
BA99
100
AcDbEntity
  8
0
  6
CONTINUOUS
100
AcDbLine
 10
12.26956908721338
 20
4.65356918600293
 30
0.0
 11
13.31878033060221
 21
5.702780429391757
 31
0.0
  0
LINE
  5
BAA3
330
BA99
100
AcDbEntity
  8
0
  6
CONTINUOUS
100
AcDbLine
 10
12.46914983798851
 20
4.179630727697873
 30
0.0
 11
13.51836606757532
 21
5.228846957284683
 31
0.0
  0
LINE
  5
BAA4
330
BA99
100
AcDbEntity
  8
0
  6
CONTINUOUS
100
AcDbLine
 10
12.66873058876364
 20
3.705692269392816
 30
0.0
 11
13.71795180454843
 21
4.754913485177607
 31
0.0
  0
LINE
  5
BAA5
330
BA99
100
AcDbEntity
  8
0
  6
CONTINUOUS
100
AcDbLine
 10
12.86831133953877
 20
3.231753811087759
 30
0.0
 11
13.91753754152154
 21
4.280980013070531
 31
0.0
  0
LINE
  5
BAA6
330
BA99
100
AcDbEntity
  8
0
  6
CONTINUOUS
100
AcDbLine
 10
13.0678920903139
 20
2.757815352782702
 30
0.0
 11
14.11712327849465
 21
3.807046540963456
 31
0.0
  0
LINE
  5
BAA7
330
BA99
100
AcDbEntity
  8
0
  6
CONTINUOUS
100
AcDbLine
 10
13.26747284108903
 20
2.283876894477644
 30
0.0
 11
14.31670901546777
 21
3.333113068856379
 31
0.0
  0
LINE
  5
BAA8
330
BA99
100
AcDbEntity
  8
0
  6
CONTINUOUS
100
AcDbLine
 10
16.36767838827179
 20
8.751678487061342
 30
0.0
 11
16.50332410898388
 21
8.887324207773432
 31
0.0
  0
LINE
  5
BAA9
330
BA99
100
AcDbEntity
  8
0
  6
CONTINUOUS
100
AcDbLine
 10
15.96190732182191
 20
7.67238821153127
 30
0.0
 11
16.68735328004734
 21
8.397834169756699
 31
0.0
  0
LINE
  5
BAAA
330
BA99
100
AcDbEntity
  8
0
  6
CONTINUOUS
100
AcDbLine
 10
15.55613625537202
 20
6.593097936001196
 30
0.0
 11
16.87138245111079
 21
7.908344131739965
 31
0.0
  0
LINE
  5
BAAB
330
BA99
100
AcDbEntity
  8
0
  6
CONTINUOUS
100
AcDbLine
 10
15.15036518892213
 20
5.513807660471122
 30
0.0
 11
17.05541162217424
 21
7.418854093723231
 31
0.0
  0
LINE
  5
BAAC
330
BA99
100
AcDbEntity
  8
0
  6
CONTINUOUS
100
AcDbLine
 10
14.74459412247225
 20
4.434517384941048
 30
0.0
 11
17.2394407932377
 21
6.929364055706499
 31
0.0
  0
LINE
  5
BAAD
330
BA99
100
AcDbEntity
  8
0
  6
CONTINUOUS
100
AcDbLine
 10
14.33882305602236
 20
3.355227109410975
 30
0.0
 11
17.42346996430115
 21
6.439874017689766
 31
0.0
  0
LINE
  5
BAAE
330
BA99
100
AcDbEntity
  8
0
  6
CONTINUOUS
100
AcDbLine
 10
13.46705359186416
 20
1.809938436172586
 30
0.0
 11
16.0819338255367
 21
4.424818669845129
 31
0.0
  0
LINE
  5
BAAF
330
BA99
100
AcDbEntity
  8
0
  6
CONTINUOUS
100
AcDbLine
 10
16.63283254238972
 20
4.975717386698149
 30
0.0
 11
17.60749913536461
 21
5.950383979673033
 31
0.0
  0
LINE
  5
BAB0
330
BA99
100
AcDbEntity
  8
0
  6
CONTINUOUS
100
AcDbLine
 10
13.66663434263929
 20
1.335999977867529
 30
0.0
 11
15.67604797733754
 21
3.345413612565779
 31
0.0
  0
LINE
  5
BAB1
330
BA99
100
AcDbEntity
  8
0
  6
CONTINUOUS
100
AcDbLine
 10
13.86621509341442
 20
0.8620615195624723
 30
0.0
 11
15.27016212913838
 21
2.26600855528643
 31
0.0
  0
LINE
  5
BAB2
330
BA99
100
AcDbEntity
  8
0
  6
CONTINUOUS
100
AcDbLine
 10
16.81682257348267
 20
4.486188208710908
 30
0.0
 11
17.79152830642806
 21
5.460893941656299
 31
0.0
  0
LINE
  5
BAB3
330
BA99
100
AcDbEntity
  8
0
  6
CONTINUOUS
100
AcDbLine
 10
17.00081260457561
 20
3.996659030723667
 30
0.0
 11
17.97555747749151
 21
4.971403903639565
 31
0.0
  0
LINE
  5
BAB4
330
BA99
100
AcDbEntity
  8
0
  6
CONTINUOUS
100
AcDbLine
 10
20.74362343514722
 20
8.412989070375462
 30
0.0
 11
21.09373436476302
 21
8.763099999991256
 31
0.0
  0
LINE
  5
BAB5
330
BA99
100
AcDbEntity
  8
0
  6
CONTINUOUS
100
AcDbLine
 10
20.25401257174777
 20
7.249858997895826
 30
0.0
 11
21.7672535738432
 21
8.763099999991255
 31
0.0
  0
LINE
  5
BAB6
330
BA99
100
AcDbEntity
  8
0
  6
CONTINUOUS
100
AcDbLine
 10
14.06579584418955
 20
0.3881230612574149
 30
0.0
 11
14.86427628093921
 21
1.186603498007082
 31
0.0
  0
LINE
  5
BAB7
330
BA99
100
AcDbEntity
  8
0
  6
CONTINUOUS
100
AcDbLine
 10
14.26537659496467
 20
-0.0858153970476412
 30
0.0
 11
14.45839043274005
 21
0.1071984407277329
 31
0.0
  0
LINE
  5
BAB8
330
BA99
100
AcDbEntity
  8
0
  6
CONTINUOUS
100
AcDbLine
 10
17.18480263566856
 20
3.507129852736426
 30
0.0
 11
18.15958664855496
 21
4.481913865622833
 31
0.0
  0
LINE
  5
BAB9
330
BA99
100
AcDbEntity
  8
0
  6
CONTINUOUS
100
AcDbLine
 10
17.3687926667615
 20
3.017600674749186
 30
0.0
 11
18.34361581961842
 21
3.9924238276061
 31
0.0
  0
LINE
  5
BABA
330
BA99
100
AcDbEntity
  8
0
  6
CONTINUOUS
100
AcDbLine
 10
19.76440170834832
 20
6.086728925416191
 30
0.0
 11
22.33924590259489
 21
8.661573119662755
 31
0.0
  0
LINE
  5
BABB
330
BA99
100
AcDbEntity
  8
0
  6
CONTINUOUS
100
AcDbLine
 10
19.27479084494887
 20
4.923598852936555
 30
0.0
 11
21.84929622842713
 21
7.498104236414807
 31
0.0
  0
LINE
  5
BABC
330
BA99
100
AcDbEntity
  8
0
  6
CONTINUOUS
100
AcDbLine
 10
17.55278269785445
 20
2.528071496761945
 30
0.0
 11
18.52764499068187
 21
3.502933789589366
 31
0.0
  0
LINE
  5
BABD
330
BA99
100
AcDbEntity
  8
0
  6
CONTINUOUS
100
AcDbLine
 10
18.78517998154942
 20
3.760468780456919
 30
0.0
 11
21.35934655425936
 21
6.33463535316686
 31
0.0
  0
LINE
  5
BABE
330
BA99
100
AcDbEntity
  8
0
  6
CONTINUOUS
100
AcDbLine
 10
17.73677272894739
 20
2.038542318774704
 30
0.0
 11
20.8693968800916
 21
5.171166469918914
 31
0.0
  0
LINE
  5
BABF
330
BA99
100
AcDbEntity
  8
0
  6
CONTINUOUS
100
AcDbLine
 10
17.92076276004034
 20
1.549013140787464
 30
0.0
 11
20.37944720592384
 21
4.007697586670968
 31
0.0
  0
LINE
  5
BAC0
330
BA99
100
AcDbEntity
  8
0
  6
CONTINUOUS
100
AcDbLine
 10
18.10475279113329
 20
1.059483962800223
 30
0.0
 11
19.88949753175608
 21
2.84422870342302
 31
0.0
  0
LINE
  5
BAC1
330
BA99
100
AcDbEntity
  8
0
  6
CONTINUOUS
100
AcDbLine
 10
18.28874282222623
 20
0.5699547848129822
 30
0.0
 11
19.39954785758832
 21
1.680759820175074
 31
0.0
  0
LINE
  5
BAC2
330
BA99
100
AcDbEntity
  8
0
  6
CONTINUOUS
100
AcDbLine
 10
18.47273285331918
 20
0.0804256068257416
 30
0.0
 11
18.90959818342056
 21
0.517290936927127
 31
0.0
  0
LINE
  5
BAC3
330
BA99
100
AcDbEntity
  8
0
  6
CONTINUOUS
100
AcDbLine
 10
14.3590401358224
 20
-0.1570118376323384
 30
0.0
 11
14.24903296539946
 21
-0.0470046672093929
 31
0.0
  0
LINE
  5
BAC4
330
BA99
100
AcDbEntity
  8
0
  6
CONTINUOUS
100
AcDbLine
 10
14.54309291258661
 20
0.332454594683643
 30
0.0
 11
13.75908329123172
 21
1.116464216038529
 31
0.0
  0
LINE
  5
BAC5
330
BA99
100
AcDbEntity
  8
0
  6
CONTINUOUS
100
AcDbLine
 10
14.72714568935081
 20
0.8219210269996244
 30
0.0
 11
13.26913361706399
 21
2.27993309928645
 31
0.0
  0
LINE
  5
BAC6
330
BA99
100
AcDbEntity
  8
0
  6
CONTINUOUS
100
AcDbLine
 10
14.91119846611502
 20
1.311387459315606
 30
0.0
 11
12.77918394289625
 21
3.443401982534371
 31
0.0
  0
LINE
  5
BAC7
330
BA99
100
AcDbEntity
  8
0
  6
CONTINUOUS
100
AcDbLine
 10
15.09525124287922
 20
1.800853891631587
 30
0.0
 11
12.28923426872852
 21
4.606870865782293
 31
0.0
  0
LINE
  5
BAC8
330
BA99
100
AcDbEntity
  8
0
  6
CONTINUOUS
100
AcDbLine
 10
15.27930401964343
 20
2.290320323947569
 30
0.0
 11
11.79928459456078
 21
5.770339749030213
 31
0.0
  0
LINE
  5
BAC9
330
BA99
100
AcDbEntity
  8
0
  6
CONTINUOUS
100
AcDbLine
 10
15.46335679640763
 20
2.77978675626355
 30
0.0
 11
14.48885470994921
 21
3.754288842721972
 31
0.0
  0
LINE
  5
BACA
330
BA99
100
AcDbEntity
  8
0
  6
CONTINUOUS
100
AcDbLine
 10
13.88507249233704
 20
4.358071060334137
 30
0.0
 11
11.30933492039305
 21
6.933808632278135
 31
0.0
  0
LINE
  5
BACB
330
BA99
100
AcDbEntity
  8
0
  6
CONTINUOUS
100
AcDbLine
 10
18.75840522805855
 20
0.1582575336928151
 30
0.0
 11
18.25383727664818
 21
0.6628254851031863
 31
0.0
  0
LINE
  5
BACC
330
BA99
100
AcDbEntity
  8
0
  6
CONTINUOUS
100
AcDbLine
 10
15.64740957317184
 20
3.269253188579531
 30
0.0
 11
14.67288388101266
 21
4.243778880738705
 31
0.0
  0
LINE
  5
BACD
330
BA99
100
AcDbEntity
  8
0
  6
CONTINUOUS
100
AcDbLine
 10
13.39509276772158
 20
5.521569994029786
 30
0.0
 11
10.81938524622531
 21
8.097277515526056
 31
0.0
  0
LINE
  5
BACE
330
BA99
100
AcDbEntity
  8
0
  6
CONTINUOUS
100
AcDbLine
 10
18.95798597883369
 20
0.6321959919978686
 30
0.0
 11
17.84825644852853
 21
1.741925522303024
 31
0.0
  0
LINE
  5
BACF
330
BA99
100
AcDbEntity
  8
0
  6
CONTINUOUS
100
AcDbLine
 10
19.15756672960882
 20
1.106134450302922
 30
0.0
 11
17.44267562040888
 21
2.821025559502861
 31
0.0
  0
LINE
  5
BAD0
330
BA99
100
AcDbEntity
  8
0
  6
CONTINUOUS
100
AcDbLine
 10
15.83146234993604
 20
3.758719620895513
 30
0.0
 11
14.85691305207612
 21
4.733268918755439
 31
0.0
  0
LINE
  5
BAD1
330
BA99
100
AcDbEntity
  8
0
  6
CONTINUOUS
100
AcDbLine
 10
16.01551512670025
 20
4.248186053211494
 30
0.0
 11
15.04094222313957
 21
5.222758956772172
 31
0.0
  0
LINE
  5
BAD2
330
BA99
100
AcDbEntity
  8
0
  6
CONTINUOUS
100
AcDbLine
 10
12.90511304310612
 20
6.685068927725435
 30
0.0
 11
10.8270819708403
 21
8.763099999991255
 31
0.0
  0
LINE
  5
BAD3
330
BA99
100
AcDbEntity
  8
0
  6
CONTINUOUS
100
AcDbLine
 10
12.41513331849066
 20
7.848567861421083
 30
0.0
 11
11.50060117992049
 21
8.763099999991255
 31
0.0
  0
LINE
  5
BAD4
330
BA99
100
AcDbEntity
  8
0
  6
CONTINUOUS
100
AcDbLine
 10
19.35714748038395
 20
1.580072908607975
 30
0.0
 11
17.03709479228923
 21
3.900125596702697
 31
0.0
  0
LINE
  5
BAD5
330
BA99
100
AcDbEntity
  8
0
  6
CONTINUOUS
100
AcDbLine
 10
19.55672823115909
 20
2.054011366913028
 30
0.0
 11
16.63151396416958
 21
4.979225633902534
 31
0.0
  0
LINE
  5
BAD6
330
BA99
100
AcDbEntity
  8
0
  6
CONTINUOUS
100
AcDbLine
 10
16.19956790346445
 20
4.737652485527476
 30
0.0
 11
15.22497139420302
 21
5.712248994788904
 31
0.0
  0
LINE
  5
BAD7
330
BA99
100
AcDbEntity
  8
0
  6
CONTINUOUS
100
AcDbLine
 10
16.38362068022866
 20
5.227118917843457
 30
0.0
 11
15.40900056526648
 21
6.201739032805637
 31
0.0
  0
LINE
  5
BAD8
330
BA99
100
AcDbEntity
  8
0
  6
CONTINUOUS
100
AcDbLine
 10
19.75630898193422
 20
2.527949825218081
 30
0.0
 11
18.70774536448286
 21
3.576513442669441
 31
0.0
  0
LINE
  5
BAD9
330
BA99
100
AcDbEntity
  8
0
  6
CONTINUOUS
100
AcDbLine
 10
19.95588973270936
 20
3.001888283523134
 30
0.0
 11
18.90726987211446
 21
4.050508144118028
 31
0.0
  0
LINE
  5
BADA
330
BA99
100
AcDbEntity
  8
0
  6
CONTINUOUS
100
AcDbLine
 10
20.15547048348449
 20
3.475826741828186
 30
0.0
 11
19.10679437974606
 21
4.524502845566614
 31
0.0
  0
LINE
  5
BADB
330
BA99
100
AcDbEntity
  8
0
  6
CONTINUOUS
100
AcDbLine
 10
20.35505123425962
 20
3.94976520013324
 30
0.0
 11
19.30631888737766
 21
4.998497547015201
 31
0.0
  0
LINE
  5
BADC
330
BA99
100
AcDbEntity
  8
0
  6
CONTINUOUS
100
AcDbLine
 10
20.55463198503475
 20
4.423703658438292
 30
0.0
 11
19.50584339500926
 21
5.472492248463787
 31
0.0
  0
LINE
  5
BADD
330
BA99
100
AcDbEntity
  8
0
  6
CONTINUOUS
100
AcDbLine
 10
18.37481191085755
 20
3.909446896294752
 30
0.0
 11
15.59302973632993
 21
6.691229070822371
 31
0.0
  0
LINE
  5
BADE
330
BA99
100
AcDbEntity
  8
0
  6
CONTINUOUS
100
AcDbLine
 10
17.96904084440766
 20
4.988737171824825
 30
0.0
 11
15.77705890739338
 21
7.180719108839104
 31
0.0
  0
LINE
  5
BADF
330
BA99
100
AcDbEntity
  8
0
  6
CONTINUOUS
100
AcDbLine
 10
17.56326977795777
 20
6.068027447354899
 30
0.0
 11
15.96108807845684
 21
7.670209146855838
 31
0.0
  0
LINE
  5
BAE0
330
BA99
100
AcDbEntity
  8
0
  6
CONTINUOUS
100
AcDbLine
 10
17.15749871150789
 20
7.147317722884972
 30
0.0
 11
16.14511724952029
 21
8.15969918487257
 31
0.0
  0
LINE
  5
BAE1
330
BA99
100
AcDbEntity
  8
0
  6
CONTINUOUS
100
AcDbLine
 10
16.751727645058
 20
8.226607998415046
 30
0.0
 11
16.32914642058374
 21
8.649189222889303
 31
0.0
  0
LINE
  5
BAE2
330
BA99
100
AcDbEntity
  8
0
  6
CONTINUOUS
100
AcDbLine
 10
20.75421273580989
 20
4.897642116743345
 30
0.0
 11
19.70536790264086
 21
5.946486949912374
 31
0.0
  0
LINE
  5
BAE3
330
BA99
100
AcDbEntity
  8
0
  6
CONTINUOUS
100
AcDbLine
 10
20.95379348658502
 20
5.371580575048398
 30
0.0
 11
19.90489241027246
 21
6.42048165136096
 31
0.0
  0
LINE
  5
BAE4
330
BA99
100
AcDbEntity
  8
0
  6
CONTINUOUS
100
AcDbLine
 10
21.15337423736015
 20
5.845519033353452
 30
0.0
 11
20.10441691790406
 21
6.894476352809547
 31
0.0
  0
LINE
  5
BAE5
330
BA99
100
AcDbEntity
  8
0
  6
CONTINUOUS
100
AcDbLine
 10
21.35295498813529
 20
6.319457491658505
 30
0.0
 11
20.30394142553566
 21
7.368471054258134
 31
0.0
  0
LINE
  5
BAE6
330
BA99
100
AcDbEntity
  8
0
  6
CONTINUOUS
100
AcDbLine
 10
21.55253573891042
 20
6.793395949963558
 30
0.0
 11
20.50346593316726
 21
7.842465755706721
 31
0.0
  0
LINE
  5
BAE7
330
BA99
100
AcDbEntity
  8
0
  6
CONTINUOUS
100
AcDbLine
 10
21.75211648968556
 20
7.267334408268612
 30
0.0
 11
20.70299044079886
 21
8.316460457155308
 31
0.0
  0
LINE
  5
BAE8
330
BA99
100
AcDbEntity
  8
0
  6
CONTINUOUS
100
AcDbLine
 10
21.95169724046069
 20
7.741272866573663
 30
0.0
 11
20.9298701070431
 21
8.763099999991256
 31
0.0
  0
LINE
  5
BAE9
330
BA99
100
AcDbEntity
  8
0
  6
CONTINUOUS
100
AcDbLine
 10
22.15127799123582
 20
8.215211324878716
 30
0.0
 11
21.60338931612328
 21
8.763099999991256
 31
0.0
  0
LINE
  5
BAEA
330
BA99
100
AcDbEntity
  8
0
  6
CONTINUOUS
100
AcDbLine
 10
22.35085874201096
 20
8.689149783183769
 30
0.0
 11
22.27690852520347
 21
8.763099999991255
 31
0.0
  0
ENDBLK
  5
BBDC
330
BA99
100
AcDbEntity
  8
0
100
AcDbBlockEnd
  0
BLOCK
  5
BBDD
330
BAEB
100
AcDbEntity
  8
0
100
AcDbBlockBegin
  2
*X27
 70
     1
 10
0.0
 20
0.0
 30
0.0
  3
*X27
  1

  0
LINE
  5
BAEC
330
BAEB
100
AcDbEntity
  8
0
  6
CONTINUOUS
100
AcDbLine
 10
23.19462913593892
 20
8.169917934846424
 30
0.0
 11
23.70775465517246
 21
8.683043454079957
 31
0.0
  0
LINE
  5
BAED
330
BAEB
100
AcDbEntity
  8
0
  6
CONTINUOUS
100
AcDbLine
 10
22.64923161835078
 20
6.951001208178088
 30
0.0
 11
23.9159364069932
 21
8.217705996820516
 31
0.0
  0
LINE
  5
BAEE
330
BAEB
100
AcDbEntity
  8
0
  6
CONTINUOUS
100
AcDbLine
 10
22.10383410076263
 20
5.732084481509751
 30
0.0
 11
24.12411815881395
 21
7.752368539561078
 31
0.0
  0
LINE
  5
BAEF
330
BAEB
100
AcDbEntity
  8
0
  6
CONTINUOUS
100
AcDbLine
 10
21.55843658317447
 20
4.513167754841414
 30
0.0
 11
24.3322999106347
 21
7.287031082301639
 31
0.0
  0
LINE
  5
BAF0
330
BAEB
100
AcDbEntity
  8
0
  6
CONTINUOUS
100
AcDbLine
 10
21.01303906558632
 20
3.294251028173077
 30
0.0
 11
24.54048166245544
 21
6.821693625042199
 31
0.0
  0
LINE
  5
BAF1
330
BAEB
100
AcDbEntity
  8
0
  6
CONTINUOUS
100
AcDbLine
 10
20.46764154799817
 20
2.075334301504738
 30
0.0
 11
23.28571549467848
 21
4.89340824818505
 31
0.0
  0
LINE
  5
BAF2
330
BAEB
100
AcDbEntity
  8
0
  6
CONTINUOUS
100
AcDbLine
 10
19.92224403041002
 20
0.8564175748364002
 30
0.0
 11
22.74075865492779
 21
3.674932199354171
 31
0.0
  0
LINE
  5
BAF3
330
BAEB
100
AcDbEntity
  8
0
  6
CONTINUOUS
100
AcDbLine
 10
23.67305085490148
 20
5.280743608408048
 30
0.0
 11
24.74866341427619
 21
6.356356167782759
 31
0.0
  0
LINE
  5
BAF4
330
BAEB
100
AcDbEntity
  8
0
  6
CONTINUOUS
100
AcDbLine
 10
23.88118970842314
 20
4.815363252849522
 30
0.0
 11
24.95684516609694
 21
5.89101871052332
 31
0.0
  0
LINE
  5
BAF5
330
BAEB
100
AcDbEntity
  8
0
  6
CONTINUOUS
100
AcDbLine
 10
19.73925852647308
 20
-0.0000871381807288
 30
0.0
 11
23.4103456646501
 21
3.670999999996297
 31
0.0
  0
LINE
  5
BAF6
330
BAEB
100
AcDbEntity
  8
0
  6
CONTINUOUS
100
AcDbLine
 10
24.0893285619448
 20
4.349982897290997
 30
0.0
 11
25.16502691791769
 21
5.42568125326388
 31
0.0
  0
LINE
  5
BAF7
330
BAEB
100
AcDbEntity
  8
0
  6
CONTINUOUS
100
AcDbLine
 10
20.41282099582748
 20
-0.0000438779065108
 30
0.0
 11
21.64944178675636
 21
1.236576913022366
 31
0.0
  0
LINE
  5
BAF8
330
BAEB
100
AcDbEntity
  8
0
  6
CONTINUOUS
100
AcDbLine
 10
22.78126487373161
 20
2.36839999999762
 30
0.0
 11
24.08386487373029
 21
3.670999999996297
 31
0.0
  0
LINE
  5
BAF9
330
BAEB
100
AcDbEntity
  8
0
  6
CONTINUOUS
100
AcDbLine
 10
24.29746741546646
 20
3.884602541732471
 30
0.0
 11
25.37320866973843
 21
4.960343796004441
 31
0.0
  0
LINE
  5
BAFA
330
BAEB
100
AcDbEntity
  8
0
  6
CONTINUOUS
100
AcDbLine
 10
21.08638346518189
 20
-0.0000006176322938
 30
0.0
 11
21.10379033335899
 21
0.0174062505448083
 31
0.0
  0
LINE
  5
BAFB
330
BAEB
100
AcDbEntity
  8
0
  6
CONTINUOUS
100
AcDbLine
 10
23.4547840828118
 20
2.36839999999762
 30
0.0
 11
25.58139042155918
 21
4.495006338745002
 31
0.0
  0
LINE
  5
BAFC
330
BAEB
100
AcDbEntity
  8
0
  6
CONTINUOUS
100
AcDbLine
 10
29.30199999996933
 20
8.215615917155148
 30
0.0
 11
29.84948408280543
 21
8.763099999991255
 31
0.0
  0
LINE
  5
BAFD
330
BAEB
100
AcDbEntity
  8
0
  6
CONTINUOUS
100
AcDbLine
 10
24.12830329189199
 20
2.36839999999762
 30
0.0
 11
25.78957217337993
 21
4.029668881485562
 31
0.0
  0
LINE
  5
BAFE
330
BAEB
100
AcDbEntity
  8
0
  6
CONTINUOUS
100
AcDbLine
 10
29.30199999996933
 20
7.54209670807496
 30
0.0
 11
30.52300329188562
 21
8.763099999991255
 31
0.0
  0
LINE
  5
BAFF
330
BAEB
100
AcDbEntity
  8
0
  6
CONTINUOUS
100
AcDbLine
 10
24.80182250097217
 20
2.36839999999762
 30
0.0
 11
25.99775392520067
 21
3.564331424226122
 31
0.0
  0
LINE
  5
BB00
330
BAEB
100
AcDbEntity
  8
0
  6
CONTINUOUS
100
AcDbLine
 10
29.30199999996933
 20
6.868577498994774
 30
0.0
 11
30.74199999996926
 21
8.308577498994712
 31
0.0
  0
LINE
  5
BB01
330
BAEB
100
AcDbEntity
  8
0
  6
CONTINUOUS
100
AcDbLine
 10
25.13028238392013
 20
2.023340673865392
 30
0.0
 11
26.20593567702142
 21
3.098993966966683
 31
0.0
  0
LINE
  5
BB02
330
BAEB
100
AcDbEntity
  8
0
  6
CONTINUOUS
100
AcDbLine
 10
25.33838066033617
 20
1.557919741201244
 30
0.0
 11
26.41411742884217
 21
2.633656509707244
 31
0.0
  0
LINE
  5
BB03
330
BAEB
100
AcDbEntity
  8
0
  6
CONTINUOUS
100
AcDbLine
 10
25.54647893675221
 20
1.092498808537098
 30
0.0
 11
26.62229918066291
 21
2.168319052447804
 31
0.0
  0
LINE
  5
BB04
330
BAEB
100
AcDbEntity
  8
0
  6
CONTINUOUS
100
AcDbLine
 10
25.75457721316825
 20
0.62707787587295
 30
0.0
 11
26.83048093248366
 21
1.702981595188365
 31
0.0
  0
LINE
  5
BB05
330
BAEB
100
AcDbEntity
  8
0
  6
CONTINUOUS
100
AcDbLine
 10
29.30199999996933
 20
6.195058289914587
 30
0.0
 11
30.74199999996926
 21
7.635058289914522
 31
0.0
  0
LINE
  5
BB06
330
BAEB
100
AcDbEntity
  8
0
  6
CONTINUOUS
100
AcDbLine
 10
29.30199999996933
 20
5.521539080834401
 30
0.0
 11
30.74199999996926
 21
6.961539080834331
 31
0.0
  0
LINE
  5
BB07
330
BAEB
100
AcDbEntity
  8
0
  6
CONTINUOUS
100
AcDbLine
 10
29.30199999996933
 20
4.848019871754214
 30
0.0
 11
30.74199999996925
 21
6.288019871754143
 31
0.0
  0
LINE
  5
BB08
330
BAEB
100
AcDbEntity
  8
0
  6
CONTINUOUS
100
AcDbLine
 10
29.30199999996933
 20
4.174500662674028
 30
0.0
 11
30.74199999996925
 21
5.614500662673953
 31
0.0
  0
LINE
  5
BB09
330
BAEB
100
AcDbEntity
  8
0
  6
CONTINUOUS
100
AcDbLine
 10
25.96267548958429
 20
0.1616569432088024
 30
0.0
 11
27.18411854636669
 21
1.383099999991207
 31
0.0
  0
LINE
  5
BB0A
330
BAEB
100
AcDbEntity
  8
0
  6
CONTINUOUS
100
AcDbLine
 10
29.30199999996933
 20
3.500981453593841
 30
0.0
 11
30.74199999996925
 21
4.940981453593762
 31
0.0
  0
LINE
  5
BB0B
330
BAEB
100
AcDbEntity
  8
0
  6
CONTINUOUS
100
AcDbLine
 10
26.50763775544691
 20
0.0330999999912356
 30
0.0
 11
27.85763775544689
 21
1.383099999991223
 31
0.0
  0
LINE
  5
BB0C
330
BAEB
100
AcDbEntity
  8
0
  6
CONTINUOUS
100
AcDbLine
 10
29.30199999996933
 20
2.827462244513656
 30
0.0
 11
30.74199999996925
 21
4.267462244513574
 31
0.0
  0
LINE
  5
BB0D
330
BAEB
100
AcDbEntity
  8
0
  6
CONTINUOUS
100
AcDbLine
 10
27.18115696452709
 20
0.0330999999912356
 30
0.0
 11
28.55073879889363
 21
1.402681834357775
 31
0.0
  0
LINE
  5
BB0E
330
BAEB
100
AcDbEntity
  8
0
  6
CONTINUOUS
100
AcDbLine
 10
29.28241816560272
 20
2.134361201066866
 30
0.0
 11
30.74199999996924
 21
3.593943035433383
 31
0.0
  0
LINE
  5
BB0F
330
BAEB
100
AcDbEntity
  8
0
  6
CONTINUOUS
100
AcDbLine
 10
27.85467617360728
 20
0.0330999999912356
 30
0.0
 11
30.74199999996924
 21
2.920423826353195
 31
0.0
  0
LINE
  5
BB10
330
BAEB
100
AcDbEntity
  8
0
  6
CONTINUOUS
100
AcDbLine
 10
28.53897559587887
 20
0.0438802131826428
 30
0.0
 11
30.73121978677781
 21
2.236124404081585
 31
0.0
  0
LINE
  5
BB11
330
BAEB
100
AcDbEntity
  8
0
  6
CONTINUOUS
100
AcDbLine
 10
29.45140055588722
 20
0.2827859641107988
 30
0.0
 11
30.49231403584965
 21
1.323699444073236
 31
0.0
  0
LINE
  5
BB12
330
BAEB
100
AcDbEntity
  8
0
  6
CONTINUOUS
100
AcDbLine
 10
19.59027867740337
 20
-0.0000967065718083
 30
0.0
 11
19.55485265190471
 21
0.035329318926844
 31
0.0
  0
LINE
  5
BB13
330
BAEB
100
AcDbEntity
  8
0
  6
CONTINUOUS
100
AcDbLine
 10
20.26375463176586
 20
-0.0000534518541091
 30
0.0
 11
19.76305575737534
 21
0.5006454225364014
 31
0.0
  0
LINE
  5
BB14
330
BAEB
100
AcDbEntity
  8
0
  6
CONTINUOUS
100
AcDbLine
 10
20.93723058612834
 20
-0.0000101971364099
 30
0.0
 11
19.97125886284597
 21
0.965961526145958
 31
0.0
  0
LINE
  5
BB15
330
BAEB
100
AcDbEntity
  8
0
  6
CONTINUOUS
100
AcDbLine
 10
21.25514828313686
 20
0.355591314935257
 30
0.0
 11
20.1794619683166
 21
1.431277629755512
 31
0.0
  0
LINE
  5
BB16
330
BAEB
100
AcDbEntity
  8
0
  6
CONTINUOUS
100
AcDbLine
 10
21.46338838394921
 20
0.8208704232030986
 30
0.0
 11
20.38766507378723
 21
1.896593733365069
 31
0.0
  0
LINE
  5
BB17
330
BAEB
100
AcDbEntity
  8
0
  6
CONTINUOUS
100
AcDbLine
 10
21.67162848476155
 20
1.28614953147094
 30
0.0
 11
20.59586817925786
 21
2.361909836974626
 31
0.0
  0
LINE
  5
BB18
330
BAEB
100
AcDbEntity
  8
0
  6
CONTINUOUS
100
AcDbLine
 10
21.8798685855739
 20
1.751428639738782
 30
0.0
 11
20.80407128472849
 21
2.827225940584183
 31
0.0
  0
LINE
  5
BB19
330
BAEB
100
AcDbEntity
  8
0
  6
CONTINUOUS
100
AcDbLine
 10
22.08810868638624
 20
2.216707748006623
 30
0.0
 11
21.01227439019912
 21
3.292542044193739
 31
0.0
  0
LINE
  5
BB1A
330
BAEB
100
AcDbEntity
  8
0
  6
CONTINUOUS
100
AcDbLine
 10
22.60993564347543
 20
2.36839999999762
 30
0.0
 11
21.22047749566975
 21
3.757858147803296
 31
0.0
  0
LINE
  5
BB1B
330
BAEB
100
AcDbEntity
  8
0
  6
CONTINUOUS
100
AcDbLine
 10
23.28345485255561
 20
2.36839999999762
 30
0.0
 11
21.42868060114038
 21
4.223174251412853
 31
0.0
  0
LINE
  5
BB1C
330
BAEB
100
AcDbEntity
  8
0
  6
CONTINUOUS
100
AcDbLine
 10
26.29227406164219
 20
0.0330999999912356
 30
0.0
 11
25.80009199592872
 21
0.5252820657046957
 31
0.0
  0
LINE
  5
BB1D
330
BAEB
100
AcDbEntity
  8
0
  6
CONTINUOUS
100
AcDbLine
 10
23.9569740616358
 20
2.36839999999762
 30
0.0
 11
21.63688370661101
 21
4.688490355022409
 31
0.0
  0
LINE
  5
BB1E
330
BAEB
100
AcDbEntity
  8
0
  6
CONTINUOUS
100
AcDbLine
 10
26.96579327072237
 20
0.0330999999912356
 30
0.0
 11
25.2554132311971
 21
1.743480039516508
 31
0.0
  0
LINE
  5
BB1F
330
BAEB
100
AcDbEntity
  8
0
  6
CONTINUOUS
100
AcDbLine
 10
24.63049327071599
 20
2.36839999999762
 30
0.0
 11
23.32789327071731
 21
3.670999999996297
 31
0.0
  0
LINE
  5
BB20
330
BAEB
100
AcDbEntity
  8
0
  6
CONTINUOUS
100
AcDbLine
 10
22.92098674744635
 20
4.077906523267254
 30
0.0
 11
21.84508681208164
 21
5.153806458631966
 31
0.0
  0
LINE
  5
BB21
330
BAEB
100
AcDbEntity
  8
0
  6
CONTINUOUS
100
AcDbLine
 10
27.63931247980256
 20
0.0330999999912356
 30
0.0
 11
24.0014124797975
 21
3.670999999996297
 31
0.0
  0
LINE
  5
BB22
330
BAEB
100
AcDbEntity
  8
0
  6
CONTINUOUS
100
AcDbLine
 10
23.129125600968
 20
4.5432868788258
 30
0.0
 11
22.05328991755227
 21
5.619122562241522
 31
0.0
  0
LINE
  5
BB23
330
BAEB
100
AcDbEntity
  8
0
  6
CONTINUOUS
100
AcDbLine
 10
28.31283168888275
 20
0.0330999999912356
 30
0.0
 11
24.16488385994816
 21
4.181047828925828
 31
0.0
  0
LINE
  5
BB24
330
BAEB
100
AcDbEntity
  8
0
  6
CONTINUOUS
100
AcDbLine
 10
23.33726445448964
 20
5.008667234384345
 30
0.0
 11
22.2614930230229
 21
6.084438665851079
 31
0.0
  0
LINE
  5
BB25
330
BAEB
100
AcDbEntity
  8
0
  6
CONTINUOUS
100
AcDbLine
 10
28.92085740005492
 20
0.0985934978992438
 30
0.0
 11
27.63635089796295
 21
1.383099999991217
 31
0.0
  0
LINE
  5
BB26
330
BAEB
100
AcDbEntity
  8
0
  6
CONTINUOUS
100
AcDbLine
 10
26.43704649509776
 20
2.582404402856405
 30
0.0
 11
23.61992702019732
 21
5.399523877756844
 31
0.0
  0
LINE
  5
BB27
330
BAEB
100
AcDbEntity
  8
0
  6
CONTINUOUS
100
AcDbLine
 10
23.54540330801128
 20
5.47404758994289
 30
0.0
 11
22.46969612849353
 21
6.549754769460635
 31
0.0
  0
LINE
  5
BB28
330
BAEB
100
AcDbEntity
  8
0
  6
CONTINUOUS
100
AcDbLine
 10
29.42225615078443
 20
0.2707139562499279
 30
0.0
 11
28.30987010704312
 21
1.383099999991234
 31
0.0
  0
LINE
  5
BB29
330
BAEB
100
AcDbEntity
  8
0
  6
CONTINUOUS
100
AcDbLine
 10
25.89179548232307
 20
3.801174624711282
 30
0.0
 11
22.67789923396416
 21
7.015070873070191
 31
0.0
  0
LINE
  5
BB2A
330
BAEB
100
AcDbEntity
  8
0
  6
CONTINUOUS
100
AcDbLine
 10
29.83624534690007
 20
0.5302439692144705
 30
0.0
 11
28.85811781497101
 21
1.508371501143527
 31
0.0
  0
LINE
  5
BB2B
330
BAEB
100
AcDbEntity
  8
0
  6
CONTINUOUS
100
AcDbLine
 10
25.34654446954838
 20
5.01994484656616
 30
0.0
 11
22.88610233943479
 21
7.480386976679748
 31
0.0
  0
LINE
  5
BB2C
330
BAEB
100
AcDbEntity
  8
0
  6
CONTINUOUS
100
AcDbLine
 10
30.17865975401872
 20
0.8613487711760022
 30
0.0
 11
29.18888744090175
 21
1.851121084292977
 31
0.0
  0
LINE
  5
BB2D
330
BAEB
100
AcDbEntity
  8
0
  6
CONTINUOUS
100
AcDbLine
 10
24.80129345677369
 20
6.238715068421037
 30
0.0
 11
23.09430544490542
 21
7.945703080289305
 31
0.0
  0
LINE
  5
BB2E
330
BAEB
100
AcDbEntity
  8
0
  6
CONTINUOUS
100
AcDbLine
 10
30.45496647202376
 20
1.258561262251155
 30
0.0
 11
29.30199999996933
 21
2.411527734305588
 31
0.0
  0
LINE
  5
BB2F
330
BAEB
100
AcDbEntity
  8
0
  6
CONTINUOUS
100
AcDbLine
 10
24.256042443999
 20
7.457485290275915
 30
0.0
 11
23.30250855037605
 21
8.411019183898862
 31
0.0
  0
LINE
  5
BB30
330
BAEB
100
AcDbEntity
  8
0
  6
CONTINUOUS
100
AcDbLine
 10
30.64868582078271
 20
1.738361122572387
 30
0.0
 11
29.30199999996933
 21
3.085046943385775
 31
0.0
  0
LINE
  5
BB31
330
BAEB
100
AcDbEntity
  8
0
  6
CONTINUOUS
100
AcDbLine
 10
23.71079143122431
 20
8.676255512130794
 30
0.0
 11
23.51071165584668
 21
8.876335287508416
 31
0.0
  0
LINE
  5
BB32
330
BAEB
100
AcDbEntity
  8
0
  6
CONTINUOUS
100
AcDbLine
 10
30.73802122914428
 20
2.322544923291007
 30
0.0
 11
29.30199999996933
 21
3.758566152465961
 31
0.0
  0
LINE
  5
BB33
330
BAEB
100
AcDbEntity
  8
0
  6
CONTINUOUS
100
AcDbLine
 10
30.74199999996924
 20
2.992085361546236
 30
0.0
 11
29.30199999996933
 21
4.432085361546148
 31
0.0
  0
LINE
  5
BB34
330
BAEB
100
AcDbEntity
  8
0
  6
CONTINUOUS
100
AcDbLine
 10
30.74199999996924
 20
3.665604570626419
 30
0.0
 11
29.30199999996933
 21
5.105604570626333
 31
0.0
  0
LINE
  5
BB35
330
BAEB
100
AcDbEntity
  8
0
  6
CONTINUOUS
100
AcDbLine
 10
30.74199999996925
 20
4.339123779706602
 30
0.0
 11
29.30199999996933
 21
5.77912377970652
 31
0.0
  0
LINE
  5
BB36
330
BAEB
100
AcDbEntity
  8
0
  6
CONTINUOUS
100
AcDbLine
 10
30.74199999996925
 20
5.012642988786785
 30
0.0
 11
29.30199999996933
 21
6.452642988786707
 31
0.0
  0
LINE
  5
BB37
330
BAEB
100
AcDbEntity
  8
0
  6
CONTINUOUS
100
AcDbLine
 10
30.74199999996925
 20
5.68616219786697
 30
0.0
 11
29.30199999996933
 21
7.126162197866894
 31
0.0
  0
LINE
  5
BB38
330
BAEB
100
AcDbEntity
  8
0
  6
CONTINUOUS
100
AcDbLine
 10
30.74199999996925
 20
6.359681406947153
 30
0.0
 11
29.30199999996933
 21
7.799681406947081
 31
0.0
  0
LINE
  5
BB39
330
BAEB
100
AcDbEntity
  8
0
  6
CONTINUOUS
100
AcDbLine
 10
30.74199999996926
 20
7.033200616027337
 30
0.0
 11
29.30199999996933
 21
8.473200616027269
 31
0.0
  0
LINE
  5
BB3A
330
BAEB
100
AcDbEntity
  8
0
  6
CONTINUOUS
100
AcDbLine
 10
30.74199999996926
 20
7.706719825107518
 30
0.0
 11
29.68561982508552
 21
8.763099999991255
 31
0.0
  0
LINE
  5
BB3B
330
BAEB
100
AcDbEntity
  8
0
  6
CONTINUOUS
100
AcDbLine
 10
30.74199999996926
 20
8.380239034187703
 30
0.0
 11
30.35913903416571
 21
8.763099999991255
 31
0.0
  0
ENDBLK
  5
BBDE
330
BAEB
100
AcDbEntity
  8
0
100
AcDbBlockEnd
  0
BLOCK
  5
BBDF
330
BB3C
100
AcDbEntity
  8
0
100
AcDbBlockBegin
  2
*X28
 70
     1
 10
0.0
 20
0.0
 30
0.0
  3
*X28
  1

  0
LINE
  5
BB3D
330
BB3C
100
AcDbEntity
  8
0
  6
CONTINUOUS
100
AcDbLine
 10
31.64199999996833
 20
8.535058289913598
 30
0.0
 11
31.87004171004599
 21
8.763099999991255
 31
0.0
  0
LINE
  5
BB3E
330
BB3C
100
AcDbEntity
  8
0
  6
CONTINUOUS
100
AcDbLine
 10
31.64199999996833
 20
7.861539080833412
 30
0.0
 11
32.54356091912618
 21
8.763099999991255
 31
0.0
  0
LINE
  5
BB3F
330
BB3C
100
AcDbEntity
  8
0
  6
CONTINUOUS
100
AcDbLine
 10
31.64199999996833
 20
7.188019871753226
 30
0.0
 11
33.08199999996839
 21
8.628019871753281
 31
0.0
  0
LINE
  5
BB40
330
BB3C
100
AcDbEntity
  8
0
  6
CONTINUOUS
100
AcDbLine
 10
31.64199999996833
 20
6.51450066267304
 30
0.0
 11
33.08199999996839
 21
7.954500662673095
 31
0.0
  0
LINE
  5
BB41
330
BB3C
100
AcDbEntity
  8
0
  6
CONTINUOUS
100
AcDbLine
 10
31.64199999996833
 20
5.840981453592853
 30
0.0
 11
33.08199999996839
 21
7.280981453592908
 31
0.0
  0
LINE
  5
BB42
330
BB3C
100
AcDbEntity
  8
0
  6
CONTINUOUS
100
AcDbLine
 10
31.64199999996833
 20
5.167462244512667
 30
0.0
 11
33.08199999996839
 21
6.607462244512721
 31
0.0
  0
LINE
  5
BB43
330
BB3C
100
AcDbEntity
  8
0
  6
CONTINUOUS
100
AcDbLine
 10
31.64199999996833
 20
4.493943035432481
 30
0.0
 11
33.08199999996839
 21
5.933943035432535
 31
0.0
  0
LINE
  5
BB44
330
BB3C
100
AcDbEntity
  8
0
  6
CONTINUOUS
100
AcDbLine
 10
31.64199999996833
 20
3.820423826352293
 30
0.0
 11
33.08199999996839
 21
5.260423826352348
 31
0.0
  0
LINE
  5
BB45
330
BB3C
100
AcDbEntity
  8
0
  6
CONTINUOUS
100
AcDbLine
 10
31.64199999996833
 20
3.146904617272106
 30
0.0
 11
33.08199999996839
 21
4.586904617272161
 31
0.0
  0
LINE
  5
BB46
330
BB3C
100
AcDbEntity
  8
0
  6
CONTINUOUS
100
AcDbLine
 10
36.23199999996837
 20
8.410423826352325
 30
0.0
 11
36.5846761736073
 21
8.763099999991255
 31
0.0
  0
LINE
  5
BB47
330
BB3C
100
AcDbEntity
  8
0
  6
CONTINUOUS
100
AcDbLine
 10
36.23199999996837
 20
7.73690461727214
 30
0.0
 11
37.25819538268748
 21
8.763099999991255
 31
0.0
  0
LINE
  5
BB48
330
BB3C
100
AcDbEntity
  8
0
  6
CONTINUOUS
100
AcDbLine
 10
31.64257403601376
 20
2.473959444237348
 30
0.0
 11
33.08199999996839
 21
3.913385408191974
 31
0.0
  0
LINE
  5
BB49
330
BB3C
100
AcDbEntity
  8
0
  6
CONTINUOUS
100
AcDbLine
 10
36.23199999996837
 20
7.063385408191953
 30
0.0
 11
37.67199999996831
 21
8.503385408191894
 31
0.0
  0
LINE
  5
BB4A
330
BB3C
100
AcDbEntity
  8
0
  6
CONTINUOUS
100
AcDbLine
 10
31.72013636841932
 20
1.87800256756272
 30
0.0
 11
33.08199999996839
 21
3.239866199111788
 31
0.0
  0
LINE
  5
BB4B
330
BB3C
100
AcDbEntity
  8
0
  6
CONTINUOUS
100
AcDbLine
 10
36.23199999996837
 20
6.389866199111767
 30
0.0
 11
37.67199999996831
 21
7.829866199111708
 31
0.0
  0
LINE
  5
BB4C
330
BB3C
100
AcDbEntity
  8
0
  6
CONTINUOUS
100
AcDbLine
 10
31.89042734314753
 20
1.374774333210744
 30
0.0
 11
33.08199999996839
 21
2.566346990031601
 31
0.0
  0
LINE
  5
BB4D
330
BB3C
100
AcDbEntity
  8
0
  6
CONTINUOUS
100
AcDbLine
 10
36.23199999996837
 20
5.71634699003158
 30
0.0
 11
37.67199999996831
 21
7.156346990031521
 31
0.0
  0
LINE
  5
BB4E
330
BB3C
100
AcDbEntity
  8
0
  6
CONTINUOUS
100
AcDbLine
 10
32.14210568064475
 20
0.952933461627778
 30
0.0
 11
33.18745552475986
 21
1.998283305742888
 31
0.0
  0
LINE
  5
BB4F
330
BB3C
100
AcDbEntity
  8
0
  6
CONTINUOUS
100
AcDbLine
 10
36.23199999996837
 20
5.042827780951393
 30
0.0
 11
37.67199999996831
 21
6.482827780951334
 31
0.0
  0
LINE
  5
BB50
330
BB3C
100
AcDbEntity
  8
0
  6
CONTINUOUS
100
AcDbLine
 10
32.45820639400955
 20
0.5955149659123915
 30
0.0
 11
33.47242681921943
 21
1.60973539112227
 31
0.0
  0
LINE
  5
BB51
330
BB3C
100
AcDbEntity
  8
0
  6
CONTINUOUS
100
AcDbLine
 10
36.23199999996837
 20
4.369308571871207
 30
0.0
 11
37.67199999996831
 21
5.809308571871147
 31
0.0
  0
LINE
  5
BB52
330
BB3C
100
AcDbEntity
  8
0
  6
CONTINUOUS
100
AcDbLine
 10
32.83432456621412
 20
0.2981139290367771
 30
0.0
 11
33.89722476612215
 21
1.361014128944803
 31
0.0
  0
LINE
  5
BB53
330
BB3C
100
AcDbEntity
  8
0
  6
CONTINUOUS
100
AcDbLine
 10
36.23199999996837
 20
3.69578936279102
 30
0.0
 11
37.67199999996831
 21
5.135789362790962
 31
0.0
  0
LINE
  5
BB54
330
BB3C
100
AcDbEntity
  8
0
  6
CONTINUOUS
100
AcDbLine
 10
33.2711633111245
 20
0.0614334648669672
 30
0.0
 11
34.43247338014423
 21
1.222743533886696
 31
0.0
  0
LINE
  5
BB55
330
BB3C
100
AcDbEntity
  8
0
  6
CONTINUOUS
100
AcDbLine
 10
36.23199999996837
 20
3.022270153710834
 30
0.0
 11
37.67199999996831
 21
4.462270153710775
 31
0.0
  0
LINE
  5
BB56
330
BB3C
100
AcDbEntity
  8
0
  6
CONTINUOUS
100
AcDbLine
 10
33.76515245874577
 20
-0.1180965965919523
 30
0.0
 11
35.1587445516215
 21
1.27549549628378
 31
0.0
  0
LINE
  5
BB57
330
BB3C
100
AcDbEntity
  8
0
  6
CONTINUOUS
100
AcDbLine
 10
36.21639478609585
 20
2.333145730758136
 30
0.0
 11
37.67199999996831
 21
3.788750944630588
 31
0.0
  0
LINE
  5
BB58
330
BB3C
100
AcDbEntity
  8
0
  6
CONTINUOUS
100
AcDbLine
 10
34.34060583368432
 20
-0.2161624307335863
 30
0.0
 11
37.67199999996831
 21
3.115231735550401
 31
0.0
  0
LINE
  5
BB59
330
BB3C
100
AcDbEntity
  8
0
  6
CONTINUOUS
100
AcDbLine
 10
35.01698193613905
 20
-0.2133055373590427
 30
0.0
 11
37.66876712070525
 21
2.438479647207154
 31
0.0
  0
LINE
  5
BB5A
330
BB3C
100
AcDbEntity
  8
0
  6
CONTINUOUS
100
AcDbLine
 10
35.90743367693304
 20
0.0036269943547609
 30
0.0
 11
37.51723902192366
 21
1.613432339345381
 31
0.0
  0
LINE
  5
BB5B
330
BB3C
100
AcDbEntity
  8
0
  6
CONTINUOUS
100
AcDbLine
 10
32.55309425579761
 20
0.5074718966376706
 30
0.0
 11
32.27784730925847
 21
0.7827188431768102
 31
0.0
  0
LINE
  5
BB5C
330
BB3C
100
AcDbEntity
  8
0
  6
CONTINUOUS
100
AcDbLine
 10
33.87496468909684
 20
-0.1408793275813673
 30
0.0
 11
31.67993083278052
 21
2.054154528734943
 31
0.0
  0
LINE
  5
BB5D
330
BB3C
100
AcDbEntity
  8
0
  6
CONTINUOUS
100
AcDbLine
 10
34.64362813207632
 20
-0.2360235614806649
 30
0.0
 11
31.64199999996833
 21
2.765604570627322
 31
0.0
  0
LINE
  5
BB5E
330
BB3C
100
AcDbEntity
  8
0
  6
CONTINUOUS
100
AcDbLine
 10
35.25801106796118
 20
-0.1768872882853429
 30
0.0
 11
31.64199999996833
 21
3.439123779707508
 31
0.0
  0
LINE
  5
BB5F
330
BB3C
100
AcDbEntity
  8
0
  6
CONTINUOUS
100
AcDbLine
 10
35.79065650332146
 20
-0.0360135145654361
 30
0.0
 11
34.54143210838231
 21
1.213210880373721
 31
0.0
  0
LINE
  5
BB60
330
BB3C
100
AcDbEntity
  8
0
  6
CONTINUOUS
100
AcDbLine
 10
33.08199999996839
 20
2.67264298878764
 30
0.0
 11
31.64199999996833
 21
4.112642988787695
 31
0.0
  0
LINE
  5
BB61
330
BB3C
100
AcDbEntity
  8
0
  6
CONTINUOUS
100
AcDbLine
 10
36.25975597779143
 20
0.1684062200447833
 30
0.0
 11
35.15395110240023
 21
1.274211095435983
 31
0.0
  0
LINE
  5
BB62
330
BB3C
100
AcDbEntity
  8
0
  6
CONTINUOUS
100
AcDbLine
 10
33.08199999996839
 20
3.346162197867826
 30
0.0
 11
31.64199999996833
 21
4.786162197867881
 31
0.0
  0
LINE
  5
BB63
330
BB3C
100
AcDbEntity
  8
0
  6
CONTINUOUS
100
AcDbLine
 10
36.67226329638774
 20
0.4294181105286579
 30
0.0
 11
35.63766478748767
 21
1.464016619428737
 31
0.0
  0
LINE
  5
BB64
330
BB3C
100
AcDbEntity
  8
0
  6
CONTINUOUS
100
AcDbLine
 10
33.08199999996839
 20
4.019681406948012
 30
0.0
 11
31.64199999996833
 21
5.459681406948068
 31
0.0
  0
LINE
  5
BB65
330
BB3C
100
AcDbEntity
  8
0
  6
CONTINUOUS
100
AcDbLine
 10
37.01677749710036
 20
0.7584231188962329
 30
0.0
 11
35.99563422741351
 21
1.779566388583076
 31
0.0
  0
LINE
  5
BB66
330
BB3C
100
AcDbEntity
  8
0
  6
CONTINUOUS
100
AcDbLine
 10
33.08199999996839
 20
4.693200616028199
 30
0.0
 11
31.64199999996833
 21
6.133200616028255
 31
0.0
  0
LINE
  5
BB67
330
BB3C
100
AcDbEntity
  8
0
  6
CONTINUOUS
100
AcDbLine
 10
37.29859977568887
 20
1.1501200493879
 30
0.0
 11
36.20680593341555
 21
2.241913891661226
 31
0.0
  0
LINE
  5
BB68
330
BB3C
100
AcDbEntity
  8
0
  6
CONTINUOUS
100
AcDbLine
 10
33.08199999996839
 20
5.366719825108386
 30
0.0
 11
31.64199999996833
 21
6.80671982510844
 31
0.0
  0
LINE
  5
BB69
330
BB3C
100
AcDbEntity
  8
0
  6
CONTINUOUS
100
AcDbLine
 10
37.5148623517228
 20
1.607376682434161
 30
0.0
 11
36.23199999996837
 21
2.890239034188594
 31
0.0
  0
LINE
  5
BB6A
330
BB3C
100
AcDbEntity
  8
0
  6
CONTINUOUS
100
AcDbLine
 10
33.08199999996839
 20
6.040239034188573
 30
0.0
 11
31.64199999996833
 21
7.480239034188627
 31
0.0
  0
LINE
  5
BB6B
330
BB3C
100
AcDbEntity
  8
0
  6
CONTINUOUS
100
AcDbLine
 10
37.64705163358367
 20
2.148706609653477
 30
0.0
 11
36.23199999996837
 21
3.56375824326878
 31
0.0
  0
LINE
  5
BB6C
330
BB3C
100
AcDbEntity
  8
0
  6
CONTINUOUS
100
AcDbLine
 10
33.08199999996839
 20
6.713758243268758
 30
0.0
 11
31.64199999996833
 21
8.153758243268815
 31
0.0
  0
LINE
  5
BB6D
330
BB3C
100
AcDbEntity
  8
0
  6
CONTINUOUS
100
AcDbLine
 10
37.67199999996831
 20
2.797277452349026
 30
0.0
 11
36.23199999996837
 21
4.237277452348967
 31
0.0
  0
LINE
  5
BB6E
330
BB3C
100
AcDbEntity
  8
0
  6
CONTINUOUS
100
AcDbLine
 10
37.67199999996831
 20
3.470796661429213
 30
0.0
 11
36.23199999996837
 21
4.910796661429154
 31
0.0
  0
LINE
  5
BB6F
330
BB3C
100
AcDbEntity
  8
0
  6
CONTINUOUS
100
AcDbLine
 10
37.67199999996831
 20
4.144315870509399
 30
0.0
 11
36.23199999996837
 21
5.58431587050934
 31
0.0
  0
LINE
  5
BB70
330
BB3C
100
AcDbEntity
  8
0
  6
CONTINUOUS
100
AcDbLine
 10
33.08199999996839
 20
7.387277452348945
 30
0.0
 11
31.70617745232608
 21
8.763099999991255
 31
0.0
  0
LINE
  5
BB71
330
BB3C
100
AcDbEntity
  8
0
  6
CONTINUOUS
100
AcDbLine
 10
33.08199999996839
 20
8.060796661429132
 30
0.0
 11
32.37969666140626
 21
8.763099999991255
 31
0.0
  0
LINE
  5
BB72
330
BB3C
100
AcDbEntity
  8
0
  6
CONTINUOUS
100
AcDbLine
 10
33.08199999996839
 20
8.734315870509318
 30
0.0
 11
33.05321587048645
 21
8.763099999991255
 31
0.0
  0
LINE
  5
BB73
330
BB3C
100
AcDbEntity
  8
0
  6
CONTINUOUS
100
AcDbLine
 10
37.67199999996831
 20
4.817835079589585
 30
0.0
 11
36.23199999996837
 21
6.257835079589526
 31
0.0
  0
LINE
  5
BB74
330
BB3C
100
AcDbEntity
  8
0
  6
CONTINUOUS
100
AcDbLine
 10
37.67199999996831
 20
5.491354288669771
 30
0.0
 11
36.23199999996837
 21
6.931354288669713
 31
0.0
  0
LINE
  5
BB75
330
BB3C
100
AcDbEntity
  8
0
  6
CONTINUOUS
100
AcDbLine
 10
37.67199999996831
 20
6.164873497749958
 30
0.0
 11
36.23199999996837
 21
7.6048734977499
 31
0.0
  0
LINE
  5
BB76
330
BB3C
100
AcDbEntity
  8
0
  6
CONTINUOUS
100
AcDbLine
 10
37.67199999996831
 20
6.838392706830144
 30
0.0
 11
36.23199999996837
 21
8.278392706830086
 31
0.0
  0
LINE
  5
BB77
330
BB3C
100
AcDbEntity
  8
0
  6
CONTINUOUS
100
AcDbLine
 10
37.67199999996831
 20
7.511911915910332
 30
0.0
 11
36.42081191588738
 21
8.763099999991255
 31
0.0
  0
LINE
  5
BB78
330
BB3C
100
AcDbEntity
  8
0
  6
CONTINUOUS
100
AcDbLine
 10
37.67199999996831
 20
8.185431124990519
 30
0.0
 11
37.09433112496757
 21
8.763099999991255
 31
0.0
  0
ENDBLK
  5
BBE0
330
BB3C
100
AcDbEntity
  8
0
100
AcDbBlockEnd
  0
BLOCK
  5
BBE1
330
BB79
100
AcDbEntity
  8
0
100
AcDbBlockBegin
  2
*X29
 70
     1
 10
0.0
 20
0.0
 30
0.0
  3
*X29
  1

  0
LINE
  5
BB7A
330
BB79
100
AcDbEntity
  8
0
  6
CONTINUOUS
100
AcDbLine
 10
38.60499999996136
 20
8.762866199104765
 30
0.0
 11
38.71672554182345
 21
8.874591740966855
 31
0.0
  0
LINE
  5
BB7B
330
BB79
100
AcDbEntity
  8
0
  6
CONTINUOUS
100
AcDbLine
 10
38.60499999996136
 20
8.089346990024577
 30
0.0
 11
39.03418785440363
 21
8.518534844466847
 31
0.0
  0
LINE
  5
BB7C
330
BB79
100
AcDbEntity
  8
0
  6
CONTINUOUS
100
AcDbLine
 10
38.60499999996136
 20
7.41582778094439
 30
0.0
 11
39.35165016698382
 21
8.16247794796684
 31
0.0
  0
LINE
  5
BB7D
330
BB79
100
AcDbEntity
  8
0
  6
CONTINUOUS
100
AcDbLine
 10
38.60499999996136
 20
6.742308571864204
 30
0.0
 11
39.66911247956399
 21
7.806421051466834
 31
0.0
  0
LINE
  5
BB7E
330
BB79
100
AcDbEntity
  8
0
  6
CONTINUOUS
100
AcDbLine
 10
38.60499999996136
 20
6.068789362784018
 30
0.0
 11
39.98657479214418
 21
7.450364154966827
 31
0.0
  0
LINE
  5
BB7F
330
BB79
100
AcDbEntity
  8
0
  6
CONTINUOUS
100
AcDbLine
 10
38.60499999996136
 20
5.395270153703832
 30
0.0
 11
40.30403710472435
 21
7.09430725846682
 31
0.0
  0
LINE
  5
BB80
330
BB79
100
AcDbEntity
  8
0
  6
CONTINUOUS
100
AcDbLine
 10
38.60499999996136
 20
4.721750944623645
 30
0.0
 11
40.62149941730453
 21
6.738250361966813
 31
0.0
  0
LINE
  5
BB81
330
BB79
100
AcDbEntity
  8
0
  6
CONTINUOUS
100
AcDbLine
 10
38.60499999996136
 20
4.048231735543458
 30
0.0
 11
40.93896172988471
 21
6.382193465466806
 31
0.0
  0
LINE
  5
BB82
330
BB79
100
AcDbEntity
  8
0
  6
CONTINUOUS
100
AcDbLine
 10
38.60499999996136
 20
3.374712526463272
 30
0.0
 11
40.02599999995994
 21
4.795712526461843
 31
0.0
  0
LINE
  5
BB83
330
BB79
100
AcDbEntity
  8
0
  6
CONTINUOUS
100
AcDbLine
 10
38.60499999996136
 20
2.701193317383085
 30
0.0
 11
40.02599999995994
 21
4.122193317381657
 31
0.0
  0
LINE
  5
BB84
330
BB79
100
AcDbEntity
  8
0
  6
CONTINUOUS
100
AcDbLine
 10
40.28339754687704
 20
5.053110073378947
 30
0.0
 11
41.25642404246489
 21
6.026136568966799
 31
0.0
  0
LINE
  5
BB85
330
BB79
100
AcDbEntity
  8
0
  6
CONTINUOUS
100
AcDbLine
 10
40.60085985945722
 20
4.697053176878939
 30
0.0
 11
41.57388635504507
 21
5.670079672466793
 31
0.0
  0
LINE
  5
BB86
330
BB79
100
AcDbEntity
  8
0
  6
CONTINUOUS
100
AcDbLine
 10
43.57899999995641
 20
8.348712526458318
 30
0.0
 11
43.99338747348935
 21
8.763099999991255
 31
0.0
  0
LINE
  5
BB87
330
BB79
100
AcDbEntity
  8
0
  6
CONTINUOUS
100
AcDbLine
 10
43.57899999995641
 20
7.675193317378131
 30
0.0
 11
44.66690668256953
 21
8.763099999991255
 31
0.0
  0
LINE
  5
BB88
330
BB79
100
AcDbEntity
  8
0
  6
CONTINUOUS
100
AcDbLine
 10
38.60499999996136
 20
2.027674108302898
 30
0.0
 11
40.02599999995994
 21
3.44867410830147
 31
0.0
  0
LINE
  5
BB89
330
BB79
100
AcDbEntity
  8
0
  6
CONTINUOUS
100
AcDbLine
 10
38.60499999996136
 20
1.354154899222712
 30
0.0
 11
40.02599999995994
 21
2.775154899221284
 31
0.0
  0
LINE
  5
BB8A
330
BB79
100
AcDbEntity
  8
0
  6
CONTINUOUS
100
AcDbLine
 10
38.60499999996136
 20
0.6806356901425255
 30
0.0
 11
40.02599999995994
 21
2.101635690141098
 31
0.0
  0
LINE
  5
BB8B
330
BB79
100
AcDbEntity
  8
0
  6
CONTINUOUS
100
AcDbLine
 10
38.60499999996136
 20
0.0071164810623383
 30
0.0
 11
40.02599999995994
 21
1.428116481060911
 31
0.0
  0
LINE
  5
BB8C
330
BB79
100
AcDbEntity
  8
0
  6
CONTINUOUS
100
AcDbLine
 10
40.9183221720374
 20
4.340996280378933
 30
0.0
 11
41.89134866762525
 21
5.314022775966786
 31
0.0
  0
LINE
  5
BB8D
330
BB79
100
AcDbEntity
  8
0
  6
CONTINUOUS
100
AcDbLine
 10
41.23578448461758
 20
3.984939383878926
 30
0.0
 11
42.20881098020543
 21
4.957965879466778
 31
0.0
  0
LINE
  5
BB8E
330
BB79
100
AcDbEntity
  8
0
  6
CONTINUOUS
100
AcDbLine
 10
41.55324679719776
 20
3.628882487378919
 30
0.0
 11
42.52627329278561
 21
4.601908982966772
 31
0.0
  0
LINE
  5
BB8F
330
BB79
100
AcDbEntity
  8
0
  6
CONTINUOUS
100
AcDbLine
 10
41.87070910977793
 20
3.272825590878912
 30
0.0
 11
42.84373560536579
 21
4.245852086466765
 31
0.0
  0
LINE
  5
BB90
330
BB79
100
AcDbEntity
  8
0
  6
CONTINUOUS
100
AcDbLine
 10
43.57899999995641
 20
7.001674108297943
 30
0.0
 11
44.99999999995498
 21
8.422674108296516
 31
0.0
  0
LINE
  5
BB91
330
BB79
100
AcDbEntity
  8
0
  6
CONTINUOUS
100
AcDbLine
 10
43.57899999995641
 20
6.328154899217758
 30
0.0
 11
44.99999999995498
 21
7.749154899216329
 31
0.0
  0
LINE
  5
BB92
330
BB79
100
AcDbEntity
  8
0
  6
CONTINUOUS
100
AcDbLine
 10
43.57899999995641
 20
5.654635690137571
 30
0.0
 11
44.99999999995498
 21
7.075635690136142
 31
0.0
  0
LINE
  5
BB93
330
BB79
100
AcDbEntity
  8
0
  6
CONTINUOUS
100
AcDbLine
 10
43.57899999995641
 20
4.981116481057384
 30
0.0
 11
44.99999999995498
 21
6.402116481055955
 31
0.0
  0
LINE
  5
BB94
330
BB79
100
AcDbEntity
  8
0
  6
CONTINUOUS
100
AcDbLine
 10
39.27140272797921
 20
-0.0000000000000009
 30
0.0
 11
40.02599999995994
 21
0.7545972719807246
 31
0.0
  0
LINE
  5
BB95
330
BB79
100
AcDbEntity
  8
0
  6
CONTINUOUS
100
AcDbLine
 10
39.9449219370594
 20
-0.0000000000000009
 30
0.0
 11
40.02599999995994
 21
0.0810780629005379
 31
0.0
  0
LINE
  5
BB96
330
BB79
100
AcDbEntity
  8
0
  6
CONTINUOUS
100
AcDbLine
 10
42.18817142235812
 20
2.916768694378905
 30
0.0
 11
43.16119791794597
 21
3.889795189966758
 31
0.0
  0
LINE
  5
BB97
330
BB79
100
AcDbEntity
  8
0
  6
CONTINUOUS
100
AcDbLine
 10
42.50563373493829
 20
2.560711797878898
 30
0.0
 11
43.47866023052615
 21
3.533738293466751
 31
0.0
  0
LINE
  5
BB98
330
BB79
100
AcDbEntity
  8
0
  6
CONTINUOUS
100
AcDbLine
 10
43.57899999995641
 20
4.307597271977198
 30
0.0
 11
44.99999999995498
 21
5.728597271975769
 31
0.0
  0
LINE
  5
BB99
330
BB79
100
AcDbEntity
  8
0
  6
CONTINUOUS
100
AcDbLine
 10
43.57899999995641
 20
3.634078062897011
 30
0.0
 11
44.99999999995498
 21
5.055078062895582
 31
0.0
  0
LINE
  5
BB9A
330
BB79
100
AcDbEntity
  8
0
  6
CONTINUOUS
100
AcDbLine
 10
42.82309604751848
 20
2.204654901378891
 30
0.0
 11
44.99999999995498
 21
4.381558853815395
 31
0.0
  0
LINE
  5
BB9B
330
BB79
100
AcDbEntity
  8
0
  6
CONTINUOUS
100
AcDbLine
 10
43.14055836009865
 20
1.848598004878885
 30
0.0
 11
44.99999999995498
 21
3.70803964473521
 31
0.0
  0
LINE
  5
BB9C
330
BB79
100
AcDbEntity
  8
0
  6
CONTINUOUS
100
AcDbLine
 10
43.45802067267883
 20
1.492541108378878
 30
0.0
 11
44.99999999995498
 21
3.034520435655023
 31
0.0
  0
LINE
  5
BB9D
330
BB79
100
AcDbEntity
  8
0
  6
CONTINUOUS
100
AcDbLine
 10
43.77548298525902
 20
1.136484211878871
 30
0.0
 11
44.99999999995498
 21
2.361001226574837
 31
0.0
  0
LINE
  5
BB9E
330
BB79
100
AcDbEntity
  8
0
  6
CONTINUOUS
100
AcDbLine
 10
44.09294529783919
 20
0.7804273153788639
 30
0.0
 11
44.99999999995498
 21
1.687482017494649
 31
0.0
  0
LINE
  5
BB9F
330
BB79
100
AcDbEntity
  8
0
  6
CONTINUOUS
100
AcDbLine
 10
44.41040761041938
 20
0.4243704188788566
 30
0.0
 11
44.99999999995498
 21
1.013962808414463
 31
0.0
  0
LINE
  5
BBA0
330
BB79
100
AcDbEntity
  8
0
  6
CONTINUOUS
100
AcDbLine
 10
44.72786992299955
 20
0.0683135223788494
 30
0.0
 11
44.99999999995498
 21
0.340443599334276
 31
0.0
  0
LINE
  5
BBA1
330
BB79
100
AcDbEntity
  8
0
  6
CONTINUOUS
100
AcDbLine
 10
39.12223903415696
 20
-0.0000000000000009
 30
0.0
 11
38.60499999996136
 21
0.5172390341955961
 31
0.0
  0
LINE
  5
BBA2
330
BB79
100
AcDbEntity
  8
0
  6
CONTINUOUS
100
AcDbLine
 10
39.79575824323715
 20
-0.0000000000000009
 30
0.0
 11
38.60499999996136
 21
1.190758243275783
 31
0.0
  0
LINE
  5
BBA3
330
BB79
100
AcDbEntity
  8
0
  6
CONTINUOUS
100
AcDbLine
 10
40.02599999995994
 20
0.443277452357397
 30
0.0
 11
38.60499999996136
 21
1.864277452355969
 31
0.0
  0
LINE
  5
BBA4
330
BB79
100
AcDbEntity
  8
0
  6
CONTINUOUS
100
AcDbLine
 10
40.02599999995994
 20
1.116796661437583
 30
0.0
 11
38.60499999996136
 21
2.537796661436155
 31
0.0
  0
LINE
  5
BBA5
330
BB79
100
AcDbEntity
  8
0
  6
CONTINUOUS
100
AcDbLine
 10
40.02599999995994
 20
1.79031587051777
 30
0.0
 11
38.60499999996136
 21
3.211315870516341
 31
0.0
  0
LINE
  5
BBA6
330
BB79
100
AcDbEntity
  8
0
  6
CONTINUOUS
100
AcDbLine
 10
40.02599999995994
 20
2.463835079597956
 30
0.0
 11
38.60499999996136
 21
3.884835079596527
 31
0.0
  0
LINE
  5
BBA7
330
BB79
100
AcDbEntity
  8
0
  6
CONTINUOUS
100
AcDbLine
 10
40.02599999995994
 20
3.137354288678143
 30
0.0
 11
38.60499999996136
 21
4.558354288676714
 31
0.0
  0
LINE
  5
BBA8
330
BB79
100
AcDbEntity
  8
0
  6
CONTINUOUS
100
AcDbLine
 10
40.02599999995994
 20
3.810873497758329
 30
0.0
 11
38.60499999996136
 21
5.2318734977569
 31
0.0
  0
LINE
  5
BBA9
330
BB79
100
AcDbEntity
  8
0
  6
CONTINUOUS
100
AcDbLine
 10
40.02599999995994
 20
4.484392706838515
 30
0.0
 11
38.60499999996136
 21
5.905392706837086
 31
0.0
  0
LINE
  5
BBAA
330
BB79
100
AcDbEntity
  8
0
  6
CONTINUOUS
100
AcDbLine
 10
44.99999999995498
 20
0.183911915923658
 30
0.0
 11
41.53858364506288
 21
3.64532827081576
 31
0.0
  0
LINE
  5
BBAB
330
BB79
100
AcDbEntity
  8
0
  6
CONTINUOUS
100
AcDbLine
 10
40.02599999995994
 20
5.157911915918703
 30
0.0
 11
38.60499999996136
 21
6.578911915917274
 31
0.0
  0
LINE
  5
BBAC
330
BB79
100
AcDbEntity
  8
0
  6
CONTINUOUS
100
AcDbLine
 10
44.99999999995498
 20
0.8574311250038447
 30
0.0
 11
38.60499999996136
 21
7.25243112499746
 31
0.0
  0
LINE
  5
BBAD
330
BB79
100
AcDbEntity
  8
0
  6
CONTINUOUS
100
AcDbLine
 10
44.99999999995498
 20
1.530950334084031
 30
0.0
 11
38.60499999996136
 21
7.925950334077647
 31
0.0
  0
LINE
  5
BBAE
330
BB79
100
AcDbEntity
  8
0
  6
CONTINUOUS
100
AcDbLine
 10
44.99999999995498
 20
2.204469543164218
 30
0.0
 11
43.57899999995641
 21
3.625469543162789
 31
0.0
  0
LINE
  5
BBAF
330
BB79
100
AcDbEntity
  8
0
  6
CONTINUOUS
100
AcDbLine
 10
41.89876730984767
 20
5.305702233271528
 30
0.0
 11
38.60499999996136
 21
8.599469543157834
 31
0.0
  0
LINE
  5
BBB0
330
BB79
100
AcDbEntity
  8
0
  6
CONTINUOUS
100
AcDbLine
 10
44.99999999995498
 20
2.877988752244405
 30
0.0
 11
43.57899999995641
 21
4.298988752242975
 31
0.0
  0
LINE
  5
BBB1
330
BB79
100
AcDbEntity
  8
0
  6
CONTINUOUS
100
AcDbLine
 10
44.99999999995498
 20
3.551507961324591
 30
0.0
 11
43.57899999995641
 21
4.972507961323163
 31
0.0
  0
LINE
  5
BBB2
330
BB79
100
AcDbEntity
  8
0
  6
CONTINUOUS
100
AcDbLine
 10
44.99999999995498
 20
4.225027170404777
 30
0.0
 11
43.57899999995641
 21
5.646027170403348
 31
0.0
  0
LINE
  5
BBB3
330
BB79
100
AcDbEntity
  8
0
  6
CONTINUOUS
100
AcDbLine
 10
44.99999999995498
 20
4.898546379484964
 30
0.0
 11
43.57899999995641
 21
6.319546379483535
 31
0.0
  0
LINE
  5
BBB4
330
BB79
100
AcDbEntity
  8
0
  6
CONTINUOUS
100
AcDbLine
 10
44.99999999995498
 20
5.572065588565151
 30
0.0
 11
43.57899999995641
 21
6.993065588563722
 31
0.0
  0
LINE
  5
BBB5
330
BB79
100
AcDbEntity
  8
0
  6
CONTINUOUS
100
AcDbLine
 10
44.99999999995498
 20
6.245584797645336
 30
0.0
 11
43.57899999995641
 21
7.666584797643908
 31
0.0
  0
LINE
  5
BBB6
330
BB79
100
AcDbEntity
  8
0
  6
CONTINUOUS
100
AcDbLine
 10
44.99999999995498
 20
6.919104006725522
 30
0.0
 11
43.57899999995641
 21
8.340104006724093
 31
0.0
  0
LINE
  5
BBB7
330
BB79
100
AcDbEntity
  8
0
  6
CONTINUOUS
100
AcDbLine
 10
44.99999999995498
 20
7.592623215805709
 30
0.0
 11
43.82952321576943
 21
8.763099999991255
 31
0.0
  0
LINE
  5
BBB8
330
BB79
100
AcDbEntity
  8
0
  6
CONTINUOUS
100
AcDbLine
 10
44.99999999995498
 20
8.266142424885896
 30
0.0
 11
44.50304242484962
 21
8.763099999991255
 31
0.0
  0
ENDBLK
  5
BBE2
330
BB79
100
AcDbEntity
  8
0
100
AcDbBlockEnd
  0
BLOCK
  5
BBE3
330
BBB9
100
AcDbEntity
  8
0
100
AcDbBlockBegin
  2
*X30
 70
     1
 10
0.0
 20
0.0
 30
0.0
  3
*X30
  1

  0
LINE
  5
BBBA
330
BBB9
100
AcDbEntity
  8
0
  6
CONTINUOUS
100
AcDbLine
 10
0.0
 20
8.548461116714023
 30
0.0
 11
0.2146388832772324
 21
8.763099999991255
 31
0.0
  0
LINE
  5
BBBB
330
BBB9
100
AcDbEntity
  8
0
  6
CONTINUOUS
100
AcDbLine
 10
-0.0000000000000002
 20
7.874941907633837
 30
0.0
 11
0.8881580923574184
 21
8.763099999991255
 31
0.0
  0
LINE
  5
BBBC
330
BBB9
100
AcDbEntity
  8
0
  6
CONTINUOUS
100
AcDbLine
 10
0.0
 20
7.20142269855365
 30
0.0
 11
1.420999999998572
 21
8.622422698552223
 31
0.0
  0
LINE
  5
BBBD
330
BBB9
100
AcDbEntity
  8
0
  6
CONTINUOUS
100
AcDbLine
 10
-0.0000000000000001
 20
6.527903489473465
 30
0.0
 11
1.420999999998571
 21
7.948903489472036
 31
0.0
  0
LINE
  5
BBBE
330
BBB9
100
AcDbEntity
  8
0
  6
CONTINUOUS
100
AcDbLine
 10
-0.0000000000000002
 20
5.854384280393278
 30
0.0
 11
1.420999999998571
 21
7.275384280391849
 31
0.0
  0
LINE
  5
BBBF
330
BBB9
100
AcDbEntity
  8
0
  6
CONTINUOUS
100
AcDbLine
 10
-0.0000000000000002
 20
5.180865071313091
 30
0.0
 11
1.420999999998571
 21
6.601865071311663
 31
0.0
  0
LINE
  5
BBC0
330
BBB9
100
AcDbEntity
  8
0
  6
CONTINUOUS
100
AcDbLine
 10
0.0
 20
4.507345862232905
 30
0.0
 11
1.420999999998571
 21
5.928345862231477
 31
0.0
  0
LINE
  5
BBC1
330
BBB9
100
AcDbEntity
  8
0
  6
CONTINUOUS
100
AcDbLine
 10
-0.0000000000000003
 20
3.833826653152718
 30
0.0
 11
1.420999999998571
 21
5.25482665315129
 31
0.0
  0
LINE
  5
BBC2
330
BBB9
100
AcDbEntity
  8
0
  6
CONTINUOUS
100
AcDbLine
 10
-0.0000000000000002
 20
3.160307444072532
 30
0.0
 11
1.420999999998571
 21
4.581307444071103
 31
0.0
  0
LINE
  5
BBC3
330
BBB9
100
AcDbEntity
  8
0
  6
CONTINUOUS
100
AcDbLine
 10
-0.0000000000000001
 20
2.486788234992345
 30
0.0
 11
1.420999999998571
 21
3.907788234990917
 31
0.0
  0
LINE
  5
BBC4
330
BBB9
100
AcDbEntity
  8
0
  6
CONTINUOUS
100
AcDbLine
 10
-0.0000000000000006
 20
1.813269025912159
 30
0.0
 11
1.420999999998571
 21
3.234269025910731
 31
0.0
  0
LINE
  5
BBC5
330
BBB9
100
AcDbEntity
  8
0
  6
CONTINUOUS
100
AcDbLine
 10
0.0
 20
1.139749816831973
 30
0.0
 11
1.420999999998571
 21
2.560749816830544
 31
0.0
  0
LINE
  5
BBC6
330
BBB9
100
AcDbEntity
  8
0
  6
CONTINUOUS
100
AcDbLine
 10
0.0000000000000002
 20
0.466230607751787
 30
0.0
 11
1.420999999998571
 21
1.887230607750358
 31
0.0
  0
LINE
  5
BBC7
330
BBB9
100
AcDbEntity
  8
0
  6
CONTINUOUS
100
AcDbLine
 10
0.2072886013284003
 20
-0.0000000000000009
 30
0.0
 11
1.420999999998571
 21
1.213711398670171
 31
0.0
  0
LINE
  5
BBC8
330
BBB9
100
AcDbEntity
  8
0
  6
CONTINUOUS
100
AcDbLine
 10
0.8808078104085864
 20
-0.0000000000000009
 30
0.0
 11
1.420999999998571
 21
0.5401921895899839
 31
0.0
  0
LINE
  5
BBC9
330
BBB9
100
AcDbEntity
  8
0
  6
CONTINUOUS
100
AcDbLine
 10
0.0581249075061505
 20
-0.0000000000000009
 30
0.0
 11
-0.0000000000000002
 21
0.0581249075061496
 31
0.0
  0
LINE
  5
BBCA
330
BBB9
100
AcDbEntity
  8
0
  6
CONTINUOUS
100
AcDbLine
 10
0.7316441165863372
 20
-0.0000000000000009
 30
0.0
 11
-0.0000000000000002
 21
0.7316441165863363
 31
0.0
  0
LINE
  5
BBCB
330
BBB9
100
AcDbEntity
  8
0
  6
CONTINUOUS
100
AcDbLine
 10
1.405163325666523
 20
-0.0000000000000009
 30
0.0
 11
-0.0000000000000002
 21
1.405163325666523
 31
0.0
  0
LINE
  5
BBCC
330
BBB9
100
AcDbEntity
  8
0
  6
CONTINUOUS
100
AcDbLine
 10
1.420999999998572
 20
0.6576825347481381
 30
0.0
 11
-0.0000000000000001
 21
2.07868253474671
 31
0.0
  0
LINE
  5
BBCD
330
BBB9
100
AcDbEntity
  8
0
  6
CONTINUOUS
100
AcDbLine
 10
1.420999999998571
 20
1.331201743828324
 30
0.0
 11
-0.0000000000000001
 21
2.752201743826896
 31
0.0
  0
LINE
  5
BBCE
330
BBB9
100
AcDbEntity
  8
0
  6
CONTINUOUS
100
AcDbLine
 10
1.420999999998571
 20
2.004720952908511
 30
0.0
 11
-0.0000000000000002
 21
3.425720952907082
 31
0.0
  0
LINE
  5
BBCF
330
BBB9
100
AcDbEntity
  8
0
  6
CONTINUOUS
100
AcDbLine
 10
1.420999999998571
 20
2.678240161988697
 30
0.0
 11
-0.0000000000000001
 21
4.099240161987269
 31
0.0
  0
LINE
  5
BBD0
330
BBB9
100
AcDbEntity
  8
0
  6
CONTINUOUS
100
AcDbLine
 10
1.420999999998572
 20
3.351759371068884
 30
0.0
 11
0.0
 21
4.772759371067455
 31
0.0
  0
LINE
  5
BBD1
330
BBB9
100
AcDbEntity
  8
0
  6
CONTINUOUS
100
AcDbLine
 10
1.420999999998571
 20
4.02527858014907
 30
0.0
 11
-0.0000000000000003
 21
5.446278580147642
 31
0.0
  0
LINE
  5
BBD2
330
BBB9
100
AcDbEntity
  8
0
  6
CONTINUOUS
100
AcDbLine
 10
1.420999999998571
 20
4.698797789229257
 30
0.0
 11
0.0
 21
6.119797789227828
 31
0.0
  0
LINE
  5
BBD3
330
BBB9
100
AcDbEntity
  8
0
  6
CONTINUOUS
100
AcDbLine
 10
1.420999999998571
 20
5.372316998309444
 30
0.0
 11
-0.0000000000000001
 21
6.793316998308015
 31
0.0
  0
LINE
  5
BBD4
330
BBB9
100
AcDbEntity
  8
0
  6
CONTINUOUS
100
AcDbLine
 10
1.420999999998572
 20
6.045836207389629
 30
0.0
 11
-0.0000000000000004
 21
7.466836207388202
 31
0.0
  0
LINE
  5
BBD5
330
BBB9
100
AcDbEntity
  8
0
  6
CONTINUOUS
100
AcDbLine
 10
1.420999999998571
 20
6.719355416469816
 30
0.0
 11
0.0
 21
8.140355416468388
 31
0.0
  0
LINE
  5
BBD6
330
BBB9
100
AcDbEntity
  8
0
  6
CONTINUOUS
100
AcDbLine
 10
1.420999999998571
 20
7.392874625550003
 30
0.0
 11
0.0507746255573185
 21
8.763099999991255
 31
0.0
  0
LINE
  5
BBD7
330
BBB9
100
AcDbEntity
  8
0
  6
CONTINUOUS
100
AcDbLine
 10
1.420999999998571
 20
8.06639383463019
 30
0.0
 11
0.7242938346375052
 21
8.763099999991255
 31
0.0
  0
LINE
  5
BBD8
330
BBB9
100
AcDbEntity
  8
0
  6
CONTINUOUS
100
AcDbLine
 10
1.420999999998571
 20
8.739913043710375
 30
0.0
 11
1.397813043717691
 21
8.763099999991255
 31
0.0
  0
ENDBLK
  5
BBE4
330
BBB9
100
AcDbEntity
  8
0
100
AcDbBlockEnd
  0
ENDSEC
  0
SECTION
  2
ENTITIES
  0
LINE
  5
9F18
330
18
100
AcDbEntity
  8
01
100
AcDbLine
 10
669.542553544245
 20
-102.0654748812831
 30
0.0
 11
669.542553544245
 21
-53.06631796810962
 31
0.0
  0
LINE
  5
9F19
330
18
100
AcDbEntity
  8
01
100
AcDbLine
 10
625.3425535442448
 20
-102.5654748812849
 30
0.0
 11
669.042553544245
 21
-102.5654748812831
 31
0.0
  0
ARC
  5
9F1A
330
18
100
AcDbEntity
  8
01
100
AcDbCircle
 10
669.042553544245
 20
-102.0654748812831
 30
0.0
 40
0.5
100
AcDbArc
 50
270.0
 51
0.0
  0
LINE
  5
9F1B
330
18
100
AcDbEntity
  8
01
100
AcDbLine
 10
625.3425535442448
 20
-52.56631796810871
 30
0.0
 11
669.042553544245
 21
-52.56631796810962
 31
0.0
  0
ARC
  5
9F1C
330
18
100
AcDbEntity
  8
01
100
AcDbCircle
 10
669.042553544245
 20
-53.06631796810962
 30
0.0
 40
0.5
100
AcDbArc
 50
0.0
 51
90.0
  0
LINE
  5
9F1D
330
18
100
AcDbEntity
  8
01
100
AcDbLine
 10
625.3425535442448
 20
-52.56631796810871
 30
0.0
 11
625.3425535442448
 21
-102.5654748812849
 31
0.0
  0
CIRCLE
  5
9F1E
330
18
100
AcDbEntity
  8
1HIDDEN
100
AcDbCircle
 10
434.5425535442415
 20
-74.97339139858059
 30
0.0
 40
2.25
  0
CIRCLE
  5
9F1F
330
18
100
AcDbEntity
  8
1HIDDEN
100
AcDbCircle
 10
404.5425535442415
 20
-74.97339139858514
 30
0.0
 40
2.25
  0
LINE
  5
9F20
330
18
100
AcDbEntity
  8
01
100
AcDbLine
 10
224.8425537015988
 20
-53.76547488128062
 30
0.0
 11
224.8425537015988
 21
-101.3654748812805
 31
0.0
  0
LINE
  5
9F21
330
18
100
AcDbEntity
  8
01
100
AcDbLine
 10
414.2425533868844
 20
-53.76547488128062
 30
0.0
 11
413.7425535442454
 21
-53.76547488128062
 31
0.0
  0
LINE
  5
9F22
330
18
100
AcDbEntity
  8
01
100
AcDbLine
 10
414.2425533868844
 20
-53.76547488128062
 30
0.0
 11
414.2425533868844
 21
-101.3654748812805
 31
0.0
  0
LINE
  5
9F23
330
18
100
AcDbEntity
  8
01
100
AcDbLine
 10
414.2425533868844
 20
-101.3654748812805
 30
0.0
 11
413.7425535442454
 21
-101.3654748812805
 31
0.0
  0
LINE
  5
9F24
330
18
100
AcDbEntity
  8
01
100
AcDbLine
 10
224.8425537015988
 20
-53.76547488128062
 30
0.0
 11
225.342553544238
 21
-53.76547488128062
 31
0.0
  0
LINE
  5
9F25
330
18
100
AcDbEntity
  8
01
100
AcDbLine
 10
224.8425537015988
 20
-101.3654748812805
 30
0.0
 11
225.342553544238
 21
-101.3654748812805
 31
0.0
  0
LINE
  5
9F26
330
18
100
AcDbEntity
  8
01
100
AcDbLine
 10
413.7425535442454
 20
-52.56547488128081
 30
0.0
 11
225.342553544238
 21
-52.56547488128081
 31
0.0
  0
LINE
  5
9F27
330
18
100
AcDbEntity
  8
01
100
AcDbLine
 10
413.7425535442449
 20
-102.5654748812808
 30
0.0
 11
225.342553544238
 21
-102.5654748812808
 31
0.0
  0
LINE
  5
9F28
330
18
100
AcDbEntity
  8
01
100
AcDbLine
 10
614.2425533868916
 20
-53.7584014508102
 30
0.0
 11
613.7425535442526
 21
-53.7584014508102
 31
0.0
  0
LINE
  5
9F29
330
18
100
AcDbEntity
  8
01
100
AcDbLine
 10
614.2425533868916
 20
-53.7584014508102
 30
0.0
 11
614.2425533868916
 21
-101.3584014508101
 31
0.0
  0
LINE
  5
9F2A
330
18
100
AcDbEntity
  8
01
100
AcDbLine
 10
614.2425533868916
 20
-101.3584014508101
 30
0.0
 11
613.7425535442526
 21
-101.3584014508101
 31
0.0
  0
LINE
  5
9F2B
330
18
100
AcDbEntity
  8
01
100
AcDbLine
 10
424.8425537016056
 20
-53.76631796810898
 30
0.0
 11
425.3425535442448
 21
-53.76631796810898
 31
0.0
  0
LINE
  5
9F2C
330
18
100
AcDbEntity
  8
01
100
AcDbLine
 10
424.8425537016056
 20
-53.76631796810898
 30
0.0
 11
424.8425537016056
 21
-101.3663179681089
 31
0.0
  0
LINE
  5
9F2D
330
18
100
AcDbEntity
  8
01
100
AcDbLine
 10
424.8425537016056
 20
-101.3663179681089
 30
0.0
 11
425.3425535442448
 21
-101.3663179681089
 31
0.0
  0
LINE
  5
9F2E
330
18
100
AcDbEntity
  8
01
100
AcDbLine
 10
613.7425535442533
 20
-52.56631796810916
 30
0.0
 11
425.3425535442448
 21
-52.56631796810916
 31
0.0
  0
LINE
  5
9F2F
330
18
100
AcDbEntity
  8
01
100
AcDbLine
 10
613.7425535442524
 20
-102.5663179681092
 30
0.0
 11
425.3425535442448
 21
-102.5663179681092
 31
0.0
  0
LINE
  5
9F30
330
18
100
AcDbEntity
  8
01
100
AcDbLine
 10
214.2425535442378
 20
-102.6736713980217
 30
0.0
 11
214.2425535442378
 21
-52.47451448484844
 31
0.0
  0
ARC
  5
9F31
330
18
100
AcDbEntity
  8
01
100
AcDbCircle
 10
214.7425535442374
 20
-52.47451448484844
 30
0.0
 40
0.5
100
AcDbArc
 50
90.0
 51
180.0
  0
LINE
  5
9F32
330
18
100
AcDbEntity
  8
01
100
AcDbLine
 10
224.8425535442383
 20
-102.6736713980217
 30
0.0
 11
224.8425535442383
 21
-52.47451448484844
 31
0.0
  0
ARC
  5
9F33
330
18
100
AcDbEntity
  8
01
100
AcDbCircle
 10
224.3425535442379
 20
-52.47451448484844
 30
0.0
 40
0.5
100
AcDbArc
 50
0.0
 51
90.0
  0
LINE
  5
9F34
330
18
100
AcDbEntity
  8
01
100
AcDbLine
 10
214.7425535442378
 20
-103.1736713980217
 30
0.0
 11
224.3425535442383
 21
-103.1736713980217
 31
0.0
  0
ARC
  5
9F35
330
18
100
AcDbEntity
  8
01
100
AcDbCircle
 10
224.3425535442383
 20
-102.6736713980217
 30
0.0
 40
0.5
100
AcDbArc
 50
270.0
 51
0.0
  0
ARC
  5
9F36
330
18
100
AcDbEntity
  8
01
100
AcDbCircle
 10
214.7425535442378
 20
-102.6736713980217
 30
0.0
 40
0.5
100
AcDbArc
 50
180.0
 51
270.0
  0
LINE
  5
9F37
330
18
100
AcDbEntity
  8
01
100
AcDbLine
 10
214.7425535442374
 20
-51.97451448484844
 30
0.0
 11
224.3425535442379
 21
-51.97451448484844
 31
0.0
  0
LINE
  5
9F38
330
18
100
AcDbEntity
  8
01
100
AcDbLine
 10
414.2425535442446
 20
-102.6736713980217
 30
0.0
 11
414.2425535442446
 21
-52.47451448484844
 31
0.0
  0
ARC
  5
9F39
330
18
100
AcDbEntity
  8
01
100
AcDbCircle
 10
414.7425535442442
 20
-52.47451448484844
 30
0.0
 40
0.5
100
AcDbArc
 50
90.0
 51
180.0
  0
LINE
  5
9F3A
330
18
100
AcDbEntity
  8
01
100
AcDbLine
 10
424.8425535442451
 20
-102.6736713980217
 30
0.0
 11
424.8425535442451
 21
-52.47451448484844
 31
0.0
  0
ARC
  5
9F3B
330
18
100
AcDbEntity
  8
01
100
AcDbCircle
 10
424.3425535442447
 20
-52.47451448484844
 30
0.0
 40
0.5
100
AcDbArc
 50
0.0
 51
90.0
  0
LINE
  5
9F3C
330
18
100
AcDbEntity
  8
01
100
AcDbLine
 10
414.7425535442446
 20
-103.1736713980217
 30
0.0
 11
424.3425535442451
 21
-103.1736713980217
 31
0.0
  0
ARC
  5
9F3D
330
18
100
AcDbEntity
  8
01
100
AcDbCircle
 10
424.3425535442451
 20
-102.6736713980217
 30
0.0
 40
0.5
100
AcDbArc
 50
270.0
 51
0.0
  0
ARC
  5
9F3E
330
18
100
AcDbEntity
  8
01
100
AcDbCircle
 10
414.7425535442446
 20
-102.6736713980217
 30
0.0
 40
0.5
100
AcDbArc
 50
180.0
 51
270.0
  0
LINE
  5
9F3F
330
18
100
AcDbEntity
  8
01
100
AcDbLine
 10
414.7425535442442
 20
-51.97451448484844
 30
0.0
 11
424.3425535442447
 21
-51.97451448484844
 31
0.0
  0
LINE
  5
9F40
330
18
100
AcDbEntity
  8
01
100
AcDbLine
 10
614.2425535442519
 20
-102.6657548807229
 30
0.0
 11
614.2425535442519
 21
-52.46659796754966
 31
0.0
  0
LINE
  5
9F41
330
18
100
AcDbEntity
  8
1CENTER
100
AcDbLine
 10
619.5425535442519
 20
-106.4611107609339
 30
0.0
 11
619.5425535442519
 21
-47.27691345313315
 31
0.0
  0
ARC
  5
9F42
330
18
100
AcDbEntity
  8
01
100
AcDbCircle
 10
614.7425535442515
 20
-52.46659796754966
 30
0.0
 40
0.5
100
AcDbArc
 50
90.0
 51
180.0
  0
LINE
  5
9F43
330
18
100
AcDbEntity
  8
01
100
AcDbLine
 10
624.8425535442519
 20
-102.6657548807229
 30
0.0
 11
624.8425535442519
 21
-52.46659796754966
 31
0.0
  0
ARC
  5
9F44
330
18
100
AcDbEntity
  8
01
100
AcDbCircle
 10
624.3425535442519
 20
-52.46659796754966
 30
0.0
 40
0.5
100
AcDbArc
 50
0.0
 51
90.0
  0
LINE
  5
9F45
330
18
100
AcDbEntity
  8
01
100
AcDbLine
 10
614.7425535442519
 20
-103.1657548807229
 30
0.0
 11
624.3425535442519
 21
-103.1657548807229
 31
0.0
  0
ARC
  5
9F46
330
18
100
AcDbEntity
  8
01
100
AcDbCircle
 10
624.3425535442519
 20
-102.6657548807229
 30
0.0
 40
0.5
100
AcDbArc
 50
270.0
 51
0.0
  0
ARC
  5
9F47
330
18
100
AcDbEntity
  8
01
100
AcDbCircle
 10
614.7425535442519
 20
-102.6657548807229
 30
0.0
 40
0.5
100
AcDbArc
 50
180.0
 51
270.0
  0
LINE
  5
9F48
330
18
100
AcDbEntity
  8
01
100
AcDbLine
 10
614.7425535442515
 20
-51.96659796754966
 30
0.0
 11
624.3425535442519
 21
-51.96659796754966
 31
0.0
  0
LINE
  5
9F49
330
18
100
AcDbEntity
  8
1CENTER
100
AcDbLine
 10
419.5425535442451
 20
-50.49813399785262
 30
0.0
 11
419.5425535442451
 21
-103.1736713980217
 31
0.0
  0
LINE
  5
9F4A
330
18
100
AcDbEntity
  8
1CENTER
100
AcDbLine
 10
219.5425535442383
 20
-50.49813399785262
 30
0.0
 11
219.5425535442383
 21
-104.3333451966123
 31
0.0
  0
LINE
  5
9F4E
330
18
100
AcDbEntity
  8
1PHANTOM
100
AcDbLine
 10
779.4098818905501
 20
-103.1001617918789
 30
0.0
 11
779.5564959676
 21
-97.50119607808574
 31
0.0
  0
ARC
  5
9F4F
330
18
100
AcDbEntity
  8
1PHANTOM
100
AcDbCircle
 10
729.2279269746981
 20
-101.7861010562639
 30
0.0
 40
1.0
100
AcDbArc
 50
178.5000000000038
 51
268.4999999999973
  0
LINE
  5
9F50
330
18
100
AcDbEntity
  8
1PHANTOM
100
AcDbLine
 10
728.4246126028237
 20
-94.2618892351968
 30
0.0
 11
728.2282696497225
 21
-101.7599241079562
 31
0.0
  0
ARC
  5
9F51
330
18
100
AcDbEntity
  8
1PHANTOM
100
AcDbCircle
 10
778.4102245655745
 20
-103.073984843571
 30
0.0
 40
1.0
100
AcDbArc
 50
268.5000000000006
 51
358.4999999999973
  0
LINE
  5
9F52
330
18
100
AcDbEntity
  8
1PHANTOM
100
AcDbLine
 10
729.2017500263903
 20
-102.7857583812394
 30
0.0
 11
778.3840476172666
 21
-104.0736421685466
 31
0.0
  0
LINE
  5
9F53
330
18
100
AcDbEntity
  8
1PHANTOM
100
AcDbLine
 10
729.4504468761071
 20
-93.28840885852907
 30
0.0
 11
730.4501042010834
 21
-93.31458580683682
 31
0.0
  0
ARC
  5
9F54
330
18
100
AcDbEntity
  8
1PHANTOM
100
AcDbCircle
 10
729.4242699277992
 20
-94.28806618350461
 30
0.0
 40
1.0
100
AcDbArc
 50
88.50000000000054
 51
178.4999999999973
  0
LINE
  5
9F55
330
18
100
AcDbEntity
  8
1PHANTOM
100
AcDbLine
 10
778.4370992666256
 20
-97.46547501231481
 30
0.0
 11
780.3425485442468
 21
-97.46547501231618
 31
0.0
  0
LINE
  5
9F56
330
18
100
AcDbEntity
  8
01
100
AcDbLine
 10
780.3425485442452
 20
-90.065754880724
 30
0.0
 11
780.3425485442452
 21
-65.0657548807244
 31
0.0
  0
LINE
  5
9F58
330
18
100
AcDbEntity
  8
1PHANTOM
100
AcDbLine
 10
779.5564728816834
 20
-97.50208069551877
 30
0.0
 11
778.4379866484892
 21
-97.47279210274019
 31
0.0
  0
LINE
  5
9F59
330
18
100
AcDbEntity
  8
1PHANTOM
100
AcDbLine
 10
770.8057554298849
 20
-95.84285154407951
 30
0.0
 11
770.8120213251939
 21
-97.03953846156838
 31
0.0
  0
LINE
  5
9F5A
330
18
100
AcDbEntity
  8
1PHANTOM
100
AcDbLine
 10
770.8120213251939
 20
-97.03953846156838
 30
0.0
 11
770.239094624476
 21
-98.0439858946537
 31
0.0
  0
LINE
  5
9F5B
330
18
100
AcDbEntity
  8
1PHANTOM
100
AcDbLine
 10
770.239094624476
 20
-98.0439858946537
 30
0.0
 11
770.2046881679643
 21
-99.35791545870404
 31
0.0
  0
ARC
  5
9F5C
330
18
100
AcDbEntity
  8
01
  6
BYBLOCK
100
AcDbCircle
 10
-774.3425486228258
 20
-97.96575495930307
 30
0.0
 40
4.125000000000001
210
0.0
220
0.0
230
-1.0
100
AcDbArc
 50
30.97361244699495
 51
173.1363982109775
  0
LINE
  5
9F5D
330
18
100
AcDbEntity
  8
1PHANTOM
100
AcDbLine
 10
770.2046881679643
 20
-99.35791545870404
 30
0.0
 11
732.8175042138781
 21
-98.37889759198919
 31
0.0
  0
ARC
  5
9F5E
330
18
100
AcDbEntity
  8
1PHANTOM
100
AcDbCircle
 10
732.843681162186
 20
-97.37924026701364
 30
0.0
 40
1.0
100
AcDbArc
 50
178.4999999999973
 51
268.5000000000006
  0
CIRCLE
  5
9F5F
330
18
100
AcDbEntity
  8
01
100
AcDbCircle
 10
774.3425486228258
 20
-97.96575495930307
 30
0.0
 40
2.15
  0
ARC
  5
9F60
330
18
100
AcDbEntity
  8
1PHANTOM
100
AcDbCircle
 10
732.843681162186
 20
-97.37924026701364
 30
0.0
 40
1.0
100
AcDbArc
 50
178.4999999999973
 51
268.5000000000006
  0
LINE
  5
9F61
330
18
100
AcDbEntity
  8
1PHANTOM
100
AcDbLine
 10
731.8440238372106
 20
-97.35306331870584
 30
0.0
 11
731.9225546821341
 21
-94.35409134378
 31
0.0
  0
ARC
  5
9F62
330
18
100
AcDbEntity
  8
1PHANTOM
100
AcDbCircle
 10
730.9228973571587
 20
-94.32791439547213
 30
0.0
 40
1.0
100
AcDbArc
 50
358.4999999999973
 51
88.49999999997446
  0
LINE
  5
9F63
330
18
100
AcDbEntity
  8
1PHANTOM
100
AcDbLine
 10
730.9490743054666
 20
-93.32825707049653
 30
0.0
 11
729.4495883180032
 21
-93.2889916480338
 31
0.0
  0
ARC
  5
9F64
330
18
100
AcDbEntity
  8
1PHANTOM
100
AcDbCircle
 10
729.4234113696953
 20
-94.2886489730094
 30
0.0
 40
1.0
100
AcDbArc
 50
88.50000000000054
 51
178.4999999999973
  0
LINE
  5
9F65
330
18
100
AcDbEntity
  8
1CENTER
100
AcDbLine
 10
634.5425535442523
 20
-67.11898737223123
 30
0.0
 11
634.5425535442523
 21
-81.70156797231652
 31
0.0
  0
CIRCLE
  5
9F66
330
18
100
AcDbEntity
  8
1HIDDEN
100
AcDbCircle
 10
-634.5425535442523
 20
-74.96547488128226
 30
0.0
 40
2.25
210
0.0
220
0.0
230
-1.0
  0
CIRCLE
  5
9F67
330
18
100
AcDbEntity
  8
1HIDDEN
100
AcDbCircle
 10
-604.5425535442523
 20
-74.96547488128226
 30
0.0
 40
2.25
210
0.0
220
0.0
230
-1.0
  0
LINE
  5
9F68
330
18
100
AcDbEntity
  8
01
100
AcDbLine
 10
-30.4574464557617
 20
-102.0654748812831
 30
0.0
 11
-30.4574464557617
 21
-53.06631796810962
 31
0.0
  0
LINE
  5
9F69
330
18
100
AcDbEntity
  8
01
100
AcDbLine
 10
13.74255354423858
 20
-102.5654748812849
 30
0.0
 11
-29.9574464557617
 21
-102.5654748812831
 31
0.0
  0
ARC
  5
9F6A
330
18
100
AcDbEntity
  8
01
100
AcDbCircle
 10
-29.9574464557617
 20
-102.0654748812831
 30
0.0
 40
0.5
100
AcDbArc
 50
180.0
 51
270.0
  0
LINE
  5
9F6B
330
18
100
AcDbEntity
  8
01
100
AcDbLine
 10
13.74255354423858
 20
-52.56631796810871
 30
0.0
 11
-29.9574464557617
 21
-52.56631796810962
 31
0.0
  0
ARC
  5
9F6C
330
18
100
AcDbEntity
  8
01
100
AcDbCircle
 10
-29.9574464557617
 20
-53.06631796810962
 30
0.0
 40
0.5
100
AcDbArc
 50
90.0
 51
180.0
  0
LINE
  5
9F6D
330
18
100
AcDbEntity
  8
01
100
AcDbLine
 10
13.74255354423858
 20
-52.56631796810871
 30
0.0
 11
13.74255354423858
 21
-102.5654748812849
 31
0.0
  0
LINE
  5
9F6E
330
18
100
AcDbEntity
  8
1CENTER
100
AcDbLine
 10
204.5425535442378
 20
-67.84345209783214
 30
0.0
 11
204.5425535442378
 21
-81.70156797231652
 31
0.0
  0
CIRCLE
  5
9F6F
330
18
100
AcDbEntity
  8
1HIDDEN
100
AcDbCircle
 10
-204.5425535442378
 20
-74.96547488128226
 30
0.0
 40
2.25
210
0.0
220
0.0
230
-1.0
  0
CIRCLE
  5
9F70
330
18
100
AcDbEntity
  8
1HIDDEN
100
AcDbCircle
 10
-234.5425535442378
 20
-74.96547488128226
 30
0.0
 40
2.25
210
0.0
220
0.0
230
-1.0
  0
LINE
  5
9F74
330
18
100
AcDbEntity
  8
1CENTER
100
AcDbLine
 10
-33.54473259533
 20
-74.96547488128226
 30
0.0
 11
672.9886285419002
 21
-74.96547488128226
 31
0.0
  0
LINE
  5
9F75
330
18
100
AcDbEntity
  8
1CENTER
100
AcDbLine
 10
604.5425535442523
 20
-81.70156797231652
 30
0.0
 11
604.5425535442523
 21
-67.11898737223123
 31
0.0
  0
LINE
  5
9F76
330
18
100
AcDbEntity
  8
1CENTER
100
AcDbLine
 10
434.5425535442415
 20
-81.70156797231652
 30
0.0
 11
434.5425535442415
 21
-67.11898737223123
 31
0.0
  0
LINE
  5
9F77
330
18
100
AcDbEntity
  8
1CENTER
100
AcDbLine
 10
404.5425535442415
 20
-81.7094844896194
 30
0.0
 11
404.5425535442415
 21
-67.1269038895341
 31
0.0
  0
LINE
  5
9F78
330
18
100
AcDbEntity
  8
1CENTER
100
AcDbLine
 10
234.5425535442378
 20
-81.70156797231652
 30
0.0
 11
234.5425535442378
 21
-67.11898737223123
 31
0.0
  0
LINE
  5
9F7A
330
18
100
AcDbEntity
  8
1HATCH
100
AcDbLine
 10
780.3425485442452
 20
-25.56519496042529
 30
0.0
 11
780.3425485442452
 21
-125.5651949604252
 31
0.0
  0
LINE
  5
9F7B
330
18
100
AcDbEntity
  8
01
100
AcDbLine
 10
768.8425485442452
 20
-53.06631796810962
 30
0.0
 11
768.8425485442452
 21
-102.065474881283
 31
0.0
  0
LINE
  5
9F7C
330
18
100
AcDbEntity
  8
1HATCH
100
AcDbLine
 10
789.3425485442453
 20
-25.56519496042529
 30
0.0
 11
789.3425485442452
 21
-125.5651949604252
 31
0.0
  0
LINE
  5
9F7D
330
18
100
AcDbEntity
  8
1HATCH
100
AcDbLine
 10
798.3425485442452
 20
-25.56519496042529
 30
0.0
 11
798.3425485442453
 21
-125.5651949604253
 31
0.0
  0
LINE
  5
9F7E
330
18
100
AcDbEntity
  8
01
100
AcDbLine
 10
669.542553544245
 20
46.11328020895394
 30
0.0
 11
669.542553544245
 21
51.6132802089536
 31
0.0
  0
LINE
  5
9F7F
330
18
100
AcDbEntity
  8
01
100
AcDbLine
 10
659.542553544245
 20
51.6132802089536
 30
0.0
 11
659.542553544245
 21
57.61328020895394
 31
0.0
  0
LINE
  5
9F80
330
18
100
AcDbEntity
  8
01
100
AcDbLine
 10
-30.4574464557617
 20
46.11328020895394
 30
0.0
 11
-30.4574464557617
 21
52.11328020895405
 31
0.0
  0
LINE
  5
9F81
330
18
100
AcDbEntity
  8
01
100
AcDbLine
 10
-20.4574464557617
 20
52.11328020895405
 30
0.0
 11
-20.4574464557617
 21
57.61328020895394
 31
0.0
  0
LINE
  5
9F82
330
18
100
AcDbEntity
  8
01
100
AcDbLine
 10
624.8425535442504
 20
45.6132802089536
 30
0.0
 11
614.2425535442504
 21
45.6132802089536
 31
0.0
  0
LINE
  5
9F83
330
18
100
AcDbEntity
  8
01
100
AcDbLine
 10
669.542553544245
 20
51.6132802089536
 30
0.0
 11
624.8425535442448
 21
51.6132802089536
 31
0.0
  0
LINE
  5
9F84
330
18
100
AcDbEntity
  8
01
100
AcDbLine
 10
423.7995622473856
 20
45.61328020895348
 30
0.0
 11
415.2855448411048
 21
45.61328020895371
 31
0.0
  0
ARC
  5
9F85
330
18
100
AcDbEntity
  8
01
100
AcDbCircle
 10
415.2855448411048
 20
46.61328020895371
 30
0.0
 40
1.0
100
AcDbArc
 50
177.5889702733106
 51
269.9999999999984
  0
LINE
  5
9F86
330
18
100
AcDbEntity
  8
01
100
AcDbLine
 10
223.7995622473788
 20
45.6132802089536
 30
0.0
 11
215.2855448410979
 21
45.6132802089536
 31
0.0
  0
ARC
  5
9F87
330
18
100
AcDbEntity
  8
01
100
AcDbCircle
 10
215.2855448410979
 20
46.6132802089536
 30
0.0
 40
1.0
100
AcDbArc
 50
177.5889702733106
 51
270.0
  0
LINE
  5
9F88
330
18
100
AcDbEntity
  8
01
100
AcDbLine
 10
613.7425535442534
 20
55.11328028753496
 30
0.0
 11
425.3425535442448
 21
55.11328028753496
 31
0.0
  0
LINE
  5
9F89
330
18
100
AcDbEntity
  8
01
100
AcDbLine
 10
413.7425535442454
 20
55.11328028753485
 30
0.0
 11
225.342553544238
 21
55.11328028753508
 31
0.0
  0
LINE
  5
9F8A
330
18
100
AcDbEntity
  8
01
100
AcDbLine
 10
625.3425535442448
 20
46.11328020895394
 30
0.0
 11
625.3425535442448
 21
51.6132802089536
 31
0.0
  0
LINE
  5
9F8B
330
18
100
AcDbEntity
  8
01
100
AcDbLine
 10
624.8425535442448
 20
51.6132802089536
 30
0.0
 11
624.8425535442448
 21
57.61328020895394
 31
0.0
  0
LINE
  5
9F8C
330
18
100
AcDbEntity
  8
01
100
AcDbLine
 10
613.7425535442535
 20
46.11328020895405
 30
0.0
 11
613.7425535442533
 21
55.11328028753496
 31
0.0
  0
LINE
  5
9F8D
330
18
100
AcDbEntity
  8
01
100
AcDbLine
 10
425.3425535442448
 20
46.11328020895405
 30
0.0
 11
425.3425535442448
 21
55.11328028753496
 31
0.0
  0
LINE
  5
9F8E
330
18
100
AcDbEntity
  8
01
100
AcDbLine
 10
413.7425535442454
 20
46.11328020895394
 30
0.0
 11
413.7425535442454
 21
55.11328028753485
 31
0.0
  0
LINE
  5
9F8F
330
18
100
AcDbEntity
  8
01
100
AcDbLine
 10
225.342553544238
 20
46.11328020895405
 30
0.0
 11
225.342553544238
 21
55.11328028753508
 31
0.0
  0
LINE
  5
9F90
330
18
100
AcDbEntity
  8
01
100
AcDbLine
 10
13.74255354423858
 20
46.11328020895394
 30
0.0
 11
13.74255354423858
 21
52.11328020895394
 31
0.0
  0
LINE
  5
9F91
330
18
100
AcDbEntity
  8
01
100
AcDbLine
 10
14.24255354423858
 20
52.11328020895382
 30
0.0
 11
14.24255354423858
 21
57.61328020895394
 31
0.0
  0
LINE
  5
9F92
330
18
100
AcDbEntity
  8
01
100
AcDbLine
 10
659.542553544245
 20
57.61328020895394
 30
0.0
 11
-20.45744645576167
 21
57.61328020895394
 31
0.0
  0
LINE
  5
9F93
330
18
100
AcDbEntity
  8
01
100
AcDbLine
 10
669.542553544245
 20
46.11328020895394
 30
0.0
 11
625.3425535442448
 21
46.11328020895394
 31
0.0
  0
LINE
  5
9F94
330
18
100
AcDbEntity
  8
01
100
AcDbLine
 10
613.7425535442535
 20
46.11328020895405
 30
0.0
 11
425.3425535442448
 21
46.11328020895405
 31
0.0
  0
LINE
  5
9F95
330
18
100
AcDbEntity
  8
01
100
AcDbLine
 10
613.7425535442533
 20
52.11328020895405
 30
0.0
 11
425.3425535442448
 21
52.11328020895417
 31
0.0
  0
LINE
  5
9F96
330
18
100
AcDbEntity
  8
01
100
AcDbLine
 10
413.7425535442454
 20
46.11328020895394
 30
0.0
 11
225.342553544238
 21
46.11328020895405
 31
0.0
  0
LINE
  5
9F97
330
18
100
AcDbEntity
  8
01
100
AcDbLine
 10
413.7425535442454
 20
52.11328020895382
 30
0.0
 11
225.342553544238
 21
52.11328020895394
 31
0.0
  0
LINE
  5
9F98
330
18
100
AcDbEntity
  8
01
100
AcDbLine
 10
13.74255354423858
 20
46.11328020895394
 30
0.0
 11
-30.4574464557617
 21
46.11328020895394
 31
0.0
  0
LINE
  5
9F99
330
18
100
AcDbEntity
  8
01
100
AcDbLine
 10
14.24255354423858
 20
52.11328020895382
 30
0.0
 11
-30.4574464557617
 21
52.11328020895405
 31
0.0
  0
LINE
  5
9F9A
330
18
100
AcDbEntity
  8
01
100
AcDbLine
 10
614.2425535442501
 20
55.11328028753485
 30
0.0
 11
624.8425535442448
 21
55.11328028753508
 31
0.0
  0
LINE
  5
9F9B
330
18
100
AcDbEntity
  8
01
100
AcDbLine
 10
423.4837727730047
 20
55.11328028753485
 30
0.0
 11
415.6013343154855
 21
55.11328028753496
 31
0.0
  0
ARC
  5
9F9C
330
18
100
AcDbEntity
  8
01
100
AcDbCircle
 10
415.6013343154855
 20
54.11328028753496
 30
0.0
 40
1.0
100
AcDbArc
 50
89.99999999999837
 51
177.5889702733106
  0
LINE
  5
9F9D
330
18
100
AcDbEntity
  8
01
100
AcDbLine
 10
215.6013343154787
 20
55.11328028753519
 30
0.0
 11
223.483772772998
 21
55.11328028753485
 31
0.0
  0
ARC
  5
9F9E
330
18
100
AcDbEntity
  8
01
100
AcDbCircle
 10
215.6013343154786
 20
54.11328028753519
 30
0.0
 40
1.0
100
AcDbArc
 50
89.99999999999675
 51
177.5889702733106
  0
LINE
  5
9F9F
330
18
100
AcDbEntity
  8
01
100
AcDbLine
 10
414.2864300907934
 20
46.6553481980925
 30
0.0
 11
414.602219565174
 21
54.15534827667375
 31
0.0
  0
LINE
  5
9FA0
330
18
100
AcDbEntity
  8
01
100
AcDbLine
 10
424.7986769976969
 20
46.65534819809238
 30
0.0
 11
424.4828875233161
 21
54.15534827667364
 31
0.0
  0
ARC
  5
9FA1
330
18
100
AcDbEntity
  8
01
100
AcDbCircle
 10
423.4837727730047
 20
54.11328028753485
 30
0.0
 40
1.0
100
AcDbArc
 50
2.411029726689397
 51
89.99999999999837
  0
ARC
  5
9FA2
330
18
100
AcDbEntity
  8
01
100
AcDbCircle
 10
423.7995622473856
 20
46.6132802089536
 30
0.0
 40
1.0
100
AcDbArc
 50
269.9999999999984
 51
2.411029726689397
  0
LINE
  5
9FA3
330
18
100
AcDbEntity
  8
01
100
AcDbLine
 10
214.2864300907865
 20
46.65534819809238
 30
0.0
 11
214.6022195651672
 21
54.15534827667398
 31
0.0
  0
LINE
  5
9FA4
330
18
100
AcDbEntity
  8
01
100
AcDbLine
 10
224.7986769976902
 20
46.65534819809238
 30
0.0
 11
224.4828875233094
 21
54.15534827667375
 31
0.0
  0
ARC
  5
9FA5
330
18
100
AcDbEntity
  8
01
100
AcDbCircle
 10
223.483772772998
 20
54.11328028753496
 30
0.0
 40
1.0
100
AcDbArc
 50
2.411029726689397
 51
89.99999999999837
  0
ARC
  5
9FA6
330
18
100
AcDbEntity
  8
01
100
AcDbCircle
 10
223.7995622473788
 20
46.6132802089536
 30
0.0
 40
1.0
100
AcDbArc
 50
270.0
 51
2.411029726689397
  0
LINE
  5
9FA7
330
18
100
AcDbEntity
  8
01
100
AcDbLine
 10
623.8425535442518
 20
5.613280287534508
 30
0.0
 11
615.2425535442519
 21
5.613280287534394
 31
0.0
  0
ARC
  5
9FA8
330
18
100
AcDbEntity
  8
01
100
AcDbCircle
 10
615.2425535442519
 20
6.613280287534394
 30
0.0
 40
1.0
100
AcDbArc
 50
180.0
 51
270.0
  0
LINE
  5
9FA9
330
18
100
AcDbEntity
  8
01
100
AcDbLine
 10
623.8425535442518
 20
9.113280287534508
 30
0.0
 11
615.2425535442519
 21
9.113280287534621
 31
0.0
  0
ARC
  5
9FAA
330
18
100
AcDbEntity
  8
01
100
AcDbCircle
 10
615.2425535442519
 20
8.113280287534621
 30
0.0
 40
1.0
100
AcDbArc
 50
90.0
 51
180.0
  0
LINE
  5
9FAB
330
18
100
AcDbEntity
  8
01
100
AcDbLine
 10
624.84255354425
 20
55.11328028753496
 30
0.0
 11
624.8425535442518
 21
6.613280287534508
 31
0.0
  0
ARC
  5
9FAC
330
18
100
AcDbEntity
  8
01
100
AcDbCircle
 10
623.8425535442518
 20
6.613280287534508
 30
0.0
 40
1.0
100
AcDbArc
 50
270.0
 51
0.0
  0
ARC
  5
9FAD
330
18
100
AcDbEntity
  8
01
100
AcDbCircle
 10
623.8425535442518
 20
8.113280287534508
 30
0.0
 40
1.0
100
AcDbArc
 50
0.0
 51
90.0
  0
LINE
  5
9FAE
330
18
100
AcDbEntity
  8
01
100
AcDbLine
 10
614.2425535442501
 20
55.11328028753485
 30
0.0
 11
614.2425535442519
 21
6.613280287534394
 31
0.0
  0
LINE
  5
9FAF
330
18
100
AcDbEntity
  8
01
100
AcDbLine
 10
621.2925535442519
 20
50.36328020895348
 30
0.0
 11
621.2925535442519
 21
45.6132802089536
 31
0.0
  0
LINE
  5
9FB0
330
18
100
AcDbEntity
  8
01
100
AcDbLine
 10
617.7925535442519
 20
50.36328020895348
 30
0.0
 11
617.7925535442519
 21
45.6132802089536
 31
0.0
  0
LINE
  5
9FB1
330
18
100
AcDbEntity
  8
01
100
AcDbLine
 10
621.2925535442519
 20
47.5132802875346
 30
0.0
 11
617.7925535442519
 21
47.5132802875346
 31
0.0
  0
LINE
  5
9FB2
330
18
100
AcDbEntity
  8
01
100
AcDbLine
 10
621.2925535442519
 20
48.02212793232457
 30
0.0
 11
617.7925535442519
 21
48.02212793232457
 31
0.0
  0
LINE
  5
9FB3
330
18
100
AcDbEntity
  8
01
100
AcDbLine
 10
624.8425535442502
 20
50.36328020895348
 30
0.0
 11
614.2425535442502
 21
50.36328020895348
 31
0.0
  0
LINE
  5
9FB6
330
18
100
AcDbEntity
  8
01
100
AcDbLine
 10
769.3425485442448
 20
-103.1657548807239
 30
0.0
 11
774.9425486228257
 21
-103.1657548807241
 31
0.0
  0
LINE
  5
9FB7
330
18
100
AcDbEntity
  8
01
100
AcDbLine
 10
774.3425485442449
 20
-99.86575488072384
 30
0.0
 11
780.3425485442452
 21
-99.8657548807239
 31
0.0
  0
ARC
  5
9FB8
330
18
100
AcDbEntity
  8
01
100
AcDbCircle
 10
769.3425485442448
 20
-52.96659796754966
 30
0.0
 40
1.0
100
AcDbArc
 50
90.0
 51
180.0
  0
LINE
  5
9FB9
330
18
100
AcDbEntity
  8
01
100
AcDbLine
 10
776.8431536870547
 20
-51.96659796754966
 30
0.0
 11
769.3425485442448
 21
-51.96659796754966
 31
0.0
  0
LINE
  5
9FBA
330
18
100
AcDbEntity
  8
01
100
AcDbLine
 10
774.3425485442449
 20
-55.26659796754961
 30
0.0
 11
780.3425485442452
 21
-55.26659796754961
 31
0.0
  0
ARC
  5
9FBB
330
18
100
AcDbEntity
  8
01
100
AcDbCircle
 10
769.3425485442448
 20
-102.1657548807239
 30
0.0
 40
1.0
100
AcDbArc
 50
180.0
 51
270.0
  0
LINE
  5
9FBC
330
18
100
AcDbEntity
  8
01
100
AcDbLine
 10
768.3425485442449
 20
-52.96659796754966
 30
0.0
 11
768.3425485442448
 21
-102.1657548807239
 31
0.0
  0
LINE
  5
9FBD
330
18
100
AcDbEntity
  8
01
100
AcDbLine
 10
774.342548544245
 20
-53.06631796810962
 30
0.0
 11
774.3425485442448
 21
-102.065474881283
 31
0.0
  0
ARC
  5
9FBE
330
18
100
AcDbEntity
  8
01
100
AcDbCircle
 10
773.8425485442448
 20
-102.065474881283
 30
0.0
 40
0.5
100
AcDbArc
 50
270.0
 51
0.0
  0
ARC
  5
9FBF
330
18
100
AcDbEntity
  8
01
100
AcDbCircle
 10
773.842548544245
 20
-53.06631796810962
 30
0.0
 40
0.5
100
AcDbArc
 50
0.0
 51
90.0
  0
LINE
  5
9FC0
330
18
100
AcDbEntity
  8
01
100
AcDbLine
 10
777.8431536870547
 20
-52.96659796754966
 30
0.0
 11
777.843153687055
 21
-53.96659796755057
 31
0.0
  0
ARC
  5
9FC1
330
18
100
AcDbEntity
  8
01
100
AcDbCircle
 10
776.8431536870547
 20
-52.96659796754966
 30
0.0
 40
1.0
100
AcDbArc
 50
0.0
 51
90.0
  0
LINE
  5
9FC2
330
18
100
AcDbEntity
  8
01
100
AcDbLine
 10
774.9425486228257
 20
-103.1657548807241
 30
0.0
 11
774.9425486228257
 21
-102.0907549097217
 31
0.0
  0
ARC
  5
9FC3
330
18
100
AcDbEntity
  8
01
100
AcDbCircle
 10
776.8425486228253
 20
-54.46575495930301
 30
0.0
 40
1.0
100
AcDbArc
 50
306.7893207162763
 51
359.999999999974
  0
LINE
  5
9FC4
330
18
100
AcDbEntity
  8
01
100
AcDbLine
 10
777.8425486228253
 20
-54.46575495930301
 30
0.0
 11
777.8425486228263
 21
-52.96575495930301
 31
0.0
  0
ARC
  5
9FC5
330
18
100
AcDbEntity
  8
01
100
AcDbCircle
 10
776.8425486228263
 20
-52.96575495930301
 30
0.0
 40
1.0
100
AcDbArc
 50
0.0
 51
90.0
  0
LINE
  5
9FC6
330
18
100
AcDbEntity
  8
01
100
AcDbLine
 10
778.0425485442455
 20
-54.56575488072349
 30
0.0
 11
777.8375360678295
 21
-54.56575488072349
 31
0.0
  0
LINE
  5
9FC7
330
18
100
AcDbEntity
  8
01
100
AcDbLine
 10
778.5425485442455
 20
-55.06575488072349
 30
0.0
 11
778.5425485442455
 21
-55.26659796754961
 31
0.0
  0
ARC
  5
9FC8
330
18
100
AcDbEntity
  8
01
100
AcDbCircle
 10
778.0425485442455
 20
-55.06575488072349
 30
0.0
 40
0.5
100
AcDbArc
 50
0.0
 51
89.99999999998697
  0
LINE
  5
9FC9
330
18
100
AcDbEntity
  8
01
100
AcDbLine
 10
769.3425485442452
 20
-52.56631796810962
 30
0.0
 11
773.842548544245
 21
-52.56631796810962
 31
0.0
  0
ARC
  5
9FCA
330
18
100
AcDbEntity
  8
01
100
AcDbCircle
 10
769.3425485442452
 20
-53.06631796810962
 30
0.0
 40
0.5
100
AcDbArc
 50
90.0
 51
180.0
  0
LINE
  5
9FCB
330
18
100
AcDbEntity
  8
01
100
AcDbLine
 10
769.3425485442452
 20
-102.565474881283
 30
0.0
 11
773.8425485442448
 21
-102.565474881283
 31
0.0
  0
ARC
  5
9FCC
330
18
100
AcDbEntity
  8
01
100
AcDbCircle
 10
769.3425485442452
 20
-102.065474881283
 30
0.0
 40
0.5
100
AcDbArc
 50
180.0
 51
270.0
  0
LINE
  5
9FCD
330
18
100
AcDbEntity
  8
01
100
AcDbLine
 10
774.3419090553477
 20
-102.0907549097217
 30
0.0
 11
774.9425486228257
 21
-102.0907549097217
 31
0.0
  0
LINE
  5
9FCE
330
18
100
AcDbEntity
  8
01
100
AcDbLine
 10
225.342553544238
 20
-52.56547488128081
 30
0.0
 11
225.342553544238
 21
-102.5654748812808
 31
0.0
  0
LINE
  5
9FCF
330
18
100
AcDbEntity
  8
01
100
AcDbLine
 10
413.7425535442454
 20
-52.56547488128081
 30
0.0
 11
413.7425535442449
 21
-102.5654748812808
 31
0.0
  0
LINE
  5
9FD0
330
18
100
AcDbEntity
  8
01
100
AcDbLine
 10
425.3425535442448
 20
-52.56631796810916
 30
0.0
 11
425.3425535442448
 21
-102.5663179681092
 31
0.0
  0
LINE
  5
9FD1
330
18
100
AcDbEntity
  8
01
100
AcDbLine
 10
613.7425535442533
 20
-52.56631796810916
 30
0.0
 11
613.7425535442524
 21
-102.5663179681092
 31
0.0
  0
LINE
  5
A0A4
330
18
100
AcDbEntity
  8
01
100
AcDbLine
 10
24.84255370159198
 20
-53.76547488128062
 30
0.0
 11
24.84255370159198
 21
-101.3654748812805
 31
0.0
  0
LINE
  5
A0A5
330
18
100
AcDbEntity
  8
01
100
AcDbLine
 10
214.2425533868775
 20
-53.76547488128062
 30
0.0
 11
213.7425535442385
 21
-53.76547488128062
 31
0.0
  0
LINE
  5
A0A6
330
18
100
AcDbEntity
  8
01
100
AcDbLine
 10
214.2425533868775
 20
-101.3654748812805
 30
0.0
 11
213.7425535442385
 21
-101.3654748812805
 31
0.0
  0
LINE
  5
A0A7
330
18
100
AcDbEntity
  8
01
100
AcDbLine
 10
24.84255370159198
 20
-53.76547488128062
 30
0.0
 11
25.34255354423121
 21
-53.76547488128062
 31
0.0
  0
LINE
  5
A0A8
330
18
100
AcDbEntity
  8
01
100
AcDbLine
 10
24.84255370159198
 20
-101.3654748812805
 30
0.0
 11
25.34255354423121
 21
-101.3654748812805
 31
0.0
  0
LINE
  5
A0A9
330
18
100
AcDbEntity
  8
01
100
AcDbLine
 10
213.7425535442385
 20
-52.56547488128081
 30
0.0
 11
25.34255354423121
 21
-52.56547488128081
 31
0.0
  0
LINE
  5
A0AA
330
18
100
AcDbEntity
  8
01
100
AcDbLine
 10
213.7425535442381
 20
-102.5654748812808
 30
0.0
 11
25.34255354423121
 21
-102.5654748812808
 31
0.0
  0
LINE
  5
A0AB
330
18
100
AcDbEntity
  8
01
100
AcDbLine
 10
14.24255354423101
 20
-102.6736713980217
 30
0.0
 11
14.24255354423101
 21
-52.47451448484844
 31
0.0
  0
ARC
  5
A0AC
330
18
100
AcDbEntity
  8
01
100
AcDbCircle
 10
14.74255354423056
 20
-52.47451448484844
 30
0.0
 40
0.5
100
AcDbArc
 50
90.0
 51
180.0
  0
LINE
  5
A0AD
330
18
100
AcDbEntity
  8
01
100
AcDbLine
 10
24.84255354423149
 20
-102.6736713980217
 30
0.0
 11
24.84255354423149
 21
-52.47451448484844
 31
0.0
  0
ARC
  5
A0AE
330
18
100
AcDbEntity
  8
01
100
AcDbCircle
 10
24.34255354423104
 20
-52.47451448484844
 30
0.0
 40
0.5
100
AcDbArc
 50
0.0
 51
90.0
  0
LINE
  5
A0AF
330
18
100
AcDbEntity
  8
01
100
AcDbLine
 10
14.74255354423101
 20
-103.1736713980217
 30
0.0
 11
24.34255354423149
 21
-103.1736713980217
 31
0.0
  0
ARC
  5
A0B0
330
18
100
AcDbEntity
  8
01
100
AcDbCircle
 10
24.34255354423149
 20
-102.6736713980217
 30
0.0
 40
0.5
100
AcDbArc
 50
270.0
 51
0.0
  0
ARC
  5
A0B1
330
18
100
AcDbEntity
  8
01
100
AcDbCircle
 10
14.74255354423101
 20
-102.6736713980217
 30
0.0
 40
0.5
100
AcDbArc
 50
180.0
 51
270.0
  0
LINE
  5
A0B2
330
18
100
AcDbEntity
  8
01
100
AcDbLine
 10
14.74255354423056
 20
-51.97451448484844
 30
0.0
 11
24.34255354423104
 21
-51.97451448484844
 31
0.0
  0
LINE
  5
A0B3
330
18
100
AcDbEntity
  8
1CENTER
100
AcDbLine
 10
19.54255354423148
 20
-50.49813399785262
 30
0.0
 11
19.54255354423148
 21
-104.3333451966123
 31
0.0
  0
LINE
  5
A0B4
330
18
100
AcDbEntity
  8
1CENTER
100
AcDbLine
 10
4.542553544231026
 20
-67.84345209783214
 30
0.0
 11
4.542553544231026
 21
-81.70156797231652
 31
0.0
  0
CIRCLE
  5
A0B5
330
18
100
AcDbEntity
  8
1HIDDEN
100
AcDbCircle
 10
-4.542553544231026
 20
-74.96547488128226
 30
0.0
 40
2.25
210
0.0
220
0.0
230
-1.0
  0
CIRCLE
  5
A0B6
330
18
100
AcDbEntity
  8
1HIDDEN
100
AcDbCircle
 10
-34.54255354423103
 20
-74.96547488128226
 30
0.0
 40
2.25
210
0.0
220
0.0
230
-1.0
  0
LINE
  5
A0B7
330
18
100
AcDbEntity
  8
1CENTER
100
AcDbLine
 10
34.54255354423103
 20
-81.70156797231652
 30
0.0
 11
34.54255354423103
 21
-67.11898737223123
 31
0.0
  0
LINE
  5
A0B8
330
18
100
AcDbEntity
  8
01
100
AcDbLine
 10
25.34255354423121
 20
-52.56547488128081
 30
0.0
 11
25.34255354423121
 21
-102.5654748812808
 31
0.0
  0
LINE
  5
A0B9
330
18
100
AcDbEntity
  8
01
100
AcDbLine
 10
213.7425535442385
 20
-52.56547488128081
 30
0.0
 11
213.7425535442381
 21
-102.5654748812808
 31
0.0
  0
LINE
  5
A0D9
330
18
100
AcDbEntity
  8
01
100
AcDbLine
 10
23.79956224737194
 20
45.6132802089536
 30
0.0
 11
15.28554484109108
 21
45.6132802089536
 31
0.0
  0
ARC
  5
A0DA
330
18
100
AcDbEntity
  8
01
100
AcDbCircle
 10
15.28554484109108
 20
46.6132802089536
 30
0.0
 40
1.0
100
AcDbArc
 50
177.5889702733106
 51
270.0
  0
LINE
  5
A0DB
330
18
100
AcDbEntity
  8
01
100
AcDbLine
 10
213.7425535442386
 20
55.11328028753485
 30
0.0
 11
25.34255354423121
 21
55.11328028753508
 31
0.0
  0
LINE
  5
A0DC
330
18
100
AcDbEntity
  8
01
100
AcDbLine
 10
213.7425535442386
 20
46.11328020895394
 30
0.0
 11
213.7425535442386
 21
55.11328028753485
 31
0.0
  0
LINE
  5
A0DD
330
18
100
AcDbEntity
  8
01
100
AcDbLine
 10
25.34255354423121
 20
46.11328020895405
 30
0.0
 11
25.34255354423121
 21
55.11328028753508
 31
0.0
  0
LINE
  5
A0DE
330
18
100
AcDbEntity
  8
01
100
AcDbLine
 10
213.7425535442386
 20
46.11328020895394
 30
0.0
 11
25.34255354423121
 21
46.11328020895405
 31
0.0
  0
LINE
  5
A0DF
330
18
100
AcDbEntity
  8
01
100
AcDbLine
 10
213.7425535442386
 20
52.11328020895382
 30
0.0
 11
25.34255354423121
 21
52.11328020895394
 31
0.0
  0
LINE
  5
A0E0
330
18
100
AcDbEntity
  8
01
100
AcDbLine
 10
15.60133431547183
 20
55.11328028753519
 30
0.0
 11
23.48377277299116
 21
55.11328028753485
 31
0.0
  0
ARC
  5
A0E1
330
18
100
AcDbEntity
  8
01
100
AcDbCircle
 10
15.6013343154718
 20
54.11328028753519
 30
0.0
 40
1.0
100
AcDbArc
 50
89.99999999999675
 51
177.5889702733106
  0
LINE
  5
A0E2
330
18
100
AcDbEntity
  8
01
100
AcDbLine
 10
14.28643009077967
 20
46.65534819809238
 30
0.0
 11
14.6022195651604
 21
54.15534827667398
 31
0.0
  0
LINE
  5
A0E3
330
18
100
AcDbEntity
  8
01
100
AcDbLine
 10
24.79867699768334
 20
46.65534819809238
 30
0.0
 11
24.48288752330254
 21
54.15534827667375
 31
0.0
  0
ARC
  5
A0E4
330
18
100
AcDbEntity
  8
01
100
AcDbCircle
 10
23.48377277299113
 20
54.11328028753496
 30
0.0
 40
1.0
100
AcDbArc
 50
2.411029726689397
 51
89.99999999999837
  0
ARC
  5
A0E5
330
18
100
AcDbEntity
  8
01
100
AcDbCircle
 10
23.79956224737194
 20
46.6132802089536
 30
0.0
 40
1.0
100
AcDbArc
 50
270.0
 51
2.411029726689397
  0
TEXT
  5
A3B4
330
18
100
AcDbEntity
  8
1TEXT
100
AcDbText
 10
-2.727522647718189
 20
204.6489370473161
 30
0.0
 40
12.0
  1
表面処理：
 72
     1
 11
29.67247735228182
 21
204.6489370473161
 31
0.0
100
AcDbText
  0
TEXT
  5
A3B5
330
18
100
AcDbEntity
  8
1TEXT
100
AcDbText
 10
2.072477352281815
 20
184.1430710687429
 30
0.0
 40
12.0
  1
シルバー
 72
     1
 11
29.67247735228182
 21
184.1430710687429
 31
0.0
100
AcDbText
  0
LINE
  5
A3B6
330
18
100
AcDbEntity
  8
1DIM
100
AcDbLine
 10
-22.52752264771846
 20
221.1489370473161
 30
0.0
 11
187.4724773522815
 21
221.1489370473161
 31
0.0
  0
LINE
  5
A3B7
330
18
100
AcDbEntity
  8
1DIM
100
AcDbLine
 10
-22.52752264771846
 20
179.1489370473161
 30
0.0
 11
187.4724773522815
 21
179.1489370473161
 31
0.0
  0
LINE
  5
A3B8
330
18
100
AcDbEntity
  8
1DIM
100
AcDbLine
 10
-22.52752264771846
 20
200.1489370473161
 30
0.0
 11
187.4724773522815
 21
200.1489370473161
 31
0.0
  0
LINE
  5
A3B9
330
18
100
AcDbEntity
  8
1DIM
100
AcDbLine
 10
82.47247735228154
 20
221.1489370473161
 30
0.0
 11
82.4724773522804
 21
137.1489370473146
 31
0.0
  0
TEXT
  5
A3BA
330
18
100
AcDbEntity
  8
1TEXT
100
AcDbText
 10
87.87247735228318
 20
183.0058660963679
 30
0.0
 40
12.0
  1
AC-823-BC
 41
0.9
 72
     1
 11
134.6724773522832
 21
183.0058660963679
 31
0.0
100
AcDbText
  0
TEXT
  5
A3BB
330
18
100
AcDbEntity
  8
1TEXT
100
AcDbText
 10
114.0724773522818
 20
204.6489370473161
 30
0.0
 40
12.0
  1
コード
 72
     1
 11
134.6724773522818
 21
204.6489370473161
 31
0.0
100
AcDbText
  0
LINE
  5
A3BC
330
18
100
AcDbEntity
  8
1DIM
100
AcDbLine
 10
-22.52752264771914
 20
137.1489370473161
 30
0.0
 11
-22.52752264771846
 21
221.1489370473161
 31
0.0
  0
LINE
  5
A3BD
330
18
100
AcDbEntity
  8
1DIM
100
AcDbLine
 10
187.4724773522809
 20
137.1489370473138
 30
0.0
 11
187.4724773522815
 21
221.1489370473161
 31
0.0
  0
TEXT
  5
A3BE
330
18
100
AcDbEntity
  8
1TEXT
100
AcDbText
 10
-22.52752264771846
 20
236.1489370473161
 30
0.0
 40
24.0
  1
AC-823-X
100
AcDbText
  0
TEXT
  5
A3BF
330
18
100
AcDbEntity
  8
1TEXT
100
AcDbText
 10
2.872477352281475
 20
163.1430710687429
 30
0.0
 40
12.0
  1
ホワイト
 72
     1
 11
29.67247735228148
 21
163.1430710687429
 31
0.0
100
AcDbText
  0
LINE
  5
A3C0
330
18
100
AcDbEntity
  8
1DIM
100
AcDbLine
 10
-22.5275226477188
 20
158.1489370473161
 30
0.0
 11
187.4724773522812
 21
158.1489370473161
 31
0.0
  0
TEXT
  5
A3C1
330
18
100
AcDbEntity
  8
1TEXT
100
AcDbText
 10
87.87247735228284
 20
162.0058660963679
 30
0.0
 40
12.0
  1
AC-823-SC
 41
0.9
 72
     1
 11
134.6724773522828
 21
162.0058660963679
 31
0.0
100
AcDbText
  0
TEXT
  5
A607
330
18
100
AcDbEntity
  8
1TEXT
100
AcDbText
 10
-18.92752264771853
 20
142.1430710687429
 30
0.0
 40
12.0
  1
ダークアンバー
 72
     1
 11
29.67247735228148
 21
142.1430710687429
 31
0.0
100
AcDbText
  0
LINE
  5
A608
330
18
100
AcDbEntity
  8
1DIM
100
AcDbLine
 10
-22.5275226477188
 20
137.1489370473161
 30
0.0
 11
187.4724773522812
 21
137.1489370473161
 31
0.0
  0
TEXT
  5
A609
330
18
100
AcDbEntity
  8
1TEXT
100
AcDbText
 10
88.27247735228283
 20
141.0058660963679
 30
0.0
 40
12.0
  1
AC-823-4QC
 41
0.8000000000000002
 72
     1
 11
134.6724773522828
 21
141.0058660963679
 31
0.0
100
AcDbText
  0
LINE
  5
AADF
330
18
100
AcDbEntity
  8
1PHANTOM
100
AcDbLine
 10
651.5425535442523
 20
54.81328020895398
 30
0.0
 11
636.0425535442523
 21
54.8132802089541
 31
0.0
  0
LINE
  5
AAE0
330
18
100
AcDbEntity
  8
1PHANTOM
100
AcDbLine
 10
603.0425535442519
 20
54.8132802089541
 30
0.0
 11
436.0425535442455
 21
54.81328020895398
 31
0.0
  0
LINE
  5
AAE1
330
18
100
AcDbEntity
  8
1PHANTOM
100
AcDbLine
 10
636.0425535442523
 20
52.31328020895398
 30
0.0
 11
624.8425535442448
 21
52.31328020895398
 31
0.0
  0
LINE
  5
AAE2
330
18
100
AcDbEntity
  8
1PHANTOM
100
AcDbLine
 10
614.2425535442501
 20
52.31328020895398
 30
0.0
 11
603.0425535442519
 21
52.31328020895398
 31
0.0
  0
LINE
  5
AAE3
330
18
100
AcDbEntity
  8
1PHANTOM
100
AcDbLine
 10
651.5425535442523
 20
54.81328020895398
 30
0.0
 11
651.5425535442523
 21
57.61328020895394
 31
0.0
  0
LINE
  5
AAE4
330
18
100
AcDbEntity
  8
1PHANTOM
100
AcDbLine
 10
636.0425535442523
 20
52.31328020895398
 30
0.0
 11
636.0425535442523
 21
54.81328020895398
 31
0.0
  0
LINE
  5
AAE5
330
18
100
AcDbEntity
  8
1PHANTOM
100
AcDbLine
 10
603.0425535442519
 20
52.31328020895398
 30
0.0
 11
603.0425535442519
 21
54.8132802089541
 31
0.0
  0
LINE
  5
AAE6
330
18
100
AcDbEntity
  8
1PHANTOM
100
AcDbLine
 10
436.0425535442455
 20
52.31328020895398
 30
0.0
 11
436.0425535442455
 21
54.81328020895398
 31
0.0
  0
LINE
  5
AAE7
330
18
100
AcDbEntity
  8
1PHANTOM
100
AcDbLine
 10
403.0425535442446
 20
52.31328020895398
 30
0.0
 11
403.0425535442446
 21
54.81328020895398
 31
0.0
  0
LINE
  5
AAE8
330
18
100
AcDbEntity
  8
1PHANTOM
100
AcDbLine
 10
436.0425535442455
 20
52.31328020895398
 30
0.0
 11
424.5604482834176
 21
52.31328020895387
 31
0.0
  0
LINE
  5
AAE9
330
18
100
AcDbEntity
  8
1PHANTOM
100
AcDbLine
 10
414.5246588050661
 20
52.31328020895387
 30
0.0
 11
403.0425535442446
 21
52.31328020895398
 31
0.0
  0
LINE
  5
AAEE
330
18
100
AcDbEntity
  8
1PHANTOM
100
AcDbLine
 10
203.0425535442378
 20
54.81328020895398
 30
0.0
 11
36.04255354423503
 21
54.81328020895387
 31
0.0
  0
LINE
  5
AAEF
330
18
100
AcDbEntity
  8
1PHANTOM
100
AcDbLine
 10
3.042553544234124
 20
54.81328020895398
 30
0.0
 11
-12.45744645576906
 21
54.81328020895398
 31
0.0
  0
LINE
  5
AAF0
330
18
100
AcDbEntity
  8
1PHANTOM
100
AcDbLine
 10
-12.45744645576906
 20
54.81328020895398
 30
0.0
 11
-12.45744645576906
 21
57.61328020895394
 31
0.0
  0
LINE
  5
AAF1
330
18
100
AcDbEntity
  8
1PHANTOM
100
AcDbLine
 10
36.04255354423503
 20
52.31328020895398
 30
0.0
 11
36.04255354423503
 21
54.81328020895398
 31
0.0
  0
LINE
  5
AAF2
330
18
100
AcDbEntity
  8
1PHANTOM
100
AcDbLine
 10
3.042553544234124
 20
52.31328020895398
 30
0.0
 11
3.042553544234124
 21
54.81328020895398
 31
0.0
  0
LINE
  5
AAF3
330
18
100
AcDbEntity
  8
1PHANTOM
100
AcDbLine
 10
36.04255354423503
 20
52.31328020895398
 30
0.0
 11
24.56044828340714
 21
52.31328020895387
 31
0.0
  0
LINE
  5
AAF4
330
18
100
AcDbEntity
  8
1PHANTOM
100
AcDbLine
 10
14.52465880505565
 20
52.31328020895387
 30
0.0
 11
3.042553544234124
 21
52.31328020895398
 31
0.0
  0
LINE
  5
AAF7
330
18
100
AcDbEntity
  8
1PHANTOM
100
AcDbLine
 10
236.0425535442384
 20
52.31328020895398
 30
0.0
 11
236.0425535442384
 21
54.81328020895398
 31
0.0
  0
LINE
  5
AAF8
330
18
100
AcDbEntity
  8
1PHANTOM
100
AcDbLine
 10
203.0425535442375
 20
52.31328020895398
 30
0.0
 11
203.0425535442375
 21
54.81328020895398
 31
0.0
  0
LINE
  5
AAF9
330
18
100
AcDbEntity
  8
1PHANTOM
100
AcDbLine
 10
236.0425535442384
 20
52.31328020895398
 30
0.0
 11
224.5604482834106
 21
52.31328020895387
 31
0.0
  0
LINE
  5
AAFA
330
18
100
AcDbEntity
  8
1PHANTOM
100
AcDbLine
 10
214.5246588050591
 20
52.31328020895387
 30
0.0
 11
203.0425535442375
 21
52.31328020895398
 31
0.0
  0
LINE
  5
AAFD
330
18
100
AcDbEntity
  8
1PHANTOM
100
AcDbLine
 10
236.0425535442384
 20
54.81328020895398
 30
0.0
 11
403.0425535442446
 21
54.81328020895398
 31
0.0
  0
LINE
  5
B6FF
330
18
100
AcDbEntity
  8
1CENTER
100
AcDbLine
 10
811.7970462472636
 20
-74.96547495986533
 30
0.0
 11
773.9639131998888
 21
-74.96547495986533
 31
0.0
  0
LINE
  5
B700
330
18
100
AcDbEntity
  8
01
100
AcDbLine
 10
803.1425535466028
 20
-73.46552149576326
 30
0.0
 11
803.2425547099999
 21
-72.96552149576326
 31
0.0
  0
LINE
  5
B701
330
18
100
AcDbEntity
  8
01
100
AcDbLine
 10
803.2425547099999
 20
-72.96552149576326
 30
0.0
 11
804.0425454028225
 21
-76.96552149576326
 31
0.0
  0
LINE
  5
B702
330
18
100
AcDbEntity
  8
01
100
AcDbLine
 10
804.0425454028225
 20
-76.96552149576326
 30
0.0
 11
804.1425465662196
 21
-76.46552149576326
 31
0.0
  0
LINE
  5
B703
330
18
100
AcDbEntity
  8
01
100
AcDbLine
 10
801.5425535466027
 20
-73.46552149576326
 30
0.0
 11
801.6425547099998
 21
-72.96552149576326
 31
0.0
  0
LINE
  5
B704
330
18
100
AcDbEntity
  8
01
100
AcDbLine
 10
802.4425454028224
 20
-76.96552149576326
 30
0.0
 11
802.5425465662195
 21
-76.46552149576326
 31
0.0
  0
LINE
  5
B705
330
18
100
AcDbEntity
  8
01
100
AcDbLine
 10
801.6425547099998
 20
-72.96552149576326
 30
0.0
 11
802.4425454028224
 21
-76.96552149576326
 31
0.0
  0
LINE
  5
B706
330
18
100
AcDbEntity
  8
01
100
AcDbLine
 10
799.9425535466028
 20
-73.46552149576326
 30
0.0
 11
800.0425547099999
 21
-72.96552149576326
 31
0.0
  0
LINE
  5
B707
330
18
100
AcDbEntity
  8
01
100
AcDbLine
 10
800.0425547099999
 20
-72.96552149576326
 30
0.0
 11
800.8425454028225
 21
-76.96552149576326
 31
0.0
  0
LINE
  5
B708
330
18
100
AcDbEntity
  8
01
100
AcDbLine
 10
800.8425454028225
 20
-76.96552149576326
 30
0.0
 11
800.9425465662196
 21
-76.46552149576326
 31
0.0
  0
LINE
  5
B709
330
18
100
AcDbEntity
  8
01
100
AcDbLine
 10
791.9425535466025
 20
-73.46552149576326
 30
0.0
 11
792.0425547099996
 21
-72.96552149576326
 31
0.0
  0
LINE
  5
B70A
330
18
100
AcDbEntity
  8
01
100
AcDbLine
 10
792.8425454028222
 20
-76.96552149576326
 30
0.0
 11
792.9425465662196
 21
-76.46552149576326
 31
0.0
  0
LINE
  5
B70B
330
18
100
AcDbEntity
  8
01
100
AcDbLine
 10
794.4425454028224
 20
-76.96552149576326
 30
0.0
 11
794.5425465662195
 21
-76.46552149576326
 31
0.0
  0
LINE
  5
B70C
330
18
100
AcDbEntity
  8
01
100
AcDbLine
 10
793.5425535466027
 20
-73.46552149576326
 30
0.0
 11
793.6425547099998
 21
-72.96552149576326
 31
0.0
  0
LINE
  5
B70D
330
18
100
AcDbEntity
  8
01
100
AcDbLine
 10
795.1425535466026
 20
-73.46552149576326
 30
0.0
 11
795.2425547099997
 21
-72.96552149576326
 31
0.0
  0
LINE
  5
B70E
330
18
100
AcDbEntity
  8
01
100
AcDbLine
 10
793.6425547099998
 20
-72.96552149576326
 30
0.0
 11
794.4425454028224
 21
-76.96552149576326
 31
0.0
  0
LINE
  5
B70F
330
18
100
AcDbEntity
  8
01
100
AcDbLine
 10
792.0425547099996
 20
-72.96552149576326
 30
0.0
 11
792.8425454028222
 21
-76.96552149576326
 31
0.0
  0
LINE
  5
B710
330
18
100
AcDbEntity
  8
01
100
AcDbLine
 10
796.7425535466025
 20
-73.46552149576326
 30
0.0
 11
796.8425547099998
 21
-72.96552149576326
 31
0.0
  0
LINE
  5
B711
330
18
100
AcDbEntity
  8
01
100
AcDbLine
 10
804.9425535466025
 20
-73.46552149576326
 30
0.0
 11
805.0425547099996
 21
-72.96552149576326
 31
0.0
  0
LINE
  5
B712
330
18
100
AcDbEntity
  8
01
100
AcDbLine
 10
805.0425547099996
 20
-72.96552149576326
 30
0.0
 11
805.842545929625
 21
-76.73911444355929
 31
0.0
  0
LINE
  5
B713
330
18
100
AcDbEntity
  8
01
100
AcDbLine
 10
805.842545929625
 20
-76.73911444355929
 30
0.0
 11
805.9718166272548
 21
-76.20252070828815
 31
0.0
  0
LINE
  5
B714
330
18
100
AcDbEntity
  8
01
100
AcDbLine
 10
797.6425454028224
 20
-76.96552149576326
 30
0.0
 11
797.7425465662193
 21
-76.46552149576326
 31
0.0
  0
LINE
  5
B715
330
18
100
AcDbEntity
  8
01
100
AcDbLine
 10
799.2425454028223
 20
-76.96552149576326
 30
0.0
 11
799.3425465662194
 21
-76.46552149576326
 31
0.0
  0
LINE
  5
B716
330
18
100
AcDbEntity
  8
01
100
AcDbLine
 10
798.3425535466026
 20
-73.46552149576326
 30
0.0
 11
798.4425547099997
 21
-72.96552149576326
 31
0.0
  0
LINE
  5
B717
330
18
100
AcDbEntity
  8
01
100
AcDbLine
 10
798.4425547099997
 20
-72.96552149576326
 30
0.0
 11
799.2425454028223
 21
-76.96552149576326
 31
0.0
  0
LINE
  5
B718
330
18
100
AcDbEntity
  8
01
100
AcDbLine
 10
796.8425547099998
 20
-72.96552149576326
 30
0.0
 11
797.6425454028224
 21
-76.96552149576326
 31
0.0
  0
LINE
  5
B719
330
18
100
AcDbEntity
  8
01
100
AcDbLine
 10
806.6425536563895
 20
-73.41833763782199
 30
0.0
 11
807.4425469832306
 21
-76.28630033915249
 31
0.0
  0
LINE
  5
B71A
330
18
100
AcDbEntity
  8
01
100
AcDbLine
 10
808.2425526027853
 20
-73.87115114587027
 30
0.0
 11
809.0425480368363
 21
-75.83348623474569
 31
0.0
  0
LINE
  5
B71B
330
18
100
AcDbEntity
  8
01
100
AcDbLine
 10
807.4425469832306
 20
-76.28630033915249
 30
0.0
 11
807.6253111258586
 21
-75.73455087534921
 31
0.0
  0
LINE
  5
B71C
330
18
100
AcDbEntity
  8
01
100
AcDbLine
 10
808.0911168063449
 20
-74.32832298650135
 30
0.0
 11
808.2425526027853
 21
-73.87115114587027
 31
0.0
  0
LINE
  5
B71D
330
18
100
AcDbEntity
  8
01
100
AcDbLine
 10
809.0425480368363
 20
-75.83348623474569
 30
0.0
 11
809.3543178930884
 21
-75.24520965970328
 31
0.0
  0
LINE
  5
B71E
330
18
100
AcDbEntity
  8
01
100
AcDbLine
 10
806.5297841440395
 20
-73.88643609297196
 30
0.0
 11
806.6425536563895
 21
-73.41833763782199
 31
0.0
  0
LINE
  5
B71F
330
18
100
AcDbEntity
  8
01
100
AcDbLine
 10
796.0425454028223
 20
-76.96552149576326
 30
0.0
 11
796.1425465662196
 21
-76.46552149576326
 31
0.0
  0
LINE
  5
B720
330
18
100
AcDbEntity
  8
01
100
AcDbLine
 10
795.2425547099997
 20
-72.96552149576326
 30
0.0
 11
796.0425454028223
 21
-76.96552149576326
 31
0.0
  0
LINE
  5
B721
330
18
100
AcDbEntity
  8
01
100
AcDbLine
 10
778.3425465662026
 20
-76.46552149576326
 30
0.0
 11
778.4425454028049
 21
-76.96552149576326
 31
0.0
  0
LINE
  5
B722
330
18
100
AcDbEntity
  8
01
100
AcDbLine
 10
779.242554709991
 20
-72.96552149576326
 30
0.0
 11
780.0425454028093
 21
-76.96552149576326
 31
0.0
  0
LINE
  5
B723
330
18
100
AcDbEntity
  8
01
100
AcDbLine
 10
782.4425547099911
 20
-72.96552149576326
 30
0.0
 11
783.2425454028094
 21
-76.96552149576326
 31
0.0
  0
LINE
  5
B724
330
18
100
AcDbEntity
  8
01
100
AcDbLine
 10
783.2425454028094
 20
-76.96552149576326
 30
0.0
 11
783.3425465662069
 21
-76.46552149576326
 31
0.0
  0
LINE
  5
B725
330
18
100
AcDbEntity
  8
01
100
AcDbLine
 10
780.0425454028093
 20
-76.96552149576326
 30
0.0
 11
780.1425465662069
 21
-76.46552149576326
 31
0.0
  0
LINE
  5
B726
330
18
100
AcDbEntity
  8
01
100
AcDbLine
 10
780.7425535465932
 20
-73.46552149576326
 30
0.0
 11
780.842554709991
 21
-72.96552149576326
 31
0.0
  0
LINE
  5
B727
330
18
100
AcDbEntity
  8
01
100
AcDbLine
 10
781.6425454028092
 20
-76.96552149576326
 30
0.0
 11
781.7425465662068
 21
-76.46552149576326
 31
0.0
  0
LINE
  5
B728
330
18
100
AcDbEntity
  8
01
100
AcDbLine
 10
780.842554709991
 20
-72.96552149576326
 30
0.0
 11
781.6425454028092
 21
-76.96552149576326
 31
0.0
  0
LINE
  5
B729
330
18
100
AcDbEntity
  8
01
100
AcDbLine
 10
782.3425535465933
 20
-73.46552149576326
 30
0.0
 11
782.4425547099911
 21
-72.96552149576326
 31
0.0
  0
LINE
  5
B72A
330
18
100
AcDbEntity
  8
01
100
AcDbLine
 10
778.4425454028049
 20
-76.96552149576326
 30
0.0
 11
778.5425465662026
 21
-76.46552149576326
 31
0.0
  0
LINE
  5
B72B
330
18
100
AcDbEntity
  8
01
100
AcDbLine
 10
779.1425535465933
 20
-73.46552149576326
 30
0.0
 11
779.242554709991
 21
-72.96552149576326
 31
0.0
  0
LINE
  5
B72C
330
18
100
AcDbEntity
  8
01
100
AcDbLine
 10
775.6425593638062
 20
-70.96547495986533
 30
0.0
 11
775.642540749447
 21
-78.96547495986533
 31
0.0
  0
LINE
  5
B72D
330
18
100
AcDbEntity
  8
01
100
AcDbLine
 10
783.9425535465978
 20
-73.46552149576326
 30
0.0
 11
784.0425547099953
 21
-72.96552149576326
 31
0.0
  0
LINE
  5
B72E
330
18
100
AcDbEntity
  8
01
100
AcDbLine
 10
785.542553546602
 20
-73.46552149576326
 30
0.0
 11
785.6425547099998
 21
-72.96552149576326
 31
0.0
  0
LINE
  5
B72F
330
18
100
AcDbEntity
  8
01
100
AcDbLine
 10
784.8425454028136
 20
-76.96552149576326
 30
0.0
 11
784.9425465662114
 21
-76.46552149576326
 31
0.0
  0
LINE
  5
B730
330
18
100
AcDbEntity
  8
01
100
AcDbLine
 10
788.742553546602
 20
-73.46552149576326
 30
0.0
 11
788.8425547099998
 21
-72.96552149576326
 31
0.0
  0
LINE
  5
B731
330
18
100
AcDbEntity
  8
01
100
AcDbLine
 10
787.2425547099997
 20
-72.96552149576326
 30
0.0
 11
788.042545402818
 21
-76.96552149576326
 31
0.0
  0
LINE
  5
B732
330
18
100
AcDbEntity
  8
01
100
AcDbLine
 10
788.042545402818
 20
-76.96552149576326
 30
0.0
 11
788.1425465662155
 21
-76.46552149576326
 31
0.0
  0
LINE
  5
B733
330
18
100
AcDbEntity
  8
01
100
AcDbLine
 10
787.1425535466019
 20
-73.46552149576326
 30
0.0
 11
787.2425547099997
 21
-72.96552149576326
 31
0.0
  0
LINE
  5
B734
330
18
100
AcDbEntity
  8
01
100
AcDbLine
 10
786.442545402818
 20
-76.96552149576326
 30
0.0
 11
786.5425465662156
 21
-76.46552149576326
 31
0.0
  0
LINE
  5
B735
330
18
100
AcDbEntity
  8
01
100
AcDbLine
 10
791.2425454028223
 20
-76.96552149576326
 30
0.0
 11
791.3425465662194
 21
-76.46552149576326
 31
0.0
  0
LINE
  5
B736
330
18
100
AcDbEntity
  8
01
100
AcDbLine
 10
789.6425454028181
 20
-76.96552149576326
 30
0.0
 11
789.7425465662157
 21
-76.46552149576326
 31
0.0
  0
LINE
  5
B737
330
18
100
AcDbEntity
  8
01
100
AcDbLine
 10
790.342553546602
 20
-73.46552149576326
 30
0.0
 11
790.4425547099997
 21
-72.96552149576326
 31
0.0
  0
LINE
  5
B738
330
18
100
AcDbEntity
  8
01
100
AcDbLine
 10
790.4425547099997
 20
-72.96552149576326
 30
0.0
 11
791.2425454028223
 21
-76.96552149576326
 31
0.0
  0
LINE
  5
B739
330
18
100
AcDbEntity
  8
01
100
AcDbLine
 10
788.8425547099998
 20
-72.96552149576326
 30
0.0
 11
789.6425454028181
 21
-76.96552149576326
 31
0.0
  0
LINE
  5
B73A
330
18
100
AcDbEntity
  8
01
100
AcDbLine
 10
785.6425547099998
 20
-72.96552149576326
 30
0.0
 11
786.442545402818
 21
-76.96552149576326
 31
0.0
  0
LINE
  5
B73B
330
18
100
AcDbEntity
  8
01
100
AcDbLine
 10
784.0425547099953
 20
-72.96552149576326
 30
0.0
 11
784.8425454028136
 21
-76.96552149576326
 31
0.0
  0
LINE
  5
B73D
330
18
100
AcDbEntity
  8
1CENTER
100
AcDbLine
 10
634.5425535442523
 20
89.06777791197229
 30
0.0
 11
634.5425535442523
 21
51.23464486459753
 31
0.0
  0
LINE
  5
B73E
330
18
100
AcDbEntity
  8
01
100
AcDbLine
 10
633.0426000801502
 20
80.41328521131146
 30
0.0
 11
632.5426000801502
 21
80.51328637470857
 31
0.0
  0
LINE
  5
B73F
330
18
100
AcDbEntity
  8
01
100
AcDbLine
 10
632.5426000801502
 20
80.51328637470857
 30
0.0
 11
636.5426000801502
 21
81.31327706753115
 31
0.0
  0
LINE
  5
B740
330
18
100
AcDbEntity
  8
01
100
AcDbLine
 10
636.5426000801502
 20
81.31327706753115
 30
0.0
 11
636.0426000801502
 21
81.41327823092826
 31
0.0
  0
LINE
  5
B741
330
18
100
AcDbEntity
  8
01
100
AcDbLine
 10
633.0426000801502
 20
78.81328521131144
 30
0.0
 11
632.5426000801502
 21
78.91328637470855
 31
0.0
  0
LINE
  5
B742
330
18
100
AcDbEntity
  8
01
100
AcDbLine
 10
636.5426000801502
 20
79.71327706753112
 30
0.0
 11
636.0426000801502
 21
79.81327823092823
 31
0.0
  0
LINE
  5
B743
330
18
100
AcDbEntity
  8
01
100
AcDbLine
 10
632.5426000801502
 20
78.91328637470855
 30
0.0
 11
636.5426000801502
 21
79.71327706753112
 31
0.0
  0
LINE
  5
B744
330
18
100
AcDbEntity
  8
01
100
AcDbLine
 10
633.0426000801502
 20
77.21328521131142
 30
0.0
 11
632.5426000801502
 21
77.31328637470853
 31
0.0
  0
LINE
  5
B745
330
18
100
AcDbEntity
  8
01
100
AcDbLine
 10
632.5426000801502
 20
77.31328637470853
 30
0.0
 11
636.5426000801502
 21
78.1132770675311
 31
0.0
  0
LINE
  5
B746
330
18
100
AcDbEntity
  8
01
100
AcDbLine
 10
636.5426000801502
 20
78.1132770675311
 30
0.0
 11
636.0426000801502
 21
78.21327823092821
 31
0.0
  0
LINE
  5
B747
330
18
100
AcDbEntity
  8
01
100
AcDbLine
 10
633.0426000801502
 20
69.2132852113113
 30
0.0
 11
632.5426000801502
 21
69.31328637470841
 31
0.0
  0
LINE
  5
B748
330
18
100
AcDbEntity
  8
01
100
AcDbLine
 10
636.5426000801502
 20
70.11327706753099
 30
0.0
 11
636.0426000801502
 21
70.21327823092821
 31
0.0
  0
LINE
  5
B749
330
18
100
AcDbEntity
  8
01
100
AcDbLine
 10
636.5426000801502
 20
71.71327706753112
 30
0.0
 11
636.0426000801502
 21
71.81327823092823
 31
0.0
  0
LINE
  5
B74A
330
18
100
AcDbEntity
  8
01
100
AcDbLine
 10
633.0426000801502
 20
70.81328521131144
 30
0.0
 11
632.5426000801502
 21
70.91328637470855
 31
0.0
  0
LINE
  5
B74B
330
18
100
AcDbEntity
  8
01
100
AcDbLine
 10
633.0426000801502
 20
72.41328521131135
 30
0.0
 11
632.5426000801502
 21
72.51328637470846
 31
0.0
  0
LINE
  5
B74C
330
18
100
AcDbEntity
  8
01
100
AcDbLine
 10
632.5426000801502
 20
70.91328637470855
 30
0.0
 11
636.5426000801502
 21
71.71327706753112
 31
0.0
  0
LINE
  5
B74D
330
18
100
AcDbEntity
  8
01
100
AcDbLine
 10
632.5426000801502
 20
69.31328637470841
 30
0.0
 11
636.5426000801502
 21
70.11327706753099
 31
0.0
  0
LINE
  5
B74E
330
18
100
AcDbEntity
  8
01
100
AcDbLine
 10
633.0426000801502
 20
74.01328521131126
 30
0.0
 11
632.5426000801502
 21
74.11328637470848
 31
0.0
  0
LINE
  5
B74F
330
18
100
AcDbEntity
  8
01
100
AcDbLine
 10
633.0426000801502
 20
82.2132852113113
 30
0.0
 11
632.5426000801502
 21
82.31328637470841
 31
0.0
  0
LINE
  5
B750
330
18
100
AcDbEntity
  8
01
100
AcDbLine
 10
632.5426000801502
 20
82.31328637470841
 30
0.0
 11
636.3161930279463
 21
83.11327759433371
 31
0.0
  0
LINE
  5
B751
330
18
100
AcDbEntity
  8
01
100
AcDbLine
 10
636.3161930279463
 20
83.11327759433371
 30
0.0
 11
635.7795992926751
 21
83.24254829196357
 31
0.0
  0
LINE
  5
B752
330
18
100
AcDbEntity
  8
01
100
AcDbLine
 10
636.5426000801502
 20
74.91327706753106
 30
0.0
 11
636.0426000801502
 21
75.01327823092805
 31
0.0
  0
LINE
  5
B753
330
18
100
AcDbEntity
  8
01
100
AcDbLine
 10
636.5426000801502
 20
76.51327706753108
 30
0.0
 11
636.0426000801502
 21
76.61327823092819
 31
0.0
  0
LINE
  5
B754
330
18
100
AcDbEntity
  8
01
100
AcDbLine
 10
633.0426000801502
 20
75.61328521131139
 30
0.0
 11
632.5426000801502
 21
75.7132863747085
 31
0.0
  0
LINE
  5
B755
330
18
100
AcDbEntity
  8
01
100
AcDbLine
 10
632.5426000801502
 20
75.7132863747085
 30
0.0
 11
636.5426000801502
 21
76.51327706753108
 31
0.0
  0
LINE
  5
B756
330
18
100
AcDbEntity
  8
01
100
AcDbLine
 10
632.5426000801502
 20
74.11328637470848
 30
0.0
 11
636.5426000801502
 21
74.91327706753106
 31
0.0
  0
LINE
  5
B757
330
18
100
AcDbEntity
  8
01
100
AcDbLine
 10
632.995416222209
 20
83.91328532109824
 30
0.0
 11
635.8633789235395
 21
84.71327864793935
 31
0.0
  0
LINE
  5
B758
330
18
100
AcDbEntity
  8
01
100
AcDbLine
 10
633.4482297302573
 20
85.51328426749402
 30
0.0
 11
635.4105648191327
 21
86.31327970154499
 31
0.0
  0
LINE
  5
B759
330
18
100
AcDbEntity
  8
01
100
AcDbLine
 10
635.8633789235395
 20
84.71327864793935
 30
0.0
 11
635.3116294597362
 21
84.89604279056735
 31
0.0
  0
LINE
  5
B75A
330
18
100
AcDbEntity
  8
01
100
AcDbLine
 10
633.9054015708883
 20
85.3618484710536
 30
0.0
 11
633.4482297302573
 21
85.51328426749402
 31
0.0
  0
LINE
  5
B75B
330
18
100
AcDbEntity
  8
01
100
AcDbLine
 10
635.4105648191327
 20
86.31327970154499
 30
0.0
 11
634.8222882440903
 21
86.6250495577971
 31
0.0
  0
LINE
  5
B75C
330
18
100
AcDbEntity
  8
01
100
AcDbLine
 10
633.463514677359
 20
83.8005158087482
 30
0.0
 11
632.995416222209
 21
83.91328532109824
 31
0.0
  0
LINE
  5
B75D
330
18
100
AcDbEntity
  8
01
100
AcDbLine
 10
636.5426000801502
 20
73.31327706753103
 30
0.0
 11
636.0426000801502
 21
73.41327823092826
 31
0.0
  0
LINE
  5
B75E
330
18
100
AcDbEntity
  8
01
100
AcDbLine
 10
632.5426000801502
 20
72.51328637470846
 30
0.0
 11
636.5426000801502
 21
73.31327706753103
 31
0.0
  0
LINE
  5
B75F
330
18
100
AcDbEntity
  8
01
100
AcDbLine
 10
636.0426000801502
 20
55.61327823091133
 30
0.0
 11
636.5426000801502
 21
55.71327706751362
 31
0.0
  0
LINE
  5
B760
330
18
100
AcDbEntity
  8
01
100
AcDbLine
 10
632.5426000801502
 20
56.5132863746997
 30
0.0
 11
636.5426000801502
 21
57.31327706751796
 31
0.0
  0
LINE
  5
B761
330
18
100
AcDbEntity
  8
01
100
AcDbLine
 10
632.5426000801502
 20
59.71328637469975
 30
0.0
 11
636.5426000801502
 21
60.513277067518
 31
0.0
  0
LINE
  5
B762
330
18
100
AcDbEntity
  8
01
100
AcDbLine
 10
636.5426000801502
 20
60.513277067518
 30
0.0
 11
636.0426000801502
 21
60.61327823091568
 31
0.0
  0
LINE
  5
B763
330
18
100
AcDbEntity
  8
01
100
AcDbLine
 10
636.5426000801502
 20
57.31327706751796
 30
0.0
 11
636.0426000801502
 21
57.41327823091564
 31
0.0
  0
LINE
  5
B764
330
18
100
AcDbEntity
  8
01
100
AcDbLine
 10
633.0426000801502
 20
58.01328521130193
 30
0.0
 11
632.5426000801502
 21
58.11328637469961
 31
0.0
  0
LINE
  5
B765
330
18
100
AcDbEntity
  8
01
100
AcDbLine
 10
636.5426000801502
 20
58.91327706751787
 30
0.0
 11
636.0426000801502
 21
59.01327823091555
 31
0.0
  0
LINE
  5
B766
330
18
100
AcDbEntity
  8
01
100
AcDbLine
 10
632.5426000801502
 20
58.11328637469961
 30
0.0
 11
636.5426000801502
 21
58.91327706751787
 31
0.0
  0
LINE
  5
B767
330
18
100
AcDbEntity
  8
01
100
AcDbLine
 10
633.0426000801502
 20
59.61328521130207
 30
0.0
 11
632.5426000801502
 21
59.71328637469975
 31
0.0
  0
LINE
  5
B768
330
18
100
AcDbEntity
  8
01
100
AcDbLine
 10
636.5426000801502
 20
55.71327706751362
 30
0.0
 11
636.0426000801502
 21
55.81327823091129
 31
0.0
  0
LINE
  5
B769
330
18
100
AcDbEntity
  8
01
100
AcDbLine
 10
633.0426000801502
 20
56.41328521130202
 30
0.0
 11
632.5426000801502
 21
56.5132863746997
 31
0.0
  0
LINE
  5
B76A
330
18
100
AcDbEntity
  8
01
100
AcDbLine
 10
630.5425535442523
 20
52.91329102851483
 30
0.0
 11
638.5425535442523
 21
52.91327241415576
 31
0.0
  0
LINE
  5
B76B
330
18
100
AcDbEntity
  8
01
100
AcDbLine
 10
633.0426000801502
 20
61.21328521130641
 30
0.0
 11
632.5426000801502
 21
61.31328637470409
 31
0.0
  0
LINE
  5
B76C
330
18
100
AcDbEntity
  8
01
100
AcDbLine
 10
633.0426000801502
 20
62.81328521131076
 30
0.0
 11
632.5426000801502
 21
62.91328637470843
 31
0.0
  0
LINE
  5
B76D
330
18
100
AcDbEntity
  8
01
100
AcDbLine
 10
636.5426000801502
 20
62.11327706752235
 30
0.0
 11
636.0426000801502
 21
62.21327823092003
 31
0.0
  0
LINE
  5
B76E
330
18
100
AcDbEntity
  8
01
100
AcDbLine
 10
633.0426000801502
 20
66.0132852113108
 30
0.0
 11
632.5426000801502
 21
66.11328637470848
 31
0.0
  0
LINE
  5
B76F
330
18
100
AcDbEntity
  8
01
100
AcDbLine
 10
632.5426000801502
 20
64.51328637470834
 30
0.0
 11
636.5426000801502
 21
65.3132770675266
 31
0.0
  0
LINE
  5
B770
330
18
100
AcDbEntity
  8
01
100
AcDbLine
 10
636.5426000801502
 20
65.3132770675266
 30
0.0
 11
636.0426000801502
 21
65.41327823092428
 31
0.0
  0
LINE
  5
B771
330
18
100
AcDbEntity
  8
01
100
AcDbLine
 10
633.0426000801502
 20
64.41328521131067
 30
0.0
 11
632.5426000801502
 21
64.51328637470834
 31
0.0
  0
LINE
  5
B772
330
18
100
AcDbEntity
  8
01
100
AcDbLine
 10
636.5426000801502
 20
63.71327706752669
 30
0.0
 11
636.0426000801502
 21
63.81327823092437
 31
0.0
  0
LINE
  5
B773
330
18
100
AcDbEntity
  8
01
100
AcDbLine
 10
636.5426000801502
 20
68.51327706753108
 30
0.0
 11
636.0426000801502
 21
68.61327823092819
 31
0.0
  0
LINE
  5
B774
330
18
100
AcDbEntity
  8
01
100
AcDbLine
 10
636.5426000801502
 20
66.91327706752674
 30
0.0
 11
636.0426000801502
 21
67.01327823092441
 31
0.0
  0
LINE
  5
B775
330
18
100
AcDbEntity
  8
01
100
AcDbLine
 10
633.0426000801502
 20
67.61328521131071
 30
0.0
 11
632.5426000801502
 21
67.7132863747085
 31
0.0
  0
LINE
  5
B776
330
18
100
AcDbEntity
  8
01
100
AcDbLine
 10
632.5426000801502
 20
67.7132863747085
 30
0.0
 11
636.5426000801502
 21
68.51327706753108
 31
0.0
  0
LINE
  5
B777
330
18
100
AcDbEntity
  8
01
100
AcDbLine
 10
632.5426000801502
 20
66.11328637470848
 30
0.0
 11
636.5426000801502
 21
66.91327706752674
 31
0.0
  0
LINE
  5
B778
330
18
100
AcDbEntity
  8
01
100
AcDbLine
 10
632.5426000801502
 20
62.91328637470843
 30
0.0
 11
636.5426000801502
 21
63.71327706752669
 31
0.0
  0
LINE
  5
B779
330
18
100
AcDbEntity
  8
01
100
AcDbLine
 10
632.5426000801502
 20
61.31328637470409
 30
0.0
 11
636.5426000801502
 21
62.11327706752235
 31
0.0
  0
LINE
  5
B77B
330
18
100
AcDbEntity
  8
1CENTER
100
AcDbLine
 10
604.5425535442523
 20
89.06777791197229
 30
0.0
 11
604.5425535442523
 21
51.23464486459753
 31
0.0
  0
LINE
  5
B77C
330
18
100
AcDbEntity
  8
01
100
AcDbLine
 10
603.0426000801502
 20
80.41328521131146
 30
0.0
 11
602.5426000801502
 21
80.51328637470857
 31
0.0
  0
LINE
  5
B77D
330
18
100
AcDbEntity
  8
01
100
AcDbLine
 10
602.5426000801502
 20
80.51328637470857
 30
0.0
 11
606.5426000801502
 21
81.31327706753115
 31
0.0
  0
LINE
  5
B77E
330
18
100
AcDbEntity
  8
01
100
AcDbLine
 10
606.5426000801502
 20
81.31327706753115
 30
0.0
 11
606.0426000801502
 21
81.41327823092826
 31
0.0
  0
LINE
  5
B77F
330
18
100
AcDbEntity
  8
01
100
AcDbLine
 10
603.0426000801502
 20
78.81328521131144
 30
0.0
 11
602.5426000801502
 21
78.91328637470855
 31
0.0
  0
LINE
  5
B780
330
18
100
AcDbEntity
  8
01
100
AcDbLine
 10
606.5426000801502
 20
79.71327706753112
 30
0.0
 11
606.0426000801502
 21
79.81327823092823
 31
0.0
  0
LINE
  5
B781
330
18
100
AcDbEntity
  8
01
100
AcDbLine
 10
602.5426000801502
 20
78.91328637470855
 30
0.0
 11
606.5426000801502
 21
79.71327706753112
 31
0.0
  0
LINE
  5
B782
330
18
100
AcDbEntity
  8
01
100
AcDbLine
 10
603.0426000801502
 20
77.21328521131142
 30
0.0
 11
602.5426000801502
 21
77.31328637470853
 31
0.0
  0
LINE
  5
B783
330
18
100
AcDbEntity
  8
01
100
AcDbLine
 10
602.5426000801502
 20
77.31328637470853
 30
0.0
 11
606.5426000801502
 21
78.1132770675311
 31
0.0
  0
LINE
  5
B784
330
18
100
AcDbEntity
  8
01
100
AcDbLine
 10
606.5426000801502
 20
78.1132770675311
 30
0.0
 11
606.0426000801502
 21
78.21327823092821
 31
0.0
  0
LINE
  5
B785
330
18
100
AcDbEntity
  8
01
100
AcDbLine
 10
603.0426000801502
 20
69.2132852113113
 30
0.0
 11
602.5426000801502
 21
69.31328637470841
 31
0.0
  0
LINE
  5
B786
330
18
100
AcDbEntity
  8
01
100
AcDbLine
 10
606.5426000801502
 20
70.11327706753099
 30
0.0
 11
606.0426000801502
 21
70.21327823092821
 31
0.0
  0
LINE
  5
B787
330
18
100
AcDbEntity
  8
01
100
AcDbLine
 10
606.5426000801502
 20
71.71327706753112
 30
0.0
 11
606.0426000801502
 21
71.81327823092823
 31
0.0
  0
LINE
  5
B788
330
18
100
AcDbEntity
  8
01
100
AcDbLine
 10
603.0426000801502
 20
70.81328521131144
 30
0.0
 11
602.5426000801502
 21
70.91328637470855
 31
0.0
  0
LINE
  5
B789
330
18
100
AcDbEntity
  8
01
100
AcDbLine
 10
603.0426000801502
 20
72.41328521131135
 30
0.0
 11
602.5426000801502
 21
72.51328637470846
 31
0.0
  0
LINE
  5
B78A
330
18
100
AcDbEntity
  8
01
100
AcDbLine
 10
602.5426000801502
 20
70.91328637470855
 30
0.0
 11
606.5426000801502
 21
71.71327706753112
 31
0.0
  0
LINE
  5
B78B
330
18
100
AcDbEntity
  8
01
100
AcDbLine
 10
602.5426000801502
 20
69.31328637470841
 30
0.0
 11
606.5426000801502
 21
70.11327706753099
 31
0.0
  0
LINE
  5
B78C
330
18
100
AcDbEntity
  8
01
100
AcDbLine
 10
603.0426000801502
 20
74.01328521131126
 30
0.0
 11
602.5426000801502
 21
74.11328637470848
 31
0.0
  0
LINE
  5
B78D
330
18
100
AcDbEntity
  8
01
100
AcDbLine
 10
603.0426000801502
 20
82.2132852113113
 30
0.0
 11
602.5426000801502
 21
82.31328637470841
 31
0.0
  0
LINE
  5
B78E
330
18
100
AcDbEntity
  8
01
100
AcDbLine
 10
602.5426000801502
 20
82.31328637470841
 30
0.0
 11
606.3161930279463
 21
83.11327759433371
 31
0.0
  0
LINE
  5
B78F
330
18
100
AcDbEntity
  8
01
100
AcDbLine
 10
606.3161930279463
 20
83.11327759433371
 30
0.0
 11
605.7795992926751
 21
83.24254829196357
 31
0.0
  0
LINE
  5
B790
330
18
100
AcDbEntity
  8
01
100
AcDbLine
 10
606.5426000801502
 20
74.91327706753106
 30
0.0
 11
606.0426000801502
 21
75.01327823092805
 31
0.0
  0
LINE
  5
B791
330
18
100
AcDbEntity
  8
01
100
AcDbLine
 10
606.5426000801502
 20
76.51327706753108
 30
0.0
 11
606.0426000801502
 21
76.61327823092819
 31
0.0
  0
LINE
  5
B792
330
18
100
AcDbEntity
  8
01
100
AcDbLine
 10
603.0426000801502
 20
75.61328521131139
 30
0.0
 11
602.5426000801502
 21
75.7132863747085
 31
0.0
  0
LINE
  5
B793
330
18
100
AcDbEntity
  8
01
100
AcDbLine
 10
602.5426000801502
 20
75.7132863747085
 30
0.0
 11
606.5426000801502
 21
76.51327706753108
 31
0.0
  0
LINE
  5
B794
330
18
100
AcDbEntity
  8
01
100
AcDbLine
 10
602.5426000801502
 20
74.11328637470848
 30
0.0
 11
606.5426000801502
 21
74.91327706753106
 31
0.0
  0
LINE
  5
B795
330
18
100
AcDbEntity
  8
01
100
AcDbLine
 10
602.995416222209
 20
83.91328532109824
 30
0.0
 11
605.8633789235395
 21
84.71327864793935
 31
0.0
  0
LINE
  5
B796
330
18
100
AcDbEntity
  8
01
100
AcDbLine
 10
603.4482297302573
 20
85.51328426749402
 30
0.0
 11
605.4105648191327
 21
86.31327970154499
 31
0.0
  0
LINE
  5
B797
330
18
100
AcDbEntity
  8
01
100
AcDbLine
 10
605.8633789235395
 20
84.71327864793935
 30
0.0
 11
605.3116294597362
 21
84.89604279056735
 31
0.0
  0
LINE
  5
B798
330
18
100
AcDbEntity
  8
01
100
AcDbLine
 10
603.9054015708883
 20
85.3618484710536
 30
0.0
 11
603.4482297302573
 21
85.51328426749402
 31
0.0
  0
LINE
  5
B799
330
18
100
AcDbEntity
  8
01
100
AcDbLine
 10
605.4105648191327
 20
86.31327970154499
 30
0.0
 11
604.8222882440903
 21
86.6250495577971
 31
0.0
  0
LINE
  5
B79A
330
18
100
AcDbEntity
  8
01
100
AcDbLine
 10
603.463514677359
 20
83.8005158087482
 30
0.0
 11
602.995416222209
 21
83.91328532109824
 31
0.0
  0
LINE
  5
B79B
330
18
100
AcDbEntity
  8
01
100
AcDbLine
 10
606.5426000801502
 20
73.31327706753103
 30
0.0
 11
606.0426000801502
 21
73.41327823092826
 31
0.0
  0
LINE
  5
B79C
330
18
100
AcDbEntity
  8
01
100
AcDbLine
 10
602.5426000801502
 20
72.51328637470846
 30
0.0
 11
606.5426000801502
 21
73.31327706753103
 31
0.0
  0
LINE
  5
B79D
330
18
100
AcDbEntity
  8
01
100
AcDbLine
 10
606.0426000801502
 20
55.61327823091133
 30
0.0
 11
606.5426000801502
 21
55.71327706751362
 31
0.0
  0
LINE
  5
B79E
330
18
100
AcDbEntity
  8
01
100
AcDbLine
 10
602.5426000801502
 20
56.5132863746997
 30
0.0
 11
606.5426000801502
 21
57.31327706751796
 31
0.0
  0
LINE
  5
B79F
330
18
100
AcDbEntity
  8
01
100
AcDbLine
 10
602.5426000801502
 20
59.71328637469975
 30
0.0
 11
606.5426000801502
 21
60.513277067518
 31
0.0
  0
LINE
  5
B7A0
330
18
100
AcDbEntity
  8
01
100
AcDbLine
 10
606.5426000801502
 20
60.513277067518
 30
0.0
 11
606.0426000801502
 21
60.61327823091568
 31
0.0
  0
LINE
  5
B7A1
330
18
100
AcDbEntity
  8
01
100
AcDbLine
 10
606.5426000801502
 20
57.31327706751796
 30
0.0
 11
606.0426000801502
 21
57.41327823091564
 31
0.0
  0
LINE
  5
B7A2
330
18
100
AcDbEntity
  8
01
100
AcDbLine
 10
603.0426000801502
 20
58.01328521130193
 30
0.0
 11
602.5426000801502
 21
58.11328637469961
 31
0.0
  0
LINE
  5
B7A3
330
18
100
AcDbEntity
  8
01
100
AcDbLine
 10
606.5426000801502
 20
58.91327706751787
 30
0.0
 11
606.0426000801502
 21
59.01327823091555
 31
0.0
  0
LINE
  5
B7A4
330
18
100
AcDbEntity
  8
01
100
AcDbLine
 10
602.5426000801502
 20
58.11328637469961
 30
0.0
 11
606.5426000801502
 21
58.91327706751787
 31
0.0
  0
LINE
  5
B7A5
330
18
100
AcDbEntity
  8
01
100
AcDbLine
 10
603.0426000801502
 20
59.61328521130207
 30
0.0
 11
602.5426000801502
 21
59.71328637469975
 31
0.0
  0
LINE
  5
B7A6
330
18
100
AcDbEntity
  8
01
100
AcDbLine
 10
606.5426000801502
 20
55.71327706751362
 30
0.0
 11
606.0426000801502
 21
55.81327823091129
 31
0.0
  0
LINE
  5
B7A7
330
18
100
AcDbEntity
  8
01
100
AcDbLine
 10
603.0426000801502
 20
56.41328521130202
 30
0.0
 11
602.5426000801502
 21
56.5132863746997
 31
0.0
  0
LINE
  5
B7A8
330
18
100
AcDbEntity
  8
01
100
AcDbLine
 10
600.5425535442523
 20
52.91329102851483
 30
0.0
 11
608.5425535442523
 21
52.91327241415576
 31
0.0
  0
LINE
  5
B7A9
330
18
100
AcDbEntity
  8
01
100
AcDbLine
 10
603.0426000801502
 20
61.21328521130641
 30
0.0
 11
602.5426000801502
 21
61.31328637470409
 31
0.0
  0
LINE
  5
B7AA
330
18
100
AcDbEntity
  8
01
100
AcDbLine
 10
603.0426000801502
 20
62.81328521131076
 30
0.0
 11
602.5426000801502
 21
62.91328637470843
 31
0.0
  0
LINE
  5
B7AB
330
18
100
AcDbEntity
  8
01
100
AcDbLine
 10
606.5426000801502
 20
62.11327706752235
 30
0.0
 11
606.0426000801502
 21
62.21327823092003
 31
0.0
  0
LINE
  5
B7AC
330
18
100
AcDbEntity
  8
01
100
AcDbLine
 10
603.0426000801502
 20
66.0132852113108
 30
0.0
 11
602.5426000801502
 21
66.11328637470848
 31
0.0
  0
LINE
  5
B7AD
330
18
100
AcDbEntity
  8
01
100
AcDbLine
 10
602.5426000801502
 20
64.51328637470834
 30
0.0
 11
606.5426000801502
 21
65.3132770675266
 31
0.0
  0
LINE
  5
B7AE
330
18
100
AcDbEntity
  8
01
100
AcDbLine
 10
606.5426000801502
 20
65.3132770675266
 30
0.0
 11
606.0426000801502
 21
65.41327823092428
 31
0.0
  0
LINE
  5
B7AF
330
18
100
AcDbEntity
  8
01
100
AcDbLine
 10
603.0426000801502
 20
64.41328521131067
 30
0.0
 11
602.5426000801502
 21
64.51328637470834
 31
0.0
  0
LINE
  5
B7B0
330
18
100
AcDbEntity
  8
01
100
AcDbLine
 10
606.5426000801502
 20
63.71327706752669
 30
0.0
 11
606.0426000801502
 21
63.81327823092437
 31
0.0
  0
LINE
  5
B7B1
330
18
100
AcDbEntity
  8
01
100
AcDbLine
 10
606.5426000801502
 20
68.51327706753108
 30
0.0
 11
606.0426000801502
 21
68.61327823092819
 31
0.0
  0
LINE
  5
B7B2
330
18
100
AcDbEntity
  8
01
100
AcDbLine
 10
606.5426000801502
 20
66.91327706752674
 30
0.0
 11
606.0426000801502
 21
67.01327823092441
 31
0.0
  0
LINE
  5
B7B3
330
18
100
AcDbEntity
  8
01
100
AcDbLine
 10
603.0426000801502
 20
67.61328521131071
 30
0.0
 11
602.5426000801502
 21
67.7132863747085
 31
0.0
  0
LINE
  5
B7B4
330
18
100
AcDbEntity
  8
01
100
AcDbLine
 10
602.5426000801502
 20
67.7132863747085
 30
0.0
 11
606.5426000801502
 21
68.51327706753108
 31
0.0
  0
LINE
  5
B7B5
330
18
100
AcDbEntity
  8
01
100
AcDbLine
 10
602.5426000801502
 20
66.11328637470848
 30
0.0
 11
606.5426000801502
 21
66.91327706752674
 31
0.0
  0
LINE
  5
B7B6
330
18
100
AcDbEntity
  8
01
100
AcDbLine
 10
602.5426000801502
 20
62.91328637470843
 30
0.0
 11
606.5426000801502
 21
63.71327706752669
 31
0.0
  0
LINE
  5
B7B7
330
18
100
AcDbEntity
  8
01
100
AcDbLine
 10
602.5426000801502
 20
61.31328637470409
 30
0.0
 11
606.5426000801502
 21
62.11327706752235
 31
0.0
  0
LINE
  5
B7B9
330
18
100
AcDbEntity
  8
1CENTER
100
AcDbLine
 10
434.542553544245
 20
89.06777791197229
 30
0.0
 11
434.542553544245
 21
51.23464486459753
 31
0.0
  0
LINE
  5
B7BA
330
18
100
AcDbEntity
  8
01
100
AcDbLine
 10
433.042600080143
 20
80.41328521131146
 30
0.0
 11
432.542600080143
 21
80.51328637470857
 31
0.0
  0
LINE
  5
B7BB
330
18
100
AcDbEntity
  8
01
100
AcDbLine
 10
432.542600080143
 20
80.51328637470857
 30
0.0
 11
436.542600080143
 21
81.31327706753115
 31
0.0
  0
LINE
  5
B7BC
330
18
100
AcDbEntity
  8
01
100
AcDbLine
 10
436.542600080143
 20
81.31327706753115
 30
0.0
 11
436.042600080143
 21
81.41327823092826
 31
0.0
  0
LINE
  5
B7BD
330
18
100
AcDbEntity
  8
01
100
AcDbLine
 10
433.042600080143
 20
78.81328521131144
 30
0.0
 11
432.542600080143
 21
78.91328637470855
 31
0.0
  0
LINE
  5
B7BE
330
18
100
AcDbEntity
  8
01
100
AcDbLine
 10
436.542600080143
 20
79.71327706753112
 30
0.0
 11
436.042600080143
 21
79.81327823092823
 31
0.0
  0
LINE
  5
B7BF
330
18
100
AcDbEntity
  8
01
100
AcDbLine
 10
432.542600080143
 20
78.91328637470855
 30
0.0
 11
436.542600080143
 21
79.71327706753112
 31
0.0
  0
LINE
  5
B7C0
330
18
100
AcDbEntity
  8
01
100
AcDbLine
 10
433.042600080143
 20
77.21328521131142
 30
0.0
 11
432.542600080143
 21
77.31328637470853
 31
0.0
  0
LINE
  5
B7C1
330
18
100
AcDbEntity
  8
01
100
AcDbLine
 10
432.542600080143
 20
77.31328637470853
 30
0.0
 11
436.542600080143
 21
78.1132770675311
 31
0.0
  0
LINE
  5
B7C2
330
18
100
AcDbEntity
  8
01
100
AcDbLine
 10
436.542600080143
 20
78.1132770675311
 30
0.0
 11
436.042600080143
 21
78.21327823092821
 31
0.0
  0
LINE
  5
B7C3
330
18
100
AcDbEntity
  8
01
100
AcDbLine
 10
433.042600080143
 20
69.2132852113113
 30
0.0
 11
432.542600080143
 21
69.31328637470841
 31
0.0
  0
LINE
  5
B7C4
330
18
100
AcDbEntity
  8
01
100
AcDbLine
 10
436.542600080143
 20
70.11327706753099
 30
0.0
 11
436.042600080143
 21
70.21327823092821
 31
0.0
  0
LINE
  5
B7C5
330
18
100
AcDbEntity
  8
01
100
AcDbLine
 10
436.542600080143
 20
71.71327706753112
 30
0.0
 11
436.042600080143
 21
71.81327823092823
 31
0.0
  0
LINE
  5
B7C6
330
18
100
AcDbEntity
  8
01
100
AcDbLine
 10
433.042600080143
 20
70.81328521131144
 30
0.0
 11
432.542600080143
 21
70.91328637470855
 31
0.0
  0
LINE
  5
B7C7
330
18
100
AcDbEntity
  8
01
100
AcDbLine
 10
433.042600080143
 20
72.41328521131135
 30
0.0
 11
432.542600080143
 21
72.51328637470846
 31
0.0
  0
LINE
  5
B7C8
330
18
100
AcDbEntity
  8
01
100
AcDbLine
 10
432.542600080143
 20
70.91328637470855
 30
0.0
 11
436.542600080143
 21
71.71327706753112
 31
0.0
  0
LINE
  5
B7C9
330
18
100
AcDbEntity
  8
01
100
AcDbLine
 10
432.542600080143
 20
69.31328637470841
 30
0.0
 11
436.542600080143
 21
70.11327706753099
 31
0.0
  0
LINE
  5
B7CA
330
18
100
AcDbEntity
  8
01
100
AcDbLine
 10
433.042600080143
 20
74.01328521131126
 30
0.0
 11
432.542600080143
 21
74.11328637470848
 31
0.0
  0
LINE
  5
B7CB
330
18
100
AcDbEntity
  8
01
100
AcDbLine
 10
433.042600080143
 20
82.2132852113113
 30
0.0
 11
432.542600080143
 21
82.31328637470841
 31
0.0
  0
LINE
  5
B7CC
330
18
100
AcDbEntity
  8
01
100
AcDbLine
 10
432.542600080143
 20
82.31328637470841
 30
0.0
 11
436.316193027939
 21
83.11327759433371
 31
0.0
  0
LINE
  5
B7CD
330
18
100
AcDbEntity
  8
01
100
AcDbLine
 10
436.316193027939
 20
83.11327759433371
 30
0.0
 11
435.7795992926679
 21
83.24254829196357
 31
0.0
  0
LINE
  5
B7CE
330
18
100
AcDbEntity
  8
01
100
AcDbLine
 10
436.542600080143
 20
74.91327706753106
 30
0.0
 11
436.042600080143
 21
75.01327823092805
 31
0.0
  0
LINE
  5
B7CF
330
18
100
AcDbEntity
  8
01
100
AcDbLine
 10
436.542600080143
 20
76.51327706753108
 30
0.0
 11
436.042600080143
 21
76.61327823092819
 31
0.0
  0
LINE
  5
B7D0
330
18
100
AcDbEntity
  8
01
100
AcDbLine
 10
433.042600080143
 20
75.61328521131139
 30
0.0
 11
432.542600080143
 21
75.7132863747085
 31
0.0
  0
LINE
  5
B7D1
330
18
100
AcDbEntity
  8
01
100
AcDbLine
 10
432.542600080143
 20
75.7132863747085
 30
0.0
 11
436.542600080143
 21
76.51327706753108
 31
0.0
  0
LINE
  5
B7D2
330
18
100
AcDbEntity
  8
01
100
AcDbLine
 10
432.542600080143
 20
74.11328637470848
 30
0.0
 11
436.542600080143
 21
74.91327706753106
 31
0.0
  0
LINE
  5
B7D3
330
18
100
AcDbEntity
  8
01
100
AcDbLine
 10
432.9954162222017
 20
83.91328532109824
 30
0.0
 11
435.8633789235322
 21
84.71327864793935
 31
0.0
  0
LINE
  5
B7D4
330
18
100
AcDbEntity
  8
01
100
AcDbLine
 10
433.44822973025
 20
85.51328426749402
 30
0.0
 11
435.4105648191254
 21
86.31327970154499
 31
0.0
  0
LINE
  5
B7D5
330
18
100
AcDbEntity
  8
01
100
AcDbLine
 10
435.8633789235322
 20
84.71327864793935
 30
0.0
 11
435.3116294597289
 21
84.89604279056735
 31
0.0
  0
LINE
  5
B7D6
330
18
100
AcDbEntity
  8
01
100
AcDbLine
 10
433.9054015708811
 20
85.3618484710536
 30
0.0
 11
433.44822973025
 21
85.51328426749402
 31
0.0
  0
LINE
  5
B7D7
330
18
100
AcDbEntity
  8
01
100
AcDbLine
 10
435.4105648191254
 20
86.31327970154499
 30
0.0
 11
434.822288244083
 21
86.6250495577971
 31
0.0
  0
LINE
  5
B7D8
330
18
100
AcDbEntity
  8
01
100
AcDbLine
 10
433.4635146773517
 20
83.8005158087482
 30
0.0
 11
432.9954162222017
 21
83.91328532109824
 31
0.0
  0
LINE
  5
B7D9
330
18
100
AcDbEntity
  8
01
100
AcDbLine
 10
436.542600080143
 20
73.31327706753103
 30
0.0
 11
436.042600080143
 21
73.41327823092826
 31
0.0
  0
LINE
  5
B7DA
330
18
100
AcDbEntity
  8
01
100
AcDbLine
 10
432.542600080143
 20
72.51328637470846
 30
0.0
 11
436.542600080143
 21
73.31327706753103
 31
0.0
  0
LINE
  5
B7DB
330
18
100
AcDbEntity
  8
01
100
AcDbLine
 10
436.042600080143
 20
55.61327823091133
 30
0.0
 11
436.542600080143
 21
55.71327706751362
 31
0.0
  0
LINE
  5
B7DC
330
18
100
AcDbEntity
  8
01
100
AcDbLine
 10
432.542600080143
 20
56.5132863746997
 30
0.0
 11
436.542600080143
 21
57.31327706751796
 31
0.0
  0
LINE
  5
B7DD
330
18
100
AcDbEntity
  8
01
100
AcDbLine
 10
432.542600080143
 20
59.71328637469975
 30
0.0
 11
436.542600080143
 21
60.513277067518
 31
0.0
  0
LINE
  5
B7DE
330
18
100
AcDbEntity
  8
01
100
AcDbLine
 10
436.542600080143
 20
60.513277067518
 30
0.0
 11
436.042600080143
 21
60.61327823091568
 31
0.0
  0
LINE
  5
B7DF
330
18
100
AcDbEntity
  8
01
100
AcDbLine
 10
436.542600080143
 20
57.31327706751796
 30
0.0
 11
436.042600080143
 21
57.41327823091564
 31
0.0
  0
LINE
  5
B7E0
330
18
100
AcDbEntity
  8
01
100
AcDbLine
 10
433.042600080143
 20
58.01328521130193
 30
0.0
 11
432.542600080143
 21
58.11328637469961
 31
0.0
  0
LINE
  5
B7E1
330
18
100
AcDbEntity
  8
01
100
AcDbLine
 10
436.542600080143
 20
58.91327706751787
 30
0.0
 11
436.042600080143
 21
59.01327823091555
 31
0.0
  0
LINE
  5
B7E2
330
18
100
AcDbEntity
  8
01
100
AcDbLine
 10
432.542600080143
 20
58.11328637469961
 30
0.0
 11
436.542600080143
 21
58.91327706751787
 31
0.0
  0
LINE
  5
B7E3
330
18
100
AcDbEntity
  8
01
100
AcDbLine
 10
433.042600080143
 20
59.61328521130207
 30
0.0
 11
432.542600080143
 21
59.71328637469975
 31
0.0
  0
LINE
  5
B7E4
330
18
100
AcDbEntity
  8
01
100
AcDbLine
 10
436.542600080143
 20
55.71327706751362
 30
0.0
 11
436.042600080143
 21
55.81327823091129
 31
0.0
  0
LINE
  5
B7E5
330
18
100
AcDbEntity
  8
01
100
AcDbLine
 10
433.042600080143
 20
56.41328521130202
 30
0.0
 11
432.542600080143
 21
56.5132863746997
 31
0.0
  0
LINE
  5
B7E6
330
18
100
AcDbEntity
  8
01
100
AcDbLine
 10
430.542553544245
 20
52.91329102851483
 30
0.0
 11
438.542553544245
 21
52.91327241415576
 31
0.0
  0
LINE
  5
B7E7
330
18
100
AcDbEntity
  8
01
100
AcDbLine
 10
433.042600080143
 20
61.21328521130641
 30
0.0
 11
432.542600080143
 21
61.31328637470409
 31
0.0
  0
LINE
  5
B7E8
330
18
100
AcDbEntity
  8
01
100
AcDbLine
 10
433.042600080143
 20
62.81328521131076
 30
0.0
 11
432.542600080143
 21
62.91328637470843
 31
0.0
  0
LINE
  5
B7E9
330
18
100
AcDbEntity
  8
01
100
AcDbLine
 10
436.542600080143
 20
62.11327706752235
 30
0.0
 11
436.042600080143
 21
62.21327823092003
 31
0.0
  0
LINE
  5
B7EA
330
18
100
AcDbEntity
  8
01
100
AcDbLine
 10
433.042600080143
 20
66.0132852113108
 30
0.0
 11
432.542600080143
 21
66.11328637470848
 31
0.0
  0
LINE
  5
B7EB
330
18
100
AcDbEntity
  8
01
100
AcDbLine
 10
432.542600080143
 20
64.51328637470834
 30
0.0
 11
436.542600080143
 21
65.3132770675266
 31
0.0
  0
LINE
  5
B7EC
330
18
100
AcDbEntity
  8
01
100
AcDbLine
 10
436.542600080143
 20
65.3132770675266
 30
0.0
 11
436.042600080143
 21
65.41327823092428
 31
0.0
  0
LINE
  5
B7ED
330
18
100
AcDbEntity
  8
01
100
AcDbLine
 10
433.042600080143
 20
64.41328521131067
 30
0.0
 11
432.542600080143
 21
64.51328637470834
 31
0.0
  0
LINE
  5
B7EE
330
18
100
AcDbEntity
  8
01
100
AcDbLine
 10
436.542600080143
 20
63.71327706752669
 30
0.0
 11
436.042600080143
 21
63.81327823092437
 31
0.0
  0
LINE
  5
B7EF
330
18
100
AcDbEntity
  8
01
100
AcDbLine
 10
436.542600080143
 20
68.51327706753108
 30
0.0
 11
436.042600080143
 21
68.61327823092819
 31
0.0
  0
LINE
  5
B7F0
330
18
100
AcDbEntity
  8
01
100
AcDbLine
 10
436.542600080143
 20
66.91327706752674
 30
0.0
 11
436.042600080143
 21
67.01327823092441
 31
0.0
  0
LINE
  5
B7F1
330
18
100
AcDbEntity
  8
01
100
AcDbLine
 10
433.042600080143
 20
67.61328521131071
 30
0.0
 11
432.542600080143
 21
67.7132863747085
 31
0.0
  0
LINE
  5
B7F2
330
18
100
AcDbEntity
  8
01
100
AcDbLine
 10
432.542600080143
 20
67.7132863747085
 30
0.0
 11
436.542600080143
 21
68.51327706753108
 31
0.0
  0
LINE
  5
B7F3
330
18
100
AcDbEntity
  8
01
100
AcDbLine
 10
432.542600080143
 20
66.11328637470848
 30
0.0
 11
436.542600080143
 21
66.91327706752674
 31
0.0
  0
LINE
  5
B7F4
330
18
100
AcDbEntity
  8
01
100
AcDbLine
 10
432.542600080143
 20
62.91328637470843
 30
0.0
 11
436.542600080143
 21
63.71327706752669
 31
0.0
  0
LINE
  5
B7F5
330
18
100
AcDbEntity
  8
01
100
AcDbLine
 10
432.542600080143
 20
61.31328637470409
 30
0.0
 11
436.542600080143
 21
62.11327706752235
 31
0.0
  0
LINE
  5
B7F7
330
18
100
AcDbEntity
  8
1CENTER
100
AcDbLine
 10
404.542553544245
 20
89.06777791197229
 30
0.0
 11
404.542553544245
 21
51.23464486459753
 31
0.0
  0
LINE
  5
B7F8
330
18
100
AcDbEntity
  8
01
100
AcDbLine
 10
403.042600080143
 20
80.41328521131146
 30
0.0
 11
402.542600080143
 21
80.51328637470857
 31
0.0
  0
LINE
  5
B7F9
330
18
100
AcDbEntity
  8
01
100
AcDbLine
 10
402.542600080143
 20
80.51328637470857
 30
0.0
 11
406.542600080143
 21
81.31327706753115
 31
0.0
  0
LINE
  5
B7FA
330
18
100
AcDbEntity
  8
01
100
AcDbLine
 10
406.542600080143
 20
81.31327706753115
 30
0.0
 11
406.042600080143
 21
81.41327823092826
 31
0.0
  0
LINE
  5
B7FB
330
18
100
AcDbEntity
  8
01
100
AcDbLine
 10
403.042600080143
 20
78.81328521131144
 30
0.0
 11
402.542600080143
 21
78.91328637470855
 31
0.0
  0
LINE
  5
B7FC
330
18
100
AcDbEntity
  8
01
100
AcDbLine
 10
406.542600080143
 20
79.71327706753112
 30
0.0
 11
406.042600080143
 21
79.81327823092823
 31
0.0
  0
LINE
  5
B7FD
330
18
100
AcDbEntity
  8
01
100
AcDbLine
 10
402.542600080143
 20
78.91328637470855
 30
0.0
 11
406.542600080143
 21
79.71327706753112
 31
0.0
  0
LINE
  5
B7FE
330
18
100
AcDbEntity
  8
01
100
AcDbLine
 10
403.042600080143
 20
77.21328521131142
 30
0.0
 11
402.542600080143
 21
77.31328637470853
 31
0.0
  0
LINE
  5
B7FF
330
18
100
AcDbEntity
  8
01
100
AcDbLine
 10
402.542600080143
 20
77.31328637470853
 30
0.0
 11
406.542600080143
 21
78.1132770675311
 31
0.0
  0
LINE
  5
B800
330
18
100
AcDbEntity
  8
01
100
AcDbLine
 10
406.542600080143
 20
78.1132770675311
 30
0.0
 11
406.042600080143
 21
78.21327823092821
 31
0.0
  0
LINE
  5
B801
330
18
100
AcDbEntity
  8
01
100
AcDbLine
 10
403.042600080143
 20
69.2132852113113
 30
0.0
 11
402.542600080143
 21
69.31328637470841
 31
0.0
  0
LINE
  5
B802
330
18
100
AcDbEntity
  8
01
100
AcDbLine
 10
406.542600080143
 20
70.11327706753099
 30
0.0
 11
406.042600080143
 21
70.21327823092821
 31
0.0
  0
LINE
  5
B803
330
18
100
AcDbEntity
  8
01
100
AcDbLine
 10
406.542600080143
 20
71.71327706753112
 30
0.0
 11
406.042600080143
 21
71.81327823092823
 31
0.0
  0
LINE
  5
B804
330
18
100
AcDbEntity
  8
01
100
AcDbLine
 10
403.042600080143
 20
70.81328521131144
 30
0.0
 11
402.542600080143
 21
70.91328637470855
 31
0.0
  0
LINE
  5
B805
330
18
100
AcDbEntity
  8
01
100
AcDbLine
 10
403.042600080143
 20
72.41328521131135
 30
0.0
 11
402.542600080143
 21
72.51328637470846
 31
0.0
  0
LINE
  5
B806
330
18
100
AcDbEntity
  8
01
100
AcDbLine
 10
402.542600080143
 20
70.91328637470855
 30
0.0
 11
406.542600080143
 21
71.71327706753112
 31
0.0
  0
LINE
  5
B807
330
18
100
AcDbEntity
  8
01
100
AcDbLine
 10
402.542600080143
 20
69.31328637470841
 30
0.0
 11
406.542600080143
 21
70.11327706753099
 31
0.0
  0
LINE
  5
B808
330
18
100
AcDbEntity
  8
01
100
AcDbLine
 10
403.042600080143
 20
74.01328521131126
 30
0.0
 11
402.542600080143
 21
74.11328637470848
 31
0.0
  0
LINE
  5
B809
330
18
100
AcDbEntity
  8
01
100
AcDbLine
 10
403.042600080143
 20
82.2132852113113
 30
0.0
 11
402.542600080143
 21
82.31328637470841
 31
0.0
  0
LINE
  5
B80A
330
18
100
AcDbEntity
  8
01
100
AcDbLine
 10
402.542600080143
 20
82.31328637470841
 30
0.0
 11
406.316193027939
 21
83.11327759433371
 31
0.0
  0
LINE
  5
B80B
330
18
100
AcDbEntity
  8
01
100
AcDbLine
 10
406.316193027939
 20
83.11327759433371
 30
0.0
 11
405.7795992926679
 21
83.24254829196357
 31
0.0
  0
LINE
  5
B80C
330
18
100
AcDbEntity
  8
01
100
AcDbLine
 10
406.542600080143
 20
74.91327706753106
 30
0.0
 11
406.042600080143
 21
75.01327823092805
 31
0.0
  0
LINE
  5
B80D
330
18
100
AcDbEntity
  8
01
100
AcDbLine
 10
406.542600080143
 20
76.51327706753108
 30
0.0
 11
406.042600080143
 21
76.61327823092819
 31
0.0
  0
LINE
  5
B80E
330
18
100
AcDbEntity
  8
01
100
AcDbLine
 10
403.042600080143
 20
75.61328521131139
 30
0.0
 11
402.542600080143
 21
75.7132863747085
 31
0.0
  0
LINE
  5
B80F
330
18
100
AcDbEntity
  8
01
100
AcDbLine
 10
402.542600080143
 20
75.7132863747085
 30
0.0
 11
406.542600080143
 21
76.51327706753108
 31
0.0
  0
LINE
  5
B810
330
18
100
AcDbEntity
  8
01
100
AcDbLine
 10
402.542600080143
 20
74.11328637470848
 30
0.0
 11
406.542600080143
 21
74.91327706753106
 31
0.0
  0
LINE
  5
B811
330
18
100
AcDbEntity
  8
01
100
AcDbLine
 10
402.9954162222017
 20
83.91328532109824
 30
0.0
 11
405.8633789235322
 21
84.71327864793935
 31
0.0
  0
LINE
  5
B812
330
18
100
AcDbEntity
  8
01
100
AcDbLine
 10
403.44822973025
 20
85.51328426749402
 30
0.0
 11
405.4105648191254
 21
86.31327970154499
 31
0.0
  0
LINE
  5
B813
330
18
100
AcDbEntity
  8
01
100
AcDbLine
 10
405.8633789235322
 20
84.71327864793935
 30
0.0
 11
405.3116294597289
 21
84.89604279056735
 31
0.0
  0
LINE
  5
B814
330
18
100
AcDbEntity
  8
01
100
AcDbLine
 10
403.9054015708811
 20
85.3618484710536
 30
0.0
 11
403.44822973025
 21
85.51328426749402
 31
0.0
  0
LINE
  5
B815
330
18
100
AcDbEntity
  8
01
100
AcDbLine
 10
405.4105648191254
 20
86.31327970154499
 30
0.0
 11
404.822288244083
 21
86.6250495577971
 31
0.0
  0
LINE
  5
B816
330
18
100
AcDbEntity
  8
01
100
AcDbLine
 10
403.4635146773517
 20
83.8005158087482
 30
0.0
 11
402.9954162222017
 21
83.91328532109824
 31
0.0
  0
LINE
  5
B817
330
18
100
AcDbEntity
  8
01
100
AcDbLine
 10
406.542600080143
 20
73.31327706753103
 30
0.0
 11
406.042600080143
 21
73.41327823092826
 31
0.0
  0
LINE
  5
B818
330
18
100
AcDbEntity
  8
01
100
AcDbLine
 10
402.542600080143
 20
72.51328637470846
 30
0.0
 11
406.542600080143
 21
73.31327706753103
 31
0.0
  0
LINE
  5
B819
330
18
100
AcDbEntity
  8
01
100
AcDbLine
 10
406.042600080143
 20
55.61327823091133
 30
0.0
 11
406.542600080143
 21
55.71327706751362
 31
0.0
  0
LINE
  5
B81A
330
18
100
AcDbEntity
  8
01
100
AcDbLine
 10
402.542600080143
 20
56.5132863746997
 30
0.0
 11
406.542600080143
 21
57.31327706751796
 31
0.0
  0
LINE
  5
B81B
330
18
100
AcDbEntity
  8
01
100
AcDbLine
 10
402.542600080143
 20
59.71328637469975
 30
0.0
 11
406.542600080143
 21
60.513277067518
 31
0.0
  0
LINE
  5
B81C
330
18
100
AcDbEntity
  8
01
100
AcDbLine
 10
406.542600080143
 20
60.513277067518
 30
0.0
 11
406.042600080143
 21
60.61327823091568
 31
0.0
  0
LINE
  5
B81D
330
18
100
AcDbEntity
  8
01
100
AcDbLine
 10
406.542600080143
 20
57.31327706751796
 30
0.0
 11
406.042600080143
 21
57.41327823091564
 31
0.0
  0
LINE
  5
B81E
330
18
100
AcDbEntity
  8
01
100
AcDbLine
 10
403.042600080143
 20
58.01328521130193
 30
0.0
 11
402.542600080143
 21
58.11328637469961
 31
0.0
  0
LINE
  5
B81F
330
18
100
AcDbEntity
  8
01
100
AcDbLine
 10
406.542600080143
 20
58.91327706751787
 30
0.0
 11
406.042600080143
 21
59.01327823091555
 31
0.0
  0
LINE
  5
B820
330
18
100
AcDbEntity
  8
01
100
AcDbLine
 10
402.542600080143
 20
58.11328637469961
 30
0.0
 11
406.542600080143
 21
58.91327706751787
 31
0.0
  0
LINE
  5
B821
330
18
100
AcDbEntity
  8
01
100
AcDbLine
 10
403.042600080143
 20
59.61328521130207
 30
0.0
 11
402.542600080143
 21
59.71328637469975
 31
0.0
  0
LINE
  5
B822
330
18
100
AcDbEntity
  8
01
100
AcDbLine
 10
406.542600080143
 20
55.71327706751362
 30
0.0
 11
406.042600080143
 21
55.81327823091129
 31
0.0
  0
LINE
  5
B823
330
18
100
AcDbEntity
  8
01
100
AcDbLine
 10
403.042600080143
 20
56.41328521130202
 30
0.0
 11
402.542600080143
 21
56.5132863746997
 31
0.0
  0
LINE
  5
B824
330
18
100
AcDbEntity
  8
01
100
AcDbLine
 10
400.542553544245
 20
52.91329102851483
 30
0.0
 11
408.542553544245
 21
52.91327241415576
 31
0.0
  0
LINE
  5
B825
330
18
100
AcDbEntity
  8
01
100
AcDbLine
 10
403.042600080143
 20
61.21328521130641
 30
0.0
 11
402.542600080143
 21
61.31328637470409
 31
0.0
  0
LINE
  5
B826
330
18
100
AcDbEntity
  8
01
100
AcDbLine
 10
403.042600080143
 20
62.81328521131076
 30
0.0
 11
402.542600080143
 21
62.91328637470843
 31
0.0
  0
LINE
  5
B827
330
18
100
AcDbEntity
  8
01
100
AcDbLine
 10
406.542600080143
 20
62.11327706752235
 30
0.0
 11
406.042600080143
 21
62.21327823092003
 31
0.0
  0
LINE
  5
B828
330
18
100
AcDbEntity
  8
01
100
AcDbLine
 10
403.042600080143
 20
66.0132852113108
 30
0.0
 11
402.542600080143
 21
66.11328637470848
 31
0.0
  0
LINE
  5
B829
330
18
100
AcDbEntity
  8
01
100
AcDbLine
 10
402.542600080143
 20
64.51328637470834
 30
0.0
 11
406.542600080143
 21
65.3132770675266
 31
0.0
  0
LINE
  5
B82A
330
18
100
AcDbEntity
  8
01
100
AcDbLine
 10
406.542600080143
 20
65.3132770675266
 30
0.0
 11
406.042600080143
 21
65.41327823092428
 31
0.0
  0
LINE
  5
B82B
330
18
100
AcDbEntity
  8
01
100
AcDbLine
 10
403.042600080143
 20
64.41328521131067
 30
0.0
 11
402.542600080143
 21
64.51328637470834
 31
0.0
  0
LINE
  5
B82C
330
18
100
AcDbEntity
  8
01
100
AcDbLine
 10
406.542600080143
 20
63.71327706752669
 30
0.0
 11
406.042600080143
 21
63.81327823092437
 31
0.0
  0
LINE
  5
B82D
330
18
100
AcDbEntity
  8
01
100
AcDbLine
 10
406.542600080143
 20
68.51327706753108
 30
0.0
 11
406.042600080143
 21
68.61327823092819
 31
0.0
  0
LINE
  5
B82E
330
18
100
AcDbEntity
  8
01
100
AcDbLine
 10
406.542600080143
 20
66.91327706752674
 30
0.0
 11
406.042600080143
 21
67.01327823092441
 31
0.0
  0
LINE
  5
B82F
330
18
100
AcDbEntity
  8
01
100
AcDbLine
 10
403.042600080143
 20
67.61328521131071
 30
0.0
 11
402.542600080143
 21
67.7132863747085
 31
0.0
  0
LINE
  5
B830
330
18
100
AcDbEntity
  8
01
100
AcDbLine
 10
402.542600080143
 20
67.7132863747085
 30
0.0
 11
406.542600080143
 21
68.51327706753108
 31
0.0
  0
LINE
  5
B831
330
18
100
AcDbEntity
  8
01
100
AcDbLine
 10
402.542600080143
 20
66.11328637470848
 30
0.0
 11
406.542600080143
 21
66.91327706752674
 31
0.0
  0
LINE
  5
B832
330
18
100
AcDbEntity
  8
01
100
AcDbLine
 10
402.542600080143
 20
62.91328637470843
 30
0.0
 11
406.542600080143
 21
63.71327706752669
 31
0.0
  0
LINE
  5
B833
330
18
100
AcDbEntity
  8
01
100
AcDbLine
 10
402.542600080143
 20
61.31328637470409
 30
0.0
 11
406.542600080143
 21
62.11327706752235
 31
0.0
  0
LINE
  5
B835
330
18
100
AcDbEntity
  8
1CENTER
100
AcDbLine
 10
34.54255354423459
 20
89.06777791197229
 30
0.0
 11
34.54255354423458
 21
51.23464486459753
 31
0.0
  0
LINE
  5
B836
330
18
100
AcDbEntity
  8
01
100
AcDbLine
 10
33.04260008013251
 20
80.41328521131146
 30
0.0
 11
32.54260008013251
 21
80.51328637470857
 31
0.0
  0
LINE
  5
B837
330
18
100
AcDbEntity
  8
01
100
AcDbLine
 10
32.54260008013251
 20
80.51328637470857
 30
0.0
 11
36.54260008013251
 21
81.31327706753115
 31
0.0
  0
LINE
  5
B838
330
18
100
AcDbEntity
  8
01
100
AcDbLine
 10
36.54260008013251
 20
81.31327706753115
 30
0.0
 11
36.04260008013251
 21
81.41327823092826
 31
0.0
  0
LINE
  5
B839
330
18
100
AcDbEntity
  8
01
100
AcDbLine
 10
33.04260008013251
 20
78.81328521131144
 30
0.0
 11
32.54260008013251
 21
78.91328637470855
 31
0.0
  0
LINE
  5
B83A
330
18
100
AcDbEntity
  8
01
100
AcDbLine
 10
36.54260008013251
 20
79.71327706753112
 30
0.0
 11
36.04260008013251
 21
79.81327823092823
 31
0.0
  0
LINE
  5
B83B
330
18
100
AcDbEntity
  8
01
100
AcDbLine
 10
32.54260008013251
 20
78.91328637470855
 30
0.0
 11
36.54260008013251
 21
79.71327706753112
 31
0.0
  0
LINE
  5
B83C
330
18
100
AcDbEntity
  8
01
100
AcDbLine
 10
33.04260008013251
 20
77.21328521131142
 30
0.0
 11
32.54260008013251
 21
77.31328637470853
 31
0.0
  0
LINE
  5
B83D
330
18
100
AcDbEntity
  8
01
100
AcDbLine
 10
32.54260008013251
 20
77.31328637470853
 30
0.0
 11
36.54260008013251
 21
78.1132770675311
 31
0.0
  0
LINE
  5
B83E
330
18
100
AcDbEntity
  8
01
100
AcDbLine
 10
36.54260008013251
 20
78.1132770675311
 30
0.0
 11
36.04260008013251
 21
78.21327823092821
 31
0.0
  0
LINE
  5
B83F
330
18
100
AcDbEntity
  8
01
100
AcDbLine
 10
33.0426000801325
 20
69.2132852113113
 30
0.0
 11
32.5426000801325
 21
69.31328637470841
 31
0.0
  0
LINE
  5
B840
330
18
100
AcDbEntity
  8
01
100
AcDbLine
 10
36.5426000801325
 20
70.11327706753099
 30
0.0
 11
36.0426000801325
 21
70.21327823092821
 31
0.0
  0
LINE
  5
B841
330
18
100
AcDbEntity
  8
01
100
AcDbLine
 10
36.5426000801325
 20
71.71327706753112
 30
0.0
 11
36.0426000801325
 21
71.81327823092823
 31
0.0
  0
LINE
  5
B842
330
18
100
AcDbEntity
  8
01
100
AcDbLine
 10
33.0426000801325
 20
70.81328521131144
 30
0.0
 11
32.5426000801325
 21
70.91328637470855
 31
0.0
  0
LINE
  5
B843
330
18
100
AcDbEntity
  8
01
100
AcDbLine
 10
33.0426000801325
 20
72.41328521131135
 30
0.0
 11
32.5426000801325
 21
72.51328637470846
 31
0.0
  0
LINE
  5
B844
330
18
100
AcDbEntity
  8
01
100
AcDbLine
 10
32.5426000801325
 20
70.91328637470855
 30
0.0
 11
36.5426000801325
 21
71.71327706753112
 31
0.0
  0
LINE
  5
B845
330
18
100
AcDbEntity
  8
01
100
AcDbLine
 10
32.5426000801325
 20
69.31328637470841
 30
0.0
 11
36.5426000801325
 21
70.11327706753099
 31
0.0
  0
LINE
  5
B846
330
18
100
AcDbEntity
  8
01
100
AcDbLine
 10
33.04260008013251
 20
74.01328521131126
 30
0.0
 11
32.54260008013251
 21
74.11328637470848
 31
0.0
  0
LINE
  5
B847
330
18
100
AcDbEntity
  8
01
100
AcDbLine
 10
33.04260008013251
 20
82.2132852113113
 30
0.0
 11
32.54260008013251
 21
82.31328637470841
 31
0.0
  0
LINE
  5
B848
330
18
100
AcDbEntity
  8
01
100
AcDbLine
 10
32.54260008013251
 20
82.31328637470841
 30
0.0
 11
36.31619302792854
 21
83.11327759433371
 31
0.0
  0
LINE
  5
B849
330
18
100
AcDbEntity
  8
01
100
AcDbLine
 10
36.31619302792854
 20
83.11327759433371
 30
0.0
 11
35.7795992926574
 21
83.24254829196357
 31
0.0
  0
LINE
  5
B84A
330
18
100
AcDbEntity
  8
01
100
AcDbLine
 10
36.54260008013251
 20
74.91327706753106
 30
0.0
 11
36.04260008013251
 21
75.01327823092805
 31
0.0
  0
LINE
  5
B84B
330
18
100
AcDbEntity
  8
01
100
AcDbLine
 10
36.54260008013251
 20
76.51327706753108
 30
0.0
 11
36.04260008013251
 21
76.61327823092819
 31
0.0
  0
LINE
  5
B84C
330
18
100
AcDbEntity
  8
01
100
AcDbLine
 10
33.04260008013251
 20
75.61328521131139
 30
0.0
 11
32.54260008013251
 21
75.7132863747085
 31
0.0
  0
LINE
  5
B84D
330
18
100
AcDbEntity
  8
01
100
AcDbLine
 10
32.54260008013251
 20
75.7132863747085
 30
0.0
 11
36.54260008013251
 21
76.51327706753108
 31
0.0
  0
LINE
  5
B84E
330
18
100
AcDbEntity
  8
01
100
AcDbLine
 10
32.54260008013251
 20
74.11328637470848
 30
0.0
 11
36.54260008013251
 21
74.91327706753106
 31
0.0
  0
LINE
  5
B84F
330
18
100
AcDbEntity
  8
01
100
AcDbLine
 10
32.99541622219125
 20
83.91328532109824
 30
0.0
 11
35.86337892352174
 21
84.71327864793935
 31
0.0
  0
LINE
  5
B850
330
18
100
AcDbEntity
  8
01
100
AcDbLine
 10
33.44822973023953
 20
85.51328426749402
 30
0.0
 11
35.41056481911495
 21
86.31327970154499
 31
0.0
  0
LINE
  5
B851
330
18
100
AcDbEntity
  8
01
100
AcDbLine
 10
35.86337892352174
 20
84.71327864793935
 30
0.0
 11
35.31162945971847
 21
84.89604279056735
 31
0.0
  0
LINE
  5
B852
330
18
100
AcDbEntity
  8
01
100
AcDbLine
 10
33.9054015708706
 20
85.3618484710536
 30
0.0
 11
33.44822973023953
 21
85.51328426749402
 31
0.0
  0
LINE
  5
B853
330
18
100
AcDbEntity
  8
01
100
AcDbLine
 10
35.41056481911495
 20
86.31327970154499
 30
0.0
 11
34.82228824407253
 21
86.6250495577971
 31
0.0
  0
LINE
  5
B854
330
18
100
AcDbEntity
  8
01
100
AcDbLine
 10
33.46351467734122
 20
83.8005158087482
 30
0.0
 11
32.99541622219125
 21
83.91328532109824
 31
0.0
  0
LINE
  5
B855
330
18
100
AcDbEntity
  8
01
100
AcDbLine
 10
36.54260008013251
 20
73.31327706753103
 30
0.0
 11
36.04260008013251
 21
73.41327823092826
 31
0.0
  0
LINE
  5
B856
330
18
100
AcDbEntity
  8
01
100
AcDbLine
 10
32.5426000801325
 20
72.51328637470846
 30
0.0
 11
36.54260008013251
 21
73.31327706753103
 31
0.0
  0
LINE
  5
B857
330
18
100
AcDbEntity
  8
01
100
AcDbLine
 10
36.0426000801325
 20
55.61327823091133
 30
0.0
 11
36.5426000801325
 21
55.71327706751362
 31
0.0
  0
LINE
  5
B858
330
18
100
AcDbEntity
  8
01
100
AcDbLine
 10
32.5426000801325
 20
56.5132863746997
 30
0.0
 11
36.5426000801325
 21
57.31327706751796
 31
0.0
  0
LINE
  5
B859
330
18
100
AcDbEntity
  8
01
100
AcDbLine
 10
32.5426000801325
 20
59.71328637469975
 30
0.0
 11
36.5426000801325
 21
60.513277067518
 31
0.0
  0
LINE
  5
B85A
330
18
100
AcDbEntity
  8
01
100
AcDbLine
 10
36.5426000801325
 20
60.513277067518
 30
0.0
 11
36.0426000801325
 21
60.61327823091568
 31
0.0
  0
LINE
  5
B85B
330
18
100
AcDbEntity
  8
01
100
AcDbLine
 10
36.5426000801325
 20
57.31327706751796
 30
0.0
 11
36.0426000801325
 21
57.41327823091564
 31
0.0
  0
LINE
  5
B85C
330
18
100
AcDbEntity
  8
01
100
AcDbLine
 10
33.0426000801325
 20
58.01328521130193
 30
0.0
 11
32.5426000801325
 21
58.11328637469961
 31
0.0
  0
LINE
  5
B85D
330
18
100
AcDbEntity
  8
01
100
AcDbLine
 10
36.5426000801325
 20
58.91327706751787
 30
0.0
 11
36.0426000801325
 21
59.01327823091555
 31
0.0
  0
LINE
  5
B85E
330
18
100
AcDbEntity
  8
01
100
AcDbLine
 10
32.5426000801325
 20
58.11328637469961
 30
0.0
 11
36.5426000801325
 21
58.91327706751787
 31
0.0
  0
LINE
  5
B85F
330
18
100
AcDbEntity
  8
01
100
AcDbLine
 10
33.0426000801325
 20
59.61328521130207
 30
0.0
 11
32.5426000801325
 21
59.71328637469975
 31
0.0
  0
LINE
  5
B860
330
18
100
AcDbEntity
  8
01
100
AcDbLine
 10
36.5426000801325
 20
55.71327706751362
 30
0.0
 11
36.0426000801325
 21
55.81327823091129
 31
0.0
  0
LINE
  5
B861
330
18
100
AcDbEntity
  8
01
100
AcDbLine
 10
33.0426000801325
 20
56.41328521130202
 30
0.0
 11
32.5426000801325
 21
56.5132863746997
 31
0.0
  0
LINE
  5
B862
330
18
100
AcDbEntity
  8
01
100
AcDbLine
 10
30.54255354423458
 20
52.91329102851483
 30
0.0
 11
38.54255354423458
 21
52.91327241415576
 31
0.0
  0
LINE
  5
B863
330
18
100
AcDbEntity
  8
01
100
AcDbLine
 10
33.0426000801325
 20
61.21328521130641
 30
0.0
 11
32.5426000801325
 21
61.31328637470409
 31
0.0
  0
LINE
  5
B864
330
18
100
AcDbEntity
  8
01
100
AcDbLine
 10
33.0426000801325
 20
62.81328521131076
 30
0.0
 11
32.5426000801325
 21
62.91328637470843
 31
0.0
  0
LINE
  5
B865
330
18
100
AcDbEntity
  8
01
100
AcDbLine
 10
36.5426000801325
 20
62.11327706752235
 30
0.0
 11
36.0426000801325
 21
62.21327823092003
 31
0.0
  0
LINE
  5
B866
330
18
100
AcDbEntity
  8
01
100
AcDbLine
 10
33.0426000801325
 20
66.0132852113108
 30
0.0
 11
32.5426000801325
 21
66.11328637470848
 31
0.0
  0
LINE
  5
B867
330
18
100
AcDbEntity
  8
01
100
AcDbLine
 10
32.5426000801325
 20
64.51328637470834
 30
0.0
 11
36.5426000801325
 21
65.3132770675266
 31
0.0
  0
LINE
  5
B868
330
18
100
AcDbEntity
  8
01
100
AcDbLine
 10
36.5426000801325
 20
65.3132770675266
 30
0.0
 11
36.0426000801325
 21
65.41327823092428
 31
0.0
  0
LINE
  5
B869
330
18
100
AcDbEntity
  8
01
100
AcDbLine
 10
33.0426000801325
 20
64.41328521131067
 30
0.0
 11
32.5426000801325
 21
64.51328637470834
 31
0.0
  0
LINE
  5
B86A
330
18
100
AcDbEntity
  8
01
100
AcDbLine
 10
36.5426000801325
 20
63.71327706752669
 30
0.0
 11
36.0426000801325
 21
63.81327823092437
 31
0.0
  0
LINE
  5
B86B
330
18
100
AcDbEntity
  8
01
100
AcDbLine
 10
36.5426000801325
 20
68.51327706753108
 30
0.0
 11
36.0426000801325
 21
68.61327823092819
 31
0.0
  0
LINE
  5
B86C
330
18
100
AcDbEntity
  8
01
100
AcDbLine
 10
36.5426000801325
 20
66.91327706752674
 30
0.0
 11
36.0426000801325
 21
67.01327823092441
 31
0.0
  0
LINE
  5
B86D
330
18
100
AcDbEntity
  8
01
100
AcDbLine
 10
33.0426000801325
 20
67.61328521131071
 30
0.0
 11
32.5426000801325
 21
67.7132863747085
 31
0.0
  0
LINE
  5
B86E
330
18
100
AcDbEntity
  8
01
100
AcDbLine
 10
32.5426000801325
 20
67.7132863747085
 30
0.0
 11
36.5426000801325
 21
68.51327706753108
 31
0.0
  0
LINE
  5
B86F
330
18
100
AcDbEntity
  8
01
100
AcDbLine
 10
32.5426000801325
 20
66.11328637470848
 30
0.0
 11
36.5426000801325
 21
66.91327706752674
 31
0.0
  0
LINE
  5
B870
330
18
100
AcDbEntity
  8
01
100
AcDbLine
 10
32.5426000801325
 20
62.91328637470843
 30
0.0
 11
36.5426000801325
 21
63.71327706752669
 31
0.0
  0
LINE
  5
B871
330
18
100
AcDbEntity
  8
01
100
AcDbLine
 10
32.5426000801325
 20
61.31328637470409
 30
0.0
 11
36.5426000801325
 21
62.11327706752235
 31
0.0
  0
LINE
  5
B873
330
18
100
AcDbEntity
  8
1CENTER
100
AcDbLine
 10
4.542553544230948
 20
89.06777791197229
 30
0.0
 11
4.542553544230941
 21
51.23464486459753
 31
0.0
  0
LINE
  5
B874
330
18
100
AcDbEntity
  8
01
100
AcDbLine
 10
3.042600080128869
 20
80.41328521131146
 30
0.0
 11
2.542600080128869
 21
80.51328637470857
 31
0.0
  0
LINE
  5
B875
330
18
100
AcDbEntity
  8
01
100
AcDbLine
 10
2.542600080128869
 20
80.51328637470857
 30
0.0
 11
6.542600080128869
 21
81.31327706753115
 31
0.0
  0
LINE
  5
B876
330
18
100
AcDbEntity
  8
01
100
AcDbLine
 10
6.542600080128869
 20
81.31327706753115
 30
0.0
 11
6.042600080128869
 21
81.41327823092826
 31
0.0
  0
LINE
  5
B877
330
18
100
AcDbEntity
  8
01
100
AcDbLine
 10
3.042600080128869
 20
78.81328521131144
 30
0.0
 11
2.542600080128869
 21
78.91328637470855
 31
0.0
  0
LINE
  5
B878
330
18
100
AcDbEntity
  8
01
100
AcDbLine
 10
6.542600080128869
 20
79.71327706753112
 30
0.0
 11
6.042600080128869
 21
79.81327823092823
 31
0.0
  0
LINE
  5
B879
330
18
100
AcDbEntity
  8
01
100
AcDbLine
 10
2.542600080128869
 20
78.91328637470855
 30
0.0
 11
6.542600080128869
 21
79.71327706753112
 31
0.0
  0
LINE
  5
B87A
330
18
100
AcDbEntity
  8
01
100
AcDbLine
 10
3.042600080128868
 20
77.21328521131142
 30
0.0
 11
2.542600080128868
 21
77.31328637470853
 31
0.0
  0
LINE
  5
B87B
330
18
100
AcDbEntity
  8
01
100
AcDbLine
 10
2.542600080128868
 20
77.31328637470853
 30
0.0
 11
6.542600080128869
 21
78.1132770675311
 31
0.0
  0
LINE
  5
B87C
330
18
100
AcDbEntity
  8
01
100
AcDbLine
 10
6.542600080128869
 20
78.1132770675311
 30
0.0
 11
6.042600080128868
 21
78.21327823092821
 31
0.0
  0
LINE
  5
B87D
330
18
100
AcDbEntity
  8
01
100
AcDbLine
 10
3.042600080128867
 20
69.2132852113113
 30
0.0
 11
2.542600080128867
 21
69.31328637470841
 31
0.0
  0
LINE
  5
B87E
330
18
100
AcDbEntity
  8
01
100
AcDbLine
 10
6.542600080128867
 20
70.11327706753099
 30
0.0
 11
6.042600080128867
 21
70.21327823092821
 31
0.0
  0
LINE
  5
B87F
330
18
100
AcDbEntity
  8
01
100
AcDbLine
 10
6.542600080128867
 20
71.71327706753112
 30
0.0
 11
6.042600080128867
 21
71.81327823092823
 31
0.0
  0
LINE
  5
B880
330
18
100
AcDbEntity
  8
01
100
AcDbLine
 10
3.042600080128867
 20
70.81328521131144
 30
0.0
 11
2.542600080128867
 21
70.91328637470855
 31
0.0
  0
LINE
  5
B881
330
18
100
AcDbEntity
  8
01
100
AcDbLine
 10
3.042600080128867
 20
72.41328521131135
 30
0.0
 11
2.542600080128867
 21
72.51328637470846
 31
0.0
  0
LINE
  5
B882
330
18
100
AcDbEntity
  8
01
100
AcDbLine
 10
2.542600080128867
 20
70.91328637470855
 30
0.0
 11
6.542600080128867
 21
71.71327706753112
 31
0.0
  0
LINE
  5
B883
330
18
100
AcDbEntity
  8
01
100
AcDbLine
 10
2.542600080128867
 20
69.31328637470841
 30
0.0
 11
6.542600080128867
 21
70.11327706753099
 31
0.0
  0
LINE
  5
B884
330
18
100
AcDbEntity
  8
01
100
AcDbLine
 10
3.042600080128868
 20
74.01328521131126
 30
0.0
 11
2.542600080128868
 21
74.11328637470848
 31
0.0
  0
LINE
  5
B885
330
18
100
AcDbEntity
  8
01
100
AcDbLine
 10
3.042600080128869
 20
82.2132852113113
 30
0.0
 11
2.542600080128869
 21
82.31328637470841
 31
0.0
  0
LINE
  5
B886
330
18
100
AcDbEntity
  8
01
100
AcDbLine
 10
2.542600080128869
 20
82.31328637470841
 30
0.0
 11
6.316193027924902
 21
83.11327759433371
 31
0.0
  0
LINE
  5
B887
330
18
100
AcDbEntity
  8
01
100
AcDbLine
 10
6.316193027924902
 20
83.11327759433371
 30
0.0
 11
5.779599292653762
 21
83.24254829196357
 31
0.0
  0
LINE
  5
B888
330
18
100
AcDbEntity
  8
01
100
AcDbLine
 10
6.542600080128867
 20
74.91327706753106
 30
0.0
 11
6.042600080128868
 21
75.01327823092805
 31
0.0
  0
LINE
  5
B889
330
18
100
AcDbEntity
  8
01
100
AcDbLine
 10
6.542600080128868
 20
76.51327706753108
 30
0.0
 11
6.042600080128868
 21
76.61327823092819
 31
0.0
  0
LINE
  5
B88A
330
18
100
AcDbEntity
  8
01
100
AcDbLine
 10
3.042600080128868
 20
75.61328521131139
 30
0.0
 11
2.542600080128868
 21
75.7132863747085
 31
0.0
  0
LINE
  5
B88B
330
18
100
AcDbEntity
  8
01
100
AcDbLine
 10
2.542600080128868
 20
75.7132863747085
 30
0.0
 11
6.542600080128868
 21
76.51327706753108
 31
0.0
  0
LINE
  5
B88C
330
18
100
AcDbEntity
  8
01
100
AcDbLine
 10
2.542600080128868
 20
74.11328637470848
 30
0.0
 11
6.542600080128867
 21
74.91327706753106
 31
0.0
  0
LINE
  5
B88D
330
18
100
AcDbEntity
  8
01
100
AcDbLine
 10
2.995416222187606
 20
83.91328532109824
 30
0.0
 11
5.863378923518105
 21
84.71327864793935
 31
0.0
  0
LINE
  5
B88E
330
18
100
AcDbEntity
  8
01
100
AcDbLine
 10
3.448229730235886
 20
85.51328426749402
 30
0.0
 11
5.410564819111307
 21
86.31327970154499
 31
0.0
  0
LINE
  5
B88F
330
18
100
AcDbEntity
  8
01
100
AcDbLine
 10
5.863378923518105
 20
84.71327864793935
 30
0.0
 11
5.311629459714829
 21
84.89604279056735
 31
0.0
  0
LINE
  5
B890
330
18
100
AcDbEntity
  8
01
100
AcDbLine
 10
3.905401570866963
 20
85.3618484710536
 30
0.0
 11
3.448229730235886
 21
85.51328426749402
 31
0.0
  0
LINE
  5
B891
330
18
100
AcDbEntity
  8
01
100
AcDbLine
 10
5.410564819111307
 20
86.31327970154499
 30
0.0
 11
4.822288244068893
 21
86.6250495577971
 31
0.0
  0
LINE
  5
B892
330
18
100
AcDbEntity
  8
01
100
AcDbLine
 10
3.463514677337577
 20
83.8005158087482
 30
0.0
 11
2.995416222187606
 21
83.91328532109824
 31
0.0
  0
LINE
  5
B893
330
18
100
AcDbEntity
  8
01
100
AcDbLine
 10
6.542600080128867
 20
73.31327706753103
 30
0.0
 11
6.042600080128867
 21
73.41327823092826
 31
0.0
  0
LINE
  5
B894
330
18
100
AcDbEntity
  8
01
100
AcDbLine
 10
2.542600080128867
 20
72.51328637470846
 30
0.0
 11
6.542600080128867
 21
73.31327706753103
 31
0.0
  0
LINE
  5
B895
330
18
100
AcDbEntity
  8
01
100
AcDbLine
 10
6.042600080128864
 20
55.61327823091133
 30
0.0
 11
6.542600080128864
 21
55.71327706751362
 31
0.0
  0
LINE
  5
B896
330
18
100
AcDbEntity
  8
01
100
AcDbLine
 10
2.542600080128865
 20
56.5132863746997
 30
0.0
 11
6.542600080128865
 21
57.31327706751796
 31
0.0
  0
LINE
  5
B897
330
18
100
AcDbEntity
  8
01
100
AcDbLine
 10
2.542600080128865
 20
59.71328637469975
 30
0.0
 11
6.542600080128866
 21
60.513277067518
 31
0.0
  0
LINE
  5
B898
330
18
100
AcDbEntity
  8
01
100
AcDbLine
 10
6.542600080128866
 20
60.513277067518
 30
0.0
 11
6.042600080128866
 21
60.61327823091568
 31
0.0
  0
LINE
  5
B899
330
18
100
AcDbEntity
  8
01
100
AcDbLine
 10
6.542600080128865
 20
57.31327706751796
 30
0.0
 11
6.042600080128865
 21
57.41327823091564
 31
0.0
  0
LINE
  5
B89A
330
18
100
AcDbEntity
  8
01
100
AcDbLine
 10
3.042600080128865
 20
58.01328521130193
 30
0.0
 11
2.542600080128865
 21
58.11328637469961
 31
0.0
  0
LINE
  5
B89B
330
18
100
AcDbEntity
  8
01
100
AcDbLine
 10
6.542600080128866
 20
58.91327706751787
 30
0.0
 11
6.042600080128865
 21
59.01327823091555
 31
0.0
  0
LINE
  5
B89C
330
18
100
AcDbEntity
  8
01
100
AcDbLine
 10
2.542600080128865
 20
58.11328637469961
 30
0.0
 11
6.542600080128866
 21
58.91327706751787
 31
0.0
  0
LINE
  5
B89D
330
18
100
AcDbEntity
  8
01
100
AcDbLine
 10
3.042600080128865
 20
59.61328521130207
 30
0.0
 11
2.542600080128865
 21
59.71328637469975
 31
0.0
  0
LINE
  5
B89E
330
18
100
AcDbEntity
  8
01
100
AcDbLine
 10
6.542600080128864
 20
55.71327706751362
 30
0.0
 11
6.042600080128865
 21
55.81327823091129
 31
0.0
  0
LINE
  5
B89F
330
18
100
AcDbEntity
  8
01
100
AcDbLine
 10
3.042600080128865
 20
56.41328521130202
 30
0.0
 11
2.542600080128865
 21
56.5132863746997
 31
0.0
  0
LINE
  5
B8A0
330
18
100
AcDbEntity
  8
01
100
AcDbLine
 10
0.542553544230941
 20
52.91329102851483
 30
0.0
 11
8.542553544230941
 21
52.91327241415576
 31
0.0
  0
LINE
  5
B8A1
330
18
100
AcDbEntity
  8
01
100
AcDbLine
 10
3.042600080128866
 20
61.21328521130641
 30
0.0
 11
2.542600080128866
 21
61.31328637470409
 31
0.0
  0
LINE
  5
B8A2
330
18
100
AcDbEntity
  8
01
100
AcDbLine
 10
3.042600080128866
 20
62.81328521131076
 30
0.0
 11
2.542600080128866
 21
62.91328637470843
 31
0.0
  0
LINE
  5
B8A3
330
18
100
AcDbEntity
  8
01
100
AcDbLine
 10
6.542600080128866
 20
62.11327706752235
 30
0.0
 11
6.042600080128866
 21
62.21327823092003
 31
0.0
  0
LINE
  5
B8A4
330
18
100
AcDbEntity
  8
01
100
AcDbLine
 10
3.042600080128866
 20
66.0132852113108
 30
0.0
 11
2.542600080128866
 21
66.11328637470848
 31
0.0
  0
LINE
  5
B8A5
330
18
100
AcDbEntity
  8
01
100
AcDbLine
 10
2.542600080128866
 20
64.51328637470834
 30
0.0
 11
6.542600080128866
 21
65.3132770675266
 31
0.0
  0
LINE
  5
B8A6
330
18
100
AcDbEntity
  8
01
100
AcDbLine
 10
6.542600080128866
 20
65.3132770675266
 30
0.0
 11
6.042600080128866
 21
65.41327823092428
 31
0.0
  0
LINE
  5
B8A7
330
18
100
AcDbEntity
  8
01
100
AcDbLine
 10
3.042600080128866
 20
64.41328521131067
 30
0.0
 11
2.542600080128866
 21
64.51328637470834
 31
0.0
  0
LINE
  5
B8A8
330
18
100
AcDbEntity
  8
01
100
AcDbLine
 10
6.542600080128866
 20
63.71327706752669
 30
0.0
 11
6.042600080128866
 21
63.81327823092437
 31
0.0
  0
LINE
  5
B8A9
330
18
100
AcDbEntity
  8
01
100
AcDbLine
 10
6.542600080128867
 20
68.51327706753108
 30
0.0
 11
6.042600080128866
 21
68.61327823092819
 31
0.0
  0
LINE
  5
B8AA
330
18
100
AcDbEntity
  8
01
100
AcDbLine
 10
6.542600080128866
 20
66.91327706752674
 30
0.0
 11
6.042600080128866
 21
67.01327823092441
 31
0.0
  0
LINE
  5
B8AB
330
18
100
AcDbEntity
  8
01
100
AcDbLine
 10
3.042600080128866
 20
67.61328521131071
 30
0.0
 11
2.542600080128866
 21
67.7132863747085
 31
0.0
  0
LINE
  5
B8AC
330
18
100
AcDbEntity
  8
01
100
AcDbLine
 10
2.542600080128866
 20
67.7132863747085
 30
0.0
 11
6.542600080128867
 21
68.51327706753108
 31
0.0
  0
LINE
  5
B8AD
330
18
100
AcDbEntity
  8
01
100
AcDbLine
 10
2.542600080128866
 20
66.11328637470848
 30
0.0
 11
6.542600080128866
 21
66.91327706752674
 31
0.0
  0
LINE
  5
B8AE
330
18
100
AcDbEntity
  8
01
100
AcDbLine
 10
2.542600080128866
 20
62.91328637470843
 30
0.0
 11
6.542600080128866
 21
63.71327706752669
 31
0.0
  0
LINE
  5
B8AF
330
18
100
AcDbEntity
  8
01
100
AcDbLine
 10
2.542600080128866
 20
61.31328637470409
 30
0.0
 11
6.542600080128866
 21
62.11327706752235
 31
0.0
  0
LINE
  5
B8B1
330
18
100
AcDbEntity
  8
1CENTER
100
AcDbLine
 10
234.542553544238
 20
89.06777791197229
 30
0.0
 11
234.542553544238
 21
51.23464486459753
 31
0.0
  0
LINE
  5
B8B2
330
18
100
AcDbEntity
  8
01
100
AcDbLine
 10
233.0426000801359
 20
80.41328521131146
 30
0.0
 11
232.5426000801359
 21
80.51328637470857
 31
0.0
  0
LINE
  5
B8B3
330
18
100
AcDbEntity
  8
01
100
AcDbLine
 10
232.5426000801359
 20
80.51328637470857
 30
0.0
 11
236.5426000801359
 21
81.31327706753115
 31
0.0
  0
LINE
  5
B8B4
330
18
100
AcDbEntity
  8
01
100
AcDbLine
 10
236.5426000801359
 20
81.31327706753115
 30
0.0
 11
236.0426000801359
 21
81.41327823092826
 31
0.0
  0
LINE
  5
B8B5
330
18
100
AcDbEntity
  8
01
100
AcDbLine
 10
233.0426000801359
 20
78.81328521131144
 30
0.0
 11
232.5426000801359
 21
78.91328637470855
 31
0.0
  0
LINE
  5
B8B6
330
18
100
AcDbEntity
  8
01
100
AcDbLine
 10
236.5426000801359
 20
79.71327706753112
 30
0.0
 11
236.0426000801359
 21
79.81327823092823
 31
0.0
  0
LINE
  5
B8B7
330
18
100
AcDbEntity
  8
01
100
AcDbLine
 10
232.5426000801359
 20
78.91328637470855
 30
0.0
 11
236.5426000801359
 21
79.71327706753112
 31
0.0
  0
LINE
  5
B8B8
330
18
100
AcDbEntity
  8
01
100
AcDbLine
 10
233.0426000801359
 20
77.21328521131142
 30
0.0
 11
232.5426000801359
 21
77.31328637470853
 31
0.0
  0
LINE
  5
B8B9
330
18
100
AcDbEntity
  8
01
100
AcDbLine
 10
232.5426000801359
 20
77.31328637470853
 30
0.0
 11
236.5426000801359
 21
78.1132770675311
 31
0.0
  0
LINE
  5
B8BA
330
18
100
AcDbEntity
  8
01
100
AcDbLine
 10
236.5426000801359
 20
78.1132770675311
 30
0.0
 11
236.0426000801359
 21
78.21327823092821
 31
0.0
  0
LINE
  5
B8BB
330
18
100
AcDbEntity
  8
01
100
AcDbLine
 10
233.0426000801359
 20
69.2132852113113
 30
0.0
 11
232.5426000801359
 21
69.31328637470841
 31
0.0
  0
LINE
  5
B8BC
330
18
100
AcDbEntity
  8
01
100
AcDbLine
 10
236.5426000801359
 20
70.11327706753099
 30
0.0
 11
236.0426000801359
 21
70.21327823092821
 31
0.0
  0
LINE
  5
B8BD
330
18
100
AcDbEntity
  8
01
100
AcDbLine
 10
236.5426000801359
 20
71.71327706753112
 30
0.0
 11
236.0426000801359
 21
71.81327823092823
 31
0.0
  0
LINE
  5
B8BE
330
18
100
AcDbEntity
  8
01
100
AcDbLine
 10
233.0426000801359
 20
70.81328521131144
 30
0.0
 11
232.5426000801359
 21
70.91328637470855
 31
0.0
  0
LINE
  5
B8BF
330
18
100
AcDbEntity
  8
01
100
AcDbLine
 10
233.0426000801359
 20
72.41328521131135
 30
0.0
 11
232.5426000801359
 21
72.51328637470846
 31
0.0
  0
LINE
  5
B8C0
330
18
100
AcDbEntity
  8
01
100
AcDbLine
 10
232.5426000801359
 20
70.91328637470855
 30
0.0
 11
236.5426000801359
 21
71.71327706753112
 31
0.0
  0
LINE
  5
B8C1
330
18
100
AcDbEntity
  8
01
100
AcDbLine
 10
232.5426000801359
 20
69.31328637470841
 30
0.0
 11
236.5426000801359
 21
70.11327706753099
 31
0.0
  0
LINE
  5
B8C2
330
18
100
AcDbEntity
  8
01
100
AcDbLine
 10
233.0426000801359
 20
74.01328521131126
 30
0.0
 11
232.5426000801359
 21
74.11328637470848
 31
0.0
  0
LINE
  5
B8C3
330
18
100
AcDbEntity
  8
01
100
AcDbLine
 10
233.0426000801359
 20
82.2132852113113
 30
0.0
 11
232.5426000801359
 21
82.31328637470841
 31
0.0
  0
LINE
  5
B8C4
330
18
100
AcDbEntity
  8
01
100
AcDbLine
 10
232.5426000801359
 20
82.31328637470841
 30
0.0
 11
236.3161930279319
 21
83.11327759433371
 31
0.0
  0
LINE
  5
B8C5
330
18
100
AcDbEntity
  8
01
100
AcDbLine
 10
236.3161930279319
 20
83.11327759433371
 30
0.0
 11
235.7795992926608
 21
83.24254829196357
 31
0.0
  0
LINE
  5
B8C6
330
18
100
AcDbEntity
  8
01
100
AcDbLine
 10
236.5426000801359
 20
74.91327706753106
 30
0.0
 11
236.0426000801359
 21
75.01327823092805
 31
0.0
  0
LINE
  5
B8C7
330
18
100
AcDbEntity
  8
01
100
AcDbLine
 10
236.5426000801359
 20
76.51327706753108
 30
0.0
 11
236.0426000801359
 21
76.61327823092819
 31
0.0
  0
LINE
  5
B8C8
330
18
100
AcDbEntity
  8
01
100
AcDbLine
 10
233.0426000801359
 20
75.61328521131139
 30
0.0
 11
232.5426000801359
 21
75.7132863747085
 31
0.0
  0
LINE
  5
B8C9
330
18
100
AcDbEntity
  8
01
100
AcDbLine
 10
232.5426000801359
 20
75.7132863747085
 30
0.0
 11
236.5426000801359
 21
76.51327706753108
 31
0.0
  0
LINE
  5
B8CA
330
18
100
AcDbEntity
  8
01
100
AcDbLine
 10
232.5426000801359
 20
74.11328637470848
 30
0.0
 11
236.5426000801359
 21
74.91327706753106
 31
0.0
  0
LINE
  5
B8CB
330
18
100
AcDbEntity
  8
01
100
AcDbLine
 10
232.9954162221946
 20
83.91328532109824
 30
0.0
 11
235.8633789235251
 21
84.71327864793935
 31
0.0
  0
LINE
  5
B8CC
330
18
100
AcDbEntity
  8
01
100
AcDbLine
 10
233.4482297302429
 20
85.51328426749402
 30
0.0
 11
235.4105648191183
 21
86.31327970154499
 31
0.0
  0
LINE
  5
B8CD
330
18
100
AcDbEntity
  8
01
100
AcDbLine
 10
235.8633789235251
 20
84.71327864793935
 30
0.0
 11
235.3116294597219
 21
84.89604279056735
 31
0.0
  0
LINE
  5
B8CE
330
18
100
AcDbEntity
  8
01
100
AcDbLine
 10
233.905401570874
 20
85.3618484710536
 30
0.0
 11
233.4482297302429
 21
85.51328426749402
 31
0.0
  0
LINE
  5
B8CF
330
18
100
AcDbEntity
  8
01
100
AcDbLine
 10
235.4105648191183
 20
86.31327970154499
 30
0.0
 11
234.8222882440759
 21
86.6250495577971
 31
0.0
  0
LINE
  5
B8D0
330
18
100
AcDbEntity
  8
01
100
AcDbLine
 10
233.4635146773446
 20
83.8005158087482
 30
0.0
 11
232.9954162221946
 21
83.91328532109824
 31
0.0
  0
LINE
  5
B8D1
330
18
100
AcDbEntity
  8
01
100
AcDbLine
 10
236.5426000801359
 20
73.31327706753103
 30
0.0
 11
236.0426000801359
 21
73.41327823092826
 31
0.0
  0
LINE
  5
B8D2
330
18
100
AcDbEntity
  8
01
100
AcDbLine
 10
232.5426000801359
 20
72.51328637470846
 30
0.0
 11
236.5426000801359
 21
73.31327706753103
 31
0.0
  0
LINE
  5
B8D3
330
18
100
AcDbEntity
  8
01
100
AcDbLine
 10
236.0426000801359
 20
55.61327823091133
 30
0.0
 11
236.5426000801359
 21
55.71327706751362
 31
0.0
  0
LINE
  5
B8D4
330
18
100
AcDbEntity
  8
01
100
AcDbLine
 10
232.5426000801359
 20
56.5132863746997
 30
0.0
 11
236.5426000801359
 21
57.31327706751796
 31
0.0
  0
LINE
  5
B8D5
330
18
100
AcDbEntity
  8
01
100
AcDbLine
 10
232.5426000801359
 20
59.71328637469975
 30
0.0
 11
236.5426000801359
 21
60.513277067518
 31
0.0
  0
LINE
  5
B8D6
330
18
100
AcDbEntity
  8
01
100
AcDbLine
 10
236.5426000801359
 20
60.513277067518
 30
0.0
 11
236.0426000801359
 21
60.61327823091568
 31
0.0
  0
LINE
  5
B8D7
330
18
100
AcDbEntity
  8
01
100
AcDbLine
 10
236.5426000801359
 20
57.31327706751796
 30
0.0
 11
236.0426000801359
 21
57.41327823091564
 31
0.0
  0
LINE
  5
B8D8
330
18
100
AcDbEntity
  8
01
100
AcDbLine
 10
233.0426000801359
 20
58.01328521130193
 30
0.0
 11
232.5426000801359
 21
58.11328637469961
 31
0.0
  0
LINE
  5
B8D9
330
18
100
AcDbEntity
  8
01
100
AcDbLine
 10
236.5426000801359
 20
58.91327706751787
 30
0.0
 11
236.0426000801359
 21
59.01327823091555
 31
0.0
  0
LINE
  5
B8DA
330
18
100
AcDbEntity
  8
01
100
AcDbLine
 10
232.5426000801359
 20
58.11328637469961
 30
0.0
 11
236.5426000801359
 21
58.91327706751787
 31
0.0
  0
LINE
  5
B8DB
330
18
100
AcDbEntity
  8
01
100
AcDbLine
 10
233.0426000801359
 20
59.61328521130207
 30
0.0
 11
232.5426000801359
 21
59.71328637469975
 31
0.0
  0
LINE
  5
B8DC
330
18
100
AcDbEntity
  8
01
100
AcDbLine
 10
236.5426000801359
 20
55.71327706751362
 30
0.0
 11
236.0426000801359
 21
55.81327823091129
 31
0.0
  0
LINE
  5
B8DD
330
18
100
AcDbEntity
  8
01
100
AcDbLine
 10
233.0426000801359
 20
56.41328521130202
 30
0.0
 11
232.5426000801359
 21
56.5132863746997
 31
0.0
  0
LINE
  5
B8DE
330
18
100
AcDbEntity
  8
01
100
AcDbLine
 10
230.542553544238
 20
52.91329102851483
 30
0.0
 11
238.542553544238
 21
52.91327241415576
 31
0.0
  0
LINE
  5
B8DF
330
18
100
AcDbEntity
  8
01
100
AcDbLine
 10
233.0426000801359
 20
61.21328521130641
 30
0.0
 11
232.5426000801359
 21
61.31328637470409
 31
0.0
  0
LINE
  5
B8E0
330
18
100
AcDbEntity
  8
01
100
AcDbLine
 10
233.0426000801359
 20
62.81328521131076
 30
0.0
 11
232.5426000801359
 21
62.91328637470843
 31
0.0
  0
LINE
  5
B8E1
330
18
100
AcDbEntity
  8
01
100
AcDbLine
 10
236.5426000801359
 20
62.11327706752235
 30
0.0
 11
236.0426000801359
 21
62.21327823092003
 31
0.0
  0
LINE
  5
B8E2
330
18
100
AcDbEntity
  8
01
100
AcDbLine
 10
233.0426000801359
 20
66.0132852113108
 30
0.0
 11
232.5426000801359
 21
66.11328637470848
 31
0.0
  0
LINE
  5
B8E3
330
18
100
AcDbEntity
  8
01
100
AcDbLine
 10
232.5426000801359
 20
64.51328637470834
 30
0.0
 11
236.5426000801359
 21
65.3132770675266
 31
0.0
  0
LINE
  5
B8E4
330
18
100
AcDbEntity
  8
01
100
AcDbLine
 10
236.5426000801359
 20
65.3132770675266
 30
0.0
 11
236.0426000801359
 21
65.41327823092428
 31
0.0
  0
LINE
  5
B8E5
330
18
100
AcDbEntity
  8
01
100
AcDbLine
 10
233.0426000801359
 20
64.41328521131067
 30
0.0
 11
232.5426000801359
 21
64.51328637470834
 31
0.0
  0
LINE
  5
B8E6
330
18
100
AcDbEntity
  8
01
100
AcDbLine
 10
236.5426000801359
 20
63.71327706752669
 30
0.0
 11
236.0426000801359
 21
63.81327823092437
 31
0.0
  0
LINE
  5
B8E7
330
18
100
AcDbEntity
  8
01
100
AcDbLine
 10
236.5426000801359
 20
68.51327706753108
 30
0.0
 11
236.0426000801359
 21
68.61327823092819
 31
0.0
  0
LINE
  5
B8E8
330
18
100
AcDbEntity
  8
01
100
AcDbLine
 10
236.5426000801359
 20
66.91327706752674
 30
0.0
 11
236.0426000801359
 21
67.01327823092441
 31
0.0
  0
LINE
  5
B8E9
330
18
100
AcDbEntity
  8
01
100
AcDbLine
 10
233.0426000801359
 20
67.61328521131071
 30
0.0
 11
232.5426000801359
 21
67.7132863747085
 31
0.0
  0
LINE
  5
B8EA
330
18
100
AcDbEntity
  8
01
100
AcDbLine
 10
232.5426000801359
 20
67.7132863747085
 30
0.0
 11
236.5426000801359
 21
68.51327706753108
 31
0.0
  0
LINE
  5
B8EB
330
18
100
AcDbEntity
  8
01
100
AcDbLine
 10
232.5426000801359
 20
66.11328637470848
 30
0.0
 11
236.5426000801359
 21
66.91327706752674
 31
0.0
  0
LINE
  5
B8EC
330
18
100
AcDbEntity
  8
01
100
AcDbLine
 10
232.5426000801359
 20
62.91328637470843
 30
0.0
 11
236.5426000801359
 21
63.71327706752669
 31
0.0
  0
LINE
  5
B8ED
330
18
100
AcDbEntity
  8
01
100
AcDbLine
 10
232.5426000801359
 20
61.31328637470409
 30
0.0
 11
236.5426000801359
 21
62.11327706752235
 31
0.0
  0
LINE
  5
B8EF
330
18
100
AcDbEntity
  8
1CENTER
100
AcDbLine
 10
204.542553544238
 20
89.06777791197229
 30
0.0
 11
204.542553544238
 21
51.23464486459753
 31
0.0
  0
LINE
  5
B8F0
330
18
100
AcDbEntity
  8
01
100
AcDbLine
 10
203.0426000801359
 20
80.41328521131146
 30
0.0
 11
202.5426000801359
 21
80.51328637470857
 31
0.0
  0
LINE
  5
B8F1
330
18
100
AcDbEntity
  8
01
100
AcDbLine
 10
202.5426000801359
 20
80.51328637470857
 30
0.0
 11
206.5426000801359
 21
81.31327706753115
 31
0.0
  0
LINE
  5
B8F2
330
18
100
AcDbEntity
  8
01
100
AcDbLine
 10
206.5426000801359
 20
81.31327706753115
 30
0.0
 11
206.0426000801359
 21
81.41327823092826
 31
0.0
  0
LINE
  5
B8F3
330
18
100
AcDbEntity
  8
01
100
AcDbLine
 10
203.0426000801359
 20
78.81328521131144
 30
0.0
 11
202.5426000801359
 21
78.91328637470855
 31
0.0
  0
LINE
  5
B8F4
330
18
100
AcDbEntity
  8
01
100
AcDbLine
 10
206.5426000801359
 20
79.71327706753112
 30
0.0
 11
206.0426000801359
 21
79.81327823092823
 31
0.0
  0
LINE
  5
B8F5
330
18
100
AcDbEntity
  8
01
100
AcDbLine
 10
202.5426000801359
 20
78.91328637470855
 30
0.0
 11
206.5426000801359
 21
79.71327706753112
 31
0.0
  0
LINE
  5
B8F6
330
18
100
AcDbEntity
  8
01
100
AcDbLine
 10
203.0426000801359
 20
77.21328521131142
 30
0.0
 11
202.5426000801359
 21
77.31328637470853
 31
0.0
  0
LINE
  5
B8F7
330
18
100
AcDbEntity
  8
01
100
AcDbLine
 10
202.5426000801359
 20
77.31328637470853
 30
0.0
 11
206.5426000801359
 21
78.1132770675311
 31
0.0
  0
LINE
  5
B8F8
330
18
100
AcDbEntity
  8
01
100
AcDbLine
 10
206.5426000801359
 20
78.1132770675311
 30
0.0
 11
206.0426000801359
 21
78.21327823092821
 31
0.0
  0
LINE
  5
B8F9
330
18
100
AcDbEntity
  8
01
100
AcDbLine
 10
203.0426000801359
 20
69.2132852113113
 30
0.0
 11
202.5426000801359
 21
69.31328637470841
 31
0.0
  0
LINE
  5
B8FA
330
18
100
AcDbEntity
  8
01
100
AcDbLine
 10
206.5426000801359
 20
70.11327706753099
 30
0.0
 11
206.0426000801359
 21
70.21327823092821
 31
0.0
  0
LINE
  5
B8FB
330
18
100
AcDbEntity
  8
01
100
AcDbLine
 10
206.5426000801359
 20
71.71327706753112
 30
0.0
 11
206.0426000801359
 21
71.81327823092823
 31
0.0
  0
LINE
  5
B8FC
330
18
100
AcDbEntity
  8
01
100
AcDbLine
 10
203.0426000801359
 20
70.81328521131144
 30
0.0
 11
202.5426000801359
 21
70.91328637470855
 31
0.0
  0
LINE
  5
B8FD
330
18
100
AcDbEntity
  8
01
100
AcDbLine
 10
203.0426000801359
 20
72.41328521131135
 30
0.0
 11
202.5426000801359
 21
72.51328637470846
 31
0.0
  0
LINE
  5
B8FE
330
18
100
AcDbEntity
  8
01
100
AcDbLine
 10
202.5426000801359
 20
70.91328637470855
 30
0.0
 11
206.5426000801359
 21
71.71327706753112
 31
0.0
  0
LINE
  5
B8FF
330
18
100
AcDbEntity
  8
01
100
AcDbLine
 10
202.5426000801359
 20
69.31328637470841
 30
0.0
 11
206.5426000801359
 21
70.11327706753099
 31
0.0
  0
LINE
  5
B900
330
18
100
AcDbEntity
  8
01
100
AcDbLine
 10
203.0426000801359
 20
74.01328521131126
 30
0.0
 11
202.5426000801359
 21
74.11328637470848
 31
0.0
  0
LINE
  5
B901
330
18
100
AcDbEntity
  8
01
100
AcDbLine
 10
203.0426000801359
 20
82.2132852113113
 30
0.0
 11
202.5426000801359
 21
82.31328637470841
 31
0.0
  0
LINE
  5
B902
330
18
100
AcDbEntity
  8
01
100
AcDbLine
 10
202.5426000801359
 20
82.31328637470841
 30
0.0
 11
206.3161930279319
 21
83.11327759433371
 31
0.0
  0
LINE
  5
B903
330
18
100
AcDbEntity
  8
01
100
AcDbLine
 10
206.3161930279319
 20
83.11327759433371
 30
0.0
 11
205.7795992926608
 21
83.24254829196357
 31
0.0
  0
LINE
  5
B904
330
18
100
AcDbEntity
  8
01
100
AcDbLine
 10
206.5426000801359
 20
74.91327706753106
 30
0.0
 11
206.0426000801359
 21
75.01327823092805
 31
0.0
  0
LINE
  5
B905
330
18
100
AcDbEntity
  8
01
100
AcDbLine
 10
206.5426000801359
 20
76.51327706753108
 30
0.0
 11
206.0426000801359
 21
76.61327823092819
 31
0.0
  0
LINE
  5
B906
330
18
100
AcDbEntity
  8
01
100
AcDbLine
 10
203.0426000801359
 20
75.61328521131139
 30
0.0
 11
202.5426000801359
 21
75.7132863747085
 31
0.0
  0
LINE
  5
B907
330
18
100
AcDbEntity
  8
01
100
AcDbLine
 10
202.5426000801359
 20
75.7132863747085
 30
0.0
 11
206.5426000801359
 21
76.51327706753108
 31
0.0
  0
LINE
  5
B908
330
18
100
AcDbEntity
  8
01
100
AcDbLine
 10
202.5426000801359
 20
74.11328637470848
 30
0.0
 11
206.5426000801359
 21
74.91327706753106
 31
0.0
  0
LINE
  5
B909
330
18
100
AcDbEntity
  8
01
100
AcDbLine
 10
202.9954162221946
 20
83.91328532109824
 30
0.0
 11
205.8633789235251
 21
84.71327864793935
 31
0.0
  0
LINE
  5
B90A
330
18
100
AcDbEntity
  8
01
100
AcDbLine
 10
203.4482297302429
 20
85.51328426749402
 30
0.0
 11
205.4105648191183
 21
86.31327970154499
 31
0.0
  0
LINE
  5
B90B
330
18
100
AcDbEntity
  8
01
100
AcDbLine
 10
205.8633789235251
 20
84.71327864793935
 30
0.0
 11
205.3116294597219
 21
84.89604279056735
 31
0.0
  0
LINE
  5
B90C
330
18
100
AcDbEntity
  8
01
100
AcDbLine
 10
203.905401570874
 20
85.3618484710536
 30
0.0
 11
203.4482297302429
 21
85.51328426749402
 31
0.0
  0
LINE
  5
B90D
330
18
100
AcDbEntity
  8
01
100
AcDbLine
 10
205.4105648191183
 20
86.31327970154499
 30
0.0
 11
204.8222882440759
 21
86.6250495577971
 31
0.0
  0
LINE
  5
B90E
330
18
100
AcDbEntity
  8
01
100
AcDbLine
 10
203.4635146773446
 20
83.8005158087482
 30
0.0
 11
202.9954162221946
 21
83.91328532109824
 31
0.0
  0
LINE
  5
B90F
330
18
100
AcDbEntity
  8
01
100
AcDbLine
 10
206.5426000801359
 20
73.31327706753103
 30
0.0
 11
206.0426000801359
 21
73.41327823092826
 31
0.0
  0
LINE
  5
B910
330
18
100
AcDbEntity
  8
01
100
AcDbLine
 10
202.5426000801359
 20
72.51328637470846
 30
0.0
 11
206.5426000801359
 21
73.31327706753103
 31
0.0
  0
LINE
  5
B911
330
18
100
AcDbEntity
  8
01
100
AcDbLine
 10
206.0426000801359
 20
55.61327823091133
 30
0.0
 11
206.5426000801359
 21
55.71327706751362
 31
0.0
  0
LINE
  5
B912
330
18
100
AcDbEntity
  8
01
100
AcDbLine
 10
202.5426000801359
 20
56.5132863746997
 30
0.0
 11
206.5426000801359
 21
57.31327706751796
 31
0.0
  0
LINE
  5
B913
330
18
100
AcDbEntity
  8
01
100
AcDbLine
 10
202.5426000801359
 20
59.71328637469975
 30
0.0
 11
206.5426000801359
 21
60.513277067518
 31
0.0
  0
LINE
  5
B914
330
18
100
AcDbEntity
  8
01
100
AcDbLine
 10
206.5426000801359
 20
60.513277067518
 30
0.0
 11
206.0426000801359
 21
60.61327823091568
 31
0.0
  0
LINE
  5
B915
330
18
100
AcDbEntity
  8
01
100
AcDbLine
 10
206.5426000801359
 20
57.31327706751796
 30
0.0
 11
206.0426000801359
 21
57.41327823091564
 31
0.0
  0
LINE
  5
B916
330
18
100
AcDbEntity
  8
01
100
AcDbLine
 10
203.0426000801359
 20
58.01328521130193
 30
0.0
 11
202.5426000801359
 21
58.11328637469961
 31
0.0
  0
LINE
  5
B917
330
18
100
AcDbEntity
  8
01
100
AcDbLine
 10
206.5426000801359
 20
58.91327706751787
 30
0.0
 11
206.0426000801359
 21
59.01327823091555
 31
0.0
  0
LINE
  5
B918
330
18
100
AcDbEntity
  8
01
100
AcDbLine
 10
202.5426000801359
 20
58.11328637469961
 30
0.0
 11
206.5426000801359
 21
58.91327706751787
 31
0.0
  0
LINE
  5
B919
330
18
100
AcDbEntity
  8
01
100
AcDbLine
 10
203.0426000801359
 20
59.61328521130207
 30
0.0
 11
202.5426000801359
 21
59.71328637469975
 31
0.0
  0
LINE
  5
B91A
330
18
100
AcDbEntity
  8
01
100
AcDbLine
 10
206.5426000801359
 20
55.71327706751362
 30
0.0
 11
206.0426000801359
 21
55.81327823091129
 31
0.0
  0
LINE
  5
B91B
330
18
100
AcDbEntity
  8
01
100
AcDbLine
 10
203.0426000801359
 20
56.41328521130202
 30
0.0
 11
202.5426000801359
 21
56.5132863746997
 31
0.0
  0
LINE
  5
B91C
330
18
100
AcDbEntity
  8
01
100
AcDbLine
 10
200.542553544238
 20
52.91329102851483
 30
0.0
 11
208.542553544238
 21
52.91327241415576
 31
0.0
  0
LINE
  5
B91D
330
18
100
AcDbEntity
  8
01
100
AcDbLine
 10
203.0426000801359
 20
61.21328521130641
 30
0.0
 11
202.5426000801359
 21
61.31328637470409
 31
0.0
  0
LINE
  5
B91E
330
18
100
AcDbEntity
  8
01
100
AcDbLine
 10
203.0426000801359
 20
62.81328521131076
 30
0.0
 11
202.5426000801359
 21
62.91328637470843
 31
0.0
  0
LINE
  5
B91F
330
18
100
AcDbEntity
  8
01
100
AcDbLine
 10
206.5426000801359
 20
62.11327706752235
 30
0.0
 11
206.0426000801359
 21
62.21327823092003
 31
0.0
  0
LINE
  5
B920
330
18
100
AcDbEntity
  8
01
100
AcDbLine
 10
203.0426000801359
 20
66.0132852113108
 30
0.0
 11
202.5426000801359
 21
66.11328637470848
 31
0.0
  0
LINE
  5
B921
330
18
100
AcDbEntity
  8
01
100
AcDbLine
 10
202.5426000801359
 20
64.51328637470834
 30
0.0
 11
206.5426000801359
 21
65.3132770675266
 31
0.0
  0
LINE
  5
B922
330
18
100
AcDbEntity
  8
01
100
AcDbLine
 10
206.5426000801359
 20
65.3132770675266
 30
0.0
 11
206.0426000801359
 21
65.41327823092428
 31
0.0
  0
LINE
  5
B923
330
18
100
AcDbEntity
  8
01
100
AcDbLine
 10
203.0426000801359
 20
64.41328521131067
 30
0.0
 11
202.5426000801359
 21
64.51328637470834
 31
0.0
  0
LINE
  5
B924
330
18
100
AcDbEntity
  8
01
100
AcDbLine
 10
206.5426000801359
 20
63.71327706752669
 30
0.0
 11
206.0426000801359
 21
63.81327823092437
 31
0.0
  0
LINE
  5
B925
330
18
100
AcDbEntity
  8
01
100
AcDbLine
 10
206.5426000801359
 20
68.51327706753108
 30
0.0
 11
206.0426000801359
 21
68.61327823092819
 31
0.0
  0
LINE
  5
B926
330
18
100
AcDbEntity
  8
01
100
AcDbLine
 10
206.5426000801359
 20
66.91327706752674
 30
0.0
 11
206.0426000801359
 21
67.01327823092441
 31
0.0
  0
LINE
  5
B927
330
18
100
AcDbEntity
  8
01
100
AcDbLine
 10
203.0426000801359
 20
67.61328521131071
 30
0.0
 11
202.5426000801359
 21
67.7132863747085
 31
0.0
  0
LINE
  5
B928
330
18
100
AcDbEntity
  8
01
100
AcDbLine
 10
202.5426000801359
 20
67.7132863747085
 30
0.0
 11
206.5426000801359
 21
68.51327706753108
 31
0.0
  0
LINE
  5
B929
330
18
100
AcDbEntity
  8
01
100
AcDbLine
 10
202.5426000801359
 20
66.11328637470848
 30
0.0
 11
206.5426000801359
 21
66.91327706752674
 31
0.0
  0
LINE
  5
B92A
330
18
100
AcDbEntity
  8
01
100
AcDbLine
 10
202.5426000801359
 20
62.91328637470843
 30
0.0
 11
206.5426000801359
 21
63.71327706752669
 31
0.0
  0
LINE
  5
B92B
330
18
100
AcDbEntity
  8
01
100
AcDbLine
 10
202.5426000801359
 20
61.31328637470409
 30
0.0
 11
206.5426000801359
 21
62.11327706752235
 31
0.0
  0
LINE
  5
B92C
330
18
100
AcDbEntity
  8
01
100
AcDbLine
 10
805.0425535466021
 20
-73.46552149576326
 30
0.0
 11
778.1425884484783
 21
-73.46552149576326
 31
0.0
  0
LINE
  5
B92D
330
18
100
AcDbEntity
  8
01
100
AcDbLine
 10
778.1425884484783
 20
-73.46552149576326
 30
0.0
 11
775.6425593638062
 21
-70.96547495986533
 31
0.0
  0
LINE
  5
B92E
330
18
100
AcDbEntity
  8
01
100
AcDbLine
 10
775.6425593638062
 20
-70.96547495986533
 30
0.0
 11
775.3425593638051
 21
-70.96547495986533
 31
0.0
  0
LINE
  5
B92F
330
18
100
AcDbEntity
  8
01
100
AcDbLine
 10
775.3425593638051
 20
-70.96547495986533
 30
0.0
 11
775.342540749446
 21
-78.96547495986533
 31
0.0
  0
LINE
  5
B930
330
18
100
AcDbEntity
  8
01
100
AcDbLine
 10
775.342540749446
 20
-78.96547495986533
 30
0.0
 11
775.6425407494471
 21
-78.96547495986533
 31
0.0
  0
LINE
  5
B931
330
18
100
AcDbEntity
  8
01
100
AcDbLine
 10
775.6425407494471
 20
-78.96547495986533
 30
0.0
 11
778.142523298113
 21
-76.46552149576326
 31
0.0
  0
LINE
  5
B932
330
18
100
AcDbEntity
  8
01
100
AcDbLine
 10
778.142523298113
 20
-76.46552149576326
 30
0.0
 11
805.0425465662178
 21
-76.46552149576326
 31
0.0
  0
LINE
  5
B933
330
18
100
AcDbEntity
  8
01
100
AcDbLine
 10
805.0425465662178
 20
-76.46552149576326
 30
0.0
 11
810.3425500564631
 21
-74.96552149576326
 31
0.0
  0
LINE
  5
B934
330
18
100
AcDbEntity
  8
01
100
AcDbLine
 10
810.3425500564631
 20
-74.96552149576326
 30
0.0
 11
805.0425535466021
 21
-73.46552149576326
 31
0.0
  0
LINE
  5
B935
330
18
100
AcDbEntity
  8
01
100
AcDbLine
 10
633.0426000801502
 20
82.31328521131078
 30
0.0
 11
633.0426000801502
 21
55.41332011318696
 31
0.0
  0
LINE
  5
B936
330
18
100
AcDbEntity
  8
01
100
AcDbLine
 10
633.0426000801502
 20
55.41332011318696
 30
0.0
 11
630.5425535442523
 21
52.91329102851483
 31
0.0
  0
LINE
  5
B937
330
18
100
AcDbEntity
  8
01
100
AcDbLine
 10
630.5425535442523
 20
52.91329102851483
 30
0.0
 11
630.5425535442523
 21
52.61329102851386
 31
0.0
  0
LINE
  5
B938
330
18
100
AcDbEntity
  8
01
100
AcDbLine
 10
630.5425535442523
 20
52.61329102851386
 30
0.0
 11
638.5425535442523
 21
52.61327241415466
 31
0.0
  0
LINE
  5
B939
330
18
100
AcDbEntity
  8
01
100
AcDbLine
 10
638.5425535442523
 20
52.61327241415466
 30
0.0
 11
638.5425535442523
 21
52.91327241415576
 31
0.0
  0
LINE
  5
B93A
330
18
100
AcDbEntity
  8
01
100
AcDbLine
 10
638.5425535442523
 20
52.91327241415576
 30
0.0
 11
636.0426000801502
 21
55.41325496282175
 31
0.0
  0
LINE
  5
B93B
330
18
100
AcDbEntity
  8
01
100
AcDbLine
 10
636.0426000801502
 20
55.41325496282175
 30
0.0
 11
636.0426000801502
 21
82.3132782309265
 31
0.0
  0
LINE
  5
B93C
330
18
100
AcDbEntity
  8
01
100
AcDbLine
 10
636.0426000801502
 20
82.3132782309265
 30
0.0
 11
634.5426000801502
 21
87.61328172117183
 31
0.0
  0
LINE
  5
B93D
330
18
100
AcDbEntity
  8
01
100
AcDbLine
 10
634.5426000801502
 20
87.61328172117183
 30
0.0
 11
633.0426000801502
 21
82.31328521131078
 31
0.0
  0
LINE
  5
B93E
330
18
100
AcDbEntity
  8
01
100
AcDbLine
 10
603.0426000801502
 20
82.31328521131078
 30
0.0
 11
603.0426000801502
 21
55.41332011318696
 31
0.0
  0
LINE
  5
B93F
330
18
100
AcDbEntity
  8
01
100
AcDbLine
 10
603.0426000801502
 20
55.41332011318696
 30
0.0
 11
600.5425535442523
 21
52.91329102851483
 31
0.0
  0
LINE
  5
B940
330
18
100
AcDbEntity
  8
01
100
AcDbLine
 10
600.5425535442523
 20
52.91329102851483
 30
0.0
 11
600.5425535442523
 21
52.61329102851386
 31
0.0
  0
LINE
  5
B941
330
18
100
AcDbEntity
  8
01
100
AcDbLine
 10
600.5425535442523
 20
52.61329102851386
 30
0.0
 11
608.5425535442523
 21
52.61327241415466
 31
0.0
  0
LINE
  5
B942
330
18
100
AcDbEntity
  8
01
100
AcDbLine
 10
608.5425535442523
 20
52.61327241415466
 30
0.0
 11
608.5425535442523
 21
52.91327241415576
 31
0.0
  0
LINE
  5
B943
330
18
100
AcDbEntity
  8
01
100
AcDbLine
 10
608.5425535442523
 20
52.91327241415576
 30
0.0
 11
606.0426000801502
 21
55.41325496282175
 31
0.0
  0
LINE
  5
B944
330
18
100
AcDbEntity
  8
01
100
AcDbLine
 10
606.0426000801502
 20
55.41325496282175
 30
0.0
 11
606.0426000801502
 21
82.3132782309265
 31
0.0
  0
LINE
  5
B945
330
18
100
AcDbEntity
  8
01
100
AcDbLine
 10
606.0426000801502
 20
82.3132782309265
 30
0.0
 11
604.5426000801502
 21
87.61328172117183
 31
0.0
  0
LINE
  5
B946
330
18
100
AcDbEntity
  8
01
100
AcDbLine
 10
604.5426000801502
 20
87.61328172117183
 30
0.0
 11
603.0426000801502
 21
82.31328521131078
 31
0.0
  0
LINE
  5
B947
330
18
100
AcDbEntity
  8
01
100
AcDbLine
 10
433.042600080143
 20
82.31328521131078
 30
0.0
 11
433.042600080143
 21
55.41332011318696
 31
0.0
  0
LINE
  5
B948
330
18
100
AcDbEntity
  8
01
100
AcDbLine
 10
433.042600080143
 20
55.41332011318696
 30
0.0
 11
430.542553544245
 21
52.91329102851483
 31
0.0
  0
LINE
  5
B949
330
18
100
AcDbEntity
  8
01
100
AcDbLine
 10
430.542553544245
 20
52.91329102851483
 30
0.0
 11
430.542553544245
 21
52.61329102851386
 31
0.0
  0
LINE
  5
B94A
330
18
100
AcDbEntity
  8
01
100
AcDbLine
 10
430.542553544245
 20
52.61329102851386
 30
0.0
 11
438.542553544245
 21
52.61327241415466
 31
0.0
  0
LINE
  5
B94B
330
18
100
AcDbEntity
  8
01
100
AcDbLine
 10
438.542553544245
 20
52.61327241415466
 30
0.0
 11
438.542553544245
 21
52.91327241415576
 31
0.0
  0
LINE
  5
B94C
330
18
100
AcDbEntity
  8
01
100
AcDbLine
 10
438.542553544245
 20
52.91327241415576
 30
0.0
 11
436.042600080143
 21
55.41325496282175
 31
0.0
  0
LINE
  5
B94D
330
18
100
AcDbEntity
  8
01
100
AcDbLine
 10
436.042600080143
 20
55.41325496282175
 30
0.0
 11
436.042600080143
 21
82.3132782309265
 31
0.0
  0
LINE
  5
B94E
330
18
100
AcDbEntity
  8
01
100
AcDbLine
 10
436.042600080143
 20
82.3132782309265
 30
0.0
 11
434.542600080143
 21
87.61328172117183
 31
0.0
  0
LINE
  5
B94F
330
18
100
AcDbEntity
  8
01
100
AcDbLine
 10
434.542600080143
 20
87.61328172117183
 30
0.0
 11
433.042600080143
 21
82.31328521131078
 31
0.0
  0
LINE
  5
B950
330
18
100
AcDbEntity
  8
01
100
AcDbLine
 10
403.042600080143
 20
82.31328521131078
 30
0.0
 11
403.042600080143
 21
55.41332011318696
 31
0.0
  0
LINE
  5
B951
330
18
100
AcDbEntity
  8
01
100
AcDbLine
 10
403.042600080143
 20
55.41332011318696
 30
0.0
 11
400.542553544245
 21
52.91329102851483
 31
0.0
  0
LINE
  5
B952
330
18
100
AcDbEntity
  8
01
100
AcDbLine
 10
400.542553544245
 20
52.91329102851483
 30
0.0
 11
400.542553544245
 21
52.61329102851386
 31
0.0
  0
LINE
  5
B953
330
18
100
AcDbEntity
  8
01
100
AcDbLine
 10
400.542553544245
 20
52.61329102851386
 30
0.0
 11
408.542553544245
 21
52.61327241415466
 31
0.0
  0
LINE
  5
B954
330
18
100
AcDbEntity
  8
01
100
AcDbLine
 10
408.542553544245
 20
52.61327241415466
 30
0.0
 11
408.542553544245
 21
52.91327241415576
 31
0.0
  0
LINE
  5
B955
330
18
100
AcDbEntity
  8
01
100
AcDbLine
 10
408.542553544245
 20
52.91327241415576
 30
0.0
 11
406.042600080143
 21
55.41325496282175
 31
0.0
  0
LINE
  5
B956
330
18
100
AcDbEntity
  8
01
100
AcDbLine
 10
406.042600080143
 20
55.41325496282175
 30
0.0
 11
406.042600080143
 21
82.3132782309265
 31
0.0
  0
LINE
  5
B957
330
18
100
AcDbEntity
  8
01
100
AcDbLine
 10
406.042600080143
 20
82.3132782309265
 30
0.0
 11
404.542600080143
 21
87.61328172117183
 31
0.0
  0
LINE
  5
B958
330
18
100
AcDbEntity
  8
01
100
AcDbLine
 10
404.542600080143
 20
87.61328172117183
 30
0.0
 11
403.042600080143
 21
82.31328521131078
 31
0.0
  0
LINE
  5
B959
330
18
100
AcDbEntity
  8
01
100
AcDbLine
 10
33.04260008013251
 20
82.31328521131078
 30
0.0
 11
33.0426000801325
 21
55.41332011318696
 31
0.0
  0
LINE
  5
B95A
330
18
100
AcDbEntity
  8
01
100
AcDbLine
 10
33.0426000801325
 20
55.41332011318696
 30
0.0
 11
30.54255354423458
 21
52.91329102851483
 31
0.0
  0
LINE
  5
B95B
330
18
100
AcDbEntity
  8
01
100
AcDbLine
 10
30.54255354423458
 20
52.91329102851483
 30
0.0
 11
30.54255354423458
 21
52.61329102851386
 31
0.0
  0
LINE
  5
B95C
330
18
100
AcDbEntity
  8
01
100
AcDbLine
 10
30.54255354423458
 20
52.61329102851386
 30
0.0
 11
38.54255354423458
 21
52.61327241415466
 31
0.0
  0
LINE
  5
B95D
330
18
100
AcDbEntity
  8
01
100
AcDbLine
 10
38.54255354423458
 20
52.61327241415466
 30
0.0
 11
38.54255354423458
 21
52.91327241415576
 31
0.0
  0
LINE
  5
B95E
330
18
100
AcDbEntity
  8
01
100
AcDbLine
 10
38.54255354423458
 20
52.91327241415576
 30
0.0
 11
36.0426000801325
 21
55.41325496282175
 31
0.0
  0
LINE
  5
B95F
330
18
100
AcDbEntity
  8
01
100
AcDbLine
 10
36.0426000801325
 20
55.41325496282175
 30
0.0
 11
36.04260008013251
 21
82.3132782309265
 31
0.0
  0
LINE
  5
B960
330
18
100
AcDbEntity
  8
01
100
AcDbLine
 10
36.04260008013251
 20
82.3132782309265
 30
0.0
 11
34.54260008013251
 21
87.61328172117183
 31
0.0
  0
LINE
  5
B961
330
18
100
AcDbEntity
  8
01
100
AcDbLine
 10
34.54260008013251
 20
87.61328172117183
 30
0.0
 11
33.04260008013251
 21
82.31328521131078
 31
0.0
  0
LINE
  5
B962
330
18
100
AcDbEntity
  8
01
100
AcDbLine
 10
3.042600080128869
 20
82.31328521131078
 30
0.0
 11
3.042600080128864
 21
55.41332011318696
 31
0.0
  0
LINE
  5
B963
330
18
100
AcDbEntity
  8
01
100
AcDbLine
 10
3.042600080128864
 20
55.41332011318696
 30
0.0
 11
0.542553544230941
 21
52.91329102851483
 31
0.0
  0
LINE
  5
B964
330
18
100
AcDbEntity
  8
01
100
AcDbLine
 10
0.542553544230941
 20
52.91329102851483
 30
0.0
 11
0.542553544230941
 21
52.61329102851386
 31
0.0
  0
LINE
  5
B965
330
18
100
AcDbEntity
  8
01
100
AcDbLine
 10
0.542553544230941
 20
52.61329102851386
 30
0.0
 11
8.542553544230941
 21
52.61327241415466
 31
0.0
  0
LINE
  5
B966
330
18
100
AcDbEntity
  8
01
100
AcDbLine
 10
8.542553544230941
 20
52.61327241415466
 30
0.0
 11
8.542553544230941
 21
52.91327241415576
 31
0.0
  0
LINE
  5
B967
330
18
100
AcDbEntity
  8
01
100
AcDbLine
 10
8.542553544230941
 20
52.91327241415576
 30
0.0
 11
6.042600080128864
 21
55.41325496282175
 31
0.0
  0
LINE
  5
B968
330
18
100
AcDbEntity
  8
01
100
AcDbLine
 10
6.042600080128864
 20
55.41325496282175
 30
0.0
 11
6.042600080128869
 21
82.3132782309265
 31
0.0
  0
LINE
  5
B969
330
18
100
AcDbEntity
  8
01
100
AcDbLine
 10
6.042600080128869
 20
82.3132782309265
 30
0.0
 11
4.54260008012887
 21
87.61328172117183
 31
0.0
  0
LINE
  5
B96A
330
18
100
AcDbEntity
  8
01
100
AcDbLine
 10
4.54260008012887
 20
87.61328172117183
 30
0.0
 11
3.042600080128869
 21
82.31328521131078
 31
0.0
  0
LINE
  5
B96B
330
18
100
AcDbEntity
  8
01
100
AcDbLine
 10
233.0426000801359
 20
82.31328521131078
 30
0.0
 11
233.0426000801359
 21
55.41332011318696
 31
0.0
  0
LINE
  5
B96C
330
18
100
AcDbEntity
  8
01
100
AcDbLine
 10
233.0426000801359
 20
55.41332011318696
 30
0.0
 11
230.542553544238
 21
52.91329102851483
 31
0.0
  0
LINE
  5
B96D
330
18
100
AcDbEntity
  8
01
100
AcDbLine
 10
230.542553544238
 20
52.91329102851483
 30
0.0
 11
230.542553544238
 21
52.61329102851386
 31
0.0
  0
LINE
  5
B96E
330
18
100
AcDbEntity
  8
01
100
AcDbLine
 10
230.542553544238
 20
52.61329102851386
 30
0.0
 11
238.542553544238
 21
52.61327241415466
 31
0.0
  0
LINE
  5
B96F
330
18
100
AcDbEntity
  8
01
100
AcDbLine
 10
238.542553544238
 20
52.61327241415466
 30
0.0
 11
238.542553544238
 21
52.91327241415576
 31
0.0
  0
LINE
  5
B970
330
18
100
AcDbEntity
  8
01
100
AcDbLine
 10
238.542553544238
 20
52.91327241415576
 30
0.0
 11
236.0426000801359
 21
55.41325496282175
 31
0.0
  0
LINE
  5
B971
330
18
100
AcDbEntity
  8
01
100
AcDbLine
 10
236.0426000801359
 20
55.41325496282175
 30
0.0
 11
236.0426000801359
 21
82.3132782309265
 31
0.0
  0
LINE
  5
B972
330
18
100
AcDbEntity
  8
01
100
AcDbLine
 10
236.0426000801359
 20
82.3132782309265
 30
0.0
 11
234.5426000801359
 21
87.61328172117183
 31
0.0
  0
LINE
  5
B973
330
18
100
AcDbEntity
  8
01
100
AcDbLine
 10
234.5426000801359
 20
87.61328172117183
 30
0.0
 11
233.0426000801359
 21
82.31328521131078
 31
0.0
  0
LINE
  5
B974
330
18
100
AcDbEntity
  8
01
100
AcDbLine
 10
203.0426000801359
 20
82.31328521131078
 30
0.0
 11
203.0426000801359
 21
55.41332011318696
 31
0.0
  0
LINE
  5
B975
330
18
100
AcDbEntity
  8
01
100
AcDbLine
 10
203.0426000801359
 20
55.41332011318696
 30
0.0
 11
200.542553544238
 21
52.91329102851483
 31
0.0
  0
LINE
  5
B976
330
18
100
AcDbEntity
  8
01
100
AcDbLine
 10
200.542553544238
 20
52.91329102851483
 30
0.0
 11
200.542553544238
 21
52.61329102851386
 31
0.0
  0
LINE
  5
B977
330
18
100
AcDbEntity
  8
01
100
AcDbLine
 10
200.542553544238
 20
52.61329102851386
 30
0.0
 11
208.542553544238
 21
52.61327241415466
 31
0.0
  0
LINE
  5
B978
330
18
100
AcDbEntity
  8
01
100
AcDbLine
 10
208.542553544238
 20
52.61327241415466
 30
0.0
 11
208.542553544238
 21
52.91327241415576
 31
0.0
  0
LINE
  5
B979
330
18
100
AcDbEntity
  8
01
100
AcDbLine
 10
208.542553544238
 20
52.91327241415576
 30
0.0
 11
206.0426000801359
 21
55.41325496282175
 31
0.0
  0
LINE
  5
B97A
330
18
100
AcDbEntity
  8
01
100
AcDbLine
 10
206.0426000801359
 20
55.41325496282175
 30
0.0
 11
206.0426000801359
 21
82.3132782309265
 31
0.0
  0
LINE
  5
B97B
330
18
100
AcDbEntity
  8
01
100
AcDbLine
 10
206.0426000801359
 20
82.3132782309265
 30
0.0
 11
204.5426000801359
 21
87.61328172117183
 31
0.0
  0
LINE
  5
B97C
330
18
100
AcDbEntity
  8
01
100
AcDbLine
 10
204.5426000801359
 20
87.61328172117183
 30
0.0
 11
203.0426000801359
 21
82.31328521131078
 31
0.0
  0
LINE
  5
B97E
330
18
100
AcDbEntity
  8
1DIM
100
AcDbLine
 10
222.2383732550233
 20
-108.9301626276361
 30
0.0
 11
232.5215097294999
 21
-143.9155978567294
 31
0.0
1001
ACAD
1000
DSTYLE
1002
{
1070
    40
1040
3.0
1002
}
  0
LINE
  5
B97F
330
18
100
AcDbEntity
  8
1DIM
100
AcDbLine
 10
232.5215097294999
 20
-143.9155978567294
 30
0.0
 11
481.7715097294998
 21
-143.9155978567294
 31
0.0
1001
ACAD
1000
DSTYLE
1002
{
1070
    40
1040
3.0
1002
}
  0
TEXT
  5
B980
330
18
100
AcDbEntity
  8
1DIM
  6
CONTINUOUS
100
AcDbText
 10
239.9215097294999
 20
-141.8155978567294
 30
0.0
 40
10.5
  1
材質：亜鉛ダイキャスト（クロームメッキ）
100
AcDbText
  0
LINE
  5
B982
330
18
100
AcDbEntity
  8
1DIM
100
AcDbLine
 10
509.6184115386556
 20
62.83741142824194
 30
0.0
 11
539.8654391341364
 21
103.3348555058173
 31
0.0
1001
ACAD
1000
DSTYLE
1002
{
1070
    40
1040
3.0
1002
}
  0
LINE
  5
B983
330
18
100
AcDbEntity
  8
1DIM
100
AcDbLine
 10
539.8654391341364
 20
103.3348555058173
 30
0.0
 11
644.2154391341364
 21
103.3348555058173
 31
0.0
1001
ACAD
1000
DSTYLE
1002
{
1070
    40
1040
3.0
1002
}
  0
TEXT
  5
B984
330
18
100
AcDbEntity
  8
1DIM
  6
CONTINUOUS
100
AcDbText
 10
547.2654391341364
 20
122.9348555058173
 30
0.0
 40
10.5
  1
材質：アルミ
100
AcDbText
  0
TEXT
  5
B985
330
18
100
AcDbEntity
  8
1DIM
  6
CONTINUOUS
100
AcDbText
 10
547.6154391341364
 20
105.4348555058173
 30
0.0
 40
10.5
  1
仕上：アルマイト
100
AcDbText
  0
LINE
  5
B987
330
18
100
AcDbEntity
  8
1DIM
100
AcDbLine
 10
632.3344643530224
 20
62.74394141603084
 30
0.0
 11
647.6270277624586
 21
82.8859625321505
 31
0.0
1001
ACAD
1000
DSTYLE
1002
{
1070
    40
1040
3.0
1002
}
  0
LINE
  5
B988
330
18
100
AcDbEntity
  8
1DIM
100
AcDbLine
 10
647.6270277624586
 20
82.8859625321505
 30
0.0
 11
783.4770277624586
 21
82.8859625321505
 31
0.0
1001
ACAD
1000
DSTYLE
1002
{
1070
    40
1040
3.0
1002
}
  0
TEXT
  5
B989
330
18
100
AcDbEntity
  8
1DIM
  6
CONTINUOUS
100
AcDbText
 10
655.0270277624586
 20
84.9859625321505
 30
0.0
 40
10.5
  1
材質：樹脂（グレー色）
100
AcDbText
  0
LINE
  5
B98B
330
18
100
AcDbEntity
  8
1DIM
100
AcDbLine
 10
786.7932308811618
 20
-25.57042367386816
 30
0.0
 11
800.8411621046264
 21
11.52469752834863
 31
0.0
1001
ACAD
1000
DSTYLE
1002
{
1070
    40
1040
3.0
1002
}
  0
LINE
  5
B98C
330
18
100
AcDbEntity
  8
1DIM
100
AcDbLine
 10
800.8411621046264
 20
11.52469752834863
 30
0.0
 11
831.4411621046264
 21
11.52469752834863
 31
0.0
1001
ACAD
1000
DSTYLE
1002
{
1070
    40
1040
3.0
1002
}
  0
TEXT
  5
B98D
330
18
100
AcDbEntity
  8
1DIM
  6
CONTINUOUS
100
AcDbText
 10
808.9411621046264
 20
13.62469752834863
 30
0.0
 40
10.5
  1
P.B
100
AcDbText
  0
LINE
  5
B98F
330
18
100
AcDbEntity
  8
1DIM
100
AcDbLine
 10
798.0741669452603
 20
-24.989223403173
 30
0.0
 11
804.2445807295068
 21
-11.53239803526058
 31
0.0
1001
ACAD
1000
DSTYLE
1002
{
1070
    40
1040
3.0
1002
}
  0
LINE
  5
B990
330
18
100
AcDbEntity
  8
1DIM
100
AcDbLine
 10
804.2445807295068
 20
-11.53239803526058
 30
0.0
 11
900.6445807295067
 21
-11.53239803526058
 31
0.0
1001
ACAD
1000
DSTYLE
1002
{
1070
    40
1040
3.0
1002
}
  0
TEXT
  5
B991
330
18
100
AcDbEntity
  8
1DIM
  6
CONTINUOUS
100
AcDbText
 10
812.3445807295068
 20
-9.432398035260576
 30
0.0
 40
10.5
  1
合板9mm以上
100
AcDbText
  0
LINE
  5
B992
330
18
100
AcDbEntity
  8
1DIM
100
AcDbLine
 10
-30.45744645577261
 20
-53.06547488128263
 30
0.0
 11
-30.45744645577261
 21
-40.65515394836029
 31
0.0
1001
ACAD
1000
DSTYLE
1002
{
1070
    40
1040
3.0
1002
}
  0
LINE
  5
B993
330
18
100
AcDbEntity
  8
1DIM
100
AcDbLine
 10
19.54255354423148
 20
-50.49813399785262
 30
0.0
 11
19.54255354423148
 21
-40.65515394836029
 31
0.0
1001
ACAD
1000
DSTYLE
1002
{
1070
    40
1040
3.0
1002
}
  0
LINE
  5
B994
330
18
100
AcDbEntity
  8
1DIM
100
AcDbLine
 10
-24.45744645577261
 20
-43.65515394836029
 30
0.0
 11
13.54255354423148
 21
-43.65515394836029
 31
0.0
1001
ACAD
1000
DSTYLE
1002
{
1070
    40
1040
3.0
1002
}
  0
LINE
  5
B998
330
18
100
AcDbEntity
  8
1DIM
100
AcDbLine
 10
669.0425535442452
 20
-52.56631796810962
 30
0.0
 11
711.9262751176902
 21
-52.56631796810962
 31
0.0
1001
ACAD
1000
DSTYLE
1002
{
1070
    40
1040
3.0
1070
   271
1070
     1
1002
}
  0
LINE
  5
B999
330
18
100
AcDbEntity
  8
1DIM
100
AcDbLine
 10
669.0425535442452
 20
-102.5654748812831
 30
0.0
 11
711.9262751176902
 21
-102.5654748812831
 31
0.0
1001
ACAD
1000
DSTYLE
1002
{
1070
    40
1040
3.0
1070
   271
1070
     1
1002
}
  0
LINE
  5
B99A
330
18
100
AcDbEntity
  8
1DIM
100
AcDbLine
 10
708.9262751176902
 20
-58.56631796810962
 30
0.0
 11
708.9262751176902
 21
-96.5654748812831
 31
0.0
1001
ACAD
1000
DSTYLE
1002
{
1070
    40
1040
3.0
1070
   271
1070
     1
1002
}
  0
LINE
  5
B99E
330
18
100
AcDbEntity
  8
1DIM
100
AcDbLine
 10
14.24255354423099
 20
-102.6736713980217
 30
0.0
 11
14.24255354423098
 21
-128.2385127014438
 31
0.0
1001
ACAD
1000
DSTYLE
1002
{
1070
    40
1040
3.0
1002
}
  0
LINE
  5
B99F
330
18
100
AcDbEntity
  8
1DIM
100
AcDbLine
 10
24.84255354423101
 20
-102.6736713980217
 30
0.0
 11
24.84255354423101
 21
-128.2385127014438
 31
0.0
1001
ACAD
1000
DSTYLE
1002
{
1070
    40
1040
3.0
1002
}
  0
LINE
  5
B9A0
330
18
100
AcDbEntity
  8
1DIM
100
AcDbLine
 10
8.242553544230985
 20
-125.2385127014438
 30
0.0
 11
2.242553544230985
 21
-125.2385127014438
 31
0.0
1001
ACAD
1000
DSTYLE
1002
{
1070
    40
1040
3.0
1002
}
  0
LINE
  5
B9A1
330
18
100
AcDbEntity
  8
1DIM
100
AcDbLine
 10
30.84255354423101
 20
-125.2385127014438
 30
0.0
 11
71.54255354423101
 21
-125.2385127014438
 31
0.0
1001
ACAD
1000
DSTYLE
1002
{
1070
    40
1040
3.0
1002
}
  0
LINE
  5
B9A2
330
18
100
AcDbEntity
  8
1DIM
100
AcDbLine
 10
14.24255354423098
 20
-125.2385127014438
 30
0.0
 11
24.84255354423101
 21
-125.2385127014438
 31
0.0
1001
ACAD
1000
DSTYLE
1002
{
1070
    40
1040
3.0
1002
}
  0
LINE
  5
B9A6
330
18
100
AcDbEntity
  8
1DIM
100
AcDbLine
 10
-30.4574464557617
 20
-53.06631796810962
 30
0.0
 11
-30.45744645576169
 21
-22.74955146959191
 31
0.0
1001
ACAD
1000
DSTYLE
1002
{
1070
    40
1040
3.0
1002
}
  0
LINE
  5
B9A7
330
18
100
AcDbEntity
  8
1DIM
100
AcDbLine
 10
669.542553544245
 20
-53.06631796810962
 30
0.0
 11
669.542553544245
 21
-22.74955146959191
 31
0.0
1001
ACAD
1000
DSTYLE
1002
{
1070
    40
1040
3.0
1002
}
  0
LINE
  5
B9A8
330
18
100
AcDbEntity
  8
1DIM
100
AcDbLine
 10
-24.4574464557617
 20
-25.74955146959191
 30
0.0
 11
663.542553544245
 21
-25.74955146959191
 31
0.0
1001
ACAD
1000
DSTYLE
1002
{
1070
    40
1040
3.0
1002
}
  0
LINE
  5
B9AC
330
18
100
AcDbEntity
  8
1DIM
100
AcDbLine
 10
419.5425535442451
 20
-50.49813399785262
 30
0.0
 11
419.5425535442451
 21
-40.65515394836029
 31
0.0
1001
ACAD
1000
DSTYLE
1002
{
1070
    40
1040
3.0
1002
}
  0
LINE
  5
B9AD
330
18
100
AcDbEntity
  8
1DIM
100
AcDbLine
 10
619.5425930593699
 20
-49.27691345274275
 30
0.0
 11
619.5425930593699
 21
-40.65515394836029
 31
0.0
1001
ACAD
1000
DSTYLE
1002
{
1070
    40
1040
3.0
1002
}
  0
LINE
  5
B9AE
330
18
100
AcDbEntity
  8
1DIM
100
AcDbLine
 10
425.5425535442451
 20
-43.65515394836029
 30
0.0
 11
613.5425930593699
 21
-43.65515394836029
 31
0.0
1001
ACAD
1000
DSTYLE
1002
{
1070
    40
1040
3.0
1002
}
  0
LINE
  5
B9B2
330
18
100
AcDbEntity
  8
1DIM
100
AcDbLine
 10
419.5425535442451
 20
-50.49813399785262
 30
0.0
 11
419.5425535442451
 21
-40.65515394836029
 31
0.0
1001
ACAD
1000
DSTYLE
1002
{
1070
    40
1040
3.0
1002
}
  0
LINE
  5
B9B3
330
18
100
AcDbEntity
  8
1DIM
100
AcDbLine
 10
219.5425535442383
 20
-50.49813399785262
 30
0.0
 11
219.5425535442383
 21
-40.65515394836029
 31
0.0
1001
ACAD
1000
DSTYLE
1002
{
1070
    40
1040
3.0
1002
}
  0
LINE
  5
B9B4
330
18
100
AcDbEntity
  8
1DIM
100
AcDbLine
 10
413.5425535442451
 20
-43.65515394836029
 30
0.0
 11
225.5425535442383
 21
-43.65515394836029
 31
0.0
1001
ACAD
1000
DSTYLE
1002
{
1070
    40
1040
3.0
1002
}
  0
LINE
  5
B9B8
330
18
100
AcDbEntity
  8
1DIM
100
AcDbLine
 10
768.3425485442448
 20
-102.1657548807239
 30
0.0
 11
768.3425485442448
 21
-136.5124480020511
 31
0.0
1001
ACAD
1000
DSTYLE
1002
{
1070
    40
1040
3.0
1002
}
  0
LINE
  5
B9B9
330
18
100
AcDbEntity
  8
1DIM
100
AcDbLine
 10
780.3425485442452
 20
-90.065754880724
 30
0.0
 11
780.3425485442452
 21
-136.5124480020511
 31
0.0
1001
ACAD
1000
DSTYLE
1002
{
1070
    40
1040
3.0
1002
}
  0
LINE
  5
B9BA
330
18
100
AcDbEntity
  8
1DIM
100
AcDbLine
 10
786.3425485442452
 20
-133.5124480020511
 30
0.0
 11
792.3425485442452
 21
-133.5124480020511
 31
0.0
1001
ACAD
1000
DSTYLE
1002
{
1070
    40
1040
3.0
1002
}
  0
LINE
  5
B9BB
330
18
100
AcDbEntity
  8
1DIM
100
AcDbLine
 10
762.3425485442448
 20
-133.5124480020511
 30
0.0
 11
736.6425485442447
 21
-133.5124480020511
 31
0.0
1001
ACAD
1000
DSTYLE
1002
{
1070
    40
1040
3.0
1002
}
  0
LINE
  5
B9BC
330
18
100
AcDbEntity
  8
1DIM
100
AcDbLine
 10
780.3425485442452
 20
-133.5124480020511
 30
0.0
 11
768.3425485442448
 21
-133.5124480020511
 31
0.0
1001
ACAD
1000
DSTYLE
1002
{
1070
    40
1040
3.0
1002
}
  0
LINE
  5
B9C0
330
18
100
AcDbEntity
  8
1DIM
100
AcDbLine
 10
669.042553544245
 20
-52.56631796810962
 30
0.0
 11
690.079075587932
 21
-52.56631796810962
 31
0.0
1001
ACAD
1000
DSTYLE
1002
{
1070
    40
1040
3.0
1002
}
  0
LINE
  5
B9C1
330
18
100
AcDbEntity
  8
1DIM
100
AcDbLine
 10
672.9886285419002
 20
-74.96547488128226
 30
0.0
 11
690.079075587932
 21
-74.96547488128226
 31
0.0
1001
ACAD
1000
DSTYLE
1002
{
1070
    40
1040
3.0
1002
}
  0
LINE
  5
B9C2
330
18
100
AcDbEntity
  8
1DIM
100
AcDbLine
 10
687.079075587932
 20
-68.96547488128226
 30
0.0
 11
687.079075587932
 21
-58.56631796810962
 31
0.0
1001
ACAD
1000
DSTYLE
1002
{
1070
    40
1040
3.0
1002
}
  0
LINE
  5
B9C3
330
18
100
AcDbEntity
  8
1DIM
100
AcDbLine
 10
687.079075587932
 20
-52.56631796810962
 30
0.0
 11
687.079075587932
 21
-9.866317968109616
 31
0.0
1001
ACAD
1000
DSTYLE
1002
{
1070
    40
1040
3.0
1002
}
  0
LINE
  5
B9C7
330
18
100
AcDbEntity
  8
1DIM
100
AcDbLine
 10
624.5425535442519
 20
5.613280287534508
 30
0.0
 11
711.9262751176902
 21
5.613280287534483
 31
0.0
1001
ACAD
1000
DSTYLE
1002
{
1070
    40
1040
3.0
1002
}
  0
LINE
  5
B9C8
330
18
100
AcDbEntity
  8
1DIM
100
AcDbLine
 10
659.542553544245
 20
57.61328020895394
 30
0.0
 11
711.9262751176902
 21
57.61328020895393
 31
0.0
1001
ACAD
1000
DSTYLE
1002
{
1070
    40
1040
3.0
1002
}
  0
LINE
  5
B9C9
330
18
100
AcDbEntity
  8
1DIM
100
AcDbLine
 10
708.9262751176902
 20
11.61328028753448
 30
0.0
 11
708.9262751176902
 21
51.61328020895393
 31
0.0
1001
ACAD
1000
DSTYLE
1002
{
1070
    40
1040
3.0
1002
}
  0
LINE
  5
B9CD
330
18
100
AcDbEntity
  8
1DIM
100
AcDbLine
 10
219.5425535442383
 20
-50.49813399785262
 30
0.0
 11
219.5425535442383
 21
-40.65515394836029
 31
0.0
1001
ACAD
1000
DSTYLE
1002
{
1070
    40
1040
3.0
1002
}
  0
LINE
  5
B9CE
330
18
100
AcDbEntity
  8
1DIM
100
AcDbLine
 10
19.54255354423148
 20
-50.49813399785262
 30
0.0
 11
19.54255354423148
 21
-40.65515394836029
 31
0.0
1001
ACAD
1000
DSTYLE
1002
{
1070
    40
1040
3.0
1002
}
  0
LINE
  5
B9CF
330
18
100
AcDbEntity
  8
1DIM
100
AcDbLine
 10
213.5425535442383
 20
-43.65515394836029
 30
0.0
 11
25.54255354423148
 21
-43.65515394836029
 31
0.0
1001
ACAD
1000
DSTYLE
1002
{
1070
    40
1040
3.0
1002
}
  0
LINE
  5
B9D4
330
18
100
AcDbEntity
  8
1DIM
100
AcDbLine
 10
91.86959273912964
 20
-108.6036025399387
 30
0.0
 11
97.23376984291659
 21
-143.3200127712747
 31
0.0
1001
ACAD
1000
DSTYLE
1002
{
1070
    40
1040
3.0
1002
}
  0
LINE
  5
B9D5
330
18
100
AcDbEntity
  8
1DIM
100
AcDbLine
 10
97.23376984291659
 20
-143.3200127712747
 30
0.0
 11
191.0837698429166
 21
-143.3200127712747
 31
0.0
1001
ACAD
1000
DSTYLE
1002
{
1070
    40
1040
3.0
1002
}
  0
TEXT
  5
B9D6
330
18
100
AcDbEntity
  8
1DIM
  6
CONTINUOUS
100
AcDbText
 10
104.6337698429166
 20
-123.7200127712747
 30
0.0
 40
10.5
  1
材質：アルミ
100
AcDbText
  0
TEXT
  5
B9D7
330
18
100
AcDbEntity
  8
1DIM
  6
CONTINUOUS
100
AcDbText
 10
104.9837698429166
 20
-141.2200127712747
 30
0.0
 40
10.5
  1
仕上：各種仕上
100
AcDbText
  0
LINE
  5
B9D8
330
18
100
AcDbEntity
  8
1DIM
100
AcDbLine
 10
604.5425535442523
 20
-81.70156797231652
 30
0.0
 11
604.5425535442523
 21
-129.0031658763515
 31
0.0
1001
ACAD
1000
DSTYLE
1002
{
1070
    40
1040
3.0
1002
}
  0
LINE
  5
B9D9
330
18
100
AcDbEntity
  8
1DIM
100
AcDbLine
 10
634.5425535442523
 20
-81.70156797231652
 30
0.0
 11
634.5425535442523
 21
-129.0031658763515
 31
0.0
1001
ACAD
1000
DSTYLE
1002
{
1070
    40
1040
3.0
1002
}
  0
LINE
  5
B9DA
330
18
100
AcDbEntity
  8
1DIM
100
AcDbLine
 10
628.5425535442523
 20
-126.0031658763515
 30
0.0
 11
610.5425535442523
 21
-126.0031658763515
 31
0.0
1001
ACAD
1000
DSTYLE
1002
{
1070
    40
1040
3.0
1002
}
  0
LINE
  5
B9DB
330
18
100
AcDbEntity
  8
1DIM
100
AcDbLine
 10
604.5425535442523
 20
-126.0031658763515
 30
0.0
 11
567.3425535442523
 21
-126.0031658763515
 31
0.0
1001
ACAD
1000
DSTYLE
1002
{
1070
    40
1040
3.0
1002
}
  0
LINE
  5
B9E0
330
18
100
AcDbEntity
  8
1DIM
100
AcDbLine
 10
654.2010151809254
 20
-108.655199269501
 30
0.0
 11
660.216504071126
 21
-184.527396343196
 31
0.0
1001
ACAD
1000
DSTYLE
1002
{
1070
    40
1040
3.0
1002
}
  0
LINE
  5
B9E1
330
18
100
AcDbEntity
  8
1DIM
100
AcDbLine
 10
660.216504071126
 20
-184.527396343196
 30
0.0
 11
754.066504071126
 21
-184.527396343196
 31
0.0
1001
ACAD
1000
DSTYLE
1002
{
1070
    40
1040
3.0
1002
}
  0
TEXT
  5
B9E2
330
18
100
AcDbEntity
  8
1DIM
  6
CONTINUOUS
100
AcDbText
 10
667.616504071126
 20
-164.9273963431961
 30
0.0
 40
10.5
  1
材質：アルミ
100
AcDbText
  0
TEXT
  5
B9E3
330
18
100
AcDbEntity
  8
1DIM
  6
CONTINUOUS
100
AcDbText
 10
667.966504071126
 20
-182.4273963431961
 30
0.0
 40
10.5
  1
仕上：各種仕上
100
AcDbText
  0
LINE
  5
B9E4
330
18
100
AcDbEntity
  8
0
  6
BYBLOCK
100
AcDbLine
 10
220.695926092806
 20
-109.3835282802251
 30
0.0
 11
220.5463895898029
 21
-103.1736713980217
 31
0.0
  0
LINE
  5
B9E5
330
18
100
AcDbEntity
  8
0
  6
BYBLOCK
100
AcDbLine
 10
220.5463895898029
 20
-103.1736713980217
 30
0.0
 11
223.7808204172406
 21
-108.4767969750471
 31
0.0
  0
LINE
  5
B9E6
330
18
100
AcDbEntity
  8
0
  6
BYBLOCK
100
AcDbLine
 10
220.5463895898029
 20
-103.1736713980217
 30
0.0
 11
222.2383732550233
 21
-108.9301626276361
 31
0.0
  0
LINE
  5
B9E7
330
18
100
AcDbEntity
  8
0
  6
BYBLOCK
100
AcDbLine
 10
510.9064895889967
 20
61.87536226140638
 30
0.0
 11
506.0279951360699
 21
58.03023865663874
 31
0.0
  0
LINE
  5
B9E8
330
18
100
AcDbEntity
  8
0
  6
BYBLOCK
100
AcDbLine
 10
506.0279951360699
 20
58.03023865663874
 30
0.0
 11
508.3303334883145
 21
63.79946059507751
 31
0.0
  0
LINE
  5
B9E9
330
18
100
AcDbEntity
  8
0
  6
BYBLOCK
100
AcDbLine
 10
506.0279951360699
 20
58.03023865663874
 30
0.0
 11
509.6184115386556
 21
62.83741142824194
 31
0.0
  0
LINE
  5
B9EA
330
18
100
AcDbEntity
  8
0
  6
BYBLOCK
100
AcDbLine
 10
633.6149210829971
 20
61.77177156161117
 30
0.0
 11
628.7062770298226
 21
57.96521179951435
 31
0.0
  0
LINE
  5
B9EB
330
18
100
AcDbEntity
  8
0
  6
BYBLOCK
100
AcDbLine
 10
628.7062770298226
 20
57.96521179951435
 30
0.0
 11
631.0540076230478
 21
63.71611127045051
 31
0.0
  0
LINE
  5
B9EC
330
18
100
AcDbEntity
  8
0
  6
BYBLOCK
100
AcDbLine
 10
628.7062770298226
 20
57.96521179951435
 30
0.0
 11
632.3344643530224
 21
62.74394141603084
 31
0.0
  0
LINE
  5
B9ED
330
18
100
AcDbEntity
  8
0
  6
BYBLOCK
100
AcDbLine
 10
788.2967258212585
 20
-26.13979756533408
 30
0.0
 11
784.6682985704281
 21
-31.1815432301421
 31
0.0
  0
LINE
  5
B9EE
330
18
100
AcDbEntity
  8
0
  6
BYBLOCK
100
AcDbLine
 10
784.6682985704281
 20
-31.1815432301421
 30
0.0
 11
785.289735941065
 21
-25.00104978240223
 31
0.0
  0
LINE
  5
B9EF
330
18
100
AcDbEntity
  8
0
  6
BYBLOCK
100
AcDbLine
 10
784.6682985704281
 20
-31.1815432301421
 30
0.0
 11
786.7932308811618
 21
-25.57042367386816
 31
0.0
  0
LINE
  5
B9F0
330
18
100
AcDbEntity
  8
0
  6
BYBLOCK
100
AcDbLine
 10
799.5355548740799
 20
-25.65931965348338
 30
0.0
 11
795.5733336704504
 21
-30.44319745257985
 31
0.0
  0
LINE
  5
B9F1
330
18
100
AcDbEntity
  8
0
  6
BYBLOCK
100
AcDbLine
 10
795.5733336704504
 20
-30.44319745257985
 30
0.0
 11
796.6127790164408
 21
-24.31912715286263
 31
0.0
  0
LINE
  5
B9F2
330
18
100
AcDbEntity
  8
0
  6
BYBLOCK
100
AcDbLine
 10
795.5733336704504
 20
-30.44319745257985
 30
0.0
 11
798.0741669452603
 21
-24.989223403173
 31
0.0
  0
LINE
  5
B9F3
330
18
100
AcDbEntity
  8
0
  6
BYBLOCK
100
AcDbLine
 10
-24.45744645577261
 20
-45.2628490883603
 30
0.0
 11
-30.45744645577261
 21
-43.65515394836029
 31
0.0
  0
LINE
  5
B9F4
330
18
100
AcDbEntity
  8
0
  6
BYBLOCK
100
AcDbLine
 10
-30.45744645577261
 20
-43.65515394836029
 30
0.0
 11
-24.45744645577261
 21
-42.0474588083603
 31
0.0
  0
LINE
  5
B9F5
330
18
100
AcDbEntity
  8
0
  6
BYBLOCK
100
AcDbLine
 10
-30.45744645577261
 20
-43.65515394836029
 30
0.0
 11
-24.45744645577261
 21
-43.65515394836029
 31
0.0
  0
LINE
  5
B9F6
330
18
100
AcDbEntity
  8
0
  6
BYBLOCK
100
AcDbLine
 10
13.54255354423148
 20
-42.0474588083603
 30
0.0
 11
19.54255354423148
 21
-43.65515394836029
 31
0.0
  0
LINE
  5
B9F7
330
18
100
AcDbEntity
  8
0
  6
BYBLOCK
100
AcDbLine
 10
19.54255354423148
 20
-43.65515394836029
 30
0.0
 11
13.54255354423148
 21
-45.26284908836029
 31
0.0
  0
LINE
  5
B9F8
330
18
100
AcDbEntity
  8
0
  6
BYBLOCK
100
AcDbLine
 10
19.54255354423148
 20
-43.65515394836029
 30
0.0
 11
13.54255354423148
 21
-43.65515394836029
 31
0.0
  0
TEXT
  5
B9F9
330
18
100
AcDbEntity
  8
1DIM
  6
CONTINUOUS
100
AcDbText
 10
-13.5876547891039
 20
-41.55515394836029
 30
0.0
 40
10.5
  1
50
100
AcDbText
1001
ACAD
1000
DSTYLE
1002
{
1070
    40
1040
3.0
1002
}
  0
LINE
  5
B9FA
330
18
100
AcDbEntity
  8
0
  6
BYBLOCK
100
AcDbLine
 10
707.3185799776902
 20
-58.56631796810962
 30
0.0
 11
708.9262751176902
 21
-52.56631796810962
 31
0.0
  0
LINE
  5
B9FB
330
18
100
AcDbEntity
  8
0
  6
BYBLOCK
100
AcDbLine
 10
708.9262751176902
 20
-52.56631796810962
 30
0.0
 11
710.5339702576903
 21
-58.56631796810962
 31
0.0
  0
LINE
  5
B9FC
330
18
100
AcDbEntity
  8
0
  6
BYBLOCK
100
AcDbLine
 10
708.9262751176902
 20
-52.56631796810962
 30
0.0
 11
708.9262751176902
 21
-58.56631796810962
 31
0.0
  0
LINE
  5
B9FD
330
18
100
AcDbEntity
  8
0
  6
BYBLOCK
100
AcDbLine
 10
710.5339702576903
 20
-96.5654748812831
 30
0.0
 11
708.9262751176902
 21
-102.5654748812831
 31
0.0
  0
LINE
  5
B9FE
330
18
100
AcDbEntity
  8
0
  6
BYBLOCK
100
AcDbLine
 10
708.9262751176902
 20
-102.5654748812831
 30
0.0
 11
707.3185799776902
 21
-96.5654748812831
 31
0.0
  0
LINE
  5
B9FF
330
18
100
AcDbEntity
  8
0
  6
BYBLOCK
100
AcDbLine
 10
708.9262751176902
 20
-102.5654748812831
 30
0.0
 11
708.9262751176902
 21
-96.5654748812831
 31
0.0
  0
TEXT
  5
BA00
330
18
100
AcDbEntity
  8
1DIM
  6
CONTINUOUS
100
AcDbText
 10
706.8262751176903
 20
-85.6961047580296
 30
0.0
 40
10.5
  1
50
 50
90.0
100
AcDbText
1001
ACAD
1000
DSTYLE
1002
{
1070
    40
1040
3.0
1070
   271
1070
     1
1002
}
  0
LINE
  5
BA01
330
18
100
AcDbEntity
  8
0
  6
BYBLOCK
100
AcDbLine
 10
8.242553544230985
 20
-123.6308175614438
 30
0.0
 11
14.24255354423098
 21
-125.2385127014438
 31
0.0
  0
LINE
  5
BA02
330
18
100
AcDbEntity
  8
0
  6
BYBLOCK
100
AcDbLine
 10
14.24255354423098
 20
-125.2385127014438
 30
0.0
 11
8.242553544230985
 21
-126.8462078414438
 31
0.0
  0
LINE
  5
BA03
330
18
100
AcDbEntity
  8
0
  6
BYBLOCK
100
AcDbLine
 10
14.24255354423098
 20
-125.2385127014438
 30
0.0
 11
8.242553544230985
 21
-125.2385127014438
 31
0.0
  0
LINE
  5
BA04
330
18
100
AcDbEntity
  8
0
  6
BYBLOCK
100
AcDbLine
 10
30.84255354423101
 20
-126.8462078414438
 30
0.0
 11
24.84255354423101
 21
-125.2385127014438
 31
0.0
  0
LINE
  5
BA05
330
18
100
AcDbEntity
  8
0
  6
BYBLOCK
100
AcDbLine
 10
24.84255354423101
 20
-125.2385127014438
 30
0.0
 11
30.84255354423101
 21
-123.6308175614438
 31
0.0
  0
LINE
  5
BA06
330
18
100
AcDbEntity
  8
0
  6
BYBLOCK
100
AcDbLine
 10
24.84255354423101
 20
-125.2385127014438
 30
0.0
 11
30.84255354423101
 21
-125.2385127014438
 31
0.0
  0
TEXT
  5
BA07
330
18
100
AcDbEntity
  8
1DIM
  6
CONTINUOUS
100
AcDbText
 10
41.06755354423101
 20
-123.1385127014438
 30
0.0
 40
10.5
  1
10.6
100
AcDbText
1001
ACAD
1000
DSTYLE
1002
{
1070
    40
1040
3.0
1002
}
  0
LINE
  5
BA08
330
18
100
AcDbEntity
  8
0
  6
BYBLOCK
100
AcDbLine
 10
-24.4574464557617
 20
-27.35724660959191
 30
0.0
 11
-30.4574464557617
 21
-25.74955146959191
 31
0.0
  0
LINE
  5
BA09
330
18
100
AcDbEntity
  8
0
  6
BYBLOCK
100
AcDbLine
 10
-30.4574464557617
 20
-25.74955146959191
 30
0.0
 11
-24.4574464557617
 21
-24.14185632959191
 31
0.0
  0
LINE
  5
BA0A
330
18
100
AcDbEntity
  8
0
  6
BYBLOCK
100
AcDbLine
 10
-30.4574464557617
 20
-25.74955146959191
 30
0.0
 11
-24.4574464557617
 21
-25.74955146959191
 31
0.0
  0
LINE
  5
BA0B
330
18
100
AcDbEntity
  8
0
  6
BYBLOCK
100
AcDbLine
 10
663.542553544245
 20
-24.14185632959191
 30
0.0
 11
669.542553544245
 21
-25.74955146959191
 31
0.0
  0
LINE
  5
BA0C
330
18
100
AcDbEntity
  8
0
  6
BYBLOCK
100
AcDbLine
 10
669.542553544245
 20
-25.74955146959191
 30
0.0
 11
663.542553544245
 21
-27.35724660959191
 31
0.0
  0
LINE
  5
BA0D
330
18
100
AcDbEntity
  8
0
  6
BYBLOCK
100
AcDbLine
 10
669.542553544245
 20
-25.74955146959191
 30
0.0
 11
663.542553544245
 21
-25.74955146959191
 31
0.0
  0
TEXT
  5
BA0E
330
18
100
AcDbEntity
  8
1DIM
  6
CONTINUOUS
100
AcDbText
 10
307.0738035442417
 20
-23.64955146959191
 30
0.0
 40
10.5
  1
700
100
AcDbText
1001
ACAD
1000
DSTYLE
1002
{
1070
    40
1040
3.0
1002
}
  0
LINE
  5
BA0F
330
18
100
AcDbEntity
  8
0
  6
BYBLOCK
100
AcDbLine
 10
425.5425535442451
 20
-45.2628490883603
 30
0.0
 11
419.5425535442451
 21
-43.65515394836029
 31
0.0
  0
LINE
  5
BA10
330
18
100
AcDbEntity
  8
0
  6
BYBLOCK
100
AcDbLine
 10
419.5425535442451
 20
-43.65515394836029
 30
0.0
 11
425.5425535442451
 21
-42.0474588083603
 31
0.0
  0
LINE
  5
BA11
330
18
100
AcDbEntity
  8
0
  6
BYBLOCK
100
AcDbLine
 10
419.5425535442451
 20
-43.65515394836029
 30
0.0
 11
425.5425535442451
 21
-43.65515394836029
 31
0.0
  0
LINE
  5
BA12
330
18
100
AcDbEntity
  8
0
  6
BYBLOCK
100
AcDbLine
 10
613.5425930593699
 20
-42.0474588083603
 30
0.0
 11
619.5425930593699
 21
-43.65515394836029
 31
0.0
  0
LINE
  5
BA13
330
18
100
AcDbEntity
  8
0
  6
BYBLOCK
100
AcDbLine
 10
619.5425930593699
 20
-43.65515394836029
 30
0.0
 11
613.5425930593699
 21
-45.26284908836029
 31
0.0
  0
LINE
  5
BA14
330
18
100
AcDbEntity
  8
0
  6
BYBLOCK
100
AcDbLine
 10
619.5425930593699
 20
-43.65515394836029
 30
0.0
 11
613.5425930593699
 21
-43.65515394836029
 31
0.0
  0
TEXT
  5
BA15
330
18
100
AcDbEntity
  8
1DIM
  6
CONTINUOUS
100
AcDbText
 10
507.0738233018075
 20
-41.55515394836029
 30
0.0
 40
10.5
  1
200
100
AcDbText
1001
ACAD
1000
DSTYLE
1002
{
1070
    40
1040
3.0
1002
}
  0
LINE
  5
BA16
330
18
100
AcDbEntity
  8
0
  6
BYBLOCK
100
AcDbLine
 10
413.5425535442451
 20
-42.0474588083603
 30
0.0
 11
419.5425535442451
 21
-43.65515394836029
 31
0.0
  0
LINE
  5
BA17
330
18
100
AcDbEntity
  8
0
  6
BYBLOCK
100
AcDbLine
 10
419.5425535442451
 20
-43.65515394836029
 30
0.0
 11
413.5425535442451
 21
-45.26284908836029
 31
0.0
  0
LINE
  5
BA18
330
18
100
AcDbEntity
  8
0
  6
BYBLOCK
100
AcDbLine
 10
419.5425535442451
 20
-43.65515394836029
 30
0.0
 11
413.5425535442451
 21
-43.65515394836029
 31
0.0
  0
LINE
  5
BA19
330
18
100
AcDbEntity
  8
0
  6
BYBLOCK
100
AcDbLine
 10
225.5425535442383
 20
-45.2628490883603
 30
0.0
 11
219.5425535442383
 21
-43.65515394836029
 31
0.0
  0
LINE
  5
BA1A
330
18
100
AcDbEntity
  8
0
  6
BYBLOCK
100
AcDbLine
 10
219.5425535442383
 20
-43.65515394836029
 30
0.0
 11
225.5425535442383
 21
-42.0474588083603
 31
0.0
  0
LINE
  5
BA1B
330
18
100
AcDbEntity
  8
0
  6
BYBLOCK
100
AcDbLine
 10
219.5425535442383
 20
-43.65515394836029
 30
0.0
 11
225.5425535442383
 21
-43.65515394836029
 31
0.0
  0
TEXT
  5
BA1C
330
18
100
AcDbEntity
  8
1DIM
  6
CONTINUOUS
100
AcDbText
 10
307.0738035442417
 20
-41.55515394836029
 30
0.0
 40
10.5
  1
200
100
AcDbText
1001
ACAD
1000
DSTYLE
1002
{
1070
    40
1040
3.0
1002
}
  0
LINE
  5
BA1D
330
18
100
AcDbEntity
  8
0
  6
BYBLOCK
100
AcDbLine
 10
786.3425485442452
 20
-135.1201431420511
 30
0.0
 11
780.3425485442452
 21
-133.5124480020511
 31
0.0
  0
LINE
  5
BA1E
330
18
100
AcDbEntity
  8
0
  6
BYBLOCK
100
AcDbLine
 10
780.3425485442452
 20
-133.5124480020511
 30
0.0
 11
786.3425485442452
 21
-131.9047528620511
 31
0.0
  0
LINE
  5
BA1F
330
18
100
AcDbEntity
  8
0
  6
BYBLOCK
100
AcDbLine
 10
780.3425485442452
 20
-133.5124480020511
 30
0.0
 11
786.3425485442452
 21
-133.5124480020511
 31
0.0
  0
LINE
  5
BA20
330
18
100
AcDbEntity
  8
0
  6
BYBLOCK
100
AcDbLine
 10
762.3425485442448
 20
-131.9047528620511
 30
0.0
 11
768.3425485442448
 21
-133.5124480020511
 31
0.0
  0
LINE
  5
BA21
330
18
100
AcDbEntity
  8
0
  6
BYBLOCK
100
AcDbLine
 10
768.3425485442448
 20
-133.5124480020511
 30
0.0
 11
762.3425485442448
 21
-135.1201431420511
 31
0.0
  0
LINE
  5
BA22
330
18
100
AcDbEntity
  8
0
  6
BYBLOCK
100
AcDbLine
 10
768.3425485442448
 20
-133.5124480020511
 30
0.0
 11
762.3425485442448
 21
-133.5124480020511
 31
0.0
  0
TEXT
  5
BA23
330
18
100
AcDbEntity
  8
1DIM
  6
CONTINUOUS
100
AcDbText
 10
739.4925485442448
 20
-131.4124480020511
 30
0.0
 40
10.5
  1
12
100
AcDbText
1001
ACAD
1000
DSTYLE
1002
{
1070
    40
1040
3.0
1002
}
  0
LINE
  5
BA24
330
18
100
AcDbEntity
  8
0
  6
BYBLOCK
100
AcDbLine
 10
688.6867707279321
 20
-68.96547488128226
 30
0.0
 11
687.079075587932
 21
-74.96547488128226
 31
0.0
  0
LINE
  5
BA25
330
18
100
AcDbEntity
  8
0
  6
BYBLOCK
100
AcDbLine
 10
687.079075587932
 20
-74.96547488128226
 30
0.0
 11
685.471380447932
 21
-68.96547488128226
 31
0.0
  0
LINE
  5
BA26
330
18
100
AcDbEntity
  8
0
  6
BYBLOCK
100
AcDbLine
 10
687.079075587932
 20
-74.96547488128226
 30
0.0
 11
687.079075587932
 21
-68.96547488128226
 31
0.0
  0
LINE
  5
BA27
330
18
100
AcDbEntity
  8
0
  6
BYBLOCK
100
AcDbLine
 10
685.471380447932
 20
-58.56631796810962
 30
0.0
 11
687.079075587932
 21
-52.56631796810962
 31
0.0
  0
LINE
  5
BA28
330
18
100
AcDbEntity
  8
0
  6
BYBLOCK
100
AcDbLine
 10
687.079075587932
 20
-52.56631796810962
 30
0.0
 11
688.6867707279321
 21
-58.56631796810962
 31
0.0
  0
LINE
  5
BA29
330
18
100
AcDbEntity
  8
0
  6
BYBLOCK
100
AcDbLine
 10
687.079075587932
 20
-52.56631796810962
 30
0.0
 11
687.079075587932
 21
-58.56631796810962
 31
0.0
  0
TEXT
  5
BA2A
330
18
100
AcDbEntity
  8
1DIM
  6
CONTINUOUS
100
AcDbText
 10
684.979075587932
 20
-43.96631796810948
 30
0.0
 40
10.5
  1
22.4
 50
90.0
100
AcDbText
1001
ACAD
1000
DSTYLE
1002
{
1070
    40
1040
3.0
1002
}
  0
LINE
  5
BA2B
330
18
100
AcDbEntity
  8
0
  6
BYBLOCK
100
AcDbLine
 10
710.5339702576903
 20
11.61328028753448
 30
0.0
 11
708.9262751176902
 21
5.613280287534484
 31
0.0
  0
LINE
  5
BA2C
330
18
100
AcDbEntity
  8
0
  6
BYBLOCK
100
AcDbLine
 10
708.9262751176902
 20
5.613280287534484
 30
0.0
 11
707.3185799776902
 21
11.61328028753448
 31
0.0
  0
LINE
  5
BA2D
330
18
100
AcDbEntity
  8
0
  6
BYBLOCK
100
AcDbLine
 10
708.9262751176902
 20
5.613280287534484
 30
0.0
 11
708.9262751176902
 21
11.61328028753448
 31
0.0
  0
LINE
  5
BA2E
330
18
100
AcDbEntity
  8
0
  6
BYBLOCK
100
AcDbLine
 10
707.3185799776902
 20
51.61328020895393
 30
0.0
 11
708.9262751176902
 21
57.61328020895393
 31
0.0
  0
LINE
  5
BA2F
330
18
100
AcDbEntity
  8
0
  6
BYBLOCK
100
AcDbLine
 10
708.9262751176902
 20
57.61328020895393
 30
0.0
 11
710.5339702576903
 21
51.61328020895393
 31
0.0
  0
LINE
  5
BA30
330
18
100
AcDbEntity
  8
0
  6
BYBLOCK
100
AcDbLine
 10
708.9262751176902
 20
57.61328020895393
 30
0.0
 11
708.9262751176902
 21
51.61328020895393
 31
0.0
  0
TEXT
  5
BA31
330
18
100
AcDbEntity
  8
1DIM
  6
CONTINUOUS
100
AcDbText
 10
689.3189834510235
 20
13.76328024824431
 30
0.0
 40
10.5
  1
使用時
 50
90.0
100
AcDbText
1001
ACAD
1000
DSTYLE
1002
{
1070
    40
1040
3.0
1002
}
  0
TEXT
  5
BA32
330
18
100
AcDbEntity
  8
1DIM
  6
CONTINUOUS
100
AcDbText
 10
706.8262751176901
 20
22.82682191491097
 30
0.0
 40
10.5
  1
52
 50
90.0
100
AcDbText
1001
ACAD
1000
DSTYLE
1002
{
1070
    40
1040
3.0
1002
}
  0
LINE
  5
BA33
330
18
100
AcDbEntity
  8
0
  6
BYBLOCK
100
AcDbLine
 10
213.5425535442383
 20
-42.0474588083603
 30
0.0
 11
219.5425535442383
 21
-43.65515394836029
 31
0.0
  0
LINE
  5
BA34
330
18
100
AcDbEntity
  8
0
  6
BYBLOCK
100
AcDbLine
 10
219.5425535442383
 20
-43.65515394836029
 30
0.0
 11
213.5425535442383
 21
-45.26284908836029
 31
0.0
  0
LINE
  5
BA35
330
18
100
AcDbEntity
  8
0
  6
BYBLOCK
100
AcDbLine
 10
219.5425535442383
 20
-43.65515394836029
 30
0.0
 11
213.5425535442383
 21
-43.65515394836029
 31
0.0
  0
LINE
  5
BA36
330
18
100
AcDbEntity
  8
0
  6
BYBLOCK
100
AcDbLine
 10
25.54255354423148
 20
-45.2628490883603
 30
0.0
 11
19.54255354423148
 21
-43.65515394836029
 31
0.0
  0
LINE
  5
BA37
330
18
100
AcDbEntity
  8
0
  6
BYBLOCK
100
AcDbLine
 10
19.54255354423148
 20
-43.65515394836029
 30
0.0
 11
25.54255354423148
 21
-42.0474588083603
 31
0.0
  0
LINE
  5
BA38
330
18
100
AcDbEntity
  8
0
  6
BYBLOCK
100
AcDbLine
 10
19.54255354423148
 20
-43.65515394836029
 30
0.0
 11
25.54255354423148
 21
-43.65515394836029
 31
0.0
  0
TEXT
  5
BA39
330
18
100
AcDbEntity
  8
1DIM
  6
CONTINUOUS
100
AcDbText
 10
107.0738035442349
 20
-41.55515394836029
 30
0.0
 40
10.5
  1
200
100
AcDbText
1001
ACAD
1000
DSTYLE
1002
{
1070
    40
1040
3.0
1002
}
  0
LINE
  5
BA3A
330
18
100
AcDbEntity
  8
0
  6
BYBLOCK
100
AcDbLine
 10
90.280752213557
 20
-108.8491009054683
 30
0.0
 11
90.95338035748546
 21
-102.6739689195772
 31
0.0
  0
LINE
  5
BA3B
330
18
100
AcDbEntity
  8
0
  6
BYBLOCK
100
AcDbLine
 10
90.95338035748546
 20
-102.6739689195772
 30
0.0
 11
93.45843326470228
 21
-108.3581041744092
 31
0.0
  0
LINE
  5
BA3C
330
18
100
AcDbEntity
  8
0
  6
BYBLOCK
100
AcDbLine
 10
90.95338035748546
 20
-102.6739689195772
 30
0.0
 11
91.86959273912964
 21
-108.6036025399387
 31
0.0
  0
LINE
  5
BA3D
330
18
100
AcDbEntity
  8
0
  6
BYBLOCK
100
AcDbLine
 10
628.5425535442523
 20
-124.3954707363515
 30
0.0
 11
634.5425535442523
 21
-126.0031658763515
 31
0.0
  0
LINE
  5
BA3E
330
18
100
AcDbEntity
  8
0
  6
BYBLOCK
100
AcDbLine
 10
634.5425535442523
 20
-126.0031658763515
 30
0.0
 11
628.5425535442523
 21
-127.6108610163515
 31
0.0
  0
LINE
  5
BA3F
330
18
100
AcDbEntity
  8
0
  6
BYBLOCK
100
AcDbLine
 10
634.5425535442523
 20
-126.0031658763515
 30
0.0
 11
628.5425535442523
 21
-126.0031658763515
 31
0.0
  0
LINE
  5
BA40
330
18
100
AcDbEntity
  8
0
  6
BYBLOCK
100
AcDbLine
 10
610.5425535442523
 20
-127.6108610163515
 30
0.0
 11
604.5425535442523
 21
-126.0031658763515
 31
0.0
  0
LINE
  5
BA41
330
18
100
AcDbEntity
  8
0
  6
BYBLOCK
100
AcDbLine
 10
604.5425535442523
 20
-126.0031658763515
 30
0.0
 11
610.5425535442523
 21
-124.3954707363515
 31
0.0
  0
LINE
  5
BA42
330
18
100
AcDbEntity
  8
0
  6
BYBLOCK
100
AcDbLine
 10
604.5425535442523
 20
-126.0031658763515
 30
0.0
 11
610.5425535442523
 21
-126.0031658763515
 31
0.0
  0
TEXT
  5
BA43
330
18
100
AcDbEntity
  8
1DIM
  6
CONTINUOUS
100
AcDbText
 10
569.5988035442523
 20
-123.9031658763516
 30
0.0
 40
10.5
  1
P30
100
AcDbText
1001
ACAD
1000
DSTYLE
1002
{
1070
    40
1040
3.0
1002
}
  0
LINE
  5
BA44
330
18
100
AcDbEntity
  8
0
  6
BYBLOCK
100
AcDbLine
 10
652.5983493534599
 20
-108.782265821567
 30
0.0
 11
653.72679634837
 21
-102.6739689195772
 31
0.0
  0
LINE
  5
BA45
330
18
100
AcDbEntity
  8
0
  6
BYBLOCK
100
AcDbLine
 10
653.72679634837
 20
-102.6739689195772
 30
0.0
 11
655.8036810083909
 21
-108.5281327174351
 31
0.0
  0
LINE
  5
BA46
330
18
100
AcDbEntity
  8
0
  6
BYBLOCK
100
AcDbLine
 10
653.72679634837
 20
-102.6739689195772
 30
0.0
 11
654.2010151809254
 21
-108.655199269501
 31
0.0
  0
VIEWPORT
  5
57
330
15
100
AcDbEntity
 67
     1
  8
0
100
AcDbViewport
 68
     1
 10
0.0
 20
0.0
 30
0.0
 40
663.4332925336597
 41
297.0
 68
     1
 69
     1
1001
ACAD
1000
MVIEW
1002
{
1070
    16
1010
0.0
1020
0.0
1030
0.0
1010
0.0
1020
0.0
1030
1.0
1040
0.0
1040
297.0
1040
5.25202986231767
1040
25.33903210976955
1040
50.0
1040
0.0
1040
0.0
1070
    16
1070
  1000
1070
     0
1070
     1
1070
     0
1070
     0
1070
     0
1070
     0
1040
0.0
1040
0.0
1040
0.0
1040
10.0
1040
10.0
1040
10.0
1040
10.0
1070
     0
1002
{
1002
}
1002
}
  0
ENDSEC
  0
SECTION
  2
OBJECTS
  0
DICTIONARY
  5
C
330
0
100
AcDbDictionary
  3
ACAD_CIP_PREVIOUS_PRODUCT_INFO
350
A553
  3
ACAD_COLOR
350
8AE3
  3
ACAD_GROUP
350
D
  3
ACAD_LAYOUT
350
8AE6
  3
ACAD_MATERIAL
350
8AE2
  3
ACAD_MLEADERSTYLE
350
8D94
  3
ACAD_MLINESTYLE
350
1B
  3
ACAD_PLOTSETTINGS
350
8AE7
  3
ACAD_SCALELIST
350
8D72
  3
ACAD_VISUALSTYLE
350
8D61
  3
ACDBHEADERROUNDTRIPXREC
350
BA47
  3
ACDBVARIABLEDICTIONARY
350
37
  3
CONTENTDICTIONARY
350
D8
  3
DRAWINGVARIABLESDICT
350
20
  3
DWGPROPS
350
BA4A
1001
ACAD
1000
TREAT_AS_HARD
1070
     0
  0
DICTIONARY
  5
8F7F
330
2
100
AcDbDictionary
  3
ACAD_LAYERSTATES
360
8F80
1001
ACAD
1000
TREAT_AS_HARD
1070
     1
  0
DICTIONARY
  5
8D9E
330
E
100
AcDbDictionary
  3
ADSK_XREC_LAYER_RECONCILED
360
8D9F
1001
ACAD
1000
TREAT_AS_HARD
1070
     1
  0
DICTIONARY
  5
8DA0
330
29
100
AcDbDictionary
  3
ADSK_XREC_LAYER_RECONCILED
360
8DA1
1001
ACAD
1000
TREAT_AS_HARD
1070
     1
  0
DICTIONARY
  5
8DA2
330
31
100
AcDbDictionary
  3
ADSK_XREC_LAYER_RECONCILED
360
8DA3
1001
ACAD
1000
TREAT_AS_HARD
1070
     1
  0
DICTIONARY
  5
8DB2
330
101
100
AcDbDictionary
  3
ADSK_XREC_LAYER_RECONCILED
360
8DB3
1001
ACAD
1000
TREAT_AS_HARD
1070
     1
  0
DICTIONARY
  5
8DB4
330
102
100
AcDbDictionary
  3
ADSK_XREC_LAYER_RECONCILED
360
8DB5
1001
ACAD
1000
TREAT_AS_HARD
1070
     1
  0
DICTIONARY
  5
8DB6
330
103
100
AcDbDictionary
  3
ADSK_XREC_LAYER_RECONCILED
360
8DB7
1001
ACAD
1000
TREAT_AS_HARD
1070
     1
  0
DICTIONARY
  5
8DBE
330
159
100
AcDbDictionary
  3
ADSK_XREC_LAYER_RECONCILED
360
8DBF
1001
ACAD
1000
TREAT_AS_HARD
1070
     1
  0
DICTIONARY
  5
8DC4
330
15C
100
AcDbDictionary
  3
ADSK_XREC_LAYER_RECONCILED
360
8DC5
1001
ACAD
1000
TREAT_AS_HARD
1070
     1
  0
DICTIONARY
  5
8E4A
330
8893
100
AcDbDictionary
  3
ADSK_XREC_LAYER_RECONCILED
360
8E4B
1001
ACAD
1000
TREAT_AS_HARD
1070
     1
  0
DICTIONARY
  5
8E4C
330
8894
100
AcDbDictionary
  3
ADSK_XREC_LAYER_RECONCILED
360
8E4D
1001
ACAD
1000
TREAT_AS_HARD
1070
     1
  0
DICTIONARY
  5
8E4E
330
8895
100
AcDbDictionary
  3
ADSK_XREC_LAYER_RECONCILED
360
8E4F
1001
ACAD
1000
TREAT_AS_HARD
1070
     1
  0
DICTIONARY
  5
8E50
330
8896
100
AcDbDictionary
  3
ADSK_XREC_LAYER_RECONCILED
360
8E51
1001
ACAD
1000
TREAT_AS_HARD
1070
     1
  0
DICTIONARY
  5
8B62
330
18
100
AcDbDictionary
  3
ACAD_SORTENTS
360
8B63
1001
ACAD
1000
TREAT_AS_HARD
1070
     1
  0
XRECORD
  5
A553
102
{ACAD_REACTORS
330
C
102
}
330
C
100
AcDbXrecord
300
ACDLT
300
2012
300
ACDLT_F_S
  0
DICTIONARY
  5
8AE3
102
{ACAD_REACTORS
330
C
102
}
330
C
100
AcDbDictionary
1001
ACAD
1000
TREAT_AS_HARD
1070
     0
  0
DICTIONARY
  5
D
102
{ACAD_REACTORS
330
C
102
}
330
C
100
AcDbDictionary
1001
ACAD
1000
TREAT_AS_HARD
1070
     0
  0
DICTIONARY
  5
8AE6
102
{ACAD_REACTORS
330
C
102
}
330
C
100
AcDbDictionary
1001
ACAD
1000
TREAT_AS_HARD
1070
     0
  0
DICTIONARY
  5
8AE2
102
{ACAD_REACTORS
330
C
102
}
330
C
100
AcDbDictionary
  3
BYBLOCK
350
8D51
  3
BYLAYER
350
8D49
  3
GLOBAL
350
8D59
1001
ACAD
1000
TREAT_AS_HARD
1070
     0
  0
DICTIONARY
  5
8D94
102
{ACAD_REACTORS
330
C
102
}
330
C
100
AcDbDictionary
  3
STANDARD
350
8D95
1001
ACAD
1000
TREAT_AS_HARD
1070
     0
  0
DICTIONARY
  5
1B
102
{ACAD_REACTORS
330
C
102
}
330
C
100
AcDbDictionary
  3
STANDARD
350
1C
1001
ACAD
1000
TREAT_AS_HARD
1070
     0
  0
DICTIONARY
  5
8AE7
102
{ACAD_REACTORS
330
C
102
}
330
C
100
AcDbDictionary
1001
ACAD
1000
TREAT_AS_HARD
1070
     0
  0
DICTIONARY
  5
8D72
102
{ACAD_REACTORS
330
C
102
}
330
C
100
AcDbDictionary
  3
A0
350
8D73
  3
A1
350
8D74
  3
A2
350
8D75
  3
A3
350
8D76
  3
A4
350
8D77
  3
A5
350
8D78
  3
A6
350
8D79
  3
A7
350
8D7A
  3
A8
350
8D7B
  3
A9
350
8D7C
  3
B0
350
8D7D
  3
B1
350
8D7E
  3
B2
350
8D7F
  3
B3
350
8D80
  3
B4
350
8D81
  3
B5
350
8D82
  3
B6
350
8D83
  3
B7
350
8D84
  3
B8
350
8D85
  3
B9
350
8D86
  3
C0
350
8D87
  3
C1
350
8D88
  3
C2
350
8D89
  3
C3
350
8D8A
  3
C4
350
8D8B
  3
C5
350
8D8C
  3
C6
350
8D8D
  3
C7
350
8D8E
  3
C8
350
8D8F
  3
C9
350
8D90
  3
D0
350
8D91
  3
D1
350
8D92
  3
D2
350
8D93
1001
ACAD
1000
TREAT_AS_HARD
1070
     0
  0
DICTIONARY
  5
8D61
102
{ACAD_REACTORS
330
C
102
}
330
C
100
AcDbDictionary
  3
2DWIREFRAME
350
8D67
  3
3D_HIDDEN
350
8D69
  3
3DWIREFRAME
350
8D68
  3
BASIC
350
8D66
  3
BRIGHTEN
350
8D6D
  3
COLORCHANGE
350
8D71
  3
CONCEPTUAL
350
8D6A
  3
DIM
350
8D6C
  3
EDGECOLOROFF
350
A54A
  3
FACEPATTERN
350
8D70
  3
FLAT
350
8D62
  3
FLATWITHEDGES
350
8D63
  3
GOURAUD
350
8D64
  3
GOURAUDWITHEDGES
350
8D65
  3
HIDDEN
350
A542
  3
JITTEROFF
350
A548
  3
LINEPATTERN
350
8D6F
  3
MODELING
350
AD15
  3
OVERHANGOFF
350
A549
  3
REALISTIC
350
8D6B
  3
SHADED
350
A547
  3
SHADED_WITH_EDGES
350
A546
  3
SHADES_OF_GRAY
350
A543
  3
SKETCHY
350
A544
  3
THICKEN
350
8D6E
  3
WIREFRAME
350
A541
  3
X-RAY
350
A545
1001
ACAD
1000
TREAT_AS_HARD
1070
     0
  0
DICTIONARY
  5
BA47
102
{ACAD_REACTORS
330
C
102
}
330
C
100
AcDbDictionary
  3
COLORDICT
350
BA48
  3
MATERIALDICT
350
BA49
1001
ACAD
1000
TREAT_AS_HARD
1070
     0
  0
DICTIONARY
  5
37
102
{ACAD_REACTORS
330
C
102
}
330
C
100
AcDbDictionary
  3
CANNOSCALE
350
AD83
  3
CMLEADERSTYLE
350
8EC5
  3
CTABLESTYLE
350
8B4D
  3
DIMADEC
350
38
  3
DIMASSOC
350
8D46
  3
HIDETEXT
350
A72F
  3
INDEXCTL
350
8EC7
  3
INTERSECTIONCOLOR
350
A732
  3
INTERSECTIONDISPLAY
350
A731
  3
LAYEREVAL
350
A72D
  3
LAYERNOTIFY
350
A72E
  3
MSLTSCALE
350
ADD3
  3
OBSCOLOR
350
A730
  3
PROJECTNAME
350
8D47
  3
SORTENTS
350
5EC
  3
XCLIPFRAME
350
AD14
1001
ACAD
1000
TREAT_AS_HARD
1070
     0
  0
DICTIONARY
  5
D8
102
{ACAD_REACTORS
330
C
102
}
330
C
100
AcDbDictionary
1001
CONTENTTABDATA
1070
     3
1000
CHILD
1000
D:\ACLT\TABSET\CHILDREN.dwg
1070
     0
1070
     0
1070
     1
1000
REG
1000
D:\ACLT\TABSET\REGION.dwg
1070
     0
1070
     0
1070
     1
1000
std
1000
D:\ACLT\TABSET\std_sym_all.dwg
1070
     0
1070
     0
1070
     1
1001
CONTENTCURRENTTAB
1070
     4
1001
ACAD
1000
TREAT_AS_HARD
1070
     0
  0
DICTIONARY
  5
20
102
{ACAD_REACTORS
330
C
102
}
330
C
100
AcDbDictionary
1001
DRAWINGVARIABLESXDATA
1000
POLARANG
1000
0.261799387799149410000000
1000
POLARMODE
1000
1
1000
POLARSTYLE
1000
1
1001
ACAD
1000
TREAT_AS_HARD
1070
     0
  0
XRECORD
  5
BA4A
102
{ACAD_REACTORS
330
C
102
}
330
C
100
AcDbXrecord
  1
DWGPROPS COOKIE
  2

  3

  4

  6

  7

  8
3684
  9

300
=
301
=
302
=
303
=
304
=
305
=
306
=
307
=
308
=
309
=
 40
0.0
 41
2451318.246352917
 42
2458149.321701262
  1

 90
        0
  0
DICTIONARY
  5
8F80
102
{ACAD_REACTORS
330
8F7F
102
}
330
8F7F
100
AcDbDictionary
1001
ACAD
1000
TREAT_AS_HARD
1070
     0
  0
ACAD_PROXY_OBJECT
  5
8D9F
102
{ACAD_REACTORS
330
8D9E
102
}
330
8D9E
100
AcDbZombieObject
 90
      499
 91
      515
 93
       34
310
40C8804040
  0
ACAD_PROXY_OBJECT
  5
8DA1
102
{ACAD_REACTORS
330
8DA0
102
}
330
8DA0
100
AcDbZombieObject
 90
      499
 91
      515
 93
       34
310
40C8804040
  0
ACAD_PROXY_OBJECT
  5
8DA3
102
{ACAD_REACTORS
330
8DA2
102
}
330
8DA2
100
AcDbZombieObject
 90
      499
 91
      515
 93
       34
310
40C8804040
  0
ACAD_PROXY_OBJECT
  5
8DB3
102
{ACAD_REACTORS
330
8DB2
102
}
330
8DB2
100
AcDbZombieObject
 90
      499
 91
      515
 93
       34
310
40C8804040
  0
ACAD_PROXY_OBJECT
  5
8DB5
102
{ACAD_REACTORS
330
8DB4
102
}
330
8DB4
100
AcDbZombieObject
 90
      499
 91
      515
 93
       34
310
40C8804040
  0
ACAD_PROXY_OBJECT
  5
8DB7
102
{ACAD_REACTORS
330
8DB6
102
}
330
8DB6
100
AcDbZombieObject
 90
      499
 91
      515
 93
       34
310
40C8804040
  0
ACAD_PROXY_OBJECT
  5
8DBF
102
{ACAD_REACTORS
330
8DBE
102
}
330
8DBE
100
AcDbZombieObject
 90
      499
 91
      515
 93
       34
310
40C8804040
  0
ACAD_PROXY_OBJECT
  5
8DC5
102
{ACAD_REACTORS
330
8DC4
102
}
330
8DC4
100
AcDbZombieObject
 90
      499
 91
      515
 93
       34
310
40C8804040
  0
ACAD_PROXY_OBJECT
  5
8E4B
102
{ACAD_REACTORS
330
8E4A
102
}
330
8E4A
100
AcDbZombieObject
 90
      499
 91
      515
 93
       34
310
40C8804040
  0
ACAD_PROXY_OBJECT
  5
8E4D
102
{ACAD_REACTORS
330
8E4C
102
}
330
8E4C
100
AcDbZombieObject
 90
      499
 91
      515
 93
       34
310
40C8804040
  0
ACAD_PROXY_OBJECT
  5
8E4F
102
{ACAD_REACTORS
330
8E4E
102
}
330
8E4E
100
AcDbZombieObject
 90
      499
 91
      515
 93
       34
310
40C8804040
  0
ACAD_PROXY_OBJECT
  5
8E51
102
{ACAD_REACTORS
330
8E50
102
}
330
8E50
100
AcDbZombieObject
 90
      499
 91
      515
 93
       34
310
40C8804040
  0
SORTENTSTABLE
  5
8B63
102
{ACAD_REACTORS
330
8B62
102
}
330
8B62
100
AcDbSortentsTable
330
18
331
9F18
  5
9F3C
331
9F19
  5
9F3D
331
9F1A
  5
9F3E
331
9F1B
  5
9F3F
331
9F1C
  5
9F40
331
9F1D
  5
9F41
331
9F1E
  5
9F42
331
9F1F
  5
9F43
331
9F20
  5
9F44
331
9F21
  5
9F45
331
9F22
  5
9F46
331
9F23
  5
9F47
331
9F24
  5
9F48
331
9F25
  5
9F49
331
9F26
  5
9F4A
331
9F27
  5
9F4E
331
9F28
  5
9F4F
331
9F29
  5
9F50
331
9F2A
  5
9F51
331
9F2B
  5
9F52
331
9F2C
  5
9F53
331
9F2D
  5
9F54
331
9F2E
  5
9F55
331
9F2F
  5
9F56
331
9F30
  5
9F59
331
9F31
  5
9F5A
331
9F32
  5
9F5B
331
9F33
  5
9F5C
331
9F34
  5
9F5D
331
9F35
  5
9F5E
331
9F36
  5
9F5F
331
9F37
  5
9F60
331
9F38
  5
9F61
331
9F39
  5
9F62
331
9F3A
  5
9F63
331
9F3B
  5
9F64
331
9F3C
  5
9F65
331
9F3D
  5
9F66
331
9F3E
  5
9F67
331
9F3F
  5
9F6B
331
9F40
  5
9F6C
331
9F41
  5
9F6D
331
9F42
  5
9F71
331
9F43
  5
9F72
331
9F44
  5
9F73
331
9F45
  5
9F74
331
9F46
  5
9F75
331
9F47
  5
9F79
331
9F48
  5
9F7A
331
9F49
  5
9F7B
331
9F4A
  5
9F7C
331
9F4E
  5
9F9D
331
9F4F
  5
9F9E
331
9F50
  5
9F9F
331
9F51
  5
9FA0
331
9F52
  5
9FA1
331
9F53
  5
9FA2
331
9F54
  5
9FA3
331
9F55
  5
9FA4
331
9F56
  5
9FA5
331
9F58
  5
A3B5
331
9F59
  5
A3B6
331
9F5A
  5
A3B9
331
9F5B
  5
A3BA
331
9F5C
  5
A3BB
331
9F5D
  5
A3BC
331
9F5E
  5
A3BD
331
9F5F
  5
A3BE
331
9F60
  5
A607
331
9F61
  5
A608
331
9F62
  5
A609
331
9F63
  5
A9B2
331
9F64
  5
AADF
331
9F65
  5
AAE0
331
9F66
  5
AAE1
331
9F67
  5
AAE2
331
9F68
  5
AAE3
331
9F69
  5
AAE4
331
9F6A
  5
AAE5
331
9F6B
  5
AAE6
331
9F6C
  5
AAE7
331
9F6D
  5
AAE8
331
9F6E
  5
AAE9
331
9F6F
  5
AAEE
331
9F70
  5
AAEF
331
0
  5
9FB8
331
0
  5
9FB9
331
0
  5
9FBA
331
9F74
  5
B711
331
9F75
  5
B712
331
9F76
  5
B713
331
9F77
  5
B714
331
9F78
  5
B715
331
0
  5
9FC0
331
9F7A
  5
B727
331
9F7B
  5
B72C
331
9F7C
  5
B72D
331
9F7D
  5
B72F
331
9F7E
  5
B730
331
9F7F
  5
B731
331
9F80
  5
B732
331
9F81
  5
B733
331
9F82
  5
B734
331
9F83
  5
B735
331
9F84
  5
B736
331
9F85
  5
B737
331
9F86
  5
B738
331
9F87
  5
B739
331
9F88
  5
B73A
331
9F89
  5
B73B
331
9F8A
  5
B73C
331
9F8B
  5
B73D
331
9F8C
  5
B73E
331
9F8D
  5
B73F
331
9F8E
  5
B740
331
9F8F
  5
B741
331
9F90
  5
B742
331
9F91
  5
B743
331
9F92
  5
B744
331
9F93
  5
B745
331
9F94
  5
B746
331
9F95
  5
B747
331
9F96
  5
B748
331
9F97
  5
B749
331
9F98
  5
B74A
331
9F99
  5
B74B
331
9F9A
  5
B74C
331
9F9B
  5
B74D
331
9F9C
  5
B74E
331
9F9D
  5
B74F
331
9F9E
  5
B750
331
9F9F
  5
B751
331
9FA0
  5
B752
331
9FA1
  5
B753
331
9FA2
  5
B754
331
9FA3
  5
B755
331
9FA4
  5
B756
331
9FA5
  5
B757
331
9FA6
  5
B758
331
9FA7
  5
B759
331
9FA8
  5
B75A
331
9FA9
  5
B75B
331
9FAA
  5
B75C
331
9FAB
  5
B75D
331
9FAC
  5
B75E
331
9FAD
  5
B75F
331
9FAE
  5
B760
331
9FAF
  5
B761
331
9FB0
  5
B765
331
9FB1
  5
B766
331
9FB2
  5
B767
331
9FB3
  5
B768
331
0
  5
A3B7
331
0
  5
A3B8
331
9FB6
  5
B781
331
9FB7
  5
B782
331
9FB8
  5
B783
331
9FB9
  5
B784
331
9FBA
  5
B785
331
9FBB
  5
B786
331
9FBC
  5
B787
331
9FBD
  5
B788
331
9FBE
  5
B789
331
9FBF
  5
B78A
331
9FC0
  5
B78B
331
9FC1
  5
B78C
331
9FC2
  5
B790
331
9FC3
  5
B791
331
9FC4
  5
B792
331
9FC5
  5
B793
331
9FC6
  5
B794
331
9FC7
  5
B795
331
9FC8
  5
B796
331
9FC9
  5
B797
331
9FCA
  5
B798
331
9FCB
  5
B799
331
9FCC
  5
B79A
331
9FCD
  5
B79B
331
9FCE
  5
B79C
331
9FCF
  5
B79D
331
9FD0
  5
B79E
331
9FD1
  5
B79F
331
A0A4
  5
B7A0
331
A0A5
  5
B7A1
331
A0A6
  5
B7A2
331
A0A7
  5
B7A3
331
A0A8
  5
B7A4
331
A0A9
  5
B7A5
331
A0AA
  5
B7A6
331
A0AB
  5
B7A7
331
A0AC
  5
B7A8
331
A0AD
  5
B7A9
331
A0AE
  5
B7AB
331
A0AF
  5
B7AC
331
A0B0
  5
B7AD
331
A0B1
  5
B7AE
331
A0B2
  5
B7AF
331
A0B3
  5
B7B0
331
A0B4
  5
B7B1
331
A0B5
  5
B7B2
331
A0B6
  5
B7B3
331
A0B7
  5
B7B4
331
A0B8
  5
B7B5
331
A0B9
  5
B7B6
331
0
  5
B70A
331
A0D9
  5
B7C1
331
A0DA
  5
B7C2
331
A0DB
  5
B7C3
331
A0DC
  5
B7C4
331
A0DD
  5
B7C5
331
A0DE
  5
B7C6
331
A0DF
  5
B7C7
331
A0E0
  5
B7C8
331
A0E1
  5
B7C9
331
A0E2
  5
B7CA
331
A0E3
  5
B7CB
331
A0E4
  5
B7CC
331
A0E5
  5
B7CD
331
0
  5
B718
331
0
  5
B719
331
A3B4
  5
B7D5
331
A3B5
  5
B7D6
331
A3B6
  5
B7D7
331
A3B7
  5
B7D8
331
A3B8
  5
B7D9
331
A3B9
  5
B7DA
331
A3BA
  5
B7DB
331
A3BB
  5
B7DC
331
A3BC
  5
B7DD
331
A3BD
  5
B7DE
331
A3BE
  5
B7DF
331
A3BF
  5
B7E0
331
A3C0
  5
B7E1
331
A3C1
  5
B7E2
331
A607
  5
B7E3
331
A608
  5
B7E4
331
A609
  5
B7E5
331
0
  5
B72B
331
AADF
  5
B7F2
331
AAE0
  5
B7F3
331
AAE1
  5
B7F4
331
AAE2
  5
B7F5
331
AAE3
  5
B7F6
331
AAE4
  5
B7F7
331
AAE5
  5
B7F8
331
AAE6
  5
B7F9
331
AAE7
  5
B7FA
331
AAE8
  5
B7FB
331
AAE9
  5
B7FC
331
AAEE
  5
B919
331
AAEF
  5
B91A
331
AAF0
  5
B91B
331
AAF1
  5
B91C
331
AAF2
  5
B91D
331
AAF3
  5
B91E
331
AAF4
  5
B91F
331
AAF7
  5
B9AE
331
AAF8
  5
B9AF
331
AAF9
  5
B9B0
331
AAFA
  5
B9B1
331
AAFD
  5
BA3F
331
0
  5
B97B
331
0
  5
B97C
331
0
  5
9F58
331
B6FF
  5
9FAF
331
B700
  5
9FB0
331
B701
  5
9FB1
331
B702
  5
9FB2
331
B703
  5
9FB3
331
B704
  5
9FB4
331
B705
  5
9FB5
331
B706
  5
9FB6
331
B707
  5
9FB7
331
B708
  5
9FBB
331
B709
  5
9FBC
331
B70A
  5
9FBD
331
B70B
  5
9FBE
331
B70C
  5
9FBF
331
B70D
  5
9FC1
331
B70E
  5
9FC2
331
B70F
  5
9FC3
331
B710
  5
9FC4
331
B711
  5
9FC5
331
B712
  5
9FC6
331
B713
  5
9FC7
331
B714
  5
9FC8
331
B715
  5
9FC9
331
B716
  5
9FCA
331
B717
  5
9FCB
331
B718
  5
9FCC
331
B719
  5
9FCD
331
B71A
  5
9FCE
331
B71B
  5
9FCF
331
B71C
  5
9FD0
331
B71D
  5
9FD1
331
B71E
  5
A0A4
331
B71F
  5
A0A5
331
B720
  5
A0A6
331
B721
  5
A0A7
331
B722
  5
A0A8
331
B723
  5
A0A9
331
B724
  5
A0AA
331
B725
  5
A0AB
331
B726
  5
A0AC
331
B727
  5
A0AD
331
B728
  5
A0AE
331
B729
  5
A0AF
331
B72A
  5
A0B0
331
B72B
  5
A0B1
331
B72C
  5
A0B2
331
B72D
  5
A0B3
331
B72E
  5
A0B4
331
B72F
  5
A0B5
331
B730
  5
A0B6
331
B731
  5
A0B7
331
B732
  5
A0B8
331
B733
  5
A0B9
331
B734
  5
A0DB
331
B735
  5
A0DC
331
B736
  5
A0DD
331
B737
  5
A0E1
331
B738
  5
A0E2
331
B739
  5
A0E3
331
B73A
  5
A3B3
331
B73B
  5
A3B4
331
0
  5
B72E
331
B73D
  5
B806
331
B73E
  5
B807
331
B73F
  5
B808
331
B740
  5
B809
331
B741
  5
B80A
331
B742
  5
B80B
331
B743
  5
B80C
331
B744
  5
B80D
331
B745
  5
B80E
331
B746
  5
B80F
331
B747
  5
B810
331
B748
  5
B811
331
B749
  5
B812
331
B74A
  5
B813
331
B74B
  5
B814
331
B74C
  5
B815
331
B74D
  5
B816
331
B74E
  5
B817
331
B74F
  5
B818
331
B750
  5
B819
331
B751
  5
B81A
331
B752
  5
B81B
331
B753
  5
B81C
331
B754
  5
B81D
331
B755
  5
B81E
331
B756
  5
B81F
331
B757
  5
B820
331
B758
  5
B821
331
B759
  5
B822
331
B75A
  5
B823
331
B75B
  5
B824
331
B75C
  5
B825
331
B75D
  5
B826
331
B75E
  5
B827
331
B75F
  5
B828
331
B760
  5
B829
331
B761
  5
B82A
331
B762
  5
B82B
331
B763
  5
B82C
331
B764
  5
B82E
331
B765
  5
B82F
331
B766
  5
B830
331
B767
  5
B831
331
B768
  5
B832
331
B769
  5
B833
331
B76A
  5
B834
331
B76B
  5
B835
331
B76C
  5
B836
331
B76D
  5
B837
331
B76E
  5
B838
331
B76F
  5
B839
331
B770
  5
B83A
331
B771
  5
B83B
331
B772
  5
B83C
331
B773
  5
B83D
331
B774
  5
B83E
331
B775
  5
B83F
331
B776
  5
B840
331
B777
  5
B841
331
B778
  5
B842
331
B779
  5
B843
331
0
  5
B76C
331
B77B
  5
B84D
331
B77C
  5
B84E
331
B77D
  5
B84F
331
B77E
  5
B850
331
B77F
  5
B851
331
B780
  5
B852
331
B781
  5
B853
331
B782
  5
B854
331
B783
  5
B855
331
B784
  5
B856
331
B785
  5
B857
331
B786
  5
B858
331
B787
  5
B859
331
B788
  5
B85A
331
B789
  5
B85B
331
B78A
  5
B85C
331
B78B
  5
B85D
331
B78C
  5
B85E
331
B78D
  5
B85F
331
B78E
  5
B860
331
B78F
  5
B861
331
B790
  5
B862
331
B791
  5
B863
331
B792
  5
B864
331
B793
  5
B865
331
B794
  5
B866
331
B795
  5
B867
331
B796
  5
B868
331
B797
  5
B869
331
B798
  5
B86A
331
B799
  5
B86C
331
B79A
  5
B86D
331
B79B
  5
B86E
331
B79C
  5
B86F
331
B79D
  5
B870
331
B79E
  5
B871
331
B79F
  5
B872
331
B7A0
  5
B873
331
B7A1
  5
B874
331
B7A2
  5
B875
331
B7A3
  5
B876
331
B7A4
  5
B877
331
B7A5
  5
B878
331
B7A6
  5
B879
331
B7A7
  5
B87A
331
B7A8
  5
B87B
331
B7A9
  5
B87C
331
B7AA
  5
B87D
331
B7AB
  5
B87E
331
B7AC
  5
B87F
331
B7AD
  5
B880
331
B7AE
  5
B881
331
B7AF
  5
B882
331
B7B0
  5
B883
331
B7B1
  5
B884
331
B7B2
  5
B885
331
B7B3
  5
B886
331
B7B4
  5
B887
331
B7B5
  5
B888
331
B7B6
  5
B889
331
B7B7
  5
B88A
331
0
  5
B7AA
331
B7B9
  5
B894
331
B7BA
  5
B895
331
B7BB
  5
B896
331
B7BC
  5
B897
331
B7BD
  5
B898
331
B7BE
  5
B899
331
B7BF
  5
B89A
331
B7C0
  5
B89B
331
B7C1
  5
B89C
331
B7C2
  5
B89D
331
B7C3
  5
B89E
331
B7C4
  5
B89F
331
B7C5
  5
B8A0
331
B7C6
  5
B8A1
331
B7C7
  5
B8A2
331
B7C8
  5
B8A3
331
B7C9
  5
B8A4
331
B7CA
  5
B8A5
331
B7CB
  5
B8A6
331
B7CC
  5
B8A7
331
B7CD
  5
B8A8
331
B7CE
  5
B8A9
331
B7CF
  5
B8AA
331
B7D0
  5
B8AB
331
B7D1
  5
B8AC
331
B7D2
  5
B8AE
331
B7D3
  5
B8AF
331
B7D4
  5
B8B0
331
B7D5
  5
B8B1
331
B7D6
  5
B8B2
331
B7D7
  5
B8B3
331
B7D8
  5
B8B4
331
B7D9
  5
B8B5
331
B7DA
  5
B8B6
331
B7DB
  5
B8B7
331
B7DC
  5
B8B8
331
B7DD
  5
B8B9
331
B7DE
  5
B8BA
331
B7DF
  5
B8BB
331
B7E0
  5
B8BC
331
B7E1
  5
B8BD
331
B7E2
  5
B8BE
331
B7E3
  5
B8BF
331
B7E4
  5
B8C0
331
B7E5
  5
B8C1
331
B7E6
  5
B8C2
331
B7E7
  5
B8C3
331
B7E8
  5
B8C4
331
B7E9
  5
B8C5
331
B7EA
  5
B8C6
331
B7EB
  5
B8C7
331
B7EC
  5
B8C8
331
B7ED
  5
B8C9
331
B7EE
  5
B8CA
331
B7EF
  5
B8CB
331
B7F0
  5
B8CC
331
B7F1
  5
B8CD
331
B7F2
  5
B8CE
331
B7F3
  5
B8CF
331
B7F4
  5
B8D0
331
B7F5
  5
B8D1
331
0
  5
B7E8
331
B7F7
  5
B8DB
331
B7F8
  5
B8DC
331
B7F9
  5
B8DD
331
B7FA
  5
B8DE
331
B7FB
  5
B8DF
331
B7FC
  5
B8E0
331
B7FD
  5
B8E1
331
B7FE
  5
B8E2
331
B7FF
  5
B8E3
331
B800
  5
B8E4
331
B801
  5
B8E5
331
B802
  5
B8E6
331
B803
  5
B8E7
331
B804
  5
B8E8
331
B805
  5
B8E9
331
B806
  5
B8EA
331
B807
  5
B8EC
331
B808
  5
B8ED
331
B809
  5
B8EE
331
B80A
  5
B8EF
331
B80B
  5
B8F0
331
B80C
  5
B8F1
331
B80D
  5
B8F2
331
B80E
  5
B8F3
331
B80F
  5
B8F4
331
B810
  5
B8F5
331
B811
  5
B8F6
331
B812
  5
B8F7
331
B813
  5
B8F8
331
B814
  5
B8F9
331
B815
  5
B8FA
331
B816
  5
B8FB
331
B817
  5
B8FC
331
B818
  5
B8FD
331
B819
  5
B8FE
331
B81A
  5
B8FF
331
B81B
  5
B900
331
B81C
  5
B901
331
B81D
  5
B902
331
B81E
  5
B903
331
B81F
  5
B904
331
B820
  5
B905
331
B821
  5
B906
331
B822
  5
B907
331
B823
  5
B908
331
B824
  5
B909
331
B825
  5
B90A
331
B826
  5
B90B
331
B827
  5
B90C
331
B828
  5
B90D
331
B829
  5
B90E
331
B82A
  5
B90F
331
B82B
  5
B910
331
B82C
  5
B911
331
B82D
  5
B912
331
B82E
  5
B913
331
B82F
  5
B914
331
B830
  5
B915
331
B831
  5
B916
331
B832
  5
B917
331
B833
  5
B918
331
0
  5
B82D
331
B835
  5
B929
331
B836
  5
B92A
331
B837
  5
B92B
331
B838
  5
B92C
331
B839
  5
B92D
331
B83A
  5
B92E
331
B83B
  5
B92F
331
B83C
  5
B930
331
B83D
  5
B931
331
B83E
  5
B932
331
B83F
  5
B933
331
B840
  5
B934
331
B841
  5
B935
331
B842
  5
B936
331
B843
  5
B937
331
B844
  5
B938
331
B845
  5
B939
331
B846
  5
B93A
331
B847
  5
B93B
331
B848
  5
B93C
331
B849
  5
B93D
331
B84A
  5
B93E
331
B84B
  5
B93F
331
B84C
  5
B940
331
B84D
  5
B941
331
B84E
  5
B942
331
B84F
  5
B943
331
B850
  5
B944
331
B851
  5
B945
331
B852
  5
B946
331
B853
  5
B947
331
B854
  5
B948
331
B855
  5
B949
331
B856
  5
B94A
331
B857
  5
B94B
331
B858
  5
B94C
331
B859
  5
B94D
331
B85A
  5
B94E
331
B85B
  5
B94F
331
B85C
  5
B950
331
B85D
  5
B951
331
B85E
  5
B952
331
B85F
  5
B953
331
B860
  5
B954
331
B861
  5
B955
331
B862
  5
B956
331
B863
  5
B957
331
B864
  5
B958
331
B865
  5
B959
331
B866
  5
B95A
331
B867
  5
B95B
331
B868
  5
B95C
331
B869
  5
B95D
331
B86A
  5
B95E
331
B86B
  5
B95F
331
B86C
  5
B960
331
B86D
  5
B961
331
B86E
  5
B962
331
B86F
  5
B963
331
B870
  5
B964
331
B871
  5
B965
331
0
  5
B86B
331
B873
  5
B96F
331
B874
  5
B970
331
B875
  5
B971
331
B876
  5
B972
331
B877
  5
B973
331
B878
  5
B974
331
B879
  5
B975
331
B87A
  5
B976
331
B87B
  5
B977
331
B87C
  5
B978
331
B87D
  5
B979
331
B87E
  5
B97A
331
B87F
  5
B97D
331
B880
  5
B97E
331
B881
  5
B97F
331
B882
  5
B980
331
B883
  5
B981
331
B884
  5
B982
331
B885
  5
B983
331
B886
  5
B984
331
B887
  5
B985
331
B888
  5
B986
331
B889
  5
B987
331
B88A
  5
B988
331
B88B
  5
B989
331
B88C
  5
B98A
331
B88D
  5
B98B
331
B88E
  5
B98C
331
B88F
  5
B98D
331
B890
  5
B98E
331
B891
  5
B98F
331
B892
  5
B990
331
B893
  5
B991
331
B894
  5
B992
331
B895
  5
B993
331
B896
  5
B994
331
B897
  5
B995
331
B898
  5
B996
331
B899
  5
B997
331
B89A
  5
B998
331
B89B
  5
B999
331
B89C
  5
B99A
331
B89D
  5
B99B
331
B89E
  5
B99C
331
B89F
  5
B99D
331
B8A0
  5
B99E
331
B8A1
  5
B99F
331
B8A2
  5
B9A0
331
B8A3
  5
B9A1
331
B8A4
  5
B9A2
331
B8A5
  5
B9A3
331
B8A6
  5
B9A4
331
B8A7
  5
B9A5
331
B8A8
  5
B9A6
331
B8A9
  5
B9A7
331
B8AA
  5
B9A8
331
B8AB
  5
B9A9
331
B8AC
  5
B9AA
331
B8AD
  5
B9AB
331
B8AE
  5
B9AC
331
B8AF
  5
B9AD
331
0
  5
B8AD
331
B8B1
  5
B9BB
331
B8B2
  5
B9BC
331
B8B3
  5
B9BD
331
B8B4
  5
B9BE
331
B8B5
  5
B9BF
331
B8B6
  5
B9C0
331
B8B7
  5
B9C1
331
B8B8
  5
B9C2
331
B8B9
  5
B9C3
331
B8BA
  5
B9C4
331
B8BB
  5
B9C5
331
B8BC
  5
B9C6
331
B8BD
  5
B9C7
331
B8BE
  5
B9C8
331
B8BF
  5
B9C9
331
B8C0
  5
B9CA
331
B8C1
  5
B9CB
331
B8C2
  5
B9CC
331
B8C3
  5
B9CD
331
B8C4
  5
B9CE
331
B8C5
  5
B9CF
331
B8C6
  5
B9D0
331
B8C7
  5
B9D1
331
B8C8
  5
B9D2
331
B8C9
  5
B9D3
331
B8CA
  5
B9D4
331
B8CB
  5
B9D5
331
B8CC
  5
B9D6
331
B8CD
  5
B9D7
331
B8CE
  5
B9D8
331
B8CF
  5
B9D9
331
B8D0
  5
B9DA
331
B8D1
  5
B9DB
331
B8D2
  5
B9DC
331
B8D3
  5
B9DD
331
B8D4
  5
B9DE
331
B8D5
  5
B9E0
331
B8D6
  5
B9E1
331
B8D7
  5
B9E2
331
B8D8
  5
B9E3
331
B8D9
  5
B9E4
331
B8DA
  5
B9E5
331
B8DB
  5
B9E6
331
B8DC
  5
B9E7
331
B8DD
  5
B9E8
331
B8DE
  5
B9E9
331
B8DF
  5
B9EA
331
B8E0
  5
B9EB
331
B8E1
  5
B9EC
331
B8E2
  5
B9ED
331
B8E3
  5
B9EE
331
B8E4
  5
B9EF
331
B8E5
  5
B9F0
331
B8E6
  5
B9F1
331
B8E7
  5
B9F2
331
B8E8
  5
B9F3
331
B8E9
  5
B9F4
331
B8EA
  5
B9F5
331
B8EB
  5
B9F6
331
B8EC
  5
B9F7
331
B8ED
  5
B9F8
331
0
  5
B8EB
331
B8EF
  5
BA02
331
B8F0
  5
BA03
331
B8F1
  5
BA04
331
B8F2
  5
BA05
331
B8F3
  5
BA06
331
B8F4
  5
BA07
331
B8F5
  5
BA08
331
B8F6
  5
BA09
331
B8F7
  5
BA0A
331
B8F8
  5
BA0B
331
B8F9
  5
BA0C
331
B8FA
  5
BA0D
331
B8FB
  5
BA0E
331
B8FC
  5
BA0F
331
B8FD
  5
BA10
331
B8FE
  5
BA11
331
B8FF
  5
BA12
331
B900
  5
BA13
331
B901
  5
BA14
331
B902
  5
BA15
331
B903
  5
BA16
331
B904
  5
BA17
331
B905
  5
BA18
331
B906
  5
BA19
331
B907
  5
BA1A
331
B908
  5
BA1B
331
B909
  5
BA1C
331
B90A
  5
BA1D
331
B90B
  5
BA1E
331
B90C
  5
BA1F
331
B90D
  5
BA20
331
B90E
  5
BA21
331
B90F
  5
BA22
331
B910
  5
BA23
331
B911
  5
BA24
331
B912
  5
BA25
331
B913
  5
BA26
331
B914
  5
BA27
331
B915
  5
BA28
331
B916
  5
BA29
331
B917
  5
BA2A
331
B918
  5
BA2B
331
B919
  5
BA2C
331
B91A
  5
BA2D
331
B91B
  5
BA2E
331
B91C
  5
BA2F
331
B91D
  5
BA30
331
B91E
  5
BA31
331
B91F
  5
BA32
331
B920
  5
BA33
331
B921
  5
BA34
331
B922
  5
BA35
331
B923
  5
BA36
331
B924
  5
BA37
331
B925
  5
BA38
331
B926
  5
BA39
331
B927
  5
BA3A
331
B928
  5
BA3B
331
B929
  5
BA3C
331
B92A
  5
BA3D
331
B92B
  5
BA3E
331
B92C
  5
9FA6
331
B92D
  5
9FA7
331
B92E
  5
9FA8
331
B92F
  5
9FA9
331
B930
  5
9FAA
331
B931
  5
9FAB
331
B932
  5
9FAC
331
B933
  5
9FAD
331
B934
  5
9FAE
331
B935
  5
B7FD
331
B936
  5
B7FE
331
B937
  5
B7FF
331
B938
  5
B800
331
B939
  5
B801
331
B93A
  5
B802
331
B93B
  5
B803
331
B93C
  5
B804
331
B93D
  5
B805
331
B93E
  5
B844
331
B93F
  5
B845
331
B940
  5
B846
331
B941
  5
B847
331
B942
  5
B848
331
B943
  5
B849
331
B944
  5
B84A
331
B945
  5
B84B
331
B946
  5
B84C
331
B947
  5
B88B
331
B948
  5
B88C
331
B949
  5
B88D
331
B94A
  5
B88E
331
B94B
  5
B88F
331
B94C
  5
B890
331
B94D
  5
B891
331
B94E
  5
B892
331
B94F
  5
B893
331
B950
  5
B8D2
331
B951
  5
B8D3
331
B952
  5
B8D4
331
B953
  5
B8D5
331
B954
  5
B8D6
331
B955
  5
B8D7
331
B956
  5
B8D8
331
B957
  5
B8D9
331
B958
  5
B8DA
331
B959
  5
B920
331
B95A
  5
B921
331
B95B
  5
B922
331
B95C
  5
B923
331
B95D
  5
B924
331
B95E
  5
B925
331
B95F
  5
B926
331
B960
  5
B927
331
B961
  5
B928
331
B962
  5
B966
331
B963
  5
B967
331
B964
  5
B968
331
B965
  5
B969
331
B966
  5
B96A
331
B967
  5
B96B
331
B968
  5
B96C
331
B969
  5
B96D
331
B96A
  5
B96E
331
B96B
  5
B9B2
331
B96C
  5
B9B3
331
B96D
  5
B9B4
331
B96E
  5
B9B5
331
B96F
  5
B9B6
331
B970
  5
B9B7
331
B971
  5
B9B8
331
B972
  5
B9B9
331
B973
  5
B9BA
331
B974
  5
B9F9
331
B975
  5
B9FA
331
B976
  5
B9FB
331
B977
  5
B9FC
331
B978
  5
B9FD
331
B979
  5
B9FE
331
B97A
  5
B9FF
331
B97B
  5
BA00
331
B97C
  5
BA01
331
0
  5
9F18
331
B97E
  5
9F1D
331
B97F
  5
9F1E
331
B980
  5
9F1F
331
0
  5
9F1C
331
B982
  5
9F24
331
B983
  5
9F26
331
B984
  5
9F27
331
B985
  5
9F28
331
0
  5
9F21
331
B987
  5
9F2D
331
B988
  5
9F2E
331
B989
  5
9F2F
331
0
  5
9F25
331
B98B
  5
9F33
331
B98C
  5
9F34
331
B98D
  5
9F35
331
0
  5
9F29
331
B98F
  5
9F39
331
B990
  5
9F3A
331
B991
  5
9F3B
331
B992
  5
9F7D
331
B993
  5
9F7E
331
B994
  5
9F7F
331
0
  5
9F68
331
0
  5
9F69
331
0
  5
9F6A
331
B998
  5
9F87
331
B999
  5
9F88
331
B99A
  5
9F89
331
0
  5
9F6E
331
0
  5
9F6F
331
0
  5
9F70
331
B99E
  5
9F91
331
B99F
  5
9F92
331
B9A0
  5
9F93
331
B9A1
  5
9F94
331
B9A2
  5
9F95
331
0
  5
9F76
331
0
  5
9F77
331
0
  5
9F78
331
B9A6
  5
AAF0
331
B9A7
  5
AAF1
331
B9A8
  5
AAF2
331
0
  5
A0BA
331
0
  5
A0D9
331
0
  5
A0DA
331
B9AC
  5
AB17
331
B9AD
  5
AB18
331
B9AE
  5
B6FE
331
0
  5
A0DE
331
0
  5
A0DF
331
0
  5
A0E0
331
B9B2
  5
B706
331
B9B3
  5
B707
331
B9B4
  5
B708
331
0
  5
A0E4
331
0
  5
A0E5
331
0
  5
A3B2
331
B9B8
  5
B716
331
B9B9
  5
B717
331
B9BA
  5
B71A
331
B9BB
  5
B71B
331
B9BC
  5
B71C
331
0
  5
A3BF
331
0
  5
A3C0
331
0
  5
A3C1
331
B9C0
  5
B769
331
B9C1
  5
B76A
331
B9C2
  5
B76B
331
B9C3
  5
B76D
331
0
  5
B722
331
0
  5
B723
331
0
  5
B724
331
B9C7
  5
B776
331
B9C8
  5
B777
331
B9C9
  5
B778
331
0
  5
B728
331
0
  5
B729
331
0
  5
B72A
331
B9CD
  5
B7B7
331
B9CE
  5
B7B8
331
B9CF
  5
B7B9
331
0
  5
B762
331
0
  5
B763
331
0
  5
B764
331
0
  5
B773
331
B9D4
  5
B7D1
331
B9D5
  5
B7D2
331
B9D6
  5
B7D3
331
B9D7
  5
B7D4
331
B9D8
  5
B7E6
331
B9D9
  5
B7E7
331
B9DA
  5
B7E9
331
B9DB
  5
B7EA
331
0
  5
B78D
331
0
  5
B78E
331
0
  5
B78F
331
B9E0
  5
BA43
331
B9E1
  5
BA44
331
B9E2
  5
BA45
331
B9E3
  5
BA46
331
B9E4
  5
9F19
331
B9E5
  5
9F1A
331
B9E6
  5
9F1B
331
B9E7
  5
9F20
331
B9E8
  5
9F22
331
B9E9
  5
9F23
331
B9EA
  5
9F2A
331
B9EB
  5
9F2B
331
B9EC
  5
9F2C
331
B9ED
  5
9F30
331
B9EE
  5
9F31
331
B9EF
  5
9F32
331
B9F0
  5
9F36
331
B9F1
  5
9F37
331
B9F2
  5
9F38
331
B9F3
  5
9F80
331
B9F4
  5
9F81
331
B9F5
  5
9F82
331
B9F6
  5
9F83
331
B9F7
  5
9F84
331
B9F8
  5
9F85
331
B9F9
  5
9F86
331
B9FA
  5
9F8A
331
B9FB
  5
9F8B
331
B9FC
  5
9F8C
331
B9FD
  5
9F8D
331
B9FE
  5
9F8E
331
B9FF
  5
9F8F
331
BA00
  5
9F90
331
BA01
  5
9F96
331
BA02
  5
9F97
331
BA03
  5
9F98
331
BA04
  5
9F99
331
BA05
  5
9F9A
331
BA06
  5
9F9B
331
BA07
  5
9F9C
331
BA08
  5
AAF3
331
BA09
  5
AAF4
331
BA0A
  5
AAF7
331
BA0B
  5
AAF8
331
BA0C
  5
AAF9
331
BA0D
  5
AAFA
331
BA0E
  5
AAFD
331
BA0F
  5
B6FF
331
BA10
  5
B700
331
BA11
  5
B701
331
BA12
  5
B702
331
BA13
  5
B703
331
BA14
  5
B704
331
BA15
  5
B705
331
BA16
  5
B709
331
BA17
  5
B70B
331
BA18
  5
B70C
331
BA19
  5
B70D
331
BA1A
  5
B70E
331
BA1B
  5
B70F
331
BA1C
  5
B710
331
BA1D
  5
B71D
331
BA1E
  5
B71E
331
BA1F
  5
B71F
331
BA20
  5
B720
331
BA21
  5
B721
331
BA22
  5
B725
331
BA23
  5
B726
331
BA24
  5
B76E
331
BA25
  5
B76F
331
BA26
  5
B770
331
BA27
  5
B771
331
BA28
  5
B772
331
BA29
  5
B774
331
BA2A
  5
B775
331
BA2B
  5
B779
331
BA2C
  5
B77A
331
BA2D
  5
B77B
331
BA2E
  5
B77C
331
BA2F
  5
B77D
331
BA30
  5
B77E
331
BA31
  5
B77F
331
BA32
  5
B780
331
BA33
  5
B7BA
331
BA34
  5
B7BB
331
BA35
  5
B7BC
331
BA36
  5
B7BD
331
BA37
  5
B7BE
331
BA38
  5
B7BF
331
BA39
  5
B7C0
331
BA3A
  5
B7CE
331
BA3B
  5
B7CF
331
BA3C
  5
B7D0
331
BA3D
  5
B7EB
331
BA3E
  5
B7EC
331
BA3F
  5
B7ED
331
BA40
  5
B7EE
331
BA41
  5
B7EF
331
BA42
  5
B7F0
331
BA43
  5
B7F1
331
BA44
  5
BA40
331
BA45
  5
BA41
331
BA46
  5
BA42
  0
MATERIAL
  5
8D51
102
{ACAD_REACTORS
330
8AE2
102
}
102
{ACAD_XDICTIONARY
360
BBE5
102
}
330
8AE2
100
AcDbMaterial
  1
BYBLOCK
 72
     0
 73
     2
 43
0.0208333333333333
 43
0.0
 43
0.0
 43
0.0
 43
0.0
 43
0.0208333333333333
 43
0.0
 43
0.0
 43
0.0
 43
0.0
 43
1.0
 43
0.0
 43
0.0
 43
0.0
 43
0.0
 43
1.0
 77
     0
 78
     2
 47
0.0208333333333333
 47
0.0
 47
0.0
 47
0.0
 47
0.0
 47
0.0208333333333333
 47
0.0
 47
0.0
 47
0.0
 47
0.0
 47
1.0
 47
0.0
 47
0.0
 47
0.0
 47
0.0
 47
1.0
171
     0
172
     2
 49
0.0208333333333333
 49
0.0
 49
0.0
 49
0.0
 49
0.0
 49
0.0208333333333333
 49
0.0
 49
0.0
 49
0.0
 49
0.0
 49
1.0
 49
0.0
 49
0.0
 49
0.0
 49
0.0
 49
1.0
175
     0
176
     2
142
0.0208333333333333
142
0.0
142
0.0
142
0.0
142
0.0
142
0.0208333333333333
142
0.0
142
0.0
142
0.0
142
0.0
142
1.0
142
0.0
142
0.0
142
0.0
142
0.0
142
1.0
179
     0
270
     2
144
0.0208333333333333
144
0.0
144
0.0
144
0.0
144
0.0
144
0.0208333333333333
144
0.0
144
0.0
144
0.0
144
0.0
144
1.0
144
0.0
144
0.0
144
0.0
144
0.0
144
1.0
274
     2
147
0.0208333333333333
147
0.0
147
0.0
147
0.0
147
0.0
147
0.0208333333333333
147
0.0
147
0.0
147
0.0
147
0.0
147
1.0
147
0.0
147
0.0
147
0.0
147
0.0
147
1.0
  0
MATERIAL
  5
8D49
102
{ACAD_REACTORS
330
8AE2
102
}
102
{ACAD_XDICTIONARY
360
BBE7
102
}
330
8AE2
100
AcDbMaterial
  1
BYLAYER
 72
     0
 73
     2
 43
0.0208333333333333
 43
0.0
 43
0.0
 43
0.0
 43
0.0
 43
0.0208333333333333
 43
0.0
 43
0.0
 43
0.0
 43
0.0
 43
1.0
 43
0.0
 43
0.0
 43
0.0
 43
0.0
 43
1.0
 77
     0
 78
     2
 47
0.0208333333333333
 47
0.0
 47
0.0
 47
0.0
 47
0.0
 47
0.0208333333333333
 47
0.0
 47
0.0
 47
0.0
 47
0.0
 47
1.0
 47
0.0
 47
0.0
 47
0.0
 47
0.0
 47
1.0
171
     0
172
     2
 49
0.0208333333333333
 49
0.0
 49
0.0
 49
0.0
 49
0.0
 49
0.0208333333333333
 49
0.0
 49
0.0
 49
0.0
 49
0.0
 49
1.0
 49
0.0
 49
0.0
 49
0.0
 49
0.0
 49
1.0
175
     0
176
     2
142
0.0208333333333333
142
0.0
142
0.0
142
0.0
142
0.0
142
0.0208333333333333
142
0.0
142
0.0
142
0.0
142
0.0
142
1.0
142
0.0
142
0.0
142
0.0
142
0.0
142
1.0
179
     0
270
     2
144
0.0208333333333333
144
0.0
144
0.0
144
0.0
144
0.0
144
0.0208333333333333
144
0.0
144
0.0
144
0.0
144
0.0
144
1.0
144
0.0
144
0.0
144
0.0
144
0.0
144
1.0
274
     2
147
0.0208333333333333
147
0.0
147
0.0
147
0.0
147
0.0
147
0.0208333333333333
147
0.0
147
0.0
147
0.0
147
0.0
147
1.0
147
0.0
147
0.0
147
0.0
147
0.0
147
1.0
  0
MATERIAL
  5
8D59
102
{ACAD_REACTORS
330
8AE2
102
}
102
{ACAD_XDICTIONARY
360
BBE9
102
}
330
8AE2
100
AcDbMaterial
  1
GLOBAL
 72
     0
 73
     2
 43
0.0208333333333333
 43
0.0
 43
0.0
 43
0.0
 43
0.0
 43
0.0208333333333333
 43
0.0
 43
0.0
 43
0.0
 43
0.0
 43
1.0
 43
0.0
 43
0.0
 43
0.0
 43
0.0
 43
1.0
 77
     0
 78
     2
 47
0.0208333333333333
 47
0.0
 47
0.0
 47
0.0
 47
0.0
 47
0.0208333333333333
 47
0.0
 47
0.0
 47
0.0
 47
0.0
 47
1.0
 47
0.0
 47
0.0
 47
0.0
 47
0.0
 47
1.0
171
     0
172
     2
 49
0.0208333333333333
 49
0.0
 49
0.0
 49
0.0
 49
0.0
 49
0.0208333333333333
 49
0.0
 49
0.0
 49
0.0
 49
0.0
 49
1.0
 49
0.0
 49
0.0
 49
0.0
 49
0.0
 49
1.0
175
     0
176
     2
142
0.0208333333333333
142
0.0
142
0.0
142
0.0
142
0.0
142
0.0208333333333333
142
0.0
142
0.0
142
0.0
142
0.0
142
1.0
142
0.0
142
0.0
142
0.0
142
0.0
142
1.0
179
     0
270
     2
144
0.0208333333333333
144
0.0
144
0.0
144
0.0
144
0.0
144
0.0208333333333333
144
0.0
144
0.0
144
0.0
144
0.0
144
1.0
144
0.0
144
0.0
144
0.0
144
0.0
144
1.0
274
     2
147
0.0208333333333333
147
0.0
147
0.0
147
0.0
147
0.0
147
0.0208333333333333
147
0.0
147
0.0
147
0.0
147
0.0
147
1.0
147
0.0
147
0.0
147
0.0
147
0.0
147
1.0
  0
ACAD_PROXY_OBJECT
  5
8D95
102
{ACAD_REACTORS
330
8D94
102
}
330
8D94
100
AcDbZombieObject
 90
      499
 91
      512
 93
      610
310
40901902A4063FBFFFFFE000000000000002040AD7A3703D0AD73F4214DD185B99185C990000000000000104090141901A00000000000004100000000000000041025764000000000000300FC0
340
12
340
0
340
F
340
0
 94
        0
1001
ACAD_MLEADERVER
1070
     2
  0
MLINESTYLE
  5
1C
102
{ACAD_REACTORS
330
1B
102
}
330
1B
100
AcDbMlineStyle
  2
STANDARD
 70
     0
  3

 62
   256
 51
90.0
 52
90.0
 71
     2
 49
0.5
 62
   256
  6
BYLAYER
 49
-0.5
 62
   256
  6
BYLAYER
  0
ACAD_PROXY_OBJECT
  5
8D73
102
{ACAD_REACTORS
330
8D72
102
}
330
8D72
100
AcDbZombieObject
 90
      499
 91
      511
 93
       41
310
903313A31580
  0
ACAD_PROXY_OBJECT
  5
8D74
102
{ACAD_REACTORS
330
8D72
102
}
330
8D72
100
AcDbZombieObject
 90
      499
 91
      511
 93
      105
310
903313A324000000000000004000
  0
ACAD_PROXY_OBJECT
  5
8D75
102
{ACAD_REACTORS
330
8D72
102
}
330
8D72
100
AcDbZombieObject
 90
      499
 91
      511
 93
      105
310
903313A344000000000000104000
  0
ACAD_PROXY_OBJECT
  5
8D76
102
{ACAD_REACTORS
330
8D72
102
}
330
8D72
100
AcDbZombieObject
 90
      499
 91
      511
 93
      105
310
903313A354000000000000144000
  0
ACAD_PROXY_OBJECT
  5
8D77
102
{ACAD_REACTORS
330
8D72
102
}
330
8D72
100
AcDbZombieObject
 90
      499
 91
      511
 93
      105
310
903313A384000000000000204000
  0
ACAD_PROXY_OBJECT
  5
8D78
102
{ACAD_REACTORS
330
8D72
102
}
330
8D72
100
AcDbZombieObject
 90
      499
 91
      511
 93
      113
310
904313A31304000000000000244000
  0
ACAD_PROXY_OBJECT
  5
8D79
102
{ACAD_REACTORS
330
8D72
102
}
330
8D72
100
AcDbZombieObject
 90
      499
 91
      511
 93
      113
310
904313A31364000000000000304000
  0
ACAD_PROXY_OBJECT
  5
8D7A
102
{ACAD_REACTORS
330
8D72
102
}
330
8D72
100
AcDbZombieObject
 90
      499
 91
      511
 93
      113
310
904313A32304000000000000344000
  0
ACAD_PROXY_OBJECT
  5
8D7B
102
{ACAD_REACTORS
330
8D72
102
}
330
8D72
100
AcDbZombieObject
 90
      499
 91
      511
 93
      113
310
904313A333040000000000003E4000
  0
ACAD_PROXY_OBJECT
  5
8D7C
102
{ACAD_REACTORS
330
8D72
102
}
330
8D72
100
AcDbZombieObject
 90
      499
 91
      511
 93
      113
310
904313A34304000000000000444000
  0
ACAD_PROXY_OBJECT
  5
8D7D
102
{ACAD_REACTORS
330
8D72
102
}
330
8D72
100
AcDbZombieObject
 90
      499
 91
      511
 93
      113
310
904313A35304000000000000494000
  0
ACAD_PROXY_OBJECT
  5
8D7E
102
{ACAD_REACTORS
330
8D72
102
}
330
8D72
100
AcDbZombieObject
 90
      499
 91
      511
 93
      121
310
905313A3130304000000000000594000
  0
ACAD_PROXY_OBJECT
  5
8D7F
102
{ACAD_REACTORS
330
8D72
102
}
330
8D72
100
AcDbZombieObject
 90
      499
 91
      511
 93
      105
310
903323A310000000000000010100
  0
ACAD_PROXY_OBJECT
  5
8D80
102
{ACAD_REACTORS
330
8D72
102
}
330
8D72
100
AcDbZombieObject
 90
      499
 91
      511
 93
      105
310
903343A310000000000000410100
  0
ACAD_PROXY_OBJECT
  5
8D81
102
{ACAD_REACTORS
330
8D72
102
}
330
8D72
100
AcDbZombieObject
 90
      499
 91
      511
 93
      105
310
903383A310000000000000810100
  0
ACAD_PROXY_OBJECT
  5
8D82
102
{ACAD_REACTORS
330
8D72
102
}
330
8D72
100
AcDbZombieObject
 90
      499
 91
      511
 93
      113
310
90431303A310000000000000910100
  0
ACAD_PROXY_OBJECT
  5
8D83
102
{ACAD_REACTORS
330
8D72
102
}
330
8D72
100
AcDbZombieObject
 90
      499
 91
      511
 93
      121
310
9053130303A310000000000001650100
  0
ACAD_PROXY_OBJECT
  5
8D84
102
{ACAD_REACTORS
330
8D72
102
}
330
8D72
100
AcDbZombieObject
 90
      499
 91
      511
 93
      257
310
90E312F31323822203D2031272D3022000000000000200FC000000000000284000
  0
ACAD_PROXY_OBJECT
  5
8D85
102
{ACAD_REACTORS
330
8D72
102
}
330
8D72
100
AcDbZombieObject
 90
      499
 91
      511
 93
      249
310
90D312F363422203D2031272D3022000000000000240FC000000000000284000
  0
ACAD_PROXY_OBJECT
  5
8D86
102
{ACAD_REACTORS
330
8D72
102
}
330
8D72
100
AcDbZombieObject
 90
      499
 91
      511
 93
      249
310
90D312F333222203D2031272D3022000000000000280FC000000000000284000
  0
ACAD_PROXY_OBJECT
  5
8D87
102
{ACAD_REACTORS
330
8D72
102
}
330
8D72
100
AcDbZombieObject
 90
      499
 91
      511
 93
      249
310
90D312F313622203D2031272D30220000000000002C0FC000000000000284000
  0
ACAD_PROXY_OBJECT
  5
8D88
102
{ACAD_REACTORS
330
8D72
102
}
330
8D72
100
AcDbZombieObject
 90
      499
 91
      511
 93
      249
310
90D332F333222203D2031272D30220000000000002E0FC000000000000284000
  0
ACAD_PROXY_OBJECT
  5
8D89
102
{ACAD_REACTORS
330
8D72
102
}
330
8D72
100
AcDbZombieObject
 90
      499
 91
      511
 93
      241
310
90C312F3822203D2031272D3022000000000000300FC000000000000284000
  0
ACAD_PROXY_OBJECT
  5
8D8A
102
{ACAD_REACTORS
330
8D72
102
}
330
8D72
100
AcDbZombieObject
 90
      499
 91
      511
 93
      249
310
90D332F313622203D2031272D3022000000000000320FC000000000000284000
  0
ACAD_PROXY_OBJECT
  5
8D8B
102
{ACAD_REACTORS
330
8D72
102
}
330
8D72
100
AcDbZombieObject
 90
      499
 91
      511
 93
      241
310
90C312F3422203D2031272D3022000000000000340FC000000000000284000
  0
ACAD_PROXY_OBJECT
  5
8D8C
102
{ACAD_REACTORS
330
8D72
102
}
330
8D72
100
AcDbZombieObject
 90
      499
 91
      511
 93
      241
310
90C332F3822203D2031272D3022000000000000360FC000000000000284000
  0
ACAD_PROXY_OBJECT
  5
8D8D
102
{ACAD_REACTORS
330
8D72
102
}
330
8D72
100
AcDbZombieObject
 90
      499
 91
      511
 93
      241
310
90C312F3222203D2031272D3022000000000000380FC000000000000284000
  0
ACAD_PROXY_OBJECT
  5
8D8E
102
{ACAD_REACTORS
330
8D72
102
}
330
8D72
100
AcDbZombieObject
 90
      499
 91
      511
 93
      241
310
90C332F3422203D2031272D30220000000000003A0FC000000000000284000
  0
ACAD_PROXY_OBJECT
  5
8D8F
102
{ACAD_REACTORS
330
8D72
102
}
330
8D72
100
AcDbZombieObject
 90
      499
 91
      511
 93
      161
310
90A3122203D2031272D30224000000000000284000
  0
ACAD_PROXY_OBJECT
  5
8D90
102
{ACAD_REACTORS
330
8D72
102
}
330
8D72
100
AcDbZombieObject
 90
      499
 91
      511
 93
      257
310
90E312D312F3222203D2031272D30220000000000003E0FC000000000000284000
  0
ACAD_PROXY_OBJECT
  5
8D91
102
{ACAD_REACTORS
330
8D72
102
}
330
8D72
100
AcDbZombieObject
 90
      499
 91
      511
 93
      225
310
90A3322203D2031272D302200000000000002100000000000000284000
  0
ACAD_PROXY_OBJECT
  5
8D92
102
{ACAD_REACTORS
330
8D72
102
}
330
8D72
100
AcDbZombieObject
 90
      499
 91
      511
 93
      225
310
90A3622203D2031272D302200000000000006100000000000000284000
  0
ACAD_PROXY_OBJECT
  5
8D93
102
{ACAD_REACTORS
330
8D72
102
}
330
8D72
100
AcDbZombieObject
 90
      499
 91
      511
 93
      249
310
90D31272D3022203D2031272D30220000000000000A100000000000000284000
  0
ACAD_PROXY_OBJECT
  5
8D67
102
{ACAD_REACTORS
330
8D61
102
}
330
8D61
100
AcDbZombieObject
 90
      499
 91
      510
 93
      436
310
42CC9915DA5C99599C985B595049028333333333333E3BF0000000000000FB0107901411070040501600405405064090741402480A0340
1001
ACAD
1000
AcDbSavedByObjectVersion
1070
     0
  0
ACAD_PROXY_OBJECT
  5
8D69
102
{ACAD_REACTORS
330
8D61
102
}
330
8D61
100
AcDbZombieObject
 90
      499
 91
      510
 93
      500
310
424CD108121A5919195B90640502408333333333333E3BF0000000000000FB01079024090700405020000000000001110200405405064090740C02480A0340
1001
ACAD
1000
AcDbSavedByObjectVersion
1070
     0
  0
ACAD_PROXY_OBJECT
  5
8D68
102
{ACAD_REACTORS
330
8D61
102
}
330
8D61
100
AcDbZombieObject
 90
      499
 91
      510
 93
      436
310
42CCD915DA5C99599C985B595059028333333333333E3BF0000000000000FB0107901411070040501600405405064090741402480A0340
1001
ACAD
1000
AcDbSavedByObjectVersion
1070
     0
  0
ACAD_PROXY_OBJECT
  5
8D66
102
{ACAD_REACTORS
330
8D61
102
}
330
8D61
100
AcDbZombieObject
 90
      499
 91
      510
 93
      388
310
4150985CDA58D07406404333333333333E3BF0000000000000FB0107A41107004050150841D405064090741402480A0350
1001
ACAD
1000
AcDbSavedByObjectVersion
1070
     0
  0
ACAD_PROXY_OBJECT
  5
8D6D
102
{ACAD_REACTORS
330
8D61
102
}
330
8D61
100
AcDbZombieObject
 90
      499
 91
      510
 93
      428
310
42109C9A59DA1D195B90C409028333333333333E3BF0000000000000FB010790141107004050150841D405064090741402480A029950
1001
ACAD
1000
AcDbSavedByObjectVersion
1070
     0
  0
ACAD_PROXY_OBJECT
  5
8D71
102
{ACAD_REACTORS
330
8D61
102
}
330
8D61
100
AcDbZombieObject
 90
      499
 91
      510
 93
      452
310
42D0DBDB1BDC90DA185B99D95104090240C333333333333E3BF0000000000000FB0108901411070040501508421405064090741402480A0350
1001
ACAD
1000
AcDbSavedByObjectVersion
1070
     0
  0
ACAD_PROXY_OBJECT
  5
8D6A
102
{ACAD_REACTORS
330
8D61
102
}
330
8D61
100
AcDbZombieObject
 90
      499
 91
      510
 93
      500
310
4290DBDB98D95C1D1D585B10940D028333333333333E3BF0000000000000FB0107902409070040501000000000000111010841D405064090740C02480A0340
1001
ACAD
1000
AcDbSavedByObjectVersion
1070
     0
  0
ACAD_PROXY_OBJECT
  5
8D6C
102
{ACAD_REACTORS
330
8D61
102
}
330
8D61
100
AcDbZombieObject
 90
      499
 91
      510
 93
      412
310
40D11A5B50B409028333333333333E3BF0000000000000FB010790141107004050150841D405064090741402480A02677FFFFFD0
1001
ACAD
1000
AcDbSavedByObjectVersion
1070
     0
  0
ACAD_PROXY_OBJECT
  5
A54A
102
{ACAD_REACTORS
330
8D61
102
}
330
8D61
100
AcDbZombieObject
 90
      499
 91
      510
 93
      452
310
43115919D950DBDB1BDC93D999916409028333333333333E3BF0000000000000FB010790141107004050150841D405064090741402480A0350
1001
ACAD
1000
AcDbSavedByObjectVersion
1070
     0
  0
ACAD_PROXY_OBJECT
  5
8D70
102
{ACAD_REACTORS
330
8D61
102
}
330
8D61
100
AcDbZombieObject
 90
      499
 91
      510
 93
      444
310
42D19858D95C185D1D195C9B90F409028333333333333E3BF0000000000000FB010790141107004050150841D405064090741402480A0350
1001
ACAD
1000
AcDbSavedByObjectVersion
1070
     0
  0
ACAD_PROXY_OBJECT
  5
8D62
102
{ACAD_REACTORS
330
8D61
102
}
330
8D61
100
AcDbZombieObject
 90
      499
 91
      510
 93
      388
310
41119B185D240901404333333333333E3BF0000000000000F9010740A41107004050150841D405064090741402480A1B50
1001
ACAD
1000
AcDbSavedByObjectVersion
1070
     0
  0
ACAD_PROXY_OBJECT
  5
8D63
102
{ACAD_REACTORS
330
8D61
102
}
330
8D61
100
AcDbZombieObject
 90
      499
 91
      510
 93
      476
310
43519B185D15DA5D1A115919D95CD0140901404333333333333E3BF0000000000000F9010740901411070040501600405405064090741402480A1B50
1001
ACAD
1000
AcDbSavedByObjectVersion
1070
     0
  0
ACAD_PROXY_OBJECT
  5
8D64
102
{ACAD_REACTORS
330
8D61
102
}
330
8D61
100
AcDbZombieObject
 90
      499
 91
      510
 93
      412
310
41D1DBDD5C985D5910240902404333333333333E3BF0000000000000F9010740A411070040501641D405064090741402480A1B50
1001
ACAD
1000
AcDbSavedByObjectVersion
1070
     0
  0
ACAD_PROXY_OBJECT
  5
8D65
102
{ACAD_REACTORS
330
8D61
102
}
330
8D61
100
AcDbZombieObject
 90
      499
 91
      510
 93
      500
310
4411DBDD5C985D5915DA5D1A115919D95CD0340902404333333333333E3BF0000000000000F9010740901411070040501600405405064090741402480A1B50
1001
ACAD
1000
AcDbSavedByObjectVersion
1070
     0
  0
ACAD_PROXY_OBJECT
  5
A542
102
{ACAD_REACTORS
330
8D61
102
}
330
8D61
100
AcDbZombieObject
 90
      499
 91
      510
 93
      476
310
41921A5919195B90640502408333333333333E3BF0000000000000FB01079024090700405020000000000001110200405405064090740C02480A0340
1001
ACAD
1000
AcDbSavedByObjectVersion
1070
     0
  0
ACAD_PROXY_OBJECT
  5
A548
102
{ACAD_REACTORS
330
8D61
102
}
330
8D61
100
AcDbZombieObject
 90
      499
 91
      510
 93
      428
310
42529A5D1D195C93D999914409028333333333333E3BF0000000000000FB010790141107004050150A41D405064090741402480A0350
1001
ACAD
1000
AcDbSavedByObjectVersion
1070
     0
  0
ACAD_PROXY_OBJECT
  5
8D6F
102
{ACAD_REACTORS
330
8D61
102
}
330
8D61
100
AcDbZombieObject
 90
      499
 91
      510
 93
      444
310
42D31A5B995C185D1D195C9B90E409028333333333333E3BF0000000000000FB010790141107004050750841D405064090741402483A0350
1001
ACAD
1000
AcDbSavedByObjectVersion
1070
     0
  0
ACAD_PROXY_OBJECT
  5
AD15
102
{ACAD_REACTORS
330
8D61
102
}
330
8D61
100
AcDbZombieObject
 90
      499
 91
      510
 93
      484
310
42135BD9195B1A5B99D0A409038333333333333E33F0000000000000F901074090290700405010000000000201990108421405064090741402480A1B40
1001
ACAD
1000
AcDbSavedByObjectVersion
1070
     0
  0
ACAD_PROXY_OBJECT
  5
A549
102
{ACAD_REACTORS
330
8D61
102
}
330
8D61
100
AcDbZombieObject
 90
      499
 91
      510
 93
      444
310
42D3DD995C9A185B99D3D999915409028333333333333E3BF0000000000000FB010790141107004050150941D405064090741402480A0350
1001
ACAD
1000
AcDbSavedByObjectVersion
1070
     0
  0
ACAD_PROXY_OBJECT
  5
8D6B
102
{ACAD_REACTORS
330
8D61
102
}
330
8D61
100
AcDbZombieObject
 90
      499
 91
      510
 93
      420
310
425499585B1A5CDD1A58D08409028333333333333E3BF0000000000000FB01079019070040501508421405064090741402480A1B40
1001
ACAD
1000
AcDbSavedByObjectVersion
1070
     0
  0
ACAD_PROXY_OBJECT
  5
A547
102
{ACAD_REACTORS
330
8D61
102
}
330
8D61
100
AcDbZombieObject
 90
      499
 91
      510
 93
      420
310
4194DA1859195911B40902404333333333333E3BF0000000000000F9010740A41107004050150800405405064090840C02480A0B40
1001
ACAD
1000
AcDbSavedByObjectVersion
1070
     0
  0
ACAD_PROXY_OBJECT
  5
A546
102
{ACAD_REACTORS
330
8D61
102
}
330
8D61
100
AcDbZombieObject
 90
      499
 91
      510
 93
      516
310
4454DA18591959081DDA5D1A08195919D95CD1A40902404333333333333E3BF0000000000000F901074090142907004050250800405405064090740C02480A0B40
1001
ACAD
1000
AcDbSavedByObjectVersion
1070
     0
  0
ACAD_PROXY_OBJECT
  5
A543
102
{ACAD_REACTORS
330
8D61
102
}
330
8D61
100
AcDbZombieObject
 90
      499
 91
      510
 93
      532
310
4394DA1859195CC81BD98811DC985E5174090240C333333333333E3BF0000000000000FB01079024090741D01000000000000111010841D405064090740C02480A0340
1001
ACAD
1000
AcDbSavedByObjectVersion
1070
     0
  0
ACAD_PROXY_OBJECT
  5
A544
102
{ACAD_REACTORS
330
8D61
102
}
330
8D61
100
AcDbZombieObject
 90
      499
 91
      510
 93
      476
310
41D4DAD95D18DA1E51840502408333333333333E3BF0000000000000FB01079024090741D01000000000000111010B41D405064090741802480A0340
1001
ACAD
1000
AcDbSavedByObjectVersion
1070
     0
  0
ACAD_PROXY_OBJECT
  5
8D6E
102
{ACAD_REACTORS
330
8D61
102
}
330
8D61
100
AcDbZombieObject
 90
      499
 91
      510
 93
      412
310
41D51A1A58DAD95B90D409028333333333333E3BF0000000000000FB010790141107004050150C41D405064090741402480A0350
1001
ACAD
1000
AcDbSavedByObjectVersion
1070
     0
  0
ACAD_PROXY_OBJECT
  5
A541
102
{ACAD_REACTORS
330
8D61
102
}
330
8D61
100
AcDbZombieObject
 90
      499
 91
      510
 93
      420
310
4255DA5C99599C985B595059028333333333333E3BF0000000000000FB0107901411070040501600405405064090740C02480A0340
1001
ACAD
1000
AcDbSavedByObjectVersion
1070
     0
  0
ACAD_PROXY_OBJECT
  5
A545
102
{ACAD_REACTORS
330
8D61
102
}
330
8D61
100
AcDbZombieObject
 90
      499
 91
      510
 93
      404
310
41560B54985E51940902404000000000000E03F0000000000000FB010740501907004050150841D405064090740C02480A1B40
1001
ACAD
1000
AcDbSavedByObjectVersion
1070
     0
  0
XRECORD
  5
BA48
102
{ACAD_REACTORS
330
BA47
102
}
330
BA47
100
AcDbXrecord
340
8AE3
  0
XRECORD
  5
BA49
102
{ACAD_REACTORS
330
BA47
102
}
330
BA47
100
AcDbXrecord
340
8AE2
  0
DICTIONARYVAR
  5
AD83
102
{ACAD_REACTORS
330
37
102
}
330
37
100
DictionaryVariables
280
     0
  1
1:1
  0
DICTIONARYVAR
  5
8EC5
102
{ACAD_REACTORS
330
37
102
}
330
37
100
DictionaryVariables
280
     0
  1
Standard
  0
DICTIONARYVAR
  5
8B4D
102
{ACAD_REACTORS
330
37
102
}
330
37
100
DictionaryVariables
280
     0
  1
Standard
  0
DICTIONARYVAR
  5
38
102
{ACAD_REACTORS
330
37
102
}
330
37
100
DictionaryVariables
280
     0
  1
-1
  0
DICTIONARYVAR
  5
8D46
102
{ACAD_REACTORS
330
37
102
}
330
37
100
DictionaryVariables
280
     0
  1
2
  0
DICTIONARYVAR
  5
A72F
102
{ACAD_REACTORS
330
37
102
}
330
37
100
DictionaryVariables
280
     0
  1
1
  0
DICTIONARYVAR
  5
8EC7
102
{ACAD_REACTORS
330
37
102
}
330
37
100
DictionaryVariables
280
     0
  1
0
  0
DICTIONARYVAR
  5
A732
102
{ACAD_REACTORS
330
37
102
}
330
37
100
DictionaryVariables
280
     0
  1
8
  0
DICTIONARYVAR
  5
A731
102
{ACAD_REACTORS
330
37
102
}
330
37
100
DictionaryVariables
280
     0
  1
1
  0
DICTIONARYVAR
  5
A72D
102
{ACAD_REACTORS
330
37
102
}
330
37
100
DictionaryVariables
280
     0
  1
0
  0
DICTIONARYVAR
  5
A72E
102
{ACAD_REACTORS
330
37
102
}
330
37
100
DictionaryVariables
280
     0
  1
0
  0
DICTIONARYVAR
  5
ADD3
102
{ACAD_REACTORS
330
37
102
}
330
37
100
DictionaryVariables
280
     0
  1
0
  0
DICTIONARYVAR
  5
A730
102
{ACAD_REACTORS
330
37
102
}
330
37
100
DictionaryVariables
280
     0
  1
120
  0
DICTIONARYVAR
  5
8D47
102
{ACAD_REACTORS
330
37
102
}
330
37
100
DictionaryVariables
280
     0
  1

  0
DICTIONARYVAR
  5
5EC
102
{ACAD_REACTORS
330
37
102
}
330
37
100
DictionaryVariables
280
     0
  1
96
  0
DICTIONARYVAR
  5
AD14
102
{ACAD_REACTORS
330
37
102
}
330
37
100
DictionaryVariables
280
     0
  1
2
  0
DICTIONARY
  5
BBE5
330
8D51
100
AcDbDictionary
  3
ACAD_XREC_ROUNDTRIP
360
BBE6
1001
ACAD
1000
TREAT_AS_HARD
1070
     1
  0
DICTIONARY
  5
BBE7
330
8D49
100
AcDbDictionary
  3
ACAD_XREC_ROUNDTRIP
360
BBE8
1001
ACAD
1000
TREAT_AS_HARD
1070
     1
  0
DICTIONARY
  5
BBE9
330
8D59
100
AcDbDictionary
  3
ACAD_XREC_ROUNDTRIP
360
BBEA
1001
ACAD
1000
TREAT_AS_HARD
1070
     1
  0
XRECORD
  5
BBE6
102
{ACAD_REACTORS
330
BBE5
102
}
330
BBE5
100
AcDbXrecord
102
MATERIAL
148
0.0
149
0.0
149
0.0
 93
        0
 94
      127
282
     0
 72
     0
 77
     0
171
     0
175
     0
179
     0
273
     0
  0
XRECORD
  5
BBE8
102
{ACAD_REACTORS
330
BBE7
102
}
330
BBE7
100
AcDbXrecord
102
MATERIAL
148
0.0
149
0.0
149
0.0
 93
        0
 94
      127
282
     0
 72
     0
 77
     0
171
     0
175
     0
179
     0
273
     0
  0
XRECORD
  5
BBEA
102
{ACAD_REACTORS
330
BBE9
102
}
330
BBE9
100
AcDbXrecord
102
MATERIAL
148
0.0
149
0.0
149
0.0
 93
        0
 94
      127
282
     0
 72
     0
 77
     0
171
     0
175
     0
179
     0
273
     0
  0
ENDSEC
  0
EOF
