  0
SECTION
  2
HEADER
  9
$ACADVER
  1
AC1009
  9
$INSBASE
 10
0.0
 20
0.0
 30
0.0
  9
$EXTMIN
 10
-703.05757581523335
 20
-718.26265859376804
 30
0.0
  9
$EXTMAX
 10
-386.22473291006798
 20
-479.26964385389311
 30
0.0
  9
$LIMMIN
 10
0.0
 20
0.0
  9
$LIMMAX
 10
420.0
 20
297.0
  9
$ORTHOMODE
 70
     0
  9
$REGENMODE
 70
     1
  9
$FILLMODE
 70
     1
  9
$QTEXTMODE
 70
     0
  9
$MIRRTEXT
 70
     1
  9
$DRAGMODE
 70
     2
  9
$LTSCALE
 40
0.5
  9
$OSMODE
 70
    63
  9
$ATTMODE
 70
     1
  9
$TEXTSIZE
 40
4.0
  9
$TRACEWID
 40
1.0
  9
$TEXTSTYLE
  7
STANDARD
  9
$CLAYER
  8
1TEXT
  9
$CELTYPE
  6
BYLAYER
  9
$CECOLOR
 62
   256
  9
$DIMSCALE
 40
1.0
  9
$DIMASZ
 40
2.0
  9
$DIMEXO
 40
0.0
  9
$DIMDLI
 40
7.0
  9
$DIMRND
 40
0.0
  9
$DIMDLE
 40
0.0
  9
$DIMEXE
 40
1.0
  9
$DIMTP
 40
0.0
  9
$DIMTM
 40
0.0
  9
$DIMTXT
 40
3.5
  9
$DIMCEN
 40
0.0
  9
$DIMTSZ
 40
0.0
  9
$DIMTOL
 70
     0
  9
$DIMLIM
 70
     0
  9
$DIMTIH
 70
     0
  9
$DIMTOH
 70
     0
  9
$DIMSE1
 70
     0
  9
$DIMSE2
 70
     0
  9
$DIMTAD
 70
     1
  9
$DIMZIN
 70
     8
  9
$DIMBLK
  1

  9
$DIMASO
 70
     1
  9
$DIMSHO
 70
     1
  9
$DIMPOST
  1
 
  9
$DIMAPOST
  1

  9
$DIMALT
 70
     0
  9
$DIMALTD
 70
     2
  9
$DIMALTF
 40
25.399999999999999
  9
$DIMLFAC
 40
1.0
  9
$DIMTOFL
 70
     1
  9
$DIMTVP
 40
0.0
  9
$DIMTIX
 70
     0
  9
$DIMSOXD
 70
     0
  9
$DIMSAH
 70
     1
  9
$DIMBLK1
  1
OPEN30
  9
$DIMBLK2
  1
OPEN30
  9
$DIMSTYLE
  2
NEWX10
  9
$DIMCLRD
 70
   256
  9
$DIMCLRE
 70
   256
  9
$DIMCLRT
 70
   201
  9
$DIMTFAC
 40
0.7
  9
$DIMGAP
 40
0.7
  9
$LUNITS
 70
     2
  9
$LUPREC
 70
     4
  9
$SKETCHINC
 40
1.0
  9
$FILLETRAD
 40
0.0
  9
$AUNITS
 70
     0
  9
$AUPREC
 70
     2
  9
$MENU
  1
acad
  9
$ELEVATION
 40
0.0
  9
$PELEVATION
 40
0.0
  9
$THICKNESS
 40
0.0
  9
$LIMCHECK
 70
     0
  9
$BLIPMODE
 70
     0
  9
$CHAMFERA
 40
10.0
  9
$CHAMFERB
 40
10.0
  9
$SKPOLY
 70
     0
  9
$TDCREATE
 40
2453033.7326634838
  9
$TDUPDATE
 40
2457014.659761644
  9
$TDINDWG
 40
0.6712435764
  9
$TDUSRTIMER
 40
0.6712435764
  9
$USRTIMER
 70
     1
  9
$ANGBASE
 50
0.0
  9
$ANGDIR
 70
     0
  9
$PDMODE
 70
     0
  9
$PDSIZE
 40
0.0
  9
$PLINEWID
 40
0.0
  9
$COORDS
 70
     0
  9
$SPLFRAME
 70
     0
  9
$SPLINETYPE
 70
     6
  9
$SPLINESEGS
 70
     8
  9
$ATTDIA
 70
     0
  9
$ATTREQ
 70
     1
  9
$HANDLING
 70
     1
  9
$HANDSEED
  5
EB96
  9
$SURFTAB1
 70
     6
  9
$SURFTAB2
 70
     6
  9
$SURFTYPE
 70
     6
  9
$SURFU
 70
     6
  9
$SURFV
 70
     6
  9
$UCSNAME
  2

  9
$UCSORG
 10
0.0
 20
0.0
 30
0.0
  9
$UCSXDIR
 10
1.0
 20
0.0
 30
0.0
  9
$UCSYDIR
 10
0.0
 20
1.0
 30
0.0
  9
$PUCSNAME
  2

  9
$PUCSORG
 10
0.0
 20
0.0
 30
0.0
  9
$PUCSXDIR
 10
1.0
 20
0.0
 30
0.0
  9
$PUCSYDIR
 10
0.0
 20
1.0
 30
0.0
  9
$USERI1
 70
     0
  9
$USERI2
 70
     0
  9
$USERI3
 70
     0
  9
$USERI4
 70
     0
  9
$USERI5
 70
     0
  9
$USERR1
 40
0.0
  9
$USERR2
 40
0.0
  9
$USERR3
 40
0.0
  9
$USERR4
 40
0.0
  9
$USERR5
 40
0.0
  9
$WORLDVIEW
 70
     1
  9
$SHADEDGE
 70
     3
  9
$SHADEDIF
 70
    70
  9
$TILEMODE
 70
     1
  9
$MAXACTVP
 70
    48
  9
$PLIMCHECK
 70
     0
  9
$PEXTMIN
 10
1.0000000000000000E+020
 20
1.0000000000000000E+020
 30
1.0000000000000000E+020
  9
$PEXTMAX
 10
-1.0000000000000000E+020
 20
-1.0000000000000000E+020
 30
-1.0000000000000000E+020
  9
$PLIMMIN
 10
0.0
 20
0.0
  9
$PLIMMAX
 10
420.0
 20
297.0
  9
$UNITMODE
 70
     0
  9
$VISRETAIN
 70
     1
  9
$PLINEGEN
 70
     0
  9
$PSLTSCALE
 70
     1
  0
ENDSEC
  0
SECTION
  2
TABLES
  0
TABLE
  2
VPORT
 70
     1
  0
VPORT
  2
*ACTIVE
 70
     0
 10
0.0
 20
0.0
 11
1.0
 21
1.0
 12
-544.62207536035078
 22
-598.77533847906068
 13
0.0
 23
0.0
 14
10.0
 24
10.0
 15
10.0
 25
10.0
 16
0.0
 26
0.0
 36
1.0
 17
0.0
 27
0.0
 37
0.0
 40
253.48823792116599
 41
2.1749379652605461
 42
50.0
 43
0.0
 44
0.0
 50
0.0
 51
0.0
 71
     0
 72
   100
 73
     1
 74
     1
 75
     0
 76
     0
 77
     0
 78
     0
  0
ENDTAB
  0
TABLE
  2
LTYPE
 70
    12
  0
LTYPE
  2
CONTINUOUS
 70
     0
  3
Solid line
 72
    65
 73
     0
 40
0.0
  0
LTYPE
  2
XREF1|CENTER2
 70
    48
  3
Center (.5x) ___ _ ___ _ ___ _ ___ _ ___ _ ___
 72
    65
 73
     4
 40
28.574999999999999
 49
19.050000000000001
 49
-3.1749999999999989
 49
3.1749999999999989
 49
-3.1749999999999989
  0
LTYPE
  2
A3WAKUDAKE|CENTER2
 70
    48
  3
Center (.5x) ___ _ ___ _ ___ _ ___ _ ___ _ ___
 72
    65
 73
     4
 40
28.574999999999999
 49
19.050000000000001
 49
-3.1749999999999989
 49
3.1749999999999989
 49
-3.1749999999999989
  0
ENDTAB
  0
TABLE
  2
LAYER
 70
    37
  0
LAYER
  2
0
 70
     0
 62
     7
  6
CONTINUOUS
  0
LAYER
  2
1TEXT
 70
     0
 62
     7
  6
CONTINUOUS
  0
LAYER
  2
A3WAKUDAKE|THICK
 70
    48
 62
     7
  6
CONTINUOUS
  0
LAYER
  2
A3WAKUDAKE|POINT
 70
    48
 62
     7
  6
CONTINUOUS
  0
LAYER
  2
A3WAKUDAKE|1CENTER
 70
    48
 62
     7
  6
A3WAKUDAKE|CENTER2
  0
LAYER
  2
A3WAKUDAKE|0-6
 70
    48
 62
     7
  6
CONTINUOUS
  0
LAYER
  2
01
 70
     0
 62
     1
  6
CONTINUOUS
  0
LAYER
  2
A3WAKUDAKE|1DIM
 70
    48
 62
     7
  6
CONTINUOUS
  0
LAYER
  2
XREF1|1CENTER
 70
    48
 62
     7
  6
XREF1|CENTER2
  0
ENDTAB
  0
TABLE
  2
STYLE
 70
     5
  0
STYLE
  2
STANDARD
 70
     0
 40
0.0
 41
1.0
 50
0.0
 71
     0
 42
4.0
  3
romans.shx
  4
extfont2.shx
  0
ENDTAB
  0
TABLE
  2
VIEW
 70
     5
  0
ENDTAB
  0
TABLE
  2
UCS
 70
     0
  0
ENDTAB
  0
TABLE
  2
APPID
 70
    18
  0
APPID
  2
ACAD
 70
     0
  0
APPID
  2
DRAWINGVARIABLESXDATA
 70
     0
  0
APPID
  2
CONTENTTABDATA
 70
     0
  0
APPID
  2
CONTENTCURRENTTAB
 70
     0
  0
APPID
  2
CONTENTBLOCKDESCRIPTION
 70
     0
  0
APPID
  2
CONTENTBLOCKICON
 70
     0
  0
APPID
  2
CONTENTLONGBLOCKNAME
 70
     0
  0
APPID
  2
ACAD_PSEXT
 70
     0
  0
APPID
  2
ACAD_DSTYLE_DIMTEXT_FILL
 70
     0
  0
APPID
  2
ACAD_MLEADERVER
 70
     0
  0
APPID
  2
ACAD_DSTYLE_DIMRADIAL_EXTENSION
 70
     0
  0
APPID
  2
ACAD_EXEMPT_FROM_CAD_STANDARDS
 70
     0
  0
APPID
  2
ACADANNOTATIVE
 70
     0
  0
APPID
  2
ACAD_DIMASSOC_CALC_DIMLFAC
 70
     0
  0
APPID
  2
ACAD_DIMASSOC_DIMLFAC
 70
     0
  0
APPID
  2
ACAD_DIMASSOC_OVERRIDDEN_D
 70
     0
  0
APPID
  2
ACAD_NAV_VCDISPLAY
 70
     0
  0
APPID
  2
ACLAYERTOOLS
 70
     0
  0
ENDTAB
  0
TABLE
  2
DIMSTYLE
 70
     5
  0
DIMSTYLE
  2
NEWX10
 70
     0
  3
 
  4

  5

  6
OPEN30
  7
OPEN30
 40
1.0
 41
2.0
 42
0.0
 43
7.0
 44
1.0
 45
0.0
 46
0.0
 47
0.0
 48
0.0
140
3.5
141
0.0
142
0.0
143
25.399999999999999
144
1.0
145
0.0
146
0.7
147
0.7
 71
     0
 72
     0
 73
     0
 74
     0
 75
     0
 76
     0
 77
     1
 78
     8
170
     0
171
     2
172
     1
173
     1
174
     0
175
     0
176
   256
177
   256
178
   201
  0
ENDTAB
  0
ENDSEC
  0
SECTION
  2
BLOCKS
  0
BLOCK
  8
0
  2
$MODEL_SPACE
 70
     0
 10
0.0
 20
0.0
 30
0.0
  3
$MODEL_SPACE
  1

  0
ENDBLK
  5
1A
  8
0
  0
BLOCK
 67
     1
  8
0
  2
$PAPER_SPACE
 70
     0
 10
0.0
 20
0.0
 30
0.0
  3
$PAPER_SPACE
  1

  0
ENDBLK
  5
17
 67
     1
  8
0
  0
BLOCK
  8
0
  2
_OPEN30
 70
     0
 10
0.0
 20
0.0
 30
0.0
  3
_OPEN30
  1

  0
LINE
  5
44
  8
0
  6
BYBLOCK
 62
     0
 10
-1.0
 20
0.26794919
 30
0.0
 11
0.0
 21
0.0
 31
0.0
  0
LINE
  5
45
  8
0
  6
BYBLOCK
 62
     0
 10
0.0
 20
0.0
 30
0.0
 11
-1.0
 21
-0.26794919
 31
0.0
  0
LINE
  5
46
  8
0
  6
BYBLOCK
 62
     0
 10
0.0
 20
0.0
 30
0.0
 11
-1.0
 21
0.0
 31
0.0
  0
ENDBLK
  5
47
  8
0
  0
BLOCK
  8
0
  2
XREF1
 70
    36
 10
0.0
 20
0.0
 30
0.0
  3
XREF1
  1
D:\ACLT\FORMAT\KAWAJUN(9)図面用.dwg
  0
ENDBLK
  5
5D
  8
0
  0
BLOCK
  8
0
  2
A3WAKUDAKE
 70
    36
 10
0.0
 20
0.0
 30
0.0
  3
A3WAKUDAKE
  1
D:\ACLT\FORMAT\A3WAKUdake.dwg
  0
ENDBLK
  5
6DC
  8
0
  0
ENDSEC
  0
SECTION
  2
ENTITIES
  0
TEXT
  5
31B5
  8
01
 10
-703.05757581523335
 20
-496.3545247078946
 30
0.0
 40
7.0
  1
AC-831-XXK
 41
1.0098214000000001
  0
LINE
  5
39BF
  8
01
 10
-703.05757581523289
 20
-524.23452470789448
 30
0.0
 11
-621.05757581523312
 21
-524.23452470789425
 31
0.0
  0
TEXT
  5
39C0
  8
01
 10
-691.72424248190055
 20
-515.54543831946535
 30
0.0
 40
4.0
  1
クローム
 72
     1
 11
-682.65757581523394
 21
-515.54543831946535
 31
0.0
  0
TEXT
  5
39C1
  8
01
 10
-691.72424248190043
 20
-508.73452470789442
 30
0.0
 40
4.0
  1
表面処理
 72
     1
 11
-682.65757581523371
 21
-508.73452470789442
 31
0.0
  0
LINE
  5
39C3
  8
01
 10
-703.05757581523335
 20
-503.23452470789448
 30
0.0
 11
-621.05757581523335
 21
-503.23452470789459
 31
0.0
  0
LINE
  5
39C4
  8
01
 10
-703.05757581523301
 20
-510.23452470789442
 30
0.0
 11
-621.05757581523335
 21
-510.23452470789442
 31
0.0
  0
LINE
  5
39C5
  8
01
 10
-700.05757581523335
 20
-517.23452470789437
 30
0.0
 11
-630.05757581523335
 21
-517.23452470789437
 31
0.0
  0
LINE
  5
39C6
  8
01
 10
-703.05757581523301
 20
-517.23452470789437
 30
0.0
 11
-621.05757581523335
 21
-517.23452470789437
 31
0.0
  0
LINE
  5
39C7
  8
01
 10
-662.05757581523335
 20
-503.23452470789448
 30
0.0
 11
-662.05757581523278
 21
-524.23452470789448
 31
0.0
  0
TEXT
  5
39CA
  8
01
 10
-647.65561980876112
 20
-508.73452470789442
 30
0.0
 40
4.0
  1
コード
 72
     1
 11
-640.98895314209449
 21
-508.73452470789442
 31
0.0
  0
TEXT
  5
39D4
  8
01
 10
-698.92424248190105
 20
-522.54543831946535
 30
0.0
 40
4.0
  1
サテンニッケル
 72
     1
 11
-682.6575758152344
 21
-522.54543831946535
 31
0.0
  0
TEXT
  5
8A54
  8
01
 10
-659.54156865522395
 20
-522.73452470789493
 30
0.0
 40
4.0
  1
AC-831-XNK
 41
0.9
 72
     1
 11
-641.37014008379526
 21
-522.73452470789493
 31
0.0
  0
TEXT
  5
8A57
  8
01
 10
-659.45585436950967
 20
-515.73452470789493
 30
0.0
 40
4.0
  1
AC-831-XCK
 41
0.9
 72
     1
 11
-641.37014008379526
 21
-515.73452470789493
 31
0.0
  0
LINE
  5
A339
  8
01
 10
-703.05757581523289
 20
-524.23452470789459
 30
0.0
 11
-703.05757581523335
 21
-503.23452470789459
 31
0.0
  0
LINE
  5
B980
  8
01
 10
-621.05757581523335
 20
-503.23452470789351
 30
0.0
 11
-621.05757581523278
 21
-524.23452470789425
 31
0.0
  0
LINE
  5
C517
  8
01
 10
-526.72309758196673
 20
-651.20321318879564
 30
0.0
 11
-535.4730975819665
 21
-651.20319282934042
 31
0.0
  0
LINE
  5
C518
  8
01
 10
-526.72309758196673
 20
-651.20321318879564
 30
0.0
 11
-526.72309758196639
 21
-649.82820882605165
 31
0.0
  0
LINE
  5
C519
  8
01
 10
-529.2230975819665
 20
-669.57820737180964
 30
0.0
 11
-529.22309758196695
 21
-651.20321318879576
 31
0.0
  0
ARC
  5
C51A
  8
01
 10
-528.5980975819665
 20
-649.82820882605165
 30
0.0
 40
1.875
 50
0.000000000000007
 51
89.999866684461907
  0
LINE
  5
C51B
  8
01
 10
-531.09809758196639
 20
-676.20320300913579
 30
0.0
 11
-529.2230975819665
 21
-669.57820737180964
 31
0.0
  0
LINE
  5
C51C
  8
01
 10
-528.5980932192258
 20
-647.95320882605665
 30
0.0
 11
-533.59809321922592
 21
-647.95319719208214
 31
0.0
  0
LINE
  5
C51D
  8
01
 10
-531.09809758196639
 20
-676.20320300913579
 30
0.0
 11
-532.97309758196639
 21
-669.57819864632881
 31
0.0
  0
ARC
  5
C51E
  8
01
 10
-533.5980975819665
 20
-649.82819719207725
 30
0.0
 40
1.875
 50
89.999866684461907
 51
180.0
  0
LINE
  5
C51F
  8
01
 10
-532.97309758196639
 20
-669.57819864632881
 30
0.0
 11
-532.97309758196616
 21
-651.20319282934054
 31
0.0
  0
LINE
  5
C520
  8
01
 10
-535.4730975819665
 20
-651.20319282934054
 30
0.0
 11
-535.4730975819665
 21
-649.82819719207725
 31
0.0
  0
LINE
  5
C521
  8
01
 10
-531.09809758196639
 20
-676.81642578830656
 30
0.0
 11
-531.09809758196639
 21
-647.1169066171401
 31
0.0
  0
LINE
  5
C522
  8
01
 10
-529.7301346446003
 20
-673.57820619203846
 30
0.0
 11
-532.18305350569449
 21
-674.57820048460223
 31
0.0
  0
LINE
  5
C523
  8
01
 10
-532.18305350569449
 20
-674.57820048460223
 30
0.0
 11
-531.44770778689156
 21
-674.96791280491743
 31
0.0
  0
LINE
  5
C524
  8
01
 10
-528.5980975819665
 20
-659.57820882605643
 30
0.0
 11
-533.5980975819665
 21
-660.57819719208464
 31
0.0
  0
LINE
  5
C525
  8
01
 10
-528.5980975819665
 20
-661.57820882605665
 30
0.0
 11
-533.5980975819665
 21
-662.57819719208476
 31
0.0
  0
LINE
  5
C526
  8
01
 10
-529.2230975819665
 20
-661.45320737181032
 30
0.0
 11
-528.5980975819665
 21
-661.57820882605665
 31
0.0
  0
LINE
  5
C527
  8
01
 10
-529.2230975819665
 20
-663.45320737181009
 30
0.0
 11
-528.5980975819665
 21
-663.57820882605654
 31
0.0
  0
LINE
  5
C528
  8
01
 10
-533.5980975819665
 20
-662.57819719208476
 30
0.0
 11
-532.97309758196639
 21
-662.7031986463312
 31
0.0
  0
LINE
  5
C529
  8
01
 10
-533.5980975819665
 20
-660.57819719208464
 30
0.0
 11
-532.97309758196639
 21
-660.7031986463312
 31
0.0
  0
LINE
  5
C52A
  8
01
 10
-529.2230975819665
 20
-665.45320737181009
 30
0.0
 11
-528.5980975819665
 21
-665.57820882605654
 31
0.0
  0
LINE
  5
C52B
  8
01
 10
-533.5980975819665
 20
-664.57819719208464
 30
0.0
 11
-532.97309758196639
 21
-664.7031986463312
 31
0.0
  0
LINE
  5
C52C
  8
01
 10
-528.5980975819665
 20
-663.57820882605654
 30
0.0
 11
-533.5980975819665
 21
-664.57819719208464
 31
0.0
  0
LINE
  5
C52D
  8
01
 10
-528.5980975819665
 20
-669.57820882605643
 30
0.0
 11
-533.31508876671171
 21
-670.57819785058814
 31
0.0
  0
LINE
  5
C52E
  8
01
 10
-528.5980975819665
 20
-667.57820882605665
 30
0.0
 11
-533.5980975819665
 21
-668.57819719208487
 31
0.0
  0
LINE
  5
C52F
  8
01
 10
-529.16411775953998
 20
-671.57820750904375
 30
0.0
 11
-532.74907113620304
 21
-672.57819916759513
 31
0.0
  0
LINE
  5
C530
  8
01
 10
-530.30159944538912
 20
-673.3889114464879
 30
0.0
 11
-529.7301346446003
 21
-673.57820619203846
 31
0.0
  0
LINE
  5
C531
  8
01
 10
-529.2230975819665
 20
-669.45320737180998
 30
0.0
 11
-528.5980975819665
 21
-669.57820882605643
 31
0.0
  0
LINE
  5
C532
  8
01
 10
-529.2230975819665
 20
-667.45320737181009
 30
0.0
 11
-528.5980975819665
 21
-667.57820882605665
 31
0.0
  0
LINE
  5
C533
  8
01
 10
-529.74924082847747
 20
-671.43724561860631
 30
0.0
 11
-529.16411775953998
 21
-671.57820750904375
 31
0.0
  0
LINE
  5
C534
  8
01
 10
-533.31508876671171
 20
-670.57819785058814
 30
0.0
 11
-532.64434659762264
 21
-670.73978622262553
 31
0.0
  0
LINE
  5
C535
  8
01
 10
-533.5980975819665
 20
-666.57819719208464
 30
0.0
 11
-532.97309758196639
 21
-666.70319864633086
 31
0.0
  0
LINE
  5
C536
  8
01
 10
-533.5980975819665
 20
-668.57819719208487
 30
0.0
 11
-532.97309758196639
 21
-668.7031986463312
 31
0.0
  0
LINE
  5
C537
  8
01
 10
-532.74907113620304
 20
-672.57819916759513
 30
0.0
 11
-532.05938430644903
 21
-672.80665434588013
 31
0.0
  0
LINE
  5
C538
  8
01
 10
-528.5980975819665
 20
-665.57820882605654
 30
0.0
 11
-533.5980975819665
 21
-666.57819719208464
 31
0.0
  0
LINE
  5
C539
  8
01
 10
-528.5980975819665
 20
-657.57820882605665
 30
0.0
 11
-533.5980975819665
 21
-658.57819719208476
 31
0.0
  0
LINE
  5
C53B
  8
01
 10
-529.2230975819665
 20
-657.45320737180941
 30
0.0
 11
-528.5980975819665
 21
-657.57820882605665
 31
0.0
  0
LINE
  5
C53C
  8
01
 10
-529.2230975819665
 20
-659.45320737181009
 30
0.0
 11
-528.5980975819665
 21
-659.57820882605643
 31
0.0
  0
LINE
  5
C53D
  8
01
 10
-533.5980975819665
 20
-658.57819719208476
 30
0.0
 11
-532.97309758196639
 21
-658.7031986463312
 31
0.0
  0
LINE
  5
C53F
  8
01
 10
-535.4730975819665
 20
-651.20319282934054
 30
0.0
 11
-535.4730975819665
 21
-652.55319282934045
 31
0.0
  0
LINE
  5
C540
  8
01
 10
-526.72309758196673
 20
-651.20321318879564
 30
0.0
 11
-526.72309758196639
 21
-652.55319486528595
 31
0.0
  0
LINE
  5
C554
  8
01
 10
-594.59368220283295
 20
-621.55286386501814
 30
0.0
 11
-594.59368220283295
 21
-622.34802049836105
 31
0.0
  0
ARC
  5
C555
  8
01
 10
-591.09368220283307
 20
-621.55286386501814
 30
0.0
 40
3.499999999999992
 50
90.000000000221448
 51
180.0
  0
LINE
  5
C556
  8
01
 10
-576.04368195249333
 20
-623.05286386501825
 30
0.0
 11
-571.09368220283295
 21
-618.05286386501803
 31
0.0
  0
LINE
  5
C55A
  8
01
 10
-576.04368195249333
 20
-623.05286386501825
 30
0.0
 11
-577.84368220283295
 21
-623.05286386501814
 31
0.0
  0
LINE
  5
C55B
  8
01
 10
-591.09368220283307
 20
-618.05286386501803
 30
0.0
 11
-572.50384376674128
 21
-618.05286386501803
 31
0.0
  0
LINE
  5
C55C
  8
01
 10
-572.50384376674128
 20
-618.05286386501803
 30
0.0
 11
-571.09368220283295
 21
-618.05286386501803
 31
0.0
  0
LINE
  5
C55D
  8
01
 10
-572.56373605746933
 20
-613.05286386501803
 30
0.0
 11
-572.09368220283295
 21
-613.05286386501803
 31
0.0
  0
LINE
  5
C55E
  8
01
 10
-599.59368220283307
 20
-592.91819075296837
 30
0.0
 11
-599.59368220283318
 21
-648.02840799503576
 31
0.0
  0
LINE
  5
C560
  8
01
 10
-571.09368220283295
 20
-614.05286386501803
 30
0.0
 11
-571.09368220283295
 21
-618.05286386501803
 31
0.0
  0
ARC
  5
C561
  8
01
 10
572.09368220283295
 20
-614.05286386501803
 30
0.0
 40
1.0
210
0.0
220
0.0
230
-1.0
 50
90.0
 51
179.99999999977851
  0
LINE
  5
C562
  8
01
 10
-599.59368220283307
 20
-614.05286386501803
 30
0.0
 11
-599.59368220283307
 21
-613.05286386501803
 31
0.0
  0
LINE
  5
C563
  8
01
 10
-572.56373605746933
 20
-613.05286386501803
 30
0.0
 11
-598.62365525132429
 21
-613.05286386501803
 31
0.0
  0
LINE
  5
C564
  8
01
 10
-598.62365525132429
 20
-613.05286386501803
 30
0.0
 11
-599.59368220283307
 21
-613.05286386501803
 31
0.0
  0
LINE
  5
C56E
  8
01
 10
-599.59368220283318
 20
-648.02840799503576
 30
0.0
 11
-598.42745932613366
 21
-648.13043927589149
 31
0.0
  0
LINE
  5
C578
  8
01
 10
-577.84368220283295
 20
-623.05286386501814
 30
0.0
 11
-577.84368220283295
 21
-618.05286386501803
 31
0.0
  0
LINE
  5
C579
  8
01
 10
-507.34783785272998
 20
-661.55315639330354
 30
0.0
 11
-538.84783785256434
 21
-661.5532559438617
 31
0.0
  0
LINE
  5
C57C
  8
01
 10
-538.84795478496574
 20
-624.5532559440411
 30
0.0
 11
-538.84783785256434
 21
-661.5532559438617
 31
0.0
  0
LINE
  5
C57D
  8
01
 10
-507.34783785272998
 20
-661.55315639330354
 30
0.0
 11
-507.34795478513081
 21
-624.55315639348328
 31
0.0
  0
LINE
  5
C58A
  8
01
 10
-532.04797586503321
 20
-618.35287002769746
 30
0.0
 11
-530.09797596040528
 21
-618.35286386504424
 31
0.0
  0
LINE
  5
C58B
  8
01
 10
-516.09797596052385
 20
-618.35281962035185
 30
0.0
 11
-514.14797605589604
 21
-618.35281345769852
 31
0.0
  0
LINE
  5
C58C
  8
01
 10
-510.54795636531168
 20
-624.55316650656107
 30
0.0
 11
-510.54797248417259
 21
-619.45280210432702
 31
0.0
  0
LINE
  5
C58D
  8
01
 10
-535.64797248401794
 20
-619.45288142873915
 30
0.0
 11
-535.64795636515726
 21
-624.55324583097354
 31
0.0
  0
LINE
  5
C58E
  8
01
 10
-535.19797438803573
 20
-618.85287996932641
 30
0.0
 11
-532.04797586503321
 21
-618.35287002769746
 31
0.0
  0
LINE
  5
C58F
  8
01
 10
-514.14797605589604
 20
-618.35281345769852
 30
0.0
 11
-510.99797437255859
 21
-618.85280348921515
 31
0.0
  0
LINE
  5
C590
  8
01
 10
-535.64797248401794
 20
-619.45288142873915
 30
0.0
 11
-535.19797438803573
 21
-618.85287996932641
 31
0.0
  0
LINE
  5
C591
  8
01
 10
-510.99797437255859
 20
-618.85280348921515
 30
0.0
 11
-510.54797248417259
 21
-619.45280210432702
 31
0.0
  0
LINE
  5
C5A2
  8
01
 10
-516.09797596049975
 20
-618.35281962035185
 30
0.0
 11
-530.09797596042984
 21
-618.35286386504401
 31
0.0
  0
ARC
  5
C5B9
  8
01
 10
594.4936822028327
 20
-645.04411499866546
 30
0.0
 40
5.0
210
0.0
220
0.0
230
-1.0
 50
265.00000000000023
 51
269.99999999998698
  0
CIRCLE
  5
C5CC
  8
01
 10
-594.59368220283295
 20
-645.05286386501814
 30
0.0
 40
1.600025277968437
  0
CIRCLE
  5
C5D2
  8
01
 10
-594.59368220283295
 20
-645.05286386501814
 30
0.0
 40
1.7
  0
LINE
  5
C5E1
  8
01
 10
-615.97184454032833
 20
-626.65389781516035
 30
0.0
 11
-594.79228202363549
 21
-626.65389781516171
 31
0.0
  0
LINE
  5
C5E2
  8
01
 10
-595.69248696651994
 20
-629.6538978151616
 30
0.0
 11
-597.19247649597935
 21
-628.15389781516137
 31
0.0
  0
LINE
  5
C5E3
  8
01
 10
-595.69248696651994
 20
-629.6538978151616
 30
0.0
 11
-595.46748696651946
 21
-629.6538978151616
 31
0.0
  0
LINE
  5
C5E4
  8
01
 10
-595.46748696651946
 20
-629.6538978151616
 30
0.0
 11
-595.46747300574907
 21
-623.6538978151616
 31
0.0
  0
LINE
  5
C5E5
  8
01
 10
-595.69247300575
 20
-623.6538978151616
 30
0.0
 11
-595.46747300574907
 21
-623.6538978151616
 31
0.0
  0
LINE
  5
C5E6
  8
01
 10
-595.69247300575
 20
-623.6538978151616
 30
0.0
 11
-597.19249045681352
 21
-625.15389781516126
 31
0.0
  0
LINE
  5
C5E7
  8
01
 10
-595.69248696651994
 20
-629.6538978151616
 30
0.0
 11
-595.69247300575
 21
-623.6538978151616
 31
0.0
  0
LINE
  5
C5E8
  8
01
 10
-610.16747649594288
 20
-625.15389781515967
 30
0.0
 11
-597.19249045681386
 21
-625.15389781516149
 31
0.0
  0
LINE
  5
C5E9
  8
01
 10
-610.16748347632779
 20
-628.15389781515978
 30
0.0
 11
-597.19247649597889
 21
-628.15389781516137
 31
0.0
  0
LINE
  5
C5EA
  8
01
 10
-615.46747998618866
 20
-626.6538978151591
 30
0.0
 11
-610.16747649594288
 21
-625.15389781515967
 31
0.0
  0
LINE
  5
C5EB
  8
01
 10
-615.46747998618866
 20
-626.6538978151591
 30
0.0
 11
-610.16748347632779
 21
-628.15389781515978
 31
0.0
  0
LINE
  5
C5EC
  8
01
 10
-598.96748463972551
 20
-628.65389781516114
 30
0.0
 11
-599.76747533254309
 21
-624.65389781516103
 31
0.0
  0
LINE
  5
C5ED
  8
01
 10
-599.76747533254309
 20
-624.65389781516103
 30
0.0
 11
-599.86747649594076
 21
-625.15389781516103
 31
0.0
  0
LINE
  5
C5EE
  8
01
 10
-602.16748463972533
 20
-628.65389781516069
 30
0.0
 11
-602.96747533254745
 21
-624.65389781516058
 31
0.0
  0
LINE
  5
C5EF
  8
01
 10
-600.56748463972542
 20
-628.65389781516092
 30
0.0
 11
-601.36747533254754
 21
-624.65389781516092
 31
0.0
  0
LINE
  5
C5F0
  8
01
 10
-605.3674846397256
 20
-628.65389781516035
 30
0.0
 11
-606.16747533254772
 21
-624.65389781516024
 31
0.0
  0
LINE
  5
C5F1
  8
01
 10
-603.76748463972569
 20
-628.65389781516058
 30
0.0
 11
-604.56747533254782
 21
-624.65389781516046
 31
0.0
  0
LINE
  5
C5F2
  8
01
 10
-608.56748463972542
 20
-628.65389781515989
 30
0.0
 11
-609.36747533254754
 21
-624.65389781515978
 31
0.0
  0
LINE
  5
C5F3
  8
01
 10
-610.96747585935043
 20
-624.88030486736363
 30
0.0
 11
-611.09674655697995
 21
-625.41689860263455
 31
0.0
  0
LINE
  5
C5F4
  8
01
 10
-610.16748463972533
 20
-628.65389781515978
 30
0.0
 11
-610.96747585935043
 21
-624.88030486736363
 31
0.0
  0
LINE
  5
C5F5
  8
01
 10
-606.96748463972551
 20
-628.65389781516012
 30
0.0
 11
-607.76747533254763
 21
-624.65389781515989
 31
0.0
  0
LINE
  5
C5F6
  8
01
 10
-602.96747533254745
 20
-624.65389781516058
 30
0.0
 11
-603.06747649594479
 21
-625.15389781516058
 31
0.0
  0
LINE
  5
C5F7
  8
01
 10
-601.36747533254754
 20
-624.65389781516092
 30
0.0
 11
-601.46747649594477
 21
-625.15389781516069
 31
0.0
  0
LINE
  5
C5F8
  8
01
 10
-606.16747533254772
 20
-624.65389781516024
 30
0.0
 11
-606.26747649594461
 21
-625.15389781516024
 31
0.0
  0
LINE
  5
C5F9
  8
01
 10
-604.56747533254782
 20
-624.65389781516046
 30
0.0
 11
-604.6674764959447
 21
-625.15389781516046
 31
0.0
  0
LINE
  5
C5FA
  8
01
 10
-609.36747533254754
 20
-624.65389781515978
 30
0.0
 11
-609.46747649594488
 21
-625.15389781515967
 31
0.0
  0
LINE
  5
C5FB
  8
01
 10
-607.76747533254763
 20
-624.65389781515989
 30
0.0
 11
-607.86747649594452
 21
-625.15389781516001
 31
0.0
  0
LINE
  5
C5FC
  8
01
 10
-611.65471407376504
 20
-627.73298321795073
 30
0.0
 11
-611.76748358611508
 21
-628.20108167310082
 31
0.0
  0
LINE
  5
C5FD
  8
01
 10
-614.16747796656182
 20
-625.78593307617678
 30
0.0
 11
-614.47924782281382
 21
-626.37420965121896
 31
0.0
  0
LINE
  5
C5FE
  8
01
 10
-613.21604673607055
 20
-627.29109632442123
 30
0.0
 11
-613.36748253251085
 21
-627.74826816505208
 31
0.0
  0
LINE
  5
C5FF
  8
01
 10
-612.56747691295584
 20
-625.3331189717702
 30
0.0
 11
-612.75024105558396
 21
-625.88486843557325
 31
0.0
  0
LINE
  5
C600
  8
01
 10
-613.36748253251085
 20
-627.74826816505208
 30
0.0
 11
-614.16747796656182
 21
-625.78593307617678
 31
0.0
  0
LINE
  5
C601
  8
01
 10
-611.76748358611508
 20
-628.20108167310082
 30
0.0
 11
-612.56747691295584
 21
-625.3331189717702
 31
0.0
  0
LINE
  5
C602
  8
01
 10
-602.06748347632845
 20
-628.15389781516069
 30
0.0
 11
-602.16748463972533
 21
-628.65389781516069
 31
0.0
  0
LINE
  5
C603
  8
01
 10
-600.46748347632763
 20
-628.15389781516103
 30
0.0
 11
-600.56748463972542
 21
-628.65389781516092
 31
0.0
  0
LINE
  5
C604
  8
01
 10
-606.86748347632818
 20
-628.15389781516012
 30
0.0
 11
-606.96748463972551
 21
-628.65389781516012
 31
0.0
  0
LINE
  5
C605
  8
01
 10
-605.26748347632827
 20
-628.15389781516035
 30
0.0
 11
-605.3674846397256
 21
-628.65389781516035
 31
0.0
  0
LINE
  5
C606
  8
01
 10
-603.66748347632824
 20
-628.15389781516058
 30
0.0
 11
-603.76748463972569
 21
-628.65389781516058
 31
0.0
  0
LINE
  5
C607
  8
01
 10
-608.46748347632854
 20
-628.15389781516001
 30
0.0
 11
-608.56748463972542
 21
-628.65389781515989
 31
0.0
  0
LINE
  5
C608
  8
01
 10
-610.06748347632845
 20
-628.15389781515978
 30
0.0
 11
-610.16748463972533
 21
-628.65389781515978
 31
0.0
  0
LINE
  5
C609
  8
01
 10
-598.86748347632772
 20
-628.15389781516114
 30
0.0
 11
-598.96748463972551
 21
-628.65389781516114
 31
0.0
  0
LINE
  5
C60A
  8
01
 10
-597.36748463972515
 20
-628.65389781516137
 30
0.0
 11
-598.16747533254318
 21
-624.65389781516114
 31
0.0
  0
LINE
  5
C60B
  8
01
 10
-598.16747533254318
 20
-624.65389781516114
 30
0.0
 11
-598.26747649594085
 21
-625.15389781516126
 31
0.0
  0
LINE
  5
C60C
  8
01
 10
-597.26748347632781
 20
-628.15389781516137
 30
0.0
 11
-597.36748463972515
 21
-628.65389781516137
 31
0.0
  0
LINE
  5
C60D
  8
01
 10
-615.97184454032833
 20
-636.65389781516035
 30
0.0
 11
-594.79228202363549
 21
-636.6538978151616
 31
0.0
  0
LINE
  5
C60E
  8
01
 10
-595.69248696651982
 20
-639.65389781516024
 30
0.0
 11
-597.19247649597924
 21
-638.15389781516012
 31
0.0
  0
LINE
  5
C60F
  8
01
 10
-595.69248696651982
 20
-639.65389781516024
 30
0.0
 11
-595.46748696651935
 21
-639.65389781516024
 31
0.0
  0
LINE
  5
C610
  8
01
 10
-595.46748696651935
 20
-639.65389781516024
 30
0.0
 11
-595.46747300574941
 21
-633.65389781516024
 31
0.0
  0
LINE
  5
C611
  8
01
 10
-595.69247300575023
 20
-633.65389781516024
 30
0.0
 11
-595.46747300574941
 21
-633.65389781516024
 31
0.0
  0
LINE
  5
C612
  8
01
 10
-595.69247300575023
 20
-633.65389781516024
 30
0.0
 11
-597.19249045681363
 21
-635.15389781516012
 31
0.0
  0
LINE
  5
C613
  8
01
 10
-595.69248696651982
 20
-639.65389781516024
 30
0.0
 11
-595.69247300575023
 21
-633.65389781516024
 31
0.0
  0
LINE
  5
C614
  8
01
 10
-610.16747649594299
 20
-635.15389781515933
 30
0.0
 11
-597.19249045681397
 21
-635.15389781516035
 31
0.0
  0
LINE
  5
C615
  8
01
 10
-610.16748347632779
 20
-638.15389781515933
 30
0.0
 11
-597.19247649597867
 21
-638.15389781516012
 31
0.0
  0
LINE
  5
C616
  8
01
 10
-615.46747998618866
 20
-636.65389781515898
 30
0.0
 11
-610.16747649594299
 21
-635.15389781515933
 31
0.0
  0
LINE
  5
C617
  8
01
 10
-615.46747998618866
 20
-636.65389781515898
 30
0.0
 11
-610.16748347632779
 21
-638.15389781515933
 31
0.0
  0
LINE
  5
C618
  8
01
 10
-598.9674846397254
 20
-638.65389781516001
 30
0.0
 11
-599.7674753325432
 21
-634.65389781515989
 31
0.0
  0
LINE
  5
C619
  8
01
 10
-599.7674753325432
 20
-634.65389781515989
 30
0.0
 11
-599.86747649594088
 21
-635.15389781515989
 31
0.0
  0
LINE
  5
C61A
  8
01
 10
-602.16748463972522
 20
-638.65389781515978
 30
0.0
 11
-602.96747533254745
 21
-634.65389781515967
 31
0.0
  0
LINE
  5
C61B
  8
01
 10
-600.56748463972531
 20
-638.65389781515978
 30
0.0
 11
-601.36747533254766
 21
-634.65389781515989
 31
0.0
  0
LINE
  5
C61C
  8
01
 10
-605.36748463972549
 20
-638.65389781515955
 30
0.0
 11
-606.16747533254784
 21
-634.65389781515955
 31
0.0
  0
LINE
  5
C61D
  8
01
 10
-603.76748463972558
 20
-638.65389781515967
 30
0.0
 11
-604.56747533254793
 21
-634.65389781515955
 31
0.0
  0
LINE
  5
C61E
  8
01
 10
-608.56748463972531
 20
-638.65389781515933
 30
0.0
 11
-609.36747533254766
 21
-634.65389781515933
 31
0.0
  0
LINE
  5
C61F
  8
01
 10
-610.96747585935054
 20
-634.88030486736329
 30
0.0
 11
-611.09674655698007
 21
-635.41689860263432
 31
0.0
  0
LINE
  5
C620
  8
01
 10
-610.1674846397251
 20
-638.65389781515933
 30
0.0
 11
-610.96747585935054
 21
-634.88030486736329
 31
0.0
  0
LINE
  5
C621
  8
01
 10
-606.9674846397254
 20
-638.65389781515944
 30
0.0
 11
-607.76747533254775
 21
-634.65389781515944
 31
0.0
  0
LINE
  5
C622
  8
01
 10
-602.96747533254745
 20
-634.65389781515967
 30
0.0
 11
-603.06747649594479
 21
-635.15389781515967
 31
0.0
  0
LINE
  5
C623
  8
01
 10
-601.36747533254766
 20
-634.65389781515989
 30
0.0
 11
-601.46747649594488
 21
-635.15389781515967
 31
0.0
  0
LINE
  5
C624
  8
01
 10
-606.16747533254784
 20
-634.65389781515955
 30
0.0
 11
-606.26747649594472
 21
-635.15389781515955
 31
0.0
  0
LINE
  5
C625
  8
01
 10
-604.56747533254793
 20
-634.65389781515955
 30
0.0
 11
-604.66747649594481
 21
-635.15389781515955
 31
0.0
  0
LINE
  5
C626
  8
01
 10
-609.36747533254766
 20
-634.65389781515933
 30
0.0
 11
-609.46747649594488
 21
-635.15389781515933
 31
0.0
  0
LINE
  5
C627
  8
01
 10
-607.76747533254775
 20
-634.65389781515944
 30
0.0
 11
-607.86747649594463
 21
-635.15389781515944
 31
0.0
  0
LINE
  5
C628
  8
01
 10
-611.65471407376504
 20
-637.73298321795039
 30
0.0
 11
-611.76748358611508
 21
-638.20108167310036
 31
0.0
  0
LINE
  5
C629
  8
01
 10
-614.16747796656193
 20
-635.78593307617655
 30
0.0
 11
-614.47924782281382
 21
-636.37420965121885
 31
0.0
  0
LINE
  5
C62A
  8
01
 10
-613.21604673607055
 20
-637.29109632442089
 30
0.0
 11
-613.36748253251085
 21
-637.74826816505185
 31
0.0
  0
LINE
  5
C62B
  8
01
 10
-612.56747691295595
 20
-635.33311897176998
 30
0.0
 11
-612.75024105558396
 21
-635.88486843557314
 31
0.0
  0
LINE
  5
C62C
  8
01
 10
-613.36748253251085
 20
-637.74826816505185
 30
0.0
 11
-614.16747796656193
 21
-635.78593307617655
 31
0.0
  0
LINE
  5
C62D
  8
01
 10
-611.76748358611508
 20
-638.20108167310036
 30
0.0
 11
-612.56747691295595
 21
-635.33311897176998
 31
0.0
  0
LINE
  5
C62E
  8
01
 10
-602.06748347632833
 20
-638.15389781515978
 30
0.0
 11
-602.16748463972522
 21
-638.65389781515978
 31
0.0
  0
LINE
  5
C62F
  8
01
 10
-600.46748347632752
 20
-638.15389781516001
 30
0.0
 11
-600.56748463972531
 21
-638.65389781515978
 31
0.0
  0
LINE
  5
C630
  8
01
 10
-606.86748347632795
 20
-638.15389781515944
 30
0.0
 11
-606.9674846397254
 21
-638.65389781515944
 31
0.0
  0
LINE
  5
C631
  8
01
 10
-605.26748347632815
 20
-638.15389781515955
 30
0.0
 11
-605.36748463972549
 21
-638.65389781515955
 31
0.0
  0
LINE
  5
C632
  8
01
 10
-603.66748347632824
 20
-638.15389781515967
 30
0.0
 11
-603.76748463972558
 21
-638.65389781515967
 31
0.0
  0
LINE
  5
C633
  8
01
 10
-608.46748347632831
 20
-638.15389781515944
 30
0.0
 11
-608.56748463972531
 21
-638.65389781515933
 31
0.0
  0
LINE
  5
C634
  8
01
 10
-610.06748347632833
 20
-638.15389781515933
 30
0.0
 11
-610.1674846397251
 21
-638.65389781515933
 31
0.0
  0
LINE
  5
C635
  8
01
 10
-598.86748347632749
 20
-638.15389781516001
 30
0.0
 11
-598.9674846397254
 21
-638.65389781516001
 31
0.0
  0
LINE
  5
C636
  8
01
 10
-597.36748463972503
 20
-638.65389781516012
 30
0.0
 11
-598.16747533254329
 21
-634.65389781516001
 31
0.0
  0
LINE
  5
C637
  8
01
 10
-598.16747533254329
 20
-634.65389781516001
 30
0.0
 11
-598.26747649594097
 21
-635.15389781516001
 31
0.0
  0
LINE
  5
C638
  8
01
 10
-597.26748347632758
 20
-638.15389781516012
 30
0.0
 11
-597.36748463972503
 21
-638.65389781516012
 31
0.0
  0
LINE
  5
C671
  8
01
 10
-514.72309758196673
 20
-651.20321792959282
 30
0.0
 11
-523.47309758196639
 21
-651.20319757013749
 31
0.0
  0
LINE
  5
C672
  8
01
 10
-514.72309758196673
 20
-651.20321792959282
 30
0.0
 11
-514.7230975819665
 21
-649.82821356684872
 31
0.0
  0
ARC
  5
C675
  8
01
 10
-516.5980975819665
 20
-649.82821356684872
 30
0.0
 40
1.875
 50
0.000000000000007
 51
89.999866684461907
  0
LINE
  5
C677
  8
01
 10
-516.59809321922592
 20
-647.95321356685383
 30
0.0
 11
-521.59809321922592
 21
-647.95320193287932
 31
0.0
  0
ARC
  5
C679
  8
01
 10
-521.5980975819665
 20
-649.82820193287432
 30
0.0
 40
1.875
 50
89.999866684461907
 51
180.0
  0
LINE
  5
C67C
  8
01
 10
-523.47309758196639
 20
-651.2031975701376
 30
0.0
 11
-523.47309758196639
 21
-649.82820193287432
 31
0.0
  0
LINE
  5
C68E
  8
01
 10
-523.47309758196639
 20
-651.2031975701376
 30
0.0
 11
-523.47309758196639
 21
-652.55319757013763
 31
0.0
  0
LINE
  5
C68F
  8
01
 10
-514.72309758196673
 20
-651.20321792959282
 30
0.0
 11
-514.7230975819665
 21
-652.55319960608301
 31
0.0
  0
LINE
  5
C735
  8
01
 10
-517.22309758196639
 20
-669.57821211260659
 30
0.0
 11
-517.22309758196707
 21
-651.20321792959294
 31
0.0
  0
LINE
  5
C736
  8
01
 10
-519.09809758196639
 20
-676.20320774993274
 30
0.0
 11
-517.22309758196639
 21
-669.57821211260659
 31
0.0
  0
LINE
  5
C737
  8
01
 10
-519.09809758196639
 20
-676.20320774993274
 30
0.0
 11
-520.9730975819665
 21
-669.57820338712588
 31
0.0
  0
LINE
  5
C738
  8
01
 10
-520.9730975819665
 20
-669.57820338712588
 30
0.0
 11
-520.97309758196604
 21
-651.2031975701376
 31
0.0
  0
LINE
  5
C739
  8
01
 10
-517.7301346446003
 20
-673.57821093283565
 30
0.0
 11
-520.1830535056946
 21
-674.5782052253993
 31
0.0
  0
LINE
  5
C73A
  8
01
 10
-520.1830535056946
 20
-674.5782052253993
 30
0.0
 11
-519.44770778689156
 21
-674.9679175457145
 31
0.0
  0
LINE
  5
C73B
  8
01
 10
-516.5980975819665
 20
-659.57821356685338
 30
0.0
 11
-521.5980975819665
 21
-660.57820193288171
 31
0.0
  0
LINE
  5
C73C
  8
01
 10
-516.5980975819665
 20
-661.57821356685372
 30
0.0
 11
-521.5980975819665
 21
-662.57820193288194
 31
0.0
  0
LINE
  5
C73D
  8
01
 10
-517.22309758196639
 20
-661.45321211260739
 30
0.0
 11
-516.5980975819665
 21
-661.57821356685372
 31
0.0
  0
LINE
  5
C73E
  8
01
 10
-517.22309758196639
 20
-663.45321211260705
 30
0.0
 11
-516.5980975819665
 21
-663.57821356685349
 31
0.0
  0
LINE
  5
C73F
  8
01
 10
-521.5980975819665
 20
-662.57820193288194
 30
0.0
 11
-520.9730975819665
 21
-662.70320338712816
 31
0.0
  0
LINE
  5
C740
  8
01
 10
-521.5980975819665
 20
-660.57820193288171
 30
0.0
 11
-520.9730975819665
 21
-660.70320338712816
 31
0.0
  0
LINE
  5
C741
  8
01
 10
-517.22309758196639
 20
-665.45321211260705
 30
0.0
 11
-516.5980975819665
 21
-665.57821356685361
 31
0.0
  0
LINE
  5
C742
  8
01
 10
-521.5980975819665
 20
-664.57820193288183
 30
0.0
 11
-520.9730975819665
 21
-664.70320338712816
 31
0.0
  0
LINE
  5
C743
  8
01
 10
-516.5980975819665
 20
-663.57821356685349
 30
0.0
 11
-521.5980975819665
 21
-664.57820193288183
 31
0.0
  0
LINE
  5
C744
  8
01
 10
-516.5980975819665
 20
-669.57821356685349
 30
0.0
 11
-521.31508876671171
 21
-670.57820259138521
 31
0.0
  0
LINE
  5
C745
  8
01
 10
-516.5980975819665
 20
-667.57821356685372
 30
0.0
 11
-521.5980975819665
 21
-668.57820193288194
 31
0.0
  0
LINE
  5
C746
  8
01
 10
-517.16411775953998
 20
-671.57821224984082
 30
0.0
 11
-520.74907113620304
 21
-672.5782039083922
 31
0.0
  0
LINE
  5
C747
  8
01
 10
-518.301599445389
 20
-673.38891618728496
 30
0.0
 11
-517.7301346446003
 21
-673.57821093283565
 31
0.0
  0
LINE
  5
C748
  8
01
 10
-517.22309758196639
 20
-669.45321211260705
 30
0.0
 11
-516.5980975819665
 21
-669.57821356685349
 31
0.0
  0
LINE
  5
C749
  8
01
 10
-517.22309758196639
 20
-667.45321211260716
 30
0.0
 11
-516.5980975819665
 21
-667.57821356685372
 31
0.0
  0
LINE
  5
C74A
  8
01
 10
-517.74924082847747
 20
-671.43725035940338
 30
0.0
 11
-517.16411775953998
 21
-671.57821224984082
 31
0.0
  0
LINE
  5
C74B
  8
01
 10
-521.31508876671171
 20
-670.57820259138521
 30
0.0
 11
-520.64434659762264
 21
-670.73979096342248
 31
0.0
  0
LINE
  5
C74C
  8
01
 10
-521.5980975819665
 20
-666.57820193288183
 30
0.0
 11
-520.9730975819665
 21
-666.70320338712804
 31
0.0
  0
LINE
  5
C74D
  8
01
 10
-521.5980975819665
 20
-668.57820193288194
 30
0.0
 11
-520.9730975819665
 21
-668.70320338712816
 31
0.0
  0
LINE
  5
C74E
  8
01
 10
-520.74907113620304
 20
-672.5782039083922
 30
0.0
 11
-520.05938430644903
 21
-672.8066590866772
 31
0.0
  0
LINE
  5
C74F
  8
01
 10
-516.5980975819665
 20
-665.57821356685361
 30
0.0
 11
-521.5980975819665
 21
-666.57820193288183
 31
0.0
  0
LINE
  5
C750
  8
01
 10
-516.5980975819665
 20
-657.57821356685372
 30
0.0
 11
-521.5980975819665
 21
-658.57820193288194
 31
0.0
  0
LINE
  5
C752
  8
01
 10
-517.22309758196639
 20
-657.45321211260648
 30
0.0
 11
-516.5980975819665
 21
-657.57821356685372
 31
0.0
  0
LINE
  5
C753
  8
01
 10
-517.22309758196639
 20
-659.45321211260705
 30
0.0
 11
-516.5980975819665
 21
-659.57821356685338
 31
0.0
  0
LINE
  5
C754
  8
01
 10
-521.5980975819665
 20
-658.57820193288194
 30
0.0
 11
-520.9730975819665
 21
-658.70320338712816
 31
0.0
  0
LINE
  5
C758
  8
01
 10
-523.47309758196639
 20
-652.55319757013763
 30
0.0
 11
-514.7230975819665
 21
-652.55319757013774
 31
0.0
  0
LINE
  5
C759
  8
01
 10
-535.4730975819665
 20
-652.55319282934045
 30
0.0
 11
-526.72309758196639
 21
-652.55319282934045
 31
0.0
  0
LINE
  5
C75A
  8
01
 10
-519.09809758196639
 20
-676.81643052910374
 30
0.0
 11
-519.09809758196639
 21
-647.11691135793706
 31
0.0
  0
LINE
  5
CBA7
  8
01
 10
-452.68850094630488
 20
-500.83679991298823
 30
0.0
 11
-452.68850094630488
 21
-499.83679991298811
 31
0.0
  0
LINE
  5
CBA9
  8
01
 10
-442.188500946305
 20
-500.83679991298823
 30
0.0
 11
-443.7538912524704
 21
-526.92663834908001
 31
0.0
  0
ARC
  5
CBAB
  8
01
 10
-445.25119852066911
 20
-526.83679991298823
 30
0.0
 40
1.5
 50
270.00000000021498
 51
356.56636963755039
  0
LINE
  5
CBAF
  8
01
 10
-445.25119852066911
 20
-528.336799912988
 30
0.0
 11
-449.62580337194078
 21
-528.33679991298823
 31
0.0
  0
ARC
  5
CBB1
  8
01
 10
449.62580337194078
 20
-526.83679991298823
 30
0.0
 40
1.5000000000000011
210
0.0
220
0.0
230
-1.0
 50
270.00000000021498
 51
356.56636963755039
  0
LINE
  5
CBB4
  8
01
 10
-451.12311064013949
 20
-526.92663834908001
 30
0.0
 11
-452.68850094630488
 21
-500.83679991298823
 31
0.0
  0
LINE
  5
CBB5
  8
01
 10
-451.68850099001639
 20
-499.83679991298811
 30
0.0
 11
-443.13029937292578
 21
-499.83679991298811
 31
0.0
  0
LINE
  5
CBB6
  8
01
 10
-451.68850099001639
 20
-499.83679991298811
 30
0.0
 11
-452.68850094630488
 21
-499.83679991298811
 31
0.0
  0
LINE
  5
CBB7
  8
01
 10
-443.13029937292578
 20
-499.83679991298811
 30
0.0
 11
-442.18850096120519
 21
-499.83679991298811
 31
0.0
  0
LINE
  5
CBB8
  8
01
 10
-442.18850096120519
 20
-499.83679991298811
 30
0.0
 11
-442.188500946305
 21
-500.83679991298868
 31
0.0
  0
LINE
  5
CF5C
  8
01
 10
-452.88850100433558
 20
-499.9673891867148
 30
0.0
 11
-452.888501016806
 21
-504.93679991298842
 31
0.0
  0
LINE
  5
CF5D
  8
01
 10
-441.98850101680603
 20
-504.93679991298842
 30
0.0
 11
-441.98850100433572
 21
-499.9673891867148
 31
0.0
  0
LINE
  5
CF5E
  8
01
 10
-437.93850094379519
 20
-510.73679991549801
 30
0.0
 11
-437.93850091927823
 21
-500.96738918922432
 31
0.0
  0
LINE
  5
CF60
  8
01
 10
-456.93850091927823
 20
-500.9673891842051
 30
0.0
 11
-456.93850094379502
 21
-510.73679991047891
 31
0.0
  0
ARC
  5
CF61
  8
01
 10
-455.93850091927823
 20
-500.96738918671468
 30
0.0
 40
1.0
 50
90.0
 51
179.99999985621491
  0
ARC
  5
CF62
  8
01
 10
-455.93850094379502
 20
-510.73679991298849
 30
0.0
 40
1.0
 50
179.99999985621491
 51
270.0
  0
LINE
  5
CF63
  8
01
 10
-455.93850091927823
 20
-499.96738918671468
 30
0.0
 11
-452.88850100433558
 21
-499.9673891867148
 31
0.0
  0
LINE
  5
CF64
  8
01
 10
-438.93850091927823
 20
-499.9673891867148
 30
0.0
 11
-441.98850100433572
 21
-499.9673891867148
 31
0.0
  0
ARC
  5
CF65
  8
01
 10
-438.93850091927823
 20
-500.9673891867148
 30
0.0
 40
1.0
 50
359.99999985621491
 51
90.0
  0
LINE
  5
CF66
  8
01
 10
-455.93850094379502
 20
-511.73679991298849
 30
0.0
 11
-452.03450094630489
 21
-511.73679991298837
 31
0.0
  0
ARC
  5
CF67
  8
01
 10
-438.93850094379519
 20
-510.73679991298849
 30
0.0
 40
1.0
 50
270.0
 51
359.99999985621491
  0
LINE
  5
CF68
  8
01
 10
-452.888501016806
 20
-504.93679991298842
 30
0.0
 11
-452.44250094630479
 21
-504.93679991298842
 31
0.0
  0
LINE
  5
D030
  8
01
 10
-442.43450094630509
 20
-504.93679991298842
 30
0.0
 11
-441.98850101680603
 21
-504.93679991298842
 31
0.0
  0
LINE
  5
D032
  8
01
 10
-442.84250094630488
 20
-511.73679991298837
 30
0.0
 11
-438.93850094379519
 21
-511.73679991298849
 31
0.0
  0
LINE
  5
D038
  8
01
 10
-507.34795478513081
 20
-624.55315639348328
 30
0.0
 11
-538.84795478496574
 21
-624.5532559440411
 31
0.0
  0
CIRCLE
  5
D03E
  8
01
 10
-523.09809758196661
 20
-588.01939373117182
 30
0.0
 40
12.549874902051389
  0
CIRCLE
  5
D03F
  8
01
 10
-523.09809758196661
 20
-588.01939373117182
 30
0.0
 40
7.0
  0
CIRCLE
  5
D040
  8
01
 10
-523.09809758196661
 20
-588.01939373117182
 30
0.0
 40
15.75
  0
LINE
  5
D28D
  8
01
 10
-390.55294082190869
 20
-661.55320616858262
 30
0.0
 11
-457.1006821642618
 21
-661.55320616858262
 31
0.0
  0
LINE
  5
D2D4
  8
01
 10
-416.91278699464033
 20
-696.55320616858262
 30
0.0
 11
-427.91278699464033
 21
-696.55320616858307
 31
0.0
  0
LINE
  5
D2D5
  8
01
 10
-428.41278699464033
 20
-696.05320616858307
 30
0.0
 11
-428.41278699464021
 21
-691.05320616858205
 31
0.0
  0
LINE
  5
D2D6
  8
01
 10
-421.91278699464033
 20
-679.55320616858251
 30
0.0
 11
-422.91278699464021
 21
-679.55320616858307
 31
0.0
  0
LINE
  5
D2D7
  8
01
 10
-422.91278699464021
 20
-696.55320616858262
 30
0.0
 11
-422.91278699464021
 21
-679.55320616858251
 31
0.0
  0
LINE
  5
D2D8
  8
01
 10
-421.91278699464033
 20
-696.55320616858262
 30
0.0
 11
-421.91278699464033
 21
-679.55320616858251
 31
0.0
  0
LINE
  5
D2D9
  8
01
 10
-428.41278699464021
 20
-689.55320616858262
 30
0.0
 11
-427.9127869946401
 21
-689.55320616858262
 31
0.0
  0
LINE
  5
D2DA
  8
01
 10
-428.41278699464021
 20
-686.55320616858262
 30
0.0
 11
-427.91278699464021
 21
-686.55320616858262
 31
0.0
  0
LINE
  5
D2DB
  8
01
 10
-428.41278699464033
 20
-683.55320616858251
 30
0.0
 11
-427.9127869946401
 21
-683.55320616858251
 31
0.0
  0
LINE
  5
D2DC
  8
01
 10
-428.41278699464033
 20
-691.05320616858262
 30
0.0
 11
-427.91278699464033
 21
-689.55320616858262
 31
0.0
  0
LINE
  5
D2DD
  8
01
 10
-428.41278699464033
 20
-688.05320616858262
 30
0.0
 11
-427.91278699464033
 21
-686.55320616858262
 31
0.0
  0
LINE
  5
D2DE
  8
01
 10
-428.41278699464033
 20
-685.05320616858262
 30
0.0
 11
-427.91278699464033
 21
-683.55320616858251
 31
0.0
  0
LINE
  5
D2DF
  8
01
 10
-428.41278699464033
 20
-683.55320616858251
 30
0.0
 11
-428.41278699464033
 21
-661.55320616858262
 31
0.0
  0
LINE
  5
D2E0
  8
01
 10
-428.41278699464021
 20
-686.55320616858262
 30
0.0
 11
-428.41278699464021
 21
-685.05320616858262
 31
0.0
  0
LINE
  5
D2E1
  8
01
 10
-428.41278699464033
 20
-689.55320616858216
 30
0.0
 11
-428.41278699464021
 21
-688.05320616858205
 31
0.0
  0
LINE
  5
D2E2
  8
01
 10
-416.41278699464033
 20
-696.05320616858251
 30
0.0
 11
-416.41278699464033
 21
-691.05320616858205
 31
0.0
  0
LINE
  5
D2E3
  8
01
 10
-416.41278699464033
 20
-683.55320616858251
 30
0.0
 11
-416.91278699464033
 21
-683.55320616858251
 31
0.0
  0
LINE
  5
D2E4
  8
01
 10
-416.41278699464033
 20
-686.55320616858262
 30
0.0
 11
-416.91278699464033
 21
-686.55320616858205
 31
0.0
  0
LINE
  5
D2E5
  8
01
 10
-416.41278699464033
 20
-689.55320616858262
 30
0.0
 11
-416.91278699464021
 21
-689.55320616858262
 31
0.0
  0
LINE
  5
D2E6
  8
01
 10
-416.41278699464033
 20
-689.55320616858216
 30
0.0
 11
-416.41278699464033
 21
-688.05320616858205
 31
0.0
  0
LINE
  5
D2E7
  8
01
 10
-416.41278699464033
 20
-686.55320616858262
 30
0.0
 11
-416.41278699464033
 21
-685.05320616858262
 31
0.0
  0
LINE
  5
D2E8
  8
01
 10
-416.41278699464033
 20
-683.55320616858251
 30
0.0
 11
-416.41278699464033
 21
-661.55320616858262
 31
0.0
  0
LINE
  5
D2E9
  8
01
 10
-416.41278699464033
 20
-685.05320616858262
 30
0.0
 11
-416.91278699464033
 21
-683.55320616858251
 31
0.0
  0
LINE
  5
D2EA
  8
01
 10
-416.41278699464033
 20
-688.05320616858262
 30
0.0
 11
-416.91278699464033
 21
-686.55320616858262
 31
0.0
  0
LINE
  5
D2EB
  8
01
 10
-416.41278699464033
 20
-691.05320616858262
 30
0.0
 11
-416.91278699464033
 21
-689.55320616858262
 31
0.0
  0
ARC
  5
D2EC
  8
01
 10
-427.91278699464033
 20
-696.05320616858307
 30
0.0
 40
0.5
 50
180.0
 51
270.0
  0
ARC
  5
D2ED
  8
01
 10
-416.91278699464033
 20
-696.05320616858251
 30
0.0
 40
0.5
 50
270.0
 51
0.0
  0
TEXT
  5
D2F0
  8
01
 10
-421.09632982481929
 20
-711.75388365413039
 30
0.0
 40
4.0
  1
コンクリート
  0
LINE
  5
DACA
  8
01
 10
-438.162903926963
 20
-624.5532559440411
 30
0.0
 11
-438.1627869945616
 21
-661.5532559438617
 31
0.0
  0
LINE
  5
DACB
  8
01
 10
-406.6627869947273
 20
-661.55315639330354
 30
0.0
 11
-406.66290392712813
 21
-624.55315639348328
 31
0.0
  0
LINE
  5
DACC
  8
01
 10
-431.36292500703053
 20
-618.35287002769746
 30
0.0
 11
-429.4129251024026
 21
-618.35286386504424
 31
0.0
  0
LINE
  5
DACD
  8
01
 10
-415.41292510252129
 20
-618.35281962035185
 30
0.0
 11
-413.46292519789341
 21
-618.35281345769852
 31
0.0
  0
LINE
  5
DACE
  8
01
 10
-409.86290550730899
 20
-624.55316650656107
 30
0.0
 11
-409.86292162616991
 21
-619.45280210432702
 31
0.0
  0
LINE
  5
DACF
  8
01
 10
-434.96292162601532
 20
-619.45288142873915
 30
0.0
 11
-434.96290550715457
 21
-624.55324583097354
 31
0.0
  0
LINE
  5
DAD0
  8
01
 10
-434.51292353003299
 20
-618.85287996932641
 30
0.0
 11
-431.36292500703053
 21
-618.35287002769746
 31
0.0
  0
LINE
  5
DAD1
  8
01
 10
-413.46292519789341
 20
-618.35281345769852
 30
0.0
 11
-410.31292351455591
 21
-618.85280348921515
 31
0.0
  0
LINE
  5
DAD2
  8
01
 10
-434.96292162601532
 20
-619.45288142873915
 30
0.0
 11
-434.51292353003299
 21
-618.85287996932641
 31
0.0
  0
LINE
  5
DAD3
  8
01
 10
-410.31292351455591
 20
-618.85280348921515
 30
0.0
 11
-409.86292162616991
 21
-619.45280210432702
 31
0.0
  0
LINE
  5
DAD4
  8
01
 10
-415.41292510249713
 20
-618.35281962035185
 30
0.0
 11
-429.4129251024271
 21
-618.35286386504401
 31
0.0
  0
LINE
  5
DAF1
  8
01
 10
-406.66290392712813
 20
-624.55315639348328
 30
0.0
 11
-438.162903926963
 21
-624.5532559440411
 31
0.0
  0
LINE
  5
DB1D
  8
01
 10
-422.41280437651591
 20
-647.58170885537913
 30
0.0
 11
-422.41280437651591
 21
-673.77570455875752
 31
0.0
  0
LINE
  5
DB1F
  8
01
 10
-419.04302550358102
 20
-672.05321867552357
 30
0.0
 11
-419.04285460601773
 21
-654.05319452297795
 31
0.0
  0
LINE
  5
DB20
  8
01
 10
-425.78302550350992
 20
-672.05317884084786
 30
0.0
 11
-425.78285460619321
 21
-654.0531788403805
 31
0.0
  0
LINE
  5
DB21
  8
01
 10
-426.41313357159908
 20
-671.42318323735253
 30
0.0
 11
-418.41313357139859
 21
-671.42319892003184
 31
0.0
  0
LINE
  5
DB22
  8
01
 10
-426.41285472409021
 20
-654.05317737449923
 30
0.0
 11
-418.41285472388819
 21
-654.05319598885865
 31
0.0
  0
LINE
  5
DB23
  8
01
 10
-426.4130196400555
 20
-671.42318323843415
 30
0.0
 11
-426.41285472409021
 21
-654.05317737449923
 31
0.0
  0
LINE
  5
DB24
  8
01
 10
-425.78313943505418
 20
-672.05317883976613
 30
0.0
 11
-426.41313357159908
 21
-671.42318323735253
 31
0.0
  0
LINE
  5
DB25
  8
01
 10
-426.41285472409021
 20
-654.05317737449923
 30
0.0
 11
-429.41280437651602
 21
-654.05317039423187
 31
0.0
  0
LINE
  5
DB26
  8
01
 10
-419.04313943490757
 20
-672.05319452236347
 30
0.0
 11
-425.78313943505418
 21
-672.05317883976613
 31
0.0
  0
LINE
  5
DB27
  8
01
 10
-429.41280437651579
 20
-652.85317970140829
 30
0.0
 11
-429.41280437651579
 21
-654.05317039423187
 31
0.0
  0
LINE
  5
DB28
  8
01
 10
-419.04313943490757
 20
-672.05319452236347
 30
0.0
 11
-418.41313357139859
 21
-671.42319892003184
 31
0.0
  0
ARC
  5
DB29
  8
01
 10
-425.41280437651579
 20
-652.85317970140829
 30
0.0
 40
4.0
 50
89.999866684474938
 51
180.0
  0
LINE
  5
DB2A
  8
01
 10
-418.41301963984279
 20
-671.42319892111357
 30
0.0
 11
-418.41285472388819
 21
-654.05319598885865
 31
0.0
  0
LINE
  5
DB2B
  8
01
 10
-419.41279506933631
 20
-648.85319366218835
 30
0.0
 11
-425.41279506933631
 21
-648.85317970141898
 31
0.0
  0
LINE
  5
DB2C
  8
01
 10
-415.41280437651591
 20
-654.05320296936054
 30
0.0
 11
-418.41285472388819
 21
-654.05319598885865
 31
0.0
  0
ARC
  5
DB2D
  8
01
 10
-419.41280437651591
 20
-652.85319366217755
 30
0.0
 40
4.0
 50
0.0
 51
89.999866684474938
  0
LINE
  5
DB2E
  8
01
 10
-415.41280437651591
 20
-652.85319366217755
 30
0.0
 11
-415.41280437651602
 21
-654.05320296936043
 31
0.0
  0
LINE
  5
DB30
  8
01
 10
-415.41280437651591
 20
-656.0532029693652
 30
0.0
 11
-429.41280437651602
 21
-656.05317039423733
 31
0.0
  0
LINE
  5
DB32
  8
01
 10
-429.41280437651602
 20
-654.05317039423187
 30
0.0
 11
-429.41280437651602
 21
-656.05317039423733
 31
0.0
  0
LINE
  5
DB33
  8
01
 10
-415.41280437651591
 20
-654.05320296936054
 30
0.0
 11
-415.41280437651591
 21
-656.05320296936588
 31
0.0
  0
LINE
  5
DB4D
  8
01
 10
-391.24807586163701
 20
-540.16211457991835
 30
0.0
 11
-391.24807586163701
 21
-540.95727121326127
 31
0.0
  0
ARC
  5
DB4E
  8
01
 10
-394.74807586163689
 20
-540.16211457991835
 30
0.0
 40
3.499999999999992
 50
0.0
 51
89.999999999778538
  0
LINE
  5
DB4F
  8
01
 10
-409.79807611197663
 20
-541.66211457991835
 30
0.0
 11
-414.74807586163689
 21
-536.66211457991824
 31
0.0
  0
LINE
  5
DB50
  8
01
 10
-409.79807611197663
 20
-541.66211457991835
 30
0.0
 11
-407.99807586163689
 21
-541.66211457991835
 31
0.0
  0
LINE
  5
DB51
  8
01
 10
-394.74807586163689
 20
-536.66211457991824
 30
0.0
 11
-413.33791429772862
 21
-536.66211457991824
 31
0.0
  0
LINE
  5
DB52
  8
01
 10
-413.33791429772862
 20
-536.66211457991824
 30
0.0
 11
-414.74807586163689
 21
-536.66211457991824
 31
0.0
  0
LINE
  5
DB53
  8
01
 10
-413.27802200700069
 20
-531.66211457991824
 30
0.0
 11
-413.74807586163689
 21
-531.66211457991824
 31
0.0
  0
LINE
  5
DB54
  8
01
 10
-386.24807586163689
 20
-532.66211457991824
 30
0.0
 11
-386.24807586163689
 21
-566.63765870993598
 31
0.0
  0
LINE
  5
DB55
  8
01
 10
-414.74807586163689
 20
-532.66211457991824
 30
0.0
 11
-414.74807586163689
 21
-536.66211457991824
 31
0.0
  0
ARC
  5
DB56
  8
01
 10
413.74807586163689
 20
-532.66211457991824
 30
0.0
 40
1.0
210
0.0
220
0.0
230
-1.0
 50
0.0000000002214684
 51
90.0
  0
LINE
  5
DB57
  8
01
 10
-386.24807586163689
 20
-532.66211457991824
 30
0.0
 11
-386.24807586163689
 21
-531.66211457991824
 31
0.0
  0
LINE
  5
DB58
  8
01
 10
-413.27802200700069
 20
-531.66211457991824
 30
0.0
 11
-387.21810281314572
 21
-531.66211457991824
 31
0.0
  0
LINE
  5
DB59
  8
01
 10
-387.21810281314572
 20
-531.66211457991824
 30
0.0
 11
-386.24807586163689
 21
-531.66211457991824
 31
0.0
  0
LINE
  5
DB5A
  8
01
 10
-386.24807586163689
 20
-566.63765870993598
 30
0.0
 11
-387.4142987383363
 21
-566.73968999079182
 31
0.0
  0
LINE
  5
DB5B
  8
01
 10
-407.99807586163689
 20
-541.66211457991835
 30
0.0
 11
-407.99807586163689
 21
-536.66211457991824
 31
0.0
  0
ARC
  5
DB5C
  8
01
 10
391.34807586163731
 20
-563.65336571356568
 30
0.0
 40
5.0
210
0.0
220
0.0
230
-1.0
 50
270.00000000001302
 51
274.99999999999977
  0
ARC
  5
DB5D
  8
01
 10
-391.34807586163731
 20
-563.65336571356568
 30
0.0
 40
5.0
 50
269.99999999998698
 51
0.0
  0
CIRCLE
  5
DB5F
  8
01
 10
-391.24807586163701
 20
-563.66211457991835
 30
0.0
 40
1.7
  0
LINE
  5
DB60
  8
01
 10
-391.78385457537559
 20
-568.63433920402429
 30
0.0
 11
-398.14807586163732
 21
-568.07754198930616
 31
0.0
  0
ARC
  5
DB61
  8
01
 10
387.34807586163708
 20
-542.53578094614556
 30
0.0
 40
0.9999999999999998
210
0.0
220
0.0
230
-1.0
 50
98.285797023946074
 51
179.9999999997915
  0
LINE
  5
DB62
  8
01
 10
-386.34807586163708
 20
-542.53578094614556
 30
0.0
 11
-386.34807586163708
 21
-563.65336571356568
 31
0.0
  0
LINE
  5
DB63
  8
01
 10
-387.20396495732609
 20
-541.54621940320942
 30
0.0
 11
-396.64807586163698
 21
-540.17086344627057
 31
0.0
  0
LINE
  5
DB64
  8
01
 10
-398.14807586163732
 20
-568.07754198930616
 30
0.0
 11
-398.14807586163698
 21
-541.1708634462708
 31
0.0
  0
LINE
  5
DB65
  8
01
 10
-396.64807586163698
 20
-540.17086344627057
 30
0.0
 11
-397.14807586163732
 21
-540.17086344627057
 31
0.0
  0
ARC
  5
DB66
  8
01
 10
-397.14807586163732
 20
-541.1708634462708
 30
0.0
 40
1.0
 50
90.000000000221448
 51
180.0
  0
LINE
  5
DBDE
  8
01
 10
-437.9385009437953
 20
-541.17086344627103
 30
0.0
 11
-437.93850094379519
 21
-567.65336571356568
 31
0.0
  0
LINE
  5
DBDF
  8
01
 10
-438.9385009437953
 20
-568.65336571356568
 30
0.0
 11
-455.93850094379502
 21
-568.65336571356602
 31
0.0
  0
LINE
  5
DBE0
  8
01
 10
-456.93850094379508
 20
-541.1708634462708
 30
0.0
 11
-456.93850094379502
 21
-567.65336571356602
 31
0.0
  0
LINE
  5
DBE2
  8
01
 10
-438.9385009437953
 20
-540.17086344627103
 30
0.0
 11
-444.43850006627059
 21
-540.17086344627091
 31
0.0
  0
LINE
  5
DBE3
  8
01
 10
-442.18850096120519
 20
-532.66211457991824
 30
0.0
 11
-442.18850096120519
 21
-540.17086344627091
 31
0.0
  0
LINE
  5
DBE4
  8
01
 10
-452.68850094630488
 20
-532.66211457991824
 30
0.0
 11
-452.68850094630488
 21
-540.17086344627091
 31
0.0
  0
LINE
  5
DBE7
  8
01
 10
-442.18850096120519
 20
-536.66211457991824
 30
0.0
 11
-452.68850094630488
 21
-536.66211457991824
 31
0.0
  0
LINE
  5
DBE8
  8
01
 10
-443.18850096120519
 20
-531.66211457991824
 30
0.0
 11
-451.688500946305
 21
-531.66211457991824
 31
0.0
  0
ARC
  5
DBE9
  8
01
 10
-443.18850096120519
 20
-532.66211457991824
 30
0.0
 40
1.0
 50
0.0
 51
90.0
  0
ARC
  5
DBEA
  8
01
 10
-451.688500946305
 20
-532.66211457991824
 30
0.0
 40
1.0
 50
90.0
 51
180.0
  0
ARC
  5
DBEB
  8
01
 10
-438.9385009437953
 20
-541.17086344627103
 30
0.0
 40
1.0
 50
0.0
 51
90.0
  0
ARC
  5
DBEC
  8
01
 10
-455.93850094379508
 20
-541.1708634462708
 30
0.0
 40
1.0
 50
89.999999999999588
 51
180.0
  0
ARC
  5
DBED
  8
01
 10
-438.9385009437953
 20
-567.65336571356568
 30
0.0
 40
1.0
 50
270.0000000000004
 51
0.0000000000004071
  0
ARC
  5
DBEE
  8
01
 10
-455.93850094379502
 20
-567.65336571356602
 30
0.0
 40
1.0
 50
180.0
 51
270.0000000000004
  0
LINE
  5
DDA4
  8
01
 10
-444.43850006627059
 20
-540.66211462319245
 30
0.0
 11
-444.43849989317329
 21
-536.66211457991824
 31
0.0
  0
ARC
  5
DDA5
  8
01
 10
-445.43850006627059
 20
-540.66211457991824
 30
0.0
 40
1.0
 50
270.0
 51
359.99999752056368
  0
LINE
  5
DDA6
  8
01
 10
-450.43850006627008
 20
-540.66211453664403
 30
0.0
 11
-450.43849989317329
 21
-536.66211457991824
 31
0.0
  0
LINE
  5
DDA7
  8
01
 10
-445.43850006627059
 20
-541.66211457991824
 30
0.0
 11
-449.43850006627019
 21
-541.66211457991824
 31
0.0
  0
ARC
  5
DDA8
  8
01
 10
-449.43850006627019
 20
-540.66211457991824
 30
0.0
 40
1.0
 50
179.99999752056371
 51
270.0
  0
LINE
  5
DDA9
  8
01
 10
-450.43850004501172
 20
-540.17086344627091
 30
0.0
 11
-455.93850094379508
 21
-540.17086344627091
 31
0.0
  0
ARC
  5
DDAC
  8
01
 10
-447.43850094630488
 20
-544.36211457991817
 30
0.0
 40
2.1000000000000001
 50
0.0
 51
180.0
  0
ARC
  5
DDAD
  8
01
 10
-447.43850094630488
 20
-545.66211457991824
 30
0.0
 40
2.1000000000000001
 50
180.0
 51
359.99999999955048
  0
ARC
  5
DDAE
  8
01
 10
-447.43850094630488
 20
-552.16211457991824
 30
0.0
 40
2.1000000000000001
 50
0.0000000008923873
 51
180.0000000004494
  0
ARC
  5
DDAF
  8
01
 10
-447.43850094630488
 20
-558.16211457991824
 30
0.0
 40
2.1000000000000001
 50
180.0
 51
359.99999999955048
  0
LINE
  5
DDB0
  8
01
 10
-449.53850094630479
 20
-544.36211457991817
 30
0.0
 11
-449.53850094630479
 21
-545.66211457991824
 31
0.0
  0
LINE
  5
DDB1
  8
01
 10
-445.33850094630458
 20
-544.36211457991817
 30
0.0
 11
-445.33850094630458
 21
-545.66211457991824
 31
0.0
  0
LINE
  5
DDB2
  8
01
 10
-445.33850094630458
 20
-552.16211457991824
 30
0.0
 11
-445.33850094630458
 21
-558.16211457991824
 31
0.0
  0
LINE
  5
DDB3
  8
01
 10
-449.53850094630502
 20
-552.16211457991824
 30
0.0
 11
-449.53850094630502
 21
-558.16211457991824
 31
0.0
  0
LINE
  5
DE4F
  8
01
 10
-507.34783785272998
 20
-661.55315639330354
 30
0.0
 11
-480.27244294414339
 21
-661.55315639330365
 31
0.0
  0
LINE
  5
DE59
  8
01
 10
-538.84783785256434
 20
-661.5532559438617
 30
0.0
 11
-611.09368220283295
 21
-661.5532559438617
 31
0.0
  0
LINE
  5
DE63
  8
01
 10
-550.42676100559606
 20
-672.55315639330354
 30
0.0
 11
-480.27244294414328
 21
-672.55315639330342
 31
0.0
  0
LINE
  5
DEBA
  8
01
 10
-457.1006821642618
 20
-672.55315639330342
 30
0.0
 11
-428.41278699464021
 21
-672.55315639330342
 31
0.0
  0
LINE
  5
DEEF
  8
01
 10
-416.41278699464033
 20
-672.5531563933032
 30
0.0
 11
-390.55294082190869
 21
-672.55315639330342
 31
0.0
  0
LINE
  5
DF2E
  8
01
 10
-444.30062610248729
 20
-545.16211457991824
 30
0.0
 11
-450.32234772912921
 21
-545.16211457991824
 31
0.0
  0
LINE
  5
DF2F
  8
01
 10
-444.30062610248729
 20
-555.16211457991824
 30
0.0
 11
-450.65995236784039
 21
-555.16211457991824
 31
0.0
  0
LINE
  5
DF30
  8
01
 10
-447.43850094630488
 20
-562.19843507163887
 30
0.0
 11
-447.43850094630488
 21
-541.94728344749365
 31
0.0
  0
LINE
  5
E1DC
  8
01
 10
-599.59368220283318
 20
-646.55325594386181
 30
0.0
 11
-611.09368220283295
 21
-646.55325594386159
 31
0.0
  0
ARC
  5
E1E7
  8
01
 10
-594.4936822028327
 20
-645.04411499866546
 30
0.0
 40
5.0
 50
180.0
 51
270.00000000001302
  0
LINE
  5
E1E8
  8
01
 10
-594.05790348909431
 20
-650.02508848912419
 30
0.0
 11
-587.69368220283275
 21
-649.46829127440594
 31
0.0
  0
ARC
  5
E1E9
  8
01
 10
598.49368220283293
 20
-623.92653023124535
 30
0.0
 40
0.9999999999999998
210
0.0
220
0.0
230
-1.0
 50
0.0000000002084536
 51
81.714202976053855
  0
LINE
  5
E1EA
  8
01
 10
-599.49368220283293
 20
-623.92653023124535
 30
0.0
 11
-599.49368220283293
 21
-645.04411499866546
 31
0.0
  0
LINE
  5
E1EB
  8
01
 10
-598.63779310714392
 20
-622.93696868830909
 30
0.0
 11
-589.19368220283297
 21
-621.56161273137047
 31
0.0
  0
LINE
  5
E1EC
  8
01
 10
-587.69368220283275
 20
-649.46829127440594
 30
0.0
 11
-587.69368220283286
 21
-622.56161273137059
 31
0.0
  0
LINE
  5
E1ED
  8
01
 10
-589.19368220283297
 20
-621.56161273137047
 30
0.0
 11
-588.69368220283275
 21
-621.56161273137047
 31
0.0
  0
ARC
  5
E1EE
  8
01
 10
-588.69368220283275
 20
-622.56161273137059
 30
0.0
 40
1.0
 50
0.0000000000000127
 51
89.999999999778538
  0
LINE
  5
E499
  8
01
 10
-528.5980975819665
 20
-651.57820882605665
 30
0.0
 11
-533.5980975819665
 21
-652.57819719208476
 31
0.0
  0
LINE
  5
E49A
  8
01
 10
-529.2230975819665
 20
-651.45320737181032
 30
0.0
 11
-528.5980975819665
 21
-651.57820882605665
 31
0.0
  0
LINE
  5
E49B
  8
01
 10
-529.2230975819665
 20
-653.45320737181009
 30
0.0
 11
-528.5980975819665
 21
-653.57820882605654
 31
0.0
  0
LINE
  5
E49C
  8
01
 10
-533.5980975819665
 20
-652.57819719208476
 30
0.0
 11
-532.97309758196639
 21
-652.70319864633109
 31
0.0
  0
LINE
  5
E49E
  8
01
 10
-529.2230975819665
 20
-655.45320737180998
 30
0.0
 11
-528.5980975819665
 21
-655.57820882605654
 31
0.0
  0
LINE
  5
E49F
  8
01
 10
-533.5980975819665
 20
-654.57819719208464
 30
0.0
 11
-532.97309758196639
 21
-654.7031986463312
 31
0.0
  0
LINE
  5
E4A0
  8
01
 10
-528.5980975819665
 20
-653.57820882605654
 30
0.0
 11
-533.5980975819665
 21
-654.57819719208464
 31
0.0
  0
LINE
  5
E4A1
  8
01
 10
-533.5980975819665
 20
-656.57819719208476
 30
0.0
 11
-532.97309758196639
 21
-656.70319864633097
 31
0.0
  0
LINE
  5
E4A2
  8
01
 10
-528.5980975819665
 20
-655.57820882605654
 30
0.0
 11
-533.5980975819665
 21
-656.57819719208476
 31
0.0
  0
LINE
  5
E4A8
  8
01
 10
-516.5980975819665
 20
-651.57821356685372
 30
0.0
 11
-521.5980975819665
 21
-652.57820193288194
 31
0.0
  0
LINE
  5
E4A9
  8
01
 10
-517.22309758196639
 20
-651.45321211260728
 30
0.0
 11
-516.5980975819665
 21
-651.57821356685372
 31
0.0
  0
LINE
  5
E4AA
  8
01
 10
-517.22309758196639
 20
-653.45321211260705
 30
0.0
 11
-516.5980975819665
 21
-653.57821356685361
 31
0.0
  0
LINE
  5
E4AB
  8
01
 10
-521.5980975819665
 20
-652.57820193288194
 30
0.0
 11
-520.9730975819665
 21
-652.70320338712816
 31
0.0
  0
LINE
  5
E4AD
  8
01
 10
-517.22309758196639
 20
-655.45321211260705
 30
0.0
 11
-516.5980975819665
 21
-655.57821356685361
 31
0.0
  0
LINE
  5
E4AE
  8
01
 10
-521.5980975819665
 20
-654.57820193288183
 30
0.0
 11
-520.9730975819665
 21
-654.70320338712816
 31
0.0
  0
LINE
  5
E4AF
  8
01
 10
-516.5980975819665
 20
-653.57821356685361
 30
0.0
 11
-521.5980975819665
 21
-654.57820193288183
 31
0.0
  0
LINE
  5
E4B0
  8
01
 10
-521.5980975819665
 20
-656.57820193288183
 30
0.0
 11
-520.9730975819665
 21
-656.70320338712804
 31
0.0
  0
LINE
  5
E4B1
  8
01
 10
-516.5980975819665
 20
-655.57821356685361
 30
0.0
 11
-521.5980975819665
 21
-656.57820193288183
 31
0.0
  0
CIRCLE
  5
E5ED
  8
01
 10
-519.09809758196639
 20
-594.94759696144718
 30
0.0
 40
2.75
  0
CIRCLE
  5
E5EE
  8
01
 10
-519.09809758196639
 20
-581.09119050089612
 30
0.0
 40
2.75
  0
CIRCLE
  5
E719
  8
01
 10
-531.09809758196639
 20
-588.01939365546116
 30
0.0
 40
2.75
  0
LINE
  5
E71A
  8
01
 10
-534.03227982661519
 20
-588.01939365546116
 30
0.0
 11
-523.09809753749585
 21
-588.01939365546116
 31
0.0
  0
LINE
  5
E71B
  8
01
 10
-531.09809758196639
 20
-591.32816692328151
 30
0.0
 11
-531.09809758196639
 21
-584.83911722365121
 31
0.0
  0
LINE
  5
E71C
  8
01
 10
-521.90415319960675
 20
-581.09119050089612
 30
0.0
 11
-516.15308693419092
 21
-581.09119050089612
 31
0.0
  0
LINE
  5
E71D
  8
01
 10
-519.09809758196639
 20
-584.39996376871625
 30
0.0
 11
-519.09809758196639
 21
-577.91091406908595
 31
0.0
  0
LINE
  5
E71E
  8
01
 10
-521.96100666409393
 20
-594.94759696144718
 30
0.0
 11
-516.14102063157748
 21
-594.94759696144718
 31
0.0
  0
LINE
  5
E71F
  8
01
 10
-519.09809758196639
 20
-598.25637022926753
 30
0.0
 11
-519.09809758196639
 21
-591.76732052963723
 31
0.0
  0
LINE
  5
E7F7
  8
01
 10
-523.09809762527652
 20
-588.01939365546116
 30
0.0
 11
-517.29801777174919
 21
-577.97336066119522
 31
0.0
  0
LINE
  5
E7F8
  8
01
 10
-523.09809758196661
 20
-588.01939358044615
 30
0.0
 11
-517.2322430965055
 21
-598.1793515790705
 31
0.0
  0
LINE
  5
E9AA
  8
01
 10
-517.2322430965055
 20
-598.1793515790705
 30
0.0
 11
-508.10567522000139
 21
-613.98703083990199
 31
0.0
  0
LINE
  5
E9AD
  8
01
 10
-517.29801777174919
 20
-577.97336066119522
 30
0.0
 11
-508.10567522000127
 21
-562.05175632099053
 31
0.0
  0
ARC
  5
E9AE
  8
01
 10
-523.09809758196661
 20
-588.01939358044615
 30
0.0
 40
28.98484472393061
 50
303.95428388328082
 51
56.045716116718971
  0
LINE
  5
E9B2
  8
01
 10
-534.03227982661519
 20
-588.01939365546116
 30
0.0
 11
-553.20797576314135
 21
-588.01939365546104
 31
0.0
  0
LINE
  5
E9B3
  8
01
 10
-517.2322430965055
 20
-598.1793515790705
 30
0.0
 11
-508.04315842641432
 21
-614.09531310272098
 31
0.0
  0
ARC
  5
E9B4
  8
01
 10
-523.09809753865648
 20
-588.01939365546116
 30
0.0
 40
29.109878224484738
 50
183.93729263965849
 51
296.06270736034111
  0
LINE
  5
E9B8
  8
01
 10
-517.29801777174919
 20
-577.97336066119522
 30
0.0
 11
-508.05891007589889
 21
-561.97075671538187
 31
0.0
  0
LINE
  5
E9B9
  8
01
 10
-534.03227982661531
 20
-588.01939365546116
 30
0.0
 11
-553.17647272403201
 21
-588.01939365546127
 31
0.0
  0
ARC
  5
E9BA
  8
01
 10
-523.09809762527664
 20
-588.01939365546116
 30
0.0
 40
29.07837509875543
 50
63.941559932395357
 51
176.05844006760481
  0
LINE
  5
E9BE
  8
01
 10
-523.09809758196661
 20
-588.01939373117182
 30
0.0
 11
-523.09809758196661
 21
-611.50414010546854
 31
0.0
  0
LINE
  5
E9BF
  8
01
 10
-531.09809758196639
 20
-591.32816692328151
 30
0.0
 11
-531.09809758196639
 21
-611.50414010546854
 31
0.0
  0
LINE
  5
E9C0
  8
01
 10
-525.09809758196661
 20
-610.50414010546854
 30
0.0
 11
-529.0980975819665
 21
-610.50414010546854
 31
0.0
  0
LINE
  5
E9C4
  8
01
 10
-550.42676100559595
 20
-662.67996251896045
 30
0.0
 11
-549.30005443049743
 21
-661.55325594386181
 31
0.0
1001
ACAD
1010
0.0
1020
0.0
1030
0.0
  0
LINE
  5
E9C5
  8
01
 10
-550.42676100559606
 20
-664.92502654922782
 30
0.0
 11
-547.05499040023005
 21
-661.5532559438617
 31
0.0
1001
ACAD
1010
0.0
1020
0.0
1030
0.0
  0
LINE
  5
E9C6
  8
01
 10
-550.42676100559595
 20
-667.17009057949485
 30
0.0
 11
-544.80992636996291
 21
-661.55325594386181
 31
0.0
1001
ACAD
1010
0.0
1020
0.0
1030
0.0
  0
LINE
  5
E9C7
  8
01
 10
-550.42676100559595
 20
-669.41515460976211
 30
0.0
 11
-542.56486233969554
 21
-661.5532559438617
 31
0.0
1001
ACAD
1010
0.0
1020
0.0
1030
0.0
  0
LINE
  5
E9C8
  8
01
 10
-550.42676100559595
 20
-671.66021864002948
 30
0.0
 11
-540.31979830942817
 21
-661.5532559438617
 31
0.0
1001
ACAD
1010
0.0
1020
0.0
1030
0.0
  0
LINE
  5
E9C9
  8
01
 10
-549.07463472860275
 20
-672.55315639330354
 30
0.0
 11
-538.07473183588684
 21
-661.55325350058752
 31
0.0
1001
ACAD
1010
0.0
1020
0.0
1030
0.0
  0
LINE
  5
E9CA
  8
01
 10
-546.82957069833549
 20
-672.55315639330354
 30
0.0
 11
-535.82966071044234
 21
-661.55324640541039
 31
0.0
1001
ACAD
1010
0.0
1020
0.0
1030
0.0
  0
LINE
  5
E9CB
  8
01
 10
-544.58450666806834
 20
-672.55315639330365
 30
0.0
 11
-533.58458958499784
 21
-661.55323931023315
 31
0.0
1001
ACAD
1010
0.0
1020
0.0
1030
0.0
  0
LINE
  5
E9CC
  8
01
 10
-542.33944263780086
 20
-672.55315639330365
 30
0.0
 11
-532.97309758196616
 21
-663.18681133746884
 31
0.0
1001
ACAD
1010
0.0
1020
0.0
1030
0.0
  0
LINE
  5
E9CD
  8
01
 10
-540.09437860753349
 20
-672.55315639330342
 30
0.0
 11
-532.97309758196627
 21
-665.43187536773632
 31
0.0
1001
ACAD
1010
0.0
1020
0.0
1030
0.0
  0
LINE
  5
E9CE
  8
01
 10
-537.84931457726623
 20
-672.55315639330342
 30
0.0
 11
-532.97309758196627
 21
-667.67693939800358
 31
0.0
1001
ACAD
1010
0.0
1020
0.0
1030
0.0
  0
LINE
  5
E9CF
  8
01
 10
-528.82832165894035
 20
-663.53216347497755
 30
0.0
 11
-526.84937620866413
 21
-661.55321802470132
 31
0.0
1001
ACAD
1010
0.0
1020
0.0
1030
0.0
  0
LINE
  5
E9D0
  8
01
 10
-529.2230975819665
 20
-663.92693939800392
 30
0.0
 11
-528.9434333626258
 21
-663.64727517866288
 31
0.0
1001
ACAD
1010
0.0
1020
0.0
1030
0.0
  0
LINE
  5
E9D1
  8
01
 10
-535.60425054699886
 20
-672.55315639330342
 30
0.0
 11
-532.89725833075829
 21
-669.84616417706275
 31
0.0
1001
ACAD
1010
0.0
1020
0.0
1030
0.0
  0
LINE
  5
E9D2
  8
01
 10
-528.62410202969841
 20
-665.57300787600298
 30
0.0
 11
-524.60430508321963
 21
-661.55321092952408
 31
0.0
1001
ACAD
1010
0.0
1020
0.0
1030
0.0
  0
LINE
  5
E9D3
  8
01
 10
-529.2230975819665
 20
-666.17200342827095
 30
0.0
 11
-528.63710421574797
 21
-665.58601006205242
 31
0.0
1001
ACAD
1010
0.0
1020
0.0
1030
0.0
  0
LINE
  5
E9D4
  8
01
 10
-533.35918651673171
 20
-672.55315639330342
 30
0.0
 11
-532.40202387238901
 21
-671.59599374896072
 31
0.0
1001
ACAD
1010
0.0
1020
0.0
1030
0.0
  0
LINE
  5
E9D5
  8
01
 10
-529.2230975819665
 20
-668.41706745853833
 30
0.0
 11
-522.35923395777513
 21
-661.55320383434685
 31
0.0
1001
ACAD
1010
0.0
1020
0.0
1030
0.0
  0
LINE
  5
E9D6
  8
01
 10
-529.65096275796702
 20
-671.08999666480611
 30
0.0
 11
-521.21565702691385
 21
-662.65469093375293
 31
0.0
1001
ACAD
1010
0.0
1020
0.0
1030
0.0
  0
LINE
  5
E9D7
  8
01
 10
-521.02443730554899
 20
-662.46347121238807
 30
0.0
 11
-520.97309758196627
 21
-662.41213148880536
 31
0.0
1001
ACAD
1010
0.0
1020
0.0
1030
0.0
  0
LINE
  5
E9D8
  8
01
 10
-528.86905845619719
 20
-672.55315639330342
 30
0.0
 11
-521.01143739767201
 21
-664.69553533477824
 31
0.0
1001
ACAD
1010
0.0
1020
0.0
1030
0.0
  0
LINE
  5
E9D9
  8
01
 10
-526.62399442592971
 20
-672.55315639330354
 30
0.0
 11
-520.97309758196661
 21
-666.90225954934022
 31
0.0
1001
ACAD
1010
0.0
1020
0.0
1030
0.0
  0
LINE
  5
E9DA
  8
01
 10
-517.2230975819665
 20
-663.15225954934022
 30
0.0
 11
-515.62402058144153
 21
-661.55318254881513
 31
0.0
1001
ACAD
1010
0.0
1020
0.0
1030
0.0
  0
LINE
  5
E9DB
  8
01
 10
-524.37893039566245
 20
-672.55315639330342
 30
0.0
 11
-520.97309758196627
 21
-669.14732357960725
 31
0.0
1001
ACAD
1010
0.0
1020
0.0
1030
0.0
  0
LINE
  5
E9DC
  8
01
 10
-517.22309758196639
 20
-665.39732357960736
 30
0.0
 11
-513.37894945599692
 21
-661.55317545363778
 31
0.0
1001
ACAD
1010
0.0
1020
0.0
1030
0.0
  0
LINE
  5
E9DD
  8
01
 10
-522.13386636539497
 20
-672.5531563933032
 30
0.0
 11
-520.57291009117648
 21
-670.99220011908483
 31
0.0
1001
ACAD
1010
0.0
1020
0.0
1030
0.0
  0
LINE
  5
E9DE
  8
01
 10
-517.06545163991825
 20
-667.48474166782648
 30
0.0
 11
-511.13387833055231
 21
-661.55316835846054
 31
0.0
1001
ACAD
1010
0.0
1020
0.0
1030
0.0
  0
LINE
  5
E9DF
  8
01
 10
-517.34516592863451
 20
-670.00951998680989
 30
0.0
 11
-516.99880927396362
 21
-669.66316333213899
 31
0.0
1001
ACAD
1010
0.0
1020
0.0
1030
0.0
  0
LINE
  5
E9E0
  8
01
 10
-516.86123201067642
 20
-669.52558606885191
 30
0.0
 11
-508.88880720510758
 21
-661.55316126328319
 31
0.0
1001
ACAD
1010
0.0
1020
0.0
1030
0.0
  0
LINE
  5
E9E1
  8
01
 10
-517.64373830486079
 20
-672.55315639330365
 30
0.0
 11
-506.64373830486068
 21
-661.55315639330354
 31
0.0
1001
ACAD
1010
0.0
1020
0.0
1030
0.0
  0
LINE
  5
E9E2
  8
01
 10
-515.39867427459353
 20
-672.55315639330354
 30
0.0
 11
-504.39867427459342
 21
-661.55315639330354
 31
0.0
1001
ACAD
1010
0.0
1020
0.0
1030
0.0
  0
LINE
  5
E9E3
  8
01
 10
-513.15361024432639
 20
-672.55315639330365
 30
0.0
 11
-502.15361024432622
 21
-661.55315639330354
 31
0.0
1001
ACAD
1010
0.0
1020
0.0
1030
0.0
  0
LINE
  5
E9E4
  8
01
 10
-510.90854621405902
 20
-672.55315639330365
 30
0.0
 11
-499.90854621405879
 21
-661.55315639330365
 31
0.0
1001
ACAD
1010
0.0
1020
0.0
1030
0.0
  0
LINE
  5
E9E5
  8
01
 10
-508.66348218379159
 20
-672.55315639330365
 30
0.0
 11
-497.66348218379147
 21
-661.55315639330365
 31
0.0
1001
ACAD
1010
0.0
1020
0.0
1030
0.0
  0
LINE
  5
E9E6
  8
01
 10
-506.41841815352439
 20
-672.55315639330365
 30
0.0
 11
-495.41841815352433
 21
-661.55315639330365
 31
0.0
1001
ACAD
1010
0.0
1020
0.0
1030
0.0
  0
LINE
  5
E9E7
  8
01
 10
-504.17335412325713
 20
-672.55315639330365
 30
0.0
 11
-493.17335412325713
 21
-661.55315639330365
 31
0.0
1001
ACAD
1010
0.0
1020
0.0
1030
0.0
  0
LINE
  5
E9E8
  8
01
 10
-501.9282900929897
 20
-672.55315639330354
 30
0.0
 11
-490.9282900929897
 21
-661.55315639330365
 31
0.0
1001
ACAD
1010
0.0
1020
0.0
1030
0.0
  0
LINE
  5
E9E9
  8
01
 10
-499.6832260627225
 20
-672.55315639330354
 30
0.0
 11
-488.68322606272261
 21
-661.55315639330365
 31
0.0
1001
ACAD
1010
0.0
1020
0.0
1030
0.0
  0
LINE
  5
E9EA
  8
01
 10
-497.43816203245518
 20
-672.55315639330354
 30
0.0
 11
-486.4381620324553
 21
-661.55315639330365
 31
0.0
1001
ACAD
1010
0.0
1020
0.0
1030
0.0
  0
LINE
  5
E9EB
  8
01
 10
-495.1930980021877
 20
-672.55315639330342
 30
0.0
 11
-484.19309800218798
 21
-661.55315639330365
 31
0.0
1001
ACAD
1010
0.0
1020
0.0
1030
0.0
  0
LINE
  5
E9EC
  8
01
 10
-492.94803397192061
 20
-672.55315639330365
 30
0.0
 11
-481.94803397192072
 21
-661.55315639330365
 31
0.0
1001
ACAD
1010
0.0
1020
0.0
1030
0.0
  0
LINE
  5
E9ED
  8
01
 10
-490.70296994165329
 20
-672.55315639330354
 30
0.0
 11
-480.27244294414322
 21
-662.12262939579352
 31
0.0
1001
ACAD
1010
0.0
1020
0.0
1030
0.0
  0
LINE
  5
E9EE
  8
01
 10
-488.45790591138598
 20
-672.55315639330354
 30
0.0
 11
-480.27244294414322
 21
-664.36769342606067
 31
0.0
1001
ACAD
1010
0.0
1020
0.0
1030
0.0
  0
LINE
  5
E9EF
  8
01
 10
-486.21284188111849
 20
-672.55315639330342
 30
0.0
 11
-480.27244294414322
 21
-666.61275745632804
 31
0.0
1001
ACAD
1010
0.0
1020
0.0
1030
0.0
  0
LINE
  5
E9F0
  8
01
 10
-483.96777785085129
 20
-672.55315639330342
 30
0.0
 11
-480.27244294414311
 21
-668.85782148659518
 31
0.0
1001
ACAD
1010
0.0
1020
0.0
1030
0.0
  0
LINE
  5
E9F1
  8
01
 10
-481.72271382058409
 20
-672.55315639330342
 30
0.0
 11
-480.27244294414322
 21
-671.10288551686244
 31
0.0
1001
ACAD
1010
0.0
1020
0.0
1030
0.0
  0
LINE
  5
E9F2
  8
01
 10
-576.04368195249333
 20
-623.05286386501825
 30
0.0
 11
-552.63671034039805
 21
-623.05286386501825
 31
0.0
  0
LINE
  5
E9F3
  8
01
 10
-538.84795478496574
 20
-624.5532559440411
 30
0.0
 11
-554.63671034039805
 21
-624.5532559440411
 31
0.0
  0
LINE
  5
E9F4
  8
01
 10
-553.63671034039805
 20
-626.55325594404098
 30
0.0
 11
-553.63671034039805
 21
-628.5532559440411
 31
0.0
  0
LINE
  5
E9F5
  8
01
 10
-553.63671034039805
 20
-621.05286386501825
 30
0.0
 11
-553.63671034039805
 21
-610.8195305316849
 31
0.0
  0
LINE
  5
E9F6
  8
01
 10
-553.63671034039805
 20
-624.5532559440411
 30
0.0
 11
-553.63671034039805
 21
-623.05286386501825
 31
0.0
  0
LINE
  5
E9FA
  8
01
 10
-538.84795478496574
 20
-624.5532559440411
 30
0.0
 11
-554.63671034039805
 21
-624.5532559440411
 31
0.0
  0
LINE
  5
E9FB
  8
01
 10
-550.42676100559606
 20
-661.5532559438617
 30
0.0
 11
-554.63671034039805
 21
-661.5532559438617
 31
0.0
  0
LINE
  5
E9FC
  8
01
 10
-553.63671034039805
 20
-626.55325594404098
 30
0.0
 11
-553.63671034039805
 21
-659.55325594386159
 31
0.0
  0
TEXT
  5
EA02
  8
01
 10
-576.03882034319747
 20
-533.63665045818095
 30
0.0
 40
3.5
  1
材質：ポリアセタール
  0
TEXT
  5
EA03
  8
01
 10
-576.03882034319747
 20
-539.46998379151444
 30
0.0
 40
3.5
  1
仕上げ：ブラック
  0
TEXT
  5
EA06
  8
01
 10
-525.03315184285202
 20
-486.06378807847221
 30
0.0
 40
3.5
  1
材質：ナイロン+エラストマー
  0
TEXT
  5
EA07
  8
01
 10
-525.03315184285202
 20
-491.89712141180547
 30
0.0
 40
3.5
  1
仕上げ：ブラック
  0
LINE
  5
EA08
  8
01
 10
-457.1006821642618
 20
-672.62682906992154
 30
0.0
 11
-457.0270094876438
 21
-672.55315639330342
 31
0.0
1001
ACAD
1010
0.0
1020
0.0
1030
0.0
  0
LINE
  5
EA09
  8
01
 10
-457.10068216426191
 20
-679.36202116072332
 30
0.0
 11
-450.29181739684191
 21
-672.5531563933032
 31
0.0
1001
ACAD
1010
0.0
1020
0.0
1030
0.0
  0
LINE
  5
EA0A
  8
01
 10
-457.1006821642618
 20
-686.0972132515252
 30
0.0
 11
-450.80517323479762
 21
-679.80170432206103
 31
0.0
1001
ACAD
1010
0.0
1020
0.0
1030
0.0
  0
LINE
  5
EA0B
  8
01
 10
-446.34834174798641
 20
-675.34487283524993
 30
0.0
 11
-443.55662530604002
 21
-672.55315639330342
 31
0.0
1001
ACAD
1010
0.0
1020
0.0
1030
0.0
  0
LINE
  5
EA0C
  8
01
 10
-457.10068216426191
 20
-692.83240534232709
 30
0.0
 11
-447.02981632385132
 21
-682.76153950191645
 31
0.0
1001
ACAD
1010
0.0
1020
0.0
1030
0.0
  0
LINE
  5
EA0D
  8
01
 10
-445.55517323479762
 20
-681.28689641286292
 30
0.0
 11
-436.82143321523819
 21
-672.55315639330342
 31
0.0
1001
ACAD
1010
0.0
1020
0.0
1030
0.0
  0
LINE
  5
EA0E
  8
01
 10
-457.1006821642618
 20
-699.56759743312875
 30
0.0
 11
-430.0862411244363
 21
-672.55315639330342
 31
0.0
1001
ACAD
1010
0.0
1020
0.0
1030
0.0
  0
LINE
  5
EA0F
  8
01
 10
-457.1006821642618
 20
-706.30278952393076
 30
0.0
 11
-428.4127869946401
 21
-677.61489435430906
 31
0.0
1001
ACAD
1010
0.0
1020
0.0
1030
0.0
  0
LINE
  5
EA10
  8
01
 10
-457.10068216426191
 20
-713.03798161473264
 30
0.0
 11
-428.06122713290449
 21
-683.99852658337534
 31
0.0
1001
ACAD
1010
0.0
1020
0.0
1030
0.0
  0
LINE
  5
EA11
  8
01
 10
-451.81539347732161
 20
-714.4878850185944
 30
0.0
 11
-428.41278699464021
 21
-691.08527853591295
 31
0.0
1001
ACAD
1010
0.0
1020
0.0
1030
0.0
  0
LINE
  5
EA12
  8
01
 10
-416.41278699464033
 20
-679.08527853591295
 30
0.0
 11
-409.88066485203058
 21
-672.55315639330342
 31
0.0
1001
ACAD
1010
0.0
1020
0.0
1030
0.0
  0
LINE
  5
EA13
  8
01
 10
-445.08020138651978
 20
-714.48788501859428
 30
0.0
 11
-427.14552253650839
 21
-696.55320616858307
 31
0.0
1001
ACAD
1010
0.0
1020
0.0
1030
0.0
  0
LINE
  5
EA14
  8
01
 10
-416.41278699464033
 20
-685.82047062671484
 30
0.0
 11
-403.14547276122869
 21
-672.55315639330342
 31
0.0
1001
ACAD
1010
0.0
1020
0.0
1030
0.0
  0
LINE
  5
EA15
  8
01
 10
-438.34500929571777
 20
-714.48788501859406
 30
0.0
 11
-428.12112032797359
 21
-704.26399605084987
 31
0.0
1001
ACAD
1010
0.0
1020
0.0
1030
0.0
  0
LINE
  5
EA16
  8
01
 10
-416.41278699464033
 20
-692.55566271751673
 30
0.0
 11
-396.41028067042703
 21
-672.55315639330342
 31
0.0
1001
ACAD
1010
0.0
1020
0.0
1030
0.0
  0
LINE
  5
EA17
  8
01
 10
-423.69436295167708
 20
-699.83723867455342
 30
0.0
 11
-420.41033044570639
 21
-696.55320616858285
 31
0.0
1001
ACAD
1010
0.0
1020
0.0
1030
0.0
  0
LINE
  5
EA18
  8
01
 10
-431.609817204916
 20
-714.48788501859428
 30
0.0
 11
-422.20917086087508
 21
-705.08723867455342
 31
0.0
1001
ACAD
1010
0.0
1020
0.0
1030
0.0
  0
LINE
  5
EA19
  8
01
 10
-416.95917086087508
 20
-699.83723867455342
 30
0.0
 11
-390.55294082190858
 21
-673.43100863558675
 31
0.0
1001
ACAD
1010
0.0
1020
0.0
1030
0.0
  0
LINE
  5
EA1A
  8
01
 10
-424.87462511411411
 20
-714.48788501859428
 30
0.0
 11
-421.99632982481938
 21
-711.6095897292995
 31
0.0
1001
ACAD
1010
0.0
1020
0.0
1030
0.0
  0
LINE
  5
EA1B
  8
01
 10
-417.64062374965022
 20
-707.25388365413016
 30
0.0
 11
-390.55294082190858
 21
-680.16620072638864
 31
0.0
1001
ACAD
1010
0.0
1020
0.0
1030
0.0
  0
LINE
  5
EA1C
  8
01
 10
-418.13943302331222
 20
-714.4878850185944
 30
0.0
 11
-416.30543165884842
 21
-712.65388365413025
 31
0.0
1001
ACAD
1010
0.0
1020
0.0
1030
0.0
  0
LINE
  5
EA1D
  8
01
 10
-410.90543165884827
 20
-707.25388365413039
 30
0.0
 11
-390.55294082190858
 21
-686.90139281719075
 31
0.0
1001
ACAD
1010
0.0
1020
0.0
1030
0.0
  0
LINE
  5
EA1E
  8
01
 10
-411.40424093251039
 20
-714.4878850185944
 30
0.0
 11
-409.57023956804647
 21
-712.65388365413025
 31
0.0
1001
ACAD
1010
0.0
1020
0.0
1030
0.0
  0
LINE
  5
EA1F
  8
01
 10
-404.1702395680465
 20
-707.25388365413039
 30
0.0
 11
-390.55294082190858
 21
-693.63658490799253
 31
0.0
1001
ACAD
1010
0.0
1020
0.0
1030
0.0
  0
LINE
  5
EA20
  8
01
 10
-404.66904884170867
 20
-714.4878850185944
 30
0.0
 11
-402.83504747724459
 21
-712.65388365413025
 31
0.0
1001
ACAD
1010
0.0
1020
0.0
1030
0.0
  0
LINE
  5
EA21
  8
01
 10
-397.43504747724472
 20
-707.25388365413016
 30
0.0
 11
-390.55294082190869
 21
-700.3717769987943
 31
0.0
1001
ACAD
1010
0.0
1020
0.0
1030
0.0
  0
LINE
  5
EA22
  8
01
 10
-397.93385675090678
 20
-714.4878850185944
 30
0.0
 11
-396.09985538644281
 21
-712.65388365413025
 31
0.0
1001
ACAD
1010
0.0
1020
0.0
1030
0.0
  0
LINE
  5
EA23
  8
01
 10
-392.46299649148591
 20
-709.01702475917352
 30
0.0
 11
-390.55294082190869
 21
-707.1069690895963
 31
0.0
1001
ACAD
1010
0.0
1020
0.0
1030
0.0
  0
LINE
  5
EA24
  8
01
 10
-391.1986646601049
 20
-714.48788501859428
 30
0.0
 11
-390.55294082190869
 21
-713.84216118039808
 31
0.0
1001
ACAD
1010
0.0
1020
0.0
1030
0.0
  0
LINE
  5
EA25
  8
01
 10
-457.10068216426191
 20
-674.87189406992138
 30
0.0
 11
-454.78194448764378
 21
-672.55315639330342
 31
0.0
1001
ACAD
1010
0.0
1020
0.0
1030
0.0
  0
LINE
  5
EA26
  8
01
 10
-457.1006821642618
 20
-681.60708616072316
 30
0.0
 11
-448.04675239684178
 21
-672.5531563933032
 31
0.0
1001
ACAD
1010
0.0
1020
0.0
1030
0.0
  0
LINE
  5
EA27
  8
01
 10
-457.1006821642618
 20
-688.34227825152516
 30
0.0
 11
-450.80517323479762
 21
-682.04676932206087
 31
0.0
1001
ACAD
1010
0.0
1020
0.0
1030
0.0
  0
LINE
  5
EA28
  8
01
 10
-445.55517323479762
 20
-676.79676932206098
 30
0.0
 11
-441.31156030604012
 21
-672.55315639330342
 31
0.0
1001
ACAD
1010
0.0
1020
0.0
1030
0.0
  0
LINE
  5
EA29
  8
01
 10
-457.1006821642618
 20
-695.07747034232705
 30
0.0
 11
-434.57636821523818
 21
-672.55315639330342
 31
0.0
1001
ACAD
1010
0.0
1020
0.0
1030
0.0
  0
LINE
  5
EA2A
  8
01
 10
-457.10068216426191
 20
-701.81266243312893
 30
0.0
 11
-428.4127869946401
 21
-673.12476726350735
 31
0.0
1001
ACAD
1010
0.0
1020
0.0
1030
0.0
  0
LINE
  5
EA2B
  8
01
 10
-457.10068216426191
 20
-708.54785452393082
 30
0.0
 11
-428.41278699464033
 21
-679.85995935430924
 31
0.0
1001
ACAD
1010
0.0
1020
0.0
1030
0.0
  0
LINE
  5
EA2C
  8
01
 10
-456.30552056812343
 20
-714.48788501859428
 30
0.0
 11
-428.37084171811182
 21
-686.55320616858262
 31
0.0
1001
ACAD
1010
0.0
1020
0.0
1030
0.0
  0
LINE
  5
EA2D
  8
01
 10
-416.41278699464021
 20
-674.5951514451109
 30
0.0
 11
-414.37079194283251
 21
-672.5531563933032
 31
0.0
1001
ACAD
1010
0.0
1020
0.0
1030
0.0
  0
LINE
  5
EA2E
  8
01
 10
-449.5703284773216
 20
-714.4878850185944
 30
0.0
 11
-428.4127869946401
 21
-693.33034353591279
 31
0.0
1001
ACAD
1010
0.0
1020
0.0
1030
0.0
  0
LINE
  5
EA2F
  8
01
 10
-416.41278699464033
 20
-681.33034353591313
 30
0.0
 11
-407.63559985203051
 21
-672.55315639330342
 31
0.0
1001
ACAD
1010
0.0
1020
0.0
1030
0.0
  0
LINE
  5
EA30
  8
01
 10
-442.83513638651971
 20
-714.48788501859428
 30
0.0
 11
-424.90045753650821
 21
-696.55320616858285
 31
0.0
1001
ACAD
1010
0.0
1020
0.0
1030
0.0
  0
LINE
  5
EA31
  8
01
 10
-416.41278699464021
 20
-688.0655356267149
 30
0.0
 11
-400.90040776122879
 21
-672.55315639330342
 31
0.0
1001
ACAD
1010
0.0
1020
0.0
1030
0.0
  0
LINE
  5
EA32
  8
01
 10
-436.09994429571782
 20
-714.48788501859406
 30
0.0
 11
-426.69929795167701
 21
-705.08723867455342
 31
0.0
1001
ACAD
1010
0.0
1020
0.0
1030
0.0
  0
LINE
  5
EA33
  8
01
 10
-416.41278699464021
 20
-694.80072771751668
 30
0.0
 11
-394.16521567042702
 21
-672.55315639330342
 31
0.0
1001
ACAD
1010
0.0
1020
0.0
1030
0.0
  0
LINE
  5
EA34
  8
01
 10
-421.44929795167701
 20
-699.83723867455342
 30
0.0
 11
-418.16526544570621
 21
-696.55320616858262
 31
0.0
1001
ACAD
1010
0.0
1020
0.0
1030
0.0
  0
LINE
  5
EA35
  8
01
 10
-429.36475220491599
 20
-714.48788501859428
 30
0.0
 11
-419.96410586087518
 21
-705.08723867455342
 31
0.0
1001
ACAD
1010
0.0
1020
0.0
1030
0.0
  0
LINE
  5
EA36
  8
01
 10
-416.7044536613069
 20
-701.8275864749852
 30
0.0
 11
-390.55294082190858
 21
-675.67607363558693
 31
0.0
1001
ACAD
1010
0.0
1020
0.0
1030
0.0
  0
LINE
  5
EA37
  8
01
 10
-422.6295601141141
 20
-714.48788501859428
 30
0.0
 11
-420.79555874965013
 21
-712.65388365413025
 31
0.0
1001
ACAD
1010
0.0
1020
0.0
1030
0.0
  0
LINE
  5
EA38
  8
01
 10
-415.39555874965009
 20
-707.25388365413016
 30
0.0
 11
-390.55294082190858
 21
-682.41126572638871
 31
0.0
1001
ACAD
1010
0.0
1020
0.0
1030
0.0
  0
LINE
  5
EA39
  8
01
 10
-415.89436802331221
 20
-714.4878850185944
 30
0.0
 11
-414.0603666588483
 21
-712.65388365413025
 31
0.0
1001
ACAD
1010
0.0
1020
0.0
1030
0.0
  0
LINE
  5
EA3A
  8
01
 10
-408.66036665884837
 20
-707.25388365413039
 30
0.0
 11
-390.55294082190869
 21
-689.14645781719059
 31
0.0
1001
ACAD
1010
0.0
1020
0.0
1030
0.0
  0
LINE
  5
EA3B
  8
01
 10
-409.15917593251038
 20
-714.4878850185944
 30
0.0
 11
-407.32517456804641
 21
-712.65388365413025
 31
0.0
1001
ACAD
1010
0.0
1020
0.0
1030
0.0
  0
LINE
  5
EA3C
  8
01
 10
-401.92517456804649
 20
-707.25388365413039
 30
0.0
 11
-390.55294082190869
 21
-695.8816499079926
 31
0.0
1001
ACAD
1010
0.0
1020
0.0
1030
0.0
  0
LINE
  5
EA3D
  8
01
 10
-402.42398384170872
 20
-714.4878850185944
 30
0.0
 11
-400.58998247724458
 21
-712.65388365413025
 31
0.0
1001
ACAD
1010
0.0
1020
0.0
1030
0.0
  0
LINE
  5
EA3E
  8
01
 10
-395.1899824772446
 20
-707.25388365413016
 30
0.0
 11
-390.55294082190869
 21
-702.61684199879437
 31
0.0
1001
ACAD
1010
0.0
1020
0.0
1030
0.0
  0
LINE
  5
EA3F
  8
01
 10
-395.68879175090677
 20
-714.4878850185944
 30
0.0
 11
-393.8547903864428
 21
-712.65388365413025
 31
0.0
1001
ACAD
1010
0.0
1020
0.0
1030
0.0
  0
LINE
  5
EA40
  8
01
 10
-392.46299649148602
 20
-711.2620897591737
 30
0.0
 11
-390.55294082190881
 21
-709.35203408959626
 31
0.0
1001
ACAD
1010
0.0
1020
0.0
1030
0.0
  0
TEXT
  5
EA43
  8
01
 10
-590.18625024657456
 20
-562.99331373070618
 30
0.0
 40
3.5
  1
材質：亜鉛ダイキャスト
  0
TEXT
  5
EA44
  8
01
 10
-590.18625024657456
 20
-568.82664706403955
 30
0.0
 40
3.5
  1
仕上げ：各種メッキ
  0
TEXT
  5
EA47
  8
01
 10
-516.15529999466378
 20
-506.62569489982161
 30
0.0
 40
3.5
  1
材質：亜鉛ダイキャスト
  0
TEXT
  5
EA48
  8
01
 10
-516.15529999466378
 20
-512.45902823315487
 30
0.0
 40
3.5
  1
仕上げ：各種メッキ
  0
LINE
  5
EA49
  8
01
 10
-444.30062610248729
 20
-545.16211457991824
 30
0.0
 11
-427.84878751351368
 21
-545.16211457991824
 31
0.0
  0
LINE
  5
EA4A
  8
01
 10
-444.30062610248729
 20
-555.16211457991824
 30
0.0
 11
-427.84878751351368
 21
-555.16211457991824
 31
0.0
  0
LINE
  5
EA4B
  8
01
 10
-428.8487875135138
 20
-547.16211457991824
 30
0.0
 11
-428.8487875135138
 21
-553.16211457991824
 31
0.0
  0
LINE
  5
EA4F
  8
01
 10
-443.18850096120519
 20
-531.66211457991824
 30
0.0
 11
-427.84878751351368
 21
-531.66211457991824
 31
0.0
  0
LINE
  5
EA50
  8
01
 10
-444.30062610248729
 20
-545.16211457991824
 30
0.0
 11
-427.84878751351368
 21
-545.16211457991824
 31
0.0
  0
LINE
  5
EA51
  8
01
 10
-428.8487875135138
 20
-533.66211457991824
 30
0.0
 11
-428.8487875135138
 21
-543.16211457991824
 31
0.0
  0
LINE
  5
EA55
  8
01
 10
-443.18850096120519
 20
-531.66211457991824
 30
0.0
 11
-421.04530614938147
 21
-531.66211457991824
 31
0.0
  0
LINE
  5
EA56
  8
01
 10
-438.9385009437953
 20
-568.65336571356568
 30
0.0
 11
-421.04530614938147
 21
-568.65336571356568
 31
0.0
  0
LINE
  5
EA57
  8
01
 10
-422.04530614938147
 20
-533.66211457991824
 30
0.0
 11
-422.04530614938147
 21
-566.65336571356579
 31
0.0
  0
LINE
  5
EA5B
  8
01
 10
-457.1006821642618
 20
-661.60708519099046
 30
0.0
 11
-457.04680314185401
 21
-661.55320616858273
 31
0.0
1001
ACAD
1010
0.0
1020
0.0
1030
0.0
  0
LINE
  5
EA5C
  8
01
 10
-457.1006821642618
 20
-663.85214922125783
 30
0.0
 11
-454.80173911158681
 21
-661.55320616858273
 31
0.0
1001
ACAD
1010
0.0
1020
0.0
1030
0.0
  0
LINE
  5
EA5D
  8
01
 10
-457.10068216426168
 20
-666.09721325152509
 30
0.0
 11
-452.5566750813195
 21
-661.55320616858285
 31
0.0
1001
ACAD
1010
0.0
1020
0.0
1030
0.0
  0
LINE
  5
EA5E
  8
01
 10
-457.10068216426168
 20
-668.34227728179235
 30
0.0
 11
-450.31161105105213
 21
-661.55320616858273
 31
0.0
1001
ACAD
1010
0.0
1020
0.0
1030
0.0
  0
LINE
  5
EA5F
  8
01
 10
-457.10068216426168
 20
-670.58734131205949
 30
0.0
 11
-448.06654702078481
 21
-661.55320616858273
 31
0.0
1001
ACAD
1010
0.0
1020
0.0
1030
0.0
  0
LINE
  5
EA60
  8
01
 10
-456.82143321523819
 20
-672.55315639330342
 30
0.0
 11
-445.8214829905175
 21
-661.55320616858273
 31
0.0
1001
ACAD
1010
0.0
1020
0.0
1030
0.0
  0
LINE
  5
EA61
  8
01
 10
-454.57636918497087
 20
-672.55315639330342
 30
0.0
 11
-443.57641896025012
 21
-661.55320616858262
 31
0.0
1001
ACAD
1010
0.0
1020
0.0
1030
0.0
  0
LINE
  5
EA62
  8
01
 10
-452.3313051547035
 20
-672.55315639330342
 30
0.0
 11
-441.33135492998292
 21
-661.55320616858262
 31
0.0
1001
ACAD
1010
0.0
1020
0.0
1030
0.0
  0
LINE
  5
EA63
  8
01
 10
-450.0862411244363
 20
-672.55315639330342
 30
0.0
 11
-439.08629089971561
 21
-661.55320616858262
 31
0.0
1001
ACAD
1010
0.0
1020
0.0
1030
0.0
  0
LINE
  5
EA64
  8
01
 10
-447.8411770941691
 20
-672.55315639330342
 30
0.0
 11
-436.84122686944829
 21
-661.55320616858262
 31
0.0
1001
ACAD
1010
0.0
1020
0.0
1030
0.0
  0
LINE
  5
EA65
  8
01
 10
-445.59611306390178
 20
-672.55315639330354
 30
0.0
 11
-434.59616283918092
 21
-661.55320616858262
 31
0.0
1001
ACAD
1010
0.0
1020
0.0
1030
0.0
  0
LINE
  5
EA66
  8
01
 10
-443.35104903363441
 20
-672.55315639330342
 30
0.0
 11
-432.35109880891372
 21
-661.55320616858262
 31
0.0
1001
ACAD
1010
0.0
1020
0.0
1030
0.0
  0
LINE
  5
EA67
  8
01
 10
-441.10598500336721
 20
-672.55315639330342
 30
0.0
 11
-430.10603477864652
 21
-661.55320616858262
 31
0.0
1001
ACAD
1010
0.0
1020
0.0
1030
0.0
  0
LINE
  5
EA68
  8
01
 10
-438.86092097309989
 20
-672.55315639330342
 30
0.0
 11
-428.41278699464033
 21
-662.10502241484369
 31
0.0
1001
ACAD
1010
0.0
1020
0.0
1030
0.0
  0
LINE
  5
EA69
  8
01
 10
-436.61585694283258
 20
-672.5531563933032
 30
0.0
 11
-428.41278699464033
 21
-664.35008644511106
 31
0.0
1001
ACAD
1010
0.0
1020
0.0
1030
0.0
  0
LINE
  5
EA6A
  8
01
 10
-434.37079291256538
 20
-672.55315639330342
 30
0.0
 11
-428.41278699464033
 21
-666.59515047537843
 31
0.0
1001
ACAD
1010
0.0
1020
0.0
1030
0.0
  0
LINE
  5
EA6B
  8
01
 10
-432.12572888229801
 20
-672.55315639330342
 30
0.0
 11
-428.41278699464033
 21
-668.84021450564569
 31
0.0
1001
ACAD
1010
0.0
1020
0.0
1030
0.0
  0
LINE
  5
EA6C
  8
01
 10
-429.8806648520308
 20
-672.55315639330342
 30
0.0
 11
-428.41278699464033
 21
-671.08527853591295
 31
0.0
1001
ACAD
1010
0.0
1020
0.0
1030
0.0
  0
LINE
  5
EA6D
  8
01
 10
-416.41278699464021
 20
-663.57540659644746
 30
0.0
 11
-414.39058656677543
 21
-661.55320616858262
 31
0.0
1001
ACAD
1010
0.0
1020
0.0
1030
0.0
  0
LINE
  5
EA6E
  8
01
 10
-416.41278699464033
 20
-665.82047062671484
 30
0.0
 11
-412.14552253650811
 21
-661.55320616858262
 31
0.0
1001
ACAD
1010
0.0
1020
0.0
1030
0.0
  0
LINE
  5
EA6F
  8
01
 10
-416.41278699464033
 20
-668.06553465698209
 30
0.0
 11
-409.9004585062408
 21
-661.55320616858273
 31
0.0
1001
ACAD
1010
0.0
1020
0.0
1030
0.0
  0
LINE
  5
EA70
  8
01
 10
-416.41278699464033
 20
-670.31059868724935
 30
0.0
 11
-407.65539447597348
 21
-661.55320616858262
 31
0.0
1001
ACAD
1010
0.0
1020
0.0
1030
0.0
  0
LINE
  5
EA71
  8
01
 10
-416.41028067042691
 20
-672.55315639330308
 30
0.0
 11
-405.41033044570628
 21
-661.55320616858262
 31
0.0
1001
ACAD
1010
0.0
1020
0.0
1030
0.0
  0
LINE
  5
EA72
  8
01
 10
-414.16521664015971
 20
-672.55315639330342
 30
0.0
 11
-403.16526641543908
 21
-661.55320616858285
 31
0.0
1001
ACAD
1010
0.0
1020
0.0
1030
0.0
  0
LINE
  5
EA73
  8
01
 10
-411.92015260989228
 20
-672.55315639330308
 30
0.0
 11
-400.92020238517182
 21
-661.55320616858285
 31
0.0
1001
ACAD
1010
0.0
1020
0.0
1030
0.0
  0
LINE
  5
EA74
  8
01
 10
-409.6750885796252
 20
-672.55315639330342
 30
0.0
 11
-398.6751383549045
 21
-661.55320616858285
 31
0.0
1001
ACAD
1010
0.0
1020
0.0
1030
0.0
  0
LINE
  5
EA75
  8
01
 10
-407.43002454935782
 20
-672.5531563933032
 30
0.0
 11
-396.43007432463719
 21
-661.55320616858285
 31
0.0
1001
ACAD
1010
0.0
1020
0.0
1030
0.0
  0
LINE
  5
EA76
  8
01
 10
-405.18496051909062
 20
-672.55315639330342
 30
0.0
 11
-394.18501029436987
 21
-661.55320616858273
 31
0.0
1001
ACAD
1010
0.0
1020
0.0
1030
0.0
  0
LINE
  5
EA77
  8
01
 10
-402.93989648882319
 20
-672.5531563933032
 30
0.0
 11
-391.93994626410267
 21
-661.55320616858285
 31
0.0
1001
ACAD
1010
0.0
1020
0.0
1030
0.0
  0
LINE
  5
EA78
  8
01
 10
-400.69483245855611
 20
-672.55315639330342
 30
0.0
 11
-390.55294082190881
 21
-662.41126475665612
 31
0.0
1001
ACAD
1010
0.0
1020
0.0
1030
0.0
  0
LINE
  5
EA79
  8
01
 10
-398.44976842828868
 20
-672.55315639330342
 30
0.0
 11
-390.55294082190869
 21
-664.65632878692338
 31
0.0
1001
ACAD
1010
0.0
1020
0.0
1030
0.0
  0
LINE
  5
EA7A
  8
01
 10
-396.20470439802159
 20
-672.55315639330342
 30
0.0
 11
-390.55294082190881
 21
-666.90139281719075
 31
0.0
1001
ACAD
1010
0.0
1020
0.0
1030
0.0
  0
LINE
  5
EA7B
  8
01
 10
-393.95964036775439
 20
-672.55315639330365
 30
0.0
 11
-390.55294082190858
 21
-669.14645684745801
 31
0.0
1001
ACAD
1010
0.0
1020
0.0
1030
0.0
  0
LINE
  5
EA7C
  8
01
 10
-391.71457633748702
 20
-672.55315639330354
 30
0.0
 11
-390.55294082190869
 21
-671.39152087772516
 31
0.0
1001
ACAD
1010
0.0
1020
0.0
1030
0.0
  0
TEXT
  5
EA7F
  8
01
 10
-534.54368111640122
 20
-684.75022631277261
 30
0.0
 40
3.5
  1
フローリング床材
  0
LINE
  5
EA82
  8
01
 10
-615.97184454032833
 20
-636.65389781516035
 30
0.0
 11
-625.83415647014863
 21
-636.65389781516035
 31
0.0
  0
LINE
  5
EA83
  8
01
 10
-611.09368220283295
 20
-661.5532559438617
 30
0.0
 11
-625.83415647014863
 21
-661.5532559438617
 31
0.0
  0
LINE
  5
EA84
  8
01
 10
-624.83415647014863
 20
-638.65389781516035
 30
0.0
 11
-624.83415647014863
 21
-659.55325594386159
 31
0.0
  0
LINE
  5
EA88
  8
01
 10
-615.97184454032833
 20
-626.65389781516035
 30
0.0
 11
-625.83415647014863
 21
-626.65389781516035
 31
0.0
  0
LINE
  5
EA89
  8
01
 10
-615.97184454032833
 20
-636.65389781516035
 30
0.0
 11
-625.83415647014863
 21
-636.65389781516035
 31
0.0
  0
LINE
  5
EA8A
  8
01
 10
-624.83415647014863
 20
-628.65389781516035
 30
0.0
 11
-624.83415647014863
 21
-634.65389781516035
 31
0.0
  0
TEXT
  5
EA8E
  8
01
 10
-524.24510910259767
 20
-705.89599192710125
 30
0.0
 40
3.5
  1
コンクリート用カットアンカー
  0
TEXT
  5
EA8F
  8
01
 10
-522.91177576926452
 20
-711.72932526043473
 30
0.0
 40
3.5
  1
\U+03C612-35（ネジM8-18）
  0
TEXT
  5
EA90
  8
01
 10
-519.47844243593113
 20
-717.56265859376799
 30
0.0
 40
3.5
  1
AC-0818（オプション）
  0
LINE
  5
EA93
  8
01
 10
-426.64634709958989
 20
-696.55320616858307
 30
0.0
 11
-446.73017323479769
 21
-696.55320616858307
 31
0.0
  0
LINE
  5
EA94
  8
01
 10
-436.91278699464033
 20
-661.55320616858262
 30
0.0
 11
-446.73017323479769
 21
-661.55320616858262
 31
0.0
  0
LINE
  5
EA95
  8
01
 10
-445.73017323479769
 20
-694.55320616858296
 30
0.0
 11
-445.73017323479769
 21
-663.55320616858262
 31
0.0
  0
LINE
  5
EA99
  8
01
 10
-416.41278699464033
 20
-696.05320616858251
 30
0.0
 11
-416.41278699464033
 21
-705.91223867455335
 31
0.0
  0
LINE
  5
EA9A
  8
01
 10
-428.41278699464033
 20
-696.05320616858307
 30
0.0
 11
-428.41278699464033
 21
-705.91223867455335
 31
0.0
  0
LINE
  5
EA9B
  8
01
 10
-418.41278699464033
 20
-704.91223867455335
 30
0.0
 11
-426.41278699464033
 21
-704.91223867455335
 31
0.0
  0
LINE
  5
EA9F
  8
01
 10
-437.93850091927823
 20
-500.96738918922432
 30
0.0
 11
-437.93850091927823
 21
-482.46964385389299
 31
0.0
  0
LINE
  5
EAA0
  8
01
 10
-456.93850091927823
 20
-500.96738918671468
 30
0.0
 11
-456.93850091927823
 21
-482.46964385389299
 31
0.0
  0
LINE
  5
EAA1
  8
01
 10
-439.93850091927823
 20
-483.4696438538931
 30
0.0
 11
-454.93850091927823
 21
-483.4696438538931
 31
0.0
  0
LINE
  5
EAA5
  8
01
 10
-442.18850096120519
 20
-499.83679991298811
 30
0.0
 11
-442.18850096120519
 21
-488.44168832498019
 31
0.0
  0
LINE
  5
EAA6
  8
01
 10
-452.68850094630488
 20
-499.83679991298811
 30
0.0
 11
-452.68850094630488
 21
-488.44168832498019
 31
0.0
  0
LINE
  5
EAA7
  8
01
 10
-444.18850096120519
 20
-489.44168832498019
 30
0.0
 11
-450.688500946305
 21
-489.44168832498019
 31
0.0
  0
LINE
  5
EAAB
  8
01
 10
-523.09809758196661
 20
-572.26939373117182
 30
0.0
 11
-486.40894389676367
 21
-572.26939373117182
 31
0.0
  0
LINE
  5
EAAC
  8
01
 10
-523.09809758196661
 20
-603.7693937311717
 30
0.0
 11
-486.40894389676367
 21
-603.7693937311717
 31
0.0
  0
LINE
  5
EAAD
  8
01
 10
-487.40894389676367
 20
-574.26939373117182
 30
0.0
 11
-487.40894389676367
 21
-601.76939373117182
 31
0.0
  0
LINE
  5
EAB1
  8
01
 10
-514.14797605589604
 20
-618.35281345769852
 30
0.0
 11
-491.18241158547551
 21
-618.35281345769852
 31
0.0
  0
LINE
  5
EAB2
  8
01
 10
-481.6762143482996
 20
-661.55315639330354
 30
0.0
 11
-493.18241158547562
 21
-661.55315639330354
 31
0.0
  0
LINE
  5
EAB3
  8
01
 10
-492.18241158547551
 20
-620.35281345769852
 30
0.0
 11
-492.18241158547551
 21
-659.55315639330354
 31
0.0
  0
LINE
  5
EAB7
  8
01
 10
-599.59368220283307
 20
-613.05286386501803
 30
0.0
 11
-599.59368220283307
 21
-607.49742172167851
 31
0.0
  0
LINE
  5
EAB8
  8
01
 10
-571.09368220283295
 20
-614.05286386501803
 30
0.0
 11
-571.09368220283295
 21
-607.49742172167851
 31
0.0
  0
LINE
  5
EAB9
  8
01
 10
-597.59368220283295
 20
-608.49742172167839
 30
0.0
 11
-573.09368220283295
 21
-608.49742172167839
 31
0.0
  0
LINE
  5
EABD
  8
01
 10
-611.09368220283295
 20
-646.55325594386159
 30
0.0
 11
-616.50034222468219
 21
-646.55325594386159
 31
0.0
  0
LINE
  5
EABE
  8
01
 10
-611.09368220283295
 20
-661.5532559438617
 30
0.0
 11
-616.50034222468219
 21
-661.5532559438617
 31
0.0
  0
LINE
  5
EABF
  8
01
 10
-615.5003422246823
 20
-648.5532559438617
 30
0.0
 11
-615.5003422246823
 21
-659.55325594386159
 31
0.0
  0
LINE
  5
EAC0
  8
01
 10
-615.5003422246823
 20
-661.5532559438617
 30
0.0
 11
-615.5003422246823
 21
-687.85325594386165
 31
0.0
  0
TEXT
  5
EAC4
  8
01
 10
-616.20034222468223
 20
-688.15325594386184
 30
0.0
 40
3.5
  1
15mm以内
 50
90.0
  0
LINE
  5
EAC5
  8
01
  6
BYBLOCK
 10
-614.96444384468225
 20
-659.55325594386159
 30
0.0
 11
-615.5003422246823
 21
-661.5532559438617
 31
0.0
  0
LINE
  5
EAC6
  8
01
  6
BYBLOCK
 10
-615.5003422246823
 20
-661.5532559438617
 30
0.0
 11
-616.03624060468235
 21
-659.55325594386159
 31
0.0
  0
LINE
  5
EAC7
  8
01
  6
BYBLOCK
 10
-615.5003422246823
 20
-661.5532559438617
 30
0.0
 11
-615.5003422246823
 21
-659.55325594386159
 31
0.0
  0
LINE
  5
EAC8
  8
01
  6
BYBLOCK
 10
-616.03624060468235
 20
-648.5532559438617
 30
0.0
 11
-615.5003422246823
 21
-646.55325594386159
 31
0.0
  0
LINE
  5
EAC9
  8
01
  6
BYBLOCK
 10
-615.5003422246823
 20
-646.55325594386159
 30
0.0
 11
-614.96444384468225
 21
-648.5532559438617
 31
0.0
  0
LINE
  5
EACA
  8
01
  6
BYBLOCK
 10
-615.5003422246823
 20
-646.55325594386159
 30
0.0
 11
-615.5003422246823
 21
-648.5532559438617
 31
0.0
  0
TEXT
  5
EACB
  8
01
 10
-591.17701553616644
 20
-607.79742172167835
 30
0.0
 40
3.5
  1
28.5
  0
LINE
  5
EACC
  8
01
  6
BYBLOCK
 10
-573.09368220283295
 20
-607.96152334167846
 30
0.0
 11
-571.09368220283295
 21
-608.49742172167839
 31
0.0
  0
LINE
  5
EACD
  8
01
  6
BYBLOCK
 10
-571.09368220283295
 20
-608.49742172167839
 30
0.0
 11
-573.09368220283295
 21
-609.03332010167856
 31
0.0
  0
LINE
  5
EACE
  8
01
  6
BYBLOCK
 10
-571.09368220283295
 20
-608.49742172167839
 30
0.0
 11
-573.09368220283295
 21
-608.49742172167839
 31
0.0
  0
LINE
  5
EACF
  8
01
  6
BYBLOCK
 10
-597.59368220283295
 20
-609.03332010167856
 30
0.0
 11
-599.59368220283307
 21
-608.49742172167839
 31
0.0
  0
LINE
  5
EAD0
  8
01
  6
BYBLOCK
 10
-599.59368220283307
 20
-608.49742172167839
 30
0.0
 11
-597.59368220283295
 21
-607.96152334167846
 31
0.0
  0
LINE
  5
EAD1
  8
01
  6
BYBLOCK
 10
-599.59368220283307
 20
-608.49742172167839
 30
0.0
 11
-597.59368220283295
 21
-608.49742172167839
 31
0.0
  0
TEXT
  5
EAD2
  8
01
 10
-492.88241158547538
 20
-643.28631825883451
 30
0.0
 40
3.5
  1
43
 50
90.0
  0
LINE
  5
EAD3
  8
01
  6
BYBLOCK
 10
-491.64651320547563
 20
-659.55315639330354
 30
0.0
 11
-492.18241158547551
 21
-661.55315639330354
 31
0.0
  0
LINE
  5
EAD4
  8
01
  6
BYBLOCK
 10
-492.18241158547551
 20
-661.55315639330354
 30
0.0
 11
-492.7183099654755
 21
-659.55315639330354
 31
0.0
  0
LINE
  5
EAD5
  8
01
  6
BYBLOCK
 10
-492.18241158547551
 20
-661.55315639330354
 30
0.0
 11
-492.18241158547551
 21
-659.55315639330354
 31
0.0
  0
LINE
  5
EAD6
  8
01
  6
BYBLOCK
 10
-492.7183099654755
 20
-620.35281345769852
 30
0.0
 11
-492.18241158547551
 21
-618.35281345769852
 31
0.0
  0
LINE
  5
EAD7
  8
01
  6
BYBLOCK
 10
-492.18241158547551
 20
-618.35281345769852
 30
0.0
 11
-491.64651320547563
 21
-620.35281345769852
 31
0.0
  0
LINE
  5
EAD8
  8
01
  6
BYBLOCK
 10
-492.18241158547551
 20
-618.35281345769852
 30
0.0
 11
-492.18241158547551
 21
-620.35281345769852
 31
0.0
  0
TEXT
  5
EAD9
  8
01
 10
-488.10894389676361
 20
-596.05272706450535
 30
0.0
 40
3.5
  1
\U+03C631.5
 50
90.0
  0
LINE
  5
EADA
  8
01
  6
BYBLOCK
 10
-486.87304551676368
 20
-601.76939373117182
 30
0.0
 11
-487.40894389676367
 21
-603.7693937311717
 31
0.0
  0
LINE
  5
EADB
  8
01
  6
BYBLOCK
 10
-487.40894389676367
 20
-603.7693937311717
 30
0.0
 11
-487.94484227676361
 21
-601.76939373117182
 31
0.0
  0
LINE
  5
EADC
  8
01
  6
BYBLOCK
 10
-487.40894389676367
 20
-603.7693937311717
 30
0.0
 11
-487.40894389676367
 21
-601.76939373117182
 31
0.0
  0
LINE
  5
EADD
  8
01
  6
BYBLOCK
 10
-487.94484227676361
 20
-574.26939373117182
 30
0.0
 11
-487.40894389676367
 21
-572.26939373117182
 31
0.0
  0
LINE
  5
EADE
  8
01
  6
BYBLOCK
 10
-487.40894389676367
 20
-572.26939373117182
 30
0.0
 11
-486.87304551676368
 21
-574.26939373117182
 31
0.0
  0
LINE
  5
EADF
  8
01
  6
BYBLOCK
 10
-487.40894389676367
 20
-572.26939373117182
 30
0.0
 11
-487.40894389676367
 21
-574.26939373117182
 31
0.0
  0
TEXT
  5
EAE0
  8
01
 10
-453.52183428708838
 20
-488.74168832498032
 30
0.0
 40
3.5
  1
10.5
  0
LINE
  5
EAE1
  8
01
  6
BYBLOCK
 10
-450.688500946305
 20
-489.9775867049803
 30
0.0
 11
-452.68850094630488
 21
-489.44168832498019
 31
0.0
  0
LINE
  5
EAE2
  8
01
  6
BYBLOCK
 10
-452.68850094630488
 20
-489.44168832498019
 30
0.0
 11
-450.688500946305
 21
-488.9057899449802
 31
0.0
  0
LINE
  5
EAE3
  8
01
  6
BYBLOCK
 10
-452.68850094630488
 20
-489.44168832498019
 30
0.0
 11
-450.688500946305
 21
-489.44168832498019
 31
0.0
  0
LINE
  5
EAE4
  8
01
  6
BYBLOCK
 10
-444.18850096120519
 20
-488.9057899449802
 30
0.0
 11
-442.18850096120519
 21
-489.44168832498019
 31
0.0
  0
LINE
  5
EAE5
  8
01
  6
BYBLOCK
 10
-442.18850096120519
 20
-489.44168832498019
 30
0.0
 11
-444.18850096120519
 21
-489.9775867049803
 31
0.0
  0
LINE
  5
EAE6
  8
01
  6
BYBLOCK
 10
-442.18850096120519
 20
-489.44168832498019
 30
0.0
 11
-444.18850096120519
 21
-489.44168832498019
 31
0.0
  0
TEXT
  5
EAE7
  8
01
 10
-450.93850091927823
 20
-482.769643853893
 30
0.0
 40
3.5
  1
19
  0
LINE
  5
EAE8
  8
01
  6
BYBLOCK
 10
-454.93850091927823
 20
-484.0055422338931
 30
0.0
 11
-456.93850091927823
 21
-483.4696438538931
 31
0.0
  0
LINE
  5
EAE9
  8
01
  6
BYBLOCK
 10
-456.93850091927823
 20
-483.4696438538931
 30
0.0
 11
-454.93850091927823
 21
-482.93374547389311
 31
0.0
  0
LINE
  5
EAEA
  8
01
  6
BYBLOCK
 10
-456.93850091927823
 20
-483.4696438538931
 30
0.0
 11
-454.93850091927823
 21
-483.4696438538931
 31
0.0
  0
LINE
  5
EAEB
  8
01
  6
BYBLOCK
 10
-439.93850091927823
 20
-482.93374547389311
 30
0.0
 11
-437.93850091927823
 21
-483.4696438538931
 31
0.0
  0
LINE
  5
EAEC
  8
01
  6
BYBLOCK
 10
-437.93850091927823
 20
-483.4696438538931
 30
0.0
 11
-439.93850091927823
 21
-484.0055422338931
 31
0.0
  0
LINE
  5
EAED
  8
01
  6
BYBLOCK
 10
-437.93850091927823
 20
-483.4696438538931
 30
0.0
 11
-439.93850091927823
 21
-483.4696438538931
 31
0.0
  0
TEXT
  5
EAEE
  8
01
 10
-427.94612032797357
 20
-704.21223867455342
 30
0.0
 40
3.5
  1
\U+03C612
  0
LINE
  5
EAEF
  8
01
  6
BYBLOCK
 10
-426.41278699464033
 20
-705.44813705455351
 30
0.0
 11
-428.41278699464033
 21
-704.91223867455335
 31
0.0
  0
LINE
  5
EAF0
  8
01
  6
BYBLOCK
 10
-428.41278699464033
 20
-704.91223867455335
 30
0.0
 11
-426.41278699464033
 21
-704.37634029455342
 31
0.0
  0
LINE
  5
EAF1
  8
01
  6
BYBLOCK
 10
-428.41278699464033
 20
-704.91223867455335
 30
0.0
 11
-426.41278699464033
 21
-704.91223867455335
 31
0.0
  0
LINE
  5
EAF2
  8
01
  6
BYBLOCK
 10
-418.41278699464033
 20
-704.37634029455342
 30
0.0
 11
-416.41278699464033
 21
-704.91223867455335
 31
0.0
  0
LINE
  5
EAF3
  8
01
  6
BYBLOCK
 10
-416.41278699464033
 20
-704.91223867455335
 30
0.0
 11
-418.41278699464033
 21
-705.44813705455351
 31
0.0
  0
LINE
  5
EAF4
  8
01
  6
BYBLOCK
 10
-416.41278699464033
 20
-704.91223867455335
 30
0.0
 11
-418.41278699464033
 21
-704.91223867455335
 31
0.0
  0
TEXT
  5
EAF5
  8
01
 10
-446.43017323479762
 20
-682.38653950191633
 30
0.0
 40
3.5
  1
35
 50
90.0
  0
LINE
  5
EAF6
  8
01
  6
BYBLOCK
 10
-446.26607161479768
 20
-663.55320616858262
 30
0.0
 11
-445.73017323479769
 21
-661.55320616858262
 31
0.0
  0
LINE
  5
EAF7
  8
01
  6
BYBLOCK
 10
-445.73017323479769
 20
-661.55320616858262
 30
0.0
 11
-445.19427485479781
 21
-663.55320616858262
 31
0.0
  0
LINE
  5
EAF8
  8
01
  6
BYBLOCK
 10
-445.73017323479769
 20
-661.55320616858262
 30
0.0
 11
-445.73017323479769
 21
-663.55320616858262
 31
0.0
  0
LINE
  5
EAF9
  8
01
  6
BYBLOCK
 10
-445.19427485479781
 20
-694.55320616858296
 30
0.0
 11
-445.73017323479769
 21
-696.55320616858307
 31
0.0
  0
LINE
  5
EAFA
  8
01
  6
BYBLOCK
 10
-445.73017323479769
 20
-696.55320616858307
 30
0.0
 11
-446.26607161479768
 21
-694.55320616858296
 31
0.0
  0
LINE
  5
EAFB
  8
01
  6
BYBLOCK
 10
-445.73017323479769
 20
-696.55320616858307
 30
0.0
 11
-445.73017323479769
 21
-694.55320616858296
 31
0.0
  0
LINE
  5
EAFC
  8
01
 10
-430.55863740492748
 20
-696.22510681687095
 30
0.0
 11
-463.67844243593112
 21
-718.26265859376804
 31
0.0
  0
LINE
  5
EAFD
  8
01
 10
-463.67844243593112
 20
-718.26265859376804
 30
0.0
 11
-466.37844243593111
 21
-718.26265859376804
 31
0.0
  0
LINE
  5
EAFE
  8
01
  6
BYBLOCK
 10
-430.85550556143971
 20
-695.77894947765571
 30
0.0
 11
-428.89355553169901
 21
-695.11717976356556
 31
0.0
  0
LINE
  5
EAFF
  8
01
  6
BYBLOCK
 10
-428.89355553169901
 20
-695.11717976356556
 30
0.0
 11
-430.26176924841531
 21
-696.67126415608629
 31
0.0
  0
LINE
  5
EB00
  8
01
  6
BYBLOCK
 10
-428.89355553169901
 20
-695.11717976356556
 30
0.0
 11
-430.55863740492748
 21
-696.22510681687095
 31
0.0
  0
TEXT
  5
EB01
  8
01
 10
-625.53415647014856
 20
-635.23723114849383
 30
0.0
 40
3.5
  1
10
 50
90.0
  0
LINE
  5
EB02
  8
01
  6
BYBLOCK
 10
-624.29825809014847
 20
-634.65389781516035
 30
0.0
 11
-624.83415647014863
 21
-636.65389781516035
 31
0.0
  0
LINE
  5
EB03
  8
01
  6
BYBLOCK
 10
-624.83415647014863
 20
-636.65389781516035
 30
0.0
 11
-625.37005485014868
 21
-634.65389781516035
 31
0.0
  0
LINE
  5
EB04
  8
01
  6
BYBLOCK
 10
-624.83415647014863
 20
-636.65389781516035
 30
0.0
 11
-624.83415647014863
 21
-634.65389781516035
 31
0.0
  0
LINE
  5
EB05
  8
01
  6
BYBLOCK
 10
-625.37005485014868
 20
-628.65389781516035
 30
0.0
 11
-624.83415647014863
 21
-626.65389781516035
 31
0.0
  0
LINE
  5
EB06
  8
01
  6
BYBLOCK
 10
-624.83415647014863
 20
-626.65389781516035
 30
0.0
 11
-624.29825809014847
 21
-628.65389781516035
 31
0.0
  0
LINE
  5
EB07
  8
01
  6
BYBLOCK
 10
-624.83415647014863
 20
-626.65389781516035
 30
0.0
 11
-624.83415647014863
 21
-628.65389781516035
 31
0.0
  0
TEXT
  5
EB08
  8
01
 10
-625.53415647014856
 20
-652.43691021284451
 30
0.0
 40
3.5
  1
25
 50
90.0
  0
LINE
  5
EB09
  8
01
  6
BYBLOCK
 10
-624.29825809014847
 20
-659.55325594386159
 30
0.0
 11
-624.83415647014863
 21
-661.5532559438617
 31
0.0
  0
LINE
  5
EB0A
  8
01
  6
BYBLOCK
 10
-624.83415647014863
 20
-661.5532559438617
 30
0.0
 11
-625.37005485014868
 21
-659.55325594386159
 31
0.0
  0
LINE
  5
EB0B
  8
01
  6
BYBLOCK
 10
-624.83415647014863
 20
-661.5532559438617
 30
0.0
 11
-624.83415647014863
 21
-659.55325594386159
 31
0.0
  0
LINE
  5
EB0C
  8
01
  6
BYBLOCK
 10
-625.37005485014868
 20
-638.65389781516035
 30
0.0
 11
-624.83415647014863
 21
-636.65389781516035
 31
0.0
  0
LINE
  5
EB0D
  8
01
  6
BYBLOCK
 10
-624.83415647014863
 20
-636.65389781516035
 30
0.0
 11
-624.29825809014847
 21
-638.65389781516035
 31
0.0
  0
LINE
  5
EB0E
  8
01
  6
BYBLOCK
 10
-624.83415647014863
 20
-636.65389781516035
 30
0.0
 11
-624.83415647014863
 21
-638.65389781516035
 31
0.0
  0
LINE
  5
EB0F
  8
01
 10
-497.42547955842451
 20
-674.52792564550714
 30
0.0
 11
-499.1770144497346
 21
-685.45022631277266
 31
0.0
  0
LINE
  5
EB10
  8
01
 10
-499.1770144497346
 20
-685.45022631277266
 30
0.0
 11
-501.87701444973447
 21
-685.45022631277266
 31
0.0
  0
LINE
  5
EB11
  8
01
  6
BYBLOCK
 10
-497.95461737998949
 20
-674.44307142064952
 30
0.0
 11
-497.10879927714569
 21
-672.55315639330342
 31
0.0
  0
LINE
  5
EB12
  8
01
  6
BYBLOCK
 10
-497.10879927714569
 20
-672.55315639330342
 30
0.0
 11
-496.89634173685971
 21
-674.61277987036465
 31
0.0
  0
LINE
  5
EB13
  8
01
  6
BYBLOCK
 10
-497.10879927714569
 20
-672.55315639330342
 30
0.0
 11
-497.42547955842451
 21
-674.52792564550714
 31
0.0
  0
LINE
  5
EB14
  8
01
 10
-455.84616115055502
 20
-666.06730136384033
 30
0.0
 11
-499.1770144497346
 21
-685.45022631277266
 31
0.0
  0
LINE
  5
EB15
  8
01
  6
BYBLOCK
 10
-456.06498570070568
 20
-665.57811541766227
 30
0.0
 11
-454.020494328506
 21
-665.25063701732483
 31
0.0
  0
LINE
  5
EB16
  8
01
  6
BYBLOCK
 10
-454.020494328506
 20
-665.25063701732483
 30
0.0
 11
-455.62733660040431
 21
-666.55648731001816
 31
0.0
  0
LINE
  5
EB17
  8
01
  6
BYBLOCK
 10
-454.020494328506
 20
-665.25063701732483
 30
0.0
 11
-455.84616115055502
 21
-666.06730136384033
 31
0.0
  0
TEXT
  5
EB18
  8
01
 10
-422.74530614938152
 20
-553.49107348007544
 30
0.0
 40
3.5
  1
37
 50
90.0
  0
LINE
  5
EB19
  8
01
  6
BYBLOCK
 10
-421.50940776938148
 20
-566.65336571356579
 30
0.0
 11
-422.04530614938147
 21
-568.65336571356568
 31
0.0
  0
LINE
  5
EB1A
  8
01
  6
BYBLOCK
 10
-422.04530614938147
 20
-568.65336571356568
 30
0.0
 11
-422.58120452938152
 21
-566.65336571356579
 31
0.0
  0
LINE
  5
EB1B
  8
01
  6
BYBLOCK
 10
-422.04530614938147
 20
-568.65336571356568
 30
0.0
 11
-422.04530614938147
 21
-566.65336571356579
 31
0.0
  0
LINE
  5
EB1C
  8
01
  6
BYBLOCK
 10
-422.58120452938152
 20
-533.66211457991824
 30
0.0
 11
-422.04530614938147
 21
-531.66211457991824
 31
0.0
  0
LINE
  5
EB1D
  8
01
  6
BYBLOCK
 10
-422.04530614938147
 20
-531.66211457991824
 30
0.0
 11
-421.50940776938148
 21
-533.66211457991824
 31
0.0
  0
LINE
  5
EB1E
  8
01
  6
BYBLOCK
 10
-422.04530614938147
 20
-531.66211457991824
 30
0.0
 11
-422.04530614938147
 21
-533.66211457991824
 31
0.0
  0
TEXT
  5
EB1F
  8
01
 10
-429.54878751351367
 20
-544.49544791325172
 30
0.0
 40
3.5
  1
13.5
 50
90.0
  0
LINE
  5
EB20
  8
01
  6
BYBLOCK
 10
-428.31288913351369
 20
-543.16211457991824
 30
0.0
 11
-428.8487875135138
 21
-545.16211457991824
 31
0.0
  0
LINE
  5
EB21
  8
01
  6
BYBLOCK
 10
-428.8487875135138
 20
-545.16211457991824
 30
0.0
 11
-429.38468589351379
 21
-543.16211457991824
 31
0.0
  0
LINE
  5
EB22
  8
01
  6
BYBLOCK
 10
-428.8487875135138
 20
-545.16211457991824
 30
0.0
 11
-428.8487875135138
 21
-543.16211457991824
 31
0.0
  0
LINE
  5
EB23
  8
01
  6
BYBLOCK
 10
-429.38468589351379
 20
-533.66211457991824
 30
0.0
 11
-428.8487875135138
 21
-531.66211457991824
 31
0.0
  0
LINE
  5
EB24
  8
01
  6
BYBLOCK
 10
-428.8487875135138
 20
-531.66211457991824
 30
0.0
 11
-428.31288913351369
 21
-533.66211457991824
 31
0.0
  0
LINE
  5
EB25
  8
01
  6
BYBLOCK
 10
-428.8487875135138
 20
-531.66211457991824
 30
0.0
 11
-428.8487875135138
 21
-533.66211457991824
 31
0.0
  0
TEXT
  5
EB26
  8
01
 10
-429.54878751351367
 20
-553.74544791325172
 30
0.0
 40
3.5
  1
10
 50
90.0
  0
LINE
  5
EB27
  8
01
  6
BYBLOCK
 10
-428.31288913351369
 20
-553.16211457991824
 30
0.0
 11
-428.8487875135138
 21
-555.16211457991824
 31
0.0
  0
LINE
  5
EB28
  8
01
  6
BYBLOCK
 10
-428.8487875135138
 20
-555.16211457991824
 30
0.0
 11
-429.38468589351379
 21
-553.16211457991824
 31
0.0
  0
LINE
  5
EB29
  8
01
  6
BYBLOCK
 10
-428.8487875135138
 20
-555.16211457991824
 30
0.0
 11
-428.8487875135138
 21
-553.16211457991824
 31
0.0
  0
LINE
  5
EB2A
  8
01
  6
BYBLOCK
 10
-429.38468589351379
 20
-547.16211457991824
 30
0.0
 11
-428.8487875135138
 21
-545.16211457991824
 31
0.0
  0
LINE
  5
EB2B
  8
01
  6
BYBLOCK
 10
-428.8487875135138
 20
-545.16211457991824
 30
0.0
 11
-428.31288913351369
 21
-547.16211457991824
 31
0.0
  0
LINE
  5
EB2C
  8
01
  6
BYBLOCK
 10
-428.8487875135138
 20
-545.16211457991824
 30
0.0
 11
-428.8487875135138
 21
-547.16211457991824
 31
0.0
  0
LINE
  5
EB2D
  8
01
 10
-453.11422405582908
 20
-522.07324181822355
 30
0.0
 11
-468.1886333279972
 21
-513.15902823315503
 31
0.0
  0
LINE
  5
EB2E
  8
01
 10
-468.1886333279972
 20
-513.15902823315503
 30
0.0
 11
-516.15529999466378
 21
-513.15902823315503
 31
0.0
  0
LINE
  5
EB2F
  8
01
  6
BYBLOCK
 10
-452.84144697932209
 20
-521.61196127428195
 30
0.0
 11
-451.39270161367688
 21
-523.09125973612402
 31
0.0
  0
LINE
  5
EB30
  8
01
  6
BYBLOCK
 10
-451.39270161367688
 20
-523.09125973612402
 30
0.0
 11
-453.38700113233608
 21
-522.53452236216503
 31
0.0
  0
LINE
  5
EB31
  8
01
  6
BYBLOCK
 10
-451.39270161367688
 20
-523.09125973612402
 30
0.0
 11
-453.11422405582908
 21
-522.07324181822344
 31
0.0
  0
LINE
  5
EB32
  8
01
 10
-536.71902619849641
 20
-577.05563561951328
 30
0.0
 11
-542.21958357990798
 21
-569.52664706403959
 31
0.0
  0
LINE
  5
EB33
  8
01
 10
-542.21958357990798
 20
-569.52664706403959
 30
0.0
 11
-590.18625024657445
 21
-569.52664706403959
 31
0.0
  0
LINE
  5
EB34
  8
01
  6
BYBLOCK
 10
-536.28630839188622
 20
-576.73949898207775
 30
0.0
 11
-535.53918819474825
 21
-578.67056047377491
 31
0.0
  0
LINE
  5
EB35
  8
01
  6
BYBLOCK
 10
-535.53918819474825
 20
-578.67056047377491
 30
0.0
 11
-537.15174400510671
 21
-577.37177225694893
 31
0.0
  0
LINE
  5
EB36
  8
01
  6
BYBLOCK
 10
-535.53918819474825
 20
-578.67056047377491
 30
0.0
 11
-536.71902619849641
 21
-577.05563561951328
 31
0.0
  0
LINE
  5
EB37
  8
01
 10
-458.38647370281632
 20
-500.94048665062928
 30
0.0
 11
-464.33315184285209
 21
-492.59712141180552
 31
0.0
  0
LINE
  5
EB38
  8
01
 10
-464.33315184285209
 20
-492.59712141180552
 30
0.0
 11
-525.03315184285202
 21
-492.59712141180552
 31
0.0
  0
LINE
  5
EB39
  8
01
  6
BYBLOCK
 10
-457.95007713299941
 20
-500.62944789494338
 30
0.0
 11
-457.22566125294128
 21
-502.56914083621172
 31
0.0
  0
LINE
  5
EB3A
  8
01
  6
BYBLOCK
 10
-457.22566125294128
 20
-502.56914083621172
 30
0.0
 11
-458.82287027263322
 21
-501.25152540631518
 31
0.0
  0
LINE
  5
EB3B
  8
01
  6
BYBLOCK
 10
-457.22566125294128
 20
-502.56914083621172
 30
0.0
 11
-458.38647370281632
 21
-500.94048665062928
 31
0.0
  0
LINE
  5
EB3C
  8
01
 10
-523.37716063634241
 20
-573.48908357098082
 30
0.0
 11
-528.07215367653089
 21
-540.16998379151448
 31
0.0
  0
LINE
  5
EB3D
  8
01
 10
-528.07215367653089
 20
-540.16998379151448
 30
0.0
 11
-571.83882034319754
 21
-540.16998379151448
 31
0.0
  0
LINE
  5
EB3E
  8
01
  6
BYBLOCK
 10
-522.84650461307638
 20
-573.41430885160185
 30
0.0
 11
-523.09809758196661
 21
-575.46951882912026
 31
0.0
  0
LINE
  5
EB3F
  8
01
  6
BYBLOCK
 10
-523.09809758196661
 20
-575.46951882912026
 30
0.0
 11
-523.90781665960833
 21
-573.56385829035969
 31
0.0
  0
LINE
  5
EB40
  8
01
  6
BYBLOCK
 10
-523.09809758196661
 20
-575.46951882912026
 30
0.0
 11
-523.37716063634241
 21
-573.48908357098082
 31
0.0
  0
TEXT
  5
EB41
  8
01
 10
-554.3367103403981
 20
-646.38658927728477
 30
0.0
 40
3.5
  1
37
 50
90.0
  0
LINE
  5
EB42
  8
01
  6
BYBLOCK
 10
-553.100811960398
 20
-659.55325594386159
 30
0.0
 11
-553.63671034039805
 21
-661.5532559438617
 31
0.0
  0
LINE
  5
EB43
  8
01
  6
BYBLOCK
 10
-553.63671034039805
 20
-661.5532559438617
 30
0.0
 11
-554.17260872039822
 21
-659.55325594386159
 31
0.0
  0
LINE
  5
EB44
  8
01
  6
BYBLOCK
 10
-553.63671034039805
 20
-661.5532559438617
 30
0.0
 11
-553.63671034039805
 21
-659.55325594386159
 31
0.0
  0
LINE
  5
EB45
  8
01
  6
BYBLOCK
 10
-554.17260872039822
 20
-626.55325594404098
 30
0.0
 11
-553.63671034039805
 21
-624.5532559440411
 31
0.0
  0
LINE
  5
EB46
  8
01
  6
BYBLOCK
 10
-553.63671034039805
 20
-624.5532559440411
 30
0.0
 11
-553.100811960398
 21
-626.55325594404098
 31
0.0
  0
LINE
  5
EB47
  8
01
  6
BYBLOCK
 10
-553.63671034039805
 20
-624.5532559440411
 30
0.0
 11
-553.63671034039805
 21
-626.55325594404098
 31
0.0
  0
TEXT
  5
EB48
  8
01
 10
-554.3367103403981
 20
-619.35286386501832
 30
0.0
 40
3.5
  1
1.5
 50
90.0
  0
LINE
  5
EB49
  8
01
  6
BYBLOCK
 10
-553.100811960398
 20
-621.05286386501825
 30
0.0
 11
-553.63671034039805
 21
-623.05286386501825
 31
0.0
  0
LINE
  5
EB4A
  8
01
  6
BYBLOCK
 10
-553.63671034039805
 20
-623.05286386501825
 30
0.0
 11
-554.17260872039822
 21
-621.05286386501825
 31
0.0
  0
LINE
  5
EB4B
  8
01
  6
BYBLOCK
 10
-553.63671034039805
 20
-623.05286386501825
 30
0.0
 11
-553.63671034039805
 21
-621.05286386501825
 31
0.0
  0
LINE
  5
EB4C
  8
01
  6
BYBLOCK
 10
-554.17260872039822
 20
-626.55325594404098
 30
0.0
 11
-553.63671034039805
 21
-624.5532559440411
 31
0.0
  0
LINE
  5
EB4D
  8
01
  6
BYBLOCK
 10
-553.63671034039805
 20
-624.5532559440411
 30
0.0
 11
-553.100811960398
 21
-626.55325594404098
 31
0.0
  0
LINE
  5
EB4E
  8
01
  6
BYBLOCK
 10
-553.63671034039805
 20
-624.5532559440411
 30
0.0
 11
-553.63671034039805
 21
-626.55325594404098
 31
0.0
  0
TEXT
  5
EB4F
  8
01
 10
-528.76476424863324
 20
-609.80414010546838
 30
0.0
 40
3.5
  1
8
  0
LINE
  5
EB50
  8
01
  6
BYBLOCK
 10
-529.0980975819665
 20
-611.04003848546859
 30
0.0
 11
-531.09809758196639
 21
-610.50414010546854
 31
0.0
  0
LINE
  5
EB51
  8
01
  6
BYBLOCK
 10
-531.09809758196639
 20
-610.50414010546854
 30
0.0
 11
-529.0980975819665
 21
-609.96824172546837
 31
0.0
  0
LINE
  5
EB52
  8
01
  6
BYBLOCK
 10
-531.09809758196639
 20
-610.50414010546854
 30
0.0
 11
-529.0980975819665
 21
-610.50414010546854
 31
0.0
  0
LINE
  5
EB53
  8
01
  6
BYBLOCK
 10
-525.09809758196661
 20
-609.96824172546837
 30
0.0
 11
-523.09809758196661
 21
-610.50414010546854
 31
0.0
  0
LINE
  5
EB54
  8
01
  6
BYBLOCK
 10
-523.09809758196661
 20
-610.50414010546854
 30
0.0
 11
-525.09809758196661
 21
-611.04003848546859
 31
0.0
  0
LINE
  5
EB55
  8
01
  6
BYBLOCK
 10
-523.09809758196661
 20
-610.50414010546854
 30
0.0
 11
-525.09809758196661
 21
-610.50414010546854
 31
0.0
  0
TEXT
  5
EB56
  8
01
 10
-543.11126881371217
 20
-565.18889766985035
 30
0.0
 40
3.5
  1
120\U+00B0
 50
30.00000000000005
  0
LINE
  5
EB57
  8
01
  6
BYBLOCK
 10
-551.57211169632455
 20
-586.03900611210645
 30
0.0
 11
-552.17647272403201
 21
-588.01939365546127
 31
0.0
  0
LINE
  5
EB58
  8
01
  6
BYBLOCK
 10
-552.17647272403201
 20
-588.01939365546127
 30
0.0
 11
-552.64327448350605
 21
-586.00214721760642
 31
0.0
  0
LINE
  5
EB59
  8
01
  6
BYBLOCK
 10
-552.17647272403201
 20
-588.01939365546127
 30
0.0
 11
-552.1076930899153
 21
-586.02057666485655
 31
0.0
  0
LINE
  5
EB5A
  8
01
  6
BYBLOCK
 10
-510.07249585703789
 20
-561.42389671800277
 30
0.0
 11
-508.55891007589889
 21
-562.83678211916617
 31
0.0
  0
LINE
  5
EB5B
  8
01
  6
BYBLOCK
 10
-508.55891007589889
 20
-562.83678211916617
 30
0.0
 11
-510.5761565116361
 21
-562.36998035054069
 31
0.0
  0
LINE
  5
EB5C
  8
01
  6
BYBLOCK
 10
-508.55891007589889
 20
-562.83678211916617
 30
0.0
 11
-510.324326184337
 21
-561.89693853427173
 31
0.0
  0
TEXT
  5
EB5D
  8
01
 10
-542.42702028995689
 20
-609.66473658295388
 30
0.0
 40
3.5
  1
120\U+00B0
 50
329.99999999999989
  0
LINE
  5
EB5E
  8
01
  6
BYBLOCK
 10
-510.56038747744981
 20
-613.69616458778944
 30
0.0
 11
-508.54315842641432
 21
-613.22928769893656
 31
0.0
  0
LINE
  5
EB5F
  8
01
  6
BYBLOCK
 10
-508.54315842641432
 20
-613.22928769893656
 30
0.0
 11
-510.05669159184652
 21
-614.64222946377436
 31
0.0
  0
LINE
  5
EB60
  8
01
  6
BYBLOCK
 10
-508.54315842641432
 20
-613.22928769893656
 30
0.0
 11
-510.30853953464811
 21
-614.16919702578195
 31
0.0
  0
LINE
  5
EB61
  8
01
  6
BYBLOCK
 10
-552.67485264284301
 20
-590.03662270861469
 30
0.0
 11
-552.20797576314135
 21
-588.01939365546104
 31
0.0
  0
LINE
  5
EB62
  8
01
  6
BYBLOCK
 10
-552.20797576314135
 20
-588.01939365546104
 30
0.0
 11
-551.60368848380995
 21
-589.99980370333628
 31
0.0
  0
LINE
  5
EB63
  8
01
  6
BYBLOCK
 10
-552.20797576314135
 20
-588.01939365546104
 30
0.0
 11
-552.13927056332648
 21
-590.01821320597548
 31
0.0
  0
TEXT
  5
EB64
  8
01
 10
-494.81325285803592
 20
-593.93606024711301
 30
0.0
 40
3.5
  1
120\U+00B0
 50
90.0
  0
LINE
  5
EB65
  8
01
  6
BYBLOCK
 10
-507.1929578853381
 20
-564.43152437332151
 30
0.0
 11
-508.60567522000127
 21
-562.91778172477495
 31
0.0
  0
LINE
  5
EB66
  8
01
  6
BYBLOCK
 10
-508.60567522000127
 20
-562.91778172477495
 30
0.0
 11
-506.62535479828568
 21
-563.52236265486033
 31
0.0
  0
LINE
  5
EB67
  8
01
  6
BYBLOCK
 10
-508.60567522000127
 20
-562.91778172477495
 30
0.0
 11
-506.90915634181192
 21
-563.97694351409098
 31
0.0
  0
LINE
  5
EB68
  8
01
  6
BYBLOCK
 10
-506.62535479828591
 20
-612.51642450603219
 30
0.0
 11
-508.60567522000139
 21
-613.12100543611757
 31
0.0
  0
LINE
  5
EB69
  8
01
  6
BYBLOCK
 10
-508.60567522000139
 20
-613.12100543611757
 30
0.0
 11
-507.19295788533822
 21
-611.60726278757102
 31
0.0
  0
LINE
  5
EB6A
  8
01
  6
BYBLOCK
 10
-508.60567522000139
 20
-613.12100543611757
 30
0.0
 11
-506.90915634181198
 21
-612.06184364680155
 31
0.0
  0
VIEWPORT
  5
57
 67
     1
  8
0
 10
-3.7717277109752549
 20
10.09791912461025
 30
0.0
 40
583.96325575821254
 41
268.49651120428939
 68
     1
 69
     1
1001
ACAD
1000
MVIEW
1002
{
1070
    16
1010
0.0
1020
0.0
1030
0.0
1010
0.0
1020
0.0
1030
1.0
1040
0.0
1040
268.49651120428939
1040
-3.7717277109752549
1040
10.09791912461025
1040
50.0
1040
0.0
1040
0.0
1070
     0
1070
  1000
1070
     1
1070
     1
1070
     0
1070
     0
1070
     0
1070
     0
1040
0.0
1040
0.0
1040
0.0
1040
10.0
1040
10.0
1040
10.0
1040
10.0
1070
     0
1002
{
1002
}
1002
}
  0
ENDSEC
  0
EOF
