  0
SECTION
  2
HEADER
  9
$ACADVER
  1
AC1009
  9
$DWGCODEPAGE
  3
ansi_1252
  9
$INSBASE
 10
0.0
 20
0.0
 30
0.0
  9
$EXTMIN
 10
-2534.739817332674
 20
-2939.35835122339
 30
0.0
  9
$EXTMAX
 10
-2201.805270221447
 20
-2746.627829972533
 30
0.0
  9
$LIMMIN
 10
0.0
 20
0.0
  9
$LIMMAX
 10
420.0
 20
297.0
  9
$ORTHOMODE
 70
     0
  9
$REGENMODE
 70
     1
  9
$FILLMODE
 70
     1
  9
$QTEXTMODE
 70
     0
  9
$MIRRTEXT
 70
     0
  9
$DRAGMODE
 70
     2
  9
$LTSCALE
 40
0.5
  9
$OSMODE
 70
  2687
  9
$ATTMODE
 70
     1
  9
$TEXTSIZE
 40
2.0
  9
$TRACEWID
 40
1.0
  9
$TEXTSTYLE
  7
STANDARD
  9
$CLAYER
  8
1TEXT
  9
$CELTYPE
  6
BYLAYER
  9
$CECOLOR
 62
   256
  9
$DIMSCALE
 40
1.0
  9
$DIMASZ
 40
2.0
  9
$DIMEXO
 40
0.0
  9
$DIMDLI
 40
7.0
  9
$DIMRND
 40
0.0
  9
$DIMDLE
 40
0.0
  9
$DIMEXE
 40
1.0
  9
$DIMTP
 40
0.0
  9
$DIMTM
 40
0.0
  9
$DIMTXT
 40
3.5
  9
$DIMCEN
 40
0.0
  9
$DIMTSZ
 40
0.0
  9
$DIMTOL
 70
     0
  9
$DIMLIM
 70
     0
  9
$DIMTIH
 70
     0
  9
$DIMTOH
 70
     0
  9
$DIMSE1
 70
     0
  9
$DIMSE2
 70
     0
  9
$DIMTAD
 70
     1
  9
$DIMZIN
 70
     8
  9
$DIMBLK
  1

  9
$DIMASO
 70
     1
  9
$DIMSHO
 70
     1
  9
$DIMPOST
  1
 
  9
$DIMAPOST
  1

  9
$DIMALT
 70
     0
  9
$DIMALTD
 70
     2
  9
$DIMALTF
 40
25.4
  9
$DIMLFAC
 40
1.0
  9
$DIMTOFL
 70
     1
  9
$DIMTVP
 40
0.0
  9
$DIMTIX
 70
     0
  9
$DIMSOXD
 70
     0
  9
$DIMSAH
 70
     1
  9
$DIMBLK1
  1
OPEN30
  9
$DIMBLK2
  1
OPEN30
  9
$DIMSTYLE
  2
NEWX10
  9
$DIMCLRD
 70
   256
  9
$DIMCLRE
 70
   256
  9
$DIMCLRT
 70
   201
  9
$DIMTFAC
 40
0.7
  9
$DIMGAP
 40
0.7
  9
$LUNITS
 70
     2
  9
$LUPREC
 70
     4
  9
$SKETCHINC
 40
1.0
  9
$FILLETRAD
 40
0.5
  9
$AUNITS
 70
     0
  9
$AUPREC
 70
     2
  9
$MENU
  1
acad
  9
$ELEVATION
 40
0.0
  9
$PELEVATION
 40
0.0
  9
$THICKNESS
 40
0.0
  9
$LIMCHECK
 70
     0
  9
$CHAMFERA
 40
0.5
  9
$CHAMFERB
 40
0.5
  9
$SKPOLY
 70
     0
  9
$TDCREATE
 40
2458747.710669595
  9
$TDUPDATE
 40
2460131.485547072
  9
$TDINDWG
 40
15.9797390625
  9
$TDUSRTIMER
 40
15.9797390625
  9
$USRTIMER
 70
     1
  9
$ANGBASE
 50
0.0
  9
$ANGDIR
 70
     0
  9
$PDMODE
 70
     0
  9
$PDSIZE
 40
0.0
  9
$PLINEWID
 40
0.0
  9
$COORDS
 70
     2
  9
$SPLFRAME
 70
     0
  9
$SPLINETYPE
 70
     6
  9
$SPLINESEGS
 70
     8
  9
$ATTDIA
 70
     0
  9
$ATTREQ
 70
     1
  9
$HANDLING
 70
     1
  9
$HANDSEED
  5
D5E65
  9
$SURFTAB1
 70
     6
  9
$SURFTAB2
 70
     6
  9
$SURFTYPE
 70
     6
  9
$SURFU
 70
     6
  9
$SURFV
 70
     6
  9
$UCSNAME
  2

  9
$UCSORG
 10
0.0
 20
0.0
 30
0.0
  9
$UCSXDIR
 10
1.0
 20
0.0
 30
0.0
  9
$UCSYDIR
 10
0.0
 20
1.0
 30
0.0
  9
$PUCSNAME
  2

  9
$PUCSORG
 10
0.0
 20
0.0
 30
0.0
  9
$PUCSXDIR
 10
1.0
 20
0.0
 30
0.0
  9
$PUCSYDIR
 10
0.0
 20
1.0
 30
0.0
  9
$USERI1
 70
     0
  9
$USERI2
 70
     0
  9
$USERI3
 70
     0
  9
$USERI4
 70
     0
  9
$USERI5
 70
     0
  9
$USERR1
 40
0.0
  9
$USERR2
 40
0.0
  9
$USERR3
 40
0.0
  9
$USERR4
 40
0.0
  9
$USERR5
 40
4.5
  9
$WORLDVIEW
 70
     1
  9
$SHADEDGE
 70
     1
  9
$SHADEDIF
 70
    70
  9
$TILEMODE
 70
     1
  9
$MAXACTVP
 70
    48
  9
$PLIMCHECK
 70
     0
  9
$PEXTMIN
 10
1.000000000000000E+20
 20
1.000000000000000E+20
 30
1.000000000000000E+20
  9
$PEXTMAX
 10
-1.000000000000000E+20
 20
-1.000000000000000E+20
 30
-1.000000000000000E+20
  9
$PLIMMIN
 10
0.0
 20
0.0
  9
$PLIMMAX
 10
420.0
 20
297.0
  9
$UNITMODE
 70
     0
  9
$VISRETAIN
 70
     1
  9
$PLINEGEN
 70
     0
  9
$PSLTSCALE
 70
     1
  0
ENDSEC
  0
SECTION
  2
TABLES
  0
TABLE
  2
VPORT
 70
     1
  0
VPORT
  2
*ACTIVE
 70
     0
 10
0.0
 20
0.0
 11
1.0
 21
1.0
 12
-13429.93308877706
 22
-10329.57673959796
 13
0.0
 23
0.0
 14
10.0
 24
10.0
 15
10.0
 25
10.0
 16
0.0
 26
0.0
 36
1.0
 17
11061.660545
 27
7486.583649
 37
474.311593
 40
206.931717553552
 41
2.12079701120797
 42
50.0
 43
0.0
 44
0.0
 50
0.0
 51
0.0
 71
    16
 72
    20
 73
     1
 74
     1
 75
     0
 76
     0
 77
     0
 78
     0
  0
ENDTAB
  0
TABLE
  2
LTYPE
 70
    13
  0
LTYPE
  2
CONTINUOUS
 70
     0
  3
Solid line
 72
    65
 73
     0
 40
0.0
  0
LTYPE
  2
CENTER2
 70
     0
  3
Center (.5x) ___ _ ___ _ ___ _ ___ _ ___ _ ___
 72
    65
 73
     4
 40
28.575
 49
19.05
 49
-3.175
 49
3.175
 49
-3.175
  0
ENDTAB
  0
TABLE
  2
LAYER
 70
    38
  0
LAYER
  2
0
 70
     0
 62
     7
  6
CONTINUOUS
  0
LAYER
  2
01
 70
     0
 62
     1
  6
CONTINUOUS
  0
LAYER
  2
1CENTER
 70
     0
 62
     7
  6
CENTER2
  0
LAYER
  2
1DIM
 70
     0
 62
     7
  6
CONTINUOUS
  0
LAYER
  2
1TEXT
 70
     0
 62
     7
  6
CONTINUOUS
  0
LAYER
  2
1HATCH
 70
     0
 62
     7
  6
CONTINUOUS
  0
LAYER
  2
1TEXT2
 70
     0
 62
     7
  6
CONTINUOUS
  0
ENDTAB
  0
TABLE
  2
STYLE
 70
    34
  0
STYLE
  2
STANDARD
 70
     0
 40
0.0
 41
1.0
 50
0.0
 71
     0
 42
2.0
  3
txt.shx
  4
extfont.shx
  0
STYLE
  2
MAKER
 70
     0
 40
0.0
 41
1.0
 50
0.0
 71
     0
 42
4.0
  3
Meiryo.ttf
  4

  0
STYLE
  2
STANDARD06
 70
     0
 40
0.0
 41
0.6
 50
0.0
 71
     0
 42
2.0
  3
romans.shx
  4
extfont2.shx
  0
ENDTAB
  0
TABLE
  2
VIEW
 70
     0
  0
ENDTAB
  0
TABLE
  2
UCS
 70
     5
  0
UCS
  2
U
 70
     0
 10
0.0
 20
0.0
 30
0.0
 11
1.0
 21
0.0
 31
0.0
 12
0.0
 22
2.000000000000000E-16
 32
1.0
  0
UCS
  2
L
 70
     0
 10
0.0
 20
0.0
 30
0.0
 11
-2.000000000000000E-16
 21
-1.0
 31
2.000000000000000E-16
 12
0.0
 22
2.000000000000000E-16
 32
1.0
  0
UCS
  2
R
 70
     0
 10
0.0
 20
0.0
 30
0.0
 11
3.000000000000000E-16
 21
1.0
 31
-2.000000000000000E-16
 12
0.0
 22
2.000000000000000E-16
 32
1.0
  0
UCS
  2
ISOME
 70
     0
 10
0.0
 20
0.0
 30
0.0
 11
0.7071450863198266
 21
-0.7070684729403536
 31
-3.830824619470000E-5
 12
0.4082704059428736
 22
0.408270407740115
 32
0.8164744636514736
  0
UCS
  2
PERSPECTIVE
 70
     0
 10
0.0
 20
0.0
 30
0.0
 11
0.8191477691768962
 21
-0.5735823260466403
 31
-0.0004974931557765
 12
0.1584844715982971
 22
0.225502028986108
 32
0.9612655757829659
  0
ENDTAB
  0
TABLE
  2
APPID
 70
    37
  0
APPID
  2
ACAD
 70
     0
  0
APPID
  2
CONTENTTABDATA
 70
     0
  0
APPID
  2
CONTENTCURRENTTAB
 70
     0
  0
APPID
  2
CONTENTBLOCKICON
 70
     0
  0
APPID
  2
CONTENTBLOCKDESCRIPTION
 70
     0
  0
APPID
  2
DRAWINGVARIABLESXDATA
 70
     0
  0
APPID
  2
CONTENTLONGBLOCKNAME
 70
     0
  0
APPID
  2
ACAD_PSEXT
 70
     0
  0
APPID
  2
ACAD_MLEADERVER
 70
     0
  0
APPID
  2
ACAD_DSTYLE_DIMRADIAL_EXTE
 70
     0
  0
APPID
  2
ACDBBLOCKREPETAG
 70
     0
  0
APPID
  2
ACDBDYNAMICBLOCKTRUENAME
 70
     0
  0
APPID
  2
ACDBDYNAMICBLOCKGUID
 70
     0
  0
APPID
  2
ACDBBLOCKREPBTAG
 70
     0
  0
APPID
  2
ACADANNOTATIVE
 70
     0
  0
APPID
  2
ACAUTHENVIRON
 70
     0
  0
APPID
  2
ACADANNOPO
 70
     0
  0
APPID
  2
ACLAYERTOOLS
 70
     0
  0
APPID
  2
ACAD_EXEMPT_FROM_CAD_STAND
 70
     0
  0
APPID
  2
ACAECLAYERSTANDARD
 70
     0
  0
APPID
  2
ACAD_DSTYLE_DIMJOGGED_JOGA
 70
     0
  0
APPID
  2
ACAD_DSTYLE_DIM_LINETYPE
 70
     0
  0
APPID
  2
ACAD_DSTYLE_DIM_EXT1_LINET
 70
     0
  0
APPID
  2
ACAD_DSTYLE_DIM_EXT2_LINET
 70
     0
  0
APPID
  2
ACAD_DIMASSOC_CALC_DIMLFAC
 70
     0
  0
APPID
  2
ACAD_DIMASSOC_DIMLFAC
 70
     0
  0
APPID
  2
ACAD_DIMASSOC_OVERRIDDEN_D
 70
     0
  0
APPID
  2
ACAD_NAV_VCDISPLAY
 70
     0
  0
APPID
  2
ACAD_OBJECT_CHANGE_GUID
 70
     0
  0
APPID
  2
ACADANNOTATIVEDECOMPOSITIO
 70
     0
  0
APPID
  2
ACAD_DSTYLE_DIMJAG
 70
     0
  0
APPID
  2
ACAD_DSTYLE_DIMTALN
 70
     0
  0
APPID
  2
GRADIENTCOLOR1ACI
 70
     0
  0
APPID
  2
GRADIENTCOLOR2ACI
 70
     0
  0
APPID
  2
ACADSTRINGINFO
 70
     0
  0
APPID
  2
ACADANNOMONITORALERTICONDI
 70
     0
  0
APPID
  2
ACADANNOAV
 70
     0
  0
ENDTAB
  0
TABLE
  2
DIMSTYLE
 70
     2
  0
DIMSTYLE
  2
NEWX10
 70
     0
  3
 
  4

  5

  6
OPEN30
  7
OPEN30
 40
1.0
 41
2.0
 42
0.0
 43
7.0
 44
1.0
 45
0.0
 46
0.0
 47
0.0
 48
0.0
140
3.5
141
0.0
142
0.0
143
25.4
144
1.0
145
0.0
146
0.7
147
0.7
 71
     0
 72
     0
 73
     0
 74
     0
 75
     0
 76
     0
 77
     1
 78
     8
170
     0
171
     2
172
     1
173
     1
174
     0
175
     0
176
   256
177
   256
178
   201
  0
DIMSTYLE
  2
ISO-25
 70
     0
  3

  4

  5

  6

  7

 40
1.0
 41
20.0
 42
3.0
 43
3.75
 44
2.0
 45
0.0
 46
0.0
 47
0.0
 48
0.0
140
30.0
141
5.0
142
0.0
143
0.03937
144
1.0
145
0.0
146
1.0
147
8.0
 71
     0
 72
     0
 73
     0
 74
     0
 75
     0
 76
     0
 77
     1
 78
     8
170
     0
171
     3
172
     1
173
     0
174
     0
175
     0
176
     1
177
     1
178
     1
  0
ENDTAB
  0
ENDSEC
  0
SECTION
  2
BLOCKS
  0
BLOCK
  8
0
  2
$MODEL_SPACE
 70
     0
 10
0.0
 20
0.0
 30
0.0
  3
$MODEL_SPACE
  1

  0
ENDBLK
  5
1A
  8
0
  0
BLOCK
 67
     1
  8
0
  2
$PAPER_SPACE
 70
     0
 10
0.0
 20
0.0
 30
0.0
  3
$PAPER_SPACE
  1

  0
ENDBLK
  5
D5185
 67
     1
  8
0
  0
BLOCK
  8
0
  2
_OPEN30
 70
     0
 10
0.0
 20
0.0
 30
0.0
  3
_OPEN30
  1

  0
LINE
  5
2F1
  8
0
  6
BYBLOCK
 62
     0
 10
-1.0
 20
0.267949
 30
0.0
 11
0.0
 21
0.0
 31
0.0
  0
LINE
  5
2F2
  8
0
  6
BYBLOCK
 62
     0
 10
0.0
 20
0.0
 30
0.0
 11
-1.0
 21
-0.267949
 31
0.0
  0
LINE
  5
2F3
  8
0
  6
BYBLOCK
 62
     0
 10
0.0
 20
0.0
 30
0.0
 11
-1.0
 21
0.0
 31
0.0
  0
ENDBLK
  5
2F4
  8
0
  0
BLOCK
  8
0
  2
A3WAKUKAWAJUN2017_HYOUDAI_
 70
     0
 10
0.0
 20
0.0
 30
0.0
  3
A3WAKUKAWAJUN2017_HYOUDAI_
  1

  0
LINE
  5
940D1
  8
0
 10
13.26299999998673
 20
-0.0001000000000317
 30
0.0
 11
9.236999999990758
 21
8.999899999990987
 31
0.0
1001
ACAD
1000
ASC_BOUNDS
1002
{
1070
    19
1005
94112
1002
}
  0
LINE
  5
940D2
  8
0
 10
5.657999999994331
 20
0.9999999999989768
 30
0.0
 11
9.236999999990758
 21
8.999999999991019
 31
0.0
1001
ACAD
1000
ASC_BOUNDS
1002
{
1070
    19
1005
94112
1002
}
  0
LINE
  5
940D3
  8
0
 10
18.59199999998134
 20
-0.2368999999997641
 30
0.0
 11
16.46099999998353
 21
5.432899999994561
 31
0.0
1001
ACAD
1000
ASC_BOUNDS
1002
{
1070
    19
1005
94113
1002
}
  0
LINE
  5
940D4
  8
0
 10
18.59199999998134
 20
-0.2368999999997641
 30
0.0
 11
22.38199999997767
 21
8.763099999991255
 31
0.0
1001
ACAD
1000
ASC_BOUNDS
1002
{
1070
    19
1005
94113
1002
}
  0
LINE
  5
940D5
  8
0
 10
14.32899999998563
 20
-0.2368999999997641
 30
0.0
 11
16.46099999998353
 21
5.432899999994561
 31
0.0
1001
ACAD
1000
ASC_BOUNDS
1002
{
1070
    19
1005
94113
1002
}
  0
LINE
  5
940D6
  8
0
 10
14.32899999998563
 20
-0.2368999999997641
 30
0.0
 11
10.53899999998941
 21
8.763099999991255
 31
0.0
1001
ACAD
1000
ASC_BOUNDS
1002
{
1070
    19
1005
94113
1002
}
  0
LINE
  5
940D7
  8
0
 10
19.53899999998043
 20
-0.0001000000000317
 30
0.0
 11
23.56599999997638
 21
8.999899999990987
 31
0.0
1001
ACAD
1000
ASC_BOUNDS
1002
{
1070
    19
1005
94114
1002
}
  0
LINE
  5
940D8
  8
0
 10
26.97358892824991
 20
1.383099999991202
 30
0.0
 11
23.56599999997638
 21
8.999899999990987
 31
0.0
1001
ACAD
1000
ASC_BOUNDS
1002
{
1070
    19
1005
94114
1002
}
  0
LINE
  5
940D9
  8
0
 10
5.657999999994331
 20
0.9999999999989768
 30
0.0
 11
3.181999999996833
 21
4.668599999995308
 31
0.0
1001
ACAD
1000
ASC_BOUNDS
1002
{
1070
    19
1005
94112
1002
}
  0
LINE
  5
940DA
  8
0
 10
4.617999999995391
 20
-0.0001000000000317
 30
0.0
 11
1.420999999998571
 21
4.736799999995242
 31
0.0
1001
ACAD
1000
ASC_BOUNDS
1002
{
1070
    19
1005
94112
1002
}
  0
LINE
  5
940DB
  8
0
 10
1.420999999998571
 20
8.763099999991255
 30
0.0
 11
1.420999999998571
 21
0.0
 31
0.0
1001
ACAD
1000
ASC_BOUNDS
1002
{
1070
    19
1005
94117
1002
}
  0
LINE
  5
940DC
  8
0
 10
0.0
 20
8.763099999991255
 30
0.0
 11
0.0
 21
0.0
 31
0.0
1001
ACAD
1000
ASC_BOUNDS
1002
{
1070
    19
1005
94117
1002
}
  0
LINE
  5
940DD
  8
0
 10
6.766999999993232
 20
-0.0001000000000317
 30
0.0
 11
7.826999999992154
 21
2.368399999997621
 31
0.0
1001
ACAD
1000
ASC_BOUNDS
1002
{
1070
    19
1005
94112
1002
}
  0
LINE
  5
940DE
  8
0
 10
0.0
 20
0.0
 30
0.0
 11
1.420999999998571
 21
0.0
 31
0.0
1001
ACAD
1000
ASC_BOUNDS
1002
{
1070
    19
1005
94117
1002
}
  0
LINE
  5
940DF
  8
0
 10
4.617999999995391
 20
0.0
 30
0.0
 11
6.766999999993232
 21
0.0
 31
0.0
1001
ACAD
1000
ASC_BOUNDS
1002
{
1070
    19
1005
94112
1002
}
  0
LINE
  5
940E0
  8
0
 10
11.70599999998831
 20
-0.0001000000000317
 30
0.0
 11
10.64699999998936
 21
2.368399999997621
 31
0.0
1001
ACAD
1000
ASC_BOUNDS
1002
{
1070
    19
1005
94112
1002
}
  0
LINE
  5
940E1
  8
0
 10
7.826999999992154
 20
2.368399999997621
 30
0.0
 11
10.64699999998936
 21
2.368399999997621
 31
0.0
1001
ACAD
1000
ASC_BOUNDS
1002
{
1070
    19
1005
94112
1002
}
  0
LINE
  5
940E2
  8
0
 10
11.70599999998831
 20
0.0
 30
0.0
 11
13.26299999998673
 21
0.0
 31
0.0
1001
ACAD
1000
ASC_BOUNDS
1002
{
1070
    19
1005
94112
1002
}
  0
LINE
  5
940E3
  8
0
 10
22.15599999997789
 20
2.368399999997621
 30
0.0
 11
24.97599999997499
 21
2.368399999997621
 31
0.0
1001
ACAD
1000
ASC_BOUNDS
1002
{
1070
    19
1005
94114
1002
}
  0
LINE
  5
940E4
  8
0
 10
19.53899999998043
 20
0.0
 30
0.0
 11
21.09599999997886
 21
0.0
 31
0.0
1001
ACAD
1000
ASC_BOUNDS
1002
{
1070
    19
1005
94114
1002
}
  0
LINE
  5
940E5
  8
0
 10
21.09599999997886
 20
-0.0001000000000317
 30
0.0
 11
22.15599999997789
 21
2.368399999997621
 31
0.0
1001
ACAD
1000
ASC_BOUNDS
1002
{
1070
    19
1005
94114
1002
}
  0
LINE
  5
940E6
  8
0
 10
26.02015566812236
 20
0.0330999999912365
 30
0.0
 11
24.97599999997499
 21
2.368399999997621
 31
0.0
1001
ACAD
1000
ASC_BOUNDS
1002
{
1070
    19
1005
94114
1002
}
  0
LINE
  5
940E7
  8
0
 10
14.32399999998563
 20
3.315799999996671
 30
0.0
 11
16.46099999998353
 21
8.999899999990987
 31
0.0
1001
ACAD
1000
ASC_BOUNDS
1002
{
1070
    19
1005
94113
1002
}
  0
LINE
  5
940E8
  8
0
 10
6.432999999993513
 20
8.763099999991255
 30
0.0
 11
3.181999999996833
 21
4.668599999995308
 31
0.0
1001
ACAD
1000
ASC_BOUNDS
1002
{
1070
    19
1005
94112
1002
}
  0
LINE
  5
940E9
  8
0
 10
4.617999999995391
 20
8.763099999991255
 30
0.0
 11
1.420999999998571
 21
4.736799999995242
 31
0.0
1001
ACAD
1000
ASC_BOUNDS
1002
{
1070
    19
1005
94112
1002
}
  0
LINE
  5
940EA
  8
0
 10
0.0
 20
8.763099999991255
 30
0.0
 11
1.420999999998571
 21
8.763099999991255
 31
0.0
1001
ACAD
1000
ASC_BOUNDS
1002
{
1070
    19
1005
94117
1002
}
  0
LINE
  5
940EB
  8
0
 10
4.617999999995391
 20
8.763099999991255
 30
0.0
 11
6.432999999993513
 21
8.763099999991255
 31
0.0
1001
ACAD
1000
ASC_BOUNDS
1002
{
1070
    19
1005
94112
1002
}
  0
LINE
  5
940EC
  8
0
 10
14.32399999998563
 20
3.315799999996671
 30
0.0
 11
12.02999999998792
 21
8.763099999991255
 31
0.0
1001
ACAD
1000
ASC_BOUNDS
1002
{
1070
    19
1005
94113
1002
}
  0
LINE
  5
940ED
  8
0
 10
10.06399999998996
 20
3.670999999996297
 30
0.0
 11
9.236999999990758
 21
5.5200999999945
 31
0.0
1001
ACAD
1000
ASC_BOUNDS
1002
{
1070
    19
1005
94112
1002
}
  0
LINE
  5
940EE
  8
0
 10
8.409999999991555
 20
3.670999999996297
 30
0.0
 11
9.236999999990758
 21
5.5200999999945
 31
0.0
1001
ACAD
1000
ASC_BOUNDS
1002
{
1070
    19
1005
94112
1002
}
  0
LINE
  5
940EF
  8
0
 10
8.409999999991555
 20
3.670999999996297
 30
0.0
 11
10.06399999998996
 21
3.670999999996297
 31
0.0
1001
ACAD
1000
ASC_BOUNDS
1002
{
1070
    19
1005
94112
1002
}
  0
LINE
  5
940F0
  8
0
 10
10.53899999998941
 20
8.763099999991255
 30
0.0
 11
12.02999999998792
 21
8.763099999991255
 31
0.0
1001
ACAD
1000
ASC_BOUNDS
1002
{
1070
    19
1005
94113
1002
}
  0
LINE
  5
940F1
  8
0
 10
22.7389999999773
 20
3.670999999996297
 30
0.0
 11
23.56599999997638
 21
5.5200999999945
 31
0.0
1001
ACAD
1000
ASC_BOUNDS
1002
{
1070
    19
1005
94114
1002
}
  0
LINE
  5
940F2
  8
0
 10
22.7389999999773
 20
3.670999999996297
 30
0.0
 11
24.39299999997559
 21
3.670999999996297
 31
0.0
1001
ACAD
1000
ASC_BOUNDS
1002
{
1070
    19
1005
94114
1002
}
  0
LINE
  5
940F3
  8
0
 10
18.59799999998143
 20
3.315799999996671
 30
0.0
 11
20.89099999997916
 21
8.763099999991255
 31
0.0
1001
ACAD
1000
ASC_BOUNDS
1002
{
1070
    19
1005
94113
1002
}
  0
LINE
  5
940F4
  8
0
 10
18.59799999998143
 20
3.315799999996671
 30
0.0
 11
16.46099999998353
 21
8.999899999990987
 31
0.0
1001
ACAD
1000
ASC_BOUNDS
1002
{
1070
    19
1005
94113
1002
}
  0
LINE
  5
940F5
  8
0
 10
20.89099999997916
 20
8.763099999991255
 30
0.0
 11
22.38199999997767
 21
8.763099999991255
 31
0.0
1001
ACAD
1000
ASC_BOUNDS
1002
{
1070
    19
1005
94113
1002
}
  0
LINE
  5
940F6
  8
0
 10
24.39299999997559
 20
3.670999999996297
 30
0.0
 11
23.56599999997638
 21
5.5200999999945
 31
0.0
1001
ACAD
1000
ASC_BOUNDS
1002
{
1070
    19
1005
94114
1002
}
  0
LINE
  5
940F7
  8
0
 10
44.99999999995498
 20
-0.2368999999997641
 30
0.0
 11
40.02599999995994
 21
5.341799999994635
 31
0.0
1001
ACAD
1000
ASC_BOUNDS
1002
{
1070
    19
1005
94116
1002
}
  0
LINE
  5
940F8
  8
0
 10
40.02599999995994
 20
5.341799999994635
 30
0.0
 11
40.02599999995994
 21
0.0
 31
0.0
1001
ACAD
1000
ASC_BOUNDS
1002
{
1070
    19
1005
94116
1002
}
  0
LINE
  5
940F9
  8
0
 10
38.60499999996136
 20
8.999999999991019
 30
0.0
 11
38.60499999996136
 21
0.0
 31
0.0
1001
ACAD
1000
ASC_BOUNDS
1002
{
1070
    19
1005
94116
1002
}
  0
LINE
  5
940FA
  8
0
 10
44.99999999995498
 20
8.763099999991255
 30
0.0
 11
44.99999999995498
 21
-0.2368999999997641
 31
0.0
1001
ACAD
1000
ASC_BOUNDS
1002
{
1070
    19
1005
94116
1002
}
  0
LINE
  5
940FB
  8
0
 10
38.60499999996136
 20
0.0
 30
0.0
 11
40.02599999995994
 21
0.0
 31
0.0
1001
ACAD
1000
ASC_BOUNDS
1002
{
1070
    19
1005
94116
1002
}
  0
LINE
  5
940FC
  8
0
 10
43.57899999995641
 20
3.421199999996588
 30
0.0
 11
38.60499999996136
 21
8.999899999990987
 31
0.0
1001
ACAD
1000
ASC_BOUNDS
1002
{
1070
    19
1005
94116
1002
}
  0
LINE
  5
940FD
  8
0
 10
43.57899999995641
 20
8.763099999991255
 30
0.0
 11
43.57899999995641
 21
3.421199999996588
 31
0.0
1001
ACAD
1000
ASC_BOUNDS
1002
{
1070
    19
1005
94116
1002
}
  0
LINE
  5
940FE
  8
0
 10
43.57899999995641
 20
8.763099999991255
 30
0.0
 11
44.99999999995498
 21
8.763099999991255
 31
0.0
1001
ACAD
1000
ASC_BOUNDS
1002
{
1070
    19
1005
94116
1002
}
  0
LINE
  5
940FF
  8
0
 10
37.67199999996831
 20
8.763099999991255
 30
0.0
 11
36.23199999996837
 21
8.763099999991255
 31
0.0
  0
LINE
  5
94100
  8
0
 10
31.64199999996833
 20
8.763099999991255
 30
0.0
 11
31.64199999996833
 21
2.481619422925121
 31
0.0
  0
LINE
  5
94101
  8
0
 10
37.67199999996831
 20
8.763099999991255
 30
0.0
 11
37.67199999996831
 21
2.481619422925121
 31
0.0
  0
LINE
  5
94102
  8
0
 10
36.23199999996837
 20
8.763099999991255
 30
0.0
 11
36.23199999996837
 21
2.481619422925064
 31
0.0
  0
LINE
  5
94103
  8
0
 10
33.08199999996839
 20
8.763099999991255
 30
0.0
 11
33.08199999996839
 21
2.481619422925121
 31
0.0
  0
ARC
  5
94104
  8
0
 10
34.65699999996832
 20
3.183099999991214
 30
0.0
 40
3.420000000000007
 50
240.0000000000255
 51
299.9999999999766
  0
ARC
  5
94105
  8
0
 10
34.65699999996832
 20
3.183099999991214
 30
0.0
 40
1.97999999999999
 50
240.000000000026
 51
299.9999999999703
  0
LINE
  5
94106
  8
0
 10
33.08199999996828
 20
8.763099999991255
 30
0.0
 11
31.64199999996833
 21
8.763099999991255
 31
0.0
  0
ARC
  5
94107
  8
0
 10
35.06199999996829
 20
2.481619422925064
 30
0.0
 40
1.17
 50
299.9999999999699
 51
0.0
  0
ARC
  5
94108
  8
0
 10
34.25199999996835
 20
2.481619422925121
 30
0.0
 40
1.17
 50
180.0
 51
240.0000000000238
  0
ARC
  5
94109
  8
0
 10
35.06199999996841
 20
2.481619422925121
 30
0.0
 40
2.61
 50
299.9999999999756
 51
0.0
  0
ARC
  5
9410A
  8
0
 10
34.25199999996835
 20
2.481619422925121
 30
0.0
 40
2.61
 50
180.0
 51
240.0000000000244
  0
LINE
  5
9410B
  8
0
 10
29.30199999996933
 20
8.763099999991255
 30
0.0
 11
30.74199999996927
 21
8.763099999991255
 31
0.0
1001
ACAD
1000
ASC_BOUNDS
1002
{
1070
    19
1005
94114
1002
}
  0
LINE
  5
9410C
  8
0
 10
30.74199999996927
 20
8.763099999991255
 30
0.0
 11
30.74199999996927
 21
2.373099999991211
 31
0.0
1001
ACAD
1000
ASC_BOUNDS
1002
{
1070
    19
1005
94114
1002
}
  0
LINE
  5
9410D
  8
0
 10
26.02015566812236
 20
0.0330999999912365
 30
0.0
 11
28.40199999996923
 21
0.0330999999912365
 31
0.0
1001
ACAD
1000
ASC_BOUNDS
1002
{
1070
    19
1005
94114
1002
}
  0
LINE
  5
9410E
  8
0
 10
29.30199999996933
 20
8.763099999991255
 30
0.0
 11
29.30199999996933
 21
2.283099999991236
 31
0.0
1001
ACAD
1000
ASC_BOUNDS
1002
{
1070
    19
1005
94114
1002
}
  0
LINE
  5
9410F
  8
0
 10
26.97358892824991
 20
1.383099999991202
 30
0.0
 11
28.40199999996923
 21
1.383099999991202
 31
0.0
1001
ACAD
1000
ASC_BOUNDS
1002
{
1070
    19
1005
94114
1002
}
  0
ARC
  5
94110
  8
0
 10
28.40199999996923
 20
2.283099999991236
 30
0.0
 40
0.9
 50
270.0
 51
0.0
1001
ACAD
1000
ASC_BOUNDS
1002
{
1070
    19
1005
94114
1002
}
  0
ARC
  5
94111
  8
0
 10
28.40199999996923
 20
2.373099999991211
 30
0.0
 40
2.34
 50
270.0
 51
0.0
1001
ACAD
1000
ASC_BOUNDS
1002
{
1070
    19
1005
94114
1002
}
  0
INSERT
  5
94112
  8
0
  2
*X441
 10
0.0
 20
0.0
 30
0.0
1001
ACAD
1000
HATCH
1002
{
1070
    19
1000
ANSI37
1040
0.15
1040
0.0
1000
ASC_BOUNDS
1070
     2
1070
     2
1070
    12
1005
940D1
1005
940D2
1005
940D9
1005
940E8
1005
940EB
1005
940E9
1005
940DA
1005
940DF
1005
940DD
1005
940E1
1005
940E0
1005
940E2
1070
     2
1070
     3
1005
940ED
1005
940EF
1005
940EE
1000
ASC_SEEDPOINT
1011
3.614004224891801
1021
2.996669441146025
1031
0.0
1021
2.996669441146025
1031
0.0
1000
R14_HATCH_DATA
1000
94112
1011
1.0
1021
0.0
1031
0.0
1021
0.0
1031
0.0
1011
0.0
1021
1.0
1031
0.0
1021
1.0
1031
0.0
1011
0.0
1021
0.0
1031
1.0
1021
0.0
1031
1.0
1040
0.0
1010
0.0
1020
0.0
1030
1.0
1000
ANSI37
1070
     0
1070
     1
1071
        2
1071
        7
1070
     0
1070
     1
1071
       17
1040
13.26299999998673
1040
-0.0001000000000317
1040
9.236999999990758
1040
8.999899999990987
1040
9.236999999990758
1040
8.999999999991019
1040
5.657999999994331
1040
0.9999999999989768
1040
3.181999999996833
1040
4.668599999995308
1040
6.432999999993513
1040
8.763099999991255
1040
4.617999999995391
1040
8.763099999991255
1040
1.420999999998571
1040
4.736799999995242
1040
4.617999999995391
1040
-0.0001000000000317
1040
4.617999999995391
1040
0.0
1040
6.766999999993232
1040
0.0
1040
6.766999999993232
1040
-0.0001000000000317
1040
7.826999999992154
1040
2.368399999997621
1040
10.64699999998936
1040
2.368399999997621
1040
11.70599999998831
1040
-0.0001000000000317
1040
11.70599999998831
1040
0.0
1040
13.26299999998673
1040
0.0
1071
       12
1005
940D1
1005
940D2
1005
940D9
1005
940E8
1005
940EB
1005
940E9
1005
940DA
1005
940DF
1005
940DD
1005
940E1
1005
940E0
1005
940E2
1071
       22
1070
     0
1070
     1
1071
        3
1040
9.236999999990758
1040
5.5200999999945
1040
10.06399999998996
1040
3.670999999996297
1040
8.409999999991555
1040
3.670999999996297
1071
        3
1005
940ED
1005
940EF
1005
940EE
1070
     0
1070
     1
1040
0.0
1040
0.15
1070
     0
1070
     2
1040
0.7853981633974483
1040
49.29960901727088
1040
-10.17736998311392
1040
-0.3367596045400932
1040
0.3367596045400932
1070
     0
1040
2.356194490192345
1040
49.29960901727088
1040
-10.17736998311392
1040
-0.3367596045400932
1040
-0.3367596045400932
1070
     0
1040
0.0110235143455945
1071
        2
1040
3.614004224891801
1040
2.996669441146025
1040
0.0
1040
3.614004224891801
1040
2.996669441146025
1040
0.0
1002
}
  0
INSERT
  5
94113
  8
0
  2
*X442
 10
0.0
 20
0.0
 30
0.0
1001
ACAD
1000
HATCH
1002
{
1070
    19
1000
ANSI37
1040
0.15
1040
0.0
1000
ASC_BOUNDS
1070
     1
1070
     2
1070
    10
1005
940D3
1005
940D4
1005
940F5
1005
940F3
1005
940F4
1005
940E7
1005
940EC
1005
940F0
1005
940D6
1005
940D5
1000
ASC_SEEDPOINT
1011
14.73245321214324
1021
2.798246178283421
1031
0.0
1021
2.798246178283421
1031
0.0
1000
R14_HATCH_DATA
1000
94113
1011
1.0
1021
0.0
1031
0.0
1021
0.0
1031
0.0
1011
0.0
1021
1.0
1031
0.0
1021
1.0
1031
0.0
1011
0.0
1021
0.0
1031
1.0
1021
0.0
1031
1.0
1040
0.0
1010
0.0
1020
0.0
1030
1.0
1000
ANSI37
1070
     0
1070
     1
1071
        1
1071
        7
1070
     0
1070
     1
1071
       10
1040
16.46099999998353
1040
5.432899999994561
1040
18.59199999998134
1040
-0.2368999999997641
1040
22.38199999997767
1040
8.763099999991255
1040
20.89099999997916
1040
8.763099999991255
1040
18.59799999998143
1040
3.315799999996671
1040
16.46099999998353
1040
8.999899999990987
1040
14.32399999998563
1040
3.315799999996671
1040
12.02999999998792
1040
8.763099999991255
1040
10.53899999998941
1040
8.763099999991255
1040
14.32899999998563
1040
-0.2368999999997641
1071
       10
1005
940D3
1005
940D4
1005
940F5
1005
940F3
1005
940F4
1005
940E7
1005
940EC
1005
940F0
1005
940D6
1005
940D5
1070
     0
1070
     1
1040
0.0
1040
0.15
1070
     0
1070
     2
1040
0.7853981633974483
1040
49.29960901727088
1040
-10.17736998311392
1040
-0.3367596045400932
1040
0.3367596045400932
1070
     0
1040
2.356194490192345
1040
49.29960901727088
1040
-10.17736998311392
1040
-0.3367596045400932
1040
-0.3367596045400932
1070
     0
1040
0.0110235143455945
1071
        1
1040
14.73245321214324
1040
2.798246178283421
1040
0.0
1002
}
  0
INSERT
  5
94114
  8
0
  2
*X443
 10
0.0
 20
0.0
 30
0.0
1001
ACAD
1000
HATCH
1002
{
1070
    19
1000
ANSI37
1040
0.15
1040
0.0
1000
ASC_BOUNDS
1070
     2
1070
     2
1070
    13
1005
940D7
1005
940E4
1005
940E5
1005
940E3
1005
940E6
1005
9410D
1005
94111
1005
9410C
1005
9410B
1005
9410E
1005
94110
1005
9410F
1005
940D8
1070
     2
1070
     3
1005
940F1
1005
940F6
1005
940F2
1000
ASC_SEEDPOINT
1011
21.97929957367762
1021
3.294304244259308
1031
0.0
1021
3.294304244259308
1031
0.0
1000
R14_HATCH_DATA
1000
94114
1011
1.0
1021
0.0
1031
0.0
1021
0.0
1031
0.0
1011
0.0
1021
1.0
1031
0.0
1021
1.0
1031
0.0
1011
0.0
1021
0.0
1031
1.0
1021
0.0
1031
1.0
1040
0.0
1010
0.0
1020
0.0
1030
1.0
1000
ANSI37
1070
     0
1070
     1
1071
        2
1071
        7
1070
     1
1070
     1
1071
       15
1040
23.56599999997638
1040
8.999899999990987
1040
0.0
1040
19.53899999998043
1040
-0.0001000000000317
1040
0.0
1040
19.53899999998043
1040
0.0
1040
0.0
1040
21.09599999997886
1040
0.0
1040
0.0
1040
21.09599999997886
1040
-0.0001000000000317
1040
0.0
1040
22.15599999997789
1040
2.368399999997621
1040
0.0
1040
24.97599999997499
1040
2.368399999997621
1040
0.0
1040
26.02015566812236
1040
0.0330999999912365
1040
0.0
1040
28.40199999996923
1040
0.0330999999912365
1040
0.414213562373095
1040
30.74199999996923
1040
2.373099999991211
1040
0.0
1040
30.74199999996927
1040
8.763099999991255
1040
0.0
1040
29.30199999996933
1040
8.763099999991255
1040
0.0
1040
29.30199999996933
1040
2.283099999991236
1040
-0.414213562373095
1040
28.40199999996923
1040
1.383099999991237
1040
0.0
1040
26.97358892824991
1040
1.383099999991202
1040
0.0
1071
       13
1005
940D7
1005
940E4
1005
940E5
1005
940E3
1005
940E6
1005
9410D
1005
94111
1005
9410C
1005
9410B
1005
9410E
1005
94110
1005
9410F
1005
940D8
1071
       22
1070
     0
1070
     1
1071
        3
1040
22.7389999999773
1040
3.670999999996297
1040
23.56599999997638
1040
5.5200999999945
1040
24.39299999997559
1040
3.670999999996297
1071
        3
1005
940F1
1005
940F6
1005
940F2
1070
     0
1070
     1
1040
0.0
1040
0.15
1070
     0
1070
     2
1040
0.7853981633974483
1040
49.29960901727088
1040
-10.17736998311392
1040
-0.3367596045400932
1040
0.3367596045400932
1070
     0
1040
2.356194490192345
1040
49.29960901727088
1040
-10.17736998311392
1040
-0.3367596045400932
1040
-0.3367596045400932
1070
     0
1040
0.0110235143455945
1071
        2
1040
21.97929957367762
1040
3.294304244259308
1040
0.0
1040
21.97929957367762
1040
3.294304244259308
1040
0.0
1002
}
  0
INSERT
  5
94115
  8
0
  2
*X444
 10
0.0
 20
0.0
 30
0.0
1001
ACAD
1000
HATCH
1002
{
1070
    19
1000
ANSI37
1040
0.15
1040
0.0
1000
R14_HATCH_DATA
1000
94115
1011
1.0
1021
0.0
1031
0.0
1021
0.0
1031
0.0
1011
0.0
1021
1.0
1031
0.0
1021
1.0
1031
0.0
1011
0.0
1021
0.0
1031
1.0
1021
0.0
1031
1.0
1040
0.0
1010
0.0
1020
0.0
1030
1.0
1000
ANSI37
1070
     0
1070
     1
1071
        1
1071
        7
1070
     1
1070
     1
1071
       12
1040
31.64199999996833
1040
2.481619422925121
1040
0.2679491924310942
1040
32.94699999997067
1040
0.2212931190493919
1040
0.2679491924301353
1040
36.36699999995983
1040
0.2212931190459813
1040
0.2679491924321411
1040
37.67199999996831
1040
2.481619422928361
1040
0.0
1040
37.67199999996831
1040
8.763099999991255
1040
0.0
1040
36.23199999996837
1040
8.763099999991255
1040
0.0
1040
36.23199999996837
1040
2.481619422925064
1040
-0.2679491924310291
1040
35.64699999996708
1040
1.468369700498386
1040
-0.267949192430519
1040
33.66699999997093
1040
1.468369700497703
1040
-0.267949192431809
1040
33.08199999996839
1040
2.481619422926997
1040
0.0
1040
33.08199999996839
1040
8.763099999991255
1040
0.0
1040
31.64199999996833
1040
8.763099999991255
1040
0.0
1071
        0
1070
     0
1070
     1
1040
0.0
1040
0.15
1070
     0
1070
     2
1040
0.7853981633974483
1040
49.29960901727088
1040
-10.17736998311392
1040
-0.3367596045400932
1040
0.3367596045400932
1070
     0
1040
2.356194490192345
1040
49.29960901727088
1040
-10.17736998311392
1040
-0.3367596045400932
1040
-0.3367596045400932
1070
     0
1040
0.0110235143455945
1071
        1
1040
32.30357378967278
1040
3.988785755459219
1040
0.0
1002
}
  0
INSERT
  5
94116
  8
0
  2
*X445
 10
0.0
 20
0.0
 30
0.0
1001
ACAD
1000
HATCH
1002
{
1070
    19
1000
ANSI37
1040
0.15
1040
0.0
1000
ASC_BOUNDS
1070
     1
1070
     2
1070
     8
1005
940F7
1005
940FA
1005
940FE
1005
940FD
1005
940FC
1005
940F9
1005
940FB
1005
940F8
1000
ASC_SEEDPOINT
1011
39.74896370716704
1021
4.484843821435049
1031
0.0
1021
4.484843821435049
1031
0.0
1000
R14_HATCH_DATA
1000
94116
1011
1.0
1021
0.0
1031
0.0
1021
0.0
1031
0.0
1011
0.0
1021
1.0
1031
0.0
1021
1.0
1031
0.0
1011
0.0
1021
0.0
1031
1.0
1021
0.0
1031
1.0
1040
0.0
1010
0.0
1020
0.0
1030
1.0
1000
ANSI37
1070
     0
1070
     1
1071
        1
1071
        7
1070
     0
1070
     1
1071
        9
1040
40.02599999995994
1040
5.341799999994635
1040
44.99999999995498
1040
-0.2368999999997641
1040
44.99999999995498
1040
8.763099999991255
1040
43.57899999995641
1040
8.763099999991255
1040
43.57899999995641
1040
3.421199999996588
1040
38.60499999996136
1040
8.999899999990987
1040
38.60499999996136
1040
8.999999999991019
1040
38.60499999996136
1040
0.0
1040
40.02599999995994
1040
0.0
1071
        8
1005
940F7
1005
940FA
1005
940FE
1005
940FD
1005
940FC
1005
940F9
1005
940FB
1005
940F8
1070
     0
1070
     1
1040
0.0
1040
0.15
1070
     0
1070
     2
1040
0.7853981633974483
1040
49.29960901727088
1040
-10.17736998311392
1040
-0.3367596045400932
1040
0.3367596045400932
1070
     0
1040
2.356194490192345
1040
49.29960901727088
1040
-10.17736998311392
1040
-0.3367596045400932
1040
-0.3367596045400932
1070
     0
1040
0.0110235143455945
1071
        1
1040
39.74896370716704
1040
4.484843821435049
1040
0.0
1002
}
  0
INSERT
  5
94117
  8
0
  2
*X446
 10
0.0
 20
0.0
 30
0.0
1001
ACAD
1000
HATCH
1002
{
1070
    19
1000
ANSI37
1040
0.15
1040
0.0
1000
ASC_BOUNDS
1070
     1
1070
     2
1070
     4
1005
940DB
1005
940EA
1005
940DC
1005
940DE
1000
ASC_SEEDPOINT
1011
1.079051535452663
1021
4.148538732891836
1031
0.0
1021
4.148538732891836
1031
0.0
1000
R14_HATCH_DATA
1000
94117
1011
1.0
1021
0.0
1031
0.0
1021
0.0
1031
0.0
1011
0.0
1021
1.0
1031
0.0
1021
1.0
1031
0.0
1011
0.0
1021
0.0
1031
1.0
1021
0.0
1031
1.0
1040
0.0
1010
0.0
1020
0.0
1030
1.0
1000
ANSI37
1070
     0
1070
     1
1071
        1
1071
        7
1070
     0
1070
     1
1071
        4
1040
1.420999999998571
1040
0.0
1040
1.420999999998571
1040
8.763099999991255
1040
0.0
1040
8.763099999991255
1040
0.0
1040
0.0
1071
        4
1005
940DB
1005
940EA
1005
940DC
1005
940DE
1070
     0
1070
     1
1040
0.0
1040
0.15
1070
     0
1070
     2
1040
0.7853981633974483
1040
49.29960901727088
1040
-10.17736998311392
1040
-0.3367596045400932
1040
0.3367596045400932
1070
     0
1040
2.356194490192345
1040
49.29960901727088
1040
-10.17736998311392
1040
-0.3367596045400932
1040
-0.3367596045400932
1070
     0
1040
0.0053004257112761
1071
        1
1040
1.079051535452663
1040
4.148538732891836
1040
0.0
1002
}
  0
ENDBLK
  5
94820
  8
0
  0
BLOCK
  8
0
  2
_TAGCIRCLE
 70
     2
 10
0.0
 20
0.0
 30
0.0
  3
_TAGCIRCLE
  1

  0
CIRCLE
  5
7E2F8
  8
0
  6
BYBLOCK
 62
     0
 10
0.0
 20
0.0
 30
0.0
 40
0.1052552224523172
  0
ATTDEF
  5
7E2F9
  8
0
 62
     0
 10
-0.2125
 20
-0.046875
 30
0.0
 40
0.09375
  1
\U+30BF\U+30B0\U+756A\U+53F7
 72
     1
 11
0.0
 21
-0.046875
 31
0.0
  3
タ グ番号を入力
  2
タ グ番号
 70
     0
1001
ACADSTRINGINFO
1000
MIFCodePage
1070
     1
  0
ENDBLK
  5
7E3D8
  8
0
  0
BLOCK
  8
0
  2
_TAGTRIANGLE
 70
     2
 10
0.0
 20
0.0
 30
0.0
  3
_TAGTRIANGLE
  1

  0
POLYLINE
  5
7E2FE
  8
0
  6
BYBLOCK
 62
     0
 66
     1
 10
0.0
 20
0.0
 30
0.0
 70
     1
  0
VERTEX
  5
D5E55
  8
0
  6
BYBLOCK
 62
     0
 10
-0.2165063509461096
 20
-0.125
 30
0.0
  0
VERTEX
  5
D5E56
  8
0
  6
BYBLOCK
 62
     0
 10
0.0
 20
0.25
 30
0.0
  0
VERTEX
  5
D5E57
  8
0
  6
BYBLOCK
 62
     0
 10
0.2165063509461096
 20
-0.125
 30
0.0
  0
SEQEND
  5
D5E64
  8
0
  6
BYBLOCK
 62
     0
  0
ATTDEF
  5
7E2FF
  8
1TEXT
 62
     0
 10
-0.3805175846051759
 20
-0.046875
 30
0.0
 40
0.14
  1
\U+30BF\U+30B0\U+756A\U+53F7
  7
MAKER
 72
     1
 11
0.0
 21
-0.046875
 31
0.0
  3
タ グ番号を入力
  2
タ グ番号
 70
     0
  0
ENDBLK
  5
7E3DA
  8
0
  0
BLOCK
  8
0
  2
WELD111
 70
     0
 10
0.0
 20
0.0
 30
0.0
  3
WELD111
  1

  0
CIRCLE
  5
7E306
  8
0
 62
     0
 10
6.0
 20
0.0000000000000142
 30
0.0
 40
2.990262378117563
  0
LINE
  5
7E307
  8
0
 62
     0
 10
0.0
 20
0.0
 30
0.0
 11
11.99999999999999
 21
0.0000000000000142
 31
0.0
  0
ENDBLK
  5
7E3DC
  8
0
  0
BLOCK
  8
0
  2
WELD112
 70
     0
 10
0.0
 20
0.0
 30
0.0
  3
WELD112
  1

  0
INSERT
  5
7E30E
  8
0
  6
BYBLOCK
 62
     0
  2
\U+0191X\U+0191|\U+0191B\U+0191G_N_ﾚ_L__
 10
-6.0
 20
0.0
 30
0.0
  0
LINE
  5
7E31B
  8
0
  6
BYBLOCK
 62
     0
 10
-4.67642258006606
 20
-5.151751477760058
 30
0.0
 11
4.67642258006606
 21
-5.151751477760058
 31
0.0
  0
ENDBLK
  5
7E3DE
  8
0
  0
BLOCK
  8
0
  2
\U+0191X\U+0191|\U+0191B\U+0191G_N_ﾚ_L__
 70
     0
 10
0.0
 20
0.0
 30
0.0
  3
\U+0191X\U+0191|\U+0191B\U+0191G_N_ﾚ_L__
  1

  0
CIRCLE
  5
7E318
  8
0
 10
6.0
 20
0.0000000000000142
 30
0.0
 40
2.990262378117563
  0
LINE
  5
7E319
  8
0
 10
0.0
 20
0.0
 30
0.0
 11
11.99999999999999
 21
0.0000000000000142
 31
0.0
  0
ENDBLK
  5
7E3E0
  8
0
  0
BLOCK
  8
0
  2
WELD01
 70
     0
 10
0.0
 20
0.0
 30
0.0
  3
WELD01
  1

  0
LINE
  5
7E322
  8
0
  6
BYBLOCK
 62
     0
 10
0.0
 20
0.0
 30
0.0
 11
11.99999957320006
 21
0.0
 31
0.0
  0
LINE
  5
7E323
  8
0
  6
BYBLOCK
 62
     0
 10
3.591012473199953
 20
-5.462740899999972
 30
0.0
 11
3.591012473199953
 21
0.0
 31
0.0
  0
LINE
  5
7E324
  8
0
  6
BYBLOCK
 62
     0
 10
3.591012473199953
 20
-5.46274040000003
 30
0.0
 11
9.053753873200094
 21
0.0000002475924248
 31
0.0
  0
ENDBLK
  5
7E3E2
  8
0
  0
BLOCK
  8
0
  2
WELD05
 70
     0
 10
0.0
 20
0.0
 30
0.0
  3
WELD05
  1

  0
TEXT
  5
7E329
  8
0
 10
8.006110799999874
 20
-6.467742999999928
 30
0.0
 40
3.2
  1
\U+FF27
 41
0.90047268
  0
LINE
  5
7E32A
  8
1HATCH
 10
0.0
 20
0.0
 30
0.0
 11
11.99999999999989
 21
0.0
 31
0.0
  0
LINE
  5
7E32B
  8
0
 10
3.591012500000033
 20
-5.462740899999972
 30
0.0
 11
3.591012500000033
 21
0.0
 31
0.0
  0
LINE
  5
7E32C
  8
0
 10
3.591012200000023
 20
-5.46274040000003
 30
0.0
 11
9.05375390000006
 21
0.0000002483500339
 31
0.0
  0
LINE
  5
7E32D
  8
0
 10
4.298119099999894
 20
-6.169846999999891
 30
0.0
 11
9.76086040000007
 21
-0.7071065899999667
 31
0.0
  0
ENDBLK
  5
7E3E4
  8
0
  0
BLOCK
  8
0
  2
WELD02
 70
     0
 10
0.0
 20
0.0
 30
0.0
  3
WELD02
  1

  0
LINE
  5
7E332
  8
1HATCH
 10
0.0
 20
0.0
 30
0.0
 11
11.99999957320006
 21
0.0
 31
0.0
  0
LINE
  5
7E333
  8
0
 10
3.591012473199953
 20
-5.462740899999972
 30
0.0
 11
3.591012473199953
 21
0.0
 31
0.0
  0
LINE
  5
7E334
  8
0
 10
3.591012473199953
 20
-5.46274040000003
 30
0.0
 11
9.053753873200094
 21
0.0000002475924248
 31
0.0
  0
LINE
  5
7E335
  8
0
 10
3.591012473199953
 20
5.46274040000003
 30
0.0
 11
9.053752873199755
 21
0.0000004267571967
 31
0.0
  0
LINE
  5
7E336
  8
0
 10
3.591012473199953
 20
5.462740899999972
 30
0.0
 11
3.591012473199953
 21
0.0
 31
0.0
  0
ENDBLK
  5
7E3E6
  8
0
  0
BLOCK
  8
0
  2
WELD09
 70
     0
 10
0.0
 20
0.0
 30
0.0
  3
WELD09
  1

  0
LINE
  5
7E33B
  8
1HATCH
 10
0.0
 20
0.0
 30
0.0
 11
12.0
 21
0.0
 31
0.0
  0
LINE
  5
7E33C
  8
0
 10
4.5
 20
0.0
 30
0.0
 11
4.5
 21
-6.0
 31
0.0
  0
LINE
  5
7E33D
  8
0
 10
7.499999499999831
 20
0.0
 30
0.0
 11
7.499999499999831
 21
-6.0
 31
0.0
  0
ENDBLK
  5
7E3E8
  8
0
  0
BLOCK
  8
0
  2
WELD14
 70
     0
 10
0.0
 20
0.0
 30
0.0
  3
WELD14
  1

  0
LINE
  5
7E342
  8
1HATCH
 10
0.0
 20
0.0
 30
0.0
 11
12.0
 21
0.0
 31
0.0
  0
LINE
  5
7E343
  8
0
 10
10.0
 20
0.0
 30
0.0
 11
10.0
 21
-5.0
 31
0.0
  0
LINE
  5
7E344
  8
0
 10
2.0
 20
0.0
 30
0.0
 11
2.0
 21
-5.0
 31
0.0
  0
LINE
  5
7E345
  8
0
 10
2.0
 20
-5.0
 30
0.0
 11
10.0
 21
-5.0
 31
0.0
  0
ENDBLK
  5
7E3EA
  8
0
  0
BLOCK
  8
0
  2
WELD07
 70
     0
 10
0.0
 20
0.0
 30
0.0
  3
WELD07
  1

  0
LINE
  5
7E34A
  8
1HATCH
 10
0.0
 20
0.0
 30
0.0
 11
9.905951749230908
 21
0.0000000000000003
 31
0.0
  0
ARC
  5
7E34B
  8
0
 10
9.062741300000084
 20
0.0
 30
0.0
 40
5.0
 50
90.0
 51
270.0
  0
LINE
  5
7E34C
  8
0
 10
2.599999900000057
 20
-5.0
 30
0.0
 11
2.599999900000057
 21
0.0
 31
0.0
  0
LINE
  5
7E34D
  8
0
 10
2.599999900000057
 20
5.0
 30
0.0
 11
2.599999900000057
 21
0.0
 31
0.0
  0
ENDBLK
  5
7E3EC
  8
0
  0
BLOCK
  8
0
  2
WELD11
 70
     0
 10
0.0
 20
0.0
 30
0.0
  3
WELD11
  1

  0
LINE
  5
7E352
  8
1HATCH
 10
0.0
 20
0.0
 30
0.0
 11
12.0
 21
0.0
 31
0.0
  0
ARC
  5
7E353
  8
0
 10
11.73137099999985
 20
0.0
 30
0.0
 40
5.0
 50
179.9999900000006
 51
270.0
  0
ARC
  5
7E354
  8
0
 10
0.2686290699998608
 20
0.0
 30
0.0
 40
5.0
 50
270.0
 51
0.0
  0
ENDBLK
  5
7E3EE
  8
0
  0
BLOCK
  8
0
  2
WELD08
 70
     0
 10
0.0
 20
0.0
 30
0.0
  3
WELD08
  1

  0
ARC
  5
7E359
  8
0
 10
0.25
 20
0.0
 30
0.0
 40
5.0
 50
270.0
 51
90.00000300000015
  0
ARC
  5
7E35A
  8
0
 10
11.71274200000005
 20
0.0
 30
0.0
 40
5.0
 50
90.0
 51
270.0
  0
LINE
  5
7E35B
  8
1HATCH
 10
0.0
 20
0.0
 30
0.0
 11
11.99999999999989
 21
0.0
 31
0.0
  0
ENDBLK
  5
7E3F0
  8
0
  0
BLOCK
  8
0
  2
WELD06
 70
     0
 10
0.0
 20
0.0
 30
0.0
  3
WELD06
  1

  0
LINE
  5
7E360
  8
1HATCH
 10
0.0
 20
0.0
 30
0.0
 11
9.822628962642085
 21
0.0000000000000003
 31
0.0
  0
ARC
  5
7E361
  8
0
 10
9.062741300000084
 20
0.0
 30
0.0
 40
5.0
 50
179.9999900000006
 51
270.0
  0
LINE
  5
7E362
  8
0
 10
2.599999900000057
 20
-5.0
 30
0.0
 11
2.599999900000057
 21
0.0
 31
0.0
  0
ENDBLK
  5
7E3F2
  8
0
  0
BLOCK
  8
0
  2
NOCIRCLE
 70
     2
 10
0.0
 20
0.0
 30
0.0
  3
NOCIRCLE
  1

  0
CIRCLE
  5
7F5FC
  8
0
  6
BYBLOCK
 62
     0
 10
0.0
 20
0.0
 30
0.0
 40
4.2
  0
ATTDEF
  5
7F5FD
  8
1TEXT
 10
-1.904761904761904
 20
-2.0
 30
0.0
 40
4.0
  1
0
 72
     4
 11
0.0
 21
0.0
 31
0.0
  3
NO.
  2
NO
 70
     0
  0
ENDBLK
  5
7F6CF
  8
0
  0
BLOCK
  8
0
  2
_OPEN
 70
     0
 10
0.0
 20
0.0
 30
0.0
  3
_OPEN
  1

  0
LINE
  5
7F604
  8
0
  6
BYBLOCK
 62
     0
 10
-1.0
 20
0.166667
 30
0.0
 11
0.0
 21
0.0
 31
0.0
  0
LINE
  5
7F605
  8
0
  6
BYBLOCK
 62
     0
 10
-1.0
 20
-0.166667
 30
0.0
 11
0.0
 21
0.0
 31
0.0
  0
LINE
  5
7F606
  8
0
  6
BYBLOCK
 62
     0
 10
0.0
 20
0.0
 30
0.0
 11
-1.0
 21
0.0
 31
0.0
  0
ENDBLK
  5
7F6D1
  8
0
  0
BLOCK
  8
0
  2
NO3CIRCLE
 70
     2
 10
0.0
 20
0.0
 30
0.0
  3
NO3CIRCLE
  1

  0
CIRCLE
  5
AF70B
  8
0
  6
BYBLOCK
 62
     0
 10
0.0
 20
0.0
 30
0.0
 40
4.2
  0
ATTDEF
  5
AF70C
  8
1TEXT
 10
-3.428571428571428
 20
-2.0
 30
0.0
 40
4.0
  1
000
 41
0.6
  7
STANDARD06
 72
     4
 11
0.0
 21
0.0
 31
0.0
  3
NO3
  2
NO3
 70
     0
  0
ENDBLK
  5
AF85A
  8
0
  0
BLOCK
  8
0
  2
*X441
 70
     1
 10
0.0
 20
0.0
 30
0.0
  3
*X441
  1

  0
LINE
  5
D5CC9
  8
0
  6
CONTINUOUS
 10
3.418023043697893
 20
7.251849696850613
 30
0.0
 11
4.929273346838536
 21
8.763099999991255
 31
0.0
  0
LINE
  5
D5CCA
  8
0
  6
CONTINUOUS
 10
1.483656411257782
 20
4.643963855330318
 30
0.0
 11
5.60279255591872
 21
8.763099999991255
 31
0.0
  0
LINE
  5
D5CCB
  8
0
  6
CONTINUOUS
 10
1.755053947328235
 20
4.241842182320584
 30
0.0
 11
6.276311764998907
 21
8.763099999991255
 31
0.0
  0
LINE
  5
D5CCC
  8
0
  6
CONTINUOUS
 10
2.026451483398688
 20
3.839720509310849
 30
0.0
 11
4.441040904851878
 21
6.254309930764039
 31
0.0
  0
LINE
  5
D5CCD
  8
0
  6
CONTINUOUS
 10
2.297849019469139
 20
3.437598836301114
 30
0.0
 11
3.321765168359338
 21
4.461514985191313
 31
0.0
  0
LINE
  5
D5CCE
  8
0
  6
CONTINUOUS
 10
2.569246555539591
 20
3.03547716329138
 30
0.0
 11
3.593163397972743
 21
4.059394005724531
 31
0.0
  0
LINE
  5
D5CCF
  8
0
  6
CONTINUOUS
 10
2.840644091610043
 20
2.633355490281646
 30
0.0
 11
3.864561627586149
 21
3.657273026257751
 31
0.0
  0
LINE
  5
D5CD0
  8
0
  6
CONTINUOUS
 10
3.112041627680496
 20
2.231233817271911
 30
0.0
 11
4.135959857199554
 21
3.25515204679097
 31
0.0
  0
LINE
  5
D5CD1
  8
0
  6
CONTINUOUS
 10
3.383439163750948
 20
1.829112144262177
 30
0.0
 11
4.40735808681296
 21
2.853031067324189
 31
0.0
  0
LINE
  5
D5CD2
  8
0
  6
CONTINUOUS
 10
3.654836699821399
 20
1.426990471252442
 30
0.0
 11
4.678756316426365
 21
2.450910087857407
 31
0.0
  0
LINE
  5
D5CD3
  8
0
  6
CONTINUOUS
 10
3.926234235891853
 20
1.024868798242709
 30
0.0
 11
4.95015454603977
 21
2.048789108390626
 31
0.0
  0
LINE
  5
D5CD4
  8
0
  6
CONTINUOUS
 10
4.197631771962304
 20
0.6227471252329737
 30
0.0
 11
5.221552775653176
 21
1.646668128923846
 31
0.0
  0
LINE
  5
D5CD5
  8
0
  6
CONTINUOUS
 10
8.715877546767851
 20
7.835069736359266
 30
0.0
 11
9.435953450375058
 21
8.555145639966472
 31
0.0
  0
LINE
  5
D5CD6
  8
0
  6
CONTINUOUS
 10
8.170620868422267
 20
6.616293848933497
 30
0.0
 11
9.644120833743461
 21
8.08979381425469
 31
0.0
  0
LINE
  5
D5CD7
  8
0
  6
CONTINUOUS
 10
7.625364190076684
 20
5.397517961507727
 30
0.0
 11
9.852288217111864
 21
7.624441988542907
 31
0.0
  0
LINE
  5
D5CD8
  8
0
  6
CONTINUOUS
 10
7.080107511731101
 20
4.178742074081957
 30
0.0
 11
10.06045560048027
 21
7.159090162831124
 31
0.0
  0
LINE
  5
D5CD9
  8
0
  6
CONTINUOUS
 10
6.534850833385518
 20
2.959966186656187
 30
0.0
 11
10.26862298384867
 21
6.693738337119342
 31
0.0
  0
LINE
  5
D5CDA
  8
0
  6
CONTINUOUS
 10
4.469029308032756
 20
0.2206254522232385
 30
0.0
 11
5.492951005266582
 21
1.244547149457064
 31
0.0
  0
LINE
  5
D5CDB
  8
0
  6
CONTINUOUS
 10
5.989594155039935
 20
1.741190299230417
 30
0.0
 11
8.806950407233131
 21
4.558546551423613
 31
0.0
  0
LINE
  5
D5CDC
  8
0
  6
CONTINUOUS
 10
9.401251593263643
 20
5.152847737454126
 30
0.0
 11
10.47679036721708
 21
6.228386511407559
 31
0.0
  0
LINE
  5
D5CDD
  8
0
  6
CONTINUOUS
 10
4.921837203428691
 20
-0.0000858614610131
 30
0.0
 11
8.592923064886001
 21
3.670999999996297
 31
0.0
  0
LINE
  5
D5CDE
  8
0
  6
CONTINUOUS
 10
9.609390446785305
 20
4.6874673818956
 30
0.0
 11
10.68495775058548
 21
5.763034685695775
 31
0.0
  0
LINE
  5
D5CDF
  8
0
  6
CONTINUOUS
 10
5.595387755019432
 20
-0.0000545189504582
 30
0.0
 11
7.716137258923768
 21
2.120694984953879
 31
0.0
  0
LINE
  5
D5CE0
  8
0
  6
CONTINUOUS
 10
6.268938306610172
 20
-0.000023176439905
 30
0.0
 11
7.170485805526503
 21
0.9015243224764267
 31
0.0
  0
LINE
  5
D5CE1
  8
0
  6
CONTINUOUS
 10
7.963842273967511
 20
2.368399999997621
 30
0.0
 11
9.266442273966188
 21
3.670999999996297
 31
0.0
  0
LINE
  5
D5CE2
  8
0
  6
CONTINUOUS
 10
8.637361483047696
 20
2.368399999997621
 30
0.0
 11
9.939961483046375
 21
3.670999999996297
 31
0.0
  0
LINE
  5
D5CE3
  8
0
  6
CONTINUOUS
 10
9.817529300306965
 20
4.222087026337075
 30
0.0
 11
10.89312513395388
 21
5.297682859983993
 31
0.0
  0
LINE
  5
D5CE4
  8
0
  6
CONTINUOUS
 10
10.02566815382863
 20
3.756706670778549
 30
0.0
 11
11.10129251732229
 21
4.832331034272211
 31
0.0
  0
LINE
  5
D5CE5
  8
0
  6
CONTINUOUS
 10
9.310880692127883
 20
2.368399999997621
 30
0.0
 11
11.30945990069069
 21
4.366979208560428
 31
0.0
  0
LINE
  5
D5CE6
  8
0
  6
CONTINUOUS
 10
9.98439990120807
 20
2.36839999999762
 30
0.0
 11
11.5176272840591
 21
3.901627382848645
 31
0.0
  0
LINE
  5
D5CE7
  8
0
  6
CONTINUOUS
 10
10.65037369446246
 20
2.36085458417182
 30
0.0
 11
11.7257946674275
 21
3.436275557136862
 31
0.0
  0
LINE
  5
D5CE8
  8
0
  6
CONTINUOUS
 10
10.85847197087848
 20
1.895433651507656
 30
0.0
 11
11.9339620507959
 21
2.97092373142508
 31
0.0
  0
LINE
  5
D5CE9
  8
0
  6
CONTINUOUS
 10
11.0665702472945
 20
1.430012718843491
 30
0.0
 11
12.14212943416431
 21
2.505571905713296
 31
0.0
  0
LINE
  5
D5CEA
  8
0
  6
CONTINUOUS
 10
11.27466852371052
 20
0.9645917861793256
 30
0.0
 11
12.35029681753271
 21
2.040220080001513
 31
0.0
  0
LINE
  5
D5CEB
  8
0
  6
CONTINUOUS
 10
11.48276680012654
 20
0.4991708535151611
 30
0.0
 11
12.55846420090111
 21
1.57486825428973
 31
0.0
  0
LINE
  5
D5CEC
  8
0
  6
CONTINUOUS
 10
11.69086507654257
 20
0.0337499208509957
 30
0.0
 11
12.76663158426952
 21
1.109516428577947
 31
0.0
  0
LINE
  5
D5CED
  8
0
  6
CONTINUOUS
 10
12.33057447873954
 20
-0.0000598860322123
 30
0.0
 11
12.97479896763792
 21
0.6441646028661663
 31
0.0
  0
LINE
  5
D5CEE
  8
0
  6
CONTINUOUS
 10
13.00413694809395
 20
-0.0000166257579952
 30
0.0
 11
13.18296635100632
 21
0.1788127771543824
 31
0.0
  0
LINE
  5
D5CEF
  8
0
  6
CONTINUOUS
 10
4.772852165289667
 20
-0.000092794222212
 30
0.0
 11
4.296495091028902
 21
0.4762642800385528
 31
0.0
  0
LINE
  5
D5CF0
  8
0
  6
CONTINUOUS
 10
5.446340034776103
 20
-0.0000614546284616
 30
0.0
 11
2.898195908335625
 21
2.548082671812017
 31
0.0
  0
LINE
  5
D5CF1
  8
0
  6
CONTINUOUS
 10
6.119827904262539
 20
-0.0000301150347113
 30
0.0
 11
1.499896725642348
 21
4.61990106358548
 31
0.0
  0
LINE
  5
D5CF2
  8
0
  6
CONTINUOUS
 10
6.775136745476159
 20
0.0181802528318542
 30
0.0
 11
5.699826040202669
 21
1.093490958105344
 31
0.0
  0
LINE
  5
D5CF3
  8
0
  6
CONTINUOUS
 10
6.983376846288489
 20
0.4834593610997118
 30
0.0
 11
5.908008617934405
 21
1.558827589453796
 31
0.0
  0
LINE
  5
D5CF4
  8
0
  6
CONTINUOUS
 10
5.377063484962296
 20
1.416253513345719
 30
0.0
 11
1.702276957014131
 21
5.091040041293883
 31
0.0
  0
LINE
  5
D5CF5
  8
0
  6
CONTINUOUS
 10
3.978745891735324
 20
3.488090315652877
 30
0.0
 11
2.000373521109399
 21
5.466462686278803
 31
0.0
  0
LINE
  5
D5CF6
  8
0
  6
CONTINUOUS
 10
7.191616947100819
 20
0.948738469367568
 30
0.0
 11
6.11619119566614
 21
2.024164220802247
 31
0.0
  0
LINE
  5
D5CF7
  8
0
  6
CONTINUOUS
 10
7.399857047913149
 20
1.414017577635424
 30
0.0
 11
6.324373773397875
 21
2.489500852150698
 31
0.0
  0
LINE
  5
D5CF8
  8
0
  6
CONTINUOUS
 10
7.608097148725479
 20
1.879296685903281
 30
0.0
 11
6.53255635112961
 21
2.95483748349915
 31
0.0
  0
LINE
  5
D5CF9
  8
0
  6
CONTINUOUS
 10
7.816337249537808
 20
2.344575794171138
 30
0.0
 11
6.740738928861345
 21
3.420174114847601
 31
0.0
  0
LINE
  5
D5CFA
  8
0
  6
CONTINUOUS
 10
3.310241080789734
 20
4.830114335678653
 30
0.0
 11
2.298470085204666
 21
5.84188533126372
 31
0.0
  0
LINE
  5
D5CFB
  8
0
  6
CONTINUOUS
 10
3.60832983563551
 20
5.205544789913063
 30
0.0
 11
2.596566649299935
 21
6.217307976248638
 31
0.0
  0
LINE
  5
D5CFC
  8
0
  6
CONTINUOUS
 10
3.906418590481286
 20
5.580975244147473
 30
0.0
 11
2.894663213395203
 21
6.592730621233557
 31
0.0
  0
LINE
  5
D5CFD
  8
0
  6
CONTINUOUS
 10
4.204507345327062
 20
5.956405698381884
 30
0.0
 11
3.192759777490472
 21
6.968153266218474
 31
0.0
  0
LINE
  5
D5CFE
  8
0
  6
CONTINUOUS
 10
8.466032252791512
 20
2.368399999997621
 30
0.0
 11
6.948921506593081
 21
3.885510746196053
 31
0.0
  0
LINE
  5
D5CFF
  8
0
  6
CONTINUOUS
 10
9.139551461871699
 20
2.36839999999762
 30
0.0
 11
7.157104084324816
 21
4.350847377544504
 31
0.0
  0
LINE
  5
D5D00
  8
0
  6
CONTINUOUS
 10
4.502596100172839
 20
6.331836152616295
 30
0.0
 11
3.49085634158574
 21
7.343575911203393
 31
0.0
  0
LINE
  5
D5D01
  8
0
  6
CONTINUOUS
 10
4.800684855018615
 20
6.707266606850705
 30
0.0
 11
3.788952905681008
 21
7.718998556188312
 31
0.0
  0
LINE
  5
D5D02
  8
0
  6
CONTINUOUS
 10
12.18154012887317
 20
-0.0000694579236642
 30
0.0
 11
11.32140332908496
 21
0.8600673418645499
 31
0.0
  0
LINE
  5
D5D03
  8
0
  6
CONTINUOUS
 10
12.85501608323566
 20
-0.0000262032059659
 30
0.0
 11
10.77672456435345
 21
2.078265315676246
 31
0.0
  0
LINE
  5
D5D04
  8
0
  6
CONTINUOUS
 10
9.813070670951886
 20
2.36839999999762
 30
0.0
 11
8.51047067095321
 21
3.670999999996297
 31
0.0
  0
LINE
  5
D5D05
  8
0
  6
CONTINUOUS
 10
10.48658988003207
 20
2.36839999999762
 30
0.0
 11
9.183989880033396
 21
3.670999999996297
 31
0.0
  0
LINE
  5
D5D06
  8
0
  6
CONTINUOUS
 10
8.441048632286794
 20
3.740422038662712
 30
0.0
 11
7.365286662056551
 21
4.816184008892956
 31
0.0
  0
LINE
  5
D5D07
  8
0
  6
CONTINUOUS
 10
8.649187485808454
 20
4.205802394221237
 30
0.0
 11
7.573469239788285
 21
5.281520640241407
 31
0.0
  0
LINE
  5
D5D08
  8
0
  6
CONTINUOUS
 10
5.098773609864391
 20
7.082697061085115
 30
0.0
 11
4.087049469776277
 21
8.09442120117323
 31
0.0
  0
LINE
  5
D5D09
  8
0
  6
CONTINUOUS
 10
5.396862364710167
 20
7.458127515319526
 30
0.0
 11
4.385146033871544
 21
8.469843846158149
 31
0.0
  0
LINE
  5
D5D0A
  8
0
  6
CONTINUOUS
 10
13.04801363231285
 20
0.4804954567970334
 30
0.0
 11
9.85750908911358
 21
3.670999999996297
 31
0.0
  0
LINE
  5
D5D0B
  8
0
  6
CONTINUOUS
 10
8.857326339330116
 20
4.671182749779763
 30
0.0
 11
7.781651817520021
 21
5.746857271589858
 31
0.0
  0
LINE
  5
D5D0C
  8
0
  6
CONTINUOUS
 10
5.694951119555943
 20
7.833557969553937
 30
0.0
 11
4.765409089118624
 21
8.763099999991255
 31
0.0
  0
LINE
  5
D5D0D
  8
0
  6
CONTINUOUS
 10
12.50286117236978
 20
1.699167125820288
 30
0.0
 11
9.68611877250287
 21
4.515909525687196
 31
0.0
  0
LINE
  5
D5D0E
  8
0
  6
CONTINUOUS
 10
9.065465192851777
 20
5.136563105338288
 30
0.0
 11
7.989834395251757
 21
6.21219390293831
 31
0.0
  0
LINE
  5
D5D0F
  8
0
  6
CONTINUOUS
 10
5.993039874401719
 20
8.208988423788346
 30
0.0
 11
5.43892829819881
 21
8.763099999991255
 31
0.0
  0
LINE
  5
D5D10
  8
0
  6
CONTINUOUS
 10
11.95770871242671
 20
2.917838794843543
 30
0.0
 11
8.19801697298349
 21
6.677530534286761
 31
0.0
  0
LINE
  5
D5D11
  8
0
  6
CONTINUOUS
 10
6.291128629247495
 20
8.584418878022756
 30
0.0
 11
6.112447507278997
 21
8.763099999991255
 31
0.0
  0
LINE
  5
D5D12
  8
0
  6
CONTINUOUS
 10
11.41255625248364
 20
4.136510463866797
 30
0.0
 11
8.406199550715227
 21
7.142867165635211
 31
0.0
  0
LINE
  5
D5D13
  8
0
  6
CONTINUOUS
 10
10.86740379254057
 20
5.355182132890051
 30
0.0
 11
8.614382128446962
 21
7.608203796983664
 31
0.0
  0
LINE
  5
D5D14
  8
0
  6
CONTINUOUS
 10
10.3222513325975
 20
6.573853801913305
 30
0.0
 11
8.822564706178696
 21
8.073540428332114
 31
0.0
  0
LINE
  5
D5D15
  8
0
  6
CONTINUOUS
 10
9.777098872654436
 20
7.792525470936562
 30
0.0
 11
9.030747283910433
 21
8.538877059680566
 31
0.0
  0
ENDBLK
  5
D5E59
  8
0
  0
BLOCK
  8
0
  2
*X442
 70
     1
 10
0.0
 20
0.0
 30
0.0
  3
*X442
  1

  0
LINE
  5
D5D17
  8
0
  6
CONTINUOUS
 10
10.67292308101235
 20
8.445076852443387
 30
0.0
 11
10.99094622856022
 21
8.763099999991255
 31
0.0
  0
LINE
  5
D5D18
  8
0
  6
CONTINUOUS
 10
10.87250383178748
 20
7.971138394138331
 30
0.0
 11
11.6644654376404
 21
8.763099999991255
 31
0.0
  0
LINE
  5
D5D19
  8
0
  6
CONTINUOUS
 10
11.07208458256261
 20
7.497199935833273
 30
0.0
 11
12.12126590876355
 21
8.546381262034211
 31
0.0
  0
LINE
  5
D5D1A
  8
0
  6
CONTINUOUS
 10
11.27166533333774
 20
7.023261477528216
 30
0.0
 11
12.32085164573666
 21
8.072447789927136
 31
0.0
  0
LINE
  5
D5D1B
  8
0
  6
CONTINUOUS
 10
11.47124608411287
 20
6.549323019223158
 30
0.0
 11
12.52043738270977
 21
7.59851431782006
 31
0.0
  0
LINE
  5
D5D1C
  8
0
  6
CONTINUOUS
 10
11.670826834888
 20
6.075384560918101
 30
0.0
 11
12.72002311968288
 21
7.124580845712984
 31
0.0
  0
LINE
  5
D5D1D
  8
0
  6
CONTINUOUS
 10
11.87040758566313
 20
5.601446102613043
 30
0.0
 11
12.91960885665599
 21
6.650647373605907
 31
0.0
  0
LINE
  5
D5D1E
  8
0
  6
CONTINUOUS
 10
12.06998833643825
 20
5.127507644307986
 30
0.0
 11
13.1191945936291
 21
6.176713901498832
 31
0.0
  0
LINE
  5
D5D1F
  8
0
  6
CONTINUOUS
 10
12.26956908721338
 20
4.65356918600293
 30
0.0
 11
13.31878033060221
 21
5.702780429391757
 31
0.0
  0
LINE
  5
D5D20
  8
0
  6
CONTINUOUS
 10
12.46914983798851
 20
4.179630727697873
 30
0.0
 11
13.51836606757532
 21
5.228846957284683
 31
0.0
  0
LINE
  5
D5D21
  8
0
  6
CONTINUOUS
 10
12.66873058876364
 20
3.705692269392816
 30
0.0
 11
13.71795180454843
 21
4.754913485177607
 31
0.0
  0
LINE
  5
D5D22
  8
0
  6
CONTINUOUS
 10
12.86831133953877
 20
3.231753811087759
 30
0.0
 11
13.91753754152154
 21
4.280980013070531
 31
0.0
  0
LINE
  5
D5D23
  8
0
  6
CONTINUOUS
 10
13.0678920903139
 20
2.757815352782702
 30
0.0
 11
14.11712327849465
 21
3.807046540963456
 31
0.0
  0
LINE
  5
D5D24
  8
0
  6
CONTINUOUS
 10
13.26747284108903
 20
2.283876894477644
 30
0.0
 11
14.31670901546777
 21
3.333113068856379
 31
0.0
  0
LINE
  5
D5D25
  8
0
  6
CONTINUOUS
 10
16.36767838827179
 20
8.751678487061342
 30
0.0
 11
16.50332410898388
 21
8.887324207773432
 31
0.0
  0
LINE
  5
D5D26
  8
0
  6
CONTINUOUS
 10
15.96190732182191
 20
7.67238821153127
 30
0.0
 11
16.68735328004734
 21
8.397834169756699
 31
0.0
  0
LINE
  5
D5D27
  8
0
  6
CONTINUOUS
 10
15.55613625537202
 20
6.593097936001196
 30
0.0
 11
16.87138245111079
 21
7.908344131739965
 31
0.0
  0
LINE
  5
D5D28
  8
0
  6
CONTINUOUS
 10
15.15036518892213
 20
5.513807660471122
 30
0.0
 11
17.05541162217424
 21
7.418854093723231
 31
0.0
  0
LINE
  5
D5D29
  8
0
  6
CONTINUOUS
 10
14.74459412247225
 20
4.434517384941048
 30
0.0
 11
17.2394407932377
 21
6.929364055706499
 31
0.0
  0
LINE
  5
D5D2A
  8
0
  6
CONTINUOUS
 10
14.33882305602236
 20
3.355227109410975
 30
0.0
 11
17.42346996430115
 21
6.439874017689766
 31
0.0
  0
LINE
  5
D5D2B
  8
0
  6
CONTINUOUS
 10
13.46705359186416
 20
1.809938436172586
 30
0.0
 11
16.0819338255367
 21
4.424818669845129
 31
0.0
  0
LINE
  5
D5D2C
  8
0
  6
CONTINUOUS
 10
16.63283254238972
 20
4.975717386698149
 30
0.0
 11
17.60749913536461
 21
5.950383979673033
 31
0.0
  0
LINE
  5
D5D2D
  8
0
  6
CONTINUOUS
 10
13.66663434263929
 20
1.335999977867529
 30
0.0
 11
15.67604797733754
 21
3.345413612565779
 31
0.0
  0
LINE
  5
D5D2E
  8
0
  6
CONTINUOUS
 10
13.86621509341442
 20
0.8620615195624723
 30
0.0
 11
15.27016212913838
 21
2.26600855528643
 31
0.0
  0
LINE
  5
D5D2F
  8
0
  6
CONTINUOUS
 10
16.81682257348267
 20
4.486188208710908
 30
0.0
 11
17.79152830642806
 21
5.460893941656299
 31
0.0
  0
LINE
  5
D5D30
  8
0
  6
CONTINUOUS
 10
17.00081260457561
 20
3.996659030723667
 30
0.0
 11
17.97555747749151
 21
4.971403903639565
 31
0.0
  0
LINE
  5
D5D31
  8
0
  6
CONTINUOUS
 10
20.74362343514722
 20
8.412989070375462
 30
0.0
 11
21.09373436476302
 21
8.763099999991256
 31
0.0
  0
LINE
  5
D5D32
  8
0
  6
CONTINUOUS
 10
20.25401257174777
 20
7.249858997895826
 30
0.0
 11
21.7672535738432
 21
8.763099999991255
 31
0.0
  0
LINE
  5
D5D33
  8
0
  6
CONTINUOUS
 10
14.06579584418955
 20
0.3881230612574149
 30
0.0
 11
14.86427628093921
 21
1.186603498007082
 31
0.0
  0
LINE
  5
D5D34
  8
0
  6
CONTINUOUS
 10
14.26537659496467
 20
-0.0858153970476412
 30
0.0
 11
14.45839043274005
 21
0.1071984407277329
 31
0.0
  0
LINE
  5
D5D35
  8
0
  6
CONTINUOUS
 10
17.18480263566856
 20
3.507129852736426
 30
0.0
 11
18.15958664855496
 21
4.481913865622833
 31
0.0
  0
LINE
  5
D5D36
  8
0
  6
CONTINUOUS
 10
17.3687926667615
 20
3.017600674749186
 30
0.0
 11
18.34361581961842
 21
3.9924238276061
 31
0.0
  0
LINE
  5
D5D37
  8
0
  6
CONTINUOUS
 10
19.76440170834832
 20
6.086728925416191
 30
0.0
 11
22.33924590259489
 21
8.661573119662755
 31
0.0
  0
LINE
  5
D5D38
  8
0
  6
CONTINUOUS
 10
19.27479084494887
 20
4.923598852936555
 30
0.0
 11
21.84929622842713
 21
7.498104236414807
 31
0.0
  0
LINE
  5
D5D39
  8
0
  6
CONTINUOUS
 10
17.55278269785445
 20
2.528071496761945
 30
0.0
 11
18.52764499068187
 21
3.502933789589366
 31
0.0
  0
LINE
  5
D5D3A
  8
0
  6
CONTINUOUS
 10
18.78517998154942
 20
3.760468780456919
 30
0.0
 11
21.35934655425936
 21
6.33463535316686
 31
0.0
  0
LINE
  5
D5D3B
  8
0
  6
CONTINUOUS
 10
17.73677272894739
 20
2.038542318774704
 30
0.0
 11
20.8693968800916
 21
5.171166469918914
 31
0.0
  0
LINE
  5
D5D3C
  8
0
  6
CONTINUOUS
 10
17.92076276004034
 20
1.549013140787464
 30
0.0
 11
20.37944720592384
 21
4.007697586670968
 31
0.0
  0
LINE
  5
D5D3D
  8
0
  6
CONTINUOUS
 10
18.10475279113329
 20
1.059483962800223
 30
0.0
 11
19.88949753175608
 21
2.84422870342302
 31
0.0
  0
LINE
  5
D5D3E
  8
0
  6
CONTINUOUS
 10
18.28874282222623
 20
0.5699547848129822
 30
0.0
 11
19.39954785758832
 21
1.680759820175074
 31
0.0
  0
LINE
  5
D5D3F
  8
0
  6
CONTINUOUS
 10
18.47273285331918
 20
0.0804256068257416
 30
0.0
 11
18.90959818342056
 21
0.517290936927127
 31
0.0
  0
LINE
  5
D5D40
  8
0
  6
CONTINUOUS
 10
14.3590401358224
 20
-0.1570118376323384
 30
0.0
 11
14.24903296539946
 21
-0.0470046672093929
 31
0.0
  0
LINE
  5
D5D41
  8
0
  6
CONTINUOUS
 10
14.54309291258661
 20
0.332454594683643
 30
0.0
 11
13.75908329123172
 21
1.116464216038529
 31
0.0
  0
LINE
  5
D5D42
  8
0
  6
CONTINUOUS
 10
14.72714568935081
 20
0.8219210269996244
 30
0.0
 11
13.26913361706399
 21
2.27993309928645
 31
0.0
  0
LINE
  5
D5D43
  8
0
  6
CONTINUOUS
 10
14.91119846611502
 20
1.311387459315606
 30
0.0
 11
12.77918394289625
 21
3.443401982534371
 31
0.0
  0
LINE
  5
D5D44
  8
0
  6
CONTINUOUS
 10
15.09525124287922
 20
1.800853891631587
 30
0.0
 11
12.28923426872852
 21
4.606870865782293
 31
0.0
  0
LINE
  5
D5D45
  8
0
  6
CONTINUOUS
 10
15.27930401964343
 20
2.290320323947569
 30
0.0
 11
11.79928459456078
 21
5.770339749030213
 31
0.0
  0
LINE
  5
D5D46
  8
0
  6
CONTINUOUS
 10
15.46335679640763
 20
2.77978675626355
 30
0.0
 11
14.48885470994921
 21
3.754288842721972
 31
0.0
  0
LINE
  5
D5D47
  8
0
  6
CONTINUOUS
 10
13.88507249233704
 20
4.358071060334137
 30
0.0
 11
11.30933492039305
 21
6.933808632278135
 31
0.0
  0
LINE
  5
D5D48
  8
0
  6
CONTINUOUS
 10
18.75840522805855
 20
0.1582575336928151
 30
0.0
 11
18.25383727664818
 21
0.6628254851031863
 31
0.0
  0
LINE
  5
D5D49
  8
0
  6
CONTINUOUS
 10
15.64740957317184
 20
3.269253188579531
 30
0.0
 11
14.67288388101266
 21
4.243778880738705
 31
0.0
  0
LINE
  5
D5D4A
  8
0
  6
CONTINUOUS
 10
13.39509276772158
 20
5.521569994029786
 30
0.0
 11
10.81938524622531
 21
8.097277515526056
 31
0.0
  0
LINE
  5
D5D4B
  8
0
  6
CONTINUOUS
 10
18.95798597883369
 20
0.6321959919978686
 30
0.0
 11
17.84825644852853
 21
1.741925522303024
 31
0.0
  0
LINE
  5
D5D4C
  8
0
  6
CONTINUOUS
 10
19.15756672960882
 20
1.106134450302922
 30
0.0
 11
17.44267562040888
 21
2.821025559502861
 31
0.0
  0
LINE
  5
D5D4D
  8
0
  6
CONTINUOUS
 10
15.83146234993604
 20
3.758719620895513
 30
0.0
 11
14.85691305207612
 21
4.733268918755439
 31
0.0
  0
LINE
  5
D5D4E
  8
0
  6
CONTINUOUS
 10
16.01551512670025
 20
4.248186053211494
 30
0.0
 11
15.04094222313957
 21
5.222758956772172
 31
0.0
  0
LINE
  5
D5D4F
  8
0
  6
CONTINUOUS
 10
12.90511304310612
 20
6.685068927725435
 30
0.0
 11
10.8270819708403
 21
8.763099999991255
 31
0.0
  0
LINE
  5
D5D50
  8
0
  6
CONTINUOUS
 10
12.41513331849066
 20
7.848567861421083
 30
0.0
 11
11.50060117992049
 21
8.763099999991255
 31
0.0
  0
LINE
  5
D5D51
  8
0
  6
CONTINUOUS
 10
19.35714748038395
 20
1.580072908607975
 30
0.0
 11
17.03709479228923
 21
3.900125596702697
 31
0.0
  0
LINE
  5
D5D52
  8
0
  6
CONTINUOUS
 10
19.55672823115909
 20
2.054011366913028
 30
0.0
 11
16.63151396416958
 21
4.979225633902534
 31
0.0
  0
LINE
  5
D5D53
  8
0
  6
CONTINUOUS
 10
16.19956790346445
 20
4.737652485527476
 30
0.0
 11
15.22497139420302
 21
5.712248994788904
 31
0.0
  0
LINE
  5
D5D54
  8
0
  6
CONTINUOUS
 10
16.38362068022866
 20
5.227118917843457
 30
0.0
 11
15.40900056526648
 21
6.201739032805637
 31
0.0
  0
LINE
  5
D5D55
  8
0
  6
CONTINUOUS
 10
19.75630898193422
 20
2.527949825218081
 30
0.0
 11
18.70774536448286
 21
3.576513442669441
 31
0.0
  0
LINE
  5
D5D56
  8
0
  6
CONTINUOUS
 10
19.95588973270936
 20
3.001888283523134
 30
0.0
 11
18.90726987211446
 21
4.050508144118028
 31
0.0
  0
LINE
  5
D5D57
  8
0
  6
CONTINUOUS
 10
20.15547048348449
 20
3.475826741828186
 30
0.0
 11
19.10679437974606
 21
4.524502845566614
 31
0.0
  0
LINE
  5
D5D58
  8
0
  6
CONTINUOUS
 10
20.35505123425962
 20
3.94976520013324
 30
0.0
 11
19.30631888737766
 21
4.998497547015201
 31
0.0
  0
LINE
  5
D5D59
  8
0
  6
CONTINUOUS
 10
20.55463198503475
 20
4.423703658438292
 30
0.0
 11
19.50584339500926
 21
5.472492248463787
 31
0.0
  0
LINE
  5
D5D5A
  8
0
  6
CONTINUOUS
 10
18.37481191085755
 20
3.909446896294752
 30
0.0
 11
15.59302973632993
 21
6.691229070822371
 31
0.0
  0
LINE
  5
D5D5B
  8
0
  6
CONTINUOUS
 10
17.96904084440766
 20
4.988737171824825
 30
0.0
 11
15.77705890739338
 21
7.180719108839104
 31
0.0
  0
LINE
  5
D5D5C
  8
0
  6
CONTINUOUS
 10
17.56326977795777
 20
6.068027447354899
 30
0.0
 11
15.96108807845684
 21
7.670209146855838
 31
0.0
  0
LINE
  5
D5D5D
  8
0
  6
CONTINUOUS
 10
17.15749871150789
 20
7.147317722884972
 30
0.0
 11
16.14511724952029
 21
8.15969918487257
 31
0.0
  0
LINE
  5
D5D5E
  8
0
  6
CONTINUOUS
 10
16.751727645058
 20
8.226607998415046
 30
0.0
 11
16.32914642058374
 21
8.649189222889303
 31
0.0
  0
LINE
  5
D5D5F
  8
0
  6
CONTINUOUS
 10
20.75421273580989
 20
4.897642116743345
 30
0.0
 11
19.70536790264086
 21
5.946486949912374
 31
0.0
  0
LINE
  5
D5D60
  8
0
  6
CONTINUOUS
 10
20.95379348658502
 20
5.371580575048398
 30
0.0
 11
19.90489241027246
 21
6.42048165136096
 31
0.0
  0
LINE
  5
D5D61
  8
0
  6
CONTINUOUS
 10
21.15337423736015
 20
5.845519033353452
 30
0.0
 11
20.10441691790406
 21
6.894476352809547
 31
0.0
  0
LINE
  5
D5D62
  8
0
  6
CONTINUOUS
 10
21.35295498813529
 20
6.319457491658505
 30
0.0
 11
20.30394142553566
 21
7.368471054258134
 31
0.0
  0
LINE
  5
D5D63
  8
0
  6
CONTINUOUS
 10
21.55253573891042
 20
6.793395949963558
 30
0.0
 11
20.50346593316726
 21
7.842465755706721
 31
0.0
  0
LINE
  5
D5D64
  8
0
  6
CONTINUOUS
 10
21.75211648968556
 20
7.267334408268612
 30
0.0
 11
20.70299044079886
 21
8.316460457155308
 31
0.0
  0
LINE
  5
D5D65
  8
0
  6
CONTINUOUS
 10
21.95169724046069
 20
7.741272866573663
 30
0.0
 11
20.9298701070431
 21
8.763099999991256
 31
0.0
  0
LINE
  5
D5D66
  8
0
  6
CONTINUOUS
 10
22.15127799123582
 20
8.215211324878716
 30
0.0
 11
21.60338931612328
 21
8.763099999991256
 31
0.0
  0
LINE
  5
D5D67
  8
0
  6
CONTINUOUS
 10
22.35085874201096
 20
8.689149783183769
 30
0.0
 11
22.27690852520347
 21
8.763099999991255
 31
0.0
  0
ENDBLK
  5
D5E5B
  8
0
  0
BLOCK
  8
0
  2
*X443
 70
     1
 10
0.0
 20
0.0
 30
0.0
  3
*X443
  1

  0
LINE
  5
D5D69
  8
0
  6
CONTINUOUS
 10
23.19462913593892
 20
8.169917934846424
 30
0.0
 11
23.70775465517246
 21
8.683043454079957
 31
0.0
  0
LINE
  5
D5D6A
  8
0
  6
CONTINUOUS
 10
22.64923161835078
 20
6.951001208178088
 30
0.0
 11
23.9159364069932
 21
8.217705996820516
 31
0.0
  0
LINE
  5
D5D6B
  8
0
  6
CONTINUOUS
 10
22.10383410076263
 20
5.732084481509751
 30
0.0
 11
24.12411815881395
 21
7.752368539561078
 31
0.0
  0
LINE
  5
D5D6C
  8
0
  6
CONTINUOUS
 10
21.55843658317447
 20
4.513167754841414
 30
0.0
 11
24.3322999106347
 21
7.287031082301639
 31
0.0
  0
LINE
  5
D5D6D
  8
0
  6
CONTINUOUS
 10
21.01303906558632
 20
3.294251028173077
 30
0.0
 11
24.54048166245544
 21
6.821693625042199
 31
0.0
  0
LINE
  5
D5D6E
  8
0
  6
CONTINUOUS
 10
20.46764154799817
 20
2.075334301504738
 30
0.0
 11
23.28571549467848
 21
4.89340824818505
 31
0.0
  0
LINE
  5
D5D6F
  8
0
  6
CONTINUOUS
 10
19.92224403041002
 20
0.8564175748364002
 30
0.0
 11
22.74075865492779
 21
3.674932199354171
 31
0.0
  0
LINE
  5
D5D70
  8
0
  6
CONTINUOUS
 10
23.67305085490148
 20
5.280743608408048
 30
0.0
 11
24.74866341427619
 21
6.356356167782759
 31
0.0
  0
LINE
  5
D5D71
  8
0
  6
CONTINUOUS
 10
23.88118970842314
 20
4.815363252849522
 30
0.0
 11
24.95684516609694
 21
5.89101871052332
 31
0.0
  0
LINE
  5
D5D72
  8
0
  6
CONTINUOUS
 10
19.73925852647308
 20
-0.0000871381807288
 30
0.0
 11
23.4103456646501
 21
3.670999999996297
 31
0.0
  0
LINE
  5
D5D73
  8
0
  6
CONTINUOUS
 10
24.0893285619448
 20
4.349982897290997
 30
0.0
 11
25.16502691791769
 21
5.42568125326388
 31
0.0
  0
LINE
  5
D5D74
  8
0
  6
CONTINUOUS
 10
20.41282099582748
 20
-0.0000438779065108
 30
0.0
 11
21.64944178675636
 21
1.236576913022366
 31
0.0
  0
LINE
  5
D5D75
  8
0
  6
CONTINUOUS
 10
22.78126487373161
 20
2.36839999999762
 30
0.0
 11
24.08386487373029
 21
3.670999999996297
 31
0.0
  0
LINE
  5
D5D76
  8
0
  6
CONTINUOUS
 10
24.29746741546646
 20
3.884602541732471
 30
0.0
 11
25.37320866973843
 21
4.960343796004441
 31
0.0
  0
LINE
  5
D5D77
  8
0
  6
CONTINUOUS
 10
21.08638346518189
 20
-0.0000006176322938
 30
0.0
 11
21.10379033335899
 21
0.0174062505448083
 31
0.0
  0
LINE
  5
D5D78
  8
0
  6
CONTINUOUS
 10
23.4547840828118
 20
2.36839999999762
 30
0.0
 11
25.58139042155918
 21
4.495006338745002
 31
0.0
  0
LINE
  5
D5D79
  8
0
  6
CONTINUOUS
 10
29.30199999996933
 20
8.215615917155148
 30
0.0
 11
29.84948408280543
 21
8.763099999991255
 31
0.0
  0
LINE
  5
D5D7A
  8
0
  6
CONTINUOUS
 10
24.12830329189199
 20
2.36839999999762
 30
0.0
 11
25.78957217337993
 21
4.029668881485562
 31
0.0
  0
LINE
  5
D5D7B
  8
0
  6
CONTINUOUS
 10
29.30199999996933
 20
7.54209670807496
 30
0.0
 11
30.52300329188562
 21
8.763099999991255
 31
0.0
  0
LINE
  5
D5D7C
  8
0
  6
CONTINUOUS
 10
24.80182250097217
 20
2.36839999999762
 30
0.0
 11
25.99775392520067
 21
3.564331424226122
 31
0.0
  0
LINE
  5
D5D7D
  8
0
  6
CONTINUOUS
 10
29.30199999996933
 20
6.868577498994774
 30
0.0
 11
30.74199999996926
 21
8.308577498994712
 31
0.0
  0
LINE
  5
D5D7E
  8
0
  6
CONTINUOUS
 10
25.13028238392013
 20
2.023340673865392
 30
0.0
 11
26.20593567702142
 21
3.098993966966683
 31
0.0
  0
LINE
  5
D5D7F
  8
0
  6
CONTINUOUS
 10
25.33838066033617
 20
1.557919741201244
 30
0.0
 11
26.41411742884217
 21
2.633656509707244
 31
0.0
  0
LINE
  5
D5D80
  8
0
  6
CONTINUOUS
 10
25.54647893675221
 20
1.092498808537098
 30
0.0
 11
26.62229918066291
 21
2.168319052447804
 31
0.0
  0
LINE
  5
D5D81
  8
0
  6
CONTINUOUS
 10
25.75457721316825
 20
0.62707787587295
 30
0.0
 11
26.83048093248366
 21
1.702981595188365
 31
0.0
  0
LINE
  5
D5D82
  8
0
  6
CONTINUOUS
 10
29.30199999996933
 20
6.195058289914587
 30
0.0
 11
30.74199999996926
 21
7.635058289914522
 31
0.0
  0
LINE
  5
D5D83
  8
0
  6
CONTINUOUS
 10
29.30199999996933
 20
5.521539080834401
 30
0.0
 11
30.74199999996926
 21
6.961539080834331
 31
0.0
  0
LINE
  5
D5D84
  8
0
  6
CONTINUOUS
 10
29.30199999996933
 20
4.848019871754214
 30
0.0
 11
30.74199999996925
 21
6.288019871754143
 31
0.0
  0
LINE
  5
D5D85
  8
0
  6
CONTINUOUS
 10
29.30199999996933
 20
4.174500662674028
 30
0.0
 11
30.74199999996925
 21
5.614500662673953
 31
0.0
  0
LINE
  5
D5D86
  8
0
  6
CONTINUOUS
 10
25.96267548958429
 20
0.1616569432088024
 30
0.0
 11
27.18411854636669
 21
1.383099999991207
 31
0.0
  0
LINE
  5
D5D87
  8
0
  6
CONTINUOUS
 10
29.30199999996933
 20
3.500981453593841
 30
0.0
 11
30.74199999996925
 21
4.940981453593762
 31
0.0
  0
LINE
  5
D5D88
  8
0
  6
CONTINUOUS
 10
26.50763775544691
 20
0.0330999999912356
 30
0.0
 11
27.85763775544689
 21
1.383099999991223
 31
0.0
  0
LINE
  5
D5D89
  8
0
  6
CONTINUOUS
 10
29.30199999996933
 20
2.827462244513656
 30
0.0
 11
30.74199999996925
 21
4.267462244513574
 31
0.0
  0
LINE
  5
D5D8A
  8
0
  6
CONTINUOUS
 10
27.18115696452709
 20
0.0330999999912356
 30
0.0
 11
28.6224847300034
 21
1.474427765467545
 31
0.0
  0
LINE
  5
D5D8B
  8
0
  6
CONTINUOUS
 10
29.21067223449293
 20
2.062615269957069
 30
0.0
 11
30.74199999996924
 21
3.593943035433383
 31
0.0
  0
LINE
  5
D5D8C
  8
0
  6
CONTINUOUS
 10
27.85467617360728
 20
0.0330999999912356
 30
0.0
 11
30.74199999996924
 21
2.920423826353195
 31
0.0
  0
LINE
  5
D5D8D
  8
0
  6
CONTINUOUS
 10
28.61742899356196
 20
0.1223336108657271
 30
0.0
 11
30.65276638909473
 21
2.157671006398498
 31
0.0
  0
LINE
  5
D5D8E
  8
0
  6
CONTINUOUS
 10
29.76719820264213
 20
0.5985836108657137
 30
0.0
 11
30.17651638909472
 21
1.0079017973183
 31
0.0
  0
LINE
  5
D5D8F
  8
0
  6
CONTINUOUS
 10
19.59027867740337
 20
-0.0000967065718083
 30
0.0
 11
19.55485265190471
 21
0.035329318926844
 31
0.0
  0
LINE
  5
D5D90
  8
0
  6
CONTINUOUS
 10
20.26375463176586
 20
-0.0000534518541091
 30
0.0
 11
19.76305575737534
 21
0.5006454225364014
 31
0.0
  0
LINE
  5
D5D91
  8
0
  6
CONTINUOUS
 10
20.93723058612834
 20
-0.0000101971364099
 30
0.0
 11
19.97125886284597
 21
0.965961526145958
 31
0.0
  0
LINE
  5
D5D92
  8
0
  6
CONTINUOUS
 10
21.25514828313686
 20
0.355591314935257
 30
0.0
 11
20.1794619683166
 21
1.431277629755512
 31
0.0
  0
LINE
  5
D5D93
  8
0
  6
CONTINUOUS
 10
21.46338838394921
 20
0.8208704232030986
 30
0.0
 11
20.38766507378723
 21
1.896593733365069
 31
0.0
  0
LINE
  5
D5D94
  8
0
  6
CONTINUOUS
 10
21.67162848476155
 20
1.28614953147094
 30
0.0
 11
20.59586817925786
 21
2.361909836974626
 31
0.0
  0
LINE
  5
D5D95
  8
0
  6
CONTINUOUS
 10
21.8798685855739
 20
1.751428639738782
 30
0.0
 11
20.80407128472849
 21
2.827225940584183
 31
0.0
  0
LINE
  5
D5D96
  8
0
  6
CONTINUOUS
 10
22.08810868638624
 20
2.216707748006623
 30
0.0
 11
21.01227439019912
 21
3.292542044193739
 31
0.0
  0
LINE
  5
D5D97
  8
0
  6
CONTINUOUS
 10
22.60993564347543
 20
2.36839999999762
 30
0.0
 11
21.22047749566975
 21
3.757858147803296
 31
0.0
  0
LINE
  5
D5D98
  8
0
  6
CONTINUOUS
 10
23.28345485255561
 20
2.36839999999762
 30
0.0
 11
21.42868060114038
 21
4.223174251412853
 31
0.0
  0
LINE
  5
D5D99
  8
0
  6
CONTINUOUS
 10
26.29227406164219
 20
0.0330999999912356
 30
0.0
 11
25.80009199592872
 21
0.5252820657046957
 31
0.0
  0
LINE
  5
D5D9A
  8
0
  6
CONTINUOUS
 10
23.9569740616358
 20
2.36839999999762
 30
0.0
 11
21.63688370661101
 21
4.688490355022409
 31
0.0
  0
LINE
  5
D5D9B
  8
0
  6
CONTINUOUS
 10
26.96579327072237
 20
0.0330999999912356
 30
0.0
 11
25.2554132311971
 21
1.743480039516508
 31
0.0
  0
LINE
  5
D5D9C
  8
0
  6
CONTINUOUS
 10
24.63049327071599
 20
2.36839999999762
 30
0.0
 11
23.32789327071731
 21
3.670999999996297
 31
0.0
  0
LINE
  5
D5D9D
  8
0
  6
CONTINUOUS
 10
22.92098674744635
 20
4.077906523267254
 30
0.0
 11
21.84508681208164
 21
5.153806458631966
 31
0.0
  0
LINE
  5
D5D9E
  8
0
  6
CONTINUOUS
 10
27.63931247980256
 20
0.0330999999912356
 30
0.0
 11
24.0014124797975
 21
3.670999999996297
 31
0.0
  0
LINE
  5
D5D9F
  8
0
  6
CONTINUOUS
 10
23.129125600968
 20
4.5432868788258
 30
0.0
 11
22.05328991755227
 21
5.619122562241522
 31
0.0
  0
LINE
  5
D5DA0
  8
0
  6
CONTINUOUS
 10
28.31283168888275
 20
0.0330999999912356
 30
0.0
 11
24.16488385994816
 21
4.181047828925828
 31
0.0
  0
LINE
  5
D5DA1
  8
0
  6
CONTINUOUS
 10
23.33726445448964
 20
5.008667234384345
 30
0.0
 11
22.2614930230229
 21
6.084438665851079
 31
0.0
  0
LINE
  5
D5DA2
  8
0
  6
CONTINUOUS
 10
28.81519848253303
 20
0.2042524154211396
 30
0.0
 11
27.63635089796295
 21
1.383099999991217
 31
0.0
  0
LINE
  5
D5DA3
  8
0
  6
CONTINUOUS
 10
26.43704649509776
 20
2.582404402856405
 30
0.0
 11
23.61992702019732
 21
5.399523877756844
 31
0.0
  0
LINE
  5
D5DA4
  8
0
  6
CONTINUOUS
 10
23.54540330801128
 20
5.47404758994289
 30
0.0
 11
22.46969612849353
 21
6.549754769460635
 31
0.0
  0
LINE
  5
D5DA5
  8
0
  6
CONTINUOUS
 10
29.29144848253303
 20
0.4015216245013242
 30
0.0
 11
28.30987010704312
 21
1.383099999991234
 31
0.0
  0
LINE
  5
D5DA6
  8
0
  6
CONTINUOUS
 10
25.89179548232307
 20
3.801174624711282
 30
0.0
 11
22.67789923396416
 21
7.015070873070191
 31
0.0
  0
LINE
  5
D5DA7
  8
0
  6
CONTINUOUS
 10
29.76769848253303
 20
0.5987908335815084
 30
0.0
 11
28.81310432793121
 21
1.553384988183336
 31
0.0
  0
LINE
  5
D5DA8
  8
0
  6
CONTINUOUS
 10
25.34654446954838
 20
5.01994484656616
 30
0.0
 11
22.88610233943479
 21
7.480386976679748
 31
0.0
  0
LINE
  5
D5DA9
  8
0
  6
CONTINUOUS
 10
30.13421977859274
 20
0.9057887466019845
 30
0.0
 11
29.14234640337737
 21
1.897662121817355
 31
0.0
  0
LINE
  5
D5DAA
  8
0
  6
CONTINUOUS
 10
24.80129345677369
 20
6.238715068421037
 30
0.0
 11
23.09430544490542
 21
7.945703080289305
 31
0.0
  0
LINE
  5
D5DAB
  8
0
  6
CONTINUOUS
 10
30.33148898767293
 20
1.382038746601982
 30
0.0
 11
29.30199999996933
 21
2.411527734305588
 31
0.0
  0
LINE
  5
D5DAC
  8
0
  6
CONTINUOUS
 10
30.52875819675312
 20
1.85828874660198
 30
0.0
 11
29.30199999996933
 21
3.085046943385775
 31
0.0
  0
LINE
  5
D5DAD
  8
0
  6
CONTINUOUS
 10
24.256042443999
 20
7.457485290275915
 30
0.0
 11
23.30250855037605
 21
8.411019183898862
 31
0.0
  0
LINE
  5
D5DAE
  8
0
  6
CONTINUOUS
 10
23.71079143122431
 20
8.676255512130794
 30
0.0
 11
23.51071165584668
 21
8.876335287508418
 31
0.0
  0
LINE
  5
D5DAF
  8
0
  6
CONTINUOUS
 10
30.72602740583331
 20
2.334538746601978
 30
0.0
 11
29.30199999996933
 21
3.758566152465961
 31
0.0
  0
LINE
  5
D5DB0
  8
0
  6
CONTINUOUS
 10
30.74199999996924
 20
2.992085361546236
 30
0.0
 11
29.30199999996933
 21
4.432085361546148
 31
0.0
  0
LINE
  5
D5DB1
  8
0
  6
CONTINUOUS
 10
30.74199999996924
 20
3.665604570626419
 30
0.0
 11
29.30199999996933
 21
5.105604570626333
 31
0.0
  0
LINE
  5
D5DB2
  8
0
  6
CONTINUOUS
 10
30.74199999996925
 20
4.339123779706602
 30
0.0
 11
29.30199999996933
 21
5.77912377970652
 31
0.0
  0
LINE
  5
D5DB3
  8
0
  6
CONTINUOUS
 10
30.74199999996925
 20
5.012642988786785
 30
0.0
 11
29.30199999996933
 21
6.452642988786707
 31
0.0
  0
LINE
  5
D5DB4
  8
0
  6
CONTINUOUS
 10
30.74199999996925
 20
5.68616219786697
 30
0.0
 11
29.30199999996933
 21
7.126162197866894
 31
0.0
  0
LINE
  5
D5DB5
  8
0
  6
CONTINUOUS
 10
30.74199999996925
 20
6.359681406947153
 30
0.0
 11
29.30199999996933
 21
7.799681406947081
 31
0.0
  0
LINE
  5
D5DB6
  8
0
  6
CONTINUOUS
 10
30.74199999996926
 20
7.033200616027337
 30
0.0
 11
29.30199999996933
 21
8.473200616027269
 31
0.0
  0
LINE
  5
D5DB7
  8
0
  6
CONTINUOUS
 10
30.74199999996926
 20
7.706719825107518
 30
0.0
 11
29.68561982508552
 21
8.763099999991255
 31
0.0
  0
LINE
  5
D5DB8
  8
0
  6
CONTINUOUS
 10
30.74199999996926
 20
8.380239034187703
 30
0.0
 11
30.35913903416571
 21
8.763099999991255
 31
0.0
  0
ENDBLK
  5
D5E5D
  8
0
  0
BLOCK
  8
0
  2
*X444
 70
     1
 10
0.0
 20
0.0
 30
0.0
  3
*X444
  1

  0
LINE
  5
D5DBA
  8
0
  6
CONTINUOUS
 10
31.64199999996833
 20
8.535058289913598
 30
0.0
 11
31.87004171004599
 21
8.763099999991255
 31
0.0
  0
LINE
  5
D5DBB
  8
0
  6
CONTINUOUS
 10
31.64199999996833
 20
7.861539080833412
 30
0.0
 11
32.54356091912618
 21
8.763099999991255
 31
0.0
  0
LINE
  5
D5DBC
  8
0
  6
CONTINUOUS
 10
31.64199999996833
 20
7.188019871753226
 30
0.0
 11
33.08199999996839
 21
8.628019871753281
 31
0.0
  0
LINE
  5
D5DBD
  8
0
  6
CONTINUOUS
 10
31.64199999996833
 20
6.51450066267304
 30
0.0
 11
33.08199999996839
 21
7.954500662673095
 31
0.0
  0
LINE
  5
D5DBE
  8
0
  6
CONTINUOUS
 10
31.64199999996833
 20
5.840981453592853
 30
0.0
 11
33.08199999996839
 21
7.280981453592908
 31
0.0
  0
LINE
  5
D5DBF
  8
0
  6
CONTINUOUS
 10
31.64199999996833
 20
5.167462244512667
 30
0.0
 11
33.08199999996839
 21
6.607462244512721
 31
0.0
  0
LINE
  5
D5DC0
  8
0
  6
CONTINUOUS
 10
31.64199999996833
 20
4.493943035432481
 30
0.0
 11
33.08199999996839
 21
5.933943035432535
 31
0.0
  0
LINE
  5
D5DC1
  8
0
  6
CONTINUOUS
 10
31.64199999996833
 20
3.820423826352293
 30
0.0
 11
33.08199999996839
 21
5.260423826352348
 31
0.0
  0
LINE
  5
D5DC2
  8
0
  6
CONTINUOUS
 10
31.64199999996833
 20
3.146904617272106
 30
0.0
 11
33.08199999996839
 21
4.586904617272161
 31
0.0
  0
LINE
  5
D5DC3
  8
0
  6
CONTINUOUS
 10
36.23199999996837
 20
8.410423826352325
 30
0.0
 11
36.5846761736073
 21
8.763099999991255
 31
0.0
  0
LINE
  5
D5DC4
  8
0
  6
CONTINUOUS
 10
36.23199999996837
 20
7.73690461727214
 30
0.0
 11
37.25819538268748
 21
8.763099999991255
 31
0.0
  0
LINE
  5
D5DC5
  8
0
  6
CONTINUOUS
 10
31.64374005202358
 20
2.475125460247167
 30
0.0
 11
33.08199999996839
 21
3.913385408191974
 31
0.0
  0
LINE
  5
D5DC6
  8
0
  6
CONTINUOUS
 10
31.78607140823076
 20
1.943937607374161
 30
0.0
 11
33.08199999996839
 21
3.239866199111788
 31
0.0
  0
LINE
  5
D5DC7
  8
0
  6
CONTINUOUS
 10
31.92840276443794
 20
1.412749754501155
 30
0.0
 11
33.08199999996839
 21
2.566346990031601
 31
0.0
  0
LINE
  5
D5DC8
  8
0
  6
CONTINUOUS
 10
36.23199999996837
 20
7.063385408191953
 30
0.0
 11
37.67199999996831
 21
8.503385408191894
 31
0.0
  0
LINE
  5
D5DC9
  8
0
  6
CONTINUOUS
 10
36.23199999996837
 20
6.389866199111767
 30
0.0
 11
37.67199999996831
 21
7.829866199111708
 31
0.0
  0
LINE
  5
D5DCA
  8
0
  6
CONTINUOUS
 10
36.23199999996837
 20
5.71634699003158
 30
0.0
 11
37.67199999996831
 21
7.156346990031521
 31
0.0
  0
LINE
  5
D5DCB
  8
0
  6
CONTINUOUS
 10
32.1787326690177
 20
0.9895604500007256
 30
0.0
 11
33.20642631446081
 21
2.017254095443837
 31
0.0
  0
LINE
  5
D5DCC
  8
0
  6
CONTINUOUS
 10
36.23199999996837
 20
5.042827780951393
 30
0.0
 11
37.67199999996831
 21
6.482827780951334
 31
0.0
  0
LINE
  5
D5DCD
  8
0
  6
CONTINUOUS
 10
32.51549227355815
 20
0.652800845460991
 30
0.0
 11
33.49903056428258
 21
1.636339136185419
 31
0.0
  0
LINE
  5
D5DCE
  8
0
  6
CONTINUOUS
 10
36.23199999996837
 20
4.369308571871207
 30
0.0
 11
37.67199999996831
 21
5.809308571871147
 31
0.0
  0
LINE
  5
D5DCF
  8
0
  6
CONTINUOUS
 10
32.8522518780986
 20
0.3160412409212565
 30
0.0
 11
33.93324121824649
 21
1.397030581069147
 31
0.0
  0
LINE
  5
D5DD0
  8
0
  6
CONTINUOUS
 10
36.23199999996837
 20
3.69578936279102
 30
0.0
 11
37.67199999996831
 21
5.135789362790962
 31
0.0
  0
LINE
  5
D5DD1
  8
0
  6
CONTINUOUS
 10
33.32873687730419
 20
0.1190070310466638
 30
0.0
 11
34.46442907112041
 21
1.254699224862875
 31
0.0
  0
LINE
  5
D5DD2
  8
0
  6
CONTINUOUS
 10
36.23199999996837
 20
3.022270153710834
 30
0.0
 11
37.67199999996831
 21
4.462270153710775
 31
0.0
  0
LINE
  5
D5DD3
  8
0
  6
CONTINUOUS
 10
33.85992473017767
 20
-0.0233243251600488
 30
0.0
 11
35.24350171668284
 21
1.360252661345124
 31
0.0
  0
LINE
  5
D5DD4
  8
0
  6
CONTINUOUS
 10
36.18336676155003
 20
2.300117706212307
 30
0.0
 11
37.67199999996831
 21
3.788750944630588
 31
0.0
  0
LINE
  5
D5DD5
  8
0
  6
CONTINUOUS
 10
34.39111258305115
 20
-0.1656556813667613
 30
0.0
 11
37.67199999996831
 21
3.115231735550401
 31
0.0
  0
LINE
  5
D5DD6
  8
0
  6
CONTINUOUS
 10
35.11651383431612
 20
-0.1137736391819715
 30
0.0
 11
37.65739306207836
 21
2.427105588580266
 31
0.0
  0
LINE
  5
D5DD7
  8
0
  6
CONTINUOUS
 10
36.03655818385387
 20
0.1327515012755951
 30
0.0
 11
37.41086792161699
 21
1.507061239038712
 31
0.0
  0
LINE
  5
D5DD8
  8
0
  6
CONTINUOUS
 10
33.71988657648365
 20
0.0141987850318213
 30
0.0
 11
31.78457936207464
 21
1.949505999440826
 31
0.0
  0
LINE
  5
D5DD9
  8
0
  6
CONTINUOUS
 10
34.63993092602409
 20
-0.2323263554284312
 30
0.0
 11
31.64199999996833
 21
2.765604570627321
 31
0.0
  0
LINE
  5
D5DDA
  8
0
  6
CONTINUOUS
 10
35.17833301840466
 20
-0.0972092387288228
 30
0.0
 11
31.64199999996833
 21
3.439123779707508
 31
0.0
  0
LINE
  5
D5DDB
  8
0
  6
CONTINUOUS
 10
35.70952087127903
 20
0.0451221174769945
 30
0.0
 11
34.51294304365551
 21
1.241699945100516
 31
0.0
  0
LINE
  5
D5DDC
  8
0
  6
CONTINUOUS
 10
33.08199999996839
 20
2.67264298878764
 30
0.0
 11
31.64199999996833
 21
4.112642988787695
 31
0.0
  0
LINE
  5
D5DDD
  8
0
  6
CONTINUOUS
 10
36.2407087241534
 20
0.1874534736828117
 30
0.0
 11
35.10501653033629
 21
1.323145667499924
 31
0.0
  0
LINE
  5
D5DDE
  8
0
  6
CONTINUOUS
 10
33.08199999996839
 20
3.346162197867826
 30
0.0
 11
31.64199999996833
 21
4.786162197867881
 31
0.0
  0
LINE
  5
D5DDF
  8
0
  6
CONTINUOUS
 10
36.62369414391585
 20
0.4779872630005553
 30
0.0
 11
35.63620438320989
 21
1.465477023706505
 31
0.0
  0
LINE
  5
D5DE0
  8
0
  6
CONTINUOUS
 10
33.08199999996839
 20
4.019681406948012
 30
0.0
 11
31.64199999996833
 21
5.459681406948068
 31
0.0
  0
LINE
  5
D5DE1
  8
0
  6
CONTINUOUS
 10
36.96045374845689
 20
0.8147468675397027
 30
0.0
 11
35.97691545773309
 21
1.798285158263504
 31
0.0
  0
LINE
  5
D5DE2
  8
0
  6
CONTINUOUS
 10
33.08199999996839
 20
4.693200616028199
 30
0.0
 11
31.64199999996833
 21
6.133200616028255
 31
0.0
  0
LINE
  5
D5DE3
  8
0
  6
CONTINUOUS
 10
37.29721335299792
 20
1.151506472078851
 30
0.0
 11
36.17602012811361
 21
2.272699696963168
 31
0.0
  0
LINE
  5
D5DE4
  8
0
  6
CONTINUOUS
 10
33.08199999996839
 20
5.366719825108386
 30
0.0
 11
31.64199999996833
 21
6.80671982510844
 31
0.0
  0
LINE
  5
D5DE5
  8
0
  6
CONTINUOUS
 10
37.45404367813572
 20
1.668195356021243
 30
0.0
 11
36.23199999996837
 21
2.890239034188594
 31
0.0
  0
LINE
  5
D5DE6
  8
0
  6
CONTINUOUS
 10
37.5963750343428
 20
2.199383208894345
 30
0.0
 11
36.23199999996837
 21
3.56375824326878
 31
0.0
  0
LINE
  5
D5DE7
  8
0
  6
CONTINUOUS
 10
33.08199999996839
 20
6.040239034188573
 30
0.0
 11
31.64199999996833
 21
7.480239034188627
 31
0.0
  0
LINE
  5
D5DE8
  8
0
  6
CONTINUOUS
 10
33.08199999996839
 20
6.713758243268758
 30
0.0
 11
31.64199999996833
 21
8.153758243268815
 31
0.0
  0
LINE
  5
D5DE9
  8
0
  6
CONTINUOUS
 10
37.67199999996831
 20
2.797277452349026
 30
0.0
 11
36.23199999996837
 21
4.237277452348967
 31
0.0
  0
LINE
  5
D5DEA
  8
0
  6
CONTINUOUS
 10
37.67199999996831
 20
3.470796661429213
 30
0.0
 11
36.23199999996837
 21
4.910796661429154
 31
0.0
  0
LINE
  5
D5DEB
  8
0
  6
CONTINUOUS
 10
37.67199999996831
 20
4.144315870509399
 30
0.0
 11
36.23199999996837
 21
5.58431587050934
 31
0.0
  0
LINE
  5
D5DEC
  8
0
  6
CONTINUOUS
 10
33.08199999996839
 20
7.387277452348945
 30
0.0
 11
31.70617745232608
 21
8.763099999991255
 31
0.0
  0
LINE
  5
D5DED
  8
0
  6
CONTINUOUS
 10
33.08199999996839
 20
8.060796661429132
 30
0.0
 11
32.37969666140626
 21
8.763099999991255
 31
0.0
  0
LINE
  5
D5DEE
  8
0
  6
CONTINUOUS
 10
33.08199999996839
 20
8.734315870509318
 30
0.0
 11
33.05321587048645
 21
8.763099999991255
 31
0.0
  0
LINE
  5
D5DEF
  8
0
  6
CONTINUOUS
 10
37.67199999996831
 20
4.817835079589585
 30
0.0
 11
36.23199999996837
 21
6.257835079589526
 31
0.0
  0
LINE
  5
D5DF0
  8
0
  6
CONTINUOUS
 10
37.67199999996831
 20
5.491354288669771
 30
0.0
 11
36.23199999996837
 21
6.931354288669713
 31
0.0
  0
LINE
  5
D5DF1
  8
0
  6
CONTINUOUS
 10
37.67199999996831
 20
6.164873497749958
 30
0.0
 11
36.23199999996837
 21
7.6048734977499
 31
0.0
  0
LINE
  5
D5DF2
  8
0
  6
CONTINUOUS
 10
37.67199999996831
 20
6.838392706830144
 30
0.0
 11
36.23199999996837
 21
8.278392706830086
 31
0.0
  0
LINE
  5
D5DF3
  8
0
  6
CONTINUOUS
 10
37.67199999996831
 20
7.511911915910332
 30
0.0
 11
36.42081191588738
 21
8.763099999991255
 31
0.0
  0
LINE
  5
D5DF4
  8
0
  6
CONTINUOUS
 10
37.67199999996831
 20
8.185431124990519
 30
0.0
 11
37.09433112496757
 21
8.763099999991255
 31
0.0
  0
ENDBLK
  5
D5E5F
  8
0
  0
BLOCK
  8
0
  2
*X445
 70
     1
 10
0.0
 20
0.0
 30
0.0
  3
*X445
  1

  0
LINE
  5
D5DF6
  8
0
  6
CONTINUOUS
 10
38.60499999996136
 20
8.762866199104765
 30
0.0
 11
38.71672554182345
 21
8.874591740966855
 31
0.0
  0
LINE
  5
D5DF7
  8
0
  6
CONTINUOUS
 10
38.60499999996136
 20
8.089346990024577
 30
0.0
 11
39.03418785440363
 21
8.518534844466847
 31
0.0
  0
LINE
  5
D5DF8
  8
0
  6
CONTINUOUS
 10
38.60499999996136
 20
7.41582778094439
 30
0.0
 11
39.35165016698382
 21
8.16247794796684
 31
0.0
  0
LINE
  5
D5DF9
  8
0
  6
CONTINUOUS
 10
38.60499999996136
 20
6.742308571864204
 30
0.0
 11
39.66911247956399
 21
7.806421051466834
 31
0.0
  0
LINE
  5
D5DFA
  8
0
  6
CONTINUOUS
 10
38.60499999996136
 20
6.068789362784018
 30
0.0
 11
39.98657479214418
 21
7.450364154966827
 31
0.0
  0
LINE
  5
D5DFB
  8
0
  6
CONTINUOUS
 10
38.60499999996136
 20
5.395270153703832
 30
0.0
 11
40.30403710472435
 21
7.09430725846682
 31
0.0
  0
LINE
  5
D5DFC
  8
0
  6
CONTINUOUS
 10
38.60499999996136
 20
4.721750944623645
 30
0.0
 11
40.62149941730453
 21
6.738250361966813
 31
0.0
  0
LINE
  5
D5DFD
  8
0
  6
CONTINUOUS
 10
38.60499999996136
 20
4.048231735543458
 30
0.0
 11
40.93896172988471
 21
6.382193465466806
 31
0.0
  0
LINE
  5
D5DFE
  8
0
  6
CONTINUOUS
 10
38.60499999996136
 20
3.374712526463272
 30
0.0
 11
40.02599999995994
 21
4.795712526461843
 31
0.0
  0
LINE
  5
D5DFF
  8
0
  6
CONTINUOUS
 10
38.60499999996136
 20
2.701193317383085
 30
0.0
 11
40.02599999995994
 21
4.122193317381657
 31
0.0
  0
LINE
  5
D5E00
  8
0
  6
CONTINUOUS
 10
40.28339754687704
 20
5.053110073378947
 30
0.0
 11
41.25642404246489
 21
6.026136568966799
 31
0.0
  0
LINE
  5
D5E01
  8
0
  6
CONTINUOUS
 10
40.60085985945722
 20
4.697053176878939
 30
0.0
 11
41.57388635504507
 21
5.670079672466793
 31
0.0
  0
LINE
  5
D5E02
  8
0
  6
CONTINUOUS
 10
43.57899999995641
 20
8.348712526458318
 30
0.0
 11
43.99338747348935
 21
8.763099999991255
 31
0.0
  0
LINE
  5
D5E03
  8
0
  6
CONTINUOUS
 10
43.57899999995641
 20
7.675193317378131
 30
0.0
 11
44.66690668256953
 21
8.763099999991255
 31
0.0
  0
LINE
  5
D5E04
  8
0
  6
CONTINUOUS
 10
38.60499999996136
 20
2.027674108302898
 30
0.0
 11
40.02599999995994
 21
3.44867410830147
 31
0.0
  0
LINE
  5
D5E05
  8
0
  6
CONTINUOUS
 10
38.60499999996136
 20
1.354154899222712
 30
0.0
 11
40.02599999995994
 21
2.775154899221284
 31
0.0
  0
LINE
  5
D5E06
  8
0
  6
CONTINUOUS
 10
38.60499999996136
 20
0.6806356901425255
 30
0.0
 11
40.02599999995994
 21
2.101635690141098
 31
0.0
  0
LINE
  5
D5E07
  8
0
  6
CONTINUOUS
 10
38.60499999996136
 20
0.0071164810623383
 30
0.0
 11
40.02599999995994
 21
1.428116481060911
 31
0.0
  0
LINE
  5
D5E08
  8
0
  6
CONTINUOUS
 10
40.9183221720374
 20
4.340996280378933
 30
0.0
 11
41.89134866762525
 21
5.314022775966786
 31
0.0
  0
LINE
  5
D5E09
  8
0
  6
CONTINUOUS
 10
41.23578448461758
 20
3.984939383878926
 30
0.0
 11
42.20881098020543
 21
4.957965879466778
 31
0.0
  0
LINE
  5
D5E0A
  8
0
  6
CONTINUOUS
 10
41.55324679719776
 20
3.628882487378919
 30
0.0
 11
42.52627329278561
 21
4.601908982966772
 31
0.0
  0
LINE
  5
D5E0B
  8
0
  6
CONTINUOUS
 10
41.87070910977793
 20
3.272825590878912
 30
0.0
 11
42.84373560536579
 21
4.245852086466765
 31
0.0
  0
LINE
  5
D5E0C
  8
0
  6
CONTINUOUS
 10
43.57899999995641
 20
7.001674108297943
 30
0.0
 11
44.99999999995498
 21
8.422674108296516
 31
0.0
  0
LINE
  5
D5E0D
  8
0
  6
CONTINUOUS
 10
43.57899999995641
 20
6.328154899217758
 30
0.0
 11
44.99999999995498
 21
7.749154899216329
 31
0.0
  0
LINE
  5
D5E0E
  8
0
  6
CONTINUOUS
 10
43.57899999995641
 20
5.654635690137571
 30
0.0
 11
44.99999999995498
 21
7.075635690136142
 31
0.0
  0
LINE
  5
D5E0F
  8
0
  6
CONTINUOUS
 10
43.57899999995641
 20
4.981116481057384
 30
0.0
 11
44.99999999995498
 21
6.402116481055955
 31
0.0
  0
LINE
  5
D5E10
  8
0
  6
CONTINUOUS
 10
39.27140272797921
 20
-0.0000000000000009
 30
0.0
 11
40.02599999995994
 21
0.7545972719807246
 31
0.0
  0
LINE
  5
D5E11
  8
0
  6
CONTINUOUS
 10
39.9449219370594
 20
-0.0000000000000009
 30
0.0
 11
40.02599999995994
 21
0.0810780629005379
 31
0.0
  0
LINE
  5
D5E12
  8
0
  6
CONTINUOUS
 10
42.18817142235812
 20
2.916768694378905
 30
0.0
 11
43.16119791794597
 21
3.889795189966758
 31
0.0
  0
LINE
  5
D5E13
  8
0
  6
CONTINUOUS
 10
42.50563373493829
 20
2.560711797878898
 30
0.0
 11
43.47866023052615
 21
3.533738293466751
 31
0.0
  0
LINE
  5
D5E14
  8
0
  6
CONTINUOUS
 10
43.57899999995641
 20
4.307597271977198
 30
0.0
 11
44.99999999995498
 21
5.728597271975769
 31
0.0
  0
LINE
  5
D5E15
  8
0
  6
CONTINUOUS
 10
43.57899999995641
 20
3.634078062897011
 30
0.0
 11
44.99999999995498
 21
5.055078062895582
 31
0.0
  0
LINE
  5
D5E16
  8
0
  6
CONTINUOUS
 10
42.82309604751848
 20
2.204654901378891
 30
0.0
 11
44.99999999995498
 21
4.381558853815395
 31
0.0
  0
LINE
  5
D5E17
  8
0
  6
CONTINUOUS
 10
43.14055836009865
 20
1.848598004878885
 30
0.0
 11
44.99999999995498
 21
3.70803964473521
 31
0.0
  0
LINE
  5
D5E18
  8
0
  6
CONTINUOUS
 10
43.45802067267883
 20
1.492541108378878
 30
0.0
 11
44.99999999995498
 21
3.034520435655023
 31
0.0
  0
LINE
  5
D5E19
  8
0
  6
CONTINUOUS
 10
43.77548298525902
 20
1.136484211878871
 30
0.0
 11
44.99999999995498
 21
2.361001226574837
 31
0.0
  0
LINE
  5
D5E1A
  8
0
  6
CONTINUOUS
 10
44.09294529783919
 20
0.7804273153788639
 30
0.0
 11
44.99999999995498
 21
1.687482017494649
 31
0.0
  0
LINE
  5
D5E1B
  8
0
  6
CONTINUOUS
 10
44.41040761041938
 20
0.4243704188788566
 30
0.0
 11
44.99999999995498
 21
1.013962808414463
 31
0.0
  0
LINE
  5
D5E1C
  8
0
  6
CONTINUOUS
 10
44.72786992299955
 20
0.0683135223788494
 30
0.0
 11
44.99999999995498
 21
0.340443599334276
 31
0.0
  0
LINE
  5
D5E1D
  8
0
  6
CONTINUOUS
 10
39.12223903415696
 20
-0.0000000000000009
 30
0.0
 11
38.60499999996136
 21
0.5172390341955961
 31
0.0
  0
LINE
  5
D5E1E
  8
0
  6
CONTINUOUS
 10
39.79575824323715
 20
-0.0000000000000009
 30
0.0
 11
38.60499999996136
 21
1.190758243275783
 31
0.0
  0
LINE
  5
D5E1F
  8
0
  6
CONTINUOUS
 10
40.02599999995994
 20
0.443277452357397
 30
0.0
 11
38.60499999996136
 21
1.864277452355969
 31
0.0
  0
LINE
  5
D5E20
  8
0
  6
CONTINUOUS
 10
40.02599999995994
 20
1.116796661437583
 30
0.0
 11
38.60499999996136
 21
2.537796661436155
 31
0.0
  0
LINE
  5
D5E21
  8
0
  6
CONTINUOUS
 10
40.02599999995994
 20
1.79031587051777
 30
0.0
 11
38.60499999996136
 21
3.211315870516341
 31
0.0
  0
LINE
  5
D5E22
  8
0
  6
CONTINUOUS
 10
40.02599999995994
 20
2.463835079597956
 30
0.0
 11
38.60499999996136
 21
3.884835079596527
 31
0.0
  0
LINE
  5
D5E23
  8
0
  6
CONTINUOUS
 10
40.02599999995994
 20
3.137354288678143
 30
0.0
 11
38.60499999996136
 21
4.558354288676714
 31
0.0
  0
LINE
  5
D5E24
  8
0
  6
CONTINUOUS
 10
40.02599999995994
 20
3.810873497758329
 30
0.0
 11
38.60499999996136
 21
5.2318734977569
 31
0.0
  0
LINE
  5
D5E25
  8
0
  6
CONTINUOUS
 10
40.02599999995994
 20
4.484392706838515
 30
0.0
 11
38.60499999996136
 21
5.905392706837086
 31
0.0
  0
LINE
  5
D5E26
  8
0
  6
CONTINUOUS
 10
44.99999999995498
 20
0.183911915923658
 30
0.0
 11
41.53858364506288
 21
3.64532827081576
 31
0.0
  0
LINE
  5
D5E27
  8
0
  6
CONTINUOUS
 10
40.02599999995994
 20
5.157911915918703
 30
0.0
 11
38.60499999996136
 21
6.578911915917274
 31
0.0
  0
LINE
  5
D5E28
  8
0
  6
CONTINUOUS
 10
44.99999999995498
 20
0.8574311250038447
 30
0.0
 11
38.60499999996136
 21
7.25243112499746
 31
0.0
  0
LINE
  5
D5E29
  8
0
  6
CONTINUOUS
 10
44.99999999995498
 20
1.530950334084031
 30
0.0
 11
38.60499999996136
 21
7.925950334077647
 31
0.0
  0
LINE
  5
D5E2A
  8
0
  6
CONTINUOUS
 10
44.99999999995498
 20
2.204469543164218
 30
0.0
 11
43.57899999995641
 21
3.625469543162789
 31
0.0
  0
LINE
  5
D5E2B
  8
0
  6
CONTINUOUS
 10
41.89876730984767
 20
5.305702233271528
 30
0.0
 11
38.60499999996136
 21
8.599469543157834
 31
0.0
  0
LINE
  5
D5E2C
  8
0
  6
CONTINUOUS
 10
44.99999999995498
 20
2.877988752244405
 30
0.0
 11
43.57899999995641
 21
4.298988752242975
 31
0.0
  0
LINE
  5
D5E2D
  8
0
  6
CONTINUOUS
 10
44.99999999995498
 20
3.551507961324591
 30
0.0
 11
43.57899999995641
 21
4.972507961323163
 31
0.0
  0
LINE
  5
D5E2E
  8
0
  6
CONTINUOUS
 10
44.99999999995498
 20
4.225027170404777
 30
0.0
 11
43.57899999995641
 21
5.646027170403348
 31
0.0
  0
LINE
  5
D5E2F
  8
0
  6
CONTINUOUS
 10
44.99999999995498
 20
4.898546379484964
 30
0.0
 11
43.57899999995641
 21
6.319546379483535
 31
0.0
  0
LINE
  5
D5E30
  8
0
  6
CONTINUOUS
 10
44.99999999995498
 20
5.572065588565151
 30
0.0
 11
43.57899999995641
 21
6.993065588563722
 31
0.0
  0
LINE
  5
D5E31
  8
0
  6
CONTINUOUS
 10
44.99999999995498
 20
6.245584797645336
 30
0.0
 11
43.57899999995641
 21
7.666584797643908
 31
0.0
  0
LINE
  5
D5E32
  8
0
  6
CONTINUOUS
 10
44.99999999995498
 20
6.919104006725522
 30
0.0
 11
43.57899999995641
 21
8.340104006724093
 31
0.0
  0
LINE
  5
D5E33
  8
0
  6
CONTINUOUS
 10
44.99999999995498
 20
7.592623215805709
 30
0.0
 11
43.82952321576943
 21
8.763099999991255
 31
0.0
  0
LINE
  5
D5E34
  8
0
  6
CONTINUOUS
 10
44.99999999995498
 20
8.266142424885896
 30
0.0
 11
44.50304242484962
 21
8.763099999991255
 31
0.0
  0
ENDBLK
  5
D5E61
  8
0
  0
BLOCK
  8
0
  2
*X446
 70
     1
 10
0.0
 20
0.0
 30
0.0
  3
*X446
  1

  0
LINE
  5
D5E36
  8
0
  6
CONTINUOUS
 10
0.0
 20
8.548461116714023
 30
0.0
 11
0.2146388832772324
 21
8.763099999991255
 31
0.0
  0
LINE
  5
D5E37
  8
0
  6
CONTINUOUS
 10
-0.0000000000000002
 20
7.874941907633837
 30
0.0
 11
0.8881580923574184
 21
8.763099999991255
 31
0.0
  0
LINE
  5
D5E38
  8
0
  6
CONTINUOUS
 10
0.0
 20
7.20142269855365
 30
0.0
 11
1.420999999998572
 21
8.622422698552223
 31
0.0
  0
LINE
  5
D5E39
  8
0
  6
CONTINUOUS
 10
-0.0000000000000001
 20
6.527903489473465
 30
0.0
 11
1.420999999998571
 21
7.948903489472036
 31
0.0
  0
LINE
  5
D5E3A
  8
0
  6
CONTINUOUS
 10
-0.0000000000000002
 20
5.854384280393278
 30
0.0
 11
1.420999999998571
 21
7.275384280391849
 31
0.0
  0
LINE
  5
D5E3B
  8
0
  6
CONTINUOUS
 10
-0.0000000000000002
 20
5.180865071313091
 30
0.0
 11
1.420999999998571
 21
6.601865071311663
 31
0.0
  0
LINE
  5
D5E3C
  8
0
  6
CONTINUOUS
 10
0.0
 20
4.507345862232905
 30
0.0
 11
1.420999999998571
 21
5.928345862231477
 31
0.0
  0
LINE
  5
D5E3D
  8
0
  6
CONTINUOUS
 10
-0.0000000000000003
 20
3.833826653152718
 30
0.0
 11
1.420999999998571
 21
5.25482665315129
 31
0.0
  0
LINE
  5
D5E3E
  8
0
  6
CONTINUOUS
 10
-0.0000000000000002
 20
3.160307444072532
 30
0.0
 11
1.420999999998571
 21
4.581307444071103
 31
0.0
  0
LINE
  5
D5E3F
  8
0
  6
CONTINUOUS
 10
-0.0000000000000001
 20
2.486788234992345
 30
0.0
 11
1.420999999998571
 21
3.907788234990917
 31
0.0
  0
LINE
  5
D5E40
  8
0
  6
CONTINUOUS
 10
-0.0000000000000006
 20
1.813269025912159
 30
0.0
 11
1.420999999998571
 21
3.234269025910731
 31
0.0
  0
LINE
  5
D5E41
  8
0
  6
CONTINUOUS
 10
0.0
 20
1.139749816831973
 30
0.0
 11
1.420999999998571
 21
2.560749816830544
 31
0.0
  0
LINE
  5
D5E42
  8
0
  6
CONTINUOUS
 10
0.0000000000000002
 20
0.466230607751787
 30
0.0
 11
1.420999999998571
 21
1.887230607750358
 31
0.0
  0
LINE
  5
D5E43
  8
0
  6
CONTINUOUS
 10
0.2072886013284003
 20
-0.0000000000000009
 30
0.0
 11
1.420999999998571
 21
1.213711398670171
 31
0.0
  0
LINE
  5
D5E44
  8
0
  6
CONTINUOUS
 10
0.8808078104085864
 20
-0.0000000000000009
 30
0.0
 11
1.420999999998571
 21
0.5401921895899839
 31
0.0
  0
LINE
  5
D5E45
  8
0
  6
CONTINUOUS
 10
0.0581249075061505
 20
-0.0000000000000009
 30
0.0
 11
-0.0000000000000002
 21
0.0581249075061496
 31
0.0
  0
LINE
  5
D5E46
  8
0
  6
CONTINUOUS
 10
0.7316441165863372
 20
-0.0000000000000009
 30
0.0
 11
-0.0000000000000002
 21
0.7316441165863363
 31
0.0
  0
LINE
  5
D5E47
  8
0
  6
CONTINUOUS
 10
1.405163325666523
 20
-0.0000000000000009
 30
0.0
 11
-0.0000000000000002
 21
1.405163325666523
 31
0.0
  0
LINE
  5
D5E48
  8
0
  6
CONTINUOUS
 10
1.420999999998572
 20
0.6576825347481381
 30
0.0
 11
-0.0000000000000001
 21
2.07868253474671
 31
0.0
  0
LINE
  5
D5E49
  8
0
  6
CONTINUOUS
 10
1.420999999998571
 20
1.331201743828324
 30
0.0
 11
-0.0000000000000001
 21
2.752201743826896
 31
0.0
  0
LINE
  5
D5E4A
  8
0
  6
CONTINUOUS
 10
1.420999999998571
 20
2.004720952908511
 30
0.0
 11
-0.0000000000000002
 21
3.425720952907082
 31
0.0
  0
LINE
  5
D5E4B
  8
0
  6
CONTINUOUS
 10
1.420999999998571
 20
2.678240161988697
 30
0.0
 11
-0.0000000000000001
 21
4.099240161987269
 31
0.0
  0
LINE
  5
D5E4C
  8
0
  6
CONTINUOUS
 10
1.420999999998572
 20
3.351759371068884
 30
0.0
 11
0.0
 21
4.772759371067455
 31
0.0
  0
LINE
  5
D5E4D
  8
0
  6
CONTINUOUS
 10
1.420999999998571
 20
4.02527858014907
 30
0.0
 11
-0.0000000000000003
 21
5.446278580147642
 31
0.0
  0
LINE
  5
D5E4E
  8
0
  6
CONTINUOUS
 10
1.420999999998571
 20
4.698797789229257
 30
0.0
 11
0.0
 21
6.119797789227828
 31
0.0
  0
LINE
  5
D5E4F
  8
0
  6
CONTINUOUS
 10
1.420999999998571
 20
5.372316998309444
 30
0.0
 11
-0.0000000000000001
 21
6.793316998308015
 31
0.0
  0
LINE
  5
D5E50
  8
0
  6
CONTINUOUS
 10
1.420999999998572
 20
6.045836207389629
 30
0.0
 11
-0.0000000000000004
 21
7.466836207388202
 31
0.0
  0
LINE
  5
D5E51
  8
0
  6
CONTINUOUS
 10
1.420999999998571
 20
6.719355416469816
 30
0.0
 11
0.0
 21
8.140355416468388
 31
0.0
  0
LINE
  5
D5E52
  8
0
  6
CONTINUOUS
 10
1.420999999998571
 20
7.392874625550003
 30
0.0
 11
0.0507746255573185
 21
8.763099999991255
 31
0.0
  0
LINE
  5
D5E53
  8
0
  6
CONTINUOUS
 10
1.420999999998571
 20
8.06639383463019
 30
0.0
 11
0.7242938346375052
 21
8.763099999991255
 31
0.0
  0
LINE
  5
D5E54
  8
0
  6
CONTINUOUS
 10
1.420999999998571
 20
8.739913043710375
 30
0.0
 11
1.397813043717691
 21
8.763099999991255
 31
0.0
  0
ENDBLK
  5
D5E63
  8
0
  0
ENDSEC
  0
SECTION
  2
ENTITIES
  0
LINE
  5
C81FB
  8
01
 10
-2406.507957163574
 20
-2891.04903801069
 30
0.0
 11
-2406.507957163574
 21
-2876.24903801069
 31
0.0
  0
LINE
  5
C81FC
  8
01
 10
-2444.807957163574
 20
-2871.14903801069
 30
0.0
 11
-2444.807957163575
 21
-2875.64903801069
 31
0.0
  0
LINE
  5
C81FD
  8
01
 10
-2444.807957163574
 20
-2871.14903801069
 30
0.0
 11
-2443.007957163574
 21
-2871.14903801069
 31
0.0
  0
LINE
  5
C81FE
  8
01
 10
-2444.807957163574
 20
-2896.14903801069
 30
0.0
 11
-2443.007957163574
 21
-2896.14903801069
 31
0.0
  0
LINE
  5
C8200
  8
01
 10
-2407.007957163574
 20
-2891.54903801069
 30
0.0
 11
-2443.007957163574
 21
-2891.54903801069
 31
0.0
  0
LINE
  5
C8201
  8
01
 10
-2407.007957163574
 20
-2875.74903801069
 30
0.0
 11
-2443.007957163574
 21
-2875.749038010691
 31
0.0
  0
LINE
  5
CB2AC
  8
01
 10
-2371.007957163574
 20
-2900.14903801069
 30
0.0
 11
-2371.007957163574
 21
-2867.14903801069
 31
0.0
  0
LINE
  5
CD7A3
  8
01
 10
-2444.807957163575
 20
-2891.649038010691
 30
0.0
 11
-2444.807957163575
 21
-2892.399033857311
 31
0.0
  0
LINE
  5
CD7A4
  8
01
 10
-2444.807957163574
 20
-2875.64903801069
 30
0.0
 11
-2444.807957163575
 21
-2891.649038010691
 31
0.0
  0
LINE
  5
CDF97
  8
01
 10
-2446.507957163574
 20
-2896.149033857311
 30
0.0
 11
-2445.007957163574
 21
-2896.149033857311
 31
0.0
  0
LINE
  5
CDF98
  8
01
 10
-2445.007957163574
 20
-2896.149033857311
 30
0.0
 11
-2445.007957163574
 21
-2895.149033857311
 31
0.0
  0
LINE
  5
CDF99
  8
01
 10
-2445.007957163574
 20
-2871.149033857311
 30
0.0
 11
-2446.507957163574
 21
-2871.149033857311
 31
0.0
  0
LINE
  5
CDF9A
  8
01
 10
-2446.507957163574
 20
-2871.149033857311
 30
0.0
 11
-2446.507957163574
 21
-2896.149033857311
 31
0.0
  0
ARC
  5
CDF9D
  8
01
 10
-2445.676640442451
 20
-2893.649033857311
 30
0.0
 40
2.031283874614326
 50
120.5118588055766
 51
239.4881411944233
  0
LINE
  5
CDFEC
  8
1CENTER
 10
-2449.658684443322
 20
-2893.649033857311
 30
0.0
 11
-2440.357229883826
 21
-2893.649033857311
 31
0.0
  0
LINE
  5
CE05E
  8
01
 10
-2444.807957163574
 20
-2894.899033857311
 30
0.0
 11
-2444.807957163574
 21
-2896.14903801069
 31
0.0
  0
LINE
  5
CE05F
  8
01
 10
-2443.007957163574
 20
-2896.14903801069
 30
0.0
 11
-2443.007957163574
 21
-2871.14903801069
 31
0.0
  0
LINE
  5
CE060
  8
01
 10
-2445.007957163574
 20
-2892.149033857311
 30
0.0
 11
-2445.007957163574
 21
-2875.749033857312
 31
0.0
  0
LINE
  5
CE075
  8
1CENTER
 10
-2455.093737651698
 20
-2874.149033857311
 30
0.0
 11
-2443.516141497372
 21
-2874.149033857311
 31
0.0
  0
LINE
  5
CE079
  8
01
 10
-2445.007957163574
 20
-2875.749033857312
 30
0.0
 11
-2445.007957163574
 21
-2871.149033857311
 31
0.0
  0
LINE
  5
D0DE3
  8
01
 10
-2403.512752652308
 20
-2798.628792913157
 30
0.0
 11
-2403.512752652308
 21
-2793.128792913158
 31
0.0
  0
LINE
  5
D0DED
  8
01
 10
-2398.012752652308
 20
-2823.528792913157
 30
0.0
 11
-2396.512752652308
 21
-2823.528792913157
 31
0.0
  0
LINE
  5
D0DEE
  8
01
 10
-2396.012752652308
 20
-2823.028792913157
 30
0.0
 11
-2396.012752652308
 21
-2790.028792913157
 31
0.0
  0
LINE
  5
D0DEF
  8
01
 10
-2398.512752652308
 20
-2792.628792913158
 30
0.0
 11
-2403.012752652308
 21
-2792.628792913158
 31
0.0
  0
LINE
  5
D0DF0
  8
01
 10
-2396.512752652308
 20
-2789.528792913157
 30
0.0
 11
-2398.012752652308
 21
-2789.528792913157
 31
0.0
  0
LINE
  5
D0DF1
  8
01
 10
-2398.512752652308
 20
-2823.028792913157
 30
0.0
 11
-2398.512752652308
 21
-2820.428792913157
 31
0.0
  0
LINE
  5
D0DF2
  8
01
 10
-2398.512752652308
 20
-2820.428792913157
 30
0.0
 11
-2403.012752652308
 21
-2820.428792913157
 31
0.0
  0
LINE
  5
D0DF3
  8
01
 10
-2398.512752652308
 20
-2790.028792913157
 30
0.0
 11
-2398.512752652308
 21
-2792.628792913158
 31
0.0
  0
LINE
  5
D0E07
  8
01
 10
-2403.512752652308
 20
-2814.278792913157
 30
0.0
 11
-2406.012752652308
 21
-2814.278792913157
 31
0.0
  0
LINE
  5
D0E12
  8
01
 10
-2403.512752652308
 20
-2798.778792913157
 30
0.0
 11
-2406.012752652308
 21
-2798.778792913157
 31
0.0
  0
LINE
  5
D0E1E
  8
01
 10
-2406.507957163574
 20
-2813.847876138487
 30
0.0
 11
-2406.507957163574
 21
-2799.209709687828
 31
0.0
  0
LINE
  5
D0E1F
  8
01
 10
-2444.807957163574
 20
-2794.528792913157
 30
0.0
 11
-2444.807957163575
 21
-2798.528792913157
 31
0.0
  0
LINE
  5
D0E20
  8
01
 10
-2444.307957163574
 20
-2794.028792913157
 30
0.0
 11
-2443.507957163574
 21
-2794.028792913157
 31
0.0
  0
LINE
  5
D0E21
  8
01
 10
-2444.307957163574
 20
-2819.028792913157
 30
0.0
 11
-2443.507957163574
 21
-2819.028792913157
 31
0.0
  0
LINE
  5
D0E23
  8
01
 10
-2443.007957163574
 20
-2818.528792913157
 30
0.0
 11
-2443.007957163574
 21
-2814.428792913157
 31
0.0
  0
LINE
  5
D0E25
  8
01
 10
-2443.007957163574
 20
-2798.628792913158
 30
0.0
 11
-2443.007957163574
 21
-2794.528792913157
 31
0.0
  0
LINE
  5
D0E26
  8
01
 10
-2407.007957163574
 20
-2814.278792913157
 30
0.0
 11
-2443.007957163574
 21
-2814.278792913157
 31
0.0
  0
LINE
  5
D0E27
  8
01
 10
-2407.007957163574
 20
-2798.778792913157
 30
0.0
 11
-2443.007957163574
 21
-2798.778792913157
 31
0.0
  0
LINE
  5
D0E3B
  8
1CENTER
 10
-2388.433215753302
 20
-2806.528792913155
 30
0.0
 11
-2459.062398351155
 21
-2806.528792913155
 31
0.0
  0
LINE
  5
D0E3E
  8
01
 10
-2403.512752652308
 20
-2819.928792913157
 30
0.0
 11
-2403.512752652308
 21
-2814.428792913157
 31
0.0
  0
LINE
  5
D0E49
  8
01
 10
-2444.807957163575
 20
-2807.928792913155
 30
0.0
 11
-2444.807957163574
 21
-2809.028797066534
 31
0.0
  0
LINE
  5
D0E4A
  8
01
 10
-2444.807957163574
 20
-2798.528792913157
 30
0.0
 11
-2444.807957163574
 21
-2818.528788759778
 31
0.0
  0
LINE
  5
D0E4D
  8
01
 10
-2446.007957163574
 20
-2819.028788759778
 30
0.0
 11
-2445.507957163574
 21
-2819.028788759778
 31
0.0
  0
LINE
  5
D0E4E
  8
01
 10
-2445.007957163574
 20
-2809.028792913155
 30
0.0
 11
-2445.007957163574
 21
-2809.028792913155
 31
0.0
  0
LINE
  5
D0E4F
  8
01
 10
-2445.007957163574
 20
-2818.528788759778
 30
0.0
 11
-2445.007957163574
 21
-2794.528788759778
 31
0.0
  0
LINE
  5
D0E51
  8
01
 10
-2445.507957163574
 20
-2794.028788759778
 30
0.0
 11
-2446.007957163574
 21
-2794.028788759778
 31
0.0
  0
LINE
  5
D0E53
  8
01
 10
-2446.507957163574
 20
-2794.528788759778
 30
0.0
 11
-2446.507957163574
 21
-2818.528788759778
 31
0.0
  0
LINE
  5
D0E58
  8
1CENTER
 10
-2449.658684443322
 20
-2806.528792913155
 30
0.0
 11
-2440.357229883826
 21
-2806.528792913155
 31
0.0
  0
LINE
  5
D0E60
  8
01
 10
-2446.507957163574
 20
-2809.028792913155
 30
0.0
 11
-2446.507957163574
 21
-2809.028792913155
 31
0.0
  0
LINE
  5
D1018
  8
01
 10
-2443.007957163574
 20
-2798.628792913157
 30
0.0
 11
-2443.007957163574
 21
-2814.428792913157
 31
0.0
  0
LINE
  5
D1025
  8
01
 10
-2398.512752652308
 20
-2792.628792913158
 30
0.0
 11
-2398.512752652308
 21
-2820.428792913157
 31
0.0
  0
LINE
  5
D1026
  8
01
 10
-2403.512752652308
 20
-2814.428792913157
 30
0.0
 11
-2403.512752652308
 21
-2798.628792913157
 31
0.0
  0
ARC
  5
D1027
  8
01
 10
-2407.007957163574
 20
-2799.278792913157
 30
0.0
 40
0.5
 50
0.0
 51
90.0
  0
ARC
  5
D1028
  8
01
 10
-2407.007957163574
 20
-2813.778792913157
 30
0.0
 40
0.5
 50
270.0
 51
0.0
  0
ARC
  5
D1029
  8
01
 10
-2406.012752652308
 20
-2799.278792913157
 30
0.0
 40
0.5
 50
90.0
 51
180.0
  0
ARC
  5
D102D
  8
01
 10
-2406.012752652308
 20
-2813.778792913157
 30
0.0
 40
0.5
 50
180.0
 51
270.0
  0
LINE
  5
D102E
  8
1DIM
 10
-2406.012752652308
 20
-2798.778792913157
 30
0.0
 11
-2406.012752652308
 21
-2814.278792913157
 31
0.0
  0
LINE
  5
D102F
  8
1DIM
 10
-2407.007957163574
 20
-2798.778792913157
 30
0.0
 11
-2407.007957163574
 21
-2814.278792913157
 31
0.0
  0
ARC
  5
D1030
  8
01
 10
-2403.012752652308
 20
-2793.128792913158
 30
0.0
 40
0.5
 50
90.0
 51
179.9999999999957
  0
ARC
  5
D1031
  8
01
 10
-2403.012752652308
 20
-2819.928792913157
 30
0.0
 40
0.5
 50
180.0
 51
270.0
  0
LINE
  5
D1032
  8
1DIM
 10
-2403.012752652308
 20
-2792.628792913158
 30
0.0
 11
-2403.012752652308
 21
-2820.428792913157
 31
0.0
  0
ARC
  5
D1033
  8
01
 10
-2396.512752652308
 20
-2790.028792913157
 30
0.0
 40
0.5
 50
0.0
 51
90.0
  0
ARC
  5
D1034
  8
01
 10
-2398.012752652308
 20
-2790.028792913157
 30
0.0
 40
0.5
 50
90.0
 51
180.0
  0
ARC
  5
D1035
  8
01
 10
-2398.012752652308
 20
-2823.028792913157
 30
0.0
 40
0.5
 50
180.0
 51
270.0
  0
ARC
  5
D1036
  8
01
 10
-2396.512752652308
 20
-2823.028792913157
 30
0.0
 40
0.5
 50
270.0
 51
0.0
  0
ARC
  5
D1037
  8
01
 10
-2443.507957163574
 20
-2794.528792913157
 30
0.0
 40
0.5
 50
0.0
 51
90.0
  0
ARC
  5
D1038
  8
01
 10
-2443.507957163574
 20
-2818.528792913157
 30
0.0
 40
0.5
 50
270.0
 51
0.0
  0
ARC
  5
D1039
  8
01
 10
-2444.307957163574
 20
-2794.528792913157
 30
0.0
 40
0.5
 50
90.0
 51
179.9999999999942
  0
ARC
  5
D103A
  8
01
 10
-2445.507957163574
 20
-2794.528788759778
 30
0.0
 40
0.5
 50
0.0
 51
90.0
  0
ARC
  5
D103B
  8
01
 10
-2446.007957163574
 20
-2794.528788759778
 30
0.0
 40
0.5
 50
90.0
 51
180.0
  0
ARC
  5
D103C
  8
01
 10
-2445.507957163574
 20
-2818.528788759778
 30
0.0
 40
0.5
 50
270.0
 51
0.0
  0
ARC
  5
D103D
  8
01
 10
-2446.007957163574
 20
-2818.528788759778
 30
0.0
 40
0.5
 50
180.0
 51
270.0
  0
ARC
  5
D103E
  8
01
 10
-2444.307957163574
 20
-2818.528792913157
 30
0.0
 40
0.5
 50
180.0000000000162
 51
270.0
  0
CIRCLE
  5
D1042
  8
01
 10
-2341.243339901019
 20
-2806.528792913155
 30
0.0
 40
17.0
  0
CIRCLE
  5
D1043
  8
01
 10
-2341.243339901019
 20
-2806.528792913155
 30
0.0
 40
10.69999999999982
  0
CIRCLE
  5
D1044
  8
01
 10
-2341.243339901019
 20
-2806.528792913155
 30
0.0
 40
15.0
  0
LINE
  5
D105E
  8
1CENTER
 10
-2341.243339901035
 20
-2780.44473113548
 30
0.0
 11
-2341.243339901035
 21
-2833.634614944609
 31
0.0
  0
LINE
  5
D105F
  8
1CENTER
 10
-2369.696462639587
 20
-2806.528792913155
 30
0.0
 11
-2312.790217162483
 21
-2806.528792913155
 31
0.0
  0
CIRCLE
  5
D1207
  8
01
 10
-2508.740835600098
 20
-2806.528792913155
 30
0.0
 40
12.5
  0
LINE
  5
D1208
  8
1CENTER
 10
-2508.740835600098
 20
-2781.628305573334
 30
0.0
 11
-2508.740835600098
 21
-2831.429280252977
 31
0.0
  0
LINE
  5
D1209
  8
1CENTER
 10
-2533.239817332674
 20
-2806.528792913155
 30
0.0
 11
-2484.241853867522
 21
-2806.528792913155
 31
0.0
  0
LINE
  5
D120A
  8
1CENTER
 10
-2513.195595824073
 20
-2797.028792913155
 30
0.0
 11
-2504.286075376117
 21
-2797.028792913155
 31
0.0
  0
LINE
  5
D120B
  8
1CENTER
 10
-2513.195595824073
 20
-2816.028792913155
 30
0.0
 11
-2504.286075376117
 21
-2816.028792913155
 31
0.0
  0
CIRCLE
  5
D1214
  8
01
 10
-2508.740835600096
 20
-2816.028792913155
 30
0.0
 40
2.0
  0
CIRCLE
  5
D1215
  8
01
 10
-2508.740835600096
 20
-2816.028792913155
 30
0.0
 40
1.4
  0
CIRCLE
  5
D1216
  8
01
 10
-2508.740835600096
 20
-2797.028792913155
 30
0.0
 40
1.75
  0
CIRCLE
  5
D1217
  8
01
 10
-2508.740835600095
 20
-2797.028792913155
 30
0.0
 40
2.5
  0
CIRCLE
  5
D1218
  8
01
 10
-2508.740835600098
 20
-2806.528792913153
 30
0.0
 40
13.89999999999736
  0
CIRCLE
  5
D1219
  8
01
 10
-2508.740835600098
 20
-2806.528792913153
 30
0.0
 40
16.99999999999773
  0
LINE
  5
D3B4C
  8
01
 10
-2406.512752652308
 20
-2799.209709687828
 30
0.0
 11
-2406.512752652308
 21
-2813.847876138487
 31
0.0
  0
ARC
  5
D528C
  8
01
 10
-2445.676640442451
 20
-2816.228792913155
 30
0.0
 40
2.031283874614326
 50
120.5118588055766
 51
239.4881411944233
  0
LINE
  5
D5295
  8
01
 10
-2446.707957163574
 20
-2813.728792913155
 30
0.0
 11
-2446.707957163574
 21
-2818.728792913155
 31
0.0
  0
LINE
  5
D5296
  8
01
 10
-2446.707957163574
 20
-2818.728792913155
 30
0.0
 11
-2446.507957163574
 21
-2818.728792913155
 31
0.0
  0
LINE
  5
D5297
  8
01
 10
-2446.507957163574
 20
-2818.728792913155
 30
0.0
 11
-2446.507957163574
 21
-2813.728792913155
 31
0.0
  0
LINE
  5
D5298
  8
01
 10
-2446.507957163574
 20
-2813.728792913155
 30
0.0
 11
-2446.707957163574
 21
-2813.728792913155
 31
0.0
  0
LINE
  5
D5299
  8
01
 10
-2445.007957163574
 20
-2813.728792913155
 30
0.0
 11
-2445.007957163574
 21
-2818.728792913155
 31
0.0
  0
LINE
  5
D529A
  8
01
 10
-2445.007957163574
 20
-2818.728792913155
 30
0.0
 11
-2444.807957163574
 21
-2818.728792913155
 31
0.0
  0
LINE
  5
D529B
  8
01
 10
-2444.807957163574
 20
-2818.728792913155
 30
0.0
 11
-2444.807957163574
 21
-2813.728792913155
 31
0.0
  0
LINE
  5
D529C
  8
01
 10
-2444.807957163574
 20
-2813.728792913155
 30
0.0
 11
-2445.007957163574
 21
-2813.728792913155
 31
0.0
  0
LINE
  5
D53B2
  8
01
 10
-2378.507957163574
 20
-2875.74903801069
 30
0.0
 11
-2378.507957163574
 21
-2870.249038010691
 31
0.0
  0
ARC
  5
D53B3
  8
01
 10
-2378.007957163574
 20
-2870.249038010691
 30
0.0
 40
0.5
 50
90.0
 51
180.0
  0
LINE
  5
D53B4
  8
01
 10
-2373.007957163574
 20
-2900.64903801069
 30
0.0
 11
-2371.507957163574
 21
-2900.64903801069
 31
0.0
  0
ARC
  5
D53B5
  8
01
 10
-2373.007957163574
 20
-2900.14903801069
 30
0.0
 40
0.5
 50
180.0
 51
270.0
  0
ARC
  5
D53B7
  8
01
 10
-2371.507957163574
 20
-2867.14903801069
 30
0.0
 40
0.5
 50
0.0
 51
90.0
  0
LINE
  5
D53B8
  8
01
 10
-2373.507957163574
 20
-2869.749038010691
 30
0.0
 11
-2378.007957163574
 21
-2869.749038010691
 31
0.0
  0
LINE
  5
D53B9
  8
01
 10
-2371.507957163574
 20
-2866.64903801069
 30
0.0
 11
-2373.007957163574
 21
-2866.64903801069
 31
0.0
  0
LINE
  5
D53BA
  8
01
 10
-2373.507957163574
 20
-2900.14903801069
 30
0.0
 11
-2373.507957163574
 21
-2897.54903801069
 31
0.0
  0
LINE
  5
D53BB
  8
01
 10
-2373.507957163574
 20
-2897.54903801069
 30
0.0
 11
-2378.007957163574
 21
-2897.54903801069
 31
0.0
  0
ARC
  5
D53BC
  8
01
 10
-2378.007957163574
 20
-2897.04903801069
 30
0.0
 40
0.5
 50
180.0
 51
270.0
  0
LINE
  5
D53BD
  8
01
 10
-2373.507957163574
 20
-2867.14903801069
 30
0.0
 11
-2373.507957163574
 21
-2869.749038010691
 31
0.0
  0
ARC
  5
D53BE
  8
01
 10
-2373.007957163574
 20
-2867.14903801069
 30
0.0
 40
0.5
 50
90.0
 51
180.0
  0
LINE
  5
D53BF
  8
01
 10
-2378.507957163574
 20
-2891.54903801069
 30
0.0
 11
-2381.007957163574
 21
-2891.54903801069
 31
0.0
  0
ARC
  5
D53C0
  8
01
 10
-2381.007957163574
 20
-2876.24903801069
 30
0.0
 40
0.5
 50
90.0
 51
180.0
  0
LINE
  5
D53C1
  8
01
 10
-2378.507957163574
 20
-2875.74903801069
 30
0.0
 11
-2381.007957163574
 21
-2875.74903801069
 31
0.0
  0
LINE
  5
D53C2
  8
01
 10
-2378.507957163574
 20
-2897.04903801069
 30
0.0
 11
-2378.507957163574
 21
-2891.54903801069
 31
0.0
  0
ARC
  5
D53C3
  8
01
 10
-2371.507957163574
 20
-2900.14903801069
 30
0.0
 40
0.5
 50
270.0
 51
0.0
  0
LINE
  5
D53C4
  8
01
 10
-2373.507957163574
 20
-2869.749038010691
 30
0.0
 11
-2373.507957163574
 21
-2897.54903801069
 31
0.0
  0
LINE
  5
D53C5
  8
01
 10
-2378.507957163574
 20
-2891.54903801069
 30
0.0
 11
-2378.507957163574
 21
-2875.74903801069
 31
0.0
  0
ARC
  5
D53C6
  8
01
 10
-2381.007957163574
 20
-2891.04903801069
 30
0.0
 40
0.5
 50
180.0
 51
270.0
  0
LINE
  5
D53C7
  8
1DIM
 10
-2381.007957163574
 20
-2875.74903801069
 30
0.0
 11
-2381.007957163574
 21
-2891.54903801069
 31
0.0
  0
LINE
  5
D53C8
  8
1DIM
 10
-2378.007957163574
 20
-2869.749038010691
 30
0.0
 11
-2378.007957163574
 21
-2897.54903801069
 31
0.0
  0
LINE
  5
D53C9
  8
01
 10
-2381.507957163574
 20
-2876.24903801069
 30
0.0
 11
-2381.507957163574
 21
-2891.04903801069
 31
0.0
  0
ARC
  5
D53CA
  8
01
 10
-2407.007957163574
 20
-2876.24903801069
 30
0.0
 40
0.5
 50
0.0
 51
90.0
  0
ARC
  5
D53CB
  8
01
 10
-2407.007957163574
 20
-2891.04903801069
 30
0.0
 40
0.5
 50
270.0
 51
0.0
  0
LINE
  5
D53CC
  8
1DIM
 10
-2407.007957163574
 20
-2875.74903801069
 30
0.0
 11
-2407.007957163574
 21
-2891.54903801069
 31
0.0
  0
LINE
  5
D53CD
  8
01
 10
-2446.507960195209
 20
-2875.549033857311
 30
0.0
 11
-2446.507960195208
 21
-2875.549032451738
 31
0.0
  0
LINE
  5
D53CE
  8
01
 10
-2446.507957009244
 20
-2872.14903245174
 30
0.0
 11
-2446.507960757437
 21
-2876.149032451738
 31
0.0
  0
LINE
  5
D53CF
  8
01
 10
-2446.507960757437
 20
-2876.149032451738
 30
0.0
 11
-2448.007960757436
 21
-2876.149031046165
 31
0.0
  0
LINE
  5
D53D0
  8
01
 10
-2448.007960757436
 20
-2876.149031046165
 30
0.0
 11
-2448.007960288913
 21
-2875.649031046166
 31
0.0
  0
ARC
  5
D53D1
  8
01
 10
-2449.913589152789
 20
-2872.2765011641
 30
0.0
 40
3.87367773211279
 50
268.6040063115236
 51
299.4683732465065
  0
ARC
  5
D53D2
  8
01
 10
-2450.007958883339
 20
-2874.14902917207
 30
0.0
 40
1.999999999999968
 50
89.99994631110033
 51
269.9999463111003
  0
ARC
  5
D53D3
  8
01
 10
-2449.913592662087
 20
-2876.021557356891
 30
0.0
 40
3.87367773210993
 50
60.53151937564346
 51
91.39588631067957
  0
LINE
  5
D53D4
  8
01
 10
-2448.007957477767
 20
-2872.649031046167
 30
0.0
 11
-2448.007957009243
 21
-2872.149031046167
 31
0.0
  0
LINE
  5
D53D5
  8
01
 10
-2448.007957009243
 20
-2872.149031046167
 30
0.0
 11
-2446.507957009244
 21
-2872.14903245174
 31
0.0
  0
CIRCLE
  5
D53F8
  8
01
 10
-2508.740835600094
 20
-2902.649033857311
 30
0.0
 40
12.5
  0
LINE
  5
D53F9
  8
1CENTER
 10
-2508.740835600098
 20
-2862.54854651749
 30
0.0
 11
-2508.740835600098
 21
-2920.249521197133
 31
0.0
  0
LINE
  5
D53FA
  8
1CENTER
 10
-2534.739817332674
 20
-2883.649033857311
 30
0.0
 11
-2482.741853867522
 21
-2883.649033857311
 31
0.0
  0
CIRCLE
  5
D53FD
  8
01
 10
-2508.740835600096
 20
-2893.149033857311
 30
0.0
 40
2.0
  0
CIRCLE
  5
D53FE
  8
01
 10
-2508.740835600096
 20
-2893.149033857311
 30
0.0
 40
1.4
  0
CIRCLE
  5
D53FF
  8
01
 10
-2508.740835600096
 20
-2912.149033857311
 30
0.0
 40
1.75
  0
CIRCLE
  5
D5400
  8
01
 10
-2508.740835600096
 20
-2912.149033857311
 30
0.0
 40
2.5
  0
ARC
  5
D5401
  8
01
 10
-2508.740835600098
 20
-2883.649033857309
 30
0.0
 40
13.89999999999736
 50
311.1119096491666
 51
228.8880903508586
  0
ARC
  5
D5402
  8
01
 10
-2508.740835600098
 20
-2883.649033857309
 30
0.0
 40
16.99999999999773
 50
310.1535649435715
 51
229.8464350564534
  0
ARC
  5
D5412
  8
01
 10
-2508.7408356001
 20
-2883.649033857302
 30
0.0
 40
12.5
 50
310.5358021111184
 51
229.464197888917
  0
ARC
  5
D5413
  8
01
 10
-2508.7408356001
 20
-2883.649033857302
 30
0.0
 40
7.2
 50
173.6206297915594
 51
186.3793702084442
  0
ARC
  5
D5414
  8
01
 10
-2508.7408356001
 20
-2883.649033857302
 30
0.0
 40
7.2
 50
353.6206297915558
 51
6.379370208444211
  0
CIRCLE
  5
D5416
  8
01
 10
-2508.7408356001
 20
-2883.649033857302
 30
0.0
 40
6.5
  0
LINE
  5
D5417
  8
01
 10
-2496.266461868325
 20
-2884.449033857302
 30
0.0
 11
-2501.5854180721
 21
-2884.449033857302
 31
0.0
  0
LINE
  5
D5418
  8
01
 10
-2515.896253128099
 20
-2884.449033857302
 30
0.0
 11
-2521.215209331875
 21
-2884.449033857302
 31
0.0
  0
LINE
  5
D5419
  8
01
 10
-2496.266461868325
 20
-2882.849033857302
 30
0.0
 11
-2501.5854180721
 21
-2882.849033857302
 31
0.0
  0
LINE
  5
D541A
  8
01
 10
-2515.896253128099
 20
-2882.849033857302
 30
0.0
 11
-2521.215209331875
 21
-2882.849033857302
 31
0.0
  0
ARC
  5
D541C
  8
01
 10
-2508.7408356001
 20
-2883.649033857302
 30
0.0
 40
8.0
 50
5.739170477268188
 51
174.260829522735
  0
ARC
  5
D541D
  8
01
 10
-2508.7408356001
 20
-2883.649033857302
 30
0.0
 40
8.0
 50
185.7391704772682
 51
242.1343558626288
  0
ARC
  5
D5420
  8
01
 10
-2508.7408356001
 20
-2883.649033857302
 30
0.0
 40
8.0
 50
297.8656441374047
 51
354.2608295227318
  0
LINE
  5
D5423
  8
01
 10
-2444.807957163575
 20
-2884.449033857302
 30
0.0
 11
-2444.007957163575
 21
-2884.449033857302
 31
0.0
  0
LINE
  5
D5424
  8
01
 10
-2444.007957163575
 20
-2884.449033857302
 30
0.0
 11
-2444.007957163575
 21
-2882.849033857302
 31
0.0
  0
LINE
  5
D5425
  8
01
 10
-2444.007957163575
 20
-2882.849033857302
 30
0.0
 11
-2444.807957163574
 21
-2882.849033857302
 31
0.0
  0
LINE
  5
D5426
  8
01
 10
-2444.807957163575
 20
-2807.328788759767
 30
0.0
 11
-2444.007957163575
 21
-2807.328788759767
 31
0.0
  0
LINE
  5
D5427
  8
01
 10
-2444.007957163575
 20
-2807.328788759767
 30
0.0
 11
-2444.007957163575
 21
-2805.728788759766
 31
0.0
  0
LINE
  5
D5428
  8
01
 10
-2444.007957163575
 20
-2805.728788759766
 30
0.0
 11
-2444.807957163574
 21
-2805.728788759766
 31
0.0
  0
LINE
  5
D5429
  8
1CENTER
 10
-2460.742301109109
 20
-2883.649033857311
 30
0.0
 11
-2358.744337643957
 21
-2883.649033857311
 31
0.0
  0
TEXT
  5
D5502
  8
1TEXT2
 10
-2268.31586727933
 20
-2802.967871630799
 30
0.0
 40
8.0
  1
AC-886-X
  0
LINE
  5
D5C0A
  8
01
 10
-2445.007957163574
 20
-2891.149033857311
 30
0.0
 11
-2445.007957163574
 21
-2896.149033857311
 31
0.0
  0
LINE
  5
D5C0B
  8
01
 10
-2445.007957163574
 20
-2896.149033857311
 30
0.0
 11
-2444.807957163574
 21
-2896.149033857311
 31
0.0
  0
LINE
  5
D5C0C
  8
01
 10
-2444.807957163574
 20
-2896.149033857311
 30
0.0
 11
-2444.807957163574
 21
-2891.149033857311
 31
0.0
  0
LINE
  5
D5C0D
  8
01
 10
-2444.807957163574
 20
-2891.149033857311
 30
0.0
 11
-2445.007957163574
 21
-2891.149033857311
 31
0.0
  0
LINE
  5
D5C0E
  8
01
 10
-2446.707957163574
 20
-2891.149033857311
 30
0.0
 11
-2446.707957163574
 21
-2896.149033857311
 31
0.0
  0
LINE
  5
D5C0F
  8
01
 10
-2446.707957163574
 20
-2896.149033857311
 30
0.0
 11
-2446.507957163574
 21
-2896.149033857311
 31
0.0
  0
LINE
  5
D5C10
  8
01
 10
-2446.507957163574
 20
-2896.149033857311
 30
0.0
 11
-2446.507957163574
 21
-2891.149033857311
 31
0.0
  0
LINE
  5
D5C11
  8
01
 10
-2446.507957163574
 20
-2891.149033857311
 30
0.0
 11
-2446.707957163574
 21
-2891.149033857311
 31
0.0
  0
LINE
  5
D5C12
  8
01
 10
-2448.007960757436
 20
-2798.728790102009
 30
0.0
 11
-2448.007960288913
 21
-2798.228790102009
 31
0.0
  0
ARC
  5
D5C13
  8
01
 10
-2449.913589152789
 20
-2794.856260219944
 30
0.0
 40
3.873677732112788
 50
268.6040063115204
 51
299.468373246504
  0
ARC
  5
D5C14
  8
01
 10
-2450.007958883339
 20
-2796.728788227913
 30
0.0
 40
1.999999999999968
 50
89.99994631110684
 51
269.9999463111068
  0
ARC
  5
D5C15
  8
01
 10
-2449.913592662087
 20
-2798.601316412735
 30
0.0
 40
3.87367773210993
 50
60.53151937564448
 51
91.3958863106802
  0
LINE
  5
D5C16
  8
01
 10
-2448.007957477767
 20
-2795.228790102011
 30
0.0
 11
-2448.007957009243
 21
-2794.728790102011
 31
0.0
  0
LINE
  5
D5C17
  8
01
 10
-2448.007957009243
 20
-2794.728790102011
 30
0.0
 11
-2446.507957009244
 21
-2794.728791507584
 31
0.0
  0
LINE
  5
D5C18
  8
01
 10
-2446.507957009244
 20
-2794.728791507584
 30
0.0
 11
-2446.507960757437
 21
-2798.728791507582
 31
0.0
  0
LINE
  5
D5C19
  8
01
 10
-2446.507960757437
 20
-2798.728791507582
 30
0.0
 11
-2448.007960757436
 21
-2798.728790102009
 31
0.0
  0
LINE
  5
D5C1A
  8
01
 10
-2381.507957163574
 20
-2876.74903801069
 30
0.0
 11
-2406.507957163574
 21
-2876.74903801069
 31
0.0
  0
LINE
  5
D5C1B
  8
01
 10
-2406.507957163574
 20
-2876.74903801069
 30
0.0
 11
-2406.507957163574
 21
-2890.54903801069
 31
0.0
  0
LINE
  5
D5C1C
  8
01
 10
-2406.507957163574
 20
-2890.54903801069
 30
0.0
 11
-2381.507957163574
 21
-2890.54903801069
 31
0.0
  0
LINE
  5
D5C1D
  8
1DIM
  6
CONTINUOUS
 10
-2443.007957163574
 20
-2818.528792913157
 30
0.0
 11
-2443.007957163574
 21
-2827.837038175637
 31
0.0
1001
ACAD
1000
DSTYLE
1002
{
1070
   271
1070
     0
1070
   288
1070
     1
1070
    50
1040
1.570796326794897
1070
   345
1005
14
1070
   346
1005
14
1070
   347
1005
14
1002
}
  0
LINE
  5
D5C1E
  8
1DIM
  6
CONTINUOUS
 10
-2403.512752652308
 20
-2819.928792913157
 30
0.0
 11
-2403.512752652308
 21
-2827.837038175637
 31
0.0
1001
ACAD
1000
DSTYLE
1002
{
1070
   271
1070
     0
1070
   288
1070
     1
1070
    50
1040
1.570796326794897
1070
   345
1005
14
1070
   346
1005
14
1070
   347
1005
14
1002
}
  0
LINE
  5
D5C1F
  8
1DIM
  6
CONTINUOUS
 10
-2441.007957163574
 20
-2826.837038175637
 30
0.0
 11
-2405.512752652308
 21
-2826.837038175637
 31
0.0
1001
ACAD
1000
DSTYLE
1002
{
1070
   271
1070
     0
1070
   288
1070
     1
1070
    50
1040
1.570796326794897
1070
   345
1005
14
1070
   346
1005
14
1070
   347
1005
14
1002
}
  0
LINE
  5
D5C23
  8
1DIM
  6
CONTINUOUS
 10
-2446.507957163574
 20
-2818.528788759778
 30
0.0
 11
-2446.507957163574
 21
-2840.563329661413
 31
0.0
1001
ACAD
1000
DSTYLE
1002
{
1070
    50
1040
1.570796326794897
1070
   271
1070
     1
1070
   288
1070
     1
1070
   345
1005
14
1070
   346
1005
14
1070
   347
1005
14
1002
}
  0
LINE
  5
D5C24
  8
1DIM
  6
CONTINUOUS
 10
-2396.012752652308
 20
-2823.028792913157
 30
0.0
 11
-2396.012752652308
 21
-2840.563329661413
 31
0.0
1001
ACAD
1000
DSTYLE
1002
{
1070
    50
1040
1.570796326794897
1070
   271
1070
     1
1070
   288
1070
     1
1070
   345
1005
14
1070
   346
1005
14
1070
   347
1005
14
1002
}
  0
LINE
  5
D5C25
  8
1DIM
  6
CONTINUOUS
 10
-2444.507957163574
 20
-2839.563329661413
 30
0.0
 11
-2398.012752652308
 21
-2839.563329661413
 31
0.0
1001
ACAD
1000
DSTYLE
1002
{
1070
    50
1040
1.570796326794897
1070
   271
1070
     1
1070
   288
1070
     1
1070
   345
1005
14
1070
   346
1005
14
1070
   347
1005
14
1002
}
  0
LINE
  5
D5C29
  8
1DIM
  6
CONTINUOUS
 10
-2443.007957163574
 20
-2818.528792913157
 30
0.0
 11
-2443.007957163574
 21
-2833.606298264392
 31
0.0
1001
ACAD
1000
DSTYLE
1002
{
1070
   271
1070
     0
1070
   288
1070
     1
1070
    50
1040
1.570796326794897
1070
   345
1005
14
1070
   346
1005
14
1070
   347
1005
14
1002
}
  0
LINE
  5
D5C2A
  8
1DIM
  6
CONTINUOUS
 10
-2398.512752652308
 20
-2823.028792913157
 30
0.0
 11
-2398.512752652308
 21
-2833.606298264392
 31
0.0
1001
ACAD
1000
DSTYLE
1002
{
1070
   271
1070
     0
1070
   288
1070
     1
1070
    50
1040
1.570796326794897
1070
   345
1005
14
1070
   346
1005
14
1070
   347
1005
14
1002
}
  0
LINE
  5
D5C2B
  8
1DIM
  6
CONTINUOUS
 10
-2441.007957163574
 20
-2832.606298264392
 30
0.0
 11
-2400.512752652308
 21
-2832.606298264392
 31
0.0
1001
ACAD
1000
DSTYLE
1002
{
1070
   271
1070
     0
1070
   288
1070
     1
1070
    50
1040
1.570796326794897
1070
   345
1005
14
1070
   346
1005
14
1070
   347
1005
14
1002
}
  0
LINE
  5
D5C2F
  8
1DIM
  6
CONTINUOUS
 10
-2373.507957163574
 20
-2897.54903801069
 30
0.0
 11
-2373.507957163574
 21
-2911.54903801069
 31
0.0
1001
ACAD
1000
DSTYLE
1002
{
1070
   271
1070
     0
1070
   288
1070
     1
1070
    50
1040
1.570796326794897
1070
   345
1005
14
1070
   346
1005
14
1070
   347
1005
14
1002
}
  0
LINE
  5
D5C30
  8
1DIM
  6
CONTINUOUS
 10
-2443.007957163574
 20
-2896.14903801069
 30
0.0
 11
-2443.007957163574
 21
-2911.54903801069
 31
0.0
1001
ACAD
1000
DSTYLE
1002
{
1070
   271
1070
     0
1070
   288
1070
     1
1070
    50
1040
1.570796326794897
1070
   345
1005
14
1070
   346
1005
14
1070
   347
1005
14
1002
}
  0
LINE
  5
D5C31
  8
1DIM
  6
CONTINUOUS
 10
-2375.507957163574
 20
-2910.54903801069
 30
0.0
 11
-2441.007957163574
 21
-2910.54903801069
 31
0.0
1001
ACAD
1000
DSTYLE
1002
{
1070
   271
1070
     0
1070
   288
1070
     1
1070
    50
1040
1.570796326794897
1070
   345
1005
14
1070
   346
1005
14
1070
   347
1005
14
1002
}
  0
LINE
  5
D5C35
  8
1DIM
  6
CONTINUOUS
 10
-2378.507957163574
 20
-2897.04903801069
 30
0.0
 11
-2378.507957163574
 21
-2903.94903801069
 31
0.0
1001
ACAD
1000
DSTYLE
1002
{
1070
   271
1070
     0
1070
   288
1070
     1
1070
    50
1040
1.570796326794897
1070
   345
1005
14
1070
   346
1005
14
1070
   347
1005
14
1002
}
  0
LINE
  5
D5C36
  8
1DIM
  6
CONTINUOUS
 10
-2443.007957163574
 20
-2896.14903801069
 30
0.0
 11
-2443.007957163574
 21
-2903.94903801069
 31
0.0
1001
ACAD
1000
DSTYLE
1002
{
1070
   271
1070
     0
1070
   288
1070
     1
1070
    50
1040
1.570796326794897
1070
   345
1005
14
1070
   346
1005
14
1070
   347
1005
14
1002
}
  0
LINE
  5
D5C37
  8
1DIM
  6
CONTINUOUS
 10
-2380.507957163574
 20
-2902.94903801069
 30
0.0
 11
-2441.007957163574
 21
-2902.94903801069
 31
0.0
1001
ACAD
1000
DSTYLE
1002
{
1070
   271
1070
     0
1070
   288
1070
     1
1070
    50
1040
1.570796326794897
1070
   345
1005
14
1070
   346
1005
14
1070
   347
1005
14
1002
}
  0
LINE
  5
D5C3B
  8
1DIM
 10
-2371.007957163574
 20
-2900.14903801069
 30
0.0
 11
-2371.007957163574
 21
-2918.149033857311
 31
0.0
1001
ACAD
1000
DSTYLE
1002
{
1070
   271
1070
     1
1070
   288
1070
     1
1070
    50
1040
1.570796326794897
1002
}
  0
LINE
  5
D5C3C
  8
1DIM
 10
-2446.507957163574
 20
-2896.149033857311
 30
0.0
 11
-2446.507957163574
 21
-2918.149033857311
 31
0.0
1001
ACAD
1000
DSTYLE
1002
{
1070
   271
1070
     1
1070
   288
1070
     1
1070
    50
1040
1.570796326794897
1002
}
  0
LINE
  5
D5C3D
  8
1DIM
 10
-2373.007957163574
 20
-2917.149033857311
 30
0.0
 11
-2444.507957163574
 21
-2917.149033857311
 31
0.0
1001
ACAD
1000
DSTYLE
1002
{
1070
   271
1070
     1
1070
   288
1070
     1
1070
    50
1040
1.570796326794897
1002
}
  0
LINE
  5
D5C41
  8
1DIM
 10
-2397.262752652308
 20
-2789.528792913157
 30
0.0
 11
-2381.012752652308
 21
-2789.528792913157
 31
0.0
1001
ACAD
1000
DSTYLE
1002
{
1070
   271
1070
     1
1070
     3
1000
\U+03C6<>
1070
   288
1070
     1
1070
    50
1040
1.570796326794897
1002
}
  0
LINE
  5
D5C42
  8
1DIM
 10
-2396.512752652308
 20
-2823.528792913157
 30
0.0
 11
-2381.012752652308
 21
-2823.528792913157
 31
0.0
1001
ACAD
1000
DSTYLE
1002
{
1070
   271
1070
     1
1070
     3
1000
\U+03C6<>
1070
   288
1070
     1
1070
    50
1040
1.570796326794897
1002
}
  0
LINE
  5
D5C43
  8
1DIM
 10
-2382.012752652308
 20
-2791.528792913157
 30
0.0
 11
-2382.012752652308
 21
-2821.528792913157
 31
0.0
1001
ACAD
1000
DSTYLE
1002
{
1070
   271
1070
     1
1070
     3
1000
\U+03C6<>
1070
   288
1070
     1
1070
    50
1040
1.570796326794897
1002
}
  0
LINE
  5
D5C51
  8
1DIM
 10
-2271.876705175971
 20
-2811.884605603803
 30
0.0
 11
-2201.805270221447
 21
-2811.884605603803
 31
0.0
  0
LINE
  5
D5C52
  8
1DIM
 10
-2271.876705175971
 20
-2811.884605603803
 30
0.0
 11
-2271.876705175971
 21
-2850.05127227047
 31
0.0
  0
LINE
  5
D5C53
  8
1DIM
 10
-2233.60211682156
 20
-2811.884605603803
 30
0.0
 11
-2233.60211682156
 21
-2850.05127227047
 31
0.0
  0
LINE
  5
D5C54
  8
1DIM
 10
-2201.805270221447
 20
-2811.884605603803
 30
0.0
 11
-2201.805270221447
 21
-2850.05127227047
 31
0.0
  0
LINE
  5
D5C55
  8
1DIM
 10
-2271.876705175971
 20
-2818.884605603803
 30
0.0
 11
-2201.805270221447
 21
-2818.884605603803
 31
0.0
  0
LINE
  5
D5C56
  8
1DIM
 10
-2271.876705175971
 20
-2826.384605603803
 30
0.0
 11
-2201.805270221447
 21
-2826.384605603803
 31
0.0
  0
LINE
  5
D5C57
  8
1DIM
 10
-2271.876705175971
 20
-2833.384605603803
 30
0.0
 11
-2201.805270221447
 21
-2833.384605603803
 31
0.0
  0
LINE
  5
D5C58
  8
1DIM
 10
-2271.876705175971
 20
-2843.05127227047
 30
0.0
 11
-2201.805270221447
 21
-2843.05127227047
 31
0.0
  0
LINE
  5
D5C59
  8
1DIM
 10
-2271.876705175971
 20
-2850.05127227047
 30
0.0
 11
-2201.805270221447
 21
-2850.05127227047
 31
0.0
  0
TEXT
  5
D5C5A
  8
1DIM
  6
CONTINUOUS
 10
-2385.773705176255
 20
-2750.627829972533
 30
0.0
 40
4.0
  1
Material\U+FF1ABrass
 50
0.0000000000000649
  0
TEXT
  5
D5C5B
  8
1DIM
  6
CONTINUOUS
 10
-2385.773705176255
 20
-2757.2944966392
 30
0.0
 40
4.0
  1
Finish\U+FF1AVarious Platings
 50
0.0000000000000649
  0
LINE
  5
D5C5D
  8
1DIM
 10
-2401.109485553974
 20
-2793.461113268482
 30
0.0
 11
-2388.473705176255
 21
-2764.044945293784
 31
0.0
1001
ACAD
1000
DSTYLE
1002
{
1070
    45
1040
0.5
1002
}
  0
LINE
  5
D5C5E
  8
1DIM
 10
-2388.473705176255
 20
-2764.044945293784
 30
0.0
 11
-2318.002276604826
 21
-2764.044945293784
 31
0.0
1001
ACAD
1000
DSTYLE
1002
{
1070
    45
1040
0.5
1002
}
  0
LINE
  5
D5C60
  8
1DIM
  6
BYBLOCK
 10
-2414.075845120762
 20
-2939.35835122339
 30
0.0
 11
-2335.699919194836
 21
-2939.35835122339
 31
0.0
  0
LINE
  5
D5C62
  8
1DIM
  6
BYBLOCK
 10
-2434.883087557241
 20
-2888.612640650561
 30
0.0
 11
-2414.075845120762
 21
-2939.35835122339
 31
0.0
  0
LINE
  5
D5C64
  8
1DIM
  6
BYBLOCK
 10
-2501.339418529808
 20
-2907.512593205524
 30
0.0
 11
-2414.075845120762
 21
-2939.35835122339
 31
0.0
  0
LINE
  5
D5C65
  8
1DIM
 10
-2446.007957163574
 20
-2794.028788759778
 30
0.0
 11
-2464.007957163574
 21
-2794.028788759778
 31
0.0
1001
ACAD
1000
DSTYLE
1002
{
1070
   271
1070
     1
1070
     3
1000
\U+03C6<>
1070
   288
1070
     1
1002
}
  0
LINE
  5
D5C66
  8
1DIM
 10
-2446.007957163574
 20
-2819.028788759778
 30
0.0
 11
-2464.007957163574
 21
-2819.028788759778
 31
0.0
1001
ACAD
1000
DSTYLE
1002
{
1070
   271
1070
     1
1070
     3
1000
\U+03C6<>
1070
   288
1070
     1
1002
}
  0
LINE
  5
D5C67
  8
1DIM
 10
-2463.007957163574
 20
-2796.028788759778
 30
0.0
 11
-2463.007957163574
 21
-2817.028788759778
 31
0.0
1001
ACAD
1000
DSTYLE
1002
{
1070
   271
1070
     1
1070
     3
1000
\U+03C6<>
1070
   288
1070
     1
1002
}
  0
LINE
  5
D5C6B
  8
1DIM
 10
-2418.066605369297
 20
-2798.778792913157
 30
0.0
 11
-2418.066605369297
 21
-2781.849973468713
 31
0.0
1001
ACAD
1000
DSTYLE
1002
{
1070
   271
1070
     1
1070
     3
1000
\U+03C6<>
1070
    75
1070
     1
1070
    76
1070
     1
1070
   288
1070
     1
1002
}
  0
LINE
  5
D5C6C
  8
1DIM
 10
-2418.066605369297
 20
-2812.278792913157
 30
0.0
 11
-2418.066605369297
 21
-2800.778792913157
 31
0.0
1001
ACAD
1000
DSTYLE
1002
{
1070
   271
1070
     1
1070
     3
1000
\U+03C6<>
1070
    75
1070
     1
1070
    76
1070
     1
1070
   288
1070
     1
1002
}
  0
LINE
  5
D5C70
  8
0
  6
BYBLOCK
 10
-2441.007957163574
 20
-2827.372936175637
 30
0.0
 11
-2443.007957163574
 21
-2826.837038175637
 31
0.0
  0
LINE
  5
D5C71
  8
0
  6
BYBLOCK
 10
-2443.007957163574
 20
-2826.837038175637
 30
0.0
 11
-2441.007957163574
 21
-2826.301140175637
 31
0.0
  0
LINE
  5
D5C72
  8
0
  6
BYBLOCK
 10
-2443.007957163574
 20
-2826.837038175637
 30
0.0
 11
-2441.007957163574
 21
-2826.837038175637
 31
0.0
  0
LINE
  5
D5C73
  8
0
  6
BYBLOCK
 10
-2405.512752652308
 20
-2826.301140175637
 30
0.0
 11
-2403.512752652308
 21
-2826.837038175637
 31
0.0
  0
LINE
  5
D5C74
  8
0
  6
BYBLOCK
 10
-2403.512752652308
 20
-2826.837038175637
 30
0.0
 11
-2405.512752652308
 21
-2827.372936175637
 31
0.0
  0
LINE
  5
D5C75
  8
0
  6
BYBLOCK
 10
-2403.512752652308
 20
-2826.837038175637
 30
0.0
 11
-2405.512752652308
 21
-2826.837038175637
 31
0.0
  0
TEXT
  5
D5C76
  8
1DIM
  6
CONTINUOUS
 10
-2425.145523181264
 20
-2826.137038175637
 30
0.0
 40
3.5
  1
39
1001
ACAD
1000
DSTYLE
1002
{
1070
   271
1070
     0
1070
   288
1070
     1
1070
    50
1040
1.570796326794897
1070
   345
1005
14
1070
   346
1005
14
1070
   347
1005
14
1002
}
  0
LINE
  5
D5C77
  8
0
  6
BYBLOCK
 10
-2444.507957163574
 20
-2840.099227661413
 30
0.0
 11
-2446.507957163574
 21
-2839.563329661413
 31
0.0
  0
LINE
  5
D5C78
  8
0
  6
BYBLOCK
 10
-2446.507957163574
 20
-2839.563329661413
 30
0.0
 11
-2444.507957163574
 21
-2839.027431661413
 31
0.0
  0
LINE
  5
D5C79
  8
0
  6
BYBLOCK
 10
-2446.507957163574
 20
-2839.563329661413
 30
0.0
 11
-2444.507957163574
 21
-2839.563329661413
 31
0.0
  0
LINE
  5
D5C7A
  8
0
  6
BYBLOCK
 10
-2398.012752652308
 20
-2839.027431661413
 30
0.0
 11
-2396.012752652308
 21
-2839.563329661413
 31
0.0
  0
LINE
  5
D5C7B
  8
0
  6
BYBLOCK
 10
-2396.012752652308
 20
-2839.563329661413
 30
0.0
 11
-2398.012752652308
 21
-2840.099227661413
 31
0.0
  0
LINE
  5
D5C7C
  8
0
  6
BYBLOCK
 10
-2396.012752652308
 20
-2839.563329661413
 30
0.0
 11
-2398.012752652308
 21
-2839.563329661413
 31
0.0
  0
TEXT
  5
D5C7D
  8
1DIM
  6
CONTINUOUS
 10
-2428.240473433851
 20
-2838.858468550302
 30
0.0
 40
3.5
  1
50.5
1001
ACAD
1000
DSTYLE
1002
{
1070
    50
1040
1.570796326794897
1070
   271
1070
     1
1070
   288
1070
     1
1070
   345
1005
14
1070
   346
1005
14
1070
   347
1005
14
1002
}
  0
LINE
  5
D5C7E
  8
0
  6
BYBLOCK
 10
-2441.007957163574
 20
-2833.142196264392
 30
0.0
 11
-2443.007957163574
 21
-2832.606298264392
 31
0.0
  0
LINE
  5
D5C7F
  8
0
  6
BYBLOCK
 10
-2443.007957163574
 20
-2832.606298264392
 30
0.0
 11
-2441.007957163574
 21
-2832.070400264392
 31
0.0
  0
LINE
  5
D5C80
  8
0
  6
BYBLOCK
 10
-2443.007957163574
 20
-2832.606298264392
 30
0.0
 11
-2441.007957163574
 21
-2832.606298264392
 31
0.0
  0
LINE
  5
D5C81
  8
0
  6
BYBLOCK
 10
-2400.512752652308
 20
-2832.070400264392
 30
0.0
 11
-2398.512752652308
 21
-2832.606298264392
 31
0.0
  0
LINE
  5
D5C82
  8
0
  6
BYBLOCK
 10
-2398.512752652308
 20
-2832.606298264392
 30
0.0
 11
-2400.512752652308
 21
-2833.142196264392
 31
0.0
  0
LINE
  5
D5C83
  8
0
  6
BYBLOCK
 10
-2398.512752652308
 20
-2832.606298264392
 30
0.0
 11
-2400.512752652308
 21
-2832.606298264392
 31
0.0
  0
TEXT
  5
D5C84
  8
1DIM
  6
CONTINUOUS
 10
-2425.450946502676
 20
-2831.906298264392
 30
0.0
 40
3.5
  1
44
1001
ACAD
1000
DSTYLE
1002
{
1070
   271
1070
     0
1070
   288
1070
     1
1070
    50
1040
1.570796326794897
1070
   345
1005
14
1070
   346
1005
14
1070
   347
1005
14
1002
}
  0
LINE
  5
D5C85
  8
0
  6
BYBLOCK
 10
-2375.507957163574
 20
-2910.01314001069
 30
0.0
 11
-2373.507957163574
 21
-2910.54903801069
 31
0.0
  0
LINE
  5
D5C86
  8
0
  6
BYBLOCK
 10
-2373.507957163574
 20
-2910.54903801069
 30
0.0
 11
-2375.507957163574
 21
-2911.08493601069
 31
0.0
  0
LINE
  5
D5C87
  8
0
  6
BYBLOCK
 10
-2373.507957163574
 20
-2910.54903801069
 30
0.0
 11
-2375.507957163574
 21
-2910.54903801069
 31
0.0
  0
LINE
  5
D5C88
  8
0
  6
BYBLOCK
 10
-2441.007957163574
 20
-2911.08493601069
 30
0.0
 11
-2443.007957163574
 21
-2910.54903801069
 31
0.0
  0
LINE
  5
D5C89
  8
0
  6
BYBLOCK
 10
-2443.007957163574
 20
-2910.54903801069
 30
0.0
 11
-2441.007957163574
 21
-2910.01314001069
 31
0.0
  0
LINE
  5
D5C8A
  8
0
  6
BYBLOCK
 10
-2443.007957163574
 20
-2910.54903801069
 30
0.0
 11
-2441.007957163574
 21
-2910.54903801069
 31
0.0
  0
TEXT
  5
D5C8B
  8
1DIM
  6
CONTINUOUS
 10
-2411.705873830241
 20
-2909.84903801069
 30
0.0
 40
3.5
  1
70
1001
ACAD
1000
DSTYLE
1002
{
1070
   271
1070
     0
1070
   288
1070
     1
1070
    50
1040
1.570796326794897
1070
   345
1005
14
1070
   346
1005
14
1070
   347
1005
14
1002
}
  0
LINE
  5
D5C8C
  8
0
  6
BYBLOCK
 10
-2380.507957163574
 20
-2902.41314001069
 30
0.0
 11
-2378.507957163574
 21
-2902.94903801069
 31
0.0
  0
LINE
  5
D5C8D
  8
0
  6
BYBLOCK
 10
-2378.507957163574
 20
-2902.94903801069
 30
0.0
 11
-2380.507957163574
 21
-2903.48493601069
 31
0.0
  0
LINE
  5
D5C8E
  8
0
  6
BYBLOCK
 10
-2378.507957163574
 20
-2902.94903801069
 30
0.0
 11
-2380.507957163574
 21
-2902.94903801069
 31
0.0
  0
LINE
  5
D5C8F
  8
0
  6
BYBLOCK
 10
-2441.007957163574
 20
-2903.48493601069
 30
0.0
 11
-2443.007957163574
 21
-2902.94903801069
 31
0.0
  0
LINE
  5
D5C90
  8
0
  6
BYBLOCK
 10
-2443.007957163574
 20
-2902.94903801069
 30
0.0
 11
-2441.007957163574
 21
-2902.41314001069
 31
0.0
  0
LINE
  5
D5C91
  8
0
  6
BYBLOCK
 10
-2443.007957163574
 20
-2902.94903801069
 30
0.0
 11
-2441.007957163574
 21
-2902.94903801069
 31
0.0
  0
TEXT
  5
D5C92
  8
1DIM
  6
CONTINUOUS
 10
-2411.936776608019
 20
-2902.246607455134
 30
0.0
 40
3.5
  1
65
1001
ACAD
1000
DSTYLE
1002
{
1070
   271
1070
     0
1070
   288
1070
     1
1070
    50
1040
1.570796326794897
1070
   345
1005
14
1070
   346
1005
14
1070
   347
1005
14
1002
}
  0
LINE
  5
D5C93
  8
0
  6
BYBLOCK
 10
-2373.007957163574
 20
-2916.613135857311
 30
0.0
 11
-2371.007957163574
 21
-2917.149033857311
 31
0.0
  0
LINE
  5
D5C94
  8
0
  6
BYBLOCK
 10
-2371.007957163574
 20
-2917.149033857311
 30
0.0
 11
-2373.007957163574
 21
-2917.684931857311
 31
0.0
  0
LINE
  5
D5C95
  8
0
  6
BYBLOCK
 10
-2371.007957163574
 20
-2917.149033857311
 30
0.0
 11
-2373.007957163574
 21
-2917.149033857311
 31
0.0
  0
LINE
  5
D5C96
  8
0
  6
BYBLOCK
 10
-2444.507957163574
 20
-2917.684931857311
 30
0.0
 11
-2446.507957163574
 21
-2917.149033857311
 31
0.0
  0
LINE
  5
D5C97
  8
0
  6
BYBLOCK
 10
-2446.507957163574
 20
-2917.149033857311
 30
0.0
 11
-2444.507957163574
 21
-2916.613135857311
 31
0.0
  0
LINE
  5
D5C98
  8
0
  6
BYBLOCK
 10
-2446.507957163574
 20
-2917.149033857311
 30
0.0
 11
-2444.507957163574
 21
-2917.149033857311
 31
0.0
  0
TEXT
  5
D5C99
  8
1DIM
  6
CONTINUOUS
 10
-2407.770109941352
 20
-2916.4441727462
 30
0.0
 40
3.5
  1
75.5
1001
ACAD
1000
DSTYLE
1002
{
1070
   271
1070
     1
1070
   288
1070
     1
1070
    50
1040
1.570796326794897
1002
}
  0
LINE
  5
D5C9A
  8
0
  6
BYBLOCK
 10
-2382.548650652308
 20
-2791.528792913157
 30
0.0
 11
-2382.012752652308
 21
-2789.528792913157
 31
0.0
  0
LINE
  5
D5C9B
  8
0
  6
BYBLOCK
 10
-2382.012752652308
 20
-2789.528792913157
 30
0.0
 11
-2381.476854652308
 21
-2791.528792913157
 31
0.0
  0
LINE
  5
D5C9C
  8
0
  6
BYBLOCK
 10
-2382.012752652308
 20
-2789.528792913157
 30
0.0
 11
-2382.012752652308
 21
-2791.528792913157
 31
0.0
  0
LINE
  5
D5C9D
  8
0
  6
BYBLOCK
 10
-2381.476854652308
 20
-2821.528792913157
 30
0.0
 11
-2382.012752652308
 21
-2823.528792913157
 31
0.0
  0
LINE
  5
D5C9E
  8
0
  6
BYBLOCK
 10
-2382.012752652308
 20
-2823.528792913157
 30
0.0
 11
-2382.548650652308
 21
-2821.528792913157
 31
0.0
  0
LINE
  5
D5C9F
  8
0
  6
BYBLOCK
 10
-2382.012752652308
 20
-2823.528792913157
 30
0.0
 11
-2382.012752652308
 21
-2821.528792913157
 31
0.0
  0
TEXT
  5
D5CA0
  8
1DIM
  6
CONTINUOUS
 10
-2382.712752652308
 20
-2812.512126246491
 30
0.0
 40
3.5
  1
\U+03C634
 50
90.0
1001
ACAD
1000
DSTYLE
1002
{
1070
   271
1070
     1
1070
     3
1000
\U+03C6<>
1070
   288
1070
     1
1070
    50
1040
1.570796326794897
1002
}
  0
TEXT
  5
D5CA1
  8
1DIM
  6
CONTINUOUS
 10
-2259.220660998765
 20
-2816.384605603803
 30
0.0
 40
3.0
  1
Finish
  0
TEXT
  5
D5CA2
  8
1DIM
  6
CONTINUOUS
 10
-2223.203693521504
 20
-2816.384605603803
 30
0.0
 40
3.0
  1
Code
  0
TEXT
  5
D5CA3
  8
1DIM
  6
CONTINUOUS
 10
-2261.239410998765
 20
-2824.134605603803
 30
0.0
 40
3.0
  1
Chrome
  0
TEXT
  5
D5CA4
  8
1DIM
  6
CONTINUOUS
 10
-2230.71411018817
 20
-2824.134605603803
 30
0.0
 40
3.0
  1
AC-886-XC
  0
TEXT
  5
D5CA5
  8
1DIM
  6
CONTINUOUS
 10
-2267.090799887654
 20
-2830.884605603803
 30
0.0
 40
3.0
  1
Satin Nickel
  0
TEXT
  5
D5CA6
  8
1DIM
  6
CONTINUOUS
 10
-2230.71411018817
 20
-2830.884605603803
 30
0.0
 40
3.0
  1
AC-886-XN
  0
TEXT
  5
D5CA7
  8
1DIM
  6
CONTINUOUS
 10
-2266.823323035802
 20
-2837.384605603803
 30
0.0
 40
2.5
  1
Brushed Dark
  0
TEXT
  5
D5CA8
  8
1DIM
  6
CONTINUOUS
 10
-2258.572744332099
 20
-2841.55127227047
 30
0.0
 40
2.5
  1
Umber
  0
TEXT
  5
D5CA9
  8
1DIM
  6
CONTINUOUS
 10
-2230.71411018817
 20
-2837.884605603803
 30
0.0
 40
3.0
  1
AC-886-4G
  0
TEXT
  5
D5CAA
  8
1DIM
  6
CONTINUOUS
 10
-2261.24010544321
 20
-2847.55127227047
 30
0.0
 40
3.0
  1
Others
  0
TEXT
  5
D5CAB
  8
1DIM
  6
CONTINUOUS
 10
-2230.71411018817
 20
-2847.55127227047
 30
0.0
 40
3.0
  1
AC-886-XA
  0
LINE
  5
D5CAC
  8
0
  6
BYBLOCK
 10
-2400.617092596081
 20
-2793.672621758671
 30
0.0
 11
-2401.89884655248
 21
-2795.298750124348
 31
0.0
  0
LINE
  5
D5CAD
  8
0
  6
BYBLOCK
 10
-2401.89884655248
 20
-2795.298750124348
 30
0.0
 11
-2401.601878511866
 21
-2793.249604778293
 31
0.0
  0
LINE
  5
D5CAE
  8
0
  6
BYBLOCK
 10
-2401.89884655248
 20
-2795.298750124348
 30
0.0
 11
-2401.109485553974
 21
-2793.461113268482
 31
0.0
  0
TEXT
  5
D5CAF
  8
1DIM
  6
CONTINUOUS
 10
-2413.075845120762
 20
-2931.35835122339
 30
0.0
 40
4.0
  1
Material : Brass
  0
TEXT
  5
D5CB0
  8
1DIM
  6
CONTINUOUS
 10
-2413.075845120762
 20
-2938.025017890056
 30
0.0
 40
4.0
  1
Finish: Various platings
  0
LINE
  5
D5CB1
  8
0
  6
BYBLOCK
 10
-2435.378923054418
 20
-2888.815947871642
 30
0.0
 11
-2435.641840980771
 21
-2886.762156053954
 31
0.0
  0
LINE
  5
D5CB2
  8
0
  6
BYBLOCK
 10
-2435.641840980771
 20
-2886.762156053954
 30
0.0
 11
-2434.387252060065
 21
-2888.40933342948
 31
0.0
  0
LINE
  5
D5CB3
  8
0
  6
BYBLOCK
 10
-2435.641840980771
 20
-2886.762156053954
 30
0.0
 11
-2434.883087557241
 21
-2888.612640650561
 31
0.0
  0
LINE
  5
D5CB4
  8
0
  6
BYBLOCK
 10
-2501.523136394912
 20
-2908.016015903111
 30
0.0
 11
-2503.21821896417
 21
-2906.826948306293
 31
0.0
  0
LINE
  5
D5CB5
  8
0
  6
BYBLOCK
 10
-2503.21821896417
 20
-2906.826948306293
 30
0.0
 11
-2501.155700664704
 21
-2907.009170507937
 31
0.0
  0
LINE
  5
D5CB6
  8
0
  6
BYBLOCK
 10
-2503.21821896417
 20
-2906.826948306293
 30
0.0
 11
-2501.339418529808
 21
-2907.512593205524
 31
0.0
  0
LINE
  5
D5CB7
  8
0
  6
BYBLOCK
 10
-2463.543855163574
 20
-2796.028788759778
 30
0.0
 11
-2463.007957163574
 21
-2794.028788759778
 31
0.0
  0
LINE
  5
D5CB8
  8
0
  6
BYBLOCK
 10
-2463.007957163574
 20
-2794.028788759778
 30
0.0
 11
-2462.472059163574
 21
-2796.028788759778
 31
0.0
  0
LINE
  5
D5CB9
  8
0
  6
BYBLOCK
 10
-2463.007957163574
 20
-2794.028788759778
 30
0.0
 11
-2463.007957163574
 21
-2796.028788759778
 31
0.0
  0
LINE
  5
D5CBA
  8
0
  6
BYBLOCK
 10
-2462.472059163574
 20
-2817.028788759778
 30
0.0
 11
-2463.007957163574
 21
-2819.028788759778
 31
0.0
  0
LINE
  5
D5CBB
  8
0
  6
BYBLOCK
 10
-2463.007957163574
 20
-2819.028788759778
 30
0.0
 11
-2463.543855163574
 21
-2817.028788759778
 31
0.0
  0
LINE
  5
D5CBC
  8
0
  6
BYBLOCK
 10
-2463.007957163574
 20
-2819.028788759778
 30
0.0
 11
-2463.007957163574
 21
-2817.028788759778
 31
0.0
  0
TEXT
  5
D5CBD
  8
1DIM
  6
CONTINUOUS
 10
-2463.707957163575
 20
-2812.012126246489
 30
0.0
 40
3.5
  1
\U+03C625
 50
90.0
1001
ACAD
1000
DSTYLE
1002
{
1070
   271
1070
     1
1070
     3
1000
\U+03C6<>
1070
   288
1070
     1
1002
}
  0
LINE
  5
D5CBE
  8
0
  6
BYBLOCK
 10
-2417.530707369297
 20
-2812.278792913157
 30
0.0
 11
-2418.066605369297
 21
-2814.278792913157
 31
0.0
  0
LINE
  5
D5CBF
  8
0
  6
BYBLOCK
 10
-2418.066605369297
 20
-2814.278792913157
 30
0.0
 11
-2418.602503369297
 21
-2812.278792913157
 31
0.0
  0
LINE
  5
D5CC0
  8
0
  6
BYBLOCK
 10
-2418.066605369297
 20
-2814.278792913157
 30
0.0
 11
-2418.066605369297
 21
-2812.278792913157
 31
0.0
  0
LINE
  5
D5CC1
  8
0
  6
BYBLOCK
 10
-2418.602503369297
 20
-2800.778792913157
 30
0.0
 11
-2418.066605369297
 21
-2798.778792913157
 31
0.0
  0
LINE
  5
D5CC2
  8
0
  6
BYBLOCK
 10
-2418.066605369297
 20
-2798.778792913157
 30
0.0
 11
-2417.530707369297
 21
-2800.778792913157
 31
0.0
  0
LINE
  5
D5CC3
  8
0
  6
BYBLOCK
 10
-2418.066605369297
 20
-2798.778792913157
 30
0.0
 11
-2418.066605369297
 21
-2800.778792913157
 31
0.0
  0
TEXT
  5
D5CC4
  8
1DIM
  6
CONTINUOUS
 10
-2418.771466480408
 20
-2796.107612357602
 30
0.0
 40
3.5
  1
\U+03C615.5
 50
90.0
1001
ACAD
1000
DSTYLE
1002
{
1070
   271
1070
     1
1070
     3
1000
\U+03C6<>
1070
    75
1070
     1
1070
    76
1070
     1
1070
   288
1070
     1
1002
}
  0
VIEWPORT
  5
D5187
 67
     1
  8
0
 10
0.0
 20
0.0
 30
0.0
 40
595.5931473053893
 41
292.026
 68
     1
 69
     1
1001
ACAD
1000
MVIEW
1002
{
1070
    16
1010
0.0
1020
0.0
1030
0.0
1010
0.0
1020
0.0
1030
1.0
1040
0.0
1040
292.026
1040
-9.050000000000068
1040
7.449999999999903
1040
50.0
1040
0.0
1040
0.0
1070
    16
1070
   100
1070
     0
1070
     1
1070
     0
1070
     0
1070
     0
1070
     0
1040
0.0
1040
0.0
1040
0.0
1040
10.0
1040
10.0
1040
10.0
1040
10.0
1070
     0
1002
{
1002
}
1002
}
  0
ENDSEC
  0
EOF
