  0
SECTION
  2
HEADER
  9
$ACADVER
  1
AC1009
  9
$DWGCODEPAGE
  3
ansi_932
  9
$INSBASE
 10
0.0
 20
0.0
 30
0.0
  9
$EXTMIN
 10
43.01624161536233
 20
-733.1751807655241
 30
0.0
  9
$EXTMAX
 10
855.516241615365
 20
-502.8905354339633
 30
0.0
  9
$LIMMIN
 10
0.0
 20
0.0
  9
$LIMMAX
 10
420.0
 20
297.0
  9
$ORTHOMODE
 70
     0
  9
$REGENMODE
 70
     1
  9
$FILLMODE
 70
     1
  9
$QTEXTMODE
 70
     0
  9
$MIRRTEXT
 70
     0
  9
$DRAGMODE
 70
     2
  9
$LTSCALE
 40
0.5
  9
$OSMODE
 70
 14591
  9
$ATTMODE
 70
     1
  9
$TEXTSIZE
 40
4.0
  9
$TRACEWID
 40
1.0
  9
$TEXTSTYLE
  7
STANDARD
  9
$CLAYER
  8
1TEXT
  9
$CELTYPE
  6
BYLAYER
  9
$CECOLOR
 62
   256
  9
$DIMSCALE
 40
1.0
  9
$DIMASZ
 40
2.0
  9
$DIMEXO
 40
0.0
  9
$DIMDLI
 40
7.0
  9
$DIMRND
 40
0.0
  9
$DIMDLE
 40
0.0
  9
$DIMEXE
 40
1.0
  9
$DIMTP
 40
0.0
  9
$DIMTM
 40
0.0
  9
$DIMTXT
 40
3.5
  9
$DIMCEN
 40
0.0
  9
$DIMTSZ
 40
0.0
  9
$DIMTOL
 70
     0
  9
$DIMLIM
 70
     0
  9
$DIMTIH
 70
     0
  9
$DIMTOH
 70
     0
  9
$DIMSE1
 70
     0
  9
$DIMSE2
 70
     0
  9
$DIMTAD
 70
     1
  9
$DIMZIN
 70
     8
  9
$DIMBLK
  1

  9
$DIMASO
 70
     1
  9
$DIMSHO
 70
     1
  9
$DIMPOST
  1
 
  9
$DIMAPOST
  1

  9
$DIMALT
 70
     0
  9
$DIMALTD
 70
     2
  9
$DIMALTF
 40
25.4
  9
$DIMLFAC
 40
1.0
  9
$DIMTOFL
 70
     1
  9
$DIMTVP
 40
0.0
  9
$DIMTIX
 70
     0
  9
$DIMSOXD
 70
     0
  9
$DIMSAH
 70
     1
  9
$DIMBLK1
  1
OPEN30
  9
$DIMBLK2
  1
OPEN30
  9
$DIMSTYLE
  2
NEWX10
  9
$DIMCLRD
 70
   256
  9
$DIMCLRE
 70
   256
  9
$DIMCLRT
 70
   201
  9
$DIMTFAC
 40
0.7
  9
$DIMGAP
 40
0.7
  9
$LUNITS
 70
     2
  9
$LUPREC
 70
     4
  9
$SKETCHINC
 40
1.0
  9
$FILLETRAD
 40
0.0
  9
$AUNITS
 70
     0
  9
$AUPREC
 70
     2
  9
$MENU
  1
acad
  9
$ELEVATION
 40
0.0
  9
$PELEVATION
 40
0.0
  9
$THICKNESS
 40
0.0
  9
$LIMCHECK
 70
     0
  9
$CHAMFERA
 40
1.0
  9
$CHAMFERB
 40
1.0
  9
$SKPOLY
 70
     0
  9
$TDCREATE
 40
2453033.732663484
  9
$TDUPDATE
 40
2459877.41996147
  9
$TDINDWG
 40
2.4363469213
  9
$TDUSRTIMER
 40
2.4363469213
  9
$USRTIMER
 70
     1
  9
$ANGBASE
 50
0.0
  9
$ANGDIR
 70
     0
  9
$PDMODE
 70
     0
  9
$PDSIZE
 40
0.0
  9
$PLINEWID
 40
0.0
  9
$COORDS
 70
     2
  9
$SPLFRAME
 70
     0
  9
$SPLINETYPE
 70
     6
  9
$SPLINESEGS
 70
     8
  9
$ATTDIA
 70
     0
  9
$ATTREQ
 70
     1
  9
$HANDLING
 70
     1
  9
$HANDSEED
  5
220B9
  9
$SURFTAB1
 70
     6
  9
$SURFTAB2
 70
     6
  9
$SURFTYPE
 70
     6
  9
$SURFU
 70
     6
  9
$SURFV
 70
     6
  9
$UCSNAME
  2

  9
$UCSORG
 10
0.0
 20
0.0
 30
0.0
  9
$UCSXDIR
 10
1.0
 20
0.0
 30
0.0
  9
$UCSYDIR
 10
0.0
 20
1.0
 30
0.0
  9
$PUCSNAME
  2

  9
$PUCSORG
 10
0.0
 20
0.0
 30
0.0
  9
$PUCSXDIR
 10
1.0
 20
0.0
 30
0.0
  9
$PUCSYDIR
 10
0.0
 20
1.0
 30
0.0
  9
$USERI1
 70
     0
  9
$USERI2
 70
     0
  9
$USERI3
 70
     0
  9
$USERI4
 70
     0
  9
$USERI5
 70
     0
  9
$USERR1
 40
0.0
  9
$USERR2
 40
0.0
  9
$USERR3
 40
0.0
  9
$USERR4
 40
0.0
  9
$USERR5
 40
0.0
  9
$WORLDVIEW
 70
     1
  9
$SHADEDGE
 70
     3
  9
$SHADEDIF
 70
    70
  9
$TILEMODE
 70
     1
  9
$MAXACTVP
 70
    48
  9
$PLIMCHECK
 70
     0
  9
$PEXTMIN
 10
1.000000000000000E+20
 20
1.000000000000000E+20
 30
1.000000000000000E+20
  9
$PEXTMAX
 10
-1.000000000000000E+20
 20
-1.000000000000000E+20
 30
-1.000000000000000E+20
  9
$PLIMMIN
 10
0.0
 20
0.0
  9
$PLIMMAX
 10
420.0
 20
297.0
  9
$UNITMODE
 70
     0
  9
$VISRETAIN
 70
     1
  9
$PLINEGEN
 70
     0
  9
$PSLTSCALE
 70
     1
  0
ENDSEC
  0
SECTION
  2
TABLES
  0
TABLE
  2
VPORT
 70
     1
  0
VPORT
  2
*ACTIVE
 70
     0
 10
0.0
 20
0.0
 11
1.0
 21
1.0
 12
449.2662416153636
 22
-618.0328580997437
 13
0.0
 23
0.0
 14
10.0
 24
10.0
 15
10.0
 25
10.0
 16
0.0
 26
0.0
 36
1.0
 17
0.0
 27
0.0
 37
0.0
 40
467.3606557377065
 41
1.866585067319461
 42
50.0
 43
0.0
 44
0.0
 50
0.0
 51
0.0
 71
    16
 72
   100
 73
     1
 74
     1
 75
     0
 76
     0
 77
     0
 78
     0
  0
ENDTAB
  0
TABLE
  2
LTYPE
 70
    19
  0
LTYPE
  2
CONTINUOUS
 70
     0
  3
Solid line
 72
    65
 73
     0
 40
0.0
  0
LTYPE
  2
CENTER2
 70
     0
  3
Center (.5x) ___ _ ___ _ ___ _ ___ _ ___ _ ___
 72
    65
 73
     4
 40
28.575
 49
19.05
 49
-3.175
 49
3.175
 49
-3.175
  0
LTYPE
  2
PHANTOM2
 70
     0
  3
Phantom (0.5x) ___ _ _ ___ _ _ ___ _ _ ___ _ _
 72
    65
 73
     6
 40
31.75
 49
15.875
 49
-3.175
 49
3.175
 49
-3.175
 49
3.175
 49
-3.175
  0
ENDTAB
  0
TABLE
  2
LAYER
 70
    44
  0
LAYER
  2
0
 70
     0
 62
     7
  6
CONTINUOUS
  0
LAYER
  2
1CENTER
 70
     0
 62
     7
  6
CENTER2
  0
LAYER
  2
1TEXT
 70
     0
 62
     7
  6
CONTINUOUS
  0
LAYER
  2
1DIM
 70
     0
 62
     7
  6
CONTINUOUS
  0
LAYER
  2
1PHANTOM
 70
     0
 62
     7
  6
PHANTOM2
  0
LAYER
  2
01
 70
     0
 62
     1
  6
CONTINUOUS
  0
LAYER
  2
1DIM1
 70
     0
 62
     7
  6
CONTINUOUS
  0
LAYER
  2
1HATCH
 70
     0
 62
     7
  6
CONTINUOUS
  0
ENDTAB
  0
TABLE
  2
STYLE
 70
    24
  0
STYLE
  2
STANDARD
 70
     0
 40
0.0
 41
1.0
 50
0.0
 71
     0
 42
4.0
  3
txt.shx
  4
extfont.shx
  0
ENDTAB
  0
TABLE
  2
VIEW
 70
     0
  0
ENDTAB
  0
TABLE
  2
UCS
 70
     0
  0
ENDTAB
  0
TABLE
  2
APPID
 70
    17
  0
APPID
  2
ACAD
 70
     0
  0
APPID
  2
DRAWINGVARIABLESXDATA
 70
     0
  0
APPID
  2
CONTENTTABDATA
 70
     0
  0
APPID
  2
CONTENTCURRENTTAB
 70
     0
  0
APPID
  2
CONTENTBLOCKDESCRIPTION
 70
     0
  0
APPID
  2
CONTENTBLOCKICON
 70
     0
  0
APPID
  2
CONTENTLONGBLOCKNAME
 70
     0
  0
APPID
  2
ACAD_PSEXT
 70
     0
  0
APPID
  2
ACAD_DSTYLE_DIMTEXT_FILL
 70
     0
  0
APPID
  2
ACAD_MLEADERVER
 70
     0
  0
APPID
  2
ACAD_DSTYLE_DIMRADIAL_EXTE
 70
     0
  0
APPID
  2
ACADANNOTATIVE
 70
     0
  0
APPID
  2
ACAD_EXEMPT_FROM_CAD_STAND
 70
     0
  0
APPID
  2
ACDBBLOCKREPETAG
 70
     0
  0
APPID
  2
ACAD_OBJECT_CHANGE_GUID
 70
     0
  0
APPID
  2
ACLAYERTOOLS
 70
     0
  0
APPID
  2
ACAD_NAV_VCDISPLAY
 70
     0
  0
ENDTAB
  0
TABLE
  2
DIMSTYLE
 70
    11
  0
DIMSTYLE
  2
NEWX10
 70
     0
  3
 
  4

  5

  6
OPEN30
  7
OPEN30
 40
1.0
 41
2.0
 42
0.0
 43
7.0
 44
1.0
 45
0.0
 46
0.0
 47
0.0
 48
0.0
140
3.5
141
0.0
142
0.0
143
25.4
144
1.0
145
0.0
146
0.7
147
0.7
 71
     0
 72
     0
 73
     0
 74
     0
 75
     0
 76
     0
 77
     1
 78
     8
170
     0
171
     2
172
     1
173
     1
174
     0
175
     0
176
   256
177
   256
178
   201
  0
DIMSTYLE
  2
ISO-25
 70
     0
  3

  4

  5

  6

  7

 40
1.0
 41
20.0
 42
3.0
 43
3.75
 44
2.0
 45
0.0
 46
0.0
 47
0.0
 48
0.0
140
30.0
141
5.0
142
0.0
143
0.03937
144
1.0
145
0.0
146
1.0
147
8.0
 71
     0
 72
     0
 73
     0
 74
     0
 75
     0
 76
     0
 77
     1
 78
     8
170
     0
171
     3
172
     1
173
     0
174
     0
175
     0
176
     1
177
     1
178
     1
  0
ENDTAB
  0
ENDSEC
  0
SECTION
  2
BLOCKS
  0
BLOCK
  8
0
  2
$MODEL_SPACE
 70
     0
 10
0.0
 20
0.0
 30
0.0
  3
$MODEL_SPACE
  1

  0
ENDBLK
  5
1A
  8
0
  0
BLOCK
 67
     1
  8
0
  2
$PAPER_SPACE
 70
     0
 10
0.0
 20
0.0
 30
0.0
  3
$PAPER_SPACE
  1

  0
ENDBLK
  5
17
 67
     1
  8
0
  0
BLOCK
  8
0
  2
_OPEN30
 70
     0
 10
0.0
 20
0.0
 30
0.0
  3
_OPEN30
  1

  0
LINE
  5
44
  8
0
  6
BYBLOCK
 62
     0
 10
-1.0
 20
0.26794919
 30
0.0
 11
0.0
 21
0.0
 31
0.0
  0
LINE
  5
45
  8
0
  6
BYBLOCK
 62
     0
 10
0.0
 20
0.0
 30
0.0
 11
-1.0
 21
-0.26794919
 31
0.0
  0
LINE
  5
46
  8
0
  6
BYBLOCK
 62
     0
 10
0.0
 20
0.0
 30
0.0
 11
-1.0
 21
0.0
 31
0.0
  0
ENDBLK
  5
47
  8
0
  0
BLOCK
  8
0
  2
A3WAKUKAWAJUN2017_HYOUDAI_
 70
     0
 10
0.0
 20
0.0
 30
0.0
  3
A3WAKUKAWAJUN2017_HYOUDAI_
  1

  0
LINE
  5
1FC48
  8
0
 10
13.26299999998673
 20
-0.0001000000000317
 30
0.0
 11
9.236999999990758
 21
8.999899999990987
 31
0.0
1001
ACAD
1000
ASC_BOUNDS
1002
{
1070
    19
1005
1FC89
1002
}
  0
LINE
  5
1FC49
  8
0
 10
5.657999999994331
 20
0.9999999999989768
 30
0.0
 11
9.236999999990758
 21
8.999999999991019
 31
0.0
1001
ACAD
1000
ASC_BOUNDS
1002
{
1070
    19
1005
1FC89
1002
}
  0
LINE
  5
1FC4A
  8
0
 10
18.59199999998134
 20
-0.2368999999997641
 30
0.0
 11
16.46099999998353
 21
5.432899999994561
 31
0.0
1001
ACAD
1000
ASC_BOUNDS
1002
{
1070
    19
1005
1FC8A
1002
}
  0
LINE
  5
1FC4B
  8
0
 10
18.59199999998134
 20
-0.2368999999997641
 30
0.0
 11
22.38199999997767
 21
8.763099999991255
 31
0.0
1001
ACAD
1000
ASC_BOUNDS
1002
{
1070
    19
1005
1FC8A
1002
}
  0
LINE
  5
1FC4C
  8
0
 10
14.32899999998563
 20
-0.2368999999997641
 30
0.0
 11
16.46099999998353
 21
5.432899999994561
 31
0.0
1001
ACAD
1000
ASC_BOUNDS
1002
{
1070
    19
1005
1FC8A
1002
}
  0
LINE
  5
1FC4D
  8
0
 10
14.32899999998563
 20
-0.2368999999997641
 30
0.0
 11
10.53899999998941
 21
8.763099999991255
 31
0.0
1001
ACAD
1000
ASC_BOUNDS
1002
{
1070
    19
1005
1FC8A
1002
}
  0
LINE
  5
1FC4E
  8
0
 10
19.53899999998043
 20
-0.0001000000000317
 30
0.0
 11
23.56599999997638
 21
8.999899999990987
 31
0.0
1001
ACAD
1000
ASC_BOUNDS
1002
{
1070
    19
1005
1FC8B
1002
}
  0
LINE
  5
1FC4F
  8
0
 10
26.97358892824991
 20
1.383099999991202
 30
0.0
 11
23.56599999997638
 21
8.999899999990987
 31
0.0
1001
ACAD
1000
ASC_BOUNDS
1002
{
1070
    19
1005
1FC8B
1002
}
  0
LINE
  5
1FC50
  8
0
 10
5.657999999994331
 20
0.9999999999989768
 30
0.0
 11
3.181999999996833
 21
4.668599999995308
 31
0.0
1001
ACAD
1000
ASC_BOUNDS
1002
{
1070
    19
1005
1FC89
1002
}
  0
LINE
  5
1FC51
  8
0
 10
4.617999999995391
 20
-0.0001000000000317
 30
0.0
 11
1.420999999998571
 21
4.736799999995242
 31
0.0
1001
ACAD
1000
ASC_BOUNDS
1002
{
1070
    19
1005
1FC89
1002
}
  0
LINE
  5
1FC52
  8
0
 10
1.420999999998571
 20
8.763099999991255
 30
0.0
 11
1.420999999998571
 21
0.0
 31
0.0
1001
ACAD
1000
ASC_BOUNDS
1002
{
1070
    19
1005
1FC8E
1002
}
  0
LINE
  5
1FC53
  8
0
 10
0.0
 20
8.763099999991255
 30
0.0
 11
0.0
 21
0.0
 31
0.0
1001
ACAD
1000
ASC_BOUNDS
1002
{
1070
    19
1005
1FC8E
1002
}
  0
LINE
  5
1FC54
  8
0
 10
6.766999999993232
 20
-0.0001000000000317
 30
0.0
 11
7.826999999992154
 21
2.368399999997621
 31
0.0
1001
ACAD
1000
ASC_BOUNDS
1002
{
1070
    19
1005
1FC89
1002
}
  0
LINE
  5
1FC55
  8
0
 10
0.0
 20
0.0
 30
0.0
 11
1.420999999998571
 21
0.0
 31
0.0
1001
ACAD
1000
ASC_BOUNDS
1002
{
1070
    19
1005
1FC8E
1002
}
  0
LINE
  5
1FC56
  8
0
 10
4.617999999995391
 20
0.0
 30
0.0
 11
6.766999999993232
 21
0.0
 31
0.0
1001
ACAD
1000
ASC_BOUNDS
1002
{
1070
    19
1005
1FC89
1002
}
  0
LINE
  5
1FC57
  8
0
 10
11.70599999998831
 20
-0.0001000000000317
 30
0.0
 11
10.64699999998936
 21
2.368399999997621
 31
0.0
1001
ACAD
1000
ASC_BOUNDS
1002
{
1070
    19
1005
1FC89
1002
}
  0
LINE
  5
1FC58
  8
0
 10
7.826999999992154
 20
2.368399999997621
 30
0.0
 11
10.64699999998936
 21
2.368399999997621
 31
0.0
1001
ACAD
1000
ASC_BOUNDS
1002
{
1070
    19
1005
1FC89
1002
}
  0
LINE
  5
1FC59
  8
0
 10
11.70599999998831
 20
0.0
 30
0.0
 11
13.26299999998673
 21
0.0
 31
0.0
1001
ACAD
1000
ASC_BOUNDS
1002
{
1070
    19
1005
1FC89
1002
}
  0
LINE
  5
1FC5A
  8
0
 10
22.15599999997789
 20
2.368399999997621
 30
0.0
 11
24.97599999997499
 21
2.368399999997621
 31
0.0
1001
ACAD
1000
ASC_BOUNDS
1002
{
1070
    19
1005
1FC8B
1002
}
  0
LINE
  5
1FC5B
  8
0
 10
19.53899999998043
 20
0.0
 30
0.0
 11
21.09599999997886
 21
0.0
 31
0.0
1001
ACAD
1000
ASC_BOUNDS
1002
{
1070
    19
1005
1FC8B
1002
}
  0
LINE
  5
1FC5C
  8
0
 10
21.09599999997886
 20
-0.0001000000000317
 30
0.0
 11
22.15599999997789
 21
2.368399999997621
 31
0.0
1001
ACAD
1000
ASC_BOUNDS
1002
{
1070
    19
1005
1FC8B
1002
}
  0
LINE
  5
1FC5D
  8
0
 10
26.02015566812236
 20
0.0330999999912365
 30
0.0
 11
24.97599999997499
 21
2.368399999997621
 31
0.0
1001
ACAD
1000
ASC_BOUNDS
1002
{
1070
    19
1005
1FC8B
1002
}
  0
LINE
  5
1FC5E
  8
0
 10
14.32399999998563
 20
3.315799999996671
 30
0.0
 11
16.46099999998353
 21
8.999899999990987
 31
0.0
1001
ACAD
1000
ASC_BOUNDS
1002
{
1070
    19
1005
1FC8A
1002
}
  0
LINE
  5
1FC5F
  8
0
 10
6.432999999993513
 20
8.763099999991255
 30
0.0
 11
3.181999999996833
 21
4.668599999995308
 31
0.0
1001
ACAD
1000
ASC_BOUNDS
1002
{
1070
    19
1005
1FC89
1002
}
  0
LINE
  5
1FC60
  8
0
 10
4.617999999995391
 20
8.763099999991255
 30
0.0
 11
1.420999999998571
 21
4.736799999995242
 31
0.0
1001
ACAD
1000
ASC_BOUNDS
1002
{
1070
    19
1005
1FC89
1002
}
  0
LINE
  5
1FC61
  8
0
 10
0.0
 20
8.763099999991255
 30
0.0
 11
1.420999999998571
 21
8.763099999991255
 31
0.0
1001
ACAD
1000
ASC_BOUNDS
1002
{
1070
    19
1005
1FC8E
1002
}
  0
LINE
  5
1FC62
  8
0
 10
4.617999999995391
 20
8.763099999991255
 30
0.0
 11
6.432999999993513
 21
8.763099999991255
 31
0.0
1001
ACAD
1000
ASC_BOUNDS
1002
{
1070
    19
1005
1FC89
1002
}
  0
LINE
  5
1FC63
  8
0
 10
14.32399999998563
 20
3.315799999996671
 30
0.0
 11
12.02999999998792
 21
8.763099999991255
 31
0.0
1001
ACAD
1000
ASC_BOUNDS
1002
{
1070
    19
1005
1FC8A
1002
}
  0
LINE
  5
1FC64
  8
0
 10
10.06399999998996
 20
3.670999999996297
 30
0.0
 11
9.236999999990758
 21
5.5200999999945
 31
0.0
1001
ACAD
1000
ASC_BOUNDS
1002
{
1070
    19
1005
1FC89
1002
}
  0
LINE
  5
1FC65
  8
0
 10
8.409999999991555
 20
3.670999999996297
 30
0.0
 11
9.236999999990758
 21
5.5200999999945
 31
0.0
1001
ACAD
1000
ASC_BOUNDS
1002
{
1070
    19
1005
1FC89
1002
}
  0
LINE
  5
1FC66
  8
0
 10
8.409999999991555
 20
3.670999999996297
 30
0.0
 11
10.06399999998996
 21
3.670999999996297
 31
0.0
1001
ACAD
1000
ASC_BOUNDS
1002
{
1070
    19
1005
1FC89
1002
}
  0
LINE
  5
1FC67
  8
0
 10
10.53899999998941
 20
8.763099999991255
 30
0.0
 11
12.02999999998792
 21
8.763099999991255
 31
0.0
1001
ACAD
1000
ASC_BOUNDS
1002
{
1070
    19
1005
1FC8A
1002
}
  0
LINE
  5
1FC68
  8
0
 10
22.7389999999773
 20
3.670999999996297
 30
0.0
 11
23.56599999997638
 21
5.5200999999945
 31
0.0
1001
ACAD
1000
ASC_BOUNDS
1002
{
1070
    19
1005
1FC8B
1002
}
  0
LINE
  5
1FC69
  8
0
 10
22.7389999999773
 20
3.670999999996297
 30
0.0
 11
24.39299999997559
 21
3.670999999996297
 31
0.0
1001
ACAD
1000
ASC_BOUNDS
1002
{
1070
    19
1005
1FC8B
1002
}
  0
LINE
  5
1FC6A
  8
0
 10
18.59799999998143
 20
3.315799999996671
 30
0.0
 11
20.89099999997916
 21
8.763099999991255
 31
0.0
1001
ACAD
1000
ASC_BOUNDS
1002
{
1070
    19
1005
1FC8A
1002
}
  0
LINE
  5
1FC6B
  8
0
 10
18.59799999998143
 20
3.315799999996671
 30
0.0
 11
16.46099999998353
 21
8.999899999990987
 31
0.0
1001
ACAD
1000
ASC_BOUNDS
1002
{
1070
    19
1005
1FC8A
1002
}
  0
LINE
  5
1FC6C
  8
0
 10
20.89099999997916
 20
8.763099999991255
 30
0.0
 11
22.38199999997767
 21
8.763099999991255
 31
0.0
1001
ACAD
1000
ASC_BOUNDS
1002
{
1070
    19
1005
1FC8A
1002
}
  0
LINE
  5
1FC6D
  8
0
 10
24.39299999997559
 20
3.670999999996297
 30
0.0
 11
23.56599999997638
 21
5.5200999999945
 31
0.0
1001
ACAD
1000
ASC_BOUNDS
1002
{
1070
    19
1005
1FC8B
1002
}
  0
LINE
  5
1FC6E
  8
0
 10
44.99999999995498
 20
-0.2368999999997641
 30
0.0
 11
40.02599999995994
 21
5.341799999994635
 31
0.0
1001
ACAD
1000
ASC_BOUNDS
1002
{
1070
    19
1005
1FC8D
1002
}
  0
LINE
  5
1FC6F
  8
0
 10
40.02599999995994
 20
5.341799999994635
 30
0.0
 11
40.02599999995994
 21
0.0
 31
0.0
1001
ACAD
1000
ASC_BOUNDS
1002
{
1070
    19
1005
1FC8D
1002
}
  0
LINE
  5
1FC70
  8
0
 10
38.60499999996136
 20
8.999999999991019
 30
0.0
 11
38.60499999996136
 21
0.0
 31
0.0
1001
ACAD
1000
ASC_BOUNDS
1002
{
1070
    19
1005
1FC8D
1002
}
  0
LINE
  5
1FC71
  8
0
 10
44.99999999995498
 20
8.763099999991255
 30
0.0
 11
44.99999999995498
 21
-0.2368999999997641
 31
0.0
1001
ACAD
1000
ASC_BOUNDS
1002
{
1070
    19
1005
1FC8D
1002
}
  0
LINE
  5
1FC72
  8
0
 10
38.60499999996136
 20
0.0
 30
0.0
 11
40.02599999995994
 21
0.0
 31
0.0
1001
ACAD
1000
ASC_BOUNDS
1002
{
1070
    19
1005
1FC8D
1002
}
  0
LINE
  5
1FC73
  8
0
 10
43.57899999995641
 20
3.421199999996588
 30
0.0
 11
38.60499999996136
 21
8.999899999990987
 31
0.0
1001
ACAD
1000
ASC_BOUNDS
1002
{
1070
    19
1005
1FC8D
1002
}
  0
LINE
  5
1FC74
  8
0
 10
43.57899999995641
 20
8.763099999991255
 30
0.0
 11
43.57899999995641
 21
3.421199999996588
 31
0.0
1001
ACAD
1000
ASC_BOUNDS
1002
{
1070
    19
1005
1FC8D
1002
}
  0
LINE
  5
1FC75
  8
0
 10
43.57899999995641
 20
8.763099999991255
 30
0.0
 11
44.99999999995498
 21
8.763099999991255
 31
0.0
1001
ACAD
1000
ASC_BOUNDS
1002
{
1070
    19
1005
1FC8D
1002
}
  0
LINE
  5
1FC76
  8
0
 10
37.67199999996831
 20
8.763099999991255
 30
0.0
 11
36.23199999996837
 21
8.763099999991255
 31
0.0
  0
LINE
  5
1FC77
  8
0
 10
31.64199999996833
 20
8.763099999991255
 30
0.0
 11
31.64199999996833
 21
2.481619422925121
 31
0.0
  0
LINE
  5
1FC78
  8
0
 10
37.67199999996831
 20
8.763099999991255
 30
0.0
 11
37.67199999996831
 21
2.481619422925121
 31
0.0
  0
LINE
  5
1FC79
  8
0
 10
36.23199999996837
 20
8.763099999991255
 30
0.0
 11
36.23199999996837
 21
2.481619422925064
 31
0.0
  0
LINE
  5
1FC7A
  8
0
 10
33.08199999996839
 20
8.763099999991255
 30
0.0
 11
33.08199999996839
 21
2.481619422925121
 31
0.0
  0
ARC
  5
1FC7B
  8
0
 10
34.65699999996832
 20
3.183099999991214
 30
0.0
 40
3.420000000000007
 50
240.0000000000255
 51
299.9999999999766
  0
ARC
  5
1FC7C
  8
0
 10
34.65699999996832
 20
3.183099999991214
 30
0.0
 40
1.97999999999999
 50
240.000000000026
 51
299.9999999999703
  0
LINE
  5
1FC7D
  8
0
 10
33.08199999996828
 20
8.763099999991255
 30
0.0
 11
31.64199999996833
 21
8.763099999991255
 31
0.0
  0
ARC
  5
1FC7E
  8
0
 10
35.06199999996829
 20
2.481619422925064
 30
0.0
 40
1.17
 50
299.9999999999699
 51
0.0
  0
ARC
  5
1FC7F
  8
0
 10
34.25199999996835
 20
2.481619422925121
 30
0.0
 40
1.17
 50
180.0
 51
240.0000000000238
  0
ARC
  5
1FC80
  8
0
 10
35.06199999996841
 20
2.481619422925121
 30
0.0
 40
2.61
 50
299.9999999999756
 51
0.0
  0
ARC
  5
1FC81
  8
0
 10
34.25199999996835
 20
2.481619422925121
 30
0.0
 40
2.61
 50
180.0
 51
240.0000000000244
  0
LINE
  5
1FC82
  8
0
 10
29.30199999996933
 20
8.763099999991255
 30
0.0
 11
30.74199999996927
 21
8.763099999991255
 31
0.0
1001
ACAD
1000
ASC_BOUNDS
1002
{
1070
    19
1005
1FC8B
1002
}
  0
LINE
  5
1FC83
  8
0
 10
30.74199999996927
 20
8.763099999991255
 30
0.0
 11
30.74199999996927
 21
2.373099999991211
 31
0.0
1001
ACAD
1000
ASC_BOUNDS
1002
{
1070
    19
1005
1FC8B
1002
}
  0
LINE
  5
1FC84
  8
0
 10
26.02015566812236
 20
0.0330999999912365
 30
0.0
 11
28.40199999996923
 21
0.0330999999912365
 31
0.0
1001
ACAD
1000
ASC_BOUNDS
1002
{
1070
    19
1005
1FC8B
1002
}
  0
LINE
  5
1FC85
  8
0
 10
29.30199999996933
 20
8.763099999991255
 30
0.0
 11
29.30199999996933
 21
2.283099999991236
 31
0.0
1001
ACAD
1000
ASC_BOUNDS
1002
{
1070
    19
1005
1FC8B
1002
}
  0
LINE
  5
1FC86
  8
0
 10
26.97358892824991
 20
1.383099999991202
 30
0.0
 11
28.40199999996923
 21
1.383099999991202
 31
0.0
1001
ACAD
1000
ASC_BOUNDS
1002
{
1070
    19
1005
1FC8B
1002
}
  0
ARC
  5
1FC87
  8
0
 10
28.40199999996923
 20
2.283099999991236
 30
0.0
 40
0.9
 50
270.0
 51
0.0
1001
ACAD
1000
ASC_BOUNDS
1002
{
1070
    19
1005
1FC8B
1002
}
  0
ARC
  5
1FC88
  8
0
 10
28.40199999996923
 20
2.373099999991211
 30
0.0
 40
2.34
 50
270.0
 51
0.0
1001
ACAD
1000
ASC_BOUNDS
1002
{
1070
    19
1005
1FC8B
1002
}
  0
INSERT
  5
1FC89
  8
0
  2
*X302
 10
0.0
 20
0.0
 30
0.0
1001
ACAD
1000
HATCH
1002
{
1070
    19
1000
ANSI37
1040
0.15
1040
0.0
1000
ASC_BOUNDS
1070
     2
1070
     2
1070
    12
1005
1FC48
1005
1FC49
1005
1FC50
1005
1FC5F
1005
1FC62
1005
1FC60
1005
1FC51
1005
1FC56
1005
1FC54
1005
1FC58
1005
1FC57
1005
1FC59
1070
     2
1070
     3
1005
1FC64
1005
1FC66
1005
1FC65
1000
ASC_SEEDPOINT
1011
3.614004224891801
1021
2.996669441146025
1031
0.0
1021
2.996669441146025
1031
0.0
1000
R14_HATCH_DATA
1000
1FC89
1011
1.0
1021
0.0
1031
0.0
1021
0.0
1031
0.0
1011
0.0
1021
1.0
1031
0.0
1021
1.0
1031
0.0
1011
0.0
1021
0.0
1031
1.0
1021
0.0
1031
1.0
1040
0.0
1010
0.0
1020
0.0
1030
1.0
1000
ANSI37
1070
     0
1070
     1
1071
        2
1071
        7
1070
     0
1070
     1
1071
       17
1040
13.26299999998673
1040
-0.0001000000000317
1040
9.236999999990758
1040
8.999899999990987
1040
9.236999999990758
1040
8.999999999991019
1040
5.657999999994331
1040
0.9999999999989768
1040
3.181999999996833
1040
4.668599999995308
1040
6.432999999993513
1040
8.763099999991255
1040
4.617999999995391
1040
8.763099999991255
1040
1.420999999998571
1040
4.736799999995242
1040
4.617999999995391
1040
-0.0001000000000317
1040
4.617999999995391
1040
0.0
1040
6.766999999993232
1040
0.0
1040
6.766999999993232
1040
-0.0001000000000317
1040
7.826999999992154
1040
2.368399999997621
1040
10.64699999998936
1040
2.368399999997621
1040
11.70599999998831
1040
-0.0001000000000317
1040
11.70599999998831
1040
0.0
1040
13.26299999998673
1040
0.0
1071
       12
1005
1FC48
1005
1FC49
1005
1FC50
1005
1FC5F
1005
1FC62
1005
1FC60
1005
1FC51
1005
1FC56
1005
1FC54
1005
1FC58
1005
1FC57
1005
1FC59
1071
       22
1070
     0
1070
     1
1071
        3
1040
9.236999999990758
1040
5.5200999999945
1040
10.06399999998996
1040
3.670999999996297
1040
8.409999999991555
1040
3.670999999996297
1071
        3
1005
1FC64
1005
1FC66
1005
1FC65
1070
     0
1070
     1
1040
0.0
1040
0.15
1070
     0
1070
     2
1040
0.7853981633974483
1040
49.29960901727088
1040
-10.17736998311392
1040
-0.3367596045400932
1040
0.3367596045400932
1070
     0
1040
2.356194490192345
1040
49.29960901727088
1040
-10.17736998311392
1040
-0.3367596045400932
1040
-0.3367596045400932
1070
     0
1040
0.0110235143455945
1071
        2
1040
3.614004224891801
1040
2.996669441146025
1040
0.0
1040
3.614004224891801
1040
2.996669441146025
1040
0.0
1002
}
  0
INSERT
  5
1FC8A
  8
0
  2
*X303
 10
0.0
 20
0.0
 30
0.0
1001
ACAD
1000
HATCH
1002
{
1070
    19
1000
ANSI37
1040
0.15
1040
0.0
1000
ASC_BOUNDS
1070
     1
1070
     2
1070
    10
1005
1FC4A
1005
1FC4B
1005
1FC6C
1005
1FC6A
1005
1FC6B
1005
1FC5E
1005
1FC63
1005
1FC67
1005
1FC4D
1005
1FC4C
1000
ASC_SEEDPOINT
1011
14.73245321214324
1021
2.798246178283421
1031
0.0
1021
2.798246178283421
1031
0.0
1000
R14_HATCH_DATA
1000
1FC8A
1011
1.0
1021
0.0
1031
0.0
1021
0.0
1031
0.0
1011
0.0
1021
1.0
1031
0.0
1021
1.0
1031
0.0
1011
0.0
1021
0.0
1031
1.0
1021
0.0
1031
1.0
1040
0.0
1010
0.0
1020
0.0
1030
1.0
1000
ANSI37
1070
     0
1070
     1
1071
        1
1071
        7
1070
     0
1070
     1
1071
       10
1040
16.46099999998353
1040
5.432899999994561
1040
18.59199999998134
1040
-0.2368999999997641
1040
22.38199999997767
1040
8.763099999991255
1040
20.89099999997916
1040
8.763099999991255
1040
18.59799999998143
1040
3.315799999996671
1040
16.46099999998353
1040
8.999899999990987
1040
14.32399999998563
1040
3.315799999996671
1040
12.02999999998792
1040
8.763099999991255
1040
10.53899999998941
1040
8.763099999991255
1040
14.32899999998563
1040
-0.2368999999997641
1071
       10
1005
1FC4A
1005
1FC4B
1005
1FC6C
1005
1FC6A
1005
1FC6B
1005
1FC5E
1005
1FC63
1005
1FC67
1005
1FC4D
1005
1FC4C
1070
     0
1070
     1
1040
0.0
1040
0.15
1070
     0
1070
     2
1040
0.7853981633974483
1040
49.29960901727088
1040
-10.17736998311392
1040
-0.3367596045400932
1040
0.3367596045400932
1070
     0
1040
2.356194490192345
1040
49.29960901727088
1040
-10.17736998311392
1040
-0.3367596045400932
1040
-0.3367596045400932
1070
     0
1040
0.0110235143455945
1071
        1
1040
14.73245321214324
1040
2.798246178283421
1040
0.0
1002
}
  0
INSERT
  5
1FC8B
  8
0
  2
*X304
 10
0.0
 20
0.0
 30
0.0
1001
ACAD
1000
HATCH
1002
{
1070
    19
1000
ANSI37
1040
0.15
1040
0.0
1000
ASC_BOUNDS
1070
     2
1070
     2
1070
    13
1005
1FC4E
1005
1FC5B
1005
1FC5C
1005
1FC5A
1005
1FC5D
1005
1FC84
1005
1FC88
1005
1FC83
1005
1FC82
1005
1FC85
1005
1FC87
1005
1FC86
1005
1FC4F
1070
     2
1070
     3
1005
1FC68
1005
1FC6D
1005
1FC69
1000
ASC_SEEDPOINT
1011
21.97929957367762
1021
3.294304244259308
1031
0.0
1021
3.294304244259308
1031
0.0
1000
R14_HATCH_DATA
1000
1FC8B
1011
1.0
1021
0.0
1031
0.0
1021
0.0
1031
0.0
1011
0.0
1021
1.0
1031
0.0
1021
1.0
1031
0.0
1011
0.0
1021
0.0
1031
1.0
1021
0.0
1031
1.0
1040
0.0
1010
0.0
1020
0.0
1030
1.0
1000
ANSI37
1070
     0
1070
     1
1071
        2
1071
        7
1070
     1
1070
     1
1071
       15
1040
23.56599999997638
1040
8.999899999990987
1040
0.0
1040
19.53899999998043
1040
-0.0001000000000317
1040
0.0
1040
19.53899999998043
1040
0.0
1040
0.0
1040
21.09599999997886
1040
0.0
1040
0.0
1040
21.09599999997886
1040
-0.0001000000000317
1040
0.0
1040
22.15599999997789
1040
2.368399999997621
1040
0.0
1040
24.97599999997499
1040
2.368399999997621
1040
0.0
1040
26.02015566812236
1040
0.0330999999912365
1040
0.0
1040
28.40199999996923
1040
0.0330999999912365
1040
0.414213562373095
1040
30.74199999996923
1040
2.373099999991211
1040
0.0
1040
30.74199999996927
1040
8.763099999991255
1040
0.0
1040
29.30199999996933
1040
8.763099999991255
1040
0.0
1040
29.30199999996933
1040
2.283099999991236
1040
-0.414213562373095
1040
28.40199999996923
1040
1.383099999991237
1040
0.0
1040
26.97358892824991
1040
1.383099999991202
1040
0.0
1071
       13
1005
1FC4E
1005
1FC5B
1005
1FC5C
1005
1FC5A
1005
1FC5D
1005
1FC84
1005
1FC88
1005
1FC83
1005
1FC82
1005
1FC85
1005
1FC87
1005
1FC86
1005
1FC4F
1071
       22
1070
     0
1070
     1
1071
        3
1040
22.7389999999773
1040
3.670999999996297
1040
23.56599999997638
1040
5.5200999999945
1040
24.39299999997559
1040
3.670999999996297
1071
        3
1005
1FC68
1005
1FC6D
1005
1FC69
1070
     0
1070
     1
1040
0.0
1040
0.15
1070
     0
1070
     2
1040
0.7853981633974483
1040
49.29960901727088
1040
-10.17736998311392
1040
-0.3367596045400932
1040
0.3367596045400932
1070
     0
1040
2.356194490192345
1040
49.29960901727088
1040
-10.17736998311392
1040
-0.3367596045400932
1040
-0.3367596045400932
1070
     0
1040
0.0110235143455945
1071
        2
1040
21.97929957367762
1040
3.294304244259308
1040
0.0
1040
21.97929957367762
1040
3.294304244259308
1040
0.0
1002
}
  0
INSERT
  5
1FC8C
  8
0
  2
*X305
 10
0.0
 20
0.0
 30
0.0
1001
ACAD
1000
HATCH
1002
{
1070
    19
1000
ANSI37
1040
0.15
1040
0.0
1000
R14_HATCH_DATA
1000
1FC8C
1011
1.0
1021
0.0
1031
0.0
1021
0.0
1031
0.0
1011
0.0
1021
1.0
1031
0.0
1021
1.0
1031
0.0
1011
0.0
1021
0.0
1031
1.0
1021
0.0
1031
1.0
1040
0.0
1010
0.0
1020
0.0
1030
1.0
1000
ANSI37
1070
     0
1070
     1
1071
        1
1071
        7
1070
     1
1070
     1
1071
       12
1040
31.64199999996833
1040
2.481619422925121
1040
0.2679491924310942
1040
32.94699999997067
1040
0.2212931190493919
1040
0.2679491924301353
1040
36.36699999995983
1040
0.2212931190459813
1040
0.2679491924321411
1040
37.67199999996831
1040
2.481619422928361
1040
0.0
1040
37.67199999996831
1040
8.763099999991255
1040
0.0
1040
36.23199999996837
1040
8.763099999991255
1040
0.0
1040
36.23199999996837
1040
2.481619422925064
1040
-0.2679491924310291
1040
35.64699999996708
1040
1.468369700498386
1040
-0.267949192430519
1040
33.66699999997093
1040
1.468369700497703
1040
-0.267949192431809
1040
33.08199999996839
1040
2.481619422926997
1040
0.0
1040
33.08199999996839
1040
8.763099999991255
1040
0.0
1040
31.64199999996833
1040
8.763099999991255
1040
0.0
1071
        0
1070
     0
1070
     1
1040
0.0
1040
0.15
1070
     0
1070
     2
1040
0.7853981633974483
1040
49.29960901727088
1040
-10.17736998311392
1040
-0.3367596045400932
1040
0.3367596045400932
1070
     0
1040
2.356194490192345
1040
49.29960901727088
1040
-10.17736998311392
1040
-0.3367596045400932
1040
-0.3367596045400932
1070
     0
1040
0.0110235143455945
1071
        1
1040
32.30357378967278
1040
3.988785755459219
1040
0.0
1002
}
  0
INSERT
  5
1FC8D
  8
0
  2
*X306
 10
0.0
 20
0.0
 30
0.0
1001
ACAD
1000
HATCH
1002
{
1070
    19
1000
ANSI37
1040
0.15
1040
0.0
1000
ASC_BOUNDS
1070
     1
1070
     2
1070
     8
1005
1FC6E
1005
1FC71
1005
1FC75
1005
1FC74
1005
1FC73
1005
1FC70
1005
1FC72
1005
1FC6F
1000
ASC_SEEDPOINT
1011
39.74896370716704
1021
4.484843821435049
1031
0.0
1021
4.484843821435049
1031
0.0
1000
R14_HATCH_DATA
1000
1FC8D
1011
1.0
1021
0.0
1031
0.0
1021
0.0
1031
0.0
1011
0.0
1021
1.0
1031
0.0
1021
1.0
1031
0.0
1011
0.0
1021
0.0
1031
1.0
1021
0.0
1031
1.0
1040
0.0
1010
0.0
1020
0.0
1030
1.0
1000
ANSI37
1070
     0
1070
     1
1071
        1
1071
        7
1070
     0
1070
     1
1071
        9
1040
40.02599999995994
1040
5.341799999994635
1040
44.99999999995498
1040
-0.2368999999997641
1040
44.99999999995498
1040
8.763099999991255
1040
43.57899999995641
1040
8.763099999991255
1040
43.57899999995641
1040
3.421199999996588
1040
38.60499999996136
1040
8.999899999990987
1040
38.60499999996136
1040
8.999999999991019
1040
38.60499999996136
1040
0.0
1040
40.02599999995994
1040
0.0
1071
        8
1005
1FC6E
1005
1FC71
1005
1FC75
1005
1FC74
1005
1FC73
1005
1FC70
1005
1FC72
1005
1FC6F
1070
     0
1070
     1
1040
0.0
1040
0.15
1070
     0
1070
     2
1040
0.7853981633974483
1040
49.29960901727088
1040
-10.17736998311392
1040
-0.3367596045400932
1040
0.3367596045400932
1070
     0
1040
2.356194490192345
1040
49.29960901727088
1040
-10.17736998311392
1040
-0.3367596045400932
1040
-0.3367596045400932
1070
     0
1040
0.0110235143455945
1071
        1
1040
39.74896370716704
1040
4.484843821435049
1040
0.0
1002
}
  0
INSERT
  5
1FC8E
  8
0
  2
*X307
 10
0.0
 20
0.0
 30
0.0
1001
ACAD
1000
HATCH
1002
{
1070
    19
1000
ANSI37
1040
0.15
1040
0.0
1000
ASC_BOUNDS
1070
     1
1070
     2
1070
     4
1005
1FC52
1005
1FC61
1005
1FC53
1005
1FC55
1000
ASC_SEEDPOINT
1011
1.079051535452663
1021
4.148538732891836
1031
0.0
1021
4.148538732891836
1031
0.0
1000
R14_HATCH_DATA
1000
1FC8E
1011
1.0
1021
0.0
1031
0.0
1021
0.0
1031
0.0
1011
0.0
1021
1.0
1031
0.0
1021
1.0
1031
0.0
1011
0.0
1021
0.0
1031
1.0
1021
0.0
1031
1.0
1040
0.0
1010
0.0
1020
0.0
1030
1.0
1000
ANSI37
1070
     0
1070
     1
1071
        1
1071
        7
1070
     0
1070
     1
1071
        4
1040
1.420999999998571
1040
0.0
1040
1.420999999998571
1040
8.763099999991255
1040
0.0
1040
8.763099999991255
1040
0.0
1040
0.0
1071
        4
1005
1FC52
1005
1FC61
1005
1FC53
1005
1FC55
1070
     0
1070
     1
1040
0.0
1040
0.15
1070
     0
1070
     2
1040
0.7853981633974483
1040
49.29960901727088
1040
-10.17736998311392
1040
-0.3367596045400932
1040
0.3367596045400932
1070
     0
1040
2.356194490192345
1040
49.29960901727088
1040
-10.17736998311392
1040
-0.3367596045400932
1040
-0.3367596045400932
1070
     0
1040
0.0053004257112761
1071
        1
1040
1.079051535452663
1040
4.148538732891836
1040
0.0
1002
}
  0
ENDBLK
  5
20346
  8
0
  0
BLOCK
  8
0
  2
*X302
 70
     1
 10
0.0
 20
0.0
 30
0.0
  3
*X302
  1

  0
LINE
  5
21F12
  8
0
  6
CONTINUOUS
 10
3.418023043697893
 20
7.251849696850613
 30
0.0
 11
4.929273346838536
 21
8.763099999991255
 31
0.0
  0
LINE
  5
21F13
  8
0
  6
CONTINUOUS
 10
1.483656411257782
 20
4.643963855330318
 30
0.0
 11
5.60279255591872
 21
8.763099999991255
 31
0.0
  0
LINE
  5
21F14
  8
0
  6
CONTINUOUS
 10
1.755053947328235
 20
4.241842182320584
 30
0.0
 11
6.276311764998907
 21
8.763099999991255
 31
0.0
  0
LINE
  5
21F15
  8
0
  6
CONTINUOUS
 10
2.026451483398688
 20
3.839720509310849
 30
0.0
 11
4.441040904851878
 21
6.254309930764039
 31
0.0
  0
LINE
  5
21F16
  8
0
  6
CONTINUOUS
 10
2.297849019469139
 20
3.437598836301114
 30
0.0
 11
3.321765168359338
 21
4.461514985191313
 31
0.0
  0
LINE
  5
21F17
  8
0
  6
CONTINUOUS
 10
2.569246555539591
 20
3.03547716329138
 30
0.0
 11
3.593163397972743
 21
4.059394005724531
 31
0.0
  0
LINE
  5
21F18
  8
0
  6
CONTINUOUS
 10
2.840644091610043
 20
2.633355490281646
 30
0.0
 11
3.864561627586149
 21
3.657273026257751
 31
0.0
  0
LINE
  5
21F19
  8
0
  6
CONTINUOUS
 10
3.112041627680496
 20
2.231233817271911
 30
0.0
 11
4.135959857199554
 21
3.25515204679097
 31
0.0
  0
LINE
  5
21F1A
  8
0
  6
CONTINUOUS
 10
3.383439163750948
 20
1.829112144262177
 30
0.0
 11
4.40735808681296
 21
2.853031067324189
 31
0.0
  0
LINE
  5
21F1B
  8
0
  6
CONTINUOUS
 10
3.654836699821399
 20
1.426990471252442
 30
0.0
 11
4.678756316426365
 21
2.450910087857407
 31
0.0
  0
LINE
  5
21F1C
  8
0
  6
CONTINUOUS
 10
3.926234235891853
 20
1.024868798242709
 30
0.0
 11
4.95015454603977
 21
2.048789108390626
 31
0.0
  0
LINE
  5
21F1D
  8
0
  6
CONTINUOUS
 10
4.197631771962304
 20
0.6227471252329737
 30
0.0
 11
5.221552775653176
 21
1.646668128923846
 31
0.0
  0
LINE
  5
21F1E
  8
0
  6
CONTINUOUS
 10
8.715877546767851
 20
7.835069736359266
 30
0.0
 11
9.435953450375058
 21
8.555145639966472
 31
0.0
  0
LINE
  5
21F1F
  8
0
  6
CONTINUOUS
 10
8.170620868422267
 20
6.616293848933497
 30
0.0
 11
9.644120833743461
 21
8.08979381425469
 31
0.0
  0
LINE
  5
21F20
  8
0
  6
CONTINUOUS
 10
7.625364190076684
 20
5.397517961507727
 30
0.0
 11
9.852288217111864
 21
7.624441988542907
 31
0.0
  0
LINE
  5
21F21
  8
0
  6
CONTINUOUS
 10
7.080107511731101
 20
4.178742074081957
 30
0.0
 11
10.06045560048027
 21
7.159090162831124
 31
0.0
  0
LINE
  5
21F22
  8
0
  6
CONTINUOUS
 10
6.534850833385518
 20
2.959966186656187
 30
0.0
 11
10.26862298384867
 21
6.693738337119342
 31
0.0
  0
LINE
  5
21F23
  8
0
  6
CONTINUOUS
 10
4.469029308032756
 20
0.2206254522232385
 30
0.0
 11
5.492951005266582
 21
1.244547149457064
 31
0.0
  0
LINE
  5
21F24
  8
0
  6
CONTINUOUS
 10
5.989594155039935
 20
1.741190299230417
 30
0.0
 11
8.806950407233131
 21
4.558546551423613
 31
0.0
  0
LINE
  5
21F25
  8
0
  6
CONTINUOUS
 10
9.401251593263643
 20
5.152847737454126
 30
0.0
 11
10.47679036721708
 21
6.228386511407559
 31
0.0
  0
LINE
  5
21F26
  8
0
  6
CONTINUOUS
 10
4.921837203428691
 20
-0.0000858614610131
 30
0.0
 11
8.592923064886001
 21
3.670999999996297
 31
0.0
  0
LINE
  5
21F27
  8
0
  6
CONTINUOUS
 10
9.609390446785305
 20
4.6874673818956
 30
0.0
 11
10.68495775058548
 21
5.763034685695775
 31
0.0
  0
LINE
  5
21F28
  8
0
  6
CONTINUOUS
 10
5.595387755019432
 20
-0.0000545189504582
 30
0.0
 11
7.716137258923768
 21
2.120694984953879
 31
0.0
  0
LINE
  5
21F29
  8
0
  6
CONTINUOUS
 10
6.268938306610172
 20
-0.000023176439905
 30
0.0
 11
7.170485805526503
 21
0.9015243224764267
 31
0.0
  0
LINE
  5
21F2A
  8
0
  6
CONTINUOUS
 10
7.963842273967511
 20
2.368399999997621
 30
0.0
 11
9.266442273966188
 21
3.670999999996297
 31
0.0
  0
LINE
  5
21F2B
  8
0
  6
CONTINUOUS
 10
8.637361483047696
 20
2.368399999997621
 30
0.0
 11
9.939961483046375
 21
3.670999999996297
 31
0.0
  0
LINE
  5
21F2C
  8
0
  6
CONTINUOUS
 10
9.817529300306965
 20
4.222087026337075
 30
0.0
 11
10.89312513395388
 21
5.297682859983993
 31
0.0
  0
LINE
  5
21F2D
  8
0
  6
CONTINUOUS
 10
10.02566815382863
 20
3.756706670778549
 30
0.0
 11
11.10129251732229
 21
4.832331034272211
 31
0.0
  0
LINE
  5
21F2E
  8
0
  6
CONTINUOUS
 10
9.310880692127883
 20
2.368399999997621
 30
0.0
 11
11.30945990069069
 21
4.366979208560428
 31
0.0
  0
LINE
  5
21F2F
  8
0
  6
CONTINUOUS
 10
9.98439990120807
 20
2.36839999999762
 30
0.0
 11
11.5176272840591
 21
3.901627382848645
 31
0.0
  0
LINE
  5
21F30
  8
0
  6
CONTINUOUS
 10
10.65037369446246
 20
2.36085458417182
 30
0.0
 11
11.7257946674275
 21
3.436275557136862
 31
0.0
  0
LINE
  5
21F31
  8
0
  6
CONTINUOUS
 10
10.85847197087848
 20
1.895433651507656
 30
0.0
 11
11.9339620507959
 21
2.97092373142508
 31
0.0
  0
LINE
  5
21F32
  8
0
  6
CONTINUOUS
 10
11.0665702472945
 20
1.430012718843491
 30
0.0
 11
12.14212943416431
 21
2.505571905713296
 31
0.0
  0
LINE
  5
21F33
  8
0
  6
CONTINUOUS
 10
11.27466852371052
 20
0.9645917861793256
 30
0.0
 11
12.35029681753271
 21
2.040220080001513
 31
0.0
  0
LINE
  5
21F34
  8
0
  6
CONTINUOUS
 10
11.48276680012654
 20
0.4991708535151611
 30
0.0
 11
12.55846420090111
 21
1.57486825428973
 31
0.0
  0
LINE
  5
21F35
  8
0
  6
CONTINUOUS
 10
11.69086507654257
 20
0.0337499208509957
 30
0.0
 11
12.76663158426952
 21
1.109516428577947
 31
0.0
  0
LINE
  5
21F36
  8
0
  6
CONTINUOUS
 10
12.33057447873954
 20
-0.0000598860322123
 30
0.0
 11
12.97479896763792
 21
0.6441646028661663
 31
0.0
  0
LINE
  5
21F37
  8
0
  6
CONTINUOUS
 10
13.00413694809395
 20
-0.0000166257579952
 30
0.0
 11
13.18296635100632
 21
0.1788127771543824
 31
0.0
  0
LINE
  5
21F38
  8
0
  6
CONTINUOUS
 10
4.772852165289667
 20
-0.000092794222212
 30
0.0
 11
4.296495091028902
 21
0.4762642800385528
 31
0.0
  0
LINE
  5
21F39
  8
0
  6
CONTINUOUS
 10
5.446340034776103
 20
-0.0000614546284616
 30
0.0
 11
2.898195908335625
 21
2.548082671812017
 31
0.0
  0
LINE
  5
21F3A
  8
0
  6
CONTINUOUS
 10
6.119827904262539
 20
-0.0000301150347113
 30
0.0
 11
1.499896725642348
 21
4.61990106358548
 31
0.0
  0
LINE
  5
21F3B
  8
0
  6
CONTINUOUS
 10
6.775136745476159
 20
0.0181802528318542
 30
0.0
 11
5.699826040202669
 21
1.093490958105344
 31
0.0
  0
LINE
  5
21F3C
  8
0
  6
CONTINUOUS
 10
6.983376846288489
 20
0.4834593610997118
 30
0.0
 11
5.908008617934405
 21
1.558827589453796
 31
0.0
  0
LINE
  5
21F3D
  8
0
  6
CONTINUOUS
 10
5.377063484962296
 20
1.416253513345719
 30
0.0
 11
1.702276957014131
 21
5.091040041293883
 31
0.0
  0
LINE
  5
21F3E
  8
0
  6
CONTINUOUS
 10
3.978745891735324
 20
3.488090315652877
 30
0.0
 11
2.000373521109399
 21
5.466462686278803
 31
0.0
  0
LINE
  5
21F3F
  8
0
  6
CONTINUOUS
 10
7.191616947100819
 20
0.948738469367568
 30
0.0
 11
6.11619119566614
 21
2.024164220802247
 31
0.0
  0
LINE
  5
21F40
  8
0
  6
CONTINUOUS
 10
7.399857047913149
 20
1.414017577635424
 30
0.0
 11
6.324373773397875
 21
2.489500852150698
 31
0.0
  0
LINE
  5
21F41
  8
0
  6
CONTINUOUS
 10
7.608097148725479
 20
1.879296685903281
 30
0.0
 11
6.53255635112961
 21
2.95483748349915
 31
0.0
  0
LINE
  5
21F42
  8
0
  6
CONTINUOUS
 10
7.816337249537808
 20
2.344575794171138
 30
0.0
 11
6.740738928861345
 21
3.420174114847601
 31
0.0
  0
LINE
  5
21F43
  8
0
  6
CONTINUOUS
 10
3.310241080789734
 20
4.830114335678653
 30
0.0
 11
2.298470085204666
 21
5.84188533126372
 31
0.0
  0
LINE
  5
21F44
  8
0
  6
CONTINUOUS
 10
3.60832983563551
 20
5.205544789913063
 30
0.0
 11
2.596566649299935
 21
6.217307976248638
 31
0.0
  0
LINE
  5
21F45
  8
0
  6
CONTINUOUS
 10
3.906418590481286
 20
5.580975244147473
 30
0.0
 11
2.894663213395203
 21
6.592730621233557
 31
0.0
  0
LINE
  5
21F46
  8
0
  6
CONTINUOUS
 10
4.204507345327062
 20
5.956405698381884
 30
0.0
 11
3.192759777490472
 21
6.968153266218474
 31
0.0
  0
LINE
  5
21F47
  8
0
  6
CONTINUOUS
 10
8.466032252791512
 20
2.368399999997621
 30
0.0
 11
6.948921506593081
 21
3.885510746196053
 31
0.0
  0
LINE
  5
21F48
  8
0
  6
CONTINUOUS
 10
9.139551461871699
 20
2.36839999999762
 30
0.0
 11
7.157104084324816
 21
4.350847377544504
 31
0.0
  0
LINE
  5
21F49
  8
0
  6
CONTINUOUS
 10
4.502596100172839
 20
6.331836152616295
 30
0.0
 11
3.49085634158574
 21
7.343575911203393
 31
0.0
  0
LINE
  5
21F4A
  8
0
  6
CONTINUOUS
 10
4.800684855018615
 20
6.707266606850705
 30
0.0
 11
3.788952905681008
 21
7.718998556188312
 31
0.0
  0
LINE
  5
21F4B
  8
0
  6
CONTINUOUS
 10
12.18154012887317
 20
-0.0000694579236642
 30
0.0
 11
11.32140332908496
 21
0.8600673418645499
 31
0.0
  0
LINE
  5
21F4C
  8
0
  6
CONTINUOUS
 10
12.85501608323566
 20
-0.0000262032059659
 30
0.0
 11
10.77672456435345
 21
2.078265315676246
 31
0.0
  0
LINE
  5
21F4D
  8
0
  6
CONTINUOUS
 10
9.813070670951886
 20
2.36839999999762
 30
0.0
 11
8.51047067095321
 21
3.670999999996297
 31
0.0
  0
LINE
  5
21F4E
  8
0
  6
CONTINUOUS
 10
10.48658988003207
 20
2.36839999999762
 30
0.0
 11
9.183989880033396
 21
3.670999999996297
 31
0.0
  0
LINE
  5
21F4F
  8
0
  6
CONTINUOUS
 10
8.441048632286794
 20
3.740422038662712
 30
0.0
 11
7.365286662056551
 21
4.816184008892956
 31
0.0
  0
LINE
  5
21F50
  8
0
  6
CONTINUOUS
 10
8.649187485808454
 20
4.205802394221237
 30
0.0
 11
7.573469239788285
 21
5.281520640241407
 31
0.0
  0
LINE
  5
21F51
  8
0
  6
CONTINUOUS
 10
5.098773609864391
 20
7.082697061085115
 30
0.0
 11
4.087049469776277
 21
8.09442120117323
 31
0.0
  0
LINE
  5
21F52
  8
0
  6
CONTINUOUS
 10
5.396862364710167
 20
7.458127515319526
 30
0.0
 11
4.385146033871544
 21
8.469843846158149
 31
0.0
  0
LINE
  5
21F53
  8
0
  6
CONTINUOUS
 10
13.04801363231285
 20
0.4804954567970334
 30
0.0
 11
9.85750908911358
 21
3.670999999996297
 31
0.0
  0
LINE
  5
21F54
  8
0
  6
CONTINUOUS
 10
8.857326339330116
 20
4.671182749779763
 30
0.0
 11
7.781651817520021
 21
5.746857271589858
 31
0.0
  0
LINE
  5
21F55
  8
0
  6
CONTINUOUS
 10
5.694951119555943
 20
7.833557969553937
 30
0.0
 11
4.765409089118624
 21
8.763099999991255
 31
0.0
  0
LINE
  5
21F56
  8
0
  6
CONTINUOUS
 10
12.50286117236978
 20
1.699167125820288
 30
0.0
 11
9.68611877250287
 21
4.515909525687196
 31
0.0
  0
LINE
  5
21F57
  8
0
  6
CONTINUOUS
 10
9.065465192851777
 20
5.136563105338288
 30
0.0
 11
7.989834395251757
 21
6.21219390293831
 31
0.0
  0
LINE
  5
21F58
  8
0
  6
CONTINUOUS
 10
5.993039874401719
 20
8.208988423788346
 30
0.0
 11
5.43892829819881
 21
8.763099999991255
 31
0.0
  0
LINE
  5
21F59
  8
0
  6
CONTINUOUS
 10
11.95770871242671
 20
2.917838794843543
 30
0.0
 11
8.19801697298349
 21
6.677530534286761
 31
0.0
  0
LINE
  5
21F5A
  8
0
  6
CONTINUOUS
 10
6.291128629247495
 20
8.584418878022756
 30
0.0
 11
6.112447507278997
 21
8.763099999991255
 31
0.0
  0
LINE
  5
21F5B
  8
0
  6
CONTINUOUS
 10
11.41255625248364
 20
4.136510463866797
 30
0.0
 11
8.406199550715227
 21
7.142867165635211
 31
0.0
  0
LINE
  5
21F5C
  8
0
  6
CONTINUOUS
 10
10.86740379254057
 20
5.355182132890051
 30
0.0
 11
8.614382128446962
 21
7.608203796983664
 31
0.0
  0
LINE
  5
21F5D
  8
0
  6
CONTINUOUS
 10
10.3222513325975
 20
6.573853801913305
 30
0.0
 11
8.822564706178696
 21
8.073540428332114
 31
0.0
  0
LINE
  5
21F5E
  8
0
  6
CONTINUOUS
 10
9.777098872654436
 20
7.792525470936562
 30
0.0
 11
9.030747283910433
 21
8.538877059680566
 31
0.0
  0
ENDBLK
  5
220A0
  8
0
  0
BLOCK
  8
0
  2
*X303
 70
     1
 10
0.0
 20
0.0
 30
0.0
  3
*X303
  1

  0
LINE
  5
21F60
  8
0
  6
CONTINUOUS
 10
10.67292308101235
 20
8.445076852443387
 30
0.0
 11
10.99094622856022
 21
8.763099999991255
 31
0.0
  0
LINE
  5
21F61
  8
0
  6
CONTINUOUS
 10
10.87250383178748
 20
7.971138394138331
 30
0.0
 11
11.6644654376404
 21
8.763099999991255
 31
0.0
  0
LINE
  5
21F62
  8
0
  6
CONTINUOUS
 10
11.07208458256261
 20
7.497199935833273
 30
0.0
 11
12.12126590876355
 21
8.546381262034211
 31
0.0
  0
LINE
  5
21F63
  8
0
  6
CONTINUOUS
 10
11.27166533333774
 20
7.023261477528216
 30
0.0
 11
12.32085164573666
 21
8.072447789927136
 31
0.0
  0
LINE
  5
21F64
  8
0
  6
CONTINUOUS
 10
11.47124608411287
 20
6.549323019223158
 30
0.0
 11
12.52043738270977
 21
7.59851431782006
 31
0.0
  0
LINE
  5
21F65
  8
0
  6
CONTINUOUS
 10
11.670826834888
 20
6.075384560918101
 30
0.0
 11
12.72002311968288
 21
7.124580845712984
 31
0.0
  0
LINE
  5
21F66
  8
0
  6
CONTINUOUS
 10
11.87040758566313
 20
5.601446102613043
 30
0.0
 11
12.91960885665599
 21
6.650647373605907
 31
0.0
  0
LINE
  5
21F67
  8
0
  6
CONTINUOUS
 10
12.06998833643825
 20
5.127507644307986
 30
0.0
 11
13.1191945936291
 21
6.176713901498832
 31
0.0
  0
LINE
  5
21F68
  8
0
  6
CONTINUOUS
 10
12.26956908721338
 20
4.65356918600293
 30
0.0
 11
13.31878033060221
 21
5.702780429391757
 31
0.0
  0
LINE
  5
21F69
  8
0
  6
CONTINUOUS
 10
12.46914983798851
 20
4.179630727697873
 30
0.0
 11
13.51836606757532
 21
5.228846957284683
 31
0.0
  0
LINE
  5
21F6A
  8
0
  6
CONTINUOUS
 10
12.66873058876364
 20
3.705692269392816
 30
0.0
 11
13.71795180454843
 21
4.754913485177607
 31
0.0
  0
LINE
  5
21F6B
  8
0
  6
CONTINUOUS
 10
12.86831133953877
 20
3.231753811087759
 30
0.0
 11
13.91753754152154
 21
4.280980013070531
 31
0.0
  0
LINE
  5
21F6C
  8
0
  6
CONTINUOUS
 10
13.0678920903139
 20
2.757815352782702
 30
0.0
 11
14.11712327849465
 21
3.807046540963456
 31
0.0
  0
LINE
  5
21F6D
  8
0
  6
CONTINUOUS
 10
13.26747284108903
 20
2.283876894477644
 30
0.0
 11
14.31670901546777
 21
3.333113068856379
 31
0.0
  0
LINE
  5
21F6E
  8
0
  6
CONTINUOUS
 10
16.36767838827179
 20
8.751678487061342
 30
0.0
 11
16.50332410898388
 21
8.887324207773432
 31
0.0
  0
LINE
  5
21F6F
  8
0
  6
CONTINUOUS
 10
15.96190732182191
 20
7.67238821153127
 30
0.0
 11
16.68735328004734
 21
8.397834169756699
 31
0.0
  0
LINE
  5
21F70
  8
0
  6
CONTINUOUS
 10
15.55613625537202
 20
6.593097936001196
 30
0.0
 11
16.87138245111079
 21
7.908344131739965
 31
0.0
  0
LINE
  5
21F71
  8
0
  6
CONTINUOUS
 10
15.15036518892213
 20
5.513807660471122
 30
0.0
 11
17.05541162217424
 21
7.418854093723231
 31
0.0
  0
LINE
  5
21F72
  8
0
  6
CONTINUOUS
 10
14.74459412247225
 20
4.434517384941048
 30
0.0
 11
17.2394407932377
 21
6.929364055706499
 31
0.0
  0
LINE
  5
21F73
  8
0
  6
CONTINUOUS
 10
14.33882305602236
 20
3.355227109410975
 30
0.0
 11
17.42346996430115
 21
6.439874017689766
 31
0.0
  0
LINE
  5
21F74
  8
0
  6
CONTINUOUS
 10
13.46705359186416
 20
1.809938436172586
 30
0.0
 11
16.0819338255367
 21
4.424818669845129
 31
0.0
  0
LINE
  5
21F75
  8
0
  6
CONTINUOUS
 10
16.63283254238972
 20
4.975717386698149
 30
0.0
 11
17.60749913536461
 21
5.950383979673033
 31
0.0
  0
LINE
  5
21F76
  8
0
  6
CONTINUOUS
 10
13.66663434263929
 20
1.335999977867529
 30
0.0
 11
15.67604797733754
 21
3.345413612565779
 31
0.0
  0
LINE
  5
21F77
  8
0
  6
CONTINUOUS
 10
13.86621509341442
 20
0.8620615195624723
 30
0.0
 11
15.27016212913838
 21
2.26600855528643
 31
0.0
  0
LINE
  5
21F78
  8
0
  6
CONTINUOUS
 10
16.81682257348267
 20
4.486188208710908
 30
0.0
 11
17.79152830642806
 21
5.460893941656299
 31
0.0
  0
LINE
  5
21F79
  8
0
  6
CONTINUOUS
 10
17.00081260457561
 20
3.996659030723667
 30
0.0
 11
17.97555747749151
 21
4.971403903639565
 31
0.0
  0
LINE
  5
21F7A
  8
0
  6
CONTINUOUS
 10
20.74362343514722
 20
8.412989070375462
 30
0.0
 11
21.09373436476302
 21
8.763099999991256
 31
0.0
  0
LINE
  5
21F7B
  8
0
  6
CONTINUOUS
 10
20.25401257174777
 20
7.249858997895826
 30
0.0
 11
21.7672535738432
 21
8.763099999991255
 31
0.0
  0
LINE
  5
21F7C
  8
0
  6
CONTINUOUS
 10
14.06579584418955
 20
0.3881230612574149
 30
0.0
 11
14.86427628093921
 21
1.186603498007082
 31
0.0
  0
LINE
  5
21F7D
  8
0
  6
CONTINUOUS
 10
14.26537659496467
 20
-0.0858153970476412
 30
0.0
 11
14.45839043274005
 21
0.1071984407277329
 31
0.0
  0
LINE
  5
21F7E
  8
0
  6
CONTINUOUS
 10
17.18480263566856
 20
3.507129852736426
 30
0.0
 11
18.15958664855496
 21
4.481913865622833
 31
0.0
  0
LINE
  5
21F7F
  8
0
  6
CONTINUOUS
 10
17.3687926667615
 20
3.017600674749186
 30
0.0
 11
18.34361581961842
 21
3.9924238276061
 31
0.0
  0
LINE
  5
21F80
  8
0
  6
CONTINUOUS
 10
19.76440170834832
 20
6.086728925416191
 30
0.0
 11
22.33924590259489
 21
8.661573119662755
 31
0.0
  0
LINE
  5
21F81
  8
0
  6
CONTINUOUS
 10
19.27479084494887
 20
4.923598852936555
 30
0.0
 11
21.84929622842713
 21
7.498104236414807
 31
0.0
  0
LINE
  5
21F82
  8
0
  6
CONTINUOUS
 10
17.55278269785445
 20
2.528071496761945
 30
0.0
 11
18.52764499068187
 21
3.502933789589366
 31
0.0
  0
LINE
  5
21F83
  8
0
  6
CONTINUOUS
 10
18.78517998154942
 20
3.760468780456919
 30
0.0
 11
21.35934655425936
 21
6.33463535316686
 31
0.0
  0
LINE
  5
21F84
  8
0
  6
CONTINUOUS
 10
17.73677272894739
 20
2.038542318774704
 30
0.0
 11
20.8693968800916
 21
5.171166469918914
 31
0.0
  0
LINE
  5
21F85
  8
0
  6
CONTINUOUS
 10
17.92076276004034
 20
1.549013140787464
 30
0.0
 11
20.37944720592384
 21
4.007697586670968
 31
0.0
  0
LINE
  5
21F86
  8
0
  6
CONTINUOUS
 10
18.10475279113329
 20
1.059483962800223
 30
0.0
 11
19.88949753175608
 21
2.84422870342302
 31
0.0
  0
LINE
  5
21F87
  8
0
  6
CONTINUOUS
 10
18.28874282222623
 20
0.5699547848129822
 30
0.0
 11
19.39954785758832
 21
1.680759820175074
 31
0.0
  0
LINE
  5
21F88
  8
0
  6
CONTINUOUS
 10
18.47273285331918
 20
0.0804256068257416
 30
0.0
 11
18.90959818342056
 21
0.517290936927127
 31
0.0
  0
LINE
  5
21F89
  8
0
  6
CONTINUOUS
 10
14.3590401358224
 20
-0.1570118376323384
 30
0.0
 11
14.24903296539946
 21
-0.0470046672093929
 31
0.0
  0
LINE
  5
21F8A
  8
0
  6
CONTINUOUS
 10
14.54309291258661
 20
0.332454594683643
 30
0.0
 11
13.75908329123172
 21
1.116464216038529
 31
0.0
  0
LINE
  5
21F8B
  8
0
  6
CONTINUOUS
 10
14.72714568935081
 20
0.8219210269996244
 30
0.0
 11
13.26913361706399
 21
2.27993309928645
 31
0.0
  0
LINE
  5
21F8C
  8
0
  6
CONTINUOUS
 10
14.91119846611502
 20
1.311387459315606
 30
0.0
 11
12.77918394289625
 21
3.443401982534371
 31
0.0
  0
LINE
  5
21F8D
  8
0
  6
CONTINUOUS
 10
15.09525124287922
 20
1.800853891631587
 30
0.0
 11
12.28923426872852
 21
4.606870865782293
 31
0.0
  0
LINE
  5
21F8E
  8
0
  6
CONTINUOUS
 10
15.27930401964343
 20
2.290320323947569
 30
0.0
 11
11.79928459456078
 21
5.770339749030213
 31
0.0
  0
LINE
  5
21F8F
  8
0
  6
CONTINUOUS
 10
15.46335679640763
 20
2.77978675626355
 30
0.0
 11
14.48885470994921
 21
3.754288842721972
 31
0.0
  0
LINE
  5
21F90
  8
0
  6
CONTINUOUS
 10
13.88507249233704
 20
4.358071060334137
 30
0.0
 11
11.30933492039305
 21
6.933808632278135
 31
0.0
  0
LINE
  5
21F91
  8
0
  6
CONTINUOUS
 10
18.75840522805855
 20
0.1582575336928151
 30
0.0
 11
18.25383727664818
 21
0.6628254851031863
 31
0.0
  0
LINE
  5
21F92
  8
0
  6
CONTINUOUS
 10
15.64740957317184
 20
3.269253188579531
 30
0.0
 11
14.67288388101266
 21
4.243778880738705
 31
0.0
  0
LINE
  5
21F93
  8
0
  6
CONTINUOUS
 10
13.39509276772158
 20
5.521569994029786
 30
0.0
 11
10.81938524622531
 21
8.097277515526056
 31
0.0
  0
LINE
  5
21F94
  8
0
  6
CONTINUOUS
 10
18.95798597883369
 20
0.6321959919978686
 30
0.0
 11
17.84825644852853
 21
1.741925522303024
 31
0.0
  0
LINE
  5
21F95
  8
0
  6
CONTINUOUS
 10
19.15756672960882
 20
1.106134450302922
 30
0.0
 11
17.44267562040888
 21
2.821025559502861
 31
0.0
  0
LINE
  5
21F96
  8
0
  6
CONTINUOUS
 10
15.83146234993604
 20
3.758719620895513
 30
0.0
 11
14.85691305207612
 21
4.733268918755439
 31
0.0
  0
LINE
  5
21F97
  8
0
  6
CONTINUOUS
 10
16.01551512670025
 20
4.248186053211494
 30
0.0
 11
15.04094222313957
 21
5.222758956772172
 31
0.0
  0
LINE
  5
21F98
  8
0
  6
CONTINUOUS
 10
12.90511304310612
 20
6.685068927725435
 30
0.0
 11
10.8270819708403
 21
8.763099999991255
 31
0.0
  0
LINE
  5
21F99
  8
0
  6
CONTINUOUS
 10
12.41513331849066
 20
7.848567861421083
 30
0.0
 11
11.50060117992049
 21
8.763099999991255
 31
0.0
  0
LINE
  5
21F9A
  8
0
  6
CONTINUOUS
 10
19.35714748038395
 20
1.580072908607975
 30
0.0
 11
17.03709479228923
 21
3.900125596702697
 31
0.0
  0
LINE
  5
21F9B
  8
0
  6
CONTINUOUS
 10
19.55672823115909
 20
2.054011366913028
 30
0.0
 11
16.63151396416958
 21
4.979225633902534
 31
0.0
  0
LINE
  5
21F9C
  8
0
  6
CONTINUOUS
 10
16.19956790346445
 20
4.737652485527476
 30
0.0
 11
15.22497139420302
 21
5.712248994788904
 31
0.0
  0
LINE
  5
21F9D
  8
0
  6
CONTINUOUS
 10
16.38362068022866
 20
5.227118917843457
 30
0.0
 11
15.40900056526648
 21
6.201739032805637
 31
0.0
  0
LINE
  5
21F9E
  8
0
  6
CONTINUOUS
 10
19.75630898193422
 20
2.527949825218081
 30
0.0
 11
18.70774536448286
 21
3.576513442669441
 31
0.0
  0
LINE
  5
21F9F
  8
0
  6
CONTINUOUS
 10
19.95588973270936
 20
3.001888283523134
 30
0.0
 11
18.90726987211446
 21
4.050508144118028
 31
0.0
  0
LINE
  5
21FA0
  8
0
  6
CONTINUOUS
 10
20.15547048348449
 20
3.475826741828186
 30
0.0
 11
19.10679437974606
 21
4.524502845566614
 31
0.0
  0
LINE
  5
21FA1
  8
0
  6
CONTINUOUS
 10
20.35505123425962
 20
3.94976520013324
 30
0.0
 11
19.30631888737766
 21
4.998497547015201
 31
0.0
  0
LINE
  5
21FA2
  8
0
  6
CONTINUOUS
 10
20.55463198503475
 20
4.423703658438292
 30
0.0
 11
19.50584339500926
 21
5.472492248463787
 31
0.0
  0
LINE
  5
21FA3
  8
0
  6
CONTINUOUS
 10
18.37481191085755
 20
3.909446896294752
 30
0.0
 11
15.59302973632993
 21
6.691229070822371
 31
0.0
  0
LINE
  5
21FA4
  8
0
  6
CONTINUOUS
 10
17.96904084440766
 20
4.988737171824825
 30
0.0
 11
15.77705890739338
 21
7.180719108839104
 31
0.0
  0
LINE
  5
21FA5
  8
0
  6
CONTINUOUS
 10
17.56326977795777
 20
6.068027447354899
 30
0.0
 11
15.96108807845684
 21
7.670209146855838
 31
0.0
  0
LINE
  5
21FA6
  8
0
  6
CONTINUOUS
 10
17.15749871150789
 20
7.147317722884972
 30
0.0
 11
16.14511724952029
 21
8.15969918487257
 31
0.0
  0
LINE
  5
21FA7
  8
0
  6
CONTINUOUS
 10
16.751727645058
 20
8.226607998415046
 30
0.0
 11
16.32914642058374
 21
8.649189222889303
 31
0.0
  0
LINE
  5
21FA8
  8
0
  6
CONTINUOUS
 10
20.75421273580989
 20
4.897642116743345
 30
0.0
 11
19.70536790264086
 21
5.946486949912374
 31
0.0
  0
LINE
  5
21FA9
  8
0
  6
CONTINUOUS
 10
20.95379348658502
 20
5.371580575048398
 30
0.0
 11
19.90489241027246
 21
6.42048165136096
 31
0.0
  0
LINE
  5
21FAA
  8
0
  6
CONTINUOUS
 10
21.15337423736015
 20
5.845519033353452
 30
0.0
 11
20.10441691790406
 21
6.894476352809547
 31
0.0
  0
LINE
  5
21FAB
  8
0
  6
CONTINUOUS
 10
21.35295498813529
 20
6.319457491658505
 30
0.0
 11
20.30394142553566
 21
7.368471054258134
 31
0.0
  0
LINE
  5
21FAC
  8
0
  6
CONTINUOUS
 10
21.55253573891042
 20
6.793395949963558
 30
0.0
 11
20.50346593316726
 21
7.842465755706721
 31
0.0
  0
LINE
  5
21FAD
  8
0
  6
CONTINUOUS
 10
21.75211648968556
 20
7.267334408268612
 30
0.0
 11
20.70299044079886
 21
8.316460457155308
 31
0.0
  0
LINE
  5
21FAE
  8
0
  6
CONTINUOUS
 10
21.95169724046069
 20
7.741272866573663
 30
0.0
 11
20.9298701070431
 21
8.763099999991256
 31
0.0
  0
LINE
  5
21FAF
  8
0
  6
CONTINUOUS
 10
22.15127799123582
 20
8.215211324878716
 30
0.0
 11
21.60338931612328
 21
8.763099999991256
 31
0.0
  0
LINE
  5
21FB0
  8
0
  6
CONTINUOUS
 10
22.35085874201096
 20
8.689149783183769
 30
0.0
 11
22.27690852520347
 21
8.763099999991255
 31
0.0
  0
ENDBLK
  5
220A2
  8
0
  0
BLOCK
  8
0
  2
*X304
 70
     1
 10
0.0
 20
0.0
 30
0.0
  3
*X304
  1

  0
LINE
  5
21FB2
  8
0
  6
CONTINUOUS
 10
23.19462913593892
 20
8.169917934846424
 30
0.0
 11
23.70775465517246
 21
8.683043454079957
 31
0.0
  0
LINE
  5
21FB3
  8
0
  6
CONTINUOUS
 10
22.64923161835078
 20
6.951001208178088
 30
0.0
 11
23.9159364069932
 21
8.217705996820516
 31
0.0
  0
LINE
  5
21FB4
  8
0
  6
CONTINUOUS
 10
22.10383410076263
 20
5.732084481509751
 30
0.0
 11
24.12411815881395
 21
7.752368539561078
 31
0.0
  0
LINE
  5
21FB5
  8
0
  6
CONTINUOUS
 10
21.55843658317447
 20
4.513167754841414
 30
0.0
 11
24.3322999106347
 21
7.287031082301639
 31
0.0
  0
LINE
  5
21FB6
  8
0
  6
CONTINUOUS
 10
21.01303906558632
 20
3.294251028173077
 30
0.0
 11
24.54048166245544
 21
6.821693625042199
 31
0.0
  0
LINE
  5
21FB7
  8
0
  6
CONTINUOUS
 10
20.46764154799817
 20
2.075334301504738
 30
0.0
 11
23.28571549467848
 21
4.89340824818505
 31
0.0
  0
LINE
  5
21FB8
  8
0
  6
CONTINUOUS
 10
19.92224403041002
 20
0.8564175748364002
 30
0.0
 11
22.74075865492779
 21
3.674932199354171
 31
0.0
  0
LINE
  5
21FB9
  8
0
  6
CONTINUOUS
 10
23.67305085490148
 20
5.280743608408048
 30
0.0
 11
24.74866341427619
 21
6.356356167782759
 31
0.0
  0
LINE
  5
21FBA
  8
0
  6
CONTINUOUS
 10
23.88118970842314
 20
4.815363252849522
 30
0.0
 11
24.95684516609694
 21
5.89101871052332
 31
0.0
  0
LINE
  5
21FBB
  8
0
  6
CONTINUOUS
 10
19.73925852647308
 20
-0.0000871381807288
 30
0.0
 11
23.4103456646501
 21
3.670999999996297
 31
0.0
  0
LINE
  5
21FBC
  8
0
  6
CONTINUOUS
 10
24.0893285619448
 20
4.349982897290997
 30
0.0
 11
25.16502691791769
 21
5.42568125326388
 31
0.0
  0
LINE
  5
21FBD
  8
0
  6
CONTINUOUS
 10
20.41282099582748
 20
-0.0000438779065108
 30
0.0
 11
21.64944178675636
 21
1.236576913022366
 31
0.0
  0
LINE
  5
21FBE
  8
0
  6
CONTINUOUS
 10
22.78126487373161
 20
2.36839999999762
 30
0.0
 11
24.08386487373029
 21
3.670999999996297
 31
0.0
  0
LINE
  5
21FBF
  8
0
  6
CONTINUOUS
 10
24.29746741546646
 20
3.884602541732471
 30
0.0
 11
25.37320866973843
 21
4.960343796004441
 31
0.0
  0
LINE
  5
21FC0
  8
0
  6
CONTINUOUS
 10
21.08638346518189
 20
-0.0000006176322938
 30
0.0
 11
21.10379033335899
 21
0.0174062505448083
 31
0.0
  0
LINE
  5
21FC1
  8
0
  6
CONTINUOUS
 10
23.4547840828118
 20
2.36839999999762
 30
0.0
 11
25.58139042155918
 21
4.495006338745002
 31
0.0
  0
LINE
  5
21FC2
  8
0
  6
CONTINUOUS
 10
29.30199999996933
 20
8.215615917155148
 30
0.0
 11
29.84948408280543
 21
8.763099999991255
 31
0.0
  0
LINE
  5
21FC3
  8
0
  6
CONTINUOUS
 10
24.12830329189199
 20
2.36839999999762
 30
0.0
 11
25.78957217337993
 21
4.029668881485562
 31
0.0
  0
LINE
  5
21FC4
  8
0
  6
CONTINUOUS
 10
29.30199999996933
 20
7.54209670807496
 30
0.0
 11
30.52300329188562
 21
8.763099999991255
 31
0.0
  0
LINE
  5
21FC5
  8
0
  6
CONTINUOUS
 10
24.80182250097217
 20
2.36839999999762
 30
0.0
 11
25.99775392520067
 21
3.564331424226122
 31
0.0
  0
LINE
  5
21FC6
  8
0
  6
CONTINUOUS
 10
29.30199999996933
 20
6.868577498994774
 30
0.0
 11
30.74199999996926
 21
8.308577498994712
 31
0.0
  0
LINE
  5
21FC7
  8
0
  6
CONTINUOUS
 10
25.13028238392013
 20
2.023340673865392
 30
0.0
 11
26.20593567702142
 21
3.098993966966683
 31
0.0
  0
LINE
  5
21FC8
  8
0
  6
CONTINUOUS
 10
25.33838066033617
 20
1.557919741201244
 30
0.0
 11
26.41411742884217
 21
2.633656509707244
 31
0.0
  0
LINE
  5
21FC9
  8
0
  6
CONTINUOUS
 10
25.54647893675221
 20
1.092498808537098
 30
0.0
 11
26.62229918066291
 21
2.168319052447804
 31
0.0
  0
LINE
  5
21FCA
  8
0
  6
CONTINUOUS
 10
25.75457721316825
 20
0.62707787587295
 30
0.0
 11
26.83048093248366
 21
1.702981595188365
 31
0.0
  0
LINE
  5
21FCB
  8
0
  6
CONTINUOUS
 10
29.30199999996933
 20
6.195058289914587
 30
0.0
 11
30.74199999996926
 21
7.635058289914522
 31
0.0
  0
LINE
  5
21FCC
  8
0
  6
CONTINUOUS
 10
29.30199999996933
 20
5.521539080834401
 30
0.0
 11
30.74199999996926
 21
6.961539080834331
 31
0.0
  0
LINE
  5
21FCD
  8
0
  6
CONTINUOUS
 10
29.30199999996933
 20
4.848019871754214
 30
0.0
 11
30.74199999996925
 21
6.288019871754143
 31
0.0
  0
LINE
  5
21FCE
  8
0
  6
CONTINUOUS
 10
29.30199999996933
 20
4.174500662674028
 30
0.0
 11
30.74199999996925
 21
5.614500662673953
 31
0.0
  0
LINE
  5
21FCF
  8
0
  6
CONTINUOUS
 10
25.96267548958429
 20
0.1616569432088024
 30
0.0
 11
27.18411854636669
 21
1.383099999991207
 31
0.0
  0
LINE
  5
21FD0
  8
0
  6
CONTINUOUS
 10
29.30199999996933
 20
3.500981453593841
 30
0.0
 11
30.74199999996925
 21
4.940981453593762
 31
0.0
  0
LINE
  5
21FD1
  8
0
  6
CONTINUOUS
 10
26.50763775544691
 20
0.0330999999912356
 30
0.0
 11
27.85763775544689
 21
1.383099999991223
 31
0.0
  0
LINE
  5
21FD2
  8
0
  6
CONTINUOUS
 10
29.30199999996933
 20
2.827462244513656
 30
0.0
 11
30.74199999996925
 21
4.267462244513574
 31
0.0
  0
LINE
  5
21FD3
  8
0
  6
CONTINUOUS
 10
27.18115696452709
 20
0.0330999999912356
 30
0.0
 11
28.6224847300034
 21
1.474427765467545
 31
0.0
  0
LINE
  5
21FD4
  8
0
  6
CONTINUOUS
 10
29.21067223449293
 20
2.062615269957069
 30
0.0
 11
30.74199999996924
 21
3.593943035433383
 31
0.0
  0
LINE
  5
21FD5
  8
0
  6
CONTINUOUS
 10
27.85467617360728
 20
0.0330999999912356
 30
0.0
 11
30.74199999996924
 21
2.920423826353195
 31
0.0
  0
LINE
  5
21FD6
  8
0
  6
CONTINUOUS
 10
28.57438609860264
 20
0.0792907159064073
 30
0.0
 11
30.69580928405405
 21
2.200713901357819
 31
0.0
  0
LINE
  5
21FD7
  8
0
  6
CONTINUOUS
 10
29.49443044814297
 20
0.3258158563665496
 30
0.0
 11
30.44928414359389
 21
1.280669551817477
 31
0.0
  0
LINE
  5
21FD8
  8
0
  6
CONTINUOUS
 10
19.59027867740337
 20
-0.0000967065718083
 30
0.0
 11
19.55485265190471
 21
0.035329318926844
 31
0.0
  0
LINE
  5
21FD9
  8
0
  6
CONTINUOUS
 10
20.26375463176586
 20
-0.0000534518541091
 30
0.0
 11
19.76305575737534
 21
0.5006454225364014
 31
0.0
  0
LINE
  5
21FDA
  8
0
  6
CONTINUOUS
 10
20.93723058612834
 20
-0.0000101971364099
 30
0.0
 11
19.97125886284597
 21
0.965961526145958
 31
0.0
  0
LINE
  5
21FDB
  8
0
  6
CONTINUOUS
 10
21.25514828313686
 20
0.355591314935257
 30
0.0
 11
20.1794619683166
 21
1.431277629755512
 31
0.0
  0
LINE
  5
21FDC
  8
0
  6
CONTINUOUS
 10
21.46338838394921
 20
0.8208704232030986
 30
0.0
 11
20.38766507378723
 21
1.896593733365069
 31
0.0
  0
LINE
  5
21FDD
  8
0
  6
CONTINUOUS
 10
21.67162848476155
 20
1.28614953147094
 30
0.0
 11
20.59586817925786
 21
2.361909836974626
 31
0.0
  0
LINE
  5
21FDE
  8
0
  6
CONTINUOUS
 10
21.8798685855739
 20
1.751428639738782
 30
0.0
 11
20.80407128472849
 21
2.827225940584183
 31
0.0
  0
LINE
  5
21FDF
  8
0
  6
CONTINUOUS
 10
22.08810868638624
 20
2.216707748006623
 30
0.0
 11
21.01227439019912
 21
3.292542044193739
 31
0.0
  0
LINE
  5
21FE0
  8
0
  6
CONTINUOUS
 10
22.60993564347543
 20
2.36839999999762
 30
0.0
 11
21.22047749566975
 21
3.757858147803296
 31
0.0
  0
LINE
  5
21FE1
  8
0
  6
CONTINUOUS
 10
23.28345485255561
 20
2.36839999999762
 30
0.0
 11
21.42868060114038
 21
4.223174251412853
 31
0.0
  0
LINE
  5
21FE2
  8
0
  6
CONTINUOUS
 10
26.29227406164219
 20
0.0330999999912356
 30
0.0
 11
25.80009199592872
 21
0.5252820657046957
 31
0.0
  0
LINE
  5
21FE3
  8
0
  6
CONTINUOUS
 10
23.9569740616358
 20
2.36839999999762
 30
0.0
 11
21.63688370661101
 21
4.688490355022409
 31
0.0
  0
LINE
  5
21FE4
  8
0
  6
CONTINUOUS
 10
26.96579327072237
 20
0.0330999999912356
 30
0.0
 11
25.2554132311971
 21
1.743480039516508
 31
0.0
  0
LINE
  5
21FE5
  8
0
  6
CONTINUOUS
 10
24.63049327071599
 20
2.36839999999762
 30
0.0
 11
23.32789327071731
 21
3.670999999996297
 31
0.0
  0
LINE
  5
21FE6
  8
0
  6
CONTINUOUS
 10
22.92098674744635
 20
4.077906523267254
 30
0.0
 11
21.84508681208164
 21
5.153806458631966
 31
0.0
  0
LINE
  5
21FE7
  8
0
  6
CONTINUOUS
 10
27.63931247980256
 20
0.0330999999912356
 30
0.0
 11
24.0014124797975
 21
3.670999999996297
 31
0.0
  0
LINE
  5
21FE8
  8
0
  6
CONTINUOUS
 10
23.129125600968
 20
4.5432868788258
 30
0.0
 11
22.05328991755227
 21
5.619122562241522
 31
0.0
  0
LINE
  5
21FE9
  8
0
  6
CONTINUOUS
 10
28.31283168888275
 20
0.0330999999912356
 30
0.0
 11
24.16488385994816
 21
4.181047828925828
 31
0.0
  0
LINE
  5
21FEA
  8
0
  6
CONTINUOUS
 10
23.33726445448964
 20
5.008667234384345
 30
0.0
 11
22.2614930230229
 21
6.084438665851079
 31
0.0
  0
LINE
  5
21FEB
  8
0
  6
CONTINUOUS
 10
28.86286302309502
 20
0.1565878748591523
 30
0.0
 11
27.63635089796295
 21
1.383099999991217
 31
0.0
  0
LINE
  5
21FEC
  8
0
  6
CONTINUOUS
 10
26.43704649509776
 20
2.582404402856405
 30
0.0
 11
23.61992702019732
 21
5.399523877756844
 31
0.0
  0
LINE
  5
21FED
  8
0
  6
CONTINUOUS
 10
23.54540330801128
 20
5.47404758994289
 30
0.0
 11
22.46969612849353
 21
6.549754769460635
 31
0.0
  0
LINE
  5
21FEE
  8
0
  6
CONTINUOUS
 10
29.39405087596853
 20
0.2989192310658284
 30
0.0
 11
28.30987010704312
 21
1.383099999991234
 31
0.0
  0
LINE
  5
21FEF
  8
0
  6
CONTINUOUS
 10
25.89179548232307
 20
3.801174624711282
 30
0.0
 11
22.67789923396416
 21
7.015070873070191
 31
0.0
  0
LINE
  5
21FF0
  8
0
  6
CONTINUOUS
 10
29.79594438047407
 20
0.570544935640473
 30
0.0
 11
28.81310432793121
 21
1.553384988183336
 31
0.0
  0
LINE
  5
21FF1
  8
0
  6
CONTINUOUS
 10
25.34654446954838
 20
5.01994484656616
 30
0.0
 11
22.88610233943479
 21
7.480386976679748
 31
0.0
  0
LINE
  5
21FF2
  8
0
  6
CONTINUOUS
 10
30.13270398501416
 20
0.9073045401805646
 30
0.0
 11
29.14234640337737
 21
1.897662121817355
 31
0.0
  0
LINE
  5
21FF3
  8
0
  6
CONTINUOUS
 10
24.80129345677369
 20
6.238715068421037
 30
0.0
 11
23.09430544490542
 21
7.945703080289305
 31
0.0
  0
LINE
  5
21FF4
  8
0
  6
CONTINUOUS
 10
30.44581292956759
 20
1.26771480470732
 30
0.0
 11
29.30199999996933
 21
2.411527734305588
 31
0.0
  0
LINE
  5
21FF5
  8
0
  6
CONTINUOUS
 10
30.58814428577427
 20
1.798902657580827
 30
0.0
 11
29.30199999996933
 21
3.085046943385775
 31
0.0
  0
LINE
  5
21FF6
  8
0
  6
CONTINUOUS
 10
24.256042443999
 20
7.457485290275915
 30
0.0
 11
23.30250855037605
 21
8.411019183898862
 31
0.0
  0
LINE
  5
21FF7
  8
0
  6
CONTINUOUS
 10
23.71079143122431
 20
8.676255512130794
 30
0.0
 11
23.51071165584668
 21
8.876335287508418
 31
0.0
  0
LINE
  5
21FF8
  8
0
  6
CONTINUOUS
 10
30.73047564198095
 20
2.330090510454333
 30
0.0
 11
29.30199999996933
 21
3.758566152465961
 31
0.0
  0
LINE
  5
21FF9
  8
0
  6
CONTINUOUS
 10
30.74199999996924
 20
2.992085361546236
 30
0.0
 11
29.30199999996933
 21
4.432085361546148
 31
0.0
  0
LINE
  5
21FFA
  8
0
  6
CONTINUOUS
 10
30.74199999996924
 20
3.665604570626419
 30
0.0
 11
29.30199999996933
 21
5.105604570626333
 31
0.0
  0
LINE
  5
21FFB
  8
0
  6
CONTINUOUS
 10
30.74199999996925
 20
4.339123779706602
 30
0.0
 11
29.30199999996933
 21
5.77912377970652
 31
0.0
  0
LINE
  5
21FFC
  8
0
  6
CONTINUOUS
 10
30.74199999996925
 20
5.012642988786785
 30
0.0
 11
29.30199999996933
 21
6.452642988786707
 31
0.0
  0
LINE
  5
21FFD
  8
0
  6
CONTINUOUS
 10
30.74199999996925
 20
5.68616219786697
 30
0.0
 11
29.30199999996933
 21
7.126162197866894
 31
0.0
  0
LINE
  5
21FFE
  8
0
  6
CONTINUOUS
 10
30.74199999996925
 20
6.359681406947153
 30
0.0
 11
29.30199999996933
 21
7.799681406947081
 31
0.0
  0
LINE
  5
21FFF
  8
0
  6
CONTINUOUS
 10
30.74199999996926
 20
7.033200616027337
 30
0.0
 11
29.30199999996933
 21
8.473200616027269
 31
0.0
  0
LINE
  5
22000
  8
0
  6
CONTINUOUS
 10
30.74199999996926
 20
7.706719825107518
 30
0.0
 11
29.68561982508552
 21
8.763099999991255
 31
0.0
  0
LINE
  5
22001
  8
0
  6
CONTINUOUS
 10
30.74199999996926
 20
8.380239034187703
 30
0.0
 11
30.35913903416571
 21
8.763099999991255
 31
0.0
  0
ENDBLK
  5
220A4
  8
0
  0
BLOCK
  8
0
  2
*X305
 70
     1
 10
0.0
 20
0.0
 30
0.0
  3
*X305
  1

  0
LINE
  5
22003
  8
0
  6
CONTINUOUS
 10
31.64199999996833
 20
8.5350582899136
 30
0.0
 11
31.87004171004599
 21
8.763099999991255
 31
0.0
  0
LINE
  5
22004
  8
0
  6
CONTINUOUS
 10
31.64199999996833
 20
7.861539080833413
 30
0.0
 11
32.54356091912618
 21
8.763099999991255
 31
0.0
  0
LINE
  5
22005
  8
0
  6
CONTINUOUS
 10
31.64199999996833
 20
7.188019871753227
 30
0.0
 11
33.08199999996839
 21
8.628019871753281
 31
0.0
  0
LINE
  5
22006
  8
0
  6
CONTINUOUS
 10
31.64199999996833
 20
6.514500662673041
 30
0.0
 11
33.08199999996839
 21
7.954500662673095
 31
0.0
  0
LINE
  5
22007
  8
0
  6
CONTINUOUS
 10
31.64199999996833
 20
5.840981453592855
 30
0.0
 11
33.08199999996839
 21
7.28098145359291
 31
0.0
  0
LINE
  5
22008
  8
0
  6
CONTINUOUS
 10
31.64199999996833
 20
5.167462244512668
 30
0.0
 11
33.08199999996839
 21
6.607462244512723
 31
0.0
  0
LINE
  5
22009
  8
0
  6
CONTINUOUS
 10
31.64199999996833
 20
4.493943035432482
 30
0.0
 11
33.08199999996839
 21
5.933943035432536
 31
0.0
  0
LINE
  5
2200A
  8
0
  6
CONTINUOUS
 10
31.64199999996833
 20
3.820423826352294
 30
0.0
 11
33.08199999996839
 21
5.260423826352349
 31
0.0
  0
LINE
  5
2200B
  8
0
  6
CONTINUOUS
 10
31.64199999996833
 20
3.146904617272108
 30
0.0
 11
33.08199999996839
 21
4.586904617272163
 31
0.0
  0
LINE
  5
2200C
  8
0
  6
CONTINUOUS
 10
36.23199999996837
 20
8.410423826352327
 30
0.0
 11
36.58467617360729
 21
8.763099999991255
 31
0.0
  0
LINE
  5
2200D
  8
0
  6
CONTINUOUS
 10
36.23199999996837
 20
7.73690461727214
 30
0.0
 11
37.25819538268748
 21
8.763099999991255
 31
0.0
  0
LINE
  5
2200E
  8
0
  6
CONTINUOUS
 10
31.64323424774199
 20
2.474619655965573
 30
0.0
 11
33.08199999996839
 21
3.913385408191976
 31
0.0
  0
LINE
  5
2200F
  8
0
  6
CONTINUOUS
 10
31.74419223861915
 20
1.902058437762552
 30
0.0
 11
33.08199999996839
 21
3.239866199111789
 31
0.0
  0
LINE
  5
22010
  8
0
  6
CONTINUOUS
 10
36.23199999996837
 20
7.063385408191953
 30
0.0
 11
37.67199999996831
 21
8.503385408191894
 31
0.0
  0
LINE
  5
22011
  8
0
  6
CONTINUOUS
 10
36.23199999996837
 20
6.389866199111767
 30
0.0
 11
37.67199999996831
 21
7.829866199111708
 31
0.0
  0
LINE
  5
22012
  8
0
  6
CONTINUOUS
 10
31.91111233414976
 20
1.39545932421297
 30
0.0
 11
33.08199999996839
 21
2.566346990031603
 31
0.0
  0
LINE
  5
22013
  8
0
  6
CONTINUOUS
 10
36.23199999996837
 20
5.71634699003158
 30
0.0
 11
37.67199999996831
 21
7.156346990031522
 31
0.0
  0
LINE
  5
22014
  8
0
  6
CONTINUOUS
 10
32.1576374746103
 20
0.9684652555933289
 30
0.0
 11
33.20642631446081
 21
2.017254095443838
 31
0.0
  0
LINE
  5
22015
  8
0
  6
CONTINUOUS
 10
36.23199999996837
 20
5.042827780951393
 30
0.0
 11
37.67199999996831
 21
6.482827780951334
 31
0.0
  0
LINE
  5
22016
  8
0
  6
CONTINUOUS
 10
32.47774023927325
 20
0.6150488111760914
 30
0.0
 11
33.49903056428258
 21
1.636339136185419
 31
0.0
  0
LINE
  5
22017
  8
0
  6
CONTINUOUS
 10
36.23199999996837
 20
4.369308571871207
 30
0.0
 11
37.67199999996831
 21
5.809308571871148
 31
0.0
  0
LINE
  5
22018
  8
0
  6
CONTINUOUS
 10
32.84396249154443
 20
0.3077518543670883
 30
0.0
 11
33.93324121824649
 21
1.397030581069146
 31
0.0
  0
LINE
  5
22019
  8
0
  6
CONTINUOUS
 10
36.23199999996837
 20
3.695789362791021
 30
0.0
 11
37.67199999996831
 21
5.135789362790963
 31
0.0
  0
LINE
  5
2201A
  8
0
  6
CONTINUOUS
 10
33.30186329036846
 20
0.0921334441109263
 30
0.0
 11
34.46442907112041
 21
1.254699224862875
 31
0.0
  0
LINE
  5
2201B
  8
0
  6
CONTINUOUS
 10
36.23199999996837
 20
3.022270153710834
 30
0.0
 11
37.67199999996831
 21
4.462270153710776
 31
0.0
  0
LINE
  5
2201C
  8
0
  6
CONTINUOUS
 10
33.79565647746294
 20
-0.0875925778747773
 30
0.0
 11
35.24350171668284
 21
1.360252661345124
 31
0.0
  0
LINE
  5
2201D
  8
0
  6
CONTINUOUS
 10
36.18336676155003
 20
2.300117706212308
 30
0.0
 11
37.67199999996831
 21
3.788750944630589
 31
0.0
  0
LINE
  5
2201E
  8
0
  6
CONTINUOUS
 10
34.37182574910968
 20
-0.184942515308224
 30
0.0
 11
37.67199999996831
 21
3.115231735550402
 31
0.0
  0
LINE
  5
2201F
  8
0
  6
CONTINUOUS
 10
35.0453449581892
 20
-0.1849425153088955
 30
0.0
 11
37.66345697088136
 21
2.433169497383271
 31
0.0
  0
LINE
  5
22020
  8
0
  6
CONTINUOUS
 10
35.98667157609191
 20
0.0828648935136398
 30
0.0
 11
37.51927401744566
 21
1.615467334867382
 31
0.0
  0
LINE
  5
22021
  8
0
  6
CONTINUOUS
 10
32.27747408544484
 20
0.7830920669904482
 30
0.0
 11
32.24716210471949
 21
0.8134040477157893
 31
0.0
  0
LINE
  5
22022
  8
0
  6
CONTINUOUS
 10
33.83656881101902
 20
-0.1024834495035494
 30
0.0
 11
31.72538911593758
 21
2.008696245577891
 31
0.0
  0
LINE
  5
22023
  8
0
  6
CONTINUOUS
 10
34.5925470859041
 20
-0.1849425153084434
 30
0.0
 11
31.64199999996833
 21
2.765604570627322
 31
0.0
  0
LINE
  5
22024
  8
0
  6
CONTINUOUS
 10
35.26201302775981
 20
-0.1808892480839752
 30
0.0
 11
31.64199999996833
 21
3.439123779707508
 31
0.0
  0
LINE
  5
22025
  8
0
  6
CONTINUOUS
 10
35.75580621485512
 20
-0.0011632260990879
 30
0.0
 11
34.51294304365551
 21
1.241699945100514
 31
0.0
  0
LINE
  5
22026
  8
0
  6
CONTINUOUS
 10
33.08199999996839
 20
2.672642988787641
 30
0.0
 11
31.64199999996833
 21
4.112642988787695
 31
0.0
  0
LINE
  5
22027
  8
0
  6
CONTINUOUS
 10
36.24959940195042
 20
0.1785627958857976
 30
0.0
 11
35.10501653033629
 21
1.323145667499924
 31
0.0
  0
LINE
  5
22028
  8
0
  6
CONTINUOUS
 10
33.08199999996839
 20
3.346162197867827
 30
0.0
 11
31.64199999996833
 21
4.786162197867881
 31
0.0
  0
LINE
  5
22029
  8
0
  6
CONTINUOUS
 10
36.64615197150552
 20
0.4555294354108876
 30
0.0
 11
35.6362043832099
 21
1.465477023706505
 31
0.0
  0
LINE
  5
2202A
  8
0
  6
CONTINUOUS
 10
33.08199999996839
 20
4.019681406948013
 30
0.0
 11
31.64199999996833
 21
5.459681406948068
 31
0.0
  0
LINE
  5
2202B
  8
0
  6
CONTINUOUS
 10
37.0123742237774
 20
0.7628263922191891
 30
0.0
 11
35.97691545773309
 21
1.798285158263504
 31
0.0
  0
LINE
  5
2202C
  8
0
  6
CONTINUOUS
 10
33.08199999996839
 20
4.6932006160282
 30
0.0
 11
31.64199999996833
 21
6.133200616028255
 31
0.0
  0
LINE
  5
2202D
  8
0
  6
CONTINUOUS
 10
37.27491524157143
 20
1.173804583505349
 30
0.0
 11
36.17602012811361
 21
2.272699696963169
 31
0.0
  0
LINE
  5
2202E
  8
0
  6
CONTINUOUS
 10
33.08199999996839
 20
5.366719825108387
 30
0.0
 11
31.64199999996833
 21
6.806719825108441
 31
0.0
  0
LINE
  5
2202F
  8
0
  6
CONTINUOUS
 10
37.51739996707661
 20
1.604839067080355
 30
0.0
 11
36.23199999996837
 21
2.890239034188595
 31
0.0
  0
LINE
  5
22030
  8
0
  6
CONTINUOUS
 10
37.6183579579535
 20
2.177400285283649
 30
0.0
 11
36.23199999996837
 21
3.563758243268782
 31
0.0
  0
LINE
  5
22031
  8
0
  6
CONTINUOUS
 10
33.08199999996839
 20
6.040239034188573
 30
0.0
 11
31.64199999996833
 21
7.480239034188628
 31
0.0
  0
LINE
  5
22032
  8
0
  6
CONTINUOUS
 10
33.08199999996839
 20
6.713758243268759
 30
0.0
 11
31.64199999996833
 21
8.153758243268815
 31
0.0
  0
LINE
  5
22033
  8
0
  6
CONTINUOUS
 10
37.67199999996831
 20
2.797277452349027
 30
0.0
 11
36.23199999996837
 21
4.237277452348969
 31
0.0
  0
LINE
  5
22034
  8
0
  6
CONTINUOUS
 10
37.67199999996831
 20
3.470796661429214
 30
0.0
 11
36.23199999996837
 21
4.910796661429155
 31
0.0
  0
LINE
  5
22035
  8
0
  6
CONTINUOUS
 10
37.67199999996831
 20
4.1443158705094
 30
0.0
 11
36.23199999996837
 21
5.584315870509341
 31
0.0
  0
LINE
  5
22036
  8
0
  6
CONTINUOUS
 10
33.08199999996839
 20
7.387277452348946
 30
0.0
 11
31.70617745232608
 21
8.763099999991255
 31
0.0
  0
LINE
  5
22037
  8
0
  6
CONTINUOUS
 10
33.08199999996839
 20
8.060796661429134
 30
0.0
 11
32.37969666140626
 21
8.763099999991255
 31
0.0
  0
LINE
  5
22038
  8
0
  6
CONTINUOUS
 10
33.08199999996839
 20
8.734315870509318
 30
0.0
 11
33.05321587048645
 21
8.763099999991255
 31
0.0
  0
LINE
  5
22039
  8
0
  6
CONTINUOUS
 10
37.67199999996831
 20
4.817835079589586
 30
0.0
 11
36.23199999996837
 21
6.257835079589528
 31
0.0
  0
LINE
  5
2203A
  8
0
  6
CONTINUOUS
 10
37.67199999996831
 20
5.491354288669772
 30
0.0
 11
36.23199999996837
 21
6.931354288669715
 31
0.0
  0
LINE
  5
2203B
  8
0
  6
CONTINUOUS
 10
37.67199999996831
 20
6.164873497749959
 30
0.0
 11
36.23199999996837
 21
7.6048734977499
 31
0.0
  0
LINE
  5
2203C
  8
0
  6
CONTINUOUS
 10
37.67199999996831
 20
6.838392706830145
 30
0.0
 11
36.23199999996837
 21
8.278392706830086
 31
0.0
  0
LINE
  5
2203D
  8
0
  6
CONTINUOUS
 10
37.67199999996831
 20
7.511911915910333
 30
0.0
 11
36.42081191588738
 21
8.763099999991255
 31
0.0
  0
LINE
  5
2203E
  8
0
  6
CONTINUOUS
 10
37.67199999996831
 20
8.185431124990519
 30
0.0
 11
37.09433112496757
 21
8.763099999991255
 31
0.0
  0
ENDBLK
  5
220A6
  8
0
  0
BLOCK
  8
0
  2
*X306
 70
     1
 10
0.0
 20
0.0
 30
0.0
  3
*X306
  1

  0
LINE
  5
22040
  8
0
  6
CONTINUOUS
 10
38.60499999996136
 20
8.762866199104765
 30
0.0
 11
38.71672554182345
 21
8.874591740966855
 31
0.0
  0
LINE
  5
22041
  8
0
  6
CONTINUOUS
 10
38.60499999996136
 20
8.089346990024577
 30
0.0
 11
39.03418785440363
 21
8.518534844466847
 31
0.0
  0
LINE
  5
22042
  8
0
  6
CONTINUOUS
 10
38.60499999996136
 20
7.41582778094439
 30
0.0
 11
39.35165016698382
 21
8.16247794796684
 31
0.0
  0
LINE
  5
22043
  8
0
  6
CONTINUOUS
 10
38.60499999996136
 20
6.742308571864204
 30
0.0
 11
39.66911247956399
 21
7.806421051466834
 31
0.0
  0
LINE
  5
22044
  8
0
  6
CONTINUOUS
 10
38.60499999996136
 20
6.068789362784018
 30
0.0
 11
39.98657479214418
 21
7.450364154966827
 31
0.0
  0
LINE
  5
22045
  8
0
  6
CONTINUOUS
 10
38.60499999996136
 20
5.395270153703832
 30
0.0
 11
40.30403710472435
 21
7.09430725846682
 31
0.0
  0
LINE
  5
22046
  8
0
  6
CONTINUOUS
 10
38.60499999996136
 20
4.721750944623645
 30
0.0
 11
40.62149941730453
 21
6.738250361966813
 31
0.0
  0
LINE
  5
22047
  8
0
  6
CONTINUOUS
 10
38.60499999996136
 20
4.048231735543458
 30
0.0
 11
40.93896172988471
 21
6.382193465466806
 31
0.0
  0
LINE
  5
22048
  8
0
  6
CONTINUOUS
 10
38.60499999996136
 20
3.374712526463272
 30
0.0
 11
40.02599999995994
 21
4.795712526461843
 31
0.0
  0
LINE
  5
22049
  8
0
  6
CONTINUOUS
 10
38.60499999996136
 20
2.701193317383085
 30
0.0
 11
40.02599999995994
 21
4.122193317381657
 31
0.0
  0
LINE
  5
2204A
  8
0
  6
CONTINUOUS
 10
40.28339754687704
 20
5.053110073378947
 30
0.0
 11
41.25642404246489
 21
6.026136568966799
 31
0.0
  0
LINE
  5
2204B
  8
0
  6
CONTINUOUS
 10
40.60085985945722
 20
4.697053176878939
 30
0.0
 11
41.57388635504507
 21
5.670079672466793
 31
0.0
  0
LINE
  5
2204C
  8
0
  6
CONTINUOUS
 10
43.57899999995641
 20
8.348712526458318
 30
0.0
 11
43.99338747348935
 21
8.763099999991255
 31
0.0
  0
LINE
  5
2204D
  8
0
  6
CONTINUOUS
 10
43.57899999995641
 20
7.675193317378131
 30
0.0
 11
44.66690668256953
 21
8.763099999991255
 31
0.0
  0
LINE
  5
2204E
  8
0
  6
CONTINUOUS
 10
38.60499999996136
 20
2.027674108302898
 30
0.0
 11
40.02599999995994
 21
3.44867410830147
 31
0.0
  0
LINE
  5
2204F
  8
0
  6
CONTINUOUS
 10
38.60499999996136
 20
1.354154899222712
 30
0.0
 11
40.02599999995994
 21
2.775154899221284
 31
0.0
  0
LINE
  5
22050
  8
0
  6
CONTINUOUS
 10
38.60499999996136
 20
0.6806356901425255
 30
0.0
 11
40.02599999995994
 21
2.101635690141098
 31
0.0
  0
LINE
  5
22051
  8
0
  6
CONTINUOUS
 10
38.60499999996136
 20
0.0071164810623383
 30
0.0
 11
40.02599999995994
 21
1.428116481060911
 31
0.0
  0
LINE
  5
22052
  8
0
  6
CONTINUOUS
 10
40.9183221720374
 20
4.340996280378933
 30
0.0
 11
41.89134866762525
 21
5.314022775966786
 31
0.0
  0
LINE
  5
22053
  8
0
  6
CONTINUOUS
 10
41.23578448461758
 20
3.984939383878926
 30
0.0
 11
42.20881098020543
 21
4.957965879466778
 31
0.0
  0
LINE
  5
22054
  8
0
  6
CONTINUOUS
 10
41.55324679719776
 20
3.628882487378919
 30
0.0
 11
42.52627329278561
 21
4.601908982966772
 31
0.0
  0
LINE
  5
22055
  8
0
  6
CONTINUOUS
 10
41.87070910977793
 20
3.272825590878912
 30
0.0
 11
42.84373560536579
 21
4.245852086466765
 31
0.0
  0
LINE
  5
22056
  8
0
  6
CONTINUOUS
 10
43.57899999995641
 20
7.001674108297943
 30
0.0
 11
44.99999999995498
 21
8.422674108296516
 31
0.0
  0
LINE
  5
22057
  8
0
  6
CONTINUOUS
 10
43.57899999995641
 20
6.328154899217758
 30
0.0
 11
44.99999999995498
 21
7.749154899216329
 31
0.0
  0
LINE
  5
22058
  8
0
  6
CONTINUOUS
 10
43.57899999995641
 20
5.654635690137571
 30
0.0
 11
44.99999999995498
 21
7.075635690136142
 31
0.0
  0
LINE
  5
22059
  8
0
  6
CONTINUOUS
 10
43.57899999995641
 20
4.981116481057384
 30
0.0
 11
44.99999999995498
 21
6.402116481055955
 31
0.0
  0
LINE
  5
2205A
  8
0
  6
CONTINUOUS
 10
39.27140272797921
 20
-0.0000000000000009
 30
0.0
 11
40.02599999995994
 21
0.7545972719807246
 31
0.0
  0
LINE
  5
2205B
  8
0
  6
CONTINUOUS
 10
39.9449219370594
 20
-0.0000000000000009
 30
0.0
 11
40.02599999995994
 21
0.0810780629005379
 31
0.0
  0
LINE
  5
2205C
  8
0
  6
CONTINUOUS
 10
42.18817142235812
 20
2.916768694378905
 30
0.0
 11
43.16119791794597
 21
3.889795189966758
 31
0.0
  0
LINE
  5
2205D
  8
0
  6
CONTINUOUS
 10
42.50563373493829
 20
2.560711797878898
 30
0.0
 11
43.47866023052615
 21
3.533738293466751
 31
0.0
  0
LINE
  5
2205E
  8
0
  6
CONTINUOUS
 10
43.57899999995641
 20
4.307597271977198
 30
0.0
 11
44.99999999995498
 21
5.728597271975769
 31
0.0
  0
LINE
  5
2205F
  8
0
  6
CONTINUOUS
 10
43.57899999995641
 20
3.634078062897011
 30
0.0
 11
44.99999999995498
 21
5.055078062895582
 31
0.0
  0
LINE
  5
22060
  8
0
  6
CONTINUOUS
 10
42.82309604751848
 20
2.204654901378891
 30
0.0
 11
44.99999999995498
 21
4.381558853815395
 31
0.0
  0
LINE
  5
22061
  8
0
  6
CONTINUOUS
 10
43.14055836009865
 20
1.848598004878885
 30
0.0
 11
44.99999999995498
 21
3.70803964473521
 31
0.0
  0
LINE
  5
22062
  8
0
  6
CONTINUOUS
 10
43.45802067267883
 20
1.492541108378878
 30
0.0
 11
44.99999999995498
 21
3.034520435655023
 31
0.0
  0
LINE
  5
22063
  8
0
  6
CONTINUOUS
 10
43.77548298525902
 20
1.136484211878871
 30
0.0
 11
44.99999999995498
 21
2.361001226574837
 31
0.0
  0
LINE
  5
22064
  8
0
  6
CONTINUOUS
 10
44.09294529783919
 20
0.7804273153788639
 30
0.0
 11
44.99999999995498
 21
1.687482017494649
 31
0.0
  0
LINE
  5
22065
  8
0
  6
CONTINUOUS
 10
44.41040761041938
 20
0.4243704188788566
 30
0.0
 11
44.99999999995498
 21
1.013962808414463
 31
0.0
  0
LINE
  5
22066
  8
0
  6
CONTINUOUS
 10
44.72786992299955
 20
0.0683135223788494
 30
0.0
 11
44.99999999995498
 21
0.340443599334276
 31
0.0
  0
LINE
  5
22067
  8
0
  6
CONTINUOUS
 10
39.12223903415696
 20
-0.0000000000000009
 30
0.0
 11
38.60499999996136
 21
0.5172390341955961
 31
0.0
  0
LINE
  5
22068
  8
0
  6
CONTINUOUS
 10
39.79575824323715
 20
-0.0000000000000009
 30
0.0
 11
38.60499999996136
 21
1.190758243275783
 31
0.0
  0
LINE
  5
22069
  8
0
  6
CONTINUOUS
 10
40.02599999995994
 20
0.443277452357397
 30
0.0
 11
38.60499999996136
 21
1.864277452355969
 31
0.0
  0
LINE
  5
2206A
  8
0
  6
CONTINUOUS
 10
40.02599999995994
 20
1.116796661437583
 30
0.0
 11
38.60499999996136
 21
2.537796661436155
 31
0.0
  0
LINE
  5
2206B
  8
0
  6
CONTINUOUS
 10
40.02599999995994
 20
1.79031587051777
 30
0.0
 11
38.60499999996136
 21
3.211315870516341
 31
0.0
  0
LINE
  5
2206C
  8
0
  6
CONTINUOUS
 10
40.02599999995994
 20
2.463835079597956
 30
0.0
 11
38.60499999996136
 21
3.884835079596527
 31
0.0
  0
LINE
  5
2206D
  8
0
  6
CONTINUOUS
 10
40.02599999995994
 20
3.137354288678143
 30
0.0
 11
38.60499999996136
 21
4.558354288676714
 31
0.0
  0
LINE
  5
2206E
  8
0
  6
CONTINUOUS
 10
40.02599999995994
 20
3.810873497758329
 30
0.0
 11
38.60499999996136
 21
5.2318734977569
 31
0.0
  0
LINE
  5
2206F
  8
0
  6
CONTINUOUS
 10
40.02599999995994
 20
4.484392706838515
 30
0.0
 11
38.60499999996136
 21
5.905392706837086
 31
0.0
  0
LINE
  5
22070
  8
0
  6
CONTINUOUS
 10
44.99999999995498
 20
0.183911915923658
 30
0.0
 11
41.53858364506288
 21
3.64532827081576
 31
0.0
  0
LINE
  5
22071
  8
0
  6
CONTINUOUS
 10
40.02599999995994
 20
5.157911915918703
 30
0.0
 11
38.60499999996136
 21
6.578911915917274
 31
0.0
  0
LINE
  5
22072
  8
0
  6
CONTINUOUS
 10
44.99999999995498
 20
0.8574311250038447
 30
0.0
 11
38.60499999996136
 21
7.25243112499746
 31
0.0
  0
LINE
  5
22073
  8
0
  6
CONTINUOUS
 10
44.99999999995498
 20
1.530950334084031
 30
0.0
 11
38.60499999996136
 21
7.925950334077647
 31
0.0
  0
LINE
  5
22074
  8
0
  6
CONTINUOUS
 10
44.99999999995498
 20
2.204469543164218
 30
0.0
 11
43.57899999995641
 21
3.625469543162789
 31
0.0
  0
LINE
  5
22075
  8
0
  6
CONTINUOUS
 10
41.89876730984767
 20
5.305702233271528
 30
0.0
 11
38.60499999996136
 21
8.599469543157834
 31
0.0
  0
LINE
  5
22076
  8
0
  6
CONTINUOUS
 10
44.99999999995498
 20
2.877988752244405
 30
0.0
 11
43.57899999995641
 21
4.298988752242975
 31
0.0
  0
LINE
  5
22077
  8
0
  6
CONTINUOUS
 10
44.99999999995498
 20
3.551507961324591
 30
0.0
 11
43.57899999995641
 21
4.972507961323163
 31
0.0
  0
LINE
  5
22078
  8
0
  6
CONTINUOUS
 10
44.99999999995498
 20
4.225027170404777
 30
0.0
 11
43.57899999995641
 21
5.646027170403348
 31
0.0
  0
LINE
  5
22079
  8
0
  6
CONTINUOUS
 10
44.99999999995498
 20
4.898546379484964
 30
0.0
 11
43.57899999995641
 21
6.319546379483535
 31
0.0
  0
LINE
  5
2207A
  8
0
  6
CONTINUOUS
 10
44.99999999995498
 20
5.572065588565151
 30
0.0
 11
43.57899999995641
 21
6.993065588563722
 31
0.0
  0
LINE
  5
2207B
  8
0
  6
CONTINUOUS
 10
44.99999999995498
 20
6.245584797645336
 30
0.0
 11
43.57899999995641
 21
7.666584797643908
 31
0.0
  0
LINE
  5
2207C
  8
0
  6
CONTINUOUS
 10
44.99999999995498
 20
6.919104006725522
 30
0.0
 11
43.57899999995641
 21
8.340104006724093
 31
0.0
  0
LINE
  5
2207D
  8
0
  6
CONTINUOUS
 10
44.99999999995498
 20
7.592623215805709
 30
0.0
 11
43.82952321576943
 21
8.763099999991255
 31
0.0
  0
LINE
  5
2207E
  8
0
  6
CONTINUOUS
 10
44.99999999995498
 20
8.266142424885896
 30
0.0
 11
44.50304242484962
 21
8.763099999991255
 31
0.0
  0
ENDBLK
  5
220A8
  8
0
  0
BLOCK
  8
0
  2
*X307
 70
     1
 10
0.0
 20
0.0
 30
0.0
  3
*X307
  1

  0
LINE
  5
22080
  8
0
  6
CONTINUOUS
 10
0.0
 20
8.548461116714023
 30
0.0
 11
0.2146388832772324
 21
8.763099999991255
 31
0.0
  0
LINE
  5
22081
  8
0
  6
CONTINUOUS
 10
-0.0000000000000002
 20
7.874941907633837
 30
0.0
 11
0.8881580923574184
 21
8.763099999991255
 31
0.0
  0
LINE
  5
22082
  8
0
  6
CONTINUOUS
 10
0.0
 20
7.20142269855365
 30
0.0
 11
1.420999999998572
 21
8.622422698552223
 31
0.0
  0
LINE
  5
22083
  8
0
  6
CONTINUOUS
 10
-0.0000000000000001
 20
6.527903489473465
 30
0.0
 11
1.420999999998571
 21
7.948903489472036
 31
0.0
  0
LINE
  5
22084
  8
0
  6
CONTINUOUS
 10
-0.0000000000000002
 20
5.854384280393278
 30
0.0
 11
1.420999999998571
 21
7.275384280391849
 31
0.0
  0
LINE
  5
22085
  8
0
  6
CONTINUOUS
 10
-0.0000000000000002
 20
5.180865071313091
 30
0.0
 11
1.420999999998571
 21
6.601865071311663
 31
0.0
  0
LINE
  5
22086
  8
0
  6
CONTINUOUS
 10
0.0
 20
4.507345862232905
 30
0.0
 11
1.420999999998571
 21
5.928345862231477
 31
0.0
  0
LINE
  5
22087
  8
0
  6
CONTINUOUS
 10
-0.0000000000000003
 20
3.833826653152718
 30
0.0
 11
1.420999999998571
 21
5.25482665315129
 31
0.0
  0
LINE
  5
22088
  8
0
  6
CONTINUOUS
 10
-0.0000000000000002
 20
3.160307444072532
 30
0.0
 11
1.420999999998571
 21
4.581307444071103
 31
0.0
  0
LINE
  5
22089
  8
0
  6
CONTINUOUS
 10
-0.0000000000000001
 20
2.486788234992345
 30
0.0
 11
1.420999999998571
 21
3.907788234990917
 31
0.0
  0
LINE
  5
2208A
  8
0
  6
CONTINUOUS
 10
-0.0000000000000006
 20
1.813269025912159
 30
0.0
 11
1.420999999998571
 21
3.234269025910731
 31
0.0
  0
LINE
  5
2208B
  8
0
  6
CONTINUOUS
 10
0.0
 20
1.139749816831973
 30
0.0
 11
1.420999999998571
 21
2.560749816830544
 31
0.0
  0
LINE
  5
2208C
  8
0
  6
CONTINUOUS
 10
0.0000000000000002
 20
0.466230607751787
 30
0.0
 11
1.420999999998571
 21
1.887230607750358
 31
0.0
  0
LINE
  5
2208D
  8
0
  6
CONTINUOUS
 10
0.2072886013284003
 20
-0.0000000000000009
 30
0.0
 11
1.420999999998571
 21
1.213711398670171
 31
0.0
  0
LINE
  5
2208E
  8
0
  6
CONTINUOUS
 10
0.8808078104085864
 20
-0.0000000000000009
 30
0.0
 11
1.420999999998571
 21
0.5401921895899839
 31
0.0
  0
LINE
  5
2208F
  8
0
  6
CONTINUOUS
 10
0.0581249075061505
 20
-0.0000000000000009
 30
0.0
 11
-0.0000000000000002
 21
0.0581249075061496
 31
0.0
  0
LINE
  5
22090
  8
0
  6
CONTINUOUS
 10
0.7316441165863372
 20
-0.0000000000000009
 30
0.0
 11
-0.0000000000000002
 21
0.7316441165863363
 31
0.0
  0
LINE
  5
22091
  8
0
  6
CONTINUOUS
 10
1.405163325666523
 20
-0.0000000000000009
 30
0.0
 11
-0.0000000000000002
 21
1.405163325666523
 31
0.0
  0
LINE
  5
22092
  8
0
  6
CONTINUOUS
 10
1.420999999998572
 20
0.6576825347481381
 30
0.0
 11
-0.0000000000000001
 21
2.07868253474671
 31
0.0
  0
LINE
  5
22093
  8
0
  6
CONTINUOUS
 10
1.420999999998571
 20
1.331201743828324
 30
0.0
 11
-0.0000000000000001
 21
2.752201743826896
 31
0.0
  0
LINE
  5
22094
  8
0
  6
CONTINUOUS
 10
1.420999999998571
 20
2.004720952908511
 30
0.0
 11
-0.0000000000000002
 21
3.425720952907082
 31
0.0
  0
LINE
  5
22095
  8
0
  6
CONTINUOUS
 10
1.420999999998571
 20
2.678240161988697
 30
0.0
 11
-0.0000000000000001
 21
4.099240161987269
 31
0.0
  0
LINE
  5
22096
  8
0
  6
CONTINUOUS
 10
1.420999999998572
 20
3.351759371068884
 30
0.0
 11
0.0
 21
4.772759371067455
 31
0.0
  0
LINE
  5
22097
  8
0
  6
CONTINUOUS
 10
1.420999999998571
 20
4.02527858014907
 30
0.0
 11
-0.0000000000000003
 21
5.446278580147642
 31
0.0
  0
LINE
  5
22098
  8
0
  6
CONTINUOUS
 10
1.420999999998571
 20
4.698797789229257
 30
0.0
 11
0.0
 21
6.119797789227828
 31
0.0
  0
LINE
  5
22099
  8
0
  6
CONTINUOUS
 10
1.420999999998571
 20
5.372316998309444
 30
0.0
 11
-0.0000000000000001
 21
6.793316998308015
 31
0.0
  0
LINE
  5
2209A
  8
0
  6
CONTINUOUS
 10
1.420999999998572
 20
6.045836207389629
 30
0.0
 11
-0.0000000000000004
 21
7.466836207388202
 31
0.0
  0
LINE
  5
2209B
  8
0
  6
CONTINUOUS
 10
1.420999999998571
 20
6.719355416469816
 30
0.0
 11
0.0
 21
8.140355416468388
 31
0.0
  0
LINE
  5
2209C
  8
0
  6
CONTINUOUS
 10
1.420999999998571
 20
7.392874625550003
 30
0.0
 11
0.0507746255573185
 21
8.763099999991255
 31
0.0
  0
LINE
  5
2209D
  8
0
  6
CONTINUOUS
 10
1.420999999998571
 20
8.06639383463019
 30
0.0
 11
0.7242938346375052
 21
8.763099999991255
 31
0.0
  0
LINE
  5
2209E
  8
0
  6
CONTINUOUS
 10
1.420999999998571
 20
8.739913043710375
 30
0.0
 11
1.397813043717691
 21
8.763099999991255
 31
0.0
  0
ENDBLK
  5
220AA
  8
0
  0
ENDSEC
  0
SECTION
  2
ENTITIES
  0
LINE
  5
1D8CA
  8
01
 10
803.016241615365
 20
-630.6713303543701
 30
0.0
 11
803.016241615365
 21
-652.8213303543715
 31
0.0
  0
LINE
  5
1D90A
  8
01
 10
803.016241615365
 20
-633.1713303543708
 30
0.0
 11
803.016241615365
 21
-650.8213303543702
 31
0.0
  0
LINE
  5
1DBA4
  8
01
 10
815.516241615365
 20
-618.5931567659845
 30
0.0
 11
815.516241615365
 21
-693.0495039365483
 31
0.0
  0
LINE
  5
1DBA5
  8
01
 10
824.516241615365
 20
-618.5931567659845
 30
0.0
 11
824.516241615365
 21
-693.0495039365483
 31
0.0
  0
LINE
  5
1DBA6
  8
01
 10
803.016241615365
 20
-618.5931567659845
 30
0.0
 11
803.016241615365
 21
-693.0495039365483
 31
0.0
  0
LINE
  5
1E7B5
  8
01
 10
612.5162414653653
 20
-539.3213303512664
 30
0.0
 11
611.5162417653653
 21
-538.3213303512664
 31
0.0
  0
LINE
  5
1E7B6
  8
01
 10
615.8162416153652
 20
-539.3213303512664
 30
0.0
 11
615.8162416153652
 21
-538.3213303512664
 31
0.0
  0
LINE
  5
1E7B7
  8
01
 10
615.8162416153652
 20
-538.3213303512664
 30
0.0
 11
608.2162416153653
 21
-538.3213303512664
 31
0.0
  0
LINE
  5
1E7B8
  8
01
 10
615.8162416153652
 20
-539.3213303512664
 30
0.0
 11
608.2162416153653
 21
-539.3213303512664
 31
0.0
  0
LINE
  5
1E7B9
  8
01
 10
608.2162416153653
 20
-539.3213303512664
 30
0.0
 11
608.2162416153653
 21
-538.3213303512664
 31
0.0
  0
LINE
  5
1E9CD
  8
01
 10
799.516241615365
 20
-656.3213302043707
 30
0.0
 11
800.516241615365
 21
-655.3213305043707
 31
0.0
  0
LINE
  5
1E9CE
  8
01
 10
799.516241615365
 20
-659.6213303543707
 30
0.0
 11
800.516241615365
 21
-659.6213303543707
 31
0.0
  0
LINE
  5
1E9CF
  8
01
 10
800.516241615365
 20
-659.6213303543707
 30
0.0
 11
800.516241615365
 21
-652.0213303543708
 31
0.0
  0
LINE
  5
1E9D0
  8
01
 10
799.516241615365
 20
-659.6213303543707
 30
0.0
 11
799.516241615365
 21
-652.0213303543708
 31
0.0
  0
LINE
  5
1E9D1
  8
01
 10
799.516241615365
 20
-652.0213303543708
 30
0.0
 11
800.516241615365
 21
-652.0213303543708
 31
0.0
  0
TEXT
  5
1F822
  8
1TEXT
 10
699.5507212055763
 20
-591.0362348118605
 30
0.0
 40
4.0
  1
表面処理
 72
     1
 11
708.817387872243
 21
-591.0362348118605
 31
0.0
  0
LINE
  5
1F823
  8
1DIM
 10
691.4173878722429
 20
-585.5362348118605
 30
0.0
 11
761.4173878722429
 21
-585.5362348118605
 31
0.0
  0
LINE
  5
1F824
  8
1DIM
 10
691.4173878722429
 20
-599.5362348118605
 30
0.0
 11
761.4173878722429
 21
-599.5362348118605
 31
0.0
  0
LINE
  5
1F825
  8
1DIM
 10
691.4173878722429
 20
-592.5362348118605
 30
0.0
 11
761.4173878722429
 21
-592.5362348118605
 31
0.0
  0
LINE
  5
1F826
  8
1DIM
 10
726.4173878722429
 20
-585.5362348118605
 30
0.0
 11
726.4173878722422
 21
-606.5362348118605
 31
0.0
  0
TEXT
  5
1F827
  8
1TEXT
 10
736.9507212055763
 20
-591.0362348118605
 30
0.0
 40
4.0
  1
コード
 72
     1
 11
743.817387872243
 21
-591.0362348118605
 31
0.0
  0
LINE
  5
1F828
  8
1DIM
 10
691.4173878722429
 20
-606.5362348118605
 30
0.0
 11
691.4173878722429
 21
-585.5362348118605
 31
0.0
  0
LINE
  5
1F829
  8
1DIM
 10
761.4173878722426
 20
-606.5362348118605
 30
0.0
 11
761.4173878722429
 21
-585.5362348118605
 31
0.0
  0
TEXT
  5
1F82A
  8
1TEXT
 10
691.4173878722429
 20
-580.5362348118605
 30
0.0
 40
8.0
  1
AC-896-X-600
  0
TEXT
  5
1F82B
  8
1TEXT
 10
699.8840545389097
 20
-597.8715234713848
 30
0.0
 40
4.0
  1
ホワイト
 72
     1
 11
708.817387872243
 21
-597.8715234713848
 31
0.0
  0
TEXT
  5
1F82C
  8
1TEXT
 10
727.950165650021
 20
-598.2505917955098
 30
0.0
 40
4.0
  1
AC-896-072-600
 41
0.6
 72
     1
 11
743.8173878722432
 21
-598.2505917955098
 31
0.0
  0
LINE
  5
1F82D
  8
1DIM
 10
691.4173878722429
 20
-606.5362348118605
 30
0.0
 11
761.4173878722429
 21
-606.5362348118605
 31
0.0
  0
TEXT
  5
1F82E
  8
1TEXT
 10
692.5507212055763
 20
-604.8715234713848
 30
0.0
 40
4.0
  1
マットブラック
 72
     1
 11
708.817387872243
 21
-604.8715234713848
 31
0.0
  0
TEXT
  5
1F82F
  8
1TEXT
 10
728.150165650021
 20
-605.2505917955098
 30
0.0
 40
4.0
  1
AC-896-003-600
 41
0.6
 72
     1
 11
743.8173878722432
 21
-605.2505917955098
 31
0.0
  0
LINE
  5
207DE
  8
1CENTER
 10
588.6412416153653
 20
-655.8213303543707
 30
0.0
 11
595.3912416153653
 21
-655.8213303543707
 31
0.0
  0
LINE
  5
207DF
  8
1CENTER
 10
592.0162416153653
 20
-659.1963303543707
 30
0.0
 11
592.0162416153653
 21
-652.4463303543707
 31
0.0
  0
LINE
  5
207E0
  8
1CENTER
 10
608.6412416153653
 20
-655.8213303543707
 30
0.0
 11
615.3912416153653
 21
-655.8213303543707
 31
0.0
  0
LINE
  5
207E1
  8
1CENTER
 10
612.0162416153653
 20
-659.1963303543707
 30
0.0
 11
612.0162416153653
 21
-652.4463303543707
 31
0.0
  0
LINE
  5
207FB
  8
01
  6
CONTINUOUS
 10
642.7992829262632
 20
-646.3213303543706
 30
0.0
 11
618.0162416153653
 21
-646.3213303543706
 31
0.0
  0
LINE
  5
207FE
  8
1CENTER
 10
604.4912416153654
 20
-550.8213303512663
 30
0.0
 11
599.5412416153654
 21
-550.8213303512663
 31
0.0
  0
LINE
  5
207FF
  8
1CENTER
 10
602.0162416153655
 20
-553.2963303512663
 30
0.0
 11
602.0162416153655
 21
-548.3463303512663
 31
0.0
  0
LINE
  5
20847
  8
01
  6
CONTINUOUS
 10
642.7229974883167
 20
-646.4340117611628
 30
0.0
 11
623.008762988409
 21
-666.1287862164103
 31
0.0
  0
LINE
  5
20848
  8
01
  6
CONTINUOUS
 10
643.0162416153653
 20
-645.728314467474
 30
0.0
 11
643.0162416153653
 21
-636.8213303543706
 31
0.0
  0
ARC
  5
20849
  8
01
  6
CONTINUOUS
 10
642.0162416153653
 20
-636.8213303543706
 30
0.0
 40
1.0
 50
0.0
 51
90.0
  0
LINE
  5
2084A
  8
01
  6
CONTINUOUS
 10
642.0162416153653
 20
-635.8213303543706
 30
0.0
 11
618.3162416153655
 21
-635.8213303543706
 31
0.0
  0
ARC
  5
2084E
  8
01
  6
CONTINUOUS
 10
618.3162416153655
 20
-636.1213303543707
 30
0.0
 40
0.3000000000000256
 50
90.0
 51
180.0
  0
LINE
  5
2084F
  8
01
  6
CONTINUOUS
 10
618.0162416153653
 20
-636.1213303543707
 30
0.0
 11
618.0162416153653
 21
-665.9842553205327
 31
0.0
  0
ARC
  5
2085A
  8
01
  6
CONTINUOUS
 10
642.0162416153653
 20
-645.728314467474
 30
0.0
 40
1.0
 50
314.4335249061301
 51
0.0
  0
ARC
  5
2085E
  8
01
  6
CONTINUOUS
 10
618.3162416153655
 20
-666.1213303543707
 30
0.0
 40
0.3000000000000256
 50
180.0
 51
269.9999999999566
  0
POLYLINE
  5
2085F
  8
01
  6
CONTINUOUS
 10
0.0
 20
0.0
 30
0.0
 66
     1
 70
     8
  0
VERTEX
  5
21B83
  8
01
  6
CONTINUOUS
 10
618.0162416153653
 20
-665.9842553205327
 30
0.0
 70
    32
  0
VERTEX
  5
21B84
  8
01
  6
CONTINUOUS
 10
618.0162416153653
 20
-665.9951751410381
 30
0.0
 70
    32
  0
VERTEX
  5
21B85
  8
01
  6
CONTINUOUS
 10
618.0162416153653
 20
-666.0056641123006
 30
0.0
 70
    32
  0
VERTEX
  5
21B86
  8
01
  6
CONTINUOUS
 10
618.0162416153653
 20
-666.0157192272715
 30
0.0
 70
    32
  0
VERTEX
  5
21B87
  8
01
  6
CONTINUOUS
 10
618.0162416153653
 20
-666.0253374789013
 30
0.0
 70
    32
  0
VERTEX
  5
21B88
  8
01
  6
CONTINUOUS
 10
618.0162416153653
 20
-666.0345158601414
 30
0.0
 70
    32
  0
VERTEX
  5
21B89
  8
01
  6
CONTINUOUS
 10
618.0162416153653
 20
-666.0432513639423
 30
0.0
 70
    32
  0
VERTEX
  5
21B8A
  8
01
  6
CONTINUOUS
 10
618.0162416153653
 20
-666.0515409832553
 30
0.0
 70
    32
  0
VERTEX
  5
21B8B
  8
01
  6
CONTINUOUS
 10
618.0162416153653
 20
-666.0593817110313
 30
0.0
 70
    32
  0
VERTEX
  5
21B8C
  8
01
  6
CONTINUOUS
 10
618.0162416153653
 20
-666.066770540221
 30
0.0
 70
    32
  0
VERTEX
  5
21B8D
  8
01
  6
CONTINUOUS
 10
618.0162416153653
 20
-666.0737044637756
 30
0.0
 70
    32
  0
VERTEX
  5
21B8E
  8
01
  6
CONTINUOUS
 10
618.0162416153653
 20
-666.0801804746458
 30
0.0
 70
    32
  0
VERTEX
  5
21B8F
  8
01
  6
CONTINUOUS
 10
618.0162416153653
 20
-666.0861955657829
 30
0.0
 70
    32
  0
VERTEX
  5
21B90
  8
01
  6
CONTINUOUS
 10
618.0162416153653
 20
-666.0917467301374
 30
0.0
 70
    32
  0
VERTEX
  5
21B91
  8
01
  6
CONTINUOUS
 10
618.0162416153653
 20
-666.0968309606606
 30
0.0
 70
    32
  0
VERTEX
  5
21B92
  8
01
  6
CONTINUOUS
 10
618.0162416153653
 20
-666.1014452503032
 30
0.0
 70
    32
  0
VERTEX
  5
21B93
  8
01
  6
CONTINUOUS
 10
618.0162416153653
 20
-666.1055865920163
 30
0.0
 70
    32
  0
VERTEX
  5
21B94
  8
01
  6
CONTINUOUS
 10
618.0162416153653
 20
-666.1092519787509
 30
0.0
 70
    32
  0
VERTEX
  5
21B95
  8
01
  6
CONTINUOUS
 10
618.0162416153653
 20
-666.1124384034576
 30
0.0
 70
    32
  0
VERTEX
  5
21B96
  8
01
  6
CONTINUOUS
 10
618.0162416153653
 20
-666.1151428590878
 30
0.0
 70
    32
  0
VERTEX
  5
21B97
  8
01
  6
CONTINUOUS
 10
618.0162416153653
 20
-666.1173623385921
 30
0.0
 70
    32
  0
VERTEX
  5
21B98
  8
01
  6
CONTINUOUS
 10
618.0162416153653
 20
-666.1190938349216
 30
0.0
 70
    32
  0
VERTEX
  5
21B99
  8
01
  6
CONTINUOUS
 10
618.0162416153653
 20
-666.1203343410273
 30
0.0
 70
    32
  0
VERTEX
  5
21B9A
  8
01
  6
CONTINUOUS
 10
618.0162416153653
 20
-666.12108084986
 30
0.0
 70
    32
  0
VERTEX
  5
21B9B
  8
01
  6
CONTINUOUS
 10
618.0162416153653
 20
-666.1213303543707
 30
0.0
 70
    32
  0
SEQEND
  5
220AB
  8
01
  6
CONTINUOUS
  0
LINE
  5
20861
  8
1PHANTOM
 10
613.0159610655296
 20
-653.5710498045349
 30
0.0
 11
611.0165221652012
 21
-653.5710498045349
 31
0.0
  0
ARC
  5
20862
  8
1PHANTOM
 10
613.0159610655296
 20
-655.8213303543707
 30
0.0
 40
2.250280549835765
 50
270.0
 51
90.0
  0
LINE
  5
20863
  8
1PHANTOM
 10
611.0165221652012
 20
-658.0716109042064
 30
0.0
 11
613.0159610655296
 21
-658.0716109042064
 31
0.0
  0
ARC
  5
20864
  8
1PHANTOM
 10
611.0165221652012
 20
-655.8213303543707
 30
0.0
 40
2.250280549835736
 50
90.0
 51
269.9999999999942
  0
LINE
  5
20865
  8
1PHANTOM
 10
589.7662416153653
 20
-654.8213303543707
 30
0.0
 11
589.7662416153653
 21
-656.8213303543707
 31
0.0
  0
ARC
  5
20866
  8
1PHANTOM
 10
592.0162416153653
 20
-654.8213303543707
 30
0.0
 40
2.25
 50
0.0
 51
180.0
  0
LINE
  5
20867
  8
1PHANTOM
 10
594.2662416153653
 20
-656.8213303543707
 30
0.0
 11
594.2662416153653
 21
-654.8213303543707
 31
0.0
  0
ARC
  5
20868
  8
1PHANTOM
 10
592.0162416153653
 20
-656.8213303543707
 30
0.0
 40
2.25
 50
180.0
 51
0.0
  0
POLYLINE
  5
2086D
  8
01
  6
CONTINUOUS
 10
0.0
 20
0.0
 30
0.0
 66
     1
 70
     8
  0
VERTEX
  5
21B9C
  8
01
  6
CONTINUOUS
 10
638.693568149022
 20
-535.8213303512664
 30
0.0
 70
    32
  0
VERTEX
  5
21B9D
  8
01
  6
CONTINUOUS
 10
638.6884934733625
 20
-535.8213303512664
 30
0.0
 70
    32
  0
VERTEX
  5
21B9E
  8
01
  6
CONTINUOUS
 10
638.6829214891591
 20
-535.8213303512664
 30
0.0
 70
    32
  0
VERTEX
  5
21B9F
  8
01
  6
CONTINUOUS
 10
638.6768613408041
 20
-535.8213303512664
 30
0.0
 70
    32
  0
VERTEX
  5
21BA0
  8
01
  6
CONTINUOUS
 10
638.67032217269
 20
-535.8213303512664
 30
0.0
 70
    32
  0
VERTEX
  5
21BA1
  8
01
  6
CONTINUOUS
 10
638.6633131292093
 20
-535.8213303512664
 30
0.0
 70
    32
  0
VERTEX
  5
21BA2
  8
01
  6
CONTINUOUS
 10
638.6558433547546
 20
-535.8213303512664
 30
0.0
 70
    32
  0
VERTEX
  5
21BA3
  8
01
  6
CONTINUOUS
 10
638.6479219937181
 20
-535.8213303512664
 30
0.0
 70
    32
  0
VERTEX
  5
21BA4
  8
01
  6
CONTINUOUS
 10
638.6395581904926
 20
-535.8213303512664
 30
0.0
 70
    32
  0
VERTEX
  5
21BA5
  8
01
  6
CONTINUOUS
 10
638.6307610894706
 20
-535.8213303512664
 30
0.0
 70
    32
  0
VERTEX
  5
21BA6
  8
01
  6
CONTINUOUS
 10
638.6215398350445
 20
-535.8213303512664
 30
0.0
 70
    32
  0
VERTEX
  5
21BA7
  8
01
  6
CONTINUOUS
 10
638.6119035716068
 20
-535.8213303512664
 30
0.0
 70
    32
  0
VERTEX
  5
21BA8
  8
01
  6
CONTINUOUS
 10
638.6018614435501
 20
-535.8213303512664
 30
0.0
 70
    32
  0
VERTEX
  5
21BA9
  8
01
  6
CONTINUOUS
 10
638.5914225952669
 20
-535.8213303512664
 30
0.0
 70
    32
  0
VERTEX
  5
21BAA
  8
01
  6
CONTINUOUS
 10
638.5805961711496
 20
-535.8213303512664
 30
0.0
 70
    32
  0
VERTEX
  5
21BAB
  8
01
  6
CONTINUOUS
 10
638.5693913155907
 20
-535.8213303512664
 30
0.0
 70
    32
  0
VERTEX
  5
21BAC
  8
01
  6
CONTINUOUS
 10
638.5578171729827
 20
-535.8213303512664
 30
0.0
 70
    32
  0
VERTEX
  5
21BAD
  8
01
  6
CONTINUOUS
 10
638.5458828877183
 20
-535.8213303512664
 30
0.0
 70
    32
  0
VERTEX
  5
21BAE
  8
01
  6
CONTINUOUS
 10
638.5335976041898
 20
-535.8213303512664
 30
0.0
 70
    32
  0
VERTEX
  5
21BAF
  8
01
  6
CONTINUOUS
 10
638.5209704667898
 20
-535.8213303512664
 30
0.0
 70
    32
  0
VERTEX
  5
21BB0
  8
01
  6
CONTINUOUS
 10
638.5080106199108
 20
-535.8213303512664
 30
0.0
 70
    32
  0
VERTEX
  5
21BB1
  8
01
  6
CONTINUOUS
 10
638.4947272079451
 20
-535.8213303512664
 30
0.0
 70
    32
  0
VERTEX
  5
21BB2
  8
01
  6
CONTINUOUS
 10
638.4811293752856
 20
-535.8213303512664
 30
0.0
 70
    32
  0
VERTEX
  5
21BB3
  8
01
  6
CONTINUOUS
 10
638.4672262663244
 20
-535.8213303512664
 30
0.0
 70
    32
  0
VERTEX
  5
21BB4
  8
01
  6
CONTINUOUS
 10
638.4530270254543
 20
-535.8213303512664
 30
0.0
 70
    32
  0
SEQEND
  5
220AC
  8
01
  6
CONTINUOUS
  0
POLYLINE
  5
2086E
  8
01
  6
CONTINUOUS
 10
0.0
 20
0.0
 30
0.0
 66
     1
 70
     8
  0
VERTEX
  5
21BB5
  8
01
  6
CONTINUOUS
 10
639.1709021844783
 20
-535.8213303512664
 30
0.0
 70
    32
  0
VERTEX
  5
21BB6
  8
01
  6
CONTINUOUS
 10
639.154929147553
 20
-535.8213303512664
 30
0.0
 70
    32
  0
VERTEX
  5
21BB7
  8
01
  6
CONTINUOUS
 10
639.1390086813096
 20
-535.8213303512664
 30
0.0
 70
    32
  0
VERTEX
  5
21BB8
  8
01
  6
CONTINUOUS
 10
639.1231526250206
 20
-535.8213303512664
 30
0.0
 70
    32
  0
VERTEX
  5
21BB9
  8
01
  6
CONTINUOUS
 10
639.1073728179582
 20
-535.8213303512664
 30
0.0
 70
    32
  0
VERTEX
  5
21BBA
  8
01
  6
CONTINUOUS
 10
639.0916810993954
 20
-535.8213303512664
 30
0.0
 70
    32
  0
VERTEX
  5
21BBB
  8
01
  6
CONTINUOUS
 10
639.0760893086042
 20
-535.8213303512664
 30
0.0
 70
    32
  0
VERTEX
  5
21BBC
  8
01
  6
CONTINUOUS
 10
639.0606092848573
 20
-535.8213303512664
 30
0.0
 70
    32
  0
VERTEX
  5
21BBD
  8
01
  6
CONTINUOUS
 10
639.0452528674272
 20
-535.8213303512664
 30
0.0
 70
    32
  0
VERTEX
  5
21BBE
  8
01
  6
CONTINUOUS
 10
639.0300318955864
 20
-535.8213303512664
 30
0.0
 70
    32
  0
VERTEX
  5
21BBF
  8
01
  6
CONTINUOUS
 10
639.0149582086073
 20
-535.8213303512664
 30
0.0
 70
    32
  0
VERTEX
  5
21BC0
  8
01
  6
CONTINUOUS
 10
639.0000436457624
 20
-535.8213303512664
 30
0.0
 70
    32
  0
VERTEX
  5
21BC1
  8
01
  6
CONTINUOUS
 10
638.985300046324
 20
-535.8213303512664
 30
0.0
 70
    32
  0
VERTEX
  5
21BC2
  8
01
  6
CONTINUOUS
 10
638.970739249565
 20
-535.8213303512664
 30
0.0
 70
    32
  0
VERTEX
  5
21BC3
  8
01
  6
CONTINUOUS
 10
638.9563730947576
 20
-535.8213303512664
 30
0.0
 70
    32
  0
VERTEX
  5
21BC4
  8
01
  6
CONTINUOUS
 10
638.9422134211744
 20
-535.8213303512664
 30
0.0
 70
    32
  0
VERTEX
  5
21BC5
  8
01
  6
CONTINUOUS
 10
638.9282720680878
 20
-535.8213303512664
 30
0.0
 70
    32
  0
VERTEX
  5
21BC6
  8
01
  6
CONTINUOUS
 10
638.9145608747704
 20
-535.8213303512664
 30
0.0
 70
    32
  0
VERTEX
  5
21BC7
  8
01
  6
CONTINUOUS
 10
638.9010916804945
 20
-535.8213303512664
 30
0.0
 70
    32
  0
VERTEX
  5
21BC8
  8
01
  6
CONTINUOUS
 10
638.8878763245325
 20
-535.8213303512664
 30
0.0
 70
    32
  0
VERTEX
  5
21BC9
  8
01
  6
CONTINUOUS
 10
638.8749266461573
 20
-535.8213303512664
 30
0.0
 70
    32
  0
VERTEX
  5
21BCA
  8
01
  6
CONTINUOUS
 10
638.862274364783
 20
-535.8213303512664
 30
0.0
 70
    32
  0
VERTEX
  5
21BCB
  8
01
  6
CONTINUOUS
 10
638.8499489146876
 20
-535.8213303512664
 30
0.0
 70
    32
  0
VERTEX
  5
21BCC
  8
01
  6
CONTINUOUS
 10
638.8379587074389
 20
-535.8213303512664
 30
0.0
 70
    32
  0
VERTEX
  5
21BCD
  8
01
  6
CONTINUOUS
 10
638.826312154605
 20
-535.8213303512664
 30
0.0
 70
    32
  0
VERTEX
  5
21BCE
  8
01
  6
CONTINUOUS
 10
638.8150176677535
 20
-535.8213303512664
 30
0.0
 70
    32
  0
VERTEX
  5
21BCF
  8
01
  6
CONTINUOUS
 10
638.8040836584526
 20
-535.8213303512664
 30
0.0
 70
    32
  0
VERTEX
  5
21BD0
  8
01
  6
CONTINUOUS
 10
638.7935185382696
 20
-535.8213303512664
 30
0.0
 70
    32
  0
VERTEX
  5
21BD1
  8
01
  6
CONTINUOUS
 10
638.7833307187727
 20
-535.8213303512664
 30
0.0
 70
    32
  0
VERTEX
  5
21BD2
  8
01
  6
CONTINUOUS
 10
638.7735286115299
 20
-535.8213303512664
 30
0.0
 70
    32
  0
VERTEX
  5
21BD3
  8
01
  6
CONTINUOUS
 10
638.7641206281087
 20
-535.8213303512664
 30
0.0
 70
    32
  0
VERTEX
  5
21BD4
  8
01
  6
CONTINUOUS
 10
638.755115180077
 20
-535.8213303512664
 30
0.0
 70
    32
  0
VERTEX
  5
21BD5
  8
01
  6
CONTINUOUS
 10
638.7465206790031
 20
-535.8213303512664
 30
0.0
 70
    32
  0
VERTEX
  5
21BD6
  8
01
  6
CONTINUOUS
 10
638.7383455364543
 20
-535.8213303512664
 30
0.0
 70
    32
  0
VERTEX
  5
21BD7
  8
01
  6
CONTINUOUS
 10
638.7305981639987
 20
-535.8213303512664
 30
0.0
 70
    32
  0
VERTEX
  5
21BD8
  8
01
  6
CONTINUOUS
 10
638.7232869732042
 20
-535.8213303512664
 30
0.0
 70
    32
  0
VERTEX
  5
21BD9
  8
01
  6
CONTINUOUS
 10
638.7164203756386
 20
-535.8213303512664
 30
0.0
 70
    32
  0
VERTEX
  5
21BDA
  8
01
  6
CONTINUOUS
 10
638.7100067828696
 20
-535.8213303512664
 30
0.0
 70
    32
  0
VERTEX
  5
21BDB
  8
01
  6
CONTINUOUS
 10
638.7040546064653
 20
-535.8213303512664
 30
0.0
 70
    32
  0
VERTEX
  5
21BDC
  8
01
  6
CONTINUOUS
 10
638.6985722579934
 20
-535.8213303512664
 30
0.0
 70
    32
  0
VERTEX
  5
21BDD
  8
01
  6
CONTINUOUS
 10
638.693568149022
 20
-535.8213303512664
 30
0.0
 70
    32
  0
SEQEND
  5
220AD
  8
01
  6
CONTINUOUS
  0
ARC
  5
2086F
  8
01
  6
CONTINUOUS
 10
619.0162416153653
 20
-542.1213303512664
 30
0.0
 40
24.0
 50
270.0
 51
0.0
  0
LINE
  5
20870
  8
01
  6
CONTINUOUS
 10
643.0162416153653
 20
-542.1213303512664
 30
0.0
 11
643.0162416153653
 21
-535.8213303512664
 31
0.0
  0
LINE
  5
20871
  8
01
  6
CONTINUOUS
 10
643.0162416153653
 20
-535.8213303512664
 30
0.0
 11
642.0162416153653
 21
-535.8213303512664
 31
0.0
  0
LINE
  5
20872
  8
01
  6
CONTINUOUS
 10
642.0162416153653
 20
-535.8213303512664
 30
0.0
 11
639.1709021844783
 21
-535.8213303512664
 31
0.0
  0
LINE
  5
20873
  8
01
  6
CONTINUOUS
 10
618.3162416153655
 20
-566.1213303512664
 30
0.0
 11
619.0162416153653
 21
-566.1213303512664
 31
0.0
  0
LINE
  5
20874
  8
01
  6
CONTINUOUS
 10
618.0162416153653
 20
-565.1213303512664
 30
0.0
 11
618.0162416153653
 21
-565.8213303512664
 31
0.0
  0
ARC
  5
20875
  8
01
  6
CONTINUOUS
 10
618.3162416153655
 20
-565.8213303512664
 30
0.0
 40
0.3000000000000114
 50
180.0
 51
270.0
  0
LINE
  5
20876
  8
01
  6
CONTINUOUS
 10
617.3159746765457
 20
-562.8213303512664
 30
0.0
 11
618.0162416153653
 21
-562.8213303512664
 31
0.0
  0
ARC
  5
20877
  8
01
  6
CONTINUOUS
 10
617.3159746765457
 20
-562.5213303512664
 30
0.0
 40
0.3000000000000114
 50
180.0
 51
270.0
  0
ARC
  5
20878
  8
01
  6
CONTINUOUS
 10
617.5159746765455
 20
-562.3213303512664
 30
0.0
 40
0.5
 50
178.1276897137362
 51
180.0
  0
LINE
  5
20879
  8
01
  6
CONTINUOUS
 10
617.0159746765455
 20
-562.3213681323866
 30
0.0
 11
617.0159746765455
 21
-562.5213303512664
 31
0.0
  0
LINE
  5
2087A
  8
01
  6
CONTINUOUS
 10
638.4530263416241
 20
-535.8213303512664
 30
0.0
 11
618.3084676101162
 21
-535.8213303512664
 31
0.0
  0
POLYLINE
  5
2087C
  8
01
  6
CONTINUOUS
 10
0.0
 20
0.0
 30
0.0
 66
     1
 70
     8
  0
VERTEX
  5
21BDE
  8
01
  6
CONTINUOUS
 10
618.3084675719726
 20
-535.8213303512664
 30
0.0
 70
    32
  0
VERTEX
  5
21BDF
  8
01
  6
CONTINUOUS
 10
618.2968039983193
 20
-535.8213303512664
 30
0.0
 70
    32
  0
VERTEX
  5
21BE0
  8
01
  6
CONTINUOUS
 10
618.2851928289025
 20
-535.8213303512664
 30
0.0
 70
    32
  0
VERTEX
  5
21BE1
  8
01
  6
CONTINUOUS
 10
618.2736483552561
 20
-535.8213303512664
 30
0.0
 70
    32
  0
VERTEX
  5
21BE2
  8
01
  6
CONTINUOUS
 10
618.262184868914
 20
-535.8213303512664
 30
0.0
 70
    32
  0
VERTEX
  5
21BE3
  8
01
  6
CONTINUOUS
 10
618.2508166614105
 20
-535.8213303512664
 30
0.0
 70
    32
  0
VERTEX
  5
21BE4
  8
01
  6
CONTINUOUS
 10
618.2395580242792
 20
-535.8213303512664
 30
0.0
 70
    32
  0
VERTEX
  5
21BE5
  8
01
  6
CONTINUOUS
 10
618.228423249054
 20
-535.8213303512664
 30
0.0
 70
    32
  0
VERTEX
  5
21BE6
  8
01
  6
CONTINUOUS
 10
618.2174266272694
 20
-535.8213303512664
 30
0.0
 70
    32
  0
VERTEX
  5
21BE7
  8
01
  6
CONTINUOUS
 10
618.206582450459
 20
-535.8213303512664
 30
0.0
 70
    32
  0
VERTEX
  5
21BE8
  8
01
  6
CONTINUOUS
 10
618.195905010157
 20
-535.8213303512664
 30
0.0
 70
    32
  0
VERTEX
  5
21BE9
  8
01
  6
CONTINUOUS
 10
618.1854085978971
 20
-535.8213303512664
 30
0.0
 70
    32
  0
VERTEX
  5
21BEA
  8
01
  6
CONTINUOUS
 10
618.1751075052134
 20
-535.8213303512664
 30
0.0
 70
    32
  0
VERTEX
  5
21BEB
  8
01
  6
CONTINUOUS
 10
618.16501602364
 20
-535.8213303512664
 30
0.0
 70
    32
  0
VERTEX
  5
21BEC
  8
01
  6
CONTINUOUS
 10
618.1551484447107
 20
-535.8213303512664
 30
0.0
 70
    32
  0
VERTEX
  5
21BED
  8
01
  6
CONTINUOUS
 10
618.1455190599596
 20
-535.8213303512664
 30
0.0
 70
    32
  0
VERTEX
  5
21BEE
  8
01
  6
CONTINUOUS
 10
618.1361421609206
 20
-535.8213303512664
 30
0.0
 70
    32
  0
VERTEX
  5
21BEF
  8
01
  6
CONTINUOUS
 10
618.1270320391277
 20
-535.8213303512664
 30
0.0
 70
    32
  0
VERTEX
  5
21BF0
  8
01
  6
CONTINUOUS
 10
618.1182029861149
 20
-535.8213303512664
 30
0.0
 70
    32
  0
VERTEX
  5
21BF1
  8
01
  6
CONTINUOUS
 10
618.109669293416
 20
-535.8213303512664
 30
0.0
 70
    32
  0
VERTEX
  5
21BF2
  8
01
  6
CONTINUOUS
 10
618.1014452525654
 20
-535.8213303512664
 30
0.0
 70
    32
  0
VERTEX
  5
21BF3
  8
01
  6
CONTINUOUS
 10
618.0935493590943
 20
-535.8213303512664
 30
0.0
 70
    32
  0
VERTEX
  5
21BF4
  8
01
  6
CONTINUOUS
 10
618.0859951399709
 20
-535.8213303512664
 30
0.0
 70
    32
  0
VERTEX
  5
21BF5
  8
01
  6
CONTINUOUS
 10
618.0787894338853
 20
-535.8213303512664
 30
0.0
 70
    32
  0
VERTEX
  5
21BF6
  8
01
  6
CONTINUOUS
 10
618.0719390795266
 20
-535.8213303512664
 30
0.0
 70
    32
  0
VERTEX
  5
21BF7
  8
01
  6
CONTINUOUS
 10
618.0654509155847
 20
-535.8213303512664
 30
0.0
 70
    32
  0
VERTEX
  5
21BF8
  8
01
  6
CONTINUOUS
 10
618.0593317807492
 20
-535.8213303512664
 30
0.0
 70
    32
  0
VERTEX
  5
21BF9
  8
01
  6
CONTINUOUS
 10
618.0535885137093
 20
-535.8213303512664
 30
0.0
 70
    32
  0
VERTEX
  5
21BFA
  8
01
  6
CONTINUOUS
 10
618.0482279531549
 20
-535.8213303512664
 30
0.0
 70
    32
  0
VERTEX
  5
21BFB
  8
01
  6
CONTINUOUS
 10
618.0432569377755
 20
-535.8213303512664
 30
0.0
 70
    32
  0
VERTEX
  5
21BFC
  8
01
  6
CONTINUOUS
 10
618.0386823062604
 20
-535.8213303512664
 30
0.0
 70
    32
  0
VERTEX
  5
21BFD
  8
01
  6
CONTINUOUS
 10
618.0345108972996
 20
-535.8213303512664
 30
0.0
 70
    32
  0
VERTEX
  5
21BFE
  8
01
  6
CONTINUOUS
 10
618.0307495495824
 20
-535.8213303512664
 30
0.0
 70
    32
  0
VERTEX
  5
21BFF
  8
01
  6
CONTINUOUS
 10
618.0274051017985
 20
-535.8213303512664
 30
0.0
 70
    32
  0
VERTEX
  5
21C00
  8
01
  6
CONTINUOUS
 10
618.0244843926373
 20
-535.8213303512664
 30
0.0
 70
    32
  0
VERTEX
  5
21C01
  8
01
  6
CONTINUOUS
 10
618.0219942607886
 20
-535.8213303512664
 30
0.0
 70
    32
  0
VERTEX
  5
21C02
  8
01
  6
CONTINUOUS
 10
618.0199415449418
 20
-535.8213303512664
 30
0.0
 70
    32
  0
VERTEX
  5
21C03
  8
01
  6
CONTINUOUS
 10
618.0183330837865
 20
-535.8213303512664
 30
0.0
 70
    32
  0
VERTEX
  5
21C04
  8
01
  6
CONTINUOUS
 10
618.0171757160123
 20
-535.8213303512664
 30
0.0
 70
    32
  0
VERTEX
  5
21C05
  8
01
  6
CONTINUOUS
 10
618.0164762803088
 20
-535.8213303512664
 30
0.0
 70
    32
  0
VERTEX
  5
21C06
  8
01
  6
CONTINUOUS
 10
618.0162416153655
 20
-535.8213303512664
 30
0.0
 70
    32
  0
SEQEND
  5
220AE
  8
01
  6
CONTINUOUS
  0
POLYLINE
  5
20894
  8
01
 66
     1
 10
0.0
 20
0.0
 30
0.0
  0
VERTEX
  5
21C07
  8
01
 10
638.693568149022
 20
-535.8213303512664
 30
0.0
  0
VERTEX
  5
21C08
  8
01
 10
638.6929320974378
 20
-535.9387493156025
 30
0.0
  0
VERTEX
  5
21C09
  8
01
 10
638.6922924485847
 20
-536.0561681919968
 30
0.0
  0
VERTEX
  5
21C0A
  8
01
 10
638.6916492342696
 20
-536.1735869812297
 30
0.0
  0
VERTEX
  5
21C0B
  8
01
 10
638.6910024862992
 20
-536.2910056840823
 30
0.0
  0
VERTEX
  5
21C0C
  8
01
 10
638.6903522364804
 20
-536.4084243013356
 30
0.0
  0
VERTEX
  5
21C0D
  8
01
 10
638.6896985166202
 20
-536.5258428337698
 30
0.0
  0
VERTEX
  5
21C0E
  8
01
 10
638.6890413585251
 20
-536.6432612821663
 30
0.0
  0
VERTEX
  5
21C0F
  8
01
 10
638.6883807940021
 20
-536.7606796473059
 30
0.0
  0
VERTEX
  5
21C10
  8
01
 10
638.687716854858
 20
-536.8780979299694
 30
0.0
  0
VERTEX
  5
21C11
  8
01
 10
638.6870495728997
 20
-536.9955161309373
 30
0.0
  0
VERTEX
  5
21C12
  8
01
 10
638.6863789799339
 20
-537.1129342509906
 30
0.0
  0
VERTEX
  5
21C13
  8
01
 10
638.6857051077676
 20
-537.2303522909103
 30
0.0
  0
VERTEX
  5
21C14
  8
01
 10
638.6850279882075
 20
-537.3477702514773
 30
0.0
  0
VERTEX
  5
21C15
  8
01
 10
638.6843476530604
 20
-537.4651881334721
 30
0.0
  0
VERTEX
  5
21C16
  8
01
 10
638.6836641341331
 20
-537.5826059376758
 30
0.0
  0
VERTEX
  5
21C17
  8
01
 10
638.6829774632328
 20
-537.700023664869
 30
0.0
  0
VERTEX
  5
21C18
  8
01
 10
638.6822876721658
 20
-537.8174413158328
 30
0.0
  0
VERTEX
  5
21C19
  8
01
 10
638.6815947927392
 20
-537.9348588913479
 30
0.0
  0
VERTEX
  5
21C1A
  8
01
 10
638.6808988567599
 20
-538.052276392195
 30
0.0
  0
VERTEX
  5
21C1B
  8
01
 10
638.6801998960347
 20
-538.1696938191551
 30
0.0
  0
VERTEX
  5
21C1C
  8
01
 10
638.6794979423701
 20
-538.2871111730091
 30
0.0
  0
VERTEX
  5
21C1D
  8
01
 10
638.6787930275733
 20
-538.4045284545376
 30
0.0
  0
VERTEX
  5
21C1E
  8
01
 10
638.6780851834511
 20
-538.5219456645216
 30
0.0
  0
VERTEX
  5
21C1F
  8
01
 10
638.6773744418101
 20
-538.6393628037418
 30
0.0
  0
VERTEX
  5
21C20
  8
01
 10
638.6766608344574
 20
-538.7567798729793
 30
0.0
  0
VERTEX
  5
21C21
  8
01
 10
638.6759443931996
 20
-538.8741968730146
 30
0.0
  0
VERTEX
  5
21C22
  8
01
 10
638.6752251498438
 20
-538.9916138046289
 30
0.0
  0
VERTEX
  5
21C23
  8
01
 10
638.6745031361966
 20
-539.1090306686026
 30
0.0
  0
VERTEX
  5
21C24
  8
01
 10
638.6737783840647
 20
-539.2264474657168
 30
0.0
  0
VERTEX
  5
21C25
  8
01
 10
638.6730509252552
 20
-539.3438641967523
 30
0.0
  0
VERTEX
  5
21C26
  8
01
 10
638.6723207915749
 20
-539.46128086249
 30
0.0
  0
VERTEX
  5
21C27
  8
01
 10
638.6715880148305
 20
-539.5786974637105
 30
0.0
  0
VERTEX
  5
21C28
  8
01
 10
638.6708526130063
 20
-539.6961140008548
 30
0.0
  0
VERTEX
  5
21C29
  8
01
 10
638.6701145958551
 20
-539.8135304741619
 30
0.0
  0
VERTEX
  5
21C2A
  8
01
 10
638.669373982837
 20
-539.9309468841101
 30
0.0
  0
VERTEX
  5
21C2B
  8
01
 10
638.6686307934118
 20
-540.0483632311779
 30
0.0
  0
VERTEX
  5
21C2C
  8
01
 10
638.6678850470398
 20
-540.1657795158436
 30
0.0
  0
VERTEX
  5
21C2D
  8
01
 10
638.667136763181
 20
-540.2831957385854
 30
0.0
  0
VERTEX
  5
21C2E
  8
01
 10
638.6663859612954
 20
-540.4006118998819
 30
0.0
  0
VERTEX
  5
21C2F
  8
01
 10
638.665632660843
 20
-540.5180280002113
 30
0.0
  0
VERTEX
  5
21C30
  8
01
 10
638.6648768812838
 20
-540.635444040052
 30
0.0
  0
VERTEX
  5
21C31
  8
01
 10
638.6641186420778
 20
-540.7528600198824
 30
0.0
  0
VERTEX
  5
21C32
  8
01
 10
638.6633579626853
 20
-540.8702759401808
 30
0.0
  0
VERTEX
  5
21C33
  8
01
 10
638.662594862566
 20
-540.9876918014256
 30
0.0
  0
VERTEX
  5
21C34
  8
01
 10
638.66182936118
 20
-541.1051076040951
 30
0.0
  0
VERTEX
  5
21C35
  8
01
 10
638.6610614779876
 20
-541.2225233486678
 30
0.0
  0
VERTEX
  5
21C36
  8
01
 10
638.6602912324486
 20
-541.3399390356217
 30
0.0
  0
VERTEX
  5
21C37
  8
01
 10
638.6595186440228
 20
-541.4573546654354
 30
0.0
  0
VERTEX
  5
21C38
  8
01
 10
638.6588415957984
 20
-541.5747726092513
 30
0.0
  0
VERTEX
  5
21C39
  8
01
 10
638.6582819335623
 20
-541.6921933935856
 30
0.0
  0
VERTEX
  5
21C3A
  8
01
 10
638.657725620823
 20
-541.809614251977
 30
0.0
  0
VERTEX
  5
21C3B
  8
01
 10
638.6570586210895
 20
-541.9270324179647
 30
0.0
  0
VERTEX
  5
21C3C
  8
01
 10
638.6561668978702
 20
-542.0444451250877
 30
0.0
  0
VERTEX
  5
21C3D
  8
01
 10
638.6549364146738
 20
-542.1618496068846
 30
0.0
  0
VERTEX
  5
21C3E
  8
01
 10
638.6532531350094
 20
-542.2792430968948
 30
0.0
  0
VERTEX
  5
21C3F
  8
01
 10
638.6510030223852
 20
-542.3966228286571
 30
0.0
  0
VERTEX
  5
21C40
  8
01
 10
638.6480794929001
 20
-542.5139862282633
 30
0.0
  0
VERTEX
  5
21C41
  8
01
 10
638.6444522722967
 20
-542.6313325730233
 30
0.0
  0
VERTEX
  5
21C42
  8
01
 10
638.6401217885492
 20
-542.7486618733036
 30
0.0
  0
VERTEX
  5
21C43
  8
01
 10
638.6350884696321
 20
-542.8659741394703
 30
0.0
  0
VERTEX
  5
21C44
  8
01
 10
638.6293527435199
 20
-542.9832693818898
 30
0.0
  0
VERTEX
  5
21C45
  8
01
 10
638.6229150381871
 20
-543.1005476109283
 30
0.0
  0
VERTEX
  5
21C46
  8
01
 10
638.6157757816079
 20
-543.217808836952
 30
0.0
  0
VERTEX
  5
21C47
  8
01
 10
638.607935401757
 20
-543.3350530703273
 30
0.0
  0
VERTEX
  5
21C48
  8
01
 10
638.5993899582147
 20
-543.4523052127018
 30
0.0
  0
VERTEX
  5
21C49
  8
01
 10
638.5901364534078
 20
-543.5695810497239
 30
0.0
  0
VERTEX
  5
21C4A
  8
01
 10
638.5801767295807
 20
-543.6868669177604
 30
0.0
  0
VERTEX
  5
21C4B
  8
01
 10
638.5695126289775
 20
-543.8041491531782
 30
0.0
  0
VERTEX
  5
21C4C
  8
01
 10
638.5581459938425
 20
-543.9214140923447
 30
0.0
  0
VERTEX
  5
21C4D
  8
01
 10
638.54607866642
 20
-544.0386480716264
 30
0.0
  0
VERTEX
  5
21C4E
  8
01
 10
638.5333124889544
 20
-544.1558374273906
 30
0.0
  0
VERTEX
  5
21C4F
  8
01
 10
638.5198493036899
 20
-544.2729684960041
 30
0.0
  0
VERTEX
  5
21C50
  8
01
 10
638.5056909528704
 20
-544.3900276138339
 30
0.0
  0
VERTEX
  5
21C51
  8
01
 10
638.4908392787406
 20
-544.5070011172472
 30
0.0
  0
VERTEX
  5
21C52
  8
01
 10
638.4752961235446
 20
-544.6238753426109
 30
0.0
  0
VERTEX
  5
21C53
  8
01
 10
638.4590633295269
 20
-544.7406366262917
 30
0.0
  0
VERTEX
  5
21C54
  8
01
 10
638.4421427389312
 20
-544.8572713046569
 30
0.0
  0
VERTEX
  5
21C55
  8
01
 10
638.4245361940023
 20
-544.9737657140735
 30
0.0
  0
VERTEX
  5
21C56
  8
01
 10
638.4062455369841
 20
-545.0901061909083
 30
0.0
  0
VERTEX
  5
21C57
  8
01
 10
638.3872726101212
 20
-545.2062790715283
 30
0.0
  0
VERTEX
  5
21C58
  8
01
 10
638.3676223762667
 20
-545.3222741709803
 30
0.0
  0
VERTEX
  5
21C59
  8
01
 10
638.3472989377703
 20
-545.4380905110237
 30
0.0
  0
VERTEX
  5
21C5A
  8
01
 10
638.3263028461204
 20
-545.5537282380938
 30
0.0
  0
VERTEX
  5
21C5B
  8
01
 10
638.3046346528054
 20
-545.6691874986265
 30
0.0
  0
VERTEX
  5
21C5C
  8
01
 10
638.2822949093135
 20
-545.7844684390575
 30
0.0
  0
VERTEX
  5
21C5D
  8
01
 10
638.2592841671333
 20
-545.8995712058227
 30
0.0
  0
VERTEX
  5
21C5E
  8
01
 10
638.2356029777533
 20
-546.0144959453577
 30
0.0
  0
VERTEX
  5
21C5F
  8
01
 10
638.2112518926617
 20
-546.1292428040979
 30
0.0
  0
VERTEX
  5
21C60
  8
01
 10
638.1862314633469
 20
-546.2438119284795
 30
0.0
  0
VERTEX
  5
21C61
  8
01
 10
638.1605422412974
 20
-546.3582034649379
 30
0.0
  0
VERTEX
  5
21C62
  8
01
 10
638.1341847780017
 20
-546.4724175599089
 30
0.0
  0
VERTEX
  5
21C63
  8
01
 10
638.1071596249478
 20
-546.5864543598283
 30
0.0
  0
VERTEX
  5
21C64
  8
01
 10
638.0794673336247
 20
-546.7003140111317
 30
0.0
  0
VERTEX
  5
21C65
  8
01
 10
638.0511084555204
 20
-546.8139966602548
 30
0.0
  0
VERTEX
  5
21C66
  8
01
 10
638.0220835421234
 20
-546.9275024536335
 30
0.0
  0
VERTEX
  5
21C67
  8
01
 10
637.9923931449221
 20
-547.040831537703
 30
0.0
  0
VERTEX
  5
21C68
  8
01
 10
637.9620375612927
 20
-547.1539839914245
 30
0.0
  0
VERTEX
  5
21C69
  8
01
 10
637.931016072163
 20
-547.2669596238577
 30
0.0
  0
VERTEX
  5
21C6A
  8
01
 10
637.8993277043484
 20
-547.3797581765873
 30
0.0
  0
VERTEX
  5
21C6B
  8
01
 10
637.8669714846644
 20
-547.4923793911984
 30
0.0
  0
VERTEX
  5
21C6C
  8
01
 10
637.8339464399264
 20
-547.6048230092755
 30
0.0
  0
VERTEX
  5
21C6D
  8
01
 10
637.8002515969503
 20
-547.7170887724037
 30
0.0
  0
VERTEX
  5
21C6E
  8
01
 10
637.7658859825511
 20
-547.8291764221676
 30
0.0
  0
VERTEX
  5
21C6F
  8
01
 10
637.7308486235447
 20
-547.9410857001521
 30
0.0
  0
VERTEX
  5
21C70
  8
01
 10
637.6951385467462
 20
-548.0528163479422
 30
0.0
  0
VERTEX
  5
21C71
  8
01
 10
637.6587547789716
 20
-548.1643681071225
 30
0.0
  0
VERTEX
  5
21C72
  8
01
 10
637.6216963470359
 20
-548.2757407192779
 30
0.0
  0
VERTEX
  5
21C73
  8
01
 10
637.583962277755
 20
-548.3869339259932
 30
0.0
  0
VERTEX
  5
21C74
  8
01
 10
637.5455515979442
 20
-548.4979474688532
 30
0.0
  0
VERTEX
  5
21C75
  8
01
 10
637.5064633344191
 20
-548.6087810894428
 30
0.0
  0
VERTEX
  5
21C76
  8
01
 10
637.4666965139951
 20
-548.7194345293468
 30
0.0
  0
VERTEX
  5
21C77
  8
01
 10
637.4262501634877
 20
-548.82990753015
 30
0.0
  0
VERTEX
  5
21C78
  8
01
 10
637.3851196235609
 20
-548.9401979760526
 30
0.0
  0
VERTEX
  5
21C79
  8
01
 10
637.3433031693194
 20
-549.0502980263395
 30
0.0
  0
VERTEX
  5
21C7A
  8
01
 10
637.3008042292406
 20
-549.1601988352231
 30
0.0
  0
VERTEX
  5
21C7B
  8
01
 10
637.2576262318016
 20
-549.2698915569155
 30
0.0
  0
VERTEX
  5
21C7C
  8
01
 10
637.2137726054794
 20
-549.3793673456283
 30
0.0
  0
VERTEX
  5
21C7D
  8
01
 10
637.1692467787514
 20
-549.4886173555739
 30
0.0
  0
VERTEX
  5
21C7E
  8
01
 10
637.1240521800943
 20
-549.5976327409644
 30
0.0
  0
VERTEX
  5
21C7F
  8
01
 10
637.0781922379858
 20
-549.7064046560118
 30
0.0
  0
VERTEX
  5
21C80
  8
01
 10
637.0316703809026
 20
-549.8149242549282
 30
0.0
  0
VERTEX
  5
21C81
  8
01
 10
636.9844900373221
 20
-549.9231826919256
 30
0.0
  0
VERTEX
  5
21C82
  8
01
 10
636.9366546357213
 20
-550.0311711212161
 30
0.0
  0
VERTEX
  5
21C83
  8
01
 10
636.8881676045777
 20
-550.1388806970118
 30
0.0
  0
VERTEX
  5
21C84
  8
01
 10
636.8390323723679
 20
-550.2463025735248
 30
0.0
  0
VERTEX
  5
21C85
  8
01
 10
636.7892523675694
 20
-550.353427904967
 30
0.0
  0
VERTEX
  5
21C86
  8
01
 10
636.7388310186591
 20
-550.4602478455507
 30
0.0
  0
VERTEX
  5
21C87
  8
01
 10
636.6877717541145
 20
-550.5667535494878
 30
0.0
  0
SEQEND
  5
220AF
  8
01
  0
POLYLINE
  5
20895
  8
01
 66
     1
 10
0.0
 20
0.0
 30
0.0
  0
VERTEX
  5
21C88
  8
01
 10
628.3597679548643
 20
-559.3449050180226
 30
0.0
  0
VERTEX
  5
21C89
  8
01
 10
628.2709455223322
 20
-559.3934843550087
 30
0.0
  0
VERTEX
  5
21C8A
  8
01
 10
628.181897513804
 20
-559.4416011088663
 30
0.0
  0
VERTEX
  5
21C8B
  8
01
 10
628.0926238300127
 20
-559.4892550758925
 30
0.0
  0
VERTEX
  5
21C8C
  8
01
 10
628.0031243716916
 20
-559.5364460523842
 30
0.0
  0
VERTEX
  5
21C8D
  8
01
 10
627.9133990395738
 20
-559.5831738346388
 30
0.0
  0
VERTEX
  5
21C8E
  8
01
 10
627.8234477343926
 20
-559.6294382189533
 30
0.0
  0
VERTEX
  5
21C8F
  8
01
 10
627.7332703568812
 20
-559.6752390016246
 30
0.0
  0
VERTEX
  5
21C90
  8
01
 10
627.6428668077727
 20
-559.7205759789499
 30
0.0
  0
VERTEX
  5
21C91
  8
01
 10
627.5522369878005
 20
-559.7654489472264
 30
0.0
  0
VERTEX
  5
21C92
  8
01
 10
627.4613807976974
 20
-559.8098577027511
 30
0.0
  0
VERTEX
  5
21C93
  8
01
 10
627.370298138197
 20
-559.8538020418212
 30
0.0
  0
VERTEX
  5
21C94
  8
01
 10
627.2789889100321
 20
-559.8972817607334
 30
0.0
  0
VERTEX
  5
21C95
  8
01
 10
627.1874530139362
 20
-559.9402966557852
 30
0.0
  0
VERTEX
  5
21C96
  8
01
 10
627.0956792094488
 20
-559.9828490293354
 30
0.0
  0
VERTEX
  5
21C97
  8
01
 10
627.0036644552222
 20
-560.0249381309652
 30
0.0
  0
VERTEX
  5
21C98
  8
01
 10
626.9114209506578
 20
-560.0665591778062
 30
0.0
  0
VERTEX
  5
21C99
  8
01
 10
626.8189608951574
 20
-560.1077073869897
 30
0.0
  0
VERTEX
  5
21C9A
  8
01
 10
626.7262964881224
 20
-560.1483779756466
 30
0.0
  0
VERTEX
  5
21C9B
  8
01
 10
626.6334399289548
 20
-560.1885661609085
 30
0.0
  0
VERTEX
  5
21C9C
  8
01
 10
626.540403417056
 20
-560.2282671599067
 30
0.0
  0
VERTEX
  5
21C9D
  8
01
 10
626.4471991518278
 20
-560.2674761897724
 30
0.0
  0
VERTEX
  5
21C9E
  8
01
 10
626.3538393326719
 20
-560.3061884676368
 30
0.0
  0
VERTEX
  5
21C9F
  8
01
 10
626.2603361589897
 20
-560.3443992106314
 30
0.0
  0
VERTEX
  5
21CA0
  8
01
 10
626.166701830183
 20
-560.3821036358872
 30
0.0
  0
VERTEX
  5
21CA1
  8
01
 10
626.0729485456535
 20
-560.4192969605357
 30
0.0
  0
VERTEX
  5
21CA2
  8
01
 10
625.9790885048029
 20
-560.4559744017082
 30
0.0
  0
VERTEX
  5
21CA3
  8
01
 10
625.8851189879839
 20
-560.4921414066604
 30
0.0
  0
VERTEX
  5
21CA4
  8
01
 10
625.7910292687558
 20
-560.5278071371139
 30
0.0
  0
VERTEX
  5
21CA5
  8
01
 10
625.6968195363295
 20
-560.562972381899
 30
0.0
  0
VERTEX
  5
21CA6
  8
01
 10
625.602489979916
 20
-560.5976379298457
 30
0.0
  0
VERTEX
  5
21CA7
  8
01
 10
625.5080407887259
 20
-560.6318045697841
 30
0.0
  0
VERTEX
  5
21CA8
  8
01
 10
625.4134721519704
 20
-560.6654730905442
 30
0.0
  0
VERTEX
  5
21CA9
  8
01
 10
625.3187842588604
 20
-560.698644280956
 30
0.0
  0
VERTEX
  5
21CAA
  8
01
 10
625.223977298607
 20
-560.7313189298497
 30
0.0
  0
VERTEX
  5
21CAB
  8
01
 10
625.1290514604207
 20
-560.7634978260554
 30
0.0
  0
VERTEX
  5
21CAC
  8
01
 10
625.0340069335128
 20
-560.795181758403
 30
0.0
  0
VERTEX
  5
21CAD
  8
01
 10
624.9388439070941
 20
-560.8263715157229
 30
0.0
  0
VERTEX
  5
21CAE
  8
01
 10
624.8435625703755
 20
-560.8570678868449
 30
0.0
  0
VERTEX
  5
21CAF
  8
01
 10
624.7481631125679
 20
-560.8872716605991
 30
0.0
  0
VERTEX
  5
21CB0
  8
01
 10
624.6526457228824
 20
-560.9169836258156
 30
0.0
  0
VERTEX
  5
21CB1
  8
01
 10
624.5570105905298
 20
-560.9462045713245
 30
0.0
  0
VERTEX
  5
21CB2
  8
01
 10
624.461257904721
 20
-560.9749352859559
 30
0.0
  0
VERTEX
  5
21CB3
  8
01
 10
624.365387854667
 20
-561.0031765585398
 30
0.0
  0
VERTEX
  5
21CB4
  8
01
 10
624.2694006295789
 20
-561.0309291779065
 30
0.0
  0
VERTEX
  5
21CB5
  8
01
 10
624.1732964186672
 20
-561.0581939328856
 30
0.0
  0
VERTEX
  5
21CB6
  8
01
 10
624.0770754111431
 20
-561.0849716123076
 30
0.0
  0
VERTEX
  5
21CB7
  8
01
 10
623.9807377962176
 20
-561.1112630050025
 30
0.0
  0
VERTEX
  5
21CB8
  8
01
 10
623.8842837631014
 20
-561.1370688998002
 30
0.0
  0
VERTEX
  5
21CB9
  8
01
 10
623.7877135010057
 20
-561.1623900855309
 30
0.0
  0
VERTEX
  5
21CBA
  8
01
 10
623.6910271991411
 20
-561.1872273510247
 30
0.0
  0
VERTEX
  5
21CBB
  8
01
 10
623.5942250467187
 20
-561.2115814851115
 30
0.0
  0
VERTEX
  5
21CBC
  8
01
 10
623.4973072329497
 20
-561.2354532766218
 30
0.0
  0
VERTEX
  5
21CBD
  8
01
 10
623.400273889608
 20
-561.2588432748022
 30
0.0
  0
VERTEX
  5
21CBE
  8
01
 10
623.3031249391141
 20
-561.2817511559258
 30
0.0
  0
VERTEX
  5
21CBF
  8
01
 10
623.2058602566493
 20
-561.3041763993609
 30
0.0
  0
VERTEX
  5
21CC0
  8
01
 10
623.1084797173938
 20
-561.3261184844765
 30
0.0
  0
VERTEX
  5
21CC1
  8
01
 10
623.0109831965286
 20
-561.3475768906409
 30
0.0
  0
VERTEX
  5
21CC2
  8
01
 10
622.9133705692342
 20
-561.3685510972227
 30
0.0
  0
VERTEX
  5
21CC3
  8
01
 10
622.8156417106914
 20
-561.3890405835907
 30
0.0
  0
VERTEX
  5
21CC4
  8
01
 10
622.7177964960806
 20
-561.4090448291132
 30
0.0
  0
VERTEX
  5
21CC5
  8
01
 10
622.6198348005829
 20
-561.4285633131591
 30
0.0
  0
VERTEX
  5
21CC6
  8
01
 10
622.5217564993786
 20
-561.4475955150966
 30
0.0
  0
VERTEX
  5
21CC7
  8
01
 10
622.4235614676487
 20
-561.4661409142948
 30
0.0
  0
VERTEX
  5
21CC8
  8
01
 10
622.3252495805738
 20
-561.4841989901219
 30
0.0
  0
VERTEX
  5
21CC9
  8
01
 10
622.2268207133343
 20
-561.5017692219465
 30
0.0
  0
VERTEX
  5
21CCA
  8
01
 10
622.1282747411113
 20
-561.5188510891373
 30
0.0
  0
VERTEX
  5
21CCB
  8
01
 10
622.0296115390853
 20
-561.535444071063
 30
0.0
  0
VERTEX
  5
21CCC
  8
01
 10
621.9308309824369
 20
-561.551547647092
 30
0.0
  0
VERTEX
  5
21CCD
  8
01
 10
621.831932946347
 20
-561.567161296593
 30
0.0
  0
VERTEX
  5
21CCE
  8
01
 10
621.732917305996
 20
-561.5822844989345
 30
0.0
  0
VERTEX
  5
21CCF
  8
01
 10
621.6337839365649
 20
-561.5969167334853
 30
0.0
  0
VERTEX
  5
21CD0
  8
01
 10
621.5345327132342
 20
-561.6110574796136
 30
0.0
  0
VERTEX
  5
21CD1
  8
01
 10
621.4351635111846
 20
-561.6247062166884
 30
0.0
  0
VERTEX
  5
21CD2
  8
01
 10
621.3356762055967
 20
-561.637862424078
 30
0.0
  0
VERTEX
  5
21CD3
  8
01
 10
621.2360706716514
 20
-561.6505255811512
 30
0.0
  0
VERTEX
  5
21CD4
  8
01
 10
621.1363467845293
 20
-561.6626951672765
 30
0.0
  0
VERTEX
  5
21CD5
  8
01
 10
621.0365044194109
 20
-561.6743706618226
 30
0.0
  0
VERTEX
  5
21CD6
  8
01
 10
620.9365434514772
 20
-561.6855515441579
 30
0.0
  0
VERTEX
  5
21CD7
  8
01
 10
620.8364472759768
 20
-561.6962363077282
 30
0.0
  0
VERTEX
  5
21CD8
  8
01
 10
620.7362069984338
 20
-561.7064225495936
 30
0.0
  0
VERTEX
  5
21CD9
  8
01
 10
620.6358340594411
 20
-561.7161084045439
 30
0.0
  0
VERTEX
  5
21CDA
  8
01
 10
620.5353398995918
 20
-561.7252920073687
 30
0.0
  0
VERTEX
  5
21CDB
  8
01
 10
620.4347359594792
 20
-561.7339714928578
 30
0.0
  0
VERTEX
  5
21CDC
  8
01
 10
620.334033679696
 20
-561.7421449958009
 30
0.0
  0
VERTEX
  5
21CDD
  8
01
 10
620.2332445008356
 20
-561.7498106509879
 30
0.0
  0
VERTEX
  5
21CDE
  8
01
 10
620.1323798634908
 20
-561.7569665932083
 30
0.0
  0
VERTEX
  5
21CDF
  8
01
 10
620.0314512082549
 20
-561.7636109572521
 30
0.0
  0
VERTEX
  5
21CE0
  8
01
 10
619.9304699757208
 20
-561.7697418779089
 30
0.0
  0
VERTEX
  5
21CE1
  8
01
 10
619.8294476064817
 20
-561.7753574899687
 30
0.0
  0
VERTEX
  5
21CE2
  8
01
 10
619.7283955411308
 20
-561.7804559282208
 30
0.0
  0
VERTEX
  5
21CE3
  8
01
 10
619.627325220261
 20
-561.7850353274551
 30
0.0
  0
VERTEX
  5
21CE4
  8
01
 10
619.5261039257758
 20
-561.7890535661903
 30
0.0
  0
VERTEX
  5
21CE5
  8
01
 10
619.4240417455916
 20
-561.7925310183018
 30
0.0
  0
VERTEX
  5
21CE6
  8
01
 10
619.3203143293211
 20
-561.7955595616152
 30
0.0
  0
VERTEX
  5
21CE7
  8
01
 10
619.2140973265767
 20
-561.7982310739551
 30
0.0
  0
VERTEX
  5
21CE8
  8
01
 10
619.1045663869709
 20
-561.800637433147
 30
0.0
  0
VERTEX
  5
21CE9
  8
01
 10
618.9908971601161
 20
-561.8028705170162
 30
0.0
  0
VERTEX
  5
21CEA
  8
01
 10
618.8722652956249
 20
-561.8050222033881
 30
0.0
  0
VERTEX
  5
21CEB
  8
01
 10
618.7478464431098
 20
-561.8071843700877
 30
0.0
  0
VERTEX
  5
21CEC
  8
01
 10
618.6168162521833
 20
-561.8094488949405
 30
0.0
  0
VERTEX
  5
21CED
  8
01
 10
618.478350372458
 20
-561.8119076557714
 30
0.0
  0
VERTEX
  5
21CEE
  8
01
 10
618.3316244535463
 20
-561.814652530406
 30
0.0
  0
VERTEX
  5
21CEF
  8
01
 10
618.1758141450605
 20
-561.8177753966693
 30
0.0
  0
VERTEX
  5
21CF0
  8
01
 10
618.0100950966134
 20
-561.8213681323866
 30
0.0
  0
SEQEND
  5
220B0
  8
01
  0
POLYLINE
  5
20896
  8
01
 66
     1
 10
0.0
 20
0.0
 30
0.0
  0
VERTEX
  5
21CF1
  8
01
 10
636.6877717541145
 20
-550.5667535494879
 30
0.0
  0
VERTEX
  5
21CF2
  8
01
 10
636.6265516993159
 20
-550.6928434350516
 30
0.0
  0
VERTEX
  5
21CF3
  8
01
 10
636.5644611305165
 20
-550.8184493542448
 30
0.0
  0
VERTEX
  5
21CF4
  8
01
 10
636.5015010016969
 20
-550.9435718371665
 30
0.0
  0
VERTEX
  5
21CF5
  8
01
 10
636.4376722668372
 20
-551.0682114139167
 30
0.0
  0
VERTEX
  5
21CF6
  8
01
 10
636.3729758799184
 20
-551.1923686145946
 30
0.0
  0
VERTEX
  5
21CF7
  8
01
 10
636.3074127949205
 20
-551.3160439692998
 30
0.0
  0
VERTEX
  5
21CF8
  8
01
 10
636.2409839658243
 20
-551.4392380081318
 30
0.0
  0
VERTEX
  5
21CF9
  8
01
 10
636.1736903466102
 20
-551.5619512611901
 30
0.0
  0
VERTEX
  5
21CFA
  8
01
 10
636.1055328912587
 20
-551.684184258574
 30
0.0
  0
VERTEX
  5
21CFB
  8
01
 10
636.0365125537501
 20
-551.8059375303833
 30
0.0
  0
VERTEX
  5
21CFC
  8
01
 10
635.9666302880651
 20
-551.9272116067174
 30
0.0
  0
VERTEX
  5
21CFD
  8
01
 10
635.8958752302904
 20
-552.0480211281036
 30
0.0
  0
VERTEX
  5
21CFE
  8
01
 10
635.8242442724461
 20
-552.1683679284076
 30
0.0
  0
VERTEX
  5
21CFF
  8
01
 10
635.751750002413
 20
-552.2882333277363
 30
0.0
  0
VERTEX
  5
21D00
  8
01
 10
635.6784050080719
 20
-552.4075986461967
 30
0.0
  0
VERTEX
  5
21D01
  8
01
 10
635.6042218773031
 20
-552.5264452038957
 30
0.0
  0
VERTEX
  5
21D02
  8
01
 10
635.5292131979875
 20
-552.6447543209403
 30
0.0
  0
VERTEX
  5
21D03
  8
01
 10
635.4533915580055
 20
-552.7625073174376
 30
0.0
  0
VERTEX
  5
21D04
  8
01
 10
635.376769545238
 20
-552.879685513494
 30
0.0
  0
VERTEX
  5
21D05
  8
01
 10
635.2993597475655
 20
-552.996270229217
 30
0.0
  0
VERTEX
  5
21D06
  8
01
 10
635.2211747528686
 20
-553.1122427847133
 30
0.0
  0
VERTEX
  5
21D07
  8
01
 10
635.1422271490281
 20
-553.22758450009
 30
0.0
  0
VERTEX
  5
21D08
  8
01
 10
635.062521201799
 20
-553.3422993694829
 30
0.0
  0
VERTEX
  5
21D09
  8
01
 10
634.9820523757921
 20
-553.4564035126851
 30
0.0
  0
VERTEX
  5
21D0A
  8
01
 10
634.9008200571715
 20
-553.5698964382888
 30
0.0
  0
VERTEX
  5
21D0B
  8
01
 10
634.818823632101
 20
-553.6827776548865
 30
0.0
  0
VERTEX
  5
21D0C
  8
01
 10
634.7360624867451
 20
-553.7950466710704
 30
0.0
  0
VERTEX
  5
21D0D
  8
01
 10
634.6525360072676
 20
-553.9067029954329
 30
0.0
  0
VERTEX
  5
21D0E
  8
01
 10
634.5682435798326
 20
-554.0177461365663
 30
0.0
  0
VERTEX
  5
21D0F
  8
01
 10
634.4831845906042
 20
-554.128175603063
 30
0.0
  0
VERTEX
  5
21D10
  8
01
 10
634.3973584257465
 20
-554.2379909035155
 30
0.0
  0
VERTEX
  5
21D11
  8
01
 10
634.3107644714233
 20
-554.3471915465159
 30
0.0
  0
VERTEX
  5
21D12
  8
01
 10
634.223402113799
 20
-554.4557770406567
 30
0.0
  0
VERTEX
  5
21D13
  8
01
 10
634.1352707390375
 20
-554.5637468945301
 30
0.0
  0
VERTEX
  5
21D14
  8
01
 10
634.046369733303
 20
-554.6711006167287
 30
0.0
  0
VERTEX
  5
21D15
  8
01
 10
633.9566984827594
 20
-554.7778377158445
 30
0.0
  0
VERTEX
  5
21D16
  8
01
 10
633.8662563735709
 20
-554.8839577004703
 30
0.0
  0
VERTEX
  5
21D17
  8
01
 10
633.7750427919015
 20
-554.9894600791981
 30
0.0
  0
VERTEX
  5
21D18
  8
01
 10
633.6830571239151
 20
-555.0943443606204
 30
0.0
  0
VERTEX
  5
21D19
  8
01
 10
633.590298755776
 20
-555.1986100533294
 30
0.0
  0
VERTEX
  5
21D1A
  8
01
 10
633.4967670736481
 20
-555.3022566659176
 30
0.0
  0
VERTEX
  5
21D1B
  8
01
 10
633.4024614636959
 20
-555.4052837069772
 30
0.0
  0
VERTEX
  5
21D1C
  8
01
 10
633.3073813120828
 20
-555.5076906851008
 30
0.0
  0
VERTEX
  5
21D1D
  8
01
 10
633.2115260049734
 20
-555.6094771088806
 30
0.0
  0
VERTEX
  5
21D1E
  8
01
 10
633.1148960147375
 20
-555.7106248795906
 30
0.0
  0
VERTEX
  5
21D1F
  8
01
 10
633.0175001059457
 20
-555.8111103555535
 30
0.0
  0
VERTEX
  5
21D20
  8
01
 10
632.9193501030616
 20
-555.9109247309344
 30
0.0
  0
VERTEX
  5
21D21
  8
01
 10
632.820457830549
 20
-556.0100591998983
 30
0.0
  0
VERTEX
  5
21D22
  8
01
 10
632.7208351128721
 20
-556.1085049566099
 30
0.0
  0
VERTEX
  5
21D23
  8
01
 10
632.6204937744944
 20
-556.2062531952342
 30
0.0
  0
VERTEX
  5
21D24
  8
01
 10
632.51944563988
 20
-556.3032951099366
 30
0.0
  0
VERTEX
  5
21D25
  8
01
 10
632.4177025334927
 20
-556.3996218948819
 30
0.0
  0
VERTEX
  5
21D26
  8
01
 10
632.3152762797964
 20
-556.495224744235
 30
0.0
  0
VERTEX
  5
21D27
  8
01
 10
632.212178703255
 20
-556.590094852161
 30
0.0
  0
VERTEX
  5
21D28
  8
01
 10
632.1084216283323
 20
-556.684223412825
 30
0.0
  0
VERTEX
  5
21D29
  8
01
 10
632.0040168794923
 20
-556.7776016203916
 30
0.0
  0
VERTEX
  5
21D2A
  8
01
 10
631.8989762811987
 20
-556.8702206690263
 30
0.0
  0
VERTEX
  5
21D2B
  8
01
 10
631.7933116579155
 20
-556.9620717528937
 30
0.0
  0
VERTEX
  5
21D2C
  8
01
 10
631.6870348341067
 20
-557.0531460661591
 30
0.0
  0
VERTEX
  5
21D2D
  8
01
 10
631.5801576342359
 20
-557.1434348029874
 30
0.0
  0
VERTEX
  5
21D2E
  8
01
 10
631.4726918827672
 20
-557.2329291575434
 30
0.0
  0
VERTEX
  5
21D2F
  8
01
 10
631.3646494041643
 20
-557.3216203239924
 30
0.0
  0
VERTEX
  5
21D30
  8
01
 10
631.2560420228912
 20
-557.4094994964993
 30
0.0
  0
VERTEX
  5
21D31
  8
01
 10
631.1468815634117
 20
-557.496557869229
 30
0.0
  0
VERTEX
  5
21D32
  8
01
 10
631.0371798501898
 20
-557.5827866363468
 30
0.0
  0
VERTEX
  5
21D33
  8
01
 10
630.9269487076892
 20
-557.6681769920172
 30
0.0
  0
VERTEX
  5
21D34
  8
01
 10
630.8161764752209
 20
-557.7527493314122
 30
0.0
  0
VERTEX
  5
21D35
  8
01
 10
630.7048433394352
 20
-557.8365295388893
 30
0.0
  0
VERTEX
  5
21D36
  8
01
 10
630.5929488958045
 20
-557.9195170423912
 30
0.0
  0
VERTEX
  5
21D37
  8
01
 10
630.4804927398013
 20
-558.0017112698613
 30
0.0
  0
VERTEX
  5
21D38
  8
01
 10
630.3674744668986
 20
-558.0831116492425
 30
0.0
  0
VERTEX
  5
21D39
  8
01
 10
630.2538936725686
 20
-558.1637176084781
 30
0.0
  0
VERTEX
  5
21D3A
  8
01
 10
630.1397499522842
 20
-558.2435285755112
 30
0.0
  0
VERTEX
  5
21D3B
  8
01
 10
630.025042901518
 20
-558.3225439782848
 30
0.0
  0
VERTEX
  5
21D3C
  8
01
 10
629.9097721157426
 20
-558.4007632447422
 30
0.0
  0
VERTEX
  5
21D3D
  8
01
 10
629.7939371904306
 20
-558.4781858028263
 30
0.0
  0
VERTEX
  5
21D3E
  8
01
 10
629.6775377210545
 20
-558.5548110804804
 30
0.0
  0
VERTEX
  5
21D3F
  8
01
 10
629.560573303087
 20
-558.6306385056474
 30
0.0
  0
VERTEX
  5
21D40
  8
01
 10
629.443043532001
 20
-558.7056675062707
 30
0.0
  0
VERTEX
  5
21D41
  8
01
 10
629.3249480032687
 20
-558.7798975102933
 30
0.0
  0
VERTEX
  5
21D42
  8
01
 10
629.2062863123629
 20
-558.8533279456582
 30
0.0
  0
VERTEX
  5
21D43
  8
01
 10
629.0870580547562
 20
-558.9259582403087
 30
0.0
  0
VERTEX
  5
21D44
  8
01
 10
628.9672628259214
 20
-558.9977878221879
 30
0.0
  0
VERTEX
  5
21D45
  8
01
 10
628.8469002213308
 20
-559.0688161192388
 30
0.0
  0
VERTEX
  5
21D46
  8
01
 10
628.7259698364571
 20
-559.1390425594045
 30
0.0
  0
VERTEX
  5
21D47
  8
01
 10
628.6044712667732
 20
-559.2084665706284
 30
0.0
  0
VERTEX
  5
21D48
  8
01
 10
628.4824041077514
 20
-559.2770875808533
 30
0.0
  0
VERTEX
  5
21D49
  8
01
 10
628.3597679548645
 20
-559.3449050180225
 30
0.0
  0
SEQEND
  5
220B1
  8
01
  0
LINE
  5
208AC
  8
01
 10
618.3162416153652
 20
-666.4213303543708
 30
0.0
 11
622.3020054604931
 21
-666.4213303543708
 31
0.0
  0
ARC
  5
208AD
  8
01
 10
622.3020054604931
 20
-665.4213303543708
 30
0.0
 40
1.0
 50
270.0
 51
314.9717075266014
  0
LINE
  5
208B7
  8
01
 10
618.0162416153653
 20
-562.8213303512664
 30
0.0
 11
618.0162416153655
 21
-565.8213303512664
 31
0.0
  0
LINE
  5
208B8
  8
01
  6
CONTINUOUS
 10
772.716241615365
 20
-646.3170784554335
 30
0.0
 11
772.716241615365
 21
-646.3213303543706
 31
0.0
  0
LINE
  5
208B9
  8
01
  6
CONTINUOUS
 10
799.6147602639406
 20
-666.2251871302443
 30
0.0
 11
773.1214188286136
 21
-646.6211457206633
 31
0.0
  0
POLYLINE
  5
208BA
  8
01
  6
CONTINUOUS
 10
0.0
 20
0.0
 30
0.0
 66
     1
 70
     8
  0
VERTEX
  5
21D4A
  8
01
  6
CONTINUOUS
 10
800.2095832634219
 20
-666.4213303543706
 30
0.0
 70
    32
  0
VERTEX
  5
21D4B
  8
01
  6
CONTINUOUS
 10
800.2471203353858
 20
-666.4213303543706
 30
0.0
 70
    32
  0
VERTEX
  5
21D4C
  8
01
  6
CONTINUOUS
 10
800.2865605165504
 20
-666.4213303543706
 30
0.0
 70
    32
  0
VERTEX
  5
21D4D
  8
01
  6
CONTINUOUS
 10
800.3278856642328
 20
-666.4213303543706
 30
0.0
 70
    32
  0
VERTEX
  5
21D4E
  8
01
  6
CONTINUOUS
 10
800.371077635751
 20
-666.4213303543706
 30
0.0
 70
    32
  0
VERTEX
  5
21D4F
  8
01
  6
CONTINUOUS
 10
800.4161182884222
 20
-666.4213303543706
 30
0.0
 70
    32
  0
VERTEX
  5
21D50
  8
01
  6
CONTINUOUS
 10
800.4629894795642
 20
-666.4213303543706
 30
0.0
 70
    32
  0
VERTEX
  5
21D51
  8
01
  6
CONTINUOUS
 10
800.5116730664942
 20
-666.4213303543706
 30
0.0
 70
    32
  0
VERTEX
  5
21D52
  8
01
  6
CONTINUOUS
 10
800.5621509065298
 20
-666.4213303543706
 30
0.0
 70
    32
  0
VERTEX
  5
21D53
  8
01
  6
CONTINUOUS
 10
800.6144048569885
 20
-666.4213303543706
 30
0.0
 70
    32
  0
VERTEX
  5
21D54
  8
01
  6
CONTINUOUS
 10
800.6684167751878
 20
-666.4213303543706
 30
0.0
 70
    32
  0
VERTEX
  5
21D55
  8
01
  6
CONTINUOUS
 10
800.7241685184453
 20
-666.4213303543706
 30
0.0
 70
    32
  0
VERTEX
  5
21D56
  8
01
  6
CONTINUOUS
 10
800.7816419440783
 20
-666.4213303543706
 30
0.0
 70
    32
  0
VERTEX
  5
21D57
  8
01
  6
CONTINUOUS
 10
800.8408189094044
 20
-666.4213303543706
 30
0.0
 70
    32
  0
VERTEX
  5
21D58
  8
01
  6
CONTINUOUS
 10
800.9016812717412
 20
-666.4213303543706
 30
0.0
 70
    32
  0
VERTEX
  5
21D59
  8
01
  6
CONTINUOUS
 10
800.9642108884062
 20
-666.4213303543706
 30
0.0
 70
    32
  0
VERTEX
  5
21D5A
  8
01
  6
CONTINUOUS
 10
801.0283896167167
 20
-666.4213303543706
 30
0.0
 70
    32
  0
VERTEX
  5
21D5B
  8
01
  6
CONTINUOUS
 10
801.0941993139903
 20
-666.4213303543708
 30
0.0
 70
    32
  0
VERTEX
  5
21D5C
  8
01
  6
CONTINUOUS
 10
801.1616218375447
 20
-666.4213303543708
 30
0.0
 70
    32
  0
VERTEX
  5
21D5D
  8
01
  6
CONTINUOUS
 10
801.2306390446971
 20
-666.4213303543708
 30
0.0
 70
    32
  0
VERTEX
  5
21D5E
  8
01
  6
CONTINUOUS
 10
801.3012327927652
 20
-666.4213303543708
 30
0.0
 70
    32
  0
VERTEX
  5
21D5F
  8
01
  6
CONTINUOUS
 10
801.3733849390665
 20
-666.4213303543708
 30
0.0
 70
    32
  0
VERTEX
  5
21D60
  8
01
  6
CONTINUOUS
 10
801.4470773409183
 20
-666.4213303543708
 30
0.0
 70
    32
  0
VERTEX
  5
21D61
  8
01
  6
CONTINUOUS
 10
801.5222918556384
 20
-666.4213303543708
 30
0.0
 70
    32
  0
VERTEX
  5
21D62
  8
01
  6
CONTINUOUS
 10
801.5990103405439
 20
-666.4213303543708
 30
0.0
 70
    32
  0
VERTEX
  5
21D63
  8
01
  6
CONTINUOUS
 10
801.6772146529528
 20
-666.4213303543708
 30
0.0
 70
    32
  0
VERTEX
  5
21D64
  8
01
  6
CONTINUOUS
 10
801.7568866501822
 20
-666.4213303543708
 30
0.0
 70
    32
  0
VERTEX
  5
21D65
  8
01
  6
CONTINUOUS
 10
801.8380081895499
 20
-666.4213303543708
 30
0.0
 70
    32
  0
VERTEX
  5
21D66
  8
01
  6
CONTINUOUS
 10
801.9205611283733
 20
-666.4213303543708
 30
0.0
 70
    32
  0
VERTEX
  5
21D67
  8
01
  6
CONTINUOUS
 10
802.0045273239697
 20
-666.4213303543708
 30
0.0
 70
    32
  0
VERTEX
  5
21D68
  8
01
  6
CONTINUOUS
 10
802.0898886336569
 20
-666.4213303543708
 30
0.0
 70
    32
  0
VERTEX
  5
21D69
  8
01
  6
CONTINUOUS
 10
802.176626914752
 20
-666.4213303543708
 30
0.0
 70
    32
  0
VERTEX
  5
21D6A
  8
01
  6
CONTINUOUS
 10
802.264724024573
 20
-666.4213303543708
 30
0.0
 70
    32
  0
VERTEX
  5
21D6B
  8
01
  6
CONTINUOUS
 10
802.3541618204372
 20
-666.4213303543708
 30
0.0
 70
    32
  0
VERTEX
  5
21D6C
  8
01
  6
CONTINUOUS
 10
802.4449221596619
 20
-666.4213303543708
 30
0.0
 70
    32
  0
VERTEX
  5
21D6D
  8
01
  6
CONTINUOUS
 10
802.5369868995649
 20
-666.4213303543708
 30
0.0
 70
    32
  0
VERTEX
  5
21D6E
  8
01
  6
CONTINUOUS
 10
802.6303378974636
 20
-666.4213303543708
 30
0.0
 70
    32
  0
VERTEX
  5
21D6F
  8
01
  6
CONTINUOUS
 10
802.7249570106754
 20
-666.4213303543708
 30
0.0
 70
    32
  0
VERTEX
  5
21D70
  8
01
  6
CONTINUOUS
 10
802.8208260965179
 20
-666.4213303543708
 30
0.0
 70
    32
  0
VERTEX
  5
21D71
  8
01
  6
CONTINUOUS
 10
802.9179270123085
 20
-666.4213303543708
 30
0.0
 70
    32
  0
VERTEX
  5
21D72
  8
01
  6
CONTINUOUS
 10
803.0162416153651
 20
-666.4213303543708
 30
0.0
 70
    32
  0
SEQEND
  5
220B2
  8
01
  6
CONTINUOUS
  0
LINE
  5
208BB
  8
01
  6
CONTINUOUS
 10
803.016241615365
 20
-646.1213303543707
 30
0.0
 11
803.016241615365
 21
-666.4213303543708
 31
0.0
  0
LINE
  5
208BC
  8
01
  6
CONTINUOUS
 10
796.716241615365
 20
-635.8213303543706
 30
0.0
 11
773.716241615365
 21
-635.8213303543706
 31
0.0
  0
LINE
  5
208BD
  8
01
  6
CONTINUOUS
 10
772.716241615365
 20
-636.8213303543706
 30
0.0
 11
772.716241615365
 21
-645.817288860046
 31
0.0
  0
LINE
  5
208BE
  8
01
  6
CONTINUOUS
 10
803.016241615365
 20
-635.8213303543706
 30
0.0
 11
803.016241615365
 21
-646.1213303543707
 31
0.0
  0
LINE
  5
208BF
  8
01
  6
CONTINUOUS
 10
796.716241615365
 20
-635.8213303543706
 30
0.0
 11
803.016241615365
 21
-635.8213303543706
 31
0.0
  0
LINE
  5
208C0
  8
01
  6
CONTINUOUS
 10
803.016241615365
 20
-646.3213303543706
 30
0.0
 11
772.8525621771479
 21
-646.3213303543706
 31
0.0
  0
ARC
  5
208C1
  8
01
  6
CONTINUOUS
 10
773.716241615365
 20
-645.817288860046
 30
0.0
 40
1.0
 50
180.0
 51
233.4999999999984
  0
ARC
  5
208C2
  8
01
  6
CONTINUOUS
 10
773.716241615365
 20
-636.8213303543706
 30
0.0
 40
1.0
 50
90.0
 51
180.0
  0
ARC
  5
208C3
  8
01
  6
CONTINUOUS
 10
800.2095832634219
 20
-665.4213301989363
 30
0.0
 40
1.000000155434311
 50
233.4999999999867
 51
270.0000068911961
  0
LINE
  5
208E1
  8
01
 10
618.0100950966134
 20
-561.8213681323866
 30
0.0
 11
617.5159746765455
 21
-561.8213681323866
 31
0.0
  0
ARC
  5
208E2
  8
01
 10
617.5159746765455
 20
-562.3213681323866
 30
0.0
 40
0.5
 50
90.0
 51
180.0
  0
LINE
  5
20DE1
  8
01
 10
592.516244958662
 20
-539.3213303512664
 30
0.0
 11
591.516245258662
 21
-538.3213303512664
 31
0.0
  0
LINE
  5
20DE2
  8
01
 10
595.816245108662
 20
-539.3213303512664
 30
0.0
 11
595.816245108662
 21
-538.3213303512664
 31
0.0
  0
LINE
  5
20DE3
  8
01
 10
595.816245108662
 20
-538.3213303512664
 30
0.0
 11
588.2162451086621
 21
-538.3213303512664
 31
0.0
  0
LINE
  5
20DE4
  8
01
 10
595.816245108662
 20
-539.3213303512664
 30
0.0
 11
588.2162451086621
 21
-539.3213303512664
 31
0.0
  0
LINE
  5
20DE5
  8
01
 10
588.2162451086621
 20
-539.3213303512664
 30
0.0
 11
588.2162451086621
 21
-538.3213303512664
 31
0.0
  0
LINE
  5
20DEB
  8
1CENTER
 10
97.39124161536529
 20
-655.8213303543754
 30
0.0
 11
90.64124161536529
 21
-655.8213303543755
 31
0.0
  0
LINE
  5
20DEC
  8
1CENTER
 10
94.01624161536529
 20
-659.1963303543755
 30
0.0
 11
94.01624161536517
 21
-652.4463303543755
 31
0.0
  0
LINE
  5
20DED
  8
1CENTER
 10
77.39124161536529
 20
-655.8213303543758
 30
0.0
 11
70.64124161536529
 21
-655.821330354376
 31
0.0
  0
LINE
  5
20DEE
  8
1CENTER
 10
74.01624161536529
 20
-659.1963303543758
 30
0.0
 11
74.01624161536517
 21
-652.4463303543758
 31
0.0
  0
LINE
  5
20DEF
  8
01
  6
CONTINUOUS
 10
43.23320030446712
 20
-646.3213303543763
 30
0.0
 11
68.01624161536506
 21
-646.3213303543758
 31
0.0
  0
LINE
  5
20DF0
  8
01
  6
CONTINUOUS
 10
43.3094857424137
 20
-646.4340117611684
 30
0.0
 11
63.0237202423217
 21
-666.1287862164156
 31
0.0
  0
LINE
  5
20DF1
  8
01
  6
CONTINUOUS
 10
43.01624161536506
 20
-645.7283144674798
 30
0.0
 11
43.01624161536483
 21
-636.8213303543764
 31
0.0
  0
ARC
  5
20DF2
  8
01
  6
CONTINUOUS
 10
44.01624161536483
 20
-636.8213303543763
 30
0.0
 40
1.0
 50
90.0
 51
179.9999999999935
  0
LINE
  5
20DF3
  8
01
  6
CONTINUOUS
 10
44.01624161536483
 20
-635.8213303543763
 30
0.0
 11
67.01624161536483
 21
-635.8213303543758
 31
0.0
  0
LINE
  5
20DF4
  8
01
  6
CONTINUOUS
 10
67.01624161536483
 20
-635.8213303543758
 30
0.0
 11
67.71624161536465
 21
-635.8213303543758
 31
0.0
  0
ARC
  5
20DF5
  8
01
  6
CONTINUOUS
 10
67.71624161536465
 20
-636.1213303543759
 30
0.0
 40
0.3000000000000256
 50
0.0
 51
90.0
  0
LINE
  5
20DF6
  8
01
  6
CONTINUOUS
 10
68.01624161536483
 20
-636.1213303543759
 30
0.0
 11
68.0162416153654
 21
-665.984255320538
 31
0.0
  0
ARC
  5
20DF7
  8
01
  6
CONTINUOUS
 10
44.01624161536506
 20
-645.7283144674797
 30
0.0
 40
1.0
 50
179.9999999999935
 51
225.5664750938699
  0
ARC
  5
20DF8
  8
01
  6
CONTINUOUS
 10
67.71624161536522
 20
-666.1213303543759
 30
0.0
 40
0.3000000000000256
 50
270.0000000000434
 51
0.0
  0
POLYLINE
  5
20DF9
  8
01
  6
CONTINUOUS
 10
0.0
 20
0.0
 30
0.0
 66
     1
 70
     8
  0
VERTEX
  5
21D73
  8
01
  6
CONTINUOUS
 10
68.0162416153654
 20
-665.984255320538
 30
0.0
 70
    32
  0
VERTEX
  5
21D74
  8
01
  6
CONTINUOUS
 10
68.0162416153654
 20
-665.9951751410433
 30
0.0
 70
    32
  0
VERTEX
  5
21D75
  8
01
  6
CONTINUOUS
 10
68.0162416153654
 20
-666.0056641123058
 30
0.0
 70
    32
  0
VERTEX
  5
21D76
  8
01
  6
CONTINUOUS
 10
68.0162416153654
 20
-666.0157192272767
 30
0.0
 70
    32
  0
VERTEX
  5
21D77
  8
01
  6
CONTINUOUS
 10
68.0162416153654
 20
-666.0253374789065
 30
0.0
 70
    32
  0
VERTEX
  5
21D78
  8
01
  6
CONTINUOUS
 10
68.0162416153654
 20
-666.0345158601466
 30
0.0
 70
    32
  0
VERTEX
  5
21D79
  8
01
  6
CONTINUOUS
 10
68.0162416153654
 20
-666.0432513639475
 30
0.0
 70
    32
  0
VERTEX
  5
21D7A
  8
01
  6
CONTINUOUS
 10
68.0162416153654
 20
-666.0515409832606
 30
0.0
 70
    32
  0
VERTEX
  5
21D7B
  8
01
  6
CONTINUOUS
 10
68.0162416153654
 20
-666.0593817110365
 30
0.0
 70
    32
  0
VERTEX
  5
21D7C
  8
01
  6
CONTINUOUS
 10
68.0162416153654
 20
-666.0667705402262
 30
0.0
 70
    32
  0
VERTEX
  5
21D7D
  8
01
  6
CONTINUOUS
 10
68.0162416153654
 20
-666.0737044637808
 30
0.0
 70
    32
  0
VERTEX
  5
21D7E
  8
01
  6
CONTINUOUS
 10
68.0162416153654
 20
-666.080180474651
 30
0.0
 70
    32
  0
VERTEX
  5
21D7F
  8
01
  6
CONTINUOUS
 10
68.0162416153654
 20
-666.0861955657881
 30
0.0
 70
    32
  0
VERTEX
  5
21D80
  8
01
  6
CONTINUOUS
 10
68.0162416153654
 20
-666.0917467301426
 30
0.0
 70
    32
  0
VERTEX
  5
21D81
  8
01
  6
CONTINUOUS
 10
68.0162416153654
 20
-666.0968309606658
 30
0.0
 70
    32
  0
VERTEX
  5
21D82
  8
01
  6
CONTINUOUS
 10
68.0162416153654
 20
-666.1014452503084
 30
0.0
 70
    32
  0
VERTEX
  5
21D83
  8
01
  6
CONTINUOUS
 10
68.0162416153654
 20
-666.1055865920215
 30
0.0
 70
    32
  0
VERTEX
  5
21D84
  8
01
  6
CONTINUOUS
 10
68.0162416153654
 20
-666.1092519787561
 30
0.0
 70
    32
  0
VERTEX
  5
21D85
  8
01
  6
CONTINUOUS
 10
68.0162416153654
 20
-666.1124384034629
 30
0.0
 70
    32
  0
VERTEX
  5
21D86
  8
01
  6
CONTINUOUS
 10
68.0162416153654
 20
-666.115142859093
 30
0.0
 70
    32
  0
VERTEX
  5
21D87
  8
01
  6
CONTINUOUS
 10
68.0162416153654
 20
-666.1173623385973
 30
0.0
 70
    32
  0
VERTEX
  5
21D88
  8
01
  6
CONTINUOUS
 10
68.0162416153654
 20
-666.1190938349268
 30
0.0
 70
    32
  0
VERTEX
  5
21D89
  8
01
  6
CONTINUOUS
 10
68.0162416153654
 20
-666.1203343410325
 30
0.0
 70
    32
  0
VERTEX
  5
21D8A
  8
01
  6
CONTINUOUS
 10
68.0162416153654
 20
-666.1210808498653
 30
0.0
 70
    32
  0
VERTEX
  5
21D8B
  8
01
  6
CONTINUOUS
 10
68.0162416153654
 20
-666.1213303543759
 30
0.0
 70
    32
  0
SEQEND
  5
220B3
  8
01
  6
CONTINUOUS
  0
LINE
  5
20DFA
  8
1PHANTOM
 10
73.01652216520085
 20
-653.57104980454
 30
0.0
 11
75.01596106552927
 21
-653.57104980454
 31
0.0
  0
ARC
  5
20DFB
  8
1PHANTOM
 10
73.01652216520097
 20
-655.8213303543758
 30
0.0
 40
2.250280549835765
 50
90.0000000000029
 51
270.0
  0
LINE
  5
20DFC
  8
1PHANTOM
 10
75.01596106552938
 20
-658.0716109042115
 30
0.0
 11
73.01652216520097
 21
-658.0716109042115
 31
0.0
  0
ARC
  5
20DFD
  8
1PHANTOM
 10
75.01596106552938
 20
-655.8213303543758
 30
0.0
 40
2.250280549835736
 50
270.0000000000058
 51
90.0000000000029
  0
LINE
  5
20DFE
  8
1PHANTOM
 10
96.26624161536517
 20
-654.8213303543755
 30
0.0
 11
96.26624161536529
 21
-656.8213303543755
 31
0.0
  0
ARC
  5
20DFF
  8
1PHANTOM
 10
94.01624161536517
 20
-654.8213303543755
 30
0.0
 40
2.25
 50
0.0
 51
180.0
  0
LINE
  5
20E00
  8
1PHANTOM
 10
91.76624161536529
 20
-656.8213303543755
 30
0.0
 11
91.76624161536517
 21
-654.8213303543755
 31
0.0
  0
ARC
  5
20E01
  8
1PHANTOM
 10
94.01624161536529
 20
-656.8213303543755
 30
0.0
 40
2.25
 50
180.0
 51
0.0
  0
LINE
  5
20E02
  8
01
 10
67.71624161536545
 20
-666.421330354376
 30
0.0
 11
63.7304777702376
 21
-666.4213303543761
 31
0.0
  0
ARC
  5
20E03
  8
01
 10
63.7304777702376
 20
-665.4213303543761
 30
0.0
 40
1.0
 50
225.0282924733985
 51
270.0
  0
LINE
  5
21114
  8
01
  6
CONTINUOUS
 10
618.0162416153653
 20
-636.1213303543707
 30
0.0
 11
618.0162416153653
 21
-637.1213303543707
 31
0.0
  0
LINE
  5
21115
  8
01
  6
CONTINUOUS
 10
618.0162416153653
 20
-637.1213303543707
 30
0.0
 11
618.0162416153653
 21
-645.6176046050068
 31
0.0
  0
LINE
  5
21116
  8
01
  6
CONTINUOUS
 10
618.0162416153653
 20
-645.6176046050068
 30
0.0
 11
618.0162416153653
 21
-646.4211617983516
 31
0.0
  0
LINE
  5
21117
  8
01
  6
CONTINUOUS
 10
618.0162416153653
 20
-646.4211617983516
 30
0.0
 11
618.0162416153653
 21
-665.9248875477155
 31
0.0
  0
LINE
  5
21118
  8
01
  6
CONTINUOUS
 10
618.0162416153654
 20
-666.1213303543707
 30
0.0
 11
68.0162416153654
 21
-666.1213303543707
 31
0.0
  0
LINE
  5
21119
  8
01
  6
CONTINUOUS
 10
618.0162416153653
 20
-665.9248875477155
 30
0.0
 11
618.0162416153653
 21
-666.1213303543707
 31
0.0
  0
LINE
  5
2111D
  8
1CENTER
 10
598.6412416153653
 20
-550.8213303512664
 30
0.0
 11
605.3912416153653
 21
-550.8213303512664
 31
0.0
  0
LINE
  5
2111E
  8
1CENTER
 10
602.0162416153653
 20
-554.1963303512664
 30
0.0
 11
602.0162416153653
 21
-547.4463303512664
 31
0.0
  0
LINE
  5
21128
  8
01
  6
CONTINUOUS
 10
68.01624161536483
 20
-636.1213303540276
 30
0.0
 11
618.0162416153653
 21
-636.1213303543707
 31
0.0
  0
LINE
  5
21129
  8
01
 10
68.01624161536506
 20
-646.0674781719047
 30
0.0
 11
618.0162416153653
 21
-646.0674781682781
 31
0.0
  0
ARC
  5
2112A
  8
1PHANTOM
 10
773.716241615365
 20
-636.8175482957437
 30
0.0
 40
0.700000000000017
 50
90.0
 51
180.0
  0
LINE
  5
2112E
  8
01
  6
CONTINUOUS
 10
618.0162416153653
 20
-565.8213303512664
 30
0.0
 11
343.0162416153646
 21
-565.8213303512664
 31
0.0
  0
LINE
  5
21131
  8
01
  6
CONTINUOUS
 10
618.0162416153653
 20
-539.3213303512664
 30
0.0
 11
343.0162416153646
 21
-539.3213303512664
 31
0.0
  0
ARC
  5
2114D
  8
1PHANTOM
 10
799.016241615365
 20
-644.6175482957436
 30
0.0
 40
0.5
 50
270.0
 51
0.0
  0
ARC
  5
2114E
  8
1PHANTOM
 10
799.816241615365
 20
-643.5799122495322
 30
0.0
 40
0.3000000000000114
 50
100.4190848063605
 51
180.0
  0
ARC
  5
21155
  8
1PHANTOM
 10
800.2755157572798
 20
-665.4175482957436
 30
0.0
 40
0.7000000000000332
 50
233.5000000000007
 51
270.0
  0
ARC
  5
21156
  8
1PHANTOM
 10
773.716241615365
 20
-645.7647192497164
 30
0.0
 40
0.7000000000000163
 50
180.0
 51
233.4999999999953
  0
ARC
  5
21157
  8
1PHANTOM
 10
775.516241615365
 20
-636.6175482957436
 30
0.0
 40
0.5
 50
0.0
 51
90.0
  0
ARC
  5
21158
  8
1PHANTOM
 10
776.516241615365
 20
-644.6175482957436
 30
0.0
 40
0.5
 50
180.0
 51
270.0
  0
LINE
  5
21160
  8
1PHANTOM
 10
776.016241615365
 20
-644.6175482957436
 30
0.0
 11
776.016241615365
 21
-636.6175482957436
 31
0.0
  0
LINE
  5
21161
  8
1PHANTOM
 10
775.516241615365
 20
-636.1175482957436
 30
0.0
 11
773.716241615365
 21
-636.1175482957436
 31
0.0
  0
LINE
  5
21162
  8
1PHANTOM
 10
773.016241615365
 20
-636.8175482957437
 30
0.0
 11
773.016241615365
 21
-645.7647192497164
 31
0.0
  0
LINE
  5
21163
  8
1PHANTOM
 10
773.299865664639
 20
-646.3274190521485
 30
0.0
 11
799.8591398065538
 21
-665.9802480981758
 31
0.0
  0
LINE
  5
21164
  8
1PHANTOM
 10
800.2755157572798
 20
-666.1175482957436
 30
0.0
 11
803.016241615365
 21
-666.1175482957436
 31
0.0
  0
LINE
  5
21166
  8
1PHANTOM
 10
803.016241615365
 20
-642.3175482957437
 30
0.0
 11
801.316241615365
 21
-642.3175482957437
 31
0.0
  0
LINE
  5
21168
  8
1PHANTOM
 10
799.516241615365
 20
-643.5799122495322
 30
0.0
 11
799.516241615365
 21
-644.6175482957436
 31
0.0
  0
LINE
  5
2116B
  8
01
  6
CONTINUOUS
 10
788.1662416153649
 20
-646.3175482957437
 30
0.0
 11
792.216241615365
 21
-646.3175482957437
 31
0.0
  0
LINE
  5
2116C
  8
01
  6
CONTINUOUS
 10
343.0162416153646
 20
-535.8213303512664
 30
0.0
 11
618.0162416153653
 21
-535.8213303512664
 31
0.0
  0
LINE
  5
2116D
  8
01
  6
CONTINUOUS
 10
343.0162416153646
 20
-537.5213303512664
 30
0.0
 11
618.0162416153653
 21
-537.5213303512664
 31
0.0
  0
LINE
  5
21171
  8
01
  6
CONTINUOUS
 10
343.0162416153646
 20
-562.8213303512664
 30
0.0
 11
618.0162416153653
 21
-562.8213303512664
 31
0.0
  0
ARC
  5
211BB
  8
1PHANTOM
 10
799.3098706993636
 20
-640.8260806469413
 30
0.0
 40
2.500000000000048
 50
280.4190848063491
 51
323.3741471438653
  0
LINE
  5
21376
  8
01
 10
618.0162416153653
 20
-535.8213303512664
 30
0.0
 11
618.0162416153653
 21
-565.8213303512664
 31
0.0
  0
LINE
  5
213EB
  8
01
 10
616.2662416153653
 20
-548.0713303512664
 30
0.0
 11
616.2662416153653
 21
-554.0713303512664
 31
0.0
  0
LINE
  5
213ED
  8
01
 10
343.0162416153646
 20
-539.8213303512664
 30
0.0
 11
615.7662416153653
 21
-539.8213303512664
 31
0.0
  0
LINE
  5
213EE
  8
01
 10
343.0162416153646
 20
-562.3213303512664
 30
0.0
 11
615.7662416153653
 21
-562.3213303512664
 31
0.0
  0
LINE
  5
213F2
  8
01
 10
618.0162416153653
 20
-548.0713303512664
 30
0.0
 11
616.2662416153653
 21
-548.0713303512664
 31
0.0
  0
LINE
  5
213F3
  8
01
 10
618.0162416153653
 20
-554.0713303512664
 30
0.0
 11
616.2662416153653
 21
-554.0713303512664
 31
0.0
  0
ARC
  5
213F6
  8
01
 10
615.7662416153653
 20
-558.8213303512664
 30
0.0
 40
3.5
 50
270.0
 51
292.1975924050254
  0
ARC
  5
213F7
  8
01
 10
615.7662416153653
 20
-543.3213303512664
 30
0.0
 40
3.5
 50
49.99479911513996
 51
90.0
  0
ARC
  5
21413
  8
01
 10
615.7662416153653
 20
-558.8213303512664
 30
0.0
 40
3.5
 50
301.0015183541224
 51
310.00520088486
  0
POLYLINE
  5
21414
  8
01
  6
CONTINUOUS
 10
0.0
 20
0.0
 30
0.0
 66
     1
 70
     8
  0
VERTEX
  5
21D8C
  8
01
  6
CONTINUOUS
 10
47.33891508170564
 20
-535.8213303512721
 30
0.0
 70
    32
  0
VERTEX
  5
21D8D
  8
01
  6
CONTINUOUS
 10
47.34398975736499
 20
-535.8213303512721
 30
0.0
 70
    32
  0
VERTEX
  5
21D8E
  8
01
  6
CONTINUOUS
 10
47.34956174156844
 20
-535.8213303512721
 30
0.0
 70
    32
  0
VERTEX
  5
21D8F
  8
01
  6
CONTINUOUS
 10
47.35562188992348
 20
-535.8213303512721
 30
0.0
 70
    32
  0
VERTEX
  5
21D90
  8
01
  6
CONTINUOUS
 10
47.36216105803761
 20
-535.8213303512721
 30
0.0
 70
    32
  0
VERTEX
  5
21D91
  8
01
  6
CONTINUOUS
 10
47.36917010151834
 20
-535.8213303512721
 30
0.0
 70
    32
  0
VERTEX
  5
21D92
  8
01
  6
CONTINUOUS
 10
47.37663987597314
 20
-535.8213303512721
 30
0.0
 70
    32
  0
VERTEX
  5
21D93
  8
01
  6
CONTINUOUS
 10
47.38456123700953
 20
-535.8213303512721
 30
0.0
 70
    32
  0
VERTEX
  5
21D94
  8
01
  6
CONTINUOUS
 10
47.39292504023499
 20
-535.8213303512721
 30
0.0
 70
    32
  0
VERTEX
  5
21D95
  8
01
  6
CONTINUOUS
 10
47.40172214125703
 20
-535.8213303512721
 30
0.0
 70
    32
  0
VERTEX
  5
21D96
  8
01
  6
CONTINUOUS
 10
47.41094339568311
 20
-535.8213303512721
 30
0.0
 70
    32
  0
VERTEX
  5
21D97
  8
01
  6
CONTINUOUS
 10
47.42057965912078
 20
-535.8213303512721
 30
0.0
 70
    32
  0
VERTEX
  5
21D98
  8
01
  6
CONTINUOUS
 10
47.4306217871775
 20
-535.8213303512721
 30
0.0
 70
    32
  0
VERTEX
  5
21D99
  8
01
  6
CONTINUOUS
 10
47.44106063546077
 20
-535.8213303512721
 30
0.0
 70
    32
  0
VERTEX
  5
21D9A
  8
01
  6
CONTINUOUS
 10
47.45188705957811
 20
-535.8213303512721
 30
0.0
 70
    32
  0
VERTEX
  5
21D9B
  8
01
  6
CONTINUOUS
 10
47.46309191513698
 20
-535.8213303512721
 30
0.0
 70
    32
  0
VERTEX
  5
21D9C
  8
01
  6
CONTINUOUS
 10
47.4746660577449
 20
-535.8213303512721
 30
0.0
 70
    32
  0
VERTEX
  5
21D9D
  8
01
  6
CONTINUOUS
 10
47.48660034300936
 20
-535.8213303512721
 30
0.0
 70
    32
  0
VERTEX
  5
21D9E
  8
01
  6
CONTINUOUS
 10
47.49888562653785
 20
-535.8213303512721
 30
0.0
 70
    32
  0
VERTEX
  5
21D9F
  8
01
  6
CONTINUOUS
 10
47.51151276393788
 20
-535.8213303512721
 30
0.0
 70
    32
  0
VERTEX
  5
21DA0
  8
01
  6
CONTINUOUS
 10
47.52447261081693
 20
-535.8213303512721
 30
0.0
 70
    32
  0
VERTEX
  5
21DA1
  8
01
  6
CONTINUOUS
 10
47.53775602278251
 20
-535.8213303512721
 30
0.0
 70
    32
  0
VERTEX
  5
21DA2
  8
01
  6
CONTINUOUS
 10
47.55135385544211
 20
-535.8213303512721
 30
0.0
 70
    32
  0
VERTEX
  5
21DA3
  8
01
  6
CONTINUOUS
 10
47.56525696440321
 20
-535.8213303512721
 30
0.0
 70
    32
  0
VERTEX
  5
21DA4
  8
01
  6
CONTINUOUS
 10
47.57945620527335
 20
-535.8213303512721
 30
0.0
 70
    32
  0
SEQEND
  5
220B4
  8
01
  6
CONTINUOUS
  0
POLYLINE
  5
21415
  8
01
  6
CONTINUOUS
 10
0.0
 20
0.0
 30
0.0
 66
     1
 70
     8
  0
VERTEX
  5
21DA5
  8
01
  6
CONTINUOUS
 10
46.86158104624928
 20
-535.8213303512721
 30
0.0
 70
    32
  0
VERTEX
  5
21DA6
  8
01
  6
CONTINUOUS
 10
46.87755408317458
 20
-535.8213303512721
 30
0.0
 70
    32
  0
VERTEX
  5
21DA7
  8
01
  6
CONTINUOUS
 10
46.89347454941801
 20
-535.8213303512721
 30
0.0
 70
    32
  0
VERTEX
  5
21DA8
  8
01
  6
CONTINUOUS
 10
46.9093306057071
 20
-535.8213303512721
 30
0.0
 70
    32
  0
VERTEX
  5
21DA9
  8
01
  6
CONTINUOUS
 10
46.92511041276935
 20
-535.8213303512721
 30
0.0
 70
    32
  0
VERTEX
  5
21DAA
  8
01
  6
CONTINUOUS
 10
46.94080213133229
 20
-535.8213303512721
 30
0.0
 70
    32
  0
VERTEX
  5
21DAB
  8
01
  6
CONTINUOUS
 10
46.95639392212344
 20
-535.8213303512721
 30
0.0
 70
    32
  0
VERTEX
  5
21DAC
  8
01
  6
CONTINUOUS
 10
46.97187394587031
 20
-535.8213303512721
 30
0.0
 70
    32
  0
VERTEX
  5
21DAD
  8
01
  6
CONTINUOUS
 10
46.98723036330041
 20
-535.8213303512721
 30
0.0
 70
    32
  0
VERTEX
  5
21DAE
  8
01
  6
CONTINUOUS
 10
47.00245133514127
 20
-535.8213303512721
 30
0.0
 70
    32
  0
VERTEX
  5
21DAF
  8
01
  6
CONTINUOUS
 10
47.0175250221204
 20
-535.8213303512721
 30
0.0
 70
    32
  0
VERTEX
  5
21DB0
  8
01
  6
CONTINUOUS
 10
47.03243958496532
 20
-535.8213303512721
 30
0.0
 70
    32
  0
VERTEX
  5
21DB1
  8
01
  6
CONTINUOUS
 10
47.04718318440354
 20
-535.8213303512721
 30
0.0
 70
    32
  0
VERTEX
  5
21DB2
  8
01
  6
CONTINUOUS
 10
47.06174398116258
 20
-535.8213303512721
 30
0.0
 70
    32
  0
VERTEX
  5
21DB3
  8
01
  6
CONTINUOUS
 10
47.07611013596996
 20
-535.8213303512721
 30
0.0
 70
    32
  0
VERTEX
  5
21DB4
  8
01
  6
CONTINUOUS
 10
47.09026980955321
 20
-535.8213303512721
 30
0.0
 70
    32
  0
VERTEX
  5
21DB5
  8
01
  6
CONTINUOUS
 10
47.10421116263981
 20
-535.8213303512721
 30
0.0
 70
    32
  0
VERTEX
  5
21DB6
  8
01
  6
CONTINUOUS
 10
47.11792235595732
 20
-535.8213303512721
 30
0.0
 70
    32
  0
VERTEX
  5
21DB7
  8
01
  6
CONTINUOUS
 10
47.13139155023323
 20
-535.8213303512721
 30
0.0
 70
    32
  0
VERTEX
  5
21DB8
  8
01
  6
CONTINUOUS
 10
47.14460690619506
 20
-535.8213303512721
 30
0.0
 70
    32
  0
VERTEX
  5
21DB9
  8
01
  6
CONTINUOUS
 10
47.15755658457033
 20
-535.8213303512721
 30
0.0
 70
    32
  0
VERTEX
  5
21DBA
  8
01
  6
CONTINUOUS
 10
47.17020886594464
 20
-535.8213303512721
 30
0.0
 70
    32
  0
VERTEX
  5
21DBB
  8
01
  6
CONTINUOUS
 10
47.18253431604003
 20
-535.8213303512721
 30
0.0
 70
    32
  0
VERTEX
  5
21DBC
  8
01
  6
CONTINUOUS
 10
47.19452452328861
 20
-535.8213303512721
 30
0.0
 70
    32
  0
VERTEX
  5
21DBD
  8
01
  6
CONTINUOUS
 10
47.20617107612256
 20
-535.8213303512721
 30
0.0
 70
    32
  0
VERTEX
  5
21DBE
  8
01
  6
CONTINUOUS
 10
47.21746556297401
 20
-535.8213303512721
 30
0.0
 70
    32
  0
VERTEX
  5
21DBF
  8
01
  6
CONTINUOUS
 10
47.22839957227512
 20
-535.8213303512721
 30
0.0
 70
    32
  0
VERTEX
  5
21DC0
  8
01
  6
CONTINUOUS
 10
47.23896469245801
 20
-535.8213303512721
 30
0.0
 70
    32
  0
VERTEX
  5
21DC1
  8
01
  6
CONTINUOUS
 10
47.24915251195485
 20
-535.8213303512721
 30
0.0
 70
    32
  0
VERTEX
  5
21DC2
  8
01
  6
CONTINUOUS
 10
47.25895461919777
 20
-535.8213303512721
 30
0.0
 70
    32
  0
VERTEX
  5
21DC3
  8
01
  6
CONTINUOUS
 10
47.26836260261894
 20
-535.8213303512721
 30
0.0
 70
    32
  0
VERTEX
  5
21DC4
  8
01
  6
CONTINUOUS
 10
47.27736805065048
 20
-535.8213303512721
 30
0.0
 70
    32
  0
VERTEX
  5
21DC5
  8
01
  6
CONTINUOUS
 10
47.28596255172454
 20
-535.8213303512721
 30
0.0
 70
    32
  0
VERTEX
  5
21DC6
  8
01
  6
CONTINUOUS
 10
47.29413769427329
 20
-535.8213303512721
 30
0.0
 70
    32
  0
VERTEX
  5
21DC7
  8
01
  6
CONTINUOUS
 10
47.30188506672886
 20
-535.8213303512721
 30
0.0
 70
    32
  0
VERTEX
  5
21DC8
  8
01
  6
CONTINUOUS
 10
47.30919625752338
 20
-535.8213303512721
 30
0.0
 70
    32
  0
VERTEX
  5
21DC9
  8
01
  6
CONTINUOUS
 10
47.31606285508902
 20
-535.8213303512721
 30
0.0
 70
    32
  0
VERTEX
  5
21DCA
  8
01
  6
CONTINUOUS
 10
47.32247644785792
 20
-535.8213303512721
 30
0.0
 70
    32
  0
VERTEX
  5
21DCB
  8
01
  6
CONTINUOUS
 10
47.32842862426223
 20
-535.8213303512721
 30
0.0
 70
    32
  0
VERTEX
  5
21DCC
  8
01
  6
CONTINUOUS
 10
47.33391097273408
 20
-535.8213303512721
 30
0.0
 70
    32
  0
VERTEX
  5
21DCD
  8
01
  6
CONTINUOUS
 10
47.33891508170564
 20
-535.8213303512721
 30
0.0
 70
    32
  0
SEQEND
  5
220B5
  8
01
  6
CONTINUOUS
  0
ARC
  5
21416
  8
01
  6
CONTINUOUS
 10
67.01624161536245
 20
-542.1213303512716
 30
0.0
 40
24.0
 50
179.9999999999987
 51
270.000000000001
  0
LINE
  5
21417
  8
01
  6
CONTINUOUS
 10
43.01624161536245
 20
-542.1213303512721
 30
0.0
 11
43.01624161536233
 21
-535.8213303512721
 31
0.0
  0
LINE
  5
21418
  8
01
  6
CONTINUOUS
 10
43.01624161536233
 20
-535.8213303512721
 30
0.0
 11
44.01624161536233
 21
-535.8213303512721
 31
0.0
  0
LINE
  5
21419
  8
01
  6
CONTINUOUS
 10
44.01624161536233
 20
-535.8213303512721
 30
0.0
 11
46.86158104624928
 21
-535.8213303512721
 31
0.0
  0
LINE
  5
2141A
  8
01
  6
CONTINUOUS
 10
67.71624161536272
 20
-566.1213303512716
 30
0.0
 11
67.0162416153629
 21
-566.1213303512716
 31
0.0
  0
ARC
  5
2141B
  8
01
  6
CONTINUOUS
 10
67.71624161536272
 20
-565.8213303512716
 30
0.0
 40
0.3000000000000114
 50
270.0
 51
0.0
  0
LINE
  5
2141C
  8
01
  6
CONTINUOUS
 10
47.57945688910354
 20
-535.8213303512721
 30
0.0
 11
67.72401562061145
 21
-535.8213303512716
 31
0.0
  0
POLYLINE
  5
2141D
  8
01
 66
     1
 10
0.0
 20
0.0
 30
0.0
  0
VERTEX
  5
21DCE
  8
01
 10
47.33891508170564
 20
-535.8213303512721
 30
0.0
  0
VERTEX
  5
21DCF
  8
01
 10
47.33955113328984
 20
-535.9387493156082
 30
0.0
  0
VERTEX
  5
21DD0
  8
01
 10
47.34019078214293
 20
-536.0561681920025
 30
0.0
  0
VERTEX
  5
21DD1
  8
01
 10
47.34083399645807
 20
-536.1735869812354
 30
0.0
  0
VERTEX
  5
21DD2
  8
01
 10
47.34148074442843
 20
-536.291005684088
 30
0.0
  0
VERTEX
  5
21DD3
  8
01
 10
47.3421309942472
 20
-536.4084243013413
 30
0.0
  0
VERTEX
  5
21DD4
  8
01
 10
47.34278471410754
 20
-536.5258428337755
 30
0.0
  0
VERTEX
  5
21DD5
  8
01
 10
47.34344187220262
 20
-536.643261282172
 30
0.0
  0
VERTEX
  5
21DD6
  8
01
 10
47.34410243672561
 20
-536.7606796473116
 30
0.0
  0
VERTEX
  5
21DD7
  8
01
 10
47.34476637586969
 20
-536.8780979299751
 30
0.0
  0
VERTEX
  5
21DD8
  8
01
 10
47.34543365782802
 20
-536.995516130943
 30
0.0
  0
VERTEX
  5
21DD9
  8
01
 10
47.34610425079379
 20
-537.1129342509963
 30
0.0
  0
VERTEX
  5
21DDA
  8
01
 10
47.34677812296014
 20
-537.230352290916
 30
0.0
  0
VERTEX
  5
21DDB
  8
01
 10
47.34745524252027
 20
-537.347770251483
 30
0.0
  0
VERTEX
  5
21DDC
  8
01
 10
47.34813557766735
 20
-537.4651881334778
 30
0.0
  0
VERTEX
  5
21DDD
  8
01
 10
47.34881909659453
 20
-537.5826059376815
 30
0.0
  0
VERTEX
  5
21DDE
  8
01
 10
47.349505767495
 20
-537.7000236648747
 30
0.0
  0
VERTEX
  5
21DDF
  8
01
 10
47.35019555856192
 20
-537.8174413158384
 30
0.0
  0
VERTEX
  5
21DE0
  8
01
 10
47.35088843798848
 20
-537.9348588913535
 30
0.0
  0
VERTEX
  5
21DE1
  8
01
 10
47.35158437396783
 20
-538.0522763922007
 30
0.0
  0
VERTEX
  5
21DE2
  8
01
 10
47.35228333469315
 20
-538.1696938191608
 30
0.0
  0
VERTEX
  5
21DE3
  8
01
 10
47.35298528835762
 20
-538.2871111730148
 30
0.0
  0
VERTEX
  5
21DE4
  8
01
 10
47.3536902031544
 20
-538.4045284545433
 30
0.0
  0
VERTEX
  5
21DE5
  8
01
 10
47.35439804727667
 20
-538.5219456645273
 30
0.0
  0
VERTEX
  5
21DE6
  8
01
 10
47.3551087889176
 20
-538.6393628037475
 30
0.0
  0
VERTEX
  5
21DE7
  8
01
 10
47.35582239627035
 20
-538.756779872985
 30
0.0
  0
VERTEX
  5
21DE8
  8
01
 10
47.3565388375281
 20
-538.8741968730203
 30
0.0
  0
VERTEX
  5
21DE9
  8
01
 10
47.35725808088402
 20
-538.9916138046345
 30
0.0
  0
VERTEX
  5
21DEA
  8
01
 10
47.35798009453129
 20
-539.1090306686083
 30
0.0
  0
VERTEX
  5
21DEB
  8
01
 10
47.35870484666307
 20
-539.2264474657225
 30
0.0
  0
VERTEX
  5
21DEC
  8
01
 10
47.35943230547253
 20
-539.343864196758
 30
0.0
  0
VERTEX
  5
21DED
  8
01
 10
47.36016243915285
 20
-539.4612808624956
 30
0.0
  0
VERTEX
  5
21DEE
  8
01
 10
47.36089521589721
 20
-539.5786974637161
 30
0.0
  0
VERTEX
  5
21DEF
  8
01
 10
47.36163061772146
 20
-539.6961140008605
 30
0.0
  0
VERTEX
  5
21DF0
  8
01
 10
47.36236863487269
 20
-539.8135304741676
 30
0.0
  0
VERTEX
  5
21DF1
  8
01
 10
47.36310924789085
 20
-539.9309468841158
 30
0.0
  0
VERTEX
  5
21DF2
  8
01
 10
47.36385243731593
 20
-540.0483632311835
 30
0.0
  0
VERTEX
  5
21DF3
  8
01
 10
47.3645981836879
 20
-540.1657795158493
 30
0.0
  0
VERTEX
  5
21DF4
  8
01
 10
47.36534646754671
 20
-540.2831957385911
 30
0.0
  0
VERTEX
  5
21DF5
  8
01
 10
47.36609726943235
 20
-540.4006118998876
 30
0.0
  0
VERTEX
  5
21DF6
  8
01
 10
47.36685056988477
 20
-540.518028000217
 30
0.0
  0
VERTEX
  5
21DF7
  8
01
 10
47.36760634944396
 20
-540.6354440400577
 30
0.0
  0
VERTEX
  5
21DF8
  8
01
 10
47.36836458864988
 20
-540.7528600198881
 30
0.0
  0
VERTEX
  5
21DF9
  8
01
 10
47.36912526804249
 20
-540.8702759401865
 30
0.0
  0
VERTEX
  5
21DFA
  8
01
 10
47.36988836816177
 20
-540.9876918014313
 30
0.0
  0
VERTEX
  5
21DFB
  8
01
 10
47.37065386954769
 20
-541.1051076041008
 30
0.0
  0
VERTEX
  5
21DFC
  8
01
 10
47.37142175274022
 20
-541.2225233486735
 30
0.0
  0
VERTEX
  5
21DFD
  8
01
 10
47.37219199827932
 20
-541.3399390356274
 30
0.0
  0
VERTEX
  5
21DFE
  8
01
 10
47.37296458670497
 20
-541.4573546654411
 30
0.0
  0
VERTEX
  5
21DFF
  8
01
 10
47.37364163492935
 20
-541.574772609257
 30
0.0
  0
VERTEX
  5
21E00
  8
01
 10
47.37420129716549
 20
-541.6921933935913
 30
0.0
  0
VERTEX
  5
21E01
  8
01
 10
47.37475760990472
 20
-541.8096142519827
 30
0.0
  0
VERTEX
  5
21E02
  8
01
 10
47.37542460963832
 20
-541.9270324179704
 30
0.0
  0
VERTEX
  5
21E03
  8
01
 10
47.37631633285761
 20
-542.0444451250934
 30
0.0
  0
VERTEX
  5
21E04
  8
01
 10
47.37754681605388
 20
-542.1618496068903
 30
0.0
  0
VERTEX
  5
21E05
  8
01
 10
47.37923009571843
 20
-542.2792430969005
 30
0.0
  0
VERTEX
  5
21E06
  8
01
 10
47.38148020834257
 20
-542.3966228286628
 30
0.0
  0
VERTEX
  5
21E07
  8
01
 10
47.38440373782763
 20
-542.513986228269
 30
0.0
  0
VERTEX
  5
21E08
  8
01
 10
47.38803095843114
 20
-542.631332573029
 30
0.0
  0
VERTEX
  5
21E09
  8
01
 10
47.39236144217866
 20
-542.7486618733093
 30
0.0
  0
VERTEX
  5
21E0A
  8
01
 10
47.39739476109575
 20
-542.865974139476
 30
0.0
  0
VERTEX
  5
21E0B
  8
01
 10
47.40313048720795
 20
-542.9832693818955
 30
0.0
  0
VERTEX
  5
21E0C
  8
01
 10
47.40956819254082
 20
-543.100547610934
 30
0.0
  0
VERTEX
  5
21E0D
  8
01
 10
47.41670744911994
 20
-543.2178088369577
 30
0.0
  0
VERTEX
  5
21E0E
  8
01
 10
47.42454782897084
 20
-543.335053070333
 30
0.0
  0
VERTEX
  5
21E0F
  8
01
 10
47.43309327251319
 20
-543.4523052127075
 30
0.0
  0
VERTEX
  5
21E10
  8
01
 10
47.44234677732007
 20
-543.5695810497295
 30
0.0
  0
VERTEX
  5
21E11
  8
01
 10
47.45230650114724
 20
-543.6868669177661
 30
0.0
  0
VERTEX
  5
21E12
  8
01
 10
47.46297060175042
 20
-543.8041491531839
 30
0.0
  0
VERTEX
  5
21E13
  8
01
 10
47.47433723688536
 20
-543.9214140923503
 30
0.0
  0
VERTEX
  5
21E14
  8
01
 10
47.48640456430779
 20
-544.0386480716321
 30
0.0
  0
VERTEX
  5
21E15
  8
01
 10
47.49917074177346
 20
-544.1558374273962
 30
0.0
  0
VERTEX
  5
21E16
  8
01
 10
47.5126339270381
 20
-544.2729684960098
 30
0.0
  0
VERTEX
  5
21E17
  8
01
 10
47.52679227785744
 20
-544.3900276138396
 30
0.0
  0
VERTEX
  5
21E18
  8
01
 10
47.54164395198723
 20
-544.5070011172529
 30
0.0
  0
VERTEX
  5
21E19
  8
01
 10
47.55718710718321
 20
-544.6238753426165
 30
0.0
  0
VERTEX
  5
21E1A
  8
01
 10
47.57341990120111
 20
-544.7406366262974
 30
0.0
  0
VERTEX
  5
21E1B
  8
01
 10
47.59034049179667
 20
-544.8572713046626
 30
0.0
  0
VERTEX
  5
21E1C
  8
01
 10
47.60794703672563
 20
-544.9737657140791
 30
0.0
  0
VERTEX
  5
21E1D
  8
01
 10
47.62623769374372
 20
-545.090106190914
 30
0.0
  0
VERTEX
  5
21E1E
  8
01
 10
47.64521062060669
 20
-545.206279071534
 30
0.0
  0
VERTEX
  5
21E1F
  8
01
 10
47.66486085446112
 20
-545.322274170986
 30
0.0
  0
VERTEX
  5
21E20
  8
01
 10
47.6851842929575
 20
-545.4380905110294
 30
0.0
  0
VERTEX
  5
21E21
  8
01
 10
47.70618038460744
 20
-545.5537282380994
 30
0.0
  0
VERTEX
  5
21E22
  8
01
 10
47.72784857792253
 20
-545.6691874986321
 30
0.0
  0
VERTEX
  5
21E23
  8
01
 10
47.75018832141436
 20
-545.7844684390632
 30
0.0
  0
VERTEX
  5
21E24
  8
01
 10
47.77319906359451
 20
-545.8995712058284
 30
0.0
  0
VERTEX
  5
21E25
  8
01
 10
47.79688025297461
 20
-546.0144959453634
 30
0.0
  0
VERTEX
  5
21E26
  8
01
 10
47.82123133806624
 20
-546.1292428041036
 30
0.0
  0
VERTEX
  5
21E27
  8
01
 10
47.84625176738099
 20
-546.2438119284852
 30
0.0
  0
VERTEX
  5
21E28
  8
01
 10
47.87194098943046
 20
-546.3582034649436
 30
0.0
  0
VERTEX
  5
21E29
  8
01
 10
47.89829845272625
 20
-546.4724175599146
 30
0.0
  0
VERTEX
  5
21E2A
  8
01
 10
47.92532360577995
 20
-546.586454359834
 30
0.0
  0
VERTEX
  5
21E2B
  8
01
 10
47.95301589710316
 20
-546.7003140111374
 30
0.0
  0
VERTEX
  5
21E2C
  8
01
 10
47.98137477520746
 20
-546.8139966602605
 30
0.0
  0
VERTEX
  5
21E2D
  8
01
 10
48.01039968860448
 20
-546.9275024536391
 30
0.0
  0
VERTEX
  5
21E2E
  8
01
 10
48.04009008580579
 20
-547.0408315377086
 30
0.0
  0
VERTEX
  5
21E2F
  8
01
 10
48.07044566943513
 20
-547.1539839914302
 30
0.0
  0
VERTEX
  5
21E30
  8
01
 10
48.10146715856487
 20
-547.2669596238634
 30
0.0
  0
VERTEX
  5
21E31
  8
01
 10
48.13315552637948
 20
-547.379758176593
 30
0.0
  0
VERTEX
  5
21E32
  8
01
 10
48.16551174606349
 20
-547.492379391204
 30
0.0
  0
VERTEX
  5
21E33
  8
01
 10
48.19853679080136
 20
-547.6048230092812
 30
0.0
  0
VERTEX
  5
21E34
  8
01
 10
48.23223163377762
 20
-547.7170887724094
 30
0.0
  0
VERTEX
  5
21E35
  8
01
 10
48.26659724817675
 20
-547.8291764221733
 30
0.0
  0
VERTEX
  5
21E36
  8
01
 10
48.30163460718325
 20
-547.9410857001578
 30
0.0
  0
VERTEX
  5
21E37
  8
01
 10
48.33734468398162
 20
-548.0528163479479
 30
0.0
  0
VERTEX
  5
21E38
  8
01
 10
48.37372845175635
 20
-548.1643681071282
 30
0.0
  0
VERTEX
  5
21E39
  8
01
 10
48.41078688369194
 20
-548.2757407192836
 30
0.0
  0
VERTEX
  5
21E3A
  8
01
 10
48.44852095297289
 20
-548.3869339259988
 30
0.0
  0
VERTEX
  5
21E3B
  8
01
 10
48.48693163278369
 20
-548.4979474688589
 30
0.0
  0
VERTEX
  5
21E3C
  8
01
 10
48.52601989630886
 20
-548.6087810894485
 30
0.0
  0
VERTEX
  5
21E3D
  8
01
 10
48.56578671673287
 20
-548.7194345293525
 30
0.0
  0
VERTEX
  5
21E3E
  8
01
 10
48.60623306724023
 20
-548.8299075301557
 30
0.0
  0
VERTEX
  5
21E3F
  8
01
 10
48.64736360716707
 20
-548.9401979760582
 30
0.0
  0
VERTEX
  5
21E40
  8
01
 10
48.68918006140849
 20
-549.0502980263452
 30
0.0
  0
VERTEX
  5
21E41
  8
01
 10
48.73167900148729
 20
-549.1601988352288
 30
0.0
  0
VERTEX
  5
21E42
  8
01
 10
48.77485699892635
 20
-549.269891556921
 30
0.0
  0
VERTEX
  5
21E43
  8
01
 10
48.81871062524852
 20
-549.3793673456339
 30
0.0
  0
VERTEX
  5
21E44
  8
01
 10
48.86323645197666
 20
-549.4886173555795
 30
0.0
  0
VERTEX
  5
21E45
  8
01
 10
48.9084310506336
 20
-549.5976327409701
 30
0.0
  0
VERTEX
  5
21E46
  8
01
 10
48.95429099274222
 20
-549.7064046560174
 30
0.0
  0
VERTEX
  5
21E47
  8
01
 10
49.00081284982536
 20
-549.8149242549338
 30
0.0
  0
VERTEX
  5
21E48
  8
01
 10
49.04799319340587
 20
-549.9231826919312
 30
0.0
  0
VERTEX
  5
21E49
  8
01
 10
49.0958285950066
 20
-550.0311711212217
 30
0.0
  0
VERTEX
  5
21E4A
  8
01
 10
49.14431562615041
 20
-550.1388806970174
 30
0.0
  0
VERTEX
  5
21E4B
  8
01
 10
49.19345085836016
 20
-550.2463025735303
 30
0.0
  0
VERTEX
  5
21E4C
  8
01
 10
49.24323086315868
 20
-550.3534279049726
 30
0.0
  0
VERTEX
  5
21E4D
  8
01
 10
49.29365221206884
 20
-550.4602478455563
 30
0.0
  0
VERTEX
  5
21E4E
  8
01
 10
49.3447114766135
 20
-550.5667535494933
 30
0.0
  0
SEQEND
  5
220B6
  8
01
  0
POLYLINE
  5
2141E
  8
01
 66
     1
 10
0.0
 20
0.0
 30
0.0
  0
VERTEX
  5
21E4F
  8
01
 10
57.67271527586377
 20
-559.344905018028
 30
0.0
  0
VERTEX
  5
21E50
  8
01
 10
57.76153770839584
 20
-559.3934843550142
 30
0.0
  0
VERTEX
  5
21E51
  8
01
 10
57.85058571692412
 20
-559.4416011088717
 30
0.0
  0
VERTEX
  5
21E52
  8
01
 10
57.93985940071539
 20
-559.489255075898
 30
0.0
  0
VERTEX
  5
21E53
  8
01
 10
58.02935885903649
 20
-559.5364460523897
 30
0.0
  0
VERTEX
  5
21E54
  8
01
 10
58.11908419115422
 20
-559.5831738346443
 30
0.0
  0
VERTEX
  5
21E55
  8
01
 10
58.20903549633539
 20
-559.6294382189587
 30
0.0
  0
VERTEX
  5
21E56
  8
01
 10
58.29921287384681
 20
-559.6752390016301
 30
0.0
  0
VERTEX
  5
21E57
  8
01
 10
58.38961642295528
 20
-559.7205759789554
 30
0.0
  0
VERTEX
  5
21E58
  8
01
 10
58.48024624292762
 20
-559.7654489472319
 30
0.0
  0
VERTEX
  5
21E59
  8
01
 10
58.57110243303064
 20
-559.8098577027565
 30
0.0
  0
VERTEX
  5
21E5A
  8
01
 10
58.66218509253115
 20
-559.8538020418266
 30
0.0
  0
VERTEX
  5
21E5B
  8
01
 10
58.75349432069596
 20
-559.8972817607389
 30
0.0
  0
VERTEX
  5
21E5C
  8
01
 10
58.84503021679188
 20
-559.9402966557907
 30
0.0
  0
VERTEX
  5
21E5D
  8
01
 10
58.9368040212792
 20
-559.9828490293409
 30
0.0
  0
VERTEX
  5
21E5E
  8
01
 10
59.02881877550589
 20
-560.0249381309707
 30
0.0
  0
VERTEX
  5
21E5F
  8
01
 10
59.1210622800703
 20
-560.0665591778117
 30
0.0
  0
VERTEX
  5
21E60
  8
01
 10
59.21352233557077
 20
-560.1077073869951
 30
0.0
  0
VERTEX
  5
21E61
  8
01
 10
59.30618674260565
 20
-560.148377975652
 30
0.0
  0
VERTEX
  5
21E62
  8
01
 10
59.3990433017733
 20
-560.188566160914
 30
0.0
  0
VERTEX
  5
21E63
  8
01
 10
59.49207981367205
 20
-560.2282671599122
 30
0.0
  0
VERTEX
  5
21E64
  8
01
 10
59.58528407890025
 20
-560.2674761897779
 30
0.0
  0
VERTEX
  5
21E65
  8
01
 10
59.67864389805626
 20
-560.3061884676422
 30
0.0
  0
VERTEX
  5
21E66
  8
01
 10
59.77214707173842
 20
-560.3443992106369
 30
0.0
  0
VERTEX
  5
21E67
  8
01
 10
59.86578140054506
 20
-560.3821036358927
 30
0.0
  0
VERTEX
  5
21E68
  8
01
 10
59.95953468507455
 20
-560.4192969605411
 30
0.0
  0
VERTEX
  5
21E69
  8
01
 10
60.05339472592524
 20
-560.4559744017135
 30
0.0
  0
VERTEX
  5
21E6A
  8
01
 10
60.14736424274418
 20
-560.4921414066658
 30
0.0
  0
VERTEX
  5
21E6B
  8
01
 10
60.24145396197229
 20
-560.5278071371193
 30
0.0
  0
VERTEX
  5
21E6C
  8
01
 10
60.33566369439862
 20
-560.5629723819044
 30
0.0
  0
VERTEX
  5
21E6D
  8
01
 10
60.42999325081226
 20
-560.5976379298511
 30
0.0
  0
VERTEX
  5
21E6E
  8
01
 10
60.52444244200227
 20
-560.6318045697894
 30
0.0
  0
VERTEX
  5
21E6F
  8
01
 10
60.61901107875772
 20
-560.6654730905495
 30
0.0
  0
VERTEX
  5
21E70
  8
01
 10
60.71369897186768
 20
-560.6986442809614
 30
0.0
  0
VERTEX
  5
21E71
  8
01
 10
60.80850593212124
 20
-560.7313189298551
 30
0.0
  0
VERTEX
  5
21E72
  8
01
 10
60.90343177030744
 20
-560.7634978260609
 30
0.0
  0
VERTEX
  5
21E73
  8
01
 10
60.99847629721537
 20
-560.7951817584085
 30
0.0
  0
VERTEX
  5
21E74
  8
01
 10
61.09363932363409
 20
-560.8263715157283
 30
0.0
  0
VERTEX
  5
21E75
  8
01
 10
61.18892066035268
 20
-560.8570678868502
 30
0.0
  0
VERTEX
  5
21E76
  8
01
 10
61.28432011816021
 20
-560.8872716606045
 30
0.0
  0
VERTEX
  5
21E77
  8
01
 10
61.37983750784574
 20
-560.916983625821
 30
0.0
  0
VERTEX
  5
21E78
  8
01
 10
61.47547264019835
 20
-560.9462045713299
 30
0.0
  0
VERTEX
  5
21E79
  8
01
 10
61.57122532600712
 20
-560.9749352859612
 30
0.0
  0
VERTEX
  5
21E7A
  8
01
 10
61.66709537606111
 20
-561.0031765585452
 30
0.0
  0
VERTEX
  5
21E7B
  8
01
 10
61.76308260114939
 20
-561.0309291779118
 30
0.0
  0
VERTEX
  5
21E7C
  8
01
 10
61.85918681206102
 20
-561.058193932891
 30
0.0
  0
VERTEX
  5
21E7D
  8
01
 10
61.95540781958509
 20
-561.084971612313
 30
0.0
  0
VERTEX
  5
21E7E
  8
01
 10
62.05174543451066
 20
-561.1112630050078
 30
0.0
  0
VERTEX
  5
21E7F
  8
01
 10
62.14819946762681
 20
-561.1370688998055
 30
0.0
  0
VERTEX
  5
21E80
  8
01
 10
62.2447697297226
 20
-561.1623900855362
 30
0.0
  0
VERTEX
  5
21E81
  8
01
 10
62.34145603158711
 20
-561.1872273510301
 30
0.0
  0
VERTEX
  5
21E82
  8
01
 10
62.43825818400939
 20
-561.2115814851169
 30
0.0
  0
VERTEX
  5
21E83
  8
01
 10
62.53517599777854
 20
-561.2354532766271
 30
0.0
  0
VERTEX
  5
21E84
  8
01
 10
62.63220934112032
 20
-561.2588432748075
 30
0.0
  0
VERTEX
  5
21E85
  8
01
 10
62.72935829161399
 20
-561.2817511559311
 30
0.0
  0
VERTEX
  5
21E86
  8
01
 10
62.82662297407888
 20
-561.3041763993663
 30
0.0
  0
VERTEX
  5
21E87
  8
01
 10
62.9240035133343
 20
-561.3261184844819
 30
0.0
  0
VERTEX
  5
21E88
  8
01
 10
63.02150003419956
 20
-561.3475768906462
 30
0.0
  0
VERTEX
  5
21E89
  8
01
 10
63.11911266149398
 20
-561.3685510972281
 30
0.0
  0
VERTEX
  5
21E8A
  8
01
 10
63.21684152003687
 20
-561.389040583596
 30
0.0
  0
VERTEX
  5
21E8B
  8
01
 10
63.31468673464755
 20
-561.4090448291186
 30
0.0
  0
VERTEX
  5
21E8C
  8
01
 10
63.41264843014534
 20
-561.4285633131644
 30
0.0
  0
VERTEX
  5
21E8D
  8
01
 10
63.51072673134954
 20
-561.447595515102
 30
0.0
  0
VERTEX
  5
21E8E
  8
01
 10
63.60892176307948
 20
-561.4661409143001
 30
0.0
  0
VERTEX
  5
21E8F
  8
01
 10
63.70723365015448
 20
-561.4841989901272
 30
0.0
  0
VERTEX
  5
21E90
  8
01
 10
63.80566251739383
 20
-561.5017692219518
 30
0.0
  0
VERTEX
  5
21E91
  8
01
 10
63.90420848961687
 20
-561.5188510891427
 30
0.0
  0
VERTEX
  5
21E92
  8
01
 10
64.0028716916429
 20
-561.5354440710684
 30
0.0
  0
VERTEX
  5
21E93
  8
01
 10
64.10165224829124
 20
-561.5515476470973
 30
0.0
  0
VERTEX
  5
21E94
  8
01
 10
64.20055028438121
 20
-561.5671612965983
 30
0.0
  0
VERTEX
  5
21E95
  8
01
 10
64.29956592473211
 20
-561.5822844989399
 30
0.0
  0
VERTEX
  5
21E96
  8
01
 10
64.39869929416328
 20
-561.5969167334906
 30
0.0
  0
VERTEX
  5
21E97
  8
01
 10
64.497950517494
 20
-561.6110574796189
 30
0.0
  0
VERTEX
  5
21E98
  8
01
 10
64.59731971954363
 20
-561.6247062166938
 30
0.0
  0
VERTEX
  5
21E99
  8
01
 10
64.69680702513145
 20
-561.6378624240833
 30
0.0
  0
VERTEX
  5
21E9A
  8
01
 10
64.79641255907678
 20
-561.6505255811566
 30
0.0
  0
VERTEX
  5
21E9B
  8
01
 10
64.89613644619897
 20
-561.6626951672819
 30
0.0
  0
VERTEX
  5
21E9C
  8
01
 10
64.99597881131727
 20
-561.674370661828
 30
0.0
  0
VERTEX
  5
21E9D
  8
01
 10
65.09593977925105
 20
-561.6855515441632
 30
0.0
  0
VERTEX
  5
21E9E
  8
01
 10
65.19603595475138
 20
-561.6962363077336
 30
0.0
  0
VERTEX
  5
21E9F
  8
01
 10
65.29627623229443
 20
-561.706422549599
 30
0.0
  0
VERTEX
  5
21EA0
  8
01
 10
65.3966491712871
 20
-561.7161084045492
 30
0.0
  0
VERTEX
  5
21EA1
  8
01
 10
65.49714333113634
 20
-561.725292007374
 30
0.0
  0
VERTEX
  5
21EA2
  8
01
 10
65.59774727124908
 20
-561.7339714928631
 30
0.0
  0
VERTEX
  5
21EA3
  8
01
 10
65.69844955103223
 20
-561.7421449958063
 30
0.0
  0
VERTEX
  5
21EA4
  8
01
 10
65.79923872989269
 20
-561.7498106509931
 30
0.0
  0
VERTEX
  5
21EA5
  8
01
 10
65.90010336723742
 20
-561.7569665932136
 30
0.0
  0
VERTEX
  5
21EA6
  8
01
 10
66.00103202247332
 20
-561.7636109572575
 30
0.0
  0
VERTEX
  5
21EA7
  8
01
 10
66.10201325500732
 20
-561.7697418779143
 30
0.0
  0
VERTEX
  5
21EA8
  8
01
 10
66.20303562424635
 20
-561.7753574899739
 30
0.0
  0
VERTEX
  5
21EA9
  8
01
 10
66.30408768959732
 20
-561.780455928226
 30
0.0
  0
VERTEX
  5
21EAA
  8
01
 10
66.40515801046718
 20
-561.7850353274604
 30
0.0
  0
VERTEX
  5
21EAB
  8
01
 10
66.50637930495239
 20
-561.7890535661957
 30
0.0
  0
VERTEX
  5
21EAC
  8
01
 10
66.60844148513651
 20
-561.7925310183072
 30
0.0
  0
VERTEX
  5
21EAD
  8
01
 10
66.71216890140704
 20
-561.7955595616204
 30
0.0
  0
VERTEX
  5
21EAE
  8
01
 10
66.81838590415148
 20
-561.7982310739603
 30
0.0
  0
VERTEX
  5
21EAF
  8
01
 10
66.92791684375734
 20
-561.8006374331522
 30
0.0
  0
VERTEX
  5
21EB0
  8
01
 10
67.04158607061211
 20
-561.8028705170215
 30
0.0
  0
VERTEX
  5
21EB1
  8
01
 10
67.16021793510328
 20
-561.8050222033934
 30
0.0
  0
VERTEX
  5
21EB2
  8
01
 10
67.28463678761835
 20
-561.807184370093
 30
0.0
  0
VERTEX
  5
21EB3
  8
01
 10
67.41566697854483
 20
-561.8094488949457
 30
0.0
  0
VERTEX
  5
21EB4
  8
01
 10
67.5541328582702
 20
-561.8119076557766
 30
0.0
  0
VERTEX
  5
21EB5
  8
01
 10
67.70085877718198
 20
-561.8146525304112
 30
0.0
  0
VERTEX
  5
21EB6
  8
01
 10
67.85666908566765
 20
-561.8177753966745
 30
0.0
  0
VERTEX
  5
21EB7
  8
01
 10
68.0223881341147
 20
-561.8213681323919
 30
0.0
  0
SEQEND
  5
220B7
  8
01
  0
POLYLINE
  5
2141F
  8
01
 66
     1
 10
0.0
 20
0.0
 30
0.0
  0
VERTEX
  5
21EB8
  8
01
 10
49.3447114766135
 20
-550.5667535494935
 30
0.0
  0
VERTEX
  5
21EB9
  8
01
 10
49.40593153141208
 20
-550.6928434350572
 30
0.0
  0
VERTEX
  5
21EBA
  8
01
 10
49.46802210021146
 20
-550.8184493542503
 30
0.0
  0
VERTEX
  5
21EBB
  8
01
 10
49.53098222903117
 20
-550.943571837172
 30
0.0
  0
VERTEX
  5
21EBC
  8
01
 10
49.59481096389072
 20
-551.0682114139223
 30
0.0
  0
VERTEX
  5
21EBD
  8
01
 10
49.65950735080963
 20
-551.1923686146001
 30
0.0
  0
VERTEX
  5
21EBE
  8
01
 10
49.72507043580743
 20
-551.3160439693054
 30
0.0
  0
VERTEX
  5
21EBF
  8
01
 10
49.79149926490363
 20
-551.4392380081374
 30
0.0
  0
VERTEX
  5
21EC0
  8
01
 10
49.85879288411776
 20
-551.5619512611956
 30
0.0
  0
VERTEX
  5
21EC1
  8
01
 10
49.92695033946934
 20
-551.6841842585795
 30
0.0
  0
VERTEX
  5
21EC2
  8
01
 10
49.99597067697788
 20
-551.8059375303889
 30
0.0
  0
VERTEX
  5
21EC3
  8
01
 10
50.06585294266292
 20
-551.927211606723
 30
0.0
  0
VERTEX
  5
21EC4
  8
01
 10
50.13660800043765
 20
-552.0480211281092
 30
0.0
  0
VERTEX
  5
21EC5
  8
01
 10
50.20823895828186
 20
-552.1683679284132
 30
0.0
  0
VERTEX
  5
21EC6
  8
01
 10
50.28073322831489
 20
-552.2882333277419
 30
0.0
  0
VERTEX
  5
21EC7
  8
01
 10
50.35407822265611
 20
-552.4075986462022
 30
0.0
  0
VERTEX
  5
21EC8
  8
01
 10
50.42826135342487
 20
-552.5264452039013
 30
0.0
  0
VERTEX
  5
21EC9
  8
01
 10
50.50327003274055
 20
-552.6447543209458
 30
0.0
  0
VERTEX
  5
21ECA
  8
01
 10
50.57909167272247
 20
-552.7625073174431
 30
0.0
  0
VERTEX
  5
21ECB
  8
01
 10
50.65571368549001
 20
-552.8796855134996
 30
0.0
  0
VERTEX
  5
21ECC
  8
01
 10
50.73312348316252
 20
-552.9962702292225
 30
0.0
  0
VERTEX
  5
21ECD
  8
01
 10
50.81130847785936
 20
-553.1122427847189
 30
0.0
  0
VERTEX
  5
21ECE
  8
01
 10
50.89025608169989
 20
-553.2275845000955
 30
0.0
  0
VERTEX
  5
21ECF
  8
01
 10
50.96996202892898
 20
-553.3422993694885
 30
0.0
  0
VERTEX
  5
21ED0
  8
01
 10
51.05043085493588
 20
-553.4564035126907
 30
0.0
  0
VERTEX
  5
21ED1
  8
01
 10
51.13166317355655
 20
-553.5698964382943
 30
0.0
  0
VERTEX
  5
21ED2
  8
01
 10
51.21365959862688
 20
-553.6827776548921
 30
0.0
  0
VERTEX
  5
21ED3
  8
01
 10
51.29642074398286
 20
-553.795046671076
 30
0.0
  0
VERTEX
  5
21ED4
  8
01
 10
51.37994722346037
 20
-553.9067029954384
 30
0.0
  0
VERTEX
  5
21ED5
  8
01
 10
51.46423965089539
 20
-554.0177461365719
 30
0.0
  0
VERTEX
  5
21ED6
  8
01
 10
51.54929864012382
 20
-554.1281756030686
 30
0.0
  0
VERTEX
  5
21ED7
  8
01
 10
51.63512480498161
 20
-554.2379909035211
 30
0.0
  0
VERTEX
  5
21ED8
  8
01
 10
51.72171875930469
 20
-554.3471915465215
 30
0.0
  0
VERTEX
  5
21ED9
  8
01
 10
51.80908111692901
 20
-554.4557770406623
 30
0.0
  0
VERTEX
  5
21EDA
  8
01
 10
51.89721249169048
 20
-554.5637468945357
 30
0.0
  0
VERTEX
  5
21EDB
  8
01
 10
51.98611349742504
 20
-554.6711006167343
 30
0.0
  0
VERTEX
  5
21EDC
  8
01
 10
52.07578474796865
 20
-554.7778377158501
 30
0.0
  0
VERTEX
  5
21EDD
  8
01
 10
52.16622685715722
 20
-554.8839577004759
 30
0.0
  0
VERTEX
  5
21EDE
  8
01
 10
52.25744043882668
 20
-554.9894600792037
 30
0.0
  0
VERTEX
  5
21EDF
  8
01
 10
52.34942610681298
 20
-555.094344360626
 30
0.0
  0
VERTEX
  5
21EE0
  8
01
 10
52.44218447495206
 20
-555.198610053335
 30
0.0
  0
VERTEX
  5
21EE1
  8
01
 10
52.53571615707983
 20
-555.3022566659232
 30
0.0
  0
VERTEX
  5
21EE2
  8
01
 10
52.63002176703224
 20
-555.4052837069828
 30
0.0
  0
VERTEX
  5
21EE3
  8
01
 10
52.72510191864522
 20
-555.5076906851064
 30
0.0
  0
VERTEX
  5
21EE4
  8
01
 10
52.8209572257547
 20
-555.6094771088862
 30
0.0
  0
VERTEX
  5
21EE5
  8
01
 10
52.91758721599046
 20
-555.7106248795961
 30
0.0
  0
VERTEX
  5
21EE6
  8
01
 10
53.01498312478235
 20
-555.8111103555591
 30
0.0
  0
VERTEX
  5
21EE7
  8
01
 10
53.11313312766649
 20
-555.91092473094
 30
0.0
  0
VERTEX
  5
21EE8
  8
01
 10
53.21202540017901
 20
-556.0100591999038
 30
0.0
  0
VERTEX
  5
21EE9
  8
01
 10
53.31164811785604
 20
-556.1085049566154
 30
0.0
  0
VERTEX
  5
21EEA
  8
01
 10
53.41198945623369
 20
-556.2062531952398
 30
0.0
  0
VERTEX
  5
21EEB
  8
01
 10
53.5130375908481
 20
-556.3032951099422
 30
0.0
  0
VERTEX
  5
21EEC
  8
01
 10
53.61478069723539
 20
-556.3996218948874
 30
0.0
  0
VERTEX
  5
21EED
  8
01
 10
53.71720695093168
 20
-556.4952247442405
 30
0.0
  0
VERTEX
  5
21EEE
  8
01
 10
53.8203045274731
 20
-556.5900948521665
 30
0.0
  0
VERTEX
  5
21EEF
  8
01
 10
53.92406160239576
 20
-556.6842234128305
 30
0.0
  0
VERTEX
  5
21EF0
  8
01
 10
54.0284663512358
 20
-556.7776016203971
 30
0.0
  0
VERTEX
  5
21EF1
  8
01
 10
54.13350694952933
 20
-556.8702206690318
 30
0.0
  0
VERTEX
  5
21EF2
  8
01
 10
54.23917157281248
 20
-556.9620717528993
 30
0.0
  0
VERTEX
  5
21EF3
  8
01
 10
54.34544839662137
 20
-557.0531460661647
 30
0.0
  0
VERTEX
  5
21EF4
  8
01
 10
54.45232559649214
 20
-557.1434348029929
 30
0.0
  0
VERTEX
  5
21EF5
  8
01
 10
54.5597913479609
 20
-557.2329291575489
 30
0.0
  0
VERTEX
  5
21EF6
  8
01
 10
54.66783382656376
 20
-557.321620323998
 30
0.0
  0
VERTEX
  5
21EF7
  8
01
 10
54.77644120783687
 20
-557.4094994965048
 30
0.0
  0
VERTEX
  5
21EF8
  8
01
 10
54.88560166731634
 20
-557.4965578692346
 30
0.0
  0
VERTEX
  5
21EF9
  8
01
 10
54.99530338053829
 20
-557.5827866363524
 30
0.0
  0
VERTEX
  5
21EFA
  8
01
 10
55.10553452303886
 20
-557.6681769920227
 30
0.0
  0
VERTEX
  5
21EFB
  8
01
 10
55.21630675550709
 20
-557.7527493314177
 30
0.0
  0
VERTEX
  5
21EFC
  8
01
 10
55.32763989129291
 20
-557.8365295388948
 30
0.0
  0
VERTEX
  5
21EFD
  8
01
 10
55.43953433492367
 20
-557.9195170423967
 30
0.0
  0
VERTEX
  5
21EFE
  8
01
 10
55.55199049092677
 20
-558.0017112698667
 30
0.0
  0
VERTEX
  5
21EFF
  8
01
 10
55.66500876382958
 20
-558.0831116492479
 30
0.0
  0
VERTEX
  5
21F00
  8
01
 10
55.77858955815948
 20
-558.1637176084836
 30
0.0
  0
VERTEX
  5
21F01
  8
01
 10
55.89273327844385
 20
-558.2435285755167
 30
0.0
  0
VERTEX
  5
21F02
  8
01
 10
56.00744032921007
 20
-558.3225439782904
 30
0.0
  0
VERTEX
  5
21F03
  8
01
 10
56.12271111498551
 20
-558.4007632447476
 30
0.0
  0
VERTEX
  5
21F04
  8
01
 10
56.23854604029756
 20
-558.4781858028317
 30
0.0
  0
VERTEX
  5
21F05
  8
01
 10
56.3549455096736
 20
-558.5548110804858
 30
0.0
  0
VERTEX
  5
21F06
  8
01
 10
56.47190992764101
 20
-558.6306385056529
 30
0.0
  0
VERTEX
  5
21F07
  8
01
 10
56.58943969872715
 20
-558.7056675062762
 30
0.0
  0
VERTEX
  5
21F08
  8
01
 10
56.70753522745942
 20
-558.7798975102987
 30
0.0
  0
VERTEX
  5
21F09
  8
01
 10
56.8261969183652
 20
-558.8533279456636
 30
0.0
  0
VERTEX
  5
21F0A
  8
01
 10
56.94542517597185
 20
-558.9259582403141
 30
0.0
  0
VERTEX
  5
21F0B
  8
01
 10
57.06522040480677
 20
-558.9977878221933
 30
0.0
  0
VERTEX
  5
21F0C
  8
01
 10
57.18558300939733
 20
-559.0688161192443
 30
0.0
  0
VERTEX
  5
21F0D
  8
01
 10
57.3065133942709
 20
-559.13904255941
 30
0.0
  0
VERTEX
  5
21F0E
  8
01
 10
57.42801196395487
 20
-559.2084665706338
 30
0.0
  0
VERTEX
  5
21F0F
  8
01
 10
57.55007912297662
 20
-559.2770875808587
 30
0.0
  0
VERTEX
  5
21F10
  8
01
 10
57.67271527586354
 20
-559.3449050180279
 30
0.0
  0
SEQEND
  5
220B8
  8
01
  0
LINE
  5
21420
  8
01
 10
68.01624161536233
 20
-535.8213303512716
 30
0.0
 11
68.0162416153629
 21
-565.8213303512716
 31
0.0
  0
LINE
  5
21422
  8
01
 10
73.51624176536393
 20
-539.3213303512664
 30
0.0
 11
74.51624146536392
 21
-538.3213303512664
 31
0.0
  0
LINE
  5
21423
  8
01
 10
70.21624161536397
 20
-539.3213303512664
 30
0.0
 11
70.21624161536397
 21
-538.3213303512664
 31
0.0
  0
LINE
  5
21424
  8
01
 10
70.21624161536397
 20
-538.3213303512664
 30
0.0
 11
77.81624161536388
 21
-538.3213303512664
 31
0.0
  0
LINE
  5
21425
  8
01
 10
70.21624161536397
 20
-539.3213303512664
 30
0.0
 11
77.81624161536388
 21
-539.3213303512664
 31
0.0
  0
LINE
  5
21426
  8
01
 10
77.81624161536388
 20
-539.3213303512664
 30
0.0
 11
77.81624161536388
 21
-538.3213303512664
 31
0.0
  0
LINE
  5
21428
  8
1CENTER
 10
81.54124161536379
 20
-550.8213303512663
 30
0.0
 11
86.49124161536383
 21
-550.8213303512663
 31
0.0
  0
LINE
  5
21429
  8
1CENTER
 10
84.0162416153637
 20
-553.2963303512663
 30
0.0
 11
84.0162416153637
 21
-548.3463303512663
 31
0.0
  0
LINE
  5
2142A
  8
01
  6
CONTINUOUS
 10
68.71650855418352
 20
-562.8213303512664
 30
0.0
 11
68.01624161536392
 21
-562.8213303512664
 31
0.0
  0
ARC
  5
2142B
  8
01
  6
CONTINUOUS
 10
68.71650855418352
 20
-562.5213303512664
 30
0.0
 40
0.3000000000000114
 50
270.0
 51
0.0
  0
ARC
  5
2142C
  8
01
  6
CONTINUOUS
 10
68.5165085541837
 20
-562.3213303512664
 30
0.0
 40
0.5
 50
0.0
 51
1.872310286263979
  0
LINE
  5
2142D
  8
01
  6
CONTINUOUS
 10
69.0165085541837
 20
-562.3213681323866
 30
0.0
 11
69.0165085541837
 21
-562.5213303512664
 31
0.0
  0
LINE
  5
2142E
  8
01
 10
68.02238813411577
 20
-561.8213681323866
 30
0.0
 11
68.5165085541837
 21
-561.8213681323866
 31
0.0
  0
ARC
  5
2142F
  8
01
 10
68.5165085541837
 20
-562.3213681323866
 30
0.0
 40
0.5
 50
0.0
 51
90.0
  0
LINE
  5
21430
  8
01
 10
93.5162382720672
 20
-539.3213303512664
 30
0.0
 11
94.51623797206719
 21
-538.3213303512664
 31
0.0
  0
LINE
  5
21431
  8
01
 10
90.21623812206724
 20
-539.3213303512664
 30
0.0
 11
90.21623812206724
 21
-538.3213303512664
 31
0.0
  0
LINE
  5
21432
  8
01
 10
90.21623812206724
 20
-538.3213303512664
 30
0.0
 11
97.81623812206715
 21
-538.3213303512664
 31
0.0
  0
LINE
  5
21433
  8
01
 10
90.21623812206724
 20
-539.3213303512664
 30
0.0
 11
97.81623812206715
 21
-539.3213303512664
 31
0.0
  0
LINE
  5
21434
  8
01
 10
97.81623812206715
 20
-539.3213303512664
 30
0.0
 11
97.81623812206715
 21
-538.3213303512664
 31
0.0
  0
LINE
  5
21436
  8
1CENTER
 10
87.39124161536392
 20
-550.8213303512664
 30
0.0
 11
80.64124161536392
 21
-550.8213303512664
 31
0.0
  0
LINE
  5
21437
  8
1CENTER
 10
84.01624161536392
 20
-554.1963303512664
 30
0.0
 11
84.01624161536392
 21
-547.4463303512664
 31
0.0
  0
LINE
  5
21438
  8
01
  6
CONTINUOUS
 10
68.01624161536392
 20
-565.8213303512664
 30
0.0
 11
343.0162416153646
 21
-565.8213303512664
 31
0.0
  0
LINE
  5
21439
  8
01
  6
CONTINUOUS
 10
68.01624161536392
 20
-539.3213303512664
 30
0.0
 11
343.0162416153646
 21
-539.3213303512664
 31
0.0
  0
LINE
  5
2143A
  8
01
  6
CONTINUOUS
 10
343.0162416153646
 20
-535.8213303512664
 30
0.0
 11
68.01624161536392
 21
-535.8213303512664
 31
0.0
  0
LINE
  5
2143B
  8
01
  6
CONTINUOUS
 10
343.0162416153646
 20
-537.5213303512664
 30
0.0
 11
68.01624161536392
 21
-537.5213303512664
 31
0.0
  0
LINE
  5
2143C
  8
01
  6
CONTINUOUS
 10
343.0162416153646
 20
-562.8213303512664
 30
0.0
 11
68.01624161536392
 21
-562.8213303512664
 31
0.0
  0
LINE
  5
2143D
  8
01
 10
343.0162416153646
 20
-539.8213303512664
 30
0.0
 11
70.26624161536392
 21
-539.8213303512664
 31
0.0
  0
LINE
  5
2143E
  8
01
 10
343.0162416153646
 20
-562.3213303512664
 30
0.0
 11
70.26624161536392
 21
-562.3213303512664
 31
0.0
  0
ARC
  5
2143F
  8
01
 10
70.26624161536392
 20
-558.8213303512664
 30
0.0
 40
3.5
 50
247.8024075949748
 51
270.0
  0
ARC
  5
21440
  8
01
 10
70.26624161536392
 20
-543.3213303512664
 30
0.0
 40
3.5
 50
90.0
 51
130.0052008848598
  0
ARC
  5
21441
  8
01
 10
70.26624161536392
 20
-558.8213303512664
 30
0.0
 40
3.5
 50
229.9947991151401
 51
238.9984816458776
  0
LINE
  5
21485
  8
1PHANTOM
 10
786.016241615365
 20
-646.3175482957437
 30
0.0
 11
786.016241615365
 21
-651.9675482957435
 31
0.0
  0
LINE
  5
21486
  8
1PHANTOM
 10
784.016241615365
 20
-646.3175482957434
 30
0.0
 11
792.016241615365
 21
-646.3175482957437
 31
0.0
  0
LINE
  5
21487
  8
1PHANTOM
 10
790.016241615365
 20
-651.9675482957435
 30
0.0
 11
790.016241615365
 21
-646.3175482957436
 31
0.0
  0
LINE
  5
21488
  8
1PHANTOM
 10
789.6662416153648
 20
-652.3175482957437
 30
0.0
 11
790.016241615365
 21
-651.9675482957435
 31
0.0
  0
LINE
  5
21489
  8
1PHANTOM
 10
786.3662416153649
 20
-652.3175482957437
 30
0.0
 11
789.6662416153648
 21
-652.3175482957437
 31
0.0
  0
LINE
  5
2148A
  8
1PHANTOM
 10
786.016241615365
 20
-651.9675482957435
 30
0.0
 11
786.3662416153649
 21
-652.3175482957437
 31
0.0
  0
LINE
  5
2148B
  8
1HATCH
 10
786.016241615365
 20
-651.9675482957435
 30
0.0
 11
790.016241615365
 21
-651.9675482957435
 31
0.0
  0
LINE
  5
2148C
  8
1HATCH
 10
789.6662416153648
 20
-652.3175482957437
 30
0.0
 11
789.6662416153649
 21
-646.3175482957437
 31
0.0
  0
LINE
  5
2148D
  8
1HATCH
 10
786.3662416153649
 20
-652.3175482957437
 30
0.0
 11
786.3662416153649
 21
-646.3175482957437
 31
0.0
  0
LINE
  5
2148E
  8
1CENTER
 10
788.016241615365
 20
-653.3434286621778
 30
0.0
 11
788.016241615365
 21
-643.8262067053653
 31
0.0
  0
LINE
  5
2148F
  8
1PHANTOM
 10
784.016241615365
 20
-645.4175482957436
 30
0.0
 11
792.016241615365
 21
-645.4175482957436
 31
0.0
  0
LINE
  5
21490
  8
1PHANTOM
 10
784.016241615365
 20
-645.4175482957436
 30
0.0
 11
784.016241615365
 21
-646.3175482957434
 31
0.0
  0
LINE
  5
21491
  8
1PHANTOM
 10
792.016241615365
 20
-646.3175482957437
 30
0.0
 11
792.016241615365
 21
-645.4175482957436
 31
0.0
  0
LINE
  5
214D2
  8
1PHANTOM
 10
799.016241615365
 20
-644.1175482957436
 30
0.0
 11
776.516241615365
 21
-644.1175482957436
 31
0.0
  0
LINE
  5
214D3
  8
1PHANTOM
 10
799.016241615365
 20
-644.1175482957436
 30
0.0
 11
799.016241615365
 21
-645.1175482957436
 31
0.0
  0
LINE
  5
214D4
  8
1PHANTOM
 10
776.516241615365
 20
-645.1175482957436
 30
0.0
 11
776.516241615365
 21
-644.1175482957436
 31
0.0
  0
LINE
  5
21923
  8
1PHANTOM
 10
803.016241615365
 20
-642.3175482957437
 30
0.0
 11
801.3162416153649
 21
-642.3175482957437
 31
0.0
  0
TEXT
  5
21977
  8
01
  6
CONTINUOUS
 10
809.7537571261875
 20
-611.3902613041472
 30
0.0
 40
3.5
  1
PB
  0
TEXT
  5
21978
  8
01
  6
CONTINUOUS
 10
822.8891752713527
 20
-611.3902613041472
 30
0.0
 40
3.5
  1
合板9mm以上
  0
LINE
  5
21979
  8
1DIM1
 10
84.01624161536526
 20
-655.8213303543757
 30
0.0
 11
84.01624161536526
 21
-693.8229030336205
 31
0.0
1001
ACAD
1000
DSTYLE
1002
{
1070
    40
1040
3.0
1070
    45
1040
0.5
1002
}
  0
LINE
  5
2197A
  8
1DIM1
 10
602.0162416153653
 20
-655.8213303543707
 30
0.0
 11
602.0162416153653
 21
-693.8229030336205
 31
0.0
1001
ACAD
1000
DSTYLE
1002
{
1070
    40
1040
3.0
1070
    45
1040
0.5
1002
}
  0
LINE
  5
2197B
  8
1DIM1
 10
90.01624161536526
 20
-690.8229030336205
 30
0.0
 11
596.0162416153653
 21
-690.8229030336205
 31
0.0
1001
ACAD
1000
DSTYLE
1002
{
1070
    40
1040
3.0
1070
    45
1040
0.5
1002
}
  0
LINE
  5
2197F
  8
1DIM
 10
592.0162416153653
 20
-659.1963303543707
 30
0.0
 11
592.0162416153653
 21
-691.8229030336205
 31
0.0
1001
ACAD
1000
DSTYLE
1002
{
1070
    40
1040
1.0
1070
    45
1040
0.5
1002
}
  0
LINE
  5
21980
  8
1DIM
 10
612.0162416153653
 20
-659.1963303543707
 30
0.0
 11
612.0162416153653
 21
-691.8229030336205
 31
0.0
1001
ACAD
1000
DSTYLE
1002
{
1070
    40
1040
1.0
1070
    45
1040
0.5
1002
}
  0
LINE
  5
21981
  8
1DIM
 10
594.0162416153653
 20
-690.8229030336205
 30
0.0
 11
610.0162416153653
 21
-690.8229030336205
 31
0.0
1001
ACAD
1000
DSTYLE
1002
{
1070
    40
1040
1.0
1070
    45
1040
0.5
1002
}
  0
LINE
  5
21985
  8
1DIM
 10
803.016241615365
 20
-642.3175482957437
 30
0.0
 11
803.016241615365
 21
-628.7858307973124
 31
0.0
1001
ACAD
1000
DSTYLE
1002
{
1070
    45
1040
0.5
1002
}
  0
LINE
  5
21986
  8
1DIM
 10
788.016241615365
 20
-643.8262067053653
 30
0.0
 11
788.016241615365
 21
-628.7858307973124
 31
0.0
1001
ACAD
1000
DSTYLE
1002
{
1070
    45
1040
0.5
1002
}
  0
LINE
  5
21987
  8
1DIM
 10
801.016241615365
 20
-629.7858307973124
 30
0.0
 11
790.016241615365
 21
-629.7858307973124
 31
0.0
1001
ACAD
1000
DSTYLE
1002
{
1070
    45
1040
0.5
1002
}
  0
LINE
  5
2198B
  8
1DIM
 10
835.947036532668
 20
-655.8213303512664
 30
0.0
 11
845.516241615365
 21
-655.8213303512664
 31
0.0
1001
ACAD
1000
DSTYLE
1002
{
1070
    45
1040
0.5
1070
   271
1070
     0
1002
}
  0
LINE
  5
2198C
  8
1DIM
 10
803.016241615365
 20
-635.8213303543706
 30
0.0
 11
845.516241615365
 21
-635.8213303543706
 31
0.0
1001
ACAD
1000
DSTYLE
1002
{
1070
    45
1040
0.5
1070
   271
1070
     0
1002
}
  0
LINE
  5
2198D
  8
1DIM
 10
844.516241615365
 20
-653.8213303512664
 30
0.0
 11
844.516241615365
 21
-637.8213303543706
 31
0.0
1001
ACAD
1000
DSTYLE
1002
{
1070
    45
1040
0.5
1070
   271
1070
     0
1002
}
  0
LINE
  5
21991
  8
1DIM1
 10
43.01624161536506
 20
-645.7283144674798
 30
0.0
 11
43.01624161536506
 21
-733.1751807655241
 31
0.0
1001
ACAD
1000
DSTYLE
1002
{
1070
    40
1040
3.0
1070
    45
1040
0.5
1002
}
  0
LINE
  5
21992
  8
1DIM1
 10
643.0162416153653
 20
-644.4938163736597
 30
0.0
 11
643.0162416153653
 21
-733.1751807655241
 31
0.0
1001
ACAD
1000
DSTYLE
1002
{
1070
    40
1040
3.0
1070
    45
1040
0.5
1002
}
  0
LINE
  5
21993
  8
1DIM1
 10
49.01624161536506
 20
-730.1751807655241
 30
0.0
 11
637.0162416153653
 21
-730.1751807655241
 31
0.0
1001
ACAD
1000
DSTYLE
1002
{
1070
    40
1040
3.0
1070
    45
1040
0.5
1002
}
  0
LINE
  5
21997
  8
1DIM
 10
803.016241615365
 20
-666.4213303543708
 30
0.0
 11
855.516241615365
 21
-666.4213303543708
 31
0.0
1001
ACAD
1000
DSTYLE
1002
{
1070
    45
1040
0.5
1002
}
  0
LINE
  5
21998
  8
1DIM
 10
803.016241615365
 20
-635.8213303543706
 30
0.0
 11
855.516241615365
 21
-635.8213303543706
 31
0.0
1001
ACAD
1000
DSTYLE
1002
{
1070
    45
1040
0.5
1002
}
  0
LINE
  5
21999
  8
1DIM
 10
854.516241615365
 20
-664.4213303543708
 30
0.0
 11
854.516241615365
 21
-637.8213303543706
 31
0.0
1001
ACAD
1000
DSTYLE
1002
{
1070
    45
1040
0.5
1002
}
  0
SOLID
  5
2199D
  8
1DIM
 10
806.6708479197653
 20
-624.9354292138315
 30
0.0
 11
805.9299131930724
 21
-626.8227889680627
 31
0.0
 12
806.0186807169501
 22
-624.797145505403
 32
0.0
 13
806.0186807169501
 23
-624.797145505403
 33
0.0
1001
ACAD
1000
DSTYLE
1002
{
1070
    45
1040
0.5
1002
}
  0
LINE
  5
2199E
  8
1DIM
 10
806.3447643183576
 20
-624.8662873596172
 30
0.0
 11
809.0537571261874
 21
-612.0902613041472
 31
0.0
1001
ACAD
1000
DSTYLE
1002
{
1070
    45
1040
0.5
1002
}
  0
SOLID
  5
2199F
  8
1DIM
 10
819.8062660649305
 20
-624.9354292138315
 30
0.0
 11
819.0653313382376
 21
-626.8227889680627
 31
0.0
 12
819.1540988621153
 22
-624.797145505403
 32
0.0
 13
819.1540988621153
 23
-624.797145505403
 33
0.0
1001
ACAD
1000
DSTYLE
1002
{
1070
    45
1040
0.5
1002
}
  0
LINE
  5
219A0
  8
1DIM
 10
819.4801824635229
 20
-624.8662873596172
 30
0.0
 11
822.1891752713526
 21
-612.0902613041472
 31
0.0
1001
ACAD
1000
DSTYLE
1002
{
1070
    45
1040
0.5
1002
}
  0
LINE
  5
219A1
  8
0
 10
612.0162881481589
 20
-504.3213303514287
 30
0.0
 11
610.5162881481589
 21
-509.6213268612904
 31
0.0
  0
LINE
  5
219A2
  8
0
 10
610.5162881481589
 20
-509.6213268612904
 30
0.0
 11
610.5162881481591
 21
-539.3213268611823
 31
0.0
  0
LINE
  5
219A3
  8
0
 10
612.0162881481589
 20
-504.3213303514287
 30
0.0
 11
613.516288148159
 21
-509.6213338416741
 31
0.0
  0
LINE
  5
219A4
  8
0
 10
608.5162416122611
 20
-539.3213222074842
 30
0.0
 11
615.516241612261
 21
-539.3213384950486
 31
0.0
  0
LINE
  5
219A5
  8
0
 10
613.516288148159
 20
-509.6213338416741
 30
0.0
 11
613.5162881481591
 21
-539.321333841567
 31
0.0
  0
LINE
  5
219A6
  8
0
 10
608.5162416122611
 20
-539.3213222074842
 30
0.0
 11
608.516241612261
 21
-540.4213256976795
 31
0.0
  0
ARC
  5
219A7
  8
0
 10
610.016241612261
 20
-540.4213256976795
 30
0.0
 40
1.5
 50
180.0
 51
269.9998666844662
  0
LINE
  5
219A8
  8
0
 10
615.516241612261
 20
-539.3213384950486
 30
0.0
 11
615.516241612261
 21
-540.4213350048592
 31
0.0
  0
LINE
  5
219A9
  8
0
 10
610.0162381220686
 20
-541.9213256976755
 30
0.0
 11
614.0162381220686
 21
-541.9213350048551
 31
0.0
  0
ARC
  5
219AA
  8
0
 10
614.016241612261
 20
-540.4213350048592
 30
0.0
 40
1.5
 50
269.9998666844662
 51
0.0
  0
LINE
  5
219AB
  8
1CENTER
 10
612.016241612261
 20
-502.8905354339634
 30
0.0
 11
612.016241612261
 21
-542.9916067605752
 31
0.0
  0
LINE
  5
219AC
  8
0
 10
610.9219177982659
 20
-506.4213278051066
 30
0.0
 11
612.8842528871413
 21
-505.6213323710556
 31
0.0
  0
LINE
  5
219AD
  8
0
 10
612.8842528871413
 20
-505.6213323710556
 30
0.0
 11
612.2959763120989
 21
-505.3095625148035
 31
0.0
  0
LINE
  5
219AE
  8
0
 10
610.0162881481589
 20
-528.8213256978966
 30
0.0
 11
614.0162881481589
 21
-528.0213350050783
 31
0.0
  0
LINE
  5
219AF
  8
0
 10
610.0162881481589
 20
-517.6213256978922
 30
0.0
 11
614.0162881481589
 21
-516.8213350050696
 31
0.0
  0
LINE
  5
219B0
  8
0
 10
610.0162881481589
 20
-514.4213256978921
 30
0.0
 11
614.0162881481589
 21
-513.6213350050696
 31
0.0
  0
LINE
  5
219B1
  8
0
 10
614.0162881481589
 20
-513.6213350050696
 30
0.0
 11
613.5162881481589
 21
-513.5213338416723
 31
0.0
  0
LINE
  5
219B2
  8
0
 10
610.5162881481589
 20
-512.9213268612893
 30
0.0
 11
610.0162881481589
 21
-512.8213256978921
 31
0.0
  0
LINE
  5
219B3
  8
0
 10
614.0162881481589
 20
-516.8213350050696
 30
0.0
 11
613.5162881481589
 21
-516.7213338416724
 31
0.0
  0
LINE
  5
219B4
  8
0
 10
614.0162881481589
 20
-515.2213350050695
 30
0.0
 11
613.5162881481589
 21
-515.1213338416724
 31
0.0
  0
LINE
  5
219B5
  8
0
 10
610.5162881481589
 20
-514.5213268612893
 30
0.0
 11
610.0162881481589
 21
-514.4213256978921
 31
0.0
  0
LINE
  5
219B6
  8
0
 10
610.5162881481589
 20
-516.1213268612892
 30
0.0
 11
610.0162881481589
 21
-516.021325697892
 31
0.0
  0
LINE
  5
219B7
  8
0
 10
610.0162881481589
 20
-516.021325697892
 30
0.0
 11
614.0162881481589
 21
-515.2213350050695
 31
0.0
  0
LINE
  5
219B8
  8
0
 10
613.3370669915481
 20
-507.2213334246612
 30
0.0
 11
612.7853175277448
 21
-507.0385692820332
 31
0.0
  0
LINE
  5
219B9
  8
0
 10
614.0162881481589
 20
-510.4213350050695
 30
0.0
 11
613.5162881481589
 21
-510.3213338416724
 31
0.0
  0
LINE
  5
219BA
  8
0
 10
614.0162881481589
 20
-512.0213350050695
 30
0.0
 11
613.5162881481589
 21
-511.9213338416725
 31
0.0
  0
LINE
  5
219BB
  8
0
 10
613.7898810959549
 20
-508.8213344782669
 30
0.0
 11
613.2532873606838
 21
-508.692063780637
 31
0.0
  0
LINE
  5
219BC
  8
0
 10
610.9372027453676
 20
-508.1340962638524
 30
0.0
 11
610.4691042902176
 21
-508.0213267515023
 31
0.0
  0
LINE
  5
219BD
  8
0
 10
610.5162881481589
 20
-511.3213268612892
 30
0.0
 11
610.0162881481589
 21
-511.2213256978921
 31
0.0
  0
LINE
  5
219BE
  8
0
 10
610.5162881481589
 20
-509.7213268612893
 30
0.0
 11
610.0162881481589
 21
-509.6213256978922
 31
0.0
  0
LINE
  5
219BF
  8
0
 10
611.379089638897
 20
-506.572763601547
 30
0.0
 11
610.9219177982659
 21
-506.4213278051066
 31
0.0
  0
LINE
  5
219C0
  8
0
 10
610.4691042902176
 20
-508.0213267515023
 30
0.0
 11
613.3370669915481
 21
-507.2213334246612
 31
0.0
  0
LINE
  5
219C1
  8
0
 10
610.0162881481589
 20
-511.2213256978921
 30
0.0
 11
614.0162881481589
 21
-510.4213350050695
 31
0.0
  0
LINE
  5
219C2
  8
0
 10
610.0162881481589
 20
-509.6213256978922
 30
0.0
 11
613.7898810959549
 21
-508.8213344782669
 31
0.0
  0
LINE
  5
219C3
  8
0
 10
610.0162881481589
 20
-512.8213256978921
 30
0.0
 11
614.0162881481589
 21
-512.0213350050695
 31
0.0
  0
LINE
  5
219C4
  8
0
 10
610.0162881481589
 20
-525.6213256978965
 30
0.0
 11
614.0162881481589
 21
-524.8213350050783
 31
0.0
  0
LINE
  5
219C5
  8
0
 10
614.0162881481589
 20
-524.8213350050783
 30
0.0
 11
613.5162881481589
 21
-524.7213338416806
 31
0.0
  0
LINE
  5
219C6
  8
0
 10
610.5162881481589
 20
-524.1213268612898
 30
0.0
 11
610.0162881481589
 21
-524.0213256978922
 31
0.0
  0
LINE
  5
219C7
  8
0
 10
614.0162881481589
 20
-526.4213350050784
 30
0.0
 11
613.5162881481589
 21
-526.3213338416807
 31
0.0
  0
LINE
  5
219C8
  8
0
 10
614.0162881481589
 20
-528.0213350050783
 30
0.0
 11
613.5162881481589
 21
-527.9213338416806
 31
0.0
  0
LINE
  5
219C9
  8
0
 10
610.5162881481589
 20
-525.7213268612942
 30
0.0
 11
610.0162881481589
 21
-525.6213256978965
 31
0.0
  0
LINE
  5
219CA
  8
0
 10
610.5162881481589
 20
-527.3213268612943
 30
0.0
 11
610.0162881481589
 21
-527.2213256978966
 31
0.0
  0
LINE
  5
219CB
  8
0
 10
610.0162881481589
 20
-527.2213256978966
 30
0.0
 11
614.0162881481589
 21
-526.4213350050784
 31
0.0
  0
LINE
  5
219CC
  8
0
 10
614.0162881481589
 20
-520.0213350050739
 30
0.0
 11
613.5162881481589
 21
-519.9213338416762
 31
0.0
  0
LINE
  5
219CD
  8
0
 10
614.0162881481589
 20
-518.4213350050695
 30
0.0
 11
613.5162881481589
 21
-518.3213338416724
 31
0.0
  0
LINE
  5
219CE
  8
0
 10
614.0162881481589
 20
-523.2213350050739
 30
0.0
 11
613.5162881481589
 21
-523.1213338416762
 31
0.0
  0
LINE
  5
219CF
  8
0
 10
614.0162881481589
 20
-521.621335005074
 30
0.0
 11
613.5162881481589
 21
-521.5213338416763
 31
0.0
  0
LINE
  5
219D0
  8
0
 10
610.5162881481589
 20
-517.7213268612893
 30
0.0
 11
610.0162881481589
 21
-517.6213256978922
 31
0.0
  0
LINE
  5
219D1
  8
0
 10
610.5162881481589
 20
-519.3213268612899
 30
0.0
 11
610.0162881481589
 21
-519.2213256978921
 31
0.0
  0
LINE
  5
219D2
  8
0
 10
610.5162881481589
 20
-522.5213268612899
 30
0.0
 11
610.0162881481589
 21
-522.4213256978923
 31
0.0
  0
LINE
  5
219D3
  8
0
 10
610.5162881481589
 20
-520.9213268612898
 30
0.0
 11
610.0162881481589
 21
-520.8213256978921
 31
0.0
  0
LINE
  5
219D4
  8
0
 10
610.0162881481589
 20
-520.8213256978921
 30
0.0
 11
614.0162881481589
 21
-520.0213350050739
 31
0.0
  0
LINE
  5
219D5
  8
0
 10
610.0162881481589
 20
-519.2213256978921
 30
0.0
 11
614.0162881481589
 21
-518.4213350050695
 31
0.0
  0
LINE
  5
219D6
  8
0
 10
610.0162881481589
 20
-522.4213256978923
 30
0.0
 11
614.0162881481589
 21
-521.621335005074
 31
0.0
  0
LINE
  5
219D7
  8
0
 10
610.0162881481589
 20
-524.0213256978922
 30
0.0
 11
614.0162881481589
 21
-523.2213350050739
 31
0.0
  0
LINE
  5
219D8
  8
0
 10
610.5162881481589
 20
-533.7213268612984
 30
0.0
 11
610.0162881481589
 21
-533.6213256979007
 31
0.0
  0
LINE
  5
219D9
  8
0
 10
610.0162881481589
 20
-533.6213256979007
 30
0.0
 11
614.0162881481589
 21
-532.8213350050825
 31
0.0
  0
LINE
  5
219DA
  8
0
 10
614.0162881481589
 20
-532.8213350050825
 30
0.0
 11
613.5162881481589
 21
-532.7213338416848
 31
0.0
  0
LINE
  5
219DB
  8
0
 10
610.5162881481589
 20
-532.1213268612985
 30
0.0
 11
610.0162881481589
 21
-532.0213256979008
 31
0.0
  0
LINE
  5
219DC
  8
0
 10
610.5162881481589
 20
-530.5213268612986
 30
0.0
 11
610.0162881481589
 21
-530.4213256979009
 31
0.0
  0
LINE
  5
219DD
  8
0
 10
610.0162881481589
 20
-530.4213256979009
 30
0.0
 11
614.0162881481589
 21
-529.6213350050826
 31
0.0
  0
LINE
  5
219DE
  8
0
 10
614.0162881481589
 20
-531.2213350050826
 30
0.0
 11
613.5162881481589
 21
-531.1213338416849
 31
0.0
  0
LINE
  5
219DF
  8
0
 10
614.0162881481589
 20
-529.6213350050826
 30
0.0
 11
613.5162881481589
 21
-529.521333841685
 31
0.0
  0
LINE
  5
219E0
  8
0
 10
610.0162881481589
 20
-532.0213256979008
 30
0.0
 11
614.0162881481589
 21
-531.2213350050826
 31
0.0
  0
LINE
  5
219E1
  8
0
 10
610.5162881481589
 20
-528.9213268612942
 30
0.0
 11
610.0162881481589
 21
-528.8213256978966
 31
0.0
  0
LINE
  5
219E2
  8
0
 10
610.5162881481589
 20
-535.3213268612983
 30
0.0
 11
610.0162881481589
 21
-535.2213256979006
 31
0.0
  0
LINE
  5
219E3
  8
0
 10
610.0162881481589
 20
-535.2213256979006
 30
0.0
 11
614.0162881481589
 21
-534.4213350050824
 31
0.0
  0
LINE
  5
219E4
  8
0
 10
614.0162881481589
 20
-534.4213350050824
 30
0.0
 11
613.5162881481589
 21
-534.3213338416847
 31
0.0
  0
LINE
  5
219E5
  8
0
 10
610.5162881481589
 20
-536.9213268612982
 30
0.0
 11
610.0162881481589
 21
-536.8213256979005
 31
0.0
  0
LINE
  5
219E6
  8
0
 10
610.0162881481589
 20
-536.8213256979005
 30
0.0
 11
614.0162881481589
 21
-536.0213350050823
 31
0.0
  0
LINE
  5
219E7
  8
0
 10
614.0162881481589
 20
-536.0213350050823
 30
0.0
 11
613.5162881481589
 21
-535.9213338416846
 31
0.0
  0
LINE
  5
219E8
  8
0
 10
610.5162881481589
 20
-538.5213268612981
 30
0.0
 11
610.0162881481589
 21
-538.4213256979004
 31
0.0
  0
LINE
  5
219E9
  8
0
 10
610.0162881481589
 20
-538.4213256979004
 30
0.0
 11
614.0162881481589
 21
-537.6213350050822
 31
0.0
  0
LINE
  5
219EA
  8
0
 10
614.0162881481589
 20
-537.6213350050822
 30
0.0
 11
613.5162881481589
 21
-537.5213338416845
 31
0.0
  0
LINE
  5
219EB
  8
0
 10
834.5162416152026
 20
-655.8213768871643
 30
0.0
 11
829.2162451053409
 21
-654.3213768871643
 31
0.0
  0
LINE
  5
219EC
  8
0
 10
829.2162451053409
 20
-654.3213768871643
 30
0.0
 11
799.516245105449
 21
-654.3213768871645
 31
0.0
  0
LINE
  5
219ED
  8
0
 10
834.5162416152026
 20
-655.8213768871643
 30
0.0
 11
829.2162381249573
 21
-657.3213768871644
 31
0.0
  0
LINE
  5
219EE
  8
0
 10
799.5162497591472
 20
-652.3213303512665
 30
0.0
 11
799.5162334715827
 21
-659.3213303512664
 31
0.0
  0
LINE
  5
219EF
  8
0
 10
829.2162381249573
 20
-657.3213768871644
 30
0.0
 11
799.5162381250643
 21
-657.3213768871645
 31
0.0
  0
LINE
  5
219F0
  8
0
 10
799.5162497591472
 20
-652.3213303512665
 30
0.0
 11
798.4162462689518
 21
-652.3213303512664
 31
0.0
  0
ARC
  5
219F1
  8
0
 10
798.4162462689518
 20
-653.8213303512664
 30
0.0
 40
1.5
 50
90.0
 51
179.9998666844663
  0
LINE
  5
219F2
  8
0
 10
799.5162334715827
 20
-659.3213303512664
 30
0.0
 11
798.4162369617721
 21
-659.3213303512664
 31
0.0
  0
LINE
  5
219F3
  8
0
 10
796.9162462689559
 20
-653.821326861074
 30
0.0
 11
796.9162369617762
 21
-657.821326861074
 31
0.0
  0
ARC
  5
219F4
  8
0
 10
798.4162369617721
 20
-657.8213303512664
 30
0.0
 40
1.5
 50
179.9998666844663
 51
270.0
  0
LINE
  5
219F5
  8
1CENTER
 10
835.947036532668
 20
-655.8213303512664
 30
0.0
 11
795.8459652060561
 21
-655.8213303512664
 31
0.0
  0
LINE
  5
219F6
  8
0
 10
832.4162441615248
 20
-654.7270065372713
 30
0.0
 11
833.2162395955758
 21
-656.6893416261468
 31
0.0
  0
LINE
  5
219F7
  8
0
 10
833.2162395955758
 20
-656.6893416261468
 30
0.0
 11
833.5280094518279
 21
-656.1010650511043
 31
0.0
  0
LINE
  5
219F8
  8
0
 10
810.0162462687348
 20
-653.8213768871643
 30
0.0
 11
810.816236961553
 21
-657.8213768871643
 31
0.0
  0
LINE
  5
219F9
  8
0
 10
821.2162462687392
 20
-653.8213768871643
 30
0.0
 11
822.0162369615617
 21
-657.8213768871643
 31
0.0
  0
LINE
  5
219FA
  8
0
 10
824.4162462687392
 20
-653.8213768871643
 30
0.0
 11
825.2162369615618
 21
-657.8213768871643
 31
0.0
  0
LINE
  5
219FB
  8
0
 10
825.2162369615618
 20
-657.8213768871643
 30
0.0
 11
825.316238124959
 21
-657.3213768871643
 31
0.0
  0
LINE
  5
219FC
  8
0
 10
825.916245105342
 20
-654.3213768871643
 30
0.0
 11
826.0162462687392
 21
-653.8213768871643
 31
0.0
  0
LINE
  5
219FD
  8
0
 10
822.0162369615617
 20
-657.8213768871643
 30
0.0
 11
822.116238124959
 21
-657.3213768871643
 31
0.0
  0
LINE
  5
219FE
  8
0
 10
823.6162369615619
 20
-657.8213768871643
 30
0.0
 11
823.716238124959
 21
-657.3213768871643
 31
0.0
  0
LINE
  5
219FF
  8
0
 10
824.3162451053421
 20
-654.3213768871643
 30
0.0
 11
824.4162462687392
 21
-653.8213768871643
 31
0.0
  0
LINE
  5
21A00
  8
0
 10
822.7162451053422
 20
-654.3213768871643
 30
0.0
 11
822.8162462687393
 21
-653.8213768871643
 31
0.0
  0
LINE
  5
21A01
  8
0
 10
822.8162462687393
 20
-653.8213768871643
 30
0.0
 11
823.6162369615619
 21
-657.8213768871643
 31
0.0
  0
LINE
  5
21A02
  8
0
 10
831.6162385419701
 20
-657.1421557305536
 30
0.0
 11
831.7990026845981
 21
-656.5904062667503
 31
0.0
  0
LINE
  5
21A03
  8
0
 10
828.4162369615618
 20
-657.8213768871643
 30
0.0
 11
828.5162381249589
 21
-657.3213768871643
 31
0.0
  0
LINE
  5
21A04
  8
0
 10
826.8162369615618
 20
-657.8213768871643
 30
0.0
 11
826.9162381249588
 21
-657.3213768871643
 31
0.0
  0
LINE
  5
21A05
  8
0
 10
830.0162374883645
 20
-657.5949698349604
 30
0.0
 11
830.1455081859943
 21
-657.0583760996892
 31
0.0
  0
LINE
  5
21A06
  8
0
 10
830.703475702779
 20
-654.742291484373
 30
0.0
 11
830.816245215129
 21
-654.274193029223
 31
0.0
  0
LINE
  5
21A07
  8
0
 10
827.5162451053421
 20
-654.3213768871643
 30
0.0
 11
827.6162462687392
 21
-653.8213768871643
 31
0.0
  0
LINE
  5
21A08
  8
0
 10
829.116245105342
 20
-654.3213768871643
 30
0.0
 11
829.2162462687392
 21
-653.8213768871643
 31
0.0
  0
LINE
  5
21A09
  8
0
 10
832.2648083650844
 20
-655.1841783779024
 30
0.0
 11
832.4162441615248
 21
-654.7270065372713
 31
0.0
  0
LINE
  5
21A0A
  8
0
 10
830.816245215129
 20
-654.274193029223
 30
0.0
 11
831.6162385419701
 21
-657.1421557305536
 31
0.0
  0
LINE
  5
21A0B
  8
0
 10
827.6162462687392
 20
-653.8213768871643
 30
0.0
 11
828.4162369615618
 21
-657.8213768871643
 31
0.0
  0
LINE
  5
21A0C
  8
0
 10
829.2162462687392
 20
-653.8213768871643
 30
0.0
 11
830.0162374883645
 21
-657.5949698349604
 31
0.0
  0
LINE
  5
21A0D
  8
0
 10
826.0162462687392
 20
-653.8213768871643
 30
0.0
 11
826.8162369615618
 21
-657.8213768871643
 31
0.0
  0
LINE
  5
21A0E
  8
0
 10
813.2162462687348
 20
-653.8213768871643
 30
0.0
 11
814.0162369615531
 21
-657.8213768871643
 31
0.0
  0
LINE
  5
21A0F
  8
0
 10
814.0162369615531
 20
-657.8213768871643
 30
0.0
 11
814.1162381249508
 21
-657.3213768871643
 31
0.0
  0
LINE
  5
21A10
  8
0
 10
814.7162451053415
 20
-654.3213768871643
 30
0.0
 11
814.8162462687392
 21
-653.8213768871643
 31
0.0
  0
LINE
  5
21A11
  8
0
 10
812.416236961553
 20
-657.8213768871643
 30
0.0
 11
812.5162381249506
 21
-657.3213768871643
 31
0.0
  0
LINE
  5
21A12
  8
0
 10
810.816236961553
 20
-657.8213768871643
 30
0.0
 11
810.9162381249507
 21
-657.3213768871643
 31
0.0
  0
LINE
  5
21A13
  8
0
 10
813.1162451053372
 20
-654.3213768871643
 30
0.0
 11
813.2162462687348
 21
-653.8213768871643
 31
0.0
  0
LINE
  5
21A14
  8
0
 10
811.516245105337
 20
-654.3213768871643
 30
0.0
 11
811.6162462687347
 21
-653.8213768871643
 31
0.0
  0
LINE
  5
21A15
  8
0
 10
811.6162462687347
 20
-653.8213768871643
 30
0.0
 11
812.416236961553
 21
-657.8213768871643
 31
0.0
  0
LINE
  5
21A16
  8
0
 10
818.8162369615575
 20
-657.8213768871643
 30
0.0
 11
818.9162381249552
 21
-657.3213768871643
 31
0.0
  0
LINE
  5
21A17
  8
0
 10
820.4162369615618
 20
-657.8213768871643
 30
0.0
 11
820.5162381249589
 21
-657.3213768871643
 31
0.0
  0
LINE
  5
21A18
  8
0
 10
815.6162369615574
 20
-657.8213768871643
 30
0.0
 11
815.7162381249551
 21
-657.3213768871643
 31
0.0
  0
LINE
  5
21A19
  8
0
 10
817.2162369615573
 20
-657.8213768871643
 30
0.0
 11
817.316238124955
 21
-657.3213768871643
 31
0.0
  0
LINE
  5
21A1A
  8
0
 10
821.116245105342
 20
-654.3213768871643
 30
0.0
 11
821.2162462687392
 21
-653.8213768871643
 31
0.0
  0
LINE
  5
21A1B
  8
0
 10
819.5162451053415
 20
-654.3213768871643
 30
0.0
 11
819.6162462687392
 21
-653.8213768871643
 31
0.0
  0
LINE
  5
21A1C
  8
0
 10
816.3162451053414
 20
-654.3213768871643
 30
0.0
 11
816.4162462687391
 21
-653.8213768871643
 31
0.0
  0
LINE
  5
21A1D
  8
0
 10
817.9162451053415
 20
-654.3213768871643
 30
0.0
 11
818.0162462687392
 21
-653.8213768871643
 31
0.0
  0
LINE
  5
21A1E
  8
0
 10
818.0162462687392
 20
-653.8213768871643
 30
0.0
 11
818.8162369615575
 21
-657.8213768871643
 31
0.0
  0
LINE
  5
21A1F
  8
0
 10
819.6162462687392
 20
-653.8213768871643
 30
0.0
 11
820.4162369615618
 21
-657.8213768871643
 31
0.0
  0
LINE
  5
21A20
  8
0
 10
816.4162462687391
 20
-653.8213768871643
 30
0.0
 11
817.2162369615573
 21
-657.8213768871643
 31
0.0
  0
LINE
  5
21A21
  8
0
 10
814.8162462687392
 20
-653.8213768871643
 30
0.0
 11
815.6162369615574
 21
-657.8213768871643
 31
0.0
  0
LINE
  5
21A22
  8
0
 10
805.116245105333
 20
-654.3213768871643
 30
0.0
 11
805.2162462687306
 21
-653.8213768871643
 31
0.0
  0
LINE
  5
21A23
  8
0
 10
805.2162462687306
 20
-653.8213768871643
 30
0.0
 11
806.0162369615489
 21
-657.8213768871643
 31
0.0
  0
LINE
  5
21A24
  8
0
 10
806.0162369615489
 20
-657.8213768871643
 30
0.0
 11
806.1162381249466
 21
-657.3213768871643
 31
0.0
  0
LINE
  5
21A25
  8
0
 10
806.7162451053329
 20
-654.3213768871643
 30
0.0
 11
806.8162462687305
 21
-653.8213768871643
 31
0.0
  0
LINE
  5
21A26
  8
0
 10
808.3162451053328
 20
-654.3213768871643
 30
0.0
 11
808.4162462687304
 21
-653.8213768871643
 31
0.0
  0
LINE
  5
21A27
  8
0
 10
808.4162462687304
 20
-653.8213768871643
 30
0.0
 11
809.2162369615487
 21
-657.8213768871643
 31
0.0
  0
LINE
  5
21A28
  8
0
 10
807.6162369615488
 20
-657.8213768871643
 30
0.0
 11
807.7162381249465
 21
-657.3213768871643
 31
0.0
  0
LINE
  5
21A29
  8
0
 10
809.2162369615487
 20
-657.8213768871643
 30
0.0
 11
809.3162381249464
 21
-657.3213768871643
 31
0.0
  0
LINE
  5
21A2A
  8
0
 10
806.8162462687305
 20
-653.8213768871643
 30
0.0
 11
807.6162369615488
 21
-657.8213768871643
 31
0.0
  0
LINE
  5
21A2B
  8
0
 10
809.9162451053371
 20
-654.3213768871643
 30
0.0
 11
810.0162462687348
 21
-653.8213768871643
 31
0.0
  0
LINE
  5
21A2C
  8
0
 10
803.516245105333
 20
-654.3213768871643
 30
0.0
 11
803.6162462687307
 21
-653.8213768871643
 31
0.0
  0
LINE
  5
21A2D
  8
0
 10
803.6162462687307
 20
-653.8213768871643
 30
0.0
 11
804.416236961549
 21
-657.8213768871643
 31
0.0
  0
LINE
  5
21A2E
  8
0
 10
804.416236961549
 20
-657.8213768871643
 30
0.0
 11
804.5162381249467
 21
-657.3213768871643
 31
0.0
  0
LINE
  5
21A2F
  8
0
 10
801.9162451053331
 20
-654.3213768871643
 30
0.0
 11
802.0162462687308
 21
-653.8213768871643
 31
0.0
  0
LINE
  5
21A30
  8
0
 10
802.0162462687308
 20
-653.8213768871643
 30
0.0
 11
802.8162369615491
 21
-657.8213768871643
 31
0.0
  0
LINE
  5
21A31
  8
0
 10
802.8162369615491
 20
-657.8213768871643
 30
0.0
 11
802.9162381249467
 21
-657.3213768871643
 31
0.0
  0
LINE
  5
21A32
  8
0
 10
800.3162451053332
 20
-654.3213768871643
 30
0.0
 11
800.4162462687309
 21
-653.8213768871643
 31
0.0
  0
LINE
  5
21A33
  8
0
 10
800.4162462687309
 20
-653.8213768871643
 30
0.0
 11
801.2162369615492
 21
-657.8213768871643
 31
0.0
  0
LINE
  5
21A34
  8
0
 10
801.2162369615492
 20
-657.8213768871643
 30
0.0
 11
801.3162381249468
 21
-657.3213768871643
 31
0.0
  0
SOLID
  5
21A35
  8
1DIM
 10
566.4047682401396
 20
-638.5443270537638
 30
0.0
 11
565.5814428010101
 21
-640.3972291915987
 31
0.0
 12
565.7593229284564
 22
-638.3774594593344
 32
0.0
 13
565.7593229284564
 23
-638.3774594593344
 33
0.0
1001
ACAD
1000
DSTYLE
1002
{
1070
    45
1040
0.5
1002
}
  0
LINE
  5
21A36
  8
1DIM
 10
566.0820455842979
 20
-638.4608932565492
 30
0.0
 11
569.2175732957594
 21
-626.3326447015365
 31
0.0
1001
ACAD
1000
DSTYLE
1002
{
1070
    45
1040
0.5
1002
}
  0
LINE
  5
21A37
  8
1DIM
 10
569.2175732957594
 20
-626.3326447015365
 30
0.0
 11
608.9009066290928
 21
-626.3326447015365
 31
0.0
1001
ACAD
1000
DSTYLE
1002
{
1070
    45
1040
0.5
1002
}
  0
TEXT
  5
21A38
  8
1DIM
  6
CONTINUOUS
 10
571.6842399624261
 20
-619.7993113682031
 30
0.0
 40
3.5
  1
材質：アルミ
  0
TEXT
  5
21A39
  8
1DIM
  6
CONTINUOUS
 10
571.8009066290928
 20
-625.6326447015365
 30
0.0
 40
3.5
  1
仕上げ：各種仕上げ
  0
LINE
  5
21A3A
  8
1DIM
 10
772.716241615365
 20
-636.8213303543706
 30
0.0
 11
772.716241615365
 21
-615.3516103824561
 31
0.0
1001
ACAD
1000
DSTYLE
1002
{
1070
    45
1040
0.5
1002
}
  0
LINE
  5
21A3B
  8
1DIM
 10
803.016241615365
 20
-635.8213303543706
 30
0.0
 11
803.016241615365
 21
-615.3516103824561
 31
0.0
1001
ACAD
1000
DSTYLE
1002
{
1070
    45
1040
0.5
1002
}
  0
LINE
  5
21A3C
  8
1DIM
 10
774.716241615365
 20
-616.3516103824561
 30
0.0
 11
801.016241615365
 21
-616.3516103824561
 31
0.0
1001
ACAD
1000
DSTYLE
1002
{
1070
    45
1040
0.5
1002
}
  0
LINE
  5
21A40
  8
0
 10
592.0162916414556
 20
-504.3213303514287
 30
0.0
 11
590.5162916414556
 21
-509.6213268612904
 31
0.0
  0
LINE
  5
21A41
  8
0
 10
590.5162916414556
 20
-509.6213268612904
 30
0.0
 11
590.5162916414558
 21
-539.3213268611823
 31
0.0
  0
LINE
  5
21A42
  8
0
 10
592.0162916414556
 20
-504.3213303514287
 30
0.0
 11
593.5162916414557
 21
-509.6213338416741
 31
0.0
  0
LINE
  5
21A43
  8
0
 10
588.5162451055578
 20
-539.3213222074842
 30
0.0
 11
595.5162451055577
 21
-539.3213384950486
 31
0.0
  0
LINE
  5
21A44
  8
0
 10
593.5162916414557
 20
-509.6213338416741
 30
0.0
 11
593.5162916414558
 21
-539.321333841567
 31
0.0
  0
LINE
  5
21A45
  8
0
 10
588.5162451055578
 20
-539.3213222074842
 30
0.0
 11
588.5162451055577
 21
-540.4213256976795
 31
0.0
  0
ARC
  5
21A46
  8
0
 10
590.0162451055577
 20
-540.4213256976795
 30
0.0
 40
1.5
 50
180.0
 51
269.9998666844662
  0
LINE
  5
21A47
  8
0
 10
595.5162451055577
 20
-539.3213384950486
 30
0.0
 11
595.5162451055577
 21
-540.4213350048592
 31
0.0
  0
LINE
  5
21A48
  8
0
 10
590.0162416153653
 20
-541.9213256976755
 30
0.0
 11
594.0162416153653
 21
-541.9213350048551
 31
0.0
  0
ARC
  5
21A49
  8
0
 10
594.0162451055577
 20
-540.4213350048592
 30
0.0
 40
1.5
 50
269.9998666844662
 51
0.0
  0
LINE
  5
21A4A
  8
1CENTER
 10
592.0162451055577
 20
-502.8905354339634
 30
0.0
 11
592.0162451055577
 21
-542.9916067605752
 31
0.0
  0
LINE
  5
21A4B
  8
0
 10
590.9219212915626
 20
-506.4213278051066
 30
0.0
 11
592.884256380438
 21
-505.6213323710556
 31
0.0
  0
LINE
  5
21A4C
  8
0
 10
592.884256380438
 20
-505.6213323710556
 30
0.0
 11
592.2959798053956
 21
-505.3095625148035
 31
0.0
  0
LINE
  5
21A4D
  8
0
 10
590.0162916414556
 20
-528.8213256978966
 30
0.0
 11
594.0162916414556
 21
-528.0213350050783
 31
0.0
  0
LINE
  5
21A4E
  8
0
 10
590.0162916414556
 20
-517.6213256978922
 30
0.0
 11
594.0162916414556
 21
-516.8213350050696
 31
0.0
  0
LINE
  5
21A4F
  8
0
 10
590.0162916414556
 20
-514.4213256978921
 30
0.0
 11
594.0162916414556
 21
-513.6213350050696
 31
0.0
  0
LINE
  5
21A50
  8
0
 10
594.0162916414556
 20
-513.6213350050696
 30
0.0
 11
593.5162916414556
 21
-513.5213338416723
 31
0.0
  0
LINE
  5
21A51
  8
0
 10
590.5162916414556
 20
-512.9213268612893
 30
0.0
 11
590.0162916414556
 21
-512.8213256978921
 31
0.0
  0
LINE
  5
21A52
  8
0
 10
594.0162916414556
 20
-516.8213350050696
 30
0.0
 11
593.5162916414556
 21
-516.7213338416724
 31
0.0
  0
LINE
  5
21A53
  8
0
 10
594.0162916414556
 20
-515.2213350050695
 30
0.0
 11
593.5162916414556
 21
-515.1213338416724
 31
0.0
  0
LINE
  5
21A54
  8
0
 10
590.5162916414556
 20
-514.5213268612893
 30
0.0
 11
590.0162916414556
 21
-514.4213256978921
 31
0.0
  0
LINE
  5
21A55
  8
0
 10
590.5162916414556
 20
-516.1213268612892
 30
0.0
 11
590.0162916414556
 21
-516.021325697892
 31
0.0
  0
LINE
  5
21A56
  8
0
 10
590.0162916414556
 20
-516.021325697892
 30
0.0
 11
594.0162916414556
 21
-515.2213350050695
 31
0.0
  0
LINE
  5
21A57
  8
0
 10
593.3370704848448
 20
-507.2213334246612
 30
0.0
 11
592.7853210210416
 21
-507.0385692820332
 31
0.0
  0
LINE
  5
21A58
  8
0
 10
594.0162916414556
 20
-510.4213350050695
 30
0.0
 11
593.5162916414556
 21
-510.3213338416724
 31
0.0
  0
LINE
  5
21A59
  8
0
 10
594.0162916414556
 20
-512.0213350050695
 30
0.0
 11
593.5162916414556
 21
-511.9213338416725
 31
0.0
  0
LINE
  5
21A5A
  8
0
 10
593.7898845892516
 20
-508.8213344782669
 30
0.0
 11
593.2532908539805
 21
-508.692063780637
 31
0.0
  0
LINE
  5
21A5B
  8
0
 10
590.9372062386643
 20
-508.1340962638524
 30
0.0
 11
590.4691077835143
 21
-508.0213267515023
 31
0.0
  0
LINE
  5
21A5C
  8
0
 10
590.5162916414556
 20
-511.3213268612892
 30
0.0
 11
590.0162916414556
 21
-511.2213256978921
 31
0.0
  0
LINE
  5
21A5D
  8
0
 10
590.5162916414556
 20
-509.7213268612893
 30
0.0
 11
590.0162916414556
 21
-509.6213256978922
 31
0.0
  0
LINE
  5
21A5E
  8
0
 10
591.3790931321937
 20
-506.572763601547
 30
0.0
 11
590.9219212915626
 21
-506.4213278051066
 31
0.0
  0
LINE
  5
21A5F
  8
0
 10
590.4691077835143
 20
-508.0213267515023
 30
0.0
 11
593.3370704848448
 21
-507.2213334246612
 31
0.0
  0
LINE
  5
21A60
  8
0
 10
590.0162916414556
 20
-511.2213256978921
 30
0.0
 11
594.0162916414556
 21
-510.4213350050695
 31
0.0
  0
LINE
  5
21A61
  8
0
 10
590.0162916414556
 20
-509.6213256978922
 30
0.0
 11
593.7898845892516
 21
-508.8213344782669
 31
0.0
  0
LINE
  5
21A62
  8
0
 10
590.0162916414556
 20
-512.8213256978921
 30
0.0
 11
594.0162916414556
 21
-512.0213350050695
 31
0.0
  0
LINE
  5
21A63
  8
0
 10
590.0162916414556
 20
-525.6213256978965
 30
0.0
 11
594.0162916414556
 21
-524.8213350050783
 31
0.0
  0
LINE
  5
21A64
  8
0
 10
594.0162916414556
 20
-524.8213350050783
 30
0.0
 11
593.5162916414556
 21
-524.7213338416806
 31
0.0
  0
LINE
  5
21A65
  8
0
 10
590.5162916414556
 20
-524.1213268612898
 30
0.0
 11
590.0162916414556
 21
-524.0213256978922
 31
0.0
  0
LINE
  5
21A66
  8
0
 10
594.0162916414556
 20
-526.4213350050784
 30
0.0
 11
593.5162916414556
 21
-526.3213338416807
 31
0.0
  0
LINE
  5
21A67
  8
0
 10
594.0162916414556
 20
-528.0213350050783
 30
0.0
 11
593.5162916414556
 21
-527.9213338416806
 31
0.0
  0
LINE
  5
21A68
  8
0
 10
590.5162916414556
 20
-525.7213268612942
 30
0.0
 11
590.0162916414556
 21
-525.6213256978965
 31
0.0
  0
LINE
  5
21A69
  8
0
 10
590.5162916414556
 20
-527.3213268612943
 30
0.0
 11
590.0162916414556
 21
-527.2213256978966
 31
0.0
  0
LINE
  5
21A6A
  8
0
 10
590.0162916414556
 20
-527.2213256978966
 30
0.0
 11
594.0162916414556
 21
-526.4213350050784
 31
0.0
  0
LINE
  5
21A6B
  8
0
 10
594.0162916414556
 20
-520.0213350050739
 30
0.0
 11
593.5162916414556
 21
-519.9213338416762
 31
0.0
  0
LINE
  5
21A6C
  8
0
 10
594.0162916414556
 20
-518.4213350050695
 30
0.0
 11
593.5162916414556
 21
-518.3213338416724
 31
0.0
  0
LINE
  5
21A6D
  8
0
 10
594.0162916414556
 20
-523.2213350050739
 30
0.0
 11
593.5162916414556
 21
-523.1213338416762
 31
0.0
  0
LINE
  5
21A6E
  8
0
 10
594.0162916414556
 20
-521.621335005074
 30
0.0
 11
593.5162916414556
 21
-521.5213338416763
 31
0.0
  0
LINE
  5
21A6F
  8
0
 10
590.5162916414556
 20
-517.7213268612893
 30
0.0
 11
590.0162916414556
 21
-517.6213256978922
 31
0.0
  0
LINE
  5
21A70
  8
0
 10
590.5162916414556
 20
-519.3213268612899
 30
0.0
 11
590.0162916414556
 21
-519.2213256978921
 31
0.0
  0
LINE
  5
21A71
  8
0
 10
590.5162916414556
 20
-522.5213268612899
 30
0.0
 11
590.0162916414556
 21
-522.4213256978923
 31
0.0
  0
LINE
  5
21A72
  8
0
 10
590.5162916414556
 20
-520.9213268612898
 30
0.0
 11
590.0162916414556
 21
-520.8213256978921
 31
0.0
  0
LINE
  5
21A73
  8
0
 10
590.0162916414556
 20
-520.8213256978921
 30
0.0
 11
594.0162916414556
 21
-520.0213350050739
 31
0.0
  0
LINE
  5
21A74
  8
0
 10
590.0162916414556
 20
-519.2213256978921
 30
0.0
 11
594.0162916414556
 21
-518.4213350050695
 31
0.0
  0
LINE
  5
21A75
  8
0
 10
590.0162916414556
 20
-522.4213256978923
 30
0.0
 11
594.0162916414556
 21
-521.621335005074
 31
0.0
  0
LINE
  5
21A76
  8
0
 10
590.0162916414556
 20
-524.0213256978922
 30
0.0
 11
594.0162916414556
 21
-523.2213350050739
 31
0.0
  0
LINE
  5
21A77
  8
0
 10
590.5162916414556
 20
-533.7213268612984
 30
0.0
 11
590.0162916414556
 21
-533.6213256979007
 31
0.0
  0
LINE
  5
21A78
  8
0
 10
590.0162916414556
 20
-533.6213256979007
 30
0.0
 11
594.0162916414556
 21
-532.8213350050825
 31
0.0
  0
LINE
  5
21A79
  8
0
 10
594.0162916414556
 20
-532.8213350050825
 30
0.0
 11
593.5162916414556
 21
-532.7213338416848
 31
0.0
  0
LINE
  5
21A7A
  8
0
 10
590.5162916414556
 20
-532.1213268612985
 30
0.0
 11
590.0162916414556
 21
-532.0213256979008
 31
0.0
  0
LINE
  5
21A7B
  8
0
 10
590.5162916414556
 20
-530.5213268612986
 30
0.0
 11
590.0162916414556
 21
-530.4213256979009
 31
0.0
  0
LINE
  5
21A7C
  8
0
 10
590.0162916414556
 20
-530.4213256979009
 30
0.0
 11
594.0162916414556
 21
-529.6213350050826
 31
0.0
  0
LINE
  5
21A7D
  8
0
 10
594.0162916414556
 20
-531.2213350050826
 30
0.0
 11
593.5162916414556
 21
-531.1213338416849
 31
0.0
  0
LINE
  5
21A7E
  8
0
 10
594.0162916414556
 20
-529.6213350050826
 30
0.0
 11
593.5162916414556
 21
-529.521333841685
 31
0.0
  0
LINE
  5
21A7F
  8
0
 10
590.0162916414556
 20
-532.0213256979008
 30
0.0
 11
594.0162916414556
 21
-531.2213350050826
 31
0.0
  0
LINE
  5
21A80
  8
0
 10
590.5162916414556
 20
-528.9213268612942
 30
0.0
 11
590.0162916414556
 21
-528.8213256978966
 31
0.0
  0
LINE
  5
21A81
  8
0
 10
590.5162916414556
 20
-535.3213268612983
 30
0.0
 11
590.0162916414556
 21
-535.2213256979006
 31
0.0
  0
LINE
  5
21A82
  8
0
 10
590.0162916414556
 20
-535.2213256979006
 30
0.0
 11
594.0162916414556
 21
-534.4213350050824
 31
0.0
  0
LINE
  5
21A83
  8
0
 10
594.0162916414556
 20
-534.4213350050824
 30
0.0
 11
593.5162916414556
 21
-534.3213338416847
 31
0.0
  0
LINE
  5
21A84
  8
0
 10
590.5162916414556
 20
-536.9213268612982
 30
0.0
 11
590.0162916414556
 21
-536.8213256979005
 31
0.0
  0
LINE
  5
21A85
  8
0
 10
590.0162916414556
 20
-536.8213256979005
 30
0.0
 11
594.0162916414556
 21
-536.0213350050823
 31
0.0
  0
LINE
  5
21A86
  8
0
 10
594.0162916414556
 20
-536.0213350050823
 30
0.0
 11
593.5162916414556
 21
-535.9213338416846
 31
0.0
  0
LINE
  5
21A87
  8
0
 10
590.5162916414556
 20
-538.5213268612981
 30
0.0
 11
590.0162916414556
 21
-538.4213256979004
 31
0.0
  0
LINE
  5
21A88
  8
0
 10
590.0162916414556
 20
-538.4213256979004
 30
0.0
 11
594.0162916414556
 21
-537.6213350050822
 31
0.0
  0
LINE
  5
21A89
  8
0
 10
594.0162916414556
 20
-537.6213350050822
 30
0.0
 11
593.5162916414556
 21
-537.5213338416845
 31
0.0
  0
LINE
  5
21A8A
  8
0
 10
74.01619508257033
 20
-504.3213303514287
 30
0.0
 11
75.51619508257033
 21
-509.6213268612904
 31
0.0
  0
LINE
  5
21A8B
  8
0
 10
75.51619508257033
 20
-509.6213268612904
 30
0.0
 11
75.5161950825701
 21
-539.3213268611823
 31
0.0
  0
LINE
  5
21A8C
  8
0
 10
74.01619508257033
 20
-504.3213303514287
 30
0.0
 11
72.51619508257022
 21
-509.6213338416741
 31
0.0
  0
LINE
  5
21A8D
  8
0
 10
77.51624161846814
 20
-539.3213222074843
 30
0.0
 11
70.51624161846826
 21
-539.3213384950485
 31
0.0
  0
LINE
  5
21A8E
  8
0
 10
72.51619508257022
 20
-509.6213338416741
 30
0.0
 11
72.5161950825701
 21
-539.321333841567
 31
0.0
  0
LINE
  5
21A8F
  8
0
 10
77.51624161846814
 20
-539.3213222074843
 30
0.0
 11
77.51624161846826
 21
-540.4213256976795
 31
0.0
  0
ARC
  5
21A90
  8
0
 10
76.01624161846826
 20
-540.4213256976795
 30
0.0
 40
1.5
 50
270.0001333155316
 51
0.0
  0
LINE
  5
21A91
  8
0
 10
70.51624161846826
 20
-539.3213384950485
 30
0.0
 11
70.51624161846826
 21
-540.4213350048591
 31
0.0
  0
LINE
  5
21A92
  8
0
 10
76.01624510866066
 20
-541.9213256976755
 30
0.0
 11
72.01624510866066
 21
-541.9213350048551
 31
0.0
  0
ARC
  5
21A93
  8
0
 10
72.01624161846826
 20
-540.4213350048591
 30
0.0
 40
1.5
 50
180.0
 51
270.0001333155316
  0
LINE
  5
21A94
  8
1CENTER
 10
74.01624161846826
 20
-502.8905354339634
 30
0.0
 11
74.01624161846826
 21
-542.9916067605752
 31
0.0
  0
LINE
  5
21A95
  8
0
 10
75.11056543246332
 20
-506.4213278051066
 30
0.0
 11
73.1482303435879
 21
-505.6213323710556
 31
0.0
  0
LINE
  5
21A96
  8
0
 10
73.1482303435879
 20
-505.6213323710556
 30
0.0
 11
73.73650691863031
 21
-505.3095625148035
 31
0.0
  0
LINE
  5
21A97
  8
0
 10
76.01619508257033
 20
-528.8213256978966
 30
0.0
 11
72.01619508257033
 21
-528.0213350050783
 31
0.0
  0
LINE
  5
21A98
  8
0
 10
76.01619508257033
 20
-517.6213256978922
 30
0.0
 11
72.01619508257033
 21
-516.8213350050696
 31
0.0
  0
LINE
  5
21A99
  8
0
 10
76.01619508257033
 20
-514.4213256978921
 30
0.0
 11
72.01619508257033
 21
-513.6213350050696
 31
0.0
  0
LINE
  5
21A9A
  8
0
 10
72.01619508257033
 20
-513.6213350050696
 30
0.0
 11
72.51619508257033
 21
-513.5213338416723
 31
0.0
  0
LINE
  5
21A9B
  8
0
 10
75.51619508257033
 20
-512.9213268612893
 30
0.0
 11
76.01619508257033
 21
-512.8213256978921
 31
0.0
  0
LINE
  5
21A9C
  8
0
 10
72.01619508257033
 20
-516.8213350050696
 30
0.0
 11
72.51619508257033
 21
-516.7213338416724
 31
0.0
  0
LINE
  5
21A9D
  8
0
 10
72.01619508257033
 20
-515.2213350050695
 30
0.0
 11
72.51619508257033
 21
-515.1213338416724
 31
0.0
  0
LINE
  5
21A9E
  8
0
 10
75.51619508257033
 20
-514.5213268612893
 30
0.0
 11
76.01619508257033
 21
-514.4213256978921
 31
0.0
  0
LINE
  5
21A9F
  8
0
 10
75.51619508257033
 20
-516.1213268612892
 30
0.0
 11
76.01619508257033
 21
-516.021325697892
 31
0.0
  0
LINE
  5
21AA0
  8
0
 10
76.01619508257033
 20
-516.021325697892
 30
0.0
 11
72.01619508257033
 21
-515.2213350050695
 31
0.0
  0
LINE
  5
21AA1
  8
0
 10
72.6954162391811
 20
-507.2213334246612
 30
0.0
 11
73.24716570298438
 21
-507.0385692820332
 31
0.0
  0
LINE
  5
21AA2
  8
0
 10
72.01619508257033
 20
-510.4213350050695
 30
0.0
 11
72.51619508257033
 21
-510.3213338416724
 31
0.0
  0
LINE
  5
21AA3
  8
0
 10
72.01619508257033
 20
-512.0213350050695
 30
0.0
 11
72.51619508257033
 21
-511.9213338416725
 31
0.0
  0
LINE
  5
21AA4
  8
0
 10
72.2426021347743
 20
-508.8213344782669
 30
0.0
 11
72.77919587004544
 21
-508.692063780637
 31
0.0
  0
LINE
  5
21AA5
  8
0
 10
75.09528048536163
 20
-508.1340962638524
 30
0.0
 11
75.5633789405116
 21
-508.0213267515023
 31
0.0
  0
LINE
  5
21AA6
  8
0
 10
75.51619508257033
 20
-511.3213268612892
 30
0.0
 11
76.01619508257033
 21
-511.2213256978921
 31
0.0
  0
LINE
  5
21AA7
  8
0
 10
75.51619508257033
 20
-509.7213268612893
 30
0.0
 11
76.01619508257033
 21
-509.6213256978922
 31
0.0
  0
LINE
  5
21AA8
  8
0
 10
74.65339359183224
 20
-506.572763601547
 30
0.0
 11
75.11056543246332
 21
-506.4213278051066
 31
0.0
  0
LINE
  5
21AA9
  8
0
 10
75.5633789405116
 20
-508.0213267515023
 30
0.0
 11
72.6954162391811
 21
-507.2213334246612
 31
0.0
  0
LINE
  5
21AAA
  8
0
 10
76.01619508257033
 20
-511.2213256978921
 30
0.0
 11
72.01619508257033
 21
-510.4213350050695
 31
0.0
  0
LINE
  5
21AAB
  8
0
 10
76.01619508257033
 20
-509.6213256978922
 30
0.0
 11
72.2426021347743
 21
-508.8213344782669
 31
0.0
  0
LINE
  5
21AAC
  8
0
 10
76.01619508257033
 20
-512.8213256978921
 30
0.0
 11
72.01619508257033
 21
-512.0213350050695
 31
0.0
  0
LINE
  5
21AAD
  8
0
 10
76.01619508257033
 20
-525.6213256978965
 30
0.0
 11
72.01619508257033
 21
-524.8213350050783
 31
0.0
  0
LINE
  5
21AAE
  8
0
 10
72.01619508257033
 20
-524.8213350050783
 30
0.0
 11
72.51619508257033
 21
-524.7213338416806
 31
0.0
  0
LINE
  5
21AAF
  8
0
 10
75.51619508257033
 20
-524.1213268612898
 30
0.0
 11
76.01619508257033
 21
-524.0213256978922
 31
0.0
  0
LINE
  5
21AB0
  8
0
 10
72.01619508257033
 20
-526.4213350050784
 30
0.0
 11
72.51619508257033
 21
-526.3213338416807
 31
0.0
  0
LINE
  5
21AB1
  8
0
 10
72.01619508257033
 20
-528.0213350050783
 30
0.0
 11
72.51619508257033
 21
-527.9213338416806
 31
0.0
  0
LINE
  5
21AB2
  8
0
 10
75.51619508257033
 20
-525.7213268612942
 30
0.0
 11
76.01619508257033
 21
-525.6213256978965
 31
0.0
  0
LINE
  5
21AB3
  8
0
 10
75.51619508257033
 20
-527.3213268612943
 30
0.0
 11
76.01619508257033
 21
-527.2213256978966
 31
0.0
  0
LINE
  5
21AB4
  8
0
 10
76.01619508257033
 20
-527.2213256978966
 30
0.0
 11
72.01619508257033
 21
-526.4213350050784
 31
0.0
  0
LINE
  5
21AB5
  8
0
 10
72.01619508257033
 20
-520.0213350050739
 30
0.0
 11
72.51619508257033
 21
-519.9213338416762
 31
0.0
  0
LINE
  5
21AB6
  8
0
 10
72.01619508257033
 20
-518.4213350050695
 30
0.0
 11
72.51619508257033
 21
-518.3213338416724
 31
0.0
  0
LINE
  5
21AB7
  8
0
 10
72.01619508257033
 20
-523.2213350050739
 30
0.0
 11
72.51619508257033
 21
-523.1213338416762
 31
0.0
  0
LINE
  5
21AB8
  8
0
 10
72.01619508257033
 20
-521.621335005074
 30
0.0
 11
72.51619508257033
 21
-521.5213338416763
 31
0.0
  0
LINE
  5
21AB9
  8
0
 10
75.51619508257033
 20
-517.7213268612893
 30
0.0
 11
76.01619508257033
 21
-517.6213256978922
 31
0.0
  0
LINE
  5
21ABA
  8
0
 10
75.51619508257033
 20
-519.3213268612899
 30
0.0
 11
76.01619508257033
 21
-519.2213256978921
 31
0.0
  0
LINE
  5
21ABB
  8
0
 10
75.51619508257033
 20
-522.5213268612899
 30
0.0
 11
76.01619508257033
 21
-522.4213256978923
 31
0.0
  0
LINE
  5
21ABC
  8
0
 10
75.51619508257033
 20
-520.9213268612898
 30
0.0
 11
76.01619508257033
 21
-520.8213256978921
 31
0.0
  0
LINE
  5
21ABD
  8
0
 10
76.01619508257033
 20
-520.8213256978921
 30
0.0
 11
72.01619508257033
 21
-520.0213350050739
 31
0.0
  0
LINE
  5
21ABE
  8
0
 10
76.01619508257033
 20
-519.2213256978921
 30
0.0
 11
72.01619508257033
 21
-518.4213350050695
 31
0.0
  0
LINE
  5
21ABF
  8
0
 10
76.01619508257033
 20
-522.4213256978923
 30
0.0
 11
72.01619508257033
 21
-521.621335005074
 31
0.0
  0
LINE
  5
21AC0
  8
0
 10
76.01619508257033
 20
-524.0213256978922
 30
0.0
 11
72.01619508257033
 21
-523.2213350050739
 31
0.0
  0
LINE
  5
21AC1
  8
0
 10
75.51619508257033
 20
-533.7213268612984
 30
0.0
 11
76.01619508257033
 21
-533.6213256979007
 31
0.0
  0
LINE
  5
21AC2
  8
0
 10
76.01619508257033
 20
-533.6213256979007
 30
0.0
 11
72.01619508257033
 21
-532.8213350050825
 31
0.0
  0
LINE
  5
21AC3
  8
0
 10
72.01619508257033
 20
-532.8213350050825
 30
0.0
 11
72.51619508257033
 21
-532.7213338416848
 31
0.0
  0
LINE
  5
21AC4
  8
0
 10
75.51619508257033
 20
-532.1213268612985
 30
0.0
 11
76.01619508257033
 21
-532.0213256979008
 31
0.0
  0
LINE
  5
21AC5
  8
0
 10
75.51619508257033
 20
-530.5213268612986
 30
0.0
 11
76.01619508257033
 21
-530.4213256979009
 31
0.0
  0
LINE
  5
21AC6
  8
0
 10
76.01619508257033
 20
-530.4213256979009
 30
0.0
 11
72.01619508257033
 21
-529.6213350050826
 31
0.0
  0
LINE
  5
21AC7
  8
0
 10
72.01619508257033
 20
-531.2213350050826
 30
0.0
 11
72.51619508257033
 21
-531.1213338416849
 31
0.0
  0
LINE
  5
21AC8
  8
0
 10
72.01619508257033
 20
-529.6213350050826
 30
0.0
 11
72.51619508257033
 21
-529.521333841685
 31
0.0
  0
LINE
  5
21AC9
  8
0
 10
76.01619508257033
 20
-532.0213256979008
 30
0.0
 11
72.01619508257033
 21
-531.2213350050826
 31
0.0
  0
LINE
  5
21ACA
  8
0
 10
75.51619508257033
 20
-528.9213268612942
 30
0.0
 11
76.01619508257033
 21
-528.8213256978966
 31
0.0
  0
LINE
  5
21ACB
  8
0
 10
75.51619508257033
 20
-535.3213268612983
 30
0.0
 11
76.01619508257033
 21
-535.2213256979006
 31
0.0
  0
LINE
  5
21ACC
  8
0
 10
76.01619508257033
 20
-535.2213256979006
 30
0.0
 11
72.01619508257033
 21
-534.4213350050824
 31
0.0
  0
LINE
  5
21ACD
  8
0
 10
72.01619508257033
 20
-534.4213350050824
 30
0.0
 11
72.51619508257033
 21
-534.3213338416847
 31
0.0
  0
LINE
  5
21ACE
  8
0
 10
75.51619508257033
 20
-536.9213268612982
 30
0.0
 11
76.01619508257033
 21
-536.8213256979005
 31
0.0
  0
LINE
  5
21ACF
  8
0
 10
76.01619508257033
 20
-536.8213256979005
 30
0.0
 11
72.01619508257033
 21
-536.0213350050823
 31
0.0
  0
LINE
  5
21AD0
  8
0
 10
72.01619508257033
 20
-536.0213350050823
 30
0.0
 11
72.51619508257033
 21
-535.9213338416846
 31
0.0
  0
LINE
  5
21AD1
  8
0
 10
75.51619508257033
 20
-538.5213268612981
 30
0.0
 11
76.01619508257033
 21
-538.4213256979004
 31
0.0
  0
LINE
  5
21AD2
  8
0
 10
76.01619508257033
 20
-538.4213256979004
 30
0.0
 11
72.01619508257033
 21
-537.6213350050822
 31
0.0
  0
LINE
  5
21AD3
  8
0
 10
72.01619508257033
 20
-537.6213350050822
 30
0.0
 11
72.51619508257033
 21
-537.5213338416845
 31
0.0
  0
LINE
  5
21AD4
  8
0
 10
94.0161915892736
 20
-504.3213303514287
 30
0.0
 11
95.5161915892736
 21
-509.6213268612904
 31
0.0
  0
LINE
  5
21AD5
  8
0
 10
95.5161915892736
 20
-509.6213268612904
 30
0.0
 11
95.51619158927338
 21
-539.3213268611823
 31
0.0
  0
LINE
  5
21AD6
  8
0
 10
94.0161915892736
 20
-504.3213303514287
 30
0.0
 11
92.51619158927349
 21
-509.6213338416741
 31
0.0
  0
LINE
  5
21AD7
  8
0
 10
97.51623812517141
 20
-539.3213222074843
 30
0.0
 11
90.51623812517153
 21
-539.3213384950485
 31
0.0
  0
LINE
  5
21AD8
  8
0
 10
92.51619158927349
 20
-509.6213338416741
 30
0.0
 11
92.51619158927338
 21
-539.321333841567
 31
0.0
  0
LINE
  5
21AD9
  8
0
 10
97.51623812517141
 20
-539.3213222074843
 30
0.0
 11
97.51623812517153
 21
-540.4213256976795
 31
0.0
  0
ARC
  5
21ADA
  8
0
 10
96.01623812517153
 20
-540.4213256976795
 30
0.0
 40
1.5
 50
270.0001333155316
 51
0.0
  0
LINE
  5
21ADB
  8
0
 10
90.51623812517153
 20
-539.3213384950485
 30
0.0
 11
90.51623812517153
 21
-540.4213350048591
 31
0.0
  0
LINE
  5
21ADC
  8
0
 10
96.01624161536392
 20
-541.9213256976755
 30
0.0
 11
92.01624161536392
 21
-541.9213350048551
 31
0.0
  0
ARC
  5
21ADD
  8
0
 10
92.01623812517153
 20
-540.4213350048591
 30
0.0
 40
1.5
 50
180.0
 51
270.0001333155316
  0
LINE
  5
21ADE
  8
1CENTER
 10
94.01623812517153
 20
-502.8905354339634
 30
0.0
 11
94.01623812517153
 21
-542.9916067605752
 31
0.0
  0
LINE
  5
21ADF
  8
0
 10
95.11056193916659
 20
-506.4213278051066
 30
0.0
 11
93.14822685029117
 21
-505.6213323710556
 31
0.0
  0
LINE
  5
21AE0
  8
0
 10
93.14822685029117
 20
-505.6213323710556
 30
0.0
 11
93.73650342533358
 21
-505.3095625148035
 31
0.0
  0
LINE
  5
21AE1
  8
0
 10
96.0161915892736
 20
-528.8213256978966
 30
0.0
 11
92.0161915892736
 21
-528.0213350050783
 31
0.0
  0
LINE
  5
21AE2
  8
0
 10
96.0161915892736
 20
-517.6213256978922
 30
0.0
 11
92.0161915892736
 21
-516.8213350050696
 31
0.0
  0
LINE
  5
21AE3
  8
0
 10
96.0161915892736
 20
-514.4213256978921
 30
0.0
 11
92.0161915892736
 21
-513.6213350050696
 31
0.0
  0
LINE
  5
21AE4
  8
0
 10
92.0161915892736
 20
-513.6213350050696
 30
0.0
 11
92.5161915892736
 21
-513.5213338416723
 31
0.0
  0
LINE
  5
21AE5
  8
0
 10
95.5161915892736
 20
-512.9213268612893
 30
0.0
 11
96.0161915892736
 21
-512.8213256978921
 31
0.0
  0
LINE
  5
21AE6
  8
0
 10
92.0161915892736
 20
-516.8213350050696
 30
0.0
 11
92.5161915892736
 21
-516.7213338416724
 31
0.0
  0
LINE
  5
21AE7
  8
0
 10
92.0161915892736
 20
-515.2213350050695
 30
0.0
 11
92.5161915892736
 21
-515.1213338416724
 31
0.0
  0
LINE
  5
21AE8
  8
0
 10
95.5161915892736
 20
-514.5213268612893
 30
0.0
 11
96.0161915892736
 21
-514.4213256978921
 31
0.0
  0
LINE
  5
21AE9
  8
0
 10
95.5161915892736
 20
-516.1213268612892
 30
0.0
 11
96.0161915892736
 21
-516.021325697892
 31
0.0
  0
LINE
  5
21AEA
  8
0
 10
96.0161915892736
 20
-516.021325697892
 30
0.0
 11
92.0161915892736
 21
-515.2213350050695
 31
0.0
  0
LINE
  5
21AEB
  8
0
 10
92.69541274588437
 20
-507.2213334246612
 30
0.0
 11
93.24716220968764
 21
-507.0385692820332
 31
0.0
  0
LINE
  5
21AEC
  8
0
 10
92.0161915892736
 20
-510.4213350050695
 30
0.0
 11
92.5161915892736
 21
-510.3213338416724
 31
0.0
  0
LINE
  5
21AED
  8
0
 10
92.0161915892736
 20
-512.0213350050695
 30
0.0
 11
92.5161915892736
 21
-511.9213338416725
 31
0.0
  0
LINE
  5
21AEE
  8
0
 10
92.24259864147757
 20
-508.8213344782669
 30
0.0
 11
92.77919237674871
 21
-508.692063780637
 31
0.0
  0
LINE
  5
21AEF
  8
0
 10
95.0952769920649
 20
-508.1340962638524
 30
0.0
 11
95.56337544721487
 21
-508.0213267515023
 31
0.0
  0
LINE
  5
21AF0
  8
0
 10
95.5161915892736
 20
-511.3213268612892
 30
0.0
 11
96.0161915892736
 21
-511.2213256978921
 31
0.0
  0
LINE
  5
21AF1
  8
0
 10
95.5161915892736
 20
-509.7213268612893
 30
0.0
 11
96.0161915892736
 21
-509.6213256978922
 31
0.0
  0
LINE
  5
21AF2
  8
0
 10
94.65339009853551
 20
-506.572763601547
 30
0.0
 11
95.11056193916659
 21
-506.4213278051066
 31
0.0
  0
LINE
  5
21AF3
  8
0
 10
95.56337544721487
 20
-508.0213267515023
 30
0.0
 11
92.69541274588437
 21
-507.2213334246612
 31
0.0
  0
LINE
  5
21AF4
  8
0
 10
96.0161915892736
 20
-511.2213256978921
 30
0.0
 11
92.0161915892736
 21
-510.4213350050695
 31
0.0
  0
LINE
  5
21AF5
  8
0
 10
96.0161915892736
 20
-509.6213256978922
 30
0.0
 11
92.24259864147757
 21
-508.8213344782669
 31
0.0
  0
LINE
  5
21AF6
  8
0
 10
96.0161915892736
 20
-512.8213256978921
 30
0.0
 11
92.0161915892736
 21
-512.0213350050695
 31
0.0
  0
LINE
  5
21AF7
  8
0
 10
96.0161915892736
 20
-525.6213256978965
 30
0.0
 11
92.0161915892736
 21
-524.8213350050783
 31
0.0
  0
LINE
  5
21AF8
  8
0
 10
92.0161915892736
 20
-524.8213350050783
 30
0.0
 11
92.5161915892736
 21
-524.7213338416806
 31
0.0
  0
LINE
  5
21AF9
  8
0
 10
95.5161915892736
 20
-524.1213268612898
 30
0.0
 11
96.0161915892736
 21
-524.0213256978922
 31
0.0
  0
LINE
  5
21AFA
  8
0
 10
92.0161915892736
 20
-526.4213350050784
 30
0.0
 11
92.5161915892736
 21
-526.3213338416807
 31
0.0
  0
LINE
  5
21AFB
  8
0
 10
92.0161915892736
 20
-528.0213350050783
 30
0.0
 11
92.5161915892736
 21
-527.9213338416806
 31
0.0
  0
LINE
  5
21AFC
  8
0
 10
95.5161915892736
 20
-525.7213268612942
 30
0.0
 11
96.0161915892736
 21
-525.6213256978965
 31
0.0
  0
LINE
  5
21AFD
  8
0
 10
95.5161915892736
 20
-527.3213268612943
 30
0.0
 11
96.0161915892736
 21
-527.2213256978966
 31
0.0
  0
LINE
  5
21AFE
  8
0
 10
96.0161915892736
 20
-527.2213256978966
 30
0.0
 11
92.0161915892736
 21
-526.4213350050784
 31
0.0
  0
LINE
  5
21AFF
  8
0
 10
92.0161915892736
 20
-520.0213350050739
 30
0.0
 11
92.5161915892736
 21
-519.9213338416762
 31
0.0
  0
LINE
  5
21B00
  8
0
 10
92.0161915892736
 20
-518.4213350050695
 30
0.0
 11
92.5161915892736
 21
-518.3213338416724
 31
0.0
  0
LINE
  5
21B01
  8
0
 10
92.0161915892736
 20
-523.2213350050739
 30
0.0
 11
92.5161915892736
 21
-523.1213338416762
 31
0.0
  0
LINE
  5
21B02
  8
0
 10
92.0161915892736
 20
-521.621335005074
 30
0.0
 11
92.5161915892736
 21
-521.5213338416763
 31
0.0
  0
LINE
  5
21B03
  8
0
 10
95.5161915892736
 20
-517.7213268612893
 30
0.0
 11
96.0161915892736
 21
-517.6213256978922
 31
0.0
  0
LINE
  5
21B04
  8
0
 10
95.5161915892736
 20
-519.3213268612899
 30
0.0
 11
96.0161915892736
 21
-519.2213256978921
 31
0.0
  0
LINE
  5
21B05
  8
0
 10
95.5161915892736
 20
-522.5213268612899
 30
0.0
 11
96.0161915892736
 21
-522.4213256978923
 31
0.0
  0
LINE
  5
21B06
  8
0
 10
95.5161915892736
 20
-520.9213268612898
 30
0.0
 11
96.0161915892736
 21
-520.8213256978921
 31
0.0
  0
LINE
  5
21B07
  8
0
 10
96.0161915892736
 20
-520.8213256978921
 30
0.0
 11
92.0161915892736
 21
-520.0213350050739
 31
0.0
  0
LINE
  5
21B08
  8
0
 10
96.0161915892736
 20
-519.2213256978921
 30
0.0
 11
92.0161915892736
 21
-518.4213350050695
 31
0.0
  0
LINE
  5
21B09
  8
0
 10
96.0161915892736
 20
-522.4213256978923
 30
0.0
 11
92.0161915892736
 21
-521.621335005074
 31
0.0
  0
LINE
  5
21B0A
  8
0
 10
96.0161915892736
 20
-524.0213256978922
 30
0.0
 11
92.0161915892736
 21
-523.2213350050739
 31
0.0
  0
LINE
  5
21B0B
  8
0
 10
95.5161915892736
 20
-533.7213268612984
 30
0.0
 11
96.0161915892736
 21
-533.6213256979007
 31
0.0
  0
LINE
  5
21B0C
  8
0
 10
96.0161915892736
 20
-533.6213256979007
 30
0.0
 11
92.0161915892736
 21
-532.8213350050825
 31
0.0
  0
LINE
  5
21B0D
  8
0
 10
92.0161915892736
 20
-532.8213350050825
 30
0.0
 11
92.5161915892736
 21
-532.7213338416848
 31
0.0
  0
LINE
  5
21B0E
  8
0
 10
95.5161915892736
 20
-532.1213268612985
 30
0.0
 11
96.0161915892736
 21
-532.0213256979008
 31
0.0
  0
LINE
  5
21B0F
  8
0
 10
95.5161915892736
 20
-530.5213268612986
 30
0.0
 11
96.0161915892736
 21
-530.4213256979009
 31
0.0
  0
LINE
  5
21B10
  8
0
 10
96.0161915892736
 20
-530.4213256979009
 30
0.0
 11
92.0161915892736
 21
-529.6213350050826
 31
0.0
  0
LINE
  5
21B11
  8
0
 10
92.0161915892736
 20
-531.2213350050826
 30
0.0
 11
92.5161915892736
 21
-531.1213338416849
 31
0.0
  0
LINE
  5
21B12
  8
0
 10
92.0161915892736
 20
-529.6213350050826
 30
0.0
 11
92.5161915892736
 21
-529.521333841685
 31
0.0
  0
LINE
  5
21B13
  8
0
 10
96.0161915892736
 20
-532.0213256979008
 30
0.0
 11
92.0161915892736
 21
-531.2213350050826
 31
0.0
  0
LINE
  5
21B14
  8
0
 10
95.5161915892736
 20
-528.9213268612942
 30
0.0
 11
96.0161915892736
 21
-528.8213256978966
 31
0.0
  0
LINE
  5
21B15
  8
0
 10
95.5161915892736
 20
-535.3213268612983
 30
0.0
 11
96.0161915892736
 21
-535.2213256979006
 31
0.0
  0
LINE
  5
21B16
  8
0
 10
96.0161915892736
 20
-535.2213256979006
 30
0.0
 11
92.0161915892736
 21
-534.4213350050824
 31
0.0
  0
LINE
  5
21B17
  8
0
 10
92.0161915892736
 20
-534.4213350050824
 30
0.0
 11
92.5161915892736
 21
-534.3213338416847
 31
0.0
  0
LINE
  5
21B18
  8
0
 10
95.5161915892736
 20
-536.9213268612982
 30
0.0
 11
96.0161915892736
 21
-536.8213256979005
 31
0.0
  0
LINE
  5
21B19
  8
0
 10
96.0161915892736
 20
-536.8213256979005
 30
0.0
 11
92.0161915892736
 21
-536.0213350050823
 31
0.0
  0
LINE
  5
21B1A
  8
0
 10
92.0161915892736
 20
-536.0213350050823
 30
0.0
 11
92.5161915892736
 21
-535.9213338416846
 31
0.0
  0
LINE
  5
21B1B
  8
0
 10
95.5161915892736
 20
-538.5213268612981
 30
0.0
 11
96.0161915892736
 21
-538.4213256979004
 31
0.0
  0
LINE
  5
21B1C
  8
0
 10
96.0161915892736
 20
-538.4213256979004
 30
0.0
 11
92.0161915892736
 21
-537.6213350050822
 31
0.0
  0
LINE
  5
21B1D
  8
0
 10
92.0161915892736
 20
-537.6213350050822
 30
0.0
 11
92.5161915892736
 21
-537.5213338416845
 31
0.0
  0
TEXT
  5
21B1E
  8
1DIM
  6
CONTINUOUS
 10
633.6419570413702
 20
-619.850235845901
 30
0.0
 40
3.5
  1
材質：亜鉛ダイキャスト
  0
TEXT
  5
21B1F
  8
1DIM
  6
CONTINUOUS
 10
633.7586237080369
 20
-625.6835691792344
 30
0.0
 40
3.5
  1
仕上げ：各種仕上げ
  0
SOLID
  5
21B20
  8
1DIM
 10
628.3624853190837
 20
-638.5952515314617
 30
0.0
 11
627.5391598799542
 21
-640.4481536692966
 31
0.0
 12
627.7170400074006
 22
-638.4283839370323
 32
0.0
 13
627.7170400074006
 23
-638.4283839370323
 33
0.0
1001
ACAD
1000
DSTYLE
1002
{
1070
    45
1040
0.5
1002
}
  0
LINE
  5
21B21
  8
1DIM
 10
628.0397626632421
 20
-638.5118177342471
 30
0.0
 11
631.1752903747035
 21
-626.3835691792344
 31
0.0
1001
ACAD
1000
DSTYLE
1002
{
1070
    45
1040
0.5
1002
}
  0
LINE
  5
21B22
  8
1DIM
 10
631.1752903747035
 20
-626.3835691792344
 30
0.0
 11
678.4419570413702
 21
-626.3835691792344
 31
0.0
1001
ACAD
1000
DSTYLE
1002
{
1070
    45
1040
0.5
1002
}
  0
LINE
  5
21B23
  8
1DIM1
 10
68.0162416153654
 20
-665.984255320538
 30
0.0
 11
68.0162416153654
 21
-713.8266470469831
 31
0.0
1001
ACAD
1000
DSTYLE
1002
{
1070
    40
1040
3.0
1070
    45
1040
0.5
1002
}
  0
LINE
  5
21B24
  8
1DIM1
 10
618.0162416153653
 20
-665.9248875477155
 30
0.0
 11
618.0162416153653
 21
-713.8266470469831
 31
0.0
1001
ACAD
1000
DSTYLE
1002
{
1070
    40
1040
3.0
1070
    45
1040
0.5
1002
}
  0
LINE
  5
21B25
  8
1DIM1
 10
74.0162416153654
 20
-710.8266470469831
 30
0.0
 11
612.0162416153653
 21
-710.8266470469831
 31
0.0
1001
ACAD
1000
DSTYLE
1002
{
1070
    40
1040
3.0
1070
    45
1040
0.5
1002
}
  0
LINE
  5
21B29
  8
1DIM
 10
776.016241615365
 20
-636.6175482957436
 30
0.0
 11
776.016241615365
 21
-622.2228860060179
 31
0.0
  0
LINE
  5
21B2A
  8
1DIM
 10
803.016241615365
 20
-642.3175482957437
 30
0.0
 11
803.016241615365
 21
-622.2228860060179
 31
0.0
  0
LINE
  5
21B2B
  8
1DIM
 10
778.016241615365
 20
-623.2228860060179
 30
0.0
 11
801.016241615365
 21
-623.2228860060179
 31
0.0
  0
TEXT
  5
21B2F
  8
1DIM
  6
CONTINUOUS
 10
574.4969192920405
 20
-577.7962043072301
 30
0.0
 40
3.5
  1
材質：PVC
  0
TEXT
  5
21B30
  8
1DIM
  6
CONTINUOUS
 10
574.6135859587072
 20
-583.6295376405635
 30
0.0
 40
3.5
  1
仕上げ：各種仕上げ
  0
SOLID
  5
21B31
  8
1DIM
 10
556.7722531925255
 20
-558.854119317066
 30
0.0
 11
556.051806808976
 21
-556.9588441076197
 31
0.0
 12
557.3479939964783
 22
-558.5180137218907
 32
0.0
 13
557.3479939964783
 23
-558.5180137218907
 33
0.0
1001
ACAD
1000
DSTYLE
1002
{
1070
    45
1040
0.5
1002
}
  0
LINE
  5
21B32
  8
1DIM
 10
557.0601235945019
 20
-558.6860665194783
 30
0.0
 11
572.0302526253738
 21
-584.3295376405636
 31
0.0
1001
ACAD
1000
DSTYLE
1002
{
1070
    45
1040
0.5
1002
}
  0
LINE
  5
21B33
  8
1DIM
 10
572.0302526253738
 20
-584.3295376405636
 30
0.0
 11
611.7135859587072
 21
-584.3295376405636
 31
0.0
1001
ACAD
1000
DSTYLE
1002
{
1070
    45
1040
0.5
1002
}
  0
LINE
  5
21B34
  8
1DIM
 10
776.516241615365
 20
-644.1175482957436
 30
0.0
 11
764.5458173246672
 21
-644.1175482957436
 31
0.0
  0
LINE
  5
21B35
  8
1DIM
 10
775.516241615365
 20
-636.1175482957436
 30
0.0
 11
764.5458173246672
 21
-636.1175482957436
 31
0.0
  0
LINE
  5
21B36
  8
1DIM
 10
765.5458173246672
 20
-642.1175482957436
 30
0.0
 11
765.5458173246672
 21
-638.1175482957436
 31
0.0
  0
LINE
  5
21B3A
  8
0
  6
BYBLOCK
 10
90.01624161536526
 20
-692.4305981736205
 30
0.0
 11
84.01624161536526
 21
-690.8229030336205
 31
0.0
  0
LINE
  5
21B3B
  8
0
  6
BYBLOCK
 10
84.01624161536526
 20
-690.8229030336205
 30
0.0
 11
90.01624161536526
 21
-689.2152078936205
 31
0.0
  0
LINE
  5
21B3C
  8
0
  6
BYBLOCK
 10
84.01624161536526
 20
-690.8229030336205
 30
0.0
 11
90.01624161536526
 21
-690.8229030336205
 31
0.0
  0
LINE
  5
21B3D
  8
0
  6
BYBLOCK
 10
596.0162416153653
 20
-689.2152078936205
 30
0.0
 11
602.0162416153653
 21
-690.8229030336205
 31
0.0
  0
LINE
  5
21B3E
  8
0
  6
BYBLOCK
 10
602.0162416153653
 20
-690.8229030336205
 30
0.0
 11
596.0162416153653
 21
-692.4305981736205
 31
0.0
  0
LINE
  5
21B3F
  8
0
  6
BYBLOCK
 10
602.0162416153653
 20
-690.8229030336205
 30
0.0
 11
596.0162416153653
 21
-690.8229030336205
 31
0.0
  0
TEXT
  5
21B40
  8
1DIM1
  6
CONTINUOUS
 10
325.479783282032
 20
-688.7229030336205
 30
0.0
 40
10.5
  1
P518
1001
ACAD
1000
DSTYLE
1002
{
1070
    40
1040
3.0
1070
    45
1040
0.5
1002
}
  0
LINE
  5
21B41
  8
0
  6
BYBLOCK
 10
594.0162416153653
 20
-691.3588014136205
 30
0.0
 11
592.0162416153653
 21
-690.8229030336205
 31
0.0
  0
LINE
  5
21B42
  8
0
  6
BYBLOCK
 10
592.0162416153653
 20
-690.8229030336205
 30
0.0
 11
594.0162416153653
 21
-690.2870046536204
 31
0.0
  0
LINE
  5
21B43
  8
0
  6
BYBLOCK
 10
592.0162416153653
 20
-690.8229030336205
 30
0.0
 11
594.0162416153653
 21
-690.8229030336205
 31
0.0
  0
LINE
  5
21B44
  8
0
  6
BYBLOCK
 10
610.0162416153653
 20
-690.2870046536204
 30
0.0
 11
612.0162416153653
 21
-690.8229030336205
 31
0.0
  0
LINE
  5
21B45
  8
0
  6
BYBLOCK
 10
612.0162416153653
 20
-690.8229030336205
 30
0.0
 11
610.0162416153653
 21
-691.3588014136205
 31
0.0
  0
LINE
  5
21B46
  8
0
  6
BYBLOCK
 10
612.0162416153653
 20
-690.8229030336205
 30
0.0
 11
610.0162416153653
 21
-690.8229030336205
 31
0.0
  0
TEXT
  5
21B47
  8
1DIM
  6
CONTINUOUS
 10
597.5683249486987
 20
-690.1229030336204
 30
0.0
 40
3.5
  1
P20
1001
ACAD
1000
DSTYLE
1002
{
1070
    40
1040
1.0
1070
    45
1040
0.5
1002
}
  0
LINE
  5
21B48
  8
0
  6
BYBLOCK
 10
801.016241615365
 20
-629.2499324173124
 30
0.0
 11
803.016241615365
 21
-629.7858307973124
 31
0.0
  0
LINE
  5
21B49
  8
0
  6
BYBLOCK
 10
803.016241615365
 20
-629.7858307973124
 30
0.0
 11
801.016241615365
 21
-630.3217291773125
 31
0.0
  0
LINE
  5
21B4A
  8
0
  6
BYBLOCK
 10
803.016241615365
 20
-629.7858307973124
 30
0.0
 11
801.016241615365
 21
-629.7858307973124
 31
0.0
  0
LINE
  5
21B4B
  8
0
  6
BYBLOCK
 10
790.016241615365
 20
-630.3217291773125
 30
0.0
 11
788.016241615365
 21
-629.7858307973124
 31
0.0
  0
LINE
  5
21B4C
  8
0
  6
BYBLOCK
 10
788.016241615365
 20
-629.7858307973124
 30
0.0
 11
790.016241615365
 21
-629.2499324173124
 31
0.0
  0
LINE
  5
21B4D
  8
0
  6
BYBLOCK
 10
788.016241615365
 20
-629.7858307973124
 30
0.0
 11
790.016241615365
 21
-629.7858307973124
 31
0.0
  0
TEXT
  5
21B4E
  8
1DIM
  6
CONTINUOUS
 10
793.1829082820316
 20
-629.0858307973125
 30
0.0
 40
3.5
  1
15
1001
ACAD
1000
DSTYLE
1002
{
1070
    45
1040
0.5
1002
}
  0
LINE
  5
21B4F
  8
0
  6
BYBLOCK
 10
845.052139995365
 20
-653.8213303512664
 30
0.0
 11
844.516241615365
 21
-655.8213303512664
 31
0.0
  0
LINE
  5
21B50
  8
0
  6
BYBLOCK
 10
844.516241615365
 20
-655.8213303512664
 30
0.0
 11
843.9803432353649
 21
-653.8213303512664
 31
0.0
  0
LINE
  5
21B51
  8
0
  6
BYBLOCK
 10
844.516241615365
 20
-655.8213303512664
 30
0.0
 11
844.516241615365
 21
-653.8213303512664
 31
0.0
  0
LINE
  5
21B52
  8
0
  6
BYBLOCK
 10
843.9803432353649
 20
-637.8213303543706
 30
0.0
 11
844.516241615365
 21
-635.8213303543706
 31
0.0
  0
LINE
  5
21B53
  8
0
  6
BYBLOCK
 10
844.516241615365
 20
-635.8213303543706
 30
0.0
 11
845.052139995365
 21
-637.8213303543706
 31
0.0
  0
LINE
  5
21B54
  8
0
  6
BYBLOCK
 10
844.516241615365
 20
-635.8213303543706
 30
0.0
 11
844.516241615365
 21
-637.8213303543706
 31
0.0
  0
TEXT
  5
21B55
  8
1DIM
  6
CONTINUOUS
 10
843.8162416153649
 20
-648.519247019485
 30
0.0
 40
3.5
  1
20
 50
90.0
1001
ACAD
1000
DSTYLE
1002
{
1070
    45
1040
0.5
1070
   271
1070
     0
1002
}
  0
LINE
  5
21B56
  8
0
  6
BYBLOCK
 10
49.01624161536506
 20
-731.7828759055242
 30
0.0
 11
43.01624161536506
 21
-730.1751807655241
 31
0.0
  0
LINE
  5
21B57
  8
0
  6
BYBLOCK
 10
43.01624161536506
 20
-730.1751807655241
 30
0.0
 11
49.01624161536506
 21
-728.5674856255241
 31
0.0
  0
LINE
  5
21B58
  8
0
  6
BYBLOCK
 10
43.01624161536506
 20
-730.1751807655241
 30
0.0
 11
49.01624161536506
 21
-730.1751807655241
 31
0.0
  0
LINE
  5
21B59
  8
0
  6
BYBLOCK
 10
637.0162416153653
 20
-728.5674856255241
 30
0.0
 11
643.0162416153653
 21
-730.1751807655241
 31
0.0
  0
LINE
  5
21B5A
  8
0
  6
BYBLOCK
 10
643.0162416153653
 20
-730.1751807655241
 30
0.0
 11
637.0162416153653
 21
-731.7828759055242
 31
0.0
  0
LINE
  5
21B5B
  8
0
  6
BYBLOCK
 10
643.0162416153653
 20
-730.1751807655241
 30
0.0
 11
637.0162416153653
 21
-730.1751807655241
 31
0.0
  0
TEXT
  5
21B5C
  8
1DIM1
  6
CONTINUOUS
 10
330.5110332820319
 20
-728.0751807655241
 30
0.0
 40
10.5
  1
600
1001
ACAD
1000
DSTYLE
1002
{
1070
    40
1040
3.0
1070
    45
1040
0.5
1002
}
  0
LINE
  5
21B5D
  8
0
  6
BYBLOCK
 10
855.052139995365
 20
-664.4213303543708
 30
0.0
 11
854.516241615365
 21
-666.4213303543708
 31
0.0
  0
LINE
  5
21B5E
  8
0
  6
BYBLOCK
 10
854.516241615365
 20
-666.4213303543708
 30
0.0
 11
853.9803432353649
 21
-664.4213303543708
 31
0.0
  0
LINE
  5
21B5F
  8
0
  6
BYBLOCK
 10
854.516241615365
 20
-666.4213303543708
 30
0.0
 11
854.516241615365
 21
-664.4213303543708
 31
0.0
  0
LINE
  5
21B60
  8
0
  6
BYBLOCK
 10
853.9803432353649
 20
-637.8213303543706
 30
0.0
 11
854.516241615365
 21
-635.8213303543706
 31
0.0
  0
LINE
  5
21B61
  8
0
  6
BYBLOCK
 10
854.516241615365
 20
-635.8213303543706
 30
0.0
 11
855.052139995365
 21
-637.8213303543706
 31
0.0
  0
LINE
  5
21B62
  8
0
  6
BYBLOCK
 10
854.516241615365
 20
-635.8213303543706
 30
0.0
 11
854.516241615365
 21
-637.8213303543706
 31
0.0
  0
TEXT
  5
21B63
  8
1DIM
  6
CONTINUOUS
 10
853.816241615365
 20
-656.0796636877039
 30
0.0
 40
3.5
  1
30.5
 50
90.0
1001
ACAD
1000
DSTYLE
1002
{
1070
    45
1040
0.5
1002
}
  0
LINE
  5
21B64
  8
0
  6
BYBLOCK
 10
774.716241615365
 20
-616.8875087624562
 30
0.0
 11
772.716241615365
 21
-616.3516103824561
 31
0.0
  0
LINE
  5
21B65
  8
0
  6
BYBLOCK
 10
772.716241615365
 20
-616.3516103824561
 30
0.0
 11
774.716241615365
 21
-615.815712002456
 31
0.0
  0
LINE
  5
21B66
  8
0
  6
BYBLOCK
 10
772.716241615365
 20
-616.3516103824561
 30
0.0
 11
774.716241615365
 21
-616.3516103824561
 31
0.0
  0
LINE
  5
21B67
  8
0
  6
BYBLOCK
 10
801.016241615365
 20
-615.815712002456
 30
0.0
 11
803.016241615365
 21
-616.3516103824561
 31
0.0
  0
LINE
  5
21B68
  8
0
  6
BYBLOCK
 10
803.016241615365
 20
-616.3516103824561
 30
0.0
 11
801.016241615365
 21
-616.8875087624562
 31
0.0
  0
LINE
  5
21B69
  8
0
  6
BYBLOCK
 10
803.016241615365
 20
-616.3516103824561
 30
0.0
 11
801.016241615365
 21
-616.3516103824561
 31
0.0
  0
TEXT
  5
21B6A
  8
1DIM
  6
CONTINUOUS
 10
782.9079082820316
 20
-615.6516103824562
 30
0.0
 40
3.5
  1
30.5
1001
ACAD
1000
DSTYLE
1002
{
1070
    45
1040
0.5
1002
}
  0
LINE
  5
21B6B
  8
0
  6
BYBLOCK
 10
74.0162416153654
 20
-712.4343421869831
 30
0.0
 11
68.0162416153654
 21
-710.8266470469831
 31
0.0
  0
LINE
  5
21B6C
  8
0
  6
BYBLOCK
 10
68.0162416153654
 20
-710.8266470469831
 30
0.0
 11
74.0162416153654
 21
-709.2189519069831
 31
0.0
  0
LINE
  5
21B6D
  8
0
  6
BYBLOCK
 10
68.0162416153654
 20
-710.8266470469831
 30
0.0
 11
74.0162416153654
 21
-710.8266470469831
 31
0.0
  0
LINE
  5
21B6E
  8
0
  6
BYBLOCK
 10
612.0162416153653
 20
-709.2189519069831
 30
0.0
 11
618.0162416153653
 21
-710.8266470469831
 31
0.0
  0
LINE
  5
21B6F
  8
0
  6
BYBLOCK
 10
618.0162416153653
 20
-710.8266470469831
 30
0.0
 11
612.0162416153653
 21
-712.4343421869831
 31
0.0
  0
LINE
  5
21B70
  8
0
  6
BYBLOCK
 10
618.0162416153653
 20
-710.8266470469831
 30
0.0
 11
612.0162416153653
 21
-710.8266470469831
 31
0.0
  0
TEXT
  5
21B71
  8
1DIM1
  6
CONTINUOUS
 10
329.5995749486987
 20
-708.7266470469831
 30
0.0
 40
10.5
  1
550
1001
ACAD
1000
DSTYLE
1002
{
1070
    40
1040
3.0
1070
    45
1040
0.5
1002
}
  0
LINE
  5
21B72
  8
0
  6
BYBLOCK
 10
778.016241615365
 20
-623.758784386018
 30
0.0
 11
776.016241615365
 21
-623.2228860060179
 31
0.0
  0
LINE
  5
21B73
  8
0
  6
BYBLOCK
 10
776.016241615365
 20
-623.2228860060179
 30
0.0
 11
778.016241615365
 21
-622.6869876260179
 31
0.0
  0
LINE
  5
21B74
  8
0
  6
BYBLOCK
 10
776.016241615365
 20
-623.2228860060179
 30
0.0
 11
778.016241615365
 21
-623.2228860060179
 31
0.0
  0
LINE
  5
21B75
  8
0
  6
BYBLOCK
 10
801.016241615365
 20
-622.6869876260179
 30
0.0
 11
803.016241615365
 21
-623.2228860060179
 31
0.0
  0
LINE
  5
21B76
  8
0
  6
BYBLOCK
 10
803.016241615365
 20
-623.2228860060179
 30
0.0
 11
801.016241615365
 21
-623.758784386018
 31
0.0
  0
LINE
  5
21B77
  8
0
  6
BYBLOCK
 10
803.016241615365
 20
-623.2228860060179
 30
0.0
 11
801.016241615365
 21
-623.2228860060179
 31
0.0
  0
TEXT
  5
21B78
  8
1DIM
  6
CONTINUOUS
 10
786.3769499707444
 20
-622.5228860060179
 30
0.0
 40
3.5
  1
27
  0
LINE
  5
21B79
  8
0
  6
BYBLOCK
 10
766.0817157046672
 20
-642.1175482957436
 30
0.0
 11
765.5458173246672
 21
-644.1175482957436
 31
0.0
  0
LINE
  5
21B7A
  8
0
  6
BYBLOCK
 10
765.5458173246672
 20
-644.1175482957436
 30
0.0
 11
765.0099189446671
 21
-642.1175482957436
 31
0.0
  0
LINE
  5
21B7B
  8
0
  6
BYBLOCK
 10
765.5458173246672
 20
-644.1175482957436
 30
0.0
 11
765.5458173246672
 21
-642.1175482957436
 31
0.0
  0
LINE
  5
21B7C
  8
0
  6
BYBLOCK
 10
765.0099189446671
 20
-638.1175482957436
 30
0.0
 11
765.5458173246672
 21
-636.1175482957436
 31
0.0
  0
LINE
  5
21B7D
  8
0
  6
BYBLOCK
 10
765.5458173246672
 20
-636.1175482957436
 30
0.0
 11
766.0817157046672
 21
-638.1175482957436
 31
0.0
  0
LINE
  5
21B7E
  8
0
  6
BYBLOCK
 10
765.5458173246672
 20
-636.1175482957436
 30
0.0
 11
765.5458173246672
 21
-638.1175482957436
 31
0.0
  0
TEXT
  5
21B7F
  8
1DIM
  6
CONTINUOUS
 10
764.8458173246671
 20
-641.2842149624103
 30
0.0
 40
3.5
  1
8
 50
90.0
  0
VIEWPORT
  5
57
 67
     1
  8
0
 10
0.0
 20
0.0
 30
0.0
 40
554.37576499388
 41
297.0
 68
     1
 69
     1
1001
ACAD
1000
MVIEW
1002
{
1070
    16
1010
0.0
1020
0.0
1030
0.0
1010
0.0
1020
0.0
1030
1.0
1040
0.0
1040
297.0
1040
-4.171999999925333
1040
12.83903210976956
1040
50.0
1040
0.0
1040
0.0
1070
    16
1070
   100
1070
     0
1070
     1
1070
     0
1070
     0
1070
     0
1070
     0
1040
0.0
1040
0.0
1040
0.0
1040
10.0
1040
10.0
1040
10.0
1040
10.0
1070
     0
1002
{
1002
}
1002
}
  0
ENDSEC
  0
EOF
