  0
SECTION
  2
HEADER
  9
$ACADVER
  1
AC1009
  9
$INSBASE
 10
0.0
 20
0.0
 30
0.0
  9
$EXTMIN
 10
5492.8996944196988
 20
96.012000050530006
 30
0.0
  9
$EXTMAX
 10
5751.8996944196988
 20
296.18832398405061
 30
0.0
  9
$LIMMIN
 10
0.0
 20
0.0
  9
$LIMMAX
 10
420.0
 20
297.0
  9
$ORTHOMODE
 70
     0
  9
$REGENMODE
 70
     1
  9
$FILLMODE
 70
     1
  9
$QTEXTMODE
 70
     0
  9
$MIRRTEXT
 70
     0
  9
$DRAGMODE
 70
     2
  9
$LTSCALE
 40
0.5
  9
$OSMODE
 70
  2175
  9
$ATTMODE
 70
     1
  9
$TEXTSIZE
 40
4.0
  9
$TRACEWID
 40
1.0
  9
$TEXTSTYLE
  7
STANDARD
  9
$CLAYER
  8
1TEXT
  9
$CELTYPE
  6
BYLAYER
  9
$CECOLOR
 62
   256
  9
$DIMSCALE
 40
1.0
  9
$DIMASZ
 40
2.0
  9
$DIMEXO
 40
0.0
  9
$DIMDLI
 40
7.0
  9
$DIMRND
 40
0.0
  9
$DIMDLE
 40
0.0
  9
$DIMEXE
 40
1.0
  9
$DIMTP
 40
0.0
  9
$DIMTM
 40
0.0
  9
$DIMTXT
 40
3.5
  9
$DIMCEN
 40
0.0
  9
$DIMTSZ
 40
0.0
  9
$DIMTOL
 70
     0
  9
$DIMLIM
 70
     0
  9
$DIMTIH
 70
     0
  9
$DIMTOH
 70
     0
  9
$DIMSE1
 70
     0
  9
$DIMSE2
 70
     0
  9
$DIMTAD
 70
     1
  9
$DIMZIN
 70
     8
  9
$DIMBLK
  1

  9
$DIMASO
 70
     1
  9
$DIMSHO
 70
     1
  9
$DIMPOST
  1
 
  9
$DIMAPOST
  1

  9
$DIMALT
 70
     0
  9
$DIMALTD
 70
     2
  9
$DIMALTF
 40
25.399999999999999
  9
$DIMLFAC
 40
1.0
  9
$DIMTOFL
 70
     1
  9
$DIMTVP
 40
0.0
  9
$DIMTIX
 70
     0
  9
$DIMSOXD
 70
     0
  9
$DIMSAH
 70
     1
  9
$DIMBLK1
  1
OPEN30
  9
$DIMBLK2
  1
OPEN30
  9
$DIMSTYLE
  2
NEWX10
  9
$DIMCLRD
 70
   256
  9
$DIMCLRE
 70
   256
  9
$DIMCLRT
 70
   201
  9
$DIMTFAC
 40
0.7
  9
$DIMGAP
 40
0.7
  9
$LUNITS
 70
     2
  9
$LUPREC
 70
     4
  9
$SKETCHINC
 40
1.0
  9
$FILLETRAD
 40
1.0
  9
$AUNITS
 70
     0
  9
$AUPREC
 70
     2
  9
$MENU
  1
acad
  9
$ELEVATION
 40
0.0
  9
$PELEVATION
 40
0.0
  9
$THICKNESS
 40
0.0
  9
$LIMCHECK
 70
     0
  9
$BLIPMODE
 70
     0
  9
$CHAMFERA
 40
10.0
  9
$CHAMFERB
 40
10.0
  9
$SKPOLY
 70
     0
  9
$TDCREATE
 40
2451318.621352917
  9
$TDUPDATE
 40
2455093.7222377658
  9
$TDINDWG
 40
0.4790523264
  9
$TDUSRTIMER
 40
0.4790523264
  9
$USRTIMER
 70
     1
  9
$ANGBASE
 50
0.0
  9
$ANGDIR
 70
     0
  9
$PDMODE
 70
     0
  9
$PDSIZE
 40
0.0
  9
$PLINEWID
 40
0.0
  9
$COORDS
 70
     2
  9
$SPLFRAME
 70
     0
  9
$SPLINETYPE
 70
     6
  9
$SPLINESEGS
 70
     8
  9
$ATTDIA
 70
     0
  9
$ATTREQ
 70
     1
  9
$HANDLING
 70
     1
  9
$HANDSEED
  5
BE4E
  9
$SURFTAB1
 70
     6
  9
$SURFTAB2
 70
     6
  9
$SURFTYPE
 70
     6
  9
$SURFU
 70
     6
  9
$SURFV
 70
     6
  9
$UCSNAME
  2

  9
$UCSORG
 10
0.0
 20
0.0
 30
0.0
  9
$UCSXDIR
 10
1.0
 20
0.0
 30
0.0
  9
$UCSYDIR
 10
0.0
 20
1.0
 30
0.0
  9
$PUCSNAME
  2

  9
$PUCSORG
 10
0.0
 20
0.0
 30
0.0
  9
$PUCSXDIR
 10
1.0
 20
0.0
 30
0.0
  9
$PUCSYDIR
 10
0.0
 20
1.0
 30
0.0
  9
$USERI1
 70
     0
  9
$USERI2
 70
     0
  9
$USERI3
 70
     0
  9
$USERI4
 70
     0
  9
$USERI5
 70
     0
  9
$USERR1
 40
0.0
  9
$USERR2
 40
0.0
  9
$USERR3
 40
0.0
  9
$USERR4
 40
0.0
  9
$USERR5
 40
0.0
  9
$WORLDVIEW
 70
     1
  9
$SHADEDGE
 70
     3
  9
$SHADEDIF
 70
    70
  9
$TILEMODE
 70
     1
  9
$MAXACTVP
 70
    48
  9
$PLIMCHECK
 70
     0
  9
$PEXTMIN
 10
1.0000000000000000E+020
 20
1.0000000000000000E+020
 30
1.0000000000000000E+020
  9
$PEXTMAX
 10
-1.0000000000000000E+020
 20
-1.0000000000000000E+020
 30
-1.0000000000000000E+020
  9
$PLIMMIN
 10
0.0
 20
0.0
  9
$PLIMMAX
 10
420.0
 20
297.0
  9
$UNITMODE
 70
     0
  9
$VISRETAIN
 70
     1
  9
$PLINEGEN
 70
     0
  9
$PSLTSCALE
 70
     1
  0
ENDSEC
  0
SECTION
  2
TABLES
  0
TABLE
  2
VPORT
 70
     1
  0
VPORT
  2
*ACTIVE
 70
     0
 10
0.0
 20
0.0
 11
1.0
 21
1.0
 12
5622.3994668820333
 22
196.09586408920109
 13
0.0
 23
0.0
 14
10.0
 24
10.0
 15
10.0
 25
10.0
 16
0.0
 26
0.0
 36
1.0
 17
0.0
 27
0.0
 37
0.0
 40
212.32393574713251
 41
1.4123581336696089
 42
50.0
 43
0.0
 44
0.0
 50
0.0
 51
0.0
 71
     0
 72
   100
 73
     1
 74
     1
 75
     0
 76
     0
 77
     0
 78
     0
  0
ENDTAB
  0
TABLE
  2
LTYPE
 70
    14
  0
LTYPE
  2
CONTINUOUS
 70
     0
  3
Solid line
 72
    65
 73
     0
 40
0.0
  0
LTYPE
  2
XREF1|CENTER2
 70
    48
  3
Center (.5x) ___ _ ___ _ ___ _ ___ _ ___ _ ___
 72
    65
 73
     4
 40
28.574999999999999
 49
19.050000000000001
 49
-3.1749999999999989
 49
3.1749999999999989
 49
-3.1749999999999989
  0
LTYPE
  2
A3WAKUDAKE|CENTER2
 70
    48
  3
Center (.5x) ___ _ ___ _ ___ _ ___ _ ___ _ ___
 72
    65
 73
     4
 40
28.574999999999999
 49
19.050000000000001
 49
-3.1749999999999989
 49
3.1749999999999989
 49
-3.1749999999999989
  0
LTYPE
  2
HIDDEN
 70
     0
  3
Hidden __ __ __ __ __ __ __ __ __ __ __ __ __ _
 72
    65
 73
     2
 40
9.5249999999999986
 49
6.3499999999999988
 49
-3.1749999999999989
  0
LTYPE
  2
PHANTOM2
 70
     0
  3
Phantom (.5x) ___ _ _ ___ _ _ ___ _ _ ___ _ _
 72
    65
 73
     6
 40
31.75
 49
15.875
 49
-3.1749999999999989
 49
3.1749999999999989
 49
-3.1749999999999989
 49
3.1749999999999989
 49
-3.1749999999999989
  0
LTYPE
  2
CENTER2
 70
     0
  3
Center (.5x) ___ _ ___ _ ___ _ ___ _ ___ _ ___
 72
    65
 73
     4
 40
28.574999999999999
 49
19.050000000000001
 49
-3.1749999999999989
 49
3.1749999999999989
 49
-3.1749999999999989
  0
ENDTAB
  0
TABLE
  2
LAYER
 70
    42
  0
LAYER
  2
0
 70
     0
 62
     7
  6
CONTINUOUS
  0
LAYER
  2
1CENTER
 70
     0
 62
     7
  6
CENTER2
  0
LAYER
  2
1TEXT
 70
     0
 62
     7
  6
CONTINUOUS
  0
LAYER
  2
01
 70
     0
 62
     1
  6
CONTINUOUS
  0
LAYER
  2
1DIM
 70
     0
 62
     7
  6
CONTINUOUS
  0
LAYER
  2
A3WAKUDAKE|THICK
 70
    48
 62
     7
  6
CONTINUOUS
  0
LAYER
  2
A3WAKUDAKE|POINT
 70
    48
 62
     7
  6
CONTINUOUS
  0
LAYER
  2
A3WAKUDAKE|1CENTER
 70
    48
 62
     7
  6
A3WAKUDAKE|CENTER2
  0
LAYER
  2
A3WAKUDAKE|0-6
 70
    48
 62
     7
  6
CONTINUOUS
  0
LAYER
  2
1HIDDEN
 70
     0
 62
     7
  6
HIDDEN
  0
LAYER
  2
1PHANTOM
 70
     0
 62
     7
  6
PHANTOM2
  0
LAYER
  2
1HATCH
 70
     0
 62
     7
  6
CONTINUOUS
  0
LAYER
  2
A3WAKUDAKE|1DIM
 70
    48
 62
     7
  6
CONTINUOUS
  0
LAYER
  2
XREF1|1CENTER
 70
    48
 62
     7
  6
XREF1|CENTER2
  0
ENDTAB
  0
TABLE
  2
STYLE
 70
    21
  0
STYLE
  2
STANDARD
 70
     0
 40
0.0
 41
1.0
 50
0.0
 71
     0
 42
4.0
  3
txt.shx
  4
extfont.shx
  0
ENDTAB
  0
TABLE
  2
VIEW
 70
     0
  0
ENDTAB
  0
TABLE
  2
UCS
 70
     0
  0
ENDTAB
  0
TABLE
  2
APPID
 70
     9
  0
APPID
  2
ACAD
 70
     0
  0
APPID
  2
DRAWINGVARIABLESXDATA
 70
     0
  0
APPID
  2
CONTENTTABDATA
 70
     0
  0
APPID
  2
CONTENTCURRENTTAB
 70
     0
  0
APPID
  2
CONTENTBLOCKDESCRIPTION
 70
     0
  0
APPID
  2
CONTENTBLOCKICON
 70
     0
  0
APPID
  2
CONTENTLONGBLOCKNAME
 70
     0
  0
APPID
  2
ACAD_PSEXT
 70
     0
  0
APPID
  2
ACAD_MLEADERVER
 70
     0
  0
ENDTAB
  0
TABLE
  2
DIMSTYLE
 70
     7
  0
DIMSTYLE
  2
NEWX10
 70
     0
  3
 
  4

  5

  6
OPEN30
  7
OPEN30
 40
1.0
 41
2.0
 42
0.0
 43
7.0
 44
1.0
 45
0.0
 46
0.0
 47
0.0
 48
0.0
140
3.5
141
0.0
142
0.0
143
25.399999999999999
144
1.0
145
0.0
146
0.7
147
0.7
 71
     0
 72
     0
 73
     0
 74
     0
 75
     0
 76
     0
 77
     1
 78
     8
170
     0
171
     2
172
     1
173
     1
174
     0
175
     0
176
   256
177
   256
178
   201
  0
ENDTAB
  0
ENDSEC
  0
SECTION
  2
BLOCKS
  0
BLOCK
  8
0
  2
$MODEL_SPACE
 70
     0
 10
0.0
 20
0.0
 30
0.0
  3
$MODEL_SPACE
  1

  0
ENDBLK
  5
1A
  8
0
  0
BLOCK
 67
     1
  8
0
  2
$PAPER_SPACE
 70
     0
 10
0.0
 20
0.0
 30
0.0
  3
$PAPER_SPACE
  1

  0
ENDBLK
  5
17
 67
     1
  8
0
  0
BLOCK
  8
0
  2
_OPEN30
 70
     0
 10
0.0
 20
0.0
 30
0.0
  3
_OPEN30
  1

  0
LINE
  5
44
  8
0
  6
BYBLOCK
 62
     0
 10
-1.0
 20
0.26794919
 30
0.0
 11
0.0
 21
0.0
 31
0.0
  0
LINE
  5
45
  8
0
  6
BYBLOCK
 62
     0
 10
0.0
 20
0.0
 30
0.0
 11
-1.0
 21
-0.26794919
 31
0.0
  0
LINE
  5
46
  8
0
  6
BYBLOCK
 62
     0
 10
0.0
 20
0.0
 30
0.0
 11
-1.0
 21
0.0
 31
0.0
  0
ENDBLK
  5
47
  8
0
  0
BLOCK
  8
0
  2
XREF1
 70
    36
 10
0.0
 20
0.0
 30
0.0
  3
XREF1
  1
D:\ACLT\FORMAT\KAWAJUN(9)図面用.dwg
  0
ENDBLK
  5
5D
  8
0
  0
BLOCK
  8
0
  2
A3WAKUDAKE
 70
    36
 10
0.0
 20
0.0
 30
0.0
  3
A3WAKUDAKE
  1
D:\ACLT\FORMAT\A3WAKUdake.dwg
  0
ENDBLK
  5
6A0
  8
0
  0
BLOCK
  8
0
  2
*U15
 70
     1
 10
0.0
 20
0.0
 30
0.0
  3
*U15
  1

  0
TEXT
  5
BE30
  8
1DIM
 62
   201
 10
5606.9896944196989
 20
132.39665731738481
 30
0.0
 40
4.5499999999999989
  1
55
 50
90.0
  0
ENDBLK
  5
BE32
  8
0
  0
BLOCK
  8
0
  2
*U16
 70
     1
 10
0.0
 20
0.0
 30
0.0
  3
*U16
  1

  0
TEXT
  5
BE34
  8
1DIM
 62
   201
 10
5730.199694419699
 20
272.42908682455248
 30
0.0
 40
3.5
  1
22
 50
90.0
  0
ENDBLK
  5
BE36
  8
0
  0
BLOCK
  8
0
  2
*U17
 70
     1
 10
0.0
 20
0.0
 30
0.0
  3
*U17
  1

  0
TEXT
  5
BE38
  8
1DIM
 62
   201
 10
5739.9896944196989
 20
132.39665731738489
 30
0.0
 40
4.5499999999999989
  1
58
 50
90.0
  0
ENDBLK
  5
BE3A
  8
0
  0
BLOCK
  8
0
  2
*U18
 70
     1
 10
0.0
 20
0.0
 30
0.0
  3
*U18
  1

  0
TEXT
  5
BE3F
  8
1DIM
 62
   201
 10
5665.9830277530309
 20
194.88832398405049
 30
0.0
 40
3.5
  1
94
  0
ENDBLK
  5
BE41
  8
0
  0
BLOCK
  8
0
  2
*U19
 70
     1
 10
0.0
 20
0.0
 30
0.0
  3
*U19
  1

  0
TEXT
  5
BE43
  8
1DIM
 62
   201
 10
5678.9830277530318
 20
204.88832398405049
 30
0.0
 40
3.5
  1
68
  0
ENDBLK
  5
BE45
  8
0
  0
BLOCK
  8
0
  2
*U20
 70
     1
 10
0.0
 20
0.0
 30
0.0
  3
*U20
  1

  0
TEXT
  5
BE47
  8
1DIM
 62
   201
 10
5740.199694419699
 20
257.27165731738472
 30
0.0
 40
3.5
  1
52
 50
90.0
  0
ENDBLK
  5
BE49
  8
0
  0
BLOCK
  8
0
  2
*U21
 70
     1
 10
0.0
 20
0.0
 30
0.0
  3
*U21
  1

  0
TEXT
  5
BE4B
  8
1DIM
 62
   201
 10
5750.1996944196981
 20
251.56201064535179
 30
0.0
 40
3.5
  1
63
 50
90.0
  0
ENDBLK
  5
BE4D
  8
0
  0
ENDSEC
  0
SECTION
  2
ENTITIES
  0
LINE
  5
A4A6
  8
1CENTER
 10
5647.8996944196988
 20
130.1883239840505
 30
0.0
 11
5647.8996944196988
 21
142.1883239840505
 31
0.0
  0
LINE
  5
A4A7
  8
1CENTER
 10
5641.8996944196988
 20
136.1883239840505
 30
0.0
 11
5653.8996944196988
 21
136.1883239840505
 31
0.0
  0
LINE
  5
A4A8
  8
1CENTER
 10
5495.7714090372674
 20
136.1883239840505
 30
0.0
 11
5518.3996944196988
 21
136.1883239840505
 31
0.0
  0
LINE
  5
A4AA
  8
01
 10
5607.8996944196988
 20
286.1883239840505
 30
0.0
 11
5702.8996944196988
 21
286.1883239840505
 31
0.0
  0
LINE
  5
A4AB
  8
01
 10
5497.8996944196979
 20
176.36464791757101
 30
0.0
 11
5497.8996944196979
 21
96.012000050530006
 31
0.0
  0
LINE
  5
A4CB
  8
1CENTER
 10
5647.8996944196988
 20
288.31660936648188
 30
0.0
 11
5647.8996944196988
 21
265.6883239840505
 31
0.0
  0
TEXT
  5
A548
  8
1TEXT
 10
5497.8996944196979
 20
286.1883239840505
 30
0.0
 40
10.0
  1
B3T
 41
1.017187499999999
  0
LINE
  5
B99A
  8
1CENTER
 10
5629.2618108082461
 20
268.18829298405171
 30
0.0
 11
5644.8844474196967
 21
268.18829298405171
 31
0.0
  0
LINE
  5
B9AB
  8
1CENTER
 10
5492.8996944196988
 20
136.1883239840505
 30
0.0
 11
5527.8996944196997
 21
136.1883239840505
 31
0.0
  0
POINT
  5
B9AC
  8
1HATCH
 10
5515.8996944196979
 20
136.1883239840505
 30
0.0
  0
LINE
  5
B9AD
  8
1HATCH
 10
5515.4996944096993
 20
134.4383239840505
 30
0.0
 11
5515.4996944096993
 21
135.28832400405059
 31
0.0
  0
LINE
  5
B9AE
  8
1HATCH
 10
5516.2996944296992
 20
134.4383239840505
 30
0.0
 11
5516.2996944296992
 21
135.28832400405059
 31
0.0
  0
LINE
  5
B9AF
  8
1HATCH
 10
5514.9996944396989
 20
135.78832397405051
 30
0.0
 11
5514.1496944196988
 21
135.78832397405051
 31
0.0
  0
LINE
  5
B9B0
  8
1HATCH
 10
5514.9996944396989
 20
136.5883239940504
 30
0.0
 11
5514.1496944196988
 21
136.5883239940504
 31
0.0
  0
LINE
  5
B9B1
  8
1HATCH
 10
5514.1496944196988
 20
135.78832397405051
 30
0.0
 11
5514.1496944196988
 21
136.5883239940504
 31
0.0
  0
LINE
  5
B9B2
  8
1HATCH
 10
5516.2996944296992
 20
134.4383239840505
 30
0.0
 11
5515.4996944096993
 21
134.4383239840505
 31
0.0
  0
LINE
  5
B9B3
  8
1HATCH
 10
5516.2996944296992
 20
137.9383239840505
 30
0.0
 11
5516.2996944296992
 21
137.08832396405029
 31
0.0
  0
LINE
  5
B9B4
  8
1HATCH
 10
5515.4996944096993
 20
137.9383239840505
 30
0.0
 11
5515.4996944096993
 21
137.08832396405029
 31
0.0
  0
LINE
  5
B9B5
  8
1HATCH
 10
5516.7996943996986
 20
136.5883239940504
 30
0.0
 11
5517.6496944196988
 21
136.5883239940504
 31
0.0
  0
LINE
  5
B9B6
  8
1HATCH
 10
5516.7996943996986
 20
135.78832397405051
 30
0.0
 11
5517.6496944196988
 21
135.78832397405051
 31
0.0
  0
LINE
  5
B9B7
  8
1HATCH
 10
5517.6496944196988
 20
136.5883239940504
 30
0.0
 11
5517.6496944196988
 21
135.78832397405051
 31
0.0
  0
LINE
  5
B9B8
  8
1HATCH
 10
5515.4996944096993
 20
137.9383239840505
 30
0.0
 11
5516.2996944296992
 21
137.9383239840505
 31
0.0
  0
CIRCLE
  5
B9B9
  8
1HATCH
 10
5515.8996944196979
 20
136.1883239840505
 30
0.0
 40
2.5
  0
ARC
  5
B9BA
  8
1HATCH
 10
5516.7996943996986
 20
137.08832396405029
 30
0.0
 40
0.5
 50
179.999989999999
 51
270.0
  0
ARC
  5
B9BB
  8
1HATCH
 10
5516.7996943996986
 20
135.28832400405059
 30
0.0
 40
0.5
 50
90.000002999984659
 51
180.00001000000091
  0
ARC
  5
B9BC
  8
1HATCH
 10
5514.9996944396989
 20
135.28832400405059
 30
0.0
 40
0.5
 50
0.0
 51
90.000002999984659
  0
ARC
  5
B9BD
  8
1HATCH
 10
5514.9996944396989
 20
137.08832396405029
 30
0.0
 40
0.5
 50
270.0
 51
0.0
  0
LINE
  5
B9D2
  8
01
 10
5497.8996944196997
 20
162.6883239840505
 30
0.0
 11
5497.8996944196979
 21
109.6883239840505
 31
0.0
  0
LINE
  5
B9D6
  8
1CENTER
 10
5647.8996944196988
 20
288.31660936648188
 30
0.0
 11
5647.8996944196988
 21
265.6883239840505
 31
0.0
  0
LINE
  5
B9D8
  8
01
 10
5621.8996944196979
 20
244.6883239840505
 30
0.0
 11
5621.8996944196979
 21
237.6883239840505
 31
0.0
  0
LINE
  5
B9D9
  8
01
 10
5715.8996944196979
 20
237.6883239840505
 30
0.0
 11
5715.8996944196979
 21
244.6883239840505
 31
0.0
  0
ARC
  5
B9DA
  8
01
 10
5715.3996944196979
 20
237.6883239840505
 30
0.0
 40
0.5
 50
270.0
 51
0.0
  0
ARC
  5
B9DB
  8
01
 10
5715.3996944196979
 20
244.6883239840505
 30
0.0
 40
0.5
 50
0.0
 51
90.0
  0
LINE
  5
B9DC
  8
01
 10
5622.3996944196979
 20
245.1883239840505
 30
0.0
 11
5715.3996944196979
 21
245.1883239840505
 31
0.0
  0
ARC
  5
B9DD
  8
01
 10
5622.3996944196979
 20
244.6883239840505
 30
0.0
 40
0.5
 50
90.0
 51
180.0
  0
LINE
  5
B9DE
  8
01
 10
5622.3996944196979
 20
237.1883239840505
 30
0.0
 11
5715.3996944196979
 21
237.1883239840505
 31
0.0
  0
ARC
  5
B9DF
  8
01
 10
5622.3996944196979
 20
237.6883239840505
 30
0.0
 40
0.5
 50
180.0
 51
270.0
  0
LINE
  5
B9E0
  8
01
 10
5635.8996944196979
 20
276.18832398404999
 30
0.0
 11
5635.8996944196979
 21
252.1883239840505
 31
0.0
  0
ARC
  5
B9E1
  8
01
 10
5633.8996944196988
 20
252.1883239840505
 30
0.0
 40
2.0
 50
270.0
 51
0.0
  0
LINE
  5
B9E2
  8
01
 10
5659.8996944196988
 20
276.18832398405323
 30
0.0
 11
5659.8996944197033
 21
252.1883239840501
 31
0.0
  0
ARC
  5
B9E3
  8
01
 10
5661.8996944197033
 20
252.1883239840505
 30
0.0
 40
2.0
 50
180.00000000002601
 51
270.0
  0
ARC
  5
B9E4
  8
01
 10
5647.8996944196979
 20
285.18832398405101
 30
0.0
 40
15.0
 50
210.00000000001069
 51
216.86989764583359
  0
ARC
  5
B9E5
  8
01
 10
5647.8996944196979
 20
285.18832398405101
 30
0.0
 40
15.0
 50
323.13010235416641
 51
329.99999999998931
  0
LINE
  5
B9E6
  8
01
 10
5675.3996944196988
 20
286.1883239840505
 30
0.0
 11
5675.3996944196988
 21
278.18832398405101
 31
0.0
  0
ARC
  5
B9E7
  8
01
 10
5674.8996944196988
 20
278.18832398405101
 30
0.0
 40
0.5
 50
270.0
 51
0.0
  0
LINE
  5
B9E8
  8
01
 10
5620.3996944196988
 20
286.1883239840505
 30
0.0
 11
5620.3996944196988
 21
278.1883239840505
 31
0.0
  0
LINE
  5
B9E9
  8
01
 10
5633.8996944196988
 20
250.1883239840505
 30
0.0
 11
5629.699694419699
 21
250.1883239840505
 31
0.0
  0
ARC
  5
B9EA
  8
01
 10
5629.699694419699
 20
249.38832398405029
 30
0.0
 40
0.8
 50
90.0
 51
180.0
  0
LINE
  5
B9EB
  8
01
 10
5628.8996944196988
 20
249.38832398405029
 30
0.0
 11
5628.8996944196988
 21
245.1883239840505
 31
0.0
  0
LINE
  5
B9EC
  8
01
 10
5628.8996944196988
 20
245.1883239840505
 30
0.0
 11
5708.8996944196988
 21
245.1883239840505
 31
0.0
  0
LINE
  5
B9ED
  8
01
 10
5708.8996944196988
 20
245.1883239840505
 30
0.0
 11
5708.8996944196988
 21
249.38832398405029
 31
0.0
  0
ARC
  5
B9EE
  8
01
 10
5708.0996944196986
 20
249.38832398405029
 30
0.0
 40
0.8
 50
0.0
 51
90.0
  0
LINE
  5
B9EF
  8
01
 10
5708.0996944196986
 20
250.1883239840505
 30
0.0
 11
5705.8491841624818
 21
250.1883239840505
 31
0.0
  0
LINE
  5
B9F0
  8
01
 10
5700.9502046769157
 20
250.1883239840505
 30
0.0
 11
5661.8996944197033
 21
250.1883239840505
 31
0.0
  0
ARC
  5
B9F1
  8
01
 10
5703.3996944196979
 20
249.6883239840505
 30
0.0
 40
2.5
 50
11.53695903283298
 51
168.46304096716699
  0
LINE
  5
B9F2
  8
01
 10
5629.699694419699
 20
234.1883239840505
 30
0.0
 11
5708.0996944196968
 21
234.1883239840505
 31
0.0
  0
ARC
  5
B9F3
  8
01
 10
5708.0996944196968
 20
234.9883239840502
 30
0.0
 40
0.8
 50
270.0
 51
0.0
  0
LINE
  5
B9F4
  8
01
 10
5628.8996944196979
 20
234.9883239840502
 30
0.0
 11
5628.8996944196979
 21
237.1883239840505
 31
0.0
  0
ARC
  5
B9F5
  8
01
 10
5629.699694419699
 20
234.9883239840502
 30
0.0
 40
0.8
 50
180.0
 51
270.0
  0
LINE
  5
B9F6
  8
01
 10
5708.8996944196979
 20
234.9883239840502
 30
0.0
 11
5708.8996944196979
 21
237.1883239840505
 31
0.0
  0
LINE
  5
B9F7
  8
01
 10
5628.8996944196979
 20
237.1883239840505
 30
0.0
 11
5708.8996944196979
 21
237.18832398404999
 31
0.0
  0
LINE
  5
B9F8
  8
01
 10
5620.3996944196988
 20
286.1883239840505
 30
0.0
 11
5675.3996944196988
 21
286.1883239840505
 31
0.0
  0
LINE
  5
B9F9
  8
01
 10
5620.8996944196988
 20
277.6883239840505
 30
0.0
 11
5674.8996944196988
 21
277.6883239840509
 31
0.0
  0
ARC
  5
B9FA
  8
01
 10
5620.8996944196988
 20
278.1883239840505
 30
0.0
 40
0.5
 50
180.0
 51
270.0
  0
LINE
  5
B9FB
  8
1PHANTOM
 10
5614.0474333225002
 20
250.9790501155932
 30
0.0
 11
5612.5920514867748
 21
244.13201691045691
 31
0.0
  0
LINE
  5
B9FC
  8
1PHANTOM
 10
5704.5379259557521
 20
224.58831797358769
 30
0.0
 11
5705.9933077914766
 21
231.43535117872381
 31
0.0
  0
ARC
  5
B9FD
  8
1PHANTOM
 10
5704.0488521553862
 20
224.69227381899631
 30
0.0
 40
0.5
 50
257.99999999998442
 51
347.99999999999699
  0
ARC
  5
B9FE
  8
1PHANTOM
 10
5705.5042339911097
 20
231.53930702413271
 30
0.0
 40
0.5
 50
347.99999999999699
 51
77.999999999984325
  0
LINE
  5
B9FF
  8
1PHANTOM
 10
5614.6404629682747
 20
251.3641680705513
 30
0.0
 11
5705.6081898365192
 21
232.02838082449961
 31
0.0
  0
ARC
  5
BA00
  8
1PHANTOM
 10
5614.5365071228662
 20
250.87509427018441
 30
0.0
 40
0.5
 50
77.999999999984325
 51
167.99999999999699
  0
LINE
  5
BA01
  8
1PHANTOM
 10
5612.9771694417341
 20
243.53898726468091
 30
0.0
 11
5703.9448963099767
 21
224.20320001862939
 31
0.0
  0
ARC
  5
BA02
  8
1PHANTOM
 10
5613.0811252871408
 20
244.02806106504801
 30
0.0
 40
0.5
 50
167.99999999999699
 51
257.99999999998442
  0
LINE
  5
BA03
  8
1PHANTOM
 10
5634.2907179935328
 20
278.87993586725918
 30
0.0
 11
5629.3008374139072
 21
255.40439344964821
 31
0.0
  0
ARC
  5
BA04
  8
1PHANTOM
 10
5627.3445422124396
 20
255.8202168312836
 30
0.0
 40
2.0
 50
257.99999999998442
 51
347.99999999999699
  0
LINE
  5
BA05
  8
1PHANTOM
 10
5657.7662604111456
 20
273.89005528763562
 30
0.0
 11
5652.7763798315218
 21
250.4145128700203
 31
0.0
  0
ARC
  5
BA06
  8
1PHANTOM
 10
5654.7326750329903
 20
249.99868948838531
 30
0.0
 40
2.0
 50
168.00000000002271
 51
257.99999999998442
  0
ARC
  5
BA07
  8
1PHANTOM
 10
5647.8996944196979
 20
285.18832398405118
 30
0.0
 40
15.0
 50
197.999999999994
 51
204.8698976458418
  0
ARC
  5
BA08
  8
1PHANTOM
 10
5647.8996944196979
 20
285.18832398405118
 30
0.0
 40
15.0
 50
311.13010235417539
 51
317.9999999999996
  0
LINE
  5
BA09
  8
1PHANTOM
 10
5626.9287188308044
 20
253.86392162981599
 30
0.0
 11
5622.8204989077221
 21
254.73715073125061
 31
0.0
  0
ARC
  5
BA0A
  8
1PHANTOM
 10
5622.6541695550677
 20
253.9546326506632
 30
0.0
 40
0.8
 50
77.999999999984325
 51
167.99999999999699
  0
LINE
  5
BA0B
  8
1PHANTOM
 10
5621.871651474481
 20
254.12096200331749
 30
0.0
 11
5620.9984223730462
 21
250.0127420802356
 31
0.0
  0
LINE
  5
BA0C
  8
1PHANTOM
 10
5620.9984223730462
 20
250.0127420802356
 30
0.0
 11
5699.2502304317513
 21
233.379806814815
 31
0.0
  0
LINE
  5
BA0D
  8
1PHANTOM
 10
5699.2502304317513
 20
233.379806814815
 30
0.0
 11
5700.1234595331853
 21
237.4880267378968
 31
0.0
  0
ARC
  5
BA0E
  8
1PHANTOM
 10
5699.3409414525968
 20
237.654356090551
 30
0.0
 40
0.8
 50
347.99999999999699
 51
77.999999999984325
  0
LINE
  5
BA0F
  8
1PHANTOM
 10
5699.5072708052521
 20
238.43687417113841
 30
0.0
 11
5697.3059395967302
 21
238.90478156391879
 31
0.0
  0
LINE
  5
BA10
  8
1PHANTOM
 10
5692.5140145668784
 20
239.9233366720444
 30
0.0
 11
5654.3168516513551
 21
248.04239428691781
 31
0.0
  0
ARC
  5
BA11
  8
1PHANTOM
 10
5694.8060212363944
 20
238.9249853176149
 30
0.0
 40
2.5
 50
359.53695903283352
 51
156.46304096716139
  0
LINE
  5
BA12
  8
1PHANTOM
 10
5619.4939118546372
 20
239.08678911951009
 30
0.0
 11
5696.1806837521672
 21
222.78651255939761
 31
0.0
  0
ARC
  5
BA13
  8
1PHANTOM
 10
5696.3470131048207
 20
223.5690306399845
 30
0.0
 40
0.8
 50
257.99999999998442
 51
347.99999999999699
  0
LINE
  5
BA14
  8
1PHANTOM
 10
5618.877723126704
 20
240.03563655275099
 30
0.0
 11
5619.3351288465028
 21
242.18756127436549
 31
0.0
  0
ARC
  5
BA15
  8
1PHANTOM
 10
5619.6602412072907
 20
239.86930720009681
 30
0.0
 40
0.8
 50
167.99999999999699
 51
257.99999999998442
  0
LINE
  5
BA16
  8
1PHANTOM
 10
5697.1295311854083
 20
223.4027012873301
 30
0.0
 11
5697.586936905207
 21
225.55462600894481
 31
0.0
  0
LINE
  5
BA17
  8
1PHANTOM
 10
5619.3351288465028
 20
242.18756127436549
 30
0.0
 11
5697.586936905207
 21
225.55462600894441
 31
0.0
  0
LINE
  5
BA18
  8
1PHANTOM
 10
5630.8882802787393
 20
240.16764219306941
 30
0.0
 11
5632.3436621144619
 21
233.32060898793259
 31
0.0
  0
LINE
  5
BA19
  8
1PHANTOM
 10
5724.2895365834411
 20
252.86430792480229
 30
0.0
 11
5722.8341547477148
 21
259.71134112993889
 31
0.0
  0
ARC
  5
BA1A
  8
1PHANTOM
 10
5723.8004627830742
 20
252.76035207939341
 30
0.0
 40
0.5
 50
282.00000000001558
 51
12.000000000003009
  0
ARC
  5
BA1B
  8
1PHANTOM
 10
5722.3450809473488
 20
259.60738528452993
 30
0.0
 40
0.5
 50
12.000000000003009
 51
102.0000000000157
  0
LINE
  5
BA1C
  8
1PHANTOM
 10
5631.2733982336949
 20
240.7606718388453
 30
0.0
 11
5722.2411251019403
 21
260.09645908489682
 31
0.0
  0
ARC
  5
BA1D
  8
1PHANTOM
 10
5631.3773540791062
 20
240.2715980384784
 30
0.0
 40
0.5
 50
102.0000000000157
 51
192.00000000000301
  0
LINE
  5
BA1E
  8
1PHANTOM
 10
5632.9366917602392
 20
232.9354910329748
 30
0.0
 11
5723.9044186284827
 21
252.27127827902649
 31
0.0
  0
ARC
  5
BA1F
  8
1PHANTOM
 10
5632.8327359148298
 20
233.42456483334169
 30
0.0
 40
0.5
 50
192.00000000000301
 51
282.00000000001558
  0
LINE
  5
BA20
  8
1PHANTOM
 10
5638.033128428252
 20
273.89005528763238
 30
0.0
 11
5643.0230090078803
 21
250.41451287002161
 31
0.0
  0
ARC
  5
BA21
  8
1PHANTOM
 10
5641.0667138064118
 20
249.9986894883863
 30
0.0
 40
2.0
 50
282.00000000001558
 51
12.000000000003009
  0
LINE
  5
BA22
  8
1PHANTOM
 10
5661.5086708458648
 20
278.87993586726208
 30
0.0
 11
5666.498551425495
 21
255.40439344964861
 31
0.0
  0
ARC
  5
BA23
  8
1PHANTOM
 10
5668.4548466269616
 20
255.82021683128451
 30
0.0
 40
2.0
 50
192.0000000000226
 51
282.00000000001558
  0
ARC
  5
BA24
  8
1PHANTOM
 10
5647.8996944196979
 20
285.18832398405073
 30
0.0
 40
15.0
 50
222.0000000000004
 51
228.86989764582461
  0
ARC
  5
BA25
  8
1PHANTOM
 10
5647.8996944196979
 20
285.18832398405073
 30
0.0
 40
15.0
 50
335.13010235415823
 51
342.00000000000603
  0
LINE
  5
BA26
  8
1PHANTOM
 10
5641.4825371880461
 20
248.04239428691869
 30
0.0
 11
5637.3743172649647
 21
247.1691651854841
 31
0.0
  0
ARC
  5
BA27
  8
1PHANTOM
 10
5637.54064661762
 20
246.38664710489689
 30
0.0
 40
0.8
 50
102.0000000000157
 51
192.00000000000301
  0
LINE
  5
BA28
  8
1PHANTOM
 10
5636.7581285370316
 20
246.22031775224249
 30
0.0
 11
5637.6313576384673
 21
242.11209782916069
 31
0.0
  0
LINE
  5
BA29
  8
1PHANTOM
 10
5637.6313576384673
 20
242.11209782916069
 30
0.0
 11
5715.8831656971706
 21
258.74503309458157
 31
0.0
  0
LINE
  5
BA2A
  8
1PHANTOM
 10
5715.8831656971706
 20
258.74503309458157
 30
0.0
 11
5715.0099365957367
 21
262.85325301766341
 31
0.0
  0
ARC
  5
BA2B
  8
1PHANTOM
 10
5714.22741851515
 20
262.6869236650092
 30
0.0
 40
0.8
 50
12.000000000003009
 51
102.0000000000157
  0
LINE
  5
BA2C
  8
1PHANTOM
 10
5714.0610891624956
 20
263.46944174559633
 30
0.0
 11
5711.8597579539719
 21
263.0015343528159
 31
0.0
  0
LINE
  5
BA2D
  8
1PHANTOM
 10
5707.0678329241209
 20
261.98297924469
 30
0.0
 11
5668.8706700085977
 21
253.8639216298169
 31
0.0
  0
ARC
  5
BA2E
  8
1PHANTOM
 10
5709.567751284455
 20
262.00318299838602
 30
0.0
 40
2.5
 50
23.536959032838539
 51
180.46304096716639
  0
LINE
  5
BA2F
  8
1PHANTOM
 10
5640.7009043180478
 20
231.51880357374301
 30
0.0
 11
5717.3876762155787
 21
247.81908013385529
 31
0.0
  0
ARC
  5
BA30
  8
1PHANTOM
 10
5717.2213468629252
 20
248.60159821444199
 30
0.0
 40
0.8
 50
282.00000000001558
 51
12.000000000003009
  0
LINE
  5
BA31
  8
1PHANTOM
 10
5639.7520568848076
 20
232.13499230167571
 30
0.0
 11
5639.294651165008
 21
234.28691702329041
 31
0.0
  0
ARC
  5
BA32
  8
1PHANTOM
 10
5640.5345749653952
 20
232.30132165432971
 30
0.0
 40
0.8
 50
192.00000000000301
 51
282.00000000001558
  0
LINE
  5
BA33
  8
1PHANTOM
 10
5718.003864943511
 20
248.76792756709639
 30
0.0
 11
5717.5464592237131
 21
250.9198522887111
 31
0.0
  0
LINE
  5
BA34
  8
1PHANTOM
 10
5639.294651165008
 20
234.28691702329041
 30
0.0
 11
5717.5464592237131
 21
250.91985228871059
 31
0.0
  0
LINE
  5
BA3A
  8
01
 10
5706.8996944197006
 20
114.1883239840506
 30
0.0
 11
5630.8996944196997
 21
114.1883239840506
 31
0.0
  0
ARC
  5
BA3B
  8
01
 10
5630.8996944196997
 20
116.1883239840506
 30
0.0
 40
2.0
 50
180.0
 51
270.0
  0
LINE
  5
BA3C
  8
01
 10
5706.8996944197006
 20
158.18832398405061
 30
0.0
 11
5630.8996944196997
 21
158.18832398405061
 31
0.0
  0
LINE
  5
BA3E
  8
01
 10
5628.8996944196997
 20
116.1883239840506
 30
0.0
 11
5628.8996944196997
 21
156.18832398405061
 31
0.0
  0
ARC
  5
BA3F
  8
01
 10
5630.8996944196997
 20
156.18832398405061
 30
0.0
 40
2.0
 50
90.0
 51
180.0
  0
LINE
  5
BA40
  8
01
 10
5708.8996944197006
 20
156.18832398405061
 30
0.0
 11
5708.8996944197006
 21
116.1883239840506
 31
0.0
  0
ARC
  5
BA41
  8
01
 10
5706.8996944197006
 20
116.1883239840506
 30
0.0
 40
2.0
 50
270.0
 51
0.0
  0
LINE
  5
BA42
  8
01
 10
5621.8996944196988
 20
163.18832398405061
 30
0.0
 11
5621.8996944196988
 21
109.1883239840506
 31
0.0
  0
ARC
  5
BA43
  8
01
 10
5623.8996944196988
 20
163.18832398405061
 30
0.0
 40
2.0
 50
90.0
 51
180.0
  0
LINE
  5
BA44
  8
01
 10
5623.8996944196988
 20
107.1883239840506
 30
0.0
 11
5713.8996944196988
 21
107.1883239840506
 31
0.0
  0
ARC
  5
BA45
  8
01
 10
5623.8996944196988
 20
109.1883239840506
 30
0.0
 40
2.0
 50
180.0
 51
270.0
  0
LINE
  5
BA46
  8
01
 10
5715.8996944196979
 20
109.1883239840506
 30
0.0
 11
5715.8996944196979
 21
163.18832398405061
 31
0.0
  0
ARC
  5
BA47
  8
01
 10
5713.8996944196988
 20
109.1883239840506
 30
0.0
 40
2.0
 50
270.0
 51
0.0
  0
LINE
  5
BA48
  8
01
 10
5713.8996944196988
 20
165.18832398405061
 30
0.0
 11
5623.8996944196988
 21
165.18832398405061
 31
0.0
  0
LINE
  5
BA4A
  8
1HIDDEN
 10
5621.9632027465959
 20
163.6883239840505
 30
0.0
 11
5674.8996944196988
 21
163.68832398405061
 31
0.0
  0
ARC
  5
BA4B
  8
1HIDDEN
 10
5674.8996944196988
 20
163.18832398405061
 30
0.0
 40
0.5
 50
0.0
 51
90.0
  0
LINE
  5
BA4C
  8
1HIDDEN
 10
5675.3996944196988
 20
163.18832398405061
 30
0.0
 11
5675.3996944196988
 21
109.1883239840506
 31
0.0
  0
ARC
  5
BA4D
  8
1HIDDEN
 10
5674.8996944196988
 20
109.1883239840506
 30
0.0
 40
0.5
 50
270.0
 51
0.0
  0
LINE
  5
BA4E
  8
1HIDDEN
 10
5674.8996944196988
 20
108.6883239840506
 30
0.0
 11
5621.9632027465959
 21
108.6883239840506
 31
0.0
  0
ARC
  5
BA4F
  8
01
 10
5620.8996944196988
 20
109.1883239840506
 30
0.0
 40
0.5
 50
180.0
 51
270.0
  0
LINE
  5
BA50
  8
01
 10
5620.3996944196988
 20
109.1883239840506
 30
0.0
 11
5620.3996944196988
 21
163.1883239840505
 31
0.0
  0
ARC
  5
BA51
  8
01
 10
5620.8996944196988
 20
163.1883239840505
 30
0.0
 40
0.5
 50
90.0
 51
180.0
  0
LINE
  5
BA52
  8
01
 10
5620.8996944196988
 20
163.6883239840505
 30
0.0
 11
5621.9632027465959
 21
163.6883239840505
 31
0.0
  0
LINE
  5
BA53
  8
01
 10
5620.8996944196988
 20
108.6883239840506
 30
0.0
 11
5621.9632027465959
 21
108.6883239840506
 31
0.0
  0
LINE
  5
BA54
  8
01
 10
5539.3996944196988
 20
165.18832398405061
 30
0.0
 11
5546.3996944196988
 21
165.18832398405061
 31
0.0
  0
LINE
  5
BA55
  8
01
 10
5539.3996944196988
 20
107.1883239840506
 30
0.0
 11
5546.3996944196988
 21
107.1883239840506
 31
0.0
  0
LINE
  5
BA56
  8
01
 10
5549.0996944196986
 20
114.1883239840506
 30
0.0
 11
5546.8996944196988
 21
114.1883239840507
 31
0.0
  0
LINE
  5
BA57
  8
01
 10
5538.8996944196988
 20
114.1883239840507
 30
0.0
 11
5534.699694419699
 21
114.1883239840506
 31
0.0
  0
LINE
  5
BA58
  8
01
 10
5534.699694419699
 20
158.18832398405061
 30
0.0
 11
5538.8996944196988
 21
158.1883239840507
 31
0.0
  0
LINE
  5
BA59
  8
01
 10
5546.8996944196988
 20
158.1883239840507
 30
0.0
 11
5549.0996944196986
 21
158.18832398405061
 31
0.0
  0
LINE
  5
BA5A
  8
01
 10
5549.8996944196988
 20
157.3883239840506
 30
0.0
 11
5549.8996944196988
 21
114.9883239840505
 31
0.0
  0
LINE
  5
BA5B
  8
01
 10
5546.8996944196988
 20
164.68832398405061
 30
0.0
 11
5546.8996944196988
 21
107.6883239840506
 31
0.0
  0
LINE
  5
BA5C
  8
01
 10
5538.8996944196988
 20
164.68832398405061
 30
0.0
 11
5538.8996944196988
 21
107.6883239840506
 31
0.0
  0
LINE
  5
BA5D
  8
01
 10
5533.8996944196988
 20
157.3883239840506
 30
0.0
 11
5533.8996944196988
 21
114.9883239840505
 31
0.0
  0
LINE
  5
BA5E
  8
01
 10
5506.3996944196979
 20
163.18832398405061
 30
0.0
 11
5506.3996944196979
 21
109.1883239840507
 31
0.0
  0
LINE
  5
BA5F
  8
01
 10
5497.8996944196979
 20
163.68832398405061
 30
0.0
 11
5497.8996944196979
 21
108.6883239840506
 31
0.0
  0
ARC
  5
BA60
  8
01
 10
5539.3996944196988
 20
164.68832398405061
 30
0.0
 40
0.5
 50
90.0
 51
180.0
  0
ARC
  5
BA61
  8
01
 10
5546.3996944196988
 20
164.6883239840505
 30
0.0
 40
0.5
 50
0.0000000000130276
 51
90.0
  0
ARC
  5
BA62
  8
01
 10
5539.3996944196988
 20
107.6883239840506
 30
0.0
 40
0.5
 50
180.0
 51
270.0
  0
ARC
  5
BA63
  8
01
 10
5546.3996944196988
 20
107.6883239840505
 30
0.0
 40
0.5
 50
270.0
 51
0.0000000000130276
  0
ARC
  5
BA64
  8
01
 10
5549.0996944196986
 20
114.9883239840504
 30
0.0
 40
0.8
 50
270.0
 51
0.0000000000065138
  0
ARC
  5
BA65
  8
01
 10
5534.699694419699
 20
114.9883239840504
 30
0.0
 40
0.8
 50
179.99999999999349
 51
270.0
  0
ARC
  5
BA66
  8
01
 10
5534.699694419699
 20
157.38832398405049
 30
0.0
 40
0.8
 50
90.0
 51
179.99999999999349
  0
ARC
  5
BA67
  8
01
 10
5549.0996944196986
 20
157.3883239840506
 30
0.0
 40
0.8
 50
0.0
 51
90.0
  0
LINE
  5
BA68
  8
01
 10
5531.8996944196988
 20
124.1883239840506
 30
0.0
 11
5506.3996944196979
 21
124.1883239840507
 31
0.0
  0
ARC
  5
BA69
  8
01
 10
5531.8996944196988
 20
122.1883239840506
 30
0.0
 40
2.0
 50
0.0
 51
90.0
  0
LINE
  5
BA6A
  8
01
 10
5531.8996944196988
 20
148.18832398405061
 30
0.0
 11
5506.3996944196979
 21
148.1883239840507
 31
0.0
  0
ARC
  5
BA6B
  8
01
 10
5531.8996944196988
 20
150.18832398405061
 30
0.0
 40
2.0
 50
270.0
 51
0.0
  0
LINE
  5
BA6C
  8
01
 10
5505.8996944196988
 20
108.6883239840507
 30
0.0
 11
5497.8996944196979
 21
108.6883239840507
 31
0.0
  0
ARC
  5
BA6D
  8
01
 10
5505.8996944196988
 20
109.1883239840507
 30
0.0
 40
0.5
 50
270.0
 51
0.0
  0
LINE
  5
BA6E
  8
01
 10
5505.8996944196988
 20
163.68832398405061
 30
0.0
 11
5497.8996944196979
 21
163.68832398405061
 31
0.0
  0
ARC
  5
BA6F
  8
01
 10
5505.8996944196988
 20
163.18832398405061
 30
0.0
 40
0.5
 50
0.0
 51
90.0
  0
ARC
  5
BC1C
  8
01
 10
5706.8996944197006
 20
156.1883239840503
 30
0.0
 40
2.0
 50
0.0
 51
90.000000000000028
  0
ARC
  5
BC1D
  8
01
 10
5713.8996944196988
 20
163.18832398405041
 30
0.0
 40
2.0
 50
0.0
 51
90.000000000000028
  0
LINE
  5
BDC3
  8
1DIM
 10
5715.8996944196979
 20
204.1883239840505
 30
0.0
 11
5715.8996944196979
 21
193.1883239840505
 31
0.0
  0
LINE
  5
BDC4
  8
1DIM
 10
5621.8996944196979
 20
237.6883239840505
 30
0.0
 11
5621.8996944196979
 21
193.1883239840505
 31
0.0
  0
LINE
  5
BDC5
  8
1DIM
 10
5713.8996944196979
 20
194.1883239840505
 30
0.0
 11
5623.8996944196979
 21
194.1883239840505
 31
0.0
  0
LINE
  5
BDC9
  8
1DIM
 10
5647.8996944196988
 20
265.6883239840505
 30
0.0
 11
5647.8996944196988
 21
203.1883239840505
 31
0.0
  0
LINE
  5
BDCA
  8
1DIM
 10
5715.8996944196979
 20
237.6883239840505
 30
0.0
 11
5715.8996944196979
 21
203.1883239840505
 31
0.0
  0
LINE
  5
BDCB
  8
1DIM
 10
5649.8996944196988
 20
204.1883239840505
 30
0.0
 11
5713.8996944196979
 21
204.1883239840505
 31
0.0
  0
LINE
  5
BDCF
  8
1DIM
 10
5713.8996944196988
 20
107.1883239840506
 30
0.0
 11
5742.199694419699
 21
107.1883239840506
 31
0.0
  0
LINE
  5
BDD0
  8
1DIM
 10
5713.8996944196988
 20
165.18832398405061
 30
0.0
 11
5742.199694419699
 21
165.18832398405061
 31
0.0
  0
LINE
  5
BDD1
  8
1DIM
 10
5740.8996944196988
 20
109.78832398405061
 30
0.0
 11
5740.8996944196988
 21
162.58832398405059
 31
0.0
  0
LINE
  5
BDD5
  8
1DIM
 10
5620.8996944196988
 20
108.6883239840506
 30
0.0
 11
5606.5996944196986
 21
108.6883239840506
 31
0.0
  0
LINE
  5
BDD6
  8
1DIM
 10
5620.8996944196988
 20
163.6883239840505
 30
0.0
 11
5606.5996944196986
 21
163.6883239840505
 31
0.0
  0
LINE
  5
BDD7
  8
1DIM
 10
5607.8996944196988
 20
111.28832398405061
 30
0.0
 11
5607.8996944196988
 21
161.0883239840505
 31
0.0
  0
LINE
  5
BDDB
  8
1DIM
 10
5739.1577266144859
 20
286.1883239840505
 30
0.0
 11
5751.8996944196988
 21
286.1883239840505
 31
0.0
  0
LINE
  5
BDDC
  8
1DIM
 10
5696.3470131048207
 20
222.76903063998449
 30
0.0
 11
5751.8996944196988
 21
222.76903063998449
 31
0.0
  0
LINE
  5
BDDD
  8
1DIM
 10
5750.8996944196988
 20
284.1883239840505
 30
0.0
 11
5750.8996944196988
 21
224.76903063998449
 31
0.0
  0
LINE
  5
BDE1
  8
1DIM
 10
5708.0996944196968
 20
234.1883239840505
 30
0.0
 11
5741.8996944196988
 21
234.1883239840505
 31
0.0
  0
LINE
  5
BDE2
  8
1DIM
 10
5729.7606460725392
 20
286.1883239840505
 30
0.0
 11
5741.8996944196988
 21
286.1883239840505
 31
0.0
  0
LINE
  5
BDE3
  8
1DIM
 10
5740.8996944196988
 20
236.1883239840505
 30
0.0
 11
5740.8996944196988
 21
284.1883239840505
 31
0.0
  0
LINE
  5
BDE7
  8
1DIM
 10
5709.567751284455
 20
264.50318299838602
 30
0.0
 11
5731.8996944196979
 21
264.50318299838602
 31
0.0
  0
LINE
  5
BDE8
  8
1DIM
 10
5702.8996944196988
 20
286.1883239840505
 30
0.0
 11
5731.8996944196979
 21
286.1883239840505
 31
0.0
  0
LINE
  5
BDE9
  8
1DIM
 10
5730.8996944196988
 20
266.50318299838602
 30
0.0
 11
5730.8996944196988
 21
284.1883239840505
 31
0.0
  0
CIRCLE
  5
BDED
  8
1HATCH
 10
5515.8996944196979
 20
136.1883239840505
 30
0.0
 40
3.0
  0
TEXT
  5
BDEE
  8
1DIM
 10
5730.199694419699
 20
272.42908682455248
 30
0.0
 40
3.5
  1
22
 50
90.0
  0
LINE
  5
BDEF
  8
0
  6
BYBLOCK
 10
5730.3637960396991
 20
284.1883239840505
 30
0.0
 11
5730.8996944196988
 21
286.1883239840505
 31
0.0
  0
LINE
  5
BDF0
  8
0
  6
BYBLOCK
 10
5730.8996944196988
 20
286.1883239840505
 30
0.0
 11
5731.4355927996976
 21
284.1883239840505
 31
0.0
  0
LINE
  5
BDF1
  8
0
  6
BYBLOCK
 10
5730.8996944196988
 20
286.1883239840505
 30
0.0
 11
5730.8996944196988
 21
284.1883239840505
 31
0.0
  0
LINE
  5
BDF2
  8
0
  6
BYBLOCK
 10
5731.4355927996976
 20
266.50318299838602
 30
0.0
 11
5730.8996944196988
 21
264.50318299838602
 31
0.0
  0
LINE
  5
BDF3
  8
0
  6
BYBLOCK
 10
5730.8996944196988
 20
264.50318299838602
 30
0.0
 11
5730.3637960396991
 21
266.50318299838602
 31
0.0
  0
LINE
  5
BDF4
  8
0
  6
BYBLOCK
 10
5730.8996944196988
 20
264.50318299838602
 30
0.0
 11
5730.8996944196988
 21
266.50318299838602
 31
0.0
  0
TEXT
  5
BDF5
  8
1DIM
 10
5740.199694419699
 20
257.27165731738472
 30
0.0
 40
3.5
  1
52
 50
90.0
  0
LINE
  5
BDF6
  8
0
  6
BYBLOCK
 10
5740.3637960396991
 20
284.1883239840505
 30
0.0
 11
5740.8996944196988
 21
286.1883239840505
 31
0.0
  0
LINE
  5
BDF7
  8
0
  6
BYBLOCK
 10
5740.8996944196988
 20
286.1883239840505
 30
0.0
 11
5741.4355927996994
 21
284.1883239840505
 31
0.0
  0
LINE
  5
BDF8
  8
0
  6
BYBLOCK
 10
5740.8996944196988
 20
286.1883239840505
 30
0.0
 11
5740.8996944196988
 21
284.1883239840505
 31
0.0
  0
LINE
  5
BDF9
  8
0
  6
BYBLOCK
 10
5741.4355927996994
 20
236.1883239840505
 30
0.0
 11
5740.8996944196988
 21
234.1883239840505
 31
0.0
  0
LINE
  5
BDFA
  8
0
  6
BYBLOCK
 10
5740.8996944196988
 20
234.1883239840505
 30
0.0
 11
5740.3637960396991
 21
236.1883239840505
 31
0.0
  0
LINE
  5
BDFB
  8
0
  6
BYBLOCK
 10
5740.8996944196988
 20
234.1883239840505
 30
0.0
 11
5740.8996944196988
 21
236.1883239840505
 31
0.0
  0
TEXT
  5
BDFC
  8
1DIM
 10
5750.1996944196981
 20
251.56201064535179
 30
0.0
 40
3.5
  1
63
 50
90.0
  0
LINE
  5
BDFD
  8
0
  6
BYBLOCK
 10
5751.4355927996976
 20
224.76903063998449
 30
0.0
 11
5750.8996944196988
 21
222.76903063998449
 31
0.0
  0
LINE
  5
BDFE
  8
0
  6
BYBLOCK
 10
5750.8996944196988
 20
222.76903063998449
 30
0.0
 11
5750.3637960397
 21
224.76903063998449
 31
0.0
  0
LINE
  5
BDFF
  8
0
  6
BYBLOCK
 10
5750.8996944196988
 20
222.76903063998449
 30
0.0
 11
5750.8996944196988
 21
224.76903063998449
 31
0.0
  0
LINE
  5
BE00
  8
0
  6
BYBLOCK
 10
5750.3637960397
 20
284.1883239840505
 30
0.0
 11
5750.8996944196988
 21
286.1883239840505
 31
0.0
  0
LINE
  5
BE01
  8
0
  6
BYBLOCK
 10
5750.8996944196988
 20
286.1883239840505
 30
0.0
 11
5751.4355927996976
 21
284.1883239840505
 31
0.0
  0
LINE
  5
BE02
  8
0
  6
BYBLOCK
 10
5750.8996944196988
 20
286.1883239840505
 30
0.0
 11
5750.8996944196988
 21
284.1883239840505
 31
0.0
  0
TEXT
  5
BE03
  8
1DIM
 10
5606.9896944196989
 20
132.39665731738481
 30
0.0
 40
4.5499999999999989
  1
55
 50
90.0
  0
LINE
  5
BE04
  8
0
  6
BYBLOCK
 10
5607.203026525699
 20
161.0883239840505
 30
0.0
 11
5607.8996944196988
 21
163.6883239840505
 31
0.0
  0
LINE
  5
BE05
  8
0
  6
BYBLOCK
 10
5607.8996944196988
 20
163.6883239840505
 30
0.0
 11
5608.5963623136986
 21
161.0883239840505
 31
0.0
  0
LINE
  5
BE06
  8
0
  6
BYBLOCK
 10
5607.8996944196988
 20
163.6883239840505
 30
0.0
 11
5607.8996944196988
 21
161.0883239840505
 31
0.0
  0
LINE
  5
BE07
  8
0
  6
BYBLOCK
 10
5608.5963623136986
 20
111.28832398405061
 30
0.0
 11
5607.8996944196988
 21
108.6883239840506
 31
0.0
  0
LINE
  5
BE08
  8
0
  6
BYBLOCK
 10
5607.8996944196988
 20
108.6883239840506
 30
0.0
 11
5607.203026525699
 21
111.28832398405061
 31
0.0
  0
LINE
  5
BE09
  8
0
  6
BYBLOCK
 10
5607.8996944196988
 20
108.6883239840506
 30
0.0
 11
5607.8996944196988
 21
111.28832398405061
 31
0.0
  0
TEXT
  5
BE0A
  8
1DIM
 10
5739.9896944196989
 20
132.39665731738489
 30
0.0
 40
4.5499999999999989
  1
58
 50
90.0
  0
LINE
  5
BE0B
  8
0
  6
BYBLOCK
 10
5740.203026525699
 20
162.58832398405059
 30
0.0
 11
5740.8996944196988
 21
165.18832398405061
 31
0.0
  0
LINE
  5
BE0C
  8
0
  6
BYBLOCK
 10
5740.8996944196988
 20
165.18832398405061
 30
0.0
 11
5741.5963623136986
 21
162.58832398405059
 31
0.0
  0
LINE
  5
BE0D
  8
0
  6
BYBLOCK
 10
5740.8996944196988
 20
165.18832398405061
 30
0.0
 11
5740.8996944196988
 21
162.58832398405059
 31
0.0
  0
LINE
  5
BE0E
  8
0
  6
BYBLOCK
 10
5741.5963623136986
 20
109.78832398405061
 30
0.0
 11
5740.8996944196988
 21
107.1883239840506
 31
0.0
  0
LINE
  5
BE0F
  8
0
  6
BYBLOCK
 10
5740.8996944196988
 20
107.1883239840506
 30
0.0
 11
5740.203026525699
 21
109.78832398405061
 31
0.0
  0
LINE
  5
BE10
  8
0
  6
BYBLOCK
 10
5740.8996944196988
 20
107.1883239840506
 30
0.0
 11
5740.8996944196988
 21
109.78832398405061
 31
0.0
  0
TEXT
  5
BE11
  8
1DIM
 10
5678.9830277530318
 20
204.88832398405049
 30
0.0
 40
3.5
  1
68
  0
LINE
  5
BE12
  8
0
  6
BYBLOCK
 10
5713.8996944196979
 20
204.72422236405049
 30
0.0
 11
5715.8996944196979
 21
204.1883239840505
 31
0.0
  0
LINE
  5
BE13
  8
0
  6
BYBLOCK
 10
5715.8996944196979
 20
204.1883239840505
 30
0.0
 11
5713.8996944196979
 21
203.65242560405051
 31
0.0
  0
LINE
  5
BE14
  8
0
  6
BYBLOCK
 10
5715.8996944196979
 20
204.1883239840505
 30
0.0
 11
5713.8996944196979
 21
204.1883239840505
 31
0.0
  0
LINE
  5
BE15
  8
0
  6
BYBLOCK
 10
5649.8996944196988
 20
203.65242560405051
 30
0.0
 11
5647.8996944196988
 21
204.1883239840505
 31
0.0
  0
LINE
  5
BE16
  8
0
  6
BYBLOCK
 10
5647.8996944196988
 20
204.1883239840505
 30
0.0
 11
5649.8996944196988
 21
204.72422236405049
 31
0.0
  0
LINE
  5
BE17
  8
0
  6
BYBLOCK
 10
5647.8996944196988
 20
204.1883239840505
 30
0.0
 11
5649.8996944196988
 21
204.1883239840505
 31
0.0
  0
TEXT
  5
BE18
  8
1DIM
 10
5665.9830277530309
 20
194.88832398405049
 30
0.0
 40
3.5
  1
94
  0
LINE
  5
BE19
  8
0
  6
BYBLOCK
 10
5623.8996944196979
 20
193.65242560405051
 30
0.0
 11
5621.8996944196979
 21
194.1883239840505
 31
0.0
  0
LINE
  5
BE1A
  8
0
  6
BYBLOCK
 10
5621.8996944196979
 20
194.1883239840505
 30
0.0
 11
5623.8996944196979
 21
194.72422236405049
 31
0.0
  0
LINE
  5
BE1B
  8
0
  6
BYBLOCK
 10
5621.8996944196979
 20
194.1883239840505
 30
0.0
 11
5623.8996944196979
 21
194.1883239840505
 31
0.0
  0
LINE
  5
BE1C
  8
0
  6
BYBLOCK
 10
5713.8996944196979
 20
194.72422236405049
 30
0.0
 11
5715.8996944196979
 21
194.1883239840505
 31
0.0
  0
LINE
  5
BE1D
  8
0
  6
BYBLOCK
 10
5715.8996944196979
 20
194.1883239840505
 30
0.0
 11
5713.8996944196979
 21
193.65242560405051
 31
0.0
  0
LINE
  5
BE1E
  8
0
  6
BYBLOCK
 10
5715.8996944196979
 20
194.1883239840505
 30
0.0
 11
5713.8996944196979
 21
194.1883239840505
 31
0.0
  0
VIEWPORT
  5
57
 67
     1
  8
0
 10
-7.7295765619315651
 20
17.565658765306811
 30
0.0
 40
400.61021017646738
 41
283.64633631244521
 68
     1
 69
     1
1001
ACAD
1000
MVIEW
1002
{
1070
    16
1010
0.0
1020
0.0
1030
0.0
1010
0.0
1020
0.0
1030
1.0
1040
0.0
1040
283.64633631244521
1040
-7.7295765619315651
1040
17.565658765306811
1040
50.0
1040
0.0
1040
0.0
1070
     0
1070
   100
1070
     1
1070
     1
1070
     0
1070
     0
1070
     0
1070
     0
1040
0.0
1040
0.0
1040
0.0
1040
10.0
1040
10.0
1040
10.0
1040
10.0
1070
     0
1002
{
1002
}
1002
}
  0
ENDSEC
  0
EOF
