  0
SECTION
  2
HEADER
  9
$ACADVER
  1
AC1009
  9
$INSBASE
 10
0.0
 20
0.0
 30
0.0
  9
$EXTMIN
 10
459.76418696073671
 20
-630.22491356529997
 30
0.0
  9
$EXTMAX
 10
805.80837546236796
 20
-451.83630915879638
 30
0.0
  9
$LIMMIN
 10
0.0
 20
0.0
  9
$LIMMAX
 10
12.0
 20
9.0
  9
$ORTHOMODE
 70
     0
  9
$REGENMODE
 70
     1
  9
$FILLMODE
 70
     1
  9
$QTEXTMODE
 70
     0
  9
$MIRRTEXT
 70
     0
  9
$DRAGMODE
 70
     2
  9
$LTSCALE
 40
0.5
  9
$OSMODE
 70
    63
  9
$ATTMODE
 70
     1
  9
$TEXTSIZE
 40
2.7999999999999989
  9
$TRACEWID
 40
0.05
  9
$TEXTSTYLE
  7
STANDARD
  9
$CLAYER
  8
1TEXT
  9
$CELTYPE
  6
BYLAYER
  9
$CECOLOR
 62
   256
  9
$DIMSCALE
 40
1.0
  9
$DIMASZ
 40
2.0
  9
$DIMEXO
 40
0.0
  9
$DIMDLI
 40
7.0
  9
$DIMRND
 40
0.0
  9
$DIMDLE
 40
0.0
  9
$DIMEXE
 40
1.0
  9
$DIMTP
 40
0.0
  9
$DIMTM
 40
0.0
  9
$DIMTXT
 40
3.5
  9
$DIMCEN
 40
0.0
  9
$DIMTSZ
 40
0.0
  9
$DIMTOL
 70
     0
  9
$DIMLIM
 70
     0
  9
$DIMTIH
 70
     0
  9
$DIMTOH
 70
     0
  9
$DIMSE1
 70
     0
  9
$DIMSE2
 70
     0
  9
$DIMTAD
 70
     1
  9
$DIMZIN
 70
     8
  9
$DIMBLK
  1

  9
$DIMASO
 70
     1
  9
$DIMSHO
 70
     1
  9
$DIMPOST
  1
 
  9
$DIMAPOST
  1

  9
$DIMALT
 70
     0
  9
$DIMALTD
 70
     2
  9
$DIMALTF
 40
25.399999999999999
  9
$DIMLFAC
 40
1.0
  9
$DIMTOFL
 70
     1
  9
$DIMTVP
 40
0.0
  9
$DIMTIX
 70
     0
  9
$DIMSOXD
 70
     0
  9
$DIMSAH
 70
     1
  9
$DIMBLK1
  1
OPEN30
  9
$DIMBLK2
  1
OPEN30
  9
$DIMSTYLE
  2
NEWX10
  9
$DIMCLRD
 70
   256
  9
$DIMCLRE
 70
   256
  9
$DIMCLRT
 70
   201
  9
$DIMTFAC
 40
0.7
  9
$DIMGAP
 40
0.7
  9
$LUNITS
 70
     2
  9
$LUPREC
 70
     4
  9
$SKETCHINC
 40
0.1
  9
$FILLETRAD
 40
0.0
  9
$AUNITS
 70
     0
  9
$AUPREC
 70
     2
  9
$MENU
  1
acad
  9
$ELEVATION
 40
0.0
  9
$PELEVATION
 40
0.0
  9
$THICKNESS
 40
0.0
  9
$LIMCHECK
 70
     0
  9
$BLIPMODE
 70
     0
  9
$CHAMFERA
 40
0.0
  9
$CHAMFERB
 40
0.0
  9
$SKPOLY
 70
     0
  9
$TDCREATE
 40
2451024.579593021
  9
$TDUPDATE
 40
2457014.659656574
  9
$TDINDWG
 40
0.8445371875
  9
$TDUSRTIMER
 40
0.8445371875
  9
$USRTIMER
 70
     1
  9
$ANGBASE
 50
0.0
  9
$ANGDIR
 70
     0
  9
$PDMODE
 70
     0
  9
$PDSIZE
 40
0.0
  9
$PLINEWID
 40
0.0
  9
$COORDS
 70
     0
  9
$SPLFRAME
 70
     0
  9
$SPLINETYPE
 70
     6
  9
$SPLINESEGS
 70
     8
  9
$ATTDIA
 70
     0
  9
$ATTREQ
 70
     1
  9
$HANDLING
 70
     1
  9
$HANDSEED
  5
BF47
  9
$SURFTAB1
 70
     6
  9
$SURFTAB2
 70
     6
  9
$SURFTYPE
 70
     6
  9
$SURFU
 70
     6
  9
$SURFV
 70
     6
  9
$UCSNAME
  2

  9
$UCSORG
 10
0.0
 20
0.0
 30
0.0
  9
$UCSXDIR
 10
1.0
 20
0.0
 30
0.0
  9
$UCSYDIR
 10
0.0
 20
1.0
 30
0.0
  9
$PUCSNAME
  2

  9
$PUCSORG
 10
0.0
 20
0.0
 30
0.0
  9
$PUCSXDIR
 10
1.0
 20
0.0
 30
0.0
  9
$PUCSYDIR
 10
0.0
 20
1.0
 30
0.0
  9
$USERI1
 70
     0
  9
$USERI2
 70
     0
  9
$USERI3
 70
     0
  9
$USERI4
 70
     0
  9
$USERI5
 70
     0
  9
$USERR1
 40
0.0
  9
$USERR2
 40
0.0
  9
$USERR3
 40
0.0
  9
$USERR4
 40
0.0
  9
$USERR5
 40
0.0
  9
$WORLDVIEW
 70
     1
  9
$SHADEDGE
 70
     3
  9
$SHADEDIF
 70
    70
  9
$TILEMODE
 70
     1
  9
$MAXACTVP
 70
    48
  9
$PLIMCHECK
 70
     0
  9
$PEXTMIN
 10
1.0000000000000000E+020
 20
1.0000000000000000E+020
 30
1.0000000000000000E+020
  9
$PEXTMAX
 10
-1.0000000000000000E+020
 20
-1.0000000000000000E+020
 30
-1.0000000000000000E+020
  9
$PLIMMIN
 10
0.0
 20
0.0
  9
$PLIMMAX
 10
12.0
 20
9.0
  9
$UNITMODE
 70
     0
  9
$VISRETAIN
 70
     1
  9
$PLINEGEN
 70
     0
  9
$PSLTSCALE
 70
     1
  0
ENDSEC
  0
SECTION
  2
TABLES
  0
TABLE
  2
VPORT
 70
     1
  0
VPORT
  2
*ACTIVE
 70
     0
 10
0.0
 20
0.0
 11
1.0
 21
1.0
 12
632.77155406057636
 22
-541.02155164253065
 13
0.0
 23
0.0
 14
1.0
 24
1.0
 15
0.0
 25
0.0
 16
0.0
 26
0.0
 36
1.0
 17
0.0
 27
0.0
 37
0.0
 40
189.2341791142639
 41
2.1749379652605461
 42
50.0
 43
0.0
 44
0.0
 50
0.0
 51
0.0
 71
     0
 72
   100
 73
     1
 74
     1
 75
     0
 76
     0
 77
     0
 78
     0
  0
ENDTAB
  0
TABLE
  2
LTYPE
 70
    14
  0
LTYPE
  2
CONTINUOUS
 70
     0
  3
Solid line
 72
    65
 73
     0
 40
0.0
  0
LTYPE
  2
CENTER2
 70
     0
  3
Center (.5x) ___ _ ___ _ ___ _ ___ _ ___ _ ___
 72
    65
 73
     4
 40
28.574999999999999
 49
19.050000000000001
 49
-3.1749999999999989
 49
3.1749999999999989
 49
-3.1749999999999989
  0
LTYPE
  2
XREF1|CENTER2
 70
    48
  3
Center (.5x) ___ _ ___ _ ___ _ ___ _ ___ _ ___
 72
    65
 73
     4
 40
28.574999999999999
 49
19.050000000000001
 49
-3.1749999999999989
 49
3.1749999999999989
 49
-3.1749999999999989
  0
LTYPE
  2
A3WAKUDAKE|CENTER2
 70
    48
  3
Center (.5x) ___ _ ___ _ ___ _ ___ _ ___ _ ___
 72
    65
 73
     4
 40
28.574999999999999
 49
19.050000000000001
 49
-3.1749999999999989
 49
3.1749999999999989
 49
-3.1749999999999989
  0
ENDTAB
  0
TABLE
  2
LAYER
 70
    47
  0
LAYER
  2
0
 70
     0
 62
     7
  6
CONTINUOUS
  0
LAYER
  2
1CENTER
 70
     0
 62
     7
  6
CENTER2
  0
LAYER
  2
1DIM
 70
     0
 62
     7
  6
CONTINUOUS
  0
LAYER
  2
1TEXT
 70
     0
 62
     7
  6
CONTINUOUS
  0
LAYER
  2
1HATCH
 70
     0
 62
     7
  6
CONTINUOUS
  0
LAYER
  2
01
 70
     0
 62
     1
  6
CONTINUOUS
  0
LAYER
  2
A3WAKUDAKE|THICK
 70
    48
 62
     7
  6
CONTINUOUS
  0
LAYER
  2
A3WAKUDAKE|POINT
 70
    48
 62
     7
  6
CONTINUOUS
  0
LAYER
  2
A3WAKUDAKE|1CENTER
 70
    48
 62
     7
  6
A3WAKUDAKE|CENTER2
  0
LAYER
  2
A3WAKUDAKE|0-6
 70
    48
 62
     7
  6
CONTINUOUS
  0
LAYER
  2
A3WAKUDAKE|1DIM
 70
    48
 62
     7
  6
CONTINUOUS
  0
LAYER
  2
XREF1|1CENTER
 70
    48
 62
     7
  6
XREF1|CENTER2
  0
ENDTAB
  0
TABLE
  2
STYLE
 70
    22
  0
STYLE
  2
STANDARD
 70
     0
 40
0.0
 41
1.0
 50
0.0
 71
     0
 42
2.7999999999999989
  3
txt.shx
  4
extfont.shx
  0
ENDTAB
  0
TABLE
  2
VIEW
 70
     6
  0
VIEW
  2
A
 70
     0
 40
163.88865421183439
 10
23.75874513620715
 20
-310.52391195898861
 41
232.0683926202114
 11
0.0
 21
0.0
 31
1.0
 12
0.0
 22
0.0
 32
0.0
 42
50.0
 43
0.0
 44
0.0
 50
0.0
 71
     0
  0
ENDTAB
  0
TABLE
  2
UCS
 70
     0
  0
ENDTAB
  0
TABLE
  2
APPID
 70
    13
  0
APPID
  2
ACAD
 70
     0
  0
APPID
  2
CONTENTBLOCKICON
 70
     0
  0
APPID
  2
CONTENTBLOCKDESCRIPTION
 70
     0
  0
APPID
  2
CONTENTTABDATA
 70
     0
  0
APPID
  2
CONTENTCURRENTTAB
 70
     0
  0
APPID
  2
DRAWINGVARIABLESXDATA
 70
     0
  0
APPID
  2
CONTENTLONGBLOCKNAME
 70
     0
  0
APPID
  2
ACAD_MLEADERVER
 70
     0
  0
APPID
  2
ACADANNOTATIVE
 70
     0
  0
APPID
  2
ACAD_PSEXT
 70
     0
  0
APPID
  2
ACAD_EXEMPT_FROM_CAD_STANDARDS
 70
     0
  0
APPID
  2
ACAD_NAV_VCDISPLAY
 70
     0
  0
APPID
  2
ACLAYERTOOLS
 70
     0
  0
ENDTAB
  0
TABLE
  2
DIMSTYLE
 70
     8
  0
DIMSTYLE
  2
NEWX10
 70
     0
  3
 
  4

  5

  6
OPEN30
  7
OPEN30
 40
1.0
 41
2.0
 42
0.0
 43
7.0
 44
1.0
 45
0.0
 46
0.0
 47
0.0
 48
0.0
140
3.5
141
0.0
142
0.0
143
25.399999999999999
144
1.0
145
0.0
146
0.7
147
0.7
 71
     0
 72
     0
 73
     0
 74
     0
 75
     0
 76
     0
 77
     1
 78
     8
170
     0
171
     2
172
     1
173
     1
174
     0
175
     0
176
   256
177
   256
178
   201
  0
ENDTAB
  0
ENDSEC
  0
SECTION
  2
BLOCKS
  0
BLOCK
  8
0
  2
$MODEL_SPACE
 70
     0
 10
0.0
 20
0.0
 30
0.0
  3
$MODEL_SPACE
  1

  0
ENDBLK
  5
1A
  8
0
  0
BLOCK
 67
     1
  8
0
  2
$PAPER_SPACE
 70
     0
 10
0.0
 20
0.0
 30
0.0
  3
$PAPER_SPACE
  1

  0
ENDBLK
  5
17
 67
     1
  8
0
  0
BLOCK
  8
0
  2
XREF1
 70
    36
 10
0.0
 20
0.0
 30
0.0
  3
XREF1
  1
D:\ACLT\FORMAT\KAWAJUN(9)図面用.dwg
  0
ENDBLK
  5
37B8
  8
0
  0
BLOCK
  8
0
  2
_OPEN30
 70
     0
 10
0.0
 20
0.0
 30
0.0
  3
_OPEN30
  1

  0
LINE
  5
3854
  8
0
  6
BYBLOCK
 62
     0
 10
-1.0
 20
0.26794919
 30
0.0
 11
0.0
 21
0.0
 31
0.0
  0
LINE
  5
3855
  8
0
  6
BYBLOCK
 62
     0
 10
0.0
 20
0.0
 30
0.0
 11
-1.0
 21
-0.26794919
 31
0.0
  0
LINE
  5
3856
  8
0
  6
BYBLOCK
 62
     0
 10
0.0
 20
0.0
 30
0.0
 11
-1.0
 21
0.0
 31
0.0
  0
ENDBLK
  5
3858
  8
0
  0
BLOCK
  8
0
  2
A3WAKUDAKE
 70
    36
 10
0.0
 20
0.0
 30
0.0
  3
A3WAKUDAKE
  1
D:\ACLT\FORMAT\A3WAKUdake.dwg
  0
ENDBLK
  5
B27C
  8
0
  0
ENDSEC
  0
SECTION
  2
ENTITIES
  0
LINE
  5
B70D
  8
1CENTER
 10
724.76684845461671
 20
-522.18862104468315
 30
0.0
 11
724.76684845461671
 21
-539.07086649701296
 31
0.0
  0
LINE
  5
B70F
  8
01
 10
734.01684845461659
 20
-536.10413309940543
 30
0.0
 11
715.51684845461671
 21
-536.10413309940543
 31
0.0
  0
LINE
  5
B710
  8
01
 10
715.51684845461671
 20
-536.10413309940543
 30
0.0
 11
715.51684845461671
 21
-535.50413198695162
 31
0.0
  0
LINE
  5
B711
  8
01
 10
734.01684845461659
 20
-536.10413309940543
 30
0.0
 11
734.01684845461659
 21
-535.50413198695162
 31
0.0
  0
LINE
  5
B71E
  8
01
 10
734.01684805684283
 20
-536.10413424682929
 30
0.0
 11
734.0168480830697
 21
-535.50413198695162
 31
0.0
  0
LINE
  5
B71F
  8
01
 10
715.51684805684283
 20
-536.10413343816856
 30
0.0
 11
715.51684808307004
 21
-535.50413198695162
 31
0.0
  0
LINE
  5
B775
  8
1CENTER
 10
540.80571396849984
 20
-540.27476025501221
 30
0.0
 11
540.80571396849984
 21
-523.41362787683829
 31
0.0
  0
LINE
  5
B777
  8
01
 10
531.55571396849984
 20
-536.10413309940543
 30
0.0
 11
550.05571396849984
 21
-536.10413309940543
 31
0.0
  0
LINE
  5
B778
  8
01
 10
550.05571396849984
 20
-536.10413309940543
 30
0.0
 11
550.05571396849984
 21
-535.50413198695162
 31
0.0
  0
LINE
  5
B779
  8
01
 10
531.55571396849984
 20
-536.10413309940543
 30
0.0
 11
531.55571396849984
 21
-535.50413198695162
 31
0.0
  0
LINE
  5
B784
  8
01
 10
531.55571436627383
 20
-536.10413424682929
 30
0.0
 11
531.55571434004673
 21
-535.50413198695162
 31
0.0
  0
LINE
  5
B785
  8
01
 10
550.05571436627292
 20
-536.10413343816856
 30
0.0
 11
550.05571434004582
 21
-535.50413198695162
 31
0.0
  0
LINE
  5
B7CA
  8
01
 10
467.30571396849842
 20
-527.00413198695162
 30
0.0
 11
467.30571396849842
 21
-535.00413198695162
 31
0.0
  0
ARC
  5
B7CB
  8
01
 10
467.80571396849848
 20
-535.00413198695162
 30
0.0
 40
0.5
 50
180.0
 51
270.0
  0
LINE
  5
B7CE
  8
01
 10
567.30571396849837
 20
-535.00413198695162
 30
0.0
 11
567.30571396849837
 21
-527.00413198695162
 31
0.0
  0
ARC
  5
B7CF
  8
01
 10
566.80571396849837
 20
-535.00413198695162
 30
0.0
 40
0.5
 50
270.0
 51
0.0
  0
LINE
  5
B7D1
  8
01
 10
567.30571396849837
 20
-527.00413198695162
 30
0.0
 11
467.30571396849842
 21
-527.00413198695162
 31
0.0
  0
LINE
  5
B7D3
  8
01
 10
566.80571396849837
 20
-535.50413198695162
 30
0.0
 11
467.80571396849848
 21
-535.50413198695162
 31
0.0
  0
LINE
  5
B7DF
  8
01
 10
566.80571396849837
 20
-618.4897923491128
 30
0.0
 11
467.80571396849848
 21
-618.4897923491128
 31
0.0
  0
ARC
  5
B7E0
  8
01
 10
467.80571396849848
 20
-617.98979234911235
 30
0.0
 40
0.5
 50
180.0
 51
270.0
  0
LINE
  5
B7E2
  8
01
 10
566.80571396849837
 20
-573.48979234911235
 30
0.0
 11
467.80571396849848
 21
-573.48979234911189
 31
0.0
  0
LINE
  5
B7E4
  8
01
 10
567.30571396849837
 20
-573.98979234911235
 30
0.0
 11
567.30571396849837
 21
-617.9897923491128
 31
0.0
  0
ARC
  5
B7E5
  8
01
 10
566.80571396849837
 20
-573.98979234911235
 30
0.0
 40
0.5
 50
0.0
 51
90.0
  0
ARC
  5
B7E6
  8
01
 10
566.80571396849837
 20
-617.9897923491128
 30
0.0
 40
0.5
 50
270.0
 51
0.0
  0
LINE
  5
B7E8
  8
01
 10
467.30571396849842
 20
-573.98979234911235
 30
0.0
 11
467.30571396849842
 21
-617.98979234911235
 31
0.0
  0
ARC
  5
B7E9
  8
01
 10
467.80571396849848
 20
-573.98979234911235
 30
0.0
 40
0.5
 50
90.0
 51
180.0
  0
CIRCLE
  5
B7EB
  8
01
 10
540.80571396849984
 20
-595.98979234910644
 30
0.0
 40
9.5000000000081855
  0
LINE
  5
B7EC
  8
1CENTER
 10
574.54549580524997
 20
-595.9897923491086
 30
0.0
 11
459.76418696073671
 21
-595.9897923491086
 31
0.0
  0
LINE
  5
B7ED
  8
1CENTER
 10
540.80571396850371
 20
-614.98979234910996
 30
0.0
 11
540.80571396850075
 21
-576.98979234910996
 31
0.0
  0
LINE
  5
B800
  8
01
 10
798.26684845460863
 20
-527.00413198695162
 30
0.0
 11
798.26684845460863
 21
-535.00413198695162
 31
0.0
  0
ARC
  5
B801
  8
01
 10
797.76684845460863
 20
-535.00413198695162
 30
0.0
 40
0.5
 50
270.0
 51
0.0
  0
LINE
  5
B807
  8
01
 10
698.26684845460875
 20
-527.00413198695162
 30
0.0
 11
798.26684845460863
 21
-527.00413198695162
 31
0.0
  0
LINE
  5
B809
  8
01
 10
698.76684845460863
 20
-535.50413198695162
 30
0.0
 11
797.76684845460863
 21
-535.50413198695162
 31
0.0
  0
CIRCLE
  5
B8B0
  8
01
 10
540.80571396849632
 20
-595.9897923491086
 30
0.0
 40
9.2499996022261257
  0
CIRCLE
  5
B8B1
  8
01
 10
540.80571396849632
 20
-595.9897923491086
 30
0.0
 40
8.0500000000000007
  0
LINE
  5
B8C8
  8
01
 10
698.76684845460863
 20
-573.48979234910462
 30
0.0
 11
797.76684845460863
 21
-573.48979234910462
 31
0.0
  0
ARC
  5
B8C9
  8
01
 10
797.76684845460863
 20
-573.98979234910496
 30
0.0
 40
0.5
 50
0.0
 51
90.0
  0
LINE
  5
B8CA
  8
01
 10
698.76684845460863
 20
-618.48979234910507
 30
0.0
 11
797.76684845460863
 21
-618.48979234910553
 31
0.0
  0
LINE
  5
B8CB
  8
01
 10
698.26684845460863
 20
-617.98979234910507
 30
0.0
 11
698.26684845460863
 21
-573.98979234910462
 31
0.0
  0
ARC
  5
B8CC
  8
01
 10
698.76684845460863
 20
-617.98979234910507
 30
0.0
 40
0.5
 50
180.0
 51
270.0
  0
ARC
  5
B8CD
  8
01
 10
698.76684845460863
 20
-573.98979234910462
 30
0.0
 40
0.5
 50
90.0
 51
180.0
  0
LINE
  5
B8CE
  8
01
 10
798.26684845460863
 20
-617.98979234910507
 30
0.0
 11
798.26684845460863
 21
-573.98979234910496
 31
0.0
  0
ARC
  5
B8CF
  8
01
 10
797.76684845460863
 20
-617.98979234910507
 30
0.0
 40
0.5
 50
270.0
 51
0.0
  0
CIRCLE
  5
B8D0
  8
01
 10
724.76684845461227
 20
-595.9897923491086
 30
0.0
 40
9.5000000000081855
  0
LINE
  5
B8D1
  8
1CENTER
 10
691.02706661785476
 20
-595.98979234910928
 30
0.0
 11
805.80837546236796
 21
-595.98979234911553
 31
0.0
  0
LINE
  5
B8D2
  8
1CENTER
 10
724.76684845461091
 20
-614.98979234910871
 30
0.0
 11
724.76684845461091
 21
-576.98979234910871
 31
0.0
  0
CIRCLE
  5
B8D5
  8
01
 10
724.76684845460863
 20
-595.98979234911099
 30
0.0
 40
9.2499996022261257
  0
CIRCLE
  5
B8D6
  8
01
 10
724.76684845460863
 20
-595.98979234911099
 30
0.0
 40
8.0500000000000007
  0
LINE
  5
B901
  8
1CENTER
 10
602.51055982439243
 20
-595.98979234910644
 30
0.0
 11
619.37169220256624
 21
-595.98979234910644
 31
0.0
  0
LINE
  5
B902
  8
01
 10
606.68118697999921
 20
-586.73979234910644
 30
0.0
 11
606.68118697999921
 21
-605.23979234910644
 31
0.0
  0
LINE
  5
B903
  8
01
 10
606.68118697999921
 20
-605.23979234910644
 30
0.0
 11
607.28118809245302
 21
-605.23979234910644
 31
0.0
  0
LINE
  5
B904
  8
01
 10
606.68118697999921
 20
-586.73979234910644
 30
0.0
 11
607.28118809245302
 21
-586.73979234910644
 31
0.0
  0
LINE
  5
B905
  8
01
 10
606.68118583257524
 20
-586.73979274688031
 30
0.0
 11
607.28118809245302
 21
-586.73979272065321
 31
0.0
  0
LINE
  5
B906
  8
01
 10
606.68118664123597
 20
-605.2397927468794
 30
0.0
 11
607.28118809245302
 21
-605.2397927206523
 31
0.0
  0
LINE
  5
B907
  8
01
 10
615.78118809245302
 20
-573.48979234910462
 30
0.0
 11
607.78118809245302
 21
-573.48979234910462
 31
0.0
  0
ARC
  5
B908
  8
01
 10
607.78118809245302
 20
-573.98979234910462
 30
0.0
 40
0.5
 50
90.0
 51
180.0
  0
LINE
  5
B909
  8
01
 10
607.78118809245302
 20
-618.48979234910507
 30
0.0
 11
615.78118809245302
 21
-618.48979234910507
 31
0.0
  0
ARC
  5
B90A
  8
01
 10
607.78118809245302
 20
-617.98979234910507
 30
0.0
 40
0.5
 50
180.0
 51
270.0
  0
LINE
  5
B90B
  8
01
 10
615.78118809245302
 20
-618.48979234910507
 30
0.0
 11
615.78118809245302
 21
-573.48979234910462
 31
0.0
  0
LINE
  5
B90C
  8
01
 10
607.28118809245302
 20
-617.98979234910507
 30
0.0
 11
607.28118809245302
 21
-573.98979234910462
 31
0.0
  0
LINE
  5
B90E
  8
01
 10
664.88118920490672
 20
-586.73979234910644
 30
0.0
 11
664.88118920490672
 21
-605.23979234910644
 31
0.0
  0
LINE
  5
B90F
  8
01
 10
664.88118920490672
 20
-605.23979234910644
 30
0.0
 11
664.28118809245279
 21
-605.23979234910644
 31
0.0
  0
LINE
  5
B910
  8
01
 10
664.88118920490672
 20
-586.73979234910644
 30
0.0
 11
664.28118809245279
 21
-586.73979234910644
 31
0.0
  0
LINE
  5
B911
  8
01
 10
664.88119035233069
 20
-586.73979274688031
 30
0.0
 11
664.28118809245279
 21
-586.73979272065344
 31
0.0
  0
LINE
  5
B912
  8
01
 10
664.88118954366985
 20
-605.23979274688031
 30
0.0
 11
664.28118809245279
 21
-605.2397927206531
 31
0.0
  0
LINE
  5
B927
  8
01
 10
655.78118809245279
 20
-573.48979234910462
 30
0.0
 11
663.78118809245291
 21
-573.48979234910462
 31
0.0
  0
ARC
  5
B928
  8
01
 10
663.78118809245291
 20
-573.98979234910462
 30
0.0
 40
0.5
 50
0.0
 51
90.0
  0
LINE
  5
B929
  8
01
 10
663.78118809245291
 20
-618.48979234910507
 30
0.0
 11
655.78118809245279
 21
-618.48979234910507
 31
0.0
  0
ARC
  5
B92A
  8
01
 10
663.78118809245291
 20
-617.98979234910507
 30
0.0
 40
0.5
 50
270.0
 51
0.0
  0
LINE
  5
B92B
  8
01
 10
655.78118809245279
 20
-618.48979234910507
 30
0.0
 11
655.78118809245279
 21
-573.48979234910462
 31
0.0
  0
LINE
  5
B92C
  8
01
 10
664.28118809245279
 20
-617.98979234910507
 30
0.0
 11
664.28118809245279
 21
-573.98979234910462
 31
0.0
  0
LINE
  5
B935
  8
01
 10
698.26684845460863
 20
-535.00413198695162
 30
0.0
 11
698.26684845460863
 21
-527.00413198695162
 31
0.0
  0
ARC
  5
B936
  8
01
 10
698.76684845460863
 20
-535.00413198695162
 30
0.0
 40
0.5
 50
180.0
 51
270.0
  0
TEXT
  5
B96F
  8
1TEXT
 10
595.77490228546662
 20
-459.83630915879638
 30
0.0
 40
8.0
  1
C1045-X
  0
TEXT
  5
B9A3
  8
1TEXT
 10
773.14879047137572
 20
-516.90477222514494
 30
0.0
 40
2.7999999999999989
  1
付属ネジ
  0
LINE
  5
BADC
  8
1CENTER
 10
665.6249585575498
 20
-595.98979234910644
 30
0.0
 11
628.48531517692584
 21
-595.98979234910644
 31
0.0
  0
ARC
  5
BADE
  8
01
 10
654.78118937975171
 20
-591.98979230539521
 30
0.0
 40
1.0
 50
269.99999749547919
 51
359.99999749553132
  0
ARC
  5
BADF
  8
01
 10
654.78118903006146
 20
-599.98979230539521
 30
0.0
 40
1.0
 50
359.99999749553132
 51
89.999997495479192
  0
LINE
  5
BAE0
  8
01
 10
630.78118933187625
 20
-593.08505459002595
 30
0.0
 11
630.78118907377268
 21
-598.98979125632218
 31
0.0
  0
LINE
  5
BAE1
  8
01
 10
654.78118907377257
 20
-598.98979230539521
 30
0.0
 11
630.78118907377268
 21
-598.98979125632218
 31
0.0
  0
LINE
  5
BAE2
  8
01
 10
654.78118933604037
 20
-592.9897923053951
 30
0.0
 11
648.78118920490635
 21
-592.98979204312695
 31
0.0
  0
ARC
  5
BAE3
  8
01
 10
654.78118937975171
 20
-591.98979230539521
 30
0.0
 40
1.0
 50
269.99999749547919
 51
359.99999749553132
  0
ARC
  5
BAE4
  8
01
 10
654.78118903006146
 20
-599.98979230539521
 30
0.0
 40
1.0
 50
359.99999749553132
 51
89.999997495479192
  0
LINE
  5
BAEA
  8
01
 10
648.78118920490635
 20
-592.98979204312695
 30
0.0
 11
648.78118920490635
 21
-593.08505459002595
 31
0.0
  0
LINE
  5
BAEB
  8
01
 10
648.78118920490635
 20
-593.08505459002595
 30
0.0
 11
630.78118933187625
 21
-593.08505459002595
 31
0.0
  0
LINE
  5
BAF0
  8
1CENTER
 10
707.76684845461659
 20
-498.7145162066513
 30
0.0
 11
707.76684845461659
 21
-539.07086649701296
 31
0.0
  0
ARC
  5
BAF1
  8
01
 10
703.76684849832338
 20
-526.00413292456005
 30
0.0
 40
1.0
 50
269.99999749553132
 51
359.99999749547919
  0
LINE
  5
BAF2
  8
01
 10
710.76684736182813
 20
-502.00413323053908
 30
0.0
 11
704.76684954739653
 21
-502.00413296827128
 31
0.0
  0
LINE
  5
BAF3
  8
01
 10
704.76684849832338
 20
-526.00413296827139
 30
0.0
 11
704.76684954739653
 21
-502.00413296827128
 31
0.0
  0
ARC
  5
BAF4
  8
01
 10
703.76684849832338
 20
-526.00413292456005
 30
0.0
 40
1.0
 50
269.99999749553132
 51
359.99999749547919
  0
ARC
  5
BAF5
  8
01
 10
711.76684841090957
 20
-526.0041329245588
 30
0.0
 40
1.0
 50
180.0000025045411
 51
270.00000250449477
  0
LINE
  5
BAF6
  8
01
 10
710.76684841090957
 20
-526.00413296827026
 30
0.0
 11
710.76684736182813
 21
-502.00413323053908
 31
0.0
  0
ARC
  5
BAF7
  8
01
 10
711.76684841090957
 20
-526.0041329245588
 30
0.0
 40
1.0
 50
180.0000025045411
 51
270.00000250449477
  0
LINE
  5
BAF8
  8
1CENTER
 10
741.76684845461671
 20
-498.7145162066513
 30
0.0
 11
741.76684845461671
 21
-539.07086649701296
 31
0.0
  0
ARC
  5
BAF9
  8
01
 10
745.76684841090992
 20
-526.00413292456005
 30
0.0
 40
1.0
 50
180.00000250452081
 51
270.00000250446868
  0
LINE
  5
BAFA
  8
01
 10
738.76684954740517
 20
-502.00413323053908
 30
0.0
 11
744.76684736183677
 21
-502.00413296827128
 31
0.0
  0
LINE
  5
BAFB
  8
01
 10
744.76684841090992
 20
-526.00413296827139
 30
0.0
 11
744.76684736183677
 21
-502.00413296827128
 31
0.0
  0
ARC
  5
BAFC
  8
01
 10
745.76684841090992
 20
-526.00413292456005
 30
0.0
 40
1.0
 50
180.00000250452081
 51
270.00000250446868
  0
ARC
  5
BAFD
  8
01
 10
737.76684849832384
 20
-526.0041329245588
 30
0.0
 40
1.0
 50
269.99999749550523
 51
359.9999974954589
  0
LINE
  5
BAFE
  8
01
 10
738.76684849832384
 20
-526.00413296827026
 30
0.0
 11
738.76684954740517
 21
-502.00413323053908
 31
0.0
  0
ARC
  5
BAFF
  8
01
 10
737.76684849832384
 20
-526.0041329245588
 30
0.0
 40
1.0
 50
269.99999749550523
 51
359.9999974954589
  0
TEXT
  5
BCF4
  8
1TEXT
 10
604.47876713142045
 20
-467.79344717492393
 30
0.0
 40
4.0
  1
表面処理
 72
     1
 11
613.54543379808717
 21
-467.79344717492393
 31
0.0
  0
TEXT
  5
BCF5
  8
1TEXT
 10
604.21210046475392
 20
-481.62873583444821
 30
0.0
 40
4.0
  1
クローム
 72
     1
 11
613.54543379808717
 21
-481.62873583444821
 31
0.0
  0
TEXT
  5
BCF6
  8
1TEXT
 10
602.34543379808724
 20
-474.77134219490819
 30
0.0
 40
4.0
  1
本金メッキ
 72
     1
 11
613.54543379808717
 21
-474.77134219490819
 31
0.0
  0
LINE
  5
BCF7
  8
1DIM
 10
596.1454337980872
 20
-462.29344717492393
 30
0.0
 11
666.14543379808708
 21
-462.29344717492393
 31
0.0
  0
LINE
  5
BCF8
  8
1DIM
 10
596.1454337980872
 20
-476.29344717492393
 30
0.0
 11
666.14543379808708
 21
-476.29344717492393
 31
0.0
  0
LINE
  5
BCF9
  8
1DIM
 10
596.1454337980872
 20
-469.29344717492381
 30
0.0
 11
666.14543379808708
 21
-469.29344717492381
 31
0.0
  0
LINE
  5
BCFA
  8
1DIM
 10
596.1454337980872
 20
-483.29344717492393
 30
0.0
 11
666.14543379808708
 21
-483.29344717492393
 31
0.0
  0
LINE
  5
BCFB
  8
1DIM
 10
596.1454337980872
 20
-483.29344717492393
 30
0.0
 11
666.14543379808708
 21
-483.29344717492393
 31
0.0
  0
LINE
  5
BCFC
  8
1DIM
 10
631.1454337980872
 20
-462.29344717492393
 30
0.0
 11
631.1454337980872
 21
-525.29344717492393
 31
0.0
  0
TEXT
  5
BCFD
  8
1TEXT
 10
636.21210046475426
 20
-475.00780415857332
 30
0.0
 40
4.0
  1
C1045-G
 72
     1
 11
648.54543379808774
 21
-475.00780415857332
 31
0.0
  0
TEXT
  5
BCFE
  8
1TEXT
 10
641.74543379808733
 20
-467.79344717492393
 30
0.0
 40
4.0
  1
コード
 72
     1
 11
648.54543379808729
 21
-467.79344717492393
 31
0.0
  0
LINE
  5
BCFF
  8
1DIM
 10
596.14543379808731
 20
-525.29344717492393
 30
0.0
 11
596.1454337980872
 21
-462.29344717492393
 31
0.0
  0
LINE
  5
BD01
  8
1DIM
 10
666.14543379808708
 20
-525.29344717492393
 30
0.0
 11
666.14543379808708
 21
-462.29344717492393
 31
0.0
  0
LINE
  5
BD02
  8
1DIM
 10
596.1454337980872
 20
-490.29344717492393
 30
0.0
 11
666.14543379808708
 21
-490.29344717492393
 31
0.0
  0
LINE
  5
BD03
  8
1DIM
 10
596.1454337980872
 20
-490.29344717492393
 30
0.0
 11
666.14543379808708
 21
-490.29344717492393
 31
0.0
  0
LINE
  5
BD04
  8
1DIM
 10
596.1454337980872
 20
-497.29344717492393
 30
0.0
 11
666.14543379808708
 21
-497.29344717492393
 31
0.0
  0
LINE
  5
BD05
  8
1DIM
 10
596.1454337980872
 20
-497.29344717492393
 30
0.0
 11
666.14543379808708
 21
-497.29344717492393
 31
0.0
  0
TEXT
  5
BD06
  8
1TEXT
 10
597.27876713142064
 20
-495.62873583444832
 30
0.0
 40
4.0
  1
サテンニッケル
 72
     1
 11
613.54543379808717
 21
-495.62873583444832
 31
0.0
  0
LINE
  5
BD07
  8
1DIM
 10
596.1454337980872
 20
-504.29344717492393
 30
0.0
 11
666.14543379808708
 21
-504.29344717492393
 31
0.0
  0
LINE
  5
BD08
  8
1DIM
 10
596.1454337980872
 20
-504.29344717492393
 30
0.0
 11
666.14543379808708
 21
-504.29344717492393
 31
0.0
  0
TEXT
  5
BD09
  8
1TEXT
 10
597.14543379808731
 20
-488.62873583444832
 30
0.0
 40
4.0
  1
パールクローム
 72
     1
 11
613.54543379808717
 21
-488.62873583444832
 31
0.0
  0
TEXT
  5
BD0A
  8
1TEXT
 10
636.21210046475426
 20
-482.00780415857332
 30
0.0
 40
4.0
  1
C1045-C
 72
     1
 11
648.54543379808774
 21
-482.00780415857332
 31
0.0
  0
TEXT
  5
BD0B
  8
1TEXT
 10
636.21210046475426
 20
-496.00780415857332
 30
0.0
 40
4.0
  1
C1045-N
 72
     1
 11
648.54543379808774
 21
-496.00780415857332
 31
0.0
  0
TEXT
  5
BD0C
  8
1TEXT
 10
636.21210046475426
 20
-489.00780415857332
 30
0.0
 40
4.0
  1
C1045-B
 72
     1
 11
648.54543379808774
 21
-489.00780415857332
 31
0.0
  0
TEXT
  5
BD0D
  8
1TEXT
 10
637.07876713142036
 20
-509.79344717492393
 30
0.0
 40
4.0
  1
C1045-4Q
 41
0.8
 72
     1
 11
648.54543379808695
 21
-509.79344717492393
 31
0.0
  0
TEXT
  5
BD0E
  8
1TEXT
 10
597.14543379808708
 20
-509.79344717492393
 30
0.0
 40
4.0
  1
ダークアンバー
 72
     1
 11
613.54543379808706
 21
-509.79344717492393
 31
0.0
  0
LINE
  5
BD0F
  8
1DIM
 10
596.1454337980872
 20
-525.29344717492393
 30
0.0
 11
666.14543379808708
 21
-525.29344717492393
 31
0.0
  0
LINE
  5
BD10
  8
1DIM
 10
596.1454337980872
 20
-511.29344717492393
 30
0.0
 11
666.14543379808708
 21
-511.29344717492393
 31
0.0
  0
LINE
  5
BD11
  8
1DIM
 10
596.1454337980872
 20
-518.29344717492393
 30
0.0
 11
666.14543379808708
 21
-518.29344717492393
 31
0.0
  0
TEXT
  5
BD12
  8
1TEXT
 10
636.21210046475358
 20
-502.79344717492393
 30
0.0
 40
4.0
  1
C1045-D
 72
     1
 11
648.54543379808695
 21
-502.79344717492393
 31
0.0
  0
TEXT
  5
BD13
  8
1TEXT
 10
597.01210046475364
 20
-502.79344717492393
 30
0.0
 40
4.0
  1
ミラーニッケル
 72
     1
 11
613.54543379808706
 21
-502.79344717492393
 31
0.0
  0
TEXT
  5
BD14
  8
1TEXT
 10
637.07876713142036
 20
-523.79344717492393
 30
0.0
 40
4.0
  1
C1045-8Q
 41
0.8
 72
     1
 11
648.54543379808695
 21
-523.79344717492393
 31
0.0
  0
TEXT
  5
BD15
  8
1TEXT
 10
597.01210046475364
 20
-523.79344717492393
 30
0.0
 40
4.0
  1
ミラーブラック
 72
     1
 11
613.54543379808706
 21
-523.79344717492393
 31
0.0
  0
TEXT
  5
BD1F
  8
1TEXT
 10
637.07876713142036
 20
-516.79344717492393
 30
0.0
 40
4.0
  1
C1045-GQ
 41
0.8
 72
     1
 11
648.54543379808695
 21
-516.79344717492393
 31
0.0
  0
TEXT
  5
BD20
  8
1TEXT
 10
597.27876713142041
 20
-516.79344717492393
 30
0.0
 40
4.0
  1
パールブラック
 72
     1
 11
613.54543379808706
 21
-516.79344717492393
 31
0.0
  0
LINE
  5
BE3D
  8
1CENTER
 10
789.67174702366378
 20
-507.35651444775419
 30
0.0
 11
767.16911397082754
 21
-507.35651444775419
 31
0.0
  0
LINE
  5
BE3E
  8
01
 10
784.61083497867764
 20
-506.26219063375908
 30
0.0
 11
785.41083041272861
 21
-508.2245257226345
 31
0.0
  0
LINE
  5
BE3F
  8
01
 10
785.41083041272861
 20
-508.2245257226345
 30
0.0
 11
785.72260026898073
 21
-507.63624914759208
 31
0.0
  0
LINE
  5
BE40
  8
01
 10
773.41083708589201
 20
-505.35656098365212
 30
0.0
 11
774.21082777871459
 21
-509.35656098365212
 31
0.0
  0
LINE
  5
BE41
  8
01
 10
775.81082777871472
 20
-509.35656098365212
 30
0.0
 11
775.91082894211183
 21
-508.856560983652
 31
0.0
  0
LINE
  5
BE42
  8
01
 10
774.21082777871459
 20
-509.35656098365212
 30
0.0
 11
774.31082894211181
 21
-508.856560983652
 31
0.0
  0
LINE
  5
BE43
  8
01
 10
777.41082777871463
 20
-509.35656098365212
 30
0.0
 11
777.51082894211174
 21
-508.856560983652
 31
0.0
  0
LINE
  5
BE44
  8
01
 10
782.21082830551734
 20
-509.13015393144809
 30
0.0
 11
782.3400990031472
 21
-508.59356019617701
 31
0.0
  0
LINE
  5
BE45
  8
01
 10
779.01082777871466
 20
-509.35656098365212
 30
0.0
 11
779.11082894211165
 21
-508.856560983652
 31
0.0
  0
LINE
  5
BE46
  8
01
 10
780.61082777871468
 20
-509.35656098365212
 30
0.0
 11
780.71082894211168
 21
-508.856560983652
 31
0.0
  0
LINE
  5
BE47
  8
01
 10
783.81082935912286
 20
-508.67733982704129
 30
0.0
 11
783.99359350175098
 21
-508.12559036323802
 31
0.0
  0
LINE
  5
BE48
  8
01
 10
774.91083592249504
 20
-505.85656098365212
 30
0.0
 11
775.01083708589215
 21
-505.35656098365212
 31
0.0
  0
LINE
  5
BE49
  8
01
 10
776.51083592249495
 20
-505.85656098365212
 30
0.0
 11
776.61083708589194
 21
-505.35656098365212
 31
0.0
  0
LINE
  5
BE4A
  8
01
 10
778.11083592249486
 20
-505.85656098365212
 30
0.0
 11
778.21083708589208
 21
-505.35656098365212
 31
0.0
  0
LINE
  5
BE4B
  8
01
 10
784.45939918223723
 20
-506.71936247439021
 30
0.0
 11
784.61083497867764
 21
-506.26219063375908
 31
0.0
  0
LINE
  5
BE4C
  8
01
 10
781.3108359224949
 20
-505.85656098365212
 30
0.0
 11
781.41083708589201
 21
-505.35656098365212
 31
0.0
  0
LINE
  5
BE4D
  8
01
 10
779.71083592249488
 20
-505.85656098365212
 30
0.0
 11
779.8108370858921
 21
-505.35656098365212
 31
0.0
  0
LINE
  5
BE4E
  8
01
 10
782.89806651993183
 20
-506.27747558086082
 30
0.0
 11
783.01083603228176
 21
-505.8093771257108
 31
0.0
  0
LINE
  5
BE4F
  8
01
 10
778.21083708589208
 20
-505.35656098365212
 30
0.0
 11
779.01082777871466
 21
-509.35656098365212
 31
0.0
  0
LINE
  5
BE50
  8
01
 10
781.41083708589201
 20
-505.35656098365212
 30
0.0
 11
782.21082830551734
 21
-509.13015393144809
 31
0.0
  0
LINE
  5
BE51
  8
01
 10
779.8108370858921
 20
-505.35656098365212
 30
0.0
 11
780.61082777871468
 21
-509.35656098365212
 31
0.0
  0
LINE
  5
BE52
  8
01
 10
783.01083603228176
 20
-505.8093771257108
 30
0.0
 11
783.81082935912286
 21
-508.67733982704129
 31
0.0
  0
LINE
  5
BE53
  8
01
 10
775.01083708589215
 20
-505.35656098365212
 30
0.0
 11
775.81082777871472
 21
-509.35656098365212
 31
0.0
  0
LINE
  5
BE54
  8
01
 10
776.61083708589194
 20
-505.35656098365212
 30
0.0
 11
777.41082777871463
 21
-509.35656098365212
 31
0.0
  0
LINE
  5
BE55
  8
01
 10
771.71082894221718
 20
-508.85656098365189
 30
0.0
 11
771.71083592260197
 21
-505.85656098311398
 31
0.0
  0
LINE
  5
BE56
  8
01
 10
772.61082777871468
 20
-509.35656098365212
 30
0.0
 11
772.71082894211179
 21
-508.856560983652
 31
0.0
  0
LINE
  5
BE57
  8
01
 10
771.71083592249431
 20
-505.85656098365212
 30
0.0
 11
771.8108370858921
 21
-505.35656098365212
 31
0.0
  0
LINE
  5
BE58
  8
01
 10
773.31083592249479
 20
-505.85656098365212
 30
0.0
 11
773.41083708589201
 21
-505.35656098365212
 31
0.0
  0
LINE
  5
BE59
  8
01
 10
771.8108370858921
 20
-505.35656098365212
 30
0.0
 11
772.61082777871468
 21
-509.35656098365212
 31
0.0
  0
LINE
  5
BE5D
  8
1HATCH
 10
795.05238179886101
 20
-488.84223809833412
 30
0.0
 11
767.7024044860766
 21
-488.84244611358667
 31
0.0
  0
LINE
  5
BE5E
  8
1HATCH
 10
795.05236039234785
 20
-485.54223809839033
 30
0.0
 11
767.70234864289716
 21
-485.54244611396348
 31
0.0
  0
LINE
  5
BE5F
  8
1CENTER
 10
797.01385625496698
 20
-487.19221984246758
 30
0.0
 11
763.11261985308795
 21
-487.19248883146508
 31
0.0
  0
LINE
  5
BE60
  8
1HATCH
 10
794.70235713484533
 20
-485.19224076791983
 30
0.0
 11
794.70238505638395
 21
-489.19224076783252
 31
0.0
  0
LINE
  5
BE61
  8
01
 10
765.35234317497384
 20
-483.1924679857845
 30
0.0
 11
765.3523990180513
 21
-491.19246798561142
 31
0.0
  0
LINE
  5
BE62
  8
1HATCH
 10
767.7024044860766
 20
-488.84244611358667
 30
0.0
 11
767.3524036716899
 21
-489.19244937112222
 31
0.0
  0
LINE
  5
BE63
  8
1HATCH
 10
767.70234864289716
 20
-485.54244611396348
 30
0.0
 11
767.35234782852558
 21
-485.1924493714688
 31
0.0
  0
LINE
  5
BE65
  8
1HATCH
 10
795.05238179886101
 20
-473.87489654475559
 30
0.0
 11
767.7024044860766
 21
-473.87468852950292
 31
0.0
  0
LINE
  5
BE66
  8
1HATCH
 10
795.05236039234785
 20
-477.17489654469932
 30
0.0
 11
767.70234864289716
 21
-477.17468852912617
 31
0.0
  0
LINE
  5
BE67
  8
1CENTER
 10
797.01385625496698
 20
-475.52491480062213
 30
0.0
 11
763.11261985308795
 21
-475.52464581162451
 31
0.0
  0
LINE
  5
BE68
  8
1HATCH
 10
794.70235713484533
 20
-477.52489387516988
 30
0.0
 11
794.70238505638395
 21
-473.52489387525708
 31
0.0
  0
LINE
  5
BE69
  8
01
 10
765.35234317497384
 20
-479.52466665730509
 30
0.0
 11
765.3523990180513
 21
-471.52466665747829
 31
0.0
  0
LINE
  5
BE6A
  8
1HATCH
 10
767.7024044860766
 20
-473.87468852950292
 30
0.0
 11
767.3524036716899
 21
-473.52468527196743
 31
0.0
  0
LINE
  5
BE6B
  8
1HATCH
 10
767.70234864289716
 20
-477.17468852912617
 30
0.0
 11
767.35234782852558
 21
-477.5246852716208
 31
0.0
  0
LINE
  5
BE6C
  8
01
 10
794.70238505638395
 20
-473.52489387525708
 30
0.0
 11
767.3524036716899
 21
-473.52468527196743
 31
0.0
  0
LINE
  5
BE6D
  8
01
 10
765.3523990180513
 20
-471.52466665747829
 30
0.0
 11
767.3524036716899
 21
-473.52468527196743
 31
0.0
  0
LINE
  5
BE6E
  8
01
 10
795.05238261323927
 20
-473.87489654476229
 30
0.0
 11
794.70238505638395
 21
-473.52489387525708
 31
0.0
  0
LINE
  5
BE6F
  8
01
 10
765.3523990180513
 20
-471.52466665747829
 30
0.0
 11
765.05239901806351
 21
-471.52466386532438
 31
0.0
  0
LINE
  5
BE70
  8
01
 10
795.05235957796981
 20
-477.17489654469267
 30
0.0
 11
795.05238261323927
 21
-473.87489654476229
 31
0.0
  0
LINE
  5
BE71
  8
01
 10
765.05234317498594
 20
-479.52466386515118
 30
0.0
 11
765.05239901806351
 21
-471.52466386532438
 31
0.0
  0
LINE
  5
BE72
  8
01
 10
795.05235957796981
 20
-477.17489654469267
 30
0.0
 11
794.70235713484533
 21
-477.52489387516988
 31
0.0
  0
LINE
  5
BE73
  8
01
 10
765.35234317497384
 20
-479.52466665730509
 30
0.0
 11
765.05234317498594
 21
-479.52466386515118
 31
0.0
  0
LINE
  5
BE74
  8
01
 10
794.70235713484533
 20
-477.52489387516988
 30
0.0
 11
767.35234782852558
 21
-477.5246852716208
 31
0.0
  0
LINE
  5
BE75
  8
01
 10
765.35234317497384
 20
-479.52466665730509
 30
0.0
 11
767.35234782852558
 21
-477.5246852716208
 31
0.0
  0
LINE
  5
BE76
  8
01
 10
794.70238505638395
 20
-489.19224076783252
 30
0.0
 11
767.3524036716899
 21
-489.19244937112222
 31
0.0
  0
LINE
  5
BE77
  8
01
 10
795.05238261323927
 20
-488.8422380983273
 30
0.0
 11
794.70238505638395
 21
-489.19224076783252
 31
0.0
  0
LINE
  5
BE78
  8
01
 10
765.3523990180513
 20
-491.19246798561142
 30
0.0
 11
767.3524036716899
 21
-489.19244937112222
 31
0.0
  0
LINE
  5
BE79
  8
01
 10
795.05235957796981
 20
-485.54223809839692
 30
0.0
 11
795.05238261323927
 21
-488.8422380983273
 31
0.0
  0
LINE
  5
BE7A
  8
01
 10
765.3523990180513
 20
-491.19246798561142
 30
0.0
 11
765.05239901806351
 21
-491.19247077776521
 31
0.0
  0
LINE
  5
BE7B
  8
01
 10
795.05235957796981
 20
-485.54223809839692
 30
0.0
 11
794.70235713484533
 21
-485.19224076791983
 31
0.0
  0
LINE
  5
BE7C
  8
01
 10
765.05234317498594
 20
-483.19247077793841
 30
0.0
 11
765.05239901806351
 21
-491.19247077776521
 31
0.0
  0
LINE
  5
BE7D
  8
01
 10
794.70235713484533
 20
-485.19224076791983
 30
0.0
 11
767.35234782852558
 21
-485.1924493714688
 31
0.0
  0
LINE
  5
BE7E
  8
01
 10
765.35234317497384
 20
-483.1924679857845
 30
0.0
 11
765.05234317498594
 21
-483.19247077793841
 31
0.0
  0
LINE
  5
BE7F
  8
01
 10
765.35234317497384
 20
-483.1924679857845
 30
0.0
 11
767.35234782852558
 21
-485.1924493714688
 31
0.0
  0
LINE
  5
BE80
  8
01
 10
786.71083243235535
 20
-507.35656098365212
 30
0.0
 11
781.41083592249447
 21
-505.85656098365212
 31
0.0
  0
LINE
  5
BE81
  8
01
 10
781.41083592249447
 20
-505.85656098365212
 30
0.0
 11
771.71083592260197
 21
-505.85656098365251
 31
0.0
  0
LINE
  5
BE82
  8
01
 10
786.71083243235535
 20
-507.35656098365212
 30
0.0
 11
781.4108289421099
 21
-508.856560983652
 31
0.0
  0
LINE
  5
BE83
  8
01
 10
771.71084057630003
 20
-503.85651444775431
 30
0.0
 11
771.71083592260197
 21
-505.85656098365251
 31
0.0
  0
LINE
  5
BE84
  8
01
 10
781.4108289421099
 20
-508.856560983652
 30
0.0
 11
771.71082894221718
 21
-508.85656098365189
 31
0.0
  0
LINE
  5
BE85
  8
01
 10
771.71084057630003
 20
-503.85651444775431
 30
0.0
 11
770.61083708610477
 21
-503.85651444775419
 31
0.0
  0
LINE
  5
BE86
  8
01
 10
771.71082894221718
 20
-508.85656098365189
 30
0.0
 11
771.71082428873569
 21
-510.85651444775419
 31
0.0
  0
ARC
  5
BE87
  8
01
 10
770.61083708610477
 20
-505.35651444775408
 30
0.0
 40
1.5
 50
90.0
 51
179.99986668447059
  0
LINE
  5
BE88
  8
01
 10
771.71082428873569
 20
-510.85651444775419
 30
0.0
 11
770.61082777892511
 21
-510.85651444775419
 31
0.0
  0
LINE
  5
BE89
  8
01
 10
769.11083708610875
 20
-505.35651095756168
 30
0.0
 11
769.11082777892909
 21
-509.35651095756168
 31
0.0
  0
ARC
  5
BE8A
  8
01
 10
770.61082777892511
 20
-509.35651444775408
 30
0.0
 40
1.5
 50
179.99986668447059
 51
270.0
  0
LINE
  5
BE8B
  8
1DIM
 10
771.71084057630003
 20
-503.85651444775431
 30
0.0
 11
771.71084057630003
 21
-499.67643711418992
 31
0.0
  0
LINE
  5
BE8C
  8
1DIM
 10
786.71083243235535
 20
-507.35656098365212
 30
0.0
 11
786.71083243235535
 21
-499.67643711418992
 31
0.0
  0
LINE
  5
BE8D
  8
1DIM
 10
773.71084057630003
 20
-500.67643711418981
 30
0.0
 11
784.71083243235546
 21
-500.67643711418981
 31
0.0
  0
LINE
  5
BE91
  8
1DIM
 10
794.70235713484533
 20
-477.52489387516988
 30
0.0
 11
802.56093837026788
 21
-477.52489387516988
 31
0.0
  0
LINE
  5
BE92
  8
1DIM
 10
794.70235713484533
 20
-473.5248938750442
 30
0.0
 11
802.56093837026788
 21
-473.5248938750442
 31
0.0
  0
LINE
  5
BE93
  8
1DIM
 10
801.56093837026776
 20
-479.52489387516988
 30
0.0
 11
801.56093837026776
 21
-481.52489387516988
 31
0.0
  0
LINE
  5
BE94
  8
1DIM
 10
801.56093837026776
 20
-471.52489387504409
 30
0.0
 11
801.56093837026776
 21
-465.62489387504422
 31
0.0
  0
LINE
  5
BE95
  8
1DIM
 10
801.56093837026776
 20
-477.52489387516988
 30
0.0
 11
801.56093837026776
 21
-473.5248938750442
 31
0.0
  0
TEXT
  5
BE99
  8
1DIM
 10
702.83983554197243
 20
-551.50418163304096
 30
0.0
 40
3.5
  1
材質：真鍮
  0
TEXT
  5
BE9A
  8
1DIM
 10
686.03983554197237
 20
-557.33751496637444
 30
0.0
 40
3.5
  1
仕上げ：各種仕上げ
  0
SOLID
  5
BE9B
  8
1DIM
 10
735.90295222443694
 20
-572.67066795422534
 30
0.0
 11
736.74705943734239
 21
-574.51419558467524
 31
0.0
 12
735.35067878823202
 22
-573.04408259789454
 32
0.0
 13
735.35067878823202
 23
-573.04408259789454
 33
0.0
  0
TEXT
  5
BE9D
  8
1DIM
 10
602.88755422440033
 20
-627.77571004718652
 30
0.0
 40
3.5
  1
材質：ポリアセタール
  0
SOLID
  5
BE9E
  8
1DIM
 10
649.64127198471499
 20
-599.43912322841209
 30
0.0
 11
650.23064789854686
 21
-597.49908530525045
 31
0.0
 12
650.30233163081243
 22
-599.52540525867335
 32
0.0
 13
650.30233163081243
 23
-599.52540525867335
 33
0.0
  0
LINE
  5
BEA0
  8
1DIM
 10
698.26684845460863
 20
-617.98979234910507
 30
0.0
 11
698.26684845460863
 21
-630.22491356529997
 31
0.0
  0
LINE
  5
BEA1
  8
1DIM
 10
724.76684845461091
 20
-614.98979234910871
 30
0.0
 11
724.76684845461091
 21
-630.22491356529997
 31
0.0
  0
LINE
  5
BEA2
  8
1DIM
 10
700.26684845460863
 20
-629.22491356529997
 30
0.0
 11
722.76684845461091
 21
-629.22491356529997
 31
0.0
  0
LINE
  5
BEA6
  8
1DIM
 10
655.78118809245279
 20
-573.48979234910462
 30
0.0
 11
655.78118809245279
 21
-559.98439536532226
 31
0.0
  0
LINE
  5
BEA7
  8
1DIM
 10
664.28118809245279
 20
-573.98979234910462
 30
0.0
 11
664.28118809245279
 21
-559.98439536532226
 31
0.0
  0
LINE
  5
BEA8
  8
1DIM
 10
657.78118809245291
 20
-560.98439536532226
 30
0.0
 11
662.28118809245291
 21
-560.98439536532226
 31
0.0
  0
LINE
  5
BEA9
  8
1DIM
 10
664.28118809245279
 20
-560.98439536532226
 30
0.0
 11
675.01452142578626
 21
-560.98439536532226
 31
0.0
  0
LINE
  5
BEAD
  8
1DIM
 10
655.78118809245279
 20
-573.48979234910462
 30
0.0
 11
655.78118809245279
 21
-553.3357243747007
 31
0.0
  0
LINE
  5
BEAE
  8
1DIM
 10
664.88119035233069
 20
-586.73979274688031
 30
0.0
 11
664.88119035233069
 21
-553.3357243747007
 31
0.0
  0
LINE
  5
BEAF
  8
1DIM
 10
657.78118809245291
 20
-554.33572437470082
 30
0.0
 11
662.88119035233058
 21
-554.33572437470082
 31
0.0
  0
LINE
  5
BEB3
  8
1DIM
 10
615.78118809245302
 20
-573.48979234910462
 30
0.0
 11
615.78118809245302
 21
-559.98439536532226
 31
0.0
  0
LINE
  5
BEB4
  8
1DIM
 10
607.28118809245302
 20
-573.98979234910462
 30
0.0
 11
607.28118809245302
 21
-559.98439536532226
 31
0.0
  0
LINE
  5
BEB5
  8
1DIM
 10
613.78118809245302
 20
-560.98439536532226
 30
0.0
 11
609.28118809245291
 21
-560.98439536532226
 31
0.0
  0
LINE
  5
BEB6
  8
1DIM
 10
607.28118809245302
 20
-560.98439536532226
 30
0.0
 11
596.54785475911956
 21
-560.98439536532226
 31
0.0
  0
LINE
  5
BEBA
  8
1DIM
 10
615.78118809245302
 20
-573.48979234910462
 30
0.0
 11
615.78118809245302
 21
-553.3357243747007
 31
0.0
  0
LINE
  5
BEBB
  8
1DIM
 10
606.68118583257524
 20
-586.73979274688031
 30
0.0
 11
606.68118583257524
 21
-553.3357243747007
 31
0.0
  0
LINE
  5
BEBC
  8
1DIM
 10
613.78118809245302
 20
-554.33572437470082
 30
0.0
 11
608.68118583257524
 21
-554.33572437470082
 31
0.0
  0
LINE
  5
BEC0
  8
1DIM
 10
567.30571396849837
 20
-573.9897923491128
 30
0.0
 11
567.30571396849837
 21
-559.75616562153289
 31
0.0
  0
LINE
  5
BEC1
  8
1DIM
 10
467.30571396849842
 20
-573.98979234911235
 30
0.0
 11
467.30571396849842
 21
-559.75616562153289
 31
0.0
  0
LINE
  5
BEC2
  8
1DIM
 10
565.30571396849837
 20
-560.756165621533
 30
0.0
 11
469.30571396849842
 21
-560.756165621533
 31
0.0
  0
LINE
  5
BEC6
  8
1DIM
 10
765.05239901806351
 20
-471.52466386532438
 30
0.0
 11
765.05239901806351
 21
-460.22099711593103
 31
0.0
  0
LINE
  5
BEC7
  8
1DIM
 10
795.05238261323927
 20
-473.87489654476229
 30
0.0
 11
795.05238261323927
 21
-460.22099711593103
 31
0.0
  0
LINE
  5
BEC8
  8
1DIM
 10
767.05239901806351
 20
-461.22099711593103
 30
0.0
 11
793.05238261323916
 21
-461.22099711593103
 31
0.0
  0
LINE
  5
BECC
  8
1DIM
 10
566.80571396849837
 20
-573.48979234911235
 30
0.0
 11
583.4597819429041
 21
-573.48979234911235
 31
0.0
  0
LINE
  5
BECD
  8
1DIM
 10
566.80571396849837
 20
-618.4897923491128
 30
0.0
 11
583.4597819429041
 21
-618.4897923491128
 31
0.0
  0
LINE
  5
BECE
  8
1DIM
 10
582.45978194290399
 20
-575.48979234911235
 30
0.0
 11
582.45978194290399
 21
-616.48979234911269
 31
0.0
  0
TEXT
  5
BED2
  8
1DIM
 10
581.75978194290417
 20
-598.90645901577909
 30
0.0
 40
3.5
  1
45
 50
90.0
  0
LINE
  5
BED3
  8
0
  6
BYBLOCK
 10
582.99568032290415
 20
-616.48979234911269
 30
0.0
 11
582.45978194290399
 21
-618.4897923491128
 31
0.0
  0
LINE
  5
BED4
  8
0
  6
BYBLOCK
 10
582.45978194290399
 20
-618.4897923491128
 30
0.0
 11
581.92388356290405
 21
-616.48979234911269
 31
0.0
  0
LINE
  5
BED5
  8
0
  6
BYBLOCK
 10
582.45978194290399
 20
-618.4897923491128
 30
0.0
 11
582.45978194290399
 21
-616.48979234911269
 31
0.0
  0
LINE
  5
BED6
  8
0
  6
BYBLOCK
 10
581.92388356290405
 20
-575.48979234911235
 30
0.0
 11
582.45978194290399
 21
-573.48979234911235
 31
0.0
  0
LINE
  5
BED7
  8
0
  6
BYBLOCK
 10
582.45978194290399
 20
-573.48979234911235
 30
0.0
 11
582.99568032290415
 21
-575.48979234911235
 31
0.0
  0
LINE
  5
BED8
  8
0
  6
BYBLOCK
 10
582.45978194290399
 20
-573.48979234911235
 30
0.0
 11
582.45978194290399
 21
-575.48979234911235
 31
0.0
  0
TEXT
  5
BED9
  8
1DIM
 10
777.42739081565139
 20
-460.52099711593098
 30
0.0
 40
3.5
  1
30
  0
LINE
  5
BEDA
  8
0
  6
BYBLOCK
 10
793.05238261323916
 20
-460.68509873593098
 30
0.0
 11
795.05238261323927
 21
-461.22099711593103
 31
0.0
  0
LINE
  5
BEDB
  8
0
  6
BYBLOCK
 10
795.05238261323927
 20
-461.22099711593103
 30
0.0
 11
793.05238261323916
 21
-461.75689549593102
 31
0.0
  0
LINE
  5
BEDC
  8
0
  6
BYBLOCK
 10
795.05238261323927
 20
-461.22099711593103
 30
0.0
 11
793.05238261323916
 21
-461.22099711593103
 31
0.0
  0
LINE
  5
BEDD
  8
0
  6
BYBLOCK
 10
767.05239901806351
 20
-461.75689549593102
 30
0.0
 11
765.05239901806351
 21
-461.22099711593103
 31
0.0
  0
LINE
  5
BEDE
  8
0
  6
BYBLOCK
 10
765.05239901806351
 20
-461.22099711593103
 30
0.0
 11
767.05239901806351
 21
-460.68509873593098
 31
0.0
  0
LINE
  5
BEDF
  8
0
  6
BYBLOCK
 10
765.05239901806351
 20
-461.22099711593103
 30
0.0
 11
767.05239901806351
 21
-461.22099711593103
 31
0.0
  0
TEXT
  5
BEE0
  8
1DIM
 10
513.80571396849848
 20
-560.05616562153295
 30
0.0
 40
3.5
  1
100
  0
LINE
  5
BEE1
  8
0
  6
BYBLOCK
 10
469.30571396849842
 20
-561.29206400153305
 30
0.0
 11
467.30571396849842
 21
-560.756165621533
 31
0.0
  0
LINE
  5
BEE2
  8
0
  6
BYBLOCK
 10
467.30571396849842
 20
-560.756165621533
 30
0.0
 11
469.30571396849842
 21
-560.22026724153295
 31
0.0
  0
LINE
  5
BEE3
  8
0
  6
BYBLOCK
 10
467.30571396849842
 20
-560.756165621533
 30
0.0
 11
469.30571396849842
 21
-560.756165621533
 31
0.0
  0
LINE
  5
BEE4
  8
0
  6
BYBLOCK
 10
565.30571396849837
 20
-560.22026724153295
 30
0.0
 11
567.30571396849837
 21
-560.756165621533
 31
0.0
  0
LINE
  5
BEE5
  8
0
  6
BYBLOCK
 10
567.30571396849837
 20
-560.756165621533
 30
0.0
 11
565.30571396849837
 21
-561.29206400153305
 31
0.0
  0
LINE
  5
BEE6
  8
0
  6
BYBLOCK
 10
567.30571396849837
 20
-560.756165621533
 30
0.0
 11
565.30571396849837
 21
-560.756165621533
 31
0.0
  0
TEXT
  5
BEE7
  8
1DIM
 10
608.31452029584739
 20
-553.63572437470077
 30
0.0
 40
3.5
  1
9.1
  0
LINE
  5
BEE8
  8
0
  6
BYBLOCK
 10
608.68118583257524
 20
-554.87162275470075
 30
0.0
 11
606.68118583257524
 21
-554.33572437470082
 31
0.0
  0
LINE
  5
BEE9
  8
0
  6
BYBLOCK
 10
606.68118583257524
 20
-554.33572437470082
 30
0.0
 11
608.68118583257524
 21
-553.79982599470065
 31
0.0
  0
LINE
  5
BEEA
  8
0
  6
BYBLOCK
 10
606.68118583257524
 20
-554.33572437470082
 30
0.0
 11
608.68118583257524
 21
-554.33572437470082
 31
0.0
  0
LINE
  5
BEEB
  8
0
  6
BYBLOCK
 10
613.78118809245302
 20
-553.79982599470065
 30
0.0
 11
615.78118809245302
 21
-554.33572437470082
 31
0.0
  0
LINE
  5
BEEC
  8
0
  6
BYBLOCK
 10
615.78118809245302
 20
-554.33572437470082
 30
0.0
 11
613.78118809245302
 21
-554.87162275470075
 31
0.0
  0
LINE
  5
BEED
  8
0
  6
BYBLOCK
 10
615.78118809245302
 20
-554.33572437470082
 30
0.0
 11
613.78118809245302
 21
-554.33572437470082
 31
0.0
  0
TEXT
  5
BEEE
  8
1DIM
 10
597.41452142578635
 20
-560.28439536532233
 30
0.0
 40
3.5
  1
8.5
  0
LINE
  5
BEEF
  8
0
  6
BYBLOCK
 10
609.28118809245291
 20
-561.52029374532242
 30
0.0
 11
607.28118809245302
 21
-560.98439536532226
 31
0.0
  0
LINE
  5
BEF0
  8
0
  6
BYBLOCK
 10
607.28118809245302
 20
-560.98439536532226
 30
0.0
 11
609.28118809245291
 21
-560.44849698532232
 31
0.0
  0
LINE
  5
BEF1
  8
0
  6
BYBLOCK
 10
607.28118809245302
 20
-560.98439536532226
 30
0.0
 11
609.28118809245291
 21
-560.98439536532226
 31
0.0
  0
LINE
  5
BEF2
  8
0
  6
BYBLOCK
 10
613.78118809245302
 20
-560.44849698532232
 30
0.0
 11
615.78118809245302
 21
-560.98439536532226
 31
0.0
  0
LINE
  5
BEF3
  8
0
  6
BYBLOCK
 10
615.78118809245302
 20
-560.98439536532226
 30
0.0
 11
613.78118809245302
 21
-561.52029374532242
 31
0.0
  0
LINE
  5
BEF4
  8
0
  6
BYBLOCK
 10
615.78118809245302
 20
-560.98439536532226
 30
0.0
 11
613.78118809245302
 21
-560.98439536532226
 31
0.0
  0
TEXT
  5
BEF5
  8
1DIM
 10
657.41452255572506
 20
-553.63572437470077
 30
0.0
 40
3.5
  1
9.1
  0
LINE
  5
BEF6
  8
0
  6
BYBLOCK
 10
662.88119035233058
 20
-553.79982599470065
 30
0.0
 11
664.88119035233069
 21
-554.33572437470082
 31
0.0
  0
LINE
  5
BEF7
  8
0
  6
BYBLOCK
 10
664.88119035233069
 20
-554.33572437470082
 30
0.0
 11
662.88119035233058
 21
-554.87162275470075
 31
0.0
  0
LINE
  5
BEF8
  8
0
  6
BYBLOCK
 10
664.88119035233069
 20
-554.33572437470082
 30
0.0
 11
662.88119035233058
 21
-554.33572437470082
 31
0.0
  0
LINE
  5
BEF9
  8
0
  6
BYBLOCK
 10
657.78118809245291
 20
-554.87162275470075
 30
0.0
 11
655.78118809245279
 21
-554.33572437470082
 31
0.0
  0
LINE
  5
BEFA
  8
0
  6
BYBLOCK
 10
655.78118809245279
 20
-554.33572437470082
 30
0.0
 11
657.78118809245291
 21
-553.79982599470065
 31
0.0
  0
LINE
  5
BEFB
  8
0
  6
BYBLOCK
 10
655.78118809245279
 20
-554.33572437470082
 30
0.0
 11
657.78118809245291
 21
-554.33572437470082
 31
0.0
  0
TEXT
  5
BEFC
  8
1DIM
 10
667.14785475911947
 20
-560.28439536532233
 30
0.0
 40
3.5
  1
8.5
  0
LINE
  5
BEFD
  8
0
  6
BYBLOCK
 10
662.28118809245291
 20
-560.44849698532232
 30
0.0
 11
664.28118809245279
 21
-560.98439536532226
 31
0.0
  0
LINE
  5
BEFE
  8
0
  6
BYBLOCK
 10
664.28118809245279
 20
-560.98439536532226
 30
0.0
 11
662.28118809245291
 21
-561.52029374532242
 31
0.0
  0
LINE
  5
BEFF
  8
0
  6
BYBLOCK
 10
664.28118809245279
 20
-560.98439536532226
 30
0.0
 11
662.28118809245291
 21
-560.98439536532226
 31
0.0
  0
LINE
  5
BF00
  8
0
  6
BYBLOCK
 10
657.78118809245291
 20
-561.52029374532242
 30
0.0
 11
655.78118809245279
 21
-560.98439536532226
 31
0.0
  0
LINE
  5
BF01
  8
0
  6
BYBLOCK
 10
655.78118809245279
 20
-560.98439536532226
 30
0.0
 11
657.78118809245291
 21
-560.44849698532232
 31
0.0
  0
LINE
  5
BF02
  8
0
  6
BYBLOCK
 10
655.78118809245279
 20
-560.98439536532226
 30
0.0
 11
657.78118809245291
 21
-560.98439536532226
 31
0.0
  0
TEXT
  5
BF03
  8
1DIM
 10
706.26684845460966
 20
-628.52491356530004
 30
0.0
 40
3.5
  1
26.5
  0
LINE
  5
BF04
  8
0
  6
BYBLOCK
 10
722.76684845461091
 20
-628.68901518530004
 30
0.0
 11
724.76684845461091
 21
-629.22491356529997
 31
0.0
  0
LINE
  5
BF05
  8
0
  6
BYBLOCK
 10
724.76684845461091
 20
-629.22491356529997
 30
0.0
 11
722.76684845461091
 21
-629.76081194530013
 31
0.0
  0
LINE
  5
BF06
  8
0
  6
BYBLOCK
 10
724.76684845461091
 20
-629.22491356529997
 30
0.0
 11
722.76684845461091
 21
-629.22491356529997
 31
0.0
  0
LINE
  5
BF07
  8
0
  6
BYBLOCK
 10
700.26684845460863
 20
-629.76081194530013
 30
0.0
 11
698.26684845460863
 21
-629.22491356529997
 31
0.0
  0
LINE
  5
BF08
  8
0
  6
BYBLOCK
 10
698.26684845460863
 20
-629.22491356529997
 30
0.0
 11
700.26684845460863
 21
-628.68901518530004
 31
0.0
  0
LINE
  5
BF09
  8
0
  6
BYBLOCK
 10
698.26684845460863
 20
-629.22491356529997
 30
0.0
 11
700.26684845460863
 21
-629.22491356529997
 31
0.0
  0
LINE
  5
BF0A
  8
1DIM
 10
649.97180180776365
 20
-599.48226424354266
 30
0.0
 11
646.1875542244004
 21
-628.47571004718645
 31
0.0
  0
LINE
  5
BF0B
  8
1DIM
 10
646.1875542244004
 20
-628.47571004718645
 30
0.0
 11
643.48755422440036
 21
-628.47571004718645
 31
0.0
  0
LINE
  5
BF0C
  8
1DIM
 10
735.62681550633454
 20
-572.85737527606
 30
0.0
 11
725.60650220863909
 21
-558.03751496637437
 31
0.0
  0
LINE
  5
BF0D
  8
1DIM
 10
725.60650220863909
 20
-558.03751496637437
 30
0.0
 11
722.90650220863915
 21
-558.03751496637437
 31
0.0
  0
TEXT
  5
BF0E
  8
1DIM
 10
800.86093837026795
 20
-468.74156054171078
 30
0.0
 40
3.5
  1
4
 50
90.0
  0
LINE
  5
BF0F
  8
0
  6
BYBLOCK
 10
802.09683675026781
 20
-471.52489387504409
 30
0.0
 11
801.56093837026776
 21
-473.5248938750442
 31
0.0
  0
LINE
  5
BF10
  8
0
  6
BYBLOCK
 10
801.56093837026776
 20
-473.5248938750442
 30
0.0
 11
801.02503999026794
 21
-471.52489387504409
 31
0.0
  0
LINE
  5
BF11
  8
0
  6
BYBLOCK
 10
801.56093837026776
 20
-473.5248938750442
 30
0.0
 11
801.56093837026776
 21
-471.52489387504409
 31
0.0
  0
LINE
  5
BF12
  8
0
  6
BYBLOCK
 10
801.02503999026794
 20
-479.52489387516988
 30
0.0
 11
801.56093837026776
 21
-477.52489387516988
 31
0.0
  0
LINE
  5
BF13
  8
0
  6
BYBLOCK
 10
801.56093837026776
 20
-477.52489387516988
 30
0.0
 11
802.09683675026781
 21
-479.52489387516988
 31
0.0
  0
LINE
  5
BF14
  8
0
  6
BYBLOCK
 10
801.56093837026776
 20
-477.52489387516988
 30
0.0
 11
801.56093837026776
 21
-479.52489387516988
 31
0.0
  0
TEXT
  5
BF15
  8
1DIM
 10
776.87750317099426
 20
-499.97643711418988
 30
0.0
 40
3.5
  1
15
  0
LINE
  5
BF16
  8
0
  6
BYBLOCK
 10
784.71083243235546
 20
-500.14053873418987
 30
0.0
 11
786.71083243235535
 21
-500.67643711418981
 31
0.0
  0
LINE
  5
BF17
  8
0
  6
BYBLOCK
 10
786.71083243235535
 20
-500.67643711418981
 30
0.0
 11
784.71083243235546
 21
-501.2123354941898
 31
0.0
  0
LINE
  5
BF18
  8
0
  6
BYBLOCK
 10
786.71083243235535
 20
-500.67643711418981
 30
0.0
 11
784.71083243235546
 21
-500.67643711418981
 31
0.0
  0
LINE
  5
BF19
  8
0
  6
BYBLOCK
 10
773.71084057630003
 20
-501.2123354941898
 30
0.0
 11
771.71084057630003
 21
-500.67643711418981
 31
0.0
  0
LINE
  5
BF1A
  8
0
  6
BYBLOCK
 10
771.71084057630003
 20
-500.67643711418981
 30
0.0
 11
773.71084057630003
 21
-500.14053873418987
 31
0.0
  0
LINE
  5
BF1B
  8
0
  6
BYBLOCK
 10
771.71084057630003
 20
-500.67643711418981
 30
0.0
 11
773.71084057630003
 21
-500.67643711418981
 31
0.0
  0
VIEWPORT
  5
20C3
 67
     1
  8
0
  6
CONTINUOUS
 10
-3.7619847205911578
 20
10.089000620492961
 30
0.0
 40
584.3348479014503
 41
268.66736303968571
 68
     1
 69
     1
1001
ACAD
1000
MVIEW
1002
{
1070
    16
1010
0.0
1020
0.0
1030
0.0
1010
0.0
1020
0.0
1030
1.0
1040
0.0
1040
268.66736303968571
1040
-3.7619847205911578
1040
10.089000620492961
1040
50.0
1040
0.0
1040
0.0
1070
     0
1070
   100
1070
     1
1070
     1
1070
     0
1070
     0
1070
     0
1070
     0
1040
0.0
1040
0.0
1040
0.0
1040
1.0
1040
1.0
1040
0.0
1040
0.0
1070
     0
1002
{
1002
}
1002
}
  0
ENDSEC
  0
EOF
