  0
SECTION
  2
HEADER
  9
$ACADVER
  1
AC1009
  9
$INSBASE
 10
0.0
 20
0.0
 30
0.0
  9
$EXTMIN
 10
733.93509195273396
 20
-245.59111365578249
 30
0.0
  9
$EXTMAX
 10
1024.8232539947919
 20
-59.560502765619269
 30
0.0
  9
$LIMMIN
 10
0.0
 20
0.0
  9
$LIMMAX
 10
12.0
 20
9.0
  9
$ORTHOMODE
 70
     0
  9
$REGENMODE
 70
     1
  9
$FILLMODE
 70
     1
  9
$QTEXTMODE
 70
     0
  9
$MIRRTEXT
 70
     1
  9
$DRAGMODE
 70
     2
  9
$LTSCALE
 40
0.5
  9
$OSMODE
 70
  2175
  9
$ATTMODE
 70
     1
  9
$TEXTSIZE
 40
4.0
  9
$TRACEWID
 40
0.05
  9
$TEXTSTYLE
  7
STANDARD
  9
$CLAYER
  8
1TEXT
  9
$CELTYPE
  6
BYLAYER
  9
$CECOLOR
 62
   256
  9
$DIMSCALE
 40
1.0
  9
$DIMASZ
 40
2.0
  9
$DIMEXO
 40
0.0
  9
$DIMDLI
 40
7.0
  9
$DIMRND
 40
0.0
  9
$DIMDLE
 40
0.0
  9
$DIMEXE
 40
1.0
  9
$DIMTP
 40
0.0
  9
$DIMTM
 40
0.0
  9
$DIMTXT
 40
3.5
  9
$DIMCEN
 40
0.0
  9
$DIMTSZ
 40
0.0
  9
$DIMTOL
 70
     0
  9
$DIMLIM
 70
     0
  9
$DIMTIH
 70
     0
  9
$DIMTOH
 70
     0
  9
$DIMSE1
 70
     0
  9
$DIMSE2
 70
     0
  9
$DIMTAD
 70
     1
  9
$DIMZIN
 70
     8
  9
$DIMBLK
  1

  9
$DIMASO
 70
     1
  9
$DIMSHO
 70
     1
  9
$DIMPOST
  1
 
  9
$DIMAPOST
  1

  9
$DIMALT
 70
     0
  9
$DIMALTD
 70
     2
  9
$DIMALTF
 40
25.399999999999999
  9
$DIMLFAC
 40
1.0
  9
$DIMTOFL
 70
     1
  9
$DIMTVP
 40
0.0
  9
$DIMTIX
 70
     0
  9
$DIMSOXD
 70
     0
  9
$DIMSAH
 70
     1
  9
$DIMBLK1
  1
OPEN30
  9
$DIMBLK2
  1
OPEN30
  9
$DIMSTYLE
  2
NEWX10
  9
$DIMCLRD
 70
   256
  9
$DIMCLRE
 70
   256
  9
$DIMCLRT
 70
   201
  9
$DIMTFAC
 40
0.7
  9
$DIMGAP
 40
0.7
  9
$LUNITS
 70
     2
  9
$LUPREC
 70
     4
  9
$SKETCHINC
 40
0.1
  9
$FILLETRAD
 40
0.0
  9
$AUNITS
 70
     0
  9
$AUPREC
 70
     2
  9
$MENU
  1
acad
  9
$ELEVATION
 40
0.0
  9
$PELEVATION
 40
0.0
  9
$THICKNESS
 40
0.0
  9
$LIMCHECK
 70
     0
  9
$BLIPMODE
 70
     0
  9
$CHAMFERA
 40
0.0
  9
$CHAMFERB
 40
0.0
  9
$SKPOLY
 70
     0
  9
$TDCREATE
 40
2448750.4870892358
  9
$TDUPDATE
 40
2455167.6049500811
  9
$TDINDWG
 40
0.1718885648
  9
$TDUSRTIMER
 40
0.1718885648
  9
$USRTIMER
 70
     1
  9
$ANGBASE
 50
0.0
  9
$ANGDIR
 70
     0
  9
$PDMODE
 70
     0
  9
$PDSIZE
 40
0.0
  9
$PLINEWID
 40
0.0
  9
$COORDS
 70
     2
  9
$SPLFRAME
 70
     0
  9
$SPLINETYPE
 70
     6
  9
$SPLINESEGS
 70
     8
  9
$ATTDIA
 70
     0
  9
$ATTREQ
 70
     1
  9
$HANDLING
 70
     1
  9
$HANDSEED
  5
21D1
  9
$SURFTAB1
 70
     6
  9
$SURFTAB2
 70
     6
  9
$SURFTYPE
 70
     6
  9
$SURFU
 70
     6
  9
$SURFV
 70
     6
  9
$UCSNAME
  2

  9
$UCSORG
 10
0.0
 20
0.0
 30
0.0
  9
$UCSXDIR
 10
1.0
 20
0.0
 30
0.0
  9
$UCSYDIR
 10
0.0
 20
1.0
 30
0.0
  9
$PUCSNAME
  2

  9
$PUCSORG
 10
0.0
 20
0.0
 30
0.0
  9
$PUCSXDIR
 10
1.0
 20
0.0
 30
0.0
  9
$PUCSYDIR
 10
0.0
 20
1.0
 30
0.0
  9
$USERI1
 70
     0
  9
$USERI2
 70
     0
  9
$USERI3
 70
     0
  9
$USERI4
 70
     0
  9
$USERI5
 70
     0
  9
$USERR1
 40
0.0
  9
$USERR2
 40
0.0
  9
$USERR3
 40
0.0
  9
$USERR4
 40
0.0
  9
$USERR5
 40
0.0
  9
$WORLDVIEW
 70
     1
  9
$SHADEDGE
 70
     3
  9
$SHADEDIF
 70
    70
  9
$TILEMODE
 70
     1
  9
$MAXACTVP
 70
    16
  9
$PLIMCHECK
 70
     0
  9
$PEXTMIN
 10
1.0000000000000000E+020
 20
1.0000000000000000E+020
 30
1.0000000000000000E+020
  9
$PEXTMAX
 10
-1.0000000000000000E+020
 20
-1.0000000000000000E+020
 30
-1.0000000000000000E+020
  9
$PLIMMIN
 10
0.0
 20
0.0
  9
$PLIMMAX
 10
12.0
 20
9.0
  9
$UNITMODE
 70
     0
  9
$VISRETAIN
 70
     0
  9
$PLINEGEN
 70
     0
  9
$PSLTSCALE
 70
     1
  0
ENDSEC
  0
SECTION
  2
TABLES
  0
TABLE
  2
VPORT
 70
     1
  0
VPORT
  2
*ACTIVE
 70
     0
 10
0.0
 20
0.0
 11
1.0
 21
1.0
 12
879.38611273800188
 22
-152.57849356160011
 13
0.0
 23
0.0
 14
1.0
 24
1.0
 15
0.0
 25
0.0
 16
0.0
 26
0.0
 36
1.0
 17
0.0
 27
0.0
 37
0.0
 40
217.99559921626999
 41
1.4123581336696081
 42
50.0
 43
0.0
 44
0.0
 50
0.0
 51
0.0
 71
     0
 72
   100
 73
     1
 74
     1
 75
     0
 76
     0
 77
     0
 78
     0
  0
ENDTAB
  0
TABLE
  2
LTYPE
 70
    13
  0
LTYPE
  2
CONTINUOUS
 70
     0
  3
Solid line
 72
    65
 73
     0
 40
0.0
  0
LTYPE
  2
CENTER2
 70
     0
  3
Center (.5x) ___ _ ___ _ ___ _ ___ _ ___ _ ___
 72
    65
 73
     4
 40
28.574999999999999
 49
19.050000000000001
 49
-3.1749999999999989
 49
3.1749999999999989
 49
-3.1749999999999989
  0
LTYPE
  2
XREF1|CENTER2
 70
    48
  3
Center (.5x) ___ _ ___ _ ___ _ ___ _ ___ _ ___
 72
    65
 73
     4
 40
28.574999999999999
 49
19.050000000000001
 49
-3.1749999999999989
 49
3.1749999999999989
 49
-3.1749999999999989
  0
ENDTAB
  0
TABLE
  2
LAYER
 70
    39
  0
LAYER
  2
0
 70
     0
 62
     7
  6
CONTINUOUS
  0
LAYER
  2
1CENTER
 70
     0
 62
     7
  6
CENTER2
  0
LAYER
  2
1DIM
 70
     0
 62
     7
  6
CONTINUOUS
  0
LAYER
  2
1TEXT
 70
     0
 62
     7
  6
CONTINUOUS
  0
LAYER
  2
1HATCH
 70
     0
 62
     7
  6
CONTINUOUS
  0
LAYER
  2
XREF1|1CENTER
 70
    48
 62
     7
  6
CONTINUOUS
  0
LAYER
  2
01
 70
     0
 62
     1
  6
CONTINUOUS
  0
ENDTAB
  0
TABLE
  2
STYLE
 70
    20
  0
STYLE
  2
STANDARD
 70
     0
 40
0.0
 41
1.0
 50
0.0
 71
     0
 42
4.0
  3
txt.shx
  4
extfont.shx
  0
ENDTAB
  0
TABLE
  2
VIEW
 70
     0
  0
ENDTAB
  0
TABLE
  2
UCS
 70
     0
  0
ENDTAB
  0
TABLE
  2
APPID
 70
     9
  0
APPID
  2
ACAD
 70
     0
  0
APPID
  2
CONTENTTABDATA
 70
     0
  0
APPID
  2
CONTENTCURRENTTAB
 70
     0
  0
APPID
  2
CONTENTBLOCKDESCRIPTION
 70
     0
  0
APPID
  2
CONTENTBLOCKICON
 70
     0
  0
APPID
  2
DRAWINGVARIABLESXDATA
 70
     0
  0
APPID
  2
CONTENTLONGBLOCKNAME
 70
     0
  0
APPID
  2
ACAD_PSEXT
 70
     0
  0
APPID
  2
ACAD_MLEADERVER
 70
     0
  0
ENDTAB
  0
TABLE
  2
DIMSTYLE
 70
     4
  0
DIMSTYLE
  2
NEWX10
 70
     0
  3
 
  4

  5

  6
OPEN30
  7
OPEN30
 40
1.0
 41
2.0
 42
0.0
 43
7.0
 44
1.0
 45
0.0
 46
0.0
 47
0.0
 48
0.0
140
3.5
141
0.0
142
0.0
143
25.399999999999999
144
1.0
145
0.0
146
0.7
147
0.7
 71
     0
 72
     0
 73
     0
 74
     0
 75
     0
 76
     0
 77
     1
 78
     8
170
     0
171
     2
172
     1
173
     1
174
     0
175
     0
176
   256
177
   256
178
   201
  0
ENDTAB
  0
ENDSEC
  0
SECTION
  2
BLOCKS
  0
BLOCK
  8
0
  2
$MODEL_SPACE
 70
     0
 10
0.0
 20
0.0
 30
0.0
  3
$MODEL_SPACE
  1

  0
ENDBLK
  5
1B
  8
0
  0
BLOCK
 67
     1
  8
0
  2
$PAPER_SPACE
 70
     0
 10
0.0
 20
0.0
 30
0.0
  3
$PAPER_SPACE
  1

  0
ENDBLK
  5
18
 67
     1
  8
0
  0
BLOCK
  8
0
  2
_OPEN30
 70
     0
 10
0.0
 20
0.0
 30
0.0
  3
_OPEN30
  1

  0
LINE
  5
398
  8
0
  6
BYBLOCK
 62
     0
 10
-1.0
 20
0.26794919
 30
0.0
 11
0.0
 21
0.0
 31
0.0
  0
LINE
  5
399
  8
0
  6
BYBLOCK
 62
     0
 10
0.0
 20
0.0
 30
0.0
 11
-1.0
 21
-0.26794919
 31
0.0
  0
LINE
  5
39A
  8
0
  6
BYBLOCK
 62
     0
 10
0.0
 20
0.0
 30
0.0
 11
-1.0
 21
0.0
 31
0.0
  0
ENDBLK
  5
39B
  8
0
  0
BLOCK
  8
0
  2
XREF1
 70
    36
 10
0.0
 20
0.0
 30
0.0
  3
XREF1
  1
D:\ACLT\FORMAT\KAWAJUN(9)図面用.dwg
  0
ENDBLK
  5
C8F
  8
0
  0
BLOCK
  8
0
  2
*U10
 70
     1
 10
0.0
 20
0.0
 30
0.0
  3
*U10
  1

  0
LINE
  5
21B1
  8
0
 10
-24.650013959859319
 20
-1.9997699899806769
 30
0.0
 11
-2.3000325751651469
 21
-1.999978593270384
 31
0.0
  0
LINE
  5
21B2
  8
0
 10
-0.3000279215265778
 20
-3.9999972077595198
 30
0.0
 11
-2.3000325751651469
 21
-1.999978593270384
 31
0.0
  0
LINE
  5
21B3
  8
0
 10
-25.000011516714508
 20
-1.649767320475461
 30
0.0
 11
-24.650013959859319
 21
-1.9997699899806769
 31
0.0
  0
LINE
  5
21B4
  8
0
 10
-0.3000279215265778
 20
-3.9999972077595198
 30
0.0
 11
-0.0000279215387877
 21
-3.9999999999133702
 31
0.0
  0
LINE
  5
21B5
  8
0
 10
-24.999988481445051
 20
1.650232679454916
 30
0.0
 11
-25.000011516714508
 21
-1.649767320475461
 31
0.0
  0
LINE
  5
21B6
  8
0
 10
0.0000279215387877
 20
3.9999999999134839
 30
0.0
 11
-0.0000279215387877
 21
-3.9999999999133702
 31
0.0
  0
LINE
  5
21B7
  8
0
 10
-24.999988481445051
 20
1.650232679454916
 30
0.0
 11
-24.649986038320591
 21
2.0002300099321242
 31
0.0
  0
LINE
  5
21B8
  8
0
 10
-0.299972078449116
 20
4.0000027920673338
 30
0.0
 11
0.0000279215387877
 21
3.9999999999134839
 31
0.0
  0
LINE
  5
21B9
  8
0
 10
-24.649986038320591
 20
2.0002300099321242
 30
0.0
 11
-2.299976732000899
 21
2.0000214063830981
 31
0.0
  0
LINE
  5
21BA
  8
0
 10
-0.299972078449116
 20
4.0000027920673338
 30
0.0
 11
-2.299976732000899
 21
2.0000214063830981
 31
0.0
  0
ENDBLK
  5
21BC
  8
0
  0
BLOCK
  8
0
  2
*U11
 70
     1
 10
0.0
 20
0.0
 30
0.0
  3
*U11
  1

  0
TEXT
  5
21BE
  8
1DIM
 62
   201
 10
873.70012735746684
 20
-243.8911136557825
 30
0.0
 40
3.5
  1
27
  0
ENDBLK
  5
21C0
  8
0
  0
BLOCK
  8
0
  2
*U12
 70
     1
 10
0.0
 20
0.0
 30
0.0
  3
*U12
  1

  0
TEXT
  5
21C2
  8
1DIM
 62
   201
 10
898.48346069080196
 20
-243.7970695116575
 30
0.0
 40
3.5
  1
5.5
  0
ENDBLK
  5
21C4
  8
0
  0
BLOCK
  8
0
  2
*U13
 70
     1
 10
0.0
 20
0.0
 30
0.0
  3
*U13
  1

  0
TEXT
  5
21C6
  8
1DIM
 62
   201
 10
852.79270870259586
 20
-193.91092390801941
 30
0.0
 40
3.5
  1
φ6
 50
90.0
  0
ENDBLK
  5
21C8
  8
0
  0
BLOCK
  8
0
  2
*U14
 70
     1
 10
0.0
 20
0.0
 30
0.0
  3
*U14
  1

  0
TEXT
  5
21CA
  8
1DIM
 62
   201
 10
914.45425917104023
 20
-204.52759057468609
 30
0.0
 40
3.5
  1
φ47
 50
90.0
  0
ENDBLK
  5
21CC
  8
0
  0
BLOCK
  8
0
  2
*U15
 70
     1
 10
0.0
 20
0.0
 30
0.0
  3
*U15
  1

  0
TEXT
  5
21CE
  8
1DIM
 62
   201
 10
1007.4450824496359
 20
-170.6605524123531
 30
0.0
 40
3.5
  1
25
  0
ENDBLK
  5
21D0
  8
0
  0
ENDSEC
  0
SECTION
  2
ENTITIES
  0
TEXT
  5
1459
  8
1TEXT
 10
749.46373134113765
 20
-67.560502765619276
 30
0.0
 40
8.0
  1
C47R-
  0
TEXT
  5
145A
  8
1TEXT
 10
740.6874729051151
 20
-90.062836752861614
 30
0.0
 40
4.0
  1
表面処理：
 72
     1
 11
751.33509195273405
 21
-90.062836752861614
 31
0.0
  0
TEXT
  5
145B
  8
1TEXT
 10
742.00175861940068
 20
-96.898125412386023
 30
0.0
 40
4.0
  1
クローム
 72
     1
 11
751.33509195273405
 21
-96.898125412386023
 31
0.0
  0
LINE
  5
145D
  8
1DIM
 10
733.93509195273396
 20
-84.562836752861614
 30
0.0
 11
803.93509195273396
 21
-84.562836752861614
 31
0.0
  0
LINE
  5
145E
  8
1DIM
 10
733.93509195273396
 20
-98.562836752861614
 30
0.0
 11
803.93509195273396
 21
-98.562836752861614
 31
0.0
  0
LINE
  5
145F
  8
1DIM
 10
733.93509195273396
 20
-91.562836752861614
 30
0.0
 11
803.93509195273396
 21
-91.562836752861614
 31
0.0
  0
LINE
  5
1460
  8
1DIM
 10
733.93509195273396
 20
-105.5628367528616
 30
0.0
 11
803.93509195273396
 21
-105.5628367528616
 31
0.0
  0
LINE
  5
1461
  8
1DIM
 10
733.93509195273396
 20
-105.5628367528616
 30
0.0
 11
803.93509195273396
 21
-105.5628367528616
 31
0.0
  0
LINE
  5
1462
  8
1DIM
 10
768.93509195273396
 20
-84.562836752861614
 30
0.0
 11
768.93509195273396
 21
-119.5628367528616
 31
0.0
  0
TEXT
  5
1464
  8
1TEXT
 10
779.53509195273421
 20
-90.062836752861614
 30
0.0
 40
4.0
  1
コード
 72
     1
 11
786.33509195273405
 21
-90.062836752861614
 31
0.0
  0
LINE
  5
1465
  8
1DIM
 10
733.93509195273396
 20
-119.5628367528616
 30
0.0
 11
733.93509195273396
 21
-84.562836752861614
 31
0.0
  0
LINE
  5
1466
  8
1DIM
 10
803.93509195273396
 20
-119.5628367528616
 30
0.0
 11
803.93509195273396
 21
-84.562836752861614
 31
0.0
  0
TEXT
  5
1467
  8
1TEXT
 10
734.9350919527343
 20
-103.89812541238599
 30
0.0
 40
4.0
  1
パールクローム
 72
     1
 11
751.33509195273427
 21
-103.89812541238599
 31
0.0
  0
LINE
  5
1468
  8
1DIM
 10
733.93509195273396
 20
-112.5628367528616
 30
0.0
 11
803.93509195273396
 21
-112.5628367528616
 31
0.0
  0
LINE
  5
1469
  8
1DIM
 10
733.93509195273396
 20
-112.5628367528616
 30
0.0
 11
803.93509195273396
 21
-112.5628367528616
 31
0.0
  0
TEXT
  5
146A
  8
1TEXT
 10
734.93509195273407
 20
-117.89812541238599
 30
0.0
 40
4.0
  1
ダークアンバー
 72
     1
 11
751.33509195273405
 21
-117.89812541238599
 31
0.0
  0
LINE
  5
146B
  8
1DIM
 10
733.93509195273396
 20
-119.5628367528616
 30
0.0
 11
803.93509195273396
 21
-119.5628367528616
 31
0.0
  0
LINE
  5
146C
  8
1DIM
 10
733.93509195273396
 20
-119.5628367528616
 30
0.0
 11
803.93509195273396
 21
-119.5628367528616
 31
0.0
  0
TEXT
  5
146D
  8
1TEXT
 10
735.06842528606762
 20
-110.89812541238599
 30
0.0
 40
4.0
  1
サテンニッケル
 72
     1
 11
751.33509195273427
 21
-110.89812541238599
 31
0.0
  0
TEXT
  5
1473
  8
1TEXT
 10
777.00175861940124
 20
-97.277193736511009
 30
0.0
 40
4.0
  1
C47RC
 72
     1
 11
786.33509195273462
 21
-97.277193736511009
 31
0.0
  0
TEXT
  5
1474
  8
1TEXT
 10
777.00175861940124
 20
-104.27719373651099
 30
0.0
 40
4.0
  1
C47RB
 72
     1
 11
786.33509195273473
 21
-104.27719373651099
 31
0.0
  0
TEXT
  5
1475
  8
1TEXT
 10
775.00175861940124
 20
-118.27719373651099
 30
0.0
 40
4.0
  1
C47R4Q
 72
     1
 11
786.33509195273462
 21
-118.27719373651099
 31
0.0
  0
TEXT
  5
1476
  8
1TEXT
 10
777.00175861940124
 20
-111.27719373651099
 30
0.0
 40
4.0
  1
C47RN
 72
     1
 11
786.33509195273473
 21
-111.27719373651099
 31
0.0
  0
LINE
  5
1D8E
  8
1HATCH
 10
926.79043181304951
 20
-137.49688084362961
 30
0.0
 11
928.79043181304587
 21
-137.49688084362961
 31
0.0
  0
LINE
  5
1D8F
  8
1HATCH
 10
926.79043181304974
 20
-142.99688084362961
 30
0.0
 11
926.79043181304951
 21
-137.49688084362961
 31
0.0
  0
LINE
  5
1D90
  8
01
 10
926.79043181304951
 20
-137.49688084362961
 30
0.0
 11
926.79043181304974
 21
-142.99688084362961
 31
0.0
  0
LINE
  5
1D91
  8
01
 10
973.79043181304962
 20
-137.496880843626
 30
0.0
 11
926.79043181304951
 21
-137.49688084362961
 31
0.0
  0
LINE
  5
1D92
  8
01
 10
926.79043181304974
 20
-142.99688084362961
 30
0.0
 11
973.79043181304985
 21
-142.99688084362961
 31
0.0
  0
LINE
  5
1D93
  8
01
 10
973.79043181304962
 20
-137.496880843626
 30
0.0
 11
973.79043181304985
 21
-142.99688084362961
 31
0.0
  0
LINE
  5
1D94
  8
01
 10
930.29043181304962
 20
-110.4968808436296
 30
0.0
 11
936.29043181304962
 21
-110.4968808436296
 31
0.0
  0
LINE
  5
1D95
  8
01
 10
970.29043181304962
 20
-110.4968808436296
 30
0.0
 11
964.29043181304951
 21
-110.4968808436296
 31
0.0
  0
LINE
  5
1D96
  8
1CENTER
 10
933.29043181304974
 20
-139.53963349352301
 30
0.0
 11
933.29043181304974
 21
-109.0659008436286
 31
0.0
  0
LINE
  5
1D97
  8
1CENTER
 10
967.29043181304974
 20
-139.00747909211159
 30
0.0
 11
967.29043181304974
 21
-109.0659008436286
 31
0.0
  0
LINE
  5
1D98
  8
01
 10
936.29043181304962
 20
-110.4968808436296
 30
0.0
 11
936.29043181304962
 21
-137.4968808436289
 31
0.0
  0
LINE
  5
1D99
  8
01
 10
930.29043181304962
 20
-110.4968808436296
 30
0.0
 11
930.29043181304962
 21
-137.49688084362941
 31
0.0
  0
LINE
  5
1D9A
  8
01
 10
964.29043181304951
 20
-110.4968808436296
 30
0.0
 11
964.29043181304951
 21
-137.4968808436268
 31
0.0
  0
LINE
  5
1D9B
  8
01
 10
970.29043181304962
 20
-110.4968808436296
 30
0.0
 11
970.29043181304962
 21
-137.49688084362629
 31
0.0
  0
LINE
  5
1D9C
  8
1CENTER
 10
950.29043181304974
 20
-145.95898064893819
 30
0.0
 11
950.29043181304974
 21
-126.23894958310549
 31
0.0
  0
LINE
  5
1D9D
  8
1HATCH
 10
890.11679402413517
 20
-175.66092390801961
 30
0.0
 11
890.11679402413517
 21
-177.66092390801589
 31
0.0
  0
LINE
  5
1D9E
  8
1HATCH
 10
895.61679402413529
 20
-175.66092390801961
 30
0.0
 11
890.11679402413517
 21
-175.66092390801961
 31
0.0
  0
LINE
  5
1D9F
  8
01
 10
890.11679402413517
 20
-175.66092390801961
 30
0.0
 11
895.61679402413529
 21
-175.66092390801961
 31
0.0
  0
LINE
  5
1DA0
  8
01
 10
890.11679402413165
 20
-222.66092390801961
 30
0.0
 11
890.11679402413517
 21
-175.66092390801961
 31
0.0
  0
LINE
  5
1DA1
  8
01
 10
895.61679402413529
 20
-175.66092390801961
 30
0.0
 11
895.61679402413529
 21
-222.66092390801961
 31
0.0
  0
LINE
  5
1DA2
  8
01
 10
890.11679402413165
 20
-222.66092390801961
 30
0.0
 11
895.61679402413529
 21
-222.66092390801961
 31
0.0
  0
LINE
  5
1DA3
  8
01
 10
863.1167940241354
 20
-196.1609239080195
 30
0.0
 11
863.1167940241354
 21
-202.16092390801961
 31
0.0
  0
LINE
  5
1DA5
  8
1CENTER
 10
892.15954667402866
 20
-199.16092390801961
 30
0.0
 11
861.6858140241344
 21
-199.16092390801961
 31
0.0
  0
LINE
  5
1DA7
  8
01
 10
863.1167940241354
 20
-202.16092390801961
 30
0.0
 11
890.11679402413472
 21
-202.16092390801961
 31
0.0
  0
LINE
  5
1DA8
  8
01
 10
863.1167940241354
 20
-196.1609239080195
 30
0.0
 11
890.11679402413517
 21
-196.1609239080195
 31
0.0
  0
LINE
  5
1DAB
  8
1CENTER
 10
898.57889382944381
 20
-199.16092390801961
 30
0.0
 11
878.85886276361123
 21
-199.16092390801961
 31
0.0
  0
LINE
  5
1DAC
  8
1HATCH
 10
836.41699414795448
 20
-175.66092390801961
 30
0.0
 11
836.41699414795448
 21
-177.66092390801589
 31
0.0
  0
LINE
  5
1DAD
  8
1HATCH
 10
830.91699414795448
 20
-175.66092390801961
 30
0.0
 11
836.41699414795448
 21
-175.66092390801961
 31
0.0
  0
LINE
  5
1DAE
  8
01
 10
836.41699414795448
 20
-175.66092390801961
 30
0.0
 11
830.91699414795448
 21
-175.66092390801961
 31
0.0
  0
LINE
  5
1DAF
  8
01
 10
836.41699414795801
 20
-222.66092390801961
 30
0.0
 11
836.41699414795448
 21
-175.66092390801961
 31
0.0
  0
LINE
  5
1DB0
  8
01
 10
830.91699414795448
 20
-175.66092390801961
 30
0.0
 11
830.91699414795448
 21
-222.66092390801961
 31
0.0
  0
LINE
  5
1DB1
  8
01
 10
836.41699414795801
 20
-222.66092390801961
 30
0.0
 11
830.91699414795448
 21
-222.66092390801961
 31
0.0
  0
LINE
  5
1DB2
  8
1CENTER
 10
824.79228891704349
 20
-199.16092390801961
 30
0.0
 11
840.9697719082659
 21
-199.16092390801961
 31
0.0
  0
CIRCLE
  5
1DDD
  8
01
 10
776.24335635904004
 20
-199.16092390801961
 30
0.0
 40
23.5
  0
CIRCLE
  5
1DDE
  8
01
 10
776.24335635904004
 20
-199.16092390801961
 30
0.0
 40
8.0999999999949068
  0
CIRCLE
  5
1DE1
  8
01
 10
776.24335635904004
 20
-199.16092390801961
 30
0.0
 40
19.5
  0
LINE
  5
1DF0
  8
1CENTER
 10
776.24335635904004
 20
-205.16092390801961
 30
0.0
 11
776.24335635904004
 21
-193.1609239080195
 31
0.0
  0
LINE
  5
1DF1
  8
1CENTER
 10
770.24335635904004
 20
-199.16092390801961
 30
0.0
 11
782.24335635904004
 21
-199.16092390801961
 31
0.0
  0
CIRCLE
  5
1E01
  8
01
 10
950.4536470655413
 20
-199.16092390801961
 30
0.0
 40
8.0999999999949068
  0
CIRCLE
  5
1E02
  8
01
 10
950.4536470655413
 20
-199.16092390801961
 30
0.0
 40
23.5
  0
ARC
  5
1E03
  8
01
 10
933.4536470655413
 20
-199.16092390801961
 30
0.0
 40
4.0999999999999988
 50
113.3228058703878
 51
246.67719412961219
  0
ARC
  5
1E04
  8
01
 10
950.4536470655413
 20
-199.16092390801961
 30
0.0
 40
19.5
 50
190.23978775571399
 51
349.76021224428598
  0
ARC
  5
1E05
  8
01
 10
967.45364706554506
 20
-199.16092390801961
 30
0.0
 40
4.0999999999999988
 50
293.32280587032727
 51
66.677194129672699
  0
ARC
  5
1E06
  8
01
 10
950.4536470655413
 20
-199.16092390801961
 30
0.0
 40
19.5
 50
10.23978775571398
 51
169.76021224428601
  0
LINE
  5
1E07
  8
1CENTER
 10
950.4536470655413
 20
-205.16092390801961
 30
0.0
 11
950.4536470655413
 21
-193.1609239080195
 31
0.0
  0
LINE
  5
1E08
  8
1CENTER
 10
944.45364706554119
 20
-199.16092390801961
 30
0.0
 11
956.4536470655413
 21
-199.16092390801961
 31
0.0
  0
TEXT
  5
1F4A
  8
1TEXT
 10
1004.948914932374
 20
-215.1377939905619
 30
0.0
 40
2.7999999999999989
  1
付属ネジ
  0
LINE
  5
1F96
  8
01
 10
895.61679402413893
 20
-180.1609239080305
 30
0.0
 11
895.61679402413165
 21
-218.1609239080087
 31
0.0
  0
LINE
  5
1F99
  8
01
 10
895.61679402413529
 20
-180.16092390802689
 30
0.0
 11
898.11679402413165
 21
-180.16092390802319
 31
0.0
  0
LINE
  5
1F9A
  8
01
 10
895.61679402413893
 20
-218.16092390801231
 30
0.0
 11
898.1167940241279
 21
-218.160923908016
 31
0.0
  0
LINE
  5
1F9B
  8
01
 10
898.11679402413893
 20
-180.1609239080305
 30
0.0
 11
898.11679402413165
 21
-218.1609239080087
 31
0.0
  0
CIRCLE
  5
1FA7
  8
01
 10
950.4536470655413
 20
-199.16092390801961
 30
0.0
 40
19.0
  0
LINE
  5
1FAA
  8
01
 10
949.95364706554119
 20
-194.00406965852989
 30
0.0
 11
945.29679281604433
 21
-198.66092390801961
 31
0.0
  0
LINE
  5
1FAB
  8
01
 10
955.61050131504192
 20
-199.66092390801961
 30
0.0
 11
950.9536470655413
 21
-204.31777815752019
 31
0.0
  0
LINE
  5
1FAC
  8
01
 10
950.9536470655413
 20
-194.00406965854441
 30
0.0
 11
955.61050131501645
 21
-198.66092390801961
 31
0.0
  0
LINE
  5
1FAD
  8
01
 10
949.95364706554119
 20
-204.317778157502
 30
0.0
 11
945.29679281605161
 21
-199.66092390801961
 31
0.0
  0
ARC
  5
1FAF
  8
01
 10
945.29679281604433
 20
-199.16092390801961
 30
0.0
 40
0.5
 50
90.0
 51
270.00000000083378
  0
ARC
  5
1FB0
  8
01
 10
950.4536470655413
 20
-204.31777815752019
 30
0.0
 40
0.5
 50
179.99999999791561
 51
0.0000000004168817
  0
ARC
  5
1FB1
  8
01
 10
950.4536470655413
 20
-194.00406965852619
 30
0.0
 40
0.5
 50
359.99999999791561
 51
180.00000000083369
  0
ARC
  5
1FB2
  8
01
 10
955.61050131503475
 20
-199.16092390801961
 30
0.0
 40
0.5
 50
270.00000000041689
 51
90.000000002084406
  0
LINE
  5
1FBB
  8
01
 10
955.153628222507
 20
-205.6347309119507
 30
0.0
 11
955.15362822251427
 21
-207.41684502331799
 31
0.0
  0
LINE
  5
1FBC
  8
01
 10
945.75362822248746
 20
-205.6347035516944
 30
0.0
 11
945.75362822248746
 21
-207.41681674503221
 31
0.0
  0
LINE
  5
1FBD
  8
01
 10
959.83448156558472
 20
-197.66090506498099
 30
0.0
 11
958.31176029140715
 21
-197.66090506497741
 31
0.0
  0
LINE
  5
1FBE
  8
01
 10
942.59553383968273
 20
-197.66090506497369
 30
0.0
 11
941.07282455236896
 21
-197.66090506497741
 31
0.0
  0
LINE
  5
1FBF
  8
01
 10
959.83448759160922
 20
-200.66090506497741
 30
0.0
 11
958.31176748513212
 21
-200.66090506497369
 31
0.0
  0
LINE
  5
1FC0
  8
01
 10
942.59552664596151
 20
-200.6609050649883
 30
0.0
 11
941.07281852634435
 21
-200.66090506497741
 31
0.0
  0
LINE
  5
1FC1
  8
01
 10
951.9536527522115
 20
-189.78009233932849
 30
0.0
 11
951.95365182913622
 21
-191.30280799457489
 31
0.0
  0
LINE
  5
1FC2
  8
01
 10
951.95364230194627
 20
-207.019041640068
 30
0.0
 11
951.95364137886736
 21
-208.54175729530721
 31
0.0
  0
LINE
  5
1FC3
  8
01
 10
948.95365275221877
 20
-189.7800924374302
 30
0.0
 11
948.9536518291435
 21
-191.30280617597111
 31
0.0
  0
LINE
  5
1FC4
  8
01
 10
948.95364230194639
 20
-207.01903982146419
 30
0.0
 11
948.95364137886747
 21
-208.54175355999419
 31
0.0
  0
ARC
  5
1FC5
  8
01
 10
950.45365305897667
 20
-199.16092390801961
 30
0.0
 40
9.499999999992724
 50
189.08460519874191
 51
260.91520837340909
  0
ARC
  5
1FC6
  8
01
 10
950.45365305897667
 20
-199.16092390801961
 30
0.0
 40
9.499999999992724
 50
279.08464894813659
 51
350.91539480125812
  0
ARC
  5
1FC7
  8
01
 10
950.45365305897667
 20
-199.16092390801961
 30
0.0
 40
9.499999999992724
 50
99.084722161099194
 51
170.91516462397999
  0
CIRCLE
  5
1FC8
  8
01
 10
950.4536470655413
 20
-199.16092390801961
 30
0.0
 40
8.0
  0
LINE
  5
1FC9
  8
01
 10
903.11679402413881
 20
-189.78007139509521
 30
0.0
 11
903.11679402413881
 21
-197.66091791459141
 31
0.0
  0
LINE
  5
1FCA
  8
01
 10
902.61679402413893
 20
-194.46090506496941
 30
0.0
 11
902.61679402413893
 21
-197.66091791459141
 31
0.0
  0
LINE
  5
1FCC
  8
01
 10
903.11679402413154
 20
-200.66091791459141
 30
0.0
 11
903.11679402413154
 21
-208.5417644340875
 31
0.0
  0
LINE
  5
1FCD
  8
01
 10
902.61679402413165
 20
-200.66091791459141
 30
0.0
 11
902.61679402413165
 21
-203.860905064989
 31
0.0
  0
LINE
  5
1FCF
  8
01
 10
900.11679402413529
 20
-194.46090506497299
 30
0.0
 11
900.11679402412801
 21
-197.66091791458771
 31
0.0
  0
LINE
  5
1FD0
  8
01
 10
900.11679402412801
 20
-200.66091791459141
 30
0.0
 11
900.11679402412801
 21
-203.86090506499269
 31
0.0
  0
LINE
  5
1FD1
  8
01
 10
898.11679402413517
 20
-208.54176443407289
 30
0.0
 11
903.11679402413154
 21
-208.5417644340875
 31
0.0
  0
LINE
  5
1FD2
  8
01
 10
903.11679402413529
 20
-194.46090506496941
 30
0.0
 11
900.11679402413529
 21
-194.46090506497299
 31
0.0
  0
LINE
  5
1FD3
  8
01
 10
903.11679402413529
 20
-203.860905064989
 30
0.0
 11
900.11679402412801
 21
-203.86090506499269
 31
0.0
  0
LINE
  5
1FD4
  8
01
 10
903.11679402413529
 20
-197.66091791459141
 30
0.0
 11
898.11679402413517
 21
-197.66091791459141
 31
0.0
  0
LINE
  5
1FD5
  8
01
 10
903.11679402413881
 20
-200.66091791459141
 30
0.0
 11
898.11679402413517
 21
-200.66091791459141
 31
0.0
  0
LINE
  5
1FD6
  8
01
 10
898.11679402413517
 20
-197.66091791459141
 30
0.0
 11
898.11679402413517
 21
-200.66091791459141
 31
0.0
  0
LINE
  5
1FD7
  8
01
 10
898.11679402413165
 20
-189.78007139510609
 30
0.0
 11
903.11679402413881
 21
-189.78007139509521
 31
0.0
  0
ARC
  5
1FDA
  8
01
 10
950.45365305897667
 20
-199.16092390801961
 30
0.0
 40
9.499999999992724
 50
9.0848353760199991
 51
80.915277838907315
  0
LINE
  5
1FDB
  8
01
 10
830.91699414795085
 20
-180.1609239080305
 30
0.0
 11
830.91699414795812
 21
-218.1609239080087
 31
0.0
  0
LINE
  5
1FDC
  8
01
 10
830.91699414795448
 20
-180.16092390802689
 30
0.0
 11
828.41699414795801
 21
-180.16092390802319
 31
0.0
  0
LINE
  5
1FDD
  8
01
 10
830.91699414795085
 20
-218.16092390801231
 30
0.0
 11
828.41699414796176
 21
-218.160923908016
 31
0.0
  0
LINE
  5
1FDE
  8
01
 10
828.41699414795085
 20
-180.1609239080305
 30
0.0
 11
828.41699414795801
 21
-218.1609239080087
 31
0.0
  0
LINE
  5
1FDF
  8
01
 10
823.41699414795085
 20
-189.78007139509521
 30
0.0
 11
823.41699414795085
 21
-197.66091791459141
 31
0.0
  0
LINE
  5
1FE0
  8
01
 10
823.91699414795085
 20
-194.46090506496941
 30
0.0
 11
823.91699414795085
 21
-197.66091791459141
 31
0.0
  0
LINE
  5
1FE1
  8
01
 10
823.41699414795812
 20
-200.66091791459141
 30
0.0
 11
823.41699414795812
 21
-208.5417644340875
 31
0.0
  0
LINE
  5
1FE2
  8
01
 10
823.91699414795801
 20
-200.66091791459141
 30
0.0
 11
823.91699414795801
 21
-203.860905064989
 31
0.0
  0
LINE
  5
1FE3
  8
01
 10
826.41699414795448
 20
-194.46090506497299
 30
0.0
 11
826.41699414796176
 21
-197.66091791458771
 31
0.0
  0
LINE
  5
1FE4
  8
01
 10
826.41699414796176
 20
-200.66091791459141
 30
0.0
 11
826.41699414796176
 21
-203.86090506499269
 31
0.0
  0
LINE
  5
1FE5
  8
01
 10
828.41699414795448
 20
-208.54176443407289
 30
0.0
 11
823.41699414795812
 21
-208.5417644340875
 31
0.0
  0
LINE
  5
1FE6
  8
01
 10
823.41699414795437
 20
-194.46090506496941
 30
0.0
 11
826.41699414795448
 21
-194.46090506497299
 31
0.0
  0
LINE
  5
1FE7
  8
01
 10
823.41699414795437
 20
-203.860905064989
 30
0.0
 11
826.41699414796176
 21
-203.86090506499269
 31
0.0
  0
LINE
  5
1FE8
  8
01
 10
823.41699414795437
 20
-197.66091791459141
 30
0.0
 11
828.41699414795448
 21
-197.66091791459141
 31
0.0
  0
LINE
  5
1FE9
  8
01
 10
823.41699414795085
 20
-200.66091791459141
 30
0.0
 11
828.41699414795448
 21
-200.66091791459141
 31
0.0
  0
LINE
  5
1FEA
  8
01
 10
828.41699414795448
 20
-197.66091791459141
 30
0.0
 11
828.41699414795448
 21
-200.66091791459141
 31
0.0
  0
LINE
  5
1FEB
  8
01
 10
828.41699414795801
 20
-189.78007139510609
 30
0.0
 11
823.41699414795085
 21
-189.78007139509521
 31
0.0
  0
CIRCLE
  5
2015
  8
01
 10
776.24335036560456
 20
-199.16092390801961
 30
0.0
 40
19.0
  0
LINE
  5
2016
  8
01
 10
775.74335036560456
 20
-194.00406965852989
 30
0.0
 11
771.08649611610758
 21
-198.66092390801961
 31
0.0
  0
LINE
  5
2017
  8
01
 10
781.40020461510517
 20
-199.66092390801961
 30
0.0
 11
776.74335036560456
 21
-204.31777815752019
 31
0.0
  0
LINE
  5
2018
  8
01
 10
776.74335036560456
 20
-194.00406965854441
 30
0.0
 11
781.4002046150797
 21
-198.66092390801961
 31
0.0
  0
LINE
  5
2019
  8
01
 10
775.74335036560456
 20
-204.317778157502
 30
0.0
 11
771.08649611611474
 21
-199.66092390801961
 31
0.0
  0
ARC
  5
201A
  8
01
 10
771.08649611610758
 20
-199.16092390801961
 30
0.0
 40
0.5
 50
90.0
 51
270.00000000083378
  0
ARC
  5
201B
  8
01
 10
776.24335036560456
 20
-204.31777815752019
 30
0.0
 40
0.5
 50
179.99999999791561
 51
0.0000000004168817
  0
ARC
  5
201C
  8
01
 10
776.24335036560456
 20
-194.00406965852619
 30
0.0
 40
0.5
 50
359.99999999791561
 51
180.00000000083369
  0
ARC
  5
201D
  8
01
 10
781.40020461509789
 20
-199.16092390801961
 30
0.0
 40
0.5
 50
270.00000000041689
 51
90.000000002084406
  0
LINE
  5
201E
  8
01
 10
780.94333152257025
 20
-205.6347309119507
 30
0.0
 11
780.94333152257764
 21
-207.41684502331799
 31
0.0
  0
LINE
  5
201F
  8
01
 10
771.54333152255072
 20
-205.6347035516944
 30
0.0
 11
771.54333152255072
 21
-207.41681674503221
 31
0.0
  0
LINE
  5
2020
  8
01
 10
785.62418486564798
 20
-197.66090506498099
 30
0.0
 11
784.10146359147052
 21
-197.66090506497741
 31
0.0
  0
LINE
  5
2021
  8
01
 10
768.38523713974575
 20
-197.66090506497369
 30
0.0
 11
766.86252785243209
 21
-197.66090506497741
 31
0.0
  0
LINE
  5
2022
  8
01
 10
785.62419089167236
 20
-200.66090506497741
 30
0.0
 11
784.10147078519515
 21
-200.66090506497369
 31
0.0
  0
LINE
  5
2023
  8
01
 10
768.38522994602465
 20
-200.6609050649883
 30
0.0
 11
766.86252182640749
 21
-200.66090506497741
 31
0.0
  0
LINE
  5
2024
  8
01
 10
777.74335605227475
 20
-189.78009233932849
 30
0.0
 11
777.74335512919936
 21
-191.30280799457489
 31
0.0
  0
LINE
  5
2025
  8
01
 10
777.74334560200964
 20
-207.019041640068
 30
0.0
 11
777.74334467893073
 21
-208.54175729530721
 31
0.0
  0
LINE
  5
2026
  8
01
 10
774.74335605228202
 20
-189.7800924374302
 30
0.0
 11
774.74335512920675
 21
-191.30280617597111
 31
0.0
  0
LINE
  5
2027
  8
01
 10
774.74334560200964
 20
-207.01903982146419
 30
0.0
 11
774.74334467893073
 21
-208.54175355999419
 31
0.0
  0
ARC
  5
2028
  8
01
 10
776.24335635904004
 20
-199.16092390801961
 30
0.0
 40
9.499999999992724
 50
189.084605198742
 51
260.91520837340909
  0
ARC
  5
2029
  8
01
 10
776.24335635904004
 20
-199.16092390801961
 30
0.0
 40
9.499999999992724
 50
279.0846489481367
 51
350.91539480125789
  0
ARC
  5
202A
  8
01
 10
776.24335635904004
 20
-199.16092390801961
 30
0.0
 40
9.499999999992724
 50
99.084722161099108
 51
170.9151646239801
  0
CIRCLE
  5
202B
  8
01
 10
776.24335036560456
 20
-199.16092390801961
 30
0.0
 40
8.0
  0
ARC
  5
202C
  8
01
 10
776.24335635904004
 20
-199.16092390801961
 30
0.0
 40
9.499999999992724
 50
9.0848353760198748
 51
80.9152778389075
  0
TEXT
  5
206E
  8
1TEXT
 10
734.14779983032372
 20
-82.892351343749709
 30
0.0
 40
4.0
  1
材質：亜鉛ダイキャスト・POM
 11
734.14779983032372
 21
-80.892351343749709
 31
0.0
 73
     2
  0
LINE
  5
212C
  8
1HATCH
 10
1022.8617795386861
 20
-202.7265439226199
 30
0.0
 11
1000.511802225901
 21
-202.72675193787259
 31
0.0
  0
LINE
  5
212D
  8
1HATCH
 10
1022.861758132173
 20
-199.42654392267619
 30
0.0
 11
1000.511746382722
 21
-199.42675193824931
 31
0.0
  0
LINE
  5
212E
  8
1CENTER
 10
1024.8232539947919
 20
-201.07652566675341
 30
0.0
 11
995.92201759291288
 21
-201.07679465575089
 31
0.0
  0
LINE
  5
212F
  8
1HATCH
 10
1022.51175487467
 20
-199.0765465922056
 30
0.0
 11
1022.511782796209
 21
-203.0765465921184
 31
0.0
  0
LINE
  5
2130
  8
01
 10
998.16174091479866
 20
-197.07677381007039
 30
0.0
 11
998.16179675787612
 21
-205.0767738098973
 31
0.0
  0
LINE
  5
2131
  8
1HATCH
 10
1000.511746382722
 20
-199.42675193824931
 30
0.0
 11
1000.1617455683501
 21
-199.0767551957546
 31
0.0
  0
LINE
  5
2132
  8
1HATCH
 10
1000.511802225901
 20
-202.72675193787259
 30
0.0
 11
1000.1618014115149
 21
-203.07675519540811
 31
0.0
  0
LINE
  5
2136
  8
1HATCH
 10
1022.8617795386861
 20
-188.3211198900255
 30
0.0
 11
1000.511802225901
 21
-188.3213279052782
 31
0.0
  0
LINE
  5
2137
  8
1HATCH
 10
1022.861758132173
 20
-185.02111989008179
 30
0.0
 11
1000.511746382722
 21
-185.02132790565491
 31
0.0
  0
LINE
  5
2138
  8
1CENTER
 10
1024.8232539947919
 20
-186.67110163415899
 30
0.0
 11
995.92201759291288
 21
-186.67137062315649
 31
0.0
  0
LINE
  5
2139
  8
1HATCH
 10
1022.51175487467
 20
-184.67112255961121
 30
0.0
 11
1022.511782796209
 21
-188.67112255952401
 31
0.0
  0
LINE
  5
213A
  8
01
 10
998.16174091479866
 20
-182.671349777476
 30
0.0
 11
998.16179675787612
 21
-190.67134977730279
 31
0.0
  0
LINE
  5
213B
  8
1HATCH
 10
1000.511746382722
 20
-185.02132790565491
 30
0.0
 11
1000.1617455683501
 21
-184.6713311631602
 31
0.0
  0
LINE
  5
213C
  8
1HATCH
 10
1000.511802225901
 20
-188.3213279052782
 30
0.0
 11
1000.1618014115149
 21
-188.67133116281369
 31
0.0
  0
LINE
  5
213D
  8
01
 10
1022.511782796209
 20
-188.67112255952401
 30
0.0
 11
1000.1618014115149
 21
-188.67133116281369
 31
0.0
  0
LINE
  5
213E
  8
01
 10
1022.861780353064
 20
-188.32111989001879
 30
0.0
 11
1022.511782796209
 21
-188.67112255952401
 31
0.0
  0
LINE
  5
213F
  8
01
 10
998.16179675787612
 20
-190.67134977730279
 30
0.0
 11
1000.1618014115149
 21
-188.67133116281369
 31
0.0
  0
LINE
  5
2140
  8
01
 10
1022.8617573177939
 20
-185.02111989008841
 30
0.0
 11
1022.861780353064
 21
-188.32111989001879
 31
0.0
  0
LINE
  5
2141
  8
01
 10
998.16179675787612
 20
-190.67134977730279
 30
0.0
 11
997.86179675788844
 21
-190.6713525694567
 31
0.0
  0
LINE
  5
2142
  8
01
 10
1022.8617573177939
 20
-185.02111989008841
 30
0.0
 11
1022.51175487467
 21
-184.67112255961121
 31
0.0
  0
LINE
  5
2143
  8
01
 10
997.86174091481075
 20
-182.67135256962979
 30
0.0
 11
997.86179675788844
 21
-190.6713525694567
 31
0.0
  0
LINE
  5
2144
  8
01
 10
1022.51175487467
 20
-184.67112255961121
 30
0.0
 11
1000.1617455683501
 21
-184.6713311631602
 31
0.0
  0
LINE
  5
2145
  8
01
 10
998.16174091479866
 20
-182.671349777476
 30
0.0
 11
997.86174091481075
 21
-182.67135256962979
 31
0.0
  0
LINE
  5
2146
  8
01
 10
998.16174091479866
 20
-182.671349777476
 30
0.0
 11
1000.1617455683501
 21
-184.6713311631602
 31
0.0
  0
LINE
  5
2147
  8
01
 10
1022.511782796209
 20
-203.0765465921184
 30
0.0
 11
1000.1618014115149
 21
-203.07675519540811
 31
0.0
  0
LINE
  5
2148
  8
01
 10
1022.861780353064
 20
-202.72654392261319
 30
0.0
 11
1022.511782796209
 21
-203.0765465921184
 31
0.0
  0
LINE
  5
2149
  8
01
 10
998.16179675787612
 20
-205.0767738098973
 30
0.0
 11
1000.1618014115149
 21
-203.07675519540811
 31
0.0
  0
LINE
  5
214A
  8
01
 10
1022.8617573177939
 20
-199.42654392268281
 30
0.0
 11
1022.861780353064
 21
-202.72654392261319
 31
0.0
  0
LINE
  5
214B
  8
01
 10
998.16179675787612
 20
-205.0767738098973
 30
0.0
 11
997.86179675788844
 21
-205.0767766020511
 31
0.0
  0
LINE
  5
214C
  8
01
 10
1022.8617573177939
 20
-199.42654392268281
 30
0.0
 11
1022.51175487467
 21
-199.0765465922056
 31
0.0
  0
LINE
  5
214D
  8
01
 10
997.86174091481075
 20
-197.07677660222419
 30
0.0
 11
997.86179675788844
 21
-205.0767766020511
 31
0.0
  0
LINE
  5
214E
  8
01
 10
1022.51175487467
 20
-199.0765465922056
 30
0.0
 11
1000.1617455683501
 21
-199.0767551957546
 31
0.0
  0
LINE
  5
214F
  8
01
 10
998.16174091479866
 20
-197.07677381007039
 30
0.0
 11
997.86174091481075
 21
-197.07677660222419
 31
0.0
  0
LINE
  5
2150
  8
01
 10
998.16174091479866
 20
-197.07677381007039
 30
0.0
 11
1000.1617455683501
 21
-199.0767551957546
 31
0.0
  0
TEXT
  5
2151
  8
1DIM
 10
912.99845585383321
 20
-165.60448613016899
 30
0.0
 40
3.5
  1
材質：POM
  0
SOLID
  5
2152
  8
1DIM
 10
901.68747563670229
 20
-188.0582258748457
 30
0.0
 11
900.61679402413517
 21
-189.78007139510069
 31
0.0
 12
901.07116456999427
 22
-187.80405051510809
 32
0.0
 13
901.07116456999427
 23
-187.80405051510809
 33
0.0
  0
TEXT
  5
2154
  8
1TEXT
 10
846.23650646183205
 20
-165.60448613016899
 30
0.0
 40
3.5
  1
材質：亜鉛ダイキャスト
  0
SOLID
  5
2155
  8
1DIM
 10
836.38533828487482
 20
-173.87210326271
 30
0.0
 11
834.73103352069984
 21
-175.04444572903071
 31
0.0
 12
835.91569722746408
 22
-173.3989418508867
 32
0.0
 13
835.91569722746408
 23
-173.3989418508867
 33
0.0
  0
LINE
  5
2157
  8
1DIM
 10
997.86174091481075
 20
-182.67135256962979
 30
0.0
 11
997.86174091481075
 21
-170.36055241235309
 31
0.0
  0
LINE
  5
2158
  8
1DIM
 10
1022.8617573177939
 20
-185.0211198900893
 30
0.0
 11
1022.8617573177939
 21
-170.36055241235309
 31
0.0
  0
LINE
  5
2159
  8
1DIM
 10
999.86174091481075
 20
-171.36055241235309
 30
0.0
 11
1020.8617573177939
 21
-171.36055241235309
 31
0.0
  0
LINE
  5
215D
  8
1DIM
 10
863.1167940241354
 20
-202.16092390801961
 30
0.0
 11
852.49270870259591
 21
-202.16092390801961
 31
0.0
  0
LINE
  5
215E
  8
1DIM
 10
863.1167940241354
 20
-196.1609239080195
 30
0.0
 11
852.49270870259591
 21
-196.1609239080195
 31
0.0
  0
LINE
  5
215F
  8
1DIM
 10
853.49270870259613
 20
-200.16092390801961
 30
0.0
 11
853.49270870259613
 21
-198.16092390801961
 31
0.0
  0
LINE
  5
2160
  8
1DIM
 10
853.49270870259613
 20
-196.1609239080195
 30
0.0
 11
853.49270870259613
 21
-186.42759057468629
 31
0.0
  0
LINE
  5
2164
  8
1DIM
 10
890.11679402413165
 20
-222.66092390801961
 30
0.0
 11
890.11679402413165
 21
-245.49706951165749
 31
0.0
  0
LINE
  5
2165
  8
1DIM
 10
895.61679402413529
 20
-222.66092390801961
 30
0.0
 11
895.61679402413529
 21
-245.49706951165749
 31
0.0
  0
LINE
  5
2166
  8
1DIM
 10
892.11679402413165
 20
-244.49706951165749
 30
0.0
 11
893.61679402413517
 21
-244.49706951165749
 31
0.0
  0
LINE
  5
2167
  8
1DIM
 10
895.61679402413529
 20
-244.49706951165749
 30
0.0
 11
906.35012735746864
 21
-244.49706951165749
 31
0.0
  0
LINE
  5
216B
  8
1DIM
 10
863.1167940241354
 20
-202.16092390801961
 30
0.0
 11
863.1167940241354
 21
-245.59111365578249
 31
0.0
  0
LINE
  5
216C
  8
1DIM
 10
890.11679402413165
 20
-222.66092390801961
 30
0.0
 11
890.11679402413165
 21
-245.59111365578249
 31
0.0
  0
LINE
  5
216D
  8
1DIM
 10
865.1167940241354
 20
-244.59111365578249
 30
0.0
 11
888.11679402413165
 21
-244.59111365578249
 31
0.0
  0
LINE
  5
2171
  8
1DIM
 10
895.61679402413529
 20
-222.66092390801961
 30
0.0
 11
916.15425917104039
 21
-222.66092390801961
 31
0.0
  0
LINE
  5
2172
  8
1DIM
 10
895.61679402413529
 20
-175.66092390801961
 30
0.0
 11
916.15425917104039
 21
-175.66092390801961
 31
0.0
  0
LINE
  5
2173
  8
1DIM
 10
915.15425917104039
 20
-220.66092390801961
 30
0.0
 11
915.15425917104039
 21
-177.66092390801961
 31
0.0
  0
TEXT
  5
2177
  8
1DIM
 10
914.45425917104023
 20
-204.52759057468609
 30
0.0
 40
3.5
  1
φ47
 50
90.0
  0
LINE
  5
2178
  8
0
  6
BYBLOCK
 10
914.61836079104035
 20
-177.66092390801961
 30
0.0
 11
915.15425917104039
 21
-175.66092390801961
 31
0.0
  0
LINE
  5
2179
  8
0
  6
BYBLOCK
 10
915.15425917104039
 20
-175.66092390801961
 30
0.0
 11
915.69015755104056
 21
-177.66092390801961
 31
0.0
  0
LINE
  5
217A
  8
0
  6
BYBLOCK
 10
915.15425917104039
 20
-175.66092390801961
 30
0.0
 11
915.15425917104039
 21
-177.66092390801961
 31
0.0
  0
LINE
  5
217B
  8
0
  6
BYBLOCK
 10
915.69015755104056
 20
-220.66092390801961
 30
0.0
 11
915.15425917104039
 21
-222.66092390801961
 31
0.0
  0
LINE
  5
217C
  8
0
  6
BYBLOCK
 10
915.15425917104039
 20
-222.66092390801961
 30
0.0
 11
914.61836079104035
 21
-220.66092390801961
 31
0.0
  0
LINE
  5
217D
  8
0
  6
BYBLOCK
 10
915.15425917104039
 20
-222.66092390801961
 30
0.0
 11
915.15425917104039
 21
-220.66092390801961
 31
0.0
  0
TEXT
  5
217E
  8
1DIM
 10
873.70012735746684
 20
-243.8911136557825
 30
0.0
 40
3.5
  1
27
  0
LINE
  5
217F
  8
0
  6
BYBLOCK
 10
888.11679402413165
 20
-244.0552152757825
 30
0.0
 11
890.11679402413165
 21
-244.59111365578249
 31
0.0
  0
LINE
  5
2180
  8
0
  6
BYBLOCK
 10
890.11679402413165
 20
-244.59111365578249
 30
0.0
 11
888.11679402413165
 21
-245.12701203578251
 31
0.0
  0
LINE
  5
2181
  8
0
  6
BYBLOCK
 10
890.11679402413165
 20
-244.59111365578249
 30
0.0
 11
888.11679402413165
 21
-244.59111365578249
 31
0.0
  0
LINE
  5
2182
  8
0
  6
BYBLOCK
 10
865.1167940241354
 20
-245.12701203578251
 30
0.0
 11
863.1167940241354
 21
-244.59111365578249
 31
0.0
  0
LINE
  5
2183
  8
0
  6
BYBLOCK
 10
863.1167940241354
 20
-244.59111365578249
 30
0.0
 11
865.1167940241354
 21
-244.0552152757825
 31
0.0
  0
LINE
  5
2184
  8
0
  6
BYBLOCK
 10
863.1167940241354
 20
-244.59111365578249
 30
0.0
 11
865.1167940241354
 21
-244.59111365578249
 31
0.0
  0
TEXT
  5
2185
  8
1DIM
 10
898.48346069080196
 20
-243.7970695116575
 30
0.0
 40
3.5
  1
5.5
  0
LINE
  5
2186
  8
0
  6
BYBLOCK
 10
893.61679402413517
 20
-243.96117113165749
 30
0.0
 11
895.61679402413529
 21
-244.49706951165749
 31
0.0
  0
LINE
  5
2187
  8
0
  6
BYBLOCK
 10
895.61679402413529
 20
-244.49706951165749
 30
0.0
 11
893.61679402413517
 21
-245.03296789165751
 31
0.0
  0
LINE
  5
2188
  8
0
  6
BYBLOCK
 10
895.61679402413529
 20
-244.49706951165749
 30
0.0
 11
893.61679402413517
 21
-244.49706951165749
 31
0.0
  0
LINE
  5
2189
  8
0
  6
BYBLOCK
 10
892.11679402413165
 20
-245.03296789165751
 30
0.0
 11
890.11679402413165
 21
-244.49706951165749
 31
0.0
  0
LINE
  5
218A
  8
0
  6
BYBLOCK
 10
890.11679402413165
 20
-244.49706951165749
 30
0.0
 11
892.11679402413165
 21
-243.96117113165749
 31
0.0
  0
LINE
  5
218B
  8
0
  6
BYBLOCK
 10
890.11679402413165
 20
-244.49706951165749
 30
0.0
 11
892.11679402413165
 21
-244.49706951165749
 31
0.0
  0
TEXT
  5
218C
  8
1DIM
 10
852.79270870259586
 20
-193.91092390801941
 30
0.0
 40
3.5
  1
φ6
 50
90.0
  0
LINE
  5
218D
  8
0
  6
BYBLOCK
 10
852.95681032259597
 20
-198.16092390801961
 30
0.0
 11
853.49270870259613
 21
-196.1609239080195
 31
0.0
  0
LINE
  5
218E
  8
0
  6
BYBLOCK
 10
853.49270870259613
 20
-196.1609239080195
 30
0.0
 11
854.02860708259595
 21
-198.16092390801961
 31
0.0
  0
LINE
  5
218F
  8
0
  6
BYBLOCK
 10
853.49270870259613
 20
-196.1609239080195
 30
0.0
 11
853.49270870259613
 21
-198.16092390801961
 31
0.0
  0
LINE
  5
2190
  8
0
  6
BYBLOCK
 10
854.02860708259595
 20
-200.16092390801961
 30
0.0
 11
853.49270870259613
 21
-202.16092390801961
 31
0.0
  0
LINE
  5
2191
  8
0
  6
BYBLOCK
 10
853.49270870259613
 20
-202.16092390801961
 30
0.0
 11
852.95681032259597
 21
-200.16092390801961
 31
0.0
  0
LINE
  5
2192
  8
0
  6
BYBLOCK
 10
853.49270870259613
 20
-202.16092390801961
 30
0.0
 11
853.49270870259613
 21
-200.16092390801961
 31
0.0
  0
TEXT
  5
2193
  8
1DIM
 10
1007.4450824496359
 20
-170.6605524123531
 30
0.0
 40
3.5
  1
25
  0
LINE
  5
2194
  8
0
  6
BYBLOCK
 10
1020.8617573177939
 20
-170.8246540323531
 30
0.0
 11
1022.8617573177939
 21
-171.36055241235309
 31
0.0
  0
LINE
  5
2195
  8
0
  6
BYBLOCK
 10
1022.8617573177939
 20
-171.36055241235309
 30
0.0
 11
1020.8617573177939
 21
-171.89645079235311
 31
0.0
  0
LINE
  5
2196
  8
0
  6
BYBLOCK
 10
1022.8617573177939
 20
-171.36055241235309
 30
0.0
 11
1020.8617573177939
 21
-171.36055241235309
 31
0.0
  0
LINE
  5
2197
  8
0
  6
BYBLOCK
 10
999.86174091481075
 20
-171.89645079235311
 30
0.0
 11
997.86174091481075
 21
-171.36055241235309
 31
0.0
  0
LINE
  5
2198
  8
0
  6
BYBLOCK
 10
997.86174091481075
 20
-171.36055241235309
 30
0.0
 11
999.86174091481075
 21
-170.8246540323531
 31
0.0
  0
LINE
  5
2199
  8
0
  6
BYBLOCK
 10
997.86174091481075
 20
-171.36055241235309
 30
0.0
 11
999.86174091481075
 21
-171.36055241235309
 31
0.0
  0
LINE
  5
219A
  8
1DIM
 10
836.15051775616939
 20
-173.63552255679841
 30
0.0
 11
843.536506461832
 21
-166.30448613016901
 31
0.0
  0
LINE
  5
219B
  8
1DIM
 10
843.536506461832
 20
-166.30448613016901
 30
0.0
 11
891.50317312849847
 21
-166.30448613016901
 31
0.0
  0
LINE
  5
219C
  8
1DIM
 10
901.37932010334816
 20
-187.93113819497691
 30
0.0
 11
910.29845585383305
 21
-166.30448613016901
 31
0.0
  0
LINE
  5
219D
  8
1DIM
 10
910.29845585383305
 20
-166.30448613016901
 30
0.0
 11
936.09845585383323
 21
-166.30448613016901
 31
0.0
  0
VIEWPORT
  5
2FC
 67
     1
  8
0
 10
207.00910380451629
 20
143.92593286797
 30
0.0
 40
403.26284828472552
 41
285.52449883016732
 68
     1
 69
     1
1001
ACAD
1000
MVIEW
1002
{
1070
    16
1010
0.0
1020
0.0
1030
0.0
1010
0.0
1020
0.0
1030
1.0
1040
0.0
1040
285.52449883016732
1040
207.00910380451629
1040
143.92593286797
1040
50.0
1040
0.0
1040
0.0
1070
     0
1070
   100
1070
     1
1070
     1
1070
     0
1070
     0
1070
     0
1070
     0
1040
0.0
1040
0.0
1040
0.0
1040
1.0
1040
1.0
1040
0.0
1040
0.0
1070
     0
1002
{
1002
}
1002
}
  0
ENDSEC
  0
EOF
