  0
SECTION
  2
HEADER
  9
$ACADVER
  1
AC1012
  9
$DWGCODEPAGE
  3
ansi_932
  9
$INSBASE
 10
0.0
 20
0.0
 30
0.0
  9
$EXTMIN
 10
5418.612218610368
 20
-339.9864411171038
 30
0.0
  9
$EXTMAX
 10
5717.952441021615
 20
-179.8721245694782
 30
0.0
  9
$LIMMIN
 10
0.0
 20
0.0
  9
$LIMMAX
 10
420.0
 20
297.0
  9
$ORTHOMODE
 70
     0
  9
$REGENMODE
 70
     1
  9
$FILLMODE
 70
     1
  9
$QTEXTMODE
 70
     0
  9
$MIRRTEXT
 70
     0
  9
$DRAGMODE
 70
     2
  9
$LTSCALE
 40
0.5
  9
$OSMODE
 70
 16383
  9
$ATTMODE
 70
     1
  9
$TEXTSIZE
 40
4.0
  9
$TRACEWID
 40
1.0
  9
$TEXTSTYLE
  7
STANDARD
  9
$CLAYER
  8
1TEXT
  9
$CELTYPE
  6
BYLAYER
  9
$CECOLOR
 62
   256
  9
$CELTSCALE
 40
1.0
  9
$DELOBJ
 70
     1
  9
$DISPSILH
 70
     0
  9
$DIMSCALE
 40
1.0
  9
$DIMASZ
 40
2.0
  9
$DIMEXO
 40
0.0
  9
$DIMDLI
 40
7.0
  9
$DIMRND
 40
0.5
  9
$DIMDLE
 40
0.0
  9
$DIMEXE
 40
1.0
  9
$DIMTP
 40
0.0
  9
$DIMTM
 40
0.0
  9
$DIMTXT
 40
3.5
  9
$DIMCEN
 40
0.0
  9
$DIMTSZ
 40
0.0
  9
$DIMTOL
 70
     0
  9
$DIMLIM
 70
     0
  9
$DIMTIH
 70
     0
  9
$DIMTOH
 70
     0
  9
$DIMSE1
 70
     0
  9
$DIMSE2
 70
     0
  9
$DIMTAD
 70
     1
  9
$DIMZIN
 70
     8
  9
$DIMBLK
  1

  9
$DIMASO
 70
     1
  9
$DIMSHO
 70
     1
  9
$DIMPOST
  1
 
  9
$DIMAPOST
  1

  9
$DIMALT
 70
     0
  9
$DIMALTD
 70
     2
  9
$DIMALTF
 40
25.4
  9
$DIMLFAC
 40
1.0
  9
$DIMTOFL
 70
     1
  9
$DIMTVP
 40
0.0
  9
$DIMTIX
 70
     0
  9
$DIMSOXD
 70
     0
  9
$DIMSAH
 70
     1
  9
$DIMBLK1
  1
OPEN30
  9
$DIMBLK2
  1
OPEN30
  9
$DIMSTYLE
  2
NEWX10
  9
$DIMCLRD
 70
   256
  9
$DIMCLRE
 70
   256
  9
$DIMCLRT
 70
   201
  9
$DIMTFAC
 40
0.7
  9
$DIMGAP
 40
0.7
  9
$DIMJUST
 70
     0
  9
$DIMSD1
 70
     0
  9
$DIMSD2
 70
     0
  9
$DIMTOLJ
 70
     1
  9
$DIMTZIN
 70
     8
  9
$DIMALTZ
 70
     0
  9
$DIMALTTZ
 70
     0
  9
$DIMFIT
 70
     2
  9
$DIMUPT
 70
     0
  9
$DIMUNIT
 70
     2
  9
$DIMDEC
 70
     2
  9
$DIMTDEC
 70
     2
  9
$DIMALTU
 70
     2
  9
$DIMALTTD
 70
     2
  9
$DIMTXSTY
  7
STANDARD
  9
$DIMAUNIT
 70
     0
  9
$LUNITS
 70
     2
  9
$LUPREC
 70
     4
  9
$SKETCHINC
 40
1.0
  9
$FILLETRAD
 40
0.0
  9
$AUNITS
 70
     0
  9
$AUPREC
 70
     2
  9
$MENU
  1
acad
  9
$ELEVATION
 40
0.0
  9
$PELEVATION
 40
0.0
  9
$THICKNESS
 40
0.0
  9
$LIMCHECK
 70
     0
  9
$CHAMFERA
 40
10.0
  9
$CHAMFERB
 40
10.0
  9
$CHAMFERC
 40
20.0
  9
$CHAMFERD
 40
0.0
  9
$SKPOLY
 70
     0
  9
$TDCREATE
 40
2451318.621352917
  9
$TDUPDATE
 40
2458437.446196366
  9
$TDINDWG
 40
1.5551614468
  9
$TDUSRTIMER
 40
1.5551614468
  9
$USRTIMER
 70
     1
  9
$ANGBASE
 50
0.0
  9
$ANGDIR
 70
     0
  9
$PDMODE
 70
     0
  9
$PDSIZE
 40
0.0
  9
$PLINEWID
 40
0.0
  9
$COORDS
 70
     2
  9
$SPLFRAME
 70
     0
  9
$SPLINETYPE
 70
     6
  9
$SPLINESEGS
 70
     8
  9
$ATTDIA
 70
     0
  9
$ATTREQ
 70
     1
  9
$HANDLING
 70
     1
  9
$HANDSEED
  5
C4B1
  9
$SURFTAB1
 70
     6
  9
$SURFTAB2
 70
     6
  9
$SURFTYPE
 70
     6
  9
$SURFU
 70
     6
  9
$SURFV
 70
     6
  9
$UCSNAME
  2

  9
$UCSORG
 10
0.0
 20
0.0
 30
0.0
  9
$UCSXDIR
 10
1.0
 20
0.0
 30
0.0
  9
$UCSYDIR
 10
0.0
 20
1.0
 30
0.0
  9
$PUCSNAME
  2

  9
$PUCSORG
 10
0.0
 20
0.0
 30
0.0
  9
$PUCSXDIR
 10
1.0
 20
0.0
 30
0.0
  9
$PUCSYDIR
 10
0.0
 20
1.0
 30
0.0
  9
$USERI1
 70
     0
  9
$USERI2
 70
     0
  9
$USERI3
 70
     0
  9
$USERI4
 70
     0
  9
$USERI5
 70
     0
  9
$USERR1
 40
0.0
  9
$USERR2
 40
0.0
  9
$USERR3
 40
0.0
  9
$USERR4
 40
0.0
  9
$USERR5
 40
0.0
  9
$WORLDVIEW
 70
     1
  9
$SHADEDGE
 70
     3
  9
$SHADEDIF
 70
    70
  9
$TILEMODE
 70
     1
  9
$MAXACTVP
 70
    48
  9
$PINSBASE
 10
0.0
 20
0.0
 30
0.0
  9
$PLIMCHECK
 70
     0
  9
$PEXTMIN
 10
1.000000000000000E+20
 20
1.000000000000000E+20
 30
1.000000000000000E+20
  9
$PEXTMAX
 10
-1.000000000000000E+20
 20
-1.000000000000000E+20
 30
-1.000000000000000E+20
  9
$PLIMMIN
 10
0.0
 20
0.0
  9
$PLIMMAX
 10
420.0
 20
297.0
  9
$UNITMODE
 70
     0
  9
$VISRETAIN
 70
     1
  9
$PLINEGEN
 70
     0
  9
$PSLTSCALE
 70
     1
  9
$TREEDEPTH
 70
  3020
  9
$PICKSTYLE
 70
     0
  9
$CMLSTYLE
  2
STANDARD
  9
$CMLJUST
 70
     0
  9
$CMLSCALE
 40
20.0
  9
$SAVEIMAGES
 70
     1
  0
ENDSEC
  0
SECTION
  2
CLASSES
  0
CLASS
  1
DICTIONARYVAR
  2
AcDbDictionaryVar
  3
ObjectDBX Classes
 90
        0
280
     0
281
     0
  0
CLASS
  1
IDBUFFER
  2
AcDbIdBuffer
  3
ObjectDBX Classes
 90
    32768
280
     0
281
     0
  0
CLASS
  1
LWPOLYLINE
  2
AcDbPolyline
  3
ObjectDBX Classes
 90
    32768
280
     0
281
     1
  0
CLASS
  1
ACDBDICTIONARYWDFLT
  2
AcDbDictionaryWithDefault
  3
ObjectDBX Classes
 90
    32768
280
     0
281
     0
  0
CLASS
  1
ACDBPLACEHOLDER
  2
AcDbPlaceHolder
  3
ObjectDBX Classes
 90
        0
280
     0
281
     0
  0
CLASS
  1
LAYOUT
  2
AcDbLayout
  3
ObjectDBX Classes
 90
        0
280
     0
281
     0
  0
CLASS
  1
TABLESTYLE
  2
AcDbTableStyle
  3
ObjectDBX Classes
 90
     4095
280
     0
281
     0
  0
CLASS
  1
SORTENTSTABLE
  2
AcDbSortentsTable
  3
ObjectDBX Classes
 90
    32768
280
     0
281
     0
  0
CLASS
  1
MATERIAL
  2
AcDbMaterial
  3
ObjectDBX Classes
 90
     1153
280
     0
281
     0
  0
CLASS
  1
VISUALSTYLE
  2
AcDbVisualStyle
  3
ObjectDBX Classes
 90
     4095
280
     0
281
     0
  0
CLASS
  1
SCALE
  2
AcDbScale
  3
ObjectDBX Classes
 90
     1153
280
     0
281
     0
  0
CLASS
  1
MLEADERSTYLE
  2
AcDbMLeaderStyle
  3
ACDB_MLEADERSTYLE_CLASS
 90
     4095
280
     0
281
     0
  0
CLASS
  1
CELLSTYLEMAP
  2
AcDbCellStyleMap
  3
ObjectDBX Classes
 90
     1152
280
     0
281
     0
  0
CLASS
  1
SUN
  2
AcDbSun
  3
SCENEOE
 90
     1153
280
     0
281
     0
  0
CLASS
  1
AEC_REFEDIT_STATUS_TRACKER
  2
AecDbRefEditStatusTracker
  3
AecArchBase60|Product Desc: Autodesk Architectural Desktop 2007 |Company: Autodesk,Inc. |WEB Address: www.autodesk.com
 90
      129
280
     1
281
     0
  0
CLASS
  1
NPOCOLLECTION
  2
AcDbImpNonPersistentObjectsCollection
  3
ObjectDBX Classes
 90
     1153
280
     1
281
     0
  0
CLASS
  1
DIMASSOC
  2
AcDbDimAssoc
  3
"AcDbDimAssoc|Product Desc:     AcDim ARX App For Dimension|Company:          Autodesk, Inc.|WEB Address:      www.autodesk.com"
 90
        0
280
     0
281
     0
  0
CLASS
  1
XRECORD
  2
AcDbXrecord
  3
ObjectDBX Classes
 90
    32768
280
     0
281
     0
  0
CLASS
  1
HATCH
  2
AcDbHatch
  3
ObjectDBX Classes
 90
    32768
280
     0
281
     1
  0
ENDSEC
  0
SECTION
  2
TABLES
  0
TABLE
  2
VPORT
  5
8
330
0
100
AcDbSymbolTable
 70
     1
  0
VPORT
  5
952D
330
8
100
AcDbSymbolTableRecord
100
AcDbViewportTableRecord
  2
*ACTIVE
 70
     0
 10
0.0
 20
0.0
 11
1.0
 21
1.0
 12
5568.282329815992
 22
-259.929282843291
 13
0.0
 23
0.0
 14
10.0
 24
10.0
 15
10.0
 25
10.0
 16
0.0
 26
0.0
 36
1.0
 17
0.0
 27
0.0
 37
0.0
 40
178.2501936434767
 41
1.803066037735849
 42
50.0
 43
0.0
 44
0.0
 50
0.0
 51
0.0
 71
    16
 72
   100
 73
     1
 74
     1
 75
     0
 76
     0
 77
     0
 78
     0
1001
ACAD_NAV_VCDISPLAY
1070
     3
  0
ENDTAB
  0
TABLE
  2
LTYPE
  5
5
330
0
100
AcDbSymbolTable
 70
     2
  0
LTYPE
  5
12
330
5
100
AcDbSymbolTableRecord
100
AcDbLinetypeTableRecord
  2
BYBLOCK
 70
     0
  3

 72
    65
 73
     0
 40
0.0
  0
LTYPE
  5
13
330
5
100
AcDbSymbolTableRecord
100
AcDbLinetypeTableRecord
  2
BYLAYER
 70
     0
  3

 72
    65
 73
     0
 40
0.0
  0
LTYPE
  5
14
330
5
100
AcDbSymbolTableRecord
100
AcDbLinetypeTableRecord
  2
CONTINUOUS
 70
     0
  3
Solid line
 72
    65
 73
     0
 40
0.0
  0
LTYPE
  5
9837
330
5
100
AcDbSymbolTableRecord
100
AcDbLinetypeTableRecord
  2
CENTER2
 70
     0
  3
Center (.5x) ___ _ ___ _ ___ _ ___ _ ___ _ ___
 72
    65
 73
     4
 40
28.575
 49
19.05
 74
     0
 49
-3.175
 74
     0
 49
3.175
 74
     0
 49
-3.175
 74
     0
  0
ENDTAB
  0
TABLE
  2
LAYER
  5
2
102
{ACAD_XDICTIONARY
360
96D9
102
}
330
0
100
AcDbSymbolTable
 70
     6
  0
LAYER
  5
E
102
{ACAD_XDICTIONARY
360
9593
102
}
330
2
100
AcDbSymbolTableRecord
100
AcDbLayerTableRecord
  2
0
 70
     0
 62
     7
  6
CONTINUOUS
  0
LAYER
  5
29
102
{ACAD_XDICTIONARY
360
9595
102
}
330
2
100
AcDbSymbolTableRecord
100
AcDbLayerTableRecord
  2
1CENTER
 70
     0
 62
     7
  6
CENTER2
  0
LAYER
  5
31
102
{ACAD_XDICTIONARY
360
9597
102
}
330
2
100
AcDbSymbolTableRecord
100
AcDbLayerTableRecord
  2
1TEXT
 70
     0
 62
     7
  6
CONTINUOUS
  0
LAYER
  5
243
102
{ACAD_XDICTIONARY
360
959D
102
}
330
2
100
AcDbSymbolTableRecord
100
AcDbLayerTableRecord
  2
01
 70
     0
 62
     1
  6
CONTINUOUS
  0
LAYER
  5
24E
102
{ACAD_XDICTIONARY
360
95A3
102
}
330
2
100
AcDbSymbolTableRecord
100
AcDbLayerTableRecord
  2
1DIM
 70
     0
 62
     7
  6
CONTINUOUS
  0
LAYER
  5
252
102
{ACAD_XDICTIONARY
360
95A5
102
}
330
2
100
AcDbSymbolTableRecord
100
AcDbLayerTableRecord
  2
1HATCH
 70
     0
 62
     7
  6
CONTINUOUS
  0
ENDTAB
  0
TABLE
  2
STYLE
  5
3
330
0
100
AcDbSymbolTable
 70
     1
  0
STYLE
  5
F
330
3
100
AcDbSymbolTableRecord
100
AcDbTextStyleTableRecord
  2
STANDARD
 70
     0
 40
0.0
 41
1.0
 50
0.0
 71
     0
 42
4.0
  3
txt.shx
  4
extfont.shx
  0
ENDTAB
  0
TABLE
  2
VIEW
  5
6
330
0
100
AcDbSymbolTable
 70
     0
  0
ENDTAB
  0
TABLE
  2
UCS
  5
7
330
0
100
AcDbSymbolTable
 70
     0
  0
ENDTAB
  0
TABLE
  2
APPID
  5
9
330
0
100
AcDbSymbolTable
 70
    26
  0
APPID
  5
10
330
9
100
AcDbSymbolTableRecord
100
AcDbRegAppTableRecord
  2
ACAD
 70
     0
  0
APPID
  5
21
330
9
100
AcDbSymbolTableRecord
100
AcDbRegAppTableRecord
  2
DRAWINGVARIABLESXDATA
 70
     0
  0
APPID
  5
64
330
9
100
AcDbSymbolTableRecord
100
AcDbRegAppTableRecord
  2
CONTENTTABDATA
 70
     0
  0
APPID
  5
65
330
9
100
AcDbSymbolTableRecord
100
AcDbRegAppTableRecord
  2
CONTENTCURRENTTAB
 70
     0
  0
APPID
  5
66
330
9
100
AcDbSymbolTableRecord
100
AcDbRegAppTableRecord
  2
CONTENTBLOCKDESCRIPTION
 70
     0
  0
APPID
  5
67
330
9
100
AcDbSymbolTableRecord
100
AcDbRegAppTableRecord
  2
CONTENTBLOCKICON
 70
     0
  0
APPID
  5
68
330
9
100
AcDbSymbolTableRecord
100
AcDbRegAppTableRecord
  2
CONTENTLONGBLOCKNAME
 70
     0
  0
APPID
  5
2AE
330
9
100
AcDbSymbolTableRecord
100
AcDbRegAppTableRecord
  2
ACAD_PSEXT
 70
     0
  0
APPID
  5
9585
330
9
100
AcDbSymbolTableRecord
100
AcDbRegAppTableRecord
  2
ACAD_MLEADERVER
 70
     0
  0
APPID
  5
A2E3
330
9
100
AcDbSymbolTableRecord
100
AcDbRegAppTableRecord
  2
ACADANNOTATIVE
 70
     0
  0
APPID
  5
A2E4
330
9
100
AcDbSymbolTableRecord
100
AcDbRegAppTableRecord
  2
ACDBBLOCKREPETAG
 70
     0
  0
APPID
  5
AD43
330
9
100
AcDbSymbolTableRecord
100
AcDbRegAppTableRecord
  2
ACAECLAYERSTANDARD
 70
     0
  0
APPID
  5
AF26
330
9
100
AcDbSymbolTableRecord
100
AcDbRegAppTableRecord
  2
ACAD_OBJECT_CHANGE_GUID
 70
     0
  0
APPID
  5
AFBD
330
9
100
AcDbSymbolTableRecord
100
AcDbRegAppTableRecord
  2
ACAD_NAV_VCDISPLAY
 70
     0
  0
APPID
  5
B007
330
9
100
AcDbSymbolTableRecord
100
AcDbRegAppTableRecord
  2
ACAD_DSTYLE_DIMJAG
 70
     0
  0
APPID
  5
B008
330
9
100
AcDbSymbolTableRecord
100
AcDbRegAppTableRecord
  2
ACAD_DSTYLE_DIMTALN
 70
     0
  0
APPID
  5
B270
330
9
100
AcDbSymbolTableRecord
100
AcDbRegAppTableRecord
  2
ACAD_EXEMPT_FROM_CAD_STAND
 70
     0
  0
APPID
  5
B2BF
330
9
100
AcDbSymbolTableRecord
100
AcDbRegAppTableRecord
  2
GRADIENTCOLOR1ACI
 70
     0
  0
APPID
  5
B2C0
330
9
100
AcDbSymbolTableRecord
100
AcDbRegAppTableRecord
  2
GRADIENTCOLOR2ACI
 70
     0
  0
APPID
  5
B2C1
330
9
100
AcDbSymbolTableRecord
100
AcDbRegAppTableRecord
  2
ACAD_SPLINE_DATA
 70
     0
  0
APPID
  5
B87E
330
9
100
AcDbSymbolTableRecord
100
AcDbRegAppTableRecord
  2
ACLAYERTOOLS
 70
     0
  0
APPID
  5
B87F
330
9
100
AcDbSymbolTableRecord
100
AcDbRegAppTableRecord
  2
ACAD_DSTYLE_DIMJOGGED_JOGA
 70
     0
  0
APPID
  5
BC8F
330
9
100
AcDbSymbolTableRecord
100
AcDbRegAppTableRecord
  2
ACAD_DSTYLE_DIMRADIAL_EXTE
 70
     0
  0
APPID
  5
C1B3
330
9
100
AcDbSymbolTableRecord
100
AcDbRegAppTableRecord
  2
ACAD_DSTYLE_DIM_LINETYPE
 70
     0
  0
APPID
  5
C1B4
330
9
100
AcDbSymbolTableRecord
100
AcDbRegAppTableRecord
  2
ACAD_DSTYLE_DIM_EXT1_LINET
 70
     0
  0
APPID
  5
C1B5
330
9
100
AcDbSymbolTableRecord
100
AcDbRegAppTableRecord
  2
ACAD_DSTYLE_DIM_EXT2_LINET
 70
     0
  0
ENDTAB
  0
TABLE
  2
DIMSTYLE
  5
A
330
0
100
AcDbSymbolTable
 70
     1
  0
DIMSTYLE
105
48
330
A
100
AcDbSymbolTableRecord
100
AcDbDimStyleTableRecord
  2
NEWX10
 70
     0
  3
 
  4

  5

  6
OPEN30
  7
OPEN30
 40
1.0
 41
2.0
 42
0.0
 43
7.0
 44
1.0
 45
0.5
 46
0.0
 47
0.0
 48
0.0
140
3.5
141
0.0
142
0.0
143
25.4
144
1.0
145
0.0
146
0.7
147
0.7
 71
     0
 72
     0
 73
     0
 74
     0
 75
     0
 76
     0
 77
     1
 78
     8
170
     0
171
     2
172
     1
173
     1
174
     0
175
     0
176
   256
177
   256
178
   201
179
     2
270
     2
271
     2
272
     2
273
     2
274
     2
340
F
275
     0
280
     0
281
     0
282
     0
283
     1
284
     8
285
     0
286
     0
287
     2
288
     0
1001
ACAD_DSTYLE_DIMJAG
1070
   388
1040
1.5
1001
ACAD_DSTYLE_DIMTALN
1070
   392
1070
     0
  0
ENDTAB
  0
TABLE
  2
BLOCK_RECORD
  5
1
330
0
100
AcDbSymbolTable
 70
     8
  0
BLOCK_RECORD
  5
18
102
{ACAD_XDICTIONARY
360
88F
102
}
330
1
100
AcDbSymbolTableRecord
100
AcDbBlockTableRecord
  2
*MODEL_SPACE
  0
BLOCK_RECORD
  5
15
330
1
100
AcDbSymbolTableRecord
100
AcDbBlockTableRecord
  2
*PAPER_SPACE
  0
BLOCK_RECORD
  5
42
330
1
100
AcDbSymbolTableRecord
100
AcDbBlockTableRecord
  2
_OPEN30
  0
BLOCK_RECORD
  5
A333
330
1
100
AcDbSymbolTableRecord
100
AcDbBlockTableRecord
  2
A3WAKUKAWAJUN2017_HYOUDAI_
  0
BLOCK_RECORD
  5
C311
330
1
100
AcDbSymbolTableRecord
100
AcDbBlockTableRecord
  2
*X58
  0
BLOCK_RECORD
  5
C35F
330
1
100
AcDbSymbolTableRecord
100
AcDbBlockTableRecord
  2
*X59
  0
BLOCK_RECORD
  5
C3B1
330
1
100
AcDbSymbolTableRecord
100
AcDbBlockTableRecord
  2
*X60
  0
BLOCK_RECORD
  5
C402
330
1
100
AcDbSymbolTableRecord
100
AcDbBlockTableRecord
  2
*X61
  0
BLOCK_RECORD
  5
C43F
330
1
100
AcDbSymbolTableRecord
100
AcDbBlockTableRecord
  2
*X62
  0
BLOCK_RECORD
  5
C47F
330
1
100
AcDbSymbolTableRecord
100
AcDbBlockTableRecord
  2
*X63
  0
ENDTAB
  0
ENDSEC
  0
SECTION
  2
BLOCKS
  0
BLOCK
  5
19
330
18
100
AcDbEntity
  8
0
100
AcDbBlockBegin
  2
*MODEL_SPACE
 70
     0
 10
0.0
 20
0.0
 30
0.0
  3
*MODEL_SPACE
  1

  0
ENDBLK
  5
1A
330
18
100
AcDbEntity
  8
0
100
AcDbBlockEnd
  0
BLOCK
  5
16
330
15
100
AcDbEntity
 67
     1
  8
0
100
AcDbBlockBegin
  2
*PAPER_SPACE
 70
     0
 10
0.0
 20
0.0
 30
0.0
  3
*PAPER_SPACE
  1

  0
ENDBLK
  5
17
330
15
100
AcDbEntity
 67
     1
  8
0
100
AcDbBlockEnd
  0
BLOCK
  5
43
330
42
100
AcDbEntity
  8
0
100
AcDbBlockBegin
  2
_OPEN30
 70
     0
 10
0.0
 20
0.0
 30
0.0
  3
_OPEN30
  1

  0
LINE
  5
44
330
42
100
AcDbEntity
  8
0
  6
BYBLOCK
 62
     0
100
AcDbLine
 10
-1.0
 20
0.26794919
 30
0.0
 11
0.0
 21
0.0
 31
0.0
  0
LINE
  5
45
330
42
100
AcDbEntity
  8
0
  6
BYBLOCK
 62
     0
100
AcDbLine
 10
0.0
 20
0.0
 30
0.0
 11
-1.0
 21
-0.26794919
 31
0.0
  0
LINE
  5
46
330
42
100
AcDbEntity
  8
0
  6
BYBLOCK
 62
     0
100
AcDbLine
 10
0.0
 20
0.0
 30
0.0
 11
-1.0
 21
0.0
 31
0.0
  0
ENDBLK
  5
47
330
42
100
AcDbEntity
  8
0
100
AcDbBlockEnd
  0
BLOCK
  5
AA56
330
A333
100
AcDbEntity
  8
0
100
AcDbBlockBegin
  2
A3WAKUKAWAJUN2017_HYOUDAI_
 70
     0
 10
0.0
 20
0.0
 30
0.0
  3
A3WAKUKAWAJUN2017_HYOUDAI_
  1

  0
LINE
  5
A335
330
A333
100
AcDbEntity
  8
0
100
AcDbLine
 10
13.26299999998673
 20
-0.0001000000000317
 30
0.0
 11
9.236999999990758
 21
8.999899999990987
 31
0.0
1001
ACAD
1000
ASC_BOUNDS
1002
{
1070
    19
1005
A376
1002
}
  0
LINE
  5
A336
330
A333
100
AcDbEntity
  8
0
100
AcDbLine
 10
5.657999999994331
 20
0.9999999999989768
 30
0.0
 11
9.236999999990758
 21
8.999999999991019
 31
0.0
1001
ACAD
1000
ASC_BOUNDS
1002
{
1070
    19
1005
A376
1002
}
  0
LINE
  5
A337
330
A333
100
AcDbEntity
  8
0
100
AcDbLine
 10
18.59199999998134
 20
-0.2368999999997641
 30
0.0
 11
16.46099999998353
 21
5.432899999994561
 31
0.0
1001
ACAD
1000
ASC_BOUNDS
1002
{
1070
    19
1005
A377
1002
}
  0
LINE
  5
A338
330
A333
100
AcDbEntity
  8
0
100
AcDbLine
 10
18.59199999998134
 20
-0.2368999999997641
 30
0.0
 11
22.38199999997767
 21
8.763099999991255
 31
0.0
1001
ACAD
1000
ASC_BOUNDS
1002
{
1070
    19
1005
A377
1002
}
  0
LINE
  5
A339
330
A333
100
AcDbEntity
  8
0
100
AcDbLine
 10
14.32899999998563
 20
-0.2368999999997641
 30
0.0
 11
16.46099999998353
 21
5.432899999994561
 31
0.0
1001
ACAD
1000
ASC_BOUNDS
1002
{
1070
    19
1005
A377
1002
}
  0
LINE
  5
A33A
330
A333
100
AcDbEntity
  8
0
100
AcDbLine
 10
14.32899999998563
 20
-0.2368999999997641
 30
0.0
 11
10.53899999998941
 21
8.763099999991255
 31
0.0
1001
ACAD
1000
ASC_BOUNDS
1002
{
1070
    19
1005
A377
1002
}
  0
LINE
  5
A33B
330
A333
100
AcDbEntity
  8
0
100
AcDbLine
 10
19.53899999998043
 20
-0.0001000000000317
 30
0.0
 11
23.56599999997638
 21
8.999899999990987
 31
0.0
1001
ACAD
1000
ASC_BOUNDS
1002
{
1070
    19
1005
A378
1002
}
  0
LINE
  5
A33C
330
A333
100
AcDbEntity
  8
0
100
AcDbLine
 10
26.97358892824991
 20
1.383099999991202
 30
0.0
 11
23.56599999997638
 21
8.999899999990987
 31
0.0
1001
ACAD
1000
ASC_BOUNDS
1002
{
1070
    19
1005
A378
1002
}
  0
LINE
  5
A33D
330
A333
100
AcDbEntity
  8
0
100
AcDbLine
 10
5.657999999994331
 20
0.9999999999989768
 30
0.0
 11
3.181999999996833
 21
4.668599999995308
 31
0.0
1001
ACAD
1000
ASC_BOUNDS
1002
{
1070
    19
1005
A376
1002
}
  0
LINE
  5
A33E
330
A333
100
AcDbEntity
  8
0
100
AcDbLine
 10
4.617999999995391
 20
-0.0001000000000317
 30
0.0
 11
1.420999999998571
 21
4.736799999995242
 31
0.0
1001
ACAD
1000
ASC_BOUNDS
1002
{
1070
    19
1005
A376
1002
}
  0
LINE
  5
A33F
330
A333
100
AcDbEntity
  8
0
100
AcDbLine
 10
1.420999999998571
 20
8.763099999991255
 30
0.0
 11
1.420999999998571
 21
0.0
 31
0.0
1001
ACAD
1000
ASC_BOUNDS
1002
{
1070
    19
1005
A37B
1002
}
  0
LINE
  5
A340
330
A333
100
AcDbEntity
  8
0
100
AcDbLine
 10
0.0
 20
8.763099999991255
 30
0.0
 11
0.0
 21
0.0
 31
0.0
1001
ACAD
1000
ASC_BOUNDS
1002
{
1070
    19
1005
A37B
1002
}
  0
LINE
  5
A341
330
A333
100
AcDbEntity
  8
0
100
AcDbLine
 10
6.766999999993232
 20
-0.0001000000000317
 30
0.0
 11
7.826999999992154
 21
2.368399999997621
 31
0.0
1001
ACAD
1000
ASC_BOUNDS
1002
{
1070
    19
1005
A376
1002
}
  0
LINE
  5
A342
330
A333
100
AcDbEntity
  8
0
100
AcDbLine
 10
0.0
 20
0.0
 30
0.0
 11
1.420999999998571
 21
0.0
 31
0.0
1001
ACAD
1000
ASC_BOUNDS
1002
{
1070
    19
1005
A37B
1002
}
  0
LINE
  5
A343
330
A333
100
AcDbEntity
  8
0
100
AcDbLine
 10
4.617999999995391
 20
0.0
 30
0.0
 11
6.766999999993232
 21
0.0
 31
0.0
1001
ACAD
1000
ASC_BOUNDS
1002
{
1070
    19
1005
A376
1002
}
  0
LINE
  5
A344
330
A333
100
AcDbEntity
  8
0
100
AcDbLine
 10
11.70599999998831
 20
-0.0001000000000317
 30
0.0
 11
10.64699999998936
 21
2.368399999997621
 31
0.0
1001
ACAD
1000
ASC_BOUNDS
1002
{
1070
    19
1005
A376
1002
}
  0
LINE
  5
A345
330
A333
100
AcDbEntity
  8
0
100
AcDbLine
 10
7.826999999992154
 20
2.368399999997621
 30
0.0
 11
10.64699999998936
 21
2.368399999997621
 31
0.0
1001
ACAD
1000
ASC_BOUNDS
1002
{
1070
    19
1005
A376
1002
}
  0
LINE
  5
A346
330
A333
100
AcDbEntity
  8
0
100
AcDbLine
 10
11.70599999998831
 20
0.0
 30
0.0
 11
13.26299999998673
 21
0.0
 31
0.0
1001
ACAD
1000
ASC_BOUNDS
1002
{
1070
    19
1005
A376
1002
}
  0
LINE
  5
A347
330
A333
100
AcDbEntity
  8
0
100
AcDbLine
 10
22.15599999997789
 20
2.368399999997621
 30
0.0
 11
24.97599999997499
 21
2.368399999997621
 31
0.0
1001
ACAD
1000
ASC_BOUNDS
1002
{
1070
    19
1005
A378
1002
}
  0
LINE
  5
A348
330
A333
100
AcDbEntity
  8
0
100
AcDbLine
 10
19.53899999998043
 20
0.0
 30
0.0
 11
21.09599999997886
 21
0.0
 31
0.0
1001
ACAD
1000
ASC_BOUNDS
1002
{
1070
    19
1005
A378
1002
}
  0
LINE
  5
A349
330
A333
100
AcDbEntity
  8
0
100
AcDbLine
 10
21.09599999997886
 20
-0.0001000000000317
 30
0.0
 11
22.15599999997789
 21
2.368399999997621
 31
0.0
1001
ACAD
1000
ASC_BOUNDS
1002
{
1070
    19
1005
A378
1002
}
  0
LINE
  5
A34A
330
A333
100
AcDbEntity
  8
0
100
AcDbLine
 10
26.02015566812236
 20
0.0330999999912365
 30
0.0
 11
24.97599999997499
 21
2.368399999997621
 31
0.0
1001
ACAD
1000
ASC_BOUNDS
1002
{
1070
    19
1005
A378
1002
}
  0
LINE
  5
A34B
330
A333
100
AcDbEntity
  8
0
100
AcDbLine
 10
14.32399999998563
 20
3.315799999996671
 30
0.0
 11
16.46099999998353
 21
8.999899999990987
 31
0.0
1001
ACAD
1000
ASC_BOUNDS
1002
{
1070
    19
1005
A377
1002
}
  0
LINE
  5
A34C
330
A333
100
AcDbEntity
  8
0
100
AcDbLine
 10
6.432999999993513
 20
8.763099999991255
 30
0.0
 11
3.181999999996833
 21
4.668599999995308
 31
0.0
1001
ACAD
1000
ASC_BOUNDS
1002
{
1070
    19
1005
A376
1002
}
  0
LINE
  5
A34D
330
A333
100
AcDbEntity
  8
0
100
AcDbLine
 10
4.617999999995391
 20
8.763099999991255
 30
0.0
 11
1.420999999998571
 21
4.736799999995242
 31
0.0
1001
ACAD
1000
ASC_BOUNDS
1002
{
1070
    19
1005
A376
1002
}
  0
LINE
  5
A34E
330
A333
100
AcDbEntity
  8
0
100
AcDbLine
 10
0.0
 20
8.763099999991255
 30
0.0
 11
1.420999999998571
 21
8.763099999991255
 31
0.0
1001
ACAD
1000
ASC_BOUNDS
1002
{
1070
    19
1005
A37B
1002
}
  0
LINE
  5
A34F
330
A333
100
AcDbEntity
  8
0
100
AcDbLine
 10
4.617999999995391
 20
8.763099999991255
 30
0.0
 11
6.432999999993513
 21
8.763099999991255
 31
0.0
1001
ACAD
1000
ASC_BOUNDS
1002
{
1070
    19
1005
A376
1002
}
  0
LINE
  5
A350
330
A333
100
AcDbEntity
  8
0
100
AcDbLine
 10
14.32399999998563
 20
3.315799999996671
 30
0.0
 11
12.02999999998792
 21
8.763099999991255
 31
0.0
1001
ACAD
1000
ASC_BOUNDS
1002
{
1070
    19
1005
A377
1002
}
  0
LINE
  5
A351
330
A333
100
AcDbEntity
  8
0
100
AcDbLine
 10
10.06399999998996
 20
3.670999999996297
 30
0.0
 11
9.236999999990758
 21
5.5200999999945
 31
0.0
1001
ACAD
1000
ASC_BOUNDS
1002
{
1070
    19
1005
A376
1002
}
  0
LINE
  5
A352
330
A333
100
AcDbEntity
  8
0
100
AcDbLine
 10
8.409999999991555
 20
3.670999999996297
 30
0.0
 11
9.236999999990758
 21
5.5200999999945
 31
0.0
1001
ACAD
1000
ASC_BOUNDS
1002
{
1070
    19
1005
A376
1002
}
  0
LINE
  5
A353
330
A333
100
AcDbEntity
  8
0
100
AcDbLine
 10
8.409999999991555
 20
3.670999999996297
 30
0.0
 11
10.06399999998996
 21
3.670999999996297
 31
0.0
1001
ACAD
1000
ASC_BOUNDS
1002
{
1070
    19
1005
A376
1002
}
  0
LINE
  5
A354
330
A333
100
AcDbEntity
  8
0
100
AcDbLine
 10
10.53899999998941
 20
8.763099999991255
 30
0.0
 11
12.02999999998792
 21
8.763099999991255
 31
0.0
1001
ACAD
1000
ASC_BOUNDS
1002
{
1070
    19
1005
A377
1002
}
  0
LINE
  5
A355
330
A333
100
AcDbEntity
  8
0
100
AcDbLine
 10
22.7389999999773
 20
3.670999999996297
 30
0.0
 11
23.56599999997638
 21
5.5200999999945
 31
0.0
1001
ACAD
1000
ASC_BOUNDS
1002
{
1070
    19
1005
A378
1002
}
  0
LINE
  5
A356
330
A333
100
AcDbEntity
  8
0
100
AcDbLine
 10
22.7389999999773
 20
3.670999999996297
 30
0.0
 11
24.39299999997559
 21
3.670999999996297
 31
0.0
1001
ACAD
1000
ASC_BOUNDS
1002
{
1070
    19
1005
A378
1002
}
  0
LINE
  5
A357
330
A333
100
AcDbEntity
  8
0
100
AcDbLine
 10
18.59799999998143
 20
3.315799999996671
 30
0.0
 11
20.89099999997916
 21
8.763099999991255
 31
0.0
1001
ACAD
1000
ASC_BOUNDS
1002
{
1070
    19
1005
A377
1002
}
  0
LINE
  5
A358
330
A333
100
AcDbEntity
  8
0
100
AcDbLine
 10
18.59799999998143
 20
3.315799999996671
 30
0.0
 11
16.46099999998353
 21
8.999899999990987
 31
0.0
1001
ACAD
1000
ASC_BOUNDS
1002
{
1070
    19
1005
A377
1002
}
  0
LINE
  5
A359
330
A333
100
AcDbEntity
  8
0
100
AcDbLine
 10
20.89099999997916
 20
8.763099999991255
 30
0.0
 11
22.38199999997767
 21
8.763099999991255
 31
0.0
1001
ACAD
1000
ASC_BOUNDS
1002
{
1070
    19
1005
A377
1002
}
  0
LINE
  5
A35A
330
A333
100
AcDbEntity
  8
0
100
AcDbLine
 10
24.39299999997559
 20
3.670999999996297
 30
0.0
 11
23.56599999997638
 21
5.5200999999945
 31
0.0
1001
ACAD
1000
ASC_BOUNDS
1002
{
1070
    19
1005
A378
1002
}
  0
LINE
  5
A35B
330
A333
100
AcDbEntity
  8
0
100
AcDbLine
 10
44.99999999995498
 20
-0.2368999999997641
 30
0.0
 11
40.02599999995994
 21
5.341799999994635
 31
0.0
1001
ACAD
1000
ASC_BOUNDS
1002
{
1070
    19
1005
A37A
1002
}
  0
LINE
  5
A35C
330
A333
100
AcDbEntity
  8
0
100
AcDbLine
 10
40.02599999995994
 20
5.341799999994635
 30
0.0
 11
40.02599999995994
 21
0.0
 31
0.0
1001
ACAD
1000
ASC_BOUNDS
1002
{
1070
    19
1005
A37A
1002
}
  0
LINE
  5
A35D
330
A333
100
AcDbEntity
  8
0
100
AcDbLine
 10
38.60499999996136
 20
8.999999999991019
 30
0.0
 11
38.60499999996136
 21
0.0
 31
0.0
1001
ACAD
1000
ASC_BOUNDS
1002
{
1070
    19
1005
A37A
1002
}
  0
LINE
  5
A35E
330
A333
100
AcDbEntity
  8
0
100
AcDbLine
 10
44.99999999995498
 20
8.763099999991255
 30
0.0
 11
44.99999999995498
 21
-0.2368999999997641
 31
0.0
1001
ACAD
1000
ASC_BOUNDS
1002
{
1070
    19
1005
A37A
1002
}
  0
LINE
  5
A35F
330
A333
100
AcDbEntity
  8
0
100
AcDbLine
 10
38.60499999996136
 20
0.0
 30
0.0
 11
40.02599999995994
 21
0.0
 31
0.0
1001
ACAD
1000
ASC_BOUNDS
1002
{
1070
    19
1005
A37A
1002
}
  0
LINE
  5
A360
330
A333
100
AcDbEntity
  8
0
100
AcDbLine
 10
43.57899999995641
 20
3.421199999996588
 30
0.0
 11
38.60499999996136
 21
8.999899999990987
 31
0.0
1001
ACAD
1000
ASC_BOUNDS
1002
{
1070
    19
1005
A37A
1002
}
  0
LINE
  5
A361
330
A333
100
AcDbEntity
  8
0
100
AcDbLine
 10
43.57899999995641
 20
8.763099999991255
 30
0.0
 11
43.57899999995641
 21
3.421199999996588
 31
0.0
1001
ACAD
1000
ASC_BOUNDS
1002
{
1070
    19
1005
A37A
1002
}
  0
LINE
  5
A362
330
A333
100
AcDbEntity
  8
0
100
AcDbLine
 10
43.57899999995641
 20
8.763099999991255
 30
0.0
 11
44.99999999995498
 21
8.763099999991255
 31
0.0
1001
ACAD
1000
ASC_BOUNDS
1002
{
1070
    19
1005
A37A
1002
}
  0
LINE
  5
A363
330
A333
100
AcDbEntity
  8
0
100
AcDbLine
 10
37.67199999996831
 20
8.763099999991255
 30
0.0
 11
36.23199999996837
 21
8.763099999991255
 31
0.0
  0
LINE
  5
A364
330
A333
100
AcDbEntity
  8
0
100
AcDbLine
 10
31.64199999996833
 20
8.763099999991255
 30
0.0
 11
31.64199999996833
 21
2.481619422925121
 31
0.0
  0
LINE
  5
A365
330
A333
100
AcDbEntity
  8
0
100
AcDbLine
 10
37.67199999996831
 20
8.763099999991255
 30
0.0
 11
37.67199999996831
 21
2.481619422925121
 31
0.0
  0
LINE
  5
A366
330
A333
100
AcDbEntity
  8
0
100
AcDbLine
 10
36.23199999996837
 20
8.763099999991255
 30
0.0
 11
36.23199999996837
 21
2.481619422925064
 31
0.0
  0
LINE
  5
A367
330
A333
100
AcDbEntity
  8
0
100
AcDbLine
 10
33.08199999996839
 20
8.763099999991255
 30
0.0
 11
33.08199999996839
 21
2.481619422925121
 31
0.0
  0
ARC
  5
A368
330
A333
100
AcDbEntity
  8
0
100
AcDbCircle
 10
34.65699999996832
 20
3.183099999991214
 30
0.0
 40
3.420000000000007
100
AcDbArc
 50
240.0000000000255
 51
299.9999999999766
  0
ARC
  5
A369
330
A333
100
AcDbEntity
  8
0
100
AcDbCircle
 10
34.65699999996832
 20
3.183099999991214
 30
0.0
 40
1.97999999999999
100
AcDbArc
 50
240.000000000026
 51
299.9999999999703
  0
LINE
  5
A36A
330
A333
100
AcDbEntity
  8
0
100
AcDbLine
 10
33.08199999996828
 20
8.763099999991255
 30
0.0
 11
31.64199999996833
 21
8.763099999991255
 31
0.0
  0
ARC
  5
A36B
330
A333
100
AcDbEntity
  8
0
100
AcDbCircle
 10
35.06199999996829
 20
2.481619422925064
 30
0.0
 40
1.17
100
AcDbArc
 50
299.9999999999699
 51
0.0
  0
ARC
  5
A36C
330
A333
100
AcDbEntity
  8
0
100
AcDbCircle
 10
34.25199999996835
 20
2.481619422925121
 30
0.0
 40
1.17
100
AcDbArc
 50
180.0
 51
240.0000000000238
  0
ARC
  5
A36D
330
A333
100
AcDbEntity
  8
0
100
AcDbCircle
 10
35.06199999996841
 20
2.481619422925121
 30
0.0
 40
2.61
100
AcDbArc
 50
299.9999999999756
 51
0.0
  0
ARC
  5
A36E
330
A333
100
AcDbEntity
  8
0
100
AcDbCircle
 10
34.25199999996835
 20
2.481619422925121
 30
0.0
 40
2.61
100
AcDbArc
 50
180.0
 51
240.0000000000244
  0
LINE
  5
A36F
330
A333
100
AcDbEntity
  8
0
100
AcDbLine
 10
29.30199999996933
 20
8.763099999991255
 30
0.0
 11
30.74199999996927
 21
8.763099999991255
 31
0.0
1001
ACAD
1000
ASC_BOUNDS
1002
{
1070
    19
1005
A378
1002
}
  0
LINE
  5
A370
330
A333
100
AcDbEntity
  8
0
100
AcDbLine
 10
30.74199999996927
 20
8.763099999991255
 30
0.0
 11
30.74199999996927
 21
2.373099999991211
 31
0.0
1001
ACAD
1000
ASC_BOUNDS
1002
{
1070
    19
1005
A378
1002
}
  0
LINE
  5
A371
330
A333
100
AcDbEntity
  8
0
100
AcDbLine
 10
26.02015566812236
 20
0.0330999999912365
 30
0.0
 11
28.40199999996923
 21
0.0330999999912365
 31
0.0
1001
ACAD
1000
ASC_BOUNDS
1002
{
1070
    19
1005
A378
1002
}
  0
LINE
  5
A372
330
A333
100
AcDbEntity
  8
0
100
AcDbLine
 10
29.30199999996933
 20
8.763099999991255
 30
0.0
 11
29.30199999996933
 21
2.283099999991236
 31
0.0
1001
ACAD
1000
ASC_BOUNDS
1002
{
1070
    19
1005
A378
1002
}
  0
LINE
  5
A373
330
A333
100
AcDbEntity
  8
0
100
AcDbLine
 10
26.97358892824991
 20
1.383099999991202
 30
0.0
 11
28.40199999996923
 21
1.383099999991202
 31
0.0
1001
ACAD
1000
ASC_BOUNDS
1002
{
1070
    19
1005
A378
1002
}
  0
ARC
  5
A374
330
A333
100
AcDbEntity
  8
0
100
AcDbCircle
 10
28.40199999996923
 20
2.283099999991236
 30
0.0
 40
0.9
100
AcDbArc
 50
270.0
 51
0.0
1001
ACAD
1000
ASC_BOUNDS
1002
{
1070
    19
1005
A378
1002
}
  0
ARC
  5
A375
330
A333
100
AcDbEntity
  8
0
100
AcDbCircle
 10
28.40199999996923
 20
2.373099999991211
 30
0.0
 40
2.34
100
AcDbArc
 50
270.0
 51
0.0
1001
ACAD
1000
ASC_BOUNDS
1002
{
1070
    19
1005
A378
1002
}
  0
INSERT
  5
A376
330
A333
100
AcDbEntity
  8
0
100
AcDbBlockReference
  2
*X58
 10
0.0
 20
0.0
 30
0.0
1001
ACAD
1000
HATCH
1002
{
1070
    19
1000
ANSI37
1040
0.15
1040
0.0
1000
ASC_BOUNDS
1070
     2
1070
     2
1070
    12
1005
A335
1005
A336
1005
A33D
1005
A34C
1005
A34F
1005
A34D
1005
A33E
1005
A343
1005
A341
1005
A345
1005
A344
1005
A346
1070
     2
1070
     3
1005
A351
1005
A353
1005
A352
1000
ASC_SEEDPOINT
1011
3.614004224891801
1021
2.996669441146025
1031
0.0
1000
R14_HATCH_DATA
1000
A376
1011
1.0
1021
0.0
1031
0.0
1011
0.0
1021
1.0
1031
0.0
1011
0.0
1021
0.0
1031
1.0
1040
0.0
1010
0.0
1020
0.0
1030
1.0
1000
ANSI37
1070
     0
1070
     1
1071
        2
1071
        7
1070
     0
1070
     1
1071
       17
1040
13.26299999998673
1040
-0.0001000000000317
1040
9.236999999990758
1040
8.999899999990987
1040
9.236999999990758
1040
8.999999999991019
1040
5.657999999994331
1040
0.9999999999989768
1040
3.181999999996833
1040
4.668599999995308
1040
6.432999999993513
1040
8.763099999991255
1040
4.617999999995391
1040
8.763099999991255
1040
1.420999999998571
1040
4.736799999995242
1040
4.617999999995391
1040
-0.0001000000000317
1040
4.617999999995391
1040
0.0
1040
6.766999999993232
1040
0.0
1040
6.766999999993232
1040
-0.0001000000000317
1040
7.826999999992154
1040
2.368399999997621
1040
10.64699999998936
1040
2.368399999997621
1040
11.70599999998831
1040
-0.0001000000000317
1040
11.70599999998831
1040
0.0
1040
13.26299999998673
1040
0.0
1071
       12
1005
A335
1005
A336
1005
A33D
1005
A34C
1005
A34F
1005
A34D
1005
A33E
1005
A343
1005
A341
1005
A345
1005
A344
1005
A346
1071
       22
1070
     0
1070
     1
1071
        3
1040
9.236999999990758
1040
5.5200999999945
1040
10.06399999998996
1040
3.670999999996297
1040
8.409999999991555
1040
3.670999999996297
1071
        3
1005
A351
1005
A353
1005
A352
1070
     0
1070
     1
1040
0.0
1040
0.15
1070
     0
1070
     2
1040
0.7853981633974483
1040
49.29960901727088
1040
-10.17736998311392
1040
-0.3367596045400932
1040
0.3367596045400932
1070
     0
1040
2.356194490192345
1040
49.29960901727088
1040
-10.17736998311392
1040
-0.3367596045400932
1040
-0.3367596045400932
1070
     0
1040
0.0110235143455945
1071
        2
1040
3.614004224891801
1040
2.996669441146025
1040
0.0
1040
3.614004224891801
1040
2.996669441146025
1040
0.0
1002
}
  0
INSERT
  5
A377
330
A333
100
AcDbEntity
  8
0
100
AcDbBlockReference
  2
*X59
 10
0.0
 20
0.0
 30
0.0
1001
ACAD
1000
HATCH
1002
{
1070
    19
1000
ANSI37
1040
0.15
1040
0.0
1000
ASC_BOUNDS
1070
     1
1070
     2
1070
    10
1005
A337
1005
A338
1005
A359
1005
A357
1005
A358
1005
A34B
1005
A350
1005
A354
1005
A33A
1005
A339
1000
ASC_SEEDPOINT
1011
14.73245321214324
1021
2.798246178283421
1031
0.0
1000
R14_HATCH_DATA
1000
A377
1011
1.0
1021
0.0
1031
0.0
1011
0.0
1021
1.0
1031
0.0
1011
0.0
1021
0.0
1031
1.0
1040
0.0
1010
0.0
1020
0.0
1030
1.0
1000
ANSI37
1070
     0
1070
     1
1071
        1
1071
        7
1070
     0
1070
     1
1071
       10
1040
16.46099999998353
1040
5.432899999994561
1040
18.59199999998134
1040
-0.2368999999997641
1040
22.38199999997767
1040
8.763099999991255
1040
20.89099999997916
1040
8.763099999991255
1040
18.59799999998143
1040
3.315799999996671
1040
16.46099999998353
1040
8.999899999990987
1040
14.32399999998563
1040
3.315799999996671
1040
12.02999999998792
1040
8.763099999991255
1040
10.53899999998941
1040
8.763099999991255
1040
14.32899999998563
1040
-0.2368999999997641
1071
       10
1005
A337
1005
A338
1005
A359
1005
A357
1005
A358
1005
A34B
1005
A350
1005
A354
1005
A33A
1005
A339
1070
     0
1070
     1
1040
0.0
1040
0.15
1070
     0
1070
     2
1040
0.7853981633974483
1040
49.29960901727088
1040
-10.17736998311392
1040
-0.3367596045400932
1040
0.3367596045400932
1070
     0
1040
2.356194490192345
1040
49.29960901727088
1040
-10.17736998311392
1040
-0.3367596045400932
1040
-0.3367596045400932
1070
     0
1040
0.0110235143455945
1071
        1
1040
14.73245321214324
1040
2.798246178283421
1040
0.0
1002
}
  0
INSERT
  5
A378
330
A333
100
AcDbEntity
  8
0
100
AcDbBlockReference
  2
*X60
 10
0.0
 20
0.0
 30
0.0
1001
ACAD
1000
HATCH
1002
{
1070
    19
1000
ANSI37
1040
0.15
1040
0.0
1000
ASC_BOUNDS
1070
     2
1070
     2
1070
    13
1005
A33B
1005
A348
1005
A349
1005
A347
1005
A34A
1005
A371
1005
A375
1005
A370
1005
A36F
1005
A372
1005
A374
1005
A373
1005
A33C
1070
     2
1070
     3
1005
A355
1005
A35A
1005
A356
1000
ASC_SEEDPOINT
1011
21.97929957367762
1021
3.294304244259308
1031
0.0
1000
R14_HATCH_DATA
1000
A378
1011
1.0
1021
0.0
1031
0.0
1011
0.0
1021
1.0
1031
0.0
1011
0.0
1021
0.0
1031
1.0
1040
0.0
1010
0.0
1020
0.0
1030
1.0
1000
ANSI37
1070
     0
1070
     1
1071
        2
1071
        7
1070
     1
1070
     1
1071
       15
1040
23.56599999997638
1040
8.999899999990987
1040
0.0
1040
19.53899999998043
1040
-0.0001000000000317
1040
0.0
1040
19.53899999998043
1040
0.0
1040
0.0
1040
21.09599999997886
1040
0.0
1040
0.0
1040
21.09599999997886
1040
-0.0001000000000317
1040
0.0
1040
22.15599999997789
1040
2.368399999997621
1040
0.0
1040
24.97599999997499
1040
2.368399999997621
1040
0.0
1040
26.02015566812236
1040
0.0330999999912365
1040
0.0
1040
28.40199999996923
1040
0.0330999999912365
1040
0.414213562373095
1040
30.74199999996923
1040
2.373099999991211
1040
0.0
1040
30.74199999996927
1040
8.763099999991255
1040
0.0
1040
29.30199999996933
1040
8.763099999991255
1040
0.0
1040
29.30199999996933
1040
2.283099999991236
1040
-0.414213562373095
1040
28.40199999996923
1040
1.383099999991237
1040
0.0
1040
26.97358892824991
1040
1.383099999991202
1040
0.0
1071
       13
1005
A33B
1005
A348
1005
A349
1005
A347
1005
A34A
1005
A371
1005
A375
1005
A370
1005
A36F
1005
A372
1005
A374
1005
A373
1005
A33C
1071
       22
1070
     0
1070
     1
1071
        3
1040
22.7389999999773
1040
3.670999999996297
1040
23.56599999997638
1040
5.5200999999945
1040
24.39299999997559
1040
3.670999999996297
1071
        3
1005
A355
1005
A35A
1005
A356
1070
     0
1070
     1
1040
0.0
1040
0.15
1070
     0
1070
     2
1040
0.7853981633974483
1040
49.29960901727088
1040
-10.17736998311392
1040
-0.3367596045400932
1040
0.3367596045400932
1070
     0
1040
2.356194490192345
1040
49.29960901727088
1040
-10.17736998311392
1040
-0.3367596045400932
1040
-0.3367596045400932
1070
     0
1040
0.0110235143455945
1071
        2
1040
21.97929957367762
1040
3.294304244259308
1040
0.0
1040
21.97929957367762
1040
3.294304244259308
1040
0.0
1002
}
  0
INSERT
  5
A379
330
A333
100
AcDbEntity
  8
0
100
AcDbBlockReference
  2
*X61
 10
0.0
 20
0.0
 30
0.0
1001
ACAD
1000
HATCH
1002
{
1070
    19
1000
ANSI37
1040
0.15
1040
0.0
1000
R14_HATCH_DATA
1000
A379
1011
1.0
1021
0.0
1031
0.0
1011
0.0
1021
1.0
1031
0.0
1011
0.0
1021
0.0
1031
1.0
1040
0.0
1010
0.0
1020
0.0
1030
1.0
1000
ANSI37
1070
     0
1070
     1
1071
        1
1071
        7
1070
     1
1070
     1
1071
       12
1040
31.64199999996833
1040
2.481619422925121
1040
0.2679491924310942
1040
32.94699999997067
1040
0.2212931190493919
1040
0.2679491924301353
1040
36.36699999995983
1040
0.2212931190459813
1040
0.2679491924321411
1040
37.67199999996831
1040
2.481619422928361
1040
0.0
1040
37.67199999996831
1040
8.763099999991255
1040
0.0
1040
36.23199999996837
1040
8.763099999991255
1040
0.0
1040
36.23199999996837
1040
2.481619422925064
1040
-0.2679491924310291
1040
35.64699999996708
1040
1.468369700498386
1040
-0.267949192430519
1040
33.66699999997093
1040
1.468369700497703
1040
-0.267949192431809
1040
33.08199999996839
1040
2.481619422926997
1040
0.0
1040
33.08199999996839
1040
8.763099999991255
1040
0.0
1040
31.64199999996833
1040
8.763099999991255
1040
0.0
1071
        0
1070
     0
1070
     1
1040
0.0
1040
0.15
1070
     0
1070
     2
1040
0.7853981633974483
1040
49.29960901727088
1040
-10.17736998311392
1040
-0.3367596045400932
1040
0.3367596045400932
1070
     0
1040
2.356194490192345
1040
49.29960901727088
1040
-10.17736998311392
1040
-0.3367596045400932
1040
-0.3367596045400932
1070
     0
1040
0.0110235143455945
1071
        1
1040
32.30357378967278
1040
3.988785755459219
1040
0.0
1002
}
  0
INSERT
  5
A37A
330
A333
100
AcDbEntity
  8
0
100
AcDbBlockReference
  2
*X62
 10
0.0
 20
0.0
 30
0.0
1001
ACAD
1000
HATCH
1002
{
1070
    19
1000
ANSI37
1040
0.15
1040
0.0
1000
ASC_BOUNDS
1070
     1
1070
     2
1070
     8
1005
A35B
1005
A35E
1005
A362
1005
A361
1005
A360
1005
A35D
1005
A35F
1005
A35C
1000
ASC_SEEDPOINT
1011
39.74896370716704
1021
4.484843821435049
1031
0.0
1000
R14_HATCH_DATA
1000
A37A
1011
1.0
1021
0.0
1031
0.0
1011
0.0
1021
1.0
1031
0.0
1011
0.0
1021
0.0
1031
1.0
1040
0.0
1010
0.0
1020
0.0
1030
1.0
1000
ANSI37
1070
     0
1070
     1
1071
        1
1071
        7
1070
     0
1070
     1
1071
        9
1040
40.02599999995994
1040
5.341799999994635
1040
44.99999999995498
1040
-0.2368999999997641
1040
44.99999999995498
1040
8.763099999991255
1040
43.57899999995641
1040
8.763099999991255
1040
43.57899999995641
1040
3.421199999996588
1040
38.60499999996136
1040
8.999899999990987
1040
38.60499999996136
1040
8.999999999991019
1040
38.60499999996136
1040
0.0
1040
40.02599999995994
1040
0.0
1071
        8
1005
A35B
1005
A35E
1005
A362
1005
A361
1005
A360
1005
A35D
1005
A35F
1005
A35C
1070
     0
1070
     1
1040
0.0
1040
0.15
1070
     0
1070
     2
1040
0.7853981633974483
1040
49.29960901727088
1040
-10.17736998311392
1040
-0.3367596045400932
1040
0.3367596045400932
1070
     0
1040
2.356194490192345
1040
49.29960901727088
1040
-10.17736998311392
1040
-0.3367596045400932
1040
-0.3367596045400932
1070
     0
1040
0.0110235143455945
1071
        1
1040
39.74896370716704
1040
4.484843821435049
1040
0.0
1002
}
  0
INSERT
  5
A37B
330
A333
100
AcDbEntity
  8
0
100
AcDbBlockReference
  2
*X63
 10
0.0
 20
0.0
 30
0.0
1001
ACAD
1000
HATCH
1002
{
1070
    19
1000
ANSI37
1040
0.15
1040
0.0
1000
ASC_BOUNDS
1070
     1
1070
     2
1070
     4
1005
A33F
1005
A34E
1005
A340
1005
A342
1000
ASC_SEEDPOINT
1011
1.079051535452663
1021
4.148538732891836
1031
0.0
1000
R14_HATCH_DATA
1000
A37B
1011
1.0
1021
0.0
1031
0.0
1011
0.0
1021
1.0
1031
0.0
1011
0.0
1021
0.0
1031
1.0
1040
0.0
1010
0.0
1020
0.0
1030
1.0
1000
ANSI37
1070
     0
1070
     1
1071
        1
1071
        7
1070
     0
1070
     1
1071
        4
1040
1.420999999998571
1040
0.0
1040
1.420999999998571
1040
8.763099999991255
1040
0.0
1040
8.763099999991255
1040
0.0
1040
0.0
1071
        4
1005
A33F
1005
A34E
1005
A340
1005
A342
1070
     0
1070
     1
1040
0.0
1040
0.15
1070
     0
1070
     2
1040
0.7853981633974483
1040
49.29960901727088
1040
-10.17736998311392
1040
-0.3367596045400932
1040
0.3367596045400932
1070
     0
1040
2.356194490192345
1040
49.29960901727088
1040
-10.17736998311392
1040
-0.3367596045400932
1040
-0.3367596045400932
1070
     0
1040
0.0053004257112761
1071
        1
1040
1.079051535452663
1040
4.148538732891836
1040
0.0
1002
}
  0
ENDBLK
  5
AA57
330
A333
100
AcDbEntity
  8
0
100
AcDbBlockEnd
  0
BLOCK
  5
C49F
330
C311
100
AcDbEntity
  8
0
100
AcDbBlockBegin
  2
*X58
 70
     1
 10
0.0
 20
0.0
 30
0.0
  3
*X58
  1

  0
LINE
  5
C312
330
C311
100
AcDbEntity
  8
0
  6
CONTINUOUS
100
AcDbLine
 10
3.418023043697893
 20
7.251849696850613
 30
0.0
 11
4.929273346838536
 21
8.763099999991255
 31
0.0
  0
LINE
  5
C313
330
C311
100
AcDbEntity
  8
0
  6
CONTINUOUS
100
AcDbLine
 10
1.483656411257782
 20
4.643963855330318
 30
0.0
 11
5.60279255591872
 21
8.763099999991255
 31
0.0
  0
LINE
  5
C314
330
C311
100
AcDbEntity
  8
0
  6
CONTINUOUS
100
AcDbLine
 10
1.755053947328235
 20
4.241842182320584
 30
0.0
 11
6.276311764998907
 21
8.763099999991255
 31
0.0
  0
LINE
  5
C315
330
C311
100
AcDbEntity
  8
0
  6
CONTINUOUS
100
AcDbLine
 10
2.026451483398688
 20
3.839720509310849
 30
0.0
 11
4.441040904851878
 21
6.254309930764039
 31
0.0
  0
LINE
  5
C316
330
C311
100
AcDbEntity
  8
0
  6
CONTINUOUS
100
AcDbLine
 10
2.297849019469139
 20
3.437598836301114
 30
0.0
 11
3.321765168359338
 21
4.461514985191313
 31
0.0
  0
LINE
  5
C317
330
C311
100
AcDbEntity
  8
0
  6
CONTINUOUS
100
AcDbLine
 10
2.569246555539591
 20
3.03547716329138
 30
0.0
 11
3.593163397972743
 21
4.059394005724531
 31
0.0
  0
LINE
  5
C318
330
C311
100
AcDbEntity
  8
0
  6
CONTINUOUS
100
AcDbLine
 10
2.840644091610043
 20
2.633355490281646
 30
0.0
 11
3.864561627586149
 21
3.657273026257751
 31
0.0
  0
LINE
  5
C319
330
C311
100
AcDbEntity
  8
0
  6
CONTINUOUS
100
AcDbLine
 10
3.112041627680496
 20
2.231233817271911
 30
0.0
 11
4.135959857199554
 21
3.25515204679097
 31
0.0
  0
LINE
  5
C31A
330
C311
100
AcDbEntity
  8
0
  6
CONTINUOUS
100
AcDbLine
 10
3.383439163750948
 20
1.829112144262177
 30
0.0
 11
4.40735808681296
 21
2.853031067324189
 31
0.0
  0
LINE
  5
C31B
330
C311
100
AcDbEntity
  8
0
  6
CONTINUOUS
100
AcDbLine
 10
3.654836699821399
 20
1.426990471252442
 30
0.0
 11
4.678756316426365
 21
2.450910087857407
 31
0.0
  0
LINE
  5
C31C
330
C311
100
AcDbEntity
  8
0
  6
CONTINUOUS
100
AcDbLine
 10
3.926234235891853
 20
1.024868798242709
 30
0.0
 11
4.95015454603977
 21
2.048789108390626
 31
0.0
  0
LINE
  5
C31D
330
C311
100
AcDbEntity
  8
0
  6
CONTINUOUS
100
AcDbLine
 10
4.197631771962304
 20
0.6227471252329737
 30
0.0
 11
5.221552775653176
 21
1.646668128923846
 31
0.0
  0
LINE
  5
C31E
330
C311
100
AcDbEntity
  8
0
  6
CONTINUOUS
100
AcDbLine
 10
8.715877546767851
 20
7.835069736359266
 30
0.0
 11
9.435953450375058
 21
8.555145639966472
 31
0.0
  0
LINE
  5
C31F
330
C311
100
AcDbEntity
  8
0
  6
CONTINUOUS
100
AcDbLine
 10
8.170620868422267
 20
6.616293848933497
 30
0.0
 11
9.644120833743461
 21
8.08979381425469
 31
0.0
  0
LINE
  5
C320
330
C311
100
AcDbEntity
  8
0
  6
CONTINUOUS
100
AcDbLine
 10
7.625364190076684
 20
5.397517961507727
 30
0.0
 11
9.852288217111864
 21
7.624441988542907
 31
0.0
  0
LINE
  5
C321
330
C311
100
AcDbEntity
  8
0
  6
CONTINUOUS
100
AcDbLine
 10
7.080107511731101
 20
4.178742074081957
 30
0.0
 11
10.06045560048027
 21
7.159090162831124
 31
0.0
  0
LINE
  5
C322
330
C311
100
AcDbEntity
  8
0
  6
CONTINUOUS
100
AcDbLine
 10
6.534850833385518
 20
2.959966186656187
 30
0.0
 11
10.26862298384867
 21
6.693738337119342
 31
0.0
  0
LINE
  5
C323
330
C311
100
AcDbEntity
  8
0
  6
CONTINUOUS
100
AcDbLine
 10
4.469029308032756
 20
0.2206254522232385
 30
0.0
 11
5.492951005266582
 21
1.244547149457064
 31
0.0
  0
LINE
  5
C324
330
C311
100
AcDbEntity
  8
0
  6
CONTINUOUS
100
AcDbLine
 10
5.989594155039935
 20
1.741190299230417
 30
0.0
 11
8.806950407233131
 21
4.558546551423613
 31
0.0
  0
LINE
  5
C325
330
C311
100
AcDbEntity
  8
0
  6
CONTINUOUS
100
AcDbLine
 10
9.401251593263643
 20
5.152847737454126
 30
0.0
 11
10.47679036721708
 21
6.228386511407559
 31
0.0
  0
LINE
  5
C326
330
C311
100
AcDbEntity
  8
0
  6
CONTINUOUS
100
AcDbLine
 10
4.921837203428691
 20
-0.0000858614610131
 30
0.0
 11
8.592923064886001
 21
3.670999999996297
 31
0.0
  0
LINE
  5
C327
330
C311
100
AcDbEntity
  8
0
  6
CONTINUOUS
100
AcDbLine
 10
9.609390446785305
 20
4.6874673818956
 30
0.0
 11
10.68495775058548
 21
5.763034685695775
 31
0.0
  0
LINE
  5
C328
330
C311
100
AcDbEntity
  8
0
  6
CONTINUOUS
100
AcDbLine
 10
5.595387755019432
 20
-0.0000545189504582
 30
0.0
 11
7.716137258923768
 21
2.120694984953879
 31
0.0
  0
LINE
  5
C329
330
C311
100
AcDbEntity
  8
0
  6
CONTINUOUS
100
AcDbLine
 10
6.268938306610172
 20
-0.000023176439905
 30
0.0
 11
7.170485805526503
 21
0.9015243224764267
 31
0.0
  0
LINE
  5
C32A
330
C311
100
AcDbEntity
  8
0
  6
CONTINUOUS
100
AcDbLine
 10
7.963842273967511
 20
2.368399999997621
 30
0.0
 11
9.266442273966188
 21
3.670999999996297
 31
0.0
  0
LINE
  5
C32B
330
C311
100
AcDbEntity
  8
0
  6
CONTINUOUS
100
AcDbLine
 10
8.637361483047696
 20
2.368399999997621
 30
0.0
 11
9.939961483046375
 21
3.670999999996297
 31
0.0
  0
LINE
  5
C32C
330
C311
100
AcDbEntity
  8
0
  6
CONTINUOUS
100
AcDbLine
 10
9.817529300306965
 20
4.222087026337075
 30
0.0
 11
10.89312513395388
 21
5.297682859983993
 31
0.0
  0
LINE
  5
C32D
330
C311
100
AcDbEntity
  8
0
  6
CONTINUOUS
100
AcDbLine
 10
10.02566815382863
 20
3.756706670778549
 30
0.0
 11
11.10129251732229
 21
4.832331034272211
 31
0.0
  0
LINE
  5
C32E
330
C311
100
AcDbEntity
  8
0
  6
CONTINUOUS
100
AcDbLine
 10
9.310880692127883
 20
2.368399999997621
 30
0.0
 11
11.30945990069069
 21
4.366979208560428
 31
0.0
  0
LINE
  5
C32F
330
C311
100
AcDbEntity
  8
0
  6
CONTINUOUS
100
AcDbLine
 10
9.98439990120807
 20
2.36839999999762
 30
0.0
 11
11.5176272840591
 21
3.901627382848645
 31
0.0
  0
LINE
  5
C330
330
C311
100
AcDbEntity
  8
0
  6
CONTINUOUS
100
AcDbLine
 10
10.65037369446246
 20
2.36085458417182
 30
0.0
 11
11.7257946674275
 21
3.436275557136862
 31
0.0
  0
LINE
  5
C331
330
C311
100
AcDbEntity
  8
0
  6
CONTINUOUS
100
AcDbLine
 10
10.85847197087848
 20
1.895433651507656
 30
0.0
 11
11.9339620507959
 21
2.97092373142508
 31
0.0
  0
LINE
  5
C332
330
C311
100
AcDbEntity
  8
0
  6
CONTINUOUS
100
AcDbLine
 10
11.0665702472945
 20
1.430012718843491
 30
0.0
 11
12.14212943416431
 21
2.505571905713296
 31
0.0
  0
LINE
  5
C333
330
C311
100
AcDbEntity
  8
0
  6
CONTINUOUS
100
AcDbLine
 10
11.27466852371052
 20
0.9645917861793256
 30
0.0
 11
12.35029681753271
 21
2.040220080001513
 31
0.0
  0
LINE
  5
C334
330
C311
100
AcDbEntity
  8
0
  6
CONTINUOUS
100
AcDbLine
 10
11.48276680012654
 20
0.4991708535151611
 30
0.0
 11
12.55846420090111
 21
1.57486825428973
 31
0.0
  0
LINE
  5
C335
330
C311
100
AcDbEntity
  8
0
  6
CONTINUOUS
100
AcDbLine
 10
11.69086507654257
 20
0.0337499208509957
 30
0.0
 11
12.76663158426952
 21
1.109516428577947
 31
0.0
  0
LINE
  5
C336
330
C311
100
AcDbEntity
  8
0
  6
CONTINUOUS
100
AcDbLine
 10
12.33057447873954
 20
-0.0000598860322123
 30
0.0
 11
12.97479896763792
 21
0.6441646028661663
 31
0.0
  0
LINE
  5
C337
330
C311
100
AcDbEntity
  8
0
  6
CONTINUOUS
100
AcDbLine
 10
13.00413694809395
 20
-0.0000166257579952
 30
0.0
 11
13.18296635100632
 21
0.1788127771543824
 31
0.0
  0
LINE
  5
C338
330
C311
100
AcDbEntity
  8
0
  6
CONTINUOUS
100
AcDbLine
 10
4.772852165289667
 20
-0.000092794222212
 30
0.0
 11
4.296495091028902
 21
0.4762642800385528
 31
0.0
  0
LINE
  5
C339
330
C311
100
AcDbEntity
  8
0
  6
CONTINUOUS
100
AcDbLine
 10
5.446340034776103
 20
-0.0000614546284616
 30
0.0
 11
2.898195908335625
 21
2.548082671812017
 31
0.0
  0
LINE
  5
C33A
330
C311
100
AcDbEntity
  8
0
  6
CONTINUOUS
100
AcDbLine
 10
6.119827904262539
 20
-0.0000301150347113
 30
0.0
 11
1.499896725642348
 21
4.61990106358548
 31
0.0
  0
LINE
  5
C33B
330
C311
100
AcDbEntity
  8
0
  6
CONTINUOUS
100
AcDbLine
 10
6.775136745476159
 20
0.0181802528318542
 30
0.0
 11
5.699826040202669
 21
1.093490958105344
 31
0.0
  0
LINE
  5
C33C
330
C311
100
AcDbEntity
  8
0
  6
CONTINUOUS
100
AcDbLine
 10
6.983376846288489
 20
0.4834593610997118
 30
0.0
 11
5.908008617934405
 21
1.558827589453796
 31
0.0
  0
LINE
  5
C33D
330
C311
100
AcDbEntity
  8
0
  6
CONTINUOUS
100
AcDbLine
 10
5.377063484962296
 20
1.416253513345719
 30
0.0
 11
1.702276957014131
 21
5.091040041293883
 31
0.0
  0
LINE
  5
C33E
330
C311
100
AcDbEntity
  8
0
  6
CONTINUOUS
100
AcDbLine
 10
3.978745891735324
 20
3.488090315652877
 30
0.0
 11
2.000373521109399
 21
5.466462686278803
 31
0.0
  0
LINE
  5
C33F
330
C311
100
AcDbEntity
  8
0
  6
CONTINUOUS
100
AcDbLine
 10
7.191616947100819
 20
0.948738469367568
 30
0.0
 11
6.11619119566614
 21
2.024164220802247
 31
0.0
  0
LINE
  5
C340
330
C311
100
AcDbEntity
  8
0
  6
CONTINUOUS
100
AcDbLine
 10
7.399857047913149
 20
1.414017577635424
 30
0.0
 11
6.324373773397875
 21
2.489500852150698
 31
0.0
  0
LINE
  5
C341
330
C311
100
AcDbEntity
  8
0
  6
CONTINUOUS
100
AcDbLine
 10
7.608097148725479
 20
1.879296685903281
 30
0.0
 11
6.53255635112961
 21
2.95483748349915
 31
0.0
  0
LINE
  5
C342
330
C311
100
AcDbEntity
  8
0
  6
CONTINUOUS
100
AcDbLine
 10
7.816337249537808
 20
2.344575794171138
 30
0.0
 11
6.740738928861345
 21
3.420174114847601
 31
0.0
  0
LINE
  5
C343
330
C311
100
AcDbEntity
  8
0
  6
CONTINUOUS
100
AcDbLine
 10
3.310241080789734
 20
4.830114335678653
 30
0.0
 11
2.298470085204666
 21
5.84188533126372
 31
0.0
  0
LINE
  5
C344
330
C311
100
AcDbEntity
  8
0
  6
CONTINUOUS
100
AcDbLine
 10
3.60832983563551
 20
5.205544789913063
 30
0.0
 11
2.596566649299935
 21
6.217307976248638
 31
0.0
  0
LINE
  5
C345
330
C311
100
AcDbEntity
  8
0
  6
CONTINUOUS
100
AcDbLine
 10
3.906418590481286
 20
5.580975244147473
 30
0.0
 11
2.894663213395203
 21
6.592730621233557
 31
0.0
  0
LINE
  5
C346
330
C311
100
AcDbEntity
  8
0
  6
CONTINUOUS
100
AcDbLine
 10
4.204507345327062
 20
5.956405698381884
 30
0.0
 11
3.192759777490472
 21
6.968153266218474
 31
0.0
  0
LINE
  5
C347
330
C311
100
AcDbEntity
  8
0
  6
CONTINUOUS
100
AcDbLine
 10
8.466032252791512
 20
2.368399999997621
 30
0.0
 11
6.948921506593081
 21
3.885510746196053
 31
0.0
  0
LINE
  5
C348
330
C311
100
AcDbEntity
  8
0
  6
CONTINUOUS
100
AcDbLine
 10
9.139551461871699
 20
2.36839999999762
 30
0.0
 11
7.157104084324816
 21
4.350847377544504
 31
0.0
  0
LINE
  5
C349
330
C311
100
AcDbEntity
  8
0
  6
CONTINUOUS
100
AcDbLine
 10
4.502596100172839
 20
6.331836152616295
 30
0.0
 11
3.49085634158574
 21
7.343575911203393
 31
0.0
  0
LINE
  5
C34A
330
C311
100
AcDbEntity
  8
0
  6
CONTINUOUS
100
AcDbLine
 10
4.800684855018615
 20
6.707266606850705
 30
0.0
 11
3.788952905681008
 21
7.718998556188312
 31
0.0
  0
LINE
  5
C34B
330
C311
100
AcDbEntity
  8
0
  6
CONTINUOUS
100
AcDbLine
 10
12.18154012887317
 20
-0.0000694579236642
 30
0.0
 11
11.32140332908496
 21
0.8600673418645499
 31
0.0
  0
LINE
  5
C34C
330
C311
100
AcDbEntity
  8
0
  6
CONTINUOUS
100
AcDbLine
 10
12.85501608323566
 20
-0.0000262032059659
 30
0.0
 11
10.77672456435345
 21
2.078265315676246
 31
0.0
  0
LINE
  5
C34D
330
C311
100
AcDbEntity
  8
0
  6
CONTINUOUS
100
AcDbLine
 10
9.813070670951886
 20
2.36839999999762
 30
0.0
 11
8.51047067095321
 21
3.670999999996297
 31
0.0
  0
LINE
  5
C34E
330
C311
100
AcDbEntity
  8
0
  6
CONTINUOUS
100
AcDbLine
 10
10.48658988003207
 20
2.36839999999762
 30
0.0
 11
9.183989880033396
 21
3.670999999996297
 31
0.0
  0
LINE
  5
C34F
330
C311
100
AcDbEntity
  8
0
  6
CONTINUOUS
100
AcDbLine
 10
8.441048632286794
 20
3.740422038662712
 30
0.0
 11
7.365286662056551
 21
4.816184008892956
 31
0.0
  0
LINE
  5
C350
330
C311
100
AcDbEntity
  8
0
  6
CONTINUOUS
100
AcDbLine
 10
8.649187485808454
 20
4.205802394221237
 30
0.0
 11
7.573469239788285
 21
5.281520640241407
 31
0.0
  0
LINE
  5
C351
330
C311
100
AcDbEntity
  8
0
  6
CONTINUOUS
100
AcDbLine
 10
5.098773609864391
 20
7.082697061085115
 30
0.0
 11
4.087049469776277
 21
8.09442120117323
 31
0.0
  0
LINE
  5
C352
330
C311
100
AcDbEntity
  8
0
  6
CONTINUOUS
100
AcDbLine
 10
5.396862364710167
 20
7.458127515319526
 30
0.0
 11
4.385146033871544
 21
8.469843846158149
 31
0.0
  0
LINE
  5
C353
330
C311
100
AcDbEntity
  8
0
  6
CONTINUOUS
100
AcDbLine
 10
13.04801363231285
 20
0.4804954567970334
 30
0.0
 11
9.85750908911358
 21
3.670999999996297
 31
0.0
  0
LINE
  5
C354
330
C311
100
AcDbEntity
  8
0
  6
CONTINUOUS
100
AcDbLine
 10
8.857326339330116
 20
4.671182749779763
 30
0.0
 11
7.781651817520021
 21
5.746857271589858
 31
0.0
  0
LINE
  5
C355
330
C311
100
AcDbEntity
  8
0
  6
CONTINUOUS
100
AcDbLine
 10
5.694951119555943
 20
7.833557969553937
 30
0.0
 11
4.765409089118624
 21
8.763099999991255
 31
0.0
  0
LINE
  5
C356
330
C311
100
AcDbEntity
  8
0
  6
CONTINUOUS
100
AcDbLine
 10
12.50286117236978
 20
1.699167125820288
 30
0.0
 11
9.68611877250287
 21
4.515909525687196
 31
0.0
  0
LINE
  5
C357
330
C311
100
AcDbEntity
  8
0
  6
CONTINUOUS
100
AcDbLine
 10
9.065465192851777
 20
5.136563105338288
 30
0.0
 11
7.989834395251757
 21
6.21219390293831
 31
0.0
  0
LINE
  5
C358
330
C311
100
AcDbEntity
  8
0
  6
CONTINUOUS
100
AcDbLine
 10
5.993039874401719
 20
8.208988423788346
 30
0.0
 11
5.43892829819881
 21
8.763099999991255
 31
0.0
  0
LINE
  5
C359
330
C311
100
AcDbEntity
  8
0
  6
CONTINUOUS
100
AcDbLine
 10
11.95770871242671
 20
2.917838794843543
 30
0.0
 11
8.19801697298349
 21
6.677530534286761
 31
0.0
  0
LINE
  5
C35A
330
C311
100
AcDbEntity
  8
0
  6
CONTINUOUS
100
AcDbLine
 10
6.291128629247495
 20
8.584418878022756
 30
0.0
 11
6.112447507278997
 21
8.763099999991255
 31
0.0
  0
LINE
  5
C35B
330
C311
100
AcDbEntity
  8
0
  6
CONTINUOUS
100
AcDbLine
 10
11.41255625248364
 20
4.136510463866797
 30
0.0
 11
8.406199550715227
 21
7.142867165635211
 31
0.0
  0
LINE
  5
C35C
330
C311
100
AcDbEntity
  8
0
  6
CONTINUOUS
100
AcDbLine
 10
10.86740379254057
 20
5.355182132890051
 30
0.0
 11
8.614382128446962
 21
7.608203796983664
 31
0.0
  0
LINE
  5
C35D
330
C311
100
AcDbEntity
  8
0
  6
CONTINUOUS
100
AcDbLine
 10
10.3222513325975
 20
6.573853801913305
 30
0.0
 11
8.822564706178696
 21
8.073540428332114
 31
0.0
  0
LINE
  5
C35E
330
C311
100
AcDbEntity
  8
0
  6
CONTINUOUS
100
AcDbLine
 10
9.777098872654436
 20
7.792525470936562
 30
0.0
 11
9.030747283910433
 21
8.538877059680566
 31
0.0
  0
ENDBLK
  5
C4A0
330
C311
100
AcDbEntity
  8
0
100
AcDbBlockEnd
  0
BLOCK
  5
C4A1
330
C35F
100
AcDbEntity
  8
0
100
AcDbBlockBegin
  2
*X59
 70
     1
 10
0.0
 20
0.0
 30
0.0
  3
*X59
  1

  0
LINE
  5
C360
330
C35F
100
AcDbEntity
  8
0
  6
CONTINUOUS
100
AcDbLine
 10
10.67292308101235
 20
8.445076852443387
 30
0.0
 11
10.99094622856022
 21
8.763099999991255
 31
0.0
  0
LINE
  5
C361
330
C35F
100
AcDbEntity
  8
0
  6
CONTINUOUS
100
AcDbLine
 10
10.87250383178748
 20
7.971138394138331
 30
0.0
 11
11.6644654376404
 21
8.763099999991255
 31
0.0
  0
LINE
  5
C362
330
C35F
100
AcDbEntity
  8
0
  6
CONTINUOUS
100
AcDbLine
 10
11.07208458256261
 20
7.497199935833273
 30
0.0
 11
12.12126590876355
 21
8.546381262034211
 31
0.0
  0
LINE
  5
C363
330
C35F
100
AcDbEntity
  8
0
  6
CONTINUOUS
100
AcDbLine
 10
11.27166533333774
 20
7.023261477528216
 30
0.0
 11
12.32085164573666
 21
8.072447789927136
 31
0.0
  0
LINE
  5
C364
330
C35F
100
AcDbEntity
  8
0
  6
CONTINUOUS
100
AcDbLine
 10
11.47124608411287
 20
6.549323019223158
 30
0.0
 11
12.52043738270977
 21
7.59851431782006
 31
0.0
  0
LINE
  5
C365
330
C35F
100
AcDbEntity
  8
0
  6
CONTINUOUS
100
AcDbLine
 10
11.670826834888
 20
6.075384560918101
 30
0.0
 11
12.72002311968288
 21
7.124580845712984
 31
0.0
  0
LINE
  5
C366
330
C35F
100
AcDbEntity
  8
0
  6
CONTINUOUS
100
AcDbLine
 10
11.87040758566313
 20
5.601446102613043
 30
0.0
 11
12.91960885665599
 21
6.650647373605907
 31
0.0
  0
LINE
  5
C367
330
C35F
100
AcDbEntity
  8
0
  6
CONTINUOUS
100
AcDbLine
 10
12.06998833643825
 20
5.127507644307986
 30
0.0
 11
13.1191945936291
 21
6.176713901498832
 31
0.0
  0
LINE
  5
C368
330
C35F
100
AcDbEntity
  8
0
  6
CONTINUOUS
100
AcDbLine
 10
12.26956908721338
 20
4.65356918600293
 30
0.0
 11
13.31878033060221
 21
5.702780429391757
 31
0.0
  0
LINE
  5
C369
330
C35F
100
AcDbEntity
  8
0
  6
CONTINUOUS
100
AcDbLine
 10
12.46914983798851
 20
4.179630727697873
 30
0.0
 11
13.51836606757532
 21
5.228846957284683
 31
0.0
  0
LINE
  5
C36A
330
C35F
100
AcDbEntity
  8
0
  6
CONTINUOUS
100
AcDbLine
 10
12.66873058876364
 20
3.705692269392816
 30
0.0
 11
13.71795180454843
 21
4.754913485177607
 31
0.0
  0
LINE
  5
C36B
330
C35F
100
AcDbEntity
  8
0
  6
CONTINUOUS
100
AcDbLine
 10
12.86831133953877
 20
3.231753811087759
 30
0.0
 11
13.91753754152154
 21
4.280980013070531
 31
0.0
  0
LINE
  5
C36C
330
C35F
100
AcDbEntity
  8
0
  6
CONTINUOUS
100
AcDbLine
 10
13.0678920903139
 20
2.757815352782702
 30
0.0
 11
14.11712327849465
 21
3.807046540963456
 31
0.0
  0
LINE
  5
C36D
330
C35F
100
AcDbEntity
  8
0
  6
CONTINUOUS
100
AcDbLine
 10
13.26747284108903
 20
2.283876894477644
 30
0.0
 11
14.31670901546777
 21
3.333113068856379
 31
0.0
  0
LINE
  5
C36E
330
C35F
100
AcDbEntity
  8
0
  6
CONTINUOUS
100
AcDbLine
 10
16.36767838827179
 20
8.751678487061342
 30
0.0
 11
16.50332410898388
 21
8.887324207773432
 31
0.0
  0
LINE
  5
C36F
330
C35F
100
AcDbEntity
  8
0
  6
CONTINUOUS
100
AcDbLine
 10
15.96190732182191
 20
7.67238821153127
 30
0.0
 11
16.68735328004734
 21
8.397834169756699
 31
0.0
  0
LINE
  5
C370
330
C35F
100
AcDbEntity
  8
0
  6
CONTINUOUS
100
AcDbLine
 10
15.55613625537202
 20
6.593097936001196
 30
0.0
 11
16.87138245111079
 21
7.908344131739965
 31
0.0
  0
LINE
  5
C371
330
C35F
100
AcDbEntity
  8
0
  6
CONTINUOUS
100
AcDbLine
 10
15.15036518892213
 20
5.513807660471122
 30
0.0
 11
17.05541162217424
 21
7.418854093723231
 31
0.0
  0
LINE
  5
C372
330
C35F
100
AcDbEntity
  8
0
  6
CONTINUOUS
100
AcDbLine
 10
14.74459412247225
 20
4.434517384941048
 30
0.0
 11
17.2394407932377
 21
6.929364055706499
 31
0.0
  0
LINE
  5
C373
330
C35F
100
AcDbEntity
  8
0
  6
CONTINUOUS
100
AcDbLine
 10
14.33882305602236
 20
3.355227109410975
 30
0.0
 11
17.42346996430115
 21
6.439874017689766
 31
0.0
  0
LINE
  5
C374
330
C35F
100
AcDbEntity
  8
0
  6
CONTINUOUS
100
AcDbLine
 10
13.46705359186416
 20
1.809938436172586
 30
0.0
 11
16.0819338255367
 21
4.424818669845129
 31
0.0
  0
LINE
  5
C375
330
C35F
100
AcDbEntity
  8
0
  6
CONTINUOUS
100
AcDbLine
 10
16.63283254238972
 20
4.975717386698149
 30
0.0
 11
17.60749913536461
 21
5.950383979673033
 31
0.0
  0
LINE
  5
C376
330
C35F
100
AcDbEntity
  8
0
  6
CONTINUOUS
100
AcDbLine
 10
13.66663434263929
 20
1.335999977867529
 30
0.0
 11
15.67604797733754
 21
3.345413612565779
 31
0.0
  0
LINE
  5
C377
330
C35F
100
AcDbEntity
  8
0
  6
CONTINUOUS
100
AcDbLine
 10
13.86621509341442
 20
0.8620615195624723
 30
0.0
 11
15.27016212913838
 21
2.26600855528643
 31
0.0
  0
LINE
  5
C378
330
C35F
100
AcDbEntity
  8
0
  6
CONTINUOUS
100
AcDbLine
 10
16.81682257348267
 20
4.486188208710908
 30
0.0
 11
17.79152830642806
 21
5.460893941656299
 31
0.0
  0
LINE
  5
C379
330
C35F
100
AcDbEntity
  8
0
  6
CONTINUOUS
100
AcDbLine
 10
17.00081260457561
 20
3.996659030723667
 30
0.0
 11
17.97555747749151
 21
4.971403903639565
 31
0.0
  0
LINE
  5
C37A
330
C35F
100
AcDbEntity
  8
0
  6
CONTINUOUS
100
AcDbLine
 10
20.74362343514722
 20
8.412989070375462
 30
0.0
 11
21.09373436476302
 21
8.763099999991256
 31
0.0
  0
LINE
  5
C37B
330
C35F
100
AcDbEntity
  8
0
  6
CONTINUOUS
100
AcDbLine
 10
20.25401257174777
 20
7.249858997895826
 30
0.0
 11
21.7672535738432
 21
8.763099999991255
 31
0.0
  0
LINE
  5
C37C
330
C35F
100
AcDbEntity
  8
0
  6
CONTINUOUS
100
AcDbLine
 10
14.06579584418955
 20
0.3881230612574149
 30
0.0
 11
14.86427628093921
 21
1.186603498007082
 31
0.0
  0
LINE
  5
C37D
330
C35F
100
AcDbEntity
  8
0
  6
CONTINUOUS
100
AcDbLine
 10
14.26537659496467
 20
-0.0858153970476412
 30
0.0
 11
14.45839043274005
 21
0.1071984407277329
 31
0.0
  0
LINE
  5
C37E
330
C35F
100
AcDbEntity
  8
0
  6
CONTINUOUS
100
AcDbLine
 10
17.18480263566856
 20
3.507129852736426
 30
0.0
 11
18.15958664855496
 21
4.481913865622833
 31
0.0
  0
LINE
  5
C37F
330
C35F
100
AcDbEntity
  8
0
  6
CONTINUOUS
100
AcDbLine
 10
17.3687926667615
 20
3.017600674749186
 30
0.0
 11
18.34361581961842
 21
3.9924238276061
 31
0.0
  0
LINE
  5
C380
330
C35F
100
AcDbEntity
  8
0
  6
CONTINUOUS
100
AcDbLine
 10
19.76440170834832
 20
6.086728925416191
 30
0.0
 11
22.33924590259489
 21
8.661573119662755
 31
0.0
  0
LINE
  5
C381
330
C35F
100
AcDbEntity
  8
0
  6
CONTINUOUS
100
AcDbLine
 10
19.27479084494887
 20
4.923598852936555
 30
0.0
 11
21.84929622842713
 21
7.498104236414807
 31
0.0
  0
LINE
  5
C382
330
C35F
100
AcDbEntity
  8
0
  6
CONTINUOUS
100
AcDbLine
 10
17.55278269785445
 20
2.528071496761945
 30
0.0
 11
18.52764499068187
 21
3.502933789589366
 31
0.0
  0
LINE
  5
C383
330
C35F
100
AcDbEntity
  8
0
  6
CONTINUOUS
100
AcDbLine
 10
18.78517998154942
 20
3.760468780456919
 30
0.0
 11
21.35934655425936
 21
6.33463535316686
 31
0.0
  0
LINE
  5
C384
330
C35F
100
AcDbEntity
  8
0
  6
CONTINUOUS
100
AcDbLine
 10
17.73677272894739
 20
2.038542318774704
 30
0.0
 11
20.8693968800916
 21
5.171166469918914
 31
0.0
  0
LINE
  5
C385
330
C35F
100
AcDbEntity
  8
0
  6
CONTINUOUS
100
AcDbLine
 10
17.92076276004034
 20
1.549013140787464
 30
0.0
 11
20.37944720592384
 21
4.007697586670968
 31
0.0
  0
LINE
  5
C386
330
C35F
100
AcDbEntity
  8
0
  6
CONTINUOUS
100
AcDbLine
 10
18.10475279113329
 20
1.059483962800223
 30
0.0
 11
19.88949753175608
 21
2.84422870342302
 31
0.0
  0
LINE
  5
C387
330
C35F
100
AcDbEntity
  8
0
  6
CONTINUOUS
100
AcDbLine
 10
18.28874282222623
 20
0.5699547848129822
 30
0.0
 11
19.39954785758832
 21
1.680759820175074
 31
0.0
  0
LINE
  5
C388
330
C35F
100
AcDbEntity
  8
0
  6
CONTINUOUS
100
AcDbLine
 10
18.47273285331918
 20
0.0804256068257416
 30
0.0
 11
18.90959818342056
 21
0.517290936927127
 31
0.0
  0
LINE
  5
C389
330
C35F
100
AcDbEntity
  8
0
  6
CONTINUOUS
100
AcDbLine
 10
14.3590401358224
 20
-0.1570118376323384
 30
0.0
 11
14.24903296539946
 21
-0.0470046672093929
 31
0.0
  0
LINE
  5
C38A
330
C35F
100
AcDbEntity
  8
0
  6
CONTINUOUS
100
AcDbLine
 10
14.54309291258661
 20
0.332454594683643
 30
0.0
 11
13.75908329123172
 21
1.116464216038529
 31
0.0
  0
LINE
  5
C38B
330
C35F
100
AcDbEntity
  8
0
  6
CONTINUOUS
100
AcDbLine
 10
14.72714568935081
 20
0.8219210269996244
 30
0.0
 11
13.26913361706399
 21
2.27993309928645
 31
0.0
  0
LINE
  5
C38C
330
C35F
100
AcDbEntity
  8
0
  6
CONTINUOUS
100
AcDbLine
 10
14.91119846611502
 20
1.311387459315606
 30
0.0
 11
12.77918394289625
 21
3.443401982534371
 31
0.0
  0
LINE
  5
C38D
330
C35F
100
AcDbEntity
  8
0
  6
CONTINUOUS
100
AcDbLine
 10
15.09525124287922
 20
1.800853891631587
 30
0.0
 11
12.28923426872852
 21
4.606870865782293
 31
0.0
  0
LINE
  5
C38E
330
C35F
100
AcDbEntity
  8
0
  6
CONTINUOUS
100
AcDbLine
 10
15.27930401964343
 20
2.290320323947569
 30
0.0
 11
11.79928459456078
 21
5.770339749030213
 31
0.0
  0
LINE
  5
C38F
330
C35F
100
AcDbEntity
  8
0
  6
CONTINUOUS
100
AcDbLine
 10
15.46335679640763
 20
2.77978675626355
 30
0.0
 11
14.48885470994921
 21
3.754288842721972
 31
0.0
  0
LINE
  5
C390
330
C35F
100
AcDbEntity
  8
0
  6
CONTINUOUS
100
AcDbLine
 10
13.88507249233704
 20
4.358071060334137
 30
0.0
 11
11.30933492039305
 21
6.933808632278135
 31
0.0
  0
LINE
  5
C391
330
C35F
100
AcDbEntity
  8
0
  6
CONTINUOUS
100
AcDbLine
 10
18.75840522805855
 20
0.1582575336928151
 30
0.0
 11
18.25383727664818
 21
0.6628254851031863
 31
0.0
  0
LINE
  5
C392
330
C35F
100
AcDbEntity
  8
0
  6
CONTINUOUS
100
AcDbLine
 10
15.64740957317184
 20
3.269253188579531
 30
0.0
 11
14.67288388101266
 21
4.243778880738705
 31
0.0
  0
LINE
  5
C393
330
C35F
100
AcDbEntity
  8
0
  6
CONTINUOUS
100
AcDbLine
 10
13.39509276772158
 20
5.521569994029786
 30
0.0
 11
10.81938524622531
 21
8.097277515526056
 31
0.0
  0
LINE
  5
C394
330
C35F
100
AcDbEntity
  8
0
  6
CONTINUOUS
100
AcDbLine
 10
18.95798597883369
 20
0.6321959919978686
 30
0.0
 11
17.84825644852853
 21
1.741925522303024
 31
0.0
  0
LINE
  5
C395
330
C35F
100
AcDbEntity
  8
0
  6
CONTINUOUS
100
AcDbLine
 10
19.15756672960882
 20
1.106134450302922
 30
0.0
 11
17.44267562040888
 21
2.821025559502861
 31
0.0
  0
LINE
  5
C396
330
C35F
100
AcDbEntity
  8
0
  6
CONTINUOUS
100
AcDbLine
 10
15.83146234993604
 20
3.758719620895513
 30
0.0
 11
14.85691305207612
 21
4.733268918755439
 31
0.0
  0
LINE
  5
C397
330
C35F
100
AcDbEntity
  8
0
  6
CONTINUOUS
100
AcDbLine
 10
16.01551512670025
 20
4.248186053211494
 30
0.0
 11
15.04094222313957
 21
5.222758956772172
 31
0.0
  0
LINE
  5
C398
330
C35F
100
AcDbEntity
  8
0
  6
CONTINUOUS
100
AcDbLine
 10
12.90511304310612
 20
6.685068927725435
 30
0.0
 11
10.8270819708403
 21
8.763099999991255
 31
0.0
  0
LINE
  5
C399
330
C35F
100
AcDbEntity
  8
0
  6
CONTINUOUS
100
AcDbLine
 10
12.41513331849066
 20
7.848567861421083
 30
0.0
 11
11.50060117992049
 21
8.763099999991255
 31
0.0
  0
LINE
  5
C39A
330
C35F
100
AcDbEntity
  8
0
  6
CONTINUOUS
100
AcDbLine
 10
19.35714748038395
 20
1.580072908607975
 30
0.0
 11
17.03709479228923
 21
3.900125596702697
 31
0.0
  0
LINE
  5
C39B
330
C35F
100
AcDbEntity
  8
0
  6
CONTINUOUS
100
AcDbLine
 10
19.55672823115909
 20
2.054011366913028
 30
0.0
 11
16.63151396416958
 21
4.979225633902534
 31
0.0
  0
LINE
  5
C39C
330
C35F
100
AcDbEntity
  8
0
  6
CONTINUOUS
100
AcDbLine
 10
16.19956790346445
 20
4.737652485527476
 30
0.0
 11
15.22497139420302
 21
5.712248994788904
 31
0.0
  0
LINE
  5
C39D
330
C35F
100
AcDbEntity
  8
0
  6
CONTINUOUS
100
AcDbLine
 10
16.38362068022866
 20
5.227118917843457
 30
0.0
 11
15.40900056526648
 21
6.201739032805637
 31
0.0
  0
LINE
  5
C39E
330
C35F
100
AcDbEntity
  8
0
  6
CONTINUOUS
100
AcDbLine
 10
19.75630898193422
 20
2.527949825218081
 30
0.0
 11
18.70774536448286
 21
3.576513442669441
 31
0.0
  0
LINE
  5
C39F
330
C35F
100
AcDbEntity
  8
0
  6
CONTINUOUS
100
AcDbLine
 10
19.95588973270936
 20
3.001888283523134
 30
0.0
 11
18.90726987211446
 21
4.050508144118028
 31
0.0
  0
LINE
  5
C3A0
330
C35F
100
AcDbEntity
  8
0
  6
CONTINUOUS
100
AcDbLine
 10
20.15547048348449
 20
3.475826741828186
 30
0.0
 11
19.10679437974606
 21
4.524502845566614
 31
0.0
  0
LINE
  5
C3A1
330
C35F
100
AcDbEntity
  8
0
  6
CONTINUOUS
100
AcDbLine
 10
20.35505123425962
 20
3.94976520013324
 30
0.0
 11
19.30631888737766
 21
4.998497547015201
 31
0.0
  0
LINE
  5
C3A2
330
C35F
100
AcDbEntity
  8
0
  6
CONTINUOUS
100
AcDbLine
 10
20.55463198503475
 20
4.423703658438292
 30
0.0
 11
19.50584339500926
 21
5.472492248463787
 31
0.0
  0
LINE
  5
C3A3
330
C35F
100
AcDbEntity
  8
0
  6
CONTINUOUS
100
AcDbLine
 10
18.37481191085755
 20
3.909446896294752
 30
0.0
 11
15.59302973632993
 21
6.691229070822371
 31
0.0
  0
LINE
  5
C3A4
330
C35F
100
AcDbEntity
  8
0
  6
CONTINUOUS
100
AcDbLine
 10
17.96904084440766
 20
4.988737171824825
 30
0.0
 11
15.77705890739338
 21
7.180719108839104
 31
0.0
  0
LINE
  5
C3A5
330
C35F
100
AcDbEntity
  8
0
  6
CONTINUOUS
100
AcDbLine
 10
17.56326977795777
 20
6.068027447354899
 30
0.0
 11
15.96108807845684
 21
7.670209146855838
 31
0.0
  0
LINE
  5
C3A6
330
C35F
100
AcDbEntity
  8
0
  6
CONTINUOUS
100
AcDbLine
 10
17.15749871150789
 20
7.147317722884972
 30
0.0
 11
16.14511724952029
 21
8.15969918487257
 31
0.0
  0
LINE
  5
C3A7
330
C35F
100
AcDbEntity
  8
0
  6
CONTINUOUS
100
AcDbLine
 10
16.751727645058
 20
8.226607998415046
 30
0.0
 11
16.32914642058374
 21
8.649189222889303
 31
0.0
  0
LINE
  5
C3A8
330
C35F
100
AcDbEntity
  8
0
  6
CONTINUOUS
100
AcDbLine
 10
20.75421273580989
 20
4.897642116743345
 30
0.0
 11
19.70536790264086
 21
5.946486949912374
 31
0.0
  0
LINE
  5
C3A9
330
C35F
100
AcDbEntity
  8
0
  6
CONTINUOUS
100
AcDbLine
 10
20.95379348658502
 20
5.371580575048398
 30
0.0
 11
19.90489241027246
 21
6.42048165136096
 31
0.0
  0
LINE
  5
C3AA
330
C35F
100
AcDbEntity
  8
0
  6
CONTINUOUS
100
AcDbLine
 10
21.15337423736015
 20
5.845519033353452
 30
0.0
 11
20.10441691790406
 21
6.894476352809547
 31
0.0
  0
LINE
  5
C3AB
330
C35F
100
AcDbEntity
  8
0
  6
CONTINUOUS
100
AcDbLine
 10
21.35295498813529
 20
6.319457491658505
 30
0.0
 11
20.30394142553566
 21
7.368471054258134
 31
0.0
  0
LINE
  5
C3AC
330
C35F
100
AcDbEntity
  8
0
  6
CONTINUOUS
100
AcDbLine
 10
21.55253573891042
 20
6.793395949963558
 30
0.0
 11
20.50346593316726
 21
7.842465755706721
 31
0.0
  0
LINE
  5
C3AD
330
C35F
100
AcDbEntity
  8
0
  6
CONTINUOUS
100
AcDbLine
 10
21.75211648968556
 20
7.267334408268612
 30
0.0
 11
20.70299044079886
 21
8.316460457155308
 31
0.0
  0
LINE
  5
C3AE
330
C35F
100
AcDbEntity
  8
0
  6
CONTINUOUS
100
AcDbLine
 10
21.95169724046069
 20
7.741272866573663
 30
0.0
 11
20.9298701070431
 21
8.763099999991256
 31
0.0
  0
LINE
  5
C3AF
330
C35F
100
AcDbEntity
  8
0
  6
CONTINUOUS
100
AcDbLine
 10
22.15127799123582
 20
8.215211324878716
 30
0.0
 11
21.60338931612328
 21
8.763099999991256
 31
0.0
  0
LINE
  5
C3B0
330
C35F
100
AcDbEntity
  8
0
  6
CONTINUOUS
100
AcDbLine
 10
22.35085874201096
 20
8.689149783183769
 30
0.0
 11
22.27690852520347
 21
8.763099999991255
 31
0.0
  0
ENDBLK
  5
C4A2
330
C35F
100
AcDbEntity
  8
0
100
AcDbBlockEnd
  0
BLOCK
  5
C4A3
330
C3B1
100
AcDbEntity
  8
0
100
AcDbBlockBegin
  2
*X60
 70
     1
 10
0.0
 20
0.0
 30
0.0
  3
*X60
  1

  0
LINE
  5
C3B2
330
C3B1
100
AcDbEntity
  8
0
  6
CONTINUOUS
100
AcDbLine
 10
23.19462913593892
 20
8.169917934846424
 30
0.0
 11
23.70775465517246
 21
8.683043454079957
 31
0.0
  0
LINE
  5
C3B3
330
C3B1
100
AcDbEntity
  8
0
  6
CONTINUOUS
100
AcDbLine
 10
22.64923161835078
 20
6.951001208178088
 30
0.0
 11
23.9159364069932
 21
8.217705996820516
 31
0.0
  0
LINE
  5
C3B4
330
C3B1
100
AcDbEntity
  8
0
  6
CONTINUOUS
100
AcDbLine
 10
22.10383410076263
 20
5.732084481509751
 30
0.0
 11
24.12411815881395
 21
7.752368539561078
 31
0.0
  0
LINE
  5
C3B5
330
C3B1
100
AcDbEntity
  8
0
  6
CONTINUOUS
100
AcDbLine
 10
21.55843658317447
 20
4.513167754841414
 30
0.0
 11
24.3322999106347
 21
7.287031082301639
 31
0.0
  0
LINE
  5
C3B6
330
C3B1
100
AcDbEntity
  8
0
  6
CONTINUOUS
100
AcDbLine
 10
21.01303906558632
 20
3.294251028173077
 30
0.0
 11
24.54048166245544
 21
6.821693625042199
 31
0.0
  0
LINE
  5
C3B7
330
C3B1
100
AcDbEntity
  8
0
  6
CONTINUOUS
100
AcDbLine
 10
20.46764154799817
 20
2.075334301504738
 30
0.0
 11
23.28571549467848
 21
4.89340824818505
 31
0.0
  0
LINE
  5
C3B8
330
C3B1
100
AcDbEntity
  8
0
  6
CONTINUOUS
100
AcDbLine
 10
19.92224403041002
 20
0.8564175748364002
 30
0.0
 11
22.74075865492779
 21
3.674932199354171
 31
0.0
  0
LINE
  5
C3B9
330
C3B1
100
AcDbEntity
  8
0
  6
CONTINUOUS
100
AcDbLine
 10
23.67305085490148
 20
5.280743608408048
 30
0.0
 11
24.74866341427619
 21
6.356356167782759
 31
0.0
  0
LINE
  5
C3BA
330
C3B1
100
AcDbEntity
  8
0
  6
CONTINUOUS
100
AcDbLine
 10
23.88118970842314
 20
4.815363252849522
 30
0.0
 11
24.95684516609694
 21
5.89101871052332
 31
0.0
  0
LINE
  5
C3BB
330
C3B1
100
AcDbEntity
  8
0
  6
CONTINUOUS
100
AcDbLine
 10
19.73925852647308
 20
-0.0000871381807288
 30
0.0
 11
23.4103456646501
 21
3.670999999996297
 31
0.0
  0
LINE
  5
C3BC
330
C3B1
100
AcDbEntity
  8
0
  6
CONTINUOUS
100
AcDbLine
 10
24.0893285619448
 20
4.349982897290997
 30
0.0
 11
25.16502691791769
 21
5.42568125326388
 31
0.0
  0
LINE
  5
C3BD
330
C3B1
100
AcDbEntity
  8
0
  6
CONTINUOUS
100
AcDbLine
 10
20.41282099582748
 20
-0.0000438779065108
 30
0.0
 11
21.64944178675636
 21
1.236576913022366
 31
0.0
  0
LINE
  5
C3BE
330
C3B1
100
AcDbEntity
  8
0
  6
CONTINUOUS
100
AcDbLine
 10
22.78126487373161
 20
2.36839999999762
 30
0.0
 11
24.08386487373029
 21
3.670999999996297
 31
0.0
  0
LINE
  5
C3BF
330
C3B1
100
AcDbEntity
  8
0
  6
CONTINUOUS
100
AcDbLine
 10
24.29746741546646
 20
3.884602541732471
 30
0.0
 11
25.37320866973843
 21
4.960343796004441
 31
0.0
  0
LINE
  5
C3C0
330
C3B1
100
AcDbEntity
  8
0
  6
CONTINUOUS
100
AcDbLine
 10
21.08638346518189
 20
-0.0000006176322938
 30
0.0
 11
21.10379033335899
 21
0.0174062505448083
 31
0.0
  0
LINE
  5
C3C1
330
C3B1
100
AcDbEntity
  8
0
  6
CONTINUOUS
100
AcDbLine
 10
23.4547840828118
 20
2.36839999999762
 30
0.0
 11
25.58139042155918
 21
4.495006338745002
 31
0.0
  0
LINE
  5
C3C2
330
C3B1
100
AcDbEntity
  8
0
  6
CONTINUOUS
100
AcDbLine
 10
29.30199999996933
 20
8.215615917155148
 30
0.0
 11
29.84948408280543
 21
8.763099999991255
 31
0.0
  0
LINE
  5
C3C3
330
C3B1
100
AcDbEntity
  8
0
  6
CONTINUOUS
100
AcDbLine
 10
24.12830329189199
 20
2.36839999999762
 30
0.0
 11
25.78957217337993
 21
4.029668881485562
 31
0.0
  0
LINE
  5
C3C4
330
C3B1
100
AcDbEntity
  8
0
  6
CONTINUOUS
100
AcDbLine
 10
29.30199999996933
 20
7.54209670807496
 30
0.0
 11
30.52300329188562
 21
8.763099999991255
 31
0.0
  0
LINE
  5
C3C5
330
C3B1
100
AcDbEntity
  8
0
  6
CONTINUOUS
100
AcDbLine
 10
24.80182250097217
 20
2.36839999999762
 30
0.0
 11
25.99775392520067
 21
3.564331424226122
 31
0.0
  0
LINE
  5
C3C6
330
C3B1
100
AcDbEntity
  8
0
  6
CONTINUOUS
100
AcDbLine
 10
29.30199999996933
 20
6.868577498994774
 30
0.0
 11
30.74199999996926
 21
8.308577498994712
 31
0.0
  0
LINE
  5
C3C7
330
C3B1
100
AcDbEntity
  8
0
  6
CONTINUOUS
100
AcDbLine
 10
25.13028238392013
 20
2.023340673865392
 30
0.0
 11
26.20593567702142
 21
3.098993966966683
 31
0.0
  0
LINE
  5
C3C8
330
C3B1
100
AcDbEntity
  8
0
  6
CONTINUOUS
100
AcDbLine
 10
25.33838066033617
 20
1.557919741201244
 30
0.0
 11
26.41411742884217
 21
2.633656509707244
 31
0.0
  0
LINE
  5
C3C9
330
C3B1
100
AcDbEntity
  8
0
  6
CONTINUOUS
100
AcDbLine
 10
25.54647893675221
 20
1.092498808537098
 30
0.0
 11
26.62229918066291
 21
2.168319052447804
 31
0.0
  0
LINE
  5
C3CA
330
C3B1
100
AcDbEntity
  8
0
  6
CONTINUOUS
100
AcDbLine
 10
25.75457721316825
 20
0.62707787587295
 30
0.0
 11
26.83048093248366
 21
1.702981595188365
 31
0.0
  0
LINE
  5
C3CB
330
C3B1
100
AcDbEntity
  8
0
  6
CONTINUOUS
100
AcDbLine
 10
29.30199999996933
 20
6.195058289914587
 30
0.0
 11
30.74199999996926
 21
7.635058289914522
 31
0.0
  0
LINE
  5
C3CC
330
C3B1
100
AcDbEntity
  8
0
  6
CONTINUOUS
100
AcDbLine
 10
29.30199999996933
 20
5.521539080834401
 30
0.0
 11
30.74199999996926
 21
6.961539080834331
 31
0.0
  0
LINE
  5
C3CD
330
C3B1
100
AcDbEntity
  8
0
  6
CONTINUOUS
100
AcDbLine
 10
29.30199999996933
 20
4.848019871754214
 30
0.0
 11
30.74199999996925
 21
6.288019871754143
 31
0.0
  0
LINE
  5
C3CE
330
C3B1
100
AcDbEntity
  8
0
  6
CONTINUOUS
100
AcDbLine
 10
29.30199999996933
 20
4.174500662674028
 30
0.0
 11
30.74199999996925
 21
5.614500662673953
 31
0.0
  0
LINE
  5
C3CF
330
C3B1
100
AcDbEntity
  8
0
  6
CONTINUOUS
100
AcDbLine
 10
25.96267548958429
 20
0.1616569432088024
 30
0.0
 11
27.18411854636669
 21
1.383099999991207
 31
0.0
  0
LINE
  5
C3D0
330
C3B1
100
AcDbEntity
  8
0
  6
CONTINUOUS
100
AcDbLine
 10
29.30199999996933
 20
3.500981453593841
 30
0.0
 11
30.74199999996925
 21
4.940981453593762
 31
0.0
  0
LINE
  5
C3D1
330
C3B1
100
AcDbEntity
  8
0
  6
CONTINUOUS
100
AcDbLine
 10
26.50763775544691
 20
0.0330999999912356
 30
0.0
 11
27.85763775544689
 21
1.383099999991223
 31
0.0
  0
LINE
  5
C3D2
330
C3B1
100
AcDbEntity
  8
0
  6
CONTINUOUS
100
AcDbLine
 10
29.30199999996933
 20
2.827462244513656
 30
0.0
 11
30.74199999996925
 21
4.267462244513574
 31
0.0
  0
LINE
  5
C3D3
330
C3B1
100
AcDbEntity
  8
0
  6
CONTINUOUS
100
AcDbLine
 10
27.18115696452709
 20
0.0330999999912356
 30
0.0
 11
28.55073879889363
 21
1.402681834357775
 31
0.0
  0
LINE
  5
C3D4
330
C3B1
100
AcDbEntity
  8
0
  6
CONTINUOUS
100
AcDbLine
 10
29.28241816560272
 20
2.134361201066866
 30
0.0
 11
30.74199999996924
 21
3.593943035433383
 31
0.0
  0
LINE
  5
C3D5
330
C3B1
100
AcDbEntity
  8
0
  6
CONTINUOUS
100
AcDbLine
 10
27.85467617360728
 20
0.0330999999912356
 30
0.0
 11
30.74199999996924
 21
2.920423826353195
 31
0.0
  0
LINE
  5
C3D6
330
C3B1
100
AcDbEntity
  8
0
  6
CONTINUOUS
100
AcDbLine
 10
28.53897559587887
 20
0.0438802131826428
 30
0.0
 11
30.73121978677781
 21
2.236124404081585
 31
0.0
  0
LINE
  5
C3D7
330
C3B1
100
AcDbEntity
  8
0
  6
CONTINUOUS
100
AcDbLine
 10
29.45140055588722
 20
0.2827859641107988
 30
0.0
 11
30.49231403584965
 21
1.323699444073236
 31
0.0
  0
LINE
  5
C3D8
330
C3B1
100
AcDbEntity
  8
0
  6
CONTINUOUS
100
AcDbLine
 10
19.59027867740337
 20
-0.0000967065718083
 30
0.0
 11
19.55485265190471
 21
0.035329318926844
 31
0.0
  0
LINE
  5
C3D9
330
C3B1
100
AcDbEntity
  8
0
  6
CONTINUOUS
100
AcDbLine
 10
20.26375463176586
 20
-0.0000534518541091
 30
0.0
 11
19.76305575737534
 21
0.5006454225364014
 31
0.0
  0
LINE
  5
C3DA
330
C3B1
100
AcDbEntity
  8
0
  6
CONTINUOUS
100
AcDbLine
 10
20.93723058612834
 20
-0.0000101971364099
 30
0.0
 11
19.97125886284597
 21
0.965961526145958
 31
0.0
  0
LINE
  5
C3DB
330
C3B1
100
AcDbEntity
  8
0
  6
CONTINUOUS
100
AcDbLine
 10
21.25514828313686
 20
0.355591314935257
 30
0.0
 11
20.1794619683166
 21
1.431277629755512
 31
0.0
  0
LINE
  5
C3DC
330
C3B1
100
AcDbEntity
  8
0
  6
CONTINUOUS
100
AcDbLine
 10
21.46338838394921
 20
0.8208704232030986
 30
0.0
 11
20.38766507378723
 21
1.896593733365069
 31
0.0
  0
LINE
  5
C3DD
330
C3B1
100
AcDbEntity
  8
0
  6
CONTINUOUS
100
AcDbLine
 10
21.67162848476155
 20
1.28614953147094
 30
0.0
 11
20.59586817925786
 21
2.361909836974626
 31
0.0
  0
LINE
  5
C3DE
330
C3B1
100
AcDbEntity
  8
0
  6
CONTINUOUS
100
AcDbLine
 10
21.8798685855739
 20
1.751428639738782
 30
0.0
 11
20.80407128472849
 21
2.827225940584183
 31
0.0
  0
LINE
  5
C3DF
330
C3B1
100
AcDbEntity
  8
0
  6
CONTINUOUS
100
AcDbLine
 10
22.08810868638624
 20
2.216707748006623
 30
0.0
 11
21.01227439019912
 21
3.292542044193739
 31
0.0
  0
LINE
  5
C3E0
330
C3B1
100
AcDbEntity
  8
0
  6
CONTINUOUS
100
AcDbLine
 10
22.60993564347543
 20
2.36839999999762
 30
0.0
 11
21.22047749566975
 21
3.757858147803296
 31
0.0
  0
LINE
  5
C3E1
330
C3B1
100
AcDbEntity
  8
0
  6
CONTINUOUS
100
AcDbLine
 10
23.28345485255561
 20
2.36839999999762
 30
0.0
 11
21.42868060114038
 21
4.223174251412853
 31
0.0
  0
LINE
  5
C3E2
330
C3B1
100
AcDbEntity
  8
0
  6
CONTINUOUS
100
AcDbLine
 10
26.29227406164219
 20
0.0330999999912356
 30
0.0
 11
25.80009199592872
 21
0.5252820657046957
 31
0.0
  0
LINE
  5
C3E3
330
C3B1
100
AcDbEntity
  8
0
  6
CONTINUOUS
100
AcDbLine
 10
23.9569740616358
 20
2.36839999999762
 30
0.0
 11
21.63688370661101
 21
4.688490355022409
 31
0.0
  0
LINE
  5
C3E4
330
C3B1
100
AcDbEntity
  8
0
  6
CONTINUOUS
100
AcDbLine
 10
26.96579327072237
 20
0.0330999999912356
 30
0.0
 11
25.2554132311971
 21
1.743480039516508
 31
0.0
  0
LINE
  5
C3E5
330
C3B1
100
AcDbEntity
  8
0
  6
CONTINUOUS
100
AcDbLine
 10
24.63049327071599
 20
2.36839999999762
 30
0.0
 11
23.32789327071731
 21
3.670999999996297
 31
0.0
  0
LINE
  5
C3E6
330
C3B1
100
AcDbEntity
  8
0
  6
CONTINUOUS
100
AcDbLine
 10
22.92098674744635
 20
4.077906523267254
 30
0.0
 11
21.84508681208164
 21
5.153806458631966
 31
0.0
  0
LINE
  5
C3E7
330
C3B1
100
AcDbEntity
  8
0
  6
CONTINUOUS
100
AcDbLine
 10
27.63931247980256
 20
0.0330999999912356
 30
0.0
 11
24.0014124797975
 21
3.670999999996297
 31
0.0
  0
LINE
  5
C3E8
330
C3B1
100
AcDbEntity
  8
0
  6
CONTINUOUS
100
AcDbLine
 10
23.129125600968
 20
4.5432868788258
 30
0.0
 11
22.05328991755227
 21
5.619122562241522
 31
0.0
  0
LINE
  5
C3E9
330
C3B1
100
AcDbEntity
  8
0
  6
CONTINUOUS
100
AcDbLine
 10
28.31283168888275
 20
0.0330999999912356
 30
0.0
 11
24.16488385994816
 21
4.181047828925828
 31
0.0
  0
LINE
  5
C3EA
330
C3B1
100
AcDbEntity
  8
0
  6
CONTINUOUS
100
AcDbLine
 10
23.33726445448964
 20
5.008667234384345
 30
0.0
 11
22.2614930230229
 21
6.084438665851079
 31
0.0
  0
LINE
  5
C3EB
330
C3B1
100
AcDbEntity
  8
0
  6
CONTINUOUS
100
AcDbLine
 10
28.92085740005492
 20
0.0985934978992438
 30
0.0
 11
27.63635089796295
 21
1.383099999991217
 31
0.0
  0
LINE
  5
C3EC
330
C3B1
100
AcDbEntity
  8
0
  6
CONTINUOUS
100
AcDbLine
 10
26.43704649509776
 20
2.582404402856405
 30
0.0
 11
23.61992702019732
 21
5.399523877756844
 31
0.0
  0
LINE
  5
C3ED
330
C3B1
100
AcDbEntity
  8
0
  6
CONTINUOUS
100
AcDbLine
 10
23.54540330801128
 20
5.47404758994289
 30
0.0
 11
22.46969612849353
 21
6.549754769460635
 31
0.0
  0
LINE
  5
C3EE
330
C3B1
100
AcDbEntity
  8
0
  6
CONTINUOUS
100
AcDbLine
 10
29.42225615078443
 20
0.2707139562499279
 30
0.0
 11
28.30987010704312
 21
1.383099999991234
 31
0.0
  0
LINE
  5
C3EF
330
C3B1
100
AcDbEntity
  8
0
  6
CONTINUOUS
100
AcDbLine
 10
25.89179548232307
 20
3.801174624711282
 30
0.0
 11
22.67789923396416
 21
7.015070873070191
 31
0.0
  0
LINE
  5
C3F0
330
C3B1
100
AcDbEntity
  8
0
  6
CONTINUOUS
100
AcDbLine
 10
29.83624534690007
 20
0.5302439692144705
 30
0.0
 11
28.85811781497101
 21
1.508371501143527
 31
0.0
  0
LINE
  5
C3F1
330
C3B1
100
AcDbEntity
  8
0
  6
CONTINUOUS
100
AcDbLine
 10
25.34654446954838
 20
5.01994484656616
 30
0.0
 11
22.88610233943479
 21
7.480386976679748
 31
0.0
  0
LINE
  5
C3F2
330
C3B1
100
AcDbEntity
  8
0
  6
CONTINUOUS
100
AcDbLine
 10
30.17865975401872
 20
0.8613487711760022
 30
0.0
 11
29.18888744090175
 21
1.851121084292977
 31
0.0
  0
LINE
  5
C3F3
330
C3B1
100
AcDbEntity
  8
0
  6
CONTINUOUS
100
AcDbLine
 10
24.80129345677369
 20
6.238715068421037
 30
0.0
 11
23.09430544490542
 21
7.945703080289305
 31
0.0
  0
LINE
  5
C3F4
330
C3B1
100
AcDbEntity
  8
0
  6
CONTINUOUS
100
AcDbLine
 10
30.45496647202376
 20
1.258561262251155
 30
0.0
 11
29.30199999996933
 21
2.411527734305588
 31
0.0
  0
LINE
  5
C3F5
330
C3B1
100
AcDbEntity
  8
0
  6
CONTINUOUS
100
AcDbLine
 10
24.256042443999
 20
7.457485290275915
 30
0.0
 11
23.30250855037605
 21
8.411019183898862
 31
0.0
  0
LINE
  5
C3F6
330
C3B1
100
AcDbEntity
  8
0
  6
CONTINUOUS
100
AcDbLine
 10
30.64868582078271
 20
1.738361122572387
 30
0.0
 11
29.30199999996933
 21
3.085046943385775
 31
0.0
  0
LINE
  5
C3F7
330
C3B1
100
AcDbEntity
  8
0
  6
CONTINUOUS
100
AcDbLine
 10
23.71079143122431
 20
8.676255512130794
 30
0.0
 11
23.51071165584668
 21
8.876335287508416
 31
0.0
  0
LINE
  5
C3F8
330
C3B1
100
AcDbEntity
  8
0
  6
CONTINUOUS
100
AcDbLine
 10
30.73802122914428
 20
2.322544923291007
 30
0.0
 11
29.30199999996933
 21
3.758566152465961
 31
0.0
  0
LINE
  5
C3F9
330
C3B1
100
AcDbEntity
  8
0
  6
CONTINUOUS
100
AcDbLine
 10
30.74199999996924
 20
2.992085361546236
 30
0.0
 11
29.30199999996933
 21
4.432085361546148
 31
0.0
  0
LINE
  5
C3FA
330
C3B1
100
AcDbEntity
  8
0
  6
CONTINUOUS
100
AcDbLine
 10
30.74199999996924
 20
3.665604570626419
 30
0.0
 11
29.30199999996933
 21
5.105604570626333
 31
0.0
  0
LINE
  5
C3FB
330
C3B1
100
AcDbEntity
  8
0
  6
CONTINUOUS
100
AcDbLine
 10
30.74199999996925
 20
4.339123779706602
 30
0.0
 11
29.30199999996933
 21
5.77912377970652
 31
0.0
  0
LINE
  5
C3FC
330
C3B1
100
AcDbEntity
  8
0
  6
CONTINUOUS
100
AcDbLine
 10
30.74199999996925
 20
5.012642988786785
 30
0.0
 11
29.30199999996933
 21
6.452642988786707
 31
0.0
  0
LINE
  5
C3FD
330
C3B1
100
AcDbEntity
  8
0
  6
CONTINUOUS
100
AcDbLine
 10
30.74199999996925
 20
5.68616219786697
 30
0.0
 11
29.30199999996933
 21
7.126162197866894
 31
0.0
  0
LINE
  5
C3FE
330
C3B1
100
AcDbEntity
  8
0
  6
CONTINUOUS
100
AcDbLine
 10
30.74199999996925
 20
6.359681406947153
 30
0.0
 11
29.30199999996933
 21
7.799681406947081
 31
0.0
  0
LINE
  5
C3FF
330
C3B1
100
AcDbEntity
  8
0
  6
CONTINUOUS
100
AcDbLine
 10
30.74199999996926
 20
7.033200616027337
 30
0.0
 11
29.30199999996933
 21
8.473200616027269
 31
0.0
  0
LINE
  5
C400
330
C3B1
100
AcDbEntity
  8
0
  6
CONTINUOUS
100
AcDbLine
 10
30.74199999996926
 20
7.706719825107518
 30
0.0
 11
29.68561982508552
 21
8.763099999991255
 31
0.0
  0
LINE
  5
C401
330
C3B1
100
AcDbEntity
  8
0
  6
CONTINUOUS
100
AcDbLine
 10
30.74199999996926
 20
8.380239034187703
 30
0.0
 11
30.35913903416571
 21
8.763099999991255
 31
0.0
  0
ENDBLK
  5
C4A4
330
C3B1
100
AcDbEntity
  8
0
100
AcDbBlockEnd
  0
BLOCK
  5
C4A5
330
C402
100
AcDbEntity
  8
0
100
AcDbBlockBegin
  2
*X61
 70
     1
 10
0.0
 20
0.0
 30
0.0
  3
*X61
  1

  0
LINE
  5
C403
330
C402
100
AcDbEntity
  8
0
  6
CONTINUOUS
100
AcDbLine
 10
31.64199999996833
 20
8.535058289913598
 30
0.0
 11
31.87004171004599
 21
8.763099999991255
 31
0.0
  0
LINE
  5
C404
330
C402
100
AcDbEntity
  8
0
  6
CONTINUOUS
100
AcDbLine
 10
31.64199999996833
 20
7.861539080833412
 30
0.0
 11
32.54356091912618
 21
8.763099999991255
 31
0.0
  0
LINE
  5
C405
330
C402
100
AcDbEntity
  8
0
  6
CONTINUOUS
100
AcDbLine
 10
31.64199999996833
 20
7.188019871753226
 30
0.0
 11
33.08199999996839
 21
8.628019871753281
 31
0.0
  0
LINE
  5
C406
330
C402
100
AcDbEntity
  8
0
  6
CONTINUOUS
100
AcDbLine
 10
31.64199999996833
 20
6.51450066267304
 30
0.0
 11
33.08199999996839
 21
7.954500662673095
 31
0.0
  0
LINE
  5
C407
330
C402
100
AcDbEntity
  8
0
  6
CONTINUOUS
100
AcDbLine
 10
31.64199999996833
 20
5.840981453592853
 30
0.0
 11
33.08199999996839
 21
7.280981453592908
 31
0.0
  0
LINE
  5
C408
330
C402
100
AcDbEntity
  8
0
  6
CONTINUOUS
100
AcDbLine
 10
31.64199999996833
 20
5.167462244512667
 30
0.0
 11
33.08199999996839
 21
6.607462244512721
 31
0.0
  0
LINE
  5
C409
330
C402
100
AcDbEntity
  8
0
  6
CONTINUOUS
100
AcDbLine
 10
31.64199999996833
 20
4.493943035432481
 30
0.0
 11
33.08199999996839
 21
5.933943035432535
 31
0.0
  0
LINE
  5
C40A
330
C402
100
AcDbEntity
  8
0
  6
CONTINUOUS
100
AcDbLine
 10
31.64199999996833
 20
3.820423826352293
 30
0.0
 11
33.08199999996839
 21
5.260423826352348
 31
0.0
  0
LINE
  5
C40B
330
C402
100
AcDbEntity
  8
0
  6
CONTINUOUS
100
AcDbLine
 10
31.64199999996833
 20
3.146904617272106
 30
0.0
 11
33.08199999996839
 21
4.586904617272161
 31
0.0
  0
LINE
  5
C40C
330
C402
100
AcDbEntity
  8
0
  6
CONTINUOUS
100
AcDbLine
 10
36.23199999996837
 20
8.410423826352325
 30
0.0
 11
36.5846761736073
 21
8.763099999991255
 31
0.0
  0
LINE
  5
C40D
330
C402
100
AcDbEntity
  8
0
  6
CONTINUOUS
100
AcDbLine
 10
36.23199999996837
 20
7.73690461727214
 30
0.0
 11
37.25819538268748
 21
8.763099999991255
 31
0.0
  0
LINE
  5
C40E
330
C402
100
AcDbEntity
  8
0
  6
CONTINUOUS
100
AcDbLine
 10
31.64257403601376
 20
2.473959444237348
 30
0.0
 11
33.08199999996839
 21
3.913385408191974
 31
0.0
  0
LINE
  5
C40F
330
C402
100
AcDbEntity
  8
0
  6
CONTINUOUS
100
AcDbLine
 10
36.23199999996837
 20
7.063385408191953
 30
0.0
 11
37.67199999996831
 21
8.503385408191894
 31
0.0
  0
LINE
  5
C410
330
C402
100
AcDbEntity
  8
0
  6
CONTINUOUS
100
AcDbLine
 10
31.72013636841932
 20
1.87800256756272
 30
0.0
 11
33.08199999996839
 21
3.239866199111788
 31
0.0
  0
LINE
  5
C411
330
C402
100
AcDbEntity
  8
0
  6
CONTINUOUS
100
AcDbLine
 10
36.23199999996837
 20
6.389866199111767
 30
0.0
 11
37.67199999996831
 21
7.829866199111708
 31
0.0
  0
LINE
  5
C412
330
C402
100
AcDbEntity
  8
0
  6
CONTINUOUS
100
AcDbLine
 10
31.89042734314753
 20
1.374774333210744
 30
0.0
 11
33.08199999996839
 21
2.566346990031601
 31
0.0
  0
LINE
  5
C413
330
C402
100
AcDbEntity
  8
0
  6
CONTINUOUS
100
AcDbLine
 10
36.23199999996837
 20
5.71634699003158
 30
0.0
 11
37.67199999996831
 21
7.156346990031521
 31
0.0
  0
LINE
  5
C414
330
C402
100
AcDbEntity
  8
0
  6
CONTINUOUS
100
AcDbLine
 10
32.14210568064475
 20
0.952933461627778
 30
0.0
 11
33.18745552475986
 21
1.998283305742888
 31
0.0
  0
LINE
  5
C415
330
C402
100
AcDbEntity
  8
0
  6
CONTINUOUS
100
AcDbLine
 10
36.23199999996837
 20
5.042827780951393
 30
0.0
 11
37.67199999996831
 21
6.482827780951334
 31
0.0
  0
LINE
  5
C416
330
C402
100
AcDbEntity
  8
0
  6
CONTINUOUS
100
AcDbLine
 10
32.45820639400955
 20
0.5955149659123915
 30
0.0
 11
33.47242681921943
 21
1.60973539112227
 31
0.0
  0
LINE
  5
C417
330
C402
100
AcDbEntity
  8
0
  6
CONTINUOUS
100
AcDbLine
 10
36.23199999996837
 20
4.369308571871207
 30
0.0
 11
37.67199999996831
 21
5.809308571871147
 31
0.0
  0
LINE
  5
C418
330
C402
100
AcDbEntity
  8
0
  6
CONTINUOUS
100
AcDbLine
 10
32.83432456621412
 20
0.2981139290367771
 30
0.0
 11
33.89722476612215
 21
1.361014128944803
 31
0.0
  0
LINE
  5
C419
330
C402
100
AcDbEntity
  8
0
  6
CONTINUOUS
100
AcDbLine
 10
36.23199999996837
 20
3.69578936279102
 30
0.0
 11
37.67199999996831
 21
5.135789362790962
 31
0.0
  0
LINE
  5
C41A
330
C402
100
AcDbEntity
  8
0
  6
CONTINUOUS
100
AcDbLine
 10
33.2711633111245
 20
0.0614334648669672
 30
0.0
 11
34.43247338014423
 21
1.222743533886696
 31
0.0
  0
LINE
  5
C41B
330
C402
100
AcDbEntity
  8
0
  6
CONTINUOUS
100
AcDbLine
 10
36.23199999996837
 20
3.022270153710834
 30
0.0
 11
37.67199999996831
 21
4.462270153710775
 31
0.0
  0
LINE
  5
C41C
330
C402
100
AcDbEntity
  8
0
  6
CONTINUOUS
100
AcDbLine
 10
33.76515245874577
 20
-0.1180965965919523
 30
0.0
 11
35.1587445516215
 21
1.27549549628378
 31
0.0
  0
LINE
  5
C41D
330
C402
100
AcDbEntity
  8
0
  6
CONTINUOUS
100
AcDbLine
 10
36.21639478609585
 20
2.333145730758136
 30
0.0
 11
37.67199999996831
 21
3.788750944630588
 31
0.0
  0
LINE
  5
C41E
330
C402
100
AcDbEntity
  8
0
  6
CONTINUOUS
100
AcDbLine
 10
34.34060583368432
 20
-0.2161624307335863
 30
0.0
 11
37.67199999996831
 21
3.115231735550401
 31
0.0
  0
LINE
  5
C41F
330
C402
100
AcDbEntity
  8
0
  6
CONTINUOUS
100
AcDbLine
 10
35.01698193613905
 20
-0.2133055373590427
 30
0.0
 11
37.66876712070525
 21
2.438479647207154
 31
0.0
  0
LINE
  5
C420
330
C402
100
AcDbEntity
  8
0
  6
CONTINUOUS
100
AcDbLine
 10
35.90743367693304
 20
0.0036269943547609
 30
0.0
 11
37.51723902192366
 21
1.613432339345381
 31
0.0
  0
LINE
  5
C421
330
C402
100
AcDbEntity
  8
0
  6
CONTINUOUS
100
AcDbLine
 10
32.55309425579761
 20
0.5074718966376706
 30
0.0
 11
32.27784730925847
 21
0.7827188431768102
 31
0.0
  0
LINE
  5
C422
330
C402
100
AcDbEntity
  8
0
  6
CONTINUOUS
100
AcDbLine
 10
33.87496468909684
 20
-0.1408793275813673
 30
0.0
 11
31.67993083278052
 21
2.054154528734943
 31
0.0
  0
LINE
  5
C423
330
C402
100
AcDbEntity
  8
0
  6
CONTINUOUS
100
AcDbLine
 10
34.64362813207632
 20
-0.2360235614806649
 30
0.0
 11
31.64199999996833
 21
2.765604570627322
 31
0.0
  0
LINE
  5
C424
330
C402
100
AcDbEntity
  8
0
  6
CONTINUOUS
100
AcDbLine
 10
35.25801106796118
 20
-0.1768872882853429
 30
0.0
 11
31.64199999996833
 21
3.439123779707508
 31
0.0
  0
LINE
  5
C425
330
C402
100
AcDbEntity
  8
0
  6
CONTINUOUS
100
AcDbLine
 10
35.79065650332146
 20
-0.0360135145654361
 30
0.0
 11
34.54143210838231
 21
1.213210880373721
 31
0.0
  0
LINE
  5
C426
330
C402
100
AcDbEntity
  8
0
  6
CONTINUOUS
100
AcDbLine
 10
33.08199999996839
 20
2.67264298878764
 30
0.0
 11
31.64199999996833
 21
4.112642988787695
 31
0.0
  0
LINE
  5
C427
330
C402
100
AcDbEntity
  8
0
  6
CONTINUOUS
100
AcDbLine
 10
36.25975597779143
 20
0.1684062200447833
 30
0.0
 11
35.15395110240023
 21
1.274211095435983
 31
0.0
  0
LINE
  5
C428
330
C402
100
AcDbEntity
  8
0
  6
CONTINUOUS
100
AcDbLine
 10
33.08199999996839
 20
3.346162197867826
 30
0.0
 11
31.64199999996833
 21
4.786162197867881
 31
0.0
  0
LINE
  5
C429
330
C402
100
AcDbEntity
  8
0
  6
CONTINUOUS
100
AcDbLine
 10
36.67226329638774
 20
0.4294181105286579
 30
0.0
 11
35.63766478748767
 21
1.464016619428737
 31
0.0
  0
LINE
  5
C42A
330
C402
100
AcDbEntity
  8
0
  6
CONTINUOUS
100
AcDbLine
 10
33.08199999996839
 20
4.019681406948012
 30
0.0
 11
31.64199999996833
 21
5.459681406948068
 31
0.0
  0
LINE
  5
C42B
330
C402
100
AcDbEntity
  8
0
  6
CONTINUOUS
100
AcDbLine
 10
37.01677749710036
 20
0.7584231188962329
 30
0.0
 11
35.99563422741351
 21
1.779566388583076
 31
0.0
  0
LINE
  5
C42C
330
C402
100
AcDbEntity
  8
0
  6
CONTINUOUS
100
AcDbLine
 10
33.08199999996839
 20
4.693200616028199
 30
0.0
 11
31.64199999996833
 21
6.133200616028255
 31
0.0
  0
LINE
  5
C42D
330
C402
100
AcDbEntity
  8
0
  6
CONTINUOUS
100
AcDbLine
 10
37.29859977568887
 20
1.1501200493879
 30
0.0
 11
36.20680593341555
 21
2.241913891661226
 31
0.0
  0
LINE
  5
C42E
330
C402
100
AcDbEntity
  8
0
  6
CONTINUOUS
100
AcDbLine
 10
33.08199999996839
 20
5.366719825108386
 30
0.0
 11
31.64199999996833
 21
6.80671982510844
 31
0.0
  0
LINE
  5
C42F
330
C402
100
AcDbEntity
  8
0
  6
CONTINUOUS
100
AcDbLine
 10
37.5148623517228
 20
1.607376682434161
 30
0.0
 11
36.23199999996837
 21
2.890239034188594
 31
0.0
  0
LINE
  5
C430
330
C402
100
AcDbEntity
  8
0
  6
CONTINUOUS
100
AcDbLine
 10
33.08199999996839
 20
6.040239034188573
 30
0.0
 11
31.64199999996833
 21
7.480239034188627
 31
0.0
  0
LINE
  5
C431
330
C402
100
AcDbEntity
  8
0
  6
CONTINUOUS
100
AcDbLine
 10
37.64705163358367
 20
2.148706609653477
 30
0.0
 11
36.23199999996837
 21
3.56375824326878
 31
0.0
  0
LINE
  5
C432
330
C402
100
AcDbEntity
  8
0
  6
CONTINUOUS
100
AcDbLine
 10
33.08199999996839
 20
6.713758243268758
 30
0.0
 11
31.64199999996833
 21
8.153758243268815
 31
0.0
  0
LINE
  5
C433
330
C402
100
AcDbEntity
  8
0
  6
CONTINUOUS
100
AcDbLine
 10
37.67199999996831
 20
2.797277452349026
 30
0.0
 11
36.23199999996837
 21
4.237277452348967
 31
0.0
  0
LINE
  5
C434
330
C402
100
AcDbEntity
  8
0
  6
CONTINUOUS
100
AcDbLine
 10
37.67199999996831
 20
3.470796661429213
 30
0.0
 11
36.23199999996837
 21
4.910796661429154
 31
0.0
  0
LINE
  5
C435
330
C402
100
AcDbEntity
  8
0
  6
CONTINUOUS
100
AcDbLine
 10
37.67199999996831
 20
4.144315870509399
 30
0.0
 11
36.23199999996837
 21
5.58431587050934
 31
0.0
  0
LINE
  5
C436
330
C402
100
AcDbEntity
  8
0
  6
CONTINUOUS
100
AcDbLine
 10
33.08199999996839
 20
7.387277452348945
 30
0.0
 11
31.70617745232608
 21
8.763099999991255
 31
0.0
  0
LINE
  5
C437
330
C402
100
AcDbEntity
  8
0
  6
CONTINUOUS
100
AcDbLine
 10
33.08199999996839
 20
8.060796661429132
 30
0.0
 11
32.37969666140626
 21
8.763099999991255
 31
0.0
  0
LINE
  5
C438
330
C402
100
AcDbEntity
  8
0
  6
CONTINUOUS
100
AcDbLine
 10
33.08199999996839
 20
8.734315870509318
 30
0.0
 11
33.05321587048645
 21
8.763099999991255
 31
0.0
  0
LINE
  5
C439
330
C402
100
AcDbEntity
  8
0
  6
CONTINUOUS
100
AcDbLine
 10
37.67199999996831
 20
4.817835079589585
 30
0.0
 11
36.23199999996837
 21
6.257835079589526
 31
0.0
  0
LINE
  5
C43A
330
C402
100
AcDbEntity
  8
0
  6
CONTINUOUS
100
AcDbLine
 10
37.67199999996831
 20
5.491354288669771
 30
0.0
 11
36.23199999996837
 21
6.931354288669713
 31
0.0
  0
LINE
  5
C43B
330
C402
100
AcDbEntity
  8
0
  6
CONTINUOUS
100
AcDbLine
 10
37.67199999996831
 20
6.164873497749958
 30
0.0
 11
36.23199999996837
 21
7.6048734977499
 31
0.0
  0
LINE
  5
C43C
330
C402
100
AcDbEntity
  8
0
  6
CONTINUOUS
100
AcDbLine
 10
37.67199999996831
 20
6.838392706830144
 30
0.0
 11
36.23199999996837
 21
8.278392706830086
 31
0.0
  0
LINE
  5
C43D
330
C402
100
AcDbEntity
  8
0
  6
CONTINUOUS
100
AcDbLine
 10
37.67199999996831
 20
7.511911915910332
 30
0.0
 11
36.42081191588738
 21
8.763099999991255
 31
0.0
  0
LINE
  5
C43E
330
C402
100
AcDbEntity
  8
0
  6
CONTINUOUS
100
AcDbLine
 10
37.67199999996831
 20
8.185431124990519
 30
0.0
 11
37.09433112496757
 21
8.763099999991255
 31
0.0
  0
ENDBLK
  5
C4A6
330
C402
100
AcDbEntity
  8
0
100
AcDbBlockEnd
  0
BLOCK
  5
C4A7
330
C43F
100
AcDbEntity
  8
0
100
AcDbBlockBegin
  2
*X62
 70
     1
 10
0.0
 20
0.0
 30
0.0
  3
*X62
  1

  0
LINE
  5
C440
330
C43F
100
AcDbEntity
  8
0
  6
CONTINUOUS
100
AcDbLine
 10
38.60499999996136
 20
8.762866199104765
 30
0.0
 11
38.71672554182345
 21
8.874591740966855
 31
0.0
  0
LINE
  5
C441
330
C43F
100
AcDbEntity
  8
0
  6
CONTINUOUS
100
AcDbLine
 10
38.60499999996136
 20
8.089346990024577
 30
0.0
 11
39.03418785440363
 21
8.518534844466847
 31
0.0
  0
LINE
  5
C442
330
C43F
100
AcDbEntity
  8
0
  6
CONTINUOUS
100
AcDbLine
 10
38.60499999996136
 20
7.41582778094439
 30
0.0
 11
39.35165016698382
 21
8.16247794796684
 31
0.0
  0
LINE
  5
C443
330
C43F
100
AcDbEntity
  8
0
  6
CONTINUOUS
100
AcDbLine
 10
38.60499999996136
 20
6.742308571864204
 30
0.0
 11
39.66911247956399
 21
7.806421051466834
 31
0.0
  0
LINE
  5
C444
330
C43F
100
AcDbEntity
  8
0
  6
CONTINUOUS
100
AcDbLine
 10
38.60499999996136
 20
6.068789362784018
 30
0.0
 11
39.98657479214418
 21
7.450364154966827
 31
0.0
  0
LINE
  5
C445
330
C43F
100
AcDbEntity
  8
0
  6
CONTINUOUS
100
AcDbLine
 10
38.60499999996136
 20
5.395270153703832
 30
0.0
 11
40.30403710472435
 21
7.09430725846682
 31
0.0
  0
LINE
  5
C446
330
C43F
100
AcDbEntity
  8
0
  6
CONTINUOUS
100
AcDbLine
 10
38.60499999996136
 20
4.721750944623645
 30
0.0
 11
40.62149941730453
 21
6.738250361966813
 31
0.0
  0
LINE
  5
C447
330
C43F
100
AcDbEntity
  8
0
  6
CONTINUOUS
100
AcDbLine
 10
38.60499999996136
 20
4.048231735543458
 30
0.0
 11
40.93896172988471
 21
6.382193465466806
 31
0.0
  0
LINE
  5
C448
330
C43F
100
AcDbEntity
  8
0
  6
CONTINUOUS
100
AcDbLine
 10
38.60499999996136
 20
3.374712526463272
 30
0.0
 11
40.02599999995994
 21
4.795712526461843
 31
0.0
  0
LINE
  5
C449
330
C43F
100
AcDbEntity
  8
0
  6
CONTINUOUS
100
AcDbLine
 10
38.60499999996136
 20
2.701193317383085
 30
0.0
 11
40.02599999995994
 21
4.122193317381657
 31
0.0
  0
LINE
  5
C44A
330
C43F
100
AcDbEntity
  8
0
  6
CONTINUOUS
100
AcDbLine
 10
40.28339754687704
 20
5.053110073378947
 30
0.0
 11
41.25642404246489
 21
6.026136568966799
 31
0.0
  0
LINE
  5
C44B
330
C43F
100
AcDbEntity
  8
0
  6
CONTINUOUS
100
AcDbLine
 10
40.60085985945722
 20
4.697053176878939
 30
0.0
 11
41.57388635504507
 21
5.670079672466793
 31
0.0
  0
LINE
  5
C44C
330
C43F
100
AcDbEntity
  8
0
  6
CONTINUOUS
100
AcDbLine
 10
43.57899999995641
 20
8.348712526458318
 30
0.0
 11
43.99338747348935
 21
8.763099999991255
 31
0.0
  0
LINE
  5
C44D
330
C43F
100
AcDbEntity
  8
0
  6
CONTINUOUS
100
AcDbLine
 10
43.57899999995641
 20
7.675193317378131
 30
0.0
 11
44.66690668256953
 21
8.763099999991255
 31
0.0
  0
LINE
  5
C44E
330
C43F
100
AcDbEntity
  8
0
  6
CONTINUOUS
100
AcDbLine
 10
38.60499999996136
 20
2.027674108302898
 30
0.0
 11
40.02599999995994
 21
3.44867410830147
 31
0.0
  0
LINE
  5
C44F
330
C43F
100
AcDbEntity
  8
0
  6
CONTINUOUS
100
AcDbLine
 10
38.60499999996136
 20
1.354154899222712
 30
0.0
 11
40.02599999995994
 21
2.775154899221284
 31
0.0
  0
LINE
  5
C450
330
C43F
100
AcDbEntity
  8
0
  6
CONTINUOUS
100
AcDbLine
 10
38.60499999996136
 20
0.6806356901425255
 30
0.0
 11
40.02599999995994
 21
2.101635690141098
 31
0.0
  0
LINE
  5
C451
330
C43F
100
AcDbEntity
  8
0
  6
CONTINUOUS
100
AcDbLine
 10
38.60499999996136
 20
0.0071164810623383
 30
0.0
 11
40.02599999995994
 21
1.428116481060911
 31
0.0
  0
LINE
  5
C452
330
C43F
100
AcDbEntity
  8
0
  6
CONTINUOUS
100
AcDbLine
 10
40.9183221720374
 20
4.340996280378933
 30
0.0
 11
41.89134866762525
 21
5.314022775966786
 31
0.0
  0
LINE
  5
C453
330
C43F
100
AcDbEntity
  8
0
  6
CONTINUOUS
100
AcDbLine
 10
41.23578448461758
 20
3.984939383878926
 30
0.0
 11
42.20881098020543
 21
4.957965879466778
 31
0.0
  0
LINE
  5
C454
330
C43F
100
AcDbEntity
  8
0
  6
CONTINUOUS
100
AcDbLine
 10
41.55324679719776
 20
3.628882487378919
 30
0.0
 11
42.52627329278561
 21
4.601908982966772
 31
0.0
  0
LINE
  5
C455
330
C43F
100
AcDbEntity
  8
0
  6
CONTINUOUS
100
AcDbLine
 10
41.87070910977793
 20
3.272825590878912
 30
0.0
 11
42.84373560536579
 21
4.245852086466765
 31
0.0
  0
LINE
  5
C456
330
C43F
100
AcDbEntity
  8
0
  6
CONTINUOUS
100
AcDbLine
 10
43.57899999995641
 20
7.001674108297943
 30
0.0
 11
44.99999999995498
 21
8.422674108296516
 31
0.0
  0
LINE
  5
C457
330
C43F
100
AcDbEntity
  8
0
  6
CONTINUOUS
100
AcDbLine
 10
43.57899999995641
 20
6.328154899217758
 30
0.0
 11
44.99999999995498
 21
7.749154899216329
 31
0.0
  0
LINE
  5
C458
330
C43F
100
AcDbEntity
  8
0
  6
CONTINUOUS
100
AcDbLine
 10
43.57899999995641
 20
5.654635690137571
 30
0.0
 11
44.99999999995498
 21
7.075635690136142
 31
0.0
  0
LINE
  5
C459
330
C43F
100
AcDbEntity
  8
0
  6
CONTINUOUS
100
AcDbLine
 10
43.57899999995641
 20
4.981116481057384
 30
0.0
 11
44.99999999995498
 21
6.402116481055955
 31
0.0
  0
LINE
  5
C45A
330
C43F
100
AcDbEntity
  8
0
  6
CONTINUOUS
100
AcDbLine
 10
39.27140272797921
 20
-0.0000000000000009
 30
0.0
 11
40.02599999995994
 21
0.7545972719807246
 31
0.0
  0
LINE
  5
C45B
330
C43F
100
AcDbEntity
  8
0
  6
CONTINUOUS
100
AcDbLine
 10
39.9449219370594
 20
-0.0000000000000009
 30
0.0
 11
40.02599999995994
 21
0.0810780629005379
 31
0.0
  0
LINE
  5
C45C
330
C43F
100
AcDbEntity
  8
0
  6
CONTINUOUS
100
AcDbLine
 10
42.18817142235812
 20
2.916768694378905
 30
0.0
 11
43.16119791794597
 21
3.889795189966758
 31
0.0
  0
LINE
  5
C45D
330
C43F
100
AcDbEntity
  8
0
  6
CONTINUOUS
100
AcDbLine
 10
42.50563373493829
 20
2.560711797878898
 30
0.0
 11
43.47866023052615
 21
3.533738293466751
 31
0.0
  0
LINE
  5
C45E
330
C43F
100
AcDbEntity
  8
0
  6
CONTINUOUS
100
AcDbLine
 10
43.57899999995641
 20
4.307597271977198
 30
0.0
 11
44.99999999995498
 21
5.728597271975769
 31
0.0
  0
LINE
  5
C45F
330
C43F
100
AcDbEntity
  8
0
  6
CONTINUOUS
100
AcDbLine
 10
43.57899999995641
 20
3.634078062897011
 30
0.0
 11
44.99999999995498
 21
5.055078062895582
 31
0.0
  0
LINE
  5
C460
330
C43F
100
AcDbEntity
  8
0
  6
CONTINUOUS
100
AcDbLine
 10
42.82309604751848
 20
2.204654901378891
 30
0.0
 11
44.99999999995498
 21
4.381558853815395
 31
0.0
  0
LINE
  5
C461
330
C43F
100
AcDbEntity
  8
0
  6
CONTINUOUS
100
AcDbLine
 10
43.14055836009865
 20
1.848598004878885
 30
0.0
 11
44.99999999995498
 21
3.70803964473521
 31
0.0
  0
LINE
  5
C462
330
C43F
100
AcDbEntity
  8
0
  6
CONTINUOUS
100
AcDbLine
 10
43.45802067267883
 20
1.492541108378878
 30
0.0
 11
44.99999999995498
 21
3.034520435655023
 31
0.0
  0
LINE
  5
C463
330
C43F
100
AcDbEntity
  8
0
  6
CONTINUOUS
100
AcDbLine
 10
43.77548298525902
 20
1.136484211878871
 30
0.0
 11
44.99999999995498
 21
2.361001226574837
 31
0.0
  0
LINE
  5
C464
330
C43F
100
AcDbEntity
  8
0
  6
CONTINUOUS
100
AcDbLine
 10
44.09294529783919
 20
0.7804273153788639
 30
0.0
 11
44.99999999995498
 21
1.687482017494649
 31
0.0
  0
LINE
  5
C465
330
C43F
100
AcDbEntity
  8
0
  6
CONTINUOUS
100
AcDbLine
 10
44.41040761041938
 20
0.4243704188788566
 30
0.0
 11
44.99999999995498
 21
1.013962808414463
 31
0.0
  0
LINE
  5
C466
330
C43F
100
AcDbEntity
  8
0
  6
CONTINUOUS
100
AcDbLine
 10
44.72786992299955
 20
0.0683135223788494
 30
0.0
 11
44.99999999995498
 21
0.340443599334276
 31
0.0
  0
LINE
  5
C467
330
C43F
100
AcDbEntity
  8
0
  6
CONTINUOUS
100
AcDbLine
 10
39.12223903415696
 20
-0.0000000000000009
 30
0.0
 11
38.60499999996136
 21
0.5172390341955961
 31
0.0
  0
LINE
  5
C468
330
C43F
100
AcDbEntity
  8
0
  6
CONTINUOUS
100
AcDbLine
 10
39.79575824323715
 20
-0.0000000000000009
 30
0.0
 11
38.60499999996136
 21
1.190758243275783
 31
0.0
  0
LINE
  5
C469
330
C43F
100
AcDbEntity
  8
0
  6
CONTINUOUS
100
AcDbLine
 10
40.02599999995994
 20
0.443277452357397
 30
0.0
 11
38.60499999996136
 21
1.864277452355969
 31
0.0
  0
LINE
  5
C46A
330
C43F
100
AcDbEntity
  8
0
  6
CONTINUOUS
100
AcDbLine
 10
40.02599999995994
 20
1.116796661437583
 30
0.0
 11
38.60499999996136
 21
2.537796661436155
 31
0.0
  0
LINE
  5
C46B
330
C43F
100
AcDbEntity
  8
0
  6
CONTINUOUS
100
AcDbLine
 10
40.02599999995994
 20
1.79031587051777
 30
0.0
 11
38.60499999996136
 21
3.211315870516341
 31
0.0
  0
LINE
  5
C46C
330
C43F
100
AcDbEntity
  8
0
  6
CONTINUOUS
100
AcDbLine
 10
40.02599999995994
 20
2.463835079597956
 30
0.0
 11
38.60499999996136
 21
3.884835079596527
 31
0.0
  0
LINE
  5
C46D
330
C43F
100
AcDbEntity
  8
0
  6
CONTINUOUS
100
AcDbLine
 10
40.02599999995994
 20
3.137354288678143
 30
0.0
 11
38.60499999996136
 21
4.558354288676714
 31
0.0
  0
LINE
  5
C46E
330
C43F
100
AcDbEntity
  8
0
  6
CONTINUOUS
100
AcDbLine
 10
40.02599999995994
 20
3.810873497758329
 30
0.0
 11
38.60499999996136
 21
5.2318734977569
 31
0.0
  0
LINE
  5
C46F
330
C43F
100
AcDbEntity
  8
0
  6
CONTINUOUS
100
AcDbLine
 10
40.02599999995994
 20
4.484392706838515
 30
0.0
 11
38.60499999996136
 21
5.905392706837086
 31
0.0
  0
LINE
  5
C470
330
C43F
100
AcDbEntity
  8
0
  6
CONTINUOUS
100
AcDbLine
 10
44.99999999995498
 20
0.183911915923658
 30
0.0
 11
41.53858364506288
 21
3.64532827081576
 31
0.0
  0
LINE
  5
C471
330
C43F
100
AcDbEntity
  8
0
  6
CONTINUOUS
100
AcDbLine
 10
40.02599999995994
 20
5.157911915918703
 30
0.0
 11
38.60499999996136
 21
6.578911915917274
 31
0.0
  0
LINE
  5
C472
330
C43F
100
AcDbEntity
  8
0
  6
CONTINUOUS
100
AcDbLine
 10
44.99999999995498
 20
0.8574311250038447
 30
0.0
 11
38.60499999996136
 21
7.25243112499746
 31
0.0
  0
LINE
  5
C473
330
C43F
100
AcDbEntity
  8
0
  6
CONTINUOUS
100
AcDbLine
 10
44.99999999995498
 20
1.530950334084031
 30
0.0
 11
38.60499999996136
 21
7.925950334077647
 31
0.0
  0
LINE
  5
C474
330
C43F
100
AcDbEntity
  8
0
  6
CONTINUOUS
100
AcDbLine
 10
44.99999999995498
 20
2.204469543164218
 30
0.0
 11
43.57899999995641
 21
3.625469543162789
 31
0.0
  0
LINE
  5
C475
330
C43F
100
AcDbEntity
  8
0
  6
CONTINUOUS
100
AcDbLine
 10
41.89876730984767
 20
5.305702233271528
 30
0.0
 11
38.60499999996136
 21
8.599469543157834
 31
0.0
  0
LINE
  5
C476
330
C43F
100
AcDbEntity
  8
0
  6
CONTINUOUS
100
AcDbLine
 10
44.99999999995498
 20
2.877988752244405
 30
0.0
 11
43.57899999995641
 21
4.298988752242975
 31
0.0
  0
LINE
  5
C477
330
C43F
100
AcDbEntity
  8
0
  6
CONTINUOUS
100
AcDbLine
 10
44.99999999995498
 20
3.551507961324591
 30
0.0
 11
43.57899999995641
 21
4.972507961323163
 31
0.0
  0
LINE
  5
C478
330
C43F
100
AcDbEntity
  8
0
  6
CONTINUOUS
100
AcDbLine
 10
44.99999999995498
 20
4.225027170404777
 30
0.0
 11
43.57899999995641
 21
5.646027170403348
 31
0.0
  0
LINE
  5
C479
330
C43F
100
AcDbEntity
  8
0
  6
CONTINUOUS
100
AcDbLine
 10
44.99999999995498
 20
4.898546379484964
 30
0.0
 11
43.57899999995641
 21
6.319546379483535
 31
0.0
  0
LINE
  5
C47A
330
C43F
100
AcDbEntity
  8
0
  6
CONTINUOUS
100
AcDbLine
 10
44.99999999995498
 20
5.572065588565151
 30
0.0
 11
43.57899999995641
 21
6.993065588563722
 31
0.0
  0
LINE
  5
C47B
330
C43F
100
AcDbEntity
  8
0
  6
CONTINUOUS
100
AcDbLine
 10
44.99999999995498
 20
6.245584797645336
 30
0.0
 11
43.57899999995641
 21
7.666584797643908
 31
0.0
  0
LINE
  5
C47C
330
C43F
100
AcDbEntity
  8
0
  6
CONTINUOUS
100
AcDbLine
 10
44.99999999995498
 20
6.919104006725522
 30
0.0
 11
43.57899999995641
 21
8.340104006724093
 31
0.0
  0
LINE
  5
C47D
330
C43F
100
AcDbEntity
  8
0
  6
CONTINUOUS
100
AcDbLine
 10
44.99999999995498
 20
7.592623215805709
 30
0.0
 11
43.82952321576943
 21
8.763099999991255
 31
0.0
  0
LINE
  5
C47E
330
C43F
100
AcDbEntity
  8
0
  6
CONTINUOUS
100
AcDbLine
 10
44.99999999995498
 20
8.266142424885896
 30
0.0
 11
44.50304242484962
 21
8.763099999991255
 31
0.0
  0
ENDBLK
  5
C4A8
330
C43F
100
AcDbEntity
  8
0
100
AcDbBlockEnd
  0
BLOCK
  5
C4A9
330
C47F
100
AcDbEntity
  8
0
100
AcDbBlockBegin
  2
*X63
 70
     1
 10
0.0
 20
0.0
 30
0.0
  3
*X63
  1

  0
LINE
  5
C480
330
C47F
100
AcDbEntity
  8
0
  6
CONTINUOUS
100
AcDbLine
 10
0.0
 20
8.548461116714023
 30
0.0
 11
0.2146388832772324
 21
8.763099999991255
 31
0.0
  0
LINE
  5
C481
330
C47F
100
AcDbEntity
  8
0
  6
CONTINUOUS
100
AcDbLine
 10
-0.0000000000000002
 20
7.874941907633837
 30
0.0
 11
0.8881580923574184
 21
8.763099999991255
 31
0.0
  0
LINE
  5
C482
330
C47F
100
AcDbEntity
  8
0
  6
CONTINUOUS
100
AcDbLine
 10
0.0
 20
7.20142269855365
 30
0.0
 11
1.420999999998572
 21
8.622422698552223
 31
0.0
  0
LINE
  5
C483
330
C47F
100
AcDbEntity
  8
0
  6
CONTINUOUS
100
AcDbLine
 10
-0.0000000000000001
 20
6.527903489473465
 30
0.0
 11
1.420999999998571
 21
7.948903489472036
 31
0.0
  0
LINE
  5
C484
330
C47F
100
AcDbEntity
  8
0
  6
CONTINUOUS
100
AcDbLine
 10
-0.0000000000000002
 20
5.854384280393278
 30
0.0
 11
1.420999999998571
 21
7.275384280391849
 31
0.0
  0
LINE
  5
C485
330
C47F
100
AcDbEntity
  8
0
  6
CONTINUOUS
100
AcDbLine
 10
-0.0000000000000002
 20
5.180865071313091
 30
0.0
 11
1.420999999998571
 21
6.601865071311663
 31
0.0
  0
LINE
  5
C486
330
C47F
100
AcDbEntity
  8
0
  6
CONTINUOUS
100
AcDbLine
 10
0.0
 20
4.507345862232905
 30
0.0
 11
1.420999999998571
 21
5.928345862231477
 31
0.0
  0
LINE
  5
C487
330
C47F
100
AcDbEntity
  8
0
  6
CONTINUOUS
100
AcDbLine
 10
-0.0000000000000003
 20
3.833826653152718
 30
0.0
 11
1.420999999998571
 21
5.25482665315129
 31
0.0
  0
LINE
  5
C488
330
C47F
100
AcDbEntity
  8
0
  6
CONTINUOUS
100
AcDbLine
 10
-0.0000000000000002
 20
3.160307444072532
 30
0.0
 11
1.420999999998571
 21
4.581307444071103
 31
0.0
  0
LINE
  5
C489
330
C47F
100
AcDbEntity
  8
0
  6
CONTINUOUS
100
AcDbLine
 10
-0.0000000000000001
 20
2.486788234992345
 30
0.0
 11
1.420999999998571
 21
3.907788234990917
 31
0.0
  0
LINE
  5
C48A
330
C47F
100
AcDbEntity
  8
0
  6
CONTINUOUS
100
AcDbLine
 10
-0.0000000000000006
 20
1.813269025912159
 30
0.0
 11
1.420999999998571
 21
3.234269025910731
 31
0.0
  0
LINE
  5
C48B
330
C47F
100
AcDbEntity
  8
0
  6
CONTINUOUS
100
AcDbLine
 10
0.0
 20
1.139749816831973
 30
0.0
 11
1.420999999998571
 21
2.560749816830544
 31
0.0
  0
LINE
  5
C48C
330
C47F
100
AcDbEntity
  8
0
  6
CONTINUOUS
100
AcDbLine
 10
0.0000000000000002
 20
0.466230607751787
 30
0.0
 11
1.420999999998571
 21
1.887230607750358
 31
0.0
  0
LINE
  5
C48D
330
C47F
100
AcDbEntity
  8
0
  6
CONTINUOUS
100
AcDbLine
 10
0.2072886013284003
 20
-0.0000000000000009
 30
0.0
 11
1.420999999998571
 21
1.213711398670171
 31
0.0
  0
LINE
  5
C48E
330
C47F
100
AcDbEntity
  8
0
  6
CONTINUOUS
100
AcDbLine
 10
0.8808078104085864
 20
-0.0000000000000009
 30
0.0
 11
1.420999999998571
 21
0.5401921895899839
 31
0.0
  0
LINE
  5
C48F
330
C47F
100
AcDbEntity
  8
0
  6
CONTINUOUS
100
AcDbLine
 10
0.0581249075061505
 20
-0.0000000000000009
 30
0.0
 11
-0.0000000000000002
 21
0.0581249075061496
 31
0.0
  0
LINE
  5
C490
330
C47F
100
AcDbEntity
  8
0
  6
CONTINUOUS
100
AcDbLine
 10
0.7316441165863372
 20
-0.0000000000000009
 30
0.0
 11
-0.0000000000000002
 21
0.7316441165863363
 31
0.0
  0
LINE
  5
C491
330
C47F
100
AcDbEntity
  8
0
  6
CONTINUOUS
100
AcDbLine
 10
1.405163325666523
 20
-0.0000000000000009
 30
0.0
 11
-0.0000000000000002
 21
1.405163325666523
 31
0.0
  0
LINE
  5
C492
330
C47F
100
AcDbEntity
  8
0
  6
CONTINUOUS
100
AcDbLine
 10
1.420999999998572
 20
0.6576825347481381
 30
0.0
 11
-0.0000000000000001
 21
2.07868253474671
 31
0.0
  0
LINE
  5
C493
330
C47F
100
AcDbEntity
  8
0
  6
CONTINUOUS
100
AcDbLine
 10
1.420999999998571
 20
1.331201743828324
 30
0.0
 11
-0.0000000000000001
 21
2.752201743826896
 31
0.0
  0
LINE
  5
C494
330
C47F
100
AcDbEntity
  8
0
  6
CONTINUOUS
100
AcDbLine
 10
1.420999999998571
 20
2.004720952908511
 30
0.0
 11
-0.0000000000000002
 21
3.425720952907082
 31
0.0
  0
LINE
  5
C495
330
C47F
100
AcDbEntity
  8
0
  6
CONTINUOUS
100
AcDbLine
 10
1.420999999998571
 20
2.678240161988697
 30
0.0
 11
-0.0000000000000001
 21
4.099240161987269
 31
0.0
  0
LINE
  5
C496
330
C47F
100
AcDbEntity
  8
0
  6
CONTINUOUS
100
AcDbLine
 10
1.420999999998572
 20
3.351759371068884
 30
0.0
 11
0.0
 21
4.772759371067455
 31
0.0
  0
LINE
  5
C497
330
C47F
100
AcDbEntity
  8
0
  6
CONTINUOUS
100
AcDbLine
 10
1.420999999998571
 20
4.02527858014907
 30
0.0
 11
-0.0000000000000003
 21
5.446278580147642
 31
0.0
  0
LINE
  5
C498
330
C47F
100
AcDbEntity
  8
0
  6
CONTINUOUS
100
AcDbLine
 10
1.420999999998571
 20
4.698797789229257
 30
0.0
 11
0.0
 21
6.119797789227828
 31
0.0
  0
LINE
  5
C499
330
C47F
100
AcDbEntity
  8
0
  6
CONTINUOUS
100
AcDbLine
 10
1.420999999998571
 20
5.372316998309444
 30
0.0
 11
-0.0000000000000001
 21
6.793316998308015
 31
0.0
  0
LINE
  5
C49A
330
C47F
100
AcDbEntity
  8
0
  6
CONTINUOUS
100
AcDbLine
 10
1.420999999998572
 20
6.045836207389629
 30
0.0
 11
-0.0000000000000004
 21
7.466836207388202
 31
0.0
  0
LINE
  5
C49B
330
C47F
100
AcDbEntity
  8
0
  6
CONTINUOUS
100
AcDbLine
 10
1.420999999998571
 20
6.719355416469816
 30
0.0
 11
0.0
 21
8.140355416468388
 31
0.0
  0
LINE
  5
C49C
330
C47F
100
AcDbEntity
  8
0
  6
CONTINUOUS
100
AcDbLine
 10
1.420999999998571
 20
7.392874625550003
 30
0.0
 11
0.0507746255573185
 21
8.763099999991255
 31
0.0
  0
LINE
  5
C49D
330
C47F
100
AcDbEntity
  8
0
  6
CONTINUOUS
100
AcDbLine
 10
1.420999999998571
 20
8.06639383463019
 30
0.0
 11
0.7242938346375052
 21
8.763099999991255
 31
0.0
  0
LINE
  5
C49E
330
C47F
100
AcDbEntity
  8
0
  6
CONTINUOUS
100
AcDbLine
 10
1.420999999998571
 20
8.739913043710375
 30
0.0
 11
1.397813043717691
 21
8.763099999991255
 31
0.0
  0
ENDBLK
  5
C4AA
330
C47F
100
AcDbEntity
  8
0
100
AcDbBlockEnd
  0
ENDSEC
  0
SECTION
  2
ENTITIES
  0
TEXT
  5
B1F1
330
18
100
AcDbEntity
  8
1TEXT
100
AcDbText
 10
5418.612218610368
 20
-189.8721245694782
 30
0.0
 40
10.0
  1
C4829-X
 41
1.0171875
100
AcDbText
  0
LINE
  5
BAF1
330
18
100
AcDbEntity
  8
01
  6
CONTINUOUS
100
AcDbLine
 10
5659.5534567656
 20
-264.7485282693757
 30
0.0
 11
5611.5534567656
 21
-264.7485282693757
 31
0.0
  0
LINE
  5
BAFA
330
18
100
AcDbEntity
  8
01
  6
CONTINUOUS
100
AcDbLine
 10
5613.5534567656
 20
-259.2485282693757
 30
0.0
 11
5611.5534567656
 21
-259.2485282693757
 31
0.0
  0
LINE
  5
BB03
330
18
100
AcDbEntity
  8
01
  6
CONTINUOUS
100
AcDbLine
 10
5611.5534567656
 20
-264.7485282693757
 30
0.0
 11
5611.5534567656
 21
-259.2485282693757
 31
0.0
  0
LINE
  5
BB18
330
18
100
AcDbEntity
  8
01
  6
CONTINUOUS
100
AcDbLine
 10
5659.5534567656
 20
-259.2485282693757
 30
0.0
 11
5659.5534567656
 21
-264.7485282693757
 31
0.0
  0
LINE
  5
BB19
330
18
100
AcDbEntity
  8
01
  6
CONTINUOUS
100
AcDbLine
 10
5659.5534567656
 20
-259.2485282693757
 30
0.0
 11
5657.5534567656
 21
-259.2485282693757
 31
0.0
  0
LINE
  5
BB34
330
18
100
AcDbEntity
  8
01
  6
CONTINUOUS
100
AcDbLine
 10
5657.5534567656
 20
-259.2485282693757
 30
0.0
 11
5655.5534567656
 21
-259.2485282693757
 31
0.0
  0
LINE
  5
BB36
330
18
100
AcDbEntity
  8
01
  6
CONTINUOUS
100
AcDbLine
 10
5613.5534567656
 20
-259.2485282693757
 30
0.0
 11
5615.5534567656
 21
-259.2485282693757
 31
0.0
  0
LINE
  5
BB38
330
18
100
AcDbEntity
  8
01
  6
CONTINUOUS
100
AcDbLine
 10
5615.5534567656
 20
-259.2485282693757
 30
0.0
 11
5629.152620556803
 21
-259.2485282693757
 31
0.0
  0
LINE
  5
BB3A
330
18
100
AcDbEntity
  8
01
  6
CONTINUOUS
100
AcDbLine
 10
5629.721584669323
 20
-259.2485282693757
 30
0.0
 11
5629.152620556803
 21
-259.2485282693757
 31
0.0
  0
LINE
  5
BB3C
330
18
100
AcDbEntity
  8
01
  6
CONTINUOUS
100
AcDbLine
 10
5641.954313088514
 20
-259.2485282693757
 30
0.0
 11
5655.5534567656
 21
-259.2485282693757
 31
0.0
  0
LINE
  5
BB3E
330
18
100
AcDbEntity
  8
01
  6
CONTINUOUS
100
AcDbLine
 10
5641.954313088514
 20
-259.2485282693757
 30
0.0
 11
5641.385348975993
 21
-259.2485282693757
 31
0.0
  0
LINE
  5
BB3F
330
18
100
AcDbEntity
  8
01
  6
CONTINUOUS
100
AcDbLine
 10
5629.721584669323
 20
-259.2485282693757
 30
0.0
 11
5641.385348975993
 21
-259.2485282693757
 31
0.0
  0
LINE
  5
BB40
330
18
100
AcDbEntity
  8
1CENTER
100
AcDbLine
 10
5635.553466822658
 20
-275.8763862058473
 30
0.0
 11
5635.553466822658
 21
-225.5519611377036
 31
0.0
  0
LINE
  5
BB44
330
18
100
AcDbEntity
  8
01
100
AcDbLine
 10
5621.5534567656
 20
-250.2459091200068
 30
0.0
 11
5621.5534567656
 21
-259.2485282693757
 31
0.0
  0
LINE
  5
BB46
330
18
100
AcDbEntity
  8
1CENTER
100
AcDbLine
 10
5618.5534567656
 20
-230.4540459450778
 30
0.0
 11
5618.553456765601
 21
-262.5313660232631
 31
0.0
  0
LINE
  5
BB52
330
18
100
AcDbEntity
  8
01
100
AcDbLine
 10
5621.458194275256
 20
-232.2485282693757
 30
0.0
 11
5621.458194275256
 21
-249.4985282693757
 31
0.0
  0
SPLINE
  5
BB53
330
18
100
AcDbEntity
  8
01
100
AcDbSpline
210
0.0
220
0.0
230
1.0
 70
     8
 71
     3
 72
    17
 73
    13
 74
     0
 42
0.0000000001
 43
0.0000000001
 40
0.0
 40
0.0
 40
0.0
 40
0.0
 40
0.1035537740647442
 40
0.210172154447051
 40
0.3137090743857175
 40
0.4201391308656008
 40
0.5257255054774279
 40
0.6342867052779134
 40
0.7412395412394206
 40
0.8514163428171898
 40
0.9561772169171133
 40
1.0
 40
1.0
 40
1.0
 40
1.0
 10
5621.458194275256
 20
-249.4985282693757
 30
0.0
 10
5621.458697099462
 20
-249.5393566213839
 30
0.0
 10
5621.459717628628
 20
-249.6222216138145
 30
0.0
 10
5621.467688479537
 20
-249.7423718390634
 30
0.0
 10
5621.479492811532
 20
-249.8565768300347
 30
0.0
 10
5621.494164458873
 20
-249.9604724134985
 30
0.0
 10
5621.51026713323
 20
-250.0531217064287
 30
0.0
 10
5621.525869535957
 20
-250.1303934949561
 30
0.0
 10
5621.539502684579
 20
-250.1911661265709
 30
0.0
 10
5621.548880675149
 20
-250.2301955541685
 30
0.0
 10
5621.553514600615
 20
-250.2487619131385
 30
0.0
 10
5621.5529652359
 20
-250.2465588765041
 30
0.0
 10
5621.552803208048
 20
-250.2459091200068
 30
0.0
  0
LINE
  5
BB54
330
18
100
AcDbEntity
  8
01
100
AcDbLine
 10
5621.458194275256
 20
-232.2485282693757
 30
0.0
 11
5615.5534567656
 21
-232.2485282693757
 31
0.0
  0
LINE
  5
BB5D
330
18
100
AcDbEntity
  8
01
100
AcDbLine
 10
5649.5534567656
 20
-250.2459091200068
 30
0.0
 11
5649.5534567656
 21
-259.2485282693756
 31
0.0
  0
LINE
  5
BB5F
330
18
100
AcDbEntity
  8
1CENTER
100
AcDbLine
 10
5652.5534567656
 20
-230.4540459450778
 30
0.0
 11
5652.5534567656
 21
-262.1708804812341
 31
0.0
  0
LINE
  5
BB6B
330
18
100
AcDbEntity
  8
01
100
AcDbLine
 10
5649.648719255944
 20
-232.2485282693757
 30
0.0
 11
5649.648719255944
 21
-249.4985282693757
 31
0.0
  0
SPLINE
  5
BB6C
330
18
100
AcDbEntity
  8
01
100
AcDbSpline
210
0.0
220
0.0
230
1.0
 70
     8
 71
     3
 72
    17
 73
    13
 74
     0
 42
0.0000000001
 43
0.0000000001
 40
0.0
 40
0.0
 40
0.0
 40
0.0
 40
0.1035537740647442
 40
0.210172154447051
 40
0.3137090743857175
 40
0.4201391308656008
 40
0.5257255054774279
 40
0.6342867052779134
 40
0.7412395412394206
 40
0.8514163428171898
 40
0.9561772169171133
 40
1.0
 40
1.0
 40
1.0
 40
1.0
 10
5649.648719255944
 20
-249.4985282693757
 30
0.0
 10
5649.648216431739
 20
-249.5393566213839
 30
0.0
 10
5649.647195902572
 20
-249.6222216138145
 30
0.0
 10
5649.639225051664
 20
-249.7423718390634
 30
0.0
 10
5649.627420719669
 20
-249.8565768300347
 30
0.0
 10
5649.612749072327
 20
-249.9604724134985
 30
0.0
 10
5649.59664639797
 20
-250.0531217064287
 30
0.0
 10
5649.581043995244
 20
-250.1303934949561
 30
0.0
 10
5649.567410846622
 20
-250.1911661265709
 30
0.0
 10
5649.558032856051
 20
-250.2301955541685
 30
0.0
 10
5649.553398930585
 20
-250.2487619131385
 30
0.0
 10
5649.553948295301
 20
-250.2465588765041
 30
0.0
 10
5649.554110323153
 20
-250.2459091200068
 30
0.0
  0
LINE
  5
BB6D
330
18
100
AcDbEntity
  8
01
100
AcDbLine
 10
5649.648719255944
 20
-232.2485282693757
 30
0.0
 11
5655.5534567656
 21
-232.2485282693757
 31
0.0
  0
LINE
  5
BBBD
330
18
100
AcDbEntity
  8
01
100
AcDbLine
 10
5614.553466822658
 20
-266.5485282693759
 30
0.0
 11
5656.553466822658
 21
-266.5485282693759
 31
0.0
  0
LINE
  5
BBBE
330
18
100
AcDbEntity
  8
01
100
AcDbLine
 10
5656.553466822658
 20
-266.5485282693759
 30
0.0
 11
5657.053466822658
 21
-266.5485282693759
 31
0.0
  0
ARC
  5
BBBF
330
18
100
AcDbEntity
  8
01
100
AcDbCircle
 10
5657.053466822658
 20
-266.2485282693757
 30
0.0
 40
0.3000000000000114
100
AcDbArc
 50
270.0
 51
0.0
  0
LINE
  5
BBC0
330
18
100
AcDbEntity
  8
01
100
AcDbLine
 10
5614.053466822658
 20
-266.5485282693759
 30
0.0
 11
5614.553466822658
 21
-266.5485282693759
 31
0.0
  0
ARC
  5
BBC1
330
18
100
AcDbEntity
  8
01
100
AcDbCircle
 10
5614.053466822658
 20
-266.2485282693757
 30
0.0
 40
0.3000000000000114
100
AcDbArc
 50
180.0
 51
270.0
  0
LINE
  5
BBC2
330
18
100
AcDbEntity
  8
01
100
AcDbLine
 10
5657.353466822658
 20
-266.2485282693757
 30
0.0
 11
5657.353466822658
 21
-265.1485282693762
 31
0.0
  0
LINE
  5
BBC3
330
18
100
AcDbEntity
  8
01
100
AcDbLine
 10
5613.753466822658
 20
-266.2485282693757
 30
0.0
 11
5613.753466822658
 21
-265.1485282693762
 31
0.0
  0
LINE
  5
BBC4
330
18
100
AcDbEntity
  8
01
100
AcDbLine
 10
5614.553466822658
 20
-264.8485282693761
 30
0.0
 11
5614.053466822658
 21
-264.8485282693761
 31
0.0
  0
ARC
  5
BBC5
330
18
100
AcDbEntity
  8
01
100
AcDbCircle
 10
5614.053466822658
 20
-265.1485282693762
 30
0.0
 40
0.2999999999999829
100
AcDbArc
 50
90.0
 51
180.0
  0
ARC
  5
BBC6
330
18
100
AcDbEntity
  8
01
100
AcDbCircle
 10
5657.053466822658
 20
-265.1485282693762
 30
0.0
 40
0.2999999999999972
100
AcDbArc
 50
0.0
 51
90.0
  0
LINE
  5
BBC8
330
18
100
AcDbEntity
  8
01
100
AcDbLine
 10
5657.053466822658
 20
-264.8485282693762
 30
0.0
 11
5614.553466822658
 21
-264.8485282693761
 31
0.0
  0
ARC
  5
BBC9
330
18
100
AcDbEntity
  8
01
100
AcDbCircle
 10
5614.853466822658
 20
-266.8485282693761
 30
0.0
 40
0.3000000000000114
100
AcDbArc
 50
0.0
 51
90.0
  0
ARC
  5
BBCA
330
18
100
AcDbEntity
  8
01
100
AcDbCircle
 10
5656.253466822658
 20
-266.8485282693761
 30
0.0
 40
0.3000000000000114
100
AcDbArc
 50
90.0
 51
180.0
  0
LINE
  5
BBCB
330
18
100
AcDbEntity
  8
01
100
AcDbLine
 10
5616.153466822659
 20
-273.0485282693759
 30
0.0
 11
5631.053466822658
 21
-273.0485282693759
 31
0.0
  0
LINE
  5
BBCC
330
18
100
AcDbEntity
  8
01
100
AcDbLine
 10
5615.453466822658
 20
-273.0485282693759
 30
0.0
 11
5616.153466822659
 21
-273.0485282693759
 31
0.0
  0
ARC
  5
BBCD
330
18
100
AcDbEntity
  8
01
100
AcDbCircle
 10
5615.453466822658
 20
-272.7485282693757
 30
0.0
 40
0.3000000000000114
100
AcDbArc
 50
180.0
 51
270.0
  0
ARC
  5
BBCE
330
18
100
AcDbEntity
  8
01
100
AcDbCircle
 10
5640.053466822658
 20
-272.7485282693757
 30
0.0
 40
0.2999999999999972
100
AcDbArc
 50
180.0
 51
270.0
  0
LINE
  5
BBCF
330
18
100
AcDbEntity
  8
01
100
AcDbLine
 10
5615.153466822659
 20
-272.7485282693757
 30
0.0
 11
5615.153466822659
 21
-266.8485282693761
 31
0.0
  0
ARC
  5
BBD0
330
18
100
AcDbEntity
  8
01
100
AcDbCircle
 10
5631.053466822658
 20
-272.7485282693757
 30
0.0
 40
0.2999999999999972
100
AcDbArc
 50
270.0
 51
0.0
  0
LINE
  5
BBD1
330
18
100
AcDbEntity
  8
01
100
AcDbLine
 10
5640.053466822658
 20
-273.0485282693759
 30
0.0
 11
5654.953466822658
 21
-273.0485282693759
 31
0.0
  0
LINE
  5
BBD2
330
18
100
AcDbEntity
  8
01
100
AcDbLine
 10
5654.953466822658
 20
-273.0485282693759
 30
0.0
 11
5655.653466822659
 21
-273.0485282693759
 31
0.0
  0
ARC
  5
BBD3
330
18
100
AcDbEntity
  8
01
100
AcDbCircle
 10
5655.653466822659
 20
-272.7485282693757
 30
0.0
 40
0.2999999999999972
100
AcDbArc
 50
270.0
 51
0.0
  0
LINE
  5
BBD4
330
18
100
AcDbEntity
  8
01
100
AcDbLine
 10
5631.353466822658
 20
-272.7485282693757
 30
0.0
 11
5631.353466822658
 21
-268.8485282693761
 31
0.0
  0
LINE
  5
BBD5
330
18
100
AcDbEntity
  8
01
100
AcDbLine
 10
5639.753466822658
 20
-268.8485282693761
 30
0.0
 11
5639.753466822658
 21
-272.7485282693757
 31
0.0
  0
LINE
  5
BBD6
330
18
100
AcDbEntity
  8
01
100
AcDbLine
 10
5655.953466822658
 20
-272.7485282693757
 30
0.0
 11
5655.953466822658
 21
-266.8485282693761
 31
0.0
  0
LINE
  5
BBD7
330
18
100
AcDbEntity
  8
01
100
AcDbLine
 10
5631.353466822658
 20
-268.8485282693761
 30
0.0
 11
5639.753466822658
 21
-268.8485282693761
 31
0.0
  0
LINE
  5
BCDD
330
18
100
AcDbEntity
  8
01
100
AcDbLine
 10
5487.037779279855
 20
-313.3064411171033
 30
0.0
 11
5487.037779279855
 21
-333.1064411171033
 31
0.0
  0
ARC
  5
BCDE
330
18
100
AcDbEntity
  8
01
100
AcDbCircle
 10
5486.037779279855
 20
-333.1064411171033
 30
0.0
 40
1.0
100
AcDbArc
 50
270.0
 51
0.0
  0
ARC
  5
BCDF
330
18
100
AcDbEntity
  8
01
100
AcDbCircle
 10
5486.037779279855
 20
-313.3064411171033
 30
0.0
 40
1.0
100
AcDbArc
 50
0.0
 51
90.0
  0
ARC
  5
BCE0
330
18
100
AcDbEntity
  8
01
100
AcDbCircle
 10
5484.537779279855
 20
-314.8064411171033
 30
0.0
 40
1.0
100
AcDbArc
 50
0.0
 51
90.0
  0
LINE
  5
BCE1
330
18
100
AcDbEntity
  8
01
100
AcDbLine
 10
5484.537779279855
 20
-313.8064411171033
 30
0.0
 11
5473.265750311777
 21
-313.8064411171033
 31
0.0
  0
ARC
  5
BCE2
330
18
100
AcDbEntity
  8
01
100
AcDbCircle
 10
5473.265750311777
 20
-314.8064411171033
 30
0.0
 40
1.00000000000002
100
AcDbArc
 50
90.0
 51
231.7250003269075
  0
ARC
  5
BCE3
330
18
100
AcDbEntity
  8
01
100
AcDbCircle
 10
5466.637779279855
 20
-323.2064411171033
 30
0.0
 40
9.70000000000002
100
AcDbArc
 50
308.2749996730923
 51
51.72500032690768
  0
ARC
  5
BCE4
330
18
100
AcDbEntity
  8
01
100
AcDbCircle
 10
5473.265750311777
 20
-331.6064411171033
 30
0.0
 40
1.000000000000003
100
AcDbArc
 50
128.2749996730923
 51
270.0
  0
LINE
  5
BCE5
330
18
100
AcDbEntity
  8
01
100
AcDbLine
 10
5473.265750311777
 20
-332.6064411171033
 30
0.0
 11
5484.537779279855
 21
-332.6064411171033
 31
0.0
  0
ARC
  5
BCE6
330
18
100
AcDbEntity
  8
01
100
AcDbCircle
 10
5484.537779279855
 20
-331.6064411171033
 30
0.0
 40
1.0
100
AcDbArc
 50
270.0
 51
0.0
  0
LINE
  5
BCE7
330
18
100
AcDbEntity
  8
01
100
AcDbLine
 10
5485.537779279855
 20
-331.6064411171033
 30
0.0
 11
5485.537779279855
 21
-314.8064411171033
 31
0.0
  0
LINE
  5
BCE9
330
18
100
AcDbEntity
  8
01
100
AcDbLine
 10
5471.137779279855
 20
-312.3064411171033
 30
0.0
 11
5486.037779279855
 21
-312.3064411171033
 31
0.0
  0
LINE
  5
BCEA
330
18
100
AcDbEntity
  8
01
100
AcDbLine
 10
5486.037779279855
 20
-334.1064411171033
 30
0.0
 11
5471.137779279855
 21
-334.1064411171033
 31
0.0
  0
ARC
  5
BCEB
330
18
100
AcDbEntity
  8
01
100
AcDbCircle
 10
5466.637779279855
 20
-323.2064411171033
 30
0.0
 40
8.200000000000012
100
AcDbArc
 50
301.9657187508184
 51
58.03428124918161
  0
ARC
  5
BCEC
330
18
100
AcDbEntity
  8
01
100
AcDbCircle
 10
5471.137779279855
 20
-312.6064411171033
 30
0.0
 40
0.2999999999999829
100
AcDbArc
 50
90.0
 51
180.0
  0
ARC
  5
BCED
330
18
100
AcDbEntity
  8
01
100
AcDbCircle
 10
5471.137779279855
 20
-315.9953385661753
 30
0.0
 40
0.2999999999999982
100
AcDbArc
 50
180.0
 51
238.0342812491816
  0
ARC
  5
BCEE
330
18
100
AcDbEntity
  8
01
100
AcDbCircle
 10
5471.137779279855
 20
-330.4175436680313
 30
0.0
 40
0.2999999999999982
100
AcDbArc
 50
121.9657187508182
 51
180.0
  0
LINE
  5
BCEF
330
18
100
AcDbEntity
  8
01
100
AcDbLine
 10
5470.837779279856
 20
-315.9953385661753
 30
0.0
 11
5470.837779279856
 21
-312.6064411171033
 31
0.0
  0
ARC
  5
BCF0
330
18
100
AcDbEntity
  8
01
100
AcDbCircle
 10
5471.137779279855
 20
-333.8064411171034
 30
0.0
 40
0.2999999999999829
100
AcDbArc
 50
180.0
 51
270.0
  0
LINE
  5
BCF1
330
18
100
AcDbEntity
  8
01
100
AcDbLine
 10
5470.837779279856
 20
-333.8064411171034
 30
0.0
 11
5470.837779279856
 21
-330.4175436680313
 31
0.0
  0
ARC
  5
BCF2
330
18
100
AcDbEntity
  8
01
100
AcDbCircle
 10
5462.137779279855
 20
-333.8064411171034
 30
0.0
 40
0.2999999999999829
100
AcDbArc
 50
270.0
 51
0.0
  0
LINE
  5
BCF3
330
18
100
AcDbEntity
  8
01
100
AcDbLine
 10
5462.437779279855
 20
-312.6064411171033
 30
0.0
 11
5462.437779279855
 21
-315.9953385661753
 31
0.0
  0
ARC
  5
BCF4
330
18
100
AcDbEntity
  8
01
100
AcDbCircle
 10
5462.137779279855
 20
-330.4175436680313
 30
0.0
 40
0.2999999999999982
100
AcDbArc
 50
0.0
 51
58.03428124918161
  0
LINE
  5
BCF5
330
18
100
AcDbEntity
  8
01
100
AcDbLine
 10
5462.437779279855
 20
-330.4175436680313
 30
0.0
 11
5462.437779279855
 21
-333.8064411171034
 31
0.0
  0
ARC
  5
BCF6
330
18
100
AcDbEntity
  8
01
100
AcDbCircle
 10
5462.137779279855
 20
-312.6064411171033
 30
0.0
 40
0.2999999999999829
100
AcDbArc
 50
0.0
 51
90.0
  0
ARC
  5
BCF7
330
18
100
AcDbEntity
  8
01
100
AcDbCircle
 10
5462.137779279855
 20
-315.9953385661753
 30
0.0
 40
0.2999999999999982
100
AcDbArc
 50
301.9657187508184
 51
0.0
  0
LINE
  5
BCF8
330
18
100
AcDbEntity
  8
01
100
AcDbLine
 10
5462.137779279855
 20
-334.1064411171033
 30
0.0
 11
5447.237779279855
 21
-334.1064411171033
 31
0.0
  0
LINE
  5
BCF9
330
18
100
AcDbEntity
  8
01
100
AcDbLine
 10
5447.237779279855
 20
-312.3064411171033
 30
0.0
 11
5462.137779279855
 21
-312.3064411171033
 31
0.0
  0
ARC
  5
BCFA
330
18
100
AcDbEntity
  8
01
100
AcDbCircle
 10
5460.009808247934
 20
-331.6064411171033
 30
0.0
 40
1.000000000000003
100
AcDbArc
 50
270.0
 51
51.72500032690768
  0
ARC
  5
BCFB
330
18
100
AcDbEntity
  8
01
100
AcDbCircle
 10
5466.637779279855
 20
-323.2064411171033
 30
0.0
 40
9.699999999999985
100
AcDbArc
 50
128.2749996730923
 51
231.7250003269075
  0
ARC
  5
BCFC
330
18
100
AcDbEntity
  8
01
100
AcDbCircle
 10
5460.009808247934
 20
-314.8064411171033
 30
0.0
 40
1.0
100
AcDbArc
 50
308.2749996730923
 51
90.0
  0
LINE
  5
BCFD
330
18
100
AcDbEntity
  8
01
100
AcDbLine
 10
5460.009808247934
 20
-313.8064411171033
 30
0.0
 11
5448.737779279855
 21
-313.8064411171033
 31
0.0
  0
ARC
  5
BCFE
330
18
100
AcDbEntity
  8
01
100
AcDbCircle
 10
5448.737779279855
 20
-314.8064411171033
 30
0.0
 40
1.0
100
AcDbArc
 50
90.0
 51
180.0
  0
LINE
  5
BCFF
330
18
100
AcDbEntity
  8
01
100
AcDbLine
 10
5447.737779279855
 20
-314.8064411171033
 30
0.0
 11
5447.737779279855
 21
-331.6064411171033
 31
0.0
  0
ARC
  5
BD00
330
18
100
AcDbEntity
  8
01
100
AcDbCircle
 10
5448.737779279855
 20
-331.6064411171033
 30
0.0
 40
1.0
100
AcDbArc
 50
180.0
 51
270.0
  0
LINE
  5
BD01
330
18
100
AcDbEntity
  8
01
100
AcDbLine
 10
5448.737779279855
 20
-332.6064411171033
 30
0.0
 11
5460.009808247934
 21
-332.6064411171033
 31
0.0
  0
ARC
  5
BD02
330
18
100
AcDbEntity
  8
01
100
AcDbCircle
 10
5466.637779279855
 20
-323.2064411171033
 30
0.0
 40
8.199999999999996
100
AcDbArc
 50
121.9657187508182
 51
238.0342812491816
  0
ARC
  5
BD03
330
18
100
AcDbEntity
  8
01
100
AcDbCircle
 10
5447.237779279855
 20
-313.3064411171033
 30
0.0
 40
1.0
100
AcDbArc
 50
90.0
 51
180.0
  0
ARC
  5
BD04
330
18
100
AcDbEntity
  8
01
100
AcDbCircle
 10
5447.237779279855
 20
-333.1064411171033
 30
0.0
 40
1.0
100
AcDbArc
 50
180.0
 51
270.0
  0
LINE
  5
BD05
330
18
100
AcDbEntity
  8
01
100
AcDbLine
 10
5446.237779279855
 20
-333.1064411171033
 30
0.0
 11
5446.237779279855
 21
-313.3064411171033
 31
0.0
  0
ARC
  5
BD06
330
18
100
AcDbEntity
  8
01
100
AcDbCircle
 10
5466.637779279855
 20
-323.2064411171033
 30
0.0
 40
8.199999999999987
100
AcDbArc
 50
58.03428124918161
 51
121.9657187508182
  0
ARC
  5
BD07
330
18
100
AcDbEntity
  8
01
100
AcDbCircle
 10
5466.637779279855
 20
-323.2064411171033
 30
0.0
 40
8.200000000000012
100
AcDbArc
 50
238.0342812491816
 51
301.9657187508184
  0
LINE
  5
BD08
330
18
100
AcDbEntity
  8
01
100
AcDbLine
 10
5471.137779279855
 20
-334.1064411171033
 30
0.0
 11
5462.137779279855
 21
-334.1064411171033
 31
0.0
  0
LINE
  5
BD09
330
18
100
AcDbEntity
  8
01
100
AcDbLine
 10
5462.137779279855
 20
-312.3064411171033
 30
0.0
 11
5471.137779279855
 21
-312.3064411171033
 31
0.0
  0
LINE
  5
BD0A
330
18
100
AcDbEntity
  8
01
100
AcDbLine
 10
5488.437779279855
 20
-311.9064411171033
 30
0.0
 11
5488.437779279855
 21
-334.5064411171033
 31
0.0
  0
ARC
  5
BD0B
330
18
100
AcDbEntity
  8
01
100
AcDbCircle
 10
5487.437779279855
 20
-334.5064411171033
 30
0.0
 40
1.0
100
AcDbArc
 50
270.0
 51
0.0
  0
ARC
  5
BD0C
330
18
100
AcDbEntity
  8
01
100
AcDbCircle
 10
5487.437779279855
 20
-311.9064411171033
 30
0.0
 40
1.0
100
AcDbArc
 50
0.0
 51
90.0
  0
LINE
  5
BD0D
330
18
100
AcDbEntity
  8
01
100
AcDbLine
 10
5487.437779279855
 20
-335.5064411171033
 30
0.0
 11
5445.837779279856
 21
-335.5064411171033
 31
0.0
  0
ARC
  5
BD0E
330
18
100
AcDbEntity
  8
01
100
AcDbCircle
 10
5445.837779279856
 20
-334.5064411171033
 30
0.0
 40
1.0
100
AcDbArc
 50
180.0
 51
270.0
  0
LINE
  5
BD0F
330
18
100
AcDbEntity
  8
01
100
AcDbLine
 10
5445.837779279856
 20
-310.9064411171033
 30
0.0
 11
5487.437779279855
 21
-310.9064411171033
 31
0.0
  0
CIRCLE
  5
BD11
330
18
100
AcDbEntity
  8
01
100
AcDbCircle
 10
5466.637779279855
 20
-323.2064411171033
 30
0.0
 40
6.0
  0
LINE
  5
BD12
330
18
100
AcDbEntity
  8
01
100
AcDbLine
 10
5444.837779279856
 20
-334.5064411171033
 30
0.0
 11
5444.837779279856
 21
-311.9064411171033
 31
0.0
  0
ARC
  5
BD13
330
18
100
AcDbEntity
  8
01
100
AcDbCircle
 10
5445.837779279856
 20
-311.9064411171033
 30
0.0
 40
1.0
100
AcDbArc
 50
90.0
 51
180.0
  0
ARC
  5
BE14
330
18
100
AcDbEntity
  8
01
  6
CONTINUOUS
100
AcDbCircle
 10
5612.553466822658
 20
-309.7064411171037
 30
0.0
 40
1.0
100
AcDbArc
 50
90.0
 51
180.0
  0
LINE
  5
BE15
330
18
100
AcDbEntity
  8
01
  6
CONTINUOUS
100
AcDbLine
 10
5612.553466822658
 20
-308.7064411171037
 30
0.0
 11
5658.553466822658
 21
-308.7064411171037
 31
0.0
  0
ARC
  5
BE16
330
18
100
AcDbEntity
  8
01
  6
CONTINUOUS
100
AcDbCircle
 10
5658.553466822658
 20
-309.7064411171037
 30
0.0
 40
1.0
100
AcDbArc
 50
0.0
 51
90.0
  0
LINE
  5
BE17
330
18
100
AcDbEntity
  8
01
  6
CONTINUOUS
100
AcDbLine
 10
5659.553466822658
 20
-309.7064411171037
 30
0.0
 11
5659.553466822658
 21
-336.7064411171037
 31
0.0
  0
ARC
  5
BE18
330
18
100
AcDbEntity
  8
01
  6
CONTINUOUS
100
AcDbCircle
 10
5658.553466822658
 20
-336.7064411171037
 30
0.0
 40
1.0
100
AcDbArc
 50
270.0
 51
0.0
  0
LINE
  5
BE19
330
18
100
AcDbEntity
  8
01
  6
CONTINUOUS
100
AcDbLine
 10
5658.553466822658
 20
-337.7064411171037
 30
0.0
 11
5612.553466822658
 21
-337.7064411171037
 31
0.0
  0
ARC
  5
BE1A
330
18
100
AcDbEntity
  8
01
  6
CONTINUOUS
100
AcDbCircle
 10
5612.553466822658
 20
-336.7064411171037
 30
0.0
 40
1.0
100
AcDbArc
 50
180.0
 51
270.0
  0
LINE
  5
BE1B
330
18
100
AcDbEntity
  8
01
  6
CONTINUOUS
100
AcDbLine
 10
5611.553466822658
 20
-336.7064411171037
 30
0.0
 11
5611.553466822658
 21
-309.7064411171037
 31
0.0
  0
CIRCLE
  5
BE39
330
18
100
AcDbEntity
  8
01
  6
CONTINUOUS
100
AcDbCircle
 10
5635.553466822658
 20
-323.2064411171037
 30
0.0
 40
8.099999999999966
  0
LINE
  5
BE4A
330
18
100
AcDbEntity
  8
1CENTER
100
AcDbLine
 10
5608.506520708204
 20
-323.2064411171039
 30
0.0
 11
5662.11132367563
 21
-323.2064411171039
 31
0.0
  0
LINE
  5
BE4B
330
18
100
AcDbEntity
  8
1CENTER
100
AcDbLine
 10
5635.553466822658
 20
-339.9864411171038
 30
0.0
 11
5635.553466822658
 21
-306.4264411171039
 31
0.0
  0
LINE
  5
BED0
330
18
100
AcDbEntity
  8
01
  6
CONTINUOUS
100
AcDbLine
 10
5490.637779279856
 20
-309.7064411171042
 30
0.0
 11
5490.637779279856
 21
-336.7064411171042
 31
0.0
  0
ARC
  5
BED1
330
18
100
AcDbEntity
  8
01
  6
CONTINUOUS
100
AcDbCircle
 10
5443.637779279856
 20
-336.7064411171043
 30
0.0
 40
1.0
100
AcDbArc
 50
180.0
 51
270.0
  0
LINE
  5
BED2
330
18
100
AcDbEntity
  8
01
  6
CONTINUOUS
100
AcDbLine
 10
5443.637779279856
 20
-308.7064411171042
 30
0.0
 11
5489.637779279856
 21
-308.7064411171042
 31
0.0
  0
LINE
  5
BED3
330
18
100
AcDbEntity
  8
01
  6
CONTINUOUS
100
AcDbLine
 10
5442.637779279856
 20
-336.7064411171043
 30
0.0
 11
5442.637779279856
 21
-309.7064411171042
 31
0.0
  0
LINE
  5
BED4
330
18
100
AcDbEntity
  8
01
  6
CONTINUOUS
100
AcDbLine
 10
5489.637779279856
 20
-337.7064411171043
 30
0.0
 11
5443.637779279856
 21
-337.7064411171043
 31
0.0
  0
ARC
  5
BED5
330
18
100
AcDbEntity
  8
01
  6
CONTINUOUS
100
AcDbCircle
 10
5489.637779279856
 20
-309.7064411171042
 30
0.0
 40
1.0
100
AcDbArc
 50
0.0
 51
90.0
  0
ARC
  5
BED6
330
18
100
AcDbEntity
  8
01
  6
CONTINUOUS
100
AcDbCircle
 10
5489.637779279856
 20
-336.7064411171043
 30
0.0
 40
1.0
100
AcDbArc
 50
270.0
 51
0.0000000000016284
  0
ARC
  5
BED7
330
18
100
AcDbEntity
  8
01
  6
CONTINUOUS
100
AcDbCircle
 10
5443.637779279856
 20
-309.7064411171042
 30
0.0
 40
1.0
100
AcDbArc
 50
90.0
 51
180.0
  0
LINE
  5
BEEF
330
18
100
AcDbEntity
  8
1CENTER
100
AcDbLine
 10
5452.857779281156
 20
-323.2064411171039
 30
0.0
 11
5480.417779278555
 21
-323.2064411171039
 31
0.0
  0
LINE
  5
BEF0
330
18
100
AcDbEntity
  8
1CENTER
100
AcDbLine
 10
5466.637779279855
 20
-339.9864411158038
 30
0.0
 11
5466.637779279855
 21
-306.4264411184039
 31
0.0
  0
LINE
  5
BEF1
330
18
100
AcDbEntity
  8
01
100
AcDbLine
 10
5576.381165344442
 20
-308.7064411171039
 30
0.0
 11
5576.381165344441
 21
-337.7064411171039
 31
0.0
  0
LINE
  5
BEF2
330
18
100
AcDbEntity
  8
01
100
AcDbLine
 10
5581.881165344441
 20
-308.7064411171039
 30
0.0
 11
5581.881165344441
 21
-337.7064411171039
 31
0.0
  0
LINE
  5
BEF3
330
18
100
AcDbEntity
  8
01
100
AcDbLine
 10
5576.381165344441
 20
-337.7064411171039
 30
0.0
 11
5581.881165344441
 21
-337.7064411171039
 31
0.0
  0
LINE
  5
BEF4
330
18
100
AcDbEntity
  8
01
100
AcDbLine
 10
5576.381165344441
 20
-308.7064411171039
 30
0.0
 11
5581.881165344441
 21
-308.7064411171039
 31
0.0
  0
LINE
  5
BEF5
330
18
100
AcDbEntity
  8
1CENTER
100
AcDbLine
 10
5593.239394631753
 20
-323.2064411171039
 30
0.0
 11
5546.687510110731
 21
-323.2064411171039
 31
0.0
  0
LINE
  5
BEF8
330
18
100
AcDbEntity
  8
01
100
AcDbLine
 10
5576.381165344442
 20
-326.2064411171039
 30
0.0
 11
5549.381165344441
 21
-326.2064411171039
 31
0.0
  0
LINE
  5
BEF9
330
18
100
AcDbEntity
  8
01
100
AcDbLine
 10
5567.378546195072
 20
-320.2064411171039
 30
0.0
 11
5576.381165344442
 21
-320.2064411171039
 31
0.0
  0
LINE
  5
BF07
330
18
100
AcDbEntity
  8
01
100
AcDbLine
 10
5549.381165344441
 20
-320.3017036074483
 30
0.0
 11
5566.631165344441
 21
-320.3017036074483
 31
0.0
  0
SPLINE
  5
BF08
330
18
100
AcDbEntity
  8
01
100
AcDbSpline
210
0.0
220
0.0
230
1.0
 70
     8
 71
     3
 72
    17
 73
    13
 74
     0
 42
0.0000000001
 43
0.0000000001
 40
0.0
 40
0.0
 40
0.0
 40
0.0
 40
0.1035537740647442
 40
0.210172154447051
 40
0.3137090743857175
 40
0.4201391308656008
 40
0.5257255054774279
 40
0.6342867052779134
 40
0.7412395412394206
 40
0.8514163428171898
 40
0.9561772169171133
 40
1.0
 40
1.0
 40
1.0
 40
1.0
 10
5566.631165344441
 20
-320.3017036074483
 30
0.0
 10
5566.671993696449
 20
-320.3012007832422
 30
0.0
 10
5566.75485868888
 20
-320.300180254076
 30
0.0
 10
5566.875008914129
 20
-320.2922094031672
 30
0.0
 10
5566.9892139051
 20
-320.2804050711727
 30
0.0
 10
5567.093109488564
 20
-320.2657334238306
 30
0.0
 10
5567.185758781494
 20
-320.2496307494742
 30
0.0
 10
5567.263030570021
 20
-320.2340283467473
 30
0.0
 10
5567.323803201636
 20
-320.2203951981253
 30
0.0
 10
5567.362832629234
 20
-320.2110172075548
 30
0.0
 10
5567.381398988204
 20
-320.206383282089
 30
0.0
 10
5567.379195951569
 20
-320.2069326468043
 30
0.0
 10
5567.378546195072
 20
-320.2070946746559
 30
0.0
  0
LINE
  5
BF09
330
18
100
AcDbEntity
  8
01
100
AcDbLine
 10
5549.381165344441
 20
-320.3017036074483
 30
0.0
 11
5549.381165344441
 21
-326.2064411171039
 31
0.0
  0
LINE
  5
BF14
330
18
100
AcDbEntity
  8
01
100
AcDbLine
 10
5581.881165344441
 20
-312.7064411171039
 30
0.0
 11
5581.981165344441
 21
-312.7064411171039
 31
0.0
  0
LINE
  5
BF15
330
18
100
AcDbEntity
  8
01
100
AcDbLine
 10
5581.981165344441
 20
-333.7064411171039
 30
0.0
 11
5581.881165344441
 21
-333.7064411171039
 31
0.0
  0
LINE
  5
BF1F
330
18
100
AcDbEntity
  8
01
100
AcDbLine
 10
5583.681165344441
 20
-311.5064411171039
 30
0.0
 11
5583.681165344441
 21
-311.0064411171039
 31
0.0
  0
ARC
  5
BF20
330
18
100
AcDbEntity
  8
01
100
AcDbCircle
 10
5583.381165344441
 20
-311.0064411171039
 30
0.0
 40
0.3000000000000114
100
AcDbArc
 50
0.0
 51
90.0
  0
LINE
  5
BF23
330
18
100
AcDbEntity
  8
01
100
AcDbLine
 10
5583.381165344441
 20
-310.7064411171039
 30
0.0
 11
5582.281165344441
 21
-310.7064411171039
 31
0.0
  0
ARC
  5
BF27
330
18
100
AcDbEntity
  8
01
100
AcDbCircle
 10
5582.281165344441
 20
-311.0064411171039
 30
0.0
 40
0.2999999999999972
100
AcDbArc
 50
90.0
 51
180.0
  0
LINE
  5
BF28
330
18
100
AcDbEntity
  8
01
100
AcDbLine
 10
5581.981165344442
 20
-311.0064411171039
 30
0.0
 11
5581.981165344441
 21
-311.5064411171039
 31
0.0
  0
LINE
  5
BF29
330
18
100
AcDbEntity
  8
01
100
AcDbLine
 10
5581.981165344441
 20
-311.5064411171039
 30
0.0
 11
5581.981165344441
 21
-335.4064411171038
 31
0.0
  0
ARC
  5
BF2B
330
18
100
AcDbEntity
  8
01
100
AcDbCircle
 10
5583.981165344441
 20
-311.8064411171039
 30
0.0
 40
0.3000000000000114
100
AcDbArc
 50
180.0
 51
270.0
  0
LINE
  5
BF32
330
18
100
AcDbEntity
  8
01
100
AcDbLine
 10
5590.181165344441
 20
-334.0064411171038
 30
0.0
 11
5590.181165344441
 21
-313.1064411171038
 31
0.0
  0
LINE
  5
BF33
330
18
100
AcDbEntity
  8
01
100
AcDbLine
 10
5590.181165344441
 20
-313.1064411171038
 30
0.0
 11
5590.181165344441
 21
-312.4064411171039
 31
0.0
  0
ARC
  5
BF34
330
18
100
AcDbEntity
  8
01
100
AcDbCircle
 10
5589.881165344441
 20
-312.4064411171039
 30
0.0
 40
0.2999999999999972
100
AcDbArc
 50
0.0
 51
90.0
  0
LINE
  5
BF37
330
18
100
AcDbEntity
  8
01
100
AcDbLine
 10
5589.881165344441
 20
-312.1064411171038
 30
0.0
 11
5583.981165344441
 21
-312.1064411171038
 31
0.0
  0
LINE
  5
BF3E
330
18
100
AcDbEntity
  8
01
100
AcDbLine
 10
5583.681165344441
 20
-334.9064411171038
 30
0.0
 11
5583.681165344441
 21
-335.4064411171038
 31
0.0
  0
ARC
  5
BF3F
330
18
100
AcDbEntity
  8
01
100
AcDbCircle
 10
5583.381165344441
 20
-335.4064411171038
 30
0.0
 40
0.3000000000000114
100
AcDbArc
 50
270.0
 51
0.0
  0
LINE
  5
BF40
330
18
100
AcDbEntity
  8
01
100
AcDbLine
 10
5583.381165344441
 20
-335.7064411171039
 30
0.0
 11
5582.281165344441
 21
-335.7064411171039
 31
0.0
  0
ARC
  5
BF41
330
18
100
AcDbEntity
  8
01
100
AcDbCircle
 10
5582.281165344441
 20
-335.4064411171038
 30
0.0
 40
0.2999999999999972
100
AcDbArc
 50
180.0
 51
270.0
  0
LINE
  5
BF42
330
18
100
AcDbEntity
  8
01
100
AcDbLine
 10
5581.981165344442
 20
-335.4064411171038
 30
0.0
 11
5581.981165344441
 21
-334.9064411171038
 31
0.0
  0
ARC
  5
BF43
330
18
100
AcDbEntity
  8
01
100
AcDbCircle
 10
5583.981165344441
 20
-334.6064411171038
 30
0.0
 40
0.3000000000000114
100
AcDbArc
 50
90.00000000000001
 51
180.0
  0
ARC
  5
BF44
330
18
100
AcDbEntity
  8
01
100
AcDbCircle
 10
5589.881165344441
 20
-334.0064411171038
 30
0.0
 40
0.2999999999999972
100
AcDbArc
 50
270.0
 51
0.0
  0
LINE
  5
BF45
330
18
100
AcDbEntity
  8
01
100
AcDbLine
 10
5589.881165344441
 20
-334.3064411171039
 30
0.0
 11
5583.981165344441
 21
-334.3064411171039
 31
0.0
  0
LINE
  5
BF46
330
18
100
AcDbEntity
  8
01
100
AcDbLine
 10
5583.681165344441
 20
-335.4064411171038
 30
0.0
 11
5583.681165344441
 21
-311.5064411171039
 31
0.0
  0
LINE
  5
BF48
330
18
100
AcDbEntity
  8
01
100
AcDbLine
 10
5532.117743696272
 20
-308.7064411171039
 30
0.0
 11
5532.117743696273
 21
-337.7064411171039
 31
0.0
  0
LINE
  5
BF49
330
18
100
AcDbEntity
  8
01
100
AcDbLine
 10
5526.617743696273
 20
-308.7064411171039
 30
0.0
 11
5526.617743696273
 21
-337.7064411171039
 31
0.0
  0
LINE
  5
BF4A
330
18
100
AcDbEntity
  8
01
100
AcDbLine
 10
5532.117743696273
 20
-337.7064411171039
 30
0.0
 11
5526.617743696273
 21
-337.7064411171039
 31
0.0
  0
LINE
  5
BF4B
330
18
100
AcDbEntity
  8
01
100
AcDbLine
 10
5532.117743696273
 20
-308.7064411171039
 30
0.0
 11
5526.617743696273
 21
-308.7064411171039
 31
0.0
  0
LINE
  5
BF51
330
18
100
AcDbEntity
  8
01
100
AcDbLine
 10
5526.617743696273
 20
-312.7064411171039
 30
0.0
 11
5526.517743696272
 21
-312.7064411171039
 31
0.0
  0
LINE
  5
BF52
330
18
100
AcDbEntity
  8
01
100
AcDbLine
 10
5526.517743696272
 20
-333.7064411171039
 30
0.0
 11
5526.617743696273
 21
-333.7064411171039
 31
0.0
  0
LINE
  5
BF53
330
18
100
AcDbEntity
  8
01
100
AcDbLine
 10
5524.817743696272
 20
-335.4064411171038
 30
0.0
 11
5524.817743696272
 21
-311.5064411171039
 31
0.0
  0
LINE
  5
BF54
330
18
100
AcDbEntity
  8
01
100
AcDbLine
 10
5524.817743696272
 20
-311.5064411171039
 30
0.0
 11
5524.817743696272
 21
-311.0064411171039
 31
0.0
  0
ARC
  5
BF55
330
18
100
AcDbEntity
  8
01
100
AcDbCircle
 10
5525.117743696273
 20
-311.0064411171039
 30
0.0
 40
0.3000000000000114
100
AcDbArc
 50
90.0
 51
180.0
  0
LINE
  5
BF56
330
18
100
AcDbEntity
  8
01
100
AcDbLine
 10
5525.117743696273
 20
-310.7064411171039
 30
0.0
 11
5526.217743696272
 21
-310.7064411171039
 31
0.0
  0
ARC
  5
BF57
330
18
100
AcDbEntity
  8
01
100
AcDbCircle
 10
5526.217743696272
 20
-311.0064411171039
 30
0.0
 40
0.2999999999999972
100
AcDbArc
 50
0.000000000000007
 51
90.0
  0
LINE
  5
BF58
330
18
100
AcDbEntity
  8
01
100
AcDbLine
 10
5526.517743696271
 20
-311.0064411171039
 30
0.0
 11
5526.517743696272
 21
-311.5064411171039
 31
0.0
  0
LINE
  5
BF59
330
18
100
AcDbEntity
  8
01
100
AcDbLine
 10
5526.517743696272
 20
-311.5064411171039
 30
0.0
 11
5526.517743696272
 21
-335.4064411171038
 31
0.0
  0
ARC
  5
BF5A
330
18
100
AcDbEntity
  8
01
100
AcDbCircle
 10
5524.517743696272
 20
-311.8064411171039
 30
0.0
 40
0.3000000000000114
100
AcDbArc
 50
270.0
 51
0.000000000000007
  0
LINE
  5
BF5B
330
18
100
AcDbEntity
  8
01
100
AcDbLine
 10
5518.317743696272
 20
-334.0064411171038
 30
0.0
 11
5518.317743696272
 21
-313.1064411171038
 31
0.0
  0
LINE
  5
BF5C
330
18
100
AcDbEntity
  8
01
100
AcDbLine
 10
5518.317743696272
 20
-313.1064411171038
 30
0.0
 11
5518.317743696272
 21
-312.4064411171039
 31
0.0
  0
ARC
  5
BF5D
330
18
100
AcDbEntity
  8
01
100
AcDbCircle
 10
5518.617743696273
 20
-312.4064411171039
 30
0.0
 40
0.2999999999999972
100
AcDbArc
 50
90.0
 51
180.0
  0
LINE
  5
BF5E
330
18
100
AcDbEntity
  8
01
100
AcDbLine
 10
5518.617743696273
 20
-312.1064411171038
 30
0.0
 11
5524.517743696272
 21
-312.1064411171038
 31
0.0
  0
LINE
  5
BF5F
330
18
100
AcDbEntity
  8
01
100
AcDbLine
 10
5524.817743696272
 20
-334.9064411171038
 30
0.0
 11
5524.817743696272
 21
-335.4064411171038
 31
0.0
  0
ARC
  5
BF60
330
18
100
AcDbEntity
  8
01
100
AcDbCircle
 10
5525.117743696273
 20
-335.4064411171038
 30
0.0
 40
0.3000000000000114
100
AcDbArc
 50
180.0
 51
270.0
  0
LINE
  5
BF61
330
18
100
AcDbEntity
  8
01
100
AcDbLine
 10
5525.117743696273
 20
-335.7064411171039
 30
0.0
 11
5526.217743696272
 21
-335.7064411171039
 31
0.0
  0
ARC
  5
BF62
330
18
100
AcDbEntity
  8
01
100
AcDbCircle
 10
5526.217743696272
 20
-335.4064411171038
 30
0.0
 40
0.2999999999999972
100
AcDbArc
 50
270.0
 51
0.000000000000007
  0
LINE
  5
BF63
330
18
100
AcDbEntity
  8
01
100
AcDbLine
 10
5526.517743696271
 20
-335.4064411171038
 30
0.0
 11
5526.517743696272
 21
-334.9064411171038
 31
0.0
  0
ARC
  5
BF64
330
18
100
AcDbEntity
  8
01
100
AcDbCircle
 10
5524.517743696272
 20
-334.6064411171038
 30
0.0
 40
0.3000000000000114
100
AcDbArc
 50
0.000000000000007
 51
90.0
  0
ARC
  5
BF65
330
18
100
AcDbEntity
  8
01
100
AcDbCircle
 10
5518.617743696273
 20
-334.0064411171038
 30
0.0
 40
0.2999999999999972
100
AcDbArc
 50
180.0
 51
270.0
  0
LINE
  5
BF66
330
18
100
AcDbEntity
  8
01
100
AcDbLine
 10
5518.617743696273
 20
-334.3064411171039
 30
0.0
 11
5524.517743696272
 21
-334.3064411171039
 31
0.0
  0
LINE
  5
BF69
330
18
100
AcDbEntity
  8
01
100
AcDbLine
 10
5655.953466822659
 20
-313.3064411171033
 30
0.0
 11
5655.953466822659
 21
-333.1064411171033
 31
0.0
  0
ARC
  5
BF6A
330
18
100
AcDbEntity
  8
01
100
AcDbCircle
 10
5654.953466822659
 20
-333.1064411171033
 30
0.0
 40
1.0
100
AcDbArc
 50
270.0
 51
0.0
  0
ARC
  5
BF6B
330
18
100
AcDbEntity
  8
01
100
AcDbCircle
 10
5654.953466822659
 20
-313.3064411171033
 30
0.0
 40
1.0
100
AcDbArc
 50
0.0
 51
90.0
  0
ARC
  5
BF6C
330
18
100
AcDbEntity
  8
01
100
AcDbCircle
 10
5653.453466822659
 20
-314.8064411171033
 30
0.0
 40
1.0
100
AcDbArc
 50
0.0
 51
90.0
  0
LINE
  5
BF6D
330
18
100
AcDbEntity
  8
01
100
AcDbLine
 10
5653.453466822659
 20
-313.8064411171033
 30
0.0
 11
5642.181437854581
 21
-313.8064411171033
 31
0.0
  0
ARC
  5
BF6E
330
18
100
AcDbEntity
  8
01
100
AcDbCircle
 10
5642.181437854581
 20
-314.8064411171033
 30
0.0
 40
1.00000000000002
100
AcDbArc
 50
90.0
 51
231.7250003269077
  0
ARC
  5
BF6F
330
18
100
AcDbEntity
  8
01
100
AcDbCircle
 10
5635.553466822658
 20
-323.2064411171033
 30
0.0
 40
9.70000000000002
100
AcDbArc
 50
308.2749996730923
 51
51.72500032690764
  0
ARC
  5
BF70
330
18
100
AcDbEntity
  8
01
100
AcDbCircle
 10
5642.181437854581
 20
-331.6064411171033
 30
0.0
 40
1.000000000000003
100
AcDbArc
 50
128.2749996730923
 51
270.0
  0
LINE
  5
BF71
330
18
100
AcDbEntity
  8
01
100
AcDbLine
 10
5642.181437854581
 20
-332.6064411171033
 30
0.0
 11
5653.453466822659
 21
-332.6064411171033
 31
0.0
  0
ARC
  5
BF72
330
18
100
AcDbEntity
  8
01
100
AcDbCircle
 10
5653.453466822659
 20
-331.6064411171033
 30
0.0
 40
1.0
100
AcDbArc
 50
270.0
 51
0.0
  0
LINE
  5
BF73
330
18
100
AcDbEntity
  8
01
100
AcDbLine
 10
5654.453466822659
 20
-331.6064411171033
 30
0.0
 11
5654.453466822659
 21
-314.8064411171033
 31
0.0
  0
LINE
  5
BF74
330
18
100
AcDbEntity
  8
01
100
AcDbLine
 10
5640.053466822658
 20
-312.3064411171033
 30
0.0
 11
5654.953466822659
 21
-312.3064411171033
 31
0.0
  0
LINE
  5
BF75
330
18
100
AcDbEntity
  8
01
100
AcDbLine
 10
5654.953466822659
 20
-334.1064411171033
 30
0.0
 11
5640.053466822658
 21
-334.1064411171033
 31
0.0
  0
ARC
  5
BF76
330
18
100
AcDbEntity
  8
01
100
AcDbCircle
 10
5635.553466822658
 20
-323.2064411171033
 30
0.0
 40
8.200000000000012
100
AcDbArc
 50
301.9657187508176
 51
58.03428124918234
  0
ARC
  5
BF77
330
18
100
AcDbEntity
  8
01
100
AcDbCircle
 10
5640.053466822658
 20
-312.6064411171033
 30
0.0
 40
0.2999999999999829
100
AcDbArc
 50
90.0
 51
180.0
  0
ARC
  5
BF78
330
18
100
AcDbEntity
  8
01
100
AcDbCircle
 10
5640.053466822658
 20
-315.9953385661753
 30
0.0
 40
0.2999999999999982
100
AcDbArc
 50
180.0
 51
238.0342812491824
  0
ARC
  5
BF79
330
18
100
AcDbEntity
  8
01
100
AcDbCircle
 10
5640.053466822658
 20
-330.4175436680313
 30
0.0
 40
0.2999999999999982
100
AcDbArc
 50
121.9657187508177
 51
180.0
  0
LINE
  5
BF7A
330
18
100
AcDbEntity
  8
01
100
AcDbLine
 10
5639.753466822659
 20
-315.9953385661753
 30
0.0
 11
5639.753466822659
 21
-312.6064411171033
 31
0.0
  0
ARC
  5
BF7B
330
18
100
AcDbEntity
  8
01
100
AcDbCircle
 10
5640.053466822658
 20
-333.8064411171034
 30
0.0
 40
0.2999999999999829
100
AcDbArc
 50
180.0
 51
270.0
  0
LINE
  5
BF7C
330
18
100
AcDbEntity
  8
01
100
AcDbLine
 10
5639.753466822659
 20
-333.8064411171034
 30
0.0
 11
5639.753466822659
 21
-330.4175436680313
 31
0.0
  0
ARC
  5
BF7D
330
18
100
AcDbEntity
  8
01
100
AcDbCircle
 10
5631.053466822658
 20
-333.8064411171034
 30
0.0
 40
0.2999999999999829
100
AcDbArc
 50
270.0
 51
0.0
  0
LINE
  5
BF7E
330
18
100
AcDbEntity
  8
01
100
AcDbLine
 10
5631.353466822658
 20
-312.6064411171033
 30
0.0
 11
5631.353466822658
 21
-315.9953385661753
 31
0.0
  0
ARC
  5
BF7F
330
18
100
AcDbEntity
  8
01
100
AcDbCircle
 10
5631.053466822658
 20
-330.4175436680313
 30
0.0
 40
0.2999999999999982
100
AcDbArc
 50
0.0
 51
58.03428124918234
  0
LINE
  5
BF80
330
18
100
AcDbEntity
  8
01
100
AcDbLine
 10
5631.353466822658
 20
-330.4175436680313
 30
0.0
 11
5631.353466822658
 21
-333.8064411171034
 31
0.0
  0
ARC
  5
BF81
330
18
100
AcDbEntity
  8
01
100
AcDbCircle
 10
5631.053466822658
 20
-312.6064411171033
 30
0.0
 40
0.2999999999999829
100
AcDbArc
 50
0.0
 51
90.0
  0
ARC
  5
BF82
330
18
100
AcDbEntity
  8
01
100
AcDbCircle
 10
5631.053466822658
 20
-315.9953385661753
 30
0.0
 40
0.2999999999999982
100
AcDbArc
 50
301.9657187508176
 51
0.0
  0
LINE
  5
BF83
330
18
100
AcDbEntity
  8
01
100
AcDbLine
 10
5631.053466822658
 20
-334.1064411171033
 30
0.0
 11
5616.153466822659
 21
-334.1064411171033
 31
0.0
  0
LINE
  5
BF84
330
18
100
AcDbEntity
  8
01
100
AcDbLine
 10
5616.153466822659
 20
-312.3064411171033
 30
0.0
 11
5631.053466822658
 21
-312.3064411171033
 31
0.0
  0
ARC
  5
BF85
330
18
100
AcDbEntity
  8
01
100
AcDbCircle
 10
5628.925495790737
 20
-331.6064411171033
 30
0.0
 40
1.000000000000003
100
AcDbArc
 50
270.0
 51
51.72500032690764
  0
ARC
  5
BF86
330
18
100
AcDbEntity
  8
01
100
AcDbCircle
 10
5635.553466822658
 20
-323.2064411171033
 30
0.0
 40
9.699999999999985
100
AcDbArc
 50
128.2749996730923
 51
231.7250003269077
  0
ARC
  5
BF87
330
18
100
AcDbEntity
  8
01
100
AcDbCircle
 10
5628.925495790737
 20
-314.8064411171033
 30
0.0
 40
1.0
100
AcDbArc
 50
308.2749996730923
 51
90.0
  0
LINE
  5
BF88
330
18
100
AcDbEntity
  8
01
100
AcDbLine
 10
5628.925495790737
 20
-313.8064411171033
 30
0.0
 11
5617.653466822659
 21
-313.8064411171033
 31
0.0
  0
ARC
  5
BF89
330
18
100
AcDbEntity
  8
01
100
AcDbCircle
 10
5617.653466822659
 20
-314.8064411171033
 30
0.0
 40
1.0
100
AcDbArc
 50
90.0
 51
180.0
  0
LINE
  5
BF8A
330
18
100
AcDbEntity
  8
01
100
AcDbLine
 10
5616.653466822659
 20
-314.8064411171033
 30
0.0
 11
5616.653466822659
 21
-331.6064411171033
 31
0.0
  0
ARC
  5
BF8B
330
18
100
AcDbEntity
  8
01
100
AcDbCircle
 10
5617.653466822659
 20
-331.6064411171033
 30
0.0
 40
1.0
100
AcDbArc
 50
180.0
 51
270.0
  0
LINE
  5
BF8C
330
18
100
AcDbEntity
  8
01
100
AcDbLine
 10
5617.653466822659
 20
-332.6064411171033
 30
0.0
 11
5628.925495790737
 21
-332.6064411171033
 31
0.0
  0
ARC
  5
BF8D
330
18
100
AcDbEntity
  8
01
100
AcDbCircle
 10
5635.553466822658
 20
-323.2064411171033
 30
0.0
 40
8.199999999999996
100
AcDbArc
 50
121.9657187508177
 51
238.0342812491824
  0
ARC
  5
BF8E
330
18
100
AcDbEntity
  8
01
100
AcDbCircle
 10
5616.153466822659
 20
-313.3064411171033
 30
0.0
 40
1.0
100
AcDbArc
 50
90.0
 51
180.0
  0
ARC
  5
BF8F
330
18
100
AcDbEntity
  8
01
100
AcDbCircle
 10
5616.153466822659
 20
-333.1064411171033
 30
0.0
 40
1.0
100
AcDbArc
 50
180.0
 51
270.0
  0
LINE
  5
BF90
330
18
100
AcDbEntity
  8
01
100
AcDbLine
 10
5615.153466822659
 20
-333.1064411171033
 30
0.0
 11
5615.153466822659
 21
-313.3064411171033
 31
0.0
  0
ARC
  5
BF91
330
18
100
AcDbEntity
  8
01
100
AcDbCircle
 10
5635.553466822658
 20
-323.2064411171033
 30
0.0
 40
8.199999999999987
100
AcDbArc
 50
58.03428124918234
 51
121.9657187508177
  0
ARC
  5
BF92
330
18
100
AcDbEntity
  8
01
100
AcDbCircle
 10
5635.553466822658
 20
-323.2064411171033
 30
0.0
 40
8.200000000000012
100
AcDbArc
 50
238.0342812491824
 51
301.9657187508176
  0
LINE
  5
BF93
330
18
100
AcDbEntity
  8
01
100
AcDbLine
 10
5640.053466822658
 20
-334.1064411171033
 30
0.0
 11
5631.053466822658
 21
-334.1064411171033
 31
0.0
  0
LINE
  5
BF94
330
18
100
AcDbEntity
  8
01
100
AcDbLine
 10
5631.053466822658
 20
-312.3064411171033
 30
0.0
 11
5640.053466822658
 21
-312.3064411171033
 31
0.0
  0
LINE
  5
BF95
330
18
100
AcDbEntity
  8
01
100
AcDbLine
 10
5657.353466822658
 20
-311.9064411171033
 30
0.0
 11
5657.353466822658
 21
-334.5064411171033
 31
0.0
  0
ARC
  5
BF96
330
18
100
AcDbEntity
  8
01
100
AcDbCircle
 10
5656.353466822658
 20
-334.5064411171033
 30
0.0
 40
1.0
100
AcDbArc
 50
270.0
 51
0.0
  0
ARC
  5
BF97
330
18
100
AcDbEntity
  8
01
100
AcDbCircle
 10
5656.353466822658
 20
-311.9064411171033
 30
0.0
 40
1.0
100
AcDbArc
 50
0.0
 51
90.0
  0
LINE
  5
BF98
330
18
100
AcDbEntity
  8
01
100
AcDbLine
 10
5656.353466822658
 20
-335.5064411171033
 30
0.0
 11
5614.753466822659
 21
-335.5064411171033
 31
0.0
  0
ARC
  5
BF99
330
18
100
AcDbEntity
  8
01
100
AcDbCircle
 10
5614.753466822659
 20
-334.5064411171033
 30
0.0
 40
1.0
100
AcDbArc
 50
180.0
 51
270.0
  0
LINE
  5
BF9A
330
18
100
AcDbEntity
  8
01
100
AcDbLine
 10
5614.753466822659
 20
-310.9064411171033
 30
0.0
 11
5656.353466822658
 21
-310.9064411171033
 31
0.0
  0
CIRCLE
  5
BF9B
330
18
100
AcDbEntity
  8
01
100
AcDbCircle
 10
5620.253466822659
 20
-323.2064411171033
 30
0.0
 40
2.0
  0
CIRCLE
  5
BF9C
330
18
100
AcDbEntity
  8
01
100
AcDbCircle
 10
5635.553466822658
 20
-323.2064411171033
 30
0.0
 40
6.0
  0
LINE
  5
BF9D
330
18
100
AcDbEntity
  8
01
100
AcDbLine
 10
5613.753466822659
 20
-334.5064411171033
 30
0.0
 11
5613.753466822659
 21
-311.9064411171033
 31
0.0
  0
ARC
  5
BF9E
330
18
100
AcDbEntity
  8
01
100
AcDbCircle
 10
5614.753466822659
 20
-311.9064411171033
 30
0.0
 40
1.0
100
AcDbArc
 50
90.0
 51
180.0
  0
CIRCLE
  5
BF9F
330
18
100
AcDbEntity
  8
01
100
AcDbCircle
 10
5481.937779279854
 20
-323.2064411171033
 30
0.0
 40
2.0
  0
LINE
  5
BFA1
330
18
100
AcDbEntity
  8
1CENTER
100
AcDbLine
 10
5535.172772260653
 20
-323.5564411171038
 30
0.0
 11
5514.448277705121
 21
-323.5564411171038
 31
0.0
  0
LINE
  5
BFA8
330
18
100
AcDbEntity
  8
01
  6
CONTINUOUS
100
AcDbLine
 10
5445.537779279854
 20
-264.7485282693766
 30
0.0
 11
5442.637779279855
 21
-264.7485282693766
 31
0.0
  0
LINE
  5
BFA9
330
18
100
AcDbEntity
  8
01
  6
CONTINUOUS
100
AcDbLine
 10
5442.637779279855
 20
-264.7485282693766
 30
0.0
 11
5442.637779279855
 21
-259.2485282693766
 31
0.0
  0
LINE
  5
BFAA
330
18
100
AcDbEntity
  8
01
  6
CONTINUOUS
100
AcDbLine
 10
5447.537779279854
 20
-259.2485282693766
 30
0.0
 11
5442.637779279855
 21
-259.2485282693766
 31
0.0
  0
LINE
  5
BFAB
330
18
100
AcDbEntity
  8
01
  6
CONTINUOUS
100
AcDbLine
 10
5490.637779279855
 20
-264.7485282693766
 30
0.0
 11
5487.737779279855
 21
-264.7485282693766
 31
0.0
  0
LINE
  5
BFAF
330
18
100
AcDbEntity
  8
01
  6
CONTINUOUS
100
AcDbLine
 10
5490.637779279855
 20
-259.2485282693766
 30
0.0
 11
5490.637779279855
 21
-264.7485282693766
 31
0.0
  0
LINE
  5
BFB0
330
18
100
AcDbEntity
  8
01
  6
CONTINUOUS
100
AcDbLine
 10
5490.637779279855
 20
-259.2485282693766
 30
0.0
 11
5485.737779279855
 21
-259.2485282693766
 31
0.0
  0
LINE
  5
BFB5
330
18
100
AcDbEntity
  8
01
  6
CONTINUOUS
100
AcDbLine
 10
5479.537779279854
 20
-264.7485282693766
 30
0.0
 11
5477.537779279854
 21
-264.7485282693766
 31
0.0
  0
LINE
  5
BFBD
330
18
100
AcDbEntity
  8
01
  6
CONTINUOUS
100
AcDbLine
 10
5455.737779279855
 20
-264.7485282693766
 30
0.0
 11
5453.737779279855
 21
-264.7485282693766
 31
0.0
  0
LINE
  5
BFC9
330
18
100
AcDbEntity
  8
01
  6
CONTINUOUS
100
AcDbLine
 10
5477.537779279854
 20
-264.7485282693766
 30
0.0
 11
5455.737779279855
 21
-264.7485282693766
 31
0.0
  0
LINE
  5
BFCD
330
18
100
AcDbEntity
  8
01
  6
CONTINUOUS
100
AcDbLine
 10
5485.737779279855
 20
-259.2485282693766
 30
0.0
 11
5485.037415388035
 21
-259.2485282693766
 31
0.0
  0
LINE
  5
BFD1
330
18
100
AcDbEntity
  8
01
  6
CONTINUOUS
100
AcDbLine
 10
5447.537779279854
 20
-259.2485282693766
 30
0.0
 11
5448.238143171679
 21
-259.2485282693766
 31
0.0
  0
LINE
  5
BFD4
330
18
100
AcDbEntity
  8
01
  6
CONTINUOUS
100
AcDbLine
 10
5453.737779279855
 20
-264.7485282693766
 30
0.0
 11
5445.537779279854
 21
-264.7485282693766
 31
0.0
  0
LINE
  5
BFD5
330
18
100
AcDbEntity
  8
01
  6
CONTINUOUS
100
AcDbLine
 10
5479.537779279854
 20
-264.7485282693766
 30
0.0
 11
5487.737779279855
 21
-264.7485282693766
 31
0.0
  0
LINE
  5
BFD7
330
18
100
AcDbEntity
  8
01
  6
CONTINUOUS
100
AcDbLine
 10
5484.870662080458
 20
-259.2485282693766
 30
0.0
 11
5485.037415388035
 21
-259.2485282693766
 31
0.0
  0
LINE
  5
BFD9
330
18
100
AcDbEntity
  8
01
  6
CONTINUOUS
100
AcDbLine
 10
5448.238143171679
 20
-259.2485282693766
 30
0.0
 11
5448.404896479257
 21
-259.2485282693766
 31
0.0
  0
LINE
  5
BFDB
330
18
100
AcDbEntity
  8
01
  6
CONTINUOUS
100
AcDbLine
 10
5484.870662080458
 20
-259.2485282693766
 30
0.0
 11
5473.038635602769
 21
-259.2485282693766
 31
0.0
  0
LINE
  5
BFDE
330
18
100
AcDbEntity
  8
01
  6
CONTINUOUS
100
AcDbLine
 10
5460.236943071056
 20
-259.2485282693766
 30
0.0
 11
5460.805907183576
 21
-259.2485282693766
 31
0.0
  0
LINE
  5
BFDF
330
18
100
AcDbEntity
  8
01
  6
CONTINUOUS
100
AcDbLine
 10
5460.236943071056
 20
-259.2485282693766
 30
0.0
 11
5448.404896479257
 21
-259.2485282693766
 31
0.0
  0
LINE
  5
BFE1
330
18
100
AcDbEntity
  8
01
  6
CONTINUOUS
100
AcDbLine
 10
5472.469671490249
 20
-259.2485282693766
 30
0.0
 11
5473.038635602769
 21
-259.2485282693766
 31
0.0
  0
LINE
  5
BFE2
330
18
100
AcDbEntity
  8
01
  6
CONTINUOUS
100
AcDbLine
 10
5472.469671490249
 20
-259.2485282693766
 30
0.0
 11
5460.805907183576
 21
-259.2485282693766
 31
0.0
  0
LINE
  5
BFEE
330
18
100
AcDbEntity
  8
01
100
AcDbLine
 10
5445.637779279855
 20
-266.5485282693759
 30
0.0
 11
5487.637779279855
 21
-266.5485282693759
 31
0.0
  0
LINE
  5
BFEF
330
18
100
AcDbEntity
  8
01
100
AcDbLine
 10
5487.637779279855
 20
-266.5485282693759
 30
0.0
 11
5488.137779279855
 21
-266.5485282693759
 31
0.0
  0
ARC
  5
BFF0
330
18
100
AcDbEntity
  8
01
100
AcDbCircle
 10
5488.137779279855
 20
-266.2485282693757
 30
0.0
 40
0.3000000000000114
100
AcDbArc
 50
270.0
 51
0.0
  0
LINE
  5
BFF1
330
18
100
AcDbEntity
  8
01
100
AcDbLine
 10
5445.137779279855
 20
-266.5485282693759
 30
0.0
 11
5445.637779279855
 21
-266.5485282693759
 31
0.0
  0
ARC
  5
BFF2
330
18
100
AcDbEntity
  8
01
100
AcDbCircle
 10
5445.137779279855
 20
-266.2485282693757
 30
0.0
 40
0.3000000000000114
100
AcDbArc
 50
180.0
 51
270.0
  0
LINE
  5
BFF3
330
18
100
AcDbEntity
  8
01
100
AcDbLine
 10
5488.437779279855
 20
-266.2485282693757
 30
0.0
 11
5488.437779279855
 21
-265.1485282693762
 31
0.0
  0
LINE
  5
BFF4
330
18
100
AcDbEntity
  8
01
100
AcDbLine
 10
5444.837779279855
 20
-266.2485282693757
 30
0.0
 11
5444.837779279855
 21
-265.1485282693762
 31
0.0
  0
LINE
  5
BFF5
330
18
100
AcDbEntity
  8
01
100
AcDbLine
 10
5445.637779279855
 20
-264.8485282693761
 30
0.0
 11
5445.137779279855
 21
-264.8485282693761
 31
0.0
  0
ARC
  5
BFF6
330
18
100
AcDbEntity
  8
01
100
AcDbCircle
 10
5445.137779279855
 20
-265.1485282693762
 30
0.0
 40
0.2999999999999829
100
AcDbArc
 50
90.0
 51
180.0
  0
ARC
  5
BFF7
330
18
100
AcDbEntity
  8
01
100
AcDbCircle
 10
5488.137779279855
 20
-265.1485282693762
 30
0.0
 40
0.2999999999999972
100
AcDbArc
 50
0.0
 51
90.0
  0
LINE
  5
BFF8
330
18
100
AcDbEntity
  8
01
100
AcDbLine
 10
5488.137779279855
 20
-264.8485282693761
 30
0.0
 11
5487.637779279855
 21
-264.8485282693761
 31
0.0
  0
LINE
  5
BFF9
330
18
100
AcDbEntity
  8
01
100
AcDbLine
 10
5487.637779279855
 20
-264.8485282693761
 30
0.0
 11
5445.637779279855
 21
-264.8485282693761
 31
0.0
  0
ARC
  5
BFFA
330
18
100
AcDbEntity
  8
01
100
AcDbCircle
 10
5445.937779279855
 20
-266.8485282693761
 30
0.0
 40
0.3000000000000114
100
AcDbArc
 50
0.0
 51
90.0
  0
ARC
  5
BFFB
330
18
100
AcDbEntity
  8
01
100
AcDbCircle
 10
5487.337779279855
 20
-266.8485282693761
 30
0.0
 40
0.3000000000000114
100
AcDbArc
 50
90.0
 51
180.0
  0
LINE
  5
BFFC
330
18
100
AcDbEntity
  8
01
100
AcDbLine
 10
5447.237779279855
 20
-273.0485282693759
 30
0.0
 11
5462.137779279855
 21
-273.0485282693759
 31
0.0
  0
LINE
  5
BFFD
330
18
100
AcDbEntity
  8
01
100
AcDbLine
 10
5446.537779279854
 20
-273.0485282693759
 30
0.0
 11
5447.237779279855
 21
-273.0485282693759
 31
0.0
  0
ARC
  5
BFFE
330
18
100
AcDbEntity
  8
01
100
AcDbCircle
 10
5446.537779279854
 20
-272.7485282693757
 30
0.0
 40
0.3000000000000114
100
AcDbArc
 50
180.0
 51
270.0
  0
ARC
  5
BFFF
330
18
100
AcDbEntity
  8
01
100
AcDbCircle
 10
5471.137779279855
 20
-272.7485282693757
 30
0.0
 40
0.2999999999999972
100
AcDbArc
 50
180.0
 51
270.0
  0
LINE
  5
C000
330
18
100
AcDbEntity
  8
01
100
AcDbLine
 10
5446.237779279855
 20
-272.7485282693757
 30
0.0
 11
5446.237779279855
 21
-266.8485282693761
 31
0.0
  0
ARC
  5
C001
330
18
100
AcDbEntity
  8
01
100
AcDbCircle
 10
5462.137779279855
 20
-272.7485282693757
 30
0.0
 40
0.2999999999999972
100
AcDbArc
 50
270.0
 51
0.0
  0
LINE
  5
C002
330
18
100
AcDbEntity
  8
01
100
AcDbLine
 10
5471.137779279855
 20
-273.0485282693759
 30
0.0
 11
5486.037779279854
 21
-273.0485282693759
 31
0.0
  0
LINE
  5
C003
330
18
100
AcDbEntity
  8
01
100
AcDbLine
 10
5486.037779279854
 20
-273.0485282693759
 30
0.0
 11
5486.737779279855
 21
-273.0485282693759
 31
0.0
  0
ARC
  5
C004
330
18
100
AcDbEntity
  8
01
100
AcDbCircle
 10
5486.737779279855
 20
-272.7485282693757
 30
0.0
 40
0.2999999999999972
100
AcDbArc
 50
270.0
 51
0.0
  0
LINE
  5
C005
330
18
100
AcDbEntity
  8
01
100
AcDbLine
 10
5462.437779279855
 20
-272.7485282693757
 30
0.0
 11
5462.437779279855
 21
-268.8485282693761
 31
0.0
  0
LINE
  5
C006
330
18
100
AcDbEntity
  8
01
100
AcDbLine
 10
5470.837779279855
 20
-268.8485282693761
 30
0.0
 11
5470.837779279855
 21
-272.7485282693757
 31
0.0
  0
LINE
  5
C007
330
18
100
AcDbEntity
  8
01
100
AcDbLine
 10
5487.037779279854
 20
-272.7485282693757
 30
0.0
 11
5487.037779279854
 21
-266.8485282693761
 31
0.0
  0
LINE
  5
C008
330
18
100
AcDbEntity
  8
01
100
AcDbLine
 10
5462.437779279855
 20
-268.8485282693761
 30
0.0
 11
5470.837779279855
 21
-268.8485282693761
 31
0.0
  0
LINE
  5
C00E
330
18
100
AcDbEntity
  8
01
100
AcDbLine
 10
5655.5534567656
 20
-259.2485282693757
 30
0.0
 11
5655.5534567656
 21
-232.2485282693757
 31
0.0
  0
LINE
  5
C017
330
18
100
AcDbEntity
  8
01
100
AcDbLine
 10
5615.5534567656
 20
-259.2485282693757
 30
0.0
 11
5615.5534567656
 21
-232.2485282693757
 31
0.0
  0
LINE
  5
C018
330
18
100
AcDbEntity
  8
1CENTER
100
AcDbLine
 10
5618.553456765601
 20
-259.2485282693757
 30
0.0
 11
5618.5534567656
 21
-258.5277440221558
 31
0.0
  0
TEXT
  5
C065
330
18
100
AcDbEntity
  8
1TEXT
100
AcDbText
 10
5552.907754486028
 20
-213.5103505902121
 30
0.0
 40
4.0
  1
C4829-B
 72
     1
 11
5566.242013745287
 21
-213.5103505902121
 31
0.0
100
AcDbText
  0
TEXT
  5
C067
330
18
100
AcDbEntity
  8
1TEXT
100
AcDbText
 10
5552.907754486028
 20
-206.5103505902121
 30
0.0
 40
4.0
  1
C4829-N
 72
     1
 11
5566.242013745287
 21
-206.5103505902121
 31
0.0
100
AcDbText
  0
TEXT
  5
C068
330
18
100
AcDbEntity
  8
1TEXT
100
AcDbText
 10
5552.907754486028
 20
-192.5103505902121
 30
0.0
 40
4.0
  1
C4829-G
 72
     1
 11
5566.242013745287
 21
-192.5103505902121
 31
0.0
100
AcDbText
  0
TEXT
  5
C069
330
18
100
AcDbEntity
  8
1TEXT
100
AcDbText
 10
5552.907754486028
 20
-199.5103505902121
 30
0.0
 40
4.0
  1
C4829-C
 72
     1
 11
5566.242013745287
 21
-199.5103505902121
 31
0.0
100
AcDbText
  0
TEXT
  5
C06A
330
18
100
AcDbEntity
  8
1TEXT
100
AcDbText
 10
5550.888310041583
 20
-234.8409572648724
 30
0.0
 40
4.0
  1
C4829-GQ
 72
     1
 11
5566.242013745287
 21
-234.8409572648724
 31
0.0
100
AcDbText
  0
TEXT
  5
C06B
330
18
100
AcDbEntity
  8
1TEXT
100
AcDbText
 10
5550.902198930473
 20
-220.5103505902121
 30
0.0
 40
4.0
  1
C4829-4Q
 72
     1
 11
5566.242013745287
 21
-220.5103505902121
 31
0.0
100
AcDbText
  0
TEXT
  5
C06C
330
18
100
AcDbEntity
  8
1TEXT
100
AcDbText
 10
5552.907754486028
 20
-227.5103505902121
 30
0.0
 40
4.0
  1
C4829-D
 72
     1
 11
5566.242013745287
 21
-227.5103505902121
 31
0.0
100
AcDbText
  0
LINE
  5
C06D
330
18
100
AcDbEntity
  8
1DIM
100
AcDbLine
 10
5583.842013745288
 20
-215.0103505902121
 30
0.0
 11
5583.842013745288
 21
-236.0103505902121
 31
0.0
  0
LINE
  5
C06E
330
18
100
AcDbEntity
  8
1DIM
100
AcDbLine
 10
5548.842013745288
 20
-215.0103505902121
 30
0.0
 11
5548.842013745288
 21
-236.0103505902121
 31
0.0
  0
TEXT
  5
C06F
330
18
100
AcDbEntity
  8
1TEXT
100
AcDbText
 10
5520.442013745287
 20
-185.5103505902121
 30
0.0
 40
4.0
  1
表面処理：
 72
     1
 11
5531.242013745287
 21
-185.5103505902121
 31
0.0
100
AcDbText
  0
TEXT
  5
C070
330
18
100
AcDbEntity
  8
1TEXT
100
AcDbText
 10
5521.775347078621
 20
-199.3456392497365
 30
0.0
 40
4.0
  1
クローム
 72
     1
 11
5531.242013745287
 21
-199.3456392497365
 31
0.0
100
AcDbText
  0
TEXT
  5
C071
330
18
100
AcDbEntity
  8
1TEXT
100
AcDbText
 10
5519.708680411954
 20
-192.4882456101964
 30
0.0
 40
4.0
  1
本金メッキ
 72
     1
 11
5531.242013745287
 21
-192.4882456101964
 31
0.0
100
AcDbText
  0
LINE
  5
C072
330
18
100
AcDbEntity
  8
1DIM
100
AcDbLine
 10
5498.842013745288
 20
-180.0103505902121
 30
0.0
 11
5583.842013745288
 21
-180.0103505902121
 31
0.0
  0
LINE
  5
C073
330
18
100
AcDbEntity
  8
1DIM
100
AcDbLine
 10
5513.842013745288
 20
-194.0103505902121
 30
0.0
 11
5583.842013745288
 21
-194.0103505902121
 31
0.0
  0
LINE
  5
C074
330
18
100
AcDbEntity
  8
1DIM
100
AcDbLine
 10
5498.842013745288
 20
-187.0103505902121
 30
0.0
 11
5583.842013745288
 21
-187.0103505902121
 31
0.0
  0
LINE
  5
C075
330
18
100
AcDbEntity
  8
1DIM
100
AcDbLine
 10
5513.842013745288
 20
-201.0103505902121
 30
0.0
 11
5583.842013745288
 21
-201.0103505902121
 31
0.0
  0
LINE
  5
C076
330
18
100
AcDbEntity
  8
1DIM
100
AcDbLine
 10
5513.842013745288
 20
-201.0103505902121
 30
0.0
 11
5583.842013745288
 21
-201.0103505902121
 31
0.0
  0
LINE
  5
C077
330
18
100
AcDbEntity
  8
1DIM
100
AcDbLine
 10
5548.842013745288
 20
-180.0103505902121
 30
0.0
 11
5548.842013745289
 21
-236.0103505902121
 31
0.0
  0
TEXT
  5
C078
330
18
100
AcDbEntity
  8
1TEXT
100
AcDbText
 10
5559.375347078621
 20
-185.5103505902121
 30
0.0
 40
4.0
  1
コード
 72
     1
 11
5566.242013745287
 21
-185.5103505902121
 31
0.0
100
AcDbText
  0
LINE
  5
C07A
330
18
100
AcDbEntity
  8
1DIM
100
AcDbLine
 10
5498.842013745289
 20
-236.0103505902121
 30
0.0
 11
5498.842013745288
 21
-180.0103505902121
 31
0.0
  0
LINE
  5
C07C
330
18
100
AcDbEntity
  8
1DIM
100
AcDbLine
 10
5513.842013745288
 20
-208.0103505902121
 30
0.0
 11
5583.842013745288
 21
-208.0103505902121
 31
0.0
  0
LINE
  5
C07D
330
18
100
AcDbEntity
  8
1DIM
100
AcDbLine
 10
5513.842013745288
 20
-208.0103505902121
 30
0.0
 11
5583.842013745288
 21
-208.0103505902121
 31
0.0
  0
LINE
  5
C07F
330
18
100
AcDbEntity
  8
1DIM
100
AcDbLine
 10
5513.842013745288
 20
-215.0103505902121
 30
0.0
 11
5583.842013745288
 21
-215.0103505902121
 31
0.0
  0
LINE
  5
C080
330
18
100
AcDbEntity
  8
1DIM
100
AcDbLine
 10
5513.842013745288
 20
-215.0103505902121
 30
0.0
 11
5583.842013745288
 21
-215.0103505902121
 31
0.0
  0
TEXT
  5
C081
330
18
100
AcDbEntity
  8
1TEXT
100
AcDbText
 10
5514.708680411954
 20
-206.3456392497365
 30
0.0
 40
4.0
  1
サテンニッケル
 72
     1
 11
5531.242013745287
 21
-206.3456392497365
 31
0.0
100
AcDbText
  0
LINE
  5
C082
330
18
100
AcDbEntity
  8
1DIM
100
AcDbLine
 10
5513.842013745288
 20
-222.0103505902121
 30
0.0
 11
5583.842013745288
 21
-222.0103505902121
 31
0.0
  0
LINE
  5
C083
330
18
100
AcDbEntity
  8
1DIM
100
AcDbLine
 10
5513.842013745288
 20
-222.0103505902121
 30
0.0
 11
5583.842013745288
 21
-222.0103505902121
 31
0.0
  0
TEXT
  5
C084
330
18
100
AcDbEntity
  8
1TEXT
100
AcDbText
 10
5514.842013745288
 20
-213.3456392497365
 30
0.0
 40
4.0
  1
パールクローム
 72
     1
 11
5531.242013745287
 21
-213.3456392497365
 31
0.0
100
AcDbText
  0
TEXT
  5
C086
330
18
100
AcDbEntity
  8
1TEXT
100
AcDbText
 10
5515.042013745287
 20
-220.5103505902121
 30
0.0
 40
4.0
  1
ダークアンバー
 72
     1
 11
5531.242013745287
 21
-220.5103505902121
 31
0.0
100
AcDbText
  0
LINE
  5
C087
330
18
100
AcDbEntity
  8
1DIM
100
AcDbLine
 10
5498.842013745288
 20
-236.0103505902121
 30
0.0
 11
5583.842013745288
 21
-236.0103505902121
 31
0.0
  0
LINE
  5
C088
330
18
100
AcDbEntity
  8
1DIM
100
AcDbLine
 10
5513.842013745288
 20
-229.0103505902121
 30
0.0
 11
5583.842013745288
 21
-229.0103505902121
 31
0.0
  0
TEXT
  5
C08A
330
18
100
AcDbEntity
  8
1TEXT
100
AcDbText
 10
5514.242013745287
 20
-227.5103505902121
 30
0.0
 40
4.0
  1
ミラーニッケル
 72
     1
 11
5531.242013745287
 21
-227.5103505902121
 31
0.0
100
AcDbText
  0
TEXT
  5
C08B
330
18
100
AcDbEntity
  8
1TEXT
100
AcDbText
 10
5515.108680411954
 20
-234.5103505902121
 30
0.0
 40
4.0
  1
パールブラック
 72
     1
 11
5531.242013745287
 21
-234.5103505902121
 31
0.0
100
AcDbText
  0
TEXT
  5
C090
330
18
100
AcDbEntity
  8
1TEXT
100
AcDbText
 10
5501.875347078621
 20
-185.5103505902121
 30
0.0
 40
4.0
  1
材質
 72
     4
 11
5506.342013745288
 21
-183.5103505902121
 31
0.0
100
AcDbText
  0
TEXT
  5
C091
330
18
100
AcDbEntity
  8
1TEXT
100
AcDbText
 10
5501.808680411954
 20
-213.9552190827356
 30
0.0
 40
4.0
  1
亜鉛
 72
     4
 11
5506.342013745288
 21
-211.8218857494023
 31
0.0
100
AcDbText
  0
LINE
  5
C095
330
18
100
AcDbEntity
  8
1DIM
100
AcDbLine
 10
5513.842013745289
 20
-236.0103505902121
 30
0.0
 11
5513.842013745288
 21
-180.0103505902121
 31
0.0
  0
LINE
  5
C097
330
18
100
AcDbEntity
  8
1DIM
100
AcDbLine
 10
5583.842013745289
 20
-236.0103505902121
 30
0.0
 11
5583.842013745288
 21
-180.0103505902121
 31
0.0
  0
LINE
  5
C098
330
18
100
AcDbEntity
  8
1CENTER
100
AcDbLine
 10
5466.637789336913
 20
-276.314765452599
 30
0.0
 11
5466.637789336913
 21
-254.3408583913268
 31
0.0
  0
TEXT
  5
C0C7
330
18
100
AcDbEntity
  8
1TEXT
100
AcDbText
 10
5694.087403159544
 20
-339.6483668971154
 30
0.0
 40
2.8
  1
付属ネジ
100
AcDbText
  0
TEXT
  5
C1F2
330
18
100
AcDbEntity
  8
1TEXT
100
AcDbText
 10
5498.575347078621
 20
-243.4533249099235
 30
0.0
 40
4.0
  1
材質：亜鉛ダイキャスト・ポリアセタール
 11
5498.575347078621
 21
-241.4533249099235
 31
0.0
100
AcDbText
 73
     2
  0
LINE
  5
C2A0
330
18
100
AcDbEntity
  8
1HATCH
100
AcDbLine
 10
5715.99096656551
 20
-318.4840298905568
 30
0.0
 11
5688.640989252724
 21
-318.4842379058095
 31
0.0
  0
LINE
  5
C2A1
330
18
100
AcDbEntity
  8
1HATCH
100
AcDbLine
 10
5715.990945158997
 20
-315.1840298906131
 30
0.0
 11
5688.640933409546
 21
-315.1842379061862
 31
0.0
  0
LINE
  5
C2A2
330
18
100
AcDbEntity
  8
1CENTER
100
AcDbLine
 10
5717.952441021615
 20
-316.8340116346903
 30
0.0
 11
5684.051204619736
 21
-316.8342806236878
 31
0.0
  0
LINE
  5
C2A3
330
18
100
AcDbEntity
  8
1HATCH
100
AcDbLine
 10
5715.640941901494
 20
-314.8340325601425
 30
0.0
 11
5715.640969823033
 21
-318.8340325600553
 31
0.0
  0
LINE
  5
C2A4
330
18
100
AcDbEntity
  8
01
100
AcDbLine
 10
5686.290927941622
 20
-312.8342597780073
 30
0.0
 11
5686.2909837847
 21
-320.8342597778341
 31
0.0
  0
LINE
  5
C2A5
330
18
100
AcDbEntity
  8
1HATCH
100
AcDbLine
 10
5688.640989252724
 20
-318.4842379058095
 30
0.0
 11
5688.290988438338
 21
-318.834241163345
 31
0.0
  0
LINE
  5
C2A6
330
18
100
AcDbEntity
  8
1HATCH
100
AcDbLine
 10
5688.640933409546
 20
-315.1842379061862
 30
0.0
 11
5688.290932595174
 21
-314.8342411636915
 31
0.0
  0
LINE
  5
C2B0
330
18
100
AcDbEntity
  8
1HATCH
100
AcDbLine
 10
5715.99096656551
 20
-330.9353842224812
 30
0.0
 11
5688.640989252724
 21
-330.9355922377339
 31
0.0
  0
LINE
  5
C2B1
330
18
100
AcDbEntity
  8
1HATCH
100
AcDbLine
 10
5715.990945158997
 20
-327.6353842225375
 30
0.0
 11
5688.640933409546
 21
-327.6355922381106
 31
0.0
  0
LINE
  5
C2B2
330
18
100
AcDbEntity
  8
1CENTER
100
AcDbLine
 10
5717.952441021615
 20
-329.2853659666147
 30
0.0
 11
5684.051204619736
 21
-329.2856349556122
 31
0.0
  0
LINE
  5
C2B3
330
18
100
AcDbEntity
  8
1HATCH
100
AcDbLine
 10
5715.640941901494
 20
-327.2853868920669
 30
0.0
 11
5715.640969823033
 21
-331.2853868919797
 31
0.0
  0
LINE
  5
C2B4
330
18
100
AcDbEntity
  8
01
100
AcDbLine
 10
5686.290927941622
 20
-325.2856141099317
 30
0.0
 11
5686.2909837847
 21
-333.2856141097586
 31
0.0
  0
LINE
  5
C2B5
330
18
100
AcDbEntity
  8
1HATCH
100
AcDbLine
 10
5688.640989252724
 20
-330.9355922377339
 30
0.0
 11
5688.290988438338
 21
-331.2855954952694
 31
0.0
  0
LINE
  5
C2B6
330
18
100
AcDbEntity
  8
1HATCH
100
AcDbLine
 10
5688.640933409546
 20
-327.6355922381106
 30
0.0
 11
5688.290932595174
 21
-327.285595495616
 31
0.0
  0
LINE
  5
C2B7
330
18
100
AcDbEntity
  8
01
100
AcDbLine
 10
5688.290988438338
 20
-318.834241163345
 30
0.0
 11
5715.640969823033
 21
-318.8340325600553
 31
0.0
  0
LINE
  5
C2B8
330
18
100
AcDbEntity
  8
01
100
AcDbLine
 10
5715.640969823033
 20
-318.8340325600553
 30
0.0
 11
5715.990967379887
 21
-318.4840298905501
 31
0.0
  0
LINE
  5
C2B9
330
18
100
AcDbEntity
  8
01
100
AcDbLine
 10
5715.990967379887
 20
-318.4840298905501
 30
0.0
 11
5715.990944344618
 21
-315.1840298906197
 31
0.0
  0
LINE
  5
C2BA
330
18
100
AcDbEntity
  8
01
100
AcDbLine
 10
5715.990944344618
 20
-315.1840298906197
 30
0.0
 11
5715.640941901494
 21
-314.8340325601425
 31
0.0
  0
LINE
  5
C2BB
330
18
100
AcDbEntity
  8
01
100
AcDbLine
 10
5715.640941901494
 20
-314.8340325601425
 30
0.0
 11
5688.290932595174
 21
-314.8342411636915
 31
0.0
  0
LINE
  5
C2BC
330
18
100
AcDbEntity
  8
01
100
AcDbLine
 10
5688.290932595174
 20
-314.8342411636915
 30
0.0
 11
5686.290927941622
 21
-312.8342597780073
 31
0.0
  0
LINE
  5
C2BD
330
18
100
AcDbEntity
  8
01
100
AcDbLine
 10
5686.290927941622
 20
-312.8342597780073
 30
0.0
 11
5685.990927941634
 21
-312.8342625701611
 31
0.0
  0
LINE
  5
C2BE
330
18
100
AcDbEntity
  8
01
100
AcDbLine
 10
5685.990927941634
 20
-312.8342625701611
 30
0.0
 11
5685.990983784712
 21
-320.834262569988
 31
0.0
  0
LINE
  5
C2BF
330
18
100
AcDbEntity
  8
01
100
AcDbLine
 10
5685.990983784712
 20
-320.834262569988
 30
0.0
 11
5686.2909837847
 21
-320.8342597778341
 31
0.0
  0
LINE
  5
C2C0
330
18
100
AcDbEntity
  8
01
100
AcDbLine
 10
5686.2909837847
 20
-320.8342597778341
 30
0.0
 11
5688.290988438338
 21
-318.834241163345
 31
0.0
  0
LINE
  5
C2C1
330
18
100
AcDbEntity
  8
01
100
AcDbLine
 10
5688.290988438338
 20
-331.2855954952694
 30
0.0
 11
5715.640969823033
 21
-331.2853868919797
 31
0.0
  0
LINE
  5
C2C2
330
18
100
AcDbEntity
  8
01
100
AcDbLine
 10
5715.640969823033
 20
-331.2853868919797
 30
0.0
 11
5715.990967379887
 21
-330.9353842224745
 31
0.0
  0
LINE
  5
C2C3
330
18
100
AcDbEntity
  8
01
100
AcDbLine
 10
5715.990967379887
 20
-330.9353842224745
 30
0.0
 11
5715.990944344618
 21
-327.6353842225441
 31
0.0
  0
LINE
  5
C2C4
330
18
100
AcDbEntity
  8
01
100
AcDbLine
 10
5715.990944344618
 20
-327.6353842225441
 30
0.0
 11
5715.640941901494
 21
-327.2853868920669
 31
0.0
  0
LINE
  5
C2C5
330
18
100
AcDbEntity
  8
01
100
AcDbLine
 10
5715.640941901494
 20
-327.2853868920669
 30
0.0
 11
5688.290932595174
 21
-327.285595495616
 31
0.0
  0
LINE
  5
C2C6
330
18
100
AcDbEntity
  8
01
100
AcDbLine
 10
5688.290932595174
 20
-327.285595495616
 30
0.0
 11
5686.290927941622
 21
-325.2856141099317
 31
0.0
  0
LINE
  5
C2C7
330
18
100
AcDbEntity
  8
01
100
AcDbLine
 10
5686.290927941622
 20
-325.2856141099317
 30
0.0
 11
5685.990927941634
 21
-325.2856169020856
 31
0.0
  0
LINE
  5
C2C8
330
18
100
AcDbEntity
  8
01
100
AcDbLine
 10
5685.990927941634
 20
-325.2856169020856
 30
0.0
 11
5685.990983784712
 21
-333.2856169019124
 31
0.0
  0
LINE
  5
C2C9
330
18
100
AcDbEntity
  8
01
100
AcDbLine
 10
5685.990983784712
 20
-333.2856169019124
 30
0.0
 11
5686.2909837847
 21
-333.2856141097586
 31
0.0
  0
LINE
  5
C2CA
330
18
100
AcDbEntity
  8
01
100
AcDbLine
 10
5686.2909837847
 20
-333.2856141097586
 30
0.0
 11
5688.290988438338
 21
-331.2855954952694
 31
0.0
  0
SOLID
  5
C2CB
330
18
100
AcDbEntity
  8
1DIM
100
AcDbTrace
 10
5570.700660301691
 20
-320.0155415841627
 30
0.0
 11
5570.870761321755
 21
-322.0359813269129
 31
0.0
 12
5570.054577197019
 22
-320.1799224416293
 32
0.0
 13
5570.054577197019
 23
-320.1799224416293
 33
0.0
  0
LINE
  5
C2CC
330
18
100
AcDbEntity
  8
1DIM
100
AcDbLine
 10
5570.377618749355
 20
-320.097732012896
 30
0.0
 11
5563.103309378353
 21
-291.5067606845051
 31
0.0
  0
LINE
  5
C2CD
330
18
100
AcDbEntity
  8
1DIM
100
AcDbLine
 10
5563.103309378353
 20
-291.5067606845051
 30
0.0
 11
5519.219976045019
 21
-291.5067606845051
 31
0.0
  0
TEXT
  5
C2CE
330
18
100
AcDbEntity
  8
1CENTER
  6
CONTINUOUS
100
AcDbText
 10
5518.986642711686
 20
-290.8067606845051
 30
0.0
 40
3.5
  1
材質：ポリアセタール
100
AcDbText
1001
ACADANNOTATIVE
1000
AnnotativeData
1002
{
1070
     1
1070
     0
1002
}
  0
SOLID
  5
C2CF
330
18
100
AcDbEntity
  8
1DIM
100
AcDbTrace
 10
5587.318070356141
 20
-312.2421314645708
 30
0.0
 11
5586.234763349603
 21
-313.9560617550715
 31
0.0
 12
5586.703643937247
 22
-311.983433532207
 32
0.0
 13
5586.703643937247
 23
-311.983433532207
 33
0.0
  0
LINE
  5
C2D0
330
18
100
AcDbEntity
  8
1DIM
100
AcDbLine
 10
5587.010857146694
 20
-312.1127824983889
 30
0.0
 11
5591.621984521712
 21
-301.1610193582293
 31
0.0
  0
LINE
  5
C2D1
330
18
100
AcDbEntity
  8
1DIM
100
AcDbLine
 10
5591.621984521712
 20
-301.1610193582293
 30
0.0
 11
5635.505317855045
 21
-301.1610193582293
 31
0.0
  0
TEXT
  5
C2D2
330
18
100
AcDbEntity
  8
1CENTER
  6
CONTINUOUS
100
AcDbText
 10
5594.088651188378
 20
-300.4610193582293
 30
0.0
 40
3.5
  1
材質：ポリアセタール
100
AcDbText
1001
ACADANNOTATIVE
1000
AnnotativeData
1002
{
1070
     1
1070
     0
1002
}
  0
LINE
  5
C2D3
330
18
100
AcDbEntity
  8
1DIM
100
AcDbLine
 10
5685.990927941634
 20
-312.8342625701611
 30
0.0
 11
5685.990927941634
 21
-299.8559531942419
 31
0.0
  0
LINE
  5
C2D4
330
18
100
AcDbEntity
  8
1DIM
100
AcDbLine
 10
5715.990945158997
 20
-315.1840298906131
 30
0.0
 11
5715.990945158997
 21
-299.8559531942419
 31
0.0
  0
LINE
  5
C2D5
330
18
100
AcDbEntity
  8
1DIM
100
AcDbLine
 10
5687.990927941634
 20
-300.8559531942419
 30
0.0
 11
5713.990945158997
 21
-300.8559531942419
 31
0.0
  0
LINE
  5
C2D9
330
18
100
AcDbEntity
  8
1DIM
100
AcDbLine
 10
5526.617743696273
 20
-308.7064411171039
 30
0.0
 11
5526.617743696273
 21
-300.2760904054571
 31
0.0
  0
LINE
  5
C2DA
330
18
100
AcDbEntity
  8
1DIM
100
AcDbLine
 10
5532.117743696272
 20
-308.7064411171039
 30
0.0
 11
5532.117743696272
 21
-300.2760904054571
 31
0.0
  0
LINE
  5
C2DB
330
18
100
AcDbEntity
  8
1DIM
100
AcDbLine
 10
5530.117743696272
 20
-301.2760904054571
 30
0.0
 11
5528.617743696273
 21
-301.2760904054571
 31
0.0
  0
LINE
  5
C2DC
330
18
100
AcDbEntity
  8
1DIM
100
AcDbLine
 10
5526.617743696273
 20
-301.2760904054571
 30
0.0
 11
5514.251442733451
 21
-301.2760904054571
 31
0.0
  0
SOLID
  5
C2E0
330
18
100
AcDbEntity
  8
1DIM
100
AcDbTrace
 10
5579.318388526865
 20
-309.6663567834984
 30
0.0
 11
5578.234050306866
 21
-311.3796348507599
 31
0.0
 12
5578.704117898565
 22
-309.4072891482153
 32
0.0
 13
5578.704117898565
 23
-309.4072891482153
 33
0.0
  0
LINE
  5
C2E1
330
18
100
AcDbEntity
  8
1DIM
100
AcDbLine
 10
5579.011253212715
 20
-309.5368229658569
 30
0.0
 11
5586.463466194474
 21
-291.8670142862163
 31
0.0
  0
LINE
  5
C2E2
330
18
100
AcDbEntity
  8
1DIM
100
AcDbLine
 10
5586.463466194474
 20
-291.8670142862163
 30
0.0
 11
5633.73013286114
 21
-291.8670142862163
 31
0.0
  0
TEXT
  5
C2E3
330
18
100
AcDbEntity
  8
1CENTER
  6
CONTINUOUS
100
AcDbText
 10
5588.93013286114
 20
-285.333680952883
 30
0.0
 40
3.5
  1
材質：亜鉛ダイキャスト
100
AcDbText
1001
ACADANNOTATIVE
1000
AnnotativeData
1002
{
1070
     1
1070
     0
1002
}
  0
TEXT
  5
C2E4
330
18
100
AcDbEntity
  8
1CENTER
  6
CONTINUOUS
100
AcDbText
 10
5589.046799527807
 20
-291.1670142862163
 30
0.0
 40
3.5
  1
仕上げ：各種メッキ
100
AcDbText
1001
ACADANNOTATIVE
1000
AnnotativeData
1002
{
1070
     1
1070
     0
1002
}
  0
LINE
  5
C2E5
330
18
100
AcDbEntity
  8
1DIM
100
AcDbLine
 10
5442.637779279856
 20
-309.7064411171042
 30
0.0
 11
5442.637779279856
 21
-300.4570637866595
 31
0.0
  0
LINE
  5
C2E6
330
18
100
AcDbEntity
  8
1DIM
100
AcDbLine
 10
5490.637779279856
 20
-309.7064411171042
 30
0.0
 11
5490.637779279856
 21
-300.4570637866595
 31
0.0
  0
LINE
  5
C2E7
330
18
100
AcDbEntity
  8
1DIM
100
AcDbLine
 10
5444.637779279856
 20
-301.4570637866595
 30
0.0
 11
5488.637779279856
 21
-301.4570637866595
 31
0.0
  0
LINE
  5
C2EB
330
18
100
AcDbEntity
  8
1DIM
100
AcDbLine
 10
5489.637779279856
 20
-308.7064411171042
 30
0.0
 11
5500.298638147542
 21
-308.7064411171042
 31
0.0
  0
LINE
  5
C2EC
330
18
100
AcDbEntity
  8
1DIM
100
AcDbLine
 10
5489.637779279856
 20
-337.7064411171043
 30
0.0
 11
5500.298638147542
 21
-337.7064411171043
 31
0.0
  0
LINE
  5
C2ED
330
18
100
AcDbEntity
  8
1DIM
100
AcDbLine
 10
5499.298638147542
 20
-310.7064411171042
 30
0.0
 11
5499.298638147542
 21
-335.7064411171043
 31
0.0
  0
LINE
  5
C2F1
330
18
100
AcDbEntity
  8
0
  6
BYBLOCK
100
AcDbLine
 10
5687.990927941634
 20
-301.3918515742419
 30
0.0
 11
5685.990927941634
 21
-300.8559531942419
 31
0.0
  0
LINE
  5
C2F2
330
18
100
AcDbEntity
  8
0
  6
BYBLOCK
100
AcDbLine
 10
5685.990927941634
 20
-300.8559531942419
 30
0.0
 11
5687.990927941634
 21
-300.3200548142419
 31
0.0
  0
LINE
  5
C2F3
330
18
100
AcDbEntity
  8
0
  6
BYBLOCK
100
AcDbLine
 10
5685.990927941634
 20
-300.8559531942419
 30
0.0
 11
5687.990927941634
 21
-300.8559531942419
 31
0.0
  0
LINE
  5
C2F4
330
18
100
AcDbEntity
  8
0
  6
BYBLOCK
100
AcDbLine
 10
5713.990945158997
 20
-300.3200548142419
 30
0.0
 11
5715.990945158997
 21
-300.8559531942419
 31
0.0
  0
LINE
  5
C2F5
330
18
100
AcDbEntity
  8
0
  6
BYBLOCK
100
AcDbLine
 10
5715.990945158997
 20
-300.8559531942419
 30
0.0
 11
5713.990945158997
 21
-301.3918515742419
 31
0.0
  0
LINE
  5
C2F6
330
18
100
AcDbEntity
  8
0
  6
BYBLOCK
100
AcDbLine
 10
5715.990945158997
 20
-300.8559531942419
 30
0.0
 11
5713.990945158997
 21
-300.8559531942419
 31
0.0
  0
TEXT
  5
C2F7
330
18
100
AcDbEntity
  8
1DIM
  6
CONTINUOUS
100
AcDbText
 10
5698.293019883648
 20
-300.1559531942419
 30
0.0
 40
3.5
  1
30
100
AcDbText
  0
LINE
  5
C2F8
330
18
100
AcDbEntity
  8
0
  6
BYBLOCK
100
AcDbLine
 10
5530.117743696272
 20
-300.7401920254571
 30
0.0
 11
5532.117743696272
 21
-301.2760904054571
 31
0.0
  0
LINE
  5
C2F9
330
18
100
AcDbEntity
  8
0
  6
BYBLOCK
100
AcDbLine
 10
5532.117743696272
 20
-301.2760904054571
 30
0.0
 11
5530.117743696272
 21
-301.8119887854571
 31
0.0
  0
LINE
  5
C2FA
330
18
100
AcDbEntity
  8
0
  6
BYBLOCK
100
AcDbLine
 10
5532.117743696272
 20
-301.2760904054571
 30
0.0
 11
5530.117743696272
 21
-301.2760904054571
 31
0.0
  0
LINE
  5
C2FB
330
18
100
AcDbEntity
  8
0
  6
BYBLOCK
100
AcDbLine
 10
5528.617743696273
 20
-301.8119887854571
 30
0.0
 11
5526.617743696273
 21
-301.2760904054571
 31
0.0
  0
LINE
  5
C2FC
330
18
100
AcDbEntity
  8
0
  6
BYBLOCK
100
AcDbLine
 10
5526.617743696273
 20
-301.2760904054571
 30
0.0
 11
5528.617743696273
 21
-300.7401920254571
 31
0.0
  0
LINE
  5
C2FD
330
18
100
AcDbEntity
  8
0
  6
BYBLOCK
100
AcDbLine
 10
5526.617743696273
 20
-301.2760904054571
 30
0.0
 11
5528.617743696273
 21
-301.2760904054571
 31
0.0
  0
TEXT
  5
C2FE
330
18
100
AcDbEntity
  8
1DIM
  6
CONTINUOUS
100
AcDbText
 10
5515.10595662234
 20
-300.5760904054571
 30
0.0
 40
3.5
  1
5.5
100
AcDbText
  0
LINE
  5
C2FF
330
18
100
AcDbEntity
  8
0
  6
BYBLOCK
100
AcDbLine
 10
5444.637779279856
 20
-301.9929621666595
 30
0.0
 11
5442.637779279856
 21
-301.4570637866595
 31
0.0
  0
LINE
  5
C300
330
18
100
AcDbEntity
  8
0
  6
BYBLOCK
100
AcDbLine
 10
5442.637779279856
 20
-301.4570637866595
 30
0.0
 11
5444.637779279856
 21
-300.9211654066596
 31
0.0
  0
LINE
  5
C301
330
18
100
AcDbEntity
  8
0
  6
BYBLOCK
100
AcDbLine
 10
5442.637779279856
 20
-301.4570637866595
 30
0.0
 11
5444.637779279856
 21
-301.4570637866595
 31
0.0
  0
LINE
  5
C302
330
18
100
AcDbEntity
  8
0
  6
BYBLOCK
100
AcDbLine
 10
5488.637779279856
 20
-300.9211654066596
 30
0.0
 11
5490.637779279856
 21
-301.4570637866595
 31
0.0
  0
LINE
  5
C303
330
18
100
AcDbEntity
  8
0
  6
BYBLOCK
100
AcDbLine
 10
5490.637779279856
 20
-301.4570637866595
 30
0.0
 11
5488.637779279856
 21
-301.9929621666595
 31
0.0
  0
LINE
  5
C304
330
18
100
AcDbEntity
  8
0
  6
BYBLOCK
100
AcDbLine
 10
5490.637779279856
 20
-301.4570637866595
 30
0.0
 11
5488.637779279856
 21
-301.4570637866595
 31
0.0
  0
TEXT
  5
C305
330
18
100
AcDbEntity
  8
1DIM
  6
CONTINUOUS
100
AcDbText
 10
5463.721112613189
 20
-300.7570637866596
 30
0.0
 40
3.5
  1
48
100
AcDbText
  0
LINE
  5
C306
330
18
100
AcDbEntity
  8
0
  6
BYBLOCK
100
AcDbLine
 10
5498.762739767542
 20
-310.7064411171042
 30
0.0
 11
5499.298638147542
 21
-308.7064411171042
 31
0.0
  0
LINE
  5
C307
330
18
100
AcDbEntity
  8
0
  6
BYBLOCK
100
AcDbLine
 10
5499.298638147542
 20
-308.7064411171042
 30
0.0
 11
5499.834536527542
 21
-310.7064411171042
 31
0.0
  0
LINE
  5
C308
330
18
100
AcDbEntity
  8
0
  6
BYBLOCK
100
AcDbLine
 10
5499.298638147542
 20
-308.7064411171042
 30
0.0
 11
5499.298638147542
 21
-310.7064411171042
 31
0.0
  0
LINE
  5
C309
330
18
100
AcDbEntity
  8
0
  6
BYBLOCK
100
AcDbLine
 10
5499.834536527542
 20
-335.7064411171043
 30
0.0
 11
5499.298638147542
 21
-337.7064411171043
 31
0.0
  0
LINE
  5
C30A
330
18
100
AcDbEntity
  8
0
  6
BYBLOCK
100
AcDbLine
 10
5499.298638147542
 20
-337.7064411171043
 30
0.0
 11
5498.762739767542
 21
-335.7064411171043
 31
0.0
  0
LINE
  5
C30B
330
18
100
AcDbEntity
  8
0
  6
BYBLOCK
100
AcDbLine
 10
5499.298638147542
 20
-337.7064411171043
 30
0.0
 11
5499.298638147542
 21
-335.7064411171043
 31
0.0
  0
TEXT
  5
C30C
330
18
100
AcDbEntity
  8
1DIM
  6
CONTINUOUS
100
AcDbText
 10
5498.598638147542
 20
-326.1239179689546
 30
0.0
 40
3.5
  1
29
 50
90.0
100
AcDbText
  0
VIEWPORT
  5
57
330
15
100
AcDbEntity
 67
     1
  8
0
100
AcDbViewport
 68
     1
 10
0.0
 20
0.0
 30
0.0
 40
535.5106132075472
 41
297.0
 68
     1
 69
     1
1001
ACAD
1000
MVIEW
1002
{
1070
    16
1010
0.0
1020
0.0
1030
0.0
1010
0.0
1020
0.0
1030
1.0
1040
0.0
1040
297.0
1040
5.728000000000009
1040
25.33900000000001
1040
50.0
1040
0.0
1040
0.0
1070
    16
1070
   100
1070
     0
1070
     1
1070
     0
1070
     0
1070
     0
1070
     0
1040
0.0
1040
0.0
1040
0.0
1040
10.0
1040
10.0
1040
10.0
1040
10.0
1070
     0
1002
{
1002
}
1002
}
  0
ENDSEC
  0
SECTION
  2
OBJECTS
  0
DICTIONARY
  5
C
330
0
100
AcDbDictionary
  3
ACAD_CIP_PREVIOUS_PRODUCT_INFO
350
AF9C
  3
ACAD_COLOR
350
18D
  3
ACAD_GROUP
350
D
  3
ACAD_LAYOUT
350
18E
  3
ACAD_MATERIAL
350
18C
  3
ACAD_MLEADERSTYLE
350
9583
  3
ACAD_MLINESTYLE
350
1B
  3
ACAD_PLOTSETTINGS
350
18F
  3
ACAD_SCALELIST
350
9561
  3
ACAD_VISUALSTYLE
350
9550
  3
ACDBHEADERROUNDTRIPXREC
350
C30D
  3
ACDBVARIABLEDICTIONARY
350
37
  3
AEC_PROPERTY_SET_DEFS
350
ADE0
  3
CONTENTDICTIONARY
350
D8
  3
DRAWINGVARIABLESDICT
350
20
  3
DWGPROPS
350
C310
1001
ACAD
1000
TREAT_AS_HARD
1070
     0
  0
DICTIONARY
  5
96D9
330
2
100
AcDbDictionary
  3
ACAD_LAYERSTATES
360
96DA
1001
ACAD
1000
TREAT_AS_HARD
1070
     1
  0
DICTIONARY
  5
9593
330
E
100
AcDbDictionary
  3
ADSK_XREC_LAYER_RECONCILED
360
9594
1001
ACAD
1000
TREAT_AS_HARD
1070
     1
  0
DICTIONARY
  5
9595
330
29
100
AcDbDictionary
  3
ADSK_XREC_LAYER_RECONCILED
360
9596
1001
ACAD
1000
TREAT_AS_HARD
1070
     1
  0
DICTIONARY
  5
9597
330
31
100
AcDbDictionary
  3
ADSK_XREC_LAYER_RECONCILED
360
9598
1001
ACAD
1000
TREAT_AS_HARD
1070
     1
  0
DICTIONARY
  5
959D
330
243
100
AcDbDictionary
  3
ADSK_XREC_LAYER_RECONCILED
360
959E
1001
ACAD
1000
TREAT_AS_HARD
1070
     1
  0
DICTIONARY
  5
95A3
330
24E
100
AcDbDictionary
  3
ADSK_XREC_LAYER_RECONCILED
360
95A4
1001
ACAD
1000
TREAT_AS_HARD
1070
     1
  0
DICTIONARY
  5
95A5
330
252
100
AcDbDictionary
  3
ADSK_XREC_LAYER_RECONCILED
360
95A6
1001
ACAD
1000
TREAT_AS_HARD
1070
     1
  0
DICTIONARY
  5
88F
330
18
100
AcDbDictionary
  3
ACAD_SORTENTS
360
890
1001
ACAD
1000
TREAT_AS_HARD
1070
     1
  0
XRECORD
  5
AF9C
102
{ACAD_REACTORS
330
C
102
}
330
C
100
AcDbXrecord
300
ACDLT
300
2012
300
ACDLT_F_S
  0
DICTIONARY
  5
18D
102
{ACAD_REACTORS
330
C
102
}
330
C
100
AcDbDictionary
1001
ACAD
1000
TREAT_AS_HARD
1070
     0
  0
DICTIONARY
  5
D
102
{ACAD_REACTORS
330
C
102
}
330
C
100
AcDbDictionary
1001
ACAD
1000
TREAT_AS_HARD
1070
     0
  0
DICTIONARY
  5
18E
102
{ACAD_REACTORS
330
C
102
}
330
C
100
AcDbDictionary
1001
ACAD
1000
TREAT_AS_HARD
1070
     0
  0
DICTIONARY
  5
18C
102
{ACAD_REACTORS
330
C
102
}
330
C
100
AcDbDictionary
  3
BYBLOCK
350
9540
  3
BYLAYER
350
9538
  3
GLOBAL
350
9548
1001
ACAD
1000
TREAT_AS_HARD
1070
     0
  0
DICTIONARY
  5
9583
102
{ACAD_REACTORS
330
C
102
}
330
C
100
AcDbDictionary
  3
STANDARD
350
9584
1001
ACAD
1000
TREAT_AS_HARD
1070
     0
  0
DICTIONARY
  5
1B
102
{ACAD_REACTORS
330
C
102
}
330
C
100
AcDbDictionary
  3
STANDARD
350
1C
1001
ACAD
1000
TREAT_AS_HARD
1070
     0
  0
DICTIONARY
  5
18F
102
{ACAD_REACTORS
330
C
102
}
330
C
100
AcDbDictionary
1001
ACAD
1000
TREAT_AS_HARD
1070
     0
  0
DICTIONARY
  5
9561
102
{ACAD_REACTORS
330
C
102
}
330
C
100
AcDbDictionary
  3
A0
350
9562
  3
A1
350
9563
  3
A2
350
9564
  3
A3
350
9565
  3
A4
350
9566
  3
A5
350
9567
  3
A6
350
9568
  3
A7
350
9569
  3
A8
350
956A
  3
A9
350
956B
  3
B0
350
956C
  3
B1
350
956D
  3
B2
350
956E
  3
B3
350
956F
  3
B4
350
9570
  3
B5
350
9571
  3
B6
350
9572
  3
B7
350
9573
  3
B8
350
9574
  3
B9
350
9575
  3
C0
350
9576
  3
C1
350
9577
  3
C2
350
9578
  3
C3
350
9579
  3
C4
350
957A
  3
C5
350
957B
  3
C6
350
957C
  3
C7
350
957D
  3
C8
350
957E
  3
C9
350
957F
  3
D0
350
9580
  3
D1
350
9581
  3
D2
350
9582
1001
ACAD
1000
TREAT_AS_HARD
1070
     0
  0
DICTIONARY
  5
9550
102
{ACAD_REACTORS
330
C
102
}
330
C
100
AcDbDictionary
  3
2DWIREFRAME
350
9556
  3
3D_HIDDEN
350
9558
  3
3DWIREFRAME
350
9557
  3
BASIC
350
9555
  3
BRIGHTEN
350
955C
  3
COLORCHANGE
350
9560
  3
CONCEPTUAL
350
9559
  3
DIM
350
955B
  3
EDGECOLOROFF
350
A211
  3
FACEPATTERN
350
955F
  3
FLAT
350
9551
  3
FLATWITHEDGES
350
9552
  3
GOURAUD
350
9553
  3
GOURAUDWITHEDGES
350
9554
  3
HIDDEN
350
A260
  3
JITTEROFF
350
A20F
  3
LINEPATTERN
350
955E
  3
MODELING
350
A266
  3
OVERHANGOFF
350
A210
  3
REALISTIC
350
955A
  3
SHADED
350
A265
  3
SHADED_WITH_EDGES
350
A264
  3
SHADES_OF_GRAY
350
A261
  3
SKETCHY
350
A262
  3
THICKEN
350
955D
  3
WIREFRAME
350
A25F
  3
X-RAY
350
A263
1001
ACAD
1000
TREAT_AS_HARD
1070
     0
  0
DICTIONARY
  5
C30D
102
{ACAD_REACTORS
330
C
102
}
330
C
100
AcDbDictionary
  3
COLORDICT
350
C30E
  3
MATERIALDICT
350
C30F
1001
ACAD
1000
TREAT_AS_HARD
1070
     0
  0
DICTIONARY
  5
37
102
{ACAD_REACTORS
330
C
102
}
330
C
100
AcDbDictionary
  3
CANNOSCALE
350
AF43
  3
CMLEADERSTYLE
350
9627
  3
CTABLESTYLE
350
29E
  3
DIMADEC
350
38
  3
DIMASSOC
350
1CE
  3
HIDETEXT
350
704E
  3
INDEXCTL
350
962A
  3
INTERSECTIONCOLOR
350
7052
  3
INTERSECTIONDISPLAY
350
7051
  3
MSLTSCALE
350
AB30
  3
OBSCOLOR
350
704F
  3
OBSLTYPE
350
7050
  3
PROJECTNAME
350
1CF
  3
SORTENTS
350
9629
  3
XCLIPFRAME
350
C1B6
1001
ACAD
1000
TREAT_AS_HARD
1070
     0
  0
DICTIONARY
  5
ADE0
102
{ACAD_REACTORS
330
C
102
}
330
C
100
AcDbDictionary
1001
ACAD
1000
TREAT_AS_HARD
1070
     0
  0
DICTIONARY
  5
D8
102
{ACAD_REACTORS
330
C
102
}
330
C
100
AcDbDictionary
1001
ACAD
1000
TREAT_AS_HARD
1070
     0
  0
DICTIONARY
  5
20
102
{ACAD_REACTORS
330
C
102
}
330
C
100
AcDbDictionary
1001
DRAWINGVARIABLESXDATA
1000
POLARANG
1000
0.261799387799149410000000
1000
POLARMODE
1000
1
1000
POLARSTYLE
1000
1
1001
ACAD
1000
TREAT_AS_HARD
1070
     0
  0
XRECORD
  5
C310
102
{ACAD_REACTORS
330
C
102
}
330
C
100
AcDbXrecord
  1
DWGPROPS COOKIE
  2

  3

  4

  6

  7

  8
3684
  9

300
=
301
=
302
=
303
=
304
=
305
=
306
=
307
=
308
=
309
=
 40
0.0
 41
2451318.246352917
 42
2458437.071196366
  1

 90
        0
  0
DICTIONARY
  5
96DA
102
{ACAD_REACTORS
330
96D9
102
}
330
96D9
100
AcDbDictionary
1001
ACAD
1000
TREAT_AS_HARD
1070
     0
  0
ACAD_PROXY_OBJECT
  5
9594
102
{ACAD_REACTORS
330
9593
102
}
330
9593
100
AcDbZombieObject
 90
      499
 91
      517
 93
       34
310
40C8804040
  0
ACAD_PROXY_OBJECT
  5
9596
102
{ACAD_REACTORS
330
9595
102
}
330
9595
100
AcDbZombieObject
 90
      499
 91
      517
 93
       34
310
40C8804040
  0
ACAD_PROXY_OBJECT
  5
9598
102
{ACAD_REACTORS
330
9597
102
}
330
9597
100
AcDbZombieObject
 90
      499
 91
      517
 93
       34
310
40C8804040
  0
ACAD_PROXY_OBJECT
  5
959E
102
{ACAD_REACTORS
330
959D
102
}
330
959D
100
AcDbZombieObject
 90
      499
 91
      517
 93
       34
310
40C8804040
  0
ACAD_PROXY_OBJECT
  5
95A4
102
{ACAD_REACTORS
330
95A3
102
}
330
95A3
100
AcDbZombieObject
 90
      499
 91
      517
 93
       34
310
40C8804040
  0
ACAD_PROXY_OBJECT
  5
95A6
102
{ACAD_REACTORS
330
95A5
102
}
330
95A5
100
AcDbZombieObject
 90
      499
 91
      517
 93
       34
310
40C8804040
  0
SORTENTSTABLE
  5
890
102
{ACAD_REACTORS
330
88F
102
}
330
88F
100
AcDbSortentsTable
330
18
331
BB18
  5
BB1B
331
BB19
  5
BB1C
331
BB34
  5
BB37
331
BB36
  5
BB39
331
BB38
  5
BB3B
331
BB3A
  5
BB3D
331
BB3C
  5
BB3F
331
BB3E
  5
BB41
331
BB3F
  5
BB42
331
BB40
  5
BB43
331
BB44
  5
BB48
331
BB46
  5
BB4B
331
BB52
  5
BB59
331
BB53
  5
BB5A
331
BB54
  5
BB5B
331
BB5D
  5
BB65
331
BB5F
  5
BB68
331
BB6B
  5
BBB4
331
BB6C
  5
BBB5
331
BB6D
  5
BBB6
331
BBBD
  5
BBC6
331
BBBE
  5
BBC7
331
BBBF
  5
BBC8
331
BBC0
  5
BBC9
331
BBC1
  5
BBCA
331
BBC2
  5
BBCB
331
BBC3
  5
BBCC
331
BBC4
  5
BBCD
331
BBC5
  5
BBCE
331
BBC6
  5
BBCF
331
BBC8
  5
BBD1
331
BBC9
  5
BBD2
331
BBCA
  5
BBD3
331
BBCB
  5
BBD4
331
BBCC
  5
BBD5
331
BBCD
  5
BBD6
331
BBCE
  5
BBD7
331
BBCF
  5
BBD8
331
BBD0
  5
BBD9
331
BBD1
  5
BBDA
331
BBD2
  5
BCDD
331
BBD3
  5
BCDE
331
BBD4
  5
BCDF
331
BBD5
  5
BCE0
331
BBD6
  5
BCE1
331
BBD7
  5
BCE2
331
BCDD
  5
BCE6
331
BCDE
  5
BCE7
331
BCDF
  5
BCE9
331
BCE0
  5
BCEA
331
BCE1
  5
BCEB
331
BCE2
  5
BCEC
331
BCE3
  5
BCED
331
BCE4
  5
BCEE
331
BCE5
  5
BCEF
331
BCE6
  5
BCF0
331
BCE7
  5
BCF1
331
BCE9
  5
BCF2
331
BCEA
  5
BCF3
331
BCEB
  5
BCF4
331
BCEC
  5
BCF5
331
BCED
  5
BCF6
331
BCEE
  5
BCF7
331
BCEF
  5
BCF8
331
BCF0
  5
BCF9
331
BCF1
  5
BCFA
331
BCF2
  5
BCFB
331
BCF3
  5
BCFC
331
BCF4
  5
BCFD
331
BCF5
  5
BCFE
331
BCF6
  5
BCFF
331
BCF7
  5
BD00
331
BCF8
  5
BD01
331
BCF9
  5
BD02
331
BCFA
  5
BD03
331
BCFB
  5
BD04
331
BCFC
  5
BD05
331
BCFD
  5
BD06
331
BCFE
  5
BD07
331
BCFF
  5
BD08
331
BD00
  5
BD09
331
BD01
  5
BD0A
331
BD02
  5
BD0B
331
BD03
  5
BD0C
331
BD04
  5
BD0D
331
BD05
  5
BD0E
331
BD06
  5
BD0F
331
BD07
  5
BD11
331
BD08
  5
BD12
331
BD09
  5
BD13
331
BD0A
  5
BE14
331
BD0B
  5
BE15
331
BD0C
  5
BE16
331
BD0D
  5
BE17
331
BD0E
  5
BE18
331
BD0F
  5
BE19
331
BD11
  5
BE1A
331
BD12
  5
BE1B
331
BD13
  5
BE39
331
BE14
  5
BE4A
331
BE15
  5
BE4B
331
BE16
  5
BED0
331
BE17
  5
BED1
331
BE18
  5
BED2
331
BE19
  5
BED3
331
BE1A
  5
BED4
331
BE1B
  5
BED5
331
BE39
  5
BED6
331
BE4A
  5
BED7
331
BE4B
  5
BEEF
331
BED0
  5
BEF0
331
BED1
  5
BEF1
331
BED2
  5
BEF2
331
BED3
  5
BEF3
331
BED4
  5
BEF4
331
BED5
  5
BEF8
331
BED6
  5
BEF9
331
BED7
  5
BF07
331
BEEF
  5
BF08
331
BEF0
  5
BF09
331
BEF1
  5
BF13
331
BEF2
  5
BF14
331
BEF3
  5
BF15
331
BEF4
  5
BF1F
331
BEF5
  5
BF20
331
BEF8
  5
BF21
331
BEF9
  5
BF24
331
BF07
  5
BF28
331
BF08
  5
BF29
331
BF09
  5
BF2A
331
BF14
  5
BF2C
331
BF15
  5
BF33
331
BF1F
  5
BF35
331
BF20
  5
BF38
331
BF23
  5
BF40
331
BF27
  5
BF41
331
BF28
  5
BF42
331
BF29
  5
BF43
331
BF2B
  5
BF44
331
BF32
  5
BF45
331
BF33
  5
BF46
331
BF34
  5
BF47
331
BF37
  5
BF48
331
BF3E
  5
BF49
331
BF3F
  5
BF4A
331
BF40
  5
BF4B
331
BF41
  5
BF51
331
BF42
  5
BF52
331
BF43
  5
BF53
331
BF44
  5
BF54
331
BF45
  5
BF55
331
BF46
  5
BF34
331
BF48
  5
BF56
331
BF49
  5
BF57
331
BF4A
  5
BF58
331
BF4B
  5
BF59
331
BF51
  5
BF5A
331
BF52
  5
BF5B
331
BF53
  5
BF5C
331
BF54
  5
BF5D
331
BF55
  5
BF5E
331
BF56
  5
BF5F
331
BF57
  5
BF60
331
BF58
  5
BF61
331
BF59
  5
BF62
331
BF5A
  5
BF63
331
BF5B
  5
BF64
331
BF5C
  5
BF65
331
BF5D
  5
BF66
331
BF5E
  5
BF69
331
BF5F
  5
BF6A
331
BF60
  5
BF6B
331
BF61
  5
BF6C
331
BF62
  5
BF6D
331
BF63
  5
BF6E
331
BF64
  5
BF6F
331
BF65
  5
BF70
331
BF66
  5
BF71
331
BF69
  5
BF72
331
BF6A
  5
BF73
331
BF6B
  5
BF74
331
BF6C
  5
BF75
331
BF6D
  5
BF76
331
BF6E
  5
BF77
331
BF6F
  5
BF78
331
BF70
  5
BF79
331
BF71
  5
BF7A
331
BF72
  5
BF7B
331
BF73
  5
BF7C
331
BF74
  5
BF7D
331
BF75
  5
BF7E
331
BF76
  5
BF7F
331
BF77
  5
BF80
331
BF78
  5
BF81
331
BF79
  5
BF82
331
BF7A
  5
BF83
331
BF7B
  5
BF84
331
BF7C
  5
BF85
331
BF7D
  5
BF86
331
BF7E
  5
BF87
331
BF7F
  5
BF88
331
BF80
  5
BF89
331
BF81
  5
BF8A
331
BF82
  5
BF8B
331
BF83
  5
BF8C
331
BF84
  5
BF8D
331
BF85
  5
BF8E
331
BF86
  5
BF8F
331
BF87
  5
BF90
331
BF88
  5
BF91
331
BF89
  5
BF92
331
BF8A
  5
BF93
331
BF8B
  5
BF94
331
BF8C
  5
BF95
331
BF8D
  5
BF96
331
BF8E
  5
BF97
331
BF8F
  5
BF98
331
BF90
  5
BF99
331
BF91
  5
BF9A
331
BF92
  5
BF9B
331
BF93
  5
BF9C
331
BF94
  5
BF9D
331
BF95
  5
BF9E
331
BF96
  5
BF9F
331
BF97
  5
BFA1
331
BF98
  5
BFA4
331
BF99
  5
BFA5
331
BF9A
  5
BFA6
331
BF9B
  5
BFA7
331
BF9C
  5
BFA8
331
BF9D
  5
BFA9
331
BF9E
  5
BFAA
331
BF9F
  5
BFAB
331
BFA1
  5
BFAC
331
BFA8
  5
BFB1
331
BFA9
  5
BFB2
331
BFAA
  5
BFB3
331
BFAB
  5
BFB4
331
BFAF
  5
BFB8
331
BFB0
  5
BFB9
331
BFB5
  5
BFBE
331
BFBD
  5
BFC6
331
BFC9
  5
BFD2
331
BFCD
  5
BFD6
331
BFD1
  5
BFDA
331
BFD4
  5
BFDD
331
BFD5
  5
BFDE
331
BFD7
  5
BFE0
331
BFD9
  5
BFE2
331
BFDB
  5
BFE4
331
BFDE
  5
BFE7
331
BFDF
  5
BFE8
331
BFE1
  5
BFEA
331
BFE2
  5
BFEB
331
BFEE
  5
BFF7
331
BFEF
  5
BFF8
331
BFF0
  5
BFF9
331
BFF1
  5
BFFA
331
BFF2
  5
BFFB
331
BFF3
  5
BFFC
331
BFF4
  5
BFFD
331
BFF5
  5
BFFE
331
BFF6
  5
BFFF
331
BFF7
  5
C000
331
BFF8
  5
C001
331
BFF9
  5
C002
331
BFFA
  5
C003
331
BFFB
  5
C004
331
BFFC
  5
C005
331
BFFD
  5
C006
331
BFFE
  5
C007
331
BFFF
  5
C008
331
C000
  5
C009
331
C001
  5
C00A
331
C002
  5
C00B
331
C003
  5
C00E
331
C004
  5
C00F
331
C005
  5
C010
331
C006
  5
C013
331
C007
  5
C014
331
C008
  5
C017
331
C00E
  5
BB64
331
C017
  5
BB47
331
C018
  5
BB0A
331
C078
  5
C079
331
C07A
  5
C07C
331
C07C
  5
C07F
331
C07D
  5
C080
331
C07F
  5
C082
331
C080
  5
C083
331
C081
  5
C084
331
C082
  5
C085
331
C083
  5
C086
331
C084
  5
C087
331
0
  5
C088
331
C086
  5
C089
331
C087
  5
C08A
331
C088
  5
C08B
331
C08A
  5
C08D
331
C08B
  5
C08E
331
C090
  5
C093
331
C091
  5
C094
331
C095
  5
C07B
331
C097
  5
C07E
331
0
  5
C2B2
331
C0C7
  5
C2E1
331
0
  5
C2C5
331
0
  5
C2C6
331
0
  5
C2C7
331
0
  5
C2C8
331
0
  5
C2C9
331
C1F2
  5
C30C
331
0
  5
C0C5
331
C2A0
  5
C2B4
331
C2A1
  5
C2B5
331
C2A2
  5
C2B6
331
C2A3
  5
C2B7
331
C2A4
  5
C2B8
331
C2A5
  5
C2B9
331
C2A6
  5
C2BA
331
0
  5
C2A0
331
C2B0
  5
C2D7
331
C2B1
  5
C2D8
331
C2B2
  5
C2D9
331
C2B3
  5
C2DA
331
C2B4
  5
C2DB
331
C2B5
  5
C2DF
331
C2B6
  5
C2E0
331
C2B7
  5
C2A1
331
C2B8
  5
C2A2
331
C2B9
  5
C2A3
331
C2BA
  5
C2A4
331
C2BB
  5
C2A5
331
C2BC
  5
C2A6
331
C2BD
  5
C2AF
331
C2BE
  5
C2B0
331
C2BF
  5
C2B1
331
C2C0
  5
C2B3
331
C2C1
  5
C2CD
331
C2C2
  5
C2CE
331
C2C3
  5
C2CF
331
C2C4
  5
C2D0
331
C2C5
  5
C2D1
331
C2C6
  5
C2D2
331
C2C7
  5
C2D3
331
C2C8
  5
C2D4
331
C2C9
  5
C2D5
331
C2CA
  5
C2D6
331
C2CB
  5
C0C7
331
C2CC
  5
C0EE
331
C2CD
  5
C106
331
C2CE
  5
C107
331
C2CF
  5
C112
331
C2D0
  5
C128
331
C2D1
  5
C1F2
331
C2D2
  5
C29F
331
C2D3
  5
C2BB
331
C2D4
  5
C2BC
331
C2D5
  5
C2BD
331
0
  5
C2BE
331
0
  5
C2BF
331
0
  5
C2C0
331
C2D9
  5
C2E2
331
C2DA
  5
C2E3
331
C2DB
  5
C2E4
331
C2DC
  5
C2E5
331
0
  5
C2DC
331
0
  5
C2DD
331
0
  5
C2DE
331
C2E0
  5
C2F3
331
C2E1
  5
C2F4
331
C2E2
  5
C2F5
331
C2E3
  5
C2F6
331
C2E4
  5
C2F7
331
C2E5
  5
C2F8
331
C2E6
  5
C2F9
331
C2E7
  5
C2FA
331
0
  5
C2E7
331
0
  5
C2E8
331
0
  5
C2E9
331
C2EB
  5
C302
331
C2EC
  5
C303
331
C2ED
  5
C304
331
0
  5
C2ED
331
0
  5
C2EE
331
0
  5
C2EF
331
C2F1
  5
C2C1
331
C2F2
  5
C2C2
331
C2F3
  5
C2C3
331
C2F4
  5
C2C4
331
C2F5
  5
C2CA
331
C2F6
  5
C2CB
331
C2F7
  5
C2CC
331
C2F8
  5
C2E6
331
C2F9
  5
C2EA
331
C2FA
  5
C2EB
331
C2FB
  5
C2EC
331
C2FC
  5
C2F0
331
C2FD
  5
C2F1
331
C2FE
  5
C2F2
331
C2FF
  5
C2FB
331
C300
  5
C2FC
331
C301
  5
C2FD
331
C302
  5
C2FE
331
C303
  5
C2FF
331
C304
  5
C300
331
C305
  5
C301
331
C306
  5
C305
331
C307
  5
C306
331
C308
  5
C307
331
C309
  5
C308
331
C30A
  5
C309
331
C30B
  5
C30A
331
C30C
  5
C30B
  0
MATERIAL
  5
9540
102
{ACAD_REACTORS
330
18C
102
}
102
{ACAD_XDICTIONARY
360
C4AB
102
}
330
18C
100
AcDbMaterial
  1
BYBLOCK
 72
     0
 73
     2
 43
0.0208333333333333
 43
0.0
 43
0.0
 43
0.0
 43
0.0
 43
0.0208333333333333
 43
0.0
 43
0.0
 43
0.0
 43
0.0
 43
1.0
 43
0.0
 43
0.0
 43
0.0
 43
0.0
 43
1.0
 77
     0
 78
     2
 47
0.0208333333333333
 47
0.0
 47
0.0
 47
0.0
 47
0.0
 47
0.0208333333333333
 47
0.0
 47
0.0
 47
0.0
 47
0.0
 47
1.0
 47
0.0
 47
0.0
 47
0.0
 47
0.0
 47
1.0
171
     0
172
     2
 49
0.0208333333333333
 49
0.0
 49
0.0
 49
0.0
 49
0.0
 49
0.0208333333333333
 49
0.0
 49
0.0
 49
0.0
 49
0.0
 49
1.0
 49
0.0
 49
0.0
 49
0.0
 49
0.0
 49
1.0
175
     0
176
     2
142
0.0208333333333333
142
0.0
142
0.0
142
0.0
142
0.0
142
0.0208333333333333
142
0.0
142
0.0
142
0.0
142
0.0
142
1.0
142
0.0
142
0.0
142
0.0
142
0.0
142
1.0
179
     0
270
     2
144
0.0208333333333333
144
0.0
144
0.0
144
0.0
144
0.0
144
0.0208333333333333
144
0.0
144
0.0
144
0.0
144
0.0
144
1.0
144
0.0
144
0.0
144
0.0
144
0.0
144
1.0
274
     2
147
0.0208333333333333
147
0.0
147
0.0
147
0.0
147
0.0
147
0.0208333333333333
147
0.0
147
0.0
147
0.0
147
0.0
147
1.0
147
0.0
147
0.0
147
0.0
147
0.0
147
1.0
  0
MATERIAL
  5
9538
102
{ACAD_REACTORS
330
18C
102
}
102
{ACAD_XDICTIONARY
360
C4AD
102
}
330
18C
100
AcDbMaterial
  1
BYLAYER
 72
     0
 73
     2
 43
0.0208333333333333
 43
0.0
 43
0.0
 43
0.0
 43
0.0
 43
0.0208333333333333
 43
0.0
 43
0.0
 43
0.0
 43
0.0
 43
1.0
 43
0.0
 43
0.0
 43
0.0
 43
0.0
 43
1.0
 77
     0
 78
     2
 47
0.0208333333333333
 47
0.0
 47
0.0
 47
0.0
 47
0.0
 47
0.0208333333333333
 47
0.0
 47
0.0
 47
0.0
 47
0.0
 47
1.0
 47
0.0
 47
0.0
 47
0.0
 47
0.0
 47
1.0
171
     0
172
     2
 49
0.0208333333333333
 49
0.0
 49
0.0
 49
0.0
 49
0.0
 49
0.0208333333333333
 49
0.0
 49
0.0
 49
0.0
 49
0.0
 49
1.0
 49
0.0
 49
0.0
 49
0.0
 49
0.0
 49
1.0
175
     0
176
     2
142
0.0208333333333333
142
0.0
142
0.0
142
0.0
142
0.0
142
0.0208333333333333
142
0.0
142
0.0
142
0.0
142
0.0
142
1.0
142
0.0
142
0.0
142
0.0
142
0.0
142
1.0
179
     0
270
     2
144
0.0208333333333333
144
0.0
144
0.0
144
0.0
144
0.0
144
0.0208333333333333
144
0.0
144
0.0
144
0.0
144
0.0
144
1.0
144
0.0
144
0.0
144
0.0
144
0.0
144
1.0
274
     2
147
0.0208333333333333
147
0.0
147
0.0
147
0.0
147
0.0
147
0.0208333333333333
147
0.0
147
0.0
147
0.0
147
0.0
147
1.0
147
0.0
147
0.0
147
0.0
147
0.0
147
1.0
  0
MATERIAL
  5
9548
102
{ACAD_REACTORS
330
18C
102
}
102
{ACAD_XDICTIONARY
360
C4AF
102
}
330
18C
100
AcDbMaterial
  1
GLOBAL
 72
     0
 73
     2
 43
0.0208333333333333
 43
0.0
 43
0.0
 43
0.0
 43
0.0
 43
0.0208333333333333
 43
0.0
 43
0.0
 43
0.0
 43
0.0
 43
1.0
 43
0.0
 43
0.0
 43
0.0
 43
0.0
 43
1.0
 77
     0
 78
     2
 47
0.0208333333333333
 47
0.0
 47
0.0
 47
0.0
 47
0.0
 47
0.0208333333333333
 47
0.0
 47
0.0
 47
0.0
 47
0.0
 47
1.0
 47
0.0
 47
0.0
 47
0.0
 47
0.0
 47
1.0
171
     0
172
     2
 49
0.0208333333333333
 49
0.0
 49
0.0
 49
0.0
 49
0.0
 49
0.0208333333333333
 49
0.0
 49
0.0
 49
0.0
 49
0.0
 49
1.0
 49
0.0
 49
0.0
 49
0.0
 49
0.0
 49
1.0
175
     0
176
     2
142
0.0208333333333333
142
0.0
142
0.0
142
0.0
142
0.0
142
0.0208333333333333
142
0.0
142
0.0
142
0.0
142
0.0
142
1.0
142
0.0
142
0.0
142
0.0
142
0.0
142
1.0
179
     0
270
     2
144
0.0208333333333333
144
0.0
144
0.0
144
0.0
144
0.0
144
0.0208333333333333
144
0.0
144
0.0
144
0.0
144
0.0
144
1.0
144
0.0
144
0.0
144
0.0
144
0.0
144
1.0
274
     2
147
0.0208333333333333
147
0.0
147
0.0
147
0.0
147
0.0
147
0.0208333333333333
147
0.0
147
0.0
147
0.0
147
0.0
147
1.0
147
0.0
147
0.0
147
0.0
147
0.0
147
1.0
  0
ACAD_PROXY_OBJECT
  5
9584
102
{ACAD_REACTORS
330
9583
102
}
330
9583
100
AcDbZombieObject
 90
      499
 91
      511
 93
      610
310
40901902A4063FBFFFFFE000000000000002040AD7A3703D0AD73F4214DD185B99185C990000000000000104090141901A00000000000004100000000000000041025764000000000000300FC0
340
12
340
0
340
F
340
0
 94
        0
1001
ACAD_MLEADERVER
1070
     2
  0
MLINESTYLE
  5
1C
102
{ACAD_REACTORS
330
1B
102
}
330
1B
100
AcDbMlineStyle
  2
STANDARD
 70
     0
  3

 62
   256
 51
90.0
 52
90.0
 71
     2
 49
0.5
 62
   256
  6
BYLAYER
 49
-0.5
 62
   256
  6
BYLAYER
  0
ACAD_PROXY_OBJECT
  5
9562
102
{ACAD_REACTORS
330
9561
102
}
330
9561
100
AcDbZombieObject
 90
      499
 91
      510
 93
       41
310
903313A31580
  0
ACAD_PROXY_OBJECT
  5
9563
102
{ACAD_REACTORS
330
9561
102
}
330
9561
100
AcDbZombieObject
 90
      499
 91
      510
 93
      105
310
903313A324000000000000004000
  0
ACAD_PROXY_OBJECT
  5
9564
102
{ACAD_REACTORS
330
9561
102
}
330
9561
100
AcDbZombieObject
 90
      499
 91
      510
 93
      105
310
903313A344000000000000104000
  0
ACAD_PROXY_OBJECT
  5
9565
102
{ACAD_REACTORS
330
9561
102
}
330
9561
100
AcDbZombieObject
 90
      499
 91
      510
 93
      105
310
903313A354000000000000144000
  0
ACAD_PROXY_OBJECT
  5
9566
102
{ACAD_REACTORS
330
9561
102
}
330
9561
100
AcDbZombieObject
 90
      499
 91
      510
 93
      105
310
903313A384000000000000204000
  0
ACAD_PROXY_OBJECT
  5
9567
102
{ACAD_REACTORS
330
9561
102
}
330
9561
100
AcDbZombieObject
 90
      499
 91
      510
 93
      113
310
904313A31304000000000000244000
  0
ACAD_PROXY_OBJECT
  5
9568
102
{ACAD_REACTORS
330
9561
102
}
330
9561
100
AcDbZombieObject
 90
      499
 91
      510
 93
      113
310
904313A31364000000000000304000
  0
ACAD_PROXY_OBJECT
  5
9569
102
{ACAD_REACTORS
330
9561
102
}
330
9561
100
AcDbZombieObject
 90
      499
 91
      510
 93
      113
310
904313A32304000000000000344000
  0
ACAD_PROXY_OBJECT
  5
956A
102
{ACAD_REACTORS
330
9561
102
}
330
9561
100
AcDbZombieObject
 90
      499
 91
      510
 93
      113
310
904313A333040000000000003E4000
  0
ACAD_PROXY_OBJECT
  5
956B
102
{ACAD_REACTORS
330
9561
102
}
330
9561
100
AcDbZombieObject
 90
      499
 91
      510
 93
      113
310
904313A34304000000000000444000
  0
ACAD_PROXY_OBJECT
  5
956C
102
{ACAD_REACTORS
330
9561
102
}
330
9561
100
AcDbZombieObject
 90
      499
 91
      510
 93
      113
310
904313A35304000000000000494000
  0
ACAD_PROXY_OBJECT
  5
956D
102
{ACAD_REACTORS
330
9561
102
}
330
9561
100
AcDbZombieObject
 90
      499
 91
      510
 93
      121
310
905313A3130304000000000000594000
  0
ACAD_PROXY_OBJECT
  5
956E
102
{ACAD_REACTORS
330
9561
102
}
330
9561
100
AcDbZombieObject
 90
      499
 91
      510
 93
      105
310
903323A310000000000000010100
  0
ACAD_PROXY_OBJECT
  5
956F
102
{ACAD_REACTORS
330
9561
102
}
330
9561
100
AcDbZombieObject
 90
      499
 91
      510
 93
      105
310
903343A310000000000000410100
  0
ACAD_PROXY_OBJECT
  5
9570
102
{ACAD_REACTORS
330
9561
102
}
330
9561
100
AcDbZombieObject
 90
      499
 91
      510
 93
      105
310
903383A310000000000000810100
  0
ACAD_PROXY_OBJECT
  5
9571
102
{ACAD_REACTORS
330
9561
102
}
330
9561
100
AcDbZombieObject
 90
      499
 91
      510
 93
      113
310
90431303A310000000000000910100
  0
ACAD_PROXY_OBJECT
  5
9572
102
{ACAD_REACTORS
330
9561
102
}
330
9561
100
AcDbZombieObject
 90
      499
 91
      510
 93
      121
310
9053130303A310000000000001650100
  0
ACAD_PROXY_OBJECT
  5
9573
102
{ACAD_REACTORS
330
9561
102
}
330
9561
100
AcDbZombieObject
 90
      499
 91
      510
 93
      257
310
90E312F31323822203D2031272D3022000000000000200FC000000000000284000
  0
ACAD_PROXY_OBJECT
  5
9574
102
{ACAD_REACTORS
330
9561
102
}
330
9561
100
AcDbZombieObject
 90
      499
 91
      510
 93
      249
310
90D312F363422203D2031272D3022000000000000240FC000000000000284000
  0
ACAD_PROXY_OBJECT
  5
9575
102
{ACAD_REACTORS
330
9561
102
}
330
9561
100
AcDbZombieObject
 90
      499
 91
      510
 93
      249
310
90D312F333222203D2031272D3022000000000000280FC000000000000284000
  0
ACAD_PROXY_OBJECT
  5
9576
102
{ACAD_REACTORS
330
9561
102
}
330
9561
100
AcDbZombieObject
 90
      499
 91
      510
 93
      249
310
90D312F313622203D2031272D30220000000000002C0FC000000000000284000
  0
ACAD_PROXY_OBJECT
  5
9577
102
{ACAD_REACTORS
330
9561
102
}
330
9561
100
AcDbZombieObject
 90
      499
 91
      510
 93
      249
310
90D332F333222203D2031272D30220000000000002E0FC000000000000284000
  0
ACAD_PROXY_OBJECT
  5
9578
102
{ACAD_REACTORS
330
9561
102
}
330
9561
100
AcDbZombieObject
 90
      499
 91
      510
 93
      241
310
90C312F3822203D2031272D3022000000000000300FC000000000000284000
  0
ACAD_PROXY_OBJECT
  5
9579
102
{ACAD_REACTORS
330
9561
102
}
330
9561
100
AcDbZombieObject
 90
      499
 91
      510
 93
      249
310
90D332F313622203D2031272D3022000000000000320FC000000000000284000
  0
ACAD_PROXY_OBJECT
  5
957A
102
{ACAD_REACTORS
330
9561
102
}
330
9561
100
AcDbZombieObject
 90
      499
 91
      510
 93
      241
310
90C312F3422203D2031272D3022000000000000340FC000000000000284000
  0
ACAD_PROXY_OBJECT
  5
957B
102
{ACAD_REACTORS
330
9561
102
}
330
9561
100
AcDbZombieObject
 90
      499
 91
      510
 93
      241
310
90C332F3822203D2031272D3022000000000000360FC000000000000284000
  0
ACAD_PROXY_OBJECT
  5
957C
102
{ACAD_REACTORS
330
9561
102
}
330
9561
100
AcDbZombieObject
 90
      499
 91
      510
 93
      241
310
90C312F3222203D2031272D3022000000000000380FC000000000000284000
  0
ACAD_PROXY_OBJECT
  5
957D
102
{ACAD_REACTORS
330
9561
102
}
330
9561
100
AcDbZombieObject
 90
      499
 91
      510
 93
      241
310
90C332F3422203D2031272D30220000000000003A0FC000000000000284000
  0
ACAD_PROXY_OBJECT
  5
957E
102
{ACAD_REACTORS
330
9561
102
}
330
9561
100
AcDbZombieObject
 90
      499
 91
      510
 93
      161
310
90A3122203D2031272D30224000000000000284000
  0
ACAD_PROXY_OBJECT
  5
957F
102
{ACAD_REACTORS
330
9561
102
}
330
9561
100
AcDbZombieObject
 90
      499
 91
      510
 93
      257
310
90E312D312F3222203D2031272D30220000000000003E0FC000000000000284000
  0
ACAD_PROXY_OBJECT
  5
9580
102
{ACAD_REACTORS
330
9561
102
}
330
9561
100
AcDbZombieObject
 90
      499
 91
      510
 93
      225
310
90A3322203D2031272D302200000000000002100000000000000284000
  0
ACAD_PROXY_OBJECT
  5
9581
102
{ACAD_REACTORS
330
9561
102
}
330
9561
100
AcDbZombieObject
 90
      499
 91
      510
 93
      225
310
90A3622203D2031272D302200000000000006100000000000000284000
  0
ACAD_PROXY_OBJECT
  5
9582
102
{ACAD_REACTORS
330
9561
102
}
330
9561
100
AcDbZombieObject
 90
      499
 91
      510
 93
      249
310
90D31272D3022203D2031272D30220000000000000A100000000000000284000
  0
ACAD_PROXY_OBJECT
  5
9556
102
{ACAD_REACTORS
330
9550
102
}
330
9550
100
AcDbZombieObject
 90
      499
 91
      509
 93
      436
310
42CC9915DA5C99599C985B595049028333333333333E3BF0000000000000FB0107901411070040501600405405064090741402480A0340
1001
ACAD
1000
AcDbSavedByObjectVersion
1070
     0
  0
ACAD_PROXY_OBJECT
  5
9558
102
{ACAD_REACTORS
330
9550
102
}
330
9550
100
AcDbZombieObject
 90
      499
 91
      509
 93
      500
310
424CD108121A5919195B90640502408333333333333E3BF0000000000000FB01079024090700405020000000000001110200405405064090740C02480A0340
1001
ACAD
1000
AcDbSavedByObjectVersion
1070
     0
  0
ACAD_PROXY_OBJECT
  5
9557
102
{ACAD_REACTORS
330
9550
102
}
330
9550
100
AcDbZombieObject
 90
      499
 91
      509
 93
      436
310
42CCD915DA5C99599C985B595059028333333333333E3BF0000000000000FB0107901411070040501600405405064090741402480A0340
1001
ACAD
1000
AcDbSavedByObjectVersion
1070
     0
  0
ACAD_PROXY_OBJECT
  5
9555
102
{ACAD_REACTORS
330
9550
102
}
330
9550
100
AcDbZombieObject
 90
      499
 91
      509
 93
      388
310
4150985CDA58D07406404333333333333E3BF0000000000000FB0107A41107004050150841D405064090741402480A0350
1001
ACAD
1000
AcDbSavedByObjectVersion
1070
     0
  0
ACAD_PROXY_OBJECT
  5
955C
102
{ACAD_REACTORS
330
9550
102
}
330
9550
100
AcDbZombieObject
 90
      499
 91
      509
 93
      428
310
42109C9A59DA1D195B90C409028333333333333E3BF0000000000000FB010790141107004050150841D405064090741402480A029950
1001
ACAD
1000
AcDbSavedByObjectVersion
1070
     0
  0
ACAD_PROXY_OBJECT
  5
9560
102
{ACAD_REACTORS
330
9550
102
}
330
9550
100
AcDbZombieObject
 90
      499
 91
      509
 93
      452
310
42D0DBDB1BDC90DA185B99D95104090240C333333333333E3BF0000000000000FB0108901411070040501508421405064090741402480A0350
1001
ACAD
1000
AcDbSavedByObjectVersion
1070
     0
  0
ACAD_PROXY_OBJECT
  5
9559
102
{ACAD_REACTORS
330
9550
102
}
330
9550
100
AcDbZombieObject
 90
      499
 91
      509
 93
      500
310
4290DBDB98D95C1D1D585B10940D028333333333333E3BF0000000000000FB0107902409070040501000000000000111010841D405064090740C02480A0340
1001
ACAD
1000
AcDbSavedByObjectVersion
1070
     0
  0
ACAD_PROXY_OBJECT
  5
955B
102
{ACAD_REACTORS
330
9550
102
}
330
9550
100
AcDbZombieObject
 90
      499
 91
      509
 93
      412
310
40D11A5B50B409028333333333333E3BF0000000000000FB010790141107004050150841D405064090741402480A02677FFFFFD0
1001
ACAD
1000
AcDbSavedByObjectVersion
1070
     0
  0
ACAD_PROXY_OBJECT
  5
A211
102
{ACAD_REACTORS
330
9550
102
}
330
9550
100
AcDbZombieObject
 90
      499
 91
      509
 93
      452
310
43115919D950DBDB1BDC93D999916409028333333333333E3BF0000000000000FB010790141107004050150841D405064090741402480A0350
1001
ACAD
1000
AcDbSavedByObjectVersion
1070
     0
  0
ACAD_PROXY_OBJECT
  5
955F
102
{ACAD_REACTORS
330
9550
102
}
330
9550
100
AcDbZombieObject
 90
      499
 91
      509
 93
      444
310
42D19858D95C185D1D195C9B90F409028333333333333E3BF0000000000000FB010790141107004050150841D405064090741402480A0350
1001
ACAD
1000
AcDbSavedByObjectVersion
1070
     0
  0
ACAD_PROXY_OBJECT
  5
9551
102
{ACAD_REACTORS
330
9550
102
}
330
9550
100
AcDbZombieObject
 90
      499
 91
      509
 93
      388
310
41119B185D240901404333333333333E3BF0000000000000F9010740A41107004050150841D405064090741402480A1B50
1001
ACAD
1000
AcDbSavedByObjectVersion
1070
     0
  0
ACAD_PROXY_OBJECT
  5
9552
102
{ACAD_REACTORS
330
9550
102
}
330
9550
100
AcDbZombieObject
 90
      499
 91
      509
 93
      476
310
43519B185D15DA5D1A115919D95CD0140901404333333333333E3BF0000000000000F9010740901411070040501600405405064090741402480A1B50
1001
ACAD
1000
AcDbSavedByObjectVersion
1070
     0
  0
ACAD_PROXY_OBJECT
  5
9553
102
{ACAD_REACTORS
330
9550
102
}
330
9550
100
AcDbZombieObject
 90
      499
 91
      509
 93
      412
310
41D1DBDD5C985D5910240902404333333333333E3BF0000000000000F9010740A411070040501641D405064090741402480A1B50
1001
ACAD
1000
AcDbSavedByObjectVersion
1070
     0
  0
ACAD_PROXY_OBJECT
  5
9554
102
{ACAD_REACTORS
330
9550
102
}
330
9550
100
AcDbZombieObject
 90
      499
 91
      509
 93
      500
310
4411DBDD5C985D5915DA5D1A115919D95CD0340902404333333333333E3BF0000000000000F9010740901411070040501600405405064090741402480A1B50
1001
ACAD
1000
AcDbSavedByObjectVersion
1070
     0
  0
ACAD_PROXY_OBJECT
  5
A260
102
{ACAD_REACTORS
330
9550
102
}
330
9550
100
AcDbZombieObject
 90
      499
 91
      509
 93
      476
310
41921A5919195B90640502408333333333333E3BF0000000000000FB01079024090700405020000000000001110200405405064090740C02480A0340
1001
ACAD
1000
AcDbSavedByObjectVersion
1070
     0
  0
ACAD_PROXY_OBJECT
  5
A20F
102
{ACAD_REACTORS
330
9550
102
}
330
9550
100
AcDbZombieObject
 90
      499
 91
      509
 93
      428
310
42529A5D1D195C93D999914409028333333333333E3BF0000000000000FB010790141107004050150A41D405064090741402480A0350
1001
ACAD
1000
AcDbSavedByObjectVersion
1070
     0
  0
ACAD_PROXY_OBJECT
  5
955E
102
{ACAD_REACTORS
330
9550
102
}
330
9550
100
AcDbZombieObject
 90
      499
 91
      509
 93
      444
310
42D31A5B995C185D1D195C9B90E409028333333333333E3BF0000000000000FB010790141107004050750841D405064090741402483A0350
1001
ACAD
1000
AcDbSavedByObjectVersion
1070
     0
  0
ACAD_PROXY_OBJECT
  5
A266
102
{ACAD_REACTORS
330
9550
102
}
330
9550
100
AcDbZombieObject
 90
      499
 91
      509
 93
      484
310
42135BD9195B1A5B99D0A409028333333333333E3BF0000000000000F901074090290700405010000000000201990108421405064090741402480A1B40
1001
ACAD
1000
AcDbSavedByObjectVersion
1070
     0
  0
ACAD_PROXY_OBJECT
  5
A210
102
{ACAD_REACTORS
330
9550
102
}
330
9550
100
AcDbZombieObject
 90
      499
 91
      509
 93
      444
310
42D3DD995C9A185B99D3D999915409028333333333333E3BF0000000000000FB010790141107004050150941D405064090741402480A0350
1001
ACAD
1000
AcDbSavedByObjectVersion
1070
     0
  0
ACAD_PROXY_OBJECT
  5
955A
102
{ACAD_REACTORS
330
9550
102
}
330
9550
100
AcDbZombieObject
 90
      499
 91
      509
 93
      420
310
425499585B1A5CDD1A58D08409028333333333333E3BF0000000000000FB01079019070040501508421405064090741402480A1B40
1001
ACAD
1000
AcDbSavedByObjectVersion
1070
     0
  0
ACAD_PROXY_OBJECT
  5
A265
102
{ACAD_REACTORS
330
9550
102
}
330
9550
100
AcDbZombieObject
 90
      499
 91
      509
 93
      420
310
4194DA1859195911B40902404333333333333E3BF0000000000000F9010740A41107004050150800405405064090840C02480A0B40
1001
ACAD
1000
AcDbSavedByObjectVersion
1070
     0
  0
ACAD_PROXY_OBJECT
  5
A264
102
{ACAD_REACTORS
330
9550
102
}
330
9550
100
AcDbZombieObject
 90
      499
 91
      509
 93
      516
310
4454DA18591959081DDA5D1A08195919D95CD1A40902404333333333333E3BF0000000000000F901074090142907004050250800405405064090740C02480A0B40
1001
ACAD
1000
AcDbSavedByObjectVersion
1070
     0
  0
ACAD_PROXY_OBJECT
  5
A261
102
{ACAD_REACTORS
330
9550
102
}
330
9550
100
AcDbZombieObject
 90
      499
 91
      509
 93
      532
310
4394DA1859195CC81BD98811DC985E5174090240C333333333333E3BF0000000000000FB01079024090741D01000000000000111010841D405064090740C02480A0340
1001
ACAD
1000
AcDbSavedByObjectVersion
1070
     0
  0
ACAD_PROXY_OBJECT
  5
A262
102
{ACAD_REACTORS
330
9550
102
}
330
9550
100
AcDbZombieObject
 90
      499
 91
      509
 93
      476
310
41D4DAD95D18DA1E51840502408333333333333E3BF0000000000000FB01079024090741D01000000000000111010B41D405064090741802480A0340
1001
ACAD
1000
AcDbSavedByObjectVersion
1070
     0
  0
ACAD_PROXY_OBJECT
  5
955D
102
{ACAD_REACTORS
330
9550
102
}
330
9550
100
AcDbZombieObject
 90
      499
 91
      509
 93
      412
310
41D51A1A58DAD95B90D409028333333333333E3BF0000000000000FB010790141107004050150C41D405064090741402480A0350
1001
ACAD
1000
AcDbSavedByObjectVersion
1070
     0
  0
ACAD_PROXY_OBJECT
  5
A25F
102
{ACAD_REACTORS
330
9550
102
}
330
9550
100
AcDbZombieObject
 90
      499
 91
      509
 93
      420
310
4255DA5C99599C985B595059028333333333333E3BF0000000000000FB0107901411070040501600405405064090740C02480A0340
1001
ACAD
1000
AcDbSavedByObjectVersion
1070
     0
  0
ACAD_PROXY_OBJECT
  5
A263
102
{ACAD_REACTORS
330
9550
102
}
330
9550
100
AcDbZombieObject
 90
      499
 91
      509
 93
      404
310
41560B54985E51940902404000000000000E03F0000000000000FB010740501907004050150841D405064090740C02480A1B40
1001
ACAD
1000
AcDbSavedByObjectVersion
1070
     0
  0
XRECORD
  5
C30E
102
{ACAD_REACTORS
330
C30D
102
}
330
C30D
100
AcDbXrecord
340
18D
  0
XRECORD
  5
C30F
102
{ACAD_REACTORS
330
C30D
102
}
330
C30D
100
AcDbXrecord
340
18C
  0
DICTIONARYVAR
  5
AF43
102
{ACAD_REACTORS
330
37
102
}
330
37
100
DictionaryVariables
280
     0
  1
1:1
  0
DICTIONARYVAR
  5
9627
102
{ACAD_REACTORS
330
37
102
}
330
37
100
DictionaryVariables
280
     0
  1
Standard
  0
DICTIONARYVAR
  5
29E
102
{ACAD_REACTORS
330
37
102
}
330
37
100
DictionaryVariables
280
     0
  1
Standard
  0
DICTIONARYVAR
  5
38
102
{ACAD_REACTORS
330
37
102
}
330
37
100
DictionaryVariables
280
     0
  1
-1
  0
DICTIONARYVAR
  5
1CE
102
{ACAD_REACTORS
330
37
102
}
330
37
100
DictionaryVariables
280
     0
  1
2
  0
DICTIONARYVAR
  5
704E
102
{ACAD_REACTORS
330
37
102
}
330
37
100
DictionaryVariables
280
     0
  1
1
  0
DICTIONARYVAR
  5
962A
102
{ACAD_REACTORS
330
37
102
}
330
37
100
DictionaryVariables
280
     0
  1
0
  0
DICTIONARYVAR
  5
7052
102
{ACAD_REACTORS
330
37
102
}
330
37
100
DictionaryVariables
280
     0
  1
8
  0
DICTIONARYVAR
  5
7051
102
{ACAD_REACTORS
330
37
102
}
330
37
100
DictionaryVariables
280
     0
  1
1
  0
DICTIONARYVAR
  5
AB30
102
{ACAD_REACTORS
330
37
102
}
330
37
100
DictionaryVariables
280
     0
  1
0
  0
DICTIONARYVAR
  5
704F
102
{ACAD_REACTORS
330
37
102
}
330
37
100
DictionaryVariables
280
     0
  1
8
  0
DICTIONARYVAR
  5
7050
102
{ACAD_REACTORS
330
37
102
}
330
37
100
DictionaryVariables
280
     0
  1
2
  0
DICTIONARYVAR
  5
1CF
102
{ACAD_REACTORS
330
37
102
}
330
37
100
DictionaryVariables
280
     0
  1

  0
DICTIONARYVAR
  5
9629
102
{ACAD_REACTORS
330
37
102
}
330
37
100
DictionaryVariables
280
     0
  1
127
  0
DICTIONARYVAR
  5
C1B6
102
{ACAD_REACTORS
330
37
102
}
330
37
100
DictionaryVariables
280
     0
  1
2
  0
DICTIONARY
  5
C4AB
330
9540
100
AcDbDictionary
  3
ACAD_XREC_ROUNDTRIP
360
C4AC
1001
ACAD
1000
TREAT_AS_HARD
1070
     1
  0
DICTIONARY
  5
C4AD
330
9538
100
AcDbDictionary
  3
ACAD_XREC_ROUNDTRIP
360
C4AE
1001
ACAD
1000
TREAT_AS_HARD
1070
     1
  0
DICTIONARY
  5
C4AF
330
9548
100
AcDbDictionary
  3
ACAD_XREC_ROUNDTRIP
360
C4B0
1001
ACAD
1000
TREAT_AS_HARD
1070
     1
  0
XRECORD
  5
C4AC
102
{ACAD_REACTORS
330
C4AB
102
}
330
C4AB
100
AcDbXrecord
102
MATERIAL
148
0.0
149
0.0
149
0.0
 93
        0
 94
      127
282
     0
 72
     0
 77
     0
171
     0
175
     0
179
     0
273
     0
  0
XRECORD
  5
C4AE
102
{ACAD_REACTORS
330
C4AD
102
}
330
C4AD
100
AcDbXrecord
102
MATERIAL
148
0.0
149
0.0
149
0.0
 93
        0
 94
      127
282
     0
 72
     0
 77
     0
171
     0
175
     0
179
     0
273
     0
  0
XRECORD
  5
C4B0
102
{ACAD_REACTORS
330
C4AF
102
}
330
C4AF
100
AcDbXrecord
102
MATERIAL
148
0.0
149
0.0
149
0.0
 93
        0
 94
      127
282
     0
 72
     0
 77
     0
171
     0
175
     0
179
     0
273
     0
  0
ENDSEC
  0
EOF
