  0
SECTION
  2
HEADER
  9
$ACADVER
  1
AC1009
  9
$INSBASE
 10
0.0
 20
0.0
 30
0.0
  9
$EXTMIN
 10
511.5349709083884
 20
-216.03728328430711
 30
0.0
  9
$EXTMAX
 10
801.73020980628928
 20
-12.19001840543808
 30
0.0
  9
$LIMMIN
 10
0.0
 20
0.0
  9
$LIMMAX
 10
12.0
 20
9.0
  9
$ORTHOMODE
 70
     0
  9
$REGENMODE
 70
     1
  9
$FILLMODE
 70
     1
  9
$QTEXTMODE
 70
     0
  9
$MIRRTEXT
 70
     0
  9
$DRAGMODE
 70
     2
  9
$LTSCALE
 40
0.5
  9
$OSMODE
 70
    63
  9
$ATTMODE
 70
     1
  9
$TEXTSIZE
 40
2.7999999999999989
  9
$TRACEWID
 40
0.05
  9
$TEXTSTYLE
  7
STANDARD
  9
$CLAYER
  8
1TEXT
  9
$CELTYPE
  6
BYLAYER
  9
$CECOLOR
 62
   256
  9
$DIMSCALE
 40
1.0
  9
$DIMASZ
 40
2.0
  9
$DIMEXO
 40
0.0
  9
$DIMDLI
 40
7.0
  9
$DIMRND
 40
0.0
  9
$DIMDLE
 40
0.0
  9
$DIMEXE
 40
1.0
  9
$DIMTP
 40
0.0
  9
$DIMTM
 40
0.0
  9
$DIMTXT
 40
3.5
  9
$DIMCEN
 40
0.0
  9
$DIMTSZ
 40
0.0
  9
$DIMTOL
 70
     0
  9
$DIMLIM
 70
     0
  9
$DIMTIH
 70
     0
  9
$DIMTOH
 70
     0
  9
$DIMSE1
 70
     0
  9
$DIMSE2
 70
     0
  9
$DIMTAD
 70
     1
  9
$DIMZIN
 70
     8
  9
$DIMBLK
  1

  9
$DIMASO
 70
     1
  9
$DIMSHO
 70
     1
  9
$DIMPOST
  1
 
  9
$DIMAPOST
  1

  9
$DIMALT
 70
     0
  9
$DIMALTD
 70
     2
  9
$DIMALTF
 40
25.399999999999999
  9
$DIMLFAC
 40
1.0
  9
$DIMTOFL
 70
     1
  9
$DIMTVP
 40
0.0
  9
$DIMTIX
 70
     0
  9
$DIMSOXD
 70
     0
  9
$DIMSAH
 70
     1
  9
$DIMBLK1
  1
OPEN30
  9
$DIMBLK2
  1
OPEN30
  9
$DIMSTYLE
  2
NEWX10
  9
$DIMCLRD
 70
   256
  9
$DIMCLRE
 70
   256
  9
$DIMCLRT
 70
   201
  9
$DIMTFAC
 40
0.7
  9
$DIMGAP
 40
0.7
  9
$LUNITS
 70
     2
  9
$LUPREC
 70
     4
  9
$SKETCHINC
 40
0.1
  9
$FILLETRAD
 40
0.0
  9
$AUNITS
 70
     0
  9
$AUPREC
 70
     2
  9
$MENU
  1
acad
  9
$ELEVATION
 40
0.0
  9
$PELEVATION
 40
0.0
  9
$THICKNESS
 40
0.0
  9
$LIMCHECK
 70
     0
  9
$BLIPMODE
 70
     0
  9
$CHAMFERA
 40
0.0
  9
$CHAMFERB
 40
0.0
  9
$SKPOLY
 70
     0
  9
$TDCREATE
 40
2451024.579593021
  9
$TDUPDATE
 40
2457014.6597102778
  9
$TDINDWG
 40
0.9103414236
  9
$TDUSRTIMER
 40
0.9103414236
  9
$USRTIMER
 70
     1
  9
$ANGBASE
 50
0.0
  9
$ANGDIR
 70
     0
  9
$PDMODE
 70
     0
  9
$PDSIZE
 40
0.0
  9
$PLINEWID
 40
0.0
  9
$COORDS
 70
     0
  9
$SPLFRAME
 70
     0
  9
$SPLINETYPE
 70
     6
  9
$SPLINESEGS
 70
     8
  9
$ATTDIA
 70
     0
  9
$ATTREQ
 70
     1
  9
$HANDLING
 70
     1
  9
$HANDSEED
  5
B95E
  9
$SURFTAB1
 70
     6
  9
$SURFTAB2
 70
     6
  9
$SURFTYPE
 70
     6
  9
$SURFU
 70
     6
  9
$SURFV
 70
     6
  9
$UCSNAME
  2

  9
$UCSORG
 10
0.0
 20
0.0
 30
0.0
  9
$UCSXDIR
 10
1.0
 20
0.0
 30
0.0
  9
$UCSYDIR
 10
0.0
 20
1.0
 30
0.0
  9
$PUCSNAME
  2

  9
$PUCSORG
 10
0.0
 20
0.0
 30
0.0
  9
$PUCSXDIR
 10
1.0
 20
0.0
 30
0.0
  9
$PUCSYDIR
 10
0.0
 20
1.0
 30
0.0
  9
$USERI1
 70
     0
  9
$USERI2
 70
     0
  9
$USERI3
 70
     0
  9
$USERI4
 70
     0
  9
$USERI5
 70
     0
  9
$USERR1
 40
0.0
  9
$USERR2
 40
0.0
  9
$USERR3
 40
0.0
  9
$USERR4
 40
0.0
  9
$USERR5
 40
0.0
  9
$WORLDVIEW
 70
     1
  9
$SHADEDGE
 70
     3
  9
$SHADEDIF
 70
    70
  9
$TILEMODE
 70
     1
  9
$MAXACTVP
 70
    48
  9
$PLIMCHECK
 70
     0
  9
$PEXTMIN
 10
1.0000000000000000E+020
 20
1.0000000000000000E+020
 30
1.0000000000000000E+020
  9
$PEXTMAX
 10
-1.0000000000000000E+020
 20
-1.0000000000000000E+020
 30
-1.0000000000000000E+020
  9
$PLIMMIN
 10
0.0
 20
0.0
  9
$PLIMMAX
 10
12.0
 20
9.0
  9
$UNITMODE
 70
     0
  9
$VISRETAIN
 70
     1
  9
$PLINEGEN
 70
     0
  9
$PSLTSCALE
 70
     1
  0
ENDSEC
  0
SECTION
  2
TABLES
  0
TABLE
  2
VPORT
 70
     1
  0
VPORT
  2
*ACTIVE
 70
     0
 10
0.0
 20
0.0
 11
1.0
 21
1.0
 12
656.63558987892986
 22
-114.1119031381606
 13
0.0
 23
0.0
 14
1.0
 24
1.0
 15
0.0
 25
0.0
 16
0.0
 26
0.0
 36
1.0
 17
0.0
 27
0.0
 37
0.0
 40
216.18970060876219
 41
2.1749379652605461
 42
50.0
 43
0.0
 44
0.0
 50
0.0
 51
0.0
 71
     0
 72
   100
 73
     1
 74
     1
 75
     0
 76
     0
 77
     0
 78
     0
  0
ENDTAB
  0
TABLE
  2
LTYPE
 70
    14
  0
LTYPE
  2
CONTINUOUS
 70
     0
  3
Solid line
 72
    65
 73
     0
 40
0.0
  0
LTYPE
  2
CENTER2
 70
     0
  3
Center (.5x) ___ _ ___ _ ___ _ ___ _ ___ _ ___
 72
    65
 73
     4
 40
28.574999999999999
 49
19.050000000000001
 49
-3.1749999999999989
 49
3.1749999999999989
 49
-3.1749999999999989
  0
LTYPE
  2
XREF1|CENTER2
 70
    48
  3
Center (.5x) ___ _ ___ _ ___ _ ___ _ ___ _ ___
 72
    65
 73
     4
 40
28.574999999999999
 49
19.050000000000001
 49
-3.1749999999999989
 49
3.1749999999999989
 49
-3.1749999999999989
  0
LTYPE
  2
A3WAKUDAKE|CENTER2
 70
    48
  3
Center (.5x) ___ _ ___ _ ___ _ ___ _ ___ _ ___
 72
    65
 73
     4
 40
28.574999999999999
 49
19.050000000000001
 49
-3.1749999999999989
 49
3.1749999999999989
 49
-3.1749999999999989
  0
ENDTAB
  0
TABLE
  2
LAYER
 70
    47
  0
LAYER
  2
0
 70
     0
 62
     7
  6
CONTINUOUS
  0
LAYER
  2
1CENTER
 70
     0
 62
     7
  6
CENTER2
  0
LAYER
  2
1DIM
 70
     0
 62
     7
  6
CONTINUOUS
  0
LAYER
  2
1TEXT
 70
     0
 62
     7
  6
CONTINUOUS
  0
LAYER
  2
1HATCH
 70
     0
 62
     7
  6
CONTINUOUS
  0
LAYER
  2
01
 70
     0
 62
     1
  6
CONTINUOUS
  0
LAYER
  2
A3WAKUDAKE|THICK
 70
    48
 62
     7
  6
CONTINUOUS
  0
LAYER
  2
A3WAKUDAKE|POINT
 70
    48
 62
     7
  6
CONTINUOUS
  0
LAYER
  2
A3WAKUDAKE|1CENTER
 70
    48
 62
     7
  6
A3WAKUDAKE|CENTER2
  0
LAYER
  2
A3WAKUDAKE|0-6
 70
    48
 62
     7
  6
CONTINUOUS
  0
LAYER
  2
A3WAKUDAKE|1DIM
 70
    48
 62
     7
  6
CONTINUOUS
  0
LAYER
  2
XREF1|1CENTER
 70
    48
 62
     7
  6
XREF1|CENTER2
  0
ENDTAB
  0
TABLE
  2
STYLE
 70
    22
  0
STYLE
  2
STANDARD
 70
     0
 40
0.0
 41
1.0
 50
0.0
 71
     0
 42
2.7999999999999989
  3
txt.shx
  4
extfont.shx
  0
ENDTAB
  0
TABLE
  2
VIEW
 70
     6
  0
VIEW
  2
A
 70
     0
 40
163.88865421183439
 10
23.75874513620715
 20
-310.52391195898861
 41
232.0683926202114
 11
0.0
 21
0.0
 31
1.0
 12
0.0
 22
0.0
 32
0.0
 42
50.0
 43
0.0
 44
0.0
 50
0.0
 71
     0
  0
ENDTAB
  0
TABLE
  2
UCS
 70
     0
  0
ENDTAB
  0
TABLE
  2
APPID
 70
    13
  0
APPID
  2
ACAD
 70
     0
  0
APPID
  2
CONTENTBLOCKICON
 70
     0
  0
APPID
  2
CONTENTBLOCKDESCRIPTION
 70
     0
  0
APPID
  2
CONTENTTABDATA
 70
     0
  0
APPID
  2
CONTENTCURRENTTAB
 70
     0
  0
APPID
  2
DRAWINGVARIABLESXDATA
 70
     0
  0
APPID
  2
CONTENTLONGBLOCKNAME
 70
     0
  0
APPID
  2
ACAD_MLEADERVER
 70
     0
  0
APPID
  2
ACADANNOTATIVE
 70
     0
  0
APPID
  2
ACAD_PSEXT
 70
     0
  0
APPID
  2
ACAD_NAV_VCDISPLAY
 70
     0
  0
APPID
  2
ACAD_EXEMPT_FROM_CAD_STANDARDS
 70
     0
  0
APPID
  2
ACLAYERTOOLS
 70
     0
  0
ENDTAB
  0
TABLE
  2
DIMSTYLE
 70
     8
  0
DIMSTYLE
  2
NEWX10
 70
     0
  3
 
  4

  5

  6
OPEN30
  7
OPEN30
 40
1.0
 41
2.0
 42
0.0
 43
7.0
 44
1.0
 45
0.0
 46
0.0
 47
0.0
 48
0.0
140
3.5
141
0.0
142
0.0
143
25.399999999999999
144
1.0
145
0.0
146
0.7
147
0.7
 71
     0
 72
     0
 73
     0
 74
     0
 75
     0
 76
     0
 77
     1
 78
     8
170
     0
171
     2
172
     1
173
     1
174
     0
175
     0
176
   256
177
   256
178
   201
  0
ENDTAB
  0
ENDSEC
  0
SECTION
  2
BLOCKS
  0
BLOCK
  8
0
  2
$MODEL_SPACE
 70
     0
 10
0.0
 20
0.0
 30
0.0
  3
$MODEL_SPACE
  1

  0
ENDBLK
  5
1A
  8
0
  0
BLOCK
 67
     1
  8
0
  2
$PAPER_SPACE
 70
     0
 10
0.0
 20
0.0
 30
0.0
  3
$PAPER_SPACE
  1

  0
ENDBLK
  5
17
 67
     1
  8
0
  0
BLOCK
  8
0
  2
XREF1
 70
    36
 10
0.0
 20
0.0
 30
0.0
  3
XREF1
  1
D:\ACLT\FORMAT\KAWAJUN(9)図面用.dwg
  0
ENDBLK
  5
37B8
  8
0
  0
BLOCK
  8
0
  2
_OPEN30
 70
     0
 10
0.0
 20
0.0
 30
0.0
  3
_OPEN30
  1

  0
LINE
  5
3854
  8
0
  6
BYBLOCK
 62
     0
 10
-1.0
 20
0.26794919
 30
0.0
 11
0.0
 21
0.0
 31
0.0
  0
LINE
  5
3855
  8
0
  6
BYBLOCK
 62
     0
 10
0.0
 20
0.0
 30
0.0
 11
-1.0
 21
-0.26794919
 31
0.0
  0
LINE
  5
3856
  8
0
  6
BYBLOCK
 62
     0
 10
0.0
 20
0.0
 30
0.0
 11
-1.0
 21
0.0
 31
0.0
  0
ENDBLK
  5
3858
  8
0
  0
BLOCK
  8
0
  2
A3WAKUDAKE
 70
    36
 10
0.0
 20
0.0
 30
0.0
  3
A3WAKUDAKE
  1
D:\ACLT\FORMAT\A3WAKUdake.dwg
  0
ENDBLK
  5
B27C
  8
0
  0
ENDSEC
  0
SECTION
  2
ENTITIES
  0
LINE
  5
973C
  8
1CENTER
 10
512.37202852459654
 20
-187.30209723431409
 30
0.0
 11
568.7107997724097
 21
-187.30209723431051
 31
0.0
  0
LINE
  5
973F
  8
1CENTER
 10
540.80571396850075
 20
-158.1125737535024
 30
0.0
 11
540.80571396849984
 21
-216.03728328430711
 31
0.0
  0
LINE
  5
974B
  8
1CENTER
 10
540.80571396850053
 20
-103.02144618292419
 30
0.0
 11
540.80571396850053
 21
-125.9478100181701
 31
0.0
  0
LINE
  5
98FD
  8
1CENTER
 10
724.7668484546125
 20
-92.633749736008326
 30
0.0
 11
724.7668484546125
 21
-135.95645566784589
 31
0.0
  0
CIRCLE
  5
A778
  8
01
 10
540.80571396850041
 20
-187.3020972343123
 30
0.0
 40
9.2500004828441131
  0
CIRCLE
  5
A779
  8
01
 10
540.80571396850041
 20
-187.3020972343123
 30
0.0
 40
8.0500004391330151
  0
CIRCLE
  5
A94F
  8
01
 10
540.80571396850041
 20
-187.30209723431221
 30
0.0
 40
9.5000000000077307
  0
CIRCLE
  5
A958
  8
01
 10
540.80571396850041
 20
-187.3020972343123
 30
0.0
 40
25.0
  0
LINE
  5
A959
  8
01
 10
515.80571396850041
 20
-109.9090162082888
 30
0.0
 11
565.80571396850041
 21
-109.9090162082869
 31
0.0
  0
LINE
  5
A95B
  8
01
 10
516.30571396849814
 20
-118.40901620828861
 30
0.0
 11
565.30571396850041
 21
-118.40901620828529
 31
0.0
  0
LINE
  5
A95E
  8
01
 10
565.80571396850041
 20
-109.9090162082868
 30
0.0
 11
565.80571396850041
 21
-117.90901620828519
 31
0.0
  0
ARC
  5
A95F
  8
01
 10
565.30571396850041
 20
-117.90901620828529
 30
0.0
 40
0.5
 50
270.00000000000648
 51
0.0
  0
LINE
  5
A960
  8
01
 10
515.80571396850041
 20
-109.9090162082889
 30
0.0
 11
515.80571396849814
 21
-117.90901620828841
 31
0.0
  0
ARC
  5
A963
  8
01
 10
516.30571396849814
 20
-117.9090162082887
 30
0.0
 40
0.5
 50
179.99999999998039
 51
270.00000000000648
  0
LINE
  5
A9AB
  8
01
 10
749.26684845461489
 20
-128.71701480473689
 30
0.0
 11
700.26684845461273
 21
-128.7170148047334
 31
0.0
  0
LINE
  5
A9AD
  8
01
 10
699.76684845461273
 20
-120.2170148047351
 30
0.0
 11
699.76684845461273
 21
-128.21701480473351
 31
0.0
  0
ARC
  5
A9AE
  8
01
 10
700.26684845461273
 20
-128.21701480473351
 30
0.0
 40
0.5
 50
180.0
 51
269.99999999999352
  0
LINE
  5
A9AF
  8
01
 10
749.76684845461273
 20
-120.2170148047371
 30
0.0
 11
749.76684845461489
 21
-128.21701480473661
 31
0.0
  0
ARC
  5
A9B2
  8
01
 10
749.26684845461489
 20
-128.21701480473689
 30
0.0
 40
0.5
 50
269.99999999999352
 51
0.0000000000195286
  0
LINE
  5
ABD3
  8
01
 10
550.05571357072699
 20
-119.009017355712
 30
0.0
 11
531.55571357072733
 21
-119.009016547051
 31
0.0
  0
LINE
  5
ABD9
  8
01
 10
550.05571357072699
 20
-119.009017355712
 30
0.0
 11
550.05571359695375
 21
-118.4090162082864
 31
0.0
  0
LINE
  5
ABDE
  8
01
 10
531.55571357072733
 20
-119.009016547051
 30
0.0
 11
531.55571359695398
 21
-118.4090162082876
 31
0.0
  0
LINE
  5
AC64
  8
01
 10
734.01684805683897
 20
-129.3170159521602
 30
0.0
 11
715.51684805683919
 21
-129.31701514349919
 31
0.0
  0
LINE
  5
AC6A
  8
01
 10
734.01684805683897
 20
-129.3170159521602
 30
0.0
 11
734.01684808306595
 21
-128.7170148047357
 31
0.0
  0
LINE
  5
AC6F
  8
01
 10
715.51684805683919
 20
-129.31701514349919
 30
0.0
 11
715.51684808306618
 21
-128.71701480473439
 31
0.0
  0
LINE
  5
AF4B
  8
01
 10
749.76684845461409
 20
-120.2170148047352
 30
0.0
 11
699.76684845461409
 21
-120.217014804737
 31
0.0
  0
LINE
  5
AF4C
  8
1CENTER
 10
696.33316301070874
 20
-187.30209723431409
 30
0.0
 11
752.67193425852201
 21
-187.30209723431051
 31
0.0
  0
LINE
  5
AF4D
  8
1CENTER
 10
724.76684845461318
 20
-158.1125737535024
 30
0.0
 11
724.76684845461227
 21
-216.03728328430711
 31
0.0
  0
CIRCLE
  5
AF4E
  8
01
 10
724.76684845461273
 20
-187.3020972343123
 30
0.0
 40
9.2500004828441131
  0
CIRCLE
  5
AF4F
  8
01
 10
724.76684845461273
 20
-187.3020972343123
 30
0.0
 40
8.0500004391330151
  0
CIRCLE
  5
AF50
  8
01
 10
724.76684845461273
 20
-187.30209723431221
 30
0.0
 40
9.5000000000077307
  0
CIRCLE
  5
AF51
  8
01
 10
724.76684845461273
 20
-187.3020972343123
 30
0.0
 40
25.0
  0
LINE
  5
AF5C
  8
1CENTER
 10
617.88152155861656
 20
-187.30209723431241
 30
0.0
 11
605.40346944781982
 21
-187.30209723431241
 31
0.0
  0
LINE
  5
AF5D
  8
01
 10
615.78118809245098
 20
-162.30209723431221
 30
0.0
 11
615.78118809245291
 21
-212.3020972343123
 31
0.0
  0
LINE
  5
AF5E
  8
01
 10
607.28118809245109
 20
-162.80209723431
 30
0.0
 11
607.28118809245461
 21
-211.8020972343123
 31
0.0
  0
LINE
  5
AF5F
  8
01
 10
615.78118809245302
 20
-212.3020972343123
 30
0.0
 11
607.78118809245461
 21
-212.3020972343123
 31
0.0
  0
ARC
  5
AF60
  8
01
 10
607.78118809245461
 20
-211.8020972343123
 30
0.0
 40
0.5
 50
180.00000000000651
 51
270.0
  0
LINE
  5
AF61
  8
01
 10
615.78118809245086
 20
-162.30209723431221
 30
0.0
 11
607.78118809245143
 21
-162.30209723431
 31
0.0
  0
ARC
  5
AF62
  8
01
 10
607.7811880924512
 20
-162.80209723431
 30
0.0
 40
0.5
 50
89.99999999998046
 51
180.00000000000651
  0
LINE
  5
AF63
  8
01
 10
606.68118694502789
 20
-196.55209683653879
 30
0.0
 11
606.68118775368885
 21
-178.05209683653919
 31
0.0
  0
LINE
  5
AF64
  8
01
 10
606.68118694502789
 20
-196.55209683653879
 30
0.0
 11
607.28118809245336
 21
-196.55209686276569
 31
0.0
  0
LINE
  5
AF65
  8
01
 10
606.68118775368885
 20
-178.05209683653919
 30
0.0
 11
607.28118809245223
 21
-178.05209686276601
 31
0.0
  0
LINE
  5
AF66
  8
1CENTER
 10
628.19792302372423
 20
-187.30209723431241
 30
0.0
 11
666.15890673593492
 21
-187.30209723431241
 31
0.0
  0
LINE
  5
AF67
  8
01
 10
664.28118809245279
 20
-162.80209723431
 30
0.0
 11
664.28118809244938
 21
-211.8020972343123
 31
0.0
  0
LINE
  5
AF68
  8
01
 10
655.78118809245098
 20
-212.3020972343123
 30
0.0
 11
663.78118809244938
 21
-212.3020972343123
 31
0.0
  0
ARC
  5
AF69
  8
01
 10
663.78118809244938
 20
-211.8020972343123
 30
0.0
 40
0.5
 50
270.0
 51
359.99999999999352
  0
LINE
  5
AF6A
  8
01
 10
655.78118809245302
 20
-162.30209723431221
 30
0.0
 11
663.78118809245245
 21
-162.30209723431
 31
0.0
  0
ARC
  5
AF6B
  8
01
 10
663.78118809245279
 20
-162.80209723431
 30
0.0
 40
0.5
 50
359.99999999999352
 51
90.000000000019526
  0
LINE
  5
AF6C
  8
01
 10
664.88118923987611
 20
-178.052097632086
 30
0.0
 11
664.88118843121515
 21
-196.55209763208569
 31
0.0
  0
LINE
  5
AF6D
  8
01
 10
664.88118923987611
 20
-178.052097632086
 30
0.0
 11
664.28118809245154
 21
-178.0520976058591
 31
0.0
  0
LINE
  5
AF6E
  8
01
 10
664.88118843121515
 20
-196.55209763208569
 30
0.0
 11
664.28118809245029
 21
-196.5520976058589
 31
0.0
  0
ARC
  5
AF6F
  8
01
 10
654.98119001414682
 20
-191.10210522518801
 30
0.0
 40
0.8
 50
0.0000025044719588
 51
90.000002504468682
  0
ARC
  5
AF70
  8
01
 10
654.9811896819408
 20
-183.50210522518799
 30
0.0
 40
0.8
 50
270.00000250446868
 51
0.0000025044719588
  0
LINE
  5
AF71
  8
01
 10
630.78118971690992
 20
-184.30210628300051
 30
0.0
 11
630.78118997917795
 21
-190.3021062830004
 31
0.0
  0
LINE
  5
AF72
  8
01
 10
654.98118997917777
 20
-190.302105225188
 30
0.0
 11
630.78118997917795
 21
-190.3021062830004
 31
0.0
  0
LINE
  5
AF73
  8
01
 10
654.98118971690985
 20
-184.30210522518789
 30
0.0
 11
630.78118971690992
 21
-184.30210628300051
 31
0.0
  0
LINE
  5
AF74
  8
01
 10
655.78118809245109
 20
-162.30209723431079
 30
0.0
 11
655.78118809245279
 21
-212.30209723431079
 31
0.0
  0
ARC
  5
B200
  8
01
 10
745.56684845461257
 20
-119.4170138955408
 30
0.0
 40
0.8
 50
180.0
 51
270.00000250447522
  0
ARC
  5
B201
  8
01
 10
737.96684845461255
 20
-119.4170142277469
 30
0.0
 40
0.8
 50
270.00000250447522
 51
0.0
  0
LINE
  5
B202
  8
01
 10
738.86211094495707
 20
-95.217014188613874
 30
0.0
 11
744.76684845461273
 21
-95.217013930509964
 31
0.0
  0
LINE
  5
B203
  8
1CENTER
 10
741.76684845461273
 20
-124.8078162009941
 30
0.0
 11
741.76684845461273
 21
-93.625496934723856
 31
0.0
  0
LINE
  5
B204
  8
01
 10
738.76684845461261
 20
-119.4170142277469
 30
0.0
 11
738.76684845461261
 21
-113.2170141927779
 31
0.0
  0
LINE
  5
B205
  8
01
 10
744.76684845461273
 20
-119.4170138955408
 30
0.0
 11
744.76684845461273
 21
-95.217013930509964
 31
0.0
  0
LINE
  5
B206
  8
01
 10
738.86211094495707
 20
-112.4670141927779
 30
0.0
 11
738.86211094495707
 21
-95.217014188613874
 31
0.0
  0
POLYLINE
  5
B207
  8
01
 10
738.76684845461261
 20
-113.2170141927779
 30
0.0
 66
     1
 70
     8
  0
VERTEX
  8
01
  5
B85A
 10
738.767
 20
-113.217
 30
0.000000
  70
    32
  0
VERTEX
  8
01
  5
B85B
 10
738.768
 20
-113.217
 30
0.000000
  70
    32
  0
VERTEX
  8
01
  5
B85C
 10
738.769
 20
-113.217
 30
0.000000
  70
    32
  0
VERTEX
  8
01
  5
B85D
 10
738.770
 20
-113.217
 30
0.000000
  70
    32
  0
VERTEX
  8
01
  5
B85E
 10
738.772
 20
-113.216
 30
0.000000
  70
    32
  0
VERTEX
  8
01
  5
B85F
 10
738.773
 20
-113.216
 30
0.000000
  70
    32
  0
VERTEX
  8
01
  5
B860
 10
738.774
 20
-113.215
 30
0.000000
  70
    32
  0
VERTEX
  8
01
  5
B861
 10
738.775
 20
-113.214
 30
0.000000
  70
    32
  0
VERTEX
  8
01
  5
B862
 10
738.776
 20
-113.213
 30
0.000000
  70
    32
  0
VERTEX
  8
01
  5
B863
 10
738.777
 20
-113.212
 30
0.000000
  70
    32
  0
VERTEX
  8
01
  5
B864
 10
738.779
 20
-113.211
 30
0.000000
  70
    32
  0
VERTEX
  8
01
  5
B865
 10
738.780
 20
-113.210
 30
0.000000
  70
    32
  0
VERTEX
  8
01
  5
B866
 10
738.781
 20
-113.209
 30
0.000000
  70
    32
  0
VERTEX
  8
01
  5
B867
 10
738.782
 20
-113.207
 30
0.000000
  70
    32
  0
VERTEX
  8
01
  5
B868
 10
738.783
 20
-113.206
 30
0.000000
  70
    32
  0
VERTEX
  8
01
  5
B869
 10
738.784
 20
-113.204
 30
0.000000
  70
    32
  0
VERTEX
  8
01
  5
B86A
 10
738.785
 20
-113.203
 30
0.000000
  70
    32
  0
VERTEX
  8
01
  5
B86B
 10
738.787
 20
-113.201
 30
0.000000
  70
    32
  0
VERTEX
  8
01
  5
B86C
 10
738.788
 20
-113.199
 30
0.000000
  70
    32
  0
VERTEX
  8
01
  5
B86D
 10
738.789
 20
-113.197
 30
0.000000
  70
    32
  0
VERTEX
  8
01
  5
B86E
 10
738.790
 20
-113.195
 30
0.000000
  70
    32
  0
VERTEX
  8
01
  5
B86F
 10
738.791
 20
-113.192
 30
0.000000
  70
    32
  0
VERTEX
  8
01
  5
B870
 10
738.792
 20
-113.190
 30
0.000000
  70
    32
  0
VERTEX
  8
01
  5
B871
 10
738.793
 20
-113.187
 30
0.000000
  70
    32
  0
VERTEX
  8
01
  5
B872
 10
738.795
 20
-113.185
 30
0.000000
  70
    32
  0
VERTEX
  8
01
  5
B873
 10
738.796
 20
-113.182
 30
0.000000
  70
    32
  0
VERTEX
  8
01
  5
B874
 10
738.797
 20
-113.179
 30
0.000000
  70
    32
  0
VERTEX
  8
01
  5
B875
 10
738.798
 20
-113.176
 30
0.000000
  70
    32
  0
VERTEX
  8
01
  5
B876
 10
738.799
 20
-113.173
 30
0.000000
  70
    32
  0
VERTEX
  8
01
  5
B877
 10
738.800
 20
-113.170
 30
0.000000
  70
    32
  0
VERTEX
  8
01
  5
B878
 10
738.801
 20
-113.167
 30
0.000000
  70
    32
  0
VERTEX
  8
01
  5
B879
 10
738.802
 20
-113.163
 30
0.000000
  70
    32
  0
VERTEX
  8
01
  5
B87A
 10
738.803
 20
-113.160
 30
0.000000
  70
    32
  0
VERTEX
  8
01
  5
B87B
 10
738.804
 20
-113.156
 30
0.000000
  70
    32
  0
VERTEX
  8
01
  5
B87C
 10
738.805
 20
-113.153
 30
0.000000
  70
    32
  0
VERTEX
  8
01
  5
B87D
 10
738.807
 20
-113.149
 30
0.000000
  70
    32
  0
VERTEX
  8
01
  5
B87E
 10
738.808
 20
-113.145
 30
0.000000
  70
    32
  0
VERTEX
  8
01
  5
B87F
 10
738.809
 20
-113.141
 30
0.000000
  70
    32
  0
VERTEX
  8
01
  5
B880
 10
738.810
 20
-113.137
 30
0.000000
  70
    32
  0
VERTEX
  8
01
  5
B881
 10
738.811
 20
-113.133
 30
0.000000
  70
    32
  0
VERTEX
  8
01
  5
B882
 10
738.812
 20
-113.128
 30
0.000000
  70
    32
  0
VERTEX
  8
01
  5
B883
 10
738.813
 20
-113.124
 30
0.000000
  70
    32
  0
VERTEX
  8
01
  5
B884
 10
738.814
 20
-113.120
 30
0.000000
  70
    32
  0
VERTEX
  8
01
  5
B885
 10
738.815
 20
-113.115
 30
0.000000
  70
    32
  0
VERTEX
  8
01
  5
B886
 10
738.816
 20
-113.110
 30
0.000000
  70
    32
  0
VERTEX
  8
01
  5
B887
 10
738.817
 20
-113.106
 30
0.000000
  70
    32
  0
VERTEX
  8
01
  5
B888
 10
738.818
 20
-113.101
 30
0.000000
  70
    32
  0
VERTEX
  8
01
  5
B889
 10
738.819
 20
-113.096
 30
0.000000
  70
    32
  0
VERTEX
  8
01
  5
B88A
 10
738.820
 20
-113.091
 30
0.000000
  70
    32
  0
VERTEX
  8
01
  5
B88B
 10
738.821
 20
-113.085
 30
0.000000
  70
    32
  0
VERTEX
  8
01
  5
B88C
 10
738.822
 20
-113.080
 30
0.000000
  70
    32
  0
VERTEX
  8
01
  5
B88D
 10
738.823
 20
-113.075
 30
0.000000
  70
    32
  0
VERTEX
  8
01
  5
B88E
 10
738.824
 20
-113.069
 30
0.000000
  70
    32
  0
VERTEX
  8
01
  5
B88F
 10
738.825
 20
-113.064
 30
0.000000
  70
    32
  0
VERTEX
  8
01
  5
B890
 10
738.825
 20
-113.058
 30
0.000000
  70
    32
  0
VERTEX
  8
01
  5
B891
 10
738.826
 20
-113.053
 30
0.000000
  70
    32
  0
VERTEX
  8
01
  5
B892
 10
738.827
 20
-113.047
 30
0.000000
  70
    32
  0
VERTEX
  8
01
  5
B893
 10
738.828
 20
-113.041
 30
0.000000
  70
    32
  0
VERTEX
  8
01
  5
B894
 10
738.829
 20
-113.035
 30
0.000000
  70
    32
  0
VERTEX
  8
01
  5
B895
 10
738.830
 20
-113.029
 30
0.000000
  70
    32
  0
VERTEX
  8
01
  5
B896
 10
738.831
 20
-113.023
 30
0.000000
  70
    32
  0
VERTEX
  8
01
  5
B897
 10
738.832
 20
-113.017
 30
0.000000
  70
    32
  0
VERTEX
  8
01
  5
B898
 10
738.833
 20
-113.010
 30
0.000000
  70
    32
  0
VERTEX
  8
01
  5
B899
 10
738.833
 20
-113.004
 30
0.000000
  70
    32
  0
VERTEX
  8
01
  5
B89A
 10
738.834
 20
-112.997
 30
0.000000
  70
    32
  0
VERTEX
  8
01
  5
B89B
 10
738.835
 20
-112.991
 30
0.000000
  70
    32
  0
VERTEX
  8
01
  5
B89C
 10
738.836
 20
-112.984
 30
0.000000
  70
    32
  0
VERTEX
  8
01
  5
B89D
 10
738.837
 20
-112.977
 30
0.000000
  70
    32
  0
VERTEX
  8
01
  5
B89E
 10
738.837
 20
-112.971
 30
0.000000
  70
    32
  0
VERTEX
  8
01
  5
B89F
 10
738.838
 20
-112.964
 30
0.000000
  70
    32
  0
VERTEX
  8
01
  5
B8A0
 10
738.839
 20
-112.957
 30
0.000000
  70
    32
  0
VERTEX
  8
01
  5
B8A1
 10
738.840
 20
-112.950
 30
0.000000
  70
    32
  0
VERTEX
  8
01
  5
B8A2
 10
738.840
 20
-112.943
 30
0.000000
  70
    32
  0
VERTEX
  8
01
  5
B8A3
 10
738.841
 20
-112.936
 30
0.000000
  70
    32
  0
VERTEX
  8
01
  5
B8A4
 10
738.842
 20
-112.928
 30
0.000000
  70
    32
  0
VERTEX
  8
01
  5
B8A5
 10
738.843
 20
-112.921
 30
0.000000
  70
    32
  0
VERTEX
  8
01
  5
B8A6
 10
738.843
 20
-112.914
 30
0.000000
  70
    32
  0
VERTEX
  8
01
  5
B8A7
 10
738.844
 20
-112.906
 30
0.000000
  70
    32
  0
VERTEX
  8
01
  5
B8A8
 10
738.845
 20
-112.899
 30
0.000000
  70
    32
  0
VERTEX
  8
01
  5
B8A9
 10
738.845
 20
-112.891
 30
0.000000
  70
    32
  0
VERTEX
  8
01
  5
B8AA
 10
738.846
 20
-112.884
 30
0.000000
  70
    32
  0
VERTEX
  8
01
  5
B8AB
 10
738.847
 20
-112.876
 30
0.000000
  70
    32
  0
VERTEX
  8
01
  5
B8AC
 10
738.847
 20
-112.868
 30
0.000000
  70
    32
  0
VERTEX
  8
01
  5
B8AD
 10
738.848
 20
-112.860
 30
0.000000
  70
    32
  0
VERTEX
  8
01
  5
B8AE
 10
738.849
 20
-112.853
 30
0.000000
  70
    32
  0
VERTEX
  8
01
  5
B8AF
 10
738.849
 20
-112.845
 30
0.000000
  70
    32
  0
VERTEX
  8
01
  5
B8B0
 10
738.850
 20
-112.837
 30
0.000000
  70
    32
  0
VERTEX
  8
01
  5
B8B1
 10
738.850
 20
-112.829
 30
0.000000
  70
    32
  0
VERTEX
  8
01
  5
B8B2
 10
738.851
 20
-112.821
 30
0.000000
  70
    32
  0
VERTEX
  8
01
  5
B8B3
 10
738.851
 20
-112.812
 30
0.000000
  70
    32
  0
VERTEX
  8
01
  5
B8B4
 10
738.852
 20
-112.804
 30
0.000000
  70
    32
  0
VERTEX
  8
01
  5
B8B5
 10
738.852
 20
-112.796
 30
0.000000
  70
    32
  0
VERTEX
  8
01
  5
B8B6
 10
738.853
 20
-112.788
 30
0.000000
  70
    32
  0
VERTEX
  8
01
  5
B8B7
 10
738.853
 20
-112.779
 30
0.000000
  70
    32
  0
VERTEX
  8
01
  5
B8B8
 10
738.854
 20
-112.771
 30
0.000000
  70
    32
  0
VERTEX
  8
01
  5
B8B9
 10
738.854
 20
-112.763
 30
0.000000
  70
    32
  0
VERTEX
  8
01
  5
B8BA
 10
738.855
 20
-112.754
 30
0.000000
  70
    32
  0
VERTEX
  8
01
  5
B8BB
 10
738.855
 20
-112.746
 30
0.000000
  70
    32
  0
VERTEX
  8
01
  5
B8BC
 10
738.856
 20
-112.737
 30
0.000000
  70
    32
  0
VERTEX
  8
01
  5
B8BD
 10
738.856
 20
-112.728
 30
0.000000
  70
    32
  0
VERTEX
  8
01
  5
B8BE
 10
738.857
 20
-112.720
 30
0.000000
  70
    32
  0
VERTEX
  8
01
  5
B8BF
 10
738.857
 20
-112.711
 30
0.000000
  70
    32
  0
VERTEX
  8
01
  5
B8C0
 10
738.857
 20
-112.702
 30
0.000000
  70
    32
  0
VERTEX
  8
01
  5
B8C1
 10
738.858
 20
-112.694
 30
0.000000
  70
    32
  0
VERTEX
  8
01
  5
B8C2
 10
738.858
 20
-112.685
 30
0.000000
  70
    32
  0
VERTEX
  8
01
  5
B8C3
 10
738.858
 20
-112.676
 30
0.000000
  70
    32
  0
VERTEX
  8
01
  5
B8C4
 10
738.859
 20
-112.667
 30
0.000000
  70
    32
  0
VERTEX
  8
01
  5
B8C5
 10
738.859
 20
-112.658
 30
0.000000
  70
    32
  0
VERTEX
  8
01
  5
B8C6
 10
738.859
 20
-112.649
 30
0.000000
  70
    32
  0
VERTEX
  8
01
  5
B8C7
 10
738.860
 20
-112.640
 30
0.000000
  70
    32
  0
VERTEX
  8
01
  5
B8C8
 10
738.860
 20
-112.631
 30
0.000000
  70
    32
  0
VERTEX
  8
01
  5
B8C9
 10
738.860
 20
-112.622
 30
0.000000
  70
    32
  0
VERTEX
  8
01
  5
B8CA
 10
738.860
 20
-112.613
 30
0.000000
  70
    32
  0
VERTEX
  8
01
  5
B8CB
 10
738.861
 20
-112.604
 30
0.000000
  70
    32
  0
VERTEX
  8
01
  5
B8CC
 10
738.861
 20
-112.595
 30
0.000000
  70
    32
  0
VERTEX
  8
01
  5
B8CD
 10
738.861
 20
-112.586
 30
0.000000
  70
    32
  0
VERTEX
  8
01
  5
B8CE
 10
738.861
 20
-112.577
 30
0.000000
  70
    32
  0
VERTEX
  8
01
  5
B8CF
 10
738.861
 20
-112.568
 30
0.000000
  70
    32
  0
VERTEX
  8
01
  5
B8D0
 10
738.861
 20
-112.559
 30
0.000000
  70
    32
  0
VERTEX
  8
01
  5
B8D1
 10
738.862
 20
-112.550
 30
0.000000
  70
    32
  0
VERTEX
  8
01
  5
B8D2
 10
738.862
 20
-112.541
 30
0.000000
  70
    32
  0
VERTEX
  8
01
  5
B8D3
 10
738.862
 20
-112.531
 30
0.000000
  70
    32
  0
VERTEX
  8
01
  5
B8D4
 10
738.862
 20
-112.522
 30
0.000000
  70
    32
  0
VERTEX
  8
01
  5
B8D5
 10
738.862
 20
-112.513
 30
0.000000
  70
    32
  0
VERTEX
  8
01
  5
B8D6
 10
738.862
 20
-112.504
 30
0.000000
  70
    32
  0
VERTEX
  8
01
  5
B8D7
 10
738.862
 20
-112.495
 30
0.000000
  70
    32
  0
VERTEX
  8
01
  5
B8D8
 10
738.862
 20
-112.485
 30
0.000000
  70
    32
  0
VERTEX
  8
01
  5
B8D9
 10
738.862
 20
-112.476
 30
0.000000
  70
    32
  0
VERTEX
  8
01
  5
B8DA
 10
738.862
 20
-112.467
 30
0.000000
  70
    32
  0
SEQEND
  8
01
  5
B8DB
  0
ARC
  5
B208
  8
01
 10
703.96684838467445
 20
-119.4170157139334
 30
0.0
 40
0.8
 50
270.0000025044817
 51
0.0000050089536519
  0
ARC
  5
B209
  8
01
 10
711.56684838467447
 20
-119.4170153817267
 30
0.0
 40
0.8
 50
180.00000500895359
 51
270.0000025044817
  0
LINE
  5
B20A
  8
01
 10
710.67158377870032
 20
-95.217015420860164
 30
0.0
 11
704.76684626904466
 21
-95.217015678964486
 31
0.0
  0
LINE
  5
B20B
  8
1CENTER
 10
707.76684885595284
 20
-124.8078162009941
 30
0.0
 11
707.76684612990994
 21
-93.625498420910176
 31
0.0
  0
LINE
  5
B20C
  8
01
 10
710.76684838467452
 20
-119.41701545166489
 30
0.0
 11
710.76684784265365
 21
-113.217015416696
 31
0.0
  0
LINE
  5
B20D
  8
01
 10
704.76684838467452
 20
-119.4170156439952
 30
0.0
 11
704.76684626904466
 21
-95.217015678964486
 31
0.0
  0
LINE
  5
B20E
  8
01
 10
710.67158528674213
 20
-112.4670154250241
 30
0.0
 11
710.67158377870032
 21
-95.217015420860164
 31
0.0
  0
POLYLINE
  5
B20F
  8
01
 10
710.76684784265353
 20
-113.217015416696
 30
0.0
 66
     1
 70
     8
  0
VERTEX
  8
01
  5
B8DC
 10
710.767
 20
-113.217
 30
0.000000
  70
    32
  0
VERTEX
  8
01
  5
B8DD
 10
710.766
 20
-113.217
 30
0.000000
  70
    32
  0
VERTEX
  8
01
  5
B8DE
 10
710.765
 20
-113.217
 30
0.000000
  70
    32
  0
VERTEX
  8
01
  5
B8DF
 10
710.763
 20
-113.217
 30
0.000000
  70
    32
  0
VERTEX
  8
01
  5
B8E0
 10
710.762
 20
-113.216
 30
0.000000
  70
    32
  0
VERTEX
  8
01
  5
B8E1
 10
710.761
 20
-113.216
 30
0.000000
  70
    32
  0
VERTEX
  8
01
  5
B8E2
 10
710.760
 20
-113.215
 30
0.000000
  70
    32
  0
VERTEX
  8
01
  5
B8E3
 10
710.759
 20
-113.214
 30
0.000000
  70
    32
  0
VERTEX
  8
01
  5
B8E4
 10
710.758
 20
-113.213
 30
0.000000
  70
    32
  0
VERTEX
  8
01
  5
B8E5
 10
710.756
 20
-113.212
 30
0.000000
  70
    32
  0
VERTEX
  8
01
  5
B8E6
 10
710.755
 20
-113.211
 30
0.000000
  70
    32
  0
VERTEX
  8
01
  5
B8E7
 10
710.754
 20
-113.210
 30
0.000000
  70
    32
  0
VERTEX
  8
01
  5
B8E8
 10
710.753
 20
-113.209
 30
0.000000
  70
    32
  0
VERTEX
  8
01
  5
B8E9
 10
710.752
 20
-113.207
 30
0.000000
  70
    32
  0
VERTEX
  8
01
  5
B8EA
 10
710.751
 20
-113.206
 30
0.000000
  70
    32
  0
VERTEX
  8
01
  5
B8EB
 10
710.749
 20
-113.204
 30
0.000000
  70
    32
  0
VERTEX
  8
01
  5
B8EC
 10
710.748
 20
-113.203
 30
0.000000
  70
    32
  0
VERTEX
  8
01
  5
B8ED
 10
710.747
 20
-113.201
 30
0.000000
  70
    32
  0
VERTEX
  8
01
  5
B8EE
 10
710.746
 20
-113.199
 30
0.000000
  70
    32
  0
VERTEX
  8
01
  5
B8EF
 10
710.745
 20
-113.197
 30
0.000000
  70
    32
  0
VERTEX
  8
01
  5
B8F0
 10
710.744
 20
-113.195
 30
0.000000
  70
    32
  0
VERTEX
  8
01
  5
B8F1
 10
710.743
 20
-113.192
 30
0.000000
  70
    32
  0
VERTEX
  8
01
  5
B8F2
 10
710.741
 20
-113.190
 30
0.000000
  70
    32
  0
VERTEX
  8
01
  5
B8F3
 10
710.740
 20
-113.187
 30
0.000000
  70
    32
  0
VERTEX
  8
01
  5
B8F4
 10
710.739
 20
-113.185
 30
0.000000
  70
    32
  0
VERTEX
  8
01
  5
B8F5
 10
710.738
 20
-113.182
 30
0.000000
  70
    32
  0
VERTEX
  8
01
  5
B8F6
 10
710.737
 20
-113.179
 30
0.000000
  70
    32
  0
VERTEX
  8
01
  5
B8F7
 10
710.736
 20
-113.176
 30
0.000000
  70
    32
  0
VERTEX
  8
01
  5
B8F8
 10
710.735
 20
-113.173
 30
0.000000
  70
    32
  0
VERTEX
  8
01
  5
B8F9
 10
710.734
 20
-113.170
 30
0.000000
  70
    32
  0
VERTEX
  8
01
  5
B8FA
 10
710.733
 20
-113.167
 30
0.000000
  70
    32
  0
VERTEX
  8
01
  5
B8FB
 10
710.731
 20
-113.163
 30
0.000000
  70
    32
  0
VERTEX
  8
01
  5
B8FC
 10
710.730
 20
-113.160
 30
0.000000
  70
    32
  0
VERTEX
  8
01
  5
B8FD
 10
710.729
 20
-113.156
 30
0.000000
  70
    32
  0
VERTEX
  8
01
  5
B8FE
 10
710.728
 20
-113.153
 30
0.000000
  70
    32
  0
VERTEX
  8
01
  5
B8FF
 10
710.727
 20
-113.149
 30
0.000000
  70
    32
  0
VERTEX
  8
01
  5
B900
 10
710.726
 20
-113.145
 30
0.000000
  70
    32
  0
VERTEX
  8
01
  5
B901
 10
710.725
 20
-113.141
 30
0.000000
  70
    32
  0
VERTEX
  8
01
  5
B902
 10
710.724
 20
-113.137
 30
0.000000
  70
    32
  0
VERTEX
  8
01
  5
B903
 10
710.723
 20
-113.133
 30
0.000000
  70
    32
  0
VERTEX
  8
01
  5
B904
 10
710.722
 20
-113.128
 30
0.000000
  70
    32
  0
VERTEX
  8
01
  5
B905
 10
710.721
 20
-113.124
 30
0.000000
  70
    32
  0
VERTEX
  8
01
  5
B906
 10
710.720
 20
-113.120
 30
0.000000
  70
    32
  0
VERTEX
  8
01
  5
B907
 10
710.719
 20
-113.115
 30
0.000000
  70
    32
  0
VERTEX
  8
01
  5
B908
 10
710.718
 20
-113.110
 30
0.000000
  70
    32
  0
VERTEX
  8
01
  5
B909
 10
710.717
 20
-113.106
 30
0.000000
  70
    32
  0
VERTEX
  8
01
  5
B90A
 10
710.716
 20
-113.101
 30
0.000000
  70
    32
  0
VERTEX
  8
01
  5
B90B
 10
710.715
 20
-113.096
 30
0.000000
  70
    32
  0
VERTEX
  8
01
  5
B90C
 10
710.714
 20
-113.091
 30
0.000000
  70
    32
  0
VERTEX
  8
01
  5
B90D
 10
710.713
 20
-113.085
 30
0.000000
  70
    32
  0
VERTEX
  8
01
  5
B90E
 10
710.712
 20
-113.080
 30
0.000000
  70
    32
  0
VERTEX
  8
01
  5
B90F
 10
710.711
 20
-113.075
 30
0.000000
  70
    32
  0
VERTEX
  8
01
  5
B910
 10
710.710
 20
-113.069
 30
0.000000
  70
    32
  0
VERTEX
  8
01
  5
B911
 10
710.709
 20
-113.064
 30
0.000000
  70
    32
  0
VERTEX
  8
01
  5
B912
 10
710.708
 20
-113.058
 30
0.000000
  70
    32
  0
VERTEX
  8
01
  5
B913
 10
710.707
 20
-113.053
 30
0.000000
  70
    32
  0
VERTEX
  8
01
  5
B914
 10
710.706
 20
-113.047
 30
0.000000
  70
    32
  0
VERTEX
  8
01
  5
B915
 10
710.706
 20
-113.041
 30
0.000000
  70
    32
  0
VERTEX
  8
01
  5
B916
 10
710.705
 20
-113.035
 30
0.000000
  70
    32
  0
VERTEX
  8
01
  5
B917
 10
710.704
 20
-113.029
 30
0.000000
  70
    32
  0
VERTEX
  8
01
  5
B918
 10
710.703
 20
-113.023
 30
0.000000
  70
    32
  0
VERTEX
  8
01
  5
B919
 10
710.702
 20
-113.017
 30
0.000000
  70
    32
  0
VERTEX
  8
01
  5
B91A
 10
710.701
 20
-113.010
 30
0.000000
  70
    32
  0
VERTEX
  8
01
  5
B91B
 10
710.700
 20
-113.004
 30
0.000000
  70
    32
  0
VERTEX
  8
01
  5
B91C
 10
710.699
 20
-112.997
 30
0.000000
  70
    32
  0
VERTEX
  8
01
  5
B91D
 10
710.699
 20
-112.991
 30
0.000000
  70
    32
  0
VERTEX
  8
01
  5
B91E
 10
710.698
 20
-112.984
 30
0.000000
  70
    32
  0
VERTEX
  8
01
  5
B91F
 10
710.697
 20
-112.977
 30
0.000000
  70
    32
  0
VERTEX
  8
01
  5
B920
 10
710.696
 20
-112.971
 30
0.000000
  70
    32
  0
VERTEX
  8
01
  5
B921
 10
710.695
 20
-112.964
 30
0.000000
  70
    32
  0
VERTEX
  8
01
  5
B922
 10
710.695
 20
-112.957
 30
0.000000
  70
    32
  0
VERTEX
  8
01
  5
B923
 10
710.694
 20
-112.950
 30
0.000000
  70
    32
  0
VERTEX
  8
01
  5
B924
 10
710.693
 20
-112.943
 30
0.000000
  70
    32
  0
VERTEX
  8
01
  5
B925
 10
710.692
 20
-112.936
 30
0.000000
  70
    32
  0
VERTEX
  8
01
  5
B926
 10
710.692
 20
-112.928
 30
0.000000
  70
    32
  0
VERTEX
  8
01
  5
B927
 10
710.691
 20
-112.921
 30
0.000000
  70
    32
  0
VERTEX
  8
01
  5
B928
 10
710.690
 20
-112.914
 30
0.000000
  70
    32
  0
VERTEX
  8
01
  5
B929
 10
710.690
 20
-112.906
 30
0.000000
  70
    32
  0
VERTEX
  8
01
  5
B92A
 10
710.689
 20
-112.899
 30
0.000000
  70
    32
  0
VERTEX
  8
01
  5
B92B
 10
710.688
 20
-112.891
 30
0.000000
  70
    32
  0
VERTEX
  8
01
  5
B92C
 10
710.688
 20
-112.884
 30
0.000000
  70
    32
  0
VERTEX
  8
01
  5
B92D
 10
710.687
 20
-112.876
 30
0.000000
  70
    32
  0
VERTEX
  8
01
  5
B92E
 10
710.686
 20
-112.868
 30
0.000000
  70
    32
  0
VERTEX
  8
01
  5
B92F
 10
710.686
 20
-112.860
 30
0.000000
  70
    32
  0
VERTEX
  8
01
  5
B930
 10
710.685
 20
-112.853
 30
0.000000
  70
    32
  0
VERTEX
  8
01
  5
B931
 10
710.685
 20
-112.845
 30
0.000000
  70
    32
  0
VERTEX
  8
01
  5
B932
 10
710.684
 20
-112.837
 30
0.000000
  70
    32
  0
VERTEX
  8
01
  5
B933
 10
710.683
 20
-112.829
 30
0.000000
  70
    32
  0
VERTEX
  8
01
  5
B934
 10
710.683
 20
-112.821
 30
0.000000
  70
    32
  0
VERTEX
  8
01
  5
B935
 10
710.682
 20
-112.812
 30
0.000000
  70
    32
  0
VERTEX
  8
01
  5
B936
 10
710.682
 20
-112.804
 30
0.000000
  70
    32
  0
VERTEX
  8
01
  5
B937
 10
710.681
 20
-112.796
 30
0.000000
  70
    32
  0
VERTEX
  8
01
  5
B938
 10
710.681
 20
-112.788
 30
0.000000
  70
    32
  0
VERTEX
  8
01
  5
B939
 10
710.680
 20
-112.779
 30
0.000000
  70
    32
  0
VERTEX
  8
01
  5
B93A
 10
710.680
 20
-112.771
 30
0.000000
  70
    32
  0
VERTEX
  8
01
  5
B93B
 10
710.679
 20
-112.763
 30
0.000000
  70
    32
  0
VERTEX
  8
01
  5
B93C
 10
710.679
 20
-112.754
 30
0.000000
  70
    32
  0
VERTEX
  8
01
  5
B93D
 10
710.678
 20
-112.746
 30
0.000000
  70
    32
  0
VERTEX
  8
01
  5
B93E
 10
710.678
 20
-112.737
 30
0.000000
  70
    32
  0
VERTEX
  8
01
  5
B93F
 10
710.678
 20
-112.728
 30
0.000000
  70
    32
  0
VERTEX
  8
01
  5
B940
 10
710.677
 20
-112.720
 30
0.000000
  70
    32
  0
VERTEX
  8
01
  5
B941
 10
710.677
 20
-112.711
 30
0.000000
  70
    32
  0
VERTEX
  8
01
  5
B942
 10
710.676
 20
-112.702
 30
0.000000
  70
    32
  0
VERTEX
  8
01
  5
B943
 10
710.676
 20
-112.694
 30
0.000000
  70
    32
  0
VERTEX
  8
01
  5
B944
 10
710.676
 20
-112.685
 30
0.000000
  70
    32
  0
VERTEX
  8
01
  5
B945
 10
710.675
 20
-112.676
 30
0.000000
  70
    32
  0
VERTEX
  8
01
  5
B946
 10
710.675
 20
-112.667
 30
0.000000
  70
    32
  0
VERTEX
  8
01
  5
B947
 10
710.675
 20
-112.658
 30
0.000000
  70
    32
  0
VERTEX
  8
01
  5
B948
 10
710.674
 20
-112.649
 30
0.000000
  70
    32
  0
VERTEX
  8
01
  5
B949
 10
710.674
 20
-112.640
 30
0.000000
  70
    32
  0
VERTEX
  8
01
  5
B94A
 10
710.674
 20
-112.631
 30
0.000000
  70
    32
  0
VERTEX
  8
01
  5
B94B
 10
710.674
 20
-112.622
 30
0.000000
  70
    32
  0
VERTEX
  8
01
  5
B94C
 10
710.673
 20
-112.613
 30
0.000000
  70
    32
  0
VERTEX
  8
01
  5
B94D
 10
710.673
 20
-112.604
 30
0.000000
  70
    32
  0
VERTEX
  8
01
  5
B94E
 10
710.673
 20
-112.595
 30
0.000000
  70
    32
  0
VERTEX
  8
01
  5
B94F
 10
710.673
 20
-112.586
 30
0.000000
  70
    32
  0
VERTEX
  8
01
  5
B950
 10
710.673
 20
-112.577
 30
0.000000
  70
    32
  0
VERTEX
  8
01
  5
B951
 10
710.672
 20
-112.568
 30
0.000000
  70
    32
  0
VERTEX
  8
01
  5
B952
 10
710.672
 20
-112.559
 30
0.000000
  70
    32
  0
VERTEX
  8
01
  5
B953
 10
710.672
 20
-112.550
 30
0.000000
  70
    32
  0
VERTEX
  8
01
  5
B954
 10
710.672
 20
-112.541
 30
0.000000
  70
    32
  0
VERTEX
  8
01
  5
B955
 10
710.672
 20
-112.531
 30
0.000000
  70
    32
  0
VERTEX
  8
01
  5
B956
 10
710.672
 20
-112.522
 30
0.000000
  70
    32
  0
VERTEX
  8
01
  5
B957
 10
710.672
 20
-112.513
 30
0.000000
  70
    32
  0
VERTEX
  8
01
  5
B958
 10
710.672
 20
-112.504
 30
0.000000
  70
    32
  0
VERTEX
  8
01
  5
B959
 10
710.672
 20
-112.495
 30
0.000000
  70
    32
  0
VERTEX
  8
01
  5
B95A
 10
710.672
 20
-112.485
 30
0.000000
  70
    32
  0
VERTEX
  8
01
  5
B95B
 10
710.672
 20
-112.476
 30
0.000000
  70
    32
  0
VERTEX
  8
01
  5
B95C
 10
710.672
 20
-112.467
 30
0.000000
  70
    32
  0
SEQEND
  8
01
  5
B95D
  0
TEXT
  5
B2E2
  8
1TEXT
 10
777.86517194421845
 20
-197.83712129741971
 30
0.0
 40
2.7999999999999989
  1
付属ネジ
  0
TEXT
  5
B512
  8
1TEXT
 10
622.55220835474245
 20
-17.690018405438082
 30
0.0
 40
4.0
  1
表面処理
 72
     1
 11
631.61887502140917
 21
-17.690018405438082
 31
0.0
  0
TEXT
  5
B513
  8
1TEXT
 10
622.2855416880758
 20
-31.52530706496248
 30
0.0
 40
4.0
  1
クローム
 72
     1
 11
631.61887502140917
 21
-31.52530706496248
 31
0.0
  0
TEXT
  5
B514
  8
1TEXT
 10
620.41887502140912
 20
-24.667913425422402
 30
0.0
 40
4.0
  1
本金メッキ
 72
     1
 11
631.61887502140917
 21
-24.667913425422402
 31
0.0
  0
LINE
  5
B515
  8
1DIM
 10
599.21887502140919
 20
-12.19001840543808
 30
0.0
 11
684.21887502140908
 21
-12.19001840543808
 31
0.0
  0
LINE
  5
B516
  8
1DIM
 10
614.21887502140896
 20
-26.190018405438082
 30
0.0
 11
684.21887502140908
 21
-26.190018405438082
 31
0.0
  0
LINE
  5
B517
  8
1DIM
 10
599.2188750214093
 20
-19.190018405438082
 30
0.0
 11
684.21887502140908
 21
-19.190018405438082
 31
0.0
  0
LINE
  5
B518
  8
1DIM
 10
614.21887502140896
 20
-33.190018405438082
 30
0.0
 11
684.21887502140908
 21
-33.190018405438082
 31
0.0
  0
LINE
  5
B519
  8
1DIM
 10
614.21887502140896
 20
-33.190018405438082
 30
0.0
 11
684.21887502140908
 21
-33.190018405438082
 31
0.0
  0
LINE
  5
B51A
  8
1DIM
 10
649.21887502140896
 20
-12.19001840543808
 30
0.0
 11
649.21887502140885
 21
-89.190018405438082
 31
0.0
  0
TEXT
  5
B51B
  8
1TEXT
 10
655.61887502140962
 20
-24.90437538908748
 30
0.0
 40
4.0
  1
C50K-G
 72
     1
 11
666.61887502140962
 21
-24.90437538908748
 31
0.0
  0
TEXT
  5
B51C
  8
1TEXT
 10
659.81887502140921
 20
-17.690018405438082
 30
0.0
 40
4.0
  1
コード
 72
     1
 11
666.61887502140905
 21
-17.690018405438082
 31
0.0
  0
LINE
  5
B51D
  8
1DIM
 10
614.21887502140896
 20
-89.190018405438082
 30
0.0
 11
614.21887502140896
 21
-12.19001840543808
 31
0.0
  0
LINE
  5
B51E
  8
1DIM
 10
599.21887502140885
 20
-89.190018405438082
 30
0.0
 11
599.21887502140919
 21
-12.19001840543808
 31
0.0
  0
LINE
  5
B51F
  8
1DIM
 10
684.21887502140908
 20
-89.190018405438082
 30
0.0
 11
684.21887502140908
 21
-12.19001840543808
 31
0.0
  0
LINE
  5
B520
  8
1DIM
 10
614.21887502140896
 20
-40.190018405438082
 30
0.0
 11
684.21887502140908
 21
-40.190018405438082
 31
0.0
  0
LINE
  5
B521
  8
1DIM
 10
614.21887502140896
 20
-40.190018405438082
 30
0.0
 11
684.21887502140908
 21
-40.190018405438082
 31
0.0
  0
LINE
  5
B523
  8
1DIM
 10
614.21887502140896
 20
-47.190018405438082
 30
0.0
 11
684.21887502140908
 21
-47.190018405438082
 31
0.0
  0
LINE
  5
B524
  8
1DIM
 10
614.21887502140896
 20
-47.190018405438082
 30
0.0
 11
684.21887502140908
 21
-47.190018405438082
 31
0.0
  0
TEXT
  5
B525
  8
1TEXT
 10
615.35220835474252
 20
-45.525307064962483
 30
0.0
 40
4.0
  1
サテンニッケル
 72
     1
 11
631.61887502140917
 21
-45.525307064962483
 31
0.0
  0
LINE
  5
B526
  8
1DIM
 10
614.21887502140896
 20
-54.190018405438082
 30
0.0
 11
684.21887502140908
 21
-54.190018405438082
 31
0.0
  0
LINE
  5
B527
  8
1DIM
 10
614.21887502140896
 20
-54.190018405438082
 30
0.0
 11
684.21887502140908
 21
-54.190018405438082
 31
0.0
  0
TEXT
  5
B528
  8
1TEXT
 10
615.21887502140919
 20
-38.525307064962483
 30
0.0
 40
4.0
  1
パールクローム
 72
     1
 11
631.61887502140917
 21
-38.525307064962483
 31
0.0
  0
TEXT
  5
B529
  8
1TEXT
 10
655.61887502140962
 20
-31.90437538908748
 30
0.0
 40
4.0
  1
C50K-C
 72
     1
 11
666.61887502140962
 21
-31.90437538908748
 31
0.0
  0
TEXT
  5
B52B
  8
1TEXT
 10
655.61887502140962
 20
-45.90437538908747
 30
0.0
 40
4.0
  1
C50K-N
 72
     1
 11
666.61887502140962
 21
-45.90437538908747
 31
0.0
  0
TEXT
  5
B52C
  8
1TEXT
 10
655.61887502140962
 20
-38.904375389087477
 30
0.0
 40
4.0
  1
C50K-B
 72
     1
 11
666.61887502140962
 21
-38.904375389087477
 31
0.0
  0
TEXT
  5
B52D
  8
1TEXT
 10
653.61887502140894
 20
-59.690018405438082
 30
0.0
 40
4.0
  1
C50K-4Q
 72
     1
 11
666.61887502140894
 21
-59.690018405438082
 31
0.0
  0
TEXT
  5
B52E
  8
1TEXT
 10
615.21887502140885
 20
-59.690018405438082
 30
0.0
 40
4.0
  1
ダークアンバー
 72
     1
 11
631.61887502140894
 21
-59.690018405438082
 31
0.0
  0
LINE
  5
B52F
  8
1DIM
 10
599.21887502140919
 20
-75.190018405438082
 30
0.0
 11
684.21887502140908
 21
-75.190018405438082
 31
0.0
  0
LINE
  5
B530
  8
1DIM
 10
614.21887502140896
 20
-61.190018405438082
 30
0.0
 11
684.21887502140908
 21
-61.190018405438082
 31
0.0
  0
LINE
  5
B531
  8
1DIM
 10
614.21887502140896
 20
-68.190018405438082
 30
0.0
 11
684.21887502140908
 21
-68.190018405438082
 31
0.0
  0
TEXT
  5
B532
  8
1TEXT
 10
655.61887502140894
 20
-52.690018405438082
 30
0.0
 40
4.0
  1
C50K-D
 72
     1
 11
666.61887502140894
 21
-52.690018405438082
 31
0.0
  0
TEXT
  5
B533
  8
1TEXT
 10
615.08554168807564
 20
-52.690018405438082
 30
0.0
 40
4.0
  1
ミラーニッケル
 72
     1
 11
631.61887502140894
 21
-52.690018405438082
 31
0.0
  0
TEXT
  5
B534
  8
1TEXT
 10
653.61887502140894
 20
-73.690018405438082
 30
0.0
 40
4.0
  1
C50K-8Q
 72
     1
 11
666.61887502140894
 21
-73.690018405438082
 31
0.0
  0
TEXT
  5
B535
  8
1TEXT
 10
615.08554168807564
 20
-73.690018405438082
 30
0.0
 40
4.0
  1
ミラーブラック
 72
     1
 11
631.61887502140894
 21
-73.690018405438082
 31
0.0
  0
LINE
  5
B539
  8
1DIM
 10
599.21887502140885
 20
-89.190018405438082
 30
0.0
 11
684.21887502140908
 21
-89.190018405438082
 31
0.0
  0
TEXT
  5
B53D
  8
1TEXT
 10
653.61887502140905
 20
-80.690018405438082
 30
0.0
 40
4.0
  1
C50K-AS
 72
     1
 11
666.61887502140905
 21
-80.690018405438082
 31
0.0
  0
TEXT
  5
B53E
  8
1TEXT
 10
616.68554168807555
 20
-80.690018405438082
 30
0.0
 40
4.0
  1
ブラストシルバー
 41
0.8
 72
     1
 11
631.61887502140905
 21
-80.690018405438082
 31
0.0
  0
TEXT
  5
B540
  8
1TEXT
 10
653.61887502140905
 20
-87.690018405438082
 30
0.0
 40
4.0
  1
C50K-AK
 72
     1
 11
666.61887502140905
 21
-87.690018405438082
 31
0.0
  0
TEXT
  5
B541
  8
1TEXT
 10
616.68554168807566
 20
-87.690018405438082
 30
0.0
 40
4.0
  1
ブラストブラック
 41
0.8
 72
     1
 11
631.61887502140905
 21
-87.690018405438082
 31
0.0
  0
TEXT
  5
B545
  8
1TEXT
 10
602.45220835474254
 20
-17.690018405438082
 30
0.0
 40
4.0
  1
材質
 72
     4
 11
606.71887502140919
 21
-15.69001840543808
 31
0.0
  0
TEXT
  5
B546
  8
1TEXT
 10
602.45220835474242
 20
-49.180399462204029
 30
0.0
 40
4.0
  1
真鍮
 72
     4
 11
606.71887502140896
 21
-47.180399462204029
 31
0.0
  0
TEXT
  5
B548
  8
1TEXT
 10
600.31887502140921
 20
-84.056685072104742
 30
0.0
 40
4.0
  1
アルミ
 72
     4
 11
606.71887502140919
 21
-82.190018405438096
 31
0.0
  0
TEXT
  5
B54C
  8
1TEXT
 10
511.53497090838829
 20
-22.871598991681712
 30
0.0
 40
8.0
  1
C50K-X
  0
TEXT
  5
B54D
  8
1TEXT
 10
511.87196535083012
 20
-30.924179106622869
 30
0.0
 40
4.0
  1
材質：真鍮・ポリアセタール・アルミ
 11
511.87196535083012
 21
-28.924179106622869
 31
0.0
 73
     2
  0
LINE
  5
B5AE
  8
1DIM
 10
614.21887502140896
 20
-82.190018405438096
 30
0.0
 11
684.21887502140908
 21
-82.190018405438096
 31
0.0
  0
TEXT
  5
B5AF
  8
1TEXT
 10
653.61887502140894
 20
-66.690018405438082
 30
0.0
 40
4.0
  1
C50K-GQ
 72
     1
 11
666.61887502140894
 21
-66.690018405438082
 31
0.0
  0
TEXT
  5
B5B0
  8
1TEXT
 10
615.35220835474217
 20
-66.690018405438082
 30
0.0
 40
4.0
  1
パールブラック
 72
     1
 11
631.61887502140894
 21
-66.690018405438082
 31
0.0
  0
LINE
  5
B7D7
  8
1HATCH
 10
799.76873535018342
 20
-189.12413862278549
 30
0.0
 11
772.41875803739902
 21
-189.12434663803819
 31
0.0
  0
LINE
  5
B7DA
  8
1HATCH
 10
799.76871394367026
 20
-185.8241386228419
 30
0.0
 11
772.41870219421969
 21
-185.82434663841491
 31
0.0
  0
LINE
  5
B7DB
  8
1CENTER
 10
801.73020980628928
 20
-187.47412036691901
 30
0.0
 11
767.82897340441036
 21
-187.47438935591649
 31
0.0
  0
LINE
  5
B7DC
  8
1HATCH
 10
799.41871068616774
 20
-185.4741412923712
 30
0.0
 11
799.41873860770636
 21
-189.474141292284
 31
0.0
  0
LINE
  5
B7DD
  8
01
 10
770.06869672629625
 20
-183.47436851023599
 30
0.0
 11
770.06875256937371
 21
-191.4743685100629
 31
0.0
  0
LINE
  5
B7DE
  8
1HATCH
 10
772.41875803739902
 20
-189.12434663803819
 30
0.0
 11
772.06875722301231
 21
-189.47434989557371
 31
0.0
  0
LINE
  5
B7DF
  8
1HATCH
 10
772.41870219421969
 20
-185.82434663841491
 30
0.0
 11
772.06870137984799
 21
-185.47434989592031
 31
0.0
  0
LINE
  5
B7E1
  8
1HATCH
 10
799.76873535018342
 20
-176.6727842908611
 30
0.0
 11
772.41875803739902
 21
-176.6729923061138
 31
0.0
  0
LINE
  5
B7E2
  8
1HATCH
 10
799.76871394367026
 20
-173.37278429091739
 30
0.0
 11
772.41870219421969
 21
-173.37299230649049
 31
0.0
  0
LINE
  5
B7E3
  8
1CENTER
 10
801.73020980628928
 20
-175.02276603499459
 30
0.0
 11
767.82897340441036
 21
-175.02303502399209
 31
0.0
  0
LINE
  5
B7E4
  8
1HATCH
 10
799.41871068616774
 20
-173.02278696044681
 30
0.0
 11
799.41873860770636
 21
-177.02278696035961
 31
0.0
  0
LINE
  5
B7E5
  8
01
 10
770.06869672629625
 20
-171.0230141783116
 30
0.0
 11
770.06875256937371
 21
-179.0230141781384
 31
0.0
  0
LINE
  5
B7E6
  8
1HATCH
 10
772.41875803739902
 20
-176.6729923061138
 30
0.0
 11
772.06875722301231
 21
-177.02299556364929
 31
0.0
  0
LINE
  5
B7E7
  8
1HATCH
 10
772.41870219421969
 20
-173.37299230649049
 30
0.0
 11
772.06870137984799
 21
-173.02299556399581
 31
0.0
  0
LINE
  5
B7E8
  8
01
 10
799.41873860770636
 20
-177.02278696035961
 30
0.0
 11
772.06875722301231
 21
-177.02299556364929
 31
0.0
  0
LINE
  5
B7E9
  8
01
 10
799.76873616456169
 20
-176.67278429085439
 30
0.0
 11
799.41873860770636
 21
-177.02278696035961
 31
0.0
  0
LINE
  5
B7EA
  8
01
 10
770.06875256937371
 20
-179.0230141781384
 30
0.0
 11
772.06875722301231
 21
-177.02299556364929
 31
0.0
  0
LINE
  5
B7EB
  8
01
 10
799.76871312929222
 20
-173.37278429092399
 30
0.0
 11
799.76873616456169
 21
-176.67278429085439
 31
0.0
  0
LINE
  5
B7EC
  8
01
 10
770.06875256937371
 20
-179.0230141781384
 30
0.0
 11
769.76875256938592
 21
-179.0230169702923
 31
0.0
  0
LINE
  5
B7ED
  8
01
 10
799.76871312929222
 20
-173.37278429092399
 30
0.0
 11
799.41871068616774
 21
-173.02278696044681
 31
0.0
  0
LINE
  5
B7EE
  8
01
 10
769.76869672630835
 20
-171.02301697046539
 30
0.0
 11
769.76875256938592
 21
-179.0230169702923
 31
0.0
  0
LINE
  5
B7EF
  8
01
 10
799.41871068616774
 20
-173.02278696044681
 30
0.0
 11
772.06870137984799
 21
-173.02299556399581
 31
0.0
  0
LINE
  5
B7F0
  8
01
 10
770.06869672629625
 20
-171.0230141783116
 30
0.0
 11
769.76869672630835
 21
-171.02301697046539
 31
0.0
  0
LINE
  5
B7F1
  8
01
 10
770.06869672629625
 20
-171.0230141783116
 30
0.0
 11
772.06870137984799
 21
-173.02299556399581
 31
0.0
  0
LINE
  5
B7F2
  8
01
 10
799.41873860770636
 20
-189.474141292284
 30
0.0
 11
772.06875722301231
 21
-189.47434989557371
 31
0.0
  0
LINE
  5
B7F3
  8
01
 10
799.76873616456169
 20
-189.12413862277879
 30
0.0
 11
799.41873860770636
 21
-189.474141292284
 31
0.0
  0
LINE
  5
B7F4
  8
01
 10
770.06875256937371
 20
-191.4743685100629
 30
0.0
 11
772.06875722301231
 21
-189.47434989557371
 31
0.0
  0
LINE
  5
B7F5
  8
01
 10
799.76871312929222
 20
-185.82413862284849
 30
0.0
 11
799.76873616456169
 21
-189.12413862277879
 31
0.0
  0
LINE
  5
B7F6
  8
01
 10
770.06875256937371
 20
-191.4743685100629
 30
0.0
 11
769.76875256938592
 21
-191.4743713022167
 31
0.0
  0
LINE
  5
B7F7
  8
01
 10
799.76871312929222
 20
-185.82413862284849
 30
0.0
 11
799.41871068616774
 21
-185.4741412923712
 31
0.0
  0
LINE
  5
B7F8
  8
01
 10
769.76869672630835
 20
-183.4743713023899
 30
0.0
 11
769.76875256938592
 21
-191.4743713022167
 31
0.0
  0
LINE
  5
B7F9
  8
01
 10
799.41871068616774
 20
-185.4741412923712
 30
0.0
 11
772.06870137984799
 21
-185.47434989592031
 31
0.0
  0
LINE
  5
B7FA
  8
01
 10
770.06869672629625
 20
-183.47436851023599
 30
0.0
 11
769.76869672630835
 21
-183.4743713023899
 31
0.0
  0
LINE
  5
B7FB
  8
01
 10
770.06869672629625
 20
-183.47436851023599
 30
0.0
 11
772.06870137984799
 21
-185.47434989592031
 31
0.0
  0
TEXT
  5
B7FC
  8
1DIM
 10
640.61354209698743
 20
-147.75205445599579
 30
0.0
 40
3.5
  1
材質：ポリアセタール
  0
SOLID
  5
B7FD
  8
1DIM
 10
640.41760694590891
 20
-182.08995496508049
 30
0.0
 11
640.21372086217559
 21
-184.10726544588681
 31
0.0
 12
639.75232321787803
 22
-182.1328735585079
 32
0.0
 13
639.75232321787803
 23
-182.1328735585079
 33
0.0
  0
TEXT
  5
B7FF
  8
1TEXT
 10
569.61476758914512
 20
-131.06576219646891
 30
0.0
 40
3.5
  1
材質：各種材質
  0
TEXT
  5
B800
  8
1TEXT
 10
569.61476758914512
 20
-136.8990955298022
 30
0.0
 40
3.5
  1
仕上げ：各種仕上げ
  0
SOLID
  5
B801
  8
1DIM
 10
553.92608968990248
 20
-167.30186679004251
 30
0.0
 11
552.80195799918533
 21
-168.98930243415941
 31
0.0
 12
553.31804938960966
 22
-167.02849627651889
 32
0.0
 13
553.31804938960966
 23
-167.02849627651889
 33
0.0
  0
LINE
  5
B803
  8
1DIM
 10
769.76869672630835
 20
-171.02301697046539
 30
0.0
 11
769.76869672630835
 21
-158.0447075945462
 31
0.0
  0
LINE
  5
B804
  8
1DIM
 10
799.76871394367026
 20
-173.37278429091739
 30
0.0
 11
799.76871394367026
 21
-158.0447075945462
 31
0.0
  0
LINE
  5
B805
  8
1DIM
 10
771.76869672630835
 20
-159.0447075945462
 30
0.0
 11
797.76871394367038
 21
-159.0447075945462
 31
0.0
  0
LINE
  5
B809
  8
1DIM
 10
615.78118809245086
 20
-162.30209723431221
 30
0.0
 11
615.78118809245086
 21
-147.31545752596909
 31
0.0
  0
LINE
  5
B80A
  8
1DIM
 10
607.28118809245109
 20
-162.80209723431011
 30
0.0
 11
607.28118809245109
 21
-147.31545752596909
 31
0.0
  0
LINE
  5
B80B
  8
1DIM
 10
613.78118809245086
 20
-148.31545752596921
 30
0.0
 11
609.2811880924512
 21
-148.31545752596921
 31
0.0
  0
LINE
  5
B80C
  8
1DIM
 10
607.28118809245109
 20
-148.31545752596921
 30
0.0
 11
596.54785475911785
 21
-148.31545752596921
 31
0.0
  0
LINE
  5
B810
  8
1DIM
 10
515.80571396850041
 20
-187.30209723431389
 30
0.0
 11
515.80571396850041
 21
-147.31545752596909
 31
0.0
  0
LINE
  5
B811
  8
1DIM
 10
565.80571396850041
 20
-187.3020972343123
 30
0.0
 11
565.80571396850041
 21
-147.31545752596909
 31
0.0
  0
LINE
  5
B812
  8
1DIM
 10
517.8057139685003
 20
-148.31545752596921
 30
0.0
 11
563.8057139685003
 21
-148.31545752596921
 31
0.0
  0
TEXT
  5
B816
  8
1DIM
 10
535.73071396850025
 20
-147.61545752596919
 30
0.0
 40
3.5
  1
\U+03C650
  0
LINE
  5
B817
  8
0
  6
BYBLOCK
 10
563.8057139685003
 20
-147.77955914596919
 30
0.0
 11
565.80571396850041
 21
-148.31545752596921
 31
0.0
  0
LINE
  5
B818
  8
0
  6
BYBLOCK
 10
565.80571396850041
 20
-148.31545752596921
 30
0.0
 11
563.8057139685003
 21
-148.8513559059692
 31
0.0
  0
LINE
  5
B819
  8
0
  6
BYBLOCK
 10
565.80571396850041
 20
-148.31545752596921
 30
0.0
 11
563.8057139685003
 21
-148.31545752596921
 31
0.0
  0
LINE
  5
B81A
  8
0
  6
BYBLOCK
 10
517.8057139685003
 20
-148.8513559059692
 30
0.0
 11
515.80571396850041
 21
-148.31545752596921
 31
0.0
  0
LINE
  5
B81B
  8
0
  6
BYBLOCK
 10
515.80571396850041
 20
-148.31545752596921
 30
0.0
 11
517.8057139685003
 21
-147.77955914596919
 31
0.0
  0
LINE
  5
B81C
  8
0
  6
BYBLOCK
 10
515.80571396850041
 20
-148.31545752596921
 30
0.0
 11
517.8057139685003
 21
-148.31545752596921
 31
0.0
  0
TEXT
  5
B81D
  8
1DIM
 10
597.41452142578453
 20
-147.61545752596919
 30
0.0
 40
3.5
  1
8.5
  0
LINE
  5
B81E
  8
0
  6
BYBLOCK
 10
609.2811880924512
 20
-148.8513559059692
 30
0.0
 11
607.28118809245109
 21
-148.31545752596921
 31
0.0
  0
LINE
  5
B81F
  8
0
  6
BYBLOCK
 10
607.28118809245109
 20
-148.31545752596921
 30
0.0
 11
609.2811880924512
 21
-147.77955914596919
 31
0.0
  0
LINE
  5
B820
  8
0
  6
BYBLOCK
 10
607.28118809245109
 20
-148.31545752596921
 30
0.0
 11
609.2811880924512
 21
-148.31545752596921
 31
0.0
  0
LINE
  5
B821
  8
0
  6
BYBLOCK
 10
613.78118809245086
 20
-147.77955914596919
 30
0.0
 11
615.78118809245086
 21
-148.31545752596921
 31
0.0
  0
LINE
  5
B822
  8
0
  6
BYBLOCK
 10
615.78118809245086
 20
-148.31545752596921
 30
0.0
 11
613.78118809245086
 21
-148.8513559059692
 31
0.0
  0
LINE
  5
B823
  8
0
  6
BYBLOCK
 10
615.78118809245086
 20
-148.31545752596921
 30
0.0
 11
613.78118809245086
 21
-148.31545752596921
 31
0.0
  0
TEXT
  5
B824
  8
1DIM
 10
782.14370533498925
 20
-158.34470759454621
 30
0.0
 40
3.5
  1
30
  0
LINE
  5
B825
  8
0
  6
BYBLOCK
 10
797.76871394367038
 20
-158.5088092145462
 30
0.0
 11
799.76871394367026
 21
-159.0447075945462
 31
0.0
  0
LINE
  5
B826
  8
0
  6
BYBLOCK
 10
799.76871394367026
 20
-159.0447075945462
 30
0.0
 11
797.76871394367038
 21
-159.58060597454619
 31
0.0
  0
LINE
  5
B827
  8
0
  6
BYBLOCK
 10
799.76871394367026
 20
-159.0447075945462
 30
0.0
 11
797.76871394367038
 21
-159.0447075945462
 31
0.0
  0
LINE
  5
B828
  8
0
  6
BYBLOCK
 10
771.76869672630835
 20
-159.58060597454619
 30
0.0
 11
769.76869672630835
 21
-159.0447075945462
 31
0.0
  0
LINE
  5
B829
  8
0
  6
BYBLOCK
 10
769.76869672630835
 20
-159.0447075945462
 30
0.0
 11
771.76869672630835
 21
-158.5088092145462
 31
0.0
  0
LINE
  5
B82A
  8
0
  6
BYBLOCK
 10
769.76869672630835
 20
-159.0447075945462
 30
0.0
 11
771.76869672630835
 21
-159.0447075945462
 31
0.0
  0
LINE
  5
B82B
  8
1DIM
 10
553.62206953975613
 20
-167.1651815332807
 30
0.0
 11
566.91476758914507
 21
-137.59909552980221
 31
0.0
  0
LINE
  5
B82C
  8
1DIM
 10
566.91476758914507
 20
-137.59909552980221
 30
0.0
 11
569.61476758914512
 21
-137.59909552980221
 31
0.0
  0
LINE
  5
B82D
  8
1DIM
 10
640.08496508189353
 20
-182.11141426179421
 30
0.0
 11
637.91354209698727
 21
-148.45205445599581
 31
0.0
  0
LINE
  5
B82E
  8
1DIM
 10
637.91354209698727
 20
-148.45205445599581
 30
0.0
 11
640.61354209698743
 21
-148.45205445599581
 31
0.0
  0
VIEWPORT
  5
20C3
 67
     1
  8
0
  6
CONTINUOUS
 10
-3.762307622610364
 20
10.089000620492961
 30
0.0
 40
584.25918758485943
 41
268.6325756950352
 68
     1
 69
     1
1001
ACAD
1000
MVIEW
1002
{
1070
    16
1010
0.0
1020
0.0
1030
0.0
1010
0.0
1020
0.0
1030
1.0
1040
0.0
1040
268.6325756950352
1040
-3.762307622610364
1040
10.089000620492961
1040
50.0
1040
0.0
1040
0.0
1070
     0
1070
   100
1070
     1
1070
     1
1070
     0
1070
     0
1070
     0
1070
     0
1040
0.0
1040
0.0
1040
0.0
1040
1.0
1040
1.0
1040
0.0
1040
0.0
1070
     0
1002
{
1002
}
1002
}
  0
ENDSEC
  0
EOF
