  0
SECTION
  2
HEADER
  9
$ACADVER
  1
AC1009
  9
$INSBASE
 10
0.0
 20
0.0
 30
0.0
  9
$EXTMIN
 10
511.66840646420479
 20
-216.03728328430711
 30
0.0
  9
$EXTMAX
 10
801.73020980628928
 20
-12.81710330682972
 30
0.0
  9
$LIMMIN
 10
0.0
 20
0.0
  9
$LIMMAX
 10
12.0
 20
9.0
  9
$ORTHOMODE
 70
     0
  9
$REGENMODE
 70
     1
  9
$FILLMODE
 70
     1
  9
$QTEXTMODE
 70
     0
  9
$MIRRTEXT
 70
     0
  9
$DRAGMODE
 70
     2
  9
$LTSCALE
 40
0.5
  9
$OSMODE
 70
    63
  9
$ATTMODE
 70
     1
  9
$TEXTSIZE
 40
2.7999999999999989
  9
$TRACEWID
 40
0.05
  9
$TEXTSTYLE
  7
STANDARD
  9
$CLAYER
  8
1TEXT
  9
$CELTYPE
  6
BYLAYER
  9
$CECOLOR
 62
   256
  9
$DIMSCALE
 40
1.0
  9
$DIMASZ
 40
2.0
  9
$DIMEXO
 40
0.0
  9
$DIMDLI
 40
7.0
  9
$DIMRND
 40
0.0
  9
$DIMDLE
 40
0.0
  9
$DIMEXE
 40
1.0
  9
$DIMTP
 40
0.0
  9
$DIMTM
 40
0.0
  9
$DIMTXT
 40
3.5
  9
$DIMCEN
 40
0.0
  9
$DIMTSZ
 40
0.0
  9
$DIMTOL
 70
     0
  9
$DIMLIM
 70
     0
  9
$DIMTIH
 70
     0
  9
$DIMTOH
 70
     0
  9
$DIMSE1
 70
     0
  9
$DIMSE2
 70
     0
  9
$DIMTAD
 70
     1
  9
$DIMZIN
 70
     8
  9
$DIMBLK
  1

  9
$DIMASO
 70
     1
  9
$DIMSHO
 70
     1
  9
$DIMPOST
  1
 
  9
$DIMAPOST
  1

  9
$DIMALT
 70
     0
  9
$DIMALTD
 70
     2
  9
$DIMALTF
 40
25.399999999999999
  9
$DIMLFAC
 40
1.0
  9
$DIMTOFL
 70
     1
  9
$DIMTVP
 40
0.0
  9
$DIMTIX
 70
     0
  9
$DIMSOXD
 70
     0
  9
$DIMSAH
 70
     1
  9
$DIMBLK1
  1
OPEN30
  9
$DIMBLK2
  1
OPEN30
  9
$DIMSTYLE
  2
NEWX10
  9
$DIMCLRD
 70
   256
  9
$DIMCLRE
 70
   256
  9
$DIMCLRT
 70
   201
  9
$DIMTFAC
 40
0.7
  9
$DIMGAP
 40
0.7
  9
$LUNITS
 70
     2
  9
$LUPREC
 70
     4
  9
$SKETCHINC
 40
0.1
  9
$FILLETRAD
 40
0.0
  9
$AUNITS
 70
     0
  9
$AUPREC
 70
     2
  9
$MENU
  1
acad
  9
$ELEVATION
 40
0.0
  9
$PELEVATION
 40
0.0
  9
$THICKNESS
 40
0.0
  9
$LIMCHECK
 70
     0
  9
$BLIPMODE
 70
     0
  9
$CHAMFERA
 40
0.0
  9
$CHAMFERB
 40
0.0
  9
$SKPOLY
 70
     0
  9
$TDCREATE
 40
2451024.579593021
  9
$TDUPDATE
 40
2457014.6596043049
  9
$TDINDWG
 40
0.9213701042
  9
$TDUSRTIMER
 40
0.9213701042
  9
$USRTIMER
 70
     1
  9
$ANGBASE
 50
0.0
  9
$ANGDIR
 70
     0
  9
$PDMODE
 70
     0
  9
$PDSIZE
 40
0.0
  9
$PLINEWID
 40
0.0
  9
$COORDS
 70
     0
  9
$SPLFRAME
 70
     0
  9
$SPLINETYPE
 70
     6
  9
$SPLINESEGS
 70
     8
  9
$ATTDIA
 70
     0
  9
$ATTREQ
 70
     1
  9
$HANDLING
 70
     1
  9
$HANDSEED
  5
BB26
  9
$SURFTAB1
 70
     6
  9
$SURFTAB2
 70
     6
  9
$SURFTYPE
 70
     6
  9
$SURFU
 70
     6
  9
$SURFV
 70
     6
  9
$UCSNAME
  2

  9
$UCSORG
 10
0.0
 20
0.0
 30
0.0
  9
$UCSXDIR
 10
1.0
 20
0.0
 30
0.0
  9
$UCSYDIR
 10
0.0
 20
1.0
 30
0.0
  9
$PUCSNAME
  2

  9
$PUCSORG
 10
0.0
 20
0.0
 30
0.0
  9
$PUCSXDIR
 10
1.0
 20
0.0
 30
0.0
  9
$PUCSYDIR
 10
0.0
 20
1.0
 30
0.0
  9
$USERI1
 70
     0
  9
$USERI2
 70
     0
  9
$USERI3
 70
     0
  9
$USERI4
 70
     0
  9
$USERI5
 70
     0
  9
$USERR1
 40
0.0
  9
$USERR2
 40
0.0
  9
$USERR3
 40
0.0
  9
$USERR4
 40
0.0
  9
$USERR5
 40
0.0
  9
$WORLDVIEW
 70
     1
  9
$SHADEDGE
 70
     3
  9
$SHADEDIF
 70
    70
  9
$TILEMODE
 70
     1
  9
$MAXACTVP
 70
    48
  9
$PLIMCHECK
 70
     0
  9
$PEXTMIN
 10
1.0000000000000000E+020
 20
1.0000000000000000E+020
 30
1.0000000000000000E+020
  9
$PEXTMAX
 10
-1.0000000000000000E+020
 20
-1.0000000000000000E+020
 30
-1.0000000000000000E+020
  9
$PLIMMIN
 10
0.0
 20
0.0
  9
$PLIMMAX
 10
12.0
 20
9.0
  9
$UNITMODE
 70
     0
  9
$VISRETAIN
 70
     1
  9
$PLINEGEN
 70
     0
  9
$PSLTSCALE
 70
     1
  0
ENDSEC
  0
SECTION
  2
TABLES
  0
TABLE
  2
VPORT
 70
     1
  0
VPORT
  2
*ACTIVE
 70
     0
 10
0.0
 20
0.0
 11
1.0
 21
1.0
 12
656.69675703978351
 22
-114.4295293089375
 13
0.0
 23
0.0
 14
1.0
 24
1.0
 15
0.0
 25
0.0
 16
0.0
 26
0.0
 36
1.0
 17
0.0
 27
0.0
 37
0.0
 40
215.51604228529891
 41
2.1749379652605461
 42
50.0
 43
0.0
 44
0.0
 50
0.0
 51
0.0
 71
     0
 72
   100
 73
     1
 74
     1
 75
     0
 76
     0
 77
     0
 78
     0
  0
ENDTAB
  0
TABLE
  2
LTYPE
 70
    14
  0
LTYPE
  2
CONTINUOUS
 70
     0
  3
Solid line
 72
    65
 73
     0
 40
0.0
  0
LTYPE
  2
CENTER2
 70
     0
  3
Center (.5x) ___ _ ___ _ ___ _ ___ _ ___ _ ___
 72
    65
 73
     4
 40
28.574999999999999
 49
19.050000000000001
 49
-3.1749999999999989
 49
3.1749999999999989
 49
-3.1749999999999989
  0
LTYPE
  2
XREF1|CENTER2
 70
    48
  3
Center (.5x) ___ _ ___ _ ___ _ ___ _ ___ _ ___
 72
    65
 73
     4
 40
28.574999999999999
 49
19.050000000000001
 49
-3.1749999999999989
 49
3.1749999999999989
 49
-3.1749999999999989
  0
LTYPE
  2
A3WAKUDAKE|CENTER2
 70
    48
  3
Center (.5x) ___ _ ___ _ ___ _ ___ _ ___ _ ___
 72
    65
 73
     4
 40
28.574999999999999
 49
19.050000000000001
 49
-3.1749999999999989
 49
3.1749999999999989
 49
-3.1749999999999989
  0
ENDTAB
  0
TABLE
  2
LAYER
 70
    47
  0
LAYER
  2
0
 70
     0
 62
     7
  6
CONTINUOUS
  0
LAYER
  2
1CENTER
 70
     0
 62
     7
  6
CENTER2
  0
LAYER
  2
1DIM
 70
     0
 62
     7
  6
CONTINUOUS
  0
LAYER
  2
1TEXT
 70
     0
 62
     7
  6
CONTINUOUS
  0
LAYER
  2
1HATCH
 70
     0
 62
     7
  6
CONTINUOUS
  0
LAYER
  2
01
 70
     0
 62
     1
  6
CONTINUOUS
  0
LAYER
  2
A3WAKUDAKE|THICK
 70
    48
 62
     7
  6
CONTINUOUS
  0
LAYER
  2
A3WAKUDAKE|POINT
 70
    48
 62
     7
  6
CONTINUOUS
  0
LAYER
  2
A3WAKUDAKE|1CENTER
 70
    48
 62
     7
  6
A3WAKUDAKE|CENTER2
  0
LAYER
  2
A3WAKUDAKE|0-6
 70
    48
 62
     7
  6
CONTINUOUS
  0
LAYER
  2
A3WAKUDAKE|1DIM
 70
    48
 62
     7
  6
CONTINUOUS
  0
LAYER
  2
XREF1|1CENTER
 70
    48
 62
     7
  6
XREF1|CENTER2
  0
ENDTAB
  0
TABLE
  2
STYLE
 70
    22
  0
STYLE
  2
STANDARD
 70
     0
 40
0.0
 41
1.0
 50
0.0
 71
     0
 42
2.7999999999999989
  3
txt.shx
  4
extfont.shx
  0
ENDTAB
  0
TABLE
  2
VIEW
 70
     6
  0
VIEW
  2
A
 70
     0
 40
163.88865421183439
 10
23.75874513620715
 20
-310.52391195898861
 41
232.0683926202114
 11
0.0
 21
0.0
 31
1.0
 12
0.0
 22
0.0
 32
0.0
 42
50.0
 43
0.0
 44
0.0
 50
0.0
 71
     0
  0
ENDTAB
  0
TABLE
  2
UCS
 70
     0
  0
ENDTAB
  0
TABLE
  2
APPID
 70
    13
  0
APPID
  2
ACAD
 70
     0
  0
APPID
  2
CONTENTBLOCKICON
 70
     0
  0
APPID
  2
CONTENTBLOCKDESCRIPTION
 70
     0
  0
APPID
  2
CONTENTTABDATA
 70
     0
  0
APPID
  2
CONTENTCURRENTTAB
 70
     0
  0
APPID
  2
DRAWINGVARIABLESXDATA
 70
     0
  0
APPID
  2
CONTENTLONGBLOCKNAME
 70
     0
  0
APPID
  2
ACAD_MLEADERVER
 70
     0
  0
APPID
  2
ACADANNOTATIVE
 70
     0
  0
APPID
  2
ACAD_PSEXT
 70
     0
  0
APPID
  2
ACAD_NAV_VCDISPLAY
 70
     0
  0
APPID
  2
ACAD_EXEMPT_FROM_CAD_STANDARDS
 70
     0
  0
APPID
  2
ACLAYERTOOLS
 70
     0
  0
ENDTAB
  0
TABLE
  2
DIMSTYLE
 70
     8
  0
DIMSTYLE
  2
NEWX10
 70
     0
  3
 
  4

  5

  6
OPEN30
  7
OPEN30
 40
1.0
 41
2.0
 42
0.0
 43
7.0
 44
1.0
 45
0.0
 46
0.0
 47
0.0
 48
0.0
140
3.5
141
0.0
142
0.0
143
25.399999999999999
144
1.0
145
0.0
146
0.7
147
0.7
 71
     0
 72
     0
 73
     0
 74
     0
 75
     0
 76
     0
 77
     1
 78
     8
170
     0
171
     2
172
     1
173
     1
174
     0
175
     0
176
   256
177
   256
178
   201
  0
ENDTAB
  0
ENDSEC
  0
SECTION
  2
BLOCKS
  0
BLOCK
  8
0
  2
$MODEL_SPACE
 70
     0
 10
0.0
 20
0.0
 30
0.0
  3
$MODEL_SPACE
  1

  0
ENDBLK
  5
1A
  8
0
  0
BLOCK
 67
     1
  8
0
  2
$PAPER_SPACE
 70
     0
 10
0.0
 20
0.0
 30
0.0
  3
$PAPER_SPACE
  1

  0
ENDBLK
  5
17
 67
     1
  8
0
  0
BLOCK
  8
0
  2
XREF1
 70
    36
 10
0.0
 20
0.0
 30
0.0
  3
XREF1
  1
D:\ACLT\FORMAT\KAWAJUN(9)図面用.dwg
  0
ENDBLK
  5
37B8
  8
0
  0
BLOCK
  8
0
  2
_OPEN30
 70
     0
 10
0.0
 20
0.0
 30
0.0
  3
_OPEN30
  1

  0
LINE
  5
3854
  8
0
  6
BYBLOCK
 62
     0
 10
-1.0
 20
0.26794919
 30
0.0
 11
0.0
 21
0.0
 31
0.0
  0
LINE
  5
3855
  8
0
  6
BYBLOCK
 62
     0
 10
0.0
 20
0.0
 30
0.0
 11
-1.0
 21
-0.26794919
 31
0.0
  0
LINE
  5
3856
  8
0
  6
BYBLOCK
 62
     0
 10
0.0
 20
0.0
 30
0.0
 11
-1.0
 21
0.0
 31
0.0
  0
ENDBLK
  5
3858
  8
0
  0
BLOCK
  8
0
  2
A3WAKUDAKE
 70
    36
 10
0.0
 20
0.0
 30
0.0
  3
A3WAKUDAKE
  1
D:\ACLT\FORMAT\A3WAKUdake.dwg
  0
ENDBLK
  5
B27C
  8
0
  0
ENDSEC
  0
SECTION
  2
ENTITIES
  0
LINE
  5
973C
  8
1CENTER
 10
512.37202852459654
 20
-187.30209723431409
 30
0.0
 11
568.7107997724097
 21
-187.30209723431051
 31
0.0
  0
LINE
  5
973F
  8
1CENTER
 10
540.80571396850075
 20
-158.1125737535024
 30
0.0
 11
540.80571396849984
 21
-216.03728328430711
 31
0.0
  0
LINE
  5
974B
  8
1CENTER
 10
540.80571396850053
 20
-103.02144618292419
 30
0.0
 11
540.80571396850053
 21
-125.9478100181701
 31
0.0
  0
LINE
  5
98FD
  8
1CENTER
 10
724.7668484546125
 20
-92.633749736008326
 30
0.0
 11
724.7668484546125
 21
-135.95645566784589
 31
0.0
  0
LINE
  5
A959
  8
01
 10
514.30571396850166
 20
-109.9090162082888
 30
0.0
 11
567.3057139684995
 21
-109.9090162082869
 31
0.0
  0
LINE
  5
A95B
  8
01
 10
514.80571396850166
 20
-118.4090162082888
 30
0.0
 11
566.8057139684995
 21
-118.4090162082851
 31
0.0
  0
LINE
  5
A9AB
  8
01
 10
750.76684845461182
 20
-128.717014804737
 30
0.0
 11
698.76684845461409
 21
-128.71701480473331
 31
0.0
  0
LINE
  5
ABD3
  8
01
 10
550.05571357072699
 20
-119.009017355712
 30
0.0
 11
531.55571357072733
 21
-119.009016547051
 31
0.0
  0
LINE
  5
ABD9
  8
01
 10
550.05571357072699
 20
-119.009017355712
 30
0.0
 11
550.05571359695375
 21
-118.4090162082864
 31
0.0
  0
LINE
  5
ABDE
  8
01
 10
531.55571357072733
 20
-119.009016547051
 30
0.0
 11
531.55571359695398
 21
-118.4090162082876
 31
0.0
  0
LINE
  5
AC64
  8
01
 10
734.01684805683897
 20
-129.3170159521602
 30
0.0
 11
715.51684805683919
 21
-129.31701514349919
 31
0.0
  0
LINE
  5
AC6A
  8
01
 10
734.01684805683897
 20
-129.3170159521602
 30
0.0
 11
734.01684808306595
 21
-128.7170148047357
 31
0.0
  0
LINE
  5
AC6F
  8
01
 10
715.51684805683919
 20
-129.31701514349919
 30
0.0
 11
715.51684808306618
 21
-128.71701480473439
 31
0.0
  0
LINE
  5
AF4B
  8
01
 10
751.26684845461182
 20
-120.2170148047351
 30
0.0
 11
698.26684845461409
 21
-120.217014804737
 31
0.0
  0
LINE
  5
AF4C
  8
1CENTER
 10
696.33316301070874
 20
-187.30209723431409
 30
0.0
 11
752.67193425852201
 21
-187.30209723431051
 31
0.0
  0
LINE
  5
AF4D
  8
1CENTER
 10
724.76684845461318
 20
-158.1125737535024
 30
0.0
 11
724.76684845461227
 21
-216.03728328430711
 31
0.0
  0
LINE
  5
AF5C
  8
1CENTER
 10
617.88152155861656
 20
-187.30209723431241
 30
0.0
 11
605.40346944781982
 21
-187.30209723431241
 31
0.0
  0
LINE
  5
AF5D
  8
01
 10
615.78118809245098
 20
-160.80209723431409
 30
0.0
 11
615.78118809245291
 21
-213.8020972343142
 31
0.0
  0
LINE
  5
AF5E
  8
01
 10
607.28118809245098
 20
-161.30209723431409
 30
0.0
 11
607.28118809245473
 21
-213.3020972343142
 31
0.0
  0
LINE
  5
AF63
  8
01
 10
606.68118694502789
 20
-196.55209683653879
 30
0.0
 11
606.68118775368885
 21
-178.05209683653919
 31
0.0
  0
LINE
  5
AF64
  8
01
 10
606.68118694502789
 20
-196.55209683653879
 30
0.0
 11
607.28118809245336
 21
-196.55209686276569
 31
0.0
  0
LINE
  5
AF65
  8
01
 10
606.68118775368885
 20
-178.05209683653919
 30
0.0
 11
607.28118809245223
 21
-178.05209686276601
 31
0.0
  0
LINE
  5
AF66
  8
1CENTER
 10
628.19792302372423
 20
-187.30209723431241
 30
0.0
 11
666.15890673593492
 21
-187.30209723431241
 31
0.0
  0
LINE
  5
AF67
  8
01
 10
664.28118809245279
 20
-161.30209723431409
 30
0.0
 11
664.28118809244916
 21
-213.3020972343142
 31
0.0
  0
LINE
  5
AF6C
  8
01
 10
664.88118923987611
 20
-178.052097632086
 30
0.0
 11
664.88118843121515
 21
-196.55209763208569
 31
0.0
  0
LINE
  5
AF6D
  8
01
 10
664.88118923987611
 20
-178.052097632086
 30
0.0
 11
664.28118809245154
 21
-178.0520976058591
 31
0.0
  0
LINE
  5
AF6E
  8
01
 10
664.88118843121515
 20
-196.55209763208569
 30
0.0
 11
664.28118809245029
 21
-196.5520976058589
 31
0.0
  0
ARC
  5
AF6F
  8
01
 10
654.98119001414682
 20
-191.10210522518801
 30
0.0
 40
0.8
 50
0.0000025044719588
 51
90.000002504468682
  0
ARC
  5
AF70
  8
01
 10
654.9811896819408
 20
-183.50210522518799
 30
0.0
 40
0.8
 50
270.00000250446868
 51
0.0000025044719588
  0
LINE
  5
AF71
  8
01
 10
630.78118971690992
 20
-184.30210628300051
 30
0.0
 11
630.78118997917795
 21
-190.3021062830004
 31
0.0
  0
LINE
  5
AF72
  8
01
 10
654.98118997917777
 20
-190.302105225188
 30
0.0
 11
630.78118997917795
 21
-190.3021062830004
 31
0.0
  0
LINE
  5
AF73
  8
01
 10
654.98118971690985
 20
-184.30210522518789
 30
0.0
 11
630.78118971690992
 21
-184.30210628300051
 31
0.0
  0
LINE
  5
AF74
  8
01
 10
655.78118809245109
 20
-160.80209723431409
 30
0.0
 11
655.78118809245279
 21
-213.8020972343142
 31
0.0
  0
ARC
  5
B200
  8
01
 10
745.56684845461257
 20
-119.4170138955408
 30
0.0
 40
0.8
 50
180.0
 51
270.00000250447522
  0
ARC
  5
B201
  8
01
 10
737.96684845461255
 20
-119.4170142277469
 30
0.0
 40
0.8
 50
270.00000250447522
 51
0.0
  0
LINE
  5
B202
  8
01
 10
738.86211094495707
 20
-95.217014188613874
 30
0.0
 11
744.76684845461273
 21
-95.217013930509964
 31
0.0
  0
LINE
  5
B203
  8
1CENTER
 10
741.76684845461273
 20
-124.8078162009941
 30
0.0
 11
741.76684845461273
 21
-93.625496934723856
 31
0.0
  0
LINE
  5
B204
  8
01
 10
738.76684845461261
 20
-119.4170142277469
 30
0.0
 11
738.76684845461261
 21
-113.2170141927779
 31
0.0
  0
LINE
  5
B205
  8
01
 10
744.76684845461273
 20
-119.4170138955408
 30
0.0
 11
744.76684845461273
 21
-95.217013930509964
 31
0.0
  0
LINE
  5
B206
  8
01
 10
738.86211094495707
 20
-112.4670141927779
 30
0.0
 11
738.86211094495707
 21
-95.217014188613874
 31
0.0
  0
POLYLINE
  5
B207
  8
01
 10
738.76684845461261
 20
-113.2170141927779
 30
0.0
 66
     1
 70
     8
  0
VERTEX
  8
01
  5
BA22
 10
738.767
 20
-113.217
 30
0.000000
  70
    32
  0
VERTEX
  8
01
  5
BA23
 10
738.768
 20
-113.217
 30
0.000000
  70
    32
  0
VERTEX
  8
01
  5
BA24
 10
738.769
 20
-113.217
 30
0.000000
  70
    32
  0
VERTEX
  8
01
  5
BA25
 10
738.770
 20
-113.217
 30
0.000000
  70
    32
  0
VERTEX
  8
01
  5
BA26
 10
738.772
 20
-113.216
 30
0.000000
  70
    32
  0
VERTEX
  8
01
  5
BA27
 10
738.773
 20
-113.216
 30
0.000000
  70
    32
  0
VERTEX
  8
01
  5
BA28
 10
738.774
 20
-113.215
 30
0.000000
  70
    32
  0
VERTEX
  8
01
  5
BA29
 10
738.775
 20
-113.214
 30
0.000000
  70
    32
  0
VERTEX
  8
01
  5
BA2A
 10
738.776
 20
-113.213
 30
0.000000
  70
    32
  0
VERTEX
  8
01
  5
BA2B
 10
738.777
 20
-113.212
 30
0.000000
  70
    32
  0
VERTEX
  8
01
  5
BA2C
 10
738.779
 20
-113.211
 30
0.000000
  70
    32
  0
VERTEX
  8
01
  5
BA2D
 10
738.780
 20
-113.210
 30
0.000000
  70
    32
  0
VERTEX
  8
01
  5
BA2E
 10
738.781
 20
-113.209
 30
0.000000
  70
    32
  0
VERTEX
  8
01
  5
BA2F
 10
738.782
 20
-113.207
 30
0.000000
  70
    32
  0
VERTEX
  8
01
  5
BA30
 10
738.783
 20
-113.206
 30
0.000000
  70
    32
  0
VERTEX
  8
01
  5
BA31
 10
738.784
 20
-113.204
 30
0.000000
  70
    32
  0
VERTEX
  8
01
  5
BA32
 10
738.785
 20
-113.203
 30
0.000000
  70
    32
  0
VERTEX
  8
01
  5
BA33
 10
738.787
 20
-113.201
 30
0.000000
  70
    32
  0
VERTEX
  8
01
  5
BA34
 10
738.788
 20
-113.199
 30
0.000000
  70
    32
  0
VERTEX
  8
01
  5
BA35
 10
738.789
 20
-113.197
 30
0.000000
  70
    32
  0
VERTEX
  8
01
  5
BA36
 10
738.790
 20
-113.195
 30
0.000000
  70
    32
  0
VERTEX
  8
01
  5
BA37
 10
738.791
 20
-113.192
 30
0.000000
  70
    32
  0
VERTEX
  8
01
  5
BA38
 10
738.792
 20
-113.190
 30
0.000000
  70
    32
  0
VERTEX
  8
01
  5
BA39
 10
738.793
 20
-113.187
 30
0.000000
  70
    32
  0
VERTEX
  8
01
  5
BA3A
 10
738.795
 20
-113.185
 30
0.000000
  70
    32
  0
VERTEX
  8
01
  5
BA3B
 10
738.796
 20
-113.182
 30
0.000000
  70
    32
  0
VERTEX
  8
01
  5
BA3C
 10
738.797
 20
-113.179
 30
0.000000
  70
    32
  0
VERTEX
  8
01
  5
BA3D
 10
738.798
 20
-113.176
 30
0.000000
  70
    32
  0
VERTEX
  8
01
  5
BA3E
 10
738.799
 20
-113.173
 30
0.000000
  70
    32
  0
VERTEX
  8
01
  5
BA3F
 10
738.800
 20
-113.170
 30
0.000000
  70
    32
  0
VERTEX
  8
01
  5
BA40
 10
738.801
 20
-113.167
 30
0.000000
  70
    32
  0
VERTEX
  8
01
  5
BA41
 10
738.802
 20
-113.163
 30
0.000000
  70
    32
  0
VERTEX
  8
01
  5
BA42
 10
738.803
 20
-113.160
 30
0.000000
  70
    32
  0
VERTEX
  8
01
  5
BA43
 10
738.804
 20
-113.156
 30
0.000000
  70
    32
  0
VERTEX
  8
01
  5
BA44
 10
738.805
 20
-113.153
 30
0.000000
  70
    32
  0
VERTEX
  8
01
  5
BA45
 10
738.807
 20
-113.149
 30
0.000000
  70
    32
  0
VERTEX
  8
01
  5
BA46
 10
738.808
 20
-113.145
 30
0.000000
  70
    32
  0
VERTEX
  8
01
  5
BA47
 10
738.809
 20
-113.141
 30
0.000000
  70
    32
  0
VERTEX
  8
01
  5
BA48
 10
738.810
 20
-113.137
 30
0.000000
  70
    32
  0
VERTEX
  8
01
  5
BA49
 10
738.811
 20
-113.133
 30
0.000000
  70
    32
  0
VERTEX
  8
01
  5
BA4A
 10
738.812
 20
-113.128
 30
0.000000
  70
    32
  0
VERTEX
  8
01
  5
BA4B
 10
738.813
 20
-113.124
 30
0.000000
  70
    32
  0
VERTEX
  8
01
  5
BA4C
 10
738.814
 20
-113.120
 30
0.000000
  70
    32
  0
VERTEX
  8
01
  5
BA4D
 10
738.815
 20
-113.115
 30
0.000000
  70
    32
  0
VERTEX
  8
01
  5
BA4E
 10
738.816
 20
-113.110
 30
0.000000
  70
    32
  0
VERTEX
  8
01
  5
BA4F
 10
738.817
 20
-113.106
 30
0.000000
  70
    32
  0
VERTEX
  8
01
  5
BA50
 10
738.818
 20
-113.101
 30
0.000000
  70
    32
  0
VERTEX
  8
01
  5
BA51
 10
738.819
 20
-113.096
 30
0.000000
  70
    32
  0
VERTEX
  8
01
  5
BA52
 10
738.820
 20
-113.091
 30
0.000000
  70
    32
  0
VERTEX
  8
01
  5
BA53
 10
738.821
 20
-113.085
 30
0.000000
  70
    32
  0
VERTEX
  8
01
  5
BA54
 10
738.822
 20
-113.080
 30
0.000000
  70
    32
  0
VERTEX
  8
01
  5
BA55
 10
738.823
 20
-113.075
 30
0.000000
  70
    32
  0
VERTEX
  8
01
  5
BA56
 10
738.824
 20
-113.069
 30
0.000000
  70
    32
  0
VERTEX
  8
01
  5
BA57
 10
738.825
 20
-113.064
 30
0.000000
  70
    32
  0
VERTEX
  8
01
  5
BA58
 10
738.825
 20
-113.058
 30
0.000000
  70
    32
  0
VERTEX
  8
01
  5
BA59
 10
738.826
 20
-113.053
 30
0.000000
  70
    32
  0
VERTEX
  8
01
  5
BA5A
 10
738.827
 20
-113.047
 30
0.000000
  70
    32
  0
VERTEX
  8
01
  5
BA5B
 10
738.828
 20
-113.041
 30
0.000000
  70
    32
  0
VERTEX
  8
01
  5
BA5C
 10
738.829
 20
-113.035
 30
0.000000
  70
    32
  0
VERTEX
  8
01
  5
BA5D
 10
738.830
 20
-113.029
 30
0.000000
  70
    32
  0
VERTEX
  8
01
  5
BA5E
 10
738.831
 20
-113.023
 30
0.000000
  70
    32
  0
VERTEX
  8
01
  5
BA5F
 10
738.832
 20
-113.017
 30
0.000000
  70
    32
  0
VERTEX
  8
01
  5
BA60
 10
738.833
 20
-113.010
 30
0.000000
  70
    32
  0
VERTEX
  8
01
  5
BA61
 10
738.833
 20
-113.004
 30
0.000000
  70
    32
  0
VERTEX
  8
01
  5
BA62
 10
738.834
 20
-112.997
 30
0.000000
  70
    32
  0
VERTEX
  8
01
  5
BA63
 10
738.835
 20
-112.991
 30
0.000000
  70
    32
  0
VERTEX
  8
01
  5
BA64
 10
738.836
 20
-112.984
 30
0.000000
  70
    32
  0
VERTEX
  8
01
  5
BA65
 10
738.837
 20
-112.977
 30
0.000000
  70
    32
  0
VERTEX
  8
01
  5
BA66
 10
738.837
 20
-112.971
 30
0.000000
  70
    32
  0
VERTEX
  8
01
  5
BA67
 10
738.838
 20
-112.964
 30
0.000000
  70
    32
  0
VERTEX
  8
01
  5
BA68
 10
738.839
 20
-112.957
 30
0.000000
  70
    32
  0
VERTEX
  8
01
  5
BA69
 10
738.840
 20
-112.950
 30
0.000000
  70
    32
  0
VERTEX
  8
01
  5
BA6A
 10
738.840
 20
-112.943
 30
0.000000
  70
    32
  0
VERTEX
  8
01
  5
BA6B
 10
738.841
 20
-112.936
 30
0.000000
  70
    32
  0
VERTEX
  8
01
  5
BA6C
 10
738.842
 20
-112.928
 30
0.000000
  70
    32
  0
VERTEX
  8
01
  5
BA6D
 10
738.843
 20
-112.921
 30
0.000000
  70
    32
  0
VERTEX
  8
01
  5
BA6E
 10
738.843
 20
-112.914
 30
0.000000
  70
    32
  0
VERTEX
  8
01
  5
BA6F
 10
738.844
 20
-112.906
 30
0.000000
  70
    32
  0
VERTEX
  8
01
  5
BA70
 10
738.845
 20
-112.899
 30
0.000000
  70
    32
  0
VERTEX
  8
01
  5
BA71
 10
738.845
 20
-112.891
 30
0.000000
  70
    32
  0
VERTEX
  8
01
  5
BA72
 10
738.846
 20
-112.884
 30
0.000000
  70
    32
  0
VERTEX
  8
01
  5
BA73
 10
738.847
 20
-112.876
 30
0.000000
  70
    32
  0
VERTEX
  8
01
  5
BA74
 10
738.847
 20
-112.868
 30
0.000000
  70
    32
  0
VERTEX
  8
01
  5
BA75
 10
738.848
 20
-112.860
 30
0.000000
  70
    32
  0
VERTEX
  8
01
  5
BA76
 10
738.849
 20
-112.853
 30
0.000000
  70
    32
  0
VERTEX
  8
01
  5
BA77
 10
738.849
 20
-112.845
 30
0.000000
  70
    32
  0
VERTEX
  8
01
  5
BA78
 10
738.850
 20
-112.837
 30
0.000000
  70
    32
  0
VERTEX
  8
01
  5
BA79
 10
738.850
 20
-112.829
 30
0.000000
  70
    32
  0
VERTEX
  8
01
  5
BA7A
 10
738.851
 20
-112.821
 30
0.000000
  70
    32
  0
VERTEX
  8
01
  5
BA7B
 10
738.851
 20
-112.812
 30
0.000000
  70
    32
  0
VERTEX
  8
01
  5
BA7C
 10
738.852
 20
-112.804
 30
0.000000
  70
    32
  0
VERTEX
  8
01
  5
BA7D
 10
738.852
 20
-112.796
 30
0.000000
  70
    32
  0
VERTEX
  8
01
  5
BA7E
 10
738.853
 20
-112.788
 30
0.000000
  70
    32
  0
VERTEX
  8
01
  5
BA7F
 10
738.853
 20
-112.779
 30
0.000000
  70
    32
  0
VERTEX
  8
01
  5
BA80
 10
738.854
 20
-112.771
 30
0.000000
  70
    32
  0
VERTEX
  8
01
  5
BA81
 10
738.854
 20
-112.763
 30
0.000000
  70
    32
  0
VERTEX
  8
01
  5
BA82
 10
738.855
 20
-112.754
 30
0.000000
  70
    32
  0
VERTEX
  8
01
  5
BA83
 10
738.855
 20
-112.746
 30
0.000000
  70
    32
  0
VERTEX
  8
01
  5
BA84
 10
738.856
 20
-112.737
 30
0.000000
  70
    32
  0
VERTEX
  8
01
  5
BA85
 10
738.856
 20
-112.728
 30
0.000000
  70
    32
  0
VERTEX
  8
01
  5
BA86
 10
738.857
 20
-112.720
 30
0.000000
  70
    32
  0
VERTEX
  8
01
  5
BA87
 10
738.857
 20
-112.711
 30
0.000000
  70
    32
  0
VERTEX
  8
01
  5
BA88
 10
738.857
 20
-112.702
 30
0.000000
  70
    32
  0
VERTEX
  8
01
  5
BA89
 10
738.858
 20
-112.694
 30
0.000000
  70
    32
  0
VERTEX
  8
01
  5
BA8A
 10
738.858
 20
-112.685
 30
0.000000
  70
    32
  0
VERTEX
  8
01
  5
BA8B
 10
738.858
 20
-112.676
 30
0.000000
  70
    32
  0
VERTEX
  8
01
  5
BA8C
 10
738.859
 20
-112.667
 30
0.000000
  70
    32
  0
VERTEX
  8
01
  5
BA8D
 10
738.859
 20
-112.658
 30
0.000000
  70
    32
  0
VERTEX
  8
01
  5
BA8E
 10
738.859
 20
-112.649
 30
0.000000
  70
    32
  0
VERTEX
  8
01
  5
BA8F
 10
738.860
 20
-112.640
 30
0.000000
  70
    32
  0
VERTEX
  8
01
  5
BA90
 10
738.860
 20
-112.631
 30
0.000000
  70
    32
  0
VERTEX
  8
01
  5
BA91
 10
738.860
 20
-112.622
 30
0.000000
  70
    32
  0
VERTEX
  8
01
  5
BA92
 10
738.860
 20
-112.613
 30
0.000000
  70
    32
  0
VERTEX
  8
01
  5
BA93
 10
738.861
 20
-112.604
 30
0.000000
  70
    32
  0
VERTEX
  8
01
  5
BA94
 10
738.861
 20
-112.595
 30
0.000000
  70
    32
  0
VERTEX
  8
01
  5
BA95
 10
738.861
 20
-112.586
 30
0.000000
  70
    32
  0
VERTEX
  8
01
  5
BA96
 10
738.861
 20
-112.577
 30
0.000000
  70
    32
  0
VERTEX
  8
01
  5
BA97
 10
738.861
 20
-112.568
 30
0.000000
  70
    32
  0
VERTEX
  8
01
  5
BA98
 10
738.861
 20
-112.559
 30
0.000000
  70
    32
  0
VERTEX
  8
01
  5
BA99
 10
738.862
 20
-112.550
 30
0.000000
  70
    32
  0
VERTEX
  8
01
  5
BA9A
 10
738.862
 20
-112.541
 30
0.000000
  70
    32
  0
VERTEX
  8
01
  5
BA9B
 10
738.862
 20
-112.531
 30
0.000000
  70
    32
  0
VERTEX
  8
01
  5
BA9C
 10
738.862
 20
-112.522
 30
0.000000
  70
    32
  0
VERTEX
  8
01
  5
BA9D
 10
738.862
 20
-112.513
 30
0.000000
  70
    32
  0
VERTEX
  8
01
  5
BA9E
 10
738.862
 20
-112.504
 30
0.000000
  70
    32
  0
VERTEX
  8
01
  5
BA9F
 10
738.862
 20
-112.495
 30
0.000000
  70
    32
  0
VERTEX
  8
01
  5
BAA0
 10
738.862
 20
-112.485
 30
0.000000
  70
    32
  0
VERTEX
  8
01
  5
BAA1
 10
738.862
 20
-112.476
 30
0.000000
  70
    32
  0
VERTEX
  8
01
  5
BAA2
 10
738.862
 20
-112.467
 30
0.000000
  70
    32
  0
SEQEND
  8
01
  5
BAA3
  0
ARC
  5
B208
  8
01
 10
703.96684838467445
 20
-119.4170157139334
 30
0.0
 40
0.8
 50
270.0000025044817
 51
0.0000050089536519
  0
ARC
  5
B209
  8
01
 10
711.56684838467447
 20
-119.4170153817267
 30
0.0
 40
0.8
 50
180.00000500895359
 51
270.0000025044817
  0
LINE
  5
B20A
  8
01
 10
710.67158377870032
 20
-95.217015420860164
 30
0.0
 11
704.76684626904466
 21
-95.217015678964486
 31
0.0
  0
LINE
  5
B20B
  8
1CENTER
 10
707.76684885595284
 20
-124.8078162009941
 30
0.0
 11
707.76684612990994
 21
-93.625498420910176
 31
0.0
  0
LINE
  5
B20C
  8
01
 10
710.76684838467452
 20
-119.41701545166489
 30
0.0
 11
710.76684784265365
 21
-113.217015416696
 31
0.0
  0
LINE
  5
B20D
  8
01
 10
704.76684838467452
 20
-119.4170156439952
 30
0.0
 11
704.76684626904466
 21
-95.217015678964486
 31
0.0
  0
LINE
  5
B20E
  8
01
 10
710.67158528674213
 20
-112.4670154250241
 30
0.0
 11
710.67158377870032
 21
-95.217015420860164
 31
0.0
  0
POLYLINE
  5
B20F
  8
01
 10
710.76684784265353
 20
-113.217015416696
 30
0.0
 66
     1
 70
     8
  0
VERTEX
  8
01
  5
BAA4
 10
710.767
 20
-113.217
 30
0.000000
  70
    32
  0
VERTEX
  8
01
  5
BAA5
 10
710.766
 20
-113.217
 30
0.000000
  70
    32
  0
VERTEX
  8
01
  5
BAA6
 10
710.765
 20
-113.217
 30
0.000000
  70
    32
  0
VERTEX
  8
01
  5
BAA7
 10
710.763
 20
-113.217
 30
0.000000
  70
    32
  0
VERTEX
  8
01
  5
BAA8
 10
710.762
 20
-113.216
 30
0.000000
  70
    32
  0
VERTEX
  8
01
  5
BAA9
 10
710.761
 20
-113.216
 30
0.000000
  70
    32
  0
VERTEX
  8
01
  5
BAAA
 10
710.760
 20
-113.215
 30
0.000000
  70
    32
  0
VERTEX
  8
01
  5
BAAB
 10
710.759
 20
-113.214
 30
0.000000
  70
    32
  0
VERTEX
  8
01
  5
BAAC
 10
710.758
 20
-113.213
 30
0.000000
  70
    32
  0
VERTEX
  8
01
  5
BAAD
 10
710.756
 20
-113.212
 30
0.000000
  70
    32
  0
VERTEX
  8
01
  5
BAAE
 10
710.755
 20
-113.211
 30
0.000000
  70
    32
  0
VERTEX
  8
01
  5
BAAF
 10
710.754
 20
-113.210
 30
0.000000
  70
    32
  0
VERTEX
  8
01
  5
BAB0
 10
710.753
 20
-113.209
 30
0.000000
  70
    32
  0
VERTEX
  8
01
  5
BAB1
 10
710.752
 20
-113.207
 30
0.000000
  70
    32
  0
VERTEX
  8
01
  5
BAB2
 10
710.751
 20
-113.206
 30
0.000000
  70
    32
  0
VERTEX
  8
01
  5
BAB3
 10
710.749
 20
-113.204
 30
0.000000
  70
    32
  0
VERTEX
  8
01
  5
BAB4
 10
710.748
 20
-113.203
 30
0.000000
  70
    32
  0
VERTEX
  8
01
  5
BAB5
 10
710.747
 20
-113.201
 30
0.000000
  70
    32
  0
VERTEX
  8
01
  5
BAB6
 10
710.746
 20
-113.199
 30
0.000000
  70
    32
  0
VERTEX
  8
01
  5
BAB7
 10
710.745
 20
-113.197
 30
0.000000
  70
    32
  0
VERTEX
  8
01
  5
BAB8
 10
710.744
 20
-113.195
 30
0.000000
  70
    32
  0
VERTEX
  8
01
  5
BAB9
 10
710.743
 20
-113.192
 30
0.000000
  70
    32
  0
VERTEX
  8
01
  5
BABA
 10
710.741
 20
-113.190
 30
0.000000
  70
    32
  0
VERTEX
  8
01
  5
BABB
 10
710.740
 20
-113.187
 30
0.000000
  70
    32
  0
VERTEX
  8
01
  5
BABC
 10
710.739
 20
-113.185
 30
0.000000
  70
    32
  0
VERTEX
  8
01
  5
BABD
 10
710.738
 20
-113.182
 30
0.000000
  70
    32
  0
VERTEX
  8
01
  5
BABE
 10
710.737
 20
-113.179
 30
0.000000
  70
    32
  0
VERTEX
  8
01
  5
BABF
 10
710.736
 20
-113.176
 30
0.000000
  70
    32
  0
VERTEX
  8
01
  5
BAC0
 10
710.735
 20
-113.173
 30
0.000000
  70
    32
  0
VERTEX
  8
01
  5
BAC1
 10
710.734
 20
-113.170
 30
0.000000
  70
    32
  0
VERTEX
  8
01
  5
BAC2
 10
710.733
 20
-113.167
 30
0.000000
  70
    32
  0
VERTEX
  8
01
  5
BAC3
 10
710.731
 20
-113.163
 30
0.000000
  70
    32
  0
VERTEX
  8
01
  5
BAC4
 10
710.730
 20
-113.160
 30
0.000000
  70
    32
  0
VERTEX
  8
01
  5
BAC5
 10
710.729
 20
-113.156
 30
0.000000
  70
    32
  0
VERTEX
  8
01
  5
BAC6
 10
710.728
 20
-113.153
 30
0.000000
  70
    32
  0
VERTEX
  8
01
  5
BAC7
 10
710.727
 20
-113.149
 30
0.000000
  70
    32
  0
VERTEX
  8
01
  5
BAC8
 10
710.726
 20
-113.145
 30
0.000000
  70
    32
  0
VERTEX
  8
01
  5
BAC9
 10
710.725
 20
-113.141
 30
0.000000
  70
    32
  0
VERTEX
  8
01
  5
BACA
 10
710.724
 20
-113.137
 30
0.000000
  70
    32
  0
VERTEX
  8
01
  5
BACB
 10
710.723
 20
-113.133
 30
0.000000
  70
    32
  0
VERTEX
  8
01
  5
BACC
 10
710.722
 20
-113.128
 30
0.000000
  70
    32
  0
VERTEX
  8
01
  5
BACD
 10
710.721
 20
-113.124
 30
0.000000
  70
    32
  0
VERTEX
  8
01
  5
BACE
 10
710.720
 20
-113.120
 30
0.000000
  70
    32
  0
VERTEX
  8
01
  5
BACF
 10
710.719
 20
-113.115
 30
0.000000
  70
    32
  0
VERTEX
  8
01
  5
BAD0
 10
710.718
 20
-113.110
 30
0.000000
  70
    32
  0
VERTEX
  8
01
  5
BAD1
 10
710.717
 20
-113.106
 30
0.000000
  70
    32
  0
VERTEX
  8
01
  5
BAD2
 10
710.716
 20
-113.101
 30
0.000000
  70
    32
  0
VERTEX
  8
01
  5
BAD3
 10
710.715
 20
-113.096
 30
0.000000
  70
    32
  0
VERTEX
  8
01
  5
BAD4
 10
710.714
 20
-113.091
 30
0.000000
  70
    32
  0
VERTEX
  8
01
  5
BAD5
 10
710.713
 20
-113.085
 30
0.000000
  70
    32
  0
VERTEX
  8
01
  5
BAD6
 10
710.712
 20
-113.080
 30
0.000000
  70
    32
  0
VERTEX
  8
01
  5
BAD7
 10
710.711
 20
-113.075
 30
0.000000
  70
    32
  0
VERTEX
  8
01
  5
BAD8
 10
710.710
 20
-113.069
 30
0.000000
  70
    32
  0
VERTEX
  8
01
  5
BAD9
 10
710.709
 20
-113.064
 30
0.000000
  70
    32
  0
VERTEX
  8
01
  5
BADA
 10
710.708
 20
-113.058
 30
0.000000
  70
    32
  0
VERTEX
  8
01
  5
BADB
 10
710.707
 20
-113.053
 30
0.000000
  70
    32
  0
VERTEX
  8
01
  5
BADC
 10
710.706
 20
-113.047
 30
0.000000
  70
    32
  0
VERTEX
  8
01
  5
BADD
 10
710.706
 20
-113.041
 30
0.000000
  70
    32
  0
VERTEX
  8
01
  5
BADE
 10
710.705
 20
-113.035
 30
0.000000
  70
    32
  0
VERTEX
  8
01
  5
BADF
 10
710.704
 20
-113.029
 30
0.000000
  70
    32
  0
VERTEX
  8
01
  5
BAE0
 10
710.703
 20
-113.023
 30
0.000000
  70
    32
  0
VERTEX
  8
01
  5
BAE1
 10
710.702
 20
-113.017
 30
0.000000
  70
    32
  0
VERTEX
  8
01
  5
BAE2
 10
710.701
 20
-113.010
 30
0.000000
  70
    32
  0
VERTEX
  8
01
  5
BAE3
 10
710.700
 20
-113.004
 30
0.000000
  70
    32
  0
VERTEX
  8
01
  5
BAE4
 10
710.699
 20
-112.997
 30
0.000000
  70
    32
  0
VERTEX
  8
01
  5
BAE5
 10
710.699
 20
-112.991
 30
0.000000
  70
    32
  0
VERTEX
  8
01
  5
BAE6
 10
710.698
 20
-112.984
 30
0.000000
  70
    32
  0
VERTEX
  8
01
  5
BAE7
 10
710.697
 20
-112.977
 30
0.000000
  70
    32
  0
VERTEX
  8
01
  5
BAE8
 10
710.696
 20
-112.971
 30
0.000000
  70
    32
  0
VERTEX
  8
01
  5
BAE9
 10
710.695
 20
-112.964
 30
0.000000
  70
    32
  0
VERTEX
  8
01
  5
BAEA
 10
710.695
 20
-112.957
 30
0.000000
  70
    32
  0
VERTEX
  8
01
  5
BAEB
 10
710.694
 20
-112.950
 30
0.000000
  70
    32
  0
VERTEX
  8
01
  5
BAEC
 10
710.693
 20
-112.943
 30
0.000000
  70
    32
  0
VERTEX
  8
01
  5
BAED
 10
710.692
 20
-112.936
 30
0.000000
  70
    32
  0
VERTEX
  8
01
  5
BAEE
 10
710.692
 20
-112.928
 30
0.000000
  70
    32
  0
VERTEX
  8
01
  5
BAEF
 10
710.691
 20
-112.921
 30
0.000000
  70
    32
  0
VERTEX
  8
01
  5
BAF0
 10
710.690
 20
-112.914
 30
0.000000
  70
    32
  0
VERTEX
  8
01
  5
BAF1
 10
710.690
 20
-112.906
 30
0.000000
  70
    32
  0
VERTEX
  8
01
  5
BAF2
 10
710.689
 20
-112.899
 30
0.000000
  70
    32
  0
VERTEX
  8
01
  5
BAF3
 10
710.688
 20
-112.891
 30
0.000000
  70
    32
  0
VERTEX
  8
01
  5
BAF4
 10
710.688
 20
-112.884
 30
0.000000
  70
    32
  0
VERTEX
  8
01
  5
BAF5
 10
710.687
 20
-112.876
 30
0.000000
  70
    32
  0
VERTEX
  8
01
  5
BAF6
 10
710.686
 20
-112.868
 30
0.000000
  70
    32
  0
VERTEX
  8
01
  5
BAF7
 10
710.686
 20
-112.860
 30
0.000000
  70
    32
  0
VERTEX
  8
01
  5
BAF8
 10
710.685
 20
-112.853
 30
0.000000
  70
    32
  0
VERTEX
  8
01
  5
BAF9
 10
710.685
 20
-112.845
 30
0.000000
  70
    32
  0
VERTEX
  8
01
  5
BAFA
 10
710.684
 20
-112.837
 30
0.000000
  70
    32
  0
VERTEX
  8
01
  5
BAFB
 10
710.683
 20
-112.829
 30
0.000000
  70
    32
  0
VERTEX
  8
01
  5
BAFC
 10
710.683
 20
-112.821
 30
0.000000
  70
    32
  0
VERTEX
  8
01
  5
BAFD
 10
710.682
 20
-112.812
 30
0.000000
  70
    32
  0
VERTEX
  8
01
  5
BAFE
 10
710.682
 20
-112.804
 30
0.000000
  70
    32
  0
VERTEX
  8
01
  5
BAFF
 10
710.681
 20
-112.796
 30
0.000000
  70
    32
  0
VERTEX
  8
01
  5
BB00
 10
710.681
 20
-112.788
 30
0.000000
  70
    32
  0
VERTEX
  8
01
  5
BB01
 10
710.680
 20
-112.779
 30
0.000000
  70
    32
  0
VERTEX
  8
01
  5
BB02
 10
710.680
 20
-112.771
 30
0.000000
  70
    32
  0
VERTEX
  8
01
  5
BB03
 10
710.679
 20
-112.763
 30
0.000000
  70
    32
  0
VERTEX
  8
01
  5
BB04
 10
710.679
 20
-112.754
 30
0.000000
  70
    32
  0
VERTEX
  8
01
  5
BB05
 10
710.678
 20
-112.746
 30
0.000000
  70
    32
  0
VERTEX
  8
01
  5
BB06
 10
710.678
 20
-112.737
 30
0.000000
  70
    32
  0
VERTEX
  8
01
  5
BB07
 10
710.678
 20
-112.728
 30
0.000000
  70
    32
  0
VERTEX
  8
01
  5
BB08
 10
710.677
 20
-112.720
 30
0.000000
  70
    32
  0
VERTEX
  8
01
  5
BB09
 10
710.677
 20
-112.711
 30
0.000000
  70
    32
  0
VERTEX
  8
01
  5
BB0A
 10
710.676
 20
-112.702
 30
0.000000
  70
    32
  0
VERTEX
  8
01
  5
BB0B
 10
710.676
 20
-112.694
 30
0.000000
  70
    32
  0
VERTEX
  8
01
  5
BB0C
 10
710.676
 20
-112.685
 30
0.000000
  70
    32
  0
VERTEX
  8
01
  5
BB0D
 10
710.675
 20
-112.676
 30
0.000000
  70
    32
  0
VERTEX
  8
01
  5
BB0E
 10
710.675
 20
-112.667
 30
0.000000
  70
    32
  0
VERTEX
  8
01
  5
BB0F
 10
710.675
 20
-112.658
 30
0.000000
  70
    32
  0
VERTEX
  8
01
  5
BB10
 10
710.674
 20
-112.649
 30
0.000000
  70
    32
  0
VERTEX
  8
01
  5
BB11
 10
710.674
 20
-112.640
 30
0.000000
  70
    32
  0
VERTEX
  8
01
  5
BB12
 10
710.674
 20
-112.631
 30
0.000000
  70
    32
  0
VERTEX
  8
01
  5
BB13
 10
710.674
 20
-112.622
 30
0.000000
  70
    32
  0
VERTEX
  8
01
  5
BB14
 10
710.673
 20
-112.613
 30
0.000000
  70
    32
  0
VERTEX
  8
01
  5
BB15
 10
710.673
 20
-112.604
 30
0.000000
  70
    32
  0
VERTEX
  8
01
  5
BB16
 10
710.673
 20
-112.595
 30
0.000000
  70
    32
  0
VERTEX
  8
01
  5
BB17
 10
710.673
 20
-112.586
 30
0.000000
  70
    32
  0
VERTEX
  8
01
  5
BB18
 10
710.673
 20
-112.577
 30
0.000000
  70
    32
  0
VERTEX
  8
01
  5
BB19
 10
710.672
 20
-112.568
 30
0.000000
  70
    32
  0
VERTEX
  8
01
  5
BB1A
 10
710.672
 20
-112.559
 30
0.000000
  70
    32
  0
VERTEX
  8
01
  5
BB1B
 10
710.672
 20
-112.550
 30
0.000000
  70
    32
  0
VERTEX
  8
01
  5
BB1C
 10
710.672
 20
-112.541
 30
0.000000
  70
    32
  0
VERTEX
  8
01
  5
BB1D
 10
710.672
 20
-112.531
 30
0.000000
  70
    32
  0
VERTEX
  8
01
  5
BB1E
 10
710.672
 20
-112.522
 30
0.000000
  70
    32
  0
VERTEX
  8
01
  5
BB1F
 10
710.672
 20
-112.513
 30
0.000000
  70
    32
  0
VERTEX
  8
01
  5
BB20
 10
710.672
 20
-112.504
 30
0.000000
  70
    32
  0
VERTEX
  8
01
  5
BB21
 10
710.672
 20
-112.495
 30
0.000000
  70
    32
  0
VERTEX
  8
01
  5
BB22
 10
710.672
 20
-112.485
 30
0.000000
  70
    32
  0
VERTEX
  8
01
  5
BB23
 10
710.672
 20
-112.476
 30
0.000000
  70
    32
  0
VERTEX
  8
01
  5
BB24
 10
710.672
 20
-112.467
 30
0.000000
  70
    32
  0
SEQEND
  8
01
  5
BB25
  0
TEXT
  5
B2B2
  8
1TEXT
 10
511.66840646420468
 20
-20.817103306829718
 30
0.0
 40
8.0
  1
C5353-X
  0
TEXT
  5
B2E2
  8
1TEXT
 10
777.86517194421845
 20
-197.83712129741971
 30
0.0
 40
2.7999999999999989
  1
付属ネジ
  0
LINE
  5
B3D8
  8
01
 10
750.76684845461136
 20
-160.80209723431409
 30
0.0
 11
698.76684845461409
 21
-160.80209723431409
 31
0.0
  0
LINE
  5
B3DA
  8
01
 10
698.76684845461409
 20
-213.8020972343142
 30
0.0
 11
750.76684845461227
 21
-213.8020972343142
 31
0.0
  0
LINE
  5
B3DB
  8
01
 10
698.26684845461409
 20
-161.30209723431409
 30
0.0
 11
698.26684845461409
 21
-213.3020972343142
 31
0.0
  0
ARC
  5
B3DD
  8
01
 10
698.76684845461409
 20
-213.3020972343142
 30
0.0
 40
0.5
 50
180.0
 51
270.0
  0
CIRCLE
  5
B3DE
  8
01
 10
724.76684845461273
 20
-187.3020972343123
 30
0.0
 40
9.5000000000077307
  0
ARC
  5
B3DF
  8
01
 10
698.76684845461409
 20
-161.30209723431409
 30
0.0
 40
0.5
 50
90.0
 51
180.0
  0
LINE
  5
B3E0
  8
01
 10
751.26684845461136
 20
-161.30209723431409
 30
0.0
 11
751.26684845461216
 21
-213.3020972343142
 31
0.0
  0
ARC
  5
B3E1
  8
01
 10
750.76684845461227
 20
-213.3020972343142
 30
0.0
 40
0.5
 50
270.0
 51
0.0
  0
ARC
  5
B3E2
  8
01
 10
750.76684845461136
 20
-161.30209723431409
 30
0.0
 40
0.5
 50
0.0
 51
90.0
  0
CIRCLE
  5
B408
  8
01
 10
724.76684845461273
 20
-187.3020972343123
 30
0.0
 40
9.2500004828441131
  0
CIRCLE
  5
B409
  8
01
 10
724.76684845461273
 20
-187.3020972343123
 30
0.0
 40
8.0500004391330151
  0
LINE
  5
B533
  8
01
 10
566.80571396849905
 20
-160.80209723431409
 30
0.0
 11
514.80571396850166
 21
-160.80209723431409
 31
0.0
  0
LINE
  5
B534
  8
01
 10
514.80571396850166
 20
-213.8020972343142
 30
0.0
 11
566.80571396849984
 21
-213.8020972343142
 31
0.0
  0
LINE
  5
B535
  8
01
 10
514.30571396850166
 20
-161.30209723431409
 30
0.0
 11
514.30571396850166
 21
-213.3020972343142
 31
0.0
  0
ARC
  5
B536
  8
01
 10
514.80571396850166
 20
-213.3020972343142
 30
0.0
 40
0.5
 50
180.0
 51
270.0
  0
CIRCLE
  5
B537
  8
01
 10
540.80571396850041
 20
-187.3020972343123
 30
0.0
 40
9.5000000000077307
  0
ARC
  5
B538
  8
01
 10
514.80571396850166
 20
-161.30209723431409
 30
0.0
 40
0.5
 50
90.0
 51
180.0
  0
LINE
  5
B539
  8
01
 10
567.30571396849905
 20
-161.30209723431409
 30
0.0
 11
567.30571396849984
 21
-213.3020972343142
 31
0.0
  0
ARC
  5
B53A
  8
01
 10
566.80571396849984
 20
-213.3020972343142
 30
0.0
 40
0.5
 50
270.0
 51
0.0
  0
ARC
  5
B53B
  8
01
 10
566.80571396849905
 20
-161.30209723431409
 30
0.0
 40
0.5
 50
0.0
 51
90.0
  0
CIRCLE
  5
B53C
  8
01
 10
540.80571396850041
 20
-187.3020972343123
 30
0.0
 40
9.2500004828441131
  0
CIRCLE
  5
B53D
  8
01
 10
540.80571396850041
 20
-187.3020972343123
 30
0.0
 40
8.0500004391330151
  0
LINE
  5
B556
  8
01
 10
615.78118809245086
 20
-160.80209723431409
 30
0.0
 11
607.78118809245098
 21
-160.80209723431409
 31
0.0
  0
LINE
  5
B558
  8
01
 10
615.78118809245291
 20
-213.8020972343142
 30
0.0
 11
607.78118809245473
 21
-213.8020972343142
 31
0.0
  0
LINE
  5
B559
  8
01
 10
698.26684845461409
 20
-120.217014804737
 30
0.0
 11
698.26684845461409
 21
-128.21701480473331
 31
0.0
  0
LINE
  5
B55A
  8
01
 10
751.26684845461182
 20
-120.2170148047351
 30
0.0
 11
751.26684845461182
 21
-128.217014804737
 31
0.0
  0
LINE
  5
B55B
  8
01
 10
567.3057139684995
 20
-109.9090162082869
 30
0.0
 11
567.3057139684995
 21
-117.9090162082851
 31
0.0
  0
LINE
  5
B55C
  8
01
 10
514.30571396850166
 20
-109.9090162082888
 30
0.0
 11
514.30571396850166
 21
-117.9090162082888
 31
0.0
  0
ARC
  5
B55D
  8
01
 10
514.80571396850166
 20
-117.90901620828861
 30
0.0
 40
0.5
 50
180.00000000001461
 51
270.0
  0
ARC
  5
B55E
  8
01
 10
566.80571396849962
 20
-117.90901620828519
 30
0.0
 40
0.5
 50
269.99999999998698
 51
0.0000000000130276
  0
LINE
  5
B55F
  8
01
 10
655.78118809245109
 20
-160.80209723431409
 30
0.0
 11
663.78118809245291
 21
-160.80209723431409
 31
0.0
  0
LINE
  5
B560
  8
01
 10
655.78118809245279
 20
-213.8020972343142
 30
0.0
 11
663.78118809244916
 21
-213.8020972343142
 31
0.0
  0
ARC
  5
B561
  8
01
 10
607.7811880924512
 20
-161.3020972343142
 30
0.0
 40
0.5
 50
90.000000000013031
 51
179.99999999999019
  0
ARC
  5
B562
  8
01
 10
607.78118809245461
 20
-213.3020972343142
 30
0.0
 40
0.5
 50
179.99999999999349
 51
270.00000000001302
  0
ARC
  5
B563
  8
01
 10
663.78118809244938
 20
-213.30209723431429
 30
0.0
 40
0.5
 50
269.99999999998698
 51
0.0000000000162844
  0
ARC
  5
B564
  8
01
 10
663.78118809245245
 20
-161.3020972343142
 30
0.0
 40
0.5
 50
0.0000000000097707
 51
89.99999999996092
  0
ARC
  5
B565
  8
01
 10
698.76684845461409
 20
-128.2170148047334
 30
0.0
 40
0.5
 50
179.9999999999967
 51
270.0
  0
ARC
  5
B566
  8
01
 10
750.76684845461159
 20
-128.21701480473689
 30
0.0
 40
0.5
 50
270.00000000001302
 51
359.99999999999022
  0
TEXT
  5
B71C
  8
1TEXT
 10
512.58936895384863
 20
-28.235805390162461
 30
0.0
 40
4.0
  1
材質：真鍮・ポリアセタール
 11
512.58936895384863
 21
-26.235805390162451
 31
0.0
 73
     2
  0
TEXT
  5
B853
  8
1TEXT
 10
592.11220268723696
 20
-22.08860156944149
 30
0.0
 40
4.0
  1
表面処理
 72
     1
 11
601.17886935390368
 21
-22.08860156944149
 31
0.0
  0
TEXT
  5
B854
  8
1TEXT
 10
591.84553602057042
 20
-35.923890228965888
 30
0.0
 40
4.0
  1
クローム
 72
     1
 11
601.17886935390368
 21
-35.923890228965888
 31
0.0
  0
TEXT
  5
B855
  8
1TEXT
 10
589.97886935390375
 20
-29.06649658942581
 30
0.0
 40
4.0
  1
本金メッキ
 72
     1
 11
601.17886935390368
 21
-29.06649658942581
 31
0.0
  0
LINE
  5
B856
  8
1DIM
 10
583.7788693539037
 20
-16.58860156944149
 30
0.0
 11
653.77886935390359
 21
-16.58860156944149
 31
0.0
  0
LINE
  5
B857
  8
1DIM
 10
583.7788693539037
 20
-30.58860156944149
 30
0.0
 11
653.77886935390359
 21
-30.58860156944149
 31
0.0
  0
LINE
  5
B858
  8
1DIM
 10
583.7788693539037
 20
-23.588601569441501
 30
0.0
 11
653.77886935390359
 21
-23.588601569441501
 31
0.0
  0
LINE
  5
B859
  8
1DIM
 10
583.7788693539037
 20
-37.588601569441487
 30
0.0
 11
653.77886935390359
 21
-37.588601569441487
 31
0.0
  0
LINE
  5
B85A
  8
1DIM
 10
583.7788693539037
 20
-37.588601569441487
 30
0.0
 11
653.77886935390359
 21
-37.588601569441487
 31
0.0
  0
LINE
  5
B85B
  8
1DIM
 10
618.7788693539037
 20
-16.58860156944149
 30
0.0
 11
618.77886935390359
 21
-79.588601569441508
 31
0.0
  0
TEXT
  5
B85C
  8
1TEXT
 10
622.84553602057088
 20
-29.302958553090889
 30
0.0
 40
4.0
  1
C5353-G
 72
     1
 11
636.17886935390425
 21
-29.302958553090889
 31
0.0
  0
TEXT
  5
B85D
  8
1TEXT
 10
629.37886935390384
 20
-22.08860156944149
 30
0.0
 40
4.0
  1
コード
 72
     1
 11
636.17886935390379
 21
-22.08860156944149
 31
0.0
  0
LINE
  5
B85E
  8
1DIM
 10
583.7788693539037
 20
-79.588601569441508
 30
0.0
 11
583.7788693539037
 21
-16.58860156944149
 31
0.0
  0
LINE
  5
B860
  8
1DIM
 10
653.77886935390359
 20
-79.588601569441508
 30
0.0
 11
653.77886935390359
 21
-16.58860156944149
 31
0.0
  0
LINE
  5
B861
  8
1DIM
 10
583.7788693539037
 20
-44.588601569441487
 30
0.0
 11
653.77886935390359
 21
-44.588601569441487
 31
0.0
  0
LINE
  5
B862
  8
1DIM
 10
583.7788693539037
 20
-44.588601569441487
 30
0.0
 11
653.77886935390359
 21
-44.588601569441487
 31
0.0
  0
LINE
  5
B863
  8
1DIM
 10
583.7788693539037
 20
-51.588601569441487
 30
0.0
 11
653.77886935390359
 21
-51.588601569441487
 31
0.0
  0
LINE
  5
B864
  8
1DIM
 10
583.7788693539037
 20
-51.588601569441487
 30
0.0
 11
653.77886935390359
 21
-51.588601569441487
 31
0.0
  0
TEXT
  5
B865
  8
1TEXT
 10
584.91220268723714
 20
-49.923890228965881
 30
0.0
 40
4.0
  1
サテンニッケル
 72
     1
 11
601.17886935390368
 21
-49.923890228965881
 31
0.0
  0
LINE
  5
B866
  8
1DIM
 10
583.7788693539037
 20
-58.588601569441501
 30
0.0
 11
653.77886935390359
 21
-58.588601569441501
 31
0.0
  0
LINE
  5
B867
  8
1DIM
 10
583.7788693539037
 20
-58.588601569441501
 30
0.0
 11
653.77886935390359
 21
-58.588601569441501
 31
0.0
  0
TEXT
  5
B868
  8
1TEXT
 10
584.77886935390381
 20
-42.923890228965881
 30
0.0
 40
4.0
  1
パールクローム
 72
     1
 11
601.17886935390368
 21
-42.923890228965881
 31
0.0
  0
TEXT
  5
B869
  8
1TEXT
 10
622.84553602057088
 20
-36.302958553090889
 30
0.0
 40
4.0
  1
C5353-C
 72
     1
 11
636.17886935390425
 21
-36.302958553090889
 31
0.0
  0
TEXT
  5
B86A
  8
1TEXT
 10
622.84553602057088
 20
-50.302958553090889
 30
0.0
 40
4.0
  1
C5353-N
 72
     1
 11
636.17886935390425
 21
-50.302958553090889
 31
0.0
  0
TEXT
  5
B86B
  8
1TEXT
 10
622.84553602057088
 20
-43.302958553090882
 30
0.0
 40
4.0
  1
C5353-B
 72
     1
 11
636.17886935390425
 21
-43.302958553090882
 31
0.0
  0
TEXT
  5
B86C
  8
1TEXT
 10
623.91220268723691
 20
-64.088601569441494
 30
0.0
 40
4.0
  1
C5353-4Q
 41
0.8
 72
     1
 11
636.17886935390345
 21
-64.088601569441494
 31
0.0
  0
TEXT
  5
B86D
  8
1TEXT
 10
584.77886935390359
 20
-64.088601569441494
 30
0.0
 40
4.0
  1
ダークアンバー
 72
     1
 11
601.17886935390356
 21
-64.088601569441494
 31
0.0
  0
LINE
  5
B86E
  8
1DIM
 10
583.7788693539037
 20
-79.588601569441508
 30
0.0
 11
653.77886935390359
 21
-79.588601569441494
 31
0.0
  0
LINE
  5
B86F
  8
1DIM
 10
583.7788693539037
 20
-65.588601569441494
 30
0.0
 11
653.77886935390359
 21
-65.588601569441494
 31
0.0
  0
LINE
  5
B870
  8
1DIM
 10
583.7788693539037
 20
-72.588601569441494
 30
0.0
 11
653.77886935390359
 21
-72.588601569441494
 31
0.0
  0
TEXT
  5
B871
  8
1TEXT
 10
622.84553602057019
 20
-57.088601569441487
 30
0.0
 40
4.0
  1
C5353-D
 72
     1
 11
636.17886935390345
 21
-57.088601569441487
 31
0.0
  0
TEXT
  5
B872
  8
1TEXT
 10
584.64553602057015
 20
-57.088601569441487
 30
0.0
 40
4.0
  1
ミラーニッケル
 72
     1
 11
601.17886935390356
 21
-57.088601569441487
 31
0.0
  0
TEXT
  5
B873
  8
1TEXT
 10
623.91220268723691
 20
-78.088601569441494
 30
0.0
 40
4.0
  1
C5353-8Q
 41
0.8
 72
     1
 11
636.17886935390345
 21
-78.088601569441494
 31
0.0
  0
TEXT
  5
B874
  8
1TEXT
 10
584.64553602057015
 20
-78.088601569441494
 30
0.0
 40
4.0
  1
ミラーブラック
 72
     1
 11
601.17886935390356
 21
-78.088601569441494
 31
0.0
  0
TEXT
  5
B87E
  8
1TEXT
 10
623.91220268723691
 20
-71.088601569441494
 30
0.0
 40
4.0
  1
C5353-GQ
 41
0.8
 72
     1
 11
636.17886935390345
 21
-71.088601569441494
 31
0.0
  0
TEXT
  5
B87F
  8
1TEXT
 10
584.91220268723691
 20
-71.088601569441494
 30
0.0
 40
4.0
  1
パールブラック
 72
     1
 11
601.17886935390356
 21
-71.088601569441494
 31
0.0
  0
LINE
  5
B99F
  8
1HATCH
 10
799.76873535018342
 20
-189.12413862278549
 30
0.0
 11
772.41875803739902
 21
-189.12434663803819
 31
0.0
  0
LINE
  5
B9A2
  8
1HATCH
 10
799.76871394367026
 20
-185.8241386228419
 30
0.0
 11
772.41870219421969
 21
-185.82434663841491
 31
0.0
  0
LINE
  5
B9A3
  8
1CENTER
 10
801.73020980628928
 20
-187.47412036691901
 30
0.0
 11
767.82897340441036
 21
-187.47438935591649
 31
0.0
  0
LINE
  5
B9A4
  8
1HATCH
 10
799.41871068616774
 20
-185.4741412923712
 30
0.0
 11
799.41873860770636
 21
-189.474141292284
 31
0.0
  0
LINE
  5
B9A5
  8
01
 10
770.06869672629625
 20
-183.47436851023599
 30
0.0
 11
770.06875256937371
 21
-191.4743685100629
 31
0.0
  0
LINE
  5
B9A6
  8
1HATCH
 10
772.41875803739902
 20
-189.12434663803819
 30
0.0
 11
772.06875722301231
 21
-189.47434989557371
 31
0.0
  0
LINE
  5
B9A7
  8
1HATCH
 10
772.41870219421969
 20
-185.82434663841491
 30
0.0
 11
772.06870137984799
 21
-185.47434989592031
 31
0.0
  0
LINE
  5
B9A9
  8
1HATCH
 10
799.76873535018342
 20
-176.6727842908611
 30
0.0
 11
772.41875803739902
 21
-176.6729923061138
 31
0.0
  0
LINE
  5
B9AA
  8
1HATCH
 10
799.76871394367026
 20
-173.37278429091739
 30
0.0
 11
772.41870219421969
 21
-173.37299230649049
 31
0.0
  0
LINE
  5
B9AB
  8
1CENTER
 10
801.73020980628928
 20
-175.02276603499459
 30
0.0
 11
767.82897340441036
 21
-175.02303502399209
 31
0.0
  0
LINE
  5
B9AC
  8
1HATCH
 10
799.41871068616774
 20
-173.02278696044681
 30
0.0
 11
799.41873860770636
 21
-177.02278696035961
 31
0.0
  0
LINE
  5
B9AD
  8
01
 10
770.06869672629625
 20
-171.0230141783116
 30
0.0
 11
770.06875256937371
 21
-179.0230141781384
 31
0.0
  0
LINE
  5
B9AE
  8
1HATCH
 10
772.41875803739902
 20
-176.6729923061138
 30
0.0
 11
772.06875722301231
 21
-177.02299556364929
 31
0.0
  0
LINE
  5
B9AF
  8
1HATCH
 10
772.41870219421969
 20
-173.37299230649049
 30
0.0
 11
772.06870137984799
 21
-173.02299556399581
 31
0.0
  0
LINE
  5
B9B0
  8
01
 10
799.41873860770636
 20
-177.02278696035961
 30
0.0
 11
772.06875722301231
 21
-177.02299556364929
 31
0.0
  0
LINE
  5
B9B1
  8
01
 10
799.76873616456169
 20
-176.67278429085439
 30
0.0
 11
799.41873860770636
 21
-177.02278696035961
 31
0.0
  0
LINE
  5
B9B2
  8
01
 10
770.06875256937371
 20
-179.0230141781384
 30
0.0
 11
772.06875722301231
 21
-177.02299556364929
 31
0.0
  0
LINE
  5
B9B3
  8
01
 10
799.76871312929222
 20
-173.37278429092399
 30
0.0
 11
799.76873616456169
 21
-176.67278429085439
 31
0.0
  0
LINE
  5
B9B4
  8
01
 10
770.06875256937371
 20
-179.0230141781384
 30
0.0
 11
769.76875256938592
 21
-179.0230169702923
 31
0.0
  0
LINE
  5
B9B5
  8
01
 10
799.76871312929222
 20
-173.37278429092399
 30
0.0
 11
799.41871068616774
 21
-173.02278696044681
 31
0.0
  0
LINE
  5
B9B6
  8
01
 10
769.76869672630835
 20
-171.02301697046539
 30
0.0
 11
769.76875256938592
 21
-179.0230169702923
 31
0.0
  0
LINE
  5
B9B7
  8
01
 10
799.41871068616774
 20
-173.02278696044681
 30
0.0
 11
772.06870137984799
 21
-173.02299556399581
 31
0.0
  0
LINE
  5
B9B8
  8
01
 10
770.06869672629625
 20
-171.0230141783116
 30
0.0
 11
769.76869672630835
 21
-171.02301697046539
 31
0.0
  0
LINE
  5
B9B9
  8
01
 10
770.06869672629625
 20
-171.0230141783116
 30
0.0
 11
772.06870137984799
 21
-173.02299556399581
 31
0.0
  0
LINE
  5
B9BA
  8
01
 10
799.41873860770636
 20
-189.474141292284
 30
0.0
 11
772.06875722301231
 21
-189.47434989557371
 31
0.0
  0
LINE
  5
B9BB
  8
01
 10
799.76873616456169
 20
-189.12413862277879
 30
0.0
 11
799.41873860770636
 21
-189.474141292284
 31
0.0
  0
LINE
  5
B9BC
  8
01
 10
770.06875256937371
 20
-191.4743685100629
 30
0.0
 11
772.06875722301231
 21
-189.47434989557371
 31
0.0
  0
LINE
  5
B9BD
  8
01
 10
799.76871312929222
 20
-185.82413862284849
 30
0.0
 11
799.76873616456169
 21
-189.12413862277879
 31
0.0
  0
LINE
  5
B9BE
  8
01
 10
770.06875256937371
 20
-191.4743685100629
 30
0.0
 11
769.76875256938592
 21
-191.4743713022167
 31
0.0
  0
LINE
  5
B9BF
  8
01
 10
799.76871312929222
 20
-185.82413862284849
 30
0.0
 11
799.41871068616774
 21
-185.4741412923712
 31
0.0
  0
LINE
  5
B9C0
  8
01
 10
769.76869672630835
 20
-183.4743713023899
 30
0.0
 11
769.76875256938592
 21
-191.4743713022167
 31
0.0
  0
LINE
  5
B9C1
  8
01
 10
799.41871068616774
 20
-185.4741412923712
 30
0.0
 11
772.06870137984799
 21
-185.47434989592031
 31
0.0
  0
LINE
  5
B9C2
  8
01
 10
770.06869672629625
 20
-183.47436851023599
 30
0.0
 11
769.76869672630835
 21
-183.4743713023899
 31
0.0
  0
LINE
  5
B9C3
  8
01
 10
770.06869672629625
 20
-183.47436851023599
 30
0.0
 11
772.06870137984799
 21
-185.47434989592031
 31
0.0
  0
TEXT
  5
B9C4
  8
1DIM
 10
635.78892476447652
 20
-150.53754857165791
 30
0.0
 40
3.5
  1
材質：ポリアセタール
  0
SOLID
  5
B9C5
  8
1DIM
 10
641.31294073039123
 20
-185.2784537338101
 30
0.0
 11
641.43934521601466
 21
-187.30209723431241
 31
0.0
 12
640.66345659431613
 22
-185.42883591836369
 32
0.0
 13
640.66345659431613
 23
-185.42883591836369
 33
0.0
  0
TEXT
  5
B9C7
  8
1TEXT
 10
562.77185878754756
 20
-132.92837810982789
 30
0.0
 40
3.5
  1
材質：真鍮
  0
TEXT
  5
B9C8
  8
1TEXT
 10
562.77185878754756
 20
-138.7617114431612
 30
0.0
 40
3.5
  1
仕上げ：各種メッキ
  0
SOLID
  5
B9C9
  8
1DIM
 10
554.94935494679828
 20
-161.5252894442286
 30
0.0
 11
554.14487124166737
 21
-163.3864495876042
 31
0.0
 12
554.30224983515575
 22
-161.36497906112541
 32
0.0
 13
554.30224983515575
 23
-161.36497906112541
 33
0.0
  0
LINE
  5
B9CB
  8
1DIM
 10
769.76869672630835
 20
-171.02301697046539
 30
0.0
 11
769.76869672630835
 21
-158.0447075945462
 31
0.0
  0
LINE
  5
B9CC
  8
1DIM
 10
799.76871394367026
 20
-173.37278429091739
 30
0.0
 11
799.76871394367026
 21
-158.0447075945462
 31
0.0
  0
LINE
  5
B9CD
  8
1DIM
 10
771.76869672630835
 20
-159.0447075945462
 30
0.0
 11
797.76871394367038
 21
-159.0447075945462
 31
0.0
  0
LINE
  5
B9D1
  8
1DIM
 10
615.78118809245098
 20
-160.80209723431409
 30
0.0
 11
615.78118809245098
 21
-147.31545752596909
 31
0.0
  0
LINE
  5
B9D2
  8
1DIM
 10
607.28118809245109
 20
-161.30209723431409
 30
0.0
 11
607.28118809245109
 21
-147.31545752596909
 31
0.0
  0
LINE
  5
B9D3
  8
1DIM
 10
613.78118809245109
 20
-148.31545752596921
 30
0.0
 11
609.2811880924512
 21
-148.31545752596921
 31
0.0
  0
LINE
  5
B9D4
  8
1DIM
 10
607.28118809245109
 20
-148.31545752596921
 30
0.0
 11
596.54785475911785
 21
-148.31545752596921
 31
0.0
  0
LINE
  5
B9D8
  8
1DIM
 10
514.30571396850166
 20
-161.30209723431409
 30
0.0
 11
514.30571396850166
 21
-147.31545752596909
 31
0.0
  0
LINE
  5
B9D9
  8
1DIM
 10
567.30571396849905
 20
-161.4360718305297
 30
0.0
 11
567.30571396849905
 21
-147.31545752596909
 31
0.0
  0
LINE
  5
B9DA
  8
1DIM
 10
516.30571396850166
 20
-148.31545752596921
 30
0.0
 11
565.30571396849905
 21
-148.31545752596921
 31
0.0
  0
TEXT
  5
B9DE
  8
1DIM
 10
535.55571396850041
 20
-147.61545752596919
 30
0.0
 40
3.5
  1
□53
  0
LINE
  5
B9DF
  8
0
  6
BYBLOCK
 10
565.30571396849905
 20
-147.77955914596919
 30
0.0
 11
567.30571396849905
 21
-148.31545752596921
 31
0.0
  0
LINE
  5
B9E0
  8
0
  6
BYBLOCK
 10
567.30571396849905
 20
-148.31545752596921
 30
0.0
 11
565.30571396849905
 21
-148.8513559059692
 31
0.0
  0
LINE
  5
B9E1
  8
0
  6
BYBLOCK
 10
567.30571396849905
 20
-148.31545752596921
 30
0.0
 11
565.30571396849905
 21
-148.31545752596921
 31
0.0
  0
LINE
  5
B9E2
  8
0
  6
BYBLOCK
 10
516.30571396850166
 20
-148.8513559059692
 30
0.0
 11
514.30571396850166
 21
-148.31545752596921
 31
0.0
  0
LINE
  5
B9E3
  8
0
  6
BYBLOCK
 10
514.30571396850166
 20
-148.31545752596921
 30
0.0
 11
516.30571396850166
 21
-147.77955914596919
 31
0.0
  0
LINE
  5
B9E4
  8
0
  6
BYBLOCK
 10
514.30571396850166
 20
-148.31545752596921
 30
0.0
 11
516.30571396850166
 21
-148.31545752596921
 31
0.0
  0
TEXT
  5
B9E5
  8
1DIM
 10
597.41452142578453
 20
-147.61545752596919
 30
0.0
 40
3.5
  1
8.5
  0
LINE
  5
B9E6
  8
0
  6
BYBLOCK
 10
609.2811880924512
 20
-148.8513559059692
 30
0.0
 11
607.28118809245109
 21
-148.31545752596921
 31
0.0
  0
LINE
  5
B9E7
  8
0
  6
BYBLOCK
 10
607.28118809245109
 20
-148.31545752596921
 30
0.0
 11
609.2811880924512
 21
-147.77955914596919
 31
0.0
  0
LINE
  5
B9E8
  8
0
  6
BYBLOCK
 10
607.28118809245109
 20
-148.31545752596921
 30
0.0
 11
609.2811880924512
 21
-148.31545752596921
 31
0.0
  0
LINE
  5
B9E9
  8
0
  6
BYBLOCK
 10
613.78118809245109
 20
-147.77955914596919
 30
0.0
 11
615.78118809245098
 21
-148.31545752596921
 31
0.0
  0
LINE
  5
B9EA
  8
0
  6
BYBLOCK
 10
615.78118809245098
 20
-148.31545752596921
 30
0.0
 11
613.78118809245109
 21
-148.8513559059692
 31
0.0
  0
LINE
  5
B9EB
  8
0
  6
BYBLOCK
 10
615.78118809245098
 20
-148.31545752596921
 30
0.0
 11
613.78118809245109
 21
-148.31545752596921
 31
0.0
  0
TEXT
  5
B9EC
  8
1DIM
 10
782.14370533498925
 20
-158.34470759454621
 30
0.0
 40
3.5
  1
30
  0
LINE
  5
B9ED
  8
0
  6
BYBLOCK
 10
797.76871394367038
 20
-158.5088092145462
 30
0.0
 11
799.76871394367026
 21
-159.0447075945462
 31
0.0
  0
LINE
  5
B9EE
  8
0
  6
BYBLOCK
 10
799.76871394367026
 20
-159.0447075945462
 30
0.0
 11
797.76871394367038
 21
-159.58060597454619
 31
0.0
  0
LINE
  5
B9EF
  8
0
  6
BYBLOCK
 10
799.76871394367026
 20
-159.0447075945462
 30
0.0
 11
797.76871394367038
 21
-159.0447075945462
 31
0.0
  0
LINE
  5
B9F0
  8
0
  6
BYBLOCK
 10
771.76869672630835
 20
-159.58060597454619
 30
0.0
 11
769.76869672630835
 21
-159.0447075945462
 31
0.0
  0
LINE
  5
B9F1
  8
0
  6
BYBLOCK
 10
769.76869672630835
 20
-159.0447075945462
 30
0.0
 11
771.76869672630835
 21
-158.5088092145462
 31
0.0
  0
LINE
  5
B9F2
  8
0
  6
BYBLOCK
 10
769.76869672630835
 20
-159.0447075945462
 30
0.0
 11
771.76869672630835
 21
-159.0447075945462
 31
0.0
  0
LINE
  5
B9F3
  8
1DIM
 10
554.62580239097701
 20
-161.44513425267701
 30
0.0
 11
560.07185878754751
 21
-139.46171144316119
 31
0.0
  0
LINE
  5
B9F4
  8
1DIM
 10
560.07185878754751
 20
-139.46171144316119
 30
0.0
 11
562.77185878754756
 21
-139.46171144316119
 31
0.0
  0
LINE
  5
B9F5
  8
1DIM
 10
640.98819866235362
 20
-185.35364482608691
 30
0.0
 11
633.08892476447647
 21
-151.2375485716579
 31
0.0
  0
LINE
  5
B9F6
  8
1DIM
 10
633.08892476447647
 20
-151.2375485716579
 30
0.0
 11
635.78892476447652
 21
-151.2375485716579
 31
0.0
  0
VIEWPORT
  5
20C3
 67
     1
  8
0
  6
CONTINUOUS
 10
-3.7643021472854339
 20
10.089000620492961
 30
0.0
 40
584.02354250131816
 41
268.52423003768541
 68
     1
 69
     1
1001
ACAD
1000
MVIEW
1002
{
1070
    16
1010
0.0
1020
0.0
1030
0.0
1010
0.0
1020
0.0
1030
1.0
1040
0.0
1040
268.52423003768541
1040
-3.7643021472854339
1040
10.089000620492961
1040
50.0
1040
0.0
1040
0.0
1070
     0
1070
   100
1070
     1
1070
     1
1070
     0
1070
     0
1070
     0
1070
     0
1040
0.0
1040
0.0
1040
0.0
1040
1.0
1040
1.0
1040
0.0
1040
0.0
1070
     0
1002
{
1002
}
1002
}
  0
ENDSEC
  0
EOF
