  0
SECTION
  2
HEADER
  9
$ACADVER
  1
AC1009
  9
$INSBASE
 10
0.0
 20
0.0
 30
0.0
  9
$EXTMIN
 10
-1521.1584143187199
 20
-178.88332303036429
 30
0.0
  9
$EXTMAX
 10
-1191.652080867585
 20
51.885040451219467
 30
0.0
  9
$LIMMIN
 10
0.0
 20
0.0
  9
$LIMMAX
 10
420.0
 20
297.0
  9
$ORTHOMODE
 70
     0
  9
$REGENMODE
 70
     1
  9
$FILLMODE
 70
     1
  9
$QTEXTMODE
 70
     0
  9
$MIRRTEXT
 70
     1
  9
$DRAGMODE
 70
     2
  9
$LTSCALE
 40
0.5
  9
$OSMODE
 70
  2175
  9
$ATTMODE
 70
     1
  9
$TEXTSIZE
 40
4.0
  9
$TRACEWID
 40
1.0
  9
$TEXTSTYLE
  7
STANDARD
  9
$CLAYER
  8
1TEXT
  9
$CELTYPE
  6
BYLAYER
  9
$CECOLOR
 62
   256
  9
$DIMSCALE
 40
1.0
  9
$DIMASZ
 40
2.0
  9
$DIMEXO
 40
0.0
  9
$DIMDLI
 40
7.0
  9
$DIMRND
 40
0.0
  9
$DIMDLE
 40
0.0
  9
$DIMEXE
 40
1.0
  9
$DIMTP
 40
0.0
  9
$DIMTM
 40
0.0
  9
$DIMTXT
 40
3.5
  9
$DIMCEN
 40
0.0
  9
$DIMTSZ
 40
0.0
  9
$DIMTOL
 70
     0
  9
$DIMLIM
 70
     0
  9
$DIMTIH
 70
     0
  9
$DIMTOH
 70
     0
  9
$DIMSE1
 70
     0
  9
$DIMSE2
 70
     0
  9
$DIMTAD
 70
     1
  9
$DIMZIN
 70
     8
  9
$DIMBLK
  1

  9
$DIMASO
 70
     1
  9
$DIMSHO
 70
     1
  9
$DIMPOST
  1
 
  9
$DIMAPOST
  1

  9
$DIMALT
 70
     0
  9
$DIMALTD
 70
     2
  9
$DIMALTF
 40
25.399999999999999
  9
$DIMLFAC
 40
1.0
  9
$DIMTOFL
 70
     1
  9
$DIMTVP
 40
0.0
  9
$DIMTIX
 70
     0
  9
$DIMSOXD
 70
     0
  9
$DIMSAH
 70
     1
  9
$DIMBLK1
  1
OPEN30
  9
$DIMBLK2
  1
OPEN30
  9
$DIMSTYLE
  2
NEWX10
  9
$DIMCLRD
 70
   256
  9
$DIMCLRE
 70
   256
  9
$DIMCLRT
 70
   201
  9
$DIMTFAC
 40
0.7
  9
$DIMGAP
 40
0.7
  9
$LUNITS
 70
     2
  9
$LUPREC
 70
     4
  9
$SKETCHINC
 40
1.0
  9
$FILLETRAD
 40
0.5
  9
$AUNITS
 70
     0
  9
$AUPREC
 70
     2
  9
$MENU
  1
acad
  9
$ELEVATION
 40
0.0
  9
$PELEVATION
 40
0.0
  9
$THICKNESS
 40
0.0
  9
$LIMCHECK
 70
     0
  9
$BLIPMODE
 70
     0
  9
$CHAMFERA
 40
0.5
  9
$CHAMFERB
 40
0.5
  9
$SKPOLY
 70
     0
  9
$TDCREATE
 40
2451027.6274212962
  9
$TDUPDATE
 40
2456422.5848923959
  9
$TDINDWG
 40
25.193589432900001
  9
$TDUSRTIMER
 40
25.193589432900001
  9
$USRTIMER
 70
     1
  9
$ANGBASE
 50
0.0
  9
$ANGDIR
 70
     0
  9
$PDMODE
 70
     0
  9
$PDSIZE
 40
0.0
  9
$PLINEWID
 40
0.0
  9
$COORDS
 70
     0
  9
$SPLFRAME
 70
     0
  9
$SPLINETYPE
 70
     6
  9
$SPLINESEGS
 70
     8
  9
$ATTDIA
 70
     0
  9
$ATTREQ
 70
     1
  9
$HANDLING
 70
     1
  9
$HANDSEED
  5
A51F
  9
$SURFTAB1
 70
     6
  9
$SURFTAB2
 70
     6
  9
$SURFTYPE
 70
     6
  9
$SURFU
 70
     6
  9
$SURFV
 70
     6
  9
$UCSNAME
  2

  9
$UCSORG
 10
0.0
 20
0.0
 30
0.0
  9
$UCSXDIR
 10
1.0
 20
0.0
 30
0.0
  9
$UCSYDIR
 10
0.0
 20
1.0
 30
0.0
  9
$PUCSNAME
  2

  9
$PUCSORG
 10
0.0
 20
0.0
 30
0.0
  9
$PUCSXDIR
 10
1.0
 20
0.0
 30
0.0
  9
$PUCSYDIR
 10
0.0
 20
1.0
 30
0.0
  9
$USERI1
 70
     0
  9
$USERI2
 70
     0
  9
$USERI3
 70
     0
  9
$USERI4
 70
     0
  9
$USERI5
 70
     0
  9
$USERR1
 40
0.0
  9
$USERR2
 40
0.0
  9
$USERR3
 40
0.0
  9
$USERR4
 40
0.0
  9
$USERR5
 40
6.2000000000000002
  9
$WORLDVIEW
 70
     1
  9
$SHADEDGE
 70
     3
  9
$SHADEDIF
 70
    70
  9
$TILEMODE
 70
     1
  9
$MAXACTVP
 70
    48
  9
$PLIMCHECK
 70
     0
  9
$PEXTMIN
 10
1.0000000000000000E+020
 20
1.0000000000000000E+020
 30
1.0000000000000000E+020
  9
$PEXTMAX
 10
-1.0000000000000000E+020
 20
-1.0000000000000000E+020
 30
-1.0000000000000000E+020
  9
$PLIMMIN
 10
0.0
 20
0.0
  9
$PLIMMAX
 10
420.0
 20
297.0
  9
$UNITMODE
 70
     0
  9
$VISRETAIN
 70
     1
  9
$PLINEGEN
 70
     0
  9
$PSLTSCALE
 70
     1
  0
ENDSEC
  0
SECTION
  2
TABLES
  0
TABLE
  2
VPORT
 70
     1
  0
VPORT
  2
*ACTIVE
 70
     0
 10
0.0
 20
0.0
 11
1.0
 21
1.0
 12
-1356.3838706545621
 22
-63.495993808594889
 13
0.0
 23
0.0
 14
10.0
 24
10.0
 15
10.0
 25
10.0
 16
0.0
 26
0.0
 36
1.0
 17
0.0
 27
0.0
 37
0.0
 40
244.87436218049899
 41
1.492734478203434
 42
50.0
 43
0.0
 44
0.0
 50
0.0
 51
0.0
 71
     0
 72
   100
 73
     1
 74
     1
 75
     0
 76
     0
 77
     0
 78
     0
  0
ENDTAB
  0
TABLE
  2
LTYPE
 70
    13
  0
LTYPE
  2
CONTINUOUS
 70
     0
  3
Solid line
 72
    65
 73
     0
 40
0.0
  0
LTYPE
  2
XREF1|CENTER2
 70
    48
  3
Center (.5x) ___ _ ___ _ ___ _ ___ _ ___ _ ___
 72
    65
 73
     4
 40
28.574999999999999
 49
19.050000000000001
 49
-3.1749999999999989
 49
3.1749999999999989
 49
-3.1749999999999989
  0
LTYPE
  2
A3WAKUDAKE|CENTER2
 70
    48
  3
Center (.5x) ___ _ ___ _ ___ _ ___ _ ___ _ ___
 72
    65
 73
     4
 40
28.574999999999999
 49
19.050000000000001
 49
-3.1749999999999989
 49
3.1749999999999989
 49
-3.1749999999999989
  0
ENDTAB
  0
TABLE
  2
LAYER
 70
    96
  0
LAYER
  2
0
 70
     0
 62
     7
  6
CONTINUOUS
  0
LAYER
  2
1TEXT
 70
     0
 62
     7
  6
CONTINUOUS
  0
LAYER
  2
XREF1|1CENTER
 70
    48
 62
     7
  6
XREF1|CENTER2
  0
LAYER
  2
01
 70
     0
 62
     1
  6
CONTINUOUS
  0
LAYER
  2
A3WAKUDAKE|THICK
 70
    48
 62
     7
  6
CONTINUOUS
  0
LAYER
  2
A3WAKUDAKE|POINT
 70
    48
 62
     7
  6
CONTINUOUS
  0
LAYER
  2
A3WAKUDAKE|1CENTER
 70
    48
 62
     7
  6
A3WAKUDAKE|CENTER2
  0
LAYER
  2
A3WAKUDAKE|0-6
 70
    48
 62
     7
  6
CONTINUOUS
  0
LAYER
  2
A3WAKUDAKE|1DIM
 70
    48
 62
     7
  6
CONTINUOUS
  0
ENDTAB
  0
TABLE
  2
STYLE
 70
     9
  0
STYLE
  2
STANDARD
 70
     0
 40
0.0
 41
1.0
 50
0.0
 71
     0
 42
4.0
  3
romans.shx
  4
extfont.shx
  0
ENDTAB
  0
TABLE
  2
VIEW
 70
     5
  0
ENDTAB
  0
TABLE
  2
UCS
 70
     0
  0
ENDTAB
  0
TABLE
  2
APPID
 70
    11
  0
APPID
  2
ACAD
 70
     0
  0
APPID
  2
CONTENTTABDATA
 70
     0
  0
APPID
  2
CONTENTCURRENTTAB
 70
     0
  0
APPID
  2
CONTENTBLOCKICON
 70
     0
  0
APPID
  2
CONTENTBLOCKDESCRIPTION
 70
     0
  0
APPID
  2
DRAWINGVARIABLESXDATA
 70
     0
  0
APPID
  2
CONTENTLONGBLOCKNAME
 70
     0
  0
APPID
  2
ACAD_MLEADERVER
 70
     0
  0
APPID
  2
ACAD_PSEXT
 70
     0
  0
APPID
  2
ACAD_DSTYLE_DIMJAG
 70
     0
  0
APPID
  2
ACAD_DSTYLE_DIMTALN
 70
     0
  0
ENDTAB
  0
TABLE
  2
DIMSTYLE
 70
     7
  0
DIMSTYLE
  2
NEWX10
 70
     0
  3
 
  4

  5

  6
OPEN30
  7
OPEN30
 40
1.0
 41
2.0
 42
0.0
 43
7.0
 44
1.0
 45
0.0
 46
0.0
 47
0.0
 48
0.0
140
3.5
141
0.0
142
0.0
143
25.399999999999999
144
1.0
145
0.0
146
0.7
147
0.7
 71
     0
 72
     0
 73
     0
 74
     0
 75
     0
 76
     0
 77
     1
 78
     8
170
     0
171
     2
172
     1
173
     1
174
     0
175
     0
176
   256
177
   256
178
   201
  0
ENDTAB
  0
ENDSEC
  0
SECTION
  2
BLOCKS
  0
BLOCK
  8
0
  2
$MODEL_SPACE
 70
     0
 10
0.0
 20
0.0
 30
0.0
  3
$MODEL_SPACE
  1

  0
ENDBLK
  5
1A
  8
0
  0
BLOCK
 67
     1
  8
0
  2
$PAPER_SPACE
 70
     0
 10
0.0
 20
0.0
 30
0.0
  3
$PAPER_SPACE
  1

  0
ENDBLK
  5
17
 67
     1
  8
0
  0
BLOCK
  8
0
  2
_OPEN30
 70
     0
 10
0.0
 20
0.0
 30
0.0
  3
_OPEN30
  1

  0
LINE
  5
2F1
  8
0
  6
BYBLOCK
 62
     0
 10
-1.0
 20
0.26794919
 30
0.0
 11
0.0
 21
0.0
 31
0.0
  0
LINE
  5
2F2
  8
0
  6
BYBLOCK
 62
     0
 10
0.0
 20
0.0
 30
0.0
 11
-1.0
 21
-0.26794919
 31
0.0
  0
LINE
  5
2F3
  8
0
  6
BYBLOCK
 62
     0
 10
0.0
 20
0.0
 30
0.0
 11
-1.0
 21
0.0
 31
0.0
  0
ENDBLK
  5
2F4
  8
0
  0
BLOCK
  8
0
  2
XREF1
 70
    36
 10
0.0
 20
0.0
 30
0.0
  3
XREF1
  1
D:\ACLT\FORMAT\KAWAJUN(9)図面用.dwg
  0
ENDBLK
  5
717
  8
0
  0
BLOCK
  8
0
  2
A3WAKUDAKE
 70
    36
 10
0.0
 20
0.0
 30
0.0
  3
A3WAKUDAKE
  1
D:\ACLT\FORMAT\A3WAKUdake.dwg
  0
ENDBLK
  5
9636
  8
0
  0
ENDSEC
  0
SECTION
  2
ENTITIES
  0
TEXT
  5
96B5
  8
01
 10
-1522.1089272257821
 20
41.77246175707068
 30
0.0
 40
8.0
  1
C53PA
  0
CIRCLE
  5
9B8B
  8
01
 10
-1389.5537491428031
 20
1.273336082297049
 30
0.0
 40
5.4999999999999041
  0
LINE
  5
9B8C
  8
01
 10
-1381.776759202213
 20
1.137588215304816
 30
0.0
 11
-1389.418001274583
 21
9.0503260216163142
 31
0.0
  0
LINE
  5
9B8D
  8
01
 10
-1389.418001274583
 20
9.0503260216163142
 30
0.0
 11
-1397.330739080895
 21
1.409083949245626
 31
0.0
  0
LINE
  5
9B8E
  8
01
 10
-1389.6894970085241
 20
-6.5036538570656433
 30
0.0
 11
-1397.330739080895
 21
1.409083949245626
 31
0.0
  0
LINE
  5
9B8F
  8
01
 10
-1381.776759202213
 20
1.137588215304816
 30
0.0
 11
-1389.6894970085241
 21
-6.5036538570656433
 31
0.0
  0
LINE
  5
9B90
  8
01
 10
-1382.28923553053
 20
11.07333608229791
 30
0.0
 11
-1396.818262752586
 21
11.073336082297461
 31
0.0
  0
LINE
  5
9B91
  8
01
 10
-1382.289235530528
 20
-8.5266639177019954
 30
0.0
 11
-1396.8182627525871
 21
-8.5266639177024501
 31
0.0
  0
LINE
  5
9B92
  8
01
 10
-1362.0166887934311
 20
1.2733360822977311
 30
0.0
 11
-1418.6437749375871
 21
1.2733360822959121
 31
0.0
  0
LINE
  5
9B93
  8
01
 10
-1389.5537491415571
 20
-27.222069430348171
 30
0.0
 11
-1389.5537491415589
 21
30.830350859550979
 31
0.0
  0
ARC
  5
9B94
  8
01
 10
-1389.553749141558
 20
1.273336082296822
 30
0.0
 40
12.658947321611089
 50
132.96420923671309
 51
152.06356218575669
  0
ARC
  5
9B95
  8
01
 10
-1396.818262752586
 20
9.0733360822976863
 30
0.0
 40
2.0
 50
90.0
 51
132.96420923673179
  0
ARC
  5
9B96
  8
01
 10
-1398.9705865943899
 20
6.2669650624830799
 30
0.0
 40
2.0
 50
152.06356218575669
 51
180.0
  0
ARC
  5
9B97
  8
01
 10
-1389.553749141558
 20
1.273336082296822
 30
0.0
 40
12.658947321611089
 50
27.936437814243309
 51
47.03579076328684
  0
ARC
  5
9B98
  8
01
 10
-1380.1369116887249
 20
6.2669650624835347
 30
0.0
 40
2.0
 50
0.0
 51
27.936437814243309
  0
ARC
  5
9B99
  8
01
 10
-1382.28923553053
 20
9.0733360822979137
 30
0.0
 40
2.0
 50
47.035790763268132
 51
90.0
  0
ARC
  5
9B9A
  8
01
 10
-1389.553749141558
 20
1.273336082296822
 30
0.0
 40
12.658947321611089
 50
312.9642092367319
 51
332.06356218575672
  0
ARC
  5
9B9B
  8
01
 10
-1380.1369116887249
 20
-3.7202928978889811
 30
0.0
 40
2.0
 50
332.06356218575672
 51
0.0
  0
ARC
  5
9B9C
  8
01
 10
-1382.289235530528
 20
-6.5266639177022219
 30
0.0
 40
2.0
 50
270.0
 51
312.9642092367319
  0
ARC
  5
9B9D
  8
01
 10
-1389.553749141558
 20
1.273336082296822
 30
0.0
 40
12.658947321611089
 50
207.93643781424331
 51
227.0357907632681
  0
ARC
  5
9B9E
  8
01
 10
-1398.9705865943899
 20
-3.720292897889891
 30
0.0
 40
2.0
 50
180.0
 51
207.93643781424331
  0
ARC
  5
9B9F
  8
01
 10
-1396.8182627525871
 20
-6.5266639177026766
 30
0.0
 40
2.0
 50
227.0357907632681
 51
270.0
  0
ARC
  5
9BA0
  8
01
 10
-1389.5537491428031
 20
1.273336082297049
 30
0.0
 40
11.22497216032116
 50
31.088454966548401
 51
57.728873588666183
  0
ARC
  5
9BA1
  8
01
 10
-1381.6537491428001
 20
6.0367499168015391
 30
0.0
 40
2.0
 50
0.0
 51
31.088454966548401
  0
ARC
  5
9BA2
  8
01
 10
-1384.628293695966
 20
9.0733360822979137
 30
0.0
 40
2.0
 50
57.728873588666183
 51
90.0
  0
ARC
  5
9BA3
  8
01
 10
-1389.5537491428031
 20
1.273336082297049
 30
0.0
 40
11.22497216032116
 50
302.2711264113338
 51
328.9115450334516
  0
ARC
  5
9BA4
  8
01
 10
-1381.6537491428001
 20
-3.490077752206985
 30
0.0
 40
2.0
 50
328.9115450334516
 51
0.0
  0
ARC
  5
9BA5
  8
01
 10
-1384.6282936959631
 20
-6.5266639177022219
 30
0.0
 40
2.0
 50
270.0
 51
302.2711264113338
  0
ARC
  5
9BA6
  8
01
 10
-1389.5537491428031
 20
1.273336082297049
 30
0.0
 40
11.22497216032116
 50
211.08845499651511
 51
237.7288735886662
  0
ARC
  5
9BA7
  8
01
 10
-1397.453749140315
 20
-3.4900777563397289
 30
0.0
 40
2.0
 50
180.0
 51
211.08845499651511
  0
ARC
  5
9BA8
  8
01
 10
-1394.4792045896429
 20
-6.5266639177024501
 30
0.0
 40
2.0
 50
237.7288735886662
 51
270.0
  0
ARC
  5
9BA9
  8
01
 10
-1389.5537491428031
 20
1.273336082297049
 30
0.0
 40
11.22497216032116
 50
122.2711264113338
 51
148.91154500348489
  0
ARC
  5
9BAA
  8
01
 10
-1397.453749140315
 20
6.0367499209333744
 30
0.0
 40
2.0
 50
148.91154500348489
 51
180.0
  0
ARC
  5
9BAB
  8
01
 10
-1394.479204589642
 20
9.0733360822979137
 30
0.0
 40
2.0
 50
90.0
 51
122.2711264113338
  0
LINE
  5
9BAC
  8
01
 10
-1378.1369116887261
 20
6.2669650624837621
 30
0.0
 11
-1378.1369116887249
 21
-3.7202928978889811
 31
0.0
  0
LINE
  5
9BAD
  8
01
 10
-1379.6537491428001
 20
6.0367499168017673
 30
0.0
 11
-1379.6537491428001
 21
-3.490077752206985
 31
0.0
  0
LINE
  5
9BAE
  8
01
 10
-1400.9705865943899
 20
6.2669650624830799
 30
0.0
 11
-1400.9705865943899
 21
-3.720292897890118
 31
0.0
  0
LINE
  5
9BAF
  8
01
 10
-1399.453749140315
 20
6.0367499209333744
 30
0.0
 11
-1399.453749140315
 21
-3.4900777563397289
 31
0.0
  0
LINE
  5
9BB0
  8
01
 10
-1378.1925278407271
 20
6.7353361244014129
 30
0.0
 11
-1379.6537491428001
 21
6.5638937088543514
 31
0.0
  0
LINE
  5
9BB1
  8
01
 10
-1379.6537491428001
 20
-4.0172215442611607
 30
0.0
 11
-1378.192527840728
 21
-4.1886639598127706
 31
0.0
  0
LINE
  5
9BB2
  8
01
 10
-1399.4537491415581
 20
-4.017221546596744
 30
0.0
 11
-1400.9149704423701
 21
-4.1886639598859849
 31
0.0
  0
LINE
  5
9BB3
  8
01
 10
-1399.4537491415581
 20
6.5638937111917519
 30
0.0
 11
-1400.914970442368
 21
6.7353361244855421
 31
0.0
  0
LINE
  5
9BB5
  8
01
 10
-1339.9190297321729
 20
1.2733360847842901
 30
0.0
 11
-1209.397090030142
 21
1.2733360847842901
 31
0.0
  0
ARC
  5
9BCD
  8
01
 10
-1372.553749142804
 20
1.2733360822963671
 30
0.0
 40
4.1000000000001364
 50
133.27567590122001
 51
226.7243240987799
  0
ARC
  5
9BCE
  8
01
 10
-1406.553749142804
 20
1.2733360822963671
 30
0.0
 40
4.1000000000001364
 50
313.27567590121998
 51
46.72432409877991
  0
LINE
  5
9BCF
  8
01
 10
-1383.0806314189761
 20
-11.701591544995519
 30
0.0
 11
-1383.0806314189749
 21
-8.5266639177019954
 31
0.0
  0
LINE
  5
9BD0
  8
01
 10
-1396.0268668666311
 20
-11.701591544995519
 30
0.0
 11
-1396.0268668666311
 21
-8.5266639177022228
 31
0.0
  0
LINE
  5
9BD1
  8
01
 10
-1386.98470262707
 20
-12.997263064200441
 30
0.0
 11
-1386.98470262707
 21
-8.5266639177022228
 31
0.0
  0
LINE
  5
9BD2
  8
01
 10
-1392.122795658536
 20
-12.997263064200441
 30
0.0
 11
-1392.122795658536
 21
-8.5266639177022228
 31
0.0
  0
LINE
  5
9BD3
  8
01
 10
-1383.0806314189761
 20
14.24826370958985
 30
0.0
 11
-1383.0806314189761
 21
11.07333608229791
 31
0.0
  0
LINE
  5
9BD4
  8
01
 10
-1396.0268668666311
 20
14.24826370958985
 30
0.0
 11
-1396.0268668666299
 21
11.073336082297679
 31
0.0
  0
LINE
  5
9BD5
  8
01
 10
-1386.98470262707
 20
15.54393522879454
 30
0.0
 11
-1386.98470262707
 21
11.073336082297679
 31
0.0
  0
LINE
  5
9BD6
  8
01
 10
-1392.122795658536
 20
15.54393522879454
 30
0.0
 11
-1392.122795658536
 21
11.07333608229791
 31
0.0
  0
LINE
  5
9C02
  8
01
 10
-1306.760639280827
 20
27.77333608478429
 30
0.0
 11
-1306.760639280827
 21
-25.22666391521571
 31
0.0
  0
LINE
  5
9C03
  8
01
 10
-1315.260639280827
 20
-24.72666391521571
 30
0.0
 11
-1315.2606392808259
 21
27.27333608478429
 31
0.0
  0
ARC
  5
9C04
  8
01
 10
-1314.7606392808259
 20
27.27333608478429
 30
0.0
 40
0.5
 50
90.0
 51
180.0
  0
LINE
  5
9C05
  8
01
 10
-1306.760639280827
 20
27.77333608478429
 30
0.0
 11
-1314.7606392808259
 21
27.77333608478429
 31
0.0
  0
LINE
  5
9C06
  8
01
 10
-1306.760639280827
 20
-25.22666391521571
 30
0.0
 11
-1314.760639280827
 21
-25.2266639152148
 31
0.0
  0
ARC
  5
9C07
  8
01
 10
-1314.760639280827
 20
-24.72666391521571
 30
0.0
 40
0.5
 50
180.0
 51
270.0
  0
LINE
  5
9C2A
  8
01
  6
BYBLOCK
 10
-1305.883982781949
 20
-142.01026670940959
 30
0.0
 11
-1266.233982781948
 21
-142.01026670940959
 31
0.0
  0
LINE
  5
9C2B
  8
01
  6
BYBLOCK
 10
-1266.233982781948
 20
-143.51026670940959
 30
0.0
 11
-1266.233982781948
 21
-142.01026670940959
 31
0.0
  0
LINE
  5
9C2C
  8
01
  6
BYBLOCK
 10
-1266.233982781948
 20
-143.51026670940959
 30
0.0
 11
-1265.6339827819479
 21
-143.51026670940959
 31
0.0
  0
ARC
  5
9C2D
  8
01
  6
BYBLOCK
 10
-1265.6339827819479
 20
-141.51026670940959
 30
0.0
 40
2.0
 50
270.0
 51
0.0
  0
LINE
  5
9C2E
  8
01
  6
BYBLOCK
 10
-1263.6339827819479
 20
-141.51026670940959
 30
0.0
 11
-1263.6339827819479
 21
-138.51026670940959
 31
0.0
  0
LINE
  5
9C2F
  8
01
  6
BYBLOCK
 10
-1305.883982781949
 20
-138.01026670940959
 30
0.0
 11
-1266.233982781948
 21
-138.01026670940959
 31
0.0
  0
ARC
  5
9C30
  8
01
  6
BYBLOCK
 10
-1265.6339827819479
 20
-138.51026670940959
 30
0.0
 40
2.0
 50
0.0
 51
90.0
  0
LINE
  5
9C31
  8
01
  6
BYBLOCK
 10
-1266.233982781948
 20
-138.01026670940959
 30
0.0
 11
-1266.233982781948
 21
-136.51026670940959
 31
0.0
  0
LINE
  5
9C32
  8
01
  6
BYBLOCK
 10
-1266.233982781948
 20
-136.51026670940959
 30
0.0
 11
-1265.6339827819479
 21
-136.51026670940959
 31
0.0
  0
LINE
  5
9C33
  8
01
  6
BYBLOCK
 10
-1306.233982781948
 20
-141.66026670940951
 30
0.0
 11
-1266.233982781948
 21
-141.66026670940971
 31
0.0
  0
LINE
  5
9C34
  8
01
  6
BYBLOCK
 10
-1306.233982781949
 20
-138.36026670941001
 30
0.0
 11
-1266.233982781948
 21
-138.3602667094095
 31
0.0
  0
LINE
  5
9C35
  8
01
 10
-1308.285483910915
 20
-140.01026670940959
 30
0.0
 11
-1262.3832921352371
 21
-140.01026670940959
 31
0.0
  0
LINE
  5
9C36
  8
01
  6
BYBLOCK
 10
-1266.233982781948
 20
-142.01026670940959
 30
0.0
 11
-1266.233982781948
 21
-138.01026670940959
 31
0.0
  0
LINE
  5
9C37
  8
01
  6
BYBLOCK
 10
-1305.883982781949
 20
-142.01026670940959
 30
0.0
 11
-1306.233982781948
 21
-141.66026670940971
 31
0.0
  0
LINE
  5
9C38
  8
01
  6
BYBLOCK
 10
-1306.233982781948
 20
-141.66026670940971
 30
0.0
 11
-1306.233982781948
 21
-138.36026670940981
 31
0.0
  0
LINE
  5
9C39
  8
01
  6
BYBLOCK
 10
-1306.233982781948
 20
-138.36026670940981
 30
0.0
 11
-1305.883982781949
 21
-138.01026670940959
 31
0.0
  0
LINE
  5
9C3A
  8
01
  6
BYBLOCK
 10
-1305.883982781949
 20
-142.01026670940959
 30
0.0
 11
-1305.883982781949
 21
-138.01026670940959
 31
0.0
  0
LINE
  5
9C3C
  8
01
  6
BYBLOCK
 10
-1305.883982781949
 20
-132.14566724250281
 30
0.0
 11
-1266.233982781948
 21
-132.14566724250281
 31
0.0
  0
LINE
  5
9C3D
  8
01
  6
BYBLOCK
 10
-1266.233982781948
 20
-133.64566724250281
 30
0.0
 11
-1266.233982781948
 21
-132.14566724250281
 31
0.0
  0
LINE
  5
9C3E
  8
01
  6
BYBLOCK
 10
-1266.233982781948
 20
-133.64566724250281
 30
0.0
 11
-1265.6339827819479
 21
-133.64566724250281
 31
0.0
  0
ARC
  5
9C3F
  8
01
  6
BYBLOCK
 10
-1265.6339827819479
 20
-131.64566724250281
 30
0.0
 40
2.0
 50
270.0
 51
0.0
  0
LINE
  5
9C40
  8
01
  6
BYBLOCK
 10
-1263.6339827819479
 20
-131.64566724250281
 30
0.0
 11
-1263.6339827819479
 21
-128.64566724250281
 31
0.0
  0
LINE
  5
9C41
  8
01
  6
BYBLOCK
 10
-1305.883982781949
 20
-128.14566724250281
 30
0.0
 11
-1266.233982781948
 21
-128.14566724250281
 31
0.0
  0
ARC
  5
9C42
  8
01
  6
BYBLOCK
 10
-1265.6339827819479
 20
-128.64566724250281
 30
0.0
 40
2.0
 50
0.0
 51
90.0
  0
LINE
  5
9C43
  8
01
  6
BYBLOCK
 10
-1266.233982781948
 20
-128.14566724250281
 30
0.0
 11
-1266.233982781948
 21
-126.6456672425028
 31
0.0
  0
LINE
  5
9C44
  8
01
  6
BYBLOCK
 10
-1266.233982781948
 20
-126.6456672425028
 30
0.0
 11
-1265.6339827819479
 21
-126.6456672425028
 31
0.0
  0
LINE
  5
9C45
  8
01
  6
BYBLOCK
 10
-1306.233982781948
 20
-131.79566724250259
 30
0.0
 11
-1266.233982781948
 21
-131.7956672425029
 31
0.0
  0
LINE
  5
9C46
  8
01
  6
BYBLOCK
 10
-1306.233982781949
 20
-128.4956672425032
 30
0.0
 11
-1266.233982781948
 21
-128.49566724250269
 31
0.0
  0
LINE
  5
9C47
  8
01
 10
-1308.285483910915
 20
-130.14566724250281
 30
0.0
 11
-1262.3832921352371
 21
-130.14566724250281
 31
0.0
  0
LINE
  5
9C48
  8
01
  6
BYBLOCK
 10
-1266.233982781948
 20
-132.14566724250281
 30
0.0
 11
-1266.233982781948
 21
-128.14566724250281
 31
0.0
  0
LINE
  5
9C49
  8
01
  6
BYBLOCK
 10
-1305.883982781949
 20
-132.14566724250281
 30
0.0
 11
-1306.233982781948
 21
-131.7956672425029
 31
0.0
  0
LINE
  5
9C4A
  8
01
  6
BYBLOCK
 10
-1306.233982781948
 20
-131.7956672425029
 30
0.0
 11
-1306.233982781948
 21
-128.49566724250289
 31
0.0
  0
LINE
  5
9C4B
  8
01
  6
BYBLOCK
 10
-1306.233982781948
 20
-128.49566724250289
 30
0.0
 11
-1305.883982781949
 21
-128.14566724250281
 31
0.0
  0
LINE
  5
9C4C
  8
01
  6
BYBLOCK
 10
-1305.883982781949
 20
-132.14566724250281
 30
0.0
 11
-1305.883982781949
 21
-128.14566724250281
 31
0.0
  0
CIRCLE
  5
9C4D
  8
01
 10
-1389.5537491428031
 20
1.273336082297049
 30
0.0
 40
26.5
  0
CIRCLE
  5
9C4E
  8
01
 10
-1389.5537491428031
 20
1.273336082297049
 30
0.0
 40
14.500000000000449
  0
LINE
  5
9C51
  8
01
 10
-1242.1785307232749
 20
27.77333608478429
 30
0.0
 11
-1242.1785307232749
 21
-25.226663915215489
 31
0.0
  0
LINE
  5
9C52
  8
01
 10
-1233.6785307232749
 20
-24.72666391521571
 30
0.0
 11
-1233.678530723276
 21
27.27333608478429
 31
0.0
  0
ARC
  5
9C53
  8
01
 10
-1234.178530723276
 20
27.27333608478429
 30
0.0
 40
0.5
 50
0.0
 51
90.0
  0
LINE
  5
9C54
  8
01
 10
-1242.1785307232749
 20
27.77333608478429
 30
0.0
 11
-1234.178530723276
 21
27.77333608478429
 31
0.0
  0
LINE
  5
9C55
  8
01
 10
-1242.1785307232749
 20
-25.226663915215489
 30
0.0
 11
-1234.1785307232749
 21
-25.2266639152148
 31
0.0
  0
ARC
  5
9C56
  8
01
 10
-1234.1785307232749
 20
-24.72666391521571
 30
0.0
 40
0.5
 50
270.0
 51
0.0
  0
LINE
  5
9C70
  8
01
  6
BYBLOCK
 10
-1306.33690210137
 20
-90.742544729892785
 30
0.0
 11
-1271.6869021013699
 21
-90.742544729892785
 31
0.0
  0
LINE
  5
9C71
  8
01
  6
BYBLOCK
 10
-1271.6869021013699
 20
-92.242544729892785
 30
0.0
 11
-1271.6869021013699
 21
-90.742544729892785
 31
0.0
  0
LINE
  5
9C72
  8
01
  6
BYBLOCK
 10
-1306.33690210137
 20
-90.742544729892785
 30
0.0
 11
-1306.6869021013699
 21
-90.392544729892876
 31
0.0
  0
LINE
  5
9C73
  8
01
  6
BYBLOCK
 10
-1271.6869021013699
 20
-92.242544729892785
 30
0.0
 11
-1271.08690210137
 21
-92.242544729892785
 31
0.0
  0
LINE
  5
9C74
  8
01
  6
BYBLOCK
 10
-1306.6869021013699
 20
-90.392544729892876
 30
0.0
 11
-1306.6869021013699
 21
-87.092544729892907
 31
0.0
  0
ARC
  5
9C75
  8
01
  6
BYBLOCK
 10
-1271.08690210137
 20
-90.242544729892785
 30
0.0
 40
2.0
 50
270.0
 51
0.0
  0
LINE
  5
9C76
  8
01
  6
BYBLOCK
 10
-1306.6869021013699
 20
-87.092544729892907
 30
0.0
 11
-1306.33690210137
 21
-86.742544729892785
 31
0.0
  0
LINE
  5
9C77
  8
01
  6
BYBLOCK
 10
-1269.08690210137
 20
-90.242544729892785
 30
0.0
 11
-1269.08690210137
 21
-87.242544729892785
 31
0.0
  0
LINE
  5
9C78
  8
01
  6
BYBLOCK
 10
-1306.33690210137
 20
-86.742544729892785
 30
0.0
 11
-1271.6869021013699
 21
-86.742544729892785
 31
0.0
  0
ARC
  5
9C79
  8
01
  6
BYBLOCK
 10
-1271.08690210137
 20
-87.242544729892785
 30
0.0
 40
2.0
 50
0.0
 51
90.0
  0
LINE
  5
9C7A
  8
01
  6
BYBLOCK
 10
-1271.6869021013699
 20
-86.742544729892785
 30
0.0
 11
-1271.6869021013699
 21
-85.242544729892785
 31
0.0
  0
LINE
  5
9C7B
  8
01
  6
BYBLOCK
 10
-1271.6869021013699
 20
-85.242544729892785
 30
0.0
 11
-1271.08690210137
 21
-85.242544729892785
 31
0.0
  0
LINE
  5
9C7C
  8
01
  6
BYBLOCK
 10
-1306.6869021013699
 20
-90.392544729892649
 30
0.0
 11
-1271.6869021013699
 21
-90.392544729892876
 31
0.0
  0
LINE
  5
9C7D
  8
01
  6
BYBLOCK
 10
-1306.6869021013699
 20
-87.092544729893135
 30
0.0
 11
-1271.6869021013699
 21
-87.092544729892694
 31
0.0
  0
LINE
  5
9C7E
  8
01
 10
-1308.8740596055491
 20
-88.742544729892785
 30
0.0
 11
-1267.836211454659
 21
-88.742544729892785
 31
0.0
  0
LINE
  5
9C7F
  8
01
  6
BYBLOCK
 10
-1306.33690210137
 20
-90.742544729892785
 30
0.0
 11
-1306.33690210137
 21
-86.742544729892785
 31
0.0
  0
LINE
  5
9C80
  8
01
  6
BYBLOCK
 10
-1271.6869021013699
 20
-90.742544729892785
 30
0.0
 11
-1271.6869021013699
 21
-86.742544729892785
 31
0.0
  0
LINE
  5
9C81
  8
01
  6
BYBLOCK
 10
-1306.33690210137
 20
-100.6071441967996
 30
0.0
 11
-1271.6869021013699
 21
-100.6071441967996
 31
0.0
  0
LINE
  5
9C82
  8
01
  6
BYBLOCK
 10
-1271.6869021013699
 20
-102.1071441967996
 30
0.0
 11
-1271.6869021013699
 21
-100.6071441967996
 31
0.0
  0
LINE
  5
9C83
  8
01
  6
BYBLOCK
 10
-1306.33690210137
 20
-100.6071441967996
 30
0.0
 11
-1306.6869021013699
 21
-100.2571441967997
 31
0.0
  0
LINE
  5
9C84
  8
01
  6
BYBLOCK
 10
-1271.6869021013699
 20
-102.1071441967996
 30
0.0
 11
-1271.08690210137
 21
-102.1071441967996
 31
0.0
  0
LINE
  5
9C85
  8
01
  6
BYBLOCK
 10
-1306.6869021013699
 20
-100.2571441967997
 30
0.0
 11
-1306.6869021013699
 21
-96.95714419679976
 31
0.0
  0
ARC
  5
9C86
  8
01
  6
BYBLOCK
 10
-1271.08690210137
 20
-100.1071441967996
 30
0.0
 40
2.0
 50
270.0
 51
0.0
  0
LINE
  5
9C87
  8
01
  6
BYBLOCK
 10
-1306.6869021013699
 20
-96.95714419679976
 30
0.0
 11
-1306.33690210137
 21
-96.607144196799624
 31
0.0
  0
LINE
  5
9C88
  8
01
  6
BYBLOCK
 10
-1269.08690210137
 20
-100.1071441967996
 30
0.0
 11
-1269.08690210137
 21
-97.107144196799624
 31
0.0
  0
LINE
  5
9C89
  8
01
  6
BYBLOCK
 10
-1306.33690210137
 20
-96.607144196799624
 30
0.0
 11
-1271.6869021013699
 21
-96.607144196799624
 31
0.0
  0
ARC
  5
9C8A
  8
01
  6
BYBLOCK
 10
-1271.08690210137
 20
-97.107144196799624
 30
0.0
 40
2.0
 50
0.0
 51
90.0
  0
LINE
  5
9C8B
  8
01
  6
BYBLOCK
 10
-1271.6869021013699
 20
-96.607144196799624
 30
0.0
 11
-1271.6869021013699
 21
-95.107144196799624
 31
0.0
  0
LINE
  5
9C8C
  8
01
  6
BYBLOCK
 10
-1271.6869021013699
 20
-95.107144196799624
 30
0.0
 11
-1271.08690210137
 21
-95.107144196799624
 31
0.0
  0
LINE
  5
9C8D
  8
01
  6
BYBLOCK
 10
-1306.6869021013699
 20
-100.2571441967995
 30
0.0
 11
-1271.6869021013699
 21
-100.2571441967997
 31
0.0
  0
LINE
  5
9C8E
  8
01
  6
BYBLOCK
 10
-1306.6869021013699
 20
-96.957144196799987
 30
0.0
 11
-1271.6869021013699
 21
-96.957144196799533
 31
0.0
  0
LINE
  5
9C8F
  8
01
 10
-1308.8740596055491
 20
-98.607144196799624
 30
0.0
 11
-1267.836211454659
 21
-98.607144196799624
 31
0.0
  0
LINE
  5
9C90
  8
01
  6
BYBLOCK
 10
-1306.33690210137
 20
-100.6071441967996
 30
0.0
 11
-1306.33690210137
 21
-96.607144196799624
 31
0.0
  0
LINE
  5
9C91
  8
01
  6
BYBLOCK
 10
-1271.6869021013699
 20
-100.6071441967996
 30
0.0
 11
-1271.6869021013699
 21
-96.607144196799624
 31
0.0
  0
ARC
  5
9C9C
  8
01
 10
-1257.084446215362
 20
-98.607144196799624
 30
0.0
 40
2.4730806398663381
 50
0.0
 51
352.8866945835403
  0
ARC
  5
9C9D
  8
01
 10
-1257.084446215362
 20
-98.607144196799624
 30
0.0
 40
3.8730806398662021
 50
3.833688203759209
 51
359.37605113831148
  0
LINE
  5
9C9E
  8
01
 10
-1254.611365575495
 20
-98.607144196799624
 30
0.0
 11
-1253.220032256693
 21
-98.348187831837706
 31
0.0
  0
LINE
  5
9C9F
  8
01
 10
-1254.6304003628229
 20
-98.913390510926931
 30
0.0
 11
-1253.2115952300071
 21
-98.649321064146676
 31
0.0
  0
ARC
  5
9CA9
  8
01
 10
-1257.084446215362
 20
-87.624929722687654
 30
0.0
 40
2.4730806398663381
 50
0.0
 51
352.8866945835403
  0
ARC
  5
9CAA
  8
01
 10
-1257.084446215362
 20
-87.624929722687654
 30
0.0
 40
3.8730806398662021
 50
3.833688203759209
 51
359.37605113831148
  0
LINE
  5
9CAB
  8
01
 10
-1254.611365575495
 20
-87.624929722687654
 30
0.0
 11
-1253.220032256693
 21
-87.365973357725721
 31
0.0
  0
LINE
  5
9CAC
  8
01
 10
-1254.6304003628229
 20
-87.931176036814946
 30
0.0
 11
-1253.2115952300071
 21
-87.667106590034706
 31
0.0
  0
LINE
  5
9CAD
  8
01
 10
-1262.0306074949599
 20
-87.624929722690609
 30
0.0
 11
-1252.1382849357601
 21
-87.624929722690609
 31
0.0
  0
LINE
  5
9CAE
  8
01
 10
-1257.08444621536
 20
-92.571091002290487
 30
0.0
 11
-1257.08444621536
 21
-82.678768443090703
 31
0.0
  0
LINE
  5
9CAF
  8
01
 10
-1262.0306074949599
 20
-98.607144196800775
 30
0.0
 11
-1252.1382849357601
 21
-98.607144196800775
 31
0.0
  0
LINE
  5
9CB0
  8
01
 10
-1257.08444621536
 20
-103.5533054764006
 30
0.0
 11
-1257.08444621536
 21
-93.660982917200641
 31
0.0
  0
LINE
  5
9E22
  8
01
 10
-1386.5037491403159
 20
-120.3278386993326
 30
0.0
 11
-1386.5037491403159
 21
-130.10188233723071
 31
0.0
  0
LINE
  5
9E23
  8
01
 10
-1381.2037491403159
 20
-123.1694235736055
 30
0.0
 11
-1381.2037491403159
 21
-127.60188233723341
 31
0.0
  0
LINE
  5
9E24
  8
01
 10
-1392.603749140314
 20
-120.3278386993326
 30
0.0
 11
-1392.6037491403169
 21
-130.10188233723071
 31
0.0
  0
LINE
  5
9E25
  8
01
 10
-1398.2682687679389
 20
-155.60188233723071
 30
0.0
 11
-1380.8392295126921
 21
-155.6018823372311
 31
0.0
  0
ARC
  5
9E26
  8
01
 10
-1398.2682687679389
 20
-153.60188233723071
 30
0.0
 40
1.9999999999999989
 50
209.9999999999981
 51
270.0
  0
ARC
  5
9E28
  8
01
 10
-1380.8392295126921
 20
-153.60188233723071
 30
0.0
 40
1.9999999999999989
 50
270.0
 51
330.00000000001342
  0
LINE
  5
9E2A
  8
01
 10
-1395.0537491403161
 20
-172.80188233723001
 30
0.0
 11
-1384.0537491403161
 21
-172.80188233722961
 31
0.0
  0
ARC
  5
9E2B
  8
01
 10
-1397.0537491403149
 20
-163.6018823372298
 30
0.0
 40
3.9999999999999232
 50
269.99999999998698
 51
90.0
  0
LINE
  5
9E2C
  8
01
 10
-1397.053749140314
 20
-159.60188233723019
 30
0.0
 11
-1397.330739079702
 21
-159.60188233723019
 31
0.0
  0
LINE
  5
9E2D
  8
01
 10
-1397.0537491403149
 20
-167.6018823372298
 30
0.0
 11
-1397.330739079702
 21
-167.6018823372298
 31
0.0
  0
LINE
  5
9E2E
  8
01
 10
-1397.330739079702
 20
-170.52489239784259
 30
0.0
 11
-1395.0537491403149
 21
-172.80188233722961
 31
0.0
  0
LINE
  5
9E2F
  8
01
 10
-1384.0537491403149
 20
-172.80188233723001
 30
0.0
 11
-1381.7767592009279
 21
-170.52489239784299
 31
0.0
  0
ARC
  5
9E30
  8
01
 10
-1385.801074133439
 20
-168.34325139244231
 30
0.0
 40
4.4586309447887844
 50
209.2950675306725
 51
304.80787901392262
  0
ARC
  5
9E31
  8
01
 10
-1393.577919875866
 20
-168.34325139244089
 30
0.0
 40
4.4586309447887844
 50
244.75226066203379
 51
330.70493246931278
  0
LINE
  5
9E32
  8
01
 10
-1397.330739079702
 20
-170.52489239784299
 30
0.0
 11
-1397.330739079702
 21
-167.6018823372298
 31
0.0
  0
LINE
  5
9E33
  8
01
 10
-1397.330739079702
 20
-159.60188233723019
 30
0.0
 11
-1397.330739079702
 21
-155.60188233723071
 31
0.0
  0
LINE
  5
9E34
  8
01
 10
-1381.7767592009279
 20
-170.52489239784299
 30
0.0
 11
-1381.7767592009279
 21
-155.60188233723019
 31
0.0
  0
LINE
  5
9E35
  8
01
 10
-1389.689497004653
 20
-170.5248923978439
 30
0.0
 11
-1389.689497004654
 21
-155.60188233723019
 31
0.0
  0
ARC
  5
9E36
  8
01
 10
-1389.5537491403161
 20
-148.10188233723341
 30
0.0
 40
28.5
 50
97.283890241767651
 51
102.1108617990815
  0
ARC
  5
9E37
  8
01
 10
-1393.103749140314
 20
-120.3278386993326
 30
0.0
 40
0.5
 50
359.99999999998698
 51
97.283890241767651
  0
ARC
  5
9E38
  8
01
 10
-1394.903749140316
 20
-123.1694235736055
 30
0.0
 40
3.0
 50
102.1108617990815
 51
180.0
  0
ARC
  5
9E39
  8
01
 10
-1389.5537491403161
 20
-148.10188233723341
 30
0.0
 40
28.5
 50
77.889138200911802
 51
82.716109758225684
  0
ARC
  5
9E3A
  8
01
 10
-1386.0037491403159
 20
-120.3278386993326
 30
0.0
 40
0.5
 50
82.716109758225684
 51
180.0
  0
ARC
  5
9E3B
  8
01
 10
-1384.2037491403159
 20
-123.1694235736055
 30
0.0
 40
3.0
 50
0.0
 51
77.889138200911802
  0
ARC
  5
9E3C
  8
01
 10
-1389.5537491403161
 20
-130.10188233723071
 30
0.0
 40
3.0500000000008778
 50
180.0
 51
0.0
  0
ARC
  5
9E3D
  8
01
 10
-1389.5537491403161
 20
-148.10188233723019
 30
0.0
 40
7.0
 50
77.99999999999703
 51
102.0000000000029
  0
LINE
  5
9E3E
  8
01
 10
-1384.1133893839551
 20
-142.10188233723071
 30
0.0
 11
-1388.098367304591
 21
-141.25484913208959
 31
0.0
  0
LINE
  5
9E3F
  8
01
 10
-1394.994108896673
 20
-142.10188233723019
 30
0.0
 11
-1391.0091309760401
 21
-141.25484913208959
 31
0.0
  0
LINE
  5
9E40
  8
01
 10
-1381.2037491403159
 20
-127.60188233723341
 30
0.0
 11
-1379.639950732326
 21
-142.1018823372309
 31
0.0
  0
LINE
  5
9E41
  8
01
 10
-1397.903749140316
 20
-123.1694235736057
 30
0.0
 11
-1397.903749140316
 21
-127.60188233723341
 31
0.0
  0
LINE
  5
9E42
  8
01
 10
-1397.903749140316
 20
-127.60188233723341
 30
0.0
 11
-1399.4675475483059
 21
-142.10188233723019
 31
0.0
  0
LINE
  5
9E48
  8
01
 10
-1386.5037491403159
 20
-107.293817417581
 30
0.0
 11
-1386.5037491403159
 21
-97.519773779682865
 31
0.0
  0
LINE
  5
9E49
  8
01
 10
-1381.2037491403159
 20
-104.452232543308
 30
0.0
 11
-1381.2037491403159
 21
-100.01977377968009
 31
0.0
  0
LINE
  5
9E4A
  8
01
 10
-1392.603749140314
 20
-107.293817417581
 30
0.0
 11
-1392.6037491403169
 21
-97.519773779682865
 31
0.0
  0
LINE
  5
9E4B
  8
01
 10
-1398.2682687679401
 20
-72.019773779683561
 30
0.0
 11
-1380.839229512693
 21
-72.019773779682424
 31
0.0
  0
ARC
  5
9E4C
  8
01
 10
-1398.2682687679401
 20
-74.019773779683334
 30
0.0
 40
1.9999999999999989
 50
90.0
 51
149.99999999986471
  0
ARC
  5
9E4D
  8
01
 10
-1380.839229512693
 20
-74.019773779682879
 30
0.0
 40
1.9999999999999989
 50
30.000000000101739
 51
90.0
  0
LINE
  5
9E4E
  8
01
 10
-1395.053749140317
 20
-54.81977377968397
 30
0.0
 11
-1384.053749140317
 21
-54.81977377968397
 31
0.0
  0
ARC
  5
9E4F
  8
01
 10
-1397.0537491403161
 20
-64.019773779684016
 30
0.0
 40
3.9999999999999232
 50
270.0
 51
90.0
  0
LINE
  5
9E50
  8
01
 10
-1397.0537491403161
 20
-68.019773779683788
 30
0.0
 11
-1397.330739079704
 21
-68.019773779683788
 31
0.0
  0
LINE
  5
9E51
  8
01
 10
-1397.053749140317
 20
-60.019773779684243
 30
0.0
 11
-1397.3307390797031
 21
-60.019773779684009
 31
0.0
  0
LINE
  5
9E52
  8
01
 10
-1397.330739079704
 20
-57.096763719071447
 30
0.0
 11
-1395.0537491403161
 21
-54.819773779684418
 31
0.0
  0
LINE
  5
9E53
  8
01
 10
-1384.053749140317
 20
-54.819773779683523
 30
0.0
 11
-1381.77675920093
 21
-57.096763719070537
 31
0.0
  0
ARC
  5
9E54
  8
01
 10
-1385.801074133441
 20
-59.278404724471237
 30
0.0
 40
4.4586309447887844
 50
55.192120986058477
 51
150.7049324693275
  0
ARC
  5
9E55
  8
01
 10
-1393.577919875868
 20
-59.278404724473063
 30
0.0
 40
4.4586309447887844
 50
29.295067530700742
 51
115.2477393379432
  0
LINE
  5
9E56
  8
01
 10
-1397.330739079704
 20
-57.096763719071213
 30
0.0
 11
-1397.3307390797031
 21
-60.019773779684009
 31
0.0
  0
LINE
  5
9E57
  8
01
 10
-1397.330739079704
 20
-68.019773779683788
 30
0.0
 11
-1397.330739079704
 21
-72.019773779683334
 31
0.0
  0
LINE
  5
9E58
  8
01
 10
-1381.77675920093
 20
-57.096763719070758
 30
0.0
 11
-1381.7767592009291
 21
-72.019773779683106
 31
0.0
  0
LINE
  5
9E59
  8
01
 10
-1389.6894970046551
 20
-57.096763719069401
 30
0.0
 11
-1389.6894970046551
 21
-72.019773779683334
 31
0.0
  0
ARC
  5
9E5A
  8
01
 10
-1389.5537491403161
 20
-79.519773779680378
 30
0.0
 40
28.5
 50
257.88913820091852
 51
262.71610975823228
  0
ARC
  5
9E5B
  8
01
 10
-1393.103749140314
 20
-107.2938174175812
 30
0.0
 40
0.5
 50
262.71610975823228
 51
0.0000000000130276
  0
ARC
  5
9E5C
  8
01
 10
-1394.903749140316
 20
-104.4522325433082
 30
0.0
 40
3.0
 50
179.99999999998701
 51
257.88913820090579
  0
ARC
  5
9E5D
  8
01
 10
-1389.5537491403161
 20
-79.519773779680378
 30
0.0
 40
28.5
 50
277.28389024177432
 51
282.11086179908818
  0
ARC
  5
9E5E
  8
01
 10
-1386.003749140315
 20
-107.293817417581
 30
0.0
 40
0.5
 50
180.0
 51
277.28389024177432
  0
ARC
  5
9E5F
  8
01
 10
-1384.2037491403159
 20
-104.452232543308
 30
0.0
 40
3.0
 50
282.11086179907522
 51
0.0
  0
ARC
  5
9E60
  8
01
 10
-1389.5537491403161
 20
-97.519773779682865
 30
0.0
 40
3.0500000000008778
 50
0.0
 51
180.0
  0
ARC
  5
9E61
  8
01
 10
-1389.553749140317
 20
-79.519773779683334
 30
0.0
 40
7.0
 50
257.99999999999068
 51
281.99999999998988
  0
LINE
  5
9E62
  8
01
 10
-1384.1133893839569
 20
-85.519773779682424
 30
0.0
 11
-1388.098367304591
 21
-86.366806984823967
 31
0.0
  0
LINE
  5
9E63
  8
01
 10
-1394.9941088966791
 20
-85.519773779682197
 30
0.0
 11
-1391.0091309760401
 21
-86.366806984823967
 31
0.0
  0
LINE
  5
9E64
  8
01
 10
-1381.2037491403159
 20
-100.01977377968009
 30
0.0
 11
-1379.639950732326
 21
-85.519773779682424
 31
0.0
  0
LINE
  5
9E65
  8
01
 10
-1397.903749140316
 20
-104.452232543308
 30
0.0
 11
-1397.903749140316
 21
-100.01977377968061
 31
0.0
  0
LINE
  5
9E66
  8
01
 10
-1397.903749140316
 20
-100.01977377968061
 30
0.0
 11
-1399.4675475483059
 21
-85.519773779682197
 31
0.0
  0
LINE
  5
9E6C
  8
01
 10
-1389.5537491403161
 20
-48.361383328333801
 30
0.0
 11
-1389.5537491403161
 21
-178.88332303036429
 31
0.0
  0
LINE
  5
9E6D
  8
01
 10
-1406.5537491403161
 20
-101.94326794764351
 30
0.0
 11
-1406.5537491403161
 21
-76.905578716670476
 31
0.0
  0
LINE
  5
9E6E
  8
01
 10
-1372.5537491403161
 20
-101.94326794764351
 30
0.0
 11
-1372.553749140317
 21
-76.905578716670476
 31
0.0
  0
LINE
  5
9E6F
  8
01
 10
-1408.2187502654281
 20
-85.519773779681984
 30
0.0
 11
-1370.888748015205
 21
-85.519773779682879
 31
0.0
  0
ARC
  5
9E70
  8
01
 10
-1377.7537491403159
 20
-87.019773779682424
 30
0.0
 40
1.5
 50
0.0
 51
90.0
  0
LINE
  5
9E71
  8
01
 10
-1369.3537525794609
 20
-81.519773779682424
 30
0.0
 11
-1369.3537525794609
 21
-97.219773779682015
 31
0.0
  0
LINE
  5
9E72
  8
01
 10
-1376.2537491403159
 20
-87.019773779682424
 30
0.0
 11
-1376.253749140315
 21
-97.219773779682242
 31
0.0
  0
LINE
  5
9E73
  8
01
 10
-1375.9537491403159
 20
-97.519773779682197
 30
0.0
 11
-1376.253749140315
 21
-97.219773779682242
 31
0.0
  0
LINE
  5
9E74
  8
01
 10
-1409.453745701172
 20
-97.519773779682424
 30
0.0
 11
-1403.153749140316
 21
-97.519773779682197
 31
0.0
  0
LINE
  5
9E75
  8
01
 10
-1409.753745701172
 20
-81.519773779682424
 30
0.0
 11
-1409.753745701172
 21
-97.219773779682242
 31
0.0
  0
LINE
  5
9E76
  8
01
 10
-1409.453745701172
 20
-97.519773779682197
 30
0.0
 11
-1409.753745701172
 21
-97.219773779682242
 31
0.0
  0
LINE
  5
9E77
  8
01
 10
-1402.853749140316
 20
-87.019773779681955
 30
0.0
 11
-1402.8537491403169
 21
-97.219773779682242
 31
0.0
  0
LINE
  5
9E78
  8
01
 10
-1403.153749140316
 20
-97.519773779682197
 30
0.0
 11
-1402.8537491403169
 21
-97.219773779682242
 31
0.0
  0
ARC
  5
9E79
  8
01
 10
-1401.353749140316
 20
-87.019773779682197
 30
0.0
 40
1.5
 50
90.0
 51
180.0
  0
LINE
  5
9E7A
  8
01
 10
-1369.6537525794599
 20
-97.519773779681742
 30
0.0
 11
-1375.9537491403159
 21
-97.519773779682197
 31
0.0
  0
LINE
  5
9E7B
  8
01
 10
-1369.3537525794609
 20
-97.219773779682015
 30
0.0
 11
-1369.6537525794599
 21
-97.519773779681969
 31
0.0
  0
LINE
  5
9E7C
  8
01
 10
-1369.888748015205
 20
-84.519773779682879
 30
0.0
 11
-1369.888748015205
 21
-81.519773779682424
 31
0.0
  0
ARC
  5
9E7D
  8
01
 10
-1370.888748015205
 20
-84.519773779682879
 30
0.0
 40
1.0
 50
270.0
 51
0.0
  0
LINE
  5
9E7E
  8
01
 10
-1369.3537525794609
 20
-97.219773779682015
 30
0.0
 11
-1376.253749140315
 21
-97.219773779682242
 31
0.0
  0
LINE
  5
9E7F
  8
01
 10
-1402.8537491403169
 20
-97.219773779682242
 30
0.0
 11
-1409.753745701172
 21
-97.219773779682242
 31
0.0
  0
LINE
  5
9E80
  8
01
 10
-1409.2187502654281
 20
-84.519773779681955
 30
0.0
 11
-1409.2187502654281
 21
-81.519773779682424
 31
0.0
  0
ARC
  5
9E81
  8
01
 10
-1408.2187502654281
 20
-84.519773779681955
 30
0.0
 40
1.0
 50
180.0
 51
269.99999999998698
  0
LINE
  5
9E82
  8
01
 10
-1372.5537491403161
 20
-125.6783881692696
 30
0.0
 11
-1372.5537491403161
 21
-150.472618100311
 31
0.0
  0
LINE
  5
9E83
  8
01
 10
-1406.5537491403149
 20
-125.6783881692696
 30
0.0
 11
-1406.5537491403149
 21
-150.472618100311
 31
0.0
  0
LINE
  5
9E84
  8
01
 10
-1370.8887480152041
 20
-142.1018823372309
 30
0.0
 11
-1408.2187502654269
 21
-142.10188233723019
 31
0.0
  0
ARC
  5
9E85
  8
01
 10
-1401.3537491403149
 20
-140.60188233723071
 30
0.0
 40
1.5
 50
180.0
 51
270.0
  0
LINE
  5
9E86
  8
01
 10
-1409.7537457011711
 20
-146.10188233723071
 30
0.0
 11
-1409.7537457011711
 21
-130.40188233723131
 31
0.0
  0
LINE
  5
9E87
  8
01
 10
-1402.8537491403149
 20
-140.60188233723071
 30
0.0
 11
-1402.853749140316
 21
-130.40188233723089
 31
0.0
  0
LINE
  5
9E88
  8
01
 10
-1403.153749140316
 20
-130.1018823372309
 30
0.0
 11
-1402.853749140316
 21
-130.40188233723089
 31
0.0
  0
LINE
  5
9E89
  8
01
 10
-1369.6537525794599
 20
-130.1018823372309
 30
0.0
 11
-1375.953749140315
 21
-130.1018823372309
 31
0.0
  0
LINE
  5
9E8A
  8
01
 10
-1369.35375257946
 20
-146.10188233723071
 30
0.0
 11
-1369.35375257946
 21
-130.40188233723089
 31
0.0
  0
LINE
  5
9E8B
  8
01
 10
-1369.6537525794599
 20
-130.1018823372309
 30
0.0
 11
-1369.35375257946
 21
-130.40188233723089
 31
0.0
  0
LINE
  5
9E8C
  8
01
 10
-1376.2537491403159
 20
-140.6018823372311
 30
0.0
 11
-1376.253749140315
 21
-130.40188233723089
 31
0.0
  0
LINE
  5
9E8D
  8
01
 10
-1375.953749140315
 20
-130.1018823372309
 30
0.0
 11
-1376.253749140315
 21
-130.40188233723089
 31
0.0
  0
ARC
  5
9E8E
  8
01
 10
-1377.7537491403159
 20
-140.6018823372309
 30
0.0
 40
1.5
 50
270.0
 51
0.0
  0
LINE
  5
9E8F
  8
01
 10
-1409.453745701172
 20
-130.10188233723159
 30
0.0
 11
-1403.153749140316
 21
-130.1018823372309
 31
0.0
  0
LINE
  5
9E90
  8
01
 10
-1409.7537457011711
 20
-130.40188233723131
 30
0.0
 11
-1409.4537457011711
 21
-130.1018823372311
 31
0.0
  0
LINE
  5
9E91
  8
01
 10
-1409.2187502654269
 20
-143.10188233723019
 30
0.0
 11
-1409.2187502654269
 21
-146.10188233723071
 31
0.0
  0
ARC
  5
9E92
  8
01
 10
-1408.2187502654269
 20
-143.10188233723019
 30
0.0
 40
1.0
 50
90.0
 51
180.0
  0
LINE
  5
9E93
  8
01
 10
-1409.753745701172
 20
-130.40188233723109
 30
0.0
 11
-1402.853749140316
 21
-130.40188233723089
 31
0.0
  0
LINE
  5
9E94
  8
01
 10
-1376.253749140315
 20
-130.40188233723089
 30
0.0
 11
-1369.35375257946
 21
-130.40188233723089
 31
0.0
  0
LINE
  5
9E95
  8
01
 10
-1369.8887480152041
 20
-143.1018823372309
 30
0.0
 11
-1369.8887480152041
 21
-146.10188233723071
 31
0.0
  0
ARC
  5
9E96
  8
01
 10
-1370.8887480152041
 20
-143.1018823372309
 30
0.0
 40
1.0
 50
0.0
 51
90.0
  0
LINE
  5
9E97
  8
01
 10
-1363.0537491403161
 20
-81.519773779679241
 30
0.0
 11
-1416.0537491403161
 21
-81.519773779679241
 31
0.0
  0
LINE
  5
9E98
  8
01
 10
-1415.5537491403161
 20
-73.019773779679241
 30
0.0
 11
-1363.5537491403161
 21
-73.01977377968015
 31
0.0
  0
ARC
  5
9E99
  8
01
 10
-1363.5537491403161
 20
-73.51977377968015
 30
0.0
 40
0.5
 50
0.0
 51
90.0
  0
LINE
  5
9E9A
  8
01
 10
-1363.0537491403161
 20
-81.519773779679241
 30
0.0
 11
-1363.0537491403161
 21
-73.51977377968015
 31
0.0
  0
LINE
  5
9E9B
  8
01
 10
-1416.0537491403161
 20
-81.519773779679241
 30
0.0
 11
-1416.0537491403149
 21
-73.519773779679241
 31
0.0
  0
ARC
  5
9E9C
  8
01
 10
-1415.5537491403161
 20
-73.519773779679241
 30
0.0
 40
0.5
 50
90.0
 51
180.0
  0
LINE
  5
9E9D
  8
01
 10
-1363.0537491403161
 20
-146.1018823372309
 30
0.0
 11
-1416.0537491403161
 21
-146.1018823372311
 31
0.0
  0
LINE
  5
9E9E
  8
01
 10
-1415.5537491403161
 20
-154.6018823372309
 30
0.0
 11
-1363.5537491403161
 21
-154.60188233722999
 31
0.0
  0
ARC
  5
9E9F
  8
01
 10
-1363.5537491403161
 20
-154.10188233722999
 30
0.0
 40
0.5
 50
270.0
 51
0.0
  0
LINE
  5
9EA0
  8
01
 10
-1363.0537491403161
 20
-146.1018823372309
 30
0.0
 11
-1363.0537491403161
 21
-154.10188233722999
 31
0.0
  0
LINE
  5
9EA1
  8
01
 10
-1416.0537491403161
 20
-146.1018823372311
 30
0.0
 11
-1416.0537491403149
 21
-154.1018823372309
 31
0.0
  0
ARC
  5
9EA2
  8
01
 10
-1415.5537491403161
 20
-154.1018823372309
 30
0.0
 40
0.5
 50
180.0
 51
270.0
  0
LINE
  5
9F1C
  8
01
 10
-1302.760639280827
 20
10.27333715839049
 30
0.0
 11
-1302.760639280827
 21
3.840001042108582
 31
0.0
  0
LINE
  5
9F1D
  8
01
 10
-1302.760639280827
 20
-1.293331436988552
 30
0.0
 11
-1302.760639280827
 21
-7.7266582529388472
 31
0.0
  0
LINE
  5
9F1F
  8
01
 10
-1291.060639280827
 20
-2.4266639152159821
 30
0.0
 11
-1301.260639280827
 21
-2.4266639152159821
 31
0.0
  0
LINE
  5
9F20
  8
01
 10
-1291.060639280827
 20
4.973336084783881
 30
0.0
 11
-1301.260639280827
 21
4.973336084783881
 31
0.0
  0
LINE
  5
9F21
  8
01
 10
-1290.760639280827
 20
-2.126663915216028
 30
0.0
 11
-1290.760639280827
 21
4.6733360847839256
 31
0.0
  0
LINE
  5
9F22
  8
01
 10
-1290.760639280827
 20
-2.126663915216028
 30
0.0
 11
-1291.060639280827
 21
-2.4266639152159821
 31
0.0
  0
LINE
  5
9F23
  8
01
 10
-1290.760639280827
 20
4.6733360847839256
 30
0.0
 11
-1291.060639280827
 21
4.973336084783881
 31
0.0
  0
ARC
  5
9F24
  8
01
 10
-1301.260639280827
 20
-3.9266639152159821
 30
0.0
 40
1.5
 50
90.0
 51
180.0
  0
ARC
  5
9F25
  8
01
 10
-1301.260639280827
 20
6.473336084783881
 30
0.0
 40
1.5
 50
180.0
 51
270.0
  0
LINE
  5
9F26
  8
01
 10
-1303.760639280827
 20
-8.7266582529388472
 30
0.0
 11
-1306.760639280827
 21
-8.7266582529388472
 31
0.0
  0
ARC
  5
9F27
  8
01
 10
-1303.760639280827
 20
-7.7266582529388472
 30
0.0
 40
1.0
 50
270.0
 51
0.0
  0
LINE
  5
9F28
  8
01
 10
-1303.760639280827
 20
11.27333715839049
 30
0.0
 11
-1306.760639280827
 21
11.27333715839049
 31
0.0
  0
ARC
  5
9F29
  8
01
 10
-1303.760639280827
 20
10.27333715839049
 30
0.0
 40
1.0
 50
0.0
 51
90.0
  0
LINE
  5
9F32
  8
01
 10
-1302.760639280827
 20
-1.293331436988552
 30
0.0
 11
-1306.760639280827
 21
-1.293331436988552
 31
0.0
  0
LINE
  5
9F33
  8
01
 10
-1302.760639280827
 20
3.840001042108582
 30
0.0
 11
-1306.760639280827
 21
3.840001042108582
 31
0.0
  0
LINE
  5
9F39
  8
01
 10
-1290.760639280827
 20
-0.9552350240461748
 30
0.0
 11
-1306.760639280827
 21
-0.9552350240461748
 31
0.0
  0
LINE
  5
9F3A
  8
01
 10
-1290.760639280827
 20
3.501864969248202
 30
0.0
 11
-1306.760639280827
 21
3.501864969248202
 31
0.0
  0
LINE
  5
9F68
  8
01
 10
-1246.1785307232749
 20
-7.7266860976523901
 30
0.0
 11
-1246.1785307232749
 21
-1.2933499813702549
 31
0.0
  0
LINE
  5
9F69
  8
01
 10
-1246.1785307232749
 20
3.839982497726651
 30
0.0
 11
-1246.1785307232749
 21
10.27330931367695
 31
0.0
  0
LINE
  5
9F6B
  8
01
 10
-1257.8785307232749
 20
4.9733149759540822
 30
0.0
 11
-1247.6785307232749
 21
4.9733149759540822
 31
0.0
  0
LINE
  5
9F6C
  8
01
 10
-1257.8785307232749
 20
-2.4266850240457809
 30
0.0
 11
-1247.6785307232749
 21
-2.4266850240457809
 31
0.0
  0
LINE
  5
9F6D
  8
01
 10
-1258.1785307232749
 20
4.6733149759541268
 30
0.0
 11
-1258.1785307232749
 21
-2.1266850240458259
 31
0.0
  0
LINE
  5
9F6E
  8
01
 10
-1258.1785307232749
 20
4.6733149759541268
 30
0.0
 11
-1257.8785307232749
 21
4.9733149759540822
 31
0.0
  0
LINE
  5
9F6F
  8
01
 10
-1258.1785307232749
 20
-2.1266850240458259
 30
0.0
 11
-1257.8785307232749
 21
-2.4266850240457809
 31
0.0
  0
ARC
  5
9F70
  8
01
 10
-1247.6785307232749
 20
6.4733149759540822
 30
0.0
 40
1.5
 50
270.0
 51
0.0
  0
ARC
  5
9F71
  8
01
 10
-1247.6785307232749
 20
-3.9266850240457809
 30
0.0
 40
1.5
 50
0.0
 51
90.0
  0
LINE
  5
9F72
  8
01
 10
-1245.1785307232749
 20
11.27330931367694
 30
0.0
 11
-1242.1785307232749
 21
11.27330931367694
 31
0.0
  0
ARC
  5
9F73
  8
01
 10
-1245.1785307232749
 20
10.27330931367695
 30
0.0
 40
1.0
 50
90.0
 51
180.0
  0
LINE
  5
9F74
  8
01
 10
-1245.1785307232749
 20
-8.7266860976523901
 30
0.0
 11
-1242.1785307232749
 21
-8.7266860976523901
 31
0.0
  0
ARC
  5
9F75
  8
01
 10
-1245.1785307232749
 20
-7.7266860976523901
 30
0.0
 40
1.0
 50
180.0
 51
270.0
  0
LINE
  5
9F7E
  8
01
 10
-1246.1785307232749
 20
3.839982497726651
 30
0.0
 11
-1242.1785307232749
 21
3.839982497726651
 31
0.0
  0
LINE
  5
9F7F
  8
01
 10
-1246.1785307232749
 20
-1.2933499813702549
 30
0.0
 11
-1242.1785307232749
 21
-1.2933499813702549
 31
0.0
  0
LINE
  5
9F85
  8
01
 10
-1258.1785307232749
 20
3.5018860847842741
 30
0.0
 11
-1242.1785307232749
 21
3.5018860847842741
 31
0.0
  0
LINE
  5
9F86
  8
01
 10
-1258.1785307232749
 20
-0.9552139085101032
 30
0.0
 11
-1242.1785307232749
 21
-0.9552139085101032
 31
0.0
  0
ARC
  5
9FBA
  8
01
 10
-1314.2606392808241
 20
9.0733360847840743
 30
0.0
 40
2.0
 50
120.00000000008291
 51
180.0
  0
ARC
  5
9FBD
  8
01
 10
-1314.2606392808241
 20
-6.5266639152167443
 30
0.0
 40
2.0
 50
180.0
 51
239.99999999988719
  0
LINE
  5
9FC2
  8
01
 10
-1316.2606392808241
 20
9.0733360847838451
 30
0.0
 11
-1316.2606392808229
 21
-6.5266639152167443
 31
0.0
  0
LINE
  5
9FC3
  8
01
 10
-1333.460639280823
 20
6.7733360847618371
 30
0.0
 11
-1333.4606392808221
 21
-4.2266639152158803
 31
0.0
  0
LINE
  5
9FC4
  8
01
 10
-1316.2606392808241
 20
9.0503260241472674
 30
0.0
 11
-1331.1836493414371
 21
9.0503260241468126
 31
0.0
  0
LINE
  5
9FC5
  8
01
 10
-1316.2606392808229
 20
-6.5036538545344618
 30
0.0
 11
-1331.183649341503
 21
-6.5036538545349174
 31
0.0
  0
LINE
  5
9FC6
  8
01
 10
-1316.2606392808229
 20
1.1375882178355421
 30
0.0
 11
-1331.1836493414371
 21
1.1375882178350869
 31
0.0
  0
LINE
  5
9FC7
  8
01
 10
-1331.1836493414371
 20
9.0503260241468126
 30
0.0
 11
-1333.4606392808
 21
6.7733360847838924
 31
0.0
  0
LINE
  5
9FC8
  8
01
 10
-1333.4606392808221
 20
-4.2266639152158803
 30
0.0
 11
-1331.183649341503
 21
-6.5036538545349174
 31
0.0
  0
POLYLINE
  5
9FC9
  8
01
 10
-1331.1836493414369
 20
1.1375882178353147
 30
0.0
 66
     1
 70
     8
  0
VERTEX
  8
01
  5
A317
 10
-1331.18
 20
1.13759
 30
0.000000
  70
    32
  0
VERTEX
  8
01
  5
A318
 10
-1331.22
 20
1.13812
 30
0.000000
  70
    32
  0
VERTEX
  8
01
  5
A319
 10
-1331.26
 20
1.13971
 30
0.000000
  70
    32
  0
VERTEX
  8
01
  5
A31A
 10
-1331.30
 20
1.14237
 30
0.000000
  70
    32
  0
VERTEX
  8
01
  5
A31B
 10
-1331.33
 20
1.14608
 30
0.000000
  70
    32
  0
VERTEX
  8
01
  5
A31C
 10
-1331.37
 20
1.15086
 30
0.000000
  70
    32
  0
VERTEX
  8
01
  5
A31D
 10
-1331.41
 20
1.15669
 30
0.000000
  70
    32
  0
VERTEX
  8
01
  5
A31E
 10
-1331.44
 20
1.16358
 30
0.000000
  70
    32
  0
VERTEX
  8
01
  5
A31F
 10
-1331.48
 20
1.17152
 30
0.000000
  70
    32
  0
VERTEX
  8
01
  5
A320
 10
-1331.52
 20
1.18052
 30
0.000000
  70
    32
  0
VERTEX
  8
01
  5
A321
 10
-1331.56
 20
1.19057
 30
0.000000
  70
    32
  0
VERTEX
  8
01
  5
A322
 10
-1331.59
 20
1.20167
 30
0.000000
  70
    32
  0
VERTEX
  8
01
  5
A323
 10
-1331.63
 20
1.21381
 30
0.000000
  70
    32
  0
VERTEX
  8
01
  5
A324
 10
-1331.66
 20
1.22699
 30
0.000000
  70
    32
  0
VERTEX
  8
01
  5
A325
 10
-1331.70
 20
1.24121
 30
0.000000
  70
    32
  0
VERTEX
  8
01
  5
A326
 10
-1331.74
 20
1.25646
 30
0.000000
  70
    32
  0
VERTEX
  8
01
  5
A327
 10
-1331.77
 20
1.27275
 30
0.000000
  70
    32
  0
VERTEX
  8
01
  5
A328
 10
-1331.81
 20
1.29006
 30
0.000000
  70
    32
  0
VERTEX
  8
01
  5
A329
 10
-1331.85
 20
1.30839
 30
0.000000
  70
    32
  0
VERTEX
  8
01
  5
A32A
 10
-1331.88
 20
1.32774
 30
0.000000
  70
    32
  0
VERTEX
  8
01
  5
A32B
 10
-1331.92
 20
1.34810
 30
0.000000
  70
    32
  0
VERTEX
  8
01
  5
A32C
 10
-1331.95
 20
1.36946
 30
0.000000
  70
    32
  0
VERTEX
  8
01
  5
A32D
 10
-1331.99
 20
1.39182
 30
0.000000
  70
    32
  0
VERTEX
  8
01
  5
A32E
 10
-1332.02
 20
1.41518
 30
0.000000
  70
    32
  0
VERTEX
  8
01
  5
A32F
 10
-1332.06
 20
1.43953
 30
0.000000
  70
    32
  0
VERTEX
  8
01
  5
A330
 10
-1332.09
 20
1.46485
 30
0.000000
  70
    32
  0
VERTEX
  8
01
  5
A331
 10
-1332.12
 20
1.49115
 30
0.000000
  70
    32
  0
VERTEX
  8
01
  5
A332
 10
-1332.16
 20
1.51842
 30
0.000000
  70
    32
  0
VERTEX
  8
01
  5
A333
 10
-1332.19
 20
1.54665
 30
0.000000
  70
    32
  0
VERTEX
  8
01
  5
A334
 10
-1332.23
 20
1.57583
 30
0.000000
  70
    32
  0
VERTEX
  8
01
  5
A335
 10
-1332.26
 20
1.60595
 30
0.000000
  70
    32
  0
VERTEX
  8
01
  5
A336
 10
-1332.29
 20
1.63701
 30
0.000000
  70
    32
  0
VERTEX
  8
01
  5
A337
 10
-1332.32
 20
1.66900
 30
0.000000
  70
    32
  0
VERTEX
  8
01
  5
A338
 10
-1332.36
 20
1.70190
 30
0.000000
  70
    32
  0
VERTEX
  8
01
  5
A339
 10
-1332.39
 20
1.73572
 30
0.000000
  70
    32
  0
VERTEX
  8
01
  5
A33A
 10
-1332.42
 20
1.77044
 30
0.000000
  70
    32
  0
VERTEX
  8
01
  5
A33B
 10
-1332.45
 20
1.80605
 30
0.000000
  70
    32
  0
VERTEX
  8
01
  5
A33C
 10
-1332.48
 20
1.84254
 30
0.000000
  70
    32
  0
VERTEX
  8
01
  5
A33D
 10
-1332.51
 20
1.87991
 30
0.000000
  70
    32
  0
VERTEX
  8
01
  5
A33E
 10
-1332.54
 20
1.91814
 30
0.000000
  70
    32
  0
VERTEX
  8
01
  5
A33F
 10
-1332.57
 20
1.95722
 30
0.000000
  70
    32
  0
VERTEX
  8
01
  5
A340
 10
-1332.60
 20
1.99715
 30
0.000000
  70
    32
  0
VERTEX
  8
01
  5
A341
 10
-1332.63
 20
2.03790
 30
0.000000
  70
    32
  0
VERTEX
  8
01
  5
A342
 10
-1332.66
 20
2.07948
 30
0.000000
  70
    32
  0
VERTEX
  8
01
  5
A343
 10
-1332.69
 20
2.12186
 30
0.000000
  70
    32
  0
VERTEX
  8
01
  5
A344
 10
-1332.71
 20
2.16504
 30
0.000000
  70
    32
  0
VERTEX
  8
01
  5
A345
 10
-1332.74
 20
2.20901
 30
0.000000
  70
    32
  0
VERTEX
  8
01
  5
A346
 10
-1332.77
 20
2.25375
 30
0.000000
  70
    32
  0
VERTEX
  8
01
  5
A347
 10
-1332.80
 20
2.29926
 30
0.000000
  70
    32
  0
VERTEX
  8
01
  5
A348
 10
-1332.82
 20
2.34551
 30
0.000000
  70
    32
  0
VERTEX
  8
01
  5
A349
 10
-1332.85
 20
2.39251
 30
0.000000
  70
    32
  0
VERTEX
  8
01
  5
A34A
 10
-1332.87
 20
2.44022
 30
0.000000
  70
    32
  0
VERTEX
  8
01
  5
A34B
 10
-1332.90
 20
2.48865
 30
0.000000
  70
    32
  0
VERTEX
  8
01
  5
A34C
 10
-1332.92
 20
2.53778
 30
0.000000
  70
    32
  0
VERTEX
  8
01
  5
A34D
 10
-1332.95
 20
2.58760
 30
0.000000
  70
    32
  0
VERTEX
  8
01
  5
A34E
 10
-1332.97
 20
2.63809
 30
0.000000
  70
    32
  0
VERTEX
  8
01
  5
A34F
 10
-1332.99
 20
2.68924
 30
0.000000
  70
    32
  0
VERTEX
  8
01
  5
A350
 10
-1333.01
 20
2.74103
 30
0.000000
  70
    32
  0
VERTEX
  8
01
  5
A351
 10
-1333.04
 20
2.79345
 30
0.000000
  70
    32
  0
VERTEX
  8
01
  5
A352
 10
-1333.06
 20
2.84650
 30
0.000000
  70
    32
  0
VERTEX
  8
01
  5
A353
 10
-1333.08
 20
2.90014
 30
0.000000
  70
    32
  0
VERTEX
  8
01
  5
A354
 10
-1333.10
 20
2.95438
 30
0.000000
  70
    32
  0
VERTEX
  8
01
  5
A355
 10
-1333.12
 20
3.00919
 30
0.000000
  70
    32
  0
VERTEX
  8
01
  5
A356
 10
-1333.14
 20
3.06455
 30
0.000000
  70
    32
  0
VERTEX
  8
01
  5
A357
 10
-1333.16
 20
3.12047
 30
0.000000
  70
    32
  0
VERTEX
  8
01
  5
A358
 10
-1333.18
 20
3.17691
 30
0.000000
  70
    32
  0
VERTEX
  8
01
  5
A359
 10
-1333.19
 20
3.23387
 30
0.000000
  70
    32
  0
VERTEX
  8
01
  5
A35A
 10
-1333.21
 20
3.29133
 30
0.000000
  70
    32
  0
VERTEX
  8
01
  5
A35B
 10
-1333.23
 20
3.34927
 30
0.000000
  70
    32
  0
VERTEX
  8
01
  5
A35C
 10
-1333.24
 20
3.40768
 30
0.000000
  70
    32
  0
VERTEX
  8
01
  5
A35D
 10
-1333.26
 20
3.46654
 30
0.000000
  70
    32
  0
VERTEX
  8
01
  5
A35E
 10
-1333.27
 20
3.52584
 30
0.000000
  70
    32
  0
VERTEX
  8
01
  5
A35F
 10
-1333.29
 20
3.58556
 30
0.000000
  70
    32
  0
VERTEX
  8
01
  5
A360
 10
-1333.30
 20
3.64568
 30
0.000000
  70
    32
  0
VERTEX
  8
01
  5
A361
 10
-1333.32
 20
3.70619
 30
0.000000
  70
    32
  0
VERTEX
  8
01
  5
A362
 10
-1333.33
 20
3.76708
 30
0.000000
  70
    32
  0
VERTEX
  8
01
  5
A363
 10
-1333.34
 20
3.82832
 30
0.000000
  70
    32
  0
VERTEX
  8
01
  5
A364
 10
-1333.35
 20
3.88990
 30
0.000000
  70
    32
  0
VERTEX
  8
01
  5
A365
 10
-1333.36
 20
3.95181
 30
0.000000
  70
    32
  0
VERTEX
  8
01
  5
A366
 10
-1333.37
 20
4.01402
 30
0.000000
  70
    32
  0
VERTEX
  8
01
  5
A367
 10
-1333.38
 20
4.07652
 30
0.000000
  70
    32
  0
VERTEX
  8
01
  5
A368
 10
-1333.39
 20
4.13929
 30
0.000000
  70
    32
  0
VERTEX
  8
01
  5
A369
 10
-1333.40
 20
4.20232
 30
0.000000
  70
    32
  0
VERTEX
  8
01
  5
A36A
 10
-1333.41
 20
4.26559
 30
0.000000
  70
    32
  0
VERTEX
  8
01
  5
A36B
 10
-1333.42
 20
4.32909
 30
0.000000
  70
    32
  0
VERTEX
  8
01
  5
A36C
 10
-1333.42
 20
4.39278
 30
0.000000
  70
    32
  0
VERTEX
  8
01
  5
A36D
 10
-1333.43
 20
4.45667
 30
0.000000
  70
    32
  0
VERTEX
  8
01
  5
A36E
 10
-1333.44
 20
4.52073
 30
0.000000
  70
    32
  0
VERTEX
  8
01
  5
A36F
 10
-1333.44
 20
4.58494
 30
0.000000
  70
    32
  0
VERTEX
  8
01
  5
A370
 10
-1333.45
 20
4.64928
 30
0.000000
  70
    32
  0
VERTEX
  8
01
  5
A371
 10
-1333.45
 20
4.71375
 30
0.000000
  70
    32
  0
VERTEX
  8
01
  5
A372
 10
-1333.45
 20
4.77832
 30
0.000000
  70
    32
  0
VERTEX
  8
01
  5
A373
 10
-1333.46
 20
4.84297
 30
0.000000
  70
    32
  0
VERTEX
  8
01
  5
A374
 10
-1333.46
 20
4.90769
 30
0.000000
  70
    32
  0
VERTEX
  8
01
  5
A375
 10
-1333.46
 20
4.97246
 30
0.000000
  70
    32
  0
VERTEX
  8
01
  5
A376
 10
-1333.46
 20
5.03727
 30
0.000000
  70
    32
  0
VERTEX
  8
01
  5
A377
 10
-1333.46
 20
5.10209
 30
0.000000
  70
    32
  0
VERTEX
  8
01
  5
A378
 10
-1333.46
 20
5.16690
 30
0.000000
  70
    32
  0
VERTEX
  8
01
  5
A379
 10
-1333.46
 20
5.23170
 30
0.000000
  70
    32
  0
VERTEX
  8
01
  5
A37A
 10
-1333.46
 20
5.29646
 30
0.000000
  70
    32
  0
VERTEX
  8
01
  5
A37B
 10
-1333.46
 20
5.36117
 30
0.000000
  70
    32
  0
VERTEX
  8
01
  5
A37C
 10
-1333.45
 20
5.42580
 30
0.000000
  70
    32
  0
VERTEX
  8
01
  5
A37D
 10
-1333.45
 20
5.49034
 30
0.000000
  70
    32
  0
VERTEX
  8
01
  5
A37E
 10
-1333.45
 20
5.55478
 30
0.000000
  70
    32
  0
VERTEX
  8
01
  5
A37F
 10
-1333.44
 20
5.61910
 30
0.000000
  70
    32
  0
VERTEX
  8
01
  5
A380
 10
-1333.44
 20
5.68327
 30
0.000000
  70
    32
  0
VERTEX
  8
01
  5
A381
 10
-1333.43
 20
5.74729
 30
0.000000
  70
    32
  0
VERTEX
  8
01
  5
A382
 10
-1333.42
 20
5.81113
 30
0.000000
  70
    32
  0
VERTEX
  8
01
  5
A383
 10
-1333.42
 20
5.87477
 30
0.000000
  70
    32
  0
VERTEX
  8
01
  5
A384
 10
-1333.41
 20
5.93821
 30
0.000000
  70
    32
  0
VERTEX
  8
01
  5
A385
 10
-1333.40
 20
6.00142
 30
0.000000
  70
    32
  0
VERTEX
  8
01
  5
A386
 10
-1333.39
 20
6.06439
 30
0.000000
  70
    32
  0
VERTEX
  8
01
  5
A387
 10
-1333.38
 20
6.12710
 30
0.000000
  70
    32
  0
VERTEX
  8
01
  5
A388
 10
-1333.37
 20
6.18953
 30
0.000000
  70
    32
  0
VERTEX
  8
01
  5
A389
 10
-1333.36
 20
6.25167
 30
0.000000
  70
    32
  0
VERTEX
  8
01
  5
A38A
 10
-1333.35
 20
6.31349
 30
0.000000
  70
    32
  0
VERTEX
  8
01
  5
A38B
 10
-1333.34
 20
6.37499
 30
0.000000
  70
    32
  0
VERTEX
  8
01
  5
A38C
 10
-1333.33
 20
6.43614
 30
0.000000
  70
    32
  0
VERTEX
  8
01
  5
A38D
 10
-1333.31
 20
6.49694
 30
0.000000
  70
    32
  0
VERTEX
  8
01
  5
A38E
 10
-1333.30
 20
6.55735
 30
0.000000
  70
    32
  0
VERTEX
  8
01
  5
A38F
 10
-1333.29
 20
6.61738
 30
0.000000
  70
    32
  0
VERTEX
  8
01
  5
A390
 10
-1333.27
 20
6.67699
 30
0.000000
  70
    32
  0
VERTEX
  8
01
  5
A391
 10
-1333.26
 20
6.73618
 30
0.000000
  70
    32
  0
VERTEX
  8
01
  5
A392
 10
-1333.24
 20
6.79493
 30
0.000000
  70
    32
  0
VERTEX
  8
01
  5
A393
 10
-1333.22
 20
6.85323
 30
0.000000
  70
    32
  0
VERTEX
  8
01
  5
A394
 10
-1333.21
 20
6.91105
 30
0.000000
  70
    32
  0
VERTEX
  8
01
  5
A395
 10
-1333.19
 20
6.96838
 30
0.000000
  70
    32
  0
VERTEX
  8
01
  5
A396
 10
-1333.17
 20
7.02521
 30
0.000000
  70
    32
  0
VERTEX
  8
01
  5
A397
 10
-1333.15
 20
7.08152
 30
0.000000
  70
    32
  0
SEQEND
  8
01
  5
A398
  0
POLYLINE
  5
9FCA
  8
01
 10
-1333.1863671251829
 20
-4.5009360708549311
 30
0.0
 66
     1
 70
     8
  0
VERTEX
  8
01
  5
A399
 10
-1333.19
 20
-4.50094
 30
0.000000
  70
    32
  0
VERTEX
  8
01
  5
A39A
 10
-1333.20
 20
-4.44644
 30
0.000000
  70
    32
  0
VERTEX
  8
01
  5
A39B
 10
-1333.22
 20
-4.39149
 30
0.000000
  70
    32
  0
VERTEX
  8
01
  5
A39C
 10
-1333.24
 20
-4.33610
 30
0.000000
  70
    32
  0
VERTEX
  8
01
  5
A39D
 10
-1333.25
 20
-4.28027
 30
0.000000
  70
    32
  0
VERTEX
  8
01
  5
A39E
 10
-1333.27
 20
-4.22402
 30
0.000000
  70
    32
  0
VERTEX
  8
01
  5
A39F
 10
-1333.28
 20
-4.16738
 30
0.000000
  70
    32
  0
VERTEX
  8
01
  5
A3A0
 10
-1333.30
 20
-4.11035
 30
0.000000
  70
    32
  0
VERTEX
  8
01
  5
A3A1
 10
-1333.31
 20
-4.05294
 30
0.000000
  70
    32
  0
VERTEX
  8
01
  5
A3A2
 10
-1333.32
 20
-3.99518
 30
0.000000
  70
    32
  0
VERTEX
  8
01
  5
A3A3
 10
-1333.33
 20
-3.93707
 30
0.000000
  70
    32
  0
VERTEX
  8
01
  5
A3A4
 10
-1333.35
 20
-3.87864
 30
0.000000
  70
    32
  0
VERTEX
  8
01
  5
A3A5
 10
-1333.36
 20
-3.81990
 30
0.000000
  70
    32
  0
VERTEX
  8
01
  5
A3A6
 10
-1333.37
 20
-3.76086
 30
0.000000
  70
    32
  0
VERTEX
  8
01
  5
A3A7
 10
-1333.38
 20
-3.70154
 30
0.000000
  70
    32
  0
VERTEX
  8
01
  5
A3A8
 10
-1333.39
 20
-3.64196
 30
0.000000
  70
    32
  0
VERTEX
  8
01
  5
A3A9
 10
-1333.40
 20
-3.58212
 30
0.000000
  70
    32
  0
VERTEX
  8
01
  5
A3AA
 10
-1333.41
 20
-3.52205
 30
0.000000
  70
    32
  0
VERTEX
  8
01
  5
A3AB
 10
-1333.41
 20
-3.46176
 30
0.000000
  70
    32
  0
VERTEX
  8
01
  5
A3AC
 10
-1333.42
 20
-3.40127
 30
0.000000
  70
    32
  0
VERTEX
  8
01
  5
A3AD
 10
-1333.43
 20
-3.34059
 30
0.000000
  70
    32
  0
VERTEX
  8
01
  5
A3AE
 10
-1333.43
 20
-3.27974
 30
0.000000
  70
    32
  0
VERTEX
  8
01
  5
A3AF
 10
-1333.44
 20
-3.21874
 30
0.000000
  70
    32
  0
VERTEX
  8
01
  5
A3B0
 10
-1333.44
 20
-3.15759
 30
0.000000
  70
    32
  0
VERTEX
  8
01
  5
A3B1
 10
-1333.45
 20
-3.09632
 30
0.000000
  70
    32
  0
VERTEX
  8
01
  5
A3B2
 10
-1333.45
 20
-3.03494
 30
0.000000
  70
    32
  0
VERTEX
  8
01
  5
A3B3
 10
-1333.45
 20
-2.97348
 30
0.000000
  70
    32
  0
VERTEX
  8
01
  5
A3B4
 10
-1333.46
 20
-2.91193
 30
0.000000
  70
    32
  0
VERTEX
  8
01
  5
A3B5
 10
-1333.46
 20
-2.85033
 30
0.000000
  70
    32
  0
VERTEX
  8
01
  5
A3B6
 10
-1333.46
 20
-2.78868
 30
0.000000
  70
    32
  0
VERTEX
  8
01
  5
A3B7
 10
-1333.46
 20
-2.72701
 30
0.000000
  70
    32
  0
VERTEX
  8
01
  5
A3B8
 10
-1333.46
 20
-2.66532
 30
0.000000
  70
    32
  0
VERTEX
  8
01
  5
A3B9
 10
-1333.46
 20
-2.60364
 30
0.000000
  70
    32
  0
VERTEX
  8
01
  5
A3BA
 10
-1333.46
 20
-2.54198
 30
0.000000
  70
    32
  0
VERTEX
  8
01
  5
A3BB
 10
-1333.46
 20
-2.48035
 30
0.000000
  70
    32
  0
VERTEX
  8
01
  5
A3BC
 10
-1333.46
 20
-2.41878
 30
0.000000
  70
    32
  0
VERTEX
  8
01
  5
A3BD
 10
-1333.45
 20
-2.35728
 30
0.000000
  70
    32
  0
VERTEX
  8
01
  5
A3BE
 10
-1333.45
 20
-2.29586
 30
0.000000
  70
    32
  0
VERTEX
  8
01
  5
A3BF
 10
-1333.44
 20
-2.23454
 30
0.000000
  70
    32
  0
VERTEX
  8
01
  5
A3C0
 10
-1333.44
 20
-2.17334
 30
0.000000
  70
    32
  0
VERTEX
  8
01
  5
A3C1
 10
-1333.44
 20
-2.11227
 30
0.000000
  70
    32
  0
VERTEX
  8
01
  5
A3C2
 10
-1333.43
 20
-2.05136
 30
0.000000
  70
    32
  0
VERTEX
  8
01
  5
A3C3
 10
-1333.42
 20
-1.99060
 30
0.000000
  70
    32
  0
VERTEX
  8
01
  5
A3C4
 10
-1333.42
 20
-1.93003
 30
0.000000
  70
    32
  0
VERTEX
  8
01
  5
A3C5
 10
-1333.41
 20
-1.86965
 30
0.000000
  70
    32
  0
VERTEX
  8
01
  5
A3C6
 10
-1333.40
 20
-1.80949
 30
0.000000
  70
    32
  0
VERTEX
  8
01
  5
A3C7
 10
-1333.39
 20
-1.74955
 30
0.000000
  70
    32
  0
VERTEX
  8
01
  5
A3C8
 10
-1333.38
 20
-1.68986
 30
0.000000
  70
    32
  0
VERTEX
  8
01
  5
A3C9
 10
-1333.37
 20
-1.63042
 30
0.000000
  70
    32
  0
VERTEX
  8
01
  5
A3CA
 10
-1333.36
 20
-1.57126
 30
0.000000
  70
    32
  0
VERTEX
  8
01
  5
A3CB
 10
-1333.35
 20
-1.51239
 30
0.000000
  70
    32
  0
VERTEX
  8
01
  5
A3CC
 10
-1333.34
 20
-1.45382
 30
0.000000
  70
    32
  0
VERTEX
  8
01
  5
A3CD
 10
-1333.33
 20
-1.39558
 30
0.000000
  70
    32
  0
VERTEX
  8
01
  5
A3CE
 10
-1333.31
 20
-1.33767
 30
0.000000
  70
    32
  0
VERTEX
  8
01
  5
A3CF
 10
-1333.30
 20
-1.28011
 30
0.000000
  70
    32
  0
VERTEX
  8
01
  5
A3D0
 10
-1333.29
 20
-1.22292
 30
0.000000
  70
    32
  0
VERTEX
  8
01
  5
A3D1
 10
-1333.27
 20
-1.16611
 30
0.000000
  70
    32
  0
VERTEX
  8
01
  5
A3D2
 10
-1333.26
 20
-1.10969
 30
0.000000
  70
    32
  0
VERTEX
  8
01
  5
A3D3
 10
-1333.24
 20
-1.05368
 30
0.000000
  70
    32
  0
VERTEX
  8
01
  5
A3D4
 10
-1333.23
 20
-0.998100
 30
0.000000
  70
    32
  0
VERTEX
  8
01
  5
A3D5
 10
-1333.21
 20
-0.942957
 30
0.000000
  70
    32
  0
VERTEX
  8
01
  5
A3D6
 10
-1333.19
 20
-0.888268
 30
0.000000
  70
    32
  0
VERTEX
  8
01
  5
A3D7
 10
-1333.18
 20
-0.834047
 30
0.000000
  70
    32
  0
VERTEX
  8
01
  5
A3D8
 10
-1333.16
 20
-0.780308
 30
0.000000
  70
    32
  0
VERTEX
  8
01
  5
A3D9
 10
-1333.14
 20
-0.727064
 30
0.000000
  70
    32
  0
VERTEX
  8
01
  5
A3DA
 10
-1333.12
 20
-0.674331
 30
0.000000
  70
    32
  0
VERTEX
  8
01
  5
A3DB
 10
-1333.10
 20
-0.622121
 30
0.000000
  70
    32
  0
VERTEX
  8
01
  5
A3DC
 10
-1333.08
 20
-0.570449
 30
0.000000
  70
    32
  0
VERTEX
  8
01
  5
A3DD
 10
-1333.06
 20
-0.519327
 30
0.000000
  70
    32
  0
VERTEX
  8
01
  5
A3DE
 10
-1333.04
 20
-0.468769
 30
0.000000
  70
    32
  0
VERTEX
  8
01
  5
A3DF
 10
-1333.02
 20
-0.418789
 30
0.000000
  70
    32
  0
VERTEX
  8
01
  5
A3E0
 10
-1333.00
 20
-0.369399
 30
0.000000
  70
    32
  0
VERTEX
  8
01
  5
A3E1
 10
-1332.97
 20
-0.320611
 30
0.000000
  70
    32
  0
VERTEX
  8
01
  5
A3E2
 10
-1332.95
 20
-0.272440
 30
0.000000
  70
    32
  0
VERTEX
  8
01
  5
A3E3
 10
-1332.93
 20
-0.224897
 30
0.000000
  70
    32
  0
VERTEX
  8
01
  5
A3E4
 10
-1332.90
 20
-0.177995
 30
0.000000
  70
    32
  0
VERTEX
  8
01
  5
A3E5
 10
-1332.88
 20
-0.131746
 30
0.000000
  70
    32
  0
VERTEX
  8
01
  5
A3E6
 10
-1332.85
 20
-0.0861625
 30
0.000000
  70
    32
  0
VERTEX
  8
01
  5
A3E7
 10
-1332.83
 20
-0.0412556
 30
0.000000
  70
    32
  0
VERTEX
  8
01
  5
A3E8
 10
-1332.80
 20
0.00296269
 30
0.000000
  70
    32
  0
VERTEX
  8
01
  5
A3E9
 10
-1332.78
 20
0.0464807
 30
0.000000
  70
    32
  0
VERTEX
  8
01
  5
A3EA
 10
-1332.75
 20
0.0892872
 30
0.000000
  70
    32
  0
VERTEX
  8
01
  5
A3EB
 10
-1332.72
 20
0.131371
 30
0.000000
  70
    32
  0
VERTEX
  8
01
  5
A3EC
 10
-1332.70
 20
0.172721
 30
0.000000
  70
    32
  0
VERTEX
  8
01
  5
A3ED
 10
-1332.67
 20
0.213327
 30
0.000000
  70
    32
  0
VERTEX
  8
01
  5
A3EE
 10
-1332.64
 20
0.253177
 30
0.000000
  70
    32
  0
VERTEX
  8
01
  5
A3EF
 10
-1332.61
 20
0.292263
 30
0.000000
  70
    32
  0
VERTEX
  8
01
  5
A3F0
 10
-1332.58
 20
0.330572
 30
0.000000
  70
    32
  0
VERTEX
  8
01
  5
A3F1
 10
-1332.55
 20
0.368096
 30
0.000000
  70
    32
  0
VERTEX
  8
01
  5
A3F2
 10
-1332.52
 20
0.404825
 30
0.000000
  70
    32
  0
VERTEX
  8
01
  5
A3F3
 10
-1332.49
 20
0.440748
 30
0.000000
  70
    32
  0
VERTEX
  8
01
  5
A3F4
 10
-1332.46
 20
0.475858
 30
0.000000
  70
    32
  0
VERTEX
  8
01
  5
A3F5
 10
-1332.43
 20
0.510143
 30
0.000000
  70
    32
  0
VERTEX
  8
01
  5
A3F6
 10
-1332.40
 20
0.543597
 30
0.000000
  70
    32
  0
VERTEX
  8
01
  5
A3F7
 10
-1332.37
 20
0.576209
 30
0.000000
  70
    32
  0
VERTEX
  8
01
  5
A3F8
 10
-1332.34
 20
0.607972
 30
0.000000
  70
    32
  0
VERTEX
  8
01
  5
A3F9
 10
-1332.31
 20
0.638876
 30
0.000000
  70
    32
  0
VERTEX
  8
01
  5
A3FA
 10
-1332.28
 20
0.668915
 30
0.000000
  70
    32
  0
VERTEX
  8
01
  5
A3FB
 10
-1332.24
 20
0.698080
 30
0.000000
  70
    32
  0
VERTEX
  8
01
  5
A3FC
 10
-1332.21
 20
0.726363
 30
0.000000
  70
    32
  0
VERTEX
  8
01
  5
A3FD
 10
-1332.18
 20
0.753758
 30
0.000000
  70
    32
  0
VERTEX
  8
01
  5
A3FE
 10
-1332.15
 20
0.780257
 30
0.000000
  70
    32
  0
VERTEX
  8
01
  5
A3FF
 10
-1332.11
 20
0.805853
 30
0.000000
  70
    32
  0
VERTEX
  8
01
  5
A400
 10
-1332.08
 20
0.830539
 30
0.000000
  70
    32
  0
VERTEX
  8
01
  5
A401
 10
-1332.04
 20
0.854310
 30
0.000000
  70
    32
  0
VERTEX
  8
01
  5
A402
 10
-1332.01
 20
0.877158
 30
0.000000
  70
    32
  0
VERTEX
  8
01
  5
A403
 10
-1331.98
 20
0.899078
 30
0.000000
  70
    32
  0
VERTEX
  8
01
  5
A404
 10
-1331.94
 20
0.920065
 30
0.000000
  70
    32
  0
VERTEX
  8
01
  5
A405
 10
-1331.91
 20
0.940112
 30
0.000000
  70
    32
  0
VERTEX
  8
01
  5
A406
 10
-1331.87
 20
0.959214
 30
0.000000
  70
    32
  0
VERTEX
  8
01
  5
A407
 10
-1331.84
 20
0.977368
 30
0.000000
  70
    32
  0
VERTEX
  8
01
  5
A408
 10
-1331.80
 20
0.994566
 30
0.000000
  70
    32
  0
VERTEX
  8
01
  5
A409
 10
-1331.77
 20
1.01081
 30
0.000000
  70
    32
  0
VERTEX
  8
01
  5
A40A
 10
-1331.73
 20
1.02608
 30
0.000000
  70
    32
  0
VERTEX
  8
01
  5
A40B
 10
-1331.69
 20
1.04039
 30
0.000000
  70
    32
  0
VERTEX
  8
01
  5
A40C
 10
-1331.66
 20
1.05373
 30
0.000000
  70
    32
  0
VERTEX
  8
01
  5
A40D
 10
-1331.62
 20
1.06610
 30
0.000000
  70
    32
  0
VERTEX
  8
01
  5
A40E
 10
-1331.59
 20
1.07749
 30
0.000000
  70
    32
  0
VERTEX
  8
01
  5
A40F
 10
-1331.55
 20
1.08790
 30
0.000000
  70
    32
  0
VERTEX
  8
01
  5
A410
 10
-1331.51
 20
1.09732
 30
0.000000
  70
    32
  0
VERTEX
  8
01
  5
A411
 10
-1331.48
 20
1.10576
 30
0.000000
  70
    32
  0
VERTEX
  8
01
  5
A412
 10
-1331.44
 20
1.11321
 30
0.000000
  70
    32
  0
VERTEX
  8
01
  5
A413
 10
-1331.40
 20
1.11967
 30
0.000000
  70
    32
  0
VERTEX
  8
01
  5
A414
 10
-1331.37
 20
1.12514
 30
0.000000
  70
    32
  0
VERTEX
  8
01
  5
A415
 10
-1331.33
 20
1.12962
 30
0.000000
  70
    32
  0
VERTEX
  8
01
  5
A416
 10
-1331.29
 20
1.13311
 30
0.000000
  70
    32
  0
VERTEX
  8
01
  5
A417
 10
-1331.26
 20
1.13560
 30
0.000000
  70
    32
  0
VERTEX
  8
01
  5
A418
 10
-1331.22
 20
1.13709
 30
0.000000
  70
    32
  0
VERTEX
  8
01
  5
A419
 10
-1331.18
 20
1.13759
 30
0.000000
  70
    32
  0
SEQEND
  8
01
  5
A41A
  0
ARC
  5
9FCD
  8
01
 10
-1302.2606392808229
 20
6.0233360847857114
 30
0.0
 40
0.5
 50
0.0
 51
90.0
  0
ARC
  5
9FCF
  8
01
 10
-1280.9865956429251
 20
0.5233360847861662
 30
0.0
 40
0.5
 50
0.0
 51
90.0
  0
ARC
  5
9FD1
  8
01
 10
-1301.2606392808229
 20
-3.4766639152147429
 30
0.0
 40
0.5
 50
90.0
 51
180.0
  0
ARC
  5
9FD4
  8
01
 10
-1302.2606392808229
 20
-3.476663915214516
 30
0.0
 40
0.5
 50
270.0
 51
0.0
  0
ARC
  5
9FD5
  8
01
 10
-1280.9865956429251
 20
-2.476663915213833
 30
0.0
 40
0.5
 50
270.0
 51
0.0
  0
LINE
  5
9FD6
  8
01
 10
-1280.4865956429251
 20
0.5233360847861662
 30
0.0
 11
-1280.4865956429251
 21
-2.476663915213833
 31
0.0
  0
LINE
  5
9FE3
  8
01
 10
-1290.760639280827
 20
1.023336084785768
 30
0.0
 11
-1280.9865956429251
 21
1.0233360847861659
 31
0.0
  0
LINE
  5
9FE4
  8
01
 10
-1302.42145795745
 20
-2.9766639152146861
 30
0.0
 11
-1280.9865956429251
 21
-2.976663915213833
 31
0.0
  0
LINE
  5
9FE5
  8
01
 10
-1302.760639280827
 20
-3.9766639152143171
 30
0.0
 11
-1302.2606392808229
 21
-3.9766639152142882
 31
0.0
  0
LINE
  5
9FE6
  8
01
 10
-1301.7606392808229
 20
5.059122522409325
 30
0.0
 11
-1301.7606392808229
 21
6.0233360847857114
 31
0.0
  0
LINE
  5
9FE7
  8
01
 10
-1302.760639280827
 20
6.5233360847856821
 30
0.0
 11
-1302.2606392808229
 21
6.5233360847857114
 31
0.0
  0
ARC
  5
A016
  8
01
 10
-1234.6785307232749
 20
9.0733360847831062
 30
0.0
 40
2.0
 50
0.0
 51
60.00000000002138
  0
ARC
  5
A019
  8
01
 10
-1234.6785307232749
 20
-6.5266639152174832
 30
0.0
 40
2.0
 50
299.9999999999925
 51
0.0
  0
LINE
  5
A01E
  8
01
 10
-1232.6785307232749
 20
9.0733360847831062
 30
0.0
 11
-1232.6785307232749
 21
-6.5266639152174832
 31
0.0
  0
LINE
  5
A01F
  8
01
 10
-1215.4785307232769
 20
6.7733360847617803
 30
0.0
 11
-1215.4785307232769
 21
-4.2266639152157088
 31
0.0
  0
LINE
  5
A020
  8
01
 10
-1232.6785307232749
 20
9.0503260241467558
 30
0.0
 11
-1217.7555206626621
 21
9.0503260241467558
 31
0.0
  0
LINE
  5
A021
  8
01
 10
-1232.6785307232749
 20
-6.5036538545352007
 30
0.0
 11
-1217.7555206625959
 21
-6.5036538545352007
 31
0.0
  0
LINE
  5
A022
  8
01
 10
-1232.6785307232749
 20
1.1375882178350301
 30
0.0
 11
-1217.7555206626621
 21
1.1375882178350301
 31
0.0
  0
LINE
  5
A023
  8
01
 10
-1217.7555206626621
 20
9.0503260241467558
 30
0.0
 11
-1215.4785307232989
 21
6.7733360847838346
 31
0.0
  0
LINE
  5
A024
  8
01
 10
-1215.4785307232769
 20
-4.2266639152157088
 30
0.0
 11
-1217.7555206625959
 21
-6.5036538545352007
 31
0.0
  0
POLYLINE
  5
A025
  8
01
 10
-1217.7555206626621
 20
1.1375882178350314
 30
0.0
 66
     1
 70
     8
  0
VERTEX
  8
01
  5
A41B
 10
-1217.76
 20
1.13759
 30
0.000000
  70
    32
  0
VERTEX
  8
01
  5
A41C
 10
-1217.72
 20
1.13812
 30
0.000000
  70
    32
  0
VERTEX
  8
01
  5
A41D
 10
-1217.68
 20
1.13971
 30
0.000000
  70
    32
  0
VERTEX
  8
01
  5
A41E
 10
-1217.64
 20
1.14237
 30
0.000000
  70
    32
  0
VERTEX
  8
01
  5
A41F
 10
-1217.61
 20
1.14608
 30
0.000000
  70
    32
  0
VERTEX
  8
01
  5
A420
 10
-1217.57
 20
1.15086
 30
0.000000
  70
    32
  0
VERTEX
  8
01
  5
A421
 10
-1217.53
 20
1.15669
 30
0.000000
  70
    32
  0
VERTEX
  8
01
  5
A422
 10
-1217.49
 20
1.16358
 30
0.000000
  70
    32
  0
VERTEX
  8
01
  5
A423
 10
-1217.46
 20
1.17152
 30
0.000000
  70
    32
  0
VERTEX
  8
01
  5
A424
 10
-1217.42
 20
1.18052
 30
0.000000
  70
    32
  0
VERTEX
  8
01
  5
A425
 10
-1217.38
 20
1.19057
 30
0.000000
  70
    32
  0
VERTEX
  8
01
  5
A426
 10
-1217.35
 20
1.20167
 30
0.000000
  70
    32
  0
VERTEX
  8
01
  5
A427
 10
-1217.31
 20
1.21381
 30
0.000000
  70
    32
  0
VERTEX
  8
01
  5
A428
 10
-1217.27
 20
1.22699
 30
0.000000
  70
    32
  0
VERTEX
  8
01
  5
A429
 10
-1217.24
 20
1.24121
 30
0.000000
  70
    32
  0
VERTEX
  8
01
  5
A42A
 10
-1217.20
 20
1.25646
 30
0.000000
  70
    32
  0
VERTEX
  8
01
  5
A42B
 10
-1217.17
 20
1.27275
 30
0.000000
  70
    32
  0
VERTEX
  8
01
  5
A42C
 10
-1217.13
 20
1.29006
 30
0.000000
  70
    32
  0
VERTEX
  8
01
  5
A42D
 10
-1217.09
 20
1.30839
 30
0.000000
  70
    32
  0
VERTEX
  8
01
  5
A42E
 10
-1217.06
 20
1.32774
 30
0.000000
  70
    32
  0
VERTEX
  8
01
  5
A42F
 10
-1217.02
 20
1.34810
 30
0.000000
  70
    32
  0
VERTEX
  8
01
  5
A430
 10
-1216.99
 20
1.36946
 30
0.000000
  70
    32
  0
VERTEX
  8
01
  5
A431
 10
-1216.95
 20
1.39182
 30
0.000000
  70
    32
  0
VERTEX
  8
01
  5
A432
 10
-1216.92
 20
1.41518
 30
0.000000
  70
    32
  0
VERTEX
  8
01
  5
A433
 10
-1216.88
 20
1.43953
 30
0.000000
  70
    32
  0
VERTEX
  8
01
  5
A434
 10
-1216.85
 20
1.46485
 30
0.000000
  70
    32
  0
VERTEX
  8
01
  5
A435
 10
-1216.81
 20
1.49115
 30
0.000000
  70
    32
  0
VERTEX
  8
01
  5
A436
 10
-1216.78
 20
1.51842
 30
0.000000
  70
    32
  0
VERTEX
  8
01
  5
A437
 10
-1216.75
 20
1.54665
 30
0.000000
  70
    32
  0
VERTEX
  8
01
  5
A438
 10
-1216.71
 20
1.57583
 30
0.000000
  70
    32
  0
VERTEX
  8
01
  5
A439
 10
-1216.68
 20
1.60595
 30
0.000000
  70
    32
  0
VERTEX
  8
01
  5
A43A
 10
-1216.65
 20
1.63701
 30
0.000000
  70
    32
  0
VERTEX
  8
01
  5
A43B
 10
-1216.62
 20
1.66900
 30
0.000000
  70
    32
  0
VERTEX
  8
01
  5
A43C
 10
-1216.58
 20
1.70190
 30
0.000000
  70
    32
  0
VERTEX
  8
01
  5
A43D
 10
-1216.55
 20
1.73572
 30
0.000000
  70
    32
  0
VERTEX
  8
01
  5
A43E
 10
-1216.52
 20
1.77044
 30
0.000000
  70
    32
  0
VERTEX
  8
01
  5
A43F
 10
-1216.49
 20
1.80605
 30
0.000000
  70
    32
  0
VERTEX
  8
01
  5
A440
 10
-1216.46
 20
1.84254
 30
0.000000
  70
    32
  0
VERTEX
  8
01
  5
A441
 10
-1216.43
 20
1.87991
 30
0.000000
  70
    32
  0
VERTEX
  8
01
  5
A442
 10
-1216.40
 20
1.91814
 30
0.000000
  70
    32
  0
VERTEX
  8
01
  5
A443
 10
-1216.37
 20
1.95722
 30
0.000000
  70
    32
  0
VERTEX
  8
01
  5
A444
 10
-1216.34
 20
1.99715
 30
0.000000
  70
    32
  0
VERTEX
  8
01
  5
A445
 10
-1216.31
 20
2.03790
 30
0.000000
  70
    32
  0
VERTEX
  8
01
  5
A446
 10
-1216.28
 20
2.07948
 30
0.000000
  70
    32
  0
VERTEX
  8
01
  5
A447
 10
-1216.25
 20
2.12186
 30
0.000000
  70
    32
  0
VERTEX
  8
01
  5
A448
 10
-1216.22
 20
2.16504
 30
0.000000
  70
    32
  0
VERTEX
  8
01
  5
A449
 10
-1216.20
 20
2.20901
 30
0.000000
  70
    32
  0
VERTEX
  8
01
  5
A44A
 10
-1216.17
 20
2.25375
 30
0.000000
  70
    32
  0
VERTEX
  8
01
  5
A44B
 10
-1216.14
 20
2.29926
 30
0.000000
  70
    32
  0
VERTEX
  8
01
  5
A44C
 10
-1216.12
 20
2.34551
 30
0.000000
  70
    32
  0
VERTEX
  8
01
  5
A44D
 10
-1216.09
 20
2.39251
 30
0.000000
  70
    32
  0
VERTEX
  8
01
  5
A44E
 10
-1216.07
 20
2.44022
 30
0.000000
  70
    32
  0
VERTEX
  8
01
  5
A44F
 10
-1216.04
 20
2.48865
 30
0.000000
  70
    32
  0
VERTEX
  8
01
  5
A450
 10
-1216.02
 20
2.53778
 30
0.000000
  70
    32
  0
VERTEX
  8
01
  5
A451
 10
-1215.99
 20
2.58760
 30
0.000000
  70
    32
  0
VERTEX
  8
01
  5
A452
 10
-1215.97
 20
2.63809
 30
0.000000
  70
    32
  0
VERTEX
  8
01
  5
A453
 10
-1215.95
 20
2.68924
 30
0.000000
  70
    32
  0
VERTEX
  8
01
  5
A454
 10
-1215.92
 20
2.74103
 30
0.000000
  70
    32
  0
VERTEX
  8
01
  5
A455
 10
-1215.90
 20
2.79345
 30
0.000000
  70
    32
  0
VERTEX
  8
01
  5
A456
 10
-1215.88
 20
2.84650
 30
0.000000
  70
    32
  0
VERTEX
  8
01
  5
A457
 10
-1215.86
 20
2.90014
 30
0.000000
  70
    32
  0
VERTEX
  8
01
  5
A458
 10
-1215.84
 20
2.95438
 30
0.000000
  70
    32
  0
VERTEX
  8
01
  5
A459
 10
-1215.82
 20
3.00919
 30
0.000000
  70
    32
  0
VERTEX
  8
01
  5
A45A
 10
-1215.80
 20
3.06455
 30
0.000000
  70
    32
  0
VERTEX
  8
01
  5
A45B
 10
-1215.78
 20
3.12047
 30
0.000000
  70
    32
  0
VERTEX
  8
01
  5
A45C
 10
-1215.76
 20
3.17691
 30
0.000000
  70
    32
  0
VERTEX
  8
01
  5
A45D
 10
-1215.75
 20
3.23387
 30
0.000000
  70
    32
  0
VERTEX
  8
01
  5
A45E
 10
-1215.73
 20
3.29133
 30
0.000000
  70
    32
  0
VERTEX
  8
01
  5
A45F
 10
-1215.71
 20
3.34927
 30
0.000000
  70
    32
  0
VERTEX
  8
01
  5
A460
 10
-1215.70
 20
3.40768
 30
0.000000
  70
    32
  0
VERTEX
  8
01
  5
A461
 10
-1215.68
 20
3.46654
 30
0.000000
  70
    32
  0
VERTEX
  8
01
  5
A462
 10
-1215.67
 20
3.52584
 30
0.000000
  70
    32
  0
VERTEX
  8
01
  5
A463
 10
-1215.65
 20
3.58556
 30
0.000000
  70
    32
  0
VERTEX
  8
01
  5
A464
 10
-1215.64
 20
3.64568
 30
0.000000
  70
    32
  0
VERTEX
  8
01
  5
A465
 10
-1215.62
 20
3.70619
 30
0.000000
  70
    32
  0
VERTEX
  8
01
  5
A466
 10
-1215.61
 20
3.76708
 30
0.000000
  70
    32
  0
VERTEX
  8
01
  5
A467
 10
-1215.60
 20
3.82832
 30
0.000000
  70
    32
  0
VERTEX
  8
01
  5
A468
 10
-1215.59
 20
3.88990
 30
0.000000
  70
    32
  0
VERTEX
  8
01
  5
A469
 10
-1215.58
 20
3.95181
 30
0.000000
  70
    32
  0
VERTEX
  8
01
  5
A46A
 10
-1215.57
 20
4.01402
 30
0.000000
  70
    32
  0
VERTEX
  8
01
  5
A46B
 10
-1215.56
 20
4.07652
 30
0.000000
  70
    32
  0
VERTEX
  8
01
  5
A46C
 10
-1215.55
 20
4.13929
 30
0.000000
  70
    32
  0
VERTEX
  8
01
  5
A46D
 10
-1215.54
 20
4.20232
 30
0.000000
  70
    32
  0
VERTEX
  8
01
  5
A46E
 10
-1215.53
 20
4.26559
 30
0.000000
  70
    32
  0
VERTEX
  8
01
  5
A46F
 10
-1215.52
 20
4.32909
 30
0.000000
  70
    32
  0
VERTEX
  8
01
  5
A470
 10
-1215.51
 20
4.39278
 30
0.000000
  70
    32
  0
VERTEX
  8
01
  5
A471
 10
-1215.51
 20
4.45667
 30
0.000000
  70
    32
  0
VERTEX
  8
01
  5
A472
 10
-1215.50
 20
4.52073
 30
0.000000
  70
    32
  0
VERTEX
  8
01
  5
A473
 10
-1215.50
 20
4.58494
 30
0.000000
  70
    32
  0
VERTEX
  8
01
  5
A474
 10
-1215.49
 20
4.64928
 30
0.000000
  70
    32
  0
VERTEX
  8
01
  5
A475
 10
-1215.49
 20
4.71375
 30
0.000000
  70
    32
  0
VERTEX
  8
01
  5
A476
 10
-1215.49
 20
4.77832
 30
0.000000
  70
    32
  0
VERTEX
  8
01
  5
A477
 10
-1215.48
 20
4.84297
 30
0.000000
  70
    32
  0
VERTEX
  8
01
  5
A478
 10
-1215.48
 20
4.90769
 30
0.000000
  70
    32
  0
VERTEX
  8
01
  5
A479
 10
-1215.48
 20
4.97246
 30
0.000000
  70
    32
  0
VERTEX
  8
01
  5
A47A
 10
-1215.48
 20
5.03727
 30
0.000000
  70
    32
  0
VERTEX
  8
01
  5
A47B
 10
-1215.48
 20
5.10209
 30
0.000000
  70
    32
  0
VERTEX
  8
01
  5
A47C
 10
-1215.48
 20
5.16690
 30
0.000000
  70
    32
  0
VERTEX
  8
01
  5
A47D
 10
-1215.48
 20
5.23170
 30
0.000000
  70
    32
  0
VERTEX
  8
01
  5
A47E
 10
-1215.48
 20
5.29646
 30
0.000000
  70
    32
  0
VERTEX
  8
01
  5
A47F
 10
-1215.48
 20
5.36117
 30
0.000000
  70
    32
  0
VERTEX
  8
01
  5
A480
 10
-1215.49
 20
5.42580
 30
0.000000
  70
    32
  0
VERTEX
  8
01
  5
A481
 10
-1215.49
 20
5.49034
 30
0.000000
  70
    32
  0
VERTEX
  8
01
  5
A482
 10
-1215.49
 20
5.55478
 30
0.000000
  70
    32
  0
VERTEX
  8
01
  5
A483
 10
-1215.50
 20
5.61910
 30
0.000000
  70
    32
  0
VERTEX
  8
01
  5
A484
 10
-1215.50
 20
5.68327
 30
0.000000
  70
    32
  0
VERTEX
  8
01
  5
A485
 10
-1215.51
 20
5.74729
 30
0.000000
  70
    32
  0
VERTEX
  8
01
  5
A486
 10
-1215.52
 20
5.81113
 30
0.000000
  70
    32
  0
VERTEX
  8
01
  5
A487
 10
-1215.52
 20
5.87477
 30
0.000000
  70
    32
  0
VERTEX
  8
01
  5
A488
 10
-1215.53
 20
5.93821
 30
0.000000
  70
    32
  0
VERTEX
  8
01
  5
A489
 10
-1215.54
 20
6.00142
 30
0.000000
  70
    32
  0
VERTEX
  8
01
  5
A48A
 10
-1215.55
 20
6.06439
 30
0.000000
  70
    32
  0
VERTEX
  8
01
  5
A48B
 10
-1215.56
 20
6.12710
 30
0.000000
  70
    32
  0
VERTEX
  8
01
  5
A48C
 10
-1215.57
 20
6.18953
 30
0.000000
  70
    32
  0
VERTEX
  8
01
  5
A48D
 10
-1215.58
 20
6.25167
 30
0.000000
  70
    32
  0
VERTEX
  8
01
  5
A48E
 10
-1215.59
 20
6.31349
 30
0.000000
  70
    32
  0
VERTEX
  8
01
  5
A48F
 10
-1215.60
 20
6.37499
 30
0.000000
  70
    32
  0
VERTEX
  8
01
  5
A490
 10
-1215.61
 20
6.43614
 30
0.000000
  70
    32
  0
VERTEX
  8
01
  5
A491
 10
-1215.63
 20
6.49694
 30
0.000000
  70
    32
  0
VERTEX
  8
01
  5
A492
 10
-1215.64
 20
6.55735
 30
0.000000
  70
    32
  0
VERTEX
  8
01
  5
A493
 10
-1215.65
 20
6.61738
 30
0.000000
  70
    32
  0
VERTEX
  8
01
  5
A494
 10
-1215.67
 20
6.67699
 30
0.000000
  70
    32
  0
VERTEX
  8
01
  5
A495
 10
-1215.68
 20
6.73618
 30
0.000000
  70
    32
  0
VERTEX
  8
01
  5
A496
 10
-1215.70
 20
6.79493
 30
0.000000
  70
    32
  0
VERTEX
  8
01
  5
A497
 10
-1215.72
 20
6.85323
 30
0.000000
  70
    32
  0
VERTEX
  8
01
  5
A498
 10
-1215.73
 20
6.91105
 30
0.000000
  70
    32
  0
VERTEX
  8
01
  5
A499
 10
-1215.75
 20
6.96838
 30
0.000000
  70
    32
  0
VERTEX
  8
01
  5
A49A
 10
-1215.77
 20
7.02521
 30
0.000000
  70
    32
  0
VERTEX
  8
01
  5
A49B
 10
-1215.79
 20
7.08152
 30
0.000000
  70
    32
  0
SEQEND
  8
01
  5
A49C
  0
POLYLINE
  5
A026
  8
01
 10
-1215.7528028789163
 20
-4.5009360708549213
 30
0.0
 66
     1
 70
     8
  0
VERTEX
  8
01
  5
A49D
 10
-1215.75
 20
-4.50094
 30
0.000000
  70
    32
  0
VERTEX
  8
01
  5
A49E
 10
-1215.74
 20
-4.44644
 30
0.000000
  70
    32
  0
VERTEX
  8
01
  5
A49F
 10
-1215.72
 20
-4.39149
 30
0.000000
  70
    32
  0
VERTEX
  8
01
  5
A4A0
 10
-1215.70
 20
-4.33610
 30
0.000000
  70
    32
  0
VERTEX
  8
01
  5
A4A1
 10
-1215.69
 20
-4.28027
 30
0.000000
  70
    32
  0
VERTEX
  8
01
  5
A4A2
 10
-1215.67
 20
-4.22402
 30
0.000000
  70
    32
  0
VERTEX
  8
01
  5
A4A3
 10
-1215.66
 20
-4.16738
 30
0.000000
  70
    32
  0
VERTEX
  8
01
  5
A4A4
 10
-1215.64
 20
-4.11035
 30
0.000000
  70
    32
  0
VERTEX
  8
01
  5
A4A5
 10
-1215.63
 20
-4.05294
 30
0.000000
  70
    32
  0
VERTEX
  8
01
  5
A4A6
 10
-1215.62
 20
-3.99518
 30
0.000000
  70
    32
  0
VERTEX
  8
01
  5
A4A7
 10
-1215.60
 20
-3.93707
 30
0.000000
  70
    32
  0
VERTEX
  8
01
  5
A4A8
 10
-1215.59
 20
-3.87864
 30
0.000000
  70
    32
  0
VERTEX
  8
01
  5
A4A9
 10
-1215.58
 20
-3.81990
 30
0.000000
  70
    32
  0
VERTEX
  8
01
  5
A4AA
 10
-1215.57
 20
-3.76086
 30
0.000000
  70
    32
  0
VERTEX
  8
01
  5
A4AB
 10
-1215.56
 20
-3.70154
 30
0.000000
  70
    32
  0
VERTEX
  8
01
  5
A4AC
 10
-1215.55
 20
-3.64196
 30
0.000000
  70
    32
  0
VERTEX
  8
01
  5
A4AD
 10
-1215.54
 20
-3.58212
 30
0.000000
  70
    32
  0
VERTEX
  8
01
  5
A4AE
 10
-1215.53
 20
-3.52205
 30
0.000000
  70
    32
  0
VERTEX
  8
01
  5
A4AF
 10
-1215.53
 20
-3.46176
 30
0.000000
  70
    32
  0
VERTEX
  8
01
  5
A4B0
 10
-1215.52
 20
-3.40127
 30
0.000000
  70
    32
  0
VERTEX
  8
01
  5
A4B1
 10
-1215.51
 20
-3.34059
 30
0.000000
  70
    32
  0
VERTEX
  8
01
  5
A4B2
 10
-1215.51
 20
-3.27974
 30
0.000000
  70
    32
  0
VERTEX
  8
01
  5
A4B3
 10
-1215.50
 20
-3.21874
 30
0.000000
  70
    32
  0
VERTEX
  8
01
  5
A4B4
 10
-1215.50
 20
-3.15759
 30
0.000000
  70
    32
  0
VERTEX
  8
01
  5
A4B5
 10
-1215.49
 20
-3.09632
 30
0.000000
  70
    32
  0
VERTEX
  8
01
  5
A4B6
 10
-1215.49
 20
-3.03494
 30
0.000000
  70
    32
  0
VERTEX
  8
01
  5
A4B7
 10
-1215.49
 20
-2.97348
 30
0.000000
  70
    32
  0
VERTEX
  8
01
  5
A4B8
 10
-1215.48
 20
-2.91193
 30
0.000000
  70
    32
  0
VERTEX
  8
01
  5
A4B9
 10
-1215.48
 20
-2.85033
 30
0.000000
  70
    32
  0
VERTEX
  8
01
  5
A4BA
 10
-1215.48
 20
-2.78868
 30
0.000000
  70
    32
  0
VERTEX
  8
01
  5
A4BB
 10
-1215.48
 20
-2.72701
 30
0.000000
  70
    32
  0
VERTEX
  8
01
  5
A4BC
 10
-1215.48
 20
-2.66532
 30
0.000000
  70
    32
  0
VERTEX
  8
01
  5
A4BD
 10
-1215.48
 20
-2.60364
 30
0.000000
  70
    32
  0
VERTEX
  8
01
  5
A4BE
 10
-1215.48
 20
-2.54198
 30
0.000000
  70
    32
  0
VERTEX
  8
01
  5
A4BF
 10
-1215.48
 20
-2.48035
 30
0.000000
  70
    32
  0
VERTEX
  8
01
  5
A4C0
 10
-1215.48
 20
-2.41878
 30
0.000000
  70
    32
  0
VERTEX
  8
01
  5
A4C1
 10
-1215.49
 20
-2.35728
 30
0.000000
  70
    32
  0
VERTEX
  8
01
  5
A4C2
 10
-1215.49
 20
-2.29586
 30
0.000000
  70
    32
  0
VERTEX
  8
01
  5
A4C3
 10
-1215.49
 20
-2.23454
 30
0.000000
  70
    32
  0
VERTEX
  8
01
  5
A4C4
 10
-1215.50
 20
-2.17334
 30
0.000000
  70
    32
  0
VERTEX
  8
01
  5
A4C5
 10
-1215.50
 20
-2.11227
 30
0.000000
  70
    32
  0
VERTEX
  8
01
  5
A4C6
 10
-1215.51
 20
-2.05136
 30
0.000000
  70
    32
  0
VERTEX
  8
01
  5
A4C7
 10
-1215.52
 20
-1.99060
 30
0.000000
  70
    32
  0
VERTEX
  8
01
  5
A4C8
 10
-1215.52
 20
-1.93003
 30
0.000000
  70
    32
  0
VERTEX
  8
01
  5
A4C9
 10
-1215.53
 20
-1.86965
 30
0.000000
  70
    32
  0
VERTEX
  8
01
  5
A4CA
 10
-1215.54
 20
-1.80949
 30
0.000000
  70
    32
  0
VERTEX
  8
01
  5
A4CB
 10
-1215.55
 20
-1.74955
 30
0.000000
  70
    32
  0
VERTEX
  8
01
  5
A4CC
 10
-1215.56
 20
-1.68986
 30
0.000000
  70
    32
  0
VERTEX
  8
01
  5
A4CD
 10
-1215.57
 20
-1.63042
 30
0.000000
  70
    32
  0
VERTEX
  8
01
  5
A4CE
 10
-1215.58
 20
-1.57126
 30
0.000000
  70
    32
  0
VERTEX
  8
01
  5
A4CF
 10
-1215.59
 20
-1.51239
 30
0.000000
  70
    32
  0
VERTEX
  8
01
  5
A4D0
 10
-1215.60
 20
-1.45382
 30
0.000000
  70
    32
  0
VERTEX
  8
01
  5
A4D1
 10
-1215.61
 20
-1.39558
 30
0.000000
  70
    32
  0
VERTEX
  8
01
  5
A4D2
 10
-1215.62
 20
-1.33767
 30
0.000000
  70
    32
  0
VERTEX
  8
01
  5
A4D3
 10
-1215.64
 20
-1.28011
 30
0.000000
  70
    32
  0
VERTEX
  8
01
  5
A4D4
 10
-1215.65
 20
-1.22292
 30
0.000000
  70
    32
  0
VERTEX
  8
01
  5
A4D5
 10
-1215.67
 20
-1.16611
 30
0.000000
  70
    32
  0
VERTEX
  8
01
  5
A4D6
 10
-1215.68
 20
-1.10969
 30
0.000000
  70
    32
  0
VERTEX
  8
01
  5
A4D7
 10
-1215.70
 20
-1.05368
 30
0.000000
  70
    32
  0
VERTEX
  8
01
  5
A4D8
 10
-1215.71
 20
-0.998100
 30
0.000000
  70
    32
  0
VERTEX
  8
01
  5
A4D9
 10
-1215.73
 20
-0.942957
 30
0.000000
  70
    32
  0
VERTEX
  8
01
  5
A4DA
 10
-1215.75
 20
-0.888268
 30
0.000000
  70
    32
  0
VERTEX
  8
01
  5
A4DB
 10
-1215.76
 20
-0.834047
 30
0.000000
  70
    32
  0
VERTEX
  8
01
  5
A4DC
 10
-1215.78
 20
-0.780308
 30
0.000000
  70
    32
  0
VERTEX
  8
01
  5
A4DD
 10
-1215.80
 20
-0.727064
 30
0.000000
  70
    32
  0
VERTEX
  8
01
  5
A4DE
 10
-1215.82
 20
-0.674331
 30
0.000000
  70
    32
  0
VERTEX
  8
01
  5
A4DF
 10
-1215.84
 20
-0.622121
 30
0.000000
  70
    32
  0
VERTEX
  8
01
  5
A4E0
 10
-1215.86
 20
-0.570449
 30
0.000000
  70
    32
  0
VERTEX
  8
01
  5
A4E1
 10
-1215.88
 20
-0.519327
 30
0.000000
  70
    32
  0
VERTEX
  8
01
  5
A4E2
 10
-1215.90
 20
-0.468769
 30
0.000000
  70
    32
  0
VERTEX
  8
01
  5
A4E3
 10
-1215.92
 20
-0.418789
 30
0.000000
  70
    32
  0
VERTEX
  8
01
  5
A4E4
 10
-1215.94
 20
-0.369399
 30
0.000000
  70
    32
  0
VERTEX
  8
01
  5
A4E5
 10
-1215.97
 20
-0.320611
 30
0.000000
  70
    32
  0
VERTEX
  8
01
  5
A4E6
 10
-1215.99
 20
-0.272440
 30
0.000000
  70
    32
  0
VERTEX
  8
01
  5
A4E7
 10
-1216.01
 20
-0.224897
 30
0.000000
  70
    32
  0
VERTEX
  8
01
  5
A4E8
 10
-1216.04
 20
-0.177995
 30
0.000000
  70
    32
  0
VERTEX
  8
01
  5
A4E9
 10
-1216.06
 20
-0.131746
 30
0.000000
  70
    32
  0
VERTEX
  8
01
  5
A4EA
 10
-1216.09
 20
-0.0861625
 30
0.000000
  70
    32
  0
VERTEX
  8
01
  5
A4EB
 10
-1216.11
 20
-0.0412556
 30
0.000000
  70
    32
  0
VERTEX
  8
01
  5
A4EC
 10
-1216.14
 20
0.00296269
 30
0.000000
  70
    32
  0
VERTEX
  8
01
  5
A4ED
 10
-1216.16
 20
0.0464807
 30
0.000000
  70
    32
  0
VERTEX
  8
01
  5
A4EE
 10
-1216.19
 20
0.0892872
 30
0.000000
  70
    32
  0
VERTEX
  8
01
  5
A4EF
 10
-1216.22
 20
0.131371
 30
0.000000
  70
    32
  0
VERTEX
  8
01
  5
A4F0
 10
-1216.24
 20
0.172721
 30
0.000000
  70
    32
  0
VERTEX
  8
01
  5
A4F1
 10
-1216.27
 20
0.213327
 30
0.000000
  70
    32
  0
VERTEX
  8
01
  5
A4F2
 10
-1216.30
 20
0.253177
 30
0.000000
  70
    32
  0
VERTEX
  8
01
  5
A4F3
 10
-1216.33
 20
0.292263
 30
0.000000
  70
    32
  0
VERTEX
  8
01
  5
A4F4
 10
-1216.36
 20
0.330572
 30
0.000000
  70
    32
  0
VERTEX
  8
01
  5
A4F5
 10
-1216.39
 20
0.368096
 30
0.000000
  70
    32
  0
VERTEX
  8
01
  5
A4F6
 10
-1216.41
 20
0.404825
 30
0.000000
  70
    32
  0
VERTEX
  8
01
  5
A4F7
 10
-1216.44
 20
0.440748
 30
0.000000
  70
    32
  0
VERTEX
  8
01
  5
A4F8
 10
-1216.47
 20
0.475858
 30
0.000000
  70
    32
  0
VERTEX
  8
01
  5
A4F9
 10
-1216.51
 20
0.510143
 30
0.000000
  70
    32
  0
VERTEX
  8
01
  5
A4FA
 10
-1216.54
 20
0.543597
 30
0.000000
  70
    32
  0
VERTEX
  8
01
  5
A4FB
 10
-1216.57
 20
0.576209
 30
0.000000
  70
    32
  0
VERTEX
  8
01
  5
A4FC
 10
-1216.60
 20
0.607972
 30
0.000000
  70
    32
  0
VERTEX
  8
01
  5
A4FD
 10
-1216.63
 20
0.638876
 30
0.000000
  70
    32
  0
VERTEX
  8
01
  5
A4FE
 10
-1216.66
 20
0.668915
 30
0.000000
  70
    32
  0
VERTEX
  8
01
  5
A4FF
 10
-1216.70
 20
0.698080
 30
0.000000
  70
    32
  0
VERTEX
  8
01
  5
A500
 10
-1216.73
 20
0.726363
 30
0.000000
  70
    32
  0
VERTEX
  8
01
  5
A501
 10
-1216.76
 20
0.753758
 30
0.000000
  70
    32
  0
VERTEX
  8
01
  5
A502
 10
-1216.79
 20
0.780257
 30
0.000000
  70
    32
  0
VERTEX
  8
01
  5
A503
 10
-1216.83
 20
0.805853
 30
0.000000
  70
    32
  0
VERTEX
  8
01
  5
A504
 10
-1216.86
 20
0.830539
 30
0.000000
  70
    32
  0
VERTEX
  8
01
  5
A505
 10
-1216.90
 20
0.854310
 30
0.000000
  70
    32
  0
VERTEX
  8
01
  5
A506
 10
-1216.93
 20
0.877158
 30
0.000000
  70
    32
  0
VERTEX
  8
01
  5
A507
 10
-1216.96
 20
0.899078
 30
0.000000
  70
    32
  0
VERTEX
  8
01
  5
A508
 10
-1217.00
 20
0.920065
 30
0.000000
  70
    32
  0
VERTEX
  8
01
  5
A509
 10
-1217.03
 20
0.940112
 30
0.000000
  70
    32
  0
VERTEX
  8
01
  5
A50A
 10
-1217.07
 20
0.959214
 30
0.000000
  70
    32
  0
VERTEX
  8
01
  5
A50B
 10
-1217.10
 20
0.977368
 30
0.000000
  70
    32
  0
VERTEX
  8
01
  5
A50C
 10
-1217.14
 20
0.994566
 30
0.000000
  70
    32
  0
VERTEX
  8
01
  5
A50D
 10
-1217.17
 20
1.01081
 30
0.000000
  70
    32
  0
VERTEX
  8
01
  5
A50E
 10
-1217.21
 20
1.02608
 30
0.000000
  70
    32
  0
VERTEX
  8
01
  5
A50F
 10
-1217.25
 20
1.04039
 30
0.000000
  70
    32
  0
VERTEX
  8
01
  5
A510
 10
-1217.28
 20
1.05373
 30
0.000000
  70
    32
  0
VERTEX
  8
01
  5
A511
 10
-1217.32
 20
1.06610
 30
0.000000
  70
    32
  0
VERTEX
  8
01
  5
A512
 10
-1217.35
 20
1.07749
 30
0.000000
  70
    32
  0
VERTEX
  8
01
  5
A513
 10
-1217.39
 20
1.08790
 30
0.000000
  70
    32
  0
VERTEX
  8
01
  5
A514
 10
-1217.43
 20
1.09732
 30
0.000000
  70
    32
  0
VERTEX
  8
01
  5
A515
 10
-1217.46
 20
1.10576
 30
0.000000
  70
    32
  0
VERTEX
  8
01
  5
A516
 10
-1217.50
 20
1.11321
 30
0.000000
  70
    32
  0
VERTEX
  8
01
  5
A517
 10
-1217.54
 20
1.11967
 30
0.000000
  70
    32
  0
VERTEX
  8
01
  5
A518
 10
-1217.57
 20
1.12514
 30
0.000000
  70
    32
  0
VERTEX
  8
01
  5
A519
 10
-1217.61
 20
1.12962
 30
0.000000
  70
    32
  0
VERTEX
  8
01
  5
A51A
 10
-1217.65
 20
1.13311
 30
0.000000
  70
    32
  0
VERTEX
  8
01
  5
A51B
 10
-1217.68
 20
1.13560
 30
0.000000
  70
    32
  0
VERTEX
  8
01
  5
A51C
 10
-1217.72
 20
1.13709
 30
0.000000
  70
    32
  0
VERTEX
  8
01
  5
A51D
 10
-1217.76
 20
1.13759
 30
0.000000
  70
    32
  0
SEQEND
  8
01
  5
A51E
  0
ARC
  5
A02A
  8
01
 10
-1246.678530723276
 20
-3.476663915216164
 30
0.0
 40
0.5
 50
180.0
 51
270.0
  0
ARC
  5
A02C
  8
01
 10
-1267.9525743611739
 20
2.0233360847842898
 30
0.0
 40
0.5
 50
180.0
 51
270.0
  0
ARC
  5
A02F
  8
01
 10
-1247.678530723276
 20
6.023336084784062
 30
0.0
 40
0.5
 50
270.0
 51
0.0
  0
ARC
  5
A032
  8
01
 10
-1246.678530723276
 20
6.0233360847842903
 30
0.0
 40
0.5
 50
90.0
 51
180.0
  0
ARC
  5
A033
  8
01
 10
-1267.9525743611739
 20
5.0233360847842903
 30
0.0
 40
0.5
 50
90.0
 51
180.0
  0
LINE
  5
A034
  8
01
 10
-1268.452574361173
 20
2.0233360847842898
 30
0.0
 11
-1268.452574361173
 21
5.0233360847842903
 31
0.0
  0
LINE
  5
A03C
  8
01
 10
-1258.1785307232749
 20
1.523336084784205
 30
0.0
 11
-1267.9525743611739
 21
1.5233360847842901
 31
0.0
  0
LINE
  5
A03D
  8
01
 10
-1246.5176947717589
 20
5.5233360847841189
 30
0.0
 11
-1267.9525743611739
 21
5.5233360847842903
 31
0.0
  0
LINE
  5
A03E
  8
01
 10
-1246.1785307232749
 20
6.5233360847842334
 30
0.0
 11
-1246.678530723276
 21
6.5233360847842903
 31
0.0
  0
LINE
  5
A03F
  8
01
 10
-1247.178530723276
 20
-2.5124714616723329
 30
0.0
 11
-1247.178530723276
 21
-3.476663915216164
 31
0.0
  0
LINE
  5
A040
  8
01
 10
-1246.1785307232749
 20
-3.9766639152159931
 30
0.0
 11
-1246.678530723276
 21
-3.9766639152159371
 31
0.0
  0
LINE
  5
A206
  8
01
 10
-1404.053749142804
 20
1.273336082297049
 30
0.0
 11
-1404.053749142804
 21
-39.791542645048509
 31
0.0
  0
LINE
  5
A207
  8
01
 10
-1375.0537491428031
 20
1.273336082297049
 30
0.0
 11
-1375.0537491428031
 21
-39.791542645048509
 31
0.0
  0
LINE
  5
A208
  8
01
 10
-1402.053749142804
 20
-38.791542645048509
 30
0.0
 11
-1377.0537491428031
 21
-38.791542645048509
 31
0.0
  0
TEXT
  5
A20C
  8
01
 10
-1367.694585838773
 20
48.385040451219453
 30
0.0
 40
3.5
  1
真鍮
  0
SOLID
  5
A20D
  8
01
 10
-1384.5915031947941
 20
23.155095491545779
 30
0.0
 11
-1385.9001354519989
 21
21.606356415228142
 31
0.0
 12
-1385.164533828043
 22
23.495801138405959
 32
0.0
 13
-1385.164533828043
 23
23.495801138405959
 33
0.0
  0
TEXT
  5
A20F
  8
01
 10
-1366.125964108975
 20
33.651701422193533
 30
0.0
 40
3.5
  1
亜鉛ダイキャスト
  0
SOLID
  5
A210
  8
01
 10
-1383.0228814649961
 20
8.4217564625198502
 30
0.0
 11
-1384.3315137222021
 21
6.873017386202207
 31
0.0
 12
-1383.595912098245
 22
8.7624621093800314
 32
0.0
 13
-1383.595912098245
 23
8.7624621093800314
 33
0.0
  0
TEXT
  5
A212
  8
01
 10
-1339.57246666214
 20
-65.06312908721091
 30
0.0
 40
3.5
  1
亜鉛ダイキャスト+ナイロン
  0
SOLID
  5
A213
  8
01
 10
-1368.8969654965099
 20
-90.732269135955406
 30
0.0
 11
-1370.5940286218749
 21
-91.841813123202229
 31
0.0
 12
-1369.3485507423929
 22
-90.241845635147484
 32
0.0
 13
-1369.3485507423929
 23
-90.241845635147484
 33
0.0
  0
TEXT
  5
A215
  8
01
 10
-1243.785414200918
 20
-66.003873016461682
 30
0.0
 40
3.5
  1
M4用スプリングワッシャー
  0
TEXT
  5
A216
  8
01
 10
-1243.585414200918
 20
-71.837206349795025
 30
0.0
 40
3.5
  1
スチール
  0
SOLID
  5
A217
  8
01
 10
-1252.7271948545299
 20
-83.663144250484194
 30
0.0
 11
-1254.1037372742501
 21
-85.151849082821315
 31
0.0
 12
-1253.2844257417589
 22
-83.297168591782594
 32
0.0
 13
-1253.2844257417589
 23
-83.297168591782594
 33
0.0
  0
TEXT
  5
A219
  8
01
 10
-1250.1522226475579
 20
-149.59878300722789
 30
0.0
 40
3.5
  1
M4X40十字穴付ナベ小ネジ
  0
TEXT
  5
A21A
  8
01
 10
-1249.9522226475581
 20
-155.43211634056121
 30
0.0
 40
3.5
  1
スチール
  0
TEXT
  5
A21B
  8
01
 10
-1249.4855559808909
 20
-161.26544967389461
 30
0.0
 40
3.5
  1
扉厚43～50mm用
  0
SOLID
  5
A21C
  8
01
 10
-1262.8967910679589
 20
-143.702985980823
 30
0.0
 11
-1263.5911942152629
 21
-141.79801475266081
 31
0.0
 12
-1262.316497866788
 22
-143.37480273152659
 32
0.0
 13
-1262.316497866788
 23
-143.37480273152659
 33
0.0
  0
TEXT
  5
A21E
  8
01
 10
-1250.1522226475579
 20
-113.7604979890065
 30
0.0
 40
3.5
  1
M4X35十字穴付ナベ小ネジ
  0
TEXT
  5
A21F
  8
01
 10
-1249.9522226475581
 20
-119.59383132233989
 30
0.0
 40
3.5
  1
スチール
  0
TEXT
  5
A220
  8
01
 10
-1249.4855559808909
 20
-125.4271646556732
 30
0.0
 40
3.5
  1
扉厚33～42mm用
  0
SOLID
  5
A221
  8
01
 10
-1267.1372649993959
 20
-100.5104531480177
 30
0.0
 11
-1267.836211454659
 21
-98.607144196799624
 31
0.0
 12
-1266.5577564992859
 22
-100.180886246245
 32
0.0
 13
-1266.5577564992859
 23
-100.180886246245
 33
0.0
  0
LINE
  5
A223
  8
01
 10
-1258.1785307232749
 20
-0.9552139085101032
 30
0.0
 11
-1258.1785307232749
 21
-39.791542645048509
 31
0.0
  0
LINE
  5
A224
  8
01
 10
-1242.1785307232749
 20
-25.226663915215489
 30
0.0
 11
-1242.1785307232749
 21
-39.791542645048509
 31
0.0
  0
LINE
  5
A225
  8
01
 10
-1256.1785307232749
 20
-38.791542645048509
 30
0.0
 11
-1244.1785307232749
 21
-38.791542645048509
 31
0.0
  0
LINE
  5
A229
  8
01
 10
-1306.760639280827
 20
-25.22666391521571
 30
0.0
 11
-1306.760639280827
 21
-39.791542645048509
 31
0.0
  0
LINE
  5
A22A
  8
01
 10
-1290.760639280827
 20
-2.126663915216028
 30
0.0
 11
-1290.760639280827
 21
-39.791542645048509
 31
0.0
  0
LINE
  5
A22B
  8
01
 10
-1304.760639280827
 20
-38.791542645048509
 30
0.0
 11
-1292.760639280827
 21
-38.791542645048509
 31
0.0
  0
LINE
  5
A22F
  8
01
 10
-1306.760639280827
 20
27.77333608478429
 30
0.0
 11
-1306.760639280827
 21
44.771295240327923
 31
0.0
  0
LINE
  5
A230
  8
01
 10
-1302.760639280827
 20
10.27333715839049
 30
0.0
 11
-1302.760639280827
 21
44.771295240327923
 31
0.0
  0
LINE
  5
A231
  8
01
 10
-1308.760639280827
 20
43.77129524032793
 30
0.0
 11
-1310.760639280827
 21
43.77129524032793
 31
0.0
  0
LINE
  5
A232
  8
01
 10
-1300.760639280827
 20
43.77129524032793
 30
0.0
 11
-1294.8606392808269
 21
43.77129524032793
 31
0.0
  0
LINE
  5
A233
  8
01
 10
-1306.760639280827
 20
43.77129524032793
 30
0.0
 11
-1302.760639280827
 21
43.77129524032793
 31
0.0
  0
LINE
  5
A237
  8
01
 10
-1406.5537491403161
 20
-101.94326794764351
 30
0.0
 11
-1406.5537491403161
 21
-114.0000905237729
 31
0.0
  0
LINE
  5
A238
  8
01
 10
-1372.5537491403161
 20
-101.94326794764351
 30
0.0
 11
-1372.5537491403161
 21
-114.0000905237729
 31
0.0
  0
LINE
  5
A239
  8
01
 10
-1404.5537491403161
 20
-113.0000905237729
 30
0.0
 11
-1374.5537491403161
 21
-113.0000905237729
 31
0.0
  0
LINE
  5
A23D
  8
01
 10
-1416.0537491403161
 20
-81.519773779679241
 30
0.0
 11
-1430.4965468984431
 21
-81.519773779679241
 31
0.0
  0
LINE
  5
A23E
  8
01
 10
-1415.5537491403161
 20
-73.019773779679241
 30
0.0
 11
-1430.4965468984431
 21
-73.019773779679241
 31
0.0
  0
LINE
  5
A23F
  8
01
 10
-1429.4965468984431
 20
-79.519773779679241
 30
0.0
 11
-1429.4965468984431
 21
-75.019773779679241
 31
0.0
  0
LINE
  5
A240
  8
01
 10
-1429.4965468984431
 20
-73.019773779679241
 30
0.0
 11
-1429.4965468984431
 21
-62.2864404463459
 31
0.0
  0
LINE
  5
A244
  8
01
 10
-1521.1584143187199
 20
-28.589557626155511
 30
0.0
 11
-1451.1584143187199
 21
-28.589557626155511
 31
0.0
  0
TEXT
  5
A245
  8
01
 10
-1520.0250809853869
 20
-20.089557626155511
 30
0.0
 40
4.0
  1
サテンニッケル
 72
     1
 11
-1503.75841431872
 21
-20.089557626155511
 31
0.0
  0
TEXT
  5
A246
  8
01
 10
-1517.75841431872
 20
7.91044237384446
 30
0.0
 40
4.0
  1
クロムめっき
 72
     1
 11
-1503.75841431872
 21
7.91044237384446
 31
0.0
  0
TEXT
  5
A247
  8
01
 10
-1520.0250809853869
 20
-13.089557626155511
 30
0.0
 40
4.0
  1
ソフトニッケル
 72
     1
 11
-1503.75841431872
 21
-13.089557626155511
 31
0.0
  0
LINE
  5
A248
  8
01
 10
-1521.1584143187199
 20
20.410442373844461
 30
0.0
 11
-1451.1584143187199
 21
20.410442373844461
 31
0.0
  0
LINE
  5
A249
  8
01
 10
-1521.1584143187199
 20
13.410442373844459
 30
0.0
 11
-1451.1584143187199
 21
13.410442373844459
 31
0.0
  0
LINE
  5
A24A
  8
01
 10
-1521.1584143187199
 20
6.41044237384446
 30
0.0
 11
-1451.1584143187199
 21
6.41044237384446
 31
0.0
  0
LINE
  5
A24B
  8
01
 10
-1521.1584143187199
 20
-0.5895576261555391
 30
0.0
 11
-1451.1584143187199
 21
-0.5895576261555391
 31
0.0
  0
LINE
  5
A24C
  8
01
 10
-1521.1584143187199
 20
-7.5895576261555391
 30
0.0
 11
-1451.1584143187199
 21
-7.5895576261555391
 31
0.0
  0
TEXT
  5
A24D
  8
01
 10
-1514.406033366339
 20
21.910442373844461
 30
0.0
 40
4.0
  1
表面処理：
 72
     1
 11
-1503.75841431872
 21
21.910442373844461
 31
0.0
  0
LINE
  5
A24E
  8
01
 10
-1521.1584143187199
 20
27.410442373844461
 30
0.0
 11
-1451.1584143187199
 21
27.410442373844461
 31
0.0
  0
LINE
  5
A24F
  8
01
 10
-1521.1584143187199
 20
-14.589557626155511
 30
0.0
 11
-1451.1584143187199
 21
-14.589557626155511
 31
0.0
  0
LINE
  5
A250
  8
01
 10
-1521.1584143187199
 20
-21.589557626155511
 30
0.0
 11
-1451.1584143187199
 21
-21.589557626155511
 31
0.0
  0
LINE
  5
A251
  8
01
 10
-1521.1584143187199
 20
27.410442373844461
 30
0.0
 11
-1521.1584143187199
 21
-42.589557626155489
 31
0.0
  0
TEXT
  5
A252
  8
01
 10
-1512.55841431872
 20
14.910442373844459
 30
0.0
 40
4.0
  1
金めっき
 72
     1
 11
-1503.75841431872
 21
14.910442373844459
 31
0.0
  0
LINE
  5
A253
  8
01
 10
-1486.1584143187199
 20
27.410442373844461
 30
0.0
 11
-1486.1584143187199
 21
-42.589557626155489
 31
0.0
  0
LINE
  5
A254
  8
01
 10
-1451.1584143187199
 20
27.410442373844461
 30
0.0
 11
-1451.1584143187199
 21
-42.589557626155489
 31
0.0
  0
TEXT
  5
A255
  8
01
 10
-1480.2822238425299
 20
14.910442373844459
 30
0.0
 40
4.0
  1
C53PAG
 72
     1
 11
-1468.75841431872
 21
14.910442373844459
 31
0.0
  0
TEXT
  5
A256
  8
01
 10
-1480.2822238425299
 20
-20.089557626155511
 30
0.0
 40
4.0
  1
C53PAN
 72
     1
 11
-1468.75841431872
 21
-20.089557626155511
 31
0.0
  0
TEXT
  5
A257
  8
01
 10
-1480.663176223482
 20
-13.089557626155511
 30
0.0
 40
4.0
  1
C53PAW
 72
     1
 11
-1468.75841431872
 21
-13.089557626155511
 31
0.0
  0
TEXT
  5
A258
  8
01
 10
-1480.2822238425299
 20
7.91044237384446
 30
0.0
 40
4.0
  1
C53PAC
 72
     1
 11
-1468.75841431872
 21
7.91044237384446
 31
0.0
  0
TEXT
  5
A259
  8
01
 10
-1475.55841431872
 20
21.910442373844461
 30
0.0
 40
4.0
  1
コード
 72
     1
 11
-1468.75841431872
 21
21.910442373844461
 31
0.0
  0
TEXT
  5
A25A
  8
01
 10
-1517.75841431872
 20
0.9104423738444609
 30
0.0
 40
4.0
  1
パールクロム
 72
     1
 11
-1503.75841431872
 21
0.9104423738444609
 31
0.0
  0
TEXT
  5
A25B
  8
01
 10
-1480.2822238425299
 20
0.9104423738444609
 30
0.0
 40
4.0
  1
C53PAB
 72
     1
 11
-1468.75841431872
 21
0.9104423738444609
 31
0.0
  0
TEXT
  5
A25C
  8
01
 10
-1517.75841431872
 20
-6.0895576261555391
 30
0.0
 40
4.0
  1
サテンクロム
 72
     1
 11
-1503.75841431872
 21
-6.0895576261555391
 31
0.0
  0
TEXT
  5
A25D
  8
01
 10
-1479.710795271101
 20
-6.0895576261555391
 30
0.0
 40
4.0
  1
C53PAJ
 72
     1
 11
-1468.75841431872
 21
-6.0895576261555391
 31
0.0
  0
TEXT
  5
A25E
  8
01
 10
-1520.2917476520529
 20
-27.089557626155511
 30
0.0
 40
4.0
  1
ミラーニッケル
 72
     1
 11
-1503.75841431872
 21
-27.089557626155511
 31
0.0
  0
TEXT
  5
A25F
  8
01
 10
-1480.2822238425299
 20
-27.089557626155511
 30
0.0
 40
4.0
  1
C53PAD
 72
     1
 11
-1468.75841431872
 21
-27.089557626155511
 31
0.0
  0
LINE
  5
A260
  8
01
 10
-1521.1584143187199
 20
-35.589557626155511
 30
0.0
 11
-1451.1584143187199
 21
-35.589557626155511
 31
0.0
  0
TEXT
  5
A261
  8
01
 10
-1520.158414318721
 20
-34.089557626155511
 30
0.0
 40
4.0
  1
ダークアンバー
 72
     1
 11
-1503.75841431872
 21
-34.089557626155511
 31
0.0
  0
TEXT
  5
A262
  8
01
 10
-1482.2822238425299
 20
-34.089557626155511
 30
0.0
 40
4.0
  1
C53PA4Q
 72
     1
 11
-1468.75841431872
 21
-34.089557626155511
 31
0.0
  0
LINE
  5
A263
  8
01
 10
-1521.1584143187199
 20
-42.589557626155511
 30
0.0
 11
-1451.1584143187199
 21
-42.589557626155511
 31
0.0
  0
TEXT
  5
A264
  8
01
 10
-1520.0250809853869
 20
-41.089557626155511
 30
0.0
 40
4.0
  1
パールブラック
 72
     1
 11
-1503.75841431872
 21
-41.089557626155511
 31
0.0
  0
TEXT
  5
A265
  8
01
 10
-1482.377461937768
 20
-41.089557626155511
 30
0.0
 40
4.0
  1
C53PAGQ
 72
     1
 11
-1468.75841431872
 21
-41.089557626155511
 31
0.0
  0
LINE
  5
A266
  8
01
 10
-1271.6869021013699
 20
-102.1071441967996
 30
0.0
 11
-1271.6869021013699
 21
-108.791842147606
 31
0.0
  0
LINE
  5
A267
  8
01
 10
-1306.6869021013699
 20
-100.2571441967995
 30
0.0
 11
-1306.6869021013699
 21
-108.791842147606
 31
0.0
  0
LINE
  5
A268
  8
01
 10
-1273.6869021013699
 20
-107.791842147606
 30
0.0
 11
-1304.6869021013699
 21
-107.791842147606
 31
0.0
  0
LINE
  5
A26C
  8
01
 10
-1389.5537491415571
 20
-25.22666391770295
 30
0.0
 11
-1430.4965468984431
 21
-25.22666391770294
 31
0.0
  0
LINE
  5
A26D
  8
01
 10
-1389.5537491415571
 20
27.77333608229705
 30
0.0
 11
-1430.4965468984431
 21
27.77333608229706
 31
0.0
  0
LINE
  5
A26E
  8
01
 10
-1429.4965468984431
 20
-23.22666391770294
 30
0.0
 11
-1429.4965468984431
 21
25.77333608229706
 31
0.0
  0
LINE
  5
A272
  8
01
 10
-1266.233982781948
 20
-143.51026670940959
 30
0.0
 11
-1266.233982781948
 21
-150.19496466021599
 31
0.0
  0
LINE
  5
A273
  8
01
 10
-1306.233982781948
 20
-141.66026670940951
 30
0.0
 11
-1306.233982781948
 21
-150.19496466021599
 31
0.0
  0
LINE
  5
A274
  8
01
 10
-1268.233982781948
 20
-149.19496466021599
 30
0.0
 11
-1304.233982781948
 21
-149.19496466021599
 31
0.0
  0
TEXT
  5
A278
  8
01
 10
-1289.567316115282
 20
-148.494964660216
 30
0.0
 40
3.5
  1
40
  0
LINE
  5
A279
  8
01
  6
BYBLOCK
 10
-1304.233982781948
 20
-149.73086304021601
 30
0.0
 11
-1306.233982781948
 21
-149.19496466021599
 31
0.0
  0
LINE
  5
A27A
  8
01
  6
BYBLOCK
 10
-1306.233982781948
 20
-149.19496466021599
 30
0.0
 11
-1304.233982781948
 21
-148.659066280216
 31
0.0
  0
LINE
  5
A27B
  8
01
  6
BYBLOCK
 10
-1306.233982781948
 20
-149.19496466021599
 30
0.0
 11
-1304.233982781948
 21
-149.19496466021599
 31
0.0
  0
LINE
  5
A27C
  8
01
  6
BYBLOCK
 10
-1268.233982781948
 20
-148.659066280216
 30
0.0
 11
-1266.233982781948
 21
-149.19496466021599
 31
0.0
  0
LINE
  5
A27D
  8
01
  6
BYBLOCK
 10
-1266.233982781948
 20
-149.19496466021599
 30
0.0
 11
-1268.233982781948
 21
-149.73086304021601
 31
0.0
  0
LINE
  5
A27E
  8
01
  6
BYBLOCK
 10
-1266.233982781948
 20
-149.19496466021599
 30
0.0
 11
-1268.233982781948
 21
-149.19496466021599
 31
0.0
  0
TEXT
  5
A27F
  8
01
 10
-1430.1965468984431
 20
-4.2599972510365003
 30
0.0
 40
3.5
  1
\U+03C653
 50
90.0
  0
LINE
  5
A280
  8
01
  6
BYBLOCK
 10
-1430.032445278443
 20
25.77333608229706
 30
0.0
 11
-1429.4965468984431
 21
27.77333608229706
 31
0.0
  0
LINE
  5
A281
  8
01
  6
BYBLOCK
 10
-1429.4965468984431
 20
27.77333608229706
 30
0.0
 11
-1428.9606485184429
 21
25.77333608229706
 31
0.0
  0
LINE
  5
A282
  8
01
  6
BYBLOCK
 10
-1429.4965468984431
 20
27.77333608229706
 30
0.0
 11
-1429.4965468984431
 21
25.77333608229706
 31
0.0
  0
LINE
  5
A283
  8
01
  6
BYBLOCK
 10
-1428.9606485184429
 20
-23.22666391770294
 30
0.0
 11
-1429.4965468984431
 21
-25.22666391770294
 31
0.0
  0
LINE
  5
A284
  8
01
  6
BYBLOCK
 10
-1429.4965468984431
 20
-25.22666391770294
 30
0.0
 11
-1430.032445278443
 21
-23.22666391770294
 31
0.0
  0
LINE
  5
A285
  8
01
  6
BYBLOCK
 10
-1429.4965468984431
 20
-25.22666391770294
 30
0.0
 11
-1429.4965468984431
 21
-23.22666391770294
 31
0.0
  0
TEXT
  5
A286
  8
01
 10
-1292.520235434703
 20
-107.091842147606
 30
0.0
 40
3.5
  1
35
  0
LINE
  5
A287
  8
01
  6
BYBLOCK
 10
-1304.6869021013699
 20
-108.327740527606
 30
0.0
 11
-1306.6869021013699
 21
-107.791842147606
 31
0.0
  0
LINE
  5
A288
  8
01
  6
BYBLOCK
 10
-1306.6869021013699
 20
-107.791842147606
 30
0.0
 11
-1304.6869021013699
 21
-107.255943767606
 31
0.0
  0
LINE
  5
A289
  8
01
  6
BYBLOCK
 10
-1306.6869021013699
 20
-107.791842147606
 30
0.0
 11
-1304.6869021013699
 21
-107.791842147606
 31
0.0
  0
LINE
  5
A28A
  8
01
  6
BYBLOCK
 10
-1273.6869021013699
 20
-107.255943767606
 30
0.0
 11
-1271.6869021013699
 21
-107.791842147606
 31
0.0
  0
LINE
  5
A28B
  8
01
  6
BYBLOCK
 10
-1271.6869021013699
 20
-107.791842147606
 30
0.0
 11
-1273.6869021013699
 21
-108.327740527606
 31
0.0
  0
LINE
  5
A28C
  8
01
  6
BYBLOCK
 10
-1271.6869021013699
 20
-107.791842147606
 30
0.0
 11
-1273.6869021013699
 21
-107.791842147606
 31
0.0
  0
TEXT
  5
A28D
  8
01
 10
-1430.1965468984431
 20
-70.819773779679466
 30
0.0
 40
3.5
  1
8.5
 50
90.0
  0
LINE
  5
A28E
  8
01
  6
BYBLOCK
 10
-1430.032445278443
 20
-75.019773779679241
 30
0.0
 11
-1429.4965468984431
 21
-73.019773779679241
 31
0.0
  0
LINE
  5
A28F
  8
01
  6
BYBLOCK
 10
-1429.4965468984431
 20
-73.019773779679241
 30
0.0
 11
-1428.9606485184429
 21
-75.019773779679241
 31
0.0
  0
LINE
  5
A290
  8
01
  6
BYBLOCK
 10
-1429.4965468984431
 20
-73.019773779679241
 30
0.0
 11
-1429.4965468984431
 21
-75.019773779679241
 31
0.0
  0
LINE
  5
A291
  8
01
  6
BYBLOCK
 10
-1428.9606485184429
 20
-79.519773779679241
 30
0.0
 11
-1429.4965468984431
 21
-81.519773779679241
 31
0.0
  0
LINE
  5
A292
  8
01
  6
BYBLOCK
 10
-1429.4965468984431
 20
-81.519773779679241
 30
0.0
 11
-1430.032445278443
 21
-79.519773779679241
 31
0.0
  0
LINE
  5
A293
  8
01
  6
BYBLOCK
 10
-1429.4965468984431
 20
-81.519773779679241
 30
0.0
 11
-1429.4965468984431
 21
-79.519773779679241
 31
0.0
  0
TEXT
  5
A294
  8
01
 10
-1392.9704158069831
 20
-112.30009052377289
 30
0.0
 40
3.5
  1
34
  0
LINE
  5
A295
  8
01
  6
BYBLOCK
 10
-1374.5537491403161
 20
-112.46419214377291
 30
0.0
 11
-1372.5537491403161
 21
-113.0000905237729
 31
0.0
  0
LINE
  5
A296
  8
01
  6
BYBLOCK
 10
-1372.5537491403161
 20
-113.0000905237729
 30
0.0
 11
-1374.5537491403161
 21
-113.5359889037729
 31
0.0
  0
LINE
  5
A297
  8
01
  6
BYBLOCK
 10
-1372.5537491403161
 20
-113.0000905237729
 30
0.0
 11
-1374.5537491403161
 21
-113.0000905237729
 31
0.0
  0
LINE
  5
A298
  8
01
  6
BYBLOCK
 10
-1404.5537491403161
 20
-113.5359889037729
 30
0.0
 11
-1406.5537491403161
 21
-113.0000905237729
 31
0.0
  0
LINE
  5
A299
  8
01
  6
BYBLOCK
 10
-1406.5537491403161
 20
-113.0000905237729
 30
0.0
 11
-1404.5537491403161
 21
-112.46419214377291
 31
0.0
  0
LINE
  5
A29A
  8
01
  6
BYBLOCK
 10
-1406.5537491403161
 20
-113.0000905237729
 30
0.0
 11
-1404.5537491403161
 21
-113.0000905237729
 31
0.0
  0
TEXT
  5
A29B
  8
01
 10
-1298.560639280827
 20
44.471295240327933
 30
0.0
 40
3.5
  1
4
  0
LINE
  5
A29C
  8
01
  6
BYBLOCK
 10
-1300.760639280827
 20
43.235396860327931
 30
0.0
 11
-1302.760639280827
 21
43.77129524032793
 31
0.0
  0
LINE
  5
A29D
  8
01
  6
BYBLOCK
 10
-1302.760639280827
 20
43.77129524032793
 30
0.0
 11
-1300.760639280827
 21
44.307193620327922
 31
0.0
  0
LINE
  5
A29E
  8
01
  6
BYBLOCK
 10
-1302.760639280827
 20
43.77129524032793
 30
0.0
 11
-1300.760639280827
 21
43.77129524032793
 31
0.0
  0
LINE
  5
A29F
  8
01
  6
BYBLOCK
 10
-1308.760639280827
 20
44.307193620327922
 30
0.0
 11
-1306.760639280827
 21
43.77129524032793
 31
0.0
  0
LINE
  5
A2A0
  8
01
  6
BYBLOCK
 10
-1306.760639280827
 20
43.77129524032793
 30
0.0
 11
-1308.760639280827
 21
43.235396860327931
 31
0.0
  0
LINE
  5
A2A1
  8
01
  6
BYBLOCK
 10
-1306.760639280827
 20
43.77129524032793
 30
0.0
 11
-1308.760639280827
 21
43.77129524032793
 31
0.0
  0
TEXT
  5
A2A2
  8
01
 10
-1302.343972614161
 20
-38.091542645048513
 30
0.0
 40
3.5
  1
16
  0
LINE
  5
A2A3
  8
01
  6
BYBLOCK
 10
-1292.760639280827
 20
-38.25564426504851
 30
0.0
 11
-1290.760639280827
 21
-38.791542645048509
 31
0.0
  0
LINE
  5
A2A4
  8
01
  6
BYBLOCK
 10
-1290.760639280827
 20
-38.791542645048509
 30
0.0
 11
-1292.760639280827
 21
-39.327441025048508
 31
0.0
  0
LINE
  5
A2A5
  8
01
  6
BYBLOCK
 10
-1290.760639280827
 20
-38.791542645048509
 30
0.0
 11
-1292.760639280827
 21
-38.791542645048509
 31
0.0
  0
LINE
  5
A2A6
  8
01
  6
BYBLOCK
 10
-1304.760639280827
 20
-39.327441025048508
 30
0.0
 11
-1306.760639280827
 21
-38.791542645048509
 31
0.0
  0
LINE
  5
A2A7
  8
01
  6
BYBLOCK
 10
-1306.760639280827
 20
-38.791542645048509
 30
0.0
 11
-1304.760639280827
 21
-38.25564426504851
 31
0.0
  0
LINE
  5
A2A8
  8
01
  6
BYBLOCK
 10
-1306.760639280827
 20
-38.791542645048509
 30
0.0
 11
-1304.760639280827
 21
-38.791542645048509
 31
0.0
  0
TEXT
  5
A2A9
  8
01
 10
-1253.7618640566079
 20
-38.091542645048513
 30
0.0
 40
3.5
  1
16
  0
LINE
  5
A2AA
  8
01
  6
BYBLOCK
 10
-1244.1785307232749
 20
-38.25564426504851
 30
0.0
 11
-1242.1785307232749
 21
-38.791542645048509
 31
0.0
  0
LINE
  5
A2AB
  8
01
  6
BYBLOCK
 10
-1242.1785307232749
 20
-38.791542645048509
 30
0.0
 11
-1244.1785307232749
 21
-39.327441025048508
 31
0.0
  0
LINE
  5
A2AC
  8
01
  6
BYBLOCK
 10
-1242.1785307232749
 20
-38.791542645048509
 30
0.0
 11
-1244.1785307232749
 21
-38.791542645048509
 31
0.0
  0
LINE
  5
A2AD
  8
01
  6
BYBLOCK
 10
-1256.1785307232749
 20
-39.327441025048508
 30
0.0
 11
-1258.1785307232749
 21
-38.791542645048509
 31
0.0
  0
LINE
  5
A2AE
  8
01
  6
BYBLOCK
 10
-1258.1785307232749
 20
-38.791542645048509
 30
0.0
 11
-1256.1785307232749
 21
-38.25564426504851
 31
0.0
  0
LINE
  5
A2AF
  8
01
  6
BYBLOCK
 10
-1258.1785307232749
 20
-38.791542645048509
 30
0.0
 11
-1256.1785307232749
 21
-38.791542645048509
 31
0.0
  0
LINE
  5
A2B0
  8
01
 10
-1266.8475107493409
 20
-100.3456696971314
 30
0.0
 11
-1252.185555980891
 21
-126.1271646556732
 31
0.0
  0
LINE
  5
A2B1
  8
01
 10
-1252.185555980891
 20
-126.1271646556732
 30
0.0
 11
-1249.4855559808909
 21
-126.1271646556732
 31
0.0
  0
LINE
  5
A2B2
  8
01
 10
-1262.6066444673729
 20
-143.53889435617481
 30
0.0
 11
-1252.185555980891
 21
-161.96544967389451
 31
0.0
  0
LINE
  5
A2B3
  8
01
 10
-1252.185555980891
 20
-161.96544967389451
 30
0.0
 11
-1249.4855559808909
 21
-161.96544967389451
 31
0.0
  0
LINE
  5
A2B4
  8
01
 10
-1253.005810298145
 20
-83.480156421133401
 30
0.0
 11
-1245.8187475342511
 21
-72.537206349795028
 31
0.0
  0
LINE
  5
A2B5
  8
01
 10
-1245.8187475342511
 20
-72.537206349795028
 30
0.0
 11
-1243.118747534251
 21
-72.537206349795028
 31
0.0
  0
LINE
  5
A2B6
  8
01
 10
-1369.122758119451
 20
-90.487057385551452
 30
0.0
 11
-1342.27246666214
 21
-65.763129087210913
 31
0.0
  0
LINE
  5
A2B7
  8
01
 10
-1342.27246666214
 20
-65.763129087210913
 30
0.0
 11
-1339.57246666214
 21
-65.763129087210913
 31
0.0
  0
LINE
  5
A2B8
  8
01
 10
-1383.309396781621
 20
8.5921092859499417
 30
0.0
 11
-1368.8259641089751
 21
32.951701422193523
 31
0.0
  0
LINE
  5
A2B9
  8
01
 10
-1368.8259641089751
 20
32.951701422193523
 30
0.0
 11
-1366.125964108975
 21
32.951701422193523
 31
0.0
  0
LINE
  5
A2BA
  8
01
 10
-1384.878018511419
 20
23.325448314975869
 30
0.0
 11
-1370.3945858387731
 21
47.68504045121945
 31
0.0
  0
LINE
  5
A2BB
  8
01
 10
-1370.3945858387731
 20
47.68504045121945
 30
0.0
 11
-1367.694585838773
 21
47.68504045121945
 31
0.0
  0
TEXT
  5
A2BC
  8
01
 10
-1395.0037491428029
 20
-38.091542645048513
 30
0.0
 40
3.5
  1
\U+03C629
  0
LINE
  5
A2BD
  8
01
  6
BYBLOCK
 10
-1377.0537491428031
 20
-38.25564426504851
 30
0.0
 11
-1375.0537491428031
 21
-38.791542645048509
 31
0.0
  0
LINE
  5
A2BE
  8
01
  6
BYBLOCK
 10
-1375.0537491428031
 20
-38.791542645048509
 30
0.0
 11
-1377.0537491428031
 21
-39.327441025048508
 31
0.0
  0
LINE
  5
A2BF
  8
01
  6
BYBLOCK
 10
-1375.0537491428031
 20
-38.791542645048509
 30
0.0
 11
-1377.0537491428031
 21
-38.791542645048509
 31
0.0
  0
LINE
  5
A2C0
  8
01
  6
BYBLOCK
 10
-1402.053749142804
 20
-39.327441025048508
 30
0.0
 11
-1404.053749142804
 21
-38.791542645048509
 31
0.0
  0
LINE
  5
A2C1
  8
01
  6
BYBLOCK
 10
-1404.053749142804
 20
-38.791542645048509
 30
0.0
 11
-1402.053749142804
 21
-38.25564426504851
 31
0.0
  0
LINE
  5
A2C2
  8
01
  6
BYBLOCK
 10
-1404.053749142804
 20
-38.791542645048509
 30
0.0
 11
-1402.053749142804
 21
-38.791542645048509
 31
0.0
  0
VIEWPORT
  5
104
 67
     1
  8
0
 10
0.8453364807437253
 20
20.633055846807739
 30
0.0
 40
453.64079253235752
 41
303.8991857938006
 68
     1
 69
     1
1001
ACAD
1000
MVIEW
1002
{
1070
    16
1010
0.0
1020
0.0
1030
0.0
1010
0.0
1020
0.0
1030
1.0
1040
0.0
1040
303.8991857938006
1040
0.8453364807437253
1040
20.633055846807739
1040
50.0
1040
0.0
1040
0.0
1070
     0
1070
   100
1070
     1
1070
     1
1070
     0
1070
     0
1070
     0
1070
     0
1040
0.0
1040
0.0
1040
0.0
1040
10.0
1040
10.0
1040
10.0
1040
10.0
1070
     0
1002
{
1002
}
1002
}
  0
ENDSEC
  0
EOF
