  0
SECTION
  2
HEADER
  9
$ACADVER
  1
AC1009
  9
$INSBASE
 10
0.0
 20
0.0
 30
0.0
  9
$EXTMIN
 10
508.63664446972223
 20
-217.0535644054554
 30
0.0
  9
$EXTMAX
 10
801.73021438070589
 20
-9.8715989916817062
 30
0.0
  9
$LIMMIN
 10
0.0
 20
0.0
  9
$LIMMAX
 10
12.0
 20
9.0
  9
$ORTHOMODE
 70
     0
  9
$REGENMODE
 70
     1
  9
$FILLMODE
 70
     1
  9
$QTEXTMODE
 70
     0
  9
$MIRRTEXT
 70
     0
  9
$DRAGMODE
 70
     2
  9
$LTSCALE
 40
0.5
  9
$OSMODE
 70
  2175
  9
$ATTMODE
 70
     1
  9
$TEXTSIZE
 40
2.7999999999999989
  9
$TRACEWID
 40
0.05
  9
$TEXTSTYLE
  7
STANDARD
  9
$CLAYER
  8
1TEXT
  9
$CELTYPE
  6
BYLAYER
  9
$CECOLOR
 62
   256
  9
$DIMSCALE
 40
1.0
  9
$DIMASZ
 40
2.0
  9
$DIMEXO
 40
0.0
  9
$DIMDLI
 40
7.0
  9
$DIMRND
 40
0.0
  9
$DIMDLE
 40
0.0
  9
$DIMEXE
 40
1.0
  9
$DIMTP
 40
0.0
  9
$DIMTM
 40
0.0
  9
$DIMTXT
 40
3.5
  9
$DIMCEN
 40
0.0
  9
$DIMTSZ
 40
0.0
  9
$DIMTOL
 70
     0
  9
$DIMLIM
 70
     0
  9
$DIMTIH
 70
     0
  9
$DIMTOH
 70
     0
  9
$DIMSE1
 70
     0
  9
$DIMSE2
 70
     0
  9
$DIMTAD
 70
     1
  9
$DIMZIN
 70
     8
  9
$DIMBLK
  1

  9
$DIMASO
 70
     1
  9
$DIMSHO
 70
     1
  9
$DIMPOST
  1
 
  9
$DIMAPOST
  1

  9
$DIMALT
 70
     0
  9
$DIMALTD
 70
     2
  9
$DIMALTF
 40
25.399999999999999
  9
$DIMLFAC
 40
1.0
  9
$DIMTOFL
 70
     1
  9
$DIMTVP
 40
0.0
  9
$DIMTIX
 70
     0
  9
$DIMSOXD
 70
     0
  9
$DIMSAH
 70
     1
  9
$DIMBLK1
  1
OPEN30
  9
$DIMBLK2
  1
OPEN30
  9
$DIMSTYLE
  2
NEWX10
  9
$DIMCLRD
 70
   256
  9
$DIMCLRE
 70
   256
  9
$DIMCLRT
 70
   201
  9
$DIMTFAC
 40
0.7
  9
$DIMGAP
 40
0.7
  9
$LUNITS
 70
     2
  9
$LUPREC
 70
     4
  9
$SKETCHINC
 40
0.1
  9
$FILLETRAD
 40
0.0
  9
$AUNITS
 70
     0
  9
$AUPREC
 70
     2
  9
$MENU
  1
acad
  9
$ELEVATION
 40
0.0
  9
$PELEVATION
 40
0.0
  9
$THICKNESS
 40
0.0
  9
$LIMCHECK
 70
     0
  9
$BLIPMODE
 70
     0
  9
$CHAMFERA
 40
0.0
  9
$CHAMFERB
 40
0.0
  9
$SKPOLY
 70
     0
  9
$TDCREATE
 40
2451024.579593021
  9
$TDUPDATE
 40
2455631.443619607
  9
$TDINDWG
 40
0.7904893171
  9
$TDUSRTIMER
 40
0.7904893171
  9
$USRTIMER
 70
     1
  9
$ANGBASE
 50
0.0
  9
$ANGDIR
 70
     0
  9
$PDMODE
 70
     0
  9
$PDSIZE
 40
0.0
  9
$PLINEWID
 40
0.0
  9
$COORDS
 70
     2
  9
$SPLFRAME
 70
     0
  9
$SPLINETYPE
 70
     6
  9
$SPLINESEGS
 70
     8
  9
$ATTDIA
 70
     0
  9
$ATTREQ
 70
     1
  9
$HANDLING
 70
     1
  9
$HANDSEED
  5
C085
  9
$SURFTAB1
 70
     6
  9
$SURFTAB2
 70
     6
  9
$SURFTYPE
 70
     6
  9
$SURFU
 70
     6
  9
$SURFV
 70
     6
  9
$UCSNAME
  2

  9
$UCSORG
 10
0.0
 20
0.0
 30
0.0
  9
$UCSXDIR
 10
1.0
 20
0.0
 30
0.0
  9
$UCSYDIR
 10
0.0
 20
1.0
 30
0.0
  9
$PUCSNAME
  2

  9
$PUCSORG
 10
0.0
 20
0.0
 30
0.0
  9
$PUCSXDIR
 10
1.0
 20
0.0
 30
0.0
  9
$PUCSYDIR
 10
0.0
 20
1.0
 30
0.0
  9
$USERI1
 70
     0
  9
$USERI2
 70
     0
  9
$USERI3
 70
     0
  9
$USERI4
 70
     0
  9
$USERI5
 70
     0
  9
$USERR1
 40
0.0
  9
$USERR2
 40
0.0
  9
$USERR3
 40
0.0
  9
$USERR4
 40
0.0
  9
$USERR5
 40
0.0
  9
$WORLDVIEW
 70
     1
  9
$SHADEDGE
 70
     3
  9
$SHADEDIF
 70
    70
  9
$TILEMODE
 70
     1
  9
$MAXACTVP
 70
    48
  9
$PLIMCHECK
 70
     0
  9
$PEXTMIN
 10
1.0000000000000000E+020
 20
1.0000000000000000E+020
 30
1.0000000000000000E+020
  9
$PEXTMAX
 10
-1.0000000000000000E+020
 20
-1.0000000000000000E+020
 30
-1.0000000000000000E+020
  9
$PLIMMIN
 10
0.0
 20
0.0
  9
$PLIMMAX
 10
12.0
 20
9.0
  9
$UNITMODE
 70
     0
  9
$VISRETAIN
 70
     1
  9
$PLINEGEN
 70
     0
  9
$PSLTSCALE
 70
     1
  0
ENDSEC
  0
SECTION
  2
TABLES
  0
TABLE
  2
VPORT
 70
     1
  0
VPORT
  2
*ACTIVE
 70
     0
 10
0.0
 20
0.0
 11
1.0
 21
1.0
 12
655.16758175662164
 22
-113.4606271867919
 13
0.0
 23
0.0
 14
1.0
 24
1.0
 15
0.0
 25
0.0
 16
0.0
 26
0.0
 36
1.0
 17
0.0
 27
0.0
 37
0.0
 40
219.75607224184071
 41
1.4123581336696089
 42
50.0
 43
0.0
 44
0.0
 50
0.0
 51
0.0
 71
     0
 72
   100
 73
     1
 74
     1
 75
     0
 76
     1
 77
     0
 78
     0
  0
ENDTAB
  0
TABLE
  2
LTYPE
 70
    14
  0
LTYPE
  2
CONTINUOUS
 70
     0
  3
Solid line
 72
    65
 73
     0
 40
0.0
  0
LTYPE
  2
CENTER2
 70
     0
  3
Center (.5x) ___ _ ___ _ ___ _ ___ _ ___ _ ___
 72
    65
 73
     4
 40
28.574999999999999
 49
19.050000000000001
 49
-3.1749999999999989
 49
3.1749999999999989
 49
-3.1749999999999989
  0
LTYPE
  2
XREF1|CENTER2
 70
    48
  3
Center (.5x) ___ _ ___ _ ___ _ ___ _ ___ _ ___
 72
    65
 73
     4
 40
28.574999999999999
 49
19.050000000000001
 49
-3.1749999999999989
 49
3.1749999999999989
 49
-3.1749999999999989
  0
LTYPE
  2
A3WAKUDAKE|CENTER2
 70
    48
  3
Center (.5x) ___ _ ___ _ ___ _ ___ _ ___ _ ___
 72
    65
 73
     4
 40
28.574999999999999
 49
19.050000000000001
 49
-3.1749999999999989
 49
3.1749999999999989
 49
-3.1749999999999989
  0
ENDTAB
  0
TABLE
  2
LAYER
 70
    47
  0
LAYER
  2
0
 70
     0
 62
     7
  6
CONTINUOUS
  0
LAYER
  2
1CENTER
 70
     0
 62
     7
  6
CENTER2
  0
LAYER
  2
1DIM
 70
     0
 62
     7
  6
CONTINUOUS
  0
LAYER
  2
1TEXT
 70
     0
 62
     7
  6
CONTINUOUS
  0
LAYER
  2
1HATCH
 70
     0
 62
     7
  6
CONTINUOUS
  0
LAYER
  2
01
 70
     0
 62
     1
  6
CONTINUOUS
  0
LAYER
  2
A3WAKUDAKE|THICK
 70
    48
 62
     7
  6
CONTINUOUS
  0
LAYER
  2
A3WAKUDAKE|POINT
 70
    48
 62
     7
  6
CONTINUOUS
  0
LAYER
  2
A3WAKUDAKE|1CENTER
 70
    48
 62
     7
  6
A3WAKUDAKE|CENTER2
  0
LAYER
  2
A3WAKUDAKE|0-6
 70
    48
 62
     7
  6
CONTINUOUS
  0
LAYER
  2
A3WAKUDAKE|1DIM
 70
    48
 62
     7
  6
CONTINUOUS
  0
LAYER
  2
XREF1|1CENTER
 70
    48
 62
     7
  6
XREF1|CENTER2
  0
ENDTAB
  0
TABLE
  2
STYLE
 70
    21
  0
STYLE
  2
STANDARD
 70
     0
 40
0.0
 41
1.0
 50
0.0
 71
     0
 42
2.7999999999999989
  3
txt.shx
  4
extfont.shx
  0
ENDTAB
  0
TABLE
  2
VIEW
 70
     1
  0
VIEW
  2
A
 70
     0
 40
163.88865421183439
 10
23.75874513620715
 20
-310.52391195898861
 41
232.0683926202114
 11
0.0
 21
0.0
 31
1.0
 12
0.0
 22
0.0
 32
0.0
 42
50.0
 43
0.0
 44
0.0
 50
0.0
 71
     0
  0
ENDTAB
  0
TABLE
  2
UCS
 70
     0
  0
ENDTAB
  0
TABLE
  2
APPID
 70
    11
  0
APPID
  2
ACAD
 70
     0
  0
APPID
  2
CONTENTBLOCKICON
 70
     0
  0
APPID
  2
CONTENTBLOCKDESCRIPTION
 70
     0
  0
APPID
  2
CONTENTTABDATA
 70
     0
  0
APPID
  2
CONTENTCURRENTTAB
 70
     0
  0
APPID
  2
DRAWINGVARIABLESXDATA
 70
     0
  0
APPID
  2
CONTENTLONGBLOCKNAME
 70
     0
  0
APPID
  2
ACAD_MLEADERVER
 70
     0
  0
APPID
  2
ACADANNOTATIVE
 70
     0
  0
APPID
  2
ACAD_PSEXT
 70
     0
  0
APPID
  2
ACAD_EXEMPT_FROM_CAD_STANDARDS
 70
     0
  0
ENDTAB
  0
TABLE
  2
DIMSTYLE
 70
     8
  0
DIMSTYLE
  2
NEWX10
 70
     0
  3
 
  4

  5

  6
OPEN30
  7
OPEN30
 40
1.0
 41
2.0
 42
0.0
 43
7.0
 44
1.0
 45
0.0
 46
0.0
 47
0.0
 48
0.0
140
3.5
141
0.0
142
0.0
143
25.399999999999999
144
1.0
145
0.0
146
0.7
147
0.7
 71
     0
 72
     0
 73
     0
 74
     0
 75
     0
 76
     0
 77
     1
 78
     8
170
     0
171
     2
172
     1
173
     1
174
     0
175
     0
176
   256
177
   256
178
   201
  0
ENDTAB
  0
ENDSEC
  0
SECTION
  2
BLOCKS
  0
BLOCK
  8
0
  2
$MODEL_SPACE
 70
     0
 10
0.0
 20
0.0
 30
0.0
  3
$MODEL_SPACE
  1

  0
ENDBLK
  5
1A
  8
0
  0
BLOCK
 67
     1
  8
0
  2
$PAPER_SPACE
 70
     0
 10
0.0
 20
0.0
 30
0.0
  3
$PAPER_SPACE
  1

  0
ENDBLK
  5
17
 67
     1
  8
0
  0
BLOCK
  8
0
  2
XREF1
 70
    36
 10
0.0
 20
0.0
 30
0.0
  3
XREF1
  1
D:\ACLT\FORMAT\KAWAJUN(9)図面用.dwg
  0
ENDBLK
  5
37B8
  8
0
  0
BLOCK
  8
0
  2
_OPEN30
 70
     0
 10
0.0
 20
0.0
 30
0.0
  3
_OPEN30
  1

  0
LINE
  5
3854
  8
0
  6
BYBLOCK
 62
     0
 10
-1.0
 20
0.26794919
 30
0.0
 11
0.0
 21
0.0
 31
0.0
  0
LINE
  5
3855
  8
0
  6
BYBLOCK
 62
     0
 10
0.0
 20
0.0
 30
0.0
 11
-1.0
 21
-0.26794919
 31
0.0
  0
LINE
  5
3856
  8
0
  6
BYBLOCK
 62
     0
 10
0.0
 20
0.0
 30
0.0
 11
-1.0
 21
0.0
 31
0.0
  0
ENDBLK
  5
3858
  8
0
  0
BLOCK
  8
0
  2
A3WAKUDAKE
 70
    36
 10
0.0
 20
0.0
 30
0.0
  3
A3WAKUDAKE
  1
D:\ACLT\FORMAT\A3WAKUdake.dwg
  0
ENDBLK
  5
B27C
  8
0
  0
BLOCK
  8
0
  2
*U12
 70
     1
 10
0.0
 20
0.0
 30
0.0
  3
*U12
  1

  0
LINE
  5
BF5E
  8
0
 10
-29.650013959840731
 20
-1.999767327302947
 30
0.0
 11
-2.3000325751465591
 21
-1.9999759305926541
 31
0.0
  0
LINE
  5
BF5F
  8
0
 10
-0.30002792150799
 20
-3.99999454508179
 30
0.0
 11
-2.3000325751465591
 21
-1.9999759305926541
 31
0.0
  0
LINE
  5
BF60
  8
0
 10
-30.00001151669592
 20
-1.6497646577977321
 30
0.0
 11
-29.650013959840731
 21
-1.999767327302947
 31
0.0
  0
LINE
  5
BF61
  8
0
 10
-0.30002792150799
 20
-3.99999454508179
 30
0.0
 11
-0.0000279215201999
 21
-3.9999973372356399
 31
0.0
  0
LINE
  5
BF62
  8
0
 10
-29.999988481426449
 20
1.6502353421326461
 30
0.0
 11
-30.00001151669592
 21
-1.6497646577977321
 31
0.0
  0
LINE
  5
BF63
  8
0
 10
0.0000279215573755
 20
4.0000026625912142
 30
0.0
 11
-0.0000279215201999
 21
-3.9999973372356399
 31
0.0
  0
LINE
  5
BF64
  8
0
 10
-29.999988481426449
 20
1.6502353421326461
 30
0.0
 11
-29.649986038302011
 21
2.000232672609854
 31
0.0
  0
LINE
  5
BF65
  8
0
 10
-0.2999720784305282
 20
4.0000054547450636
 30
0.0
 11
0.0000279215573755
 21
4.0000026625912142
 31
0.0
  0
LINE
  5
BF66
  8
0
 10
-29.649986038302011
 20
2.000232672609854
 30
0.0
 11
-2.2999767319823121
 21
2.0000240690608271
 31
0.0
  0
LINE
  5
BF67
  8
0
 10
-0.2999720784305282
 20
4.0000054547450636
 30
0.0
 11
-2.2999767319823121
 21
2.0000240690608271
 31
0.0
  0
ENDBLK
  5
BF69
  8
0
  0
BLOCK
  8
0
  2
*U13
 70
     1
 10
0.0
 20
0.0
 30
0.0
  3
*U13
  1

  0
TEXT
  5
BF76
  8
1DIM
 62
   201
 10
535.43905187622909
 20
-145.94907198127871
 30
0.0
 40
3.5
  1
φ57
  0
ENDBLK
  5
BF78
  8
0
  0
BLOCK
  8
0
  2
*U14
 70
     1
 10
0.0
 20
0.0
 30
0.0
  3
*U14
  1

  0
TEXT
  5
BF7A
  8
1DIM
 62
   201
 10
782.14370990940586
 20
-155.92710069249301
 30
0.0
 40
3.5
  1
30
  0
ENDBLK
  5
BF7C
  8
0
  0
BLOCK
  8
0
  2
*U15
 70
     1
 10
0.0
 20
0.0
 30
0.0
  3
*U15
  1

  0
TEXT
  5
BF7E
  8
1DIM
 62
   201
 10
607.88119266687772
 20
-145.94907198127871
 30
0.0
 40
3.5
  1
8.8
  0
ENDBLK
  5
BF80
  8
0
  0
ENDSEC
  0
SECTION
  2
ENTITIES
  0
TEXT
  5
B2B2
  8
1TEXT
 10
511.53497090838789
 20
-17.871598991681712
 30
0.0
 40
8.0
  1
C57R-X
  0
TEXT
  5
B2B3
  8
1TEXT
 10
513.93821879614927
 20
-29.503035055230729
 30
0.0
 40
4.0
  1
材質：真鍮・POM
 11
513.93821879614927
 21
-27.503035055230729
 31
0.0
 73
     2
  0
LINE
  5
B2B4
  8
1DIM
 10
513.64543379808686
 20
-32.190018405438082
 30
0.0
 11
583.64543379808686
 21
-32.190018405438082
 31
0.0
  0
LINE
  5
B2B5
  8
1DIM
 10
513.64543379808686
 20
-53.190018405438082
 30
0.0
 11
583.64543379808686
 21
-53.190018405438082
 31
0.0
  0
LINE
  5
B2B6
  8
1DIM
 10
513.64543379808686
 20
-46.190018405438082
 30
0.0
 11
583.64543379808686
 21
-46.190018405438082
 31
0.0
  0
LINE
  5
B2B7
  8
1DIM
 10
513.64543379808686
 20
-39.190018405438082
 30
0.0
 11
583.64543379808686
 21
-39.190018405438082
 31
0.0
  0
LINE
  5
B2BD
  8
1DIM
 10
513.64543379808686
 20
-32.190018405438082
 30
0.0
 11
513.64543379808686
 21
-60.190018405438082
 31
0.0
  0
TEXT
  5
B2BF
  8
1TEXT
 10
559.24543379808688
 20
-37.690018405438082
 30
0.0
 40
4.0
  1
コード
 72
     1
 11
566.04543379808683
 21
-37.690018405438082
 31
0.0
  0
LINE
  5
B2C4
  8
1DIM
 10
548.64543379808697
 20
-32.190018405438082
 30
0.0
 11
548.64543379808697
 21
-60.190018405438082
 31
0.0
  0
TEXT
  5
B2C8
  8
1TEXT
 10
521.97876713142
 20
-37.690018405438082
 30
0.0
 40
4.0
  1
表面処理
 72
     1
 11
531.04543379808683
 21
-37.690018405438082
 31
0.0
  0
LINE
  5
B711
  8
1DIM
 10
583.64543379808686
 20
-60.190018405438082
 30
0.0
 11
583.64543379808686
 21
-32.190018405438082
 31
0.0
  0
TEXT
  5
B7C6
  8
1TEXT
 10
519.84543379808679
 20
-44.690018405438082
 30
0.0
 40
4.0
  1
本金メッキ
 72
     1
 11
531.04543379808683
 21
-44.690018405438082
 31
0.0
  0
TEXT
  5
B7C9
  8
1TEXT
 10
517.92543379808683
 20
-58.690018405438082
 30
0.0
 40
4.0
  1
ダークアンバー
 41
0.8
 72
     1
 11
531.04543379808683
 21
-58.690018405438082
 31
0.0
  0
TEXT
  5
B7CF
  8
1TEXT
 10
518.03210046475374
 20
-51.690018405438082
 30
0.0
 40
4.0
  1
サテンニッケル
 41
0.8
 72
     1
 11
531.04543379808695
 21
-51.690018405438082
 31
0.0
  0
TEXT
  5
B7D4
  8
1TEXT
 10
554.71210046475335
 20
-44.690018405438082
 30
0.0
 40
4.0
  1
C57R-G
 72
     1
 11
566.04543379808683
 21
-44.690018405438082
 31
0.0
  0
TEXT
  5
B7D5
  8
1TEXT
 10
552.71210046475335
 20
-58.690018405438082
 30
0.0
 40
4.0
  1
C57R-4Q
 72
     1
 11
566.04543379808683
 21
-58.690018405438082
 31
0.0
  0
TEXT
  5
B7D7
  8
1TEXT
 10
554.71210046475369
 20
-51.690018405438082
 30
0.0
 40
4.0
  1
C57R-N
 72
     1
 11
566.04543379808695
 21
-51.690018405438082
 31
0.0
  0
LINE
  5
B7DE
  8
1DIM
 10
513.64543379808686
 20
-60.190018405438082
 30
0.0
 11
583.64543379808686
 21
-60.190018405438082
 31
0.0
  0
LINE
  5
BB95
  8
1CENTER
 10
508.63664446972223
 20
-184.88449033226129
 30
0.0
 11
572.97479261611466
 21
-184.884490332257
 31
0.0
  0
LINE
  5
BB96
  8
1CENTER
 10
540.8057185429185
 20
-152.71541625906281
 30
0.0
 11
540.80571854291759
 21
-217.0535644054554
 31
0.0
  0
CIRCLE
  5
BB97
  8
01
 10
540.80571854291804
 20
-184.88449033225911
 30
0.0
 40
9.2500004828441131
  0
CIRCLE
  5
BB98
  8
01
 10
540.80571854291804
 20
-184.88449033225911
 30
0.0
 40
8.0500004391330151
  0
CIRCLE
  5
BB9D
  8
01
 10
540.8057185429185
 20
-184.88449033225911
 30
0.0
 40
9.5000000000077307
  0
CIRCLE
  5
BB9E
  8
01
 10
540.80571854289565
 20
-184.88449033224589
 30
0.0
 40
28.499999999989321
  0
CIRCLE
  5
BB9F
  8
01
 10
540.8057185429185
 20
-184.88449033225911
 30
0.0
 40
24.700000000002781
  0
CIRCLE
  5
BBA0
  8
01
 10
540.80571854291804
 20
-184.88449033225911
 30
0.0
 40
25.200000000017781
  0
LINE
  5
BBEF
  8
01
 10
615.781192666876
 20
-156.384486240716
 30
0.0
 11
612.24869907484481
 21
-156.384486240716
 31
0.0
  0
ARC
  5
BBF0
  8
01
 10
612.24869907484481
 20
-156.884486240716
 30
0.0
 40
0.5
 50
90.0
 51
146.29470421171561
  0
LINE
  5
BBF3
  8
01
 10
607.84784601171987
 20
-160.1035893045233
 30
0.0
 11
608.7914317955416
 21
-159.89890844806149
 31
0.0
  0
LINE
  5
BBF8
  8
01
 10
615.781192666876
 20
-213.3844862407185
 30
0.0
 11
612.23898901616678
 21
-213.3844862407183
 31
0.0
  0
LINE
  5
BBFA
  8
01
 10
606.98119266687411
 20
-194.38448624071191
 30
0.0
 11
606.98119266687945
 21
-175.3844862407224
 31
0.0
  0
LINE
  5
BC06
  8
01
 10
610.34121872618198
 20
-158.84303111369479
 30
0.0
 11
611.83274765739804
 21
-156.60702557985741
 31
0.0
  0
ARC
  5
BC07
  8
01
 10
608.26146163894828
 20
-157.45572780940199
 30
0.0
 40
2.5
 50
282.23888328830577
 51
326.29470421170748
  0
ARC
  5
BC0D
  8
01
 10
612.23898901616678
 20
-212.8844862407183
 30
0.0
 40
0.5
 50
213.57998345203271
 51
270.0
  0
ARC
  5
BC0E
  8
01
 10
806.97854367653247
 20
-174.35512278710451
 30
0.0
 40
200.0
 50
176.0441967006696
 51
180.2948922093293
  0
ARC
  5
BC10
  8
01
 10
607.95384004303878
 20
-160.59222543225511
 30
0.0
 40
0.5
 50
102.23888328835871
 51
176.0441967006696
  0
ARC
  5
BC11
  8
01
 10
806.97854367653247
 20
-195.41384969433389
 30
0.0
 40
200.0
 50
179.70510779065759
 51
183.9558032993304
  0
LINE
  5
BC1D
  8
01
 10
606.68119151944768
 20
-194.1344857578637
 30
0.0
 11
606.68119232810852
 21
-175.63448575786401
 31
0.0
  0
LINE
  5
BC22
  8
01
 10
606.68119151944768
 20
-194.1344857578637
 30
0.0
 11
606.98119266687411
 21
-194.13448577097719
 31
0.0
  0
LINE
  5
BC27
  8
01
 10
606.68119232810852
 20
-175.63448575786401
 30
0.0
 11
606.98119266687945
 21
-175.63448577097751
 31
0.0
  0
LINE
  5
BC45
  8
01
 10
611.98119266687615
 20
-156.46206426958329
 30
0.0
 11
611.98119266687615
 21
-213.31290314315379
 31
0.0
  0
LINE
  5
BC46
  8
01
 10
609.77992554186142
 20
-159.44174577899599
 30
0.0
 11
609.77992554186142
 21
-210.31063253571219
 31
0.0
  0
LINE
  5
BC47
  8
01
 10
607.48119266687638
 20
-160.4291167022414
 30
0.0
 11
607.48119266687638
 21
-209.33985577919711
 31
0.0
  0
ARC
  5
BC48
  8
01
 10
607.95384004303878
 20
-209.17675523226319
 30
0.0
 40
0.5
 50
183.9558032993304
 51
257.76111671164188
  0
LINE
  5
BC49
  8
01
 10
610.34121872618198
 20
-210.92594955082339
 30
0.0
 11
611.83274765739804
 21
-213.1619550846608
 31
0.0
  0
ARC
  5
BC4A
  8
01
 10
608.26146163894828
 20
-212.31325285511619
 30
0.0
 40
2.5
 50
33.705295788292467
 51
77.761116711693944
  0
LINE
  5
BC4C
  8
01
 10
607.84784601171987
 20
-209.66539135999491
 30
0.0
 11
608.7914317955416
 21
-209.8700722164568
 31
0.0
  0
LINE
  5
BC4E
  8
01
 10
655.78119266686952
 20
-213.3844862407185
 30
0.0
 11
655.78119266686485
 21
-156.384486240716
 31
0.0
  0
LINE
  5
BC50
  8
01
 10
655.78119266686485
 20
-156.384486240716
 30
0.0
 11
659.31368625889615
 21
-156.384486240716
 31
0.0
  0
ARC
  5
BC51
  8
01
 10
659.31368625889615
 20
-156.884486240716
 30
0.0
 40
0.5
 50
33.705295788286612
 51
90.0
  0
LINE
  5
BC54
  8
01
 10
663.7145393220211
 20
-160.1035893045233
 30
0.0
 11
662.77095353819948
 21
-159.89890844806149
 31
0.0
  0
LINE
  5
BC56
  8
01
 10
655.78119266686485
 20
-213.3844862407185
 30
0.0
 11
659.32339631757429
 21
-213.3844862407183
 31
0.0
  0
LINE
  5
BC57
  8
01
 10
664.58119266686685
 20
-194.38448624071191
 30
0.0
 11
664.5811926668614
 21
-175.3844862407224
 31
0.0
  0
LINE
  5
BC58
  8
01
 10
661.22116660755887
 20
-158.84303111369479
 30
0.0
 11
659.72963767634292
 21
-156.60702557985741
 31
0.0
  0
ARC
  5
BC59
  8
01
 10
663.30092369479269
 20
-157.45572780940199
 30
0.0
 40
2.5
 50
213.7052957882926
 51
257.76111671169451
  0
ARC
  5
BC5A
  8
01
 10
659.32339631757429
 20
-212.8844862407183
 30
0.0
 40
0.5
 50
270.0
 51
326.42001654796752
  0
ARC
  5
BC5B
  8
01
 10
464.58384165720861
 20
-174.35512278710451
 30
0.0
 40
200.0
 50
359.70510779067058
 51
3.9558032993303951
  0
ARC
  5
BC5C
  8
01
 10
663.60854529070207
 20
-160.59222543225511
 30
0.0
 40
0.5
 50
3.9558032993303951
 51
77.76111671164125
  0
ARC
  5
BC5D
  8
01
 10
464.58384165720861
 20
-195.41384969433389
 30
0.0
 40
200.0
 50
356.0441967006696
 51
0.2948922093423686
  0
LINE
  5
BC5F
  8
01
 10
664.8811938142934
 20
-194.1344857578637
 30
0.0
 11
664.88119300563255
 21
-175.63448575786401
 31
0.0
  0
LINE
  5
BC60
  8
01
 10
664.8811938142934
 20
-194.1344857578637
 30
0.0
 11
664.58119266686685
 21
-194.13448577097719
 31
0.0
  0
LINE
  5
BC61
  8
01
 10
664.88119300563255
 20
-175.63448575786401
 30
0.0
 11
664.5811926668614
 21
-175.63448577097751
 31
0.0
  0
LINE
  5
BC62
  8
01
 10
659.58119266686492
 20
-156.46206426958329
 30
0.0
 11
659.58119266686492
 21
-213.31290314315379
 31
0.0
  0
LINE
  5
BC63
  8
01
 10
661.78245979187955
 20
-159.44174577899599
 30
0.0
 11
661.78245979187955
 21
-210.31063253571219
 31
0.0
  0
LINE
  5
BC64
  8
01
 10
664.08119266686458
 20
-160.4291167022414
 30
0.0
 11
664.08119266686458
 21
-209.33985577919711
 31
0.0
  0
ARC
  5
BC65
  8
01
 10
663.60854529070207
 20
-209.17675523226319
 30
0.0
 40
0.5
 50
282.23888328835869
 51
356.0441967006696
  0
LINE
  5
BC66
  8
01
 10
661.22116660755887
 20
-210.92594955082339
 30
0.0
 11
659.72963767634292
 21
-213.1619550846608
 31
0.0
  0
ARC
  5
BC67
  8
01
 10
663.30092369479269
 20
-212.31325285511619
 30
0.0
 40
2.5
 50
102.2388832883054
 51
146.2947042117074
  0
LINE
  5
BC68
  8
01
 10
663.7145393220211
 20
-209.66539135999491
 30
0.0
 11
662.77095353819948
 21
-209.8700722164568
 31
0.0
  0
LINE
  5
BC6A
  8
01
 10
615.781192666876
 20
-156.384486240716
 30
0.0
 11
615.781192666876
 21
-213.3844862407185
 31
0.0
  0
ARC
  5
BC72
  8
01
 10
654.98119458856195
 20
-188.6844983231347
 30
0.0
 40
0.8
 50
0.0000025044719588
 51
90.000002504468682
  0
ARC
  5
BC73
  8
01
 10
654.98119425635593
 20
-181.08449832313471
 30
0.0
 40
0.8
 50
270.00000250446868
 51
0.0000025044719588
  0
LINE
  5
BC74
  8
01
 10
630.78119429132505
 20
-181.8844993809472
 30
0.0
 11
630.78119455359308
 21
-187.88449938094709
 31
0.0
  0
LINE
  5
BC75
  8
01
 10
654.98119455359279
 20
-187.88449832313469
 30
0.0
 11
630.78119455359308
 21
-187.88449938094709
 31
0.0
  0
LINE
  5
BC76
  8
01
 10
654.98119429132487
 20
-181.88449832313469
 30
0.0
 11
630.78119429132505
 21
-181.8844993809472
 31
0.0
  0
LINE
  5
BC79
  8
1CENTER
 10
618.48152687613037
 20
-184.8844857578639
 30
0.0
 11
604.08360422621843
 21
-184.8844857578639
 31
0.0
  0
LINE
  5
BC7A
  8
1CENTER
 10
628.79792834123612
 20
-184.8844857578639
 30
0.0
 11
666.75891205344681
 21
-184.8844857578639
 31
0.0
  0
LINE
  5
BC7D
  8
1CENTER
 10
692.59777895583306
 20
-184.88449033226129
 30
0.0
 11
756.93592710222561
 21
-184.884490332257
 31
0.0
  0
CIRCLE
  5
BC7E
  8
01
 10
724.76685302902888
 20
-184.88449033225911
 30
0.0
 40
9.2500004828441131
  0
CIRCLE
  5
BC7F
  8
01
 10
724.76685302902888
 20
-184.88449033225911
 30
0.0
 40
8.0500004391330151
  0
CIRCLE
  5
BC80
  8
01
 10
724.76685302902933
 20
-184.88449033225911
 30
0.0
 40
9.5000000000077307
  0
CIRCLE
  5
BC81
  8
01
 10
724.7668530290066
 20
-184.88449033224589
 30
0.0
 40
28.499999999989321
  0
CIRCLE
  5
BC82
  8
01
 10
724.76685302902933
 20
-184.88449033225911
 30
0.0
 40
24.700000000002781
  0
CIRCLE
  5
BC83
  8
01
 10
724.76685302902888
 20
-184.88449033225911
 30
0.0
 40
25.200000000017781
  0
TEXT
  5
BC87
  8
1TEXT
 10
777.86517651863505
 20
-195.4195143953666
 30
0.0
 40
2.7999999999999989
  1
付属ネジ
  0
LINE
  5
BCA0
  8
1CENTER
 10
724.76685302902933
 20
-152.71541625906281
 30
0.0
 11
724.76685302902843
 21
-217.0535644054554
 31
0.0
  0
LINE
  5
BCA1
  8
1CENTER
 10
724.76685302903115
 20
-89.98897411854756
 30
0.0
 11
724.76685302903115
 21
-133.31168005038521
 31
0.0
  0
ARC
  5
BCAB
  8
01
 10
745.56685302903122
 20
-116.77223827808
 30
0.0
 40
0.8
 50
180.0
 51
270.00000250447522
  0
ARC
  5
BCAC
  8
01
 10
737.96685302903109
 20
-116.7722386102861
 30
0.0
 40
0.8
 50
270.00000250447522
 51
0.0
  0
LINE
  5
BCAD
  8
01
 10
738.86211551937572
 20
-92.572238571153093
 30
0.0
 11
744.76685302903127
 21
-92.572238313049169
 31
0.0
  0
LINE
  5
BCAE
  8
1CENTER
 10
741.76685302903115
 20
-122.1630405835333
 30
0.0
 11
741.76685302903115
 21
-90.980721317263104
 31
0.0
  0
LINE
  5
BCAF
  8
01
 10
738.76685302903115
 20
-116.7722386102861
 30
0.0
 11
738.76685302903115
 21
-110.5722385753171
 31
0.0
  0
LINE
  5
BCB0
  8
01
 10
744.76685302903127
 20
-116.77223827808
 30
0.0
 11
744.76685302903127
 21
-92.572238313049169
 31
0.0
  0
LINE
  5
BCB1
  8
01
 10
738.86211551937572
 20
-109.8222385753171
 30
0.0
 11
738.86211551937572
 21
-92.572238571153093
 31
0.0
  0
POLYLINE
  5
BCB2
  8
01
 10
738.76685302903115
 20
-110.5722385753171
 30
0.0
 66
     1
 70
     8
  0
VERTEX
  8
01
  5
BF81
 10
738.767
 20
-110.572
 30
0.000000
  70
    32
  0
VERTEX
  8
01
  5
BF82
 10
738.768
 20
-110.572
 30
0.000000
  70
    32
  0
VERTEX
  8
01
  5
BF83
 10
738.769
 20
-110.572
 30
0.000000
  70
    32
  0
VERTEX
  8
01
  5
BF84
 10
738.770
 20
-110.572
 30
0.000000
  70
    32
  0
VERTEX
  8
01
  5
BF85
 10
738.772
 20
-110.571
 30
0.000000
  70
    32
  0
VERTEX
  8
01
  5
BF86
 10
738.773
 20
-110.571
 30
0.000000
  70
    32
  0
VERTEX
  8
01
  5
BF87
 10
738.774
 20
-110.570
 30
0.000000
  70
    32
  0
VERTEX
  8
01
  5
BF88
 10
738.775
 20
-110.569
 30
0.000000
  70
    32
  0
VERTEX
  8
01
  5
BF89
 10
738.776
 20
-110.569
 30
0.000000
  70
    32
  0
VERTEX
  8
01
  5
BF8A
 10
738.777
 20
-110.568
 30
0.000000
  70
    32
  0
VERTEX
  8
01
  5
BF8B
 10
738.779
 20
-110.567
 30
0.000000
  70
    32
  0
VERTEX
  8
01
  5
BF8C
 10
738.780
 20
-110.565
 30
0.000000
  70
    32
  0
VERTEX
  8
01
  5
BF8D
 10
738.781
 20
-110.564
 30
0.000000
  70
    32
  0
VERTEX
  8
01
  5
BF8E
 10
738.782
 20
-110.563
 30
0.000000
  70
    32
  0
VERTEX
  8
01
  5
BF8F
 10
738.783
 20
-110.561
 30
0.000000
  70
    32
  0
VERTEX
  8
01
  5
BF90
 10
738.784
 20
-110.560
 30
0.000000
  70
    32
  0
VERTEX
  8
01
  5
BF91
 10
738.785
 20
-110.558
 30
0.000000
  70
    32
  0
VERTEX
  8
01
  5
BF92
 10
738.787
 20
-110.556
 30
0.000000
  70
    32
  0
VERTEX
  8
01
  5
BF93
 10
738.788
 20
-110.554
 30
0.000000
  70
    32
  0
VERTEX
  8
01
  5
BF94
 10
738.789
 20
-110.552
 30
0.000000
  70
    32
  0
VERTEX
  8
01
  5
BF95
 10
738.790
 20
-110.550
 30
0.000000
  70
    32
  0
VERTEX
  8
01
  5
BF96
 10
738.791
 20
-110.547
 30
0.000000
  70
    32
  0
VERTEX
  8
01
  5
BF97
 10
738.792
 20
-110.545
 30
0.000000
  70
    32
  0
VERTEX
  8
01
  5
BF98
 10
738.793
 20
-110.543
 30
0.000000
  70
    32
  0
VERTEX
  8
01
  5
BF99
 10
738.795
 20
-110.540
 30
0.000000
  70
    32
  0
VERTEX
  8
01
  5
BF9A
 10
738.796
 20
-110.537
 30
0.000000
  70
    32
  0
VERTEX
  8
01
  5
BF9B
 10
738.797
 20
-110.534
 30
0.000000
  70
    32
  0
VERTEX
  8
01
  5
BF9C
 10
738.798
 20
-110.531
 30
0.000000
  70
    32
  0
VERTEX
  8
01
  5
BF9D
 10
738.799
 20
-110.528
 30
0.000000
  70
    32
  0
VERTEX
  8
01
  5
BF9E
 10
738.800
 20
-110.525
 30
0.000000
  70
    32
  0
VERTEX
  8
01
  5
BF9F
 10
738.801
 20
-110.522
 30
0.000000
  70
    32
  0
VERTEX
  8
01
  5
BFA0
 10
738.802
 20
-110.519
 30
0.000000
  70
    32
  0
VERTEX
  8
01
  5
BFA1
 10
738.803
 20
-110.515
 30
0.000000
  70
    32
  0
VERTEX
  8
01
  5
BFA2
 10
738.804
 20
-110.512
 30
0.000000
  70
    32
  0
VERTEX
  8
01
  5
BFA3
 10
738.805
 20
-110.508
 30
0.000000
  70
    32
  0
VERTEX
  8
01
  5
BFA4
 10
738.807
 20
-110.504
 30
0.000000
  70
    32
  0
VERTEX
  8
01
  5
BFA5
 10
738.808
 20
-110.500
 30
0.000000
  70
    32
  0
VERTEX
  8
01
  5
BFA6
 10
738.809
 20
-110.496
 30
0.000000
  70
    32
  0
VERTEX
  8
01
  5
BFA7
 10
738.810
 20
-110.492
 30
0.000000
  70
    32
  0
VERTEX
  8
01
  5
BFA8
 10
738.811
 20
-110.488
 30
0.000000
  70
    32
  0
VERTEX
  8
01
  5
BFA9
 10
738.812
 20
-110.484
 30
0.000000
  70
    32
  0
VERTEX
  8
01
  5
BFAA
 10
738.813
 20
-110.479
 30
0.000000
  70
    32
  0
VERTEX
  8
01
  5
BFAB
 10
738.814
 20
-110.475
 30
0.000000
  70
    32
  0
VERTEX
  8
01
  5
BFAC
 10
738.815
 20
-110.470
 30
0.000000
  70
    32
  0
VERTEX
  8
01
  5
BFAD
 10
738.816
 20
-110.466
 30
0.000000
  70
    32
  0
VERTEX
  8
01
  5
BFAE
 10
738.817
 20
-110.461
 30
0.000000
  70
    32
  0
VERTEX
  8
01
  5
BFAF
 10
738.818
 20
-110.456
 30
0.000000
  70
    32
  0
VERTEX
  8
01
  5
BFB0
 10
738.819
 20
-110.451
 30
0.000000
  70
    32
  0
VERTEX
  8
01
  5
BFB1
 10
738.820
 20
-110.446
 30
0.000000
  70
    32
  0
VERTEX
  8
01
  5
BFB2
 10
738.821
 20
-110.441
 30
0.000000
  70
    32
  0
VERTEX
  8
01
  5
BFB3
 10
738.822
 20
-110.435
 30
0.000000
  70
    32
  0
VERTEX
  8
01
  5
BFB4
 10
738.823
 20
-110.430
 30
0.000000
  70
    32
  0
VERTEX
  8
01
  5
BFB5
 10
738.824
 20
-110.425
 30
0.000000
  70
    32
  0
VERTEX
  8
01
  5
BFB6
 10
738.825
 20
-110.419
 30
0.000000
  70
    32
  0
VERTEX
  8
01
  5
BFB7
 10
738.825
 20
-110.413
 30
0.000000
  70
    32
  0
VERTEX
  8
01
  5
BFB8
 10
738.826
 20
-110.408
 30
0.000000
  70
    32
  0
VERTEX
  8
01
  5
BFB9
 10
738.827
 20
-110.402
 30
0.000000
  70
    32
  0
VERTEX
  8
01
  5
BFBA
 10
738.828
 20
-110.396
 30
0.000000
  70
    32
  0
VERTEX
  8
01
  5
BFBB
 10
738.829
 20
-110.390
 30
0.000000
  70
    32
  0
VERTEX
  8
01
  5
BFBC
 10
738.830
 20
-110.384
 30
0.000000
  70
    32
  0
VERTEX
  8
01
  5
BFBD
 10
738.831
 20
-110.378
 30
0.000000
  70
    32
  0
VERTEX
  8
01
  5
BFBE
 10
738.832
 20
-110.372
 30
0.000000
  70
    32
  0
VERTEX
  8
01
  5
BFBF
 10
738.833
 20
-110.365
 30
0.000000
  70
    32
  0
VERTEX
  8
01
  5
BFC0
 10
738.833
 20
-110.359
 30
0.000000
  70
    32
  0
VERTEX
  8
01
  5
BFC1
 10
738.834
 20
-110.353
 30
0.000000
  70
    32
  0
VERTEX
  8
01
  5
BFC2
 10
738.835
 20
-110.346
 30
0.000000
  70
    32
  0
VERTEX
  8
01
  5
BFC3
 10
738.836
 20
-110.339
 30
0.000000
  70
    32
  0
VERTEX
  8
01
  5
BFC4
 10
738.837
 20
-110.333
 30
0.000000
  70
    32
  0
VERTEX
  8
01
  5
BFC5
 10
738.837
 20
-110.326
 30
0.000000
  70
    32
  0
VERTEX
  8
01
  5
BFC6
 10
738.838
 20
-110.319
 30
0.000000
  70
    32
  0
VERTEX
  8
01
  5
BFC7
 10
738.839
 20
-110.312
 30
0.000000
  70
    32
  0
VERTEX
  8
01
  5
BFC8
 10
738.840
 20
-110.305
 30
0.000000
  70
    32
  0
VERTEX
  8
01
  5
BFC9
 10
738.840
 20
-110.298
 30
0.000000
  70
    32
  0
VERTEX
  8
01
  5
BFCA
 10
738.841
 20
-110.291
 30
0.000000
  70
    32
  0
VERTEX
  8
01
  5
BFCB
 10
738.842
 20
-110.284
 30
0.000000
  70
    32
  0
VERTEX
  8
01
  5
BFCC
 10
738.843
 20
-110.276
 30
0.000000
  70
    32
  0
VERTEX
  8
01
  5
BFCD
 10
738.843
 20
-110.269
 30
0.000000
  70
    32
  0
VERTEX
  8
01
  5
BFCE
 10
738.844
 20
-110.262
 30
0.000000
  70
    32
  0
VERTEX
  8
01
  5
BFCF
 10
738.845
 20
-110.254
 30
0.000000
  70
    32
  0
VERTEX
  8
01
  5
BFD0
 10
738.845
 20
-110.247
 30
0.000000
  70
    32
  0
VERTEX
  8
01
  5
BFD1
 10
738.846
 20
-110.239
 30
0.000000
  70
    32
  0
VERTEX
  8
01
  5
BFD2
 10
738.847
 20
-110.231
 30
0.000000
  70
    32
  0
VERTEX
  8
01
  5
BFD3
 10
738.847
 20
-110.223
 30
0.000000
  70
    32
  0
VERTEX
  8
01
  5
BFD4
 10
738.848
 20
-110.216
 30
0.000000
  70
    32
  0
VERTEX
  8
01
  5
BFD5
 10
738.849
 20
-110.208
 30
0.000000
  70
    32
  0
VERTEX
  8
01
  5
BFD6
 10
738.849
 20
-110.200
 30
0.000000
  70
    32
  0
VERTEX
  8
01
  5
BFD7
 10
738.850
 20
-110.192
 30
0.000000
  70
    32
  0
VERTEX
  8
01
  5
BFD8
 10
738.850
 20
-110.184
 30
0.000000
  70
    32
  0
VERTEX
  8
01
  5
BFD9
 10
738.851
 20
-110.176
 30
0.000000
  70
    32
  0
VERTEX
  8
01
  5
BFDA
 10
738.851
 20
-110.168
 30
0.000000
  70
    32
  0
VERTEX
  8
01
  5
BFDB
 10
738.852
 20
-110.159
 30
0.000000
  70
    32
  0
VERTEX
  8
01
  5
BFDC
 10
738.852
 20
-110.151
 30
0.000000
  70
    32
  0
VERTEX
  8
01
  5
BFDD
 10
738.853
 20
-110.143
 30
0.000000
  70
    32
  0
VERTEX
  8
01
  5
BFDE
 10
738.853
 20
-110.135
 30
0.000000
  70
    32
  0
VERTEX
  8
01
  5
BFDF
 10
738.854
 20
-110.126
 30
0.000000
  70
    32
  0
VERTEX
  8
01
  5
BFE0
 10
738.854
 20
-110.118
 30
0.000000
  70
    32
  0
VERTEX
  8
01
  5
BFE1
 10
738.855
 20
-110.109
 30
0.000000
  70
    32
  0
VERTEX
  8
01
  5
BFE2
 10
738.855
 20
-110.101
 30
0.000000
  70
    32
  0
VERTEX
  8
01
  5
BFE3
 10
738.856
 20
-110.092
 30
0.000000
  70
    32
  0
VERTEX
  8
01
  5
BFE4
 10
738.856
 20
-110.084
 30
0.000000
  70
    32
  0
VERTEX
  8
01
  5
BFE5
 10
738.857
 20
-110.075
 30
0.000000
  70
    32
  0
VERTEX
  8
01
  5
BFE6
 10
738.857
 20
-110.066
 30
0.000000
  70
    32
  0
VERTEX
  8
01
  5
BFE7
 10
738.857
 20
-110.057
 30
0.000000
  70
    32
  0
VERTEX
  8
01
  5
BFE8
 10
738.858
 20
-110.049
 30
0.000000
  70
    32
  0
VERTEX
  8
01
  5
BFE9
 10
738.858
 20
-110.040
 30
0.000000
  70
    32
  0
VERTEX
  8
01
  5
BFEA
 10
738.858
 20
-110.031
 30
0.000000
  70
    32
  0
VERTEX
  8
01
  5
BFEB
 10
738.859
 20
-110.022
 30
0.000000
  70
    32
  0
VERTEX
  8
01
  5
BFEC
 10
738.859
 20
-110.013
 30
0.000000
  70
    32
  0
VERTEX
  8
01
  5
BFED
 10
738.859
 20
-110.004
 30
0.000000
  70
    32
  0
VERTEX
  8
01
  5
BFEE
 10
738.860
 20
-109.996
 30
0.000000
  70
    32
  0
VERTEX
  8
01
  5
BFEF
 10
738.860
 20
-109.987
 30
0.000000
  70
    32
  0
VERTEX
  8
01
  5
BFF0
 10
738.860
 20
-109.978
 30
0.000000
  70
    32
  0
VERTEX
  8
01
  5
BFF1
 10
738.860
 20
-109.969
 30
0.000000
  70
    32
  0
VERTEX
  8
01
  5
BFF2
 10
738.861
 20
-109.960
 30
0.000000
  70
    32
  0
VERTEX
  8
01
  5
BFF3
 10
738.861
 20
-109.950
 30
0.000000
  70
    32
  0
VERTEX
  8
01
  5
BFF4
 10
738.861
 20
-109.941
 30
0.000000
  70
    32
  0
VERTEX
  8
01
  5
BFF5
 10
738.861
 20
-109.932
 30
0.000000
  70
    32
  0
VERTEX
  8
01
  5
BFF6
 10
738.861
 20
-109.923
 30
0.000000
  70
    32
  0
VERTEX
  8
01
  5
BFF7
 10
738.861
 20
-109.914
 30
0.000000
  70
    32
  0
VERTEX
  8
01
  5
BFF8
 10
738.862
 20
-109.905
 30
0.000000
  70
    32
  0
VERTEX
  8
01
  5
BFF9
 10
738.862
 20
-109.896
 30
0.000000
  70
    32
  0
VERTEX
  8
01
  5
BFFA
 10
738.862
 20
-109.887
 30
0.000000
  70
    32
  0
VERTEX
  8
01
  5
BFFB
 10
738.862
 20
-109.877
 30
0.000000
  70
    32
  0
VERTEX
  8
01
  5
BFFC
 10
738.862
 20
-109.868
 30
0.000000
  70
    32
  0
VERTEX
  8
01
  5
BFFD
 10
738.862
 20
-109.859
 30
0.000000
  70
    32
  0
VERTEX
  8
01
  5
BFFE
 10
738.862
 20
-109.850
 30
0.000000
  70
    32
  0
VERTEX
  8
01
  5
BFFF
 10
738.862
 20
-109.841
 30
0.000000
  70
    32
  0
VERTEX
  8
01
  5
C000
 10
738.862
 20
-109.831
 30
0.000000
  70
    32
  0
VERTEX
  8
01
  5
C001
 10
738.862
 20
-109.822
 30
0.000000
  70
    32
  0
SEQEND
  8
01
  5
C002
  0
ARC
  5
BCB3
  8
01
 10
703.96685295909299
 20
-116.7722400964726
 30
0.0
 40
0.8
 50
270.0000025044817
 51
0.0000050089536883
  0
ARC
  5
BCB4
  8
01
 10
711.56685295909301
 20
-116.772239764266
 30
0.0
 40
0.8
 50
180.00000500895359
 51
270.0000025044817
  0
LINE
  5
BCB5
  8
01
 10
710.67158835311875
 20
-92.572239803399384
 30
0.0
 11
704.7668508434632
 21
-92.572240061503692
 31
0.0
  0
LINE
  5
BCB6
  8
1CENTER
 10
707.7668534303715
 20
-122.1630405835333
 30
0.0
 11
707.76685070432836
 21
-90.980722803449396
 31
0.0
  0
LINE
  5
BCB7
  8
01
 10
710.76685295909294
 20
-116.7722398342041
 30
0.0
 11
710.76685241707219
 21
-110.57223979923521
 31
0.0
  0
LINE
  5
BCB8
  8
01
 10
704.76685295909294
 20
-116.7722400265344
 30
0.0
 11
704.7668508434632
 21
-92.572240061503692
 31
0.0
  0
LINE
  5
BCB9
  8
01
 10
710.67158986116056
 20
-109.82223980756331
 30
0.0
 11
710.67158835311875
 21
-92.572239803399384
 31
0.0
  0
POLYLINE
  5
BCBA
  8
01
 10
710.76685241707219
 20
-110.57223979923521
 30
0.0
 66
     1
 70
     8
  0
VERTEX
  8
01
  5
C003
 10
710.767
 20
-110.572
 30
0.000000
  70
    32
  0
VERTEX
  8
01
  5
C004
 10
710.766
 20
-110.572
 30
0.000000
  70
    32
  0
VERTEX
  8
01
  5
C005
 10
710.765
 20
-110.572
 30
0.000000
  70
    32
  0
VERTEX
  8
01
  5
C006
 10
710.763
 20
-110.572
 30
0.000000
  70
    32
  0
VERTEX
  8
01
  5
C007
 10
710.762
 20
-110.571
 30
0.000000
  70
    32
  0
VERTEX
  8
01
  5
C008
 10
710.761
 20
-110.571
 30
0.000000
  70
    32
  0
VERTEX
  8
01
  5
C009
 10
710.760
 20
-110.570
 30
0.000000
  70
    32
  0
VERTEX
  8
01
  5
C00A
 10
710.759
 20
-110.569
 30
0.000000
  70
    32
  0
VERTEX
  8
01
  5
C00B
 10
710.758
 20
-110.569
 30
0.000000
  70
    32
  0
VERTEX
  8
01
  5
C00C
 10
710.756
 20
-110.568
 30
0.000000
  70
    32
  0
VERTEX
  8
01
  5
C00D
 10
710.755
 20
-110.567
 30
0.000000
  70
    32
  0
VERTEX
  8
01
  5
C00E
 10
710.754
 20
-110.565
 30
0.000000
  70
    32
  0
VERTEX
  8
01
  5
C00F
 10
710.753
 20
-110.564
 30
0.000000
  70
    32
  0
VERTEX
  8
01
  5
C010
 10
710.752
 20
-110.563
 30
0.000000
  70
    32
  0
VERTEX
  8
01
  5
C011
 10
710.751
 20
-110.561
 30
0.000000
  70
    32
  0
VERTEX
  8
01
  5
C012
 10
710.749
 20
-110.560
 30
0.000000
  70
    32
  0
VERTEX
  8
01
  5
C013
 10
710.748
 20
-110.558
 30
0.000000
  70
    32
  0
VERTEX
  8
01
  5
C014
 10
710.747
 20
-110.556
 30
0.000000
  70
    32
  0
VERTEX
  8
01
  5
C015
 10
710.746
 20
-110.554
 30
0.000000
  70
    32
  0
VERTEX
  8
01
  5
C016
 10
710.745
 20
-110.552
 30
0.000000
  70
    32
  0
VERTEX
  8
01
  5
C017
 10
710.744
 20
-110.550
 30
0.000000
  70
    32
  0
VERTEX
  8
01
  5
C018
 10
710.743
 20
-110.547
 30
0.000000
  70
    32
  0
VERTEX
  8
01
  5
C019
 10
710.741
 20
-110.545
 30
0.000000
  70
    32
  0
VERTEX
  8
01
  5
C01A
 10
710.740
 20
-110.543
 30
0.000000
  70
    32
  0
VERTEX
  8
01
  5
C01B
 10
710.739
 20
-110.540
 30
0.000000
  70
    32
  0
VERTEX
  8
01
  5
C01C
 10
710.738
 20
-110.537
 30
0.000000
  70
    32
  0
VERTEX
  8
01
  5
C01D
 10
710.737
 20
-110.534
 30
0.000000
  70
    32
  0
VERTEX
  8
01
  5
C01E
 10
710.736
 20
-110.531
 30
0.000000
  70
    32
  0
VERTEX
  8
01
  5
C01F
 10
710.735
 20
-110.528
 30
0.000000
  70
    32
  0
VERTEX
  8
01
  5
C020
 10
710.734
 20
-110.525
 30
0.000000
  70
    32
  0
VERTEX
  8
01
  5
C021
 10
710.733
 20
-110.522
 30
0.000000
  70
    32
  0
VERTEX
  8
01
  5
C022
 10
710.731
 20
-110.519
 30
0.000000
  70
    32
  0
VERTEX
  8
01
  5
C023
 10
710.730
 20
-110.515
 30
0.000000
  70
    32
  0
VERTEX
  8
01
  5
C024
 10
710.729
 20
-110.512
 30
0.000000
  70
    32
  0
VERTEX
  8
01
  5
C025
 10
710.728
 20
-110.508
 30
0.000000
  70
    32
  0
VERTEX
  8
01
  5
C026
 10
710.727
 20
-110.504
 30
0.000000
  70
    32
  0
VERTEX
  8
01
  5
C027
 10
710.726
 20
-110.500
 30
0.000000
  70
    32
  0
VERTEX
  8
01
  5
C028
 10
710.725
 20
-110.496
 30
0.000000
  70
    32
  0
VERTEX
  8
01
  5
C029
 10
710.724
 20
-110.492
 30
0.000000
  70
    32
  0
VERTEX
  8
01
  5
C02A
 10
710.723
 20
-110.488
 30
0.000000
  70
    32
  0
VERTEX
  8
01
  5
C02B
 10
710.722
 20
-110.484
 30
0.000000
  70
    32
  0
VERTEX
  8
01
  5
C02C
 10
710.721
 20
-110.479
 30
0.000000
  70
    32
  0
VERTEX
  8
01
  5
C02D
 10
710.720
 20
-110.475
 30
0.000000
  70
    32
  0
VERTEX
  8
01
  5
C02E
 10
710.719
 20
-110.470
 30
0.000000
  70
    32
  0
VERTEX
  8
01
  5
C02F
 10
710.718
 20
-110.466
 30
0.000000
  70
    32
  0
VERTEX
  8
01
  5
C030
 10
710.717
 20
-110.461
 30
0.000000
  70
    32
  0
VERTEX
  8
01
  5
C031
 10
710.716
 20
-110.456
 30
0.000000
  70
    32
  0
VERTEX
  8
01
  5
C032
 10
710.715
 20
-110.451
 30
0.000000
  70
    32
  0
VERTEX
  8
01
  5
C033
 10
710.714
 20
-110.446
 30
0.000000
  70
    32
  0
VERTEX
  8
01
  5
C034
 10
710.713
 20
-110.441
 30
0.000000
  70
    32
  0
VERTEX
  8
01
  5
C035
 10
710.712
 20
-110.435
 30
0.000000
  70
    32
  0
VERTEX
  8
01
  5
C036
 10
710.711
 20
-110.430
 30
0.000000
  70
    32
  0
VERTEX
  8
01
  5
C037
 10
710.710
 20
-110.425
 30
0.000000
  70
    32
  0
VERTEX
  8
01
  5
C038
 10
710.709
 20
-110.419
 30
0.000000
  70
    32
  0
VERTEX
  8
01
  5
C039
 10
710.708
 20
-110.413
 30
0.000000
  70
    32
  0
VERTEX
  8
01
  5
C03A
 10
710.707
 20
-110.408
 30
0.000000
  70
    32
  0
VERTEX
  8
01
  5
C03B
 10
710.706
 20
-110.402
 30
0.000000
  70
    32
  0
VERTEX
  8
01
  5
C03C
 10
710.706
 20
-110.396
 30
0.000000
  70
    32
  0
VERTEX
  8
01
  5
C03D
 10
710.705
 20
-110.390
 30
0.000000
  70
    32
  0
VERTEX
  8
01
  5
C03E
 10
710.704
 20
-110.384
 30
0.000000
  70
    32
  0
VERTEX
  8
01
  5
C03F
 10
710.703
 20
-110.378
 30
0.000000
  70
    32
  0
VERTEX
  8
01
  5
C040
 10
710.702
 20
-110.372
 30
0.000000
  70
    32
  0
VERTEX
  8
01
  5
C041
 10
710.701
 20
-110.365
 30
0.000000
  70
    32
  0
VERTEX
  8
01
  5
C042
 10
710.700
 20
-110.359
 30
0.000000
  70
    32
  0
VERTEX
  8
01
  5
C043
 10
710.699
 20
-110.353
 30
0.000000
  70
    32
  0
VERTEX
  8
01
  5
C044
 10
710.699
 20
-110.346
 30
0.000000
  70
    32
  0
VERTEX
  8
01
  5
C045
 10
710.698
 20
-110.339
 30
0.000000
  70
    32
  0
VERTEX
  8
01
  5
C046
 10
710.697
 20
-110.333
 30
0.000000
  70
    32
  0
VERTEX
  8
01
  5
C047
 10
710.696
 20
-110.326
 30
0.000000
  70
    32
  0
VERTEX
  8
01
  5
C048
 10
710.695
 20
-110.319
 30
0.000000
  70
    32
  0
VERTEX
  8
01
  5
C049
 10
710.695
 20
-110.312
 30
0.000000
  70
    32
  0
VERTEX
  8
01
  5
C04A
 10
710.694
 20
-110.305
 30
0.000000
  70
    32
  0
VERTEX
  8
01
  5
C04B
 10
710.693
 20
-110.298
 30
0.000000
  70
    32
  0
VERTEX
  8
01
  5
C04C
 10
710.692
 20
-110.291
 30
0.000000
  70
    32
  0
VERTEX
  8
01
  5
C04D
 10
710.692
 20
-110.284
 30
0.000000
  70
    32
  0
VERTEX
  8
01
  5
C04E
 10
710.691
 20
-110.276
 30
0.000000
  70
    32
  0
VERTEX
  8
01
  5
C04F
 10
710.690
 20
-110.269
 30
0.000000
  70
    32
  0
VERTEX
  8
01
  5
C050
 10
710.690
 20
-110.262
 30
0.000000
  70
    32
  0
VERTEX
  8
01
  5
C051
 10
710.689
 20
-110.254
 30
0.000000
  70
    32
  0
VERTEX
  8
01
  5
C052
 10
710.688
 20
-110.247
 30
0.000000
  70
    32
  0
VERTEX
  8
01
  5
C053
 10
710.688
 20
-110.239
 30
0.000000
  70
    32
  0
VERTEX
  8
01
  5
C054
 10
710.687
 20
-110.231
 30
0.000000
  70
    32
  0
VERTEX
  8
01
  5
C055
 10
710.686
 20
-110.223
 30
0.000000
  70
    32
  0
VERTEX
  8
01
  5
C056
 10
710.686
 20
-110.216
 30
0.000000
  70
    32
  0
VERTEX
  8
01
  5
C057
 10
710.685
 20
-110.208
 30
0.000000
  70
    32
  0
VERTEX
  8
01
  5
C058
 10
710.685
 20
-110.200
 30
0.000000
  70
    32
  0
VERTEX
  8
01
  5
C059
 10
710.684
 20
-110.192
 30
0.000000
  70
    32
  0
VERTEX
  8
01
  5
C05A
 10
710.683
 20
-110.184
 30
0.000000
  70
    32
  0
VERTEX
  8
01
  5
C05B
 10
710.683
 20
-110.176
 30
0.000000
  70
    32
  0
VERTEX
  8
01
  5
C05C
 10
710.682
 20
-110.168
 30
0.000000
  70
    32
  0
VERTEX
  8
01
  5
C05D
 10
710.682
 20
-110.159
 30
0.000000
  70
    32
  0
VERTEX
  8
01
  5
C05E
 10
710.681
 20
-110.151
 30
0.000000
  70
    32
  0
VERTEX
  8
01
  5
C05F
 10
710.681
 20
-110.143
 30
0.000000
  70
    32
  0
VERTEX
  8
01
  5
C060
 10
710.680
 20
-110.135
 30
0.000000
  70
    32
  0
VERTEX
  8
01
  5
C061
 10
710.680
 20
-110.126
 30
0.000000
  70
    32
  0
VERTEX
  8
01
  5
C062
 10
710.679
 20
-110.118
 30
0.000000
  70
    32
  0
VERTEX
  8
01
  5
C063
 10
710.679
 20
-110.109
 30
0.000000
  70
    32
  0
VERTEX
  8
01
  5
C064
 10
710.678
 20
-110.101
 30
0.000000
  70
    32
  0
VERTEX
  8
01
  5
C065
 10
710.678
 20
-110.092
 30
0.000000
  70
    32
  0
VERTEX
  8
01
  5
C066
 10
710.678
 20
-110.084
 30
0.000000
  70
    32
  0
VERTEX
  8
01
  5
C067
 10
710.677
 20
-110.075
 30
0.000000
  70
    32
  0
VERTEX
  8
01
  5
C068
 10
710.677
 20
-110.066
 30
0.000000
  70
    32
  0
VERTEX
  8
01
  5
C069
 10
710.676
 20
-110.058
 30
0.000000
  70
    32
  0
VERTEX
  8
01
  5
C06A
 10
710.676
 20
-110.049
 30
0.000000
  70
    32
  0
VERTEX
  8
01
  5
C06B
 10
710.676
 20
-110.040
 30
0.000000
  70
    32
  0
VERTEX
  8
01
  5
C06C
 10
710.675
 20
-110.031
 30
0.000000
  70
    32
  0
VERTEX
  8
01
  5
C06D
 10
710.675
 20
-110.022
 30
0.000000
  70
    32
  0
VERTEX
  8
01
  5
C06E
 10
710.675
 20
-110.013
 30
0.000000
  70
    32
  0
VERTEX
  8
01
  5
C06F
 10
710.674
 20
-110.004
 30
0.000000
  70
    32
  0
VERTEX
  8
01
  5
C070
 10
710.674
 20
-109.996
 30
0.000000
  70
    32
  0
VERTEX
  8
01
  5
C071
 10
710.674
 20
-109.987
 30
0.000000
  70
    32
  0
VERTEX
  8
01
  5
C072
 10
710.674
 20
-109.978
 30
0.000000
  70
    32
  0
VERTEX
  8
01
  5
C073
 10
710.673
 20
-109.969
 30
0.000000
  70
    32
  0
VERTEX
  8
01
  5
C074
 10
710.673
 20
-109.960
 30
0.000000
  70
    32
  0
VERTEX
  8
01
  5
C075
 10
710.673
 20
-109.950
 30
0.000000
  70
    32
  0
VERTEX
  8
01
  5
C076
 10
710.673
 20
-109.941
 30
0.000000
  70
    32
  0
VERTEX
  8
01
  5
C077
 10
710.673
 20
-109.932
 30
0.000000
  70
    32
  0
VERTEX
  8
01
  5
C078
 10
710.672
 20
-109.923
 30
0.000000
  70
    32
  0
VERTEX
  8
01
  5
C079
 10
710.672
 20
-109.914
 30
0.000000
  70
    32
  0
VERTEX
  8
01
  5
C07A
 10
710.672
 20
-109.905
 30
0.000000
  70
    32
  0
VERTEX
  8
01
  5
C07B
 10
710.672
 20
-109.896
 30
0.000000
  70
    32
  0
VERTEX
  8
01
  5
C07C
 10
710.672
 20
-109.887
 30
0.000000
  70
    32
  0
VERTEX
  8
01
  5
C07D
 10
710.672
 20
-109.877
 30
0.000000
  70
    32
  0
VERTEX
  8
01
  5
C07E
 10
710.672
 20
-109.868
 30
0.000000
  70
    32
  0
VERTEX
  8
01
  5
C07F
 10
710.672
 20
-109.859
 30
0.000000
  70
    32
  0
VERTEX
  8
01
  5
C080
 10
710.672
 20
-109.850
 30
0.000000
  70
    32
  0
VERTEX
  8
01
  5
C081
 10
710.672
 20
-109.841
 30
0.000000
  70
    32
  0
VERTEX
  8
01
  5
C082
 10
710.672
 20
-109.831
 30
0.000000
  70
    32
  0
VERTEX
  8
01
  5
C083
 10
710.672
 20
-109.822
 30
0.000000
  70
    32
  0
SEQEND
  8
01
  5
C084
  0
LINE
  5
BCBB
  8
01
 10
697.26685302903013
 20
-117.5722391872776
 30
0.0
 11
752.26685302903218
 21
-117.572239187273
 31
0.0
  0
LINE
  5
BCBC
  8
01
 10
752.26685302903218
 20
-117.572239187273
 30
0.0
 11
754.26685302903263
 21
-117.572239187273
 31
0.0
  0
LINE
  5
BCBD
  8
01
 10
754.26685302903263
 20
-117.572239187273
 30
0.0
 11
754.26685302903275
 21
-121.1047327793042
 31
0.0
  0
ARC
  5
BCBE
  8
01
 10
753.76685302903263
 20
-121.1047327793042
 30
0.0
 40
0.5
 50
303.7052957882907
 51
0.0
  0
LINE
  5
BCBF
  8
01
 10
750.54774996522519
 20
-125.5055858424292
 30
0.0
 11
750.7524308216872
 21
-124.5620000586075
 31
0.0
  0
LINE
  5
BCC0
  8
01
 10
697.26685302903013
 20
-117.572239187273
 30
0.0
 11
697.26685302903024
 21
-121.11444283798239
 31
0.0
  0
LINE
  5
BCC1
  8
01
 10
716.26685302903672
 20
-126.372239187275
 30
0.0
 11
735.26685302902615
 21
-126.3722391872696
 31
0.0
  0
LINE
  5
BCC2
  8
01
 10
751.80830815605384
 20
-123.0122131279671
 30
0.0
 11
754.04431368989128
 21
-121.52068419675101
 31
0.0
  0
ARC
  5
BCC3
  8
01
 10
753.19561146034664
 20
-125.0919702152007
 30
0.0
 40
2.5
 50
123.705295788293
 51
167.76111671169619
  0
ARC
  5
BCC4
  8
01
 10
697.76685302903024
 20
-121.11444283798239
 30
0.0
 40
0.5
 50
180.0
 51
236.4200165479659
  0
ARC
  5
BCC5
  8
01
 10
736.29621648264413
 20
73.625111822383246
 30
0.0
 40
200.0
 50
269.70510779067058
 51
273.9558032993304
  0
ARC
  5
BCC6
  8
01
 10
750.05911383749356
 20
-125.3995918111102
 30
0.0
 40
0.5
 50
273.9558032993304
 51
347.76111671164131
  0
ARC
  5
BCC7
  8
01
 10
715.23748957541477
 20
73.625111822383303
 30
0.0
 40
200.0
 50
266.0441967006696
 51
270.29489220934238
  0
LINE
  5
BCC8
  8
01
 10
716.51685351188496
 20
-126.6722403347015
 30
0.0
 11
735.01685351188473
 21
-126.6722395260406
 31
0.0
  0
LINE
  5
BCC9
  8
01
 10
716.51685351188496
 20
-126.6722403347015
 30
0.0
 11
716.51685349877141
 21
-126.372239187275
 31
0.0
  0
LINE
  5
BCCA
  8
01
 10
735.01685351188473
 20
-126.6722395260406
 30
0.0
 11
735.01685349877107
 21
-126.3722391872696
 31
0.0
  0
LINE
  5
BCCB
  8
01
 10
754.18927500016525
 20
-121.372239187273
 30
0.0
 11
697.33843612659496
 21
-121.372239187273
 31
0.0
  0
LINE
  5
BCCC
  8
01
 10
751.2095934907527
 20
-123.57350631228771
 30
0.0
 11
700.34070673403664
 21
-123.57350631228771
 31
0.0
  0
LINE
  5
BCCD
  8
01
 10
750.22222256750729
 20
-125.8722391872728
 30
0.0
 11
701.31148349055172
 21
-125.8722391872728
 31
0.0
  0
ARC
  5
BCCE
  8
01
 10
701.47458403748567
 20
-125.3995918111102
 30
0.0
 40
0.5
 50
192.23888328835869
 51
266.0441967006696
  0
LINE
  5
BCCF
  8
01
 10
699.72538971892538
 20
-123.0122131279671
 30
0.0
 11
697.48938418508794
 21
-121.52068419675101
 31
0.0
  0
ARC
  5
BCD0
  8
01
 10
698.33808641463258
 20
-125.0919702152007
 30
0.0
 40
2.5
 50
12.238883288303761
 51
56.29470421170695
  0
LINE
  5
BCD1
  8
01
 10
700.98594790975392
 20
-125.5055858424292
 30
0.0
 11
700.78126705329203
 21
-124.5620000586075
 31
0.0
  0
LINE
  5
BCEF
  8
01
 10
512.30571445135263
 20
-109.90901620828789
 30
0.0
 11
512.30571445135263
 21
-113.441509800319
 31
0.0
  0
ARC
  5
BCF0
  8
01
 10
512.80571445135263
 20
-113.441509800319
 30
0.0
 40
0.5
 50
180.0
 51
236.29470421171749
  0
LINE
  5
BCF1
  8
01
 10
516.02481751515995
 20
-117.842362863444
 30
0.0
 11
515.82013665869795
 21
-116.89877707962241
 31
0.0
  0
LINE
  5
BCF2
  8
01
 10
569.30571445135513
 20
-109.90901620828789
 30
0.0
 11
569.3057144513549
 21
-113.45121985899721
 31
0.0
  0
LINE
  5
BCF3
  8
01
 10
550.30571445134854
 20
-118.7090162082899
 30
0.0
 11
531.30571445135899
 21
-118.7090162082844
 31
0.0
  0
LINE
  5
BCF4
  8
01
 10
514.76425932433142
 20
-115.3489901489819
 30
0.0
 11
512.52825379049386
 21
-113.8574612177658
 31
0.0
  0
ARC
  5
BCF5
  8
01
 10
513.37695602003862
 20
-117.4287472362156
 30
0.0
 40
2.5
 50
12.23888328830542
 51
56.294704211707142
  0
ARC
  5
BCF6
  8
01
 10
568.8057144513549
 20
-113.45121985899721
 30
0.0
 40
0.5
 50
303.57998345203288
 51
0.0
  0
ARC
  5
BCF7
  8
01
 10
530.27635099774113
 20
81.288334801368464
 30
0.0
 40
200.0
 50
266.0441967006696
 51
270.29489220932942
  0
ARC
  5
BCF8
  8
01
 10
516.5134536428917
 20
-117.73636883212509
 30
0.0
 40
0.5
 50
192.23888328835869
 51
266.0441967006696
  0
ARC
  5
BCF9
  8
01
 10
551.33507790497038
 20
81.288334801368464
 30
0.0
 40
200.0
 50
269.70510779065762
 51
273.9558032993304
  0
LINE
  5
BCFA
  8
01
 10
550.05571396850019
 20
-119.0090173557163
 30
0.0
 11
531.55571396850064
 21
-119.0090165470554
 31
0.0
  0
LINE
  5
BCFB
  8
01
 10
550.05571396850019
 20
-119.0090173557163
 30
0.0
 11
550.05571398161385
 21
-118.7090162082899
 31
0.0
  0
LINE
  5
BCFC
  8
01
 10
531.55571396850064
 20
-119.0090165470554
 30
0.0
 11
531.55571398161396
 21
-118.7090162082844
 31
0.0
  0
LINE
  5
BCFD
  8
01
 10
512.38329248021989
 20
-113.70901620828781
 30
0.0
 11
569.2341313537903
 21
-113.70901620828781
 31
0.0
  0
LINE
  5
BCFE
  8
01
 10
515.36297398963256
 20
-115.9102833333025
 30
0.0
 11
566.23186074634873
 21
-115.9102833333025
 31
0.0
  0
LINE
  5
BCFF
  8
01
 10
516.35034491287786
 20
-118.20901620828759
 30
0.0
 11
565.26108398983365
 21
-118.20901620828759
 31
0.0
  0
ARC
  5
BD00
  8
01
 10
565.0979834428997
 20
-117.73636883212509
 30
0.0
 40
0.5
 50
273.9558032993304
 51
347.76111671164131
  0
LINE
  5
BD01
  8
01
 10
566.84717776145988
 20
-115.3489901489819
 30
0.0
 11
569.08318329529743
 21
-113.8574612177658
 31
0.0
  0
ARC
  5
BD02
  8
01
 10
568.23448106575279
 20
-117.4287472362156
 30
0.0
 40
2.5
 50
123.7052957882928
 51
167.7611167116946
  0
LINE
  5
BD03
  8
01
 10
565.58661957063146
 20
-117.842362863444
 30
0.0
 11
565.79130042709335
 21
-116.89877707962241
 31
0.0
  0
LINE
  5
BD04
  8
01
 10
512.30571445135263
 20
-109.90901620828789
 30
0.0
 11
569.30571445135513
 21
-109.90901620828789
 31
0.0
  0
LINE
  5
BD05
  8
1CENTER
 10
540.80571396850053
 20
-107.2086819990336
 30
0.0
 11
540.80571396850053
 21
-121.60660464894551
 31
0.0
  0
LINE
  5
BF02
  8
1HATCH
 10
799.76873992460003
 20
-186.70653172073239
 30
0.0
 11
772.41876261181562
 21
-186.70673973598511
 31
0.0
  0
LINE
  5
BF03
  8
1HATCH
 10
799.76871851808687
 20
-183.40653172078871
 30
0.0
 11
772.41870676863618
 21
-183.4067397363618
 31
0.0
  0
LINE
  5
BF04
  8
1CENTER
 10
801.73021438070589
 20
-185.0565134648659
 30
0.0
 11
767.82897797882697
 21
-185.05678245386341
 31
0.0
  0
LINE
  5
BF05
  8
1HATCH
 10
799.41871526058435
 20
-183.05653439031809
 30
0.0
 11
799.41874318212308
 21
-187.05653439023089
 31
0.0
  0
LINE
  5
BF06
  8
01
 10
770.06870130071275
 20
-181.05676160818291
 30
0.0
 11
770.06875714379032
 21
-189.05676160800971
 31
0.0
  0
LINE
  5
BF07
  8
1HATCH
 10
772.41876261181562
 20
-186.70673973598511
 30
0.0
 11
772.06876179742892
 21
-187.0567429935206
 31
0.0
  0
LINE
  5
BF08
  8
1HATCH
 10
772.41870676863618
 20
-183.4067397363618
 30
0.0
 11
772.0687059542646
 21
-183.05674299386709
 31
0.0
  0
LINE
  5
BF0A
  8
1HATCH
 10
799.76873992460003
 20
-174.25517738880791
 30
0.0
 11
772.41876261181562
 21
-174.25538540406069
 31
0.0
  0
LINE
  5
BF0B
  8
1HATCH
 10
799.76871851808687
 20
-170.95517738886431
 30
0.0
 11
772.41870676863618
 21
-170.95538540443729
 31
0.0
  0
LINE
  5
BF0C
  8
1CENTER
 10
801.73021438070589
 20
-172.6051591329414
 30
0.0
 11
767.82897797882697
 21
-172.60542812193901
 31
0.0
  0
LINE
  5
BF0D
  8
1HATCH
 10
799.41871526058435
 20
-170.60518005839359
 30
0.0
 11
799.41874318212308
 21
-174.6051800583065
 31
0.0
  0
LINE
  5
BF0E
  8
01
 10
770.06870130071275
 20
-168.6054072762584
 30
0.0
 11
770.06875714379032
 21
-176.60540727608529
 31
0.0
  0
LINE
  5
BF0F
  8
1HATCH
 10
772.41876261181562
 20
-174.25538540406069
 30
0.0
 11
772.06876179742892
 21
-174.60538866159621
 31
0.0
  0
LINE
  5
BF10
  8
1HATCH
 10
772.41870676863618
 20
-170.95538540443729
 30
0.0
 11
772.0687059542646
 21
-170.6053886619427
 31
0.0
  0
LINE
  5
BF11
  8
01
 10
799.41874318212308
 20
-174.6051800583065
 30
0.0
 11
772.06876179742892
 21
-174.60538866159621
 31
0.0
  0
LINE
  5
BF12
  8
01
 10
799.76874073897829
 20
-174.2551773888012
 30
0.0
 11
799.41874318212308
 21
-174.6051800583065
 31
0.0
  0
LINE
  5
BF13
  8
01
 10
770.06875714379032
 20
-176.60540727608529
 30
0.0
 11
772.06876179742892
 21
-174.60538866159621
 31
0.0
  0
LINE
  5
BF14
  8
01
 10
799.76871770370883
 20
-170.95517738887091
 30
0.0
 11
799.76874073897829
 21
-174.2551773888012
 31
0.0
  0
LINE
  5
BF15
  8
01
 10
770.06875714379032
 20
-176.60540727608529
 30
0.0
 11
769.76875714380253
 21
-176.60541006823911
 31
0.0
  0
LINE
  5
BF16
  8
01
 10
799.76871770370883
 20
-170.95517738887091
 30
0.0
 11
799.41871526058435
 21
-170.60518005839359
 31
0.0
  0
LINE
  5
BF17
  8
01
 10
769.76870130072496
 20
-168.60541006841231
 30
0.0
 11
769.76875714380253
 21
-176.60541006823911
 31
0.0
  0
LINE
  5
BF18
  8
01
 10
799.41871526058435
 20
-170.60518005839359
 30
0.0
 11
772.0687059542646
 21
-170.6053886619427
 31
0.0
  0
LINE
  5
BF19
  8
01
 10
770.06870130071275
 20
-168.6054072762584
 30
0.0
 11
769.76870130072496
 21
-168.60541006841231
 31
0.0
  0
LINE
  5
BF1A
  8
01
 10
770.06870130071275
 20
-168.6054072762584
 30
0.0
 11
772.0687059542646
 21
-170.6053886619427
 31
0.0
  0
LINE
  5
BF1B
  8
01
 10
799.41874318212308
 20
-187.05653439023089
 30
0.0
 11
772.06876179742892
 21
-187.0567429935206
 31
0.0
  0
LINE
  5
BF1C
  8
01
 10
799.76874073897829
 20
-186.70653172072571
 30
0.0
 11
799.41874318212308
 21
-187.05653439023089
 31
0.0
  0
LINE
  5
BF1D
  8
01
 10
770.06875714379032
 20
-189.05676160800971
 30
0.0
 11
772.06876179742892
 21
-187.0567429935206
 31
0.0
  0
LINE
  5
BF1E
  8
01
 10
799.76871770370883
 20
-183.4065317207953
 30
0.0
 11
799.76874073897829
 21
-186.70653172072571
 31
0.0
  0
LINE
  5
BF1F
  8
01
 10
770.06875714379032
 20
-189.05676160800971
 30
0.0
 11
769.76875714380253
 21
-189.05676440016359
 31
0.0
  0
LINE
  5
BF20
  8
01
 10
799.76871770370883
 20
-183.4065317207953
 30
0.0
 11
799.41871526058435
 21
-183.05653439031809
 31
0.0
  0
LINE
  5
BF21
  8
01
 10
769.76870130072496
 20
-181.0567644003367
 30
0.0
 11
769.76875714380253
 21
-189.05676440016359
 31
0.0
  0
LINE
  5
BF22
  8
01
 10
799.41871526058435
 20
-183.05653439031809
 30
0.0
 11
772.0687059542646
 21
-183.05674299386709
 31
0.0
  0
LINE
  5
BF23
  8
01
 10
770.06870130071275
 20
-181.05676160818291
 30
0.0
 11
769.76870130072496
 21
-181.0567644003367
 31
0.0
  0
LINE
  5
BF24
  8
01
 10
770.06870130071275
 20
-181.05676160818291
 30
0.0
 11
772.0687059542646
 21
-183.05674299386709
 31
0.0
  0
LINE
  5
BF25
  8
1DIM
 10
606.98119266687945
 20
-175.63448577097751
 30
0.0
 11
606.98119266687945
 21
-145.64907198127861
 31
0.0
  0
LINE
  5
BF26
  8
1DIM
 10
615.781192666876
 20
-156.384486240716
 30
0.0
 11
615.781192666876
 21
-145.64907198127861
 31
0.0
  0
LINE
  5
BF27
  8
1DIM
 10
608.98119266687945
 20
-146.64907198127869
 30
0.0
 11
613.78119266687611
 21
-146.64907198127869
 31
0.0
  0
LINE
  5
BF2B
  8
1DIM
 10
769.76870130072496
 20
-168.60541006841231
 30
0.0
 11
769.76870130072496
 21
-155.627100692493
 31
0.0
  0
LINE
  5
BF2C
  8
1DIM
 10
799.76871851808687
 20
-170.95517738886431
 30
0.0
 11
799.76871851808687
 21
-155.627100692493
 31
0.0
  0
LINE
  5
BF2D
  8
1DIM
 10
771.76870130072496
 20
-156.627100692493
 30
0.0
 11
797.76871851808698
 21
-156.627100692493
 31
0.0
  0
TEXT
  5
BF31
  8
1DIM
 10
622.52101371065646
 20
-166.55738135402439
 30
0.0
 40
3.5
  1
材質：POM
  0
SOLID
  5
BF32
  8
1DIM
 10
649.7354560889172
 20
-182.20491004796051
 30
0.0
 11
649.70274501556412
 21
-184.2322336769825
 31
0.0
 12
649.07617755662056
 22
-182.30388611222551
 32
0.0
 13
649.07617755662056
 23
-182.30388611222551
 33
0.0
  0
TEXT
  5
BF34
  8
1TEXT
 10
569.61477216354103
 20
-152.8486441268941
 30
0.0
 40
3.5
  1
材質：真鍮
  0
SOLID
  5
BF35
  8
1DIM
 10
559.2623622623197
 20
-170.5964722915939
 30
0.0
 11
558.10929922240882
 21
-172.2642722607456
 31
0.0
 12
558.65912643232946
 22
-170.31265724995529
 32
0.0
 13
558.65912643232946
 23
-170.31265724995529
 33
0.0
  0
LINE
  5
BF37
  8
1DIM
 10
512.30571854290645
 20
-184.88449033226101
 30
0.0
 11
512.30571854290645
 21
-145.64907198127861
 31
0.0
  0
LINE
  5
BF38
  8
1DIM
 10
569.30571854288496
 20
-184.88449033224589
 30
0.0
 11
569.30571854288496
 21
-145.64907198127861
 31
0.0
  0
LINE
  5
BF39
  8
1DIM
 10
514.30571854290645
 20
-146.64907198127869
 30
0.0
 11
567.30571854288496
 21
-146.64907198127869
 31
0.0
  0
TEXT
  5
BF3D
  8
1DIM
 10
535.43905187622909
 20
-145.94907198127871
 30
0.0
 40
3.5
  1
φ57
  0
LINE
  5
BF3E
  8
0
  6
BYBLOCK
 10
567.30571854288496
 20
-146.11317360127859
 30
0.0
 11
569.30571854288496
 21
-146.64907198127869
 31
0.0
  0
LINE
  5
BF3F
  8
0
  6
BYBLOCK
 10
569.30571854288496
 20
-146.64907198127869
 30
0.0
 11
567.30571854288496
 21
-147.1849703612786
 31
0.0
  0
LINE
  5
BF40
  8
0
  6
BYBLOCK
 10
569.30571854288496
 20
-146.64907198127869
 30
0.0
 11
567.30571854288496
 21
-146.64907198127869
 31
0.0
  0
LINE
  5
BF41
  8
0
  6
BYBLOCK
 10
514.30571854290645
 20
-147.1849703612786
 30
0.0
 11
512.30571854290645
 21
-146.64907198127869
 31
0.0
  0
LINE
  5
BF42
  8
0
  6
BYBLOCK
 10
512.30571854290645
 20
-146.64907198127869
 30
0.0
 11
514.30571854290645
 21
-146.11317360127859
 31
0.0
  0
LINE
  5
BF43
  8
0
  6
BYBLOCK
 10
512.30571854290645
 20
-146.64907198127869
 30
0.0
 11
514.30571854290645
 21
-146.64907198127869
 31
0.0
  0
LINE
  5
BF44
  8
1DIM
 10
558.96074434732452
 20
-170.4545647707746
 30
0.0
 11
566.91477216354087
 21
-153.54864412689409
 31
0.0
  0
LINE
  5
BF45
  8
1DIM
 10
566.91477216354087
 20
-153.54864412689409
 30
0.0
 11
589.68143883020764
 21
-153.54864412689409
 31
0.0
  0
LINE
  5
BF46
  8
1DIM
 10
649.405816822769
 20
-182.25439808009301
 30
0.0
 11
647.1543470439899
 21
-167.2573813540244
 31
0.0
  0
LINE
  5
BF47
  8
1DIM
 10
647.1543470439899
 20
-167.2573813540244
 30
0.0
 11
621.35434704398995
 21
-167.2573813540244
 31
0.0
  0
TEXT
  5
BF48
  8
1DIM
 10
782.14370990940586
 20
-155.92710069249301
 30
0.0
 40
3.5
  1
30
  0
LINE
  5
BF49
  8
0
  6
BYBLOCK
 10
797.76871851808698
 20
-156.09120231249301
 30
0.0
 11
799.76871851808687
 21
-156.627100692493
 31
0.0
  0
LINE
  5
BF4A
  8
0
  6
BYBLOCK
 10
799.76871851808687
 20
-156.627100692493
 30
0.0
 11
797.76871851808698
 21
-157.16299907249299
 31
0.0
  0
LINE
  5
BF4B
  8
0
  6
BYBLOCK
 10
799.76871851808687
 20
-156.627100692493
 30
0.0
 11
797.76871851808698
 21
-156.627100692493
 31
0.0
  0
LINE
  5
BF4C
  8
0
  6
BYBLOCK
 10
771.76870130072496
 20
-157.16299907249299
 30
0.0
 11
769.76870130072496
 21
-156.627100692493
 31
0.0
  0
LINE
  5
BF4D
  8
0
  6
BYBLOCK
 10
769.76870130072496
 20
-156.627100692493
 30
0.0
 11
771.76870130072496
 21
-156.09120231249301
 31
0.0
  0
LINE
  5
BF4E
  8
0
  6
BYBLOCK
 10
769.76870130072496
 20
-156.627100692493
 30
0.0
 11
771.76870130072496
 21
-156.627100692493
 31
0.0
  0
TEXT
  5
BF4F
  8
1DIM
 10
607.88119266687772
 20
-145.94907198127871
 30
0.0
 40
3.5
  1
8.8
  0
LINE
  5
BF50
  8
0
  6
BYBLOCK
 10
613.78119266687611
 20
-146.11317360127859
 30
0.0
 11
615.781192666876
 21
-146.64907198127869
 31
0.0
  0
LINE
  5
BF51
  8
0
  6
BYBLOCK
 10
615.781192666876
 20
-146.64907198127869
 30
0.0
 11
613.78119266687611
 21
-147.1849703612786
 31
0.0
  0
LINE
  5
BF52
  8
0
  6
BYBLOCK
 10
615.781192666876
 20
-146.64907198127869
 30
0.0
 11
613.78119266687611
 21
-146.64907198127869
 31
0.0
  0
LINE
  5
BF53
  8
0
  6
BYBLOCK
 10
608.98119266687945
 20
-147.1849703612786
 30
0.0
 11
606.98119266687945
 21
-146.64907198127869
 31
0.0
  0
LINE
  5
BF54
  8
0
  6
BYBLOCK
 10
606.98119266687945
 20
-146.64907198127869
 30
0.0
 11
608.98119266687945
 21
-146.11317360127859
 31
0.0
  0
LINE
  5
BF55
  8
0
  6
BYBLOCK
 10
606.98119266687945
 20
-146.64907198127869
 30
0.0
 11
608.98119266687945
 21
-146.64907198127869
 31
0.0
  0
VIEWPORT
  5
20C3
 67
     1
  8
0
  6
CONTINUOUS
 10
-12.722023492751809
 20
21.872934862319511
 30
0.0
 40
432.75648024314557
 41
306.40704360072721
 68
     1
 69
     1
1001
ACAD
1000
MVIEW
1002
{
1070
    16
1010
0.0
1020
0.0
1030
0.0
1010
0.0
1020
0.0
1030
1.0
1040
0.0
1040
306.40704360072721
1040
-12.722023492751809
1040
21.872934862319511
1040
50.0
1040
0.0
1040
0.0
1070
     0
1070
   100
1070
     1
1070
     1
1070
     0
1070
     0
1070
     0
1070
     0
1040
0.0
1040
0.0
1040
0.0
1040
1.0
1040
1.0
1040
0.0
1040
0.0
1070
     0
1002
{
1002
}
1002
}
  0
ENDSEC
  0
EOF
