  0
SECTION
  2
HEADER
  9
$ACADVER
  1
AC1009
  9
$INSBASE
 10
0.0
 20
0.0
 30
0.0
  9
$EXTMIN
 10
38.05696758237309
 20
-535.21452442581631
 30
0.0
  9
$EXTMAX
 10
1539.4078573434419
 20
698.1978897080952
 30
0.0
  9
$LIMMIN
 10
0.0
 20
0.0
  9
$LIMMAX
 10
420.0
 20
297.0
  9
$ORTHOMODE
 70
     0
  9
$REGENMODE
 70
     1
  9
$FILLMODE
 70
     1
  9
$QTEXTMODE
 70
     0
  9
$MIRRTEXT
 70
     1
  9
$DRAGMODE
 70
     2
  9
$LTSCALE
 40
0.5
  9
$OSMODE
 70
  2175
  9
$ATTMODE
 70
     1
  9
$TEXTSIZE
 40
4.0
  9
$TRACEWID
 40
1.0
  9
$TEXTSTYLE
  7
STANDARD
  9
$CLAYER
  8
1TEXT
  9
$CELTYPE
  6
BYLAYER
  9
$CECOLOR
 62
   256
  9
$DIMSCALE
 40
1.0
  9
$DIMASZ
 40
2.0
  9
$DIMEXO
 40
0.0
  9
$DIMDLI
 40
7.0
  9
$DIMRND
 40
0.0
  9
$DIMDLE
 40
0.0
  9
$DIMEXE
 40
1.0
  9
$DIMTP
 40
0.0
  9
$DIMTM
 40
0.0
  9
$DIMTXT
 40
3.5
  9
$DIMCEN
 40
0.0
  9
$DIMTSZ
 40
0.0
  9
$DIMTOL
 70
     0
  9
$DIMLIM
 70
     0
  9
$DIMTIH
 70
     0
  9
$DIMTOH
 70
     0
  9
$DIMSE1
 70
     0
  9
$DIMSE2
 70
     0
  9
$DIMTAD
 70
     1
  9
$DIMZIN
 70
     8
  9
$DIMBLK
  1

  9
$DIMASO
 70
     1
  9
$DIMSHO
 70
     1
  9
$DIMPOST
  1
 
  9
$DIMAPOST
  1

  9
$DIMALT
 70
     0
  9
$DIMALTD
 70
     2
  9
$DIMALTF
 40
25.399999999999999
  9
$DIMLFAC
 40
1.0
  9
$DIMTOFL
 70
     1
  9
$DIMTVP
 40
0.0
  9
$DIMTIX
 70
     0
  9
$DIMSOXD
 70
     0
  9
$DIMSAH
 70
     1
  9
$DIMBLK1
  1
OPEN30
  9
$DIMBLK2
  1
OPEN30
  9
$DIMSTYLE
  2
NEWX10
  9
$DIMCLRD
 70
   256
  9
$DIMCLRE
 70
   256
  9
$DIMCLRT
 70
   201
  9
$DIMTFAC
 40
0.7
  9
$DIMGAP
 40
0.7
  9
$LUNITS
 70
     2
  9
$LUPREC
 70
     4
  9
$SKETCHINC
 40
1.0
  9
$FILLETRAD
 40
0.0
  9
$AUNITS
 70
     0
  9
$AUPREC
 70
     2
  9
$MENU
  1
acad
  9
$ELEVATION
 40
0.0
  9
$PELEVATION
 40
0.0
  9
$THICKNESS
 40
0.0
  9
$LIMCHECK
 70
     0
  9
$BLIPMODE
 70
     0
  9
$CHAMFERA
 40
1.0
  9
$CHAMFERB
 40
1.0
  9
$SKPOLY
 70
     0
  9
$TDCREATE
 40
2451318.621352917
  9
$TDUPDATE
 40
2455600.5853776038
  9
$TDINDWG
 40
0.5417178009
  9
$TDUSRTIMER
 40
0.5417178009
  9
$USRTIMER
 70
     1
  9
$ANGBASE
 50
0.0
  9
$ANGDIR
 70
     0
  9
$PDMODE
 70
     0
  9
$PDSIZE
 40
0.0
  9
$PLINEWID
 40
0.0
  9
$COORDS
 70
     2
  9
$SPLFRAME
 70
     0
  9
$SPLINETYPE
 70
     6
  9
$SPLINESEGS
 70
     8
  9
$ATTDIA
 70
     0
  9
$ATTREQ
 70
     1
  9
$HANDLING
 70
     1
  9
$HANDSEED
  5
7A27
  9
$SURFTAB1
 70
     6
  9
$SURFTAB2
 70
     6
  9
$SURFTYPE
 70
     6
  9
$SURFU
 70
     6
  9
$SURFV
 70
     6
  9
$UCSNAME
  2

  9
$UCSORG
 10
0.0
 20
0.0
 30
0.0
  9
$UCSXDIR
 10
1.0
 20
0.0
 30
0.0
  9
$UCSYDIR
 10
0.0
 20
1.0
 30
0.0
  9
$PUCSNAME
  2

  9
$PUCSORG
 10
0.0
 20
0.0
 30
0.0
  9
$PUCSXDIR
 10
1.0
 20
0.0
 30
0.0
  9
$PUCSYDIR
 10
0.0
 20
1.0
 30
0.0
  9
$USERI1
 70
     0
  9
$USERI2
 70
     0
  9
$USERI3
 70
     0
  9
$USERI4
 70
     0
  9
$USERI5
 70
     0
  9
$USERR1
 40
0.0
  9
$USERR2
 40
0.0
  9
$USERR3
 40
0.0
  9
$USERR4
 40
0.0
  9
$USERR5
 40
287.0
  9
$WORLDVIEW
 70
     1
  9
$SHADEDGE
 70
     3
  9
$SHADEDIF
 70
    70
  9
$TILEMODE
 70
     1
  9
$MAXACTVP
 70
    48
  9
$PLIMCHECK
 70
     0
  9
$PEXTMIN
 10
1.0000000000000000E+020
 20
1.0000000000000000E+020
 30
1.0000000000000000E+020
  9
$PEXTMAX
 10
-1.0000000000000000E+020
 20
-1.0000000000000000E+020
 30
-1.0000000000000000E+020
  9
$PLIMMIN
 10
0.0
 20
0.0
  9
$PLIMMAX
 10
420.0
 20
297.0
  9
$UNITMODE
 70
     0
  9
$VISRETAIN
 70
     1
  9
$PLINEGEN
 70
     0
  9
$PSLTSCALE
 70
     1
  0
ENDSEC
  0
SECTION
  2
TABLES
  0
TABLE
  2
VPORT
 70
     1
  0
VPORT
  2
*ACTIVE
 70
     0
 10
0.0
 20
0.0
 11
1.0
 21
1.0
 12
788.73042709693459
 22
81.49168551290154
 13
0.0
 23
0.0
 14
10.0
 24
10.0
 15
10.0
 25
10.0
 16
0.0
 26
0.0
 36
1.0
 17
0.0
 27
0.0
 37
0.0
 40
1308.219748803836
 41
1.4438839848675911
 42
50.0
 43
0.0
 44
0.0
 50
0.0
 51
0.0
 71
     0
 72
   100
 73
     1
 74
     1
 75
     0
 76
     0
 77
     0
 78
     0
  0
ENDTAB
  0
TABLE
  2
LTYPE
 70
    14
  0
LTYPE
  2
CONTINUOUS
 70
     0
  3
Solid line
 72
    65
 73
     0
 40
0.0
  0
LTYPE
  2
XREF1|CENTER2
 70
    48
  3
Center (.5x) ___ _ ___ _ ___ _ ___ _ ___ _ ___
 72
    65
 73
     4
 40
28.574999999999999
 49
19.050000000000001
 49
-3.1749999999999989
 49
3.1749999999999989
 49
-3.1749999999999989
  0
LTYPE
  2
CENTER2
 70
     0
  3
Center (.5x) ___ _ ___ _ ___ _ ___ _ ___ _ ___
 72
    65
 73
     4
 40
28.574999999999999
 49
19.050000000000001
 49
-3.1749999999999989
 49
3.1749999999999989
 49
-3.1749999999999989
  0
LTYPE
  2
A3WAKUDAKE|CENTER2
 70
    48
  3
Center (.5x) ___ _ ___ _ ___ _ ___ _ ___ _ ___
 72
    65
 73
     4
 40
28.574999999999999
 49
19.050000000000001
 49
-3.1749999999999989
 49
3.1749999999999989
 49
-3.1749999999999989
  0
LTYPE
  2
PHANTOM2
 70
     0
  3
Phantom (.5x) ___ _ _ ___ _ _ ___ _ _ ___ _ _
 72
    65
 73
     6
 40
31.75
 49
15.875
 49
-3.1749999999999989
 49
3.1749999999999989
 49
-3.1749999999999989
 49
3.1749999999999989
 49
-3.1749999999999989
  0
ENDTAB
  0
TABLE
  2
LAYER
 70
    43
  0
LAYER
  2
0
 70
     0
 62
     7
  6
CONTINUOUS
  0
LAYER
  2
1CENTER
 70
     0
 62
     7
  6
CENTER2
  0
LAYER
  2
1TEXT
 70
     0
 62
     7
  6
CONTINUOUS
  0
LAYER
  2
01
 70
     0
 62
     1
  6
CONTINUOUS
  0
LAYER
  2
1DIM
 70
     0
 62
     7
  6
CONTINUOUS
  0
LAYER
  2
1PHANTOM
 70
     0
 62
     7
  6
PHANTOM2
  0
LAYER
  2
A3WAKUDAKE|THICK
 70
    48
 62
     7
  6
CONTINUOUS
  0
LAYER
  2
A3WAKUDAKE|POINT
 70
    48
 62
     7
  6
CONTINUOUS
  0
LAYER
  2
A3WAKUDAKE|1CENTER
 70
    48
 62
     7
  6
A3WAKUDAKE|CENTER2
  0
LAYER
  2
A3WAKUDAKE|0-6
 70
    48
 62
     7
  6
CONTINUOUS
  0
LAYER
  2
1DIM1
 70
     0
 62
     7
  6
CONTINUOUS
  0
LAYER
  2
A3WAKUDAKE|1DIM
 70
    48
 62
     7
  6
CONTINUOUS
  0
LAYER
  2
XREF1|1CENTER
 70
    48
 62
     7
  6
XREF1|CENTER2
  0
ENDTAB
  0
TABLE
  2
STYLE
 70
    20
  0
STYLE
  2
STANDARD
 70
     0
 40
0.0
 41
1.0
 50
0.0
 71
     0
 42
4.0
  3
txt.shx
  4
extfont.shx
  0
ENDTAB
  0
TABLE
  2
VIEW
 70
     0
  0
ENDTAB
  0
TABLE
  2
UCS
 70
     0
  0
ENDTAB
  0
TABLE
  2
APPID
 70
     9
  0
APPID
  2
ACAD
 70
     0
  0
APPID
  2
DRAWINGVARIABLESXDATA
 70
     0
  0
APPID
  2
CONTENTTABDATA
 70
     0
  0
APPID
  2
CONTENTCURRENTTAB
 70
     0
  0
APPID
  2
CONTENTBLOCKDESCRIPTION
 70
     0
  0
APPID
  2
CONTENTBLOCKICON
 70
     0
  0
APPID
  2
CONTENTLONGBLOCKNAME
 70
     0
  0
APPID
  2
ACAD_PSEXT
 70
     0
  0
APPID
  2
ACAD_MLEADERVER
 70
     0
  0
ENDTAB
  0
TABLE
  2
DIMSTYLE
 70
     6
  0
DIMSTYLE
  2
NEWX10
 70
     0
  3
 
  4

  5

  6
OPEN30
  7
OPEN30
 40
1.0
 41
2.0
 42
0.0
 43
7.0
 44
1.0
 45
0.0
 46
0.0
 47
0.0
 48
0.0
140
3.5
141
0.0
142
0.0
143
25.399999999999999
144
1.0
145
0.0
146
0.7
147
0.7
 71
     0
 72
     0
 73
     0
 74
     0
 75
     0
 76
     0
 77
     1
 78
     8
170
     0
171
     2
172
     1
173
     1
174
     0
175
     0
176
   256
177
   256
178
   201
  0
ENDTAB
  0
ENDSEC
  0
SECTION
  2
BLOCKS
  0
BLOCK
  8
0
  2
$MODEL_SPACE
 70
     0
 10
0.0
 20
0.0
 30
0.0
  3
$MODEL_SPACE
  1

  0
ENDBLK
  5
1A
  8
0
  0
BLOCK
 67
     1
  8
0
  2
$PAPER_SPACE
 70
     0
 10
0.0
 20
0.0
 30
0.0
  3
$PAPER_SPACE
  1

  0
ENDBLK
  5
17
 67
     1
  8
0
  0
BLOCK
  8
0
  2
_OPEN30
 70
     0
 10
0.0
 20
0.0
 30
0.0
  3
_OPEN30
  1

  0
LINE
  5
44
  8
0
  6
BYBLOCK
 62
     0
 10
-1.0
 20
0.26794919
 30
0.0
 11
0.0
 21
0.0
 31
0.0
  0
LINE
  5
45
  8
0
  6
BYBLOCK
 62
     0
 10
0.0
 20
0.0
 30
0.0
 11
-1.0
 21
-0.26794919
 31
0.0
  0
LINE
  5
46
  8
0
  6
BYBLOCK
 62
     0
 10
0.0
 20
0.0
 30
0.0
 11
-1.0
 21
0.0
 31
0.0
  0
ENDBLK
  5
47
  8
0
  0
BLOCK
  8
0
  2
XREF1
 70
    36
 10
0.0
 20
0.0
 30
0.0
  3
XREF1
  1
D:\ACLT\FORMAT\KAWAJUN(9)図面用.dwg
  0
ENDBLK
  5
5D
  8
0
  0
BLOCK
  8
0
  2
A3WAKUDAKE
 70
    36
 10
0.0
 20
0.0
 30
0.0
  3
A3WAKUDAKE
  1
D:\ACLT\FORMAT\A3WAKUdake.dwg
  0
ENDBLK
  5
4E3A
  8
0
  0
BLOCK
  8
0
  2
*U28
 70
     1
 10
0.0
 20
0.0
 30
0.0
  3
*U28
  1

  0
LINE
  5
798D
  8
0
 10
-23.468911086754559
 20
-1.75
 30
0.0
 11
0.0000000000000284
 21
-1.75
 31
0.0
  0
LINE
  5
798E
  8
0
 10
0.0000000000000284
 20
-1.75
 30
0.0
 11
0.0000000000000284
 21
-4.5
 31
0.0
  0
LINE
  5
798F
  8
0
 10
-29.999999999999972
 20
0.0
 30
0.0
 11
-23.468911086754559
 21
-1.75
 31
0.0
  0
LINE
  5
7990
  8
0
 10
0.0000000000000284
 20
-4.5
 30
0.0
 11
0.7999999999998125
 21
-4.5
 31
0.0
  0
LINE
  5
7991
  8
0
 10
-29.999999999999972
 20
0.0
 30
0.0
 11
-23.468911086754499
 21
1.75
 31
0.0
  0
ARC
  5
7992
  8
0
 10
0.8000000000000113
 20
-2.0
 30
0.0
 40
2.5
 50
269.9999999999954
 51
0.0
  0
LINE
  5
7993
  8
0
 10
-23.468911086754499
 20
1.75
 30
0.0
 11
0.0000000000000284
 21
1.75
 31
0.0
  0
LINE
  5
7994
  8
0
 10
3.3000000000000389
 20
2.0
 30
0.0
 11
3.3000000000000109
 21
-2.0
 31
0.0
  0
LINE
  5
7995
  8
0
 10
0.0000000000000284
 20
4.5
 30
0.0
 11
0.0000000000000284
 21
1.75
 31
0.0
  0
ARC
  5
7996
  8
0
 10
0.8000000000000397
 20
2.0
 30
0.0
 40
2.5
 50
0.0
 51
90.0
  0
LINE
  5
7997
  8
0
 10
0.0000000000000284
 20
4.5
 30
0.0
 11
0.8000000000000397
 21
4.5
 31
0.0
  0
ENDBLK
  5
7999
  8
0
  0
BLOCK
  8
0
  2
*U29
 70
     1
 10
0.0
 20
0.0
 30
0.0
  3
*U29
  1

  0
TEXT
  5
799E
  8
1DIM
 62
   201
 10
1228.798122026647
 20
245.53855484899941
 30
0.0
 40
17.5
  1
146
  0
ENDBLK
  5
79A0
  8
0
  0
BLOCK
  8
0
  2
*U30
 70
     1
 10
0.0
 20
0.0
 30
0.0
  3
*U30
  1

  0
TEXT
  5
79A2
  8
1DIM
 62
   201
 10
830.04881026628391
 20
281.60849171033709
 30
0.0
 40
17.5
  1
300
  0
ENDBLK
  5
79A4
  8
0
  0
BLOCK
  8
0
  2
*U31
 70
     1
 10
0.0
 20
0.0
 30
0.0
  3
*U31
  1

  0
TEXT
  5
79A6
  8
1DIM
 62
   201
 10
637.19851370091919
 20
-147.30817495632931
 30
0.0
 40
17.5
  1
700
 50
90.0
  0
ENDBLK
  5
79A8
  8
0
  0
BLOCK
  8
0
  2
*U32
 70
     1
 10
0.0
 20
0.0
 30
0.0
  3
*U32
  1

  0
TEXT
  5
79AA
  8
1DIM
 62
   201
 10
1036.96547693302
 20
-150.224841622996
 30
0.0
 40
17.5
  1
232
 50
90.0
  0
ENDBLK
  5
79AC
  8
0
  0
BLOCK
  8
0
  2
*U33
 70
     1
 10
0.0
 20
0.0
 30
0.0
  3
*U33
  1

  0
TEXT
  5
79AE
  8
1DIM
 62
   201
 10
1036.96547693302
 20
-379.7665082896628
 30
0.0
 40
17.5
  1
230
 50
90.0
  0
ENDBLK
  5
79B0
  8
0
  0
BLOCK
  8
0
  2
*U34
 70
     1
 10
0.0
 20
0.0
 30
0.0
  3
*U34
  1

  0
TEXT
  5
79B2
  8
1DIM
 62
   201
 10
1036.96547693302
 20
82.233491710337262
 30
0.0
 40
17.5
  1
230
 50
90.0
  0
ENDBLK
  5
79B4
  8
0
  0
BLOCK
  8
0
  2
*U35
 70
     1
 10
0.0
 20
0.0
 30
0.0
  3
*U35
  1

  0
TEXT
  5
79B6
  8
1DIM
 62
   201
 10
392.27981434990551
 20
369.91555813995211
 30
0.0
 40
17.5
  1
(247)
 50
90.0
  0
ENDBLK
  5
79B8
  8
0
  0
BLOCK
  8
0
  2
*U36
 70
     1
 10
0.0
 20
0.0
 30
0.0
  3
*U36
  1

  0
TEXT
  5
79BA
  8
1DIM
 62
   201
 10
528.87589221177075
 20
570.11471293939792
 30
0.0
 40
17.5
  1
(273)
  0
ENDBLK
  5
79BC
  8
0
  0
BLOCK
  8
0
  2
*U37
 70
     1
 10
0.0
 20
0.0
 30
0.0
  3
*U37
  1

  0
LINE
  5
79C1
  8
0
 10
-40.0
 20
0.0
 30
0.0
 11
-33.468911086754588
 21
-1.75
 31
0.0
  0
LINE
  5
79C2
  8
0
 10
-33.468911086754588
 20
-1.75
 30
0.0
 11
0.0
 21
-1.75
 31
0.0
  0
LINE
  5
79C3
  8
0
 10
-40.0
 20
0.0
 30
0.0
 11
-33.468911086754531
 21
1.75
 31
0.0
  0
LINE
  5
79C4
  8
0
 10
0.0
 20
-1.75
 30
0.0
 11
0.0
 21
-4.5
 31
0.0
  0
LINE
  5
79C5
  8
0
 10
-33.468911086754531
 20
1.75
 30
0.0
 11
0.0
 21
1.75
 31
0.0
  0
LINE
  5
79C6
  8
0
 10
0.0
 20
-4.5
 30
0.0
 11
0.799999999999784
 21
-4.5
 31
0.0
  0
LINE
  5
79C7
  8
0
 10
0.0
 20
4.5
 30
0.0
 11
0.0
 21
1.75
 31
0.0
  0
ARC
  5
79C8
  8
0
 10
0.7999999999999546
 20
-2.0
 30
0.0
 40
2.5
 50
269.99999999999608
 51
0.0
  0
LINE
  5
79C9
  8
0
 10
0.0
 20
4.5
 30
0.0
 11
0.8000000000000113
 21
4.5
 31
0.0
  0
LINE
  5
79CA
  8
0
 10
3.3000000000000109
 20
2.0
 30
0.0
 11
3.2999999999999541
 21
-2.0
 31
0.0
  0
ARC
  5
79CB
  8
0
 10
0.8000000000000113
 20
2.0
 30
0.0
 40
2.5
 50
0.0
 51
90.0
  0
ENDBLK
  5
79CD
  8
0
  0
BLOCK
  8
0
  2
*U38
 70
     1
 10
0.0
 20
0.0
 30
0.0
  3
*U38
  1

  0
TEXT
  5
79CF
  8
1DIM
 62
   201
 10
673.98655106054127
 20
299.57135246532482
 30
0.0
 40
17.5
  1
約160°
 50
359.40091292185969
  0
ENDBLK
  5
79D1
  8
0
  0
BLOCK
  8
0
  2
*U39
 70
     1
 10
0.0
 20
0.0
 30
0.0
  3
*U39
  1

  0
LINE
  5
79D3
  8
0
 10
-11.649999999999981
 20
-2.0
 30
0.0
 11
-0.0000000000000284
 21
-2.0
 31
0.0
  0
LINE
  5
79D4
  8
0
 10
-0.0000000000000284
 20
-2.0
 30
0.0
 11
0.0
 21
-3.5
 31
0.0
  0
LINE
  5
79D5
  8
0
 10
-12.0
 20
-1.6499999999998629
 30
0.0
 11
-11.649999999999981
 21
-2.0
 31
0.0
  0
LINE
  5
79D6
  8
0
 10
0.0
 20
-3.5
 30
0.0
 11
0.5999999999999944
 21
-3.5
 31
0.0
  0
LINE
  5
79D7
  8
0
 10
-12.0
 20
1.649999999999977
 30
0.0
 11
-12.0
 21
-1.6499999999998629
 31
0.0
  0
ARC
  5
79D8
  8
0
 10
0.5999999999999944
 20
-1.5
 30
0.0
 40
2.0
 50
270.0
 51
0.0
  0
LINE
  5
79D9
  8
0
 10
-11.649999999999981
 20
2.0
 30
0.0
 11
-12.0
 21
1.649999999999977
 31
0.0
  0
LINE
  5
79DA
  8
0
 10
2.5999999999999939
 20
1.4999999999999429
 30
0.0
 11
2.5999999999999939
 21
-1.5
 31
0.0
  0
LINE
  5
79DB
  8
0
 10
-11.649999999999981
 20
2.0
 30
0.0
 11
-0.0000000000000284
 21
2.0000000000001128
 31
0.0
  0
ARC
  5
79DC
  8
0
 10
0.5999999999999944
 20
1.4999999999999429
 30
0.0
 40
2.0
 50
0.0
 51
90.00000000000081
  0
LINE
  5
79DD
  8
0
 10
0.0
 20
3.4999999999999432
 30
0.0
 11
-0.0000000000000284
 21
2.0000000000001128
 31
0.0
  0
LINE
  5
79DE
  8
0
 10
0.0
 20
3.4999999999999432
 30
0.0
 11
0.5999999999999659
 21
3.4999999999999432
 31
0.0
  0
ENDBLK
  5
79E0
  8
0
  0
BLOCK
  8
0
  2
*U40
 70
     1
 10
0.0
 20
0.0
 30
0.0
  3
*U40
  1

  0
LINE
  5
79E2
  8
0
 10
-19.999988481471402
 20
1.650228902743833
 30
0.0
 11
-20.000011516740869
 21
-1.649771097186544
 31
0.0
  0
LINE
  5
79E3
  8
0
 10
-20.000011516740869
 20
-1.649771097186544
 30
0.0
 11
-19.65001395988568
 21
-1.9997737666917601
 31
0.0
  0
LINE
  5
79E4
  8
0
 10
-19.999988481471402
 20
1.650228902743833
 30
0.0
 11
-19.649986038346949
 21
2.0002262332210421
 31
0.0
  0
LINE
  5
79E5
  8
0
 10
-19.65001395988568
 20
-1.9997737666917601
 30
0.0
 11
-2.3000325751915081
 21
-1.9999823699814661
 31
0.0
  0
LINE
  5
79E6
  8
0
 10
-19.649986038346949
 20
2.0002262332210421
 30
0.0
 11
-2.2999767320272611
 21
2.0000176296720151
 31
0.0
  0
LINE
  5
79E7
  8
0
 10
-0.3000279215529389
 20
-4.0000009844706019
 30
0.0
 11
-2.3000325751915081
 21
-1.9999823699814661
 31
0.0
  0
LINE
  5
79E8
  8
0
 10
-0.2999720784754771
 20
3.9999990153562521
 30
0.0
 11
-2.2999767320272611
 21
2.0000176296720151
 31
0.0
  0
LINE
  5
79E9
  8
0
 10
-0.3000279215529389
 20
-4.0000009844706019
 30
0.0
 11
-0.0000279215651489
 21
-4.0000037766244532
 31
0.0
  0
LINE
  5
79EA
  8
0
 10
-0.2999720784754771
 20
3.9999990153562521
 30
0.0
 11
0.0000279215124266
 21
3.9999962232024009
 31
0.0
  0
LINE
  5
79EB
  8
0
 10
0.0000279215124266
 20
3.9999962232024009
 30
0.0
 11
-0.0000279215651489
 21
-4.0000037766244532
 31
0.0
  0
ENDBLK
  5
79ED
  8
0
  0
BLOCK
  8
0
  2
*U41
 70
     1
 10
0.0
 20
0.0
 30
0.0
  3
*U41
  1

  0
LINE
  5
79EF
  8
0
 10
-5.0000000000000142
 20
1.649999999999977
 30
0.0
 11
-5.0000000000000142
 21
-1.6499999999998629
 31
0.0
  0
LINE
  5
79F0
  8
0
 10
-5.0000000000000142
 20
-1.6499999999998629
 30
0.0
 11
-4.6500000000000341
 21
-2.0
 31
0.0
  0
LINE
  5
79F1
  8
0
 10
-4.6500000000000341
 20
2.0
 30
0.0
 11
-5.0000000000000142
 21
1.649999999999977
 31
0.0
  0
LINE
  5
79F2
  8
0
 10
-4.6500000000000341
 20
-2.0
 30
0.0
 11
-1.3000001740740139
 21
-2.0
 31
0.0
  0
LINE
  5
79F3
  8
0
 10
-4.6500000000000341
 20
2.0
 30
0.0
 11
-1.3000001740740139
 21
2.0
 31
0.0
  0
LINE
  5
79F4
  8
0
 10
-1.3000001740740139
 20
-2.0
 30
0.0
 11
-0.3000001000000054
 21
-3.0
 31
0.0
  0
LINE
  5
79F5
  8
0
 10
-1.3000001740740139
 20
2.0
 30
0.0
 11
-0.3000000100000193
 21
3.0
 31
0.0
  0
LINE
  5
79F6
  8
0
 10
-0.3000001000000054
 20
-3.0
 30
0.0
 11
0.0
 21
-3.0
 31
0.0
  0
LINE
  5
79F7
  8
0
 10
-0.3000000100000193
 20
3.0
 30
0.0
 11
0.0
 21
3.0
 31
0.0
  0
LINE
  5
79F8
  8
0
 10
0.0
 20
3.0
 30
0.0
 11
0.0
 21
-3.0
 31
0.0
  0
ENDBLK
  5
79FA
  8
0
  0
BLOCK
  8
0
  2
*U42
 70
     1
 10
0.0
 20
0.0
 30
0.0
  3
*U42
  1

  0
LINE
  5
79FC
  8
0
 10
-4.7499941827476269
 20
1.500051962965244
 30
0.0
 11
-1.6999825490125879
 21
1.5000142687798641
 31
0.0
  0
LINE
  5
79FD
  8
0
 10
-4.9999912742822508
 20
1.250054871430506
 30
0.0
 11
-4.7499941827476269
 21
1.500051962965244
 31
0.0
  0
LINE
  5
79FE
  8
0
 10
-0.1999790588486121
 20
3.0000003080426718
 30
0.0
 11
-1.6999825490125879
 21
1.5000142687798641
 31
0.0
  0
LINE
  5
79FF
  8
0
 10
-4.9999912742822508
 20
1.250054871430506
 30
0.0
 11
-5.0000087252440153
 21
-1.249945128534363
 31
0.0
  0
LINE
  5
7A00
  8
0
 10
-0.1999790588486121
 20
3.0000003080426718
 30
0.0
 11
0.0000209411432479
 21
2.9999984466066958
 31
0.0
  0
LINE
  5
7A01
  8
0
 10
-5.0000087252440153
 20
-1.249945128534363
 30
0.0
 11
-4.7500058167220232
 21
-1.4999480370562419
 31
0.0
  0
LINE
  5
7A02
  8
0
 10
0.0000209411432479
 20
2.9999984466066958
 30
0.0
 11
-0.0000209411649621
 21
-3.000001553263246
 31
0.0
  0
LINE
  5
7A03
  8
0
 10
-4.7500058167220232
 20
-1.4999480370562419
 30
0.0
 11
-1.7000244313859409
 21
-1.4999857309602469
 31
0.0
  0
LINE
  5
7A04
  8
0
 10
-0.2000209411568221
 20
-2.9999996918273828
 30
0.0
 11
-0.0000209411649621
 21
-3.000001553263246
 31
0.0
  0
LINE
  5
7A05
  8
0
 10
-0.2000209411568221
 20
-2.9999996918273828
 30
0.0
 11
-1.7000244313859409
 21
-1.4999857309602469
 31
0.0
  0
ENDBLK
  5
7A07
  8
0
  0
BLOCK
  8
0
  2
*U43
 70
     1
 10
0.0
 20
0.0
 30
0.0
  3
*U43
  1

  0
LINE
  5
7A09
  8
0
 10
-9.6499999999999773
 20
2.0
 30
0.0
 11
-0.0000000000000284
 21
2.0
 31
0.0
  0
LINE
  5
7A0A
  8
0
 10
-9.6499999999999773
 20
2.0
 30
0.0
 11
-10.0
 21
1.649999999999977
 31
0.0
  0
LINE
  5
7A0B
  8
0
 10
0.0
 20
3.4999999999999432
 30
0.0
 11
-0.0000000000000284
 21
2.0
 31
0.0
  0
LINE
  5
7A0C
  8
0
 10
-10.0
 20
1.649999999999977
 30
0.0
 11
-10.0
 21
-1.6499999999998629
 31
0.0
  0
LINE
  5
7A0D
  8
0
 10
0.0
 20
3.4999999999999432
 30
0.0
 11
0.5999999999999375
 21
3.4999999999999432
 31
0.0
  0
LINE
  5
7A0E
  8
0
 10
-10.0
 20
-1.6499999999998629
 30
0.0
 11
-9.6499999999999773
 21
-2.0
 31
0.0
  0
ARC
  5
7A0F
  8
0
 10
0.5999999999999944
 20
1.4999999999999429
 30
0.0
 40
2.0
 50
0.0
 51
90.000000000001606
  0
LINE
  5
7A10
  8
0
 10
-9.6499999999999773
 20
-2.0
 30
0.0
 11
0.0000000000000568
 21
-2.0
 31
0.0
  0
LINE
  5
7A11
  8
0
 10
2.5999999999999939
 20
1.4999999999999429
 30
0.0
 11
2.5999999999999939
 21
-1.5
 31
0.0
  0
LINE
  5
7A12
  8
0
 10
0.0000000000000568
 20
-2.0
 30
0.0
 11
0.0
 21
-3.5
 31
0.0
  0
ARC
  5
7A13
  8
0
 10
0.5999999999999944
 20
-1.5
 30
0.0
 40
2.0
 50
270.0
 51
0.0
  0
LINE
  5
7A14
  8
0
 10
0.0
 20
-3.5
 30
0.0
 11
0.5999999999999944
 21
-3.5
 31
0.0
  0
ENDBLK
  5
7A16
  8
0
  0
BLOCK
  8
0
  2
*U44
 70
     1
 10
0.0
 20
0.0
 30
0.0
  3
*U44
  1

  0
TEXT
  5
7A18
  8
1DIM
 62
   201
 10
1048.4647886933101
 20
-526.71452442581631
 30
0.0
 40
17.5
  1
有効内寸118
  0
ENDBLK
  5
7A1A
  8
0
  0
BLOCK
  8
0
  2
*U45
 70
     1
 10
0.0
 20
0.0
 30
0.0
  3
*U45
  1

  0
TEXT
  5
7A1C
  8
1DIM
 62
   201
 10
788.04881026628425
 20
-526.71452442581631
 30
0.0
 40
17.5
  1
有効内寸281
  0
ENDBLK
  5
7A1E
  8
0
  0
BLOCK
  8
0
  2
*U46
 70
     1
 10
0.0
 20
0.0
 30
0.0
  3
*U46
  1

  0
TEXT
  5
7A20
  8
1DIM
 62
   201
 10
819.84047693295167
 20
246.60849171033709
 30
0.0
 40
17.5
  1
P240
  0
ENDBLK
  5
7A22
  8
0
  0
BLOCK
  8
0
  2
*U47
 70
     1
 10
0.0
 20
0.0
 30
0.0
  3
*U47
  1

  0
TEXT
  5
7A24
  8
1DIM
 62
   201
 10
677.19851370091919
 20
-158.97484162299611
 30
0.0
 40
17.5
  1
P623
 50
90.0
  0
ENDBLK
  5
7A26
  8
0
  0
ENDSEC
  0
SECTION
  2
ENTITIES
  0
LINE
  5
6087
  8
01
 10
1322.2147886933119
 20
-476.8915082896628
 30
0.0
 11
1322.214788693311
 21
223.10849171033729
 31
0.0
  0
LINE
  5
608A
  8
01
 10
1187.214788693311
 20
219.10849171033689
 30
0.0
 11
1187.214788693311
 21
-472.89150828966262
 31
0.0
  0
LINE
  5
608C
  8
01
 10
1176.214788693308
 20
218.1084917103372
 30
0.0
 11
1176.2147886933101
 21
-471.8915082896628
 31
0.0
  0
LINE
  5
608D
  8
01
 10
1176.214788693308
 20
217.10849171033709
 30
0.0
 11
1186.7147886933069
 21
217.10849171033709
 31
0.0
  0
LINE
  5
608E
  8
01
 10
1185.214788693311
 20
219.00849171033769
 30
0.0
 11
1185.214788693311
 21
218.20849171033731
 31
0.0
  0
LINE
  5
608F
  8
01
 10
1176.2147886933069
 20
218.20849171033689
 30
0.0
 11
1176.2147886933069
 21
219.0084917103369
 31
0.0
  0
LINE
  5
6090
  8
01
 10
1176.2147886933069
 20
218.20849171033689
 30
0.0
 11
1185.214788693311
 21
218.20849171033731
 31
0.0
  0
LINE
  5
6091
  8
01
 10
1176.2147886933069
 20
219.0084917103369
 30
0.0
 11
1185.214788693311
 21
219.00849171033769
 31
0.0
  0
LINE
  5
6092
  8
01
 10
1185.2147886933139
 20
218.1084917103372
 30
0.0
 11
1185.214788693313
 21
217.10849171033709
 31
0.0
  0
LINE
  5
6093
  8
01
 10
1176.2147886933101
 20
218.1084917103372
 30
0.0
 11
1185.2147886933139
 21
218.1084917103372
 31
0.0
  0
LINE
  5
6094
  8
01
 10
700.46547693295258
 20
223.10849171033709
 30
0.0
 11
1000.4654769329539
 21
223.10849171033709
 31
0.0
  0
LINE
  5
6096
  8
01
 10
1000.4654769329539
 20
-472.89150828966302
 30
0.0
 11
700.46547693295361
 21
-472.89150828966302
 31
0.0
  0
LINE
  5
6097
  8
01
 10
700.46547693295258
 20
-476.8915082896628
 30
0.0
 11
1000.4654769329539
 21
-476.8915082896628
 31
0.0
  0
LINE
  5
6098
  8
01
 10
990.96547693302091
 20
-470.8915082896628
 30
0.0
 11
1000.46547693302
 21
-470.8915082896628
 31
0.0
  0
LINE
  5
6099
  8
01
 10
1000.46547693302
 20
223.10849171028559
 30
0.0
 11
1000.46547693302
 21
-476.89150828961141
 31
0.0
  0
LINE
  5
609A
  8
01
 10
990.96547693302091
 20
217.10849171033709
 30
0.0
 11
990.96547693302011
 21
-470.89150828966228
 31
0.0
  0
LINE
  5
609B
  8
01
 10
990.96547693295543
 20
217.10849171033709
 30
0.0
 11
1000.4654769329539
 21
217.10849171033709
 31
0.0
  0
LINE
  5
609C
  8
01
 10
709.96547693288255
 20
219.10849171033709
 30
0.0
 11
709.96547693288176
 21
-472.89150828966302
 31
0.0
  0
LINE
  5
609D
  8
01
 10
700.46547693295258
 20
223.10849171033709
 30
0.0
 11
700.46547693288176
 21
-476.89150828966262
 31
0.0
  0
LINE
  5
609E
  8
01
 10
990.96547693281627
 20
217.10849171033669
 30
0.0
 11
700.46547693295258
 21
217.10849171033669
 31
0.0
  0
LINE
  5
609F
  8
01
 10
709.96547693288255
 20
211.10849171033669
 30
0.0
 11
990.96547693281627
 21
211.10849171033669
 31
0.0
  0
LINE
  5
60A0
  8
01
 10
990.96547693288255
 20
-470.89150828966228
 30
0.0
 11
700.46547693288437
 21
-470.89150828966223
 31
0.0
  0
LINE
  5
60A1
  8
01
 10
995.96547693301989
 20
382.24856685622069
 30
0.0
 11
704.96547693301989
 21
382.24856685622069
 31
0.0
  0
LINE
  5
60A2
  8
01
 10
1000.46547693302
 20
528.24856685622149
 30
0.0
 11
700.46547693301909
 21
528.24856685622149
 31
0.0
  0
LINE
  5
60A3
  8
1PHANTOM
 10
984.46547693295543
 20
509.2485668562216
 30
0.0
 11
716.46547693295167
 21
509.2485668562216
 31
0.0
  0
ARC
  5
60A4
  8
1PHANTOM
 10
716.46547693295167
 20
506.24856685622149
 30
0.0
 40
3.0
 50
90.0
 51
180.0
  0
ARC
  5
60A5
  8
1PHANTOM
 10
984.46547693295543
 20
506.24856685622149
 30
0.0
 40
3.0
 50
0.0
 51
90.0
  0
LINE
  5
60A6
  8
1PHANTOM
 10
984.46547693295349
 20
396.2485668562216
 30
0.0
 11
716.46547693295167
 21
396.2485668562216
 31
0.0
  0
ARC
  5
60A7
  8
1PHANTOM
 10
984.46547693295349
 20
399.2485668562216
 30
0.0
 40
3.0
 50
270.0
 51
0.0
  0
LINE
  5
60A8
  8
01
 10
700.46547693301909
 20
528.24856685622149
 30
0.0
 11
700.46547693301989
 21
386.74856685622069
 31
0.0
  0
CIRCLE
  5
60A9
  8
01
 10
704.96547693301989
 20
386.74856685622069
 30
0.0
 40
2.0
  0
ARC
  5
60AA
  8
01
 10
704.96547693301989
 20
386.74856685622069
 30
0.0
 40
4.5
 50
180.0
 51
270.0
  0
CIRCLE
  5
60AB
  8
01
 10
705.46547693301989
 20
398.7485668562216
 30
0.0
 40
4.5000000000009086
  0
CIRCLE
  5
60AC
  8
01
 10
705.46547693301989
 20
512.7485668562216
 30
0.0
 40
4.5000000000009086
  0
LINE
  5
60AD
  8
01
 10
1000.46547693302
 20
528.24856685622149
 30
0.0
 11
1000.46547693302
 21
386.74856685622069
 31
0.0
  0
CIRCLE
  5
60AE
  8
01
 10
995.46547693302
 20
398.7485668562216
 30
0.0
 40
4.5000000000009086
  0
CIRCLE
  5
60AF
  8
01
 10
995.46547693302
 20
512.7485668562216
 30
0.0
 40
4.5000000000009086
  0
LINE
  5
60B0
  8
01
 10
1176.2147886933151
 20
223.10849171033709
 30
0.0
 11
1322.2147886933119
 21
223.10849171033709
 31
0.0
  0
LINE
  5
60B1
  8
1PHANTOM
 10
987.46547693295361
 20
-8.3915082896628501
 30
0.0
 11
713.4654769329527
 21
-8.3915082896629656
 31
0.0
  0
LINE
  5
60B2
  8
1PHANTOM
 10
987.46547693295361
 20
-13.39150828966285
 30
0.0
 11
713.46547693295167
 21
-13.391508289663079
 31
0.0
  0
LINE
  5
60B4
  8
1CENTER
 10
704.96547693295543
 20
225.86475528853771
 30
0.0
 11
704.96547693295543
 21
215.1172752039229
 31
0.0
  0
LINE
  5
60B5
  8
1CENTER
 10
704.96547693295543
 20
-479.64777186786341
 30
0.0
 11
704.96547693295543
 21
-468.90029178324852
 31
0.0
  0
CIRCLE
  5
60B6
  8
01
 10
704.96547693288346
 20
386.74856685622069
 30
0.0
 40
2.0
  0
LINE
  5
60B7
  8
01
 10
1176.2147886933151
 20
-476.8915082896628
 30
0.0
 11
1322.2147886933119
 21
-476.8915082896628
 31
0.0
  0
LINE
  5
60B8
  8
01
 10
1176.214788693308
 20
-470.8915082896628
 30
0.0
 11
1186.7147886933069
 21
-470.8915082896628
 31
0.0
  0
LINE
  5
60B9
  8
01
 10
1186.7147886933069
 20
-470.8915082896628
 30
0.0
 11
1186.7147886933069
 21
217.10849171033709
 31
0.0
  0
LINE
  5
60BA
  8
01
 10
1185.214788693311
 20
-472.79150828966289
 30
0.0
 11
1185.214788693311
 21
-471.99150828966299
 31
0.0
  0
LINE
  5
60BB
  8
01
 10
1176.2147886933069
 20
-471.9915082896627
 30
0.0
 11
1176.214788693308
 21
-472.79150828966289
 31
0.0
  0
LINE
  5
60BC
  8
01
 10
1176.2147886933069
 20
-471.9915082896627
 30
0.0
 11
1185.214788693311
 21
-471.99150828966299
 31
0.0
  0
LINE
  5
60BD
  8
01
 10
1185.2147886933139
 20
-471.8915082896628
 30
0.0
 11
1185.214788693313
 21
-470.8915082896628
 31
0.0
  0
LINE
  5
60BE
  8
01
 10
1176.2147886933101
 20
-471.8915082896628
 30
0.0
 11
1185.2147886933139
 21
-471.8915082896628
 31
0.0
  0
LINE
  5
60BF
  8
01
 10
1176.2147886933151
 20
-476.8915082896628
 30
0.0
 11
1176.2147886933151
 21
-472.89150828966302
 31
0.0
  0
LINE
  5
60C0
  8
01
 10
1000.4654769329539
 20
219.10849171033709
 30
0.0
 11
700.46547693295167
 21
219.10849171033709
 31
0.0
  0
LINE
  5
60C1
  8
01
 10
990.96547693302011
 20
-464.8915082896624
 30
0.0
 11
700.46547693288437
 21
-464.89150828966262
 31
0.0
  0
LINE
  5
60C2
  8
01
 10
1176.2147886933151
 20
219.10849171033689
 30
0.0
 11
1322.214788693313
 21
219.1084917103361
 31
0.0
  0
LINE
  5
60C3
  8
01
 10
1176.2147886933151
 20
-472.79150828966289
 30
0.0
 11
1185.214788693311
 21
-472.79150828966289
 31
0.0
  0
LINE
  5
60C4
  8
01
 10
1176.2147886933151
 20
-472.89150828966302
 30
0.0
 11
1322.2147886933119
 21
-472.89150828966189
 31
0.0
  0
LINE
  5
60C5
  8
1PHANTOM
 10
987.46547693295361
 20
-8.3915082896628501
 30
0.0
 11
987.46547693295361
 21
-13.39150828966285
 31
0.0
  0
LINE
  5
60C6
  8
1CENTER
 10
970.46547693295179
 20
555.49492008677271
 30
0.0
 11
970.46547693295179
 21
519.06561410607856
 31
0.0
  0
ARC
  5
60C7
  8
01
 10
995.96547693301989
 20
386.74856685622069
 30
0.0
 40
5.0
 50
244.15806723685159
 51
25.841932763174771
  0
LINE
  5
60CB
  8
1PHANTOM
 10
707.01759779283657
 20
381.11041113150372
 30
0.0
 11
438.26550824800768
 21
283.29265014033348
 31
0.0
  0
LINE
  5
60CC
  8
1PHANTOM
 10
429.9758336390932
 20
291.44932194193439
 30
0.0
 11
703.42638628778968
 21
390.9771836497103
 31
0.0
  0
CIRCLE
  5
60CD
  8
01
 10
704.96547693275534
 20
386.74856685617368
 30
0.0
 40
2.0
  0
ARC
  5
60CE
  8
1PHANTOM
 10
704.96547693275534
 20
386.74856685617368
 30
0.0
 40
4.5
 50
20.000000000004832
 51
109.9999999999892
  0
CIRCLE
  5
60CF
  8
1PHANTOM
 10
431.51492428405982
 20
287.22070514839743
 30
0.0
 40
2.0
  0
POINT
  5
60D0
  8
1PHANTOM
 10
430.22606429680849
 20
285.69137852099578
 30
0.0
  0
POINT
  5
60D1
  8
1PHANTOM
 10
432.80378427130557
 20
288.7500317757856
 30
0.0
  0
CIRCLE
  5
60D2
  8
01
 10
704.96547693288448
 20
386.74856685622041
 30
0.0
 40
2.0
  0
LINE
  5
60D3
  8
1PHANTOM
 10
698.72792318399024
 20
389.26708293312942
 30
0.0
 11
702.31913468890616
 21
379.40031041487651
 31
0.0
  0
LINE
  5
60D5
  8
01
 10
707.01759779283645
 20
381.11041113150401
 30
0.0
 11
706.94919376417135
 21
381.2983496556601
 31
0.0
  0
ARC
  5
60D6
  8
1PHANTOM
 10
710.70796424731634
 20
382.66643022896278
 30
0.0
 40
4.0
 50
109.9999999999892
 51
185.9963923825498
  0
ARC
  5
60D7
  8
1PHANTOM
 10
710.70796424731634
 20
382.66643022896278
 30
0.0
 40
4.0
 50
185.9963923825498
 51
200.0000000000048
  0
ARC
  5
60D8
  8
1PHANTOM
 10
709.1688736023516
 20
386.8950470224998
 30
0.0
 40
0.5
 50
289.9999999999892
 51
20.00000000000259
  0
LINE
  5
60D9
  8
1PHANTOM
 10
709.19409372641985
 20
388.28765750118532
 30
0.0
 11
709.63871991274482
 21
387.06605709416289
 31
0.0
  0
ARC
  5
60DB
  8
1PHANTOM
 10
704.96547693288448
 20
386.74856685622041
 30
0.0
 40
4.5
 50
20.00000000000259
 51
109.9999999999892
  0
LINE
  5
60DC
  8
1PHANTOM
 10
433.56704514401548
 20
281.58254942368239
 30
0.0
 11
433.49864111535038
 21
281.7704879478386
 31
0.0
  0
LINE
  5
60DD
  8
1PHANTOM
 10
438.26550824794413
 20
283.29265014031171
 30
0.0
 11
433.56704514401548
 21
281.58254942368239
 31
0.0
  0
LINE
  5
60DE
  8
1PHANTOM
 10
434.67429674302088
 20
293.15942265856228
 30
0.0
 11
438.26550824794413
 21
283.29265014031171
 31
0.0
  0
LINE
  5
60DF
  8
1PHANTOM
 10
434.33400214641819
 20
288.24676557837302
 30
0.0
 11
436.2133873879884
 21
288.93080586502492
 31
0.0
  0
LINE
  5
60E0
  8
1PHANTOM
 10
433.10272963044372
 20
291.6296590132045
 30
0.0
 11
434.33400214641819
 21
288.24676557837302
 31
0.0
  0
LINE
  5
60E1
  8
1PHANTOM
 10
434.9821148720157
 20
292.31369929985573
 30
0.0
 11
433.10272963044372
 21
291.6296590132045
 31
0.0
  0
ARC
  5
60E2
  8
1PHANTOM
 10
431.51492428405982
 20
287.22070514839743
 30
0.0
 40
4.5
 50
109.9999999999892
 51
200.0000000000181
  0
LINE
  5
60E3
  8
1PHANTOM
 10
427.28630749052257
 20
285.68161450343177
 30
0.0
 11
427.73093367684669
 21
284.46001409640871
 31
0.0
  0
ARC
  5
60E4
  8
1PHANTOM
 10
428.20077998723889
 20
284.63102416807118
 30
0.0
 40
0.5
 50
200.0000000000048
 51
289.9999999999892
  0
ARC
  5
60E5
  8
1PHANTOM
 10
429.73987063220551
 20
280.4024073745349
 30
0.0
 40
4.0
 50
20.000000000004832
 51
109.9999999999892
  0
CIRCLE
  5
60E6
  8
1PHANTOM
 10
431.51492428405982
 20
287.22070514839743
 30
0.0
 40
2.0
  0
LINE
  5
60E7
  8
1PHANTOM
 10
704.96547693288346
 20
392.7485668562216
 30
0.0
 11
995.96547693301818
 21
392.7485668562216
 31
0.0
  0
CIRCLE
  5
60E8
  8
01
 10
704.96547693301989
 20
386.74856685622069
 30
0.0
 40
2.0
  0
ARC
  5
60E9
  8
01
 10
704.96547693301989
 20
386.74856685622069
 30
0.0
 40
4.5
 50
180.0
 51
270.0
  0
CIRCLE
  5
60EA
  8
01
 10
704.96547693288346
 20
386.74856685622069
 30
0.0
 40
2.0
  0
LINE
  5
60EB
  8
1DIM
 10
704.96547693288539
 20
392.7485668562216
 30
0.0
 11
704.96547693288539
 21
392.54856685622269
 31
0.0
  0
ARC
  5
60EC
  8
1PHANTOM
 10
700.96547693288448
 20
392.54856685622258
 30
0.0
 40
4.0
 50
270.0
 51
0.0
  0
ARC
  5
60ED
  8
1PHANTOM
 10
700.96547693288346
 20
388.04856685622258
 30
0.0
 40
0.5
 50
90.0
 51
179.99999999998701
  0
LINE
  5
60EE
  8
1PHANTOM
 10
995.96547693301818
 20
392.7485668562216
 30
0.0
 11
995.96547693301818
 21
392.54856685622269
 31
0.0
  0
ARC
  5
60EF
  8
1DIM
 10
999.96547693302
 20
388.04856685622258
 30
0.0
 40
0.5
 50
0.0
 51
90.0
  0
ARC
  5
60F0
  8
1PHANTOM
 10
999.96547693301898
 20
392.54856685622258
 30
0.0
 40
4.0
 50
180.0
 51
270.0
  0
ARC
  5
60F5
  8
01
 10
995.96547693294997
 20
217.1084917103332
 30
0.0
 40
7.5000000000037277
 50
53.130102354189837
 51
126.8698976458101
  0
ARC
  5
60F6
  8
01
 10
995.96547693294997
 20
225.1084917103411
 30
0.0
 40
7.5000000000037277
 50
233.13010235418989
 51
306.86989764581023
  0
ARC
  5
60F7
  8
01
 10
995.96547693294997
 20
-478.89150828966689
 30
0.0
 40
7.5000000000037277
 50
53.130102354189837
 51
126.8698976458101
  0
ARC
  5
60F8
  8
01
 10
995.96547693294997
 20
-470.8915082896591
 30
0.0
 40
7.5000000000037277
 50
233.13010235418989
 51
306.86989764581023
  0
LINE
  5
60F9
  8
1PHANTOM
 10
713.46547693295167
 20
-8.3915082896628501
 30
0.0
 11
713.46547693295167
 21
-13.39150828966296
 31
0.0
  0
LINE
  5
60FA
  8
1PHANTOM
 10
987.46547693295361
 20
-240.39150828966291
 30
0.0
 11
713.4654769329527
 21
-240.39150828966291
 31
0.0
  0
LINE
  5
60FB
  8
1PHANTOM
 10
987.46547693295361
 20
-245.3915082896628
 30
0.0
 11
713.46547693295167
 21
-245.39150828966311
 31
0.0
  0
LINE
  5
60FC
  8
1PHANTOM
 10
987.46547693295361
 20
-240.39150828966291
 30
0.0
 11
987.46547693295361
 21
-245.3915082896628
 31
0.0
  0
LINE
  5
60FD
  8
1PHANTOM
 10
713.46547693295167
 20
-240.39150828966291
 30
0.0
 11
713.46547693295167
 21
-245.3915082896628
 31
0.0
  0
LINE
  5
60FE
  8
1CENTER
 10
714.96547693302
 20
386.74856685622069
 30
0.0
 11
694.96547693302
 21
386.74856685622069
 31
0.0
  0
LINE
  5
60FF
  8
1CENTER
 10
704.96547693301989
 20
396.74856685622069
 30
0.0
 11
704.96547693301989
 21
376.74856685622069
 31
0.0
  0
LINE
  5
6100
  8
01
 10
1176.2147886933151
 20
219.10849171033689
 30
0.0
 11
1176.2147886933151
 21
223.10849171033709
 31
0.0
  0
LINE
  5
6107
  8
1PHANTOM
 10
987.46547693295543
 20
506.24856685622149
 30
0.0
 11
987.46547693295361
 21
399.24856685622149
 31
0.0
  0
LINE
  5
6108
  8
1PHANTOM
 10
713.46547693295167
 20
399.2485668562216
 30
0.0
 11
713.46547693295167
 21
506.24856685622149
 31
0.0
  0
ARC
  5
6109
  8
1PHANTOM
 10
716.46547693295167
 20
399.2485668562216
 30
0.0
 40
3.0
 50
180.0
 51
270.0
  0
CIRCLE
  5
610A
  8
01
 10
995.96547693301989
 20
386.74856685622069
 30
0.0
 40
4.5000000000700311
  0
LINE
  5
610B
  8
1PHANTOM
 10
1318.0147886933159
 20
189.20849171033711
 30
0.0
 11
1319.3147886933159
 21
189.20849171033711
 31
0.0
  0
LINE
  5
610C
  8
1PHANTOM
 10
1319.3147886933159
 20
189.20849171033711
 30
0.0
 11
1319.3147886933159
 21
180.00849171033721
 31
0.0
  0
LINE
  5
610D
  8
1PHANTOM
 10
1318.0147886933159
 20
180.00849171033721
 30
0.0
 11
1319.3147886933159
 21
180.00849171033721
 31
0.0
  0
LINE
  5
610E
  8
1PHANTOM
 10
1318.0147886933159
 20
189.20849171033711
 30
0.0
 11
1318.0147886933159
 21
180.00849171033721
 31
0.0
  0
LINE
  5
6110
  8
1PHANTOM
 10
1318.0147886933159
 20
-433.79150828966289
 30
0.0
 11
1319.3147886933159
 21
-433.79150828966289
 31
0.0
  0
LINE
  5
6111
  8
1PHANTOM
 10
1319.3147886933159
 20
-433.79150828966289
 30
0.0
 11
1319.3147886933159
 21
-442.9915082896627
 31
0.0
  0
LINE
  5
6112
  8
1PHANTOM
 10
1318.0147886933159
 20
-442.9915082896627
 30
0.0
 11
1319.3147886933159
 21
-442.9915082896627
 31
0.0
  0
LINE
  5
6113
  8
1PHANTOM
 10
1318.0147886933159
 20
-433.79150828966289
 30
0.0
 11
1318.0147886933159
 21
-442.9915082896627
 31
0.0
  0
TEXT
  5
616F
  8
1TEXT
 10
38.056967582374
 20
658.1978897080952
 30
0.0
 40
40.0
  1
D-042-SS
  0
LINE
  5
6179
  8
01
 10
1322.2147886933119
 20
-516.42585055864117
 30
0.0
 11
1322.2147886933119
 21
263.10849171033709
 31
0.0
  0
LINE
  5
617A
  8
01
 10
1331.2147886933119
 20
-516.42585055864117
 30
0.0
 11
1331.2147886933119
 21
263.10849171033709
 31
0.0
  0
LINE
  5
617B
  8
01
 10
1343.214788693313
 20
-516.42585055864117
 30
0.0
 11
1343.214788693313
 21
263.10849171033709
 31
0.0
  0
LINE
  5
619A
  8
1CENTER
 10
980.46547693295179
 20
184.60849171033709
 30
0.0
 11
960.46547693295167
 21
184.60849171033709
 31
0.0
  0
LINE
  5
619B
  8
1CENTER
 10
970.46547693295179
 20
194.60849171033709
 30
0.0
 11
970.46547693295179
 21
174.60849171033709
 31
0.0
  0
LINE
  5
619C
  8
1CENTER
 10
740.46547693295179
 20
184.60849171033709
 30
0.0
 11
720.46547693295167
 21
184.60849171033709
 31
0.0
  0
LINE
  5
619D
  8
1CENTER
 10
730.46547693295167
 20
194.60849171033709
 30
0.0
 11
730.46547693295167
 21
174.60849171033709
 31
0.0
  0
LINE
  5
619E
  8
1CENTER
 10
740.46547693295179
 20
-438.39150828966291
 30
0.0
 11
720.46547693295167
 21
-438.39150828966291
 31
0.0
  0
LINE
  5
619F
  8
1CENTER
 10
730.46547693295167
 20
-428.39150828966291
 30
0.0
 11
730.46547693295167
 21
-448.3915082896628
 31
0.0
  0
LINE
  5
61A0
  8
1CENTER
 10
980.46547693295179
 20
-438.39150828966291
 30
0.0
 11
960.46547693295167
 21
-438.39150828966291
 31
0.0
  0
LINE
  5
61A1
  8
1CENTER
 10
970.46547693295179
 20
-428.39150828966291
 30
0.0
 11
970.46547693295179
 21
-448.3915082896628
 31
0.0
  0
LINE
  5
63F2
  8
1PHANTOM
 10
965.86547693295188
 20
524.04856685622462
 30
0.0
 11
965.86547693295188
 21
525.34856685622469
 31
0.0
  0
LINE
  5
63F3
  8
1PHANTOM
 10
965.86547693295188
 20
525.34856685622469
 30
0.0
 11
975.06547693295158
 21
525.34856685622469
 31
0.0
  0
LINE
  5
63F4
  8
1PHANTOM
 10
975.06547693295158
 20
524.04856685622462
 30
0.0
 11
975.06547693295158
 21
525.34856685622469
 31
0.0
  0
LINE
  5
63F5
  8
1PHANTOM
 10
965.86547693295188
 20
524.04856685622462
 30
0.0
 11
975.06547693295158
 21
524.04856685622462
 31
0.0
  0
LINE
  5
63F6
  8
1PHANTOM
 10
725.86547693295188
 20
524.04856685622462
 30
0.0
 11
725.86547693295188
 21
525.34856685622469
 31
0.0
  0
LINE
  5
63F7
  8
1PHANTOM
 10
725.86547693295188
 20
525.34856685622469
 30
0.0
 11
735.0654769329517
 21
525.34856685622469
 31
0.0
  0
LINE
  5
63F8
  8
1PHANTOM
 10
735.0654769329517
 20
524.04856685622462
 30
0.0
 11
735.0654769329517
 21
525.34856685622469
 31
0.0
  0
LINE
  5
63F9
  8
1PHANTOM
 10
725.86547693295188
 20
524.04856685622462
 30
0.0
 11
735.0654769329517
 21
524.04856685622462
 31
0.0
  0
LINE
  5
7590
  8
1PHANTOM
 10
1305.2147886933169
 20
-379.20860110173538
 30
0.0
 11
1305.214788693318
 21
-471.8915082896628
 31
0.0
  0
TEXT
  5
764F
  8
1TEXT
 10
819.76363656057174
 20
574.70208573750824
 30
0.0
 40
18.0
  1
4本（付属）
  0
LINE
  5
76C1
  8
1DIM
 10
38.056967582374
 20
598.19788970809532
 30
0.0
 11
388.05696758237309
 21
598.19788970809532
 31
0.0
  0
TEXT
  5
76C2
  8
1TEXT
 10
71.81887234427694
 20
605.69788970809532
 30
0.0
 40
20.0
  1
表面処理：
 72
     1
 11
125.0569675823722
 21
605.69788970809532
 31
0.0
  0
LINE
  5
76C3
  8
1DIM
 10
38.056967582374
 20
633.1978897080952
 30
0.0
 11
388.05696758237309
 21
633.1978897080952
 31
0.0
  0
LINE
  5
76C4
  8
1DIM
 10
38.056967582374
 20
633.1978897080952
 30
0.0
 11
388.05696758237309
 21
633.1978897080952
 31
0.0
  0
LINE
  5
76C5
  8
1DIM
 10
213.05696758237309
 20
633.1978897080952
 30
0.0
 11
213.0569675823736
 21
563.19788970809532
 31
0.0
  0
TEXT
  5
76C6
  8
1TEXT
 10
266.05696758237133
 20
605.69788970809532
 30
0.0
 40
20.0
  1
コード
 72
     1
 11
300.05696758237133
 21
605.69788970809532
 31
0.0
  0
LINE
  5
76C7
  8
1DIM
 10
38.056967582374
 20
563.19788970809532
 30
0.0
 11
388.05696758237309
 21
563.19788970809532
 31
0.0
  0
TEXT
  5
76C8
  8
1TEXT
 10
68.390300915705524
 20
571.64332165024098
 30
0.0
 40
20.0
  1
アルマイト
 72
     1
 11
125.0569675823722
 21
571.64332165024098
 31
0.0
  0
TEXT
  5
76C9
  8
1TEXT
 10
240.05696758237579
 20
569.62610478984834
 30
0.0
 40
20.0
  1
D-042-SS
 41
0.8
 72
     1
 11
300.05696758237582
 21
569.62610478984834
 31
0.0
  0
LINE
  5
76CA
  8
1DIM
 10
38.056967582374
 20
563.19788970809532
 30
0.0
 11
38.05696758237309
 21
633.1978897080952
 31
0.0
  0
LINE
  5
76CB
  8
1DIM
 10
388.05696758237309
 20
563.19788970809532
 30
0.0
 11
388.05696758237309
 21
633.1978897080952
 31
0.0
  0
LINE
  5
777E
  8
01
 10
727.96547693295179
 20
544.16643244227043
 30
0.0
 11
732.96547693295167
 21
545.16643244227043
 31
0.0
  0
LINE
  5
777F
  8
1CENTER
 10
730.46547693295167
 20
565.75283120738845
 30
0.0
 11
730.46547693295167
 21
519.06561410607856
 31
0.0
  0
LINE
  5
7780
  8
01
 10
732.21547693295167
 20
549.31643244227052
 30
0.0
 11
732.96547693295167
 21
549.16643244227043
 31
0.0
  0
LINE
  5
7781
  8
01
 10
727.96547693295179
 20
550.16643244227043
 30
0.0
 11
732.96547693295167
 21
551.16643244227043
 31
0.0
  0
LINE
  5
7782
  8
01
 10
727.96547693295179
 20
552.16643244227043
 30
0.0
 11
728.71547693295179
 21
552.01643244227046
 31
0.0
  0
LINE
  5
7783
  8
01
 10
727.96547693295179
 20
550.16643244227043
 30
0.0
 11
728.71547693295179
 21
550.01643244227046
 31
0.0
  0
LINE
  5
7784
  8
01
 10
732.21547693295167
 20
551.31643244227052
 30
0.0
 11
732.96547693295167
 21
551.16643244227043
 31
0.0
  0
LINE
  5
7785
  8
01
 10
732.21547693295167
 20
545.31643244227052
 30
0.0
 11
732.96547693295167
 21
545.16643244227043
 31
0.0
  0
LINE
  5
7786
  8
01
 10
727.96547693295179
 20
548.16643244227043
 30
0.0
 11
732.96547693295167
 21
549.16643244227043
 31
0.0
  0
LINE
  5
7787
  8
01
 10
727.96547693295179
 20
546.16643244227043
 30
0.0
 11
732.96547693295167
 21
547.16643244227043
 31
0.0
  0
LINE
  5
7788
  8
01
 10
727.96547693295179
 20
546.16643244227043
 30
0.0
 11
728.71547693295179
 21
546.01643244227046
 31
0.0
  0
LINE
  5
7789
  8
01
 10
727.96547693295179
 20
548.16643244227043
 30
0.0
 11
728.71547693295179
 21
548.01643244227046
 31
0.0
  0
LINE
  5
778A
  8
01
 10
732.21547693295167
 20
547.31643244227052
 30
0.0
 11
732.96547693295167
 21
547.16643244227043
 31
0.0
  0
LINE
  5
778B
  8
01
 10
729.28169653243447
 20
562.42967636216702
 30
0.0
 11
731.52883361989552
 21
562.87910377965932
 31
0.0
  0
LINE
  5
778C
  8
01
 10
728.149209991916
 20
558.20317905406318
 30
0.0
 11
732.54611447300647
 21
559.08255995028151
 31
0.0
  0
LINE
  5
778D
  8
01
 10
728.149209991916
 20
558.20317905406318
 30
0.0
 11
728.899209991916
 21
558.05317905406332
 31
0.0
  0
LINE
  5
778E
  8
01
 10
727.96547693295179
 20
556.16643244227043
 30
0.0
 11
732.96547693295167
 21
557.16643244227043
 31
0.0
  0
LINE
  5
778F
  8
01
 10
727.96547693295179
 20
556.16643244227043
 30
0.0
 11
728.71547693295179
 21
556.01643244227046
 31
0.0
  0
LINE
  5
7790
  8
01
 10
732.21547693295167
 20
557.31643244227041
 30
0.0
 11
732.96547693295167
 21
557.16643244227043
 31
0.0
  0
LINE
  5
7791
  8
01
 10
729.28169653243447
 20
562.42967636216702
 30
0.0
 11
730.03169653243458
 21
562.27967636216704
 31
0.0
  0
LINE
  5
7792
  8
01
 10
728.71545326217529
 20
560.31642770811527
 30
0.0
 11
732.03747404645117
 21
560.98083186497036
 31
0.0
  0
LINE
  5
7793
  8
01
 10
728.71545326217529
 20
560.31642770811527
 30
0.0
 11
729.46545326217529
 21
560.16642770811518
 31
0.0
  0
LINE
  5
7794
  8
01
 10
731.28747404645117
 20
561.13083186497033
 30
0.0
 11
732.03747404645117
 21
560.98083186497036
 31
0.0
  0
LINE
  5
7795
  8
01
 10
731.79611447300647
 20
559.23255995028148
 30
0.0
 11
732.54611447300647
 21
559.08255995028151
 31
0.0
  0
LINE
  5
7796
  8
01
 10
727.96547693295179
 20
554.16643244227043
 30
0.0
 11
732.96547693295167
 21
555.16643244227043
 31
0.0
  0
LINE
  5
7797
  8
01
 10
727.96547693295179
 20
554.16643244227043
 30
0.0
 11
728.71547693295179
 21
554.01643244227046
 31
0.0
  0
LINE
  5
7798
  8
01
 10
732.21547693295167
 20
555.31643244227052
 30
0.0
 11
732.96547693295167
 21
555.16643244227043
 31
0.0
  0
LINE
  5
7799
  8
01
 10
732.21547693295167
 20
553.31643244227052
 30
0.0
 11
732.96547693295167
 21
553.16643244227043
 31
0.0
  0
LINE
  5
779A
  8
01
 10
727.96547693295179
 20
552.16643244227043
 30
0.0
 11
732.96547693295167
 21
553.16643244227043
 31
0.0
  0
LINE
  5
779B
  8
01
 10
730.77883361989552
 20
563.02910377965918
 30
0.0
 11
731.52883361989552
 21
562.87910377965932
 31
0.0
  0
LINE
  5
779C
  8
01
 10
727.96547693295179
 20
528.16643244227055
 30
0.0
 11
732.96547693295167
 21
529.16643244227043
 31
0.0
  0
LINE
  5
779D
  8
01
 10
732.21547693295167
 20
529.31643244227052
 30
0.0
 11
732.96547693295167
 21
529.16643244227043
 31
0.0
  0
LINE
  5
779E
  8
01
 10
727.96547693295179
 20
530.16643244227055
 30
0.0
 11
728.71547693295179
 21
530.01643244227057
 31
0.0
  0
LINE
  5
779F
  8
01
 10
732.21547693295167
 20
525.31643244227052
 30
0.0
 11
732.96547693295167
 21
525.16643244227043
 31
0.0
  0
LINE
  5
77A0
  8
01
 10
727.96547693295179
 20
524.16643244227055
 30
0.0
 11
728.71547693295179
 21
524.01643244227046
 31
0.0
  0
LINE
  5
77A1
  8
01
 10
727.96547693295179
 20
524.16643244227055
 30
0.0
 11
732.96547693295167
 21
525.16643244227043
 31
0.0
  0
LINE
  5
77A2
  8
01
 10
732.21547693295167
 20
527.31643244227052
 30
0.0
 11
732.96547693295167
 21
527.16643244227043
 31
0.0
  0
LINE
  5
77A3
  8
01
 10
727.96547693295179
 20
526.16643244227055
 30
0.0
 11
728.71547693295179
 21
526.01643244227057
 31
0.0
  0
LINE
  5
77A4
  8
01
 10
727.96547693295179
 20
526.16643244227055
 30
0.0
 11
732.96547693295167
 21
527.16643244227043
 31
0.0
  0
LINE
  5
77A5
  8
01
 10
727.96547693295179
 20
528.16643244227055
 30
0.0
 11
728.71547693295179
 21
528.01643244227046
 31
0.0
  0
LINE
  5
77A6
  8
01
 10
732.21547693295167
 20
524.04856685622462
 30
0.0
 11
728.71547693295179
 21
524.04856685622462
 31
0.0
  0
LINE
  5
77A7
  8
01
 10
727.96547693295179
 20
536.16643244227043
 30
0.0
 11
732.96547693295167
 21
537.16643244227043
 31
0.0
  0
LINE
  5
77A8
  8
01
 10
727.96547693295179
 20
538.16643244227043
 30
0.0
 11
728.71547693295179
 21
538.01643244227057
 31
0.0
  0
LINE
  5
77A9
  8
01
 10
727.96547693295179
 20
536.16643244227043
 30
0.0
 11
728.71547693295179
 21
536.01643244227046
 31
0.0
  0
LINE
  5
77AA
  8
01
 10
732.21547693295167
 20
537.31643244227052
 30
0.0
 11
732.96547693295167
 21
537.16643244227043
 31
0.0
  0
LINE
  5
77AB
  8
01
 10
727.96547693295179
 20
540.16643244227043
 30
0.0
 11
732.96547693295167
 21
541.16643244227043
 31
0.0
  0
LINE
  5
77AC
  8
01
 10
732.21547693295167
 20
541.31643244227052
 30
0.0
 11
732.96547693295167
 21
541.16643244227043
 31
0.0
  0
LINE
  5
77AD
  8
01
 10
727.96547693295179
 20
540.16643244227043
 30
0.0
 11
728.71547693295179
 21
540.01643244227046
 31
0.0
  0
LINE
  5
77AE
  8
01
 10
732.21547693295167
 20
539.31643244227052
 30
0.0
 11
732.96547693295167
 21
539.16643244227043
 31
0.0
  0
LINE
  5
77AF
  8
01
 10
727.96547693295179
 20
538.16643244227043
 30
0.0
 11
732.96547693295167
 21
539.16643244227043
 31
0.0
  0
LINE
  5
77B0
  8
01
 10
732.21547693295167
 20
531.31643244227052
 30
0.0
 11
732.96547693295167
 21
531.16643244227043
 31
0.0
  0
LINE
  5
77B1
  8
01
 10
732.21547693295167
 20
533.31643244227052
 30
0.0
 11
732.96547693295167
 21
533.16643244227043
 31
0.0
  0
LINE
  5
77B2
  8
01
 10
727.96547693295179
 20
532.16643244227043
 30
0.0
 11
728.71547693295179
 21
532.01643244227046
 31
0.0
  0
LINE
  5
77B3
  8
01
 10
727.96547693295179
 20
532.16643244227043
 30
0.0
 11
732.96547693295167
 21
533.16643244227043
 31
0.0
  0
LINE
  5
77B4
  8
01
 10
727.96547693295179
 20
534.16643244227043
 30
0.0
 11
732.96547693295167
 21
535.16643244227043
 31
0.0
  0
LINE
  5
77B5
  8
01
 10
727.96547693295179
 20
534.16643244227043
 30
0.0
 11
728.71547693295179
 21
534.01643244227057
 31
0.0
  0
LINE
  5
77B6
  8
01
 10
732.21547693295167
 20
535.31643244227052
 30
0.0
 11
732.96547693295167
 21
535.16643244227043
 31
0.0
  0
LINE
  5
77B7
  8
01
 10
727.96547693295179
 20
530.16643244227055
 30
0.0
 11
732.96547693295167
 21
531.16643244227043
 31
0.0
  0
LINE
  5
77B8
  8
01
 10
727.96547693295179
 20
542.16643244227043
 30
0.0
 11
732.96547693295167
 21
543.16643244227043
 31
0.0
  0
LINE
  5
77B9
  8
01
 10
727.96547693295179
 20
544.16643244227043
 30
0.0
 11
728.71547693295179
 21
544.01643244227046
 31
0.0
  0
LINE
  5
77BA
  8
01
 10
732.21547693295167
 20
543.31643244227052
 30
0.0
 11
732.96547693295167
 21
543.16643244227043
 31
0.0
  0
LINE
  5
77BB
  8
01
 10
727.96547693295179
 20
542.16643244227043
 30
0.0
 11
728.71547693295179
 21
542.01643244227057
 31
0.0
  0
LINE
  5
77BD
  8
01
 10
967.96547693295179
 20
544.16643244227043
 30
0.0
 11
972.96547693295167
 21
545.16643244227043
 31
0.0
  0
LINE
  5
77BE
  8
1CENTER
 10
970.46547693295179
 20
565.75283120738845
 30
0.0
 11
970.46547693295179
 21
519.06561410607856
 31
0.0
  0
LINE
  5
77BF
  8
01
 10
972.21547693295179
 20
549.31643244227052
 30
0.0
 11
972.96547693295167
 21
549.16643244227043
 31
0.0
  0
LINE
  5
77C0
  8
01
 10
967.96547693295179
 20
550.16643244227043
 30
0.0
 11
972.96547693295167
 21
551.16643244227043
 31
0.0
  0
LINE
  5
77C1
  8
01
 10
967.96547693295179
 20
552.16643244227043
 30
0.0
 11
968.71547693295179
 21
552.01643244227046
 31
0.0
  0
LINE
  5
77C2
  8
01
 10
967.96547693295179
 20
550.16643244227043
 30
0.0
 11
968.71547693295179
 21
550.01643244227046
 31
0.0
  0
LINE
  5
77C3
  8
01
 10
972.21547693295179
 20
551.31643244227052
 30
0.0
 11
972.96547693295167
 21
551.16643244227043
 31
0.0
  0
LINE
  5
77C4
  8
01
 10
972.21547693295179
 20
545.31643244227052
 30
0.0
 11
972.96547693295167
 21
545.16643244227043
 31
0.0
  0
LINE
  5
77C5
  8
01
 10
967.96547693295179
 20
548.16643244227043
 30
0.0
 11
972.96547693295167
 21
549.16643244227043
 31
0.0
  0
LINE
  5
77C6
  8
01
 10
967.96547693295179
 20
546.16643244227043
 30
0.0
 11
972.96547693295167
 21
547.16643244227043
 31
0.0
  0
LINE
  5
77C7
  8
01
 10
967.96547693295179
 20
546.16643244227043
 30
0.0
 11
968.71547693295179
 21
546.01643244227046
 31
0.0
  0
LINE
  5
77C8
  8
01
 10
967.96547693295179
 20
548.16643244227043
 30
0.0
 11
968.71547693295179
 21
548.01643244227046
 31
0.0
  0
LINE
  5
77C9
  8
01
 10
972.21547693295179
 20
547.31643244227052
 30
0.0
 11
972.96547693295167
 21
547.16643244227043
 31
0.0
  0
LINE
  5
77CA
  8
01
 10
969.28169653243447
 20
562.42967636216702
 30
0.0
 11
971.52883361989552
 21
562.87910377965932
 31
0.0
  0
LINE
  5
77CB
  8
01
 10
968.14920999191588
 20
558.20317905406318
 30
0.0
 11
972.54611447300647
 21
559.08255995028151
 31
0.0
  0
LINE
  5
77CC
  8
01
 10
968.14920999191588
 20
558.20317905406318
 30
0.0
 11
968.89920999191588
 21
558.05317905406332
 31
0.0
  0
LINE
  5
77CD
  8
01
 10
967.96547693295179
 20
556.16643244227043
 30
0.0
 11
972.96547693295167
 21
557.16643244227043
 31
0.0
  0
LINE
  5
77CE
  8
01
 10
967.96547693295179
 20
556.16643244227043
 30
0.0
 11
968.71547693295179
 21
556.01643244227046
 31
0.0
  0
LINE
  5
77CF
  8
01
 10
972.21547693295179
 20
557.31643244227041
 30
0.0
 11
972.96547693295167
 21
557.16643244227043
 31
0.0
  0
LINE
  5
77D0
  8
01
 10
969.28169653243447
 20
562.42967636216702
 30
0.0
 11
970.03169653243447
 21
562.27967636216704
 31
0.0
  0
LINE
  5
77D1
  8
01
 10
968.71545326217517
 20
560.31642770811527
 30
0.0
 11
972.03747404645117
 21
560.98083186497036
 31
0.0
  0
LINE
  5
77D2
  8
01
 10
968.71545326217517
 20
560.31642770811527
 30
0.0
 11
969.46545326217517
 21
560.16642770811518
 31
0.0
  0
LINE
  5
77D3
  8
01
 10
971.28747404645117
 20
561.13083186497033
 30
0.0
 11
972.03747404645117
 21
560.98083186497036
 31
0.0
  0
LINE
  5
77D4
  8
01
 10
971.79611447300658
 20
559.23255995028148
 30
0.0
 11
972.54611447300647
 21
559.08255995028151
 31
0.0
  0
LINE
  5
77D5
  8
01
 10
967.96547693295179
 20
554.16643244227043
 30
0.0
 11
972.96547693295167
 21
555.16643244227043
 31
0.0
  0
LINE
  5
77D6
  8
01
 10
967.96547693295179
 20
554.16643244227043
 30
0.0
 11
968.71547693295179
 21
554.01643244227046
 31
0.0
  0
LINE
  5
77D7
  8
01
 10
972.21547693295179
 20
555.31643244227052
 30
0.0
 11
972.96547693295167
 21
555.16643244227043
 31
0.0
  0
LINE
  5
77D8
  8
01
 10
972.21547693295179
 20
553.31643244227052
 30
0.0
 11
972.96547693295167
 21
553.16643244227043
 31
0.0
  0
LINE
  5
77D9
  8
01
 10
967.96547693295179
 20
552.16643244227043
 30
0.0
 11
972.96547693295167
 21
553.16643244227043
 31
0.0
  0
LINE
  5
77DA
  8
01
 10
970.77883361989552
 20
563.02910377965918
 30
0.0
 11
971.52883361989552
 21
562.87910377965932
 31
0.0
  0
LINE
  5
77DB
  8
01
 10
967.96547693295179
 20
528.16643244227055
 30
0.0
 11
972.96547693295167
 21
529.16643244227043
 31
0.0
  0
LINE
  5
77DC
  8
01
 10
972.21547693295179
 20
529.31643244227052
 30
0.0
 11
972.96547693295167
 21
529.16643244227043
 31
0.0
  0
LINE
  5
77DD
  8
01
 10
967.96547693295179
 20
530.16643244227055
 30
0.0
 11
968.71547693295179
 21
530.01643244227057
 31
0.0
  0
LINE
  5
77DE
  8
01
 10
972.21547693295179
 20
525.31643244227052
 30
0.0
 11
972.96547693295167
 21
525.16643244227043
 31
0.0
  0
LINE
  5
77DF
  8
01
 10
967.96547693295179
 20
524.16643244227055
 30
0.0
 11
968.71547693295179
 21
524.01643244227046
 31
0.0
  0
LINE
  5
77E0
  8
01
 10
967.96547693295179
 20
524.16643244227055
 30
0.0
 11
972.96547693295167
 21
525.16643244227043
 31
0.0
  0
LINE
  5
77E1
  8
01
 10
972.21547693295179
 20
527.31643244227052
 30
0.0
 11
972.96547693295167
 21
527.16643244227043
 31
0.0
  0
LINE
  5
77E2
  8
01
 10
967.96547693295179
 20
526.16643244227055
 30
0.0
 11
968.71547693295179
 21
526.01643244227057
 31
0.0
  0
LINE
  5
77E3
  8
01
 10
967.96547693295179
 20
526.16643244227055
 30
0.0
 11
972.96547693295167
 21
527.16643244227043
 31
0.0
  0
LINE
  5
77E4
  8
01
 10
967.96547693295179
 20
528.16643244227055
 30
0.0
 11
968.71547693295179
 21
528.01643244227046
 31
0.0
  0
LINE
  5
77E5
  8
01
 10
972.21547693295179
 20
524.04856685622462
 30
0.0
 11
968.71547693295179
 21
524.04856685622462
 31
0.0
  0
LINE
  5
77E6
  8
01
 10
967.96547693295179
 20
536.16643244227043
 30
0.0
 11
972.96547693295167
 21
537.16643244227043
 31
0.0
  0
LINE
  5
77E7
  8
01
 10
967.96547693295179
 20
538.16643244227043
 30
0.0
 11
968.71547693295179
 21
538.01643244227057
 31
0.0
  0
LINE
  5
77E8
  8
01
 10
967.96547693295179
 20
536.16643244227043
 30
0.0
 11
968.71547693295179
 21
536.01643244227046
 31
0.0
  0
LINE
  5
77E9
  8
01
 10
972.21547693295179
 20
537.31643244227052
 30
0.0
 11
972.96547693295167
 21
537.16643244227043
 31
0.0
  0
LINE
  5
77EA
  8
01
 10
967.96547693295179
 20
540.16643244227043
 30
0.0
 11
972.96547693295167
 21
541.16643244227043
 31
0.0
  0
LINE
  5
77EB
  8
01
 10
972.21547693295179
 20
541.31643244227052
 30
0.0
 11
972.96547693295167
 21
541.16643244227043
 31
0.0
  0
LINE
  5
77EC
  8
01
 10
967.96547693295179
 20
540.16643244227043
 30
0.0
 11
968.71547693295179
 21
540.01643244227046
 31
0.0
  0
LINE
  5
77ED
  8
01
 10
972.21547693295179
 20
539.31643244227052
 30
0.0
 11
972.96547693295167
 21
539.16643244227043
 31
0.0
  0
LINE
  5
77EE
  8
01
 10
967.96547693295179
 20
538.16643244227043
 30
0.0
 11
972.96547693295167
 21
539.16643244227043
 31
0.0
  0
LINE
  5
77EF
  8
01
 10
972.21547693295179
 20
531.31643244227052
 30
0.0
 11
972.96547693295167
 21
531.16643244227043
 31
0.0
  0
LINE
  5
77F0
  8
01
 10
972.21547693295179
 20
533.31643244227052
 30
0.0
 11
972.96547693295167
 21
533.16643244227043
 31
0.0
  0
LINE
  5
77F1
  8
01
 10
967.96547693295179
 20
532.16643244227043
 30
0.0
 11
968.71547693295179
 21
532.01643244227046
 31
0.0
  0
LINE
  5
77F2
  8
01
 10
967.96547693295179
 20
532.16643244227043
 30
0.0
 11
972.96547693295167
 21
533.16643244227043
 31
0.0
  0
LINE
  5
77F3
  8
01
 10
967.96547693295179
 20
534.16643244227043
 30
0.0
 11
972.96547693295167
 21
535.16643244227043
 31
0.0
  0
LINE
  5
77F4
  8
01
 10
967.96547693295179
 20
534.16643244227043
 30
0.0
 11
968.71547693295179
 21
534.01643244227057
 31
0.0
  0
LINE
  5
77F5
  8
01
 10
972.21547693295179
 20
535.31643244227052
 30
0.0
 11
972.96547693295167
 21
535.16643244227043
 31
0.0
  0
LINE
  5
77F6
  8
01
 10
967.96547693295179
 20
530.16643244227055
 30
0.0
 11
972.96547693295167
 21
531.16643244227043
 31
0.0
  0
LINE
  5
77F7
  8
01
 10
967.96547693295179
 20
542.16643244227043
 30
0.0
 11
972.96547693295167
 21
543.16643244227043
 31
0.0
  0
LINE
  5
77F8
  8
01
 10
967.96547693295179
 20
544.16643244227043
 30
0.0
 11
968.71547693295179
 21
544.01643244227046
 31
0.0
  0
LINE
  5
77F9
  8
01
 10
972.21547693295179
 20
543.31643244227052
 30
0.0
 11
972.96547693295167
 21
543.16643244227043
 31
0.0
  0
LINE
  5
77FA
  8
01
 10
967.96547693295179
 20
542.16643244227043
 30
0.0
 11
968.71547693295179
 21
542.01643244227057
 31
0.0
  0
LINE
  5
77FC
  8
01
 10
1338.132654279362
 20
-435.8915082896628
 30
0.0
 11
1339.132654279362
 21
-440.8915082896628
 31
0.0
  0
LINE
  5
77FD
  8
1CENTER
 10
1359.71905304448
 20
-438.3915082896628
 30
0.0
 11
1313.0318359431701
 21
-438.3915082896628
 31
0.0
  0
LINE
  5
77FE
  8
01
 10
1343.2826542793621
 20
-440.1415082896628
 30
0.0
 11
1343.132654279362
 21
-440.8915082896628
 31
0.0
  0
LINE
  5
77FF
  8
01
 10
1344.132654279362
 20
-435.8915082896628
 30
0.0
 11
1345.132654279362
 21
-440.8915082896628
 31
0.0
  0
LINE
  5
7800
  8
01
 10
1346.132654279362
 20
-435.8915082896628
 30
0.0
 11
1345.9826542793619
 21
-436.64150828966291
 31
0.0
  0
LINE
  5
7801
  8
01
 10
1344.132654279362
 20
-435.8915082896628
 30
0.0
 11
1343.9826542793619
 21
-436.64150828966291
 31
0.0
  0
LINE
  5
7802
  8
01
 10
1345.2826542793621
 20
-440.1415082896628
 30
0.0
 11
1345.132654279362
 21
-440.8915082896628
 31
0.0
  0
LINE
  5
7803
  8
01
 10
1339.2826542793621
 20
-440.1415082896628
 30
0.0
 11
1339.132654279362
 21
-440.8915082896628
 31
0.0
  0
LINE
  5
7804
  8
01
 10
1342.132654279362
 20
-435.8915082896628
 30
0.0
 11
1343.132654279362
 21
-440.8915082896628
 31
0.0
  0
LINE
  5
7805
  8
01
 10
1340.132654279362
 20
-435.8915082896628
 30
0.0
 11
1341.132654279362
 21
-440.8915082896628
 31
0.0
  0
LINE
  5
7806
  8
01
 10
1340.132654279362
 20
-435.8915082896628
 30
0.0
 11
1339.9826542793619
 21
-436.64150828966291
 31
0.0
  0
LINE
  5
7807
  8
01
 10
1342.132654279362
 20
-435.8915082896628
 30
0.0
 11
1341.9826542793619
 21
-436.64150828966291
 31
0.0
  0
LINE
  5
7808
  8
01
 10
1341.2826542793621
 20
-440.1415082896628
 30
0.0
 11
1341.132654279362
 21
-440.8915082896628
 31
0.0
  0
LINE
  5
7809
  8
01
 10
1356.3958981992589
 20
-437.20772788914559
 30
0.0
 11
1356.8453256167511
 21
-439.45486497660659
 31
0.0
  0
LINE
  5
780A
  8
01
 10
1352.169400891155
 20
-436.075241348627
 30
0.0
 11
1353.0487817873729
 21
-440.47214582971759
 31
0.0
  0
LINE
  5
780B
  8
01
 10
1352.169400891155
 20
-436.075241348627
 30
0.0
 11
1352.0194008911551
 21
-436.82524134862712
 31
0.0
  0
LINE
  5
780C
  8
01
 10
1350.132654279362
 20
-435.8915082896628
 30
0.0
 11
1351.132654279362
 21
-440.8915082896628
 31
0.0
  0
LINE
  5
780D
  8
01
 10
1350.132654279362
 20
-435.8915082896628
 30
0.0
 11
1349.9826542793619
 21
-436.64150828966291
 31
0.0
  0
LINE
  5
780E
  8
01
 10
1351.2826542793621
 20
-440.1415082896628
 30
0.0
 11
1351.132654279362
 21
-440.8915082896628
 31
0.0
  0
LINE
  5
780F
  8
01
 10
1356.3958981992589
 20
-437.20772788914559
 30
0.0
 11
1356.245898199259
 21
-437.95772788914559
 31
0.0
  0
LINE
  5
7810
  8
01
 10
1354.2826495452071
 20
-436.6414846188863
 30
0.0
 11
1354.947053702062
 21
-439.96350540316229
 31
0.0
  0
LINE
  5
7811
  8
01
 10
1354.2826495452071
 20
-436.6414846188863
 30
0.0
 11
1354.132649545207
 21
-437.3914846188863
 31
0.0
  0
LINE
  5
7812
  8
01
 10
1355.0970537020621
 20
-439.21350540316229
 30
0.0
 11
1354.947053702062
 21
-439.96350540316229
 31
0.0
  0
LINE
  5
7813
  8
01
 10
1353.198781787373
 20
-439.72214582971759
 30
0.0
 11
1353.0487817873729
 21
-440.47214582971759
 31
0.0
  0
LINE
  5
7814
  8
01
 10
1348.132654279362
 20
-435.8915082896628
 30
0.0
 11
1349.132654279362
 21
-440.8915082896628
 31
0.0
  0
LINE
  5
7815
  8
01
 10
1348.132654279362
 20
-435.8915082896628
 30
0.0
 11
1347.9826542793619
 21
-436.64150828966291
 31
0.0
  0
LINE
  5
7816
  8
01
 10
1349.2826542793621
 20
-440.1415082896628
 30
0.0
 11
1349.132654279362
 21
-440.8915082896628
 31
0.0
  0
LINE
  5
7817
  8
01
 10
1347.2826542793621
 20
-440.1415082896628
 30
0.0
 11
1347.132654279362
 21
-440.8915082896628
 31
0.0
  0
LINE
  5
7818
  8
01
 10
1346.132654279362
 20
-435.8915082896628
 30
0.0
 11
1347.132654279362
 21
-440.8915082896628
 31
0.0
  0
LINE
  5
7819
  8
01
 10
1356.995325616751
 20
-438.70486497660647
 30
0.0
 11
1356.8453256167511
 21
-439.45486497660659
 31
0.0
  0
LINE
  5
781A
  8
01
 10
1322.132654279362
 20
-435.8915082896628
 30
0.0
 11
1323.132654279362
 21
-440.8915082896628
 31
0.0
  0
LINE
  5
781B
  8
01
 10
1323.2826542793621
 20
-440.1415082896628
 30
0.0
 11
1323.132654279362
 21
-440.8915082896628
 31
0.0
  0
LINE
  5
781C
  8
01
 10
1324.132654279362
 20
-435.8915082896628
 30
0.0
 11
1323.9826542793619
 21
-436.64150828966291
 31
0.0
  0
LINE
  5
781D
  8
01
 10
1319.2826542793621
 20
-440.1415082896628
 30
0.0
 11
1319.132654279362
 21
-440.8915082896628
 31
0.0
  0
LINE
  5
781E
  8
01
 10
1318.132654279362
 20
-435.8915082896628
 30
0.0
 11
1317.9826542793619
 21
-436.64150828966291
 31
0.0
  0
LINE
  5
781F
  8
01
 10
1318.132654279362
 20
-435.8915082896628
 30
0.0
 11
1319.132654279362
 21
-440.8915082896628
 31
0.0
  0
LINE
  5
7820
  8
01
 10
1321.2826542793621
 20
-440.1415082896628
 30
0.0
 11
1321.132654279362
 21
-440.8915082896628
 31
0.0
  0
LINE
  5
7821
  8
01
 10
1320.132654279362
 20
-435.8915082896628
 30
0.0
 11
1319.9826542793619
 21
-436.64150828966291
 31
0.0
  0
LINE
  5
7822
  8
01
 10
1320.132654279362
 20
-435.8915082896628
 30
0.0
 11
1321.132654279362
 21
-440.8915082896628
 31
0.0
  0
LINE
  5
7823
  8
01
 10
1322.132654279362
 20
-435.8915082896628
 30
0.0
 11
1321.9826542793619
 21
-436.64150828966291
 31
0.0
  0
LINE
  5
7824
  8
01
 10
1318.0147886933159
 20
-440.1415082896628
 30
0.0
 11
1318.0147886933159
 21
-436.64150828966291
 31
0.0
  0
LINE
  5
7825
  8
01
 10
1330.132654279362
 20
-435.8915082896628
 30
0.0
 11
1331.132654279362
 21
-440.8915082896628
 31
0.0
  0
LINE
  5
7826
  8
01
 10
1332.132654279362
 20
-435.8915082896628
 30
0.0
 11
1331.9826542793619
 21
-436.64150828966291
 31
0.0
  0
LINE
  5
7827
  8
01
 10
1330.132654279362
 20
-435.8915082896628
 30
0.0
 11
1329.9826542793619
 21
-436.64150828966291
 31
0.0
  0
LINE
  5
7828
  8
01
 10
1331.2826542793621
 20
-440.1415082896628
 30
0.0
 11
1331.132654279362
 21
-440.8915082896628
 31
0.0
  0
LINE
  5
7829
  8
01
 10
1334.132654279362
 20
-435.8915082896628
 30
0.0
 11
1335.132654279362
 21
-440.8915082896628
 31
0.0
  0
LINE
  5
782A
  8
01
 10
1335.2826542793621
 20
-440.1415082896628
 30
0.0
 11
1335.132654279362
 21
-440.8915082896628
 31
0.0
  0
LINE
  5
782B
  8
01
 10
1334.132654279362
 20
-435.8915082896628
 30
0.0
 11
1333.9826542793619
 21
-436.64150828966291
 31
0.0
  0
LINE
  5
782C
  8
01
 10
1333.2826542793621
 20
-440.1415082896628
 30
0.0
 11
1333.132654279362
 21
-440.8915082896628
 31
0.0
  0
LINE
  5
782D
  8
01
 10
1332.132654279362
 20
-435.8915082896628
 30
0.0
 11
1333.132654279362
 21
-440.8915082896628
 31
0.0
  0
LINE
  5
782E
  8
01
 10
1325.2826542793621
 20
-440.1415082896628
 30
0.0
 11
1325.132654279362
 21
-440.8915082896628
 31
0.0
  0
LINE
  5
782F
  8
01
 10
1327.2826542793621
 20
-440.1415082896628
 30
0.0
 11
1327.132654279362
 21
-440.8915082896628
 31
0.0
  0
LINE
  5
7830
  8
01
 10
1326.132654279362
 20
-435.8915082896628
 30
0.0
 11
1325.9826542793619
 21
-436.64150828966291
 31
0.0
  0
LINE
  5
7831
  8
01
 10
1326.132654279362
 20
-435.8915082896628
 30
0.0
 11
1327.132654279362
 21
-440.8915082896628
 31
0.0
  0
LINE
  5
7832
  8
01
 10
1328.132654279362
 20
-435.8915082896628
 30
0.0
 11
1329.132654279362
 21
-440.8915082896628
 31
0.0
  0
LINE
  5
7833
  8
01
 10
1328.132654279362
 20
-435.8915082896628
 30
0.0
 11
1327.9826542793619
 21
-436.64150828966291
 31
0.0
  0
LINE
  5
7834
  8
01
 10
1329.2826542793621
 20
-440.1415082896628
 30
0.0
 11
1329.132654279362
 21
-440.8915082896628
 31
0.0
  0
LINE
  5
7835
  8
01
 10
1324.132654279362
 20
-435.8915082896628
 30
0.0
 11
1325.132654279362
 21
-440.8915082896628
 31
0.0
  0
LINE
  5
7836
  8
01
 10
1336.132654279362
 20
-435.8915082896628
 30
0.0
 11
1337.132654279362
 21
-440.8915082896628
 31
0.0
  0
LINE
  5
7837
  8
01
 10
1338.132654279362
 20
-435.8915082896628
 30
0.0
 11
1337.9826542793619
 21
-436.64150828966291
 31
0.0
  0
LINE
  5
7838
  8
01
 10
1337.2826542793621
 20
-440.1415082896628
 30
0.0
 11
1337.132654279362
 21
-440.8915082896628
 31
0.0
  0
LINE
  5
7839
  8
01
 10
1336.132654279362
 20
-435.8915082896628
 30
0.0
 11
1335.9826542793619
 21
-436.64150828966291
 31
0.0
  0
LINE
  5
783B
  8
01
 10
1338.132654279362
 20
187.10849171033709
 30
0.0
 11
1339.132654279362
 21
182.10849171033709
 31
0.0
  0
LINE
  5
783C
  8
1CENTER
 10
1359.71905304448
 20
184.60849171033709
 30
0.0
 11
1313.0318359431701
 21
184.60849171033709
 31
0.0
  0
LINE
  5
783D
  8
01
 10
1343.2826542793621
 20
182.85849171033709
 30
0.0
 11
1343.132654279362
 21
182.10849171033709
 31
0.0
  0
LINE
  5
783E
  8
01
 10
1344.132654279362
 20
187.10849171033709
 30
0.0
 11
1345.132654279362
 21
182.10849171033709
 31
0.0
  0
LINE
  5
783F
  8
01
 10
1346.132654279362
 20
187.10849171033709
 30
0.0
 11
1345.9826542793619
 21
186.35849171033709
 31
0.0
  0
LINE
  5
7840
  8
01
 10
1344.132654279362
 20
187.10849171033709
 30
0.0
 11
1343.9826542793619
 21
186.35849171033709
 31
0.0
  0
LINE
  5
7841
  8
01
 10
1345.2826542793621
 20
182.85849171033709
 30
0.0
 11
1345.132654279362
 21
182.10849171033709
 31
0.0
  0
LINE
  5
7842
  8
01
 10
1339.2826542793621
 20
182.85849171033709
 30
0.0
 11
1339.132654279362
 21
182.10849171033709
 31
0.0
  0
LINE
  5
7843
  8
01
 10
1342.132654279362
 20
187.10849171033709
 30
0.0
 11
1343.132654279362
 21
182.10849171033709
 31
0.0
  0
LINE
  5
7844
  8
01
 10
1340.132654279362
 20
187.10849171033709
 30
0.0
 11
1341.132654279362
 21
182.10849171033709
 31
0.0
  0
LINE
  5
7845
  8
01
 10
1340.132654279362
 20
187.10849171033709
 30
0.0
 11
1339.9826542793619
 21
186.35849171033709
 31
0.0
  0
LINE
  5
7846
  8
01
 10
1342.132654279362
 20
187.10849171033709
 30
0.0
 11
1341.9826542793619
 21
186.35849171033709
 31
0.0
  0
LINE
  5
7847
  8
01
 10
1341.2826542793621
 20
182.85849171033709
 30
0.0
 11
1341.132654279362
 21
182.10849171033709
 31
0.0
  0
LINE
  5
7848
  8
01
 10
1356.3958981992589
 20
185.7922721108543
 30
0.0
 11
1356.8453256167511
 21
183.54513502339341
 31
0.0
  0
LINE
  5
7849
  8
01
 10
1352.169400891155
 20
186.92475865137291
 30
0.0
 11
1353.0487817873729
 21
182.5278541702823
 31
0.0
  0
LINE
  5
784A
  8
01
 10
1352.169400891155
 20
186.92475865137291
 30
0.0
 11
1352.0194008911551
 21
186.17475865137291
 31
0.0
  0
LINE
  5
784B
  8
01
 10
1350.132654279362
 20
187.10849171033709
 30
0.0
 11
1351.132654279362
 21
182.10849171033709
 31
0.0
  0
LINE
  5
784C
  8
01
 10
1350.132654279362
 20
187.10849171033709
 30
0.0
 11
1349.9826542793619
 21
186.35849171033709
 31
0.0
  0
LINE
  5
784D
  8
01
 10
1351.2826542793621
 20
182.85849171033709
 30
0.0
 11
1351.132654279362
 21
182.10849171033709
 31
0.0
  0
LINE
  5
784E
  8
01
 10
1356.3958981992589
 20
185.7922721108543
 30
0.0
 11
1356.245898199259
 21
185.0422721108543
 31
0.0
  0
LINE
  5
784F
  8
01
 10
1354.2826495452071
 20
186.35851538111359
 30
0.0
 11
1354.947053702062
 21
183.0364945968376
 31
0.0
  0
LINE
  5
7850
  8
01
 10
1354.2826495452071
 20
186.35851538111359
 30
0.0
 11
1354.132649545207
 21
185.60851538111359
 31
0.0
  0
LINE
  5
7851
  8
01
 10
1355.0970537020621
 20
183.7864945968376
 30
0.0
 11
1354.947053702062
 21
183.0364945968376
 31
0.0
  0
LINE
  5
7852
  8
01
 10
1353.198781787373
 20
183.2778541702823
 30
0.0
 11
1353.0487817873729
 21
182.5278541702823
 31
0.0
  0
LINE
  5
7853
  8
01
 10
1348.132654279362
 20
187.10849171033709
 30
0.0
 11
1349.132654279362
 21
182.10849171033709
 31
0.0
  0
LINE
  5
7854
  8
01
 10
1348.132654279362
 20
187.10849171033709
 30
0.0
 11
1347.9826542793619
 21
186.35849171033709
 31
0.0
  0
LINE
  5
7855
  8
01
 10
1349.2826542793621
 20
182.85849171033709
 30
0.0
 11
1349.132654279362
 21
182.10849171033709
 31
0.0
  0
LINE
  5
7856
  8
01
 10
1347.2826542793621
 20
182.85849171033709
 30
0.0
 11
1347.132654279362
 21
182.10849171033709
 31
0.0
  0
LINE
  5
7857
  8
01
 10
1346.132654279362
 20
187.10849171033709
 30
0.0
 11
1347.132654279362
 21
182.10849171033709
 31
0.0
  0
LINE
  5
7858
  8
01
 10
1356.995325616751
 20
184.29513502339341
 30
0.0
 11
1356.8453256167511
 21
183.54513502339341
 31
0.0
  0
LINE
  5
7859
  8
01
 10
1322.132654279362
 20
187.10849171033709
 30
0.0
 11
1323.132654279362
 21
182.10849171033709
 31
0.0
  0
LINE
  5
785A
  8
01
 10
1323.2826542793621
 20
182.85849171033709
 30
0.0
 11
1323.132654279362
 21
182.10849171033709
 31
0.0
  0
LINE
  5
785B
  8
01
 10
1324.132654279362
 20
187.10849171033709
 30
0.0
 11
1323.9826542793619
 21
186.35849171033709
 31
0.0
  0
LINE
  5
785C
  8
01
 10
1319.2826542793621
 20
182.85849171033709
 30
0.0
 11
1319.132654279362
 21
182.10849171033709
 31
0.0
  0
LINE
  5
785D
  8
01
 10
1318.132654279362
 20
187.10849171033709
 30
0.0
 11
1317.9826542793619
 21
186.35849171033709
 31
0.0
  0
LINE
  5
785E
  8
01
 10
1318.132654279362
 20
187.10849171033709
 30
0.0
 11
1319.132654279362
 21
182.10849171033709
 31
0.0
  0
LINE
  5
785F
  8
01
 10
1321.2826542793621
 20
182.85849171033709
 30
0.0
 11
1321.132654279362
 21
182.10849171033709
 31
0.0
  0
LINE
  5
7860
  8
01
 10
1320.132654279362
 20
187.10849171033709
 30
0.0
 11
1319.9826542793619
 21
186.35849171033709
 31
0.0
  0
LINE
  5
7861
  8
01
 10
1320.132654279362
 20
187.10849171033709
 30
0.0
 11
1321.132654279362
 21
182.10849171033709
 31
0.0
  0
LINE
  5
7862
  8
01
 10
1322.132654279362
 20
187.10849171033709
 30
0.0
 11
1321.9826542793619
 21
186.35849171033709
 31
0.0
  0
LINE
  5
7863
  8
01
 10
1318.0147886933159
 20
182.85849171033709
 30
0.0
 11
1318.0147886933159
 21
186.35849171033709
 31
0.0
  0
LINE
  5
7864
  8
01
 10
1330.132654279362
 20
187.10849171033709
 30
0.0
 11
1331.132654279362
 21
182.10849171033709
 31
0.0
  0
LINE
  5
7865
  8
01
 10
1332.132654279362
 20
187.10849171033709
 30
0.0
 11
1331.9826542793619
 21
186.35849171033709
 31
0.0
  0
LINE
  5
7866
  8
01
 10
1330.132654279362
 20
187.10849171033709
 30
0.0
 11
1329.9826542793619
 21
186.35849171033709
 31
0.0
  0
LINE
  5
7867
  8
01
 10
1331.2826542793621
 20
182.85849171033709
 30
0.0
 11
1331.132654279362
 21
182.10849171033709
 31
0.0
  0
LINE
  5
7868
  8
01
 10
1334.132654279362
 20
187.10849171033709
 30
0.0
 11
1335.132654279362
 21
182.10849171033709
 31
0.0
  0
LINE
  5
7869
  8
01
 10
1335.2826542793621
 20
182.85849171033709
 30
0.0
 11
1335.132654279362
 21
182.10849171033709
 31
0.0
  0
LINE
  5
786A
  8
01
 10
1334.132654279362
 20
187.10849171033709
 30
0.0
 11
1333.9826542793619
 21
186.35849171033709
 31
0.0
  0
LINE
  5
786B
  8
01
 10
1333.2826542793621
 20
182.85849171033709
 30
0.0
 11
1333.132654279362
 21
182.10849171033709
 31
0.0
  0
LINE
  5
786C
  8
01
 10
1332.132654279362
 20
187.10849171033709
 30
0.0
 11
1333.132654279362
 21
182.10849171033709
 31
0.0
  0
LINE
  5
786D
  8
01
 10
1325.2826542793621
 20
182.85849171033709
 30
0.0
 11
1325.132654279362
 21
182.10849171033709
 31
0.0
  0
LINE
  5
786E
  8
01
 10
1327.2826542793621
 20
182.85849171033709
 30
0.0
 11
1327.132654279362
 21
182.10849171033709
 31
0.0
  0
LINE
  5
786F
  8
01
 10
1326.132654279362
 20
187.10849171033709
 30
0.0
 11
1325.9826542793619
 21
186.35849171033709
 31
0.0
  0
LINE
  5
7870
  8
01
 10
1326.132654279362
 20
187.10849171033709
 30
0.0
 11
1327.132654279362
 21
182.10849171033709
 31
0.0
  0
LINE
  5
7871
  8
01
 10
1328.132654279362
 20
187.10849171033709
 30
0.0
 11
1329.132654279362
 21
182.10849171033709
 31
0.0
  0
LINE
  5
7872
  8
01
 10
1328.132654279362
 20
187.10849171033709
 30
0.0
 11
1327.9826542793619
 21
186.35849171033709
 31
0.0
  0
LINE
  5
7873
  8
01
 10
1329.2826542793621
 20
182.85849171033709
 30
0.0
 11
1329.132654279362
 21
182.10849171033709
 31
0.0
  0
LINE
  5
7874
  8
01
 10
1324.132654279362
 20
187.10849171033709
 30
0.0
 11
1325.132654279362
 21
182.10849171033709
 31
0.0
  0
LINE
  5
7875
  8
01
 10
1336.132654279362
 20
187.10849171033709
 30
0.0
 11
1337.132654279362
 21
182.10849171033709
 31
0.0
  0
LINE
  5
7876
  8
01
 10
1338.132654279362
 20
187.10849171033709
 30
0.0
 11
1337.9826542793619
 21
186.35849171033709
 31
0.0
  0
LINE
  5
7877
  8
01
 10
1337.2826542793621
 20
182.85849171033709
 30
0.0
 11
1337.132654279362
 21
182.10849171033709
 31
0.0
  0
LINE
  5
7878
  8
01
 10
1336.132654279362
 20
187.10849171033709
 30
0.0
 11
1335.9826542793619
 21
186.35849171033709
 31
0.0
  0
LINE
  5
7879
  8
01
 10
1358.0147886933159
 20
184.60849171033709
 30
0.0
 11
1351.483699780071
 21
186.35849171033709
 31
0.0
  0
LINE
  5
787A
  8
01
 10
1351.483699780071
 20
186.35849171033709
 30
0.0
 11
1318.0147886933159
 21
186.35849171033709
 31
0.0
  0
LINE
  5
787B
  8
01
 10
1358.0147886933159
 20
184.60849171033709
 30
0.0
 11
1351.483699780071
 21
182.85849171033709
 31
0.0
  0
LINE
  5
787C
  8
01
 10
1318.0147886933159
 20
186.35849171033709
 30
0.0
 11
1318.0147886933159
 21
189.10849171033709
 31
0.0
  0
LINE
  5
787D
  8
01
 10
1351.483699780071
 20
182.85849171033709
 30
0.0
 11
1318.0147886933159
 21
182.85849171033709
 31
0.0
  0
LINE
  5
787E
  8
01
 10
1318.0147886933159
 20
189.10849171033709
 30
0.0
 11
1317.214788693316
 21
189.10849171033709
 31
0.0
  0
LINE
  5
787F
  8
01
 10
1318.0147886933159
 20
180.10849171033709
 30
0.0
 11
1318.0147886933159
 21
182.85849171033709
 31
0.0
  0
ARC
  5
7880
  8
01
 10
1317.214788693316
 20
186.60849171033709
 30
0.0
 40
2.5
 50
89.999999999994785
 51
180.0
  0
LINE
  5
7881
  8
01
 10
1318.0147886933159
 20
180.10849171033709
 30
0.0
 11
1317.214788693316
 21
180.10849171033709
 31
0.0
  0
LINE
  5
7882
  8
01
 10
1314.714788693316
 20
182.60849171033709
 30
0.0
 11
1314.714788693316
 21
186.60849171033709
 31
0.0
  0
ARC
  5
7883
  8
01
 10
1317.214788693316
 20
182.60849171033709
 30
0.0
 40
2.5
 50
180.0
 51
270.0
  0
LINE
  5
7884
  8
01
 10
1358.0147886933159
 20
-438.3915082896628
 30
0.0
 11
1351.483699780071
 21
-436.64150828966291
 31
0.0
  0
LINE
  5
7885
  8
01
 10
1351.483699780071
 20
-436.64150828966291
 30
0.0
 11
1318.0147886933159
 21
-436.64150828966291
 31
0.0
  0
LINE
  5
7886
  8
01
 10
1358.0147886933159
 20
-438.3915082896628
 30
0.0
 11
1351.483699780071
 21
-440.1415082896628
 31
0.0
  0
LINE
  5
7887
  8
01
 10
1318.0147886933159
 20
-436.64150828966291
 30
0.0
 11
1318.0147886933159
 21
-433.8915082896628
 31
0.0
  0
LINE
  5
7888
  8
01
 10
1351.483699780071
 20
-440.1415082896628
 30
0.0
 11
1318.0147886933159
 21
-440.1415082896628
 31
0.0
  0
LINE
  5
7889
  8
01
 10
1318.0147886933159
 20
-433.8915082896628
 30
0.0
 11
1317.214788693316
 21
-433.8915082896628
 31
0.0
  0
LINE
  5
788A
  8
01
 10
1318.0147886933159
 20
-442.89150828966291
 30
0.0
 11
1318.0147886933159
 21
-440.1415082896628
 31
0.0
  0
ARC
  5
788B
  8
01
 10
1317.214788693316
 20
-436.3915082896628
 30
0.0
 40
2.5
 50
89.999999999994785
 51
180.0
  0
LINE
  5
788C
  8
01
 10
1318.0147886933159
 20
-442.89150828966291
 30
0.0
 11
1317.214788693316
 21
-442.89150828966291
 31
0.0
  0
LINE
  5
788D
  8
01
 10
1314.714788693316
 20
-440.3915082896628
 30
0.0
 11
1314.714788693316
 21
-436.3915082896628
 31
0.0
  0
ARC
  5
788E
  8
01
 10
1317.214788693316
 20
-440.3915082896628
 30
0.0
 40
2.5
 50
180.0
 51
270.0
  0
LINE
  5
788F
  8
01
 10
970.46547693295179
 20
564.04856685622462
 30
0.0
 11
968.71547693295179
 21
557.51747794297921
 31
0.0
  0
LINE
  5
7890
  8
01
 10
968.71547693295179
 20
557.51747794297921
 30
0.0
 11
968.71547693295179
 21
524.04856685622462
 31
0.0
  0
LINE
  5
7891
  8
01
 10
970.46547693295179
 20
564.04856685622462
 30
0.0
 11
972.21547693295179
 21
557.51747794297921
 31
0.0
  0
LINE
  5
7892
  8
01
 10
968.71547693295179
 20
524.04856685622462
 30
0.0
 11
965.96547693295179
 21
524.04856685622462
 31
0.0
  0
LINE
  5
7893
  8
01
 10
972.21547693295179
 20
557.51747794297921
 30
0.0
 11
972.21547693295179
 21
524.04856685622462
 31
0.0
  0
LINE
  5
7894
  8
01
 10
965.96547693295179
 20
524.04856685622462
 30
0.0
 11
965.96547693295179
 21
523.24856685622478
 31
0.0
  0
LINE
  5
7895
  8
01
 10
974.96547693295179
 20
524.04856685622462
 30
0.0
 11
972.21547693295179
 21
524.04856685622462
 31
0.0
  0
ARC
  5
7896
  8
01
 10
968.46547693295167
 20
523.24856685622456
 30
0.0
 40
2.5
 50
179.9999999999948
 51
270.0
  0
LINE
  5
7897
  8
01
 10
974.96547693295179
 20
524.04856685622462
 30
0.0
 11
974.96547693295179
 21
523.24856685622456
 31
0.0
  0
LINE
  5
7898
  8
01
 10
972.46547693295179
 20
520.74856685622456
 30
0.0
 11
968.46547693295167
 21
520.74856685622456
 31
0.0
  0
ARC
  5
7899
  8
01
 10
972.46547693295179
 20
523.24856685622456
 30
0.0
 40
2.5
 50
270.0
 51
0.0
  0
LINE
  5
789A
  8
01
 10
730.46547693295167
 20
564.04856685622462
 30
0.0
 11
728.71547693295179
 21
557.51747794297921
 31
0.0
  0
LINE
  5
789B
  8
01
 10
728.71547693295179
 20
557.51747794297921
 30
0.0
 11
728.71547693295179
 21
524.04856685622462
 31
0.0
  0
LINE
  5
789C
  8
01
 10
730.46547693295167
 20
564.04856685622462
 30
0.0
 11
732.21547693295167
 21
557.51747794297921
 31
0.0
  0
LINE
  5
789D
  8
01
 10
728.71547693295179
 20
524.04856685622462
 30
0.0
 11
725.96547693295167
 21
524.04856685622462
 31
0.0
  0
LINE
  5
789E
  8
01
 10
732.21547693295167
 20
557.51747794297921
 30
0.0
 11
732.21547693295167
 21
524.04856685622462
 31
0.0
  0
LINE
  5
789F
  8
01
 10
725.96547693295167
 20
524.04856685622462
 30
0.0
 11
725.96547693295167
 21
523.24856685622478
 31
0.0
  0
LINE
  5
78A0
  8
01
 10
734.96547693295179
 20
524.04856685622462
 30
0.0
 11
732.21547693295167
 21
524.04856685622462
 31
0.0
  0
ARC
  5
78A1
  8
01
 10
728.46547693295179
 20
523.24856685622456
 30
0.0
 40
2.5
 50
179.9999999999948
 51
270.0
  0
LINE
  5
78A2
  8
01
 10
734.96547693295179
 20
524.04856685622462
 30
0.0
 11
734.96547693295179
 21
523.24856685622456
 31
0.0
  0
LINE
  5
78A3
  8
01
 10
732.46547693295179
 20
520.74856685622456
 30
0.0
 11
728.46547693295179
 21
520.74856685622456
 31
0.0
  0
ARC
  5
78A4
  8
01
 10
732.46547693295179
 20
523.24856685622456
 30
0.0
 40
2.5
 50
270.0
 51
0.0
  0
TEXT
  5
78A5
  8
1DIM
 10
790.59927947553717
 20
604.13232737749797
 30
0.0
 40
18.0
  1
十字穴付ナベタッピンφ5x40
  0
LINE
  5
78A8
  8
1DIM
 10
990.96547693302011
 20
-470.89150828966228
 30
0.0
 11
990.96547693302011
 21
-535.21452442581631
 31
0.0
  0
LINE
  5
78A9
  8
1DIM
 10
709.96547693288176
 20
-470.89150828966223
 30
0.0
 11
709.96547693288176
 21
-535.21452442581631
 31
0.0
  0
LINE
  5
78AA
  8
1DIM
 10
980.96547693301989
 20
-530.21452442581631
 30
0.0
 11
719.96547693288176
 21
-530.21452442581631
 31
0.0
  0
LINE
  5
78AE
  8
1DIM
 10
1187.214788693311
 20
-472.89150828966291
 30
0.0
 11
1187.214788693311
 21
-535.21452442581631
 31
0.0
  0
LINE
  5
78AF
  8
1DIM
 10
1305.214788693318
 20
-471.8915082896628
 30
0.0
 11
1305.214788693318
 21
-535.21452442581631
 31
0.0
  0
LINE
  5
78B0
  8
1DIM
 10
1295.214788693318
 20
-530.21452442581631
 30
0.0
 11
1197.214788693311
 21
-530.21452442581631
 31
0.0
  0
LINE
  5
78B1
  8
1DIM
 10
1187.214788693311
 20
-530.21452442581631
 30
0.0
 11
1038.714788693311
 21
-530.21452442581631
 31
0.0
  0
TEXT
  5
78B5
  8
1DIM1
 10
509.44851370091931
 20
90.111120150874285
 30
0.0
 40
17.5
  1
材質：ガラス
  0
TEXT
  5
78B8
  8
1DIM1
 10
509.44851370091931
 20
13.74676479582118
 30
0.0
 40
17.5
  1
材質：ガラス
  0
TEXT
  5
78B9
  8
1DIM1
 10
572.44851370091919
 20
-15.41990187084548
 30
0.0
 40
17.5
  1
ミラー
  0
TEXT
  5
78BC
  8
1DIM1
 10
1009.55694446369
 20
353.13577722123841
 30
0.0
 40
17.5
  1
材質：アルミ
  0
TEXT
  5
78BD
  8
1DIM1
 10
1009.55694446369
 20
323.96911055457173
 30
0.0
 40
17.5
  1
仕上げ：アルマイト
  0
LINE
  5
78C0
  8
1DIM
 10
427.28630749052257
 20
285.68161450343177
 30
0.0
 11
427.28630749052257
 21
567.03137960606455
 31
0.0
  0
LINE
  5
78C1
  8
1DIM
 10
700.46547693301909
 20
528.24856685622149
 30
0.0
 11
700.46547693301909
 21
567.03137960606455
 31
0.0
  0
LINE
  5
78C2
  8
1DIM
 10
437.28630749052257
 20
562.03137960606455
 30
0.0
 11
690.46547693301909
 21
562.03137960606455
 31
0.0
  0
LINE
  5
78C6
  8
1DIM
 10
433.56704514401548
 20
281.58254942368239
 30
0.0
 11
395.36314768323882
 21
281.58254942368239
 31
0.0
  0
LINE
  5
78C7
  8
1DIM
 10
700.46547693301909
 20
528.24856685622149
 30
0.0
 11
395.36314768323888
 21
528.24856685622149
 31
0.0
  0
LINE
  5
78C8
  8
1DIM
 10
400.36314768323882
 20
291.58254942368239
 30
0.0
 11
400.36314768323888
 21
518.2485668562216
 31
0.0
  0
LINE
  5
78CC
  8
1DIM
 10
987.46547693295361
 20
-10.89150828966285
 30
0.0
 11
1045.46547693302
 21
-10.89150828966287
 31
0.0
  0
LINE
  5
78CD
  8
1DIM
 10
1000.46547693302
 20
219.10849171033709
 30
0.0
 11
1045.46547693302
 21
219.10849171033709
 31
0.0
  0
LINE
  5
78CE
  8
1DIM
 10
1040.46547693302
 20
-0.891508289662868
 30
0.0
 11
1040.46547693302
 21
209.10849171033701
 31
0.0
  0
LINE
  5
78D2
  8
1DIM
 10
987.46547693295361
 20
-242.89150828966291
 30
0.0
 11
1045.46547693302
 21
-242.89150828966291
 31
0.0
  0
LINE
  5
78D3
  8
1DIM
 10
1000.46547693302
 20
-472.89150828966302
 30
0.0
 11
1045.46547693302
 21
-472.89150828966302
 31
0.0
  0
LINE
  5
78D4
  8
1DIM
 10
1040.46547693302
 20
-252.89150828966291
 30
0.0
 11
1040.46547693302
 21
-462.89150828966308
 31
0.0
  0
LINE
  5
78D8
  8
1DIM
 10
987.46547693295361
 20
-10.89150828966285
 30
0.0
 11
1045.46547693302
 21
-10.89150828966287
 31
0.0
  0
LINE
  5
78D9
  8
1DIM
 10
987.46547693295361
 20
-242.89150828966291
 30
0.0
 11
1045.46547693302
 21
-242.89150828966291
 31
0.0
  0
LINE
  5
78DA
  8
1DIM
 10
1040.46547693302
 20
-20.89150828966287
 30
0.0
 11
1040.46547693302
 21
-232.8915082896628
 31
0.0
  0
LINE
  5
78DE
  8
1DIM
 10
700.46547693295258
 20
223.10849171033709
 30
0.0
 11
635.69851370091931
 21
223.10849171033709
 31
0.0
  0
LINE
  5
78DF
  8
1DIM
 10
700.46547693288176
 20
-476.89150828966268
 30
0.0
 11
635.69851370091919
 21
-476.89150828966268
 31
0.0
  0
LINE
  5
78E0
  8
1DIM
 10
640.69851370091931
 20
213.10849171033709
 30
0.0
 11
640.69851370091919
 21
-466.89150828966268
 31
0.0
  0
LINE
  5
78E4
  8
1DIM
 10
700.46547693295258
 20
223.10849171033709
 30
0.0
 11
700.46547693295258
 21
283.10849171033709
 31
0.0
  0
LINE
  5
78E5
  8
1DIM
 10
1000.465476932948
 20
223.1084917103388
 30
0.0
 11
1000.465476932948
 21
283.10849171033709
 31
0.0
  0
LINE
  5
78E6
  8
1DIM
 10
710.4654769329527
 20
278.10849171033709
 30
0.0
 11
990.4654769329486
 21
278.10849171033709
 31
0.0
  0
LINE
  5
78EA
  8
1DIM
 10
730.46547693295167
 20
194.60849171033709
 30
0.0
 11
730.46547693295167
 21
248.10849171033709
 31
0.0
  0
LINE
  5
78EB
  8
1DIM
 10
970.46547693295179
 20
194.60849171033709
 30
0.0
 11
970.46547693295179
 21
248.10849171033709
 31
0.0
  0
LINE
  5
78EC
  8
1DIM
 10
740.46547693295179
 20
243.1084917103372
 30
0.0
 11
960.46547693295167
 21
243.1084917103372
 31
0.0
  0
LINE
  5
78F0
  8
1DIM
 10
720.46547693295167
 20
184.60849171033709
 30
0.0
 11
675.69851370091908
 21
184.6084917103372
 31
0.0
  0
LINE
  5
78F1
  8
1DIM
 10
720.46547693295167
 20
-438.39150828966291
 30
0.0
 11
675.69851370091897
 21
-438.39150828966291
 31
0.0
  0
LINE
  5
78F2
  8
1DIM
 10
680.69851370091919
 20
174.6084917103372
 30
0.0
 11
680.69851370091897
 21
-428.39150828966291
 31
0.0
  0
LINE
  5
78F6
  8
1DIM
 10
1176.2147886933151
 20
223.10849171033709
 30
0.0
 11
1176.2147886933151
 21
247.0385548489995
 31
0.0
  0
LINE
  5
78F7
  8
1DIM
 10
1322.2147886933119
 20
223.10849171033709
 30
0.0
 11
1322.2147886933119
 21
247.0385548489995
 31
0.0
  0
LINE
  5
78F8
  8
1DIM
 10
1186.2147886933151
 20
242.03855484899941
 30
0.0
 11
1312.2147886933119
 21
242.03855484899941
 31
0.0
  0
TEXT
  5
78FC
  8
1DIM
 10
1345.189962466688
 20
344.1858925363519
 30
0.0
 40
17.5
  1
PB
  0
TEXT
  5
78FF
  8
1DIM
 10
1376.741190676775
 20
305.25536368830058
 30
0.0
 40
17.5
  1
合板12mm以上
  0
ARC
  5
7902
  8
1DIM
 10
710.14465494631906
 20
382.2485668562208
 30
0.0
 40
86.550758695762241
 50
206.6235926086471
 51
353.37640739135429
  0
TEXT
  5
7906
  8
1DIM
 10
673.98655106054127
 20
299.57135246532482
 30
0.0
 40
17.5
  1
約160°
 50
359.40091292185969
  0
LINE
  5
7907
  8
0
  6
BYBLOCK
 10
793.44270095687205
 20
372.42006050837512
 30
0.0
 11
796.69541364208135
 21
382.2485668562208
 31
0.0
  0
LINE
  5
7908
  8
0
  6
BYBLOCK
 10
796.69541364208135
 20
382.2485668562208
 30
0.0
 11
798.79273495340919
 21
372.11047432561048
 31
0.0
  0
LINE
  5
7909
  8
0
  6
BYBLOCK
 10
796.69541364208135
 20
382.2485668562208
 30
0.0
 11
796.11771795514062
 21
372.2652674169928
 31
0.0
  0
LINE
  5
790A
  8
0
  6
BYBLOCK
 10
630.31014017718712
 20
342.40244708678932
 30
0.0
 11
628.81354567649032
 21
352.6464639621488
 31
0.0
  0
LINE
  5
790B
  8
0
  6
BYBLOCK
 10
628.81354567649032
 20
352.6464639621488
 30
0.0
 11
635.23164293408593
 21
344.52318233252339
 31
0.0
  0
LINE
  5
790C
  8
0
  6
BYBLOCK
 10
628.81354567649032
 20
352.6464639621488
 30
0.0
 11
632.77089155563658
 21
343.46281470965641
 31
0.0
  0
LINE
  5
790D
  8
1DIM
 10
1343.3635518201479
 20
261.00893381170721
 30
0.0
 11
1363.241190676775
 21
301.75536368830058
 31
0.0
1001
ACAD
1000
DSTYLE
1002
{
1070
    40
1040
5.0
1002
}
  0
LINE
  5
790E
  8
1DIM
 10
1363.241190676775
 20
301.75536368830058
 30
0.0
 11
1539.4078573434419
 21
301.75536368830058
 31
0.0
1001
ACAD
1000
DSTYLE
1002
{
1070
    40
1040
5.0
1002
}
  0
LINE
  5
790F
  8
0
  6
BYBLOCK
 10
1345.771763578043
 20
259.83411766809149
 30
0.0
 11
1338.9790782428411
 21
252.02136509431199
 31
0.0
  0
LINE
  5
7910
  8
0
  6
BYBLOCK
 10
1338.9790782428411
 20
252.02136509431199
 30
0.0
 11
1340.9553400622519
 21
262.18374995532292
 31
0.0
  0
LINE
  5
7911
  8
0
  6
BYBLOCK
 10
1338.9790782428411
 20
252.02136509431199
 30
0.0
 11
1343.3635518201479
 21
261.00893381170721
 31
0.0
  0
LINE
  5
7912
  8
1DIM
 10
1328.384243506126
 20
265.40456647396871
 30
0.0
 11
1331.689962466688
 21
340.68589253635201
 31
0.0
1001
ACAD
1000
DSTYLE
1002
{
1070
    40
1040
5.0
1002
}
  0
LINE
  5
7913
  8
1DIM
 10
1331.689962466688
 20
340.68589253635201
 30
0.0
 11
1374.356629133355
 21
340.68589253635201
 31
0.0
1001
ACAD
1000
DSTYLE
1002
{
1070
    40
1040
5.0
1002
}
  0
LINE
  5
7914
  8
0
  6
BYBLOCK
 10
1331.061155806643
 20
265.28701913241088
 30
0.0
 11
1327.945550851158
 21
255.4141936703904
 31
0.0
  0
LINE
  5
7915
  8
0
  6
BYBLOCK
 10
1327.945550851158
 20
255.4141936703904
 30
0.0
 11
1325.7073312056091
 21
265.5221138155265
 31
0.0
  0
LINE
  5
7916
  8
0
  6
BYBLOCK
 10
1327.945550851158
 20
255.4141936703904
 30
0.0
 11
1328.384243506126
 21
265.40456647396871
 31
0.0
  0
TEXT
  5
7917
  8
1DIM
 10
1228.798122026647
 20
245.53855484899941
 30
0.0
 40
17.5
  1
146
  0
LINE
  5
7918
  8
0
  6
BYBLOCK
 10
1312.2147886933119
 20
244.7180467489994
 30
0.0
 11
1322.2147886933119
 21
242.03855484899941
 31
0.0
  0
LINE
  5
7919
  8
0
  6
BYBLOCK
 10
1322.2147886933119
 20
242.03855484899941
 30
0.0
 11
1312.2147886933119
 21
239.35906294899939
 31
0.0
  0
LINE
  5
791A
  8
0
  6
BYBLOCK
 10
1322.2147886933119
 20
242.03855484899941
 30
0.0
 11
1312.2147886933119
 21
242.03855484899941
 31
0.0
  0
LINE
  5
791B
  8
0
  6
BYBLOCK
 10
1186.2147886933151
 20
239.35906294899939
 30
0.0
 11
1176.2147886933151
 21
242.03855484899941
 31
0.0
  0
LINE
  5
791C
  8
0
  6
BYBLOCK
 10
1176.2147886933151
 20
242.03855484899941
 30
0.0
 11
1186.2147886933151
 21
244.7180467489994
 31
0.0
  0
LINE
  5
791D
  8
0
  6
BYBLOCK
 10
1176.2147886933151
 20
242.03855484899941
 30
0.0
 11
1186.2147886933151
 21
242.03855484899941
 31
0.0
  0
TEXT
  5
791E
  8
1DIM
 10
677.19851370091919
 20
-158.97484162299611
 30
0.0
 40
17.5
  1
P623
 50
90.0
  0
LINE
  5
791F
  8
0
  6
BYBLOCK
 10
683.3780056009191
 20
-428.39150828966291
 30
0.0
 11
680.69851370091897
 21
-438.39150828966291
 31
0.0
  0
LINE
  5
7920
  8
0
  6
BYBLOCK
 10
680.69851370091897
 20
-438.39150828966291
 30
0.0
 11
678.01902180091895
 21
-428.39150828966291
 31
0.0
  0
LINE
  5
7921
  8
0
  6
BYBLOCK
 10
680.69851370091897
 20
-438.39150828966291
 30
0.0
 11
680.69851370091897
 21
-428.39150828966291
 31
0.0
  0
LINE
  5
7922
  8
0
  6
BYBLOCK
 10
678.01902180091918
 20
174.6084917103372
 30
0.0
 11
680.69851370091919
 21
184.6084917103372
 31
0.0
  0
LINE
  5
7923
  8
0
  6
BYBLOCK
 10
680.69851370091919
 20
184.6084917103372
 30
0.0
 11
683.3780056009191
 21
174.6084917103372
 31
0.0
  0
LINE
  5
7924
  8
0
  6
BYBLOCK
 10
680.69851370091919
 20
184.6084917103372
 30
0.0
 11
680.69851370091919
 21
174.6084917103372
 31
0.0
  0
TEXT
  5
7925
  8
1DIM
 10
819.84047693295167
 20
246.60849171033709
 30
0.0
 40
17.5
  1
P240
  0
LINE
  5
7926
  8
0
  6
BYBLOCK
 10
960.46547693295167
 20
245.78798361033719
 30
0.0
 11
970.46547693295179
 21
243.1084917103372
 31
0.0
  0
LINE
  5
7927
  8
0
  6
BYBLOCK
 10
970.46547693295179
 20
243.1084917103372
 30
0.0
 11
960.46547693295167
 21
240.42899981033719
 31
0.0
  0
LINE
  5
7928
  8
0
  6
BYBLOCK
 10
970.46547693295179
 20
243.1084917103372
 30
0.0
 11
960.46547693295167
 21
243.1084917103372
 31
0.0
  0
LINE
  5
7929
  8
0
  6
BYBLOCK
 10
740.46547693295179
 20
240.42899981033719
 30
0.0
 11
730.46547693295167
 21
243.1084917103372
 31
0.0
  0
LINE
  5
792A
  8
0
  6
BYBLOCK
 10
730.46547693295167
 20
243.1084917103372
 30
0.0
 11
740.46547693295179
 21
245.78798361033719
 31
0.0
  0
LINE
  5
792B
  8
0
  6
BYBLOCK
 10
730.46547693295167
 20
243.1084917103372
 30
0.0
 11
740.46547693295179
 21
243.1084917103372
 31
0.0
  0
TEXT
  5
792C
  8
1DIM
 10
830.04881026628391
 20
281.60849171033709
 30
0.0
 40
17.5
  1
300
  0
LINE
  5
792D
  8
0
  6
BYBLOCK
 10
990.4654769329486
 20
280.78798361033722
 30
0.0
 11
1000.465476932948
 21
278.10849171033709
 31
0.0
  0
LINE
  5
792E
  8
0
  6
BYBLOCK
 10
1000.465476932948
 20
278.10849171033709
 30
0.0
 11
990.4654769329486
 21
275.42899981033707
 31
0.0
  0
LINE
  5
792F
  8
0
  6
BYBLOCK
 10
1000.465476932948
 20
278.10849171033709
 30
0.0
 11
990.4654769329486
 21
278.10849171033709
 31
0.0
  0
LINE
  5
7930
  8
0
  6
BYBLOCK
 10
710.4654769329527
 20
275.42899981033707
 30
0.0
 11
700.46547693295258
 21
278.10849171033709
 31
0.0
  0
LINE
  5
7931
  8
0
  6
BYBLOCK
 10
700.46547693295258
 20
278.10849171033709
 30
0.0
 11
710.4654769329527
 21
280.78798361033722
 31
0.0
  0
LINE
  5
7932
  8
0
  6
BYBLOCK
 10
700.46547693295258
 20
278.10849171033709
 30
0.0
 11
710.4654769329527
 21
278.10849171033709
 31
0.0
  0
TEXT
  5
7933
  8
1DIM
 10
637.19851370091919
 20
-147.30817495632931
 30
0.0
 40
17.5
  1
700
 50
90.0
  0
LINE
  5
7934
  8
0
  6
BYBLOCK
 10
643.37800560091921
 20
-466.89150828966268
 30
0.0
 11
640.69851370091919
 21
-476.89150828966268
 31
0.0
  0
LINE
  5
7935
  8
0
  6
BYBLOCK
 10
640.69851370091919
 20
-476.89150828966268
 30
0.0
 11
638.01902180091906
 21
-466.89150828966268
 31
0.0
  0
LINE
  5
7936
  8
0
  6
BYBLOCK
 10
640.69851370091919
 20
-476.89150828966268
 30
0.0
 11
640.69851370091919
 21
-466.89150828966268
 31
0.0
  0
LINE
  5
7937
  8
0
  6
BYBLOCK
 10
638.01902180091918
 20
213.10849171033709
 30
0.0
 11
640.69851370091931
 21
223.10849171033709
 31
0.0
  0
LINE
  5
7938
  8
0
  6
BYBLOCK
 10
640.69851370091931
 20
223.10849171033709
 30
0.0
 11
643.37800560091932
 21
213.10849171033709
 31
0.0
  0
LINE
  5
7939
  8
0
  6
BYBLOCK
 10
640.69851370091931
 20
223.10849171033709
 30
0.0
 11
640.69851370091931
 21
213.10849171033709
 31
0.0
  0
TEXT
  5
793A
  8
1DIM
 10
1036.96547693302
 20
-150.224841622996
 30
0.0
 40
17.5
  1
232
 50
90.0
  0
LINE
  5
793B
  8
0
  6
BYBLOCK
 10
1043.1449688330199
 20
-232.8915082896628
 30
0.0
 11
1040.46547693302
 21
-242.89150828966291
 31
0.0
  0
LINE
  5
793C
  8
0
  6
BYBLOCK
 10
1040.46547693302
 20
-242.89150828966291
 30
0.0
 11
1037.7859850330201
 21
-232.8915082896628
 31
0.0
  0
LINE
  5
793D
  8
0
  6
BYBLOCK
 10
1040.46547693302
 20
-242.89150828966291
 30
0.0
 11
1040.46547693302
 21
-232.8915082896628
 31
0.0
  0
LINE
  5
793E
  8
0
  6
BYBLOCK
 10
1037.7859850330201
 20
-20.89150828966287
 30
0.0
 11
1040.46547693302
 21
-10.89150828966287
 31
0.0
  0
LINE
  5
793F
  8
0
  6
BYBLOCK
 10
1040.46547693302
 20
-10.89150828966287
 30
0.0
 11
1043.1449688330199
 21
-20.89150828966287
 31
0.0
  0
LINE
  5
7940
  8
0
  6
BYBLOCK
 10
1040.46547693302
 20
-10.89150828966287
 30
0.0
 11
1040.46547693302
 21
-20.89150828966287
 31
0.0
  0
TEXT
  5
7941
  8
1DIM
 10
1036.96547693302
 20
-379.7665082896628
 30
0.0
 40
17.5
  1
230
 50
90.0
  0
LINE
  5
7942
  8
0
  6
BYBLOCK
 10
1043.1449688330199
 20
-462.89150828966308
 30
0.0
 11
1040.46547693302
 21
-472.89150828966302
 31
0.0
  0
LINE
  5
7943
  8
0
  6
BYBLOCK
 10
1040.46547693302
 20
-472.89150828966302
 30
0.0
 11
1037.7859850330201
 21
-462.89150828966308
 31
0.0
  0
LINE
  5
7944
  8
0
  6
BYBLOCK
 10
1040.46547693302
 20
-472.89150828966302
 30
0.0
 11
1040.46547693302
 21
-462.89150828966308
 31
0.0
  0
LINE
  5
7945
  8
0
  6
BYBLOCK
 10
1037.7859850330201
 20
-252.89150828966291
 30
0.0
 11
1040.46547693302
 21
-242.89150828966291
 31
0.0
  0
LINE
  5
7946
  8
0
  6
BYBLOCK
 10
1040.46547693302
 20
-242.89150828966291
 30
0.0
 11
1043.1449688330199
 21
-252.89150828966291
 31
0.0
  0
LINE
  5
7947
  8
0
  6
BYBLOCK
 10
1040.46547693302
 20
-242.89150828966291
 30
0.0
 11
1040.46547693302
 21
-252.89150828966291
 31
0.0
  0
TEXT
  5
7948
  8
1DIM
 10
1036.96547693302
 20
82.233491710337262
 30
0.0
 40
17.5
  1
230
 50
90.0
  0
LINE
  5
7949
  8
0
  6
BYBLOCK
 10
1037.7859850330201
 20
209.10849171033701
 30
0.0
 11
1040.46547693302
 21
219.10849171033709
 31
0.0
  0
LINE
  5
794A
  8
0
  6
BYBLOCK
 10
1040.46547693302
 20
219.10849171033709
 30
0.0
 11
1043.1449688330199
 21
209.10849171033701
 31
0.0
  0
LINE
  5
794B
  8
0
  6
BYBLOCK
 10
1040.46547693302
 20
219.10849171033709
 30
0.0
 11
1040.46547693302
 21
209.10849171033701
 31
0.0
  0
LINE
  5
794C
  8
0
  6
BYBLOCK
 10
1043.1449688330199
 20
-0.8915082896628678
 30
0.0
 11
1040.46547693302
 21
-10.89150828966287
 31
0.0
  0
LINE
  5
794D
  8
0
  6
BYBLOCK
 10
1040.46547693302
 20
-10.89150828966287
 30
0.0
 11
1037.7859850330201
 21
-0.8915082896628678
 31
0.0
  0
LINE
  5
794E
  8
0
  6
BYBLOCK
 10
1040.46547693302
 20
-10.89150828966287
 30
0.0
 11
1040.46547693302
 21
-0.8915082896628678
 31
0.0
  0
TEXT
  5
794F
  8
1DIM
 10
392.27981434990551
 20
369.91555813995211
 30
0.0
 40
17.5
  1
(247)
 50
90.0
  0
LINE
  5
7950
  8
0
  6
BYBLOCK
 10
397.68365578323892
 20
518.2485668562216
 30
0.0
 11
400.36314768323888
 21
528.24856685622149
 31
0.0
  0
LINE
  5
7951
  8
0
  6
BYBLOCK
 10
400.36314768323888
 20
528.24856685622149
 30
0.0
 11
403.04263958323889
 21
518.2485668562216
 31
0.0
  0
LINE
  5
7952
  8
0
  6
BYBLOCK
 10
400.36314768323888
 20
528.24856685622149
 30
0.0
 11
400.36314768323888
 21
518.2485668562216
 31
0.0
  0
LINE
  5
7953
  8
0
  6
BYBLOCK
 10
403.04263958323878
 20
291.58254942368239
 30
0.0
 11
400.36314768323882
 21
281.58254942368239
 31
0.0
  0
LINE
  5
7954
  8
0
  6
BYBLOCK
 10
400.36314768323882
 20
281.58254942368239
 30
0.0
 11
397.68365578323881
 21
291.58254942368239
 31
0.0
  0
LINE
  5
7955
  8
0
  6
BYBLOCK
 10
400.36314768323882
 20
281.58254942368239
 30
0.0
 11
400.36314768323882
 21
291.58254942368239
 31
0.0
  0
TEXT
  5
7956
  8
1DIM
 10
528.87589221177075
 20
570.11471293939792
 30
0.0
 40
17.5
  1
(273)
  0
LINE
  5
7957
  8
0
  6
BYBLOCK
 10
690.46547693301909
 20
564.71087150606445
 30
0.0
 11
700.46547693301909
 21
562.03137960606455
 31
0.0
  0
LINE
  5
7958
  8
0
  6
BYBLOCK
 10
700.46547693301909
 20
562.03137960606455
 30
0.0
 11
690.46547693301909
 21
559.35188770606442
 31
0.0
  0
LINE
  5
7959
  8
0
  6
BYBLOCK
 10
700.46547693301909
 20
562.03137960606455
 30
0.0
 11
690.46547693301909
 21
562.03137960606455
 31
0.0
  0
LINE
  5
795A
  8
0
  6
BYBLOCK
 10
437.28630749052257
 20
559.35188770606442
 30
0.0
 11
427.28630749052257
 21
562.03137960606455
 31
0.0
  0
LINE
  5
795B
  8
0
  6
BYBLOCK
 10
427.28630749052257
 20
562.03137960606455
 30
0.0
 11
437.28630749052257
 21
564.71087150606445
 31
0.0
  0
LINE
  5
795C
  8
0
  6
BYBLOCK
 10
427.28630749052257
 20
562.03137960606455
 30
0.0
 11
437.28630749052257
 21
562.03137960606455
 31
0.0
  0
LINE
  5
795D
  8
1DIM1
 10
910.95006628273836
 20
224.4795284602375
 30
0.0
 11
1006.85694446369
 21
323.26911055457168
 31
0.0
  0
LINE
  5
795E
  8
1DIM1
 10
1006.85694446369
 20
323.26911055457168
 30
0.0
 11
1190.3902777970229
 21
323.26911055457168
 31
0.0
  0
LINE
  5
795F
  8
0
  6
BYBLOCK
 10
911.33457211908137
 20
224.10624259725219
 30
0.0
 11
909.55694446369046
 21
223.044533130178
 31
0.0
  0
LINE
  5
7960
  8
0
  6
BYBLOCK
 10
909.55694446369046
 20
223.044533130178
 30
0.0
 11
910.56556044639512
 21
224.8528143232227
 31
0.0
  0
LINE
  5
7961
  8
0
  6
BYBLOCK
 10
909.55694446369046
 20
223.044533130178
 30
0.0
 11
910.95006628273836
 21
224.4795284602375
 31
0.0
  0
LINE
  5
7962
  8
1DIM1
 10
727.05539188187117
 20
-114.9094839651796
 30
0.0
 11
631.14851370091924
 21
-16.119901870845482
 31
0.0
  0
LINE
  5
7963
  8
1DIM1
 10
631.14851370091924
 20
-16.119901870845482
 30
0.0
 11
509.44851370091931
 21
-16.119901870845482
 31
0.0
  0
LINE
  5
7964
  8
0
  6
BYBLOCK
 10
727.43989771821441
 20
-114.5361981021944
 30
0.0
 11
728.44851370091908
 21
-116.3444792952391
 31
0.0
  0
LINE
  5
7965
  8
0
  6
BYBLOCK
 10
728.44851370091908
 20
-116.3444792952391
 30
0.0
 11
726.67088604552805
 21
-115.2827698281649
 31
0.0
  0
LINE
  5
7966
  8
0
  6
BYBLOCK
 10
728.44851370091908
 20
-116.3444792952391
 30
0.0
 11
727.05539188187117
 21
-114.9094839651796
 31
0.0
  0
LINE
  5
7967
  8
1DIM1
 10
727.05539188187117
 20
-9.3784619434598984
 30
0.0
 11
631.14851370091924
 21
89.411120150874282
 31
0.0
  0
LINE
  5
7968
  8
1DIM1
 10
631.14851370091924
 20
89.411120150874282
 30
0.0
 11
509.44851370091931
 21
89.411120150874282
 31
0.0
  0
LINE
  5
7969
  8
0
  6
BYBLOCK
 10
727.43989771821441
 20
-9.0051760804746674
 30
0.0
 11
728.44851370091908
 21
-10.81345727351936
 31
0.0
  0
LINE
  5
796A
  8
0
  6
BYBLOCK
 10
728.44851370091908
 20
-10.81345727351936
 30
0.0
 11
726.67088604552805
 21
-9.7517478064451275
 31
0.0
  0
LINE
  5
796B
  8
0
  6
BYBLOCK
 10
728.44851370091908
 20
-10.81345727351936
 30
0.0
 11
727.05539188187117
 21
-9.3784619434598966
 31
0.0
  0
TEXT
  5
796C
  8
1DIM
 10
1048.4647886933101
 20
-526.71452442581631
 30
0.0
 40
17.5
  1
有効内寸118
  0
LINE
  5
796D
  8
0
  6
BYBLOCK
 10
1197.214788693311
 20
-532.89401632581632
 30
0.0
 11
1187.214788693311
 21
-530.21452442581631
 31
0.0
  0
LINE
  5
796E
  8
0
  6
BYBLOCK
 10
1187.214788693311
 20
-530.21452442581631
 30
0.0
 11
1197.214788693311
 21
-527.53503252581629
 31
0.0
  0
LINE
  5
796F
  8
0
  6
BYBLOCK
 10
1187.214788693311
 20
-530.21452442581631
 30
0.0
 11
1197.214788693311
 21
-530.21452442581631
 31
0.0
  0
LINE
  5
7970
  8
0
  6
BYBLOCK
 10
1295.214788693318
 20
-527.53503252581629
 30
0.0
 11
1305.214788693318
 21
-530.21452442581631
 31
0.0
  0
LINE
  5
7971
  8
0
  6
BYBLOCK
 10
1305.214788693318
 20
-530.21452442581631
 30
0.0
 11
1295.214788693318
 21
-532.89401632581632
 31
0.0
  0
LINE
  5
7972
  8
0
  6
BYBLOCK
 10
1305.214788693318
 20
-530.21452442581631
 30
0.0
 11
1295.214788693318
 21
-530.21452442581631
 31
0.0
  0
TEXT
  5
7973
  8
1DIM
 10
788.04881026628425
 20
-526.71452442581631
 30
0.0
 40
17.5
  1
有効内寸281
  0
LINE
  5
7974
  8
0
  6
BYBLOCK
 10
719.96547693288176
 20
-532.89401632581632
 30
0.0
 11
709.96547693288176
 21
-530.21452442581631
 31
0.0
  0
LINE
  5
7975
  8
0
  6
BYBLOCK
 10
709.96547693288176
 20
-530.21452442581631
 30
0.0
 11
719.96547693288176
 21
-527.53503252581629
 31
0.0
  0
LINE
  5
7976
  8
0
  6
BYBLOCK
 10
709.96547693288176
 20
-530.21452442581631
 30
0.0
 11
719.96547693288176
 21
-530.21452442581631
 31
0.0
  0
LINE
  5
7977
  8
0
  6
BYBLOCK
 10
980.96547693301989
 20
-527.53503252581629
 30
0.0
 11
990.96547693302011
 21
-530.21452442581631
 31
0.0
  0
LINE
  5
7978
  8
0
  6
BYBLOCK
 10
990.96547693302011
 20
-530.21452442581631
 30
0.0
 11
980.96547693301989
 21
-532.89401632581632
 31
0.0
  0
LINE
  5
7979
  8
0
  6
BYBLOCK
 10
990.96547693302011
 20
-530.21452442581631
 30
0.0
 11
980.96547693301989
 21
-530.21452442581631
 31
0.0
  0
LINE
  5
797A
  8
1DIM
 10
742.13746606901702
 20
557.19113553168586
 30
0.0
 11
777.09927947553729
 21
600.63232737749809
 31
0.0
1001
ACAD
1000
DSTYLE
1002
{
1070
    40
1040
5.0
1002
}
  0
LINE
  5
797B
  8
1DIM
 10
777.09927947553729
 20
600.63232737749809
 30
0.0
 11
1091.627850904109
 21
600.63232737749809
 31
0.0
1001
ACAD
1000
DSTYLE
1002
{
1070
    40
1040
5.0
1002
}
  0
LINE
  5
797C
  8
0
  6
BYBLOCK
 10
744.224893114324
 20
555.51115780186728
 30
0.0
 11
735.86770376886352
 21
549.40075167082432
 31
0.0
  0
LINE
  5
797D
  8
0
  6
BYBLOCK
 10
735.86770376886352
 20
549.40075167082432
 30
0.0
 11
740.05003902371016
 21
558.87111326150455
 31
0.0
  0
LINE
  5
797E
  8
0
  6
BYBLOCK
 10
735.86770376886352
 20
549.40075167082432
 30
0.0
 11
742.13746606901702
 21
557.19113553168586
 31
0.0
  0
VIEWPORT
  5
57
 67
     1
  8
0
 10
-7.7295765619316219
 20
14.470880420588481
 30
0.0
 40
400.58950490869017
 41
277.4388448843593
 68
     1
 69
     1
1001
ACAD
1000
MVIEW
1002
{
1070
    16
1010
0.0
1020
0.0
1030
0.0
1010
0.0
1020
0.0
1030
1.0
1040
0.0
1040
277.4388448843593
1040
-7.7295765619316219
1040
14.470880420588481
1040
50.0
1040
0.0
1040
0.0
1070
     0
1070
   100
1070
     1
1070
     1
1070
     0
1070
     0
1070
     0
1070
     0
1040
0.0
1040
0.0
1040
0.0
1040
10.0
1040
10.0
1040
10.0
1040
10.0
1070
     0
1002
{
1002
}
1002
}
  0
ENDSEC
  0
EOF
