  0
SECTION
  2
HEADER
  9
$ACADVER
  1
AC1009
  9
$DWGCODEPAGE
  3
ansi_932
  9
$INSBASE
 10
0.0
 20
0.0
 30
0.0
  9
$EXTMIN
 10
698.1761489882056
 20
-782.3719634127942
 30
0.0
  9
$EXTMAX
 10
1800.536236598215
 20
-517.371963412794
 30
0.0
  9
$LIMMIN
 10
0.0
 20
0.0
  9
$LIMMAX
 10
420.0
 20
297.0
  9
$ORTHOMODE
 70
     0
  9
$REGENMODE
 70
     1
  9
$FILLMODE
 70
     1
  9
$QTEXTMODE
 70
     0
  9
$MIRRTEXT
 70
     0
  9
$DRAGMODE
 70
     2
  9
$LTSCALE
 40
0.5
  9
$OSMODE
 70
  2687
  9
$ATTMODE
 70
     1
  9
$TEXTSIZE
 40
4.0
  9
$TRACEWID
 40
1.0
  9
$TEXTSTYLE
  7
STANDARD
  9
$CLAYER
  8
1TEXT
  9
$CELTYPE
  6
BYLAYER
  9
$CECOLOR
 62
   256
  9
$DIMSCALE
 40
5.0
  9
$DIMASZ
 40
2.0
  9
$DIMEXO
 40
0.0
  9
$DIMDLI
 40
7.0
  9
$DIMRND
 40
0.0
  9
$DIMDLE
 40
0.0
  9
$DIMEXE
 40
1.0
  9
$DIMTP
 40
0.0
  9
$DIMTM
 40
0.0
  9
$DIMTXT
 40
3.5
  9
$DIMCEN
 40
0.0
  9
$DIMTSZ
 40
0.0
  9
$DIMTOL
 70
     0
  9
$DIMLIM
 70
     0
  9
$DIMTIH
 70
     0
  9
$DIMTOH
 70
     0
  9
$DIMSE1
 70
     0
  9
$DIMSE2
 70
     0
  9
$DIMTAD
 70
     1
  9
$DIMZIN
 70
     8
  9
$DIMBLK
  1

  9
$DIMASO
 70
     1
  9
$DIMSHO
 70
     1
  9
$DIMPOST
  1
 
  9
$DIMAPOST
  1

  9
$DIMALT
 70
     0
  9
$DIMALTD
 70
     2
  9
$DIMALTF
 40
25.4
  9
$DIMLFAC
 40
1.0
  9
$DIMTOFL
 70
     1
  9
$DIMTVP
 40
0.0
  9
$DIMTIX
 70
     0
  9
$DIMSOXD
 70
     0
  9
$DIMSAH
 70
     1
  9
$DIMBLK1
  1
OPEN30
  9
$DIMBLK2
  1
OPEN30
  9
$DIMSTYLE
  2
NEWX10
  9
$DIMCLRD
 70
   256
  9
$DIMCLRE
 70
   256
  9
$DIMCLRT
 70
   201
  9
$DIMTFAC
 40
0.7
  9
$DIMGAP
 40
0.7
  9
$LUNITS
 70
     2
  9
$LUPREC
 70
     4
  9
$SKETCHINC
 40
1.0
  9
$FILLETRAD
 40
0.0
  9
$AUNITS
 70
     0
  9
$AUPREC
 70
     2
  9
$MENU
  1
acad
  9
$ELEVATION
 40
0.0
  9
$PELEVATION
 40
0.0
  9
$THICKNESS
 40
0.0
  9
$LIMCHECK
 70
     0
  9
$CHAMFERA
 40
1.0
  9
$CHAMFERB
 40
1.0
  9
$SKPOLY
 70
     0
  9
$TDCREATE
 40
2453033.690996817
  9
$TDUPDATE
 40
2460131.440042292
  9
$TDINDWG
 40
2.527950081
  9
$TDUSRTIMER
 40
2.527950081
  9
$USRTIMER
 70
     1
  9
$ANGBASE
 50
0.0
  9
$ANGDIR
 70
     0
  9
$PDMODE
 70
     0
  9
$PDSIZE
 40
0.0
  9
$PLINEWID
 40
0.0
  9
$COORDS
 70
     2
  9
$SPLFRAME
 70
     0
  9
$SPLINETYPE
 70
     6
  9
$SPLINESEGS
 70
     8
  9
$ATTDIA
 70
     0
  9
$ATTREQ
 70
     1
  9
$HANDLING
 70
     1
  9
$HANDSEED
  5
21605
  9
$SURFTAB1
 70
     6
  9
$SURFTAB2
 70
     6
  9
$SURFTYPE
 70
     6
  9
$SURFU
 70
     6
  9
$SURFV
 70
     6
  9
$UCSNAME
  2

  9
$UCSORG
 10
0.0
 20
0.0
 30
0.0
  9
$UCSXDIR
 10
1.0
 20
0.0
 30
0.0
  9
$UCSYDIR
 10
0.0
 20
1.0
 30
0.0
  9
$PUCSNAME
  2

  9
$PUCSORG
 10
0.0
 20
0.0
 30
0.0
  9
$PUCSXDIR
 10
1.0
 20
0.0
 30
0.0
  9
$PUCSYDIR
 10
0.0
 20
1.0
 30
0.0
  9
$USERI1
 70
     0
  9
$USERI2
 70
     0
  9
$USERI3
 70
     0
  9
$USERI4
 70
     0
  9
$USERI5
 70
     0
  9
$USERR1
 40
0.0
  9
$USERR2
 40
0.0
  9
$USERR3
 40
0.0
  9
$USERR4
 40
0.0
  9
$USERR5
 40
0.0
  9
$WORLDVIEW
 70
     1
  9
$SHADEDGE
 70
     3
  9
$SHADEDIF
 70
    70
  9
$TILEMODE
 70
     1
  9
$MAXACTVP
 70
    48
  9
$PLIMCHECK
 70
     0
  9
$PEXTMIN
 10
1.000000000000000E+20
 20
1.000000000000000E+20
 30
1.000000000000000E+20
  9
$PEXTMAX
 10
-1.000000000000000E+20
 20
-1.000000000000000E+20
 30
-1.000000000000000E+20
  9
$PLIMMIN
 10
0.0
 20
0.0
  9
$PLIMMAX
 10
420.0
 20
297.0
  9
$UNITMODE
 70
     0
  9
$VISRETAIN
 70
     1
  9
$PLINEGEN
 70
     0
  9
$PSLTSCALE
 70
     1
  0
ENDSEC
  0
SECTION
  2
TABLES
  0
TABLE
  2
VPORT
 70
     1
  0
VPORT
  2
*ACTIVE
 70
     0
 10
0.0
 20
0.0
 11
1.0
 21
1.0
 12
1249.356192793211
 22
-649.8719634127941
 13
0.0
 23
0.0
 14
10.0
 24
10.0
 15
10.0
 25
10.0
 16
0.0
 26
0.0
 36
1.0
 17
0.0
 27
0.0
 37
0.0
 40
558.0857640435482
 41
2.12079701120797
 42
50.0
 43
0.0
 44
0.0
 50
0.0
 51
0.0
 71
    16
 72
   100
 73
     1
 74
     1
 75
     0
 76
     0
 77
     0
 78
     0
  0
ENDTAB
  0
TABLE
  2
LTYPE
 70
    20
  0
LTYPE
  2
CONTINUOUS
 70
     0
  3
Solid line
 72
    65
 73
     0
 40
0.0
  0
LTYPE
  2
CENTER2
 70
     0
  3
Center (.5x) ___ _ ___ _ ___ _ ___ _ ___ _ ___
 72
    65
 73
     4
 40
28.575
 49
19.05
 49
-3.175
 49
3.175
 49
-3.175
  0
LTYPE
  2
PHANTOM2
 70
     0
  3
Phantom (0.5x) ___ _ _ ___ _ _ ___ _ _ ___ _ _
 72
    65
 73
     6
 40
31.75
 49
15.875
 49
-3.175
 49
3.175
 49
-3.175
 49
3.175
 49
-3.175
  0
ENDTAB
  0
TABLE
  2
LAYER
 70
    50
  0
LAYER
  2
0
 70
     0
 62
     7
  6
CONTINUOUS
  0
LAYER
  2
1CENTER
 70
     0
 62
     7
  6
CENTER2
  0
LAYER
  2
1TEXT
 70
     0
 62
     7
  6
CONTINUOUS
  0
LAYER
  2
1DIM
 70
     0
 62
     7
  6
CONTINUOUS
  0
LAYER
  2
1PHANTOM
 70
     0
 62
     7
  6
PHANTOM2
  0
LAYER
  2
01
 70
     0
 62
     1
  6
CONTINUOUS
  0
LAYER
  2
1DIM1
 70
     0
 62
     7
  6
CONTINUOUS
  0
ENDTAB
  0
TABLE
  2
STYLE
 70
    25
  0
STYLE
  2
STANDARD
 70
     0
 40
0.0
 41
1.0
 50
0.0
 71
     0
 42
4.0
  3
txt.shx
  4
extfont.shx
  0
ENDTAB
  0
TABLE
  2
VIEW
 70
     0
  0
ENDTAB
  0
TABLE
  2
UCS
 70
     0
  0
ENDTAB
  0
TABLE
  2
APPID
 70
    18
  0
APPID
  2
ACAD
 70
     0
  0
APPID
  2
DRAWINGVARIABLESXDATA
 70
     0
  0
APPID
  2
CONTENTTABDATA
 70
     0
  0
APPID
  2
CONTENTCURRENTTAB
 70
     0
  0
APPID
  2
CONTENTBLOCKDESCRIPTION
 70
     0
  0
APPID
  2
CONTENTBLOCKICON
 70
     0
  0
APPID
  2
CONTENTLONGBLOCKNAME
 70
     0
  0
APPID
  2
ACAD_PSEXT
 70
     0
  0
APPID
  2
ACAD_DSTYLE_DIMTEXT_FILL
 70
     0
  0
APPID
  2
ACAD_MLEADERVER
 70
     0
  0
APPID
  2
ACAD_DSTYLE_DIMRADIAL_EXTE
 70
     0
  0
APPID
  2
ACADANNOTATIVE
 70
     0
  0
APPID
  2
ACAD_EXEMPT_FROM_CAD_STAND
 70
     0
  0
APPID
  2
ACAECLAYERSTANDARD
 70
     0
  0
APPID
  2
ACLAYERTOOLS
 70
     0
  0
APPID
  2
ACAD_DSTYLE_DIMJAG
 70
     0
  0
APPID
  2
ACAD_DSTYLE_DIMTALN
 70
     0
  0
APPID
  2
ACAD_NAV_VCDISPLAY
 70
     0
  0
ENDTAB
  0
TABLE
  2
DIMSTYLE
 70
    15
  0
DIMSTYLE
  2
NEWX10
 70
     0
  3
 
  4

  5

  6
OPEN30
  7
OPEN30
 40
1.0
 41
2.0
 42
0.0
 43
7.0
 44
1.0
 45
0.0
 46
0.0
 47
0.0
 48
0.0
140
3.5
141
0.0
142
0.0
143
25.4
144
1.0
145
0.0
146
0.7
147
0.7
 71
     0
 72
     0
 73
     0
 74
     0
 75
     0
 76
     0
 77
     1
 78
     8
170
     0
171
     2
172
     1
173
     1
174
     0
175
     0
176
   256
177
   256
178
   201
  0
ENDTAB
  0
ENDSEC
  0
SECTION
  2
BLOCKS
  0
BLOCK
  8
0
  2
$MODEL_SPACE
 70
     0
 10
0.0
 20
0.0
 30
0.0
  3
$MODEL_SPACE
  1

  0
ENDBLK
  5
1A
  8
0
  0
BLOCK
 67
     1
  8
0
  2
$PAPER_SPACE
 70
     0
 10
0.0
 20
0.0
 30
0.0
  3
$PAPER_SPACE
  1

  0
ENDBLK
  5
17
 67
     1
  8
0
  0
BLOCK
  8
0
  2
_OPEN30
 70
     0
 10
0.0
 20
0.0
 30
0.0
  3
_OPEN30
  1

  0
LINE
  5
44
  8
0
  6
BYBLOCK
 62
     0
 10
-1.0
 20
0.26794919
 30
0.0
 11
0.0
 21
0.0
 31
0.0
  0
LINE
  5
45
  8
0
  6
BYBLOCK
 62
     0
 10
0.0
 20
0.0
 30
0.0
 11
-1.0
 21
-0.26794919
 31
0.0
  0
LINE
  5
46
  8
0
  6
BYBLOCK
 62
     0
 10
0.0
 20
0.0
 30
0.0
 11
-1.0
 21
0.0
 31
0.0
  0
ENDBLK
  5
47
  8
0
  0
ENDSEC
  0
SECTION
  2
ENTITIES
  0
LINE
  5
2001A
  8
01
 10
1713.176148988205
 20
-678.3719634127938
 30
0.0
 11
1713.176148988205
 21
-728.3719634127938
 31
0.0
  0
LINE
  5
2001C
  8
01
 10
1713.176148988205
 20
-710.8719563927448
 30
0.0
 11
1721.176148988205
 21
-710.8719563927448
 31
0.0
  0
LINE
  5
2001D
  8
01
 10
1713.176148988205
 20
-695.8719563927448
 30
0.0
 11
1721.176148988205
 21
-695.8719563927448
 31
0.0
  0
TEXT
  5
201C5
  8
1TEXT
 10
1660.536236598215
 20
-583.3719563927448
 30
0.0
 40
8.0
  1
DA-113-J5K-0900
 41
0.8
  0
TEXT
  5
201C6
  8
1TEXT
 10
1698.376236598215
 20
-593.8719563927448
 30
0.0
 40
4.0
  1
表面処理：握りB
 41
0.8
 72
     1
 11
1712.936236598215
 21
-593.8719563927448
 31
0.0
  0
LINE
  5
201C7
  8
1DIM
 10
1660.536236598215
 20
-588.3719563927448
 30
0.0
 11
1800.536236598215
 21
-588.3719563927449
 31
0.0
  0
LINE
  5
201C8
  8
1DIM
 10
1660.536236598215
 20
-602.3719563927448
 30
0.0
 11
1800.536236598215
 21
-602.3719563927449
 31
0.0
  0
LINE
  5
201C9
  8
1DIM
 10
1660.536236598215
 20
-595.3719563927448
 30
0.0
 11
1800.536236598215
 21
-595.3719563927449
 31
0.0
  0
LINE
  5
201CC
  8
1DIM
 10
1730.536236598215
 20
-588.3719563927448
 30
0.0
 11
1730.536236598215
 21
-602.3719563927448
 31
0.0
  0
LINE
  5
201CE
  8
1DIM
 10
1695.536236598215
 20
-602.3719563927448
 30
0.0
 11
1695.536236598215
 21
-588.3719563927448
 31
0.0
  0
LINE
  5
201CF
  8
1DIM
 10
1765.536236598215
 20
-602.3719563927448
 30
0.0
 11
1765.536236598215
 21
-588.3719563927448
 31
0.0
  0
TEXT
  5
201D1
  8
1TEXT
 10
1663.376236598215
 20
-593.8719563927448
 30
0.0
 40
4.0
  1
表面処理：握りA
 41
0.8
 72
     1
 11
1677.936236598215
 21
-593.8719563927448
 31
0.0
  0
TEXT
  5
201D2
  8
1TEXT
 10
1698.056236598215
 20
-600.7072450522692
 30
0.0
 40
4.0
  1
ブラストブラック
 41
0.8
 72
     1
 11
1712.936236598215
 21
-600.7072450522692
 31
0.0
  0
LINE
  5
201D4
  8
1DIM
 10
1660.536236598215
 20
-602.3719563927448
 30
0.0
 11
1660.536236598215
 21
-588.3719563927448
 31
0.0
  0
TEXT
  5
201D6
  8
1TEXT
 10
1671.269569931548
 20
-600.7072450522692
 30
0.0
 40
4.0
  1
グレー
 72
     1
 11
1677.936236598215
 21
-600.7072450522692
 31
0.0
  0
LINE
  5
201F8
  8
01
 10
743.1761617860445
 20
-580.3719634127941
 30
0.0
 11
1523.176131268467
 21
-580.3719634127941
 31
0.0
  0
LINE
  5
201F9
  8
01
 10
743.1761617860445
 20
-588.3719634127941
 30
0.0
 11
1523.176131268467
 21
-588.3719634127941
 31
0.0
  0
LINE
  5
20236
  8
1CENTER
 10
1492.176148988205
 20
-703.3719634127942
 30
0.0
 11
1474.176148988205
 21
-703.3719634127942
 31
0.0
  0
LINE
  5
20237
  8
1CENTER
 10
1483.176148988205
 20
-694.3719634127942
 30
0.0
 11
1483.176148988205
 21
-712.3719634127942
 31
0.0
  0
LINE
  5
20238
  8
1CENTER
 10
824.1761440663063
 20
-703.3719634127942
 30
0.0
 11
842.1761440663063
 21
-703.3719634127942
 31
0.0
  0
LINE
  5
20239
  8
1CENTER
 10
833.1761440663063
 20
-694.3719634127942
 30
0.0
 11
833.1761440663063
 21
-712.3719634127942
 31
0.0
  0
LINE
  5
20336
  8
1CENTER
 10
1483.176131268467
 20
-608.3719634127941
 30
0.0
 11
1483.176131268467
 21
-560.371963412794
 31
0.0
  0
LINE
  5
20391
  8
01
 10
1721.176148988205
 20
-678.3719634127938
 30
0.0
 11
1721.176148988205
 21
-728.3719634127938
 31
0.0
  0
LINE
  5
2105E
  8
01
 10
1607.676131268468
 20
-517.371963412794
 30
0.0
 11
1608.176131268468
 21
-517.871963412794
 31
0.0
  0
LINE
  5
2105F
  8
01
 10
1608.176131268468
 20
-517.871963412794
 30
0.0
 11
1608.176131268467
 21
-544.871963412794
 31
0.0
  0
LINE
  5
21060
  8
01
 10
1608.176131268467
 20
-544.871963412794
 30
0.0
 11
1607.676131268467
 21
-545.371963412794
 31
0.0
  0
LINE
  5
21063
  8
1CENTER
 10
837.7723253461809
 20
-576.9681574905042
 30
0.0
 11
828.579937190756
 21
-567.7757693350791
 31
0.0
  0
LINE
  5
21064
  8
1CENTER
 10
828.579937190756
 20
-576.9681574905044
 30
0.0
 11
837.7723253461809
 21
-567.7757693350793
 31
0.0
  0
CIRCLE
  5
21065
  8
01
 10
833.1761312684685
 20
-572.3719634127917
 30
0.0
 40
4.0
  0
ARC
  5
21066
  8
01
 10
833.1761312684685
 20
-570.250643069232
 30
0.0
 40
1.0
 50
224.9999999999909
 51
315.0000000000091
  0
ARC
  5
21067
  8
01
 10
833.1761312684685
 20
-574.4932837563515
 30
0.0
 40
1.0
 50
44.99999999999091
 51
135.0000000000091
  0
ARC
  5
21068
  8
01
 10
831.0548109249089
 20
-572.371963412792
 30
0.0
 40
1.0
 50
315.0000000000091
 51
44.99999999999091
  0
ARC
  5
21069
  8
01
 10
835.297451612028
 20
-572.3719634127917
 30
0.0
 40
1.0
 50
135.0000000000091
 51
224.9999999999909
  0
LINE
  5
2106A
  8
01
 10
831.2315876202056
 20
-571.1345265457153
 30
0.0
 11
831.9386944013918
 21
-570.4274197645288
 31
0.0
  0
LINE
  5
2106B
  8
01
 10
833.8832380496551
 20
-570.9577498504186
 30
0.0
 11
834.4135681355447
 21
-570.4274197645286
 31
0.0
  0
LINE
  5
2106C
  8
01
 10
834.4135681355447
 20
-570.4274197645286
 30
0.0
 11
835.1206749167313
 21
-571.1345265457151
 31
0.0
  0
LINE
  5
2106D
  8
01
 10
835.1206749167313
 20
-573.6094002798682
 30
0.0
 11
834.4135681355447
 21
-574.3165070610548
 31
0.0
  0
LINE
  5
2106E
  8
01
 10
834.4135681355447
 20
-574.3165070610548
 30
0.0
 11
833.8832380496551
 21
-573.7861769751648
 31
0.0
  0
LINE
  5
2106F
  8
01
 10
831.9386944013922
 20
-574.3165070610546
 30
0.0
 11
831.2315876202056
 21
-573.6094002798682
 31
0.0
  0
LINE
  5
21070
  8
01
 10
831.2315876202056
 20
-573.6094002798682
 30
0.0
 11
831.7619177060951
 21
-573.0790701939784
 31
0.0
  0
LINE
  5
21071
  8
01
 10
831.7619177060951
 20
-571.6648566316053
 30
0.0
 11
831.2315876202056
 21
-571.1345265457153
 31
0.0
  0
LINE
  5
21072
  8
01
 10
831.9386944013918
 20
-570.4274197645288
 30
0.0
 11
832.4690244872818
 21
-570.9577498504186
 31
0.0
  0
LINE
  5
21073
  8
01
 10
832.4690244872818
 20
-573.7861769751648
 30
0.0
 11
831.9386944013922
 21
-574.3165070610546
 31
0.0
  0
LINE
  5
21074
  8
01
 10
835.1206749167313
 20
-571.1345265457151
 30
0.0
 11
834.5903448308418
 21
-571.6648566316051
 31
0.0
  0
LINE
  5
21075
  8
01
 10
834.5903448308413
 20
-573.0790701939784
 30
0.0
 11
835.1206749167313
 21
-573.6094002798682
 31
0.0
  0
LINE
  5
21077
  8
1CENTER
 10
1478.579937190755
 20
-576.9681574905042
 30
0.0
 11
1487.77232534618
 21
-567.7757693350791
 31
0.0
  0
LINE
  5
21078
  8
1CENTER
 10
1487.77232534618
 20
-576.9681574905044
 30
0.0
 11
1478.579937190755
 21
-567.7757693350793
 31
0.0
  0
CIRCLE
  5
21079
  8
01
 10
1483.176131268468
 20
-572.3719634127917
 30
0.0
 40
4.0
  0
ARC
  5
2107A
  8
01
 10
1483.176131268468
 20
-570.250643069232
 30
0.0
 40
1.0
 50
224.9999999999909
 51
315.0000000000091
  0
ARC
  5
2107B
  8
01
 10
1483.176131268468
 20
-574.4932837563515
 30
0.0
 40
1.0
 50
44.99999999999091
 51
135.0000000000091
  0
ARC
  5
2107C
  8
01
 10
1485.297451612027
 20
-572.371963412792
 30
0.0
 40
1.0
 50
135.0000000000091
 51
224.9999999999909
  0
ARC
  5
2107D
  8
01
 10
1481.054810924908
 20
-572.3719634127917
 30
0.0
 40
1.0
 50
315.0000000000091
 51
44.99999999999091
  0
LINE
  5
2107E
  8
01
 10
1485.12067491673
 20
-571.1345265457153
 30
0.0
 11
1484.413568135544
 21
-570.4274197645288
 31
0.0
  0
LINE
  5
2107F
  8
01
 10
1482.469024487281
 20
-570.9577498504186
 30
0.0
 11
1481.938694401391
 21
-570.4274197645286
 31
0.0
  0
LINE
  5
21080
  8
01
 10
1481.938694401391
 20
-570.4274197645286
 30
0.0
 11
1481.231587620205
 21
-571.1345265457151
 31
0.0
  0
LINE
  5
21081
  8
01
 10
1481.231587620205
 20
-573.6094002798682
 30
0.0
 11
1481.938694401391
 21
-574.3165070610548
 31
0.0
  0
LINE
  5
21082
  8
01
 10
1481.938694401391
 20
-574.3165070610548
 30
0.0
 11
1482.469024487281
 21
-573.7861769751648
 31
0.0
  0
LINE
  5
21083
  8
01
 10
1484.413568135544
 20
-574.3165070610546
 30
0.0
 11
1485.12067491673
 21
-573.6094002798682
 31
0.0
  0
LINE
  5
21084
  8
01
 10
1485.12067491673
 20
-573.6094002798682
 30
0.0
 11
1484.590344830841
 21
-573.0790701939784
 31
0.0
  0
LINE
  5
21085
  8
01
 10
1484.590344830841
 20
-571.6648566316053
 30
0.0
 11
1485.12067491673
 21
-571.1345265457153
 31
0.0
  0
LINE
  5
21086
  8
01
 10
1484.413568135544
 20
-570.4274197645288
 30
0.0
 11
1483.883238049654
 21
-570.9577498504186
 31
0.0
  0
LINE
  5
21087
  8
01
 10
1483.883238049654
 20
-573.7861769751648
 30
0.0
 11
1484.413568135544
 21
-574.3165070610546
 31
0.0
  0
LINE
  5
21088
  8
01
 10
1481.231587620205
 20
-571.1345265457151
 30
0.0
 11
1481.761917706094
 21
-571.6648566316051
 31
0.0
  0
LINE
  5
21089
  8
01
 10
1481.761917706095
 20
-573.0790701939784
 30
0.0
 11
1481.231587620205
 21
-573.6094002798682
 31
0.0
  0
LINE
  5
2111F
  8
01
 10
1607.676131268468
 20
-651.3719634127942
 30
0.0
 11
1608.176131268468
 21
-650.8719634127942
 31
0.0
  0
LINE
  5
21120
  8
01
 10
1608.176131268468
 20
-650.8719634127942
 30
0.0
 11
1608.176131268467
 21
-623.8719634127942
 31
0.0
  0
LINE
  5
21121
  8
01
 10
1608.176131268467
 20
-623.8719634127942
 30
0.0
 11
1607.676131268467
 21
-623.3719634127942
 31
0.0
  0
LINE
  5
21125
  8
1CENTER
 10
833.1760916378884
 20
-609.571964093979
 30
0.0
 11
833.1760916378886
 21
-561.5719640939789
 31
0.0
  0
LINE
  5
21132
  8
01
 10
1607.676148988206
 20
-689.3719634127941
 30
0.0
 11
1608.176148988206
 21
-689.8719634127941
 31
0.0
  0
LINE
  5
21133
  8
01
 10
1608.176148988206
 20
-689.8719634127941
 30
0.0
 11
1608.176148988206
 21
-702.8719634127938
 31
0.0
  0
LINE
  5
21134
  8
01
 10
1608.176148988206
 20
-702.8719634127938
 30
0.0
 11
708.1761489882056
 21
-702.8719634127938
 31
0.0
  0
LINE
  5
21135
  8
01
 10
708.1761489882056
 20
-702.8719634127938
 30
0.0
 11
708.176148988206
 21
-689.8719634127941
 31
0.0
  0
LINE
  5
21136
  8
01
 10
708.176148988206
 20
-689.8719634127941
 30
0.0
 11
708.676148988206
 21
-689.3719634127941
 31
0.0
  0
LINE
  5
21137
  8
01
 10
708.676148988206
 20
-689.3719634127941
 30
0.0
 11
1607.676148988206
 21
-689.3719634127941
 31
0.0
  0
LINE
  5
21138
  8
01
 10
1608.176148988206
 20
-703.3719634127942
 30
0.0
 11
1608.176148988206
 21
-716.8719634127942
 31
0.0
  0
LINE
  5
21139
  8
01
 10
1608.176148988206
 20
-716.8719634127942
 30
0.0
 11
1607.676148988206
 21
-717.3719634127942
 31
0.0
  0
LINE
  5
2113A
  8
01
 10
1607.676148988206
 20
-717.3719634127942
 30
0.0
 11
708.6761489882056
 21
-717.3719634127942
 31
0.0
  0
LINE
  5
2113B
  8
01
 10
708.6761489882056
 20
-717.3719634127942
 30
0.0
 11
708.1761489882056
 21
-716.8719634127942
 31
0.0
  0
LINE
  5
2113C
  8
01
 10
708.1761489882056
 20
-716.8719634127942
 30
0.0
 11
708.1761489882056
 21
-703.3719634127942
 31
0.0
  0
LINE
  5
2113D
  8
01
 10
708.1761489882056
 20
-703.3719634127942
 30
0.0
 11
1608.176148988206
 21
-703.3719634127942
 31
0.0
  0
LINE
  5
2113E
  8
01
 10
1607.676148988206
 20
-702.8719634127938
 30
0.0
 11
1607.676148988206
 21
-703.3719634127942
 31
0.0
  0
LINE
  5
2113F
  8
01
 10
1608.176148988206
 20
-703.3719634127942
 30
0.0
 11
708.6761489882056
 21
-703.3719634127942
 31
0.0
  0
LINE
  5
21140
  8
01
 10
708.6761489882056
 20
-703.3719634127942
 30
0.0
 11
708.6761489882056
 21
-702.8719634127938
 31
0.0
  0
LINE
  5
21141
  8
01
 10
708.6761489882056
 20
-702.8719634127938
 30
0.0
 11
1608.176148988206
 21
-702.8719634127938
 31
0.0
  0
LINE
  5
21142
  8
1CENTER
 10
708.1761489882056
 20
-703.3719634127942
 30
0.0
 11
698.1761489882056
 21
-703.3719634127942
 31
0.0
  0
LINE
  5
21143
  8
1CENTER
 10
1608.176148988206
 20
-703.3719634127942
 30
0.0
 11
1618.176148988206
 21
-703.3719634127942
 31
0.0
  0
LINE
  5
211F3
  8
01
 10
1756.176148988205
 20
-690.8719634127942
 30
0.0
 11
1721.176148988205
 21
-690.8719634127938
 31
0.0
  0
LINE
  5
211F4
  8
01
 10
1756.176148988205
 20
-715.8719634127938
 30
0.0
 11
1721.176148988205
 21
-715.8719634127938
 31
0.0
  0
LINE
  5
211F5
  8
01
 10
1721.176148988205
 20
-715.8719634127938
 30
0.0
 11
1721.176148988205
 21
-690.8719634127938
 31
0.0
  0
ARC
  5
211F6
  8
1PHANTOM
 10
1727.126148988207
 20
-713.0562779878442
 30
0.0
 40
0.4
 50
314.9999999999815
 51
0.0
  0
ARC
  5
211F7
  8
1PHANTOM
 10
1731.226148988207
 20
-713.0562779878442
 30
0.0
 40
0.4
 50
180.0
 51
225.0000000000185
  0
LINE
  5
211F8
  8
1PHANTOM
 10
1725.176148988207
 20
-715.8719634127933
 30
0.0
 11
1733.176148988207
 21
-715.8719634127933
 31
0.0
  0
LINE
  5
211F9
  8
1PHANTOM
 10
1733.176148988207
 20
-715.5719634127931
 30
0.0
 11
1725.176148988207
 21
-715.5719634127931
 31
0.0
  0
LINE
  5
211FA
  8
1PHANTOM
 10
1725.176148988207
 20
-715.5719634127931
 30
0.0
 11
1725.176148988207
 21
-715.8719634127933
 31
0.0
  0
LINE
  5
211FB
  8
1PHANTOM
 10
1733.176148988207
 20
-715.8719634127933
 30
0.0
 11
1733.176148988207
 21
-715.5719634127931
 31
0.0
  0
LINE
  5
211FC
  8
1PHANTOM
 10
1727.526148988207
 20
-707.8719634127933
 30
0.0
 11
1727.526148988207
 21
-713.0562779878442
 31
0.0
  0
LINE
  5
211FD
  8
1PHANTOM
 10
1730.826148988207
 20
-707.8719634127933
 30
0.0
 11
1730.826148988207
 21
-713.0562779878442
 31
0.0
  0
LINE
  5
211FE
  8
1PHANTOM
 10
1727.526148988207
 20
-707.8719634127933
 30
0.0
 11
1730.826148988207
 21
-707.8719634127933
 31
0.0
  0
LINE
  5
211FF
  8
1PHANTOM
 10
1731.176148988207
 20
-708.2219634127932
 30
0.0
 11
1730.826148988207
 21
-707.8719634127933
 31
0.0
  0
LINE
  5
21200
  8
1PHANTOM
 10
1727.176148988207
 20
-711.6562779878441
 30
0.0
 11
1731.176148988207
 21
-711.6562779878441
 31
0.0
  0
LINE
  5
21201
  8
1PHANTOM
 10
1731.176148988207
 20
-711.6562779878441
 30
0.0
 11
1730.826148988207
 21
-713.0562779878442
 31
0.0
  0
LINE
  5
21202
  8
1PHANTOM
 10
1727.176148988207
 20
-711.6562779878441
 30
0.0
 11
1727.526148988207
 21
-713.0562779878442
 31
0.0
  0
LINE
  5
21203
  8
1PHANTOM
 10
1730.943306275732
 20
-713.3391207003187
 30
0.0
 11
1733.176148988207
 21
-715.5719634127931
 31
0.0
  0
LINE
  5
21204
  8
1PHANTOM
 10
1727.408991700681
 20
-713.3391207003187
 30
0.0
 11
1725.176148988207
 21
-715.5719634127931
 31
0.0
  0
LINE
  5
21205
  8
1PHANTOM
 10
1730.862077099757
 20
-713.2219634127932
 30
0.0
 11
1727.490220876657
 21
-713.2219634127932
 31
0.0
  0
LINE
  5
21206
  8
1PHANTOM
 10
1731.176148988207
 20
-708.2219634127932
 30
0.0
 11
1731.176148988207
 21
-711.6562779878441
 31
0.0
  0
LINE
  5
21207
  8
1PHANTOM
 10
1727.176148988207
 20
-711.6562779878441
 30
0.0
 11
1727.176148988207
 21
-708.2219634127932
 31
0.0
  0
LINE
  5
21208
  8
1PHANTOM
 10
1727.526148988207
 20
-707.8719634127933
 30
0.0
 11
1727.176148988207
 21
-708.2219634127932
 31
0.0
  0
LINE
  5
21209
  8
1PHANTOM
 10
1727.176148988207
 20
-708.2219634127932
 30
0.0
 11
1731.176148988207
 21
-708.2219634127937
 31
0.0
  0
ARC
  5
2120A
  8
1PHANTOM
 10
1737.188374436697
 20
-707.5859849199796
 30
0.0
 40
2.6
 50
275.0
 51
344.1191499917219
  0
ARC
  5
2120B
  8
1PHANTOM
 10
1737.188374436697
 20
-699.1579419056079
 30
0.0
 40
2.6
 50
15.88085000827805
 51
85.00000000000001
  0
ARC
  5
2120C
  8
1PHANTOM
 10
1722.376148988204
 20
-703.3719634127938
 30
0.0
 40
18.0
 50
344.1191499917219
 51
15.88085000827805
  0
ARC
  5
2120D
  8
1PHANTOM
 10
1734.776148988205
 20
-707.1469634127939
 30
0.0
 40
0.4
 50
0.0
 51
90.0
  0
ARC
  5
2120E
  8
1PHANTOM
 10
1734.776148988205
 20
-699.5969634127937
 30
0.0
 40
0.4
 50
270.0
 51
0.0
  0
LINE
  5
2120F
  8
1PHANTOM
 10
1737.414979367841
 20
-710.1760911350179
 30
0.0
 11
1735.176148988205
 21
-710.3719634127938
 31
0.0
  0
LINE
  5
21210
  8
1PHANTOM
 10
1735.176148988205
 20
-696.3719634127938
 30
0.0
 11
1737.414979367841
 21
-696.5678356905692
 31
0.0
  0
LINE
  5
21211
  8
1PHANTOM
 10
1735.176148988205
 20
-710.3719634127938
 30
0.0
 11
1735.176148988205
 21
-696.3719634127938
 31
0.0
  0
LINE
  5
21212
  8
1PHANTOM
 10
1734.776148988205
 20
-706.7469634127938
 30
0.0
 11
1732.276148988205
 21
-707.3719634127938
 31
0.0
  0
LINE
  5
21213
  8
1PHANTOM
 10
1732.276148988205
 20
-707.3719634127938
 30
0.0
 11
1695.801148988206
 21
-707.3719634127938
 31
0.0
  0
LINE
  5
21214
  8
1PHANTOM
 10
1695.801148988203
 20
-699.3719634127956
 30
0.0
 11
1732.276148988205
 21
-699.3719634127938
 31
0.0
  0
LINE
  5
21215
  8
1PHANTOM
 10
1732.276148988205
 20
-699.3719634127938
 30
0.0
 11
1734.776148988205
 21
-699.9969634127938
 31
0.0
  0
LINE
  5
21216
  8
1PHANTOM
 10
1732.276148988205
 20
-707.3719634127938
 30
0.0
 11
1732.276148988205
 21
-699.3719634127938
 31
0.0
  0
LINE
  5
21217
  8
1PHANTOM
 10
1734.776148988205
 20
-706.7469634127938
 30
0.0
 11
1695.176148988206
 21
-706.7469634127954
 31
0.0
  0
LINE
  5
21218
  8
1PHANTOM
 10
1695.176148988205
 20
-699.9969634127935
 30
0.0
 11
1734.776148988205
 21
-699.9969634127938
 31
0.0
  0
LINE
  5
21219
  8
1PHANTOM
 10
1733.176148988205
 20
-711.071963412794
 30
0.0
 11
1735.176148988205
 21
-711.071963412794
 31
0.0
  0
LINE
  5
2121A
  8
1PHANTOM
 10
1735.176148988205
 20
-711.071963412794
 30
0.0
 11
1735.176148988205
 21
-695.671963412794
 31
0.0
  0
LINE
  5
2121B
  8
1PHANTOM
 10
1735.176148988205
 20
-695.671963412794
 30
0.0
 11
1733.176148988205
 21
-695.671963412794
 31
0.0
  0
LINE
  5
2121C
  8
1PHANTOM
 10
1735.176148988205
 20
-703.0405770875595
 30
0.0
 11
1733.176148988205
 21
-702.6879231261428
 31
0.0
  0
LINE
  5
2121D
  8
1PHANTOM
 10
1733.176148988205
 20
-703.7033497380285
 30
0.0
 11
1735.176148988205
 21
-704.0560036994452
 31
0.0
  0
ARC
  5
2121E
  8
1PHANTOM
 10
1727.126148988207
 20
-693.6876488377434
 30
0.0
 40
0.4
 50
0.0
 51
45.00000000001852
  0
ARC
  5
2121F
  8
1PHANTOM
 10
1731.226148988207
 20
-693.6876488377434
 30
0.0
 40
0.4
 50
134.9999999999815
 51
180.0
  0
LINE
  5
21220
  8
1PHANTOM
 10
1725.176148988207
 20
-690.8719634127942
 30
0.0
 11
1733.176148988207
 21
-690.8719634127942
 31
0.0
  0
LINE
  5
21221
  8
1PHANTOM
 10
1733.176148988207
 20
-691.1719634127944
 30
0.0
 11
1725.176148988207
 21
-691.1719634127944
 31
0.0
  0
LINE
  5
21222
  8
1PHANTOM
 10
1725.176148988207
 20
-691.1719634127944
 30
0.0
 11
1725.176148988207
 21
-690.8719634127942
 31
0.0
  0
LINE
  5
21223
  8
1PHANTOM
 10
1733.176148988207
 20
-690.8719634127942
 30
0.0
 11
1733.176148988207
 21
-691.1719634127944
 31
0.0
  0
LINE
  5
21224
  8
1PHANTOM
 10
1727.526148988207
 20
-698.8719634127942
 30
0.0
 11
1727.526148988207
 21
-693.6876488377434
 31
0.0
  0
LINE
  5
21225
  8
1PHANTOM
 10
1730.826148988207
 20
-698.8719634127942
 30
0.0
 11
1730.826148988207
 21
-693.6876488377434
 31
0.0
  0
LINE
  5
21226
  8
1PHANTOM
 10
1727.526148988207
 20
-698.8719634127942
 30
0.0
 11
1730.826148988207
 21
-698.8719634127942
 31
0.0
  0
LINE
  5
21227
  8
1PHANTOM
 10
1731.176148988207
 20
-698.5219634127943
 30
0.0
 11
1730.826148988207
 21
-698.8719634127942
 31
0.0
  0
LINE
  5
21228
  8
1PHANTOM
 10
1727.176148988207
 20
-695.0876488377435
 30
0.0
 11
1731.176148988207
 21
-695.0876488377435
 31
0.0
  0
LINE
  5
21229
  8
1PHANTOM
 10
1731.176148988207
 20
-695.0876488377435
 30
0.0
 11
1730.826148988207
 21
-693.6876488377434
 31
0.0
  0
LINE
  5
2122A
  8
1PHANTOM
 10
1727.176148988207
 20
-695.0876488377435
 30
0.0
 11
1727.526148988207
 21
-693.6876488377434
 31
0.0
  0
LINE
  5
2122B
  8
1PHANTOM
 10
1730.943306275732
 20
-693.4048061252688
 30
0.0
 11
1733.176148988207
 21
-691.1719634127944
 31
0.0
  0
LINE
  5
2122C
  8
1PHANTOM
 10
1727.408991700681
 20
-693.4048061252688
 30
0.0
 11
1725.176148988207
 21
-691.1719634127944
 31
0.0
  0
LINE
  5
2122D
  8
1PHANTOM
 10
1730.862077099757
 20
-693.5219634127943
 30
0.0
 11
1727.490220876657
 21
-693.5219634127943
 31
0.0
  0
LINE
  5
2122E
  8
1PHANTOM
 10
1731.176148988207
 20
-698.5219634127943
 30
0.0
 11
1731.176148988207
 21
-695.0876488377435
 31
0.0
  0
LINE
  5
2122F
  8
1PHANTOM
 10
1727.176148988207
 20
-695.0876488377435
 30
0.0
 11
1727.176148988207
 21
-698.5219634127943
 31
0.0
  0
LINE
  5
21230
  8
1PHANTOM
 10
1727.526148988207
 20
-698.8719634127942
 30
0.0
 11
1727.176148988207
 21
-698.5219634127943
 31
0.0
  0
LINE
  5
21231
  8
1PHANTOM
 10
1727.176148988207
 20
-698.5219634127939
 30
0.0
 11
1731.176148988207
 21
-698.5219634127943
 31
0.0
  0
LINE
  5
21232
  8
1PHANTOM
 10
1695.176148988206
 20
-699.9969634127924
 30
0.0
 11
1695.801148988206
 21
-699.3719634127924
 31
0.0
  0
LINE
  5
21233
  8
1PHANTOM
 10
1695.176148988206
 20
-706.7469634127938
 30
0.0
 11
1695.176148988206
 21
-699.9969634127924
 31
0.0
  0
LINE
  5
21234
  8
1PHANTOM
 10
1695.801148988206
 20
-707.3719634127938
 30
0.0
 11
1695.176148988206
 21
-706.7469634127938
 31
0.0
  0
LINE
  5
21235
  8
1PHANTOM
 10
1695.801148988207
 20
-707.3719634127947
 30
0.0
 11
1695.801148988207
 21
-699.3719634127924
 31
0.0
  0
LINE
  5
21236
  8
1PHANTOM
 10
1733.176148988205
 20
-695.671963412794
 30
0.0
 11
1733.176148988205
 21
-711.071963412794
 31
0.0
  0
LINE
  5
21260
  8
1PHANTOM
 10
1733.176148988205
 20
-707.6219634127938
 30
0.0
 11
1721.176148988205
 21
-707.6219634127938
 31
0.0
  0
LINE
  5
21261
  8
1PHANTOM
 10
1733.176148988205
 20
-699.1219634127938
 30
0.0
 11
1721.176148988205
 21
-699.1219634127938
 31
0.0
  0
LINE
  5
21262
  8
1PHANTOM
 10
1732.826148988204
 20
-713.3719634127938
 30
0.0
 11
1721.176148988205
 21
-713.3719634127938
 31
0.0
  0
LINE
  5
21263
  8
1PHANTOM
 10
1733.176148988205
 20
-713.0219634127939
 30
0.0
 11
1732.826148988204
 21
-713.3719634127938
 31
0.0
  0
LINE
  5
21264
  8
1PHANTOM
 10
1732.826148988204
 20
-693.3719634127938
 30
0.0
 11
1721.176148988205
 21
-693.3719634127938
 31
0.0
  0
LINE
  5
21265
  8
1PHANTOM
 10
1733.176148988205
 20
-693.7219634127937
 30
0.0
 11
1733.176148988205
 21
-713.0219634127939
 31
0.0
  0
LINE
  5
21266
  8
1PHANTOM
 10
1732.826148988204
 20
-693.3719634127938
 30
0.0
 11
1733.176148988205
 21
-693.7219634127937
 31
0.0
  0
LINE
  5
21272
  8
1PHANTOM
 10
1721.176148988205
 20
-693.3719634127938
 30
0.0
 11
1721.176148988205
 21
-713.3719634127938
 31
0.0
  0
LINE
  5
21284
  8
01
 10
1678.176148988205
 20
-690.8719634127942
 30
0.0
 11
1713.176148988205
 21
-690.8719634127938
 31
0.0
  0
LINE
  5
21285
  8
01
 10
1678.176148988205
 20
-715.8719634127938
 30
0.0
 11
1713.176148988205
 21
-715.8719634127938
 31
0.0
  0
LINE
  5
21286
  8
01
 10
1713.176148988205
 20
-715.8719634127938
 30
0.0
 11
1713.176148988205
 21
-690.8719634127938
 31
0.0
  0
TEXT
  5
213A9
  8
1TEXT
 10
1776.069569931548
 20
-593.8719563927448
 30
0.0
 40
4.0
  1
コード
 72
     1
 11
1782.936236598215
 21
-593.8719563927448
 31
0.0
  0
LINE
  5
213AA
  8
1DIM
 10
1800.536236598215
 20
-602.3719563927448
 30
0.0
 11
1800.536236598215
 21
-588.3719563927448
 31
0.0
  0
TEXT
  5
213AB
  8
1TEXT
 10
1769.387162524142
 20
-601.0863133763941
 30
0.0
 40
4.0
  1
DA-113-J5K-0900
 41
0.5
 72
     1
 11
1782.936236598216
 21
-601.0863133763941
 31
0.0
  0
TEXT
  5
213BD
  8
1TEXT
 10
1733.116236598215
 20
-593.8719563927453
 30
0.0
 40
4.0
  1
表面処理：脚部
 41
0.9
 72
     1
 11
1747.936236598215
 21
-593.8719563927453
 31
0.0
  0
TEXT
  5
213BE
  8
1TEXT
 10
1740.736236598215
 20
-600.7072450522697
 30
0.0
 40
4.0
  1
ブラック
 41
0.8
 72
     1
 11
1747.936236598215
 21
-600.7072450522697
 31
0.0
  0
LINE
  5
2155F
  8
01
 10
1607.676131268467
 20
-545.371963412794
 30
0.0
 11
708.6761312684675
 21
-545.371963412794
 31
0.0
  0
LINE
  5
21560
  8
01
 10
708.6761312684675
 20
-545.371963412794
 30
0.0
 11
708.1761312684675
 21
-544.871963412794
 31
0.0
  0
LINE
  5
21561
  8
01
 10
708.1761312684675
 20
-544.871963412794
 30
0.0
 11
708.176131268468
 21
-517.871963412794
 31
0.0
  0
LINE
  5
21562
  8
01
 10
708.176131268468
 20
-517.871963412794
 30
0.0
 11
708.676131268468
 21
-517.371963412794
 31
0.0
  0
LINE
  5
21563
  8
01
 10
708.676131268468
 20
-517.371963412794
 30
0.0
 11
1607.676131268467
 21
-517.371963412794
 31
0.0
  0
LINE
  5
21564
  8
01
 10
820.676131268468
 20
-545.371963412794
 30
0.0
 11
845.676131268468
 21
-545.371963412794
 31
0.0
  0
LINE
  5
21565
  8
01
 10
845.676131268468
 20
-545.371963412794
 30
0.0
 11
845.676131268468
 21
-580.3719634127941
 31
0.0
  0
LINE
  5
21566
  8
01
 10
845.676131268468
 20
-580.3719634127941
 30
0.0
 11
820.676131268468
 21
-580.3719634127941
 31
0.0
  0
LINE
  5
21567
  8
01
 10
820.676131268468
 20
-580.3719634127941
 30
0.0
 11
820.676131268468
 21
-545.371963412794
 31
0.0
  0
LINE
  5
21568
  8
01
 10
1495.676131268467
 20
-545.371963412794
 30
0.0
 11
1470.676131268467
 21
-545.371963412794
 31
0.0
  0
LINE
  5
21569
  8
01
 10
1470.676131268467
 20
-545.371963412794
 30
0.0
 11
1470.676131268467
 21
-580.3719634127941
 31
0.0
  0
LINE
  5
2156A
  8
01
 10
1470.676131268467
 20
-580.3719634127941
 30
0.0
 11
1495.676131268467
 21
-580.3719634127941
 31
0.0
  0
LINE
  5
2156B
  8
01
 10
1495.676131268467
 20
-580.3719634127941
 30
0.0
 11
1495.676131268467
 21
-545.371963412794
 31
0.0
  0
LINE
  5
2156C
  8
01
 10
1607.676131268467
 20
-623.3719634127942
 30
0.0
 11
708.6761312684675
 21
-623.3719634127942
 31
0.0
  0
LINE
  5
2156D
  8
01
 10
708.6761312684675
 20
-623.3719634127942
 30
0.0
 11
708.1761312684675
 21
-623.8719634127942
 31
0.0
  0
LINE
  5
2156E
  8
01
 10
708.1761312684675
 20
-623.8719634127942
 30
0.0
 11
708.176131268468
 21
-650.8719634127942
 31
0.0
  0
LINE
  5
2156F
  8
01
 10
708.176131268468
 20
-650.8719634127942
 30
0.0
 11
708.676131268468
 21
-651.3719634127942
 31
0.0
  0
LINE
  5
21570
  8
01
 10
708.676131268468
 20
-651.3719634127942
 30
0.0
 11
1607.676131268467
 21
-651.3719634127942
 31
0.0
  0
LINE
  5
21571
  8
01
 10
820.676131268468
 20
-623.3719634127942
 30
0.0
 11
845.676131268468
 21
-623.3719634127942
 31
0.0
  0
LINE
  5
21572
  8
01
 10
845.676131268468
 20
-623.3719634127942
 30
0.0
 11
845.676131268468
 21
-588.3719634127941
 31
0.0
  0
LINE
  5
21573
  8
01
 10
845.676131268468
 20
-588.3719634127941
 30
0.0
 11
820.676131268468
 21
-588.3719634127941
 31
0.0
  0
LINE
  5
21574
  8
01
 10
820.676131268468
 20
-588.3719634127941
 30
0.0
 11
820.676131268468
 21
-623.3719634127942
 31
0.0
  0
LINE
  5
21575
  8
01
 10
1495.676131268467
 20
-623.3719634127942
 30
0.0
 11
1470.676131268467
 21
-623.3719634127942
 31
0.0
  0
LINE
  5
21576
  8
01
 10
1470.676131268467
 20
-623.3719634127942
 30
0.0
 11
1470.676131268467
 21
-588.3719634127941
 31
0.0
  0
LINE
  5
21577
  8
01
 10
1470.676131268467
 20
-588.3719634127941
 30
0.0
 11
1495.676131268467
 21
-588.3719634127941
 31
0.0
  0
LINE
  5
21578
  8
01
 10
1495.676131268467
 20
-588.3719634127941
 30
0.0
 11
1495.676131268467
 21
-623.3719634127942
 31
0.0
  0
LINE
  5
21579
  8
01
 10
1784.176148988205
 20
-703.3719634127942
 30
0.0
 11
1784.176148988205
 21
-689.8719634127938
 31
0.0
  0
LINE
  5
2157A
  8
01
 10
1784.176148988205
 20
-689.8719634127938
 30
0.0
 11
1783.676148988205
 21
-689.3719634127938
 31
0.0
  0
LINE
  5
2157B
  8
01
 10
1783.676148988205
 20
-689.3719634127938
 30
0.0
 11
1756.676148988205
 21
-689.3719634127947
 31
0.0
  0
LINE
  5
2157C
  8
01
 10
1756.676148988205
 20
-689.3719634127947
 30
0.0
 11
1756.176148988205
 21
-689.8719634127947
 31
0.0
  0
LINE
  5
2157D
  8
01
 10
1756.176148988205
 20
-689.8719634127947
 30
0.0
 11
1756.176148988205
 21
-703.3719634127942
 31
0.0
  0
LINE
  5
2157E
  8
01
 10
1756.176148988205
 20
-703.3719634127942
 30
0.0
 11
1784.176148988205
 21
-703.3719634127942
 31
0.0
  0
LINE
  5
2157F
  8
01
 10
1783.676148988205
 20
-703.8719634127942
 30
0.0
 11
1783.676148988205
 21
-703.3719634127942
 31
0.0
  0
LINE
  5
21580
  8
01
 10
1783.676148988205
 20
-703.3719634127942
 30
0.0
 11
1756.176148988205
 21
-703.3719634127942
 31
0.0
  0
LINE
  5
21581
  8
01
 10
1756.176148988205
 20
-703.3719634127942
 30
0.0
 11
1756.176148988205
 21
-703.8719634127942
 31
0.0
  0
LINE
  5
21582
  8
01
 10
1756.176148988205
 20
-703.8719634127942
 30
0.0
 11
1783.676148988205
 21
-703.8719634127942
 31
0.0
  0
LINE
  5
21583
  8
01
 10
1784.176148988205
 20
-716.8719634127938
 30
0.0
 11
1784.176148988205
 21
-703.8719634127942
 31
0.0
  0
LINE
  5
21584
  8
01
 10
1784.176148988205
 20
-703.8719634127942
 30
0.0
 11
1756.176148988205
 21
-703.8719634127942
 31
0.0
  0
LINE
  5
21585
  8
01
 10
1756.176148988205
 20
-703.8719634127942
 30
0.0
 11
1756.176148988205
 21
-716.8719634127942
 31
0.0
  0
LINE
  5
21586
  8
01
 10
1756.176148988205
 20
-716.8719634127942
 30
0.0
 11
1756.676148988205
 21
-717.3719634127942
 31
0.0
  0
LINE
  5
21587
  8
01
 10
1756.676148988205
 20
-717.3719634127942
 30
0.0
 11
1783.676148988205
 21
-717.3719634127938
 31
0.0
  0
LINE
  5
21588
  8
01
 10
1783.676148988205
 20
-717.3719634127938
 30
0.0
 11
1784.176148988205
 21
-716.8719634127938
 31
0.0
  0
LINE
  5
21589
  8
01
 10
1650.176148988205
 20
-703.3719634127942
 30
0.0
 11
1650.176148988205
 21
-689.8719634127938
 31
0.0
  0
LINE
  5
2158A
  8
01
 10
1650.176148988205
 20
-689.8719634127938
 30
0.0
 11
1650.676148988205
 21
-689.3719634127938
 31
0.0
  0
LINE
  5
2158B
  8
01
 10
1650.676148988205
 20
-689.3719634127938
 30
0.0
 11
1677.676148988205
 21
-689.3719634127947
 31
0.0
  0
LINE
  5
2158C
  8
01
 10
1677.676148988205
 20
-689.3719634127947
 30
0.0
 11
1678.176148988205
 21
-689.8719634127947
 31
0.0
  0
LINE
  5
2158D
  8
01
 10
1678.176148988205
 20
-689.8719634127947
 30
0.0
 11
1678.176148988205
 21
-703.3719634127942
 31
0.0
  0
LINE
  5
2158E
  8
01
 10
1678.176148988205
 20
-703.3719634127942
 30
0.0
 11
1650.176148988205
 21
-703.3719634127942
 31
0.0
  0
LINE
  5
2158F
  8
01
 10
1650.676148988205
 20
-703.8719634127942
 30
0.0
 11
1650.676148988205
 21
-703.3719634127942
 31
0.0
  0
LINE
  5
21590
  8
01
 10
1650.676148988205
 20
-703.3719634127942
 30
0.0
 11
1678.176148988205
 21
-703.3719634127942
 31
0.0
  0
LINE
  5
21591
  8
01
 10
1678.176148988205
 20
-703.3719634127942
 30
0.0
 11
1678.176148988205
 21
-703.8719634127942
 31
0.0
  0
LINE
  5
21592
  8
01
 10
1678.176148988205
 20
-703.8719634127942
 30
0.0
 11
1650.676148988205
 21
-703.8719634127942
 31
0.0
  0
LINE
  5
21593
  8
01
 10
1650.176148988205
 20
-716.8719634127938
 30
0.0
 11
1650.176148988205
 21
-703.8719634127942
 31
0.0
  0
LINE
  5
21594
  8
01
 10
1650.176148988205
 20
-703.8719634127942
 30
0.0
 11
1678.176148988205
 21
-703.8719634127942
 31
0.0
  0
LINE
  5
21595
  8
01
 10
1678.176148988205
 20
-703.8719634127942
 30
0.0
 11
1678.176148988205
 21
-716.8719634127942
 31
0.0
  0
LINE
  5
21596
  8
01
 10
1678.176148988205
 20
-716.8719634127942
 30
0.0
 11
1677.676148988205
 21
-717.3719634127942
 31
0.0
  0
LINE
  5
21597
  8
01
 10
1677.676148988205
 20
-717.3719634127942
 30
0.0
 11
1650.676148988205
 21
-717.3719634127938
 31
0.0
  0
LINE
  5
21598
  8
01
 10
1650.676148988205
 20
-717.3719634127938
 30
0.0
 11
1650.176148988205
 21
-716.8719634127938
 31
0.0
  0
LINE
  5
21599
  8
1DIM1
 10
833.1761440663063
 20
-712.3719634127942
 30
0.0
 11
833.1761440663063
 21
-752.3719634127942
 31
0.0
1001
ACAD
1000
DSTYLE
1002
{
1070
    40
1040
4.0
1070
    45
1040
0.5
1002
}
  0
LINE
  5
2159A
  8
1DIM1
 10
1483.176148988205
 20
-703.3719634127942
 30
0.0
 11
1483.176148988205
 21
-752.3719634127942
 31
0.0
1001
ACAD
1000
DSTYLE
1002
{
1070
    40
1040
4.0
1070
    45
1040
0.5
1002
}
  0
LINE
  5
2159B
  8
1DIM1
 10
841.1761440663063
 20
-748.3719634127942
 30
0.0
 11
1475.176148988205
 21
-748.3719634127942
 31
0.0
1001
ACAD
1000
DSTYLE
1002
{
1070
    40
1040
4.0
1070
    45
1040
0.5
1002
}
  0
LINE
  5
2159F
  8
1DIM1
 10
708.1761489882056
 20
-716.8719634127942
 30
0.0
 11
708.1761489882056
 21
-782.3719634127942
 31
0.0
1001
ACAD
1000
DSTYLE
1002
{
1070
    40
1040
4.0
1070
    45
1040
0.5
1002
}
  0
LINE
  5
215A0
  8
1DIM1
 10
1608.176148988206
 20
-716.8719634127942
 30
0.0
 11
1608.176148988206
 21
-782.3719634127942
 31
0.0
1001
ACAD
1000
DSTYLE
1002
{
1070
    40
1040
4.0
1070
    45
1040
0.5
1002
}
  0
LINE
  5
215A1
  8
1DIM1
 10
716.1761489882056
 20
-778.3719634127942
 30
0.0
 11
1600.176148988206
 21
-778.3719634127942
 31
0.0
1001
ACAD
1000
DSTYLE
1002
{
1070
    40
1040
4.0
1070
    45
1040
0.5
1002
}
  0
LINE
  5
215A5
  8
1DIM
 10
1458.576113757832
 20
-689.371963412794
 30
0.0
 11
1457.576113757831
 21
-689.371963412794
 31
0.0
1001
ACAD
1000
DSTYLE
1002
{
1070
    45
1040
0.5
1002
}
  0
LINE
  5
215A6
  8
1DIM
 10
1458.576113757832
 20
-717.3719634127942
 30
0.0
 11
1457.576113757831
 21
-717.3719634127942
 31
0.0
1001
ACAD
1000
DSTYLE
1002
{
1070
    45
1040
0.5
1002
}
  0
LINE
  5
215A7
  8
1DIM
 10
1458.576113757831
 20
-691.371963412794
 30
0.0
 11
1458.576113757831
 21
-715.3719634127942
 31
0.0
1001
ACAD
1000
DSTYLE
1002
{
1070
    45
1040
0.5
1002
}
  0
LINE
  5
215A8
  8
1DIM
 10
1458.576113757831
 20
-717.3719634127942
 30
0.0
 11
1458.576113757831
 21
-728.938630079461
 31
0.0
1001
ACAD
1000
DSTYLE
1002
{
1070
    45
1040
0.5
1002
}
  0
LINE
  5
215AC
  8
1DIM
 10
1483.176131268467
 20
-588.3719634127941
 30
0.0
 11
1534.676148988205
 21
-588.3719634127941
 31
0.0
1001
ACAD
1000
DSTYLE
1002
{
1070
    45
1040
0.5
1002
}
  0
LINE
  5
215AD
  8
1DIM
 10
1483.176131268467
 20
-651.3719634127942
 30
0.0
 11
1534.676148988205
 21
-651.3719634127942
 31
0.0
1001
ACAD
1000
DSTYLE
1002
{
1070
    45
1040
0.5
1002
}
  0
LINE
  5
215AE
  8
1DIM
 10
1533.676148988205
 20
-590.3719634127941
 30
0.0
 11
1533.676148988205
 21
-649.3719634127942
 31
0.0
1001
ACAD
1000
DSTYLE
1002
{
1070
    45
1040
0.5
1002
}
  0
LINE
  5
215B2
  8
1DIM
 10
1523.176131268467
 20
-580.3719634127941
 30
0.0
 11
1534.676148988205
 21
-580.3719634127941
 31
0.0
1001
ACAD
1000
DSTYLE
1002
{
1070
    45
1040
0.5
1002
}
  0
LINE
  5
215B3
  8
1DIM
 10
1483.176131268468
 20
-572.3719634127918
 30
0.0
 11
1534.676148988205
 21
-572.3719634127918
 31
0.0
1001
ACAD
1000
DSTYLE
1002
{
1070
    45
1040
0.5
1002
}
  0
LINE
  5
215B4
  8
1DIM
 10
1533.676148988205
 20
-578.3719634127941
 30
0.0
 11
1533.676148988205
 21
-574.3719634127918
 31
0.0
1001
ACAD
1000
DSTYLE
1002
{
1070
    45
1040
0.5
1002
}
  0
LINE
  5
215B8
  8
1DIM
 10
1458.576113754644
 20
-623.3719631209004
 30
0.0
 11
1457.576113754644
 21
-623.3719631209004
 31
0.0
1001
ACAD
1000
DSTYLE
1002
{
1070
    45
1040
0.5
1002
}
  0
LINE
  5
215B9
  8
1DIM
 10
1458.576113754644
 20
-651.3719634127942
 30
0.0
 11
1457.576113754644
 21
-651.3719634127942
 31
0.0
1001
ACAD
1000
DSTYLE
1002
{
1070
    45
1040
0.5
1002
}
  0
LINE
  5
215BA
  8
1DIM
 10
1458.576113754644
 20
-649.3719634127942
 30
0.0
 11
1458.576113754644
 21
-625.3719631209004
 31
0.0
1001
ACAD
1000
DSTYLE
1002
{
1070
    45
1040
0.5
1002
}
  0
LINE
  5
215BB
  8
1DIM
 10
1458.576113754644
 20
-623.3719631209004
 30
0.0
 11
1458.576113754644
 21
-614.3052964542337
 31
0.0
1001
ACAD
1000
DSTYLE
1002
{
1070
    45
1040
0.5
1002
}
  0
SOLID
  5
215BF
  8
1DIM
 10
1714.181997805522
 20
-729.2293019424604
 30
0.0
 11
1714.840697025988
 21
-727.3116923763419
 31
0.0
 12
1714.83953059564
 22
-729.3392795509293
 32
0.0
 13
1714.83953059564
 23
-729.3392795509293
 33
0.0
  0
LINE
  5
215C0
  8
1DIM
 10
1714.510764200581
 20
-729.2842907466949
 30
0.0
 11
1713.044398732112
 21
-738.0513788043402
 31
0.0
  0
LINE
  5
215C1
  8
1DIM
 10
1713.044398732112
 20
-738.0513788043402
 30
0.0
 11
1657.644398732112
 21
-738.0513788043402
 31
0.0
  0
TEXT
  5
215C2
  8
1DIM
  6
CONTINUOUS
 10
1670.045787621
 20
-731.5180454710068
 30
0.0
 40
3.5
  1
扉対応厚35～50mm
  0
TEXT
  5
215C3
  8
1DIM
  6
CONTINUOUS
 10
1661.577732065445
 20
-737.3513788043401
 30
0.0
 40
3.5
  1
ガラス扉対応厚8～12mm
  0
SOLID
  5
215C4
  8
1DIM
 10
1718.342811544678
 20
-694.2136411059449
 30
0.0
 11
1717.176148988205
 21
-695.8719563927448
 31
0.0
 12
1717.74191671888
 22
-693.9249027247536
 32
0.0
 13
1717.74191671888
 23
-693.9249027247536
 33
0.0
  0
LINE
  5
215C5
  8
1DIM
 10
1718.042364131779
 20
-694.0692719153492
 30
0.0
 11
1726.170585108583
 21
-677.1535923726572
 31
0.0
  0
LINE
  5
215C6
  8
1DIM
 10
1726.170585108583
 20
-677.1535923726572
 30
0.0
 11
1761.18725177525
 21
-677.1535923726572
 31
0.0
  0
TEXT
  5
215C7
  8
1DIM
  6
CONTINUOUS
 10
1728.63725177525
 20
-670.6202590393237
 30
0.0
 40
3.5
  1
材質：ゴム
  0
TEXT
  5
215C8
  8
1DIM
  6
CONTINUOUS
 10
1728.753918441917
 20
-676.4535923726571
 30
0.0
 40
3.5
  1
仕上げ：ブラック
  0
SOLID
  5
215C9
  8
1DIM
 10
1531.228045655405
 20
-708.7827030984912
 30
0.0
 11
1530.390226417061
 21
-710.6290968904466
 31
0.0
 12
1530.583927709996
 22
-708.6107830099447
 32
0.0
 13
1530.583927709996
 23
-708.6107830099447
 33
0.0
1001
ACAD
1000
DSTYLE
1002
{
1070
    45
1040
0.5
1002
}
  0
LINE
  5
215CA
  8
1DIM
 10
1530.905986682701
 20
-708.696743054218
 30
0.0
 11
1537.31313090837
 21
-684.691656682566
 31
0.0
1001
ACAD
1000
DSTYLE
1002
{
1070
    45
1040
0.5
1002
}
  0
LINE
  5
215CB
  8
1DIM
 10
1537.31313090837
 20
-684.691656682566
 30
0.0
 11
1589.129797575037
 21
-684.691656682566
 31
0.0
1001
ACAD
1000
DSTYLE
1002
{
1070
    45
1040
0.5
1002
}
  0
TEXT
  5
215CC
  8
1DIM
  6
CONTINUOUS
 10
1539.779797575037
 20
-678.1583233492325
 30
0.0
 40
3.5
  1
材質：アルミ
  0
TEXT
  5
215CD
  8
1DIM
  6
CONTINUOUS
 10
1539.896464241704
 20
-683.9916566825659
 30
0.0
 40
3.5
  1
仕上げ：ブラストブラック
  0
SOLID
  5
215CE
  8
1DIM
 10
1490.642727740351
 20
-693.9535954304649
 30
0.0
 11
1489.93218997036
 21
-695.8526075917024
 31
0.0
 12
1489.988424457247
 22
-693.8258000543186
 32
0.0
 13
1489.988424457247
 23
-693.8258000543186
 33
0.0
1001
ACAD
1000
DSTYLE
1002
{
1070
    45
1040
0.5
1002
}
  0
LINE
  5
215CF
  8
1DIM
 10
1490.315576098799
 20
-693.8896977423918
 30
0.0
 11
1492.112093321629
 21
-684.691656682566
 31
0.0
1001
ACAD
1000
DSTYLE
1002
{
1070
    45
1040
0.5
1002
}
  0
LINE
  5
215D0
  8
1DIM
 10
1492.112093321629
 20
-684.691656682566
 30
0.0
 11
1522.928759988295
 21
-684.691656682566
 31
0.0
1001
ACAD
1000
DSTYLE
1002
{
1070
    45
1040
0.5
1002
}
  0
TEXT
  5
215D1
  8
1DIM
  6
CONTINUOUS
 10
1494.578759988295
 20
-678.1583233492325
 30
0.0
 40
3.5
  1
材質：強化木
  0
TEXT
  5
215D2
  8
1DIM
  6
CONTINUOUS
 10
1494.695426654962
 20
-683.9916566825659
 30
0.0
 40
3.5
  1
仕上げ：グレー
  0
SOLID
  5
215D3
  8
1DIM
 10
1483.169319974
 20
-614.7978217379467
 30
0.0
 11
1483.176131268467
 21
-612.7702456685035
 31
0.0
 12
1483.827280390818
 22
-614.6904320999662
 32
0.0
 13
1483.827280390818
 23
-614.6904320999662
 33
0.0
1001
ACAD
1000
DSTYLE
1002
{
1070
    45
1040
0.5
1002
}
  0
LINE
  5
215D4
  8
1DIM
 10
1483.498300182409
 20
-614.7441269189565
 30
0.0
 11
1492.112093321629
 21
-667.5195625274134
 31
0.0
1001
ACAD
1000
DSTYLE
1002
{
1070
    45
1040
0.5
1002
}
  0
LINE
  5
215D5
  8
1DIM
 10
1492.112093321629
 20
-667.5195625274134
 30
0.0
 11
1527.128759988295
 21
-667.5195625274134
 31
0.0
1001
ACAD
1000
DSTYLE
1002
{
1070
    45
1040
0.5
1002
}
  0
TEXT
  5
215D6
  8
1DIM
  6
CONTINUOUS
 10
1494.578759988295
 20
-660.98622919408
 30
0.0
 40
3.5
  1
材質：真鍮
  0
TEXT
  5
215D7
  8
1DIM
  6
CONTINUOUS
 10
1494.695426654962
 20
-666.8195625274134
 30
0.0
 40
3.5
  1
仕上げ：ブラック
  0
LINE
  5
215D8
  8
0
  6
BYBLOCK
 10
841.1761440663063
 20
-750.5155569327942
 30
0.0
 11
833.1761440663063
 21
-748.3719634127942
 31
0.0
  0
LINE
  5
215D9
  8
0
  6
BYBLOCK
 10
833.1761440663063
 20
-748.3719634127942
 30
0.0
 11
841.1761440663063
 21
-746.2283698927943
 31
0.0
  0
LINE
  5
215DA
  8
0
  6
BYBLOCK
 10
833.1761440663063
 20
-748.3719634127942
 30
0.0
 11
841.1761440663063
 21
-748.3719634127942
 31
0.0
  0
LINE
  5
215DB
  8
0
  6
BYBLOCK
 10
1475.176148988205
 20
-746.2283698927943
 30
0.0
 11
1483.176148988205
 21
-748.3719634127942
 31
0.0
  0
LINE
  5
215DC
  8
0
  6
BYBLOCK
 10
1483.176148988205
 20
-748.3719634127942
 30
0.0
 11
1475.176148988205
 21
-750.5155569327942
 31
0.0
  0
LINE
  5
215DD
  8
0
  6
BYBLOCK
 10
1483.176148988205
 20
-748.3719634127942
 30
0.0
 11
1475.176148988205
 21
-748.3719634127942
 31
0.0
  0
TEXT
  5
215DE
  8
1DIM1
  6
CONTINUOUS
 10
1133.287257638367
 20
-745.5719634127943
 30
0.0
 40
14.0
  1
P650
1001
ACAD
1000
DSTYLE
1002
{
1070
    40
1040
4.0
1070
    45
1040
0.5
1002
}
  0
LINE
  5
215DF
  8
0
  6
BYBLOCK
 10
716.1761489882056
 20
-780.5155569327942
 30
0.0
 11
708.1761489882056
 21
-778.3719634127942
 31
0.0
  0
LINE
  5
215E0
  8
0
  6
BYBLOCK
 10
708.1761489882056
 20
-778.3719634127942
 30
0.0
 11
716.1761489882056
 21
-776.2283698927943
 31
0.0
  0
LINE
  5
215E1
  8
0
  6
BYBLOCK
 10
708.1761489882056
 20
-778.3719634127942
 30
0.0
 11
716.1761489882056
 21
-778.3719634127942
 31
0.0
  0
LINE
  5
215E2
  8
0
  6
BYBLOCK
 10
1600.176148988206
 20
-776.2283698927943
 30
0.0
 11
1608.176148988206
 21
-778.3719634127942
 31
0.0
  0
LINE
  5
215E3
  8
0
  6
BYBLOCK
 10
1608.176148988206
 20
-778.3719634127942
 30
0.0
 11
1600.176148988206
 21
-780.5155569327942
 31
0.0
  0
LINE
  5
215E4
  8
0
  6
BYBLOCK
 10
1608.176148988206
 20
-778.3719634127942
 30
0.0
 11
1600.176148988206
 21
-778.3719634127942
 31
0.0
  0
TEXT
  5
215E5
  8
1DIM1
  6
CONTINUOUS
 10
1141.544667506724
 20
-775.5719634127943
 30
0.0
 40
14.0
  1
900
1001
ACAD
1000
DSTYLE
1002
{
1070
    40
1040
4.0
1070
    45
1040
0.5
1002
}
  0
LINE
  5
215E6
  8
0
  6
BYBLOCK
 10
1458.040215377831
 20
-691.371963412794
 30
0.0
 11
1458.576113757831
 21
-689.371963412794
 31
0.0
  0
LINE
  5
215E7
  8
0
  6
BYBLOCK
 10
1458.576113757831
 20
-689.371963412794
 30
0.0
 11
1459.112012137831
 21
-691.371963412794
 31
0.0
  0
LINE
  5
215E8
  8
0
  6
BYBLOCK
 10
1458.576113757831
 20
-689.371963412794
 30
0.0
 11
1458.576113757831
 21
-691.371963412794
 31
0.0
  0
LINE
  5
215E9
  8
0
  6
BYBLOCK
 10
1459.112012137831
 20
-715.3719634127942
 30
0.0
 11
1458.576113757831
 21
-717.3719634127942
 31
0.0
  0
LINE
  5
215EA
  8
0
  6
BYBLOCK
 10
1458.576113757831
 20
-717.3719634127942
 30
0.0
 11
1458.040215377831
 21
-715.3719634127942
 31
0.0
  0
LINE
  5
215EB
  8
0
  6
BYBLOCK
 10
1458.576113757831
 20
-717.3719634127942
 30
0.0
 11
1458.576113757831
 21
-715.3719634127942
 31
0.0
  0
TEXT
  5
215EC
  8
1DIM
  6
CONTINUOUS
 10
1457.876113757831
 20
-728.321963412794
 30
0.0
 40
3.5
  1
28
 50
90.0
1001
ACAD
1000
DSTYLE
1002
{
1070
    45
1040
0.5
1002
}
  0
LINE
  5
215ED
  8
0
  6
BYBLOCK
 10
1533.140250608205
 20
-590.3719634127941
 30
0.0
 11
1533.676148988205
 21
-588.3719634127941
 31
0.0
  0
LINE
  5
215EE
  8
0
  6
BYBLOCK
 10
1533.676148988205
 20
-588.3719634127941
 30
0.0
 11
1534.212047368205
 21
-590.3719634127941
 31
0.0
  0
LINE
  5
215EF
  8
0
  6
BYBLOCK
 10
1533.676148988205
 20
-588.3719634127941
 30
0.0
 11
1533.676148988205
 21
-590.3719634127941
 31
0.0
  0
LINE
  5
215F0
  8
0
  6
BYBLOCK
 10
1534.212047368205
 20
-649.3719634127942
 30
0.0
 11
1533.676148988205
 21
-651.3719634127942
 31
0.0
  0
LINE
  5
215F1
  8
0
  6
BYBLOCK
 10
1533.676148988205
 20
-651.3719634127942
 30
0.0
 11
1533.140250608205
 21
-649.3719634127942
 31
0.0
  0
LINE
  5
215F2
  8
0
  6
BYBLOCK
 10
1533.676148988205
 20
-651.3719634127942
 30
0.0
 11
1533.676148988205
 21
-649.3719634127942
 31
0.0
  0
TEXT
  5
215F3
  8
1DIM
  6
CONTINUOUS
 10
1532.976148988205
 20
-609.9118394688501
 30
0.0
 40
3.5
  1
63
 50
90.0
1001
ACAD
1000
DSTYLE
1002
{
1070
    45
1040
0.5
1002
}
  0
LINE
  5
215F4
  8
0
  6
BYBLOCK
 10
1534.212047368205
 20
-578.3719634127941
 30
0.0
 11
1533.676148988205
 21
-580.3719634127941
 31
0.0
  0
LINE
  5
215F5
  8
0
  6
BYBLOCK
 10
1533.676148988205
 20
-580.3719634127941
 30
0.0
 11
1533.140250608205
 21
-578.3719634127941
 31
0.0
  0
LINE
  5
215F6
  8
0
  6
BYBLOCK
 10
1533.676148988205
 20
-580.3719634127941
 30
0.0
 11
1533.676148988205
 21
-578.3719634127941
 31
0.0
  0
LINE
  5
215F7
  8
0
  6
BYBLOCK
 10
1533.140250608205
 20
-574.3719634127918
 30
0.0
 11
1533.676148988205
 21
-572.3719634127918
 31
0.0
  0
LINE
  5
215F8
  8
0
  6
BYBLOCK
 10
1533.676148988205
 20
-572.3719634127918
 30
0.0
 11
1534.212047368205
 21
-574.3719634127918
 31
0.0
  0
LINE
  5
215F9
  8
0
  6
BYBLOCK
 10
1533.676148988205
 20
-572.3719634127918
 30
0.0
 11
1533.676148988205
 21
-574.3719634127918
 31
0.0
  0
TEXT
  5
215FA
  8
1DIM
  6
CONTINUOUS
 10
1532.976148988205
 20
-577.5386300794596
 30
0.0
 40
3.5
  1
8
 50
90.0
1001
ACAD
1000
DSTYLE
1002
{
1070
    45
1040
0.5
1002
}
  0
LINE
  5
215FB
  8
0
  6
BYBLOCK
 10
1459.112012134643
 20
-649.3719634127942
 30
0.0
 11
1458.576113754644
 21
-651.3719634127942
 31
0.0
  0
LINE
  5
215FC
  8
0
  6
BYBLOCK
 10
1458.576113754644
 20
-651.3719634127942
 30
0.0
 11
1458.040215374644
 21
-649.3719634127942
 31
0.0
  0
LINE
  5
215FD
  8
0
  6
BYBLOCK
 10
1458.576113754644
 20
-651.3719634127942
 30
0.0
 11
1458.576113754644
 21
-649.3719634127942
 31
0.0
  0
LINE
  5
215FE
  8
0
  6
BYBLOCK
 10
1458.040215374644
 20
-625.3719631209004
 30
0.0
 11
1458.576113754644
 21
-623.3719631209004
 31
0.0
  0
LINE
  5
215FF
  8
0
  6
BYBLOCK
 10
1458.576113754644
 20
-623.3719631209004
 30
0.0
 11
1459.112012134643
 21
-625.3719631209004
 31
0.0
  0
LINE
  5
21600
  8
0
  6
BYBLOCK
 10
1458.576113754644
 20
-623.3719631209004
 30
0.0
 11
1458.576113754644
 21
-625.3719631209004
 31
0.0
  0
TEXT
  5
21601
  8
1DIM
  6
CONTINUOUS
 10
1457.876113754644
 20
-620.7552964542338
 30
0.0
 40
3.5
  1
28
 50
90.0
1001
ACAD
1000
DSTYLE
1002
{
1070
    45
1040
0.5
1002
}
  0
VIEWPORT
  5
57
 67
     1
  8
0
 10
0.0
 20
0.0
 30
0.0
 40
629.8767123287671
 41
297.0
 68
     1
 69
     1
1001
ACAD
1000
MVIEW
1002
{
1070
    16
1010
0.0
1020
0.0
1030
0.0
1010
0.0
1020
0.0
1030
1.0
1040
0.0
1040
297.0
1040
-4.272048862584541
1040
18.33904653606845
1040
50.0
1040
0.0
1040
0.0
1070
    16
1070
   100
1070
     0
1070
     1
1070
     0
1070
     0
1070
     0
1070
     0
1040
0.0
1040
0.0
1040
0.0
1040
10.0
1040
10.0
1040
10.0
1040
10.0
1070
     0
1002
{
1002
}
1002
}
  0
ENDSEC
  0
EOF
