  0
SECTION
  2
HEADER
  9
$ACADVER
  1
AC1009
  9
$DWGCODEPAGE
  3
ansi_932
  9
$INSBASE
 10
0.0
 20
0.0
 30
0.0
  9
$EXTMIN
 10
2487.183115779343
 20
-806.6030727261898
 30
0.0
  9
$EXTMAX
 10
3621.181195436351
 20
-496.152467181478
 30
0.0
  9
$LIMMIN
 10
0.0
 20
0.0
  9
$LIMMAX
 10
420.0
 20
297.0
  9
$ORTHOMODE
 70
     0
  9
$REGENMODE
 70
     1
  9
$FILLMODE
 70
     1
  9
$QTEXTMODE
 70
     0
  9
$MIRRTEXT
 70
     0
  9
$DRAGMODE
 70
     2
  9
$LTSCALE
 40
0.5
  9
$OSMODE
 70
  2687
  9
$ATTMODE
 70
     1
  9
$TEXTSIZE
 40
4.0
  9
$TRACEWID
 40
1.0
  9
$TEXTSTYLE
  7
STANDARD
  9
$CLAYER
  8
1TEXT
  9
$CELTYPE
  6
BYLAYER
  9
$CECOLOR
 62
   256
  9
$DIMSCALE
 40
5.0
  9
$DIMASZ
 40
2.0
  9
$DIMEXO
 40
0.0
  9
$DIMDLI
 40
7.0
  9
$DIMRND
 40
0.0
  9
$DIMDLE
 40
0.0
  9
$DIMEXE
 40
1.0
  9
$DIMTP
 40
0.0
  9
$DIMTM
 40
0.0
  9
$DIMTXT
 40
3.5
  9
$DIMCEN
 40
0.0
  9
$DIMTSZ
 40
0.0
  9
$DIMTOL
 70
     0
  9
$DIMLIM
 70
     0
  9
$DIMTIH
 70
     0
  9
$DIMTOH
 70
     0
  9
$DIMSE1
 70
     0
  9
$DIMSE2
 70
     0
  9
$DIMTAD
 70
     1
  9
$DIMZIN
 70
     8
  9
$DIMBLK
  1

  9
$DIMASO
 70
     1
  9
$DIMSHO
 70
     1
  9
$DIMPOST
  1
 
  9
$DIMAPOST
  1

  9
$DIMALT
 70
     0
  9
$DIMALTD
 70
     2
  9
$DIMALTF
 40
25.4
  9
$DIMLFAC
 40
1.0
  9
$DIMTOFL
 70
     1
  9
$DIMTVP
 40
0.0
  9
$DIMTIX
 70
     0
  9
$DIMSOXD
 70
     0
  9
$DIMSAH
 70
     1
  9
$DIMBLK1
  1
OPEN30
  9
$DIMBLK2
  1
OPEN30
  9
$DIMSTYLE
  2
NEWX10
  9
$DIMCLRD
 70
   256
  9
$DIMCLRE
 70
   256
  9
$DIMCLRT
 70
   201
  9
$DIMTFAC
 40
0.7
  9
$DIMGAP
 40
0.7
  9
$LUNITS
 70
     2
  9
$LUPREC
 70
     4
  9
$SKETCHINC
 40
1.0
  9
$FILLETRAD
 40
0.0
  9
$AUNITS
 70
     0
  9
$AUPREC
 70
     2
  9
$MENU
  1
acad
  9
$ELEVATION
 40
0.0
  9
$PELEVATION
 40
0.0
  9
$THICKNESS
 40
0.0
  9
$LIMCHECK
 70
     0
  9
$CHAMFERA
 40
1.0
  9
$CHAMFERB
 40
1.0
  9
$SKPOLY
 70
     0
  9
$TDCREATE
 40
2453033.690996817
  9
$TDUPDATE
 40
2460131.472670787
  9
$TDINDWG
 40
2.8420138889
  9
$TDUSRTIMER
 40
2.8420138889
  9
$USRTIMER
 70
     1
  9
$ANGBASE
 50
0.0
  9
$ANGDIR
 70
     0
  9
$PDMODE
 70
     0
  9
$PDSIZE
 40
0.0
  9
$PLINEWID
 40
0.0
  9
$COORDS
 70
     2
  9
$SPLFRAME
 70
     0
  9
$SPLINETYPE
 70
     6
  9
$SPLINESEGS
 70
     8
  9
$ATTDIA
 70
     0
  9
$ATTREQ
 70
     1
  9
$HANDLING
 70
     1
  9
$HANDSEED
  5
2891F
  9
$SURFTAB1
 70
     6
  9
$SURFTAB2
 70
     6
  9
$SURFTYPE
 70
     6
  9
$SURFU
 70
     6
  9
$SURFV
 70
     6
  9
$UCSNAME
  2

  9
$UCSORG
 10
0.0
 20
0.0
 30
0.0
  9
$UCSXDIR
 10
1.0
 20
0.0
 30
0.0
  9
$UCSYDIR
 10
0.0
 20
1.0
 30
0.0
  9
$PUCSNAME
  2

  9
$PUCSORG
 10
0.0
 20
0.0
 30
0.0
  9
$PUCSXDIR
 10
1.0
 20
0.0
 30
0.0
  9
$PUCSYDIR
 10
0.0
 20
1.0
 30
0.0
  9
$USERI1
 70
     0
  9
$USERI2
 70
     0
  9
$USERI3
 70
     0
  9
$USERI4
 70
     0
  9
$USERI5
 70
     0
  9
$USERR1
 40
0.0
  9
$USERR2
 40
0.0
  9
$USERR3
 40
0.0
  9
$USERR4
 40
0.0
  9
$USERR5
 40
0.0
  9
$WORLDVIEW
 70
     1
  9
$SHADEDGE
 70
     3
  9
$SHADEDIF
 70
    70
  9
$TILEMODE
 70
     1
  9
$MAXACTVP
 70
    48
  9
$PLIMCHECK
 70
     0
  9
$PEXTMIN
 10
1.000000000000000E+20
 20
1.000000000000000E+20
 30
1.000000000000000E+20
  9
$PEXTMAX
 10
-1.000000000000000E+20
 20
-1.000000000000000E+20
 30
-1.000000000000000E+20
  9
$PLIMMIN
 10
0.0
 20
0.0
  9
$PLIMMAX
 10
420.0
 20
297.0
  9
$UNITMODE
 70
     0
  9
$VISRETAIN
 70
     1
  9
$PLINEGEN
 70
     0
  9
$PSLTSCALE
 70
     1
  0
ENDSEC
  0
SECTION
  2
TABLES
  0
TABLE
  2
VPORT
 70
     1
  0
VPORT
  2
*ACTIVE
 70
     0
 10
0.0
 20
0.0
 11
1.0
 21
1.0
 12
3054.182155607847
 22
-651.3777699538339
 13
0.0
 23
0.0
 14
10.0
 24
10.0
 15
10.0
 25
10.0
 16
0.0
 26
0.0
 36
1.0
 17
0.0
 27
0.0
 37
0.0
 40
574.1029558512032
 41
2.12079701120797
 42
50.0
 43
0.0
 44
0.0
 50
0.0
 51
0.0
 71
    16
 72
   100
 73
     1
 74
     1
 75
     0
 76
     0
 77
     0
 78
     0
  0
ENDTAB
  0
TABLE
  2
LTYPE
 70
    20
  0
LTYPE
  2
CONTINUOUS
 70
     0
  3
Solid line
 72
    65
 73
     0
 40
0.0
  0
LTYPE
  2
CENTER2
 70
     0
  3
Center (.5x) ___ _ ___ _ ___ _ ___ _ ___ _ ___
 72
    65
 73
     4
 40
28.575
 49
19.05
 49
-3.175
 49
3.175
 49
-3.175
  0
LTYPE
  2
HIDDEN
 70
     0
  3
Hidden __ __ __ __ __ __ __ __ __ __ __ __ __ _
 72
    65
 73
     2
 40
9.524999999999999
 49
6.35
 49
-3.175
  0
ENDTAB
  0
TABLE
  2
LAYER
 70
    61
  0
LAYER
  2
0
 70
     0
 62
     7
  6
CONTINUOUS
  0
LAYER
  2
1CENTER
 70
     0
 62
     7
  6
CENTER2
  0
LAYER
  2
1TEXT
 70
     0
 62
     7
  6
CONTINUOUS
  0
LAYER
  2
1DIM
 70
     0
 62
     7
  6
CONTINUOUS
  0
LAYER
  2
1HIDDEN
 70
     0
 62
     7
  6
HIDDEN
  0
LAYER
  2
01
 70
     0
 62
     1
  6
CONTINUOUS
  0
LAYER
  2
1DIM1
 70
     0
 62
     7
  6
CONTINUOUS
  0
ENDTAB
  0
TABLE
  2
STYLE
 70
    26
  0
STYLE
  2
STANDARD
 70
     0
 40
0.0
 41
1.0
 50
0.0
 71
     0
 42
4.0
  3
txt.shx
  4
extfont.shx
  0
STYLE
  2
STD
 70
     0
 40
0.0
 41
1.0
 50
0.0
 71
     0
 42
3.299999999999999
  3
TXT.shx
  4
bigfont.shx
  0
ENDTAB
  0
TABLE
  2
VIEW
 70
     0
  0
ENDTAB
  0
TABLE
  2
UCS
 70
     0
  0
ENDTAB
  0
TABLE
  2
APPID
 70
    22
  0
APPID
  2
ACAD
 70
     0
  0
APPID
  2
DRAWINGVARIABLESXDATA
 70
     0
  0
APPID
  2
CONTENTTABDATA
 70
     0
  0
APPID
  2
CONTENTCURRENTTAB
 70
     0
  0
APPID
  2
CONTENTBLOCKDESCRIPTION
 70
     0
  0
APPID
  2
CONTENTBLOCKICON
 70
     0
  0
APPID
  2
CONTENTLONGBLOCKNAME
 70
     0
  0
APPID
  2
ACAD_PSEXT
 70
     0
  0
APPID
  2
ACAD_DSTYLE_DIMTEXT_FILL
 70
     0
  0
APPID
  2
ACAD_MLEADERVER
 70
     0
  0
APPID
  2
ACAD_DSTYLE_DIMRADIAL_EXTE
 70
     0
  0
APPID
  2
ACADANNOTATIVE
 70
     0
  0
APPID
  2
ACAD_EXEMPT_FROM_CAD_STAND
 70
     0
  0
APPID
  2
ACAECLAYERSTANDARD
 70
     0
  0
APPID
  2
ACLAYERTOOLS
 70
     0
  0
APPID
  2
ACAD_DSTYLE_DIMJAG
 70
     0
  0
APPID
  2
ACAD_DSTYLE_DIMTALN
 70
     0
  0
APPID
  2
ASKOBJSC
 70
     0
  0
APPID
  2
ASKDWGSC
 70
     0
  0
APPID
  2
ACAD_NAV_VCDISPLAY
 70
     0
  0
APPID
  2
GRADIENTCOLOR1ACI
 70
     0
  0
APPID
  2
GRADIENTCOLOR2ACI
 70
     0
  0
ENDTAB
  0
TABLE
  2
DIMSTYLE
 70
    15
  0
DIMSTYLE
  2
NEWX10
 70
     0
  3
 
  4

  5

  6
OPEN30
  7
OPEN30
 40
1.0
 41
2.0
 42
0.0
 43
7.0
 44
1.0
 45
0.0
 46
0.0
 47
0.0
 48
0.0
140
3.5
141
0.0
142
0.0
143
25.4
144
1.0
145
0.0
146
0.7
147
0.7
 71
     0
 72
     0
 73
     0
 74
     0
 75
     0
 76
     0
 77
     1
 78
     8
170
     0
171
     2
172
     1
173
     1
174
     0
175
     0
176
   256
177
   256
178
   201
  0
ENDTAB
  0
ENDSEC
  0
SECTION
  2
BLOCKS
  0
BLOCK
  8
0
  2
$MODEL_SPACE
 70
     0
 10
0.0
 20
0.0
 30
0.0
  3
$MODEL_SPACE
  1

  0
ENDBLK
  5
1A
  8
0
  0
BLOCK
 67
     1
  8
0
  2
$PAPER_SPACE
 70
     0
 10
0.0
 20
0.0
 30
0.0
  3
$PAPER_SPACE
  1

  0
ENDBLK
  5
17
 67
     1
  8
0
  0
BLOCK
  8
0
  2
_OPEN30
 70
     0
 10
0.0
 20
0.0
 30
0.0
  3
_OPEN30
  1

  0
LINE
  5
44
  8
0
  6
BYBLOCK
 62
     0
 10
-1.0
 20
0.26794919
 30
0.0
 11
0.0
 21
0.0
 31
0.0
  0
LINE
  5
45
  8
0
  6
BYBLOCK
 62
     0
 10
0.0
 20
0.0
 30
0.0
 11
-1.0
 21
-0.26794919
 31
0.0
  0
LINE
  5
46
  8
0
  6
BYBLOCK
 62
     0
 10
0.0
 20
0.0
 30
0.0
 11
-1.0
 21
0.0
 31
0.0
  0
ENDBLK
  5
47
  8
0
  0
ENDSEC
  0
SECTION
  2
ENTITIES
  0
LINE
  5
27AB2
  8
01
 10
2507.414913688853
 20
-505.371963412794
 30
0.0
 11
3407.414913688853
 21
-505.371963412794
 31
0.0
  0
LINE
  5
27AB3
  8
01
 10
3407.414913688853
 20
-505.371963412794
 30
0.0
 11
3407.414913688853
 21
-580.371963412794
 31
0.0
  0
LINE
  5
27AB4
  8
01
 10
3407.414913688853
 20
-580.371963412794
 30
0.0
 11
3367.414913688853
 21
-580.371963412794
 31
0.0
  0
LINE
  5
27AB5
  8
01
 10
3367.414913688853
 20
-580.371963412794
 30
0.0
 11
3367.414913688853
 21
-545.371963412794
 31
0.0
  0
LINE
  5
27AB6
  8
01
 10
2507.414913688853
 20
-505.371963412794
 30
0.0
 11
2507.414913688853
 21
-580.371963412794
 31
0.0
  0
LINE
  5
27AB7
  8
01
 10
2507.414913688853
 20
-580.371963412794
 30
0.0
 11
2547.414913688853
 21
-580.371963412794
 31
0.0
  0
LINE
  5
27AB8
  8
01
 10
2547.414913688853
 20
-580.371963412794
 30
0.0
 11
2547.414913688853
 21
-545.371963412794
 31
0.0
  0
LINE
  5
27AB9
  8
01
 10
2547.414913688853
 20
-545.371963412794
 30
0.0
 11
3367.414913688853
 21
-545.371963412794
 31
0.0
  0
LINE
  5
27ABA
  8
1CENTER
 10
2957.414913688853
 20
-496.152467181478
 30
0.0
 11
2957.414913688853
 21
-584.4361825894837
 31
0.0
  0
LINE
  5
27ABB
  8
01
 10
2707.414913688853
 20
-505.371963412794
 30
0.0
 11
2707.414913688853
 21
-545.371963412794
 31
0.0
  0
LINE
  5
27ABC
  8
01
 10
3207.414913688853
 20
-505.371963412794
 30
0.0
 11
3207.414913688853
 21
-545.371963412794
 31
0.0
  0
LINE
  5
27AC0
  8
01
 10
2507.414913688853
 20
-663.371963412794
 30
0.0
 11
3407.414913688853
 21
-663.371963412794
 31
0.0
  0
LINE
  5
27AC1
  8
01
 10
3407.414913688853
 20
-663.371963412794
 30
0.0
 11
3407.414913688853
 21
-588.371963412794
 31
0.0
  0
LINE
  5
27AC2
  8
01
 10
3407.414913688853
 20
-588.371963412794
 30
0.0
 11
3367.414913688853
 21
-588.371963412794
 31
0.0
  0
LINE
  5
27AC3
  8
01
 10
3367.414913688853
 20
-588.371963412794
 30
0.0
 11
3367.414913688853
 21
-623.371963412794
 31
0.0
  0
LINE
  5
27AC4
  8
01
 10
2507.414913688853
 20
-663.371963412794
 30
0.0
 11
2507.414913688853
 21
-588.371963412794
 31
0.0
  0
LINE
  5
27AC5
  8
01
 10
2507.414913688853
 20
-588.371963412794
 30
0.0
 11
2547.414913688853
 21
-588.371963412794
 31
0.0
  0
LINE
  5
27AC6
  8
01
 10
2547.414913688853
 20
-588.371963412794
 30
0.0
 11
2547.414913688853
 21
-623.371963412794
 31
0.0
  0
LINE
  5
27AC7
  8
01
 10
2547.414913688853
 20
-623.371963412794
 30
0.0
 11
3367.414913688853
 21
-623.371963412794
 31
0.0
  0
LINE
  5
27AC8
  8
1CENTER
 10
2957.414913688853
 20
-672.59145964411
 30
0.0
 11
2957.414913688853
 21
-584.3077442361043
 31
0.0
  0
LINE
  5
27AC9
  8
01
 10
3207.414913688853
 20
-663.371963412794
 30
0.0
 11
3207.414913688853
 21
-623.371963412794
 31
0.0
  0
LINE
  5
27ACA
  8
01
 10
2707.414913688853
 20
-663.371963412794
 30
0.0
 11
2707.414913688853
 21
-623.371963412794
 31
0.0
  0
LINE
  5
27ACD
  8
1CENTER
 10
3382.214913688853
 20
-572.371963412637
 30
0.0
 11
3372.614913688853
 21
-572.3719634126386
 31
0.0
  0
LINE
  5
27ACE
  8
1CENTER
 10
3377.414913688854
 20
-577.1719634126378
 30
0.0
 11
3377.414913688852
 21
-567.5719634126378
 31
0.0
  0
CIRCLE
  5
27ACF
  8
01
  6
CONTINUOUS
 10
3377.414913688853
 20
-572.3719634126378
 30
0.0
 40
4.0
  0
ARC
  5
27AD0
  8
01
  6
CONTINUOUS
 10
3375.914913688853
 20
-570.871963412638
 30
0.0
 40
1.0
 50
270.0
 51
0.0000000000065138
  0
ARC
  5
27AD1
  8
01
  6
CONTINUOUS
 10
3378.914913688853
 20
-573.8719634126376
 30
0.0
 40
1.0
 50
90.0
 51
180.0000000000065
  0
ARC
  5
27AD2
  8
01
  6
CONTINUOUS
 10
3375.914913688853
 20
-573.871963412638
 30
0.0
 40
1.0
 50
0.0000000000065138
 51
90.0
  0
ARC
  5
27AD3
  8
01
  6
CONTINUOUS
 10
3378.914913688853
 20
-570.8719634126376
 30
0.0
 40
1.0
 50
180.0000000000065
 51
270.0
  0
LINE
  5
27AD4
  8
01
  6
CONTINUOUS
 10
3375.164913688853
 20
-572.8719634126381
 30
0.0
 11
3375.164913688853
 21
-571.8719634126381
 31
0.0
  0
LINE
  5
27AD5
  8
01
  6
CONTINUOUS
 10
3376.914913688853
 20
-570.8719634126379
 30
0.0
 11
3376.914913688853
 21
-570.1219634126379
 31
0.0
  0
LINE
  5
27AD6
  8
01
  6
CONTINUOUS
 10
3376.914913688853
 20
-570.1219634126379
 30
0.0
 11
3377.914913688853
 21
-570.1219634126377
 31
0.0
  0
LINE
  5
27AD7
  8
01
  6
CONTINUOUS
 10
3379.664913688853
 20
-571.8719634126375
 30
0.0
 11
3379.664913688853
 21
-572.8719634126375
 31
0.0
  0
LINE
  5
27AD8
  8
01
  6
CONTINUOUS
 10
3379.664913688853
 20
-572.8719634126375
 30
0.0
 11
3378.914913688853
 21
-572.8719634126376
 31
0.0
  0
LINE
  5
27AD9
  8
01
  6
CONTINUOUS
 10
3377.914913688853
 20
-574.6219634126377
 30
0.0
 11
3376.914913688853
 21
-574.6219634126379
 31
0.0
  0
LINE
  5
27ADA
  8
01
  6
CONTINUOUS
 10
3376.914913688853
 20
-574.6219634126379
 30
0.0
 11
3376.914913688853
 21
-573.8719634126379
 31
0.0
  0
LINE
  5
27ADB
  8
01
  6
CONTINUOUS
 10
3375.914913688853
 20
-572.871963412638
 30
0.0
 11
3375.164913688853
 21
-572.8719634126381
 31
0.0
  0
LINE
  5
27ADC
  8
01
  6
CONTINUOUS
 10
3375.164913688853
 20
-571.8719634126381
 30
0.0
 11
3375.914913688853
 21
-571.871963412638
 31
0.0
  0
LINE
  5
27ADD
  8
01
  6
CONTINUOUS
 10
3377.914913688853
 20
-573.8719634126377
 30
0.0
 11
3377.914913688853
 21
-574.6219634126377
 31
0.0
  0
LINE
  5
27ADE
  8
01
  6
CONTINUOUS
 10
3377.914913688853
 20
-570.1219634126377
 30
0.0
 11
3377.914913688853
 21
-570.8719634126377
 31
0.0
  0
LINE
  5
27ADF
  8
01
  6
CONTINUOUS
 10
3378.914913688853
 20
-571.8719634126376
 30
0.0
 11
3379.664913688853
 21
-571.8719634126375
 31
0.0
  0
LINE
  5
27AE0
  8
1CENTER
 10
3397.414913688852
 20
-577.1719634126378
 30
0.0
 11
3397.414913688854
 21
-567.5719634126378
 31
0.0
  0
LINE
  5
27AE1
  8
1CENTER
 10
3402.214913688853
 20
-572.3719634126386
 30
0.0
 11
3392.614913688853
 21
-572.371963412637
 31
0.0
  0
CIRCLE
  5
27AE2
  8
01
  6
CONTINUOUS
 10
3397.414913688853
 20
-572.3719634126378
 30
0.0
 40
4.0
  0
ARC
  5
27AE3
  8
01
  6
CONTINUOUS
 10
3395.914913688853
 20
-570.8719634126376
 30
0.0
 40
1.0
 50
270.0
 51
359.9999999999935
  0
ARC
  5
27AE4
  8
01
  6
CONTINUOUS
 10
3398.914913688853
 20
-573.871963412638
 30
0.0
 40
1.0
 50
90.0
 51
179.9999999999935
  0
ARC
  5
27AE5
  8
01
  6
CONTINUOUS
 10
3398.914913688853
 20
-570.871963412638
 30
0.0
 40
1.0
 50
179.9999999999935
 51
270.0
  0
ARC
  5
27AE6
  8
01
  6
CONTINUOUS
 10
3395.914913688853
 20
-573.8719634126376
 30
0.0
 40
1.0
 50
359.9999999999935
 51
90.0
  0
LINE
  5
27AE7
  8
01
  6
CONTINUOUS
 10
3397.914913688853
 20
-570.1219634126379
 30
0.0
 11
3396.914913688853
 21
-570.1219634126377
 31
0.0
  0
LINE
  5
27AE8
  8
01
  6
CONTINUOUS
 10
3395.914913688853
 20
-571.8719634126376
 30
0.0
 11
3395.164913688853
 21
-571.8719634126375
 31
0.0
  0
LINE
  5
27AE9
  8
01
  6
CONTINUOUS
 10
3395.164913688853
 20
-571.8719634126375
 30
0.0
 11
3395.164913688853
 21
-572.8719634126375
 31
0.0
  0
LINE
  5
27AEA
  8
01
  6
CONTINUOUS
 10
3396.914913688853
 20
-574.6219634126377
 30
0.0
 11
3397.914913688853
 21
-574.6219634126379
 31
0.0
  0
LINE
  5
27AEB
  8
01
  6
CONTINUOUS
 10
3397.914913688853
 20
-574.6219634126379
 30
0.0
 11
3397.914913688853
 21
-573.8719634126379
 31
0.0
  0
LINE
  5
27AEC
  8
01
  6
CONTINUOUS
 10
3399.664913688853
 20
-572.8719634126381
 30
0.0
 11
3399.664913688853
 21
-571.8719634126381
 31
0.0
  0
LINE
  5
27AED
  8
01
  6
CONTINUOUS
 10
3399.664913688853
 20
-571.8719634126381
 30
0.0
 11
3398.914913688853
 21
-571.871963412638
 31
0.0
  0
LINE
  5
27AEE
  8
01
  6
CONTINUOUS
 10
3397.914913688853
 20
-570.8719634126379
 30
0.0
 11
3397.914913688853
 21
-570.1219634126379
 31
0.0
  0
LINE
  5
27AEF
  8
01
  6
CONTINUOUS
 10
3396.914913688853
 20
-570.1219634126377
 30
0.0
 11
3396.914913688853
 21
-570.8719634126377
 31
0.0
  0
LINE
  5
27AF0
  8
01
  6
CONTINUOUS
 10
3398.914913688853
 20
-572.871963412638
 30
0.0
 11
3399.664913688853
 21
-572.8719634126381
 31
0.0
  0
LINE
  5
27AF1
  8
01
  6
CONTINUOUS
 10
3395.164913688853
 20
-572.8719634126375
 30
0.0
 11
3395.914913688853
 21
-572.8719634126376
 31
0.0
  0
LINE
  5
27AF2
  8
01
  6
CONTINUOUS
 10
3396.914913688853
 20
-573.8719634126377
 30
0.0
 11
3396.914913688853
 21
-574.6219634126377
 31
0.0
  0
LINE
  5
27AF3
  8
1CENTER
 10
2537.414913688852
 20
-577.1719634126378
 30
0.0
 11
2537.414913688854
 21
-567.5719634126378
 31
0.0
  0
LINE
  5
27AF4
  8
1CENTER
 10
2542.214913688853
 20
-572.3719634126386
 30
0.0
 11
2532.614913688853
 21
-572.371963412637
 31
0.0
  0
CIRCLE
  5
27AF5
  8
01
  6
CONTINUOUS
 10
2537.414913688853
 20
-572.3719634126378
 30
0.0
 40
4.0
  0
ARC
  5
27AF6
  8
01
  6
CONTINUOUS
 10
2535.914913688853
 20
-570.8719634126376
 30
0.0
 40
1.0
 50
270.0
 51
359.9999999999935
  0
ARC
  5
27AF7
  8
01
  6
CONTINUOUS
 10
2538.914913688853
 20
-573.871963412638
 30
0.0
 40
1.0
 50
90.0
 51
179.9999999999935
  0
ARC
  5
27AF8
  8
01
  6
CONTINUOUS
 10
2538.914913688853
 20
-570.871963412638
 30
0.0
 40
1.0
 50
179.9999999999935
 51
270.0
  0
ARC
  5
27AF9
  8
01
  6
CONTINUOUS
 10
2535.914913688853
 20
-573.8719634126376
 30
0.0
 40
1.0
 50
359.9999999999935
 51
90.0
  0
LINE
  5
27AFA
  8
01
  6
CONTINUOUS
 10
2537.914913688853
 20
-570.1219634126379
 30
0.0
 11
2536.914913688853
 21
-570.1219634126377
 31
0.0
  0
LINE
  5
27AFB
  8
01
  6
CONTINUOUS
 10
2535.914913688853
 20
-571.8719634126376
 30
0.0
 11
2535.164913688853
 21
-571.8719634126375
 31
0.0
  0
LINE
  5
27AFC
  8
01
  6
CONTINUOUS
 10
2535.164913688853
 20
-571.8719634126375
 30
0.0
 11
2535.164913688853
 21
-572.8719634126375
 31
0.0
  0
LINE
  5
27AFD
  8
01
  6
CONTINUOUS
 10
2536.914913688853
 20
-574.6219634126377
 30
0.0
 11
2537.914913688853
 21
-574.6219634126379
 31
0.0
  0
LINE
  5
27AFE
  8
01
  6
CONTINUOUS
 10
2537.914913688853
 20
-574.6219634126379
 30
0.0
 11
2537.914913688853
 21
-573.8719634126379
 31
0.0
  0
LINE
  5
27AFF
  8
01
  6
CONTINUOUS
 10
2539.664913688853
 20
-572.8719634126381
 30
0.0
 11
2539.664913688853
 21
-571.8719634126381
 31
0.0
  0
LINE
  5
27B00
  8
01
  6
CONTINUOUS
 10
2539.664913688853
 20
-571.8719634126381
 30
0.0
 11
2538.914913688853
 21
-571.871963412638
 31
0.0
  0
LINE
  5
27B01
  8
01
  6
CONTINUOUS
 10
2537.914913688853
 20
-570.8719634126379
 30
0.0
 11
2537.914913688853
 21
-570.1219634126379
 31
0.0
  0
LINE
  5
27B02
  8
01
  6
CONTINUOUS
 10
2536.914913688853
 20
-570.1219634126377
 30
0.0
 11
2536.914913688853
 21
-570.8719634126377
 31
0.0
  0
LINE
  5
27B03
  8
01
  6
CONTINUOUS
 10
2538.914913688853
 20
-572.871963412638
 30
0.0
 11
2539.664913688853
 21
-572.8719634126381
 31
0.0
  0
LINE
  5
27B04
  8
01
  6
CONTINUOUS
 10
2535.164913688853
 20
-572.8719634126375
 30
0.0
 11
2535.914913688853
 21
-572.8719634126376
 31
0.0
  0
LINE
  5
27B05
  8
01
  6
CONTINUOUS
 10
2536.914913688853
 20
-573.8719634126377
 30
0.0
 11
2536.914913688853
 21
-574.6219634126377
 31
0.0
  0
LINE
  5
27B06
  8
1CENTER
 10
2522.214913688853
 20
-572.371963412637
 30
0.0
 11
2512.614913688853
 21
-572.3719634126386
 31
0.0
  0
LINE
  5
27B07
  8
1CENTER
 10
2517.414913688854
 20
-577.1719634126378
 30
0.0
 11
2517.414913688852
 21
-567.5719634126378
 31
0.0
  0
CIRCLE
  5
27B08
  8
01
  6
CONTINUOUS
 10
2517.414913688853
 20
-572.3719634126378
 30
0.0
 40
4.0
  0
ARC
  5
27B09
  8
01
  6
CONTINUOUS
 10
2515.914913688853
 20
-570.871963412638
 30
0.0
 40
1.0
 50
270.0
 51
0.0000000000065138
  0
ARC
  5
27B0A
  8
01
  6
CONTINUOUS
 10
2518.914913688853
 20
-573.8719634126376
 30
0.0
 40
1.0
 50
90.0
 51
180.0000000000065
  0
ARC
  5
27B0B
  8
01
  6
CONTINUOUS
 10
2515.914913688853
 20
-573.871963412638
 30
0.0
 40
1.0
 50
0.0000000000065138
 51
90.0
  0
ARC
  5
27B0C
  8
01
  6
CONTINUOUS
 10
2518.914913688853
 20
-570.8719634126376
 30
0.0
 40
1.0
 50
180.0000000000065
 51
270.0
  0
LINE
  5
27B0D
  8
01
  6
CONTINUOUS
 10
2515.164913688853
 20
-572.8719634126381
 30
0.0
 11
2515.164913688853
 21
-571.8719634126381
 31
0.0
  0
LINE
  5
27B0E
  8
01
  6
CONTINUOUS
 10
2516.914913688853
 20
-570.8719634126379
 30
0.0
 11
2516.914913688853
 21
-570.1219634126379
 31
0.0
  0
LINE
  5
27B0F
  8
01
  6
CONTINUOUS
 10
2516.914913688853
 20
-570.1219634126379
 30
0.0
 11
2517.914913688853
 21
-570.1219634126377
 31
0.0
  0
LINE
  5
27B10
  8
01
  6
CONTINUOUS
 10
2519.664913688853
 20
-571.8719634126375
 30
0.0
 11
2519.664913688853
 21
-572.8719634126375
 31
0.0
  0
LINE
  5
27B11
  8
01
  6
CONTINUOUS
 10
2519.664913688853
 20
-572.8719634126375
 30
0.0
 11
2518.914913688853
 21
-572.8719634126376
 31
0.0
  0
LINE
  5
27B12
  8
01
  6
CONTINUOUS
 10
2517.914913688853
 20
-574.6219634126377
 30
0.0
 11
2516.914913688853
 21
-574.6219634126379
 31
0.0
  0
LINE
  5
27B13
  8
01
  6
CONTINUOUS
 10
2516.914913688853
 20
-574.6219634126379
 30
0.0
 11
2516.914913688853
 21
-573.8719634126379
 31
0.0
  0
LINE
  5
27B14
  8
01
  6
CONTINUOUS
 10
2515.914913688853
 20
-572.871963412638
 30
0.0
 11
2515.164913688853
 21
-572.8719634126381
 31
0.0
  0
LINE
  5
27B15
  8
01
  6
CONTINUOUS
 10
2515.164913688853
 20
-571.8719634126381
 30
0.0
 11
2515.914913688853
 21
-571.871963412638
 31
0.0
  0
LINE
  5
27B16
  8
01
  6
CONTINUOUS
 10
2517.914913688853
 20
-573.8719634126377
 30
0.0
 11
2517.914913688853
 21
-574.6219634126377
 31
0.0
  0
LINE
  5
27B17
  8
01
  6
CONTINUOUS
 10
2517.914913688853
 20
-570.1219634126377
 30
0.0
 11
2517.914913688853
 21
-570.8719634126377
 31
0.0
  0
LINE
  5
27B18
  8
01
  6
CONTINUOUS
 10
2518.914913688853
 20
-571.8719634126376
 30
0.0
 11
2519.664913688853
 21
-571.8719634126375
 31
0.0
  0
LINE
  5
27B19
  8
01
 10
3422.895408463083
 20
-588.371963412794
 30
0.0
 11
2487.183115779343
 21
-588.371963412794
 31
0.0
  0
LINE
  5
27B1A
  8
01
 10
3422.895408463083
 20
-580.371963412794
 30
0.0
 11
2487.183115779343
 21
-580.371963412794
 31
0.0
  0
LINE
  5
27B1B
  8
1CENTER
 10
3387.414913688852
 20
-569.8251739821158
 30
0.0
 11
3387.414913688853
 21
-599.0496652566742
 31
0.0
  0
LINE
  5
27B1C
  8
1CENTER
 10
2527.414913688855
 20
-569.8251739821158
 30
0.0
 11
2527.414913688855
 21
-599.0496652566742
 31
0.0
  0
LINE
  5
27B1E
  8
01
 10
3407.414913688853
 20
-693.3719634127943
 30
0.0
 11
2507.414913688853
 21
-693.3719634127943
 31
0.0
  0
LINE
  5
27B1F
  8
01
 10
3407.414913688853
 20
-713.3719634127943
 30
0.0
 11
2507.414913688853
 21
-713.3719634127943
 31
0.0
  0
LINE
  5
27B20
  8
01
 10
3407.414913688853
 20
-693.3719634127943
 30
0.0
 11
3407.414913688853
 21
-713.3719634127943
 31
0.0
  0
LINE
  5
27B21
  8
01
 10
2507.414913688853
 20
-713.3719634127943
 30
0.0
 11
2507.414913688853
 21
-693.3719634127943
 31
0.0
  0
LINE
  5
27B22
  8
01
 10
2707.414913688853
 20
-693.3719634127943
 30
0.0
 11
2707.414913688853
 21
-713.3719634127943
 31
0.0
  0
LINE
  5
27B23
  8
01
 10
3207.414913688853
 20
-693.3719634127943
 30
0.0
 11
3207.414913688853
 21
-713.3719634127943
 31
0.0
  0
LINE
  5
27B24
  8
01
 10
3621.181195436351
 20
-713.3719634127942
 30
0.0
 11
3621.181195436351
 21
-693.3719634127942
 31
0.0
  0
LINE
  5
27B25
  8
1HIDDEN
 10
3581.18119543635
 20
-713.3719634127942
 30
0.0
 11
3581.18119543635
 21
-693.3719634127942
 31
0.0
  0
LINE
  5
27B26
  8
01
 10
3546.18119543635
 20
-713.3719634127942
 30
0.0
 11
3546.18119543635
 21
-693.3719634127942
 31
0.0
  0
LINE
  5
27B27
  8
01
 10
3538.18119543635
 20
-713.3719634127942
 30
0.0
 11
3538.18119543635
 21
-693.3719634127942
 31
0.0
  0
LINE
  5
27B28
  8
1HIDDEN
 10
3503.18119543635
 20
-713.3719634127942
 30
0.0
 11
3503.18119543635
 21
-693.3719634127942
 31
0.0
  0
LINE
  5
27B29
  8
01
 10
3463.18119543635
 20
-713.3719634127942
 30
0.0
 11
3463.18119543635
 21
-693.3719634127942
 31
0.0
  0
LINE
  5
27B2A
  8
01
 10
3463.18119543635
 20
-693.3719634127942
 30
0.0
 11
3538.18119543635
 21
-693.3719634127942
 31
0.0
  0
LINE
  5
27B2B
  8
01
 10
3463.18119543635
 20
-713.3719634127942
 30
0.0
 11
3538.18119543635
 21
-713.3719634127942
 31
0.0
  0
LINE
  5
27B32
  8
01
 10
3546.18119543635
 20
-693.3719634127942
 30
0.0
 11
3621.181195436351
 21
-693.3719634127942
 31
0.0
  0
LINE
  5
27B33
  8
01
 10
3546.18119543635
 20
-713.3719634127942
 30
0.0
 11
3621.181195436351
 21
-713.3719634127942
 31
0.0
  0
ARC
  5
27C47
  8
1DIM
 10
3562.248851219497
 20
-700.1663732134625
 30
0.0
 40
1.9
 50
15.36248503684011
 51
85.00000000002636
  0
ARC
  5
27C48
  8
1DIM
 10
3562.248851219497
 20
-706.5775536121259
 30
0.0
 40
1.9
 50
274.9999999999736
 51
344.6375149631598
  0
ARC
  5
27C49
  8
1DIM
 10
3550.581195436353
 20
-703.3719634127942
 30
0.0
 40
14.0
 50
344.6375149631598
 51
15.36248503684011
  0
ARC
  5
27C4A
  8
1DIM
 10
3560.431195436352
 20
-700.6219634127942
 30
0.0
 40
0.25
 50
270.0
 51
0.0
  0
ARC
  5
27C4B
  8
1DIM
 10
3560.431195436352
 20
-706.1219634127942
 30
0.0
 40
0.25
 50
0.0
 51
90.0
  0
LINE
  5
27C4C
  8
1DIM
 10
3562.414447130717
 20
-698.2736032870885
 30
0.0
 11
3560.681195436352
 21
-698.1219634127942
 31
0.0
  0
LINE
  5
27C4D
  8
1DIM
 10
3560.681195436352
 20
-708.6219634127942
 30
0.0
 11
3562.414447130717
 21
-708.4703235385
 31
0.0
  0
LINE
  5
27C4E
  8
1DIM
 10
3560.681195436352
 20
-698.1219634127942
 30
0.0
 11
3560.681195436352
 21
-708.6219634127942
 31
0.0
  0
LINE
  5
27C4F
  8
1DIM
 10
3560.431195436352
 20
-700.8719634127942
 30
0.0
 11
3558.431195436352
 21
-700.3719634127942
 31
0.0
  0
LINE
  5
27C50
  8
1DIM
 10
3558.431195436352
 20
-700.3719634127942
 30
0.0
 11
3546.181195436351
 21
-700.3719634127942
 31
0.0
  0
LINE
  5
27C51
  8
1DIM
 10
3546.181195436349
 20
-706.3719634127942
 30
0.0
 11
3558.431195436352
 21
-706.3719634127942
 31
0.0
  0
LINE
  5
27C52
  8
1DIM
 10
3558.431195436352
 20
-706.3719634127942
 30
0.0
 11
3560.431195436352
 21
-705.8719634127942
 31
0.0
  0
LINE
  5
27C53
  8
1HIDDEN
 10
3558.431195436352
 20
-700.3719634127942
 30
0.0
 11
3558.431195436352
 21
-706.3719634127942
 31
0.0
  0
LINE
  5
27C54
  8
1DIM
 10
3560.431195436352
 20
-700.8719634127942
 30
0.0
 11
3546.18119543635
 21
-700.8719634127942
 31
0.0
  0
LINE
  5
27C55
  8
1DIM
 10
3546.181195436349
 20
-705.8719634127942
 30
0.0
 11
3560.431195436352
 21
-705.8719634127942
 31
0.0
  0
LINE
  5
27C56
  8
1DIM
 10
3559.181195436352
 20
-697.2719634127939
 30
0.0
 11
3560.681195436352
 21
-697.2719634127939
 31
0.0
  0
LINE
  5
27C57
  8
1DIM
 10
3560.681195436352
 20
-697.2719634127939
 30
0.0
 11
3560.681195436352
 21
-709.4719634127946
 31
0.0
  0
LINE
  5
27C58
  8
1DIM
 10
3560.681195436352
 20
-709.4719634127946
 30
0.0
 11
3559.181195436352
 21
-709.4719634127946
 31
0.0
  0
LINE
  5
27C59
  8
1DIM
 10
3560.681195436352
 20
-703.6205031567201
 30
0.0
 11
3559.181195436352
 21
-703.8849936277825
 31
0.0
  0
LINE
  5
27C5A
  8
1DIM
 10
3559.181195436352
 20
-703.1234236688683
 30
0.0
 11
3560.681195436352
 21
-702.858933197806
 31
0.0
  0
LINE
  5
27C5B
  8
1HIDDEN
 10
3552.495267324738
 20
-696.0219634127948
 30
0.0
 11
3555.867123547839
 21
-696.0219634127948
 31
0.0
  0
LINE
  5
27C5C
  8
1DIM
 10
3555.948352723814
 20
-695.9048061252684
 30
0.0
 11
3558.181195436288
 21
-693.6719634127944
 31
0.0
  0
LINE
  5
27C5D
  8
1DIM
 10
3552.414038148762
 20
-695.9048061252684
 30
0.0
 11
3550.181195436288
 21
-693.6719634127944
 31
0.0
  0
LINE
  5
27C5E
  8
1HIDDEN
 10
3556.181195436288
 20
-697.587648837743
 30
0.0
 11
3555.831195436288
 21
-696.1876488377434
 31
0.0
  0
LINE
  5
27C5F
  8
1HIDDEN
 10
3552.181195436288
 20
-697.587648837743
 30
0.0
 11
3552.531195436288
 21
-696.1876488377434
 31
0.0
  0
LINE
  5
27C60
  8
1HIDDEN
 10
3556.181195436288
 20
-697.587648837743
 30
0.0
 11
3552.181195436288
 21
-697.587648837743
 31
0.0
  0
LINE
  5
27C61
  8
1DIM
 10
3550.181195436288
 20
-693.3719634127942
 30
0.0
 11
3550.181195436288
 21
-693.6719634127944
 31
0.0
  0
LINE
  5
27C62
  8
1DIM
 10
3558.181195436288
 20
-693.6719634127944
 30
0.0
 11
3558.181195436288
 21
-693.3719634127942
 31
0.0
  0
LINE
  5
27C63
  8
1DIM
 10
3550.181195436288
 20
-693.6719634127944
 30
0.0
 11
3558.181195436288
 21
-693.6719634127944
 31
0.0
  0
LINE
  5
27C64
  8
1DIM
 10
3558.181195436288
 20
-693.3719634127942
 30
0.0
 11
3550.181195436288
 21
-693.3719634127942
 31
0.0
  0
ARC
  5
27C65
  8
1HIDDEN
 10
3552.131195436288
 20
-696.1876488377434
 30
0.0
 40
0.4
 50
0.0
 51
44.99999999999504
  0
ARC
  5
27C66
  8
1HIDDEN
 10
3556.231195436288
 20
-696.1876488377434
 30
0.0
 40
0.4
 50
135.0000000000049
 51
180.0
  0
LINE
  5
27C67
  8
1DIM
 10
3550.181195436288
 20
-693.6719634127944
 30
0.0
 11
3558.181195436288
 21
-693.6719634127944
 31
0.0
  0
LINE
  5
27C68
  8
1HIDDEN
 10
3556.181195436288
 20
-701.0219634127948
 30
0.0
 11
3555.831195436288
 21
-701.3719634127942
 31
0.0
  0
LINE
  5
27C69
  8
1HIDDEN
 10
3555.831195436288
 20
-701.3719634127942
 30
0.0
 11
3552.531195436288
 21
-701.3719634127942
 31
0.0
  0
LINE
  5
27C6A
  8
1HIDDEN
 10
3552.531195436288
 20
-701.3719634127942
 30
0.0
 11
3552.181195436288
 21
-701.0219634127948
 31
0.0
  0
LINE
  5
27C6B
  8
1HIDDEN
 10
3556.181195436288
 20
-701.0219634127948
 30
0.0
 11
3552.181195436288
 21
-701.0219634127948
 31
0.0
  0
LINE
  5
27C6C
  8
1HIDDEN
 10
3552.495267324738
 20
-710.7219634127937
 30
0.0
 11
3555.867123547839
 21
-710.7219634127937
 31
0.0
  0
LINE
  5
27C6D
  8
1HIDDEN
 10
3555.948352723814
 20
-710.8391207003201
 30
0.0
 11
3558.181195436288
 21
-713.071963412794
 31
0.0
  0
LINE
  5
27C6E
  8
1HIDDEN
 10
3552.414038148762
 20
-710.8391207003201
 30
0.0
 11
3550.181195436288
 21
-713.071963412794
 31
0.0
  0
LINE
  5
27C6F
  8
1HIDDEN
 10
3556.181195436288
 20
-709.1562779878454
 30
0.0
 11
3552.181195436288
 21
-709.1562779878454
 31
0.0
  0
LINE
  5
27C70
  8
1HIDDEN
 10
3550.181195436288
 20
-713.3719634127942
 30
0.0
 11
3550.181195436288
 21
-713.071963412794
 31
0.0
  0
LINE
  5
27C71
  8
1HIDDEN
 10
3558.181195436288
 20
-713.071963412794
 30
0.0
 11
3558.181195436288
 21
-713.3719634127942
 31
0.0
  0
LINE
  5
27C72
  8
1HIDDEN
 10
3550.181195436288
 20
-713.071963412794
 30
0.0
 11
3558.181195436288
 21
-713.071963412794
 31
0.0
  0
LINE
  5
27C73
  8
1HIDDEN
 10
3558.181195436288
 20
-713.3719634127942
 30
0.0
 11
3550.181195436288
 21
-713.3719634127942
 31
0.0
  0
ARC
  5
27C74
  8
1HIDDEN
 10
3552.131195436288
 20
-710.5562779878451
 30
0.0
 40
0.4
 50
315.0000000000049
 51
0.0
  0
ARC
  5
27C75
  8
1HIDDEN
 10
3556.231195436288
 20
-710.5562779878451
 30
0.0
 40
0.4
 50
180.0
 51
224.9999999999951
  0
LINE
  5
27C76
  8
1HIDDEN
 10
3550.181195436288
 20
-713.071963412794
 30
0.0
 11
3558.181195436288
 21
-713.071963412794
 31
0.0
  0
LINE
  5
27C77
  8
1HIDDEN
 10
3556.181195436288
 20
-705.7219634127937
 30
0.0
 11
3555.831195436288
 21
-705.3719634127942
 31
0.0
  0
LINE
  5
27C78
  8
1HIDDEN
 10
3555.831195436288
 20
-705.3719634127942
 30
0.0
 11
3552.531195436288
 21
-705.3719634127942
 31
0.0
  0
LINE
  5
27C79
  8
1HIDDEN
 10
3552.531195436288
 20
-705.3719634127942
 30
0.0
 11
3552.181195436288
 21
-705.7219634127937
 31
0.0
  0
LINE
  5
27C7A
  8
1HIDDEN
 10
3556.181195436288
 20
-705.7219634127937
 30
0.0
 11
3552.181195436288
 21
-705.7219634127937
 31
0.0
  0
LINE
  5
27C7C
  8
1HIDDEN
 10
3559.18119543635
 20
-699.8719634127947
 30
0.0
 11
3546.18119543635
 21
-699.8719634127947
 31
0.0
  0
LINE
  5
27C7D
  8
1HIDDEN
 10
3559.18119543635
 20
-706.8719634127947
 30
0.0
 11
3546.18119543635
 21
-706.8719634127947
 31
0.0
  0
LINE
  5
27C7F
  8
1HIDDEN
 10
3555.83119543635
 20
-697.2219634127946
 30
0.0
 11
3555.83119543635
 21
-709.5219634127948
 31
0.0
  0
LINE
  5
27C80
  8
1HIDDEN
 10
3552.53119543635
 20
-697.2219634127946
 30
0.0
 11
3552.53119543635
 21
-709.5219634127948
 31
0.0
  0
LINE
  5
27C81
  8
1HIDDEN
 10
3556.18119543635
 20
-697.2219634127946
 30
0.0
 11
3556.181195436349
 21
-709.5219634127936
 31
0.0
  0
LINE
  5
27C82
  8
1HIDDEN
 10
3552.181195436349
 20
-709.5219634127948
 30
0.0
 11
3552.18119543635
 21
-697.2219634127946
 31
0.0
  0
LINE
  5
27C83
  8
1HIDDEN
 10
3556.53119543635
 20
-696.8719634127947
 30
0.0
 11
3556.18119543635
 21
-697.2219634127946
 31
0.0
  0
LINE
  5
27C84
  8
1HIDDEN
 10
3556.18119543635
 20
-697.2219634127946
 30
0.0
 11
3552.18119543635
 21
-697.2219634127946
 31
0.0
  0
LINE
  5
27C85
  8
1HIDDEN
 10
3551.83119543635
 20
-696.8719634127947
 30
0.0
 11
3552.181195436349
 21
-697.2219634127946
 31
0.0
  0
LINE
  5
27C86
  8
1HIDDEN
 10
3556.53119543635
 20
-709.8719634127947
 30
0.0
 11
3556.18119543635
 21
-709.5219634127948
 31
0.0
  0
LINE
  5
27C87
  8
1HIDDEN
 10
3556.18119543635
 20
-709.5219634127948
 30
0.0
 11
3552.18119543635
 21
-709.5219634127948
 31
0.0
  0
LINE
  5
27C88
  8
1HIDDEN
 10
3551.83119543635
 20
-709.8719634127947
 30
0.0
 11
3552.181195436349
 21
-709.5219634127948
 31
0.0
  0
LINE
  5
27C89
  8
1HIDDEN
 10
3559.18119543635
 20
-697.3719634127947
 30
0.0
 11
3559.18119543635
 21
-709.3719634127947
 31
0.0
  0
LINE
  5
27C8A
  8
1HIDDEN
 10
3559.18119543635
 20
-709.3719634127947
 30
0.0
 11
3558.68119543635
 21
-709.8719634127947
 31
0.0
  0
LINE
  5
27C8B
  8
1HIDDEN
 10
3558.68119543635
 20
-709.8719634127947
 30
0.0
 11
3546.18119543635
 21
-709.8719634127947
 31
0.0
  0
LINE
  5
27C8D
  8
1HIDDEN
 10
3546.18119543635
 20
-696.8719634127947
 30
0.0
 11
3558.68119543635
 21
-696.8719634127947
 31
0.0
  0
LINE
  5
27C8E
  8
1HIDDEN
 10
3558.68119543635
 20
-696.8719634127947
 30
0.0
 11
3559.18119543635
 21
-697.3719634127947
 31
0.0
  0
LINE
  5
27C8F
  8
1DIM
 10
3538.18119543635
 20
-680.8719634127942
 30
0.0
 11
3538.18119543635
 21
-725.8719634127942
 31
0.0
  0
LINE
  5
27C90
  8
1DIM
 10
3546.18119543635
 20
-680.8719634127942
 30
0.0
 11
3546.18119543635
 21
-725.8719634127942
 31
0.0
  0
LINE
  5
27C91
  8
01
 10
3538.18119543635
 20
-710.8719563927447
 30
0.0
 11
3546.18119543635
 21
-710.8719563927447
 31
0.0
  0
LINE
  5
27C92
  8
01
 10
3538.18119543635
 20
-695.8719563927447
 30
0.0
 11
3546.18119543635
 21
-695.8719563927447
 31
0.0
  0
LINE
  5
27C97
  8
1CENTER
 10
3387.414913688852
 20
-689.8481837921735
 30
0.0
 11
3387.414913688853
 21
-719.0726750667319
 31
0.0
  0
LINE
  5
27C98
  8
1CENTER
 10
2527.414913688855
 20
-689.8481837921735
 30
0.0
 11
2527.414913688855
 21
-719.0726750667319
 31
0.0
  0
LINE
  5
27C9F
  8
1DIM
 10
3450.479442156943
 20
-580.371963412794
 30
0.0
 11
3450.479442156943
 21
-588.371963412794
 31
0.0
  0
TEXT
  5
28328
  8
1TEXT
 10
3463.18119543635
 20
-583.371963412794
 30
0.0
 40
8.0
  1
DA-151-4QX-0900
 41
0.8
  0
LINE
  5
28329
  8
1DIM
 10
3463.18119543635
 20
-588.371963412794
 30
0.0
 11
3561.013106465343
 21
-588.371963412794
 31
0.0
  0
LINE
  5
2832A
  8
1DIM
 10
3463.18119543635
 20
-602.371963412794
 30
0.0
 11
3561.013106465343
 21
-602.371963412794
 31
0.0
  0
LINE
  5
2832B
  8
1DIM
 10
3463.18119543635
 20
-595.371963412794
 30
0.0
 11
3561.013106465343
 21
-595.371963412794
 31
0.0
  0
LINE
  5
2832C
  8
1DIM
 10
3463.18119543635
 20
-609.371963412794
 30
0.0
 11
3561.013106465343
 21
-609.371963412794
 31
0.0
  0
LINE
  5
2832D
  8
1DIM
 10
3463.18119543635
 20
-609.371963412794
 30
0.0
 11
3561.013106465343
 21
-609.371963412794
 31
0.0
  0
TEXT
  5
2832E
  8
1TEXT
 10
3468.020279271575
 20
-593.871963412794
 30
0.0
 40
4.0
  1
Finish：Leg
 41
0.6
 72
     1
 11
3478.245279271575
 21
-593.871963412794
 31
0.0
  0
TEXT
  5
2832F
  8
1TEXT
 10
3466.94438849123
 20
-600.7072520723184
 30
0.0
 40
4.0
  1
Dark Bronze
 41
0.6
 72
     1
 11
3479.26438849123
 21
-600.7072520723184
 31
0.0
  0
TEXT
  5
28330
  8
1TEXT
 10
3539.013106465343
 20
-593.871963412794
 30
0.0
 40
4.0
  1
Code
 41
0.6
 72
     1
 11
3543.413106465343
 21
-593.871963412794
 31
0.0
  0
TEXT
  5
28331
  8
1TEXT
 10
3528.86403239127
 20
-601.0863203964433
 30
0.0
 40
4.0
  1
DA-151-4QJ2-0900
 41
0.5
 72
     1
 11
3543.413106465344
 21
-601.0863203964433
 31
0.0
  0
TEXT
  5
28333
  8
1TEXT
 10
3498.797544762415
 20
-593.871963412794
 30
0.0
 40
4.0
  1
Finish：Grip
 41
0.6
 72
     1
 11
3509.423100317971
 21
-593.871963412794
 31
0.0
  0
TEXT
  5
28334
  8
1TEXT
 10
3495.322209537626
 20
-600.7072520723184
 30
0.0
 40
4.0
  1
J-Wood Scotch
 41
0.6
 72
     1
 11
3510.442209537626
 21
-600.7072520723184
 31
0.0
  0
LINE
  5
28337
  8
1DIM
 10
3463.181195436351
 20
-637.371963412794
 30
0.0
 11
3463.18119543635
 21
-588.371963412794
 31
0.0
  0
LINE
  5
28338
  8
1DIM
 10
3495.444955189314
 20
-588.371963412794
 30
0.0
 11
3495.444955189314
 21
-637.371963412794
 31
0.0
  0
LINE
  5
28339
  8
1DIM
 10
3526.013106465344
 20
-588.371963412794
 30
0.0
 11
3526.013106465344
 21
-637.371963412794
 31
0.0
  0
LINE
  5
2833A
  8
1DIM
 10
3561.013106465344
 20
-588.371963412794
 30
0.0
 11
3561.013106465344
 21
-637.371963412794
 31
0.0
  0
LINE
  5
284D6
  8
1DIM
 10
3463.181195436351
 20
-616.371963412794
 30
0.0
 11
3561.013106465344
 21
-616.371963412794
 31
0.0
  0
TEXT
  5
284DD
  8
1TEXT
 10
3528.86403239127
 20
-608.0863203964433
 30
0.0
 40
4.0
  1
DA-151-4QJ3-0900
 41
0.5
 72
     1
 11
3543.413106465344
 21
-608.0863203964433
 31
0.0
  0
TEXT
  5
284DE
  8
1TEXT
 10
3496.522209537626
 20
-607.7072520723184
 30
0.0
 40
4.0
  1
J-Wood Brown
 41
0.6
 72
     1
 11
3510.442209537626
 21
-607.7072520723184
 31
0.0
  0
TEXT
  5
284E0
  8
1TEXT
 10
3528.86403239127
 20
-615.0863203964433
 30
0.0
 40
4.0
  1
DA-151-4QJ4-0900
 41
0.5
 72
     1
 11
3543.413106465344
 21
-615.0863203964433
 31
0.0
  0
TEXT
  5
284E1
  8
1TEXT
 10
3497.120542870959
 20
-614.7072520723184
 30
0.0
 40
4.0
  1
J-Wood Black
 41
0.6
 72
     1
 11
3510.442209537626
 21
-614.7072520723184
 31
0.0
  0
LINE
  5
284E2
  8
1DIM
 10
3463.18119543635
 20
-623.371963412794
 30
0.0
 11
3561.013106465343
 21
-623.371963412794
 31
0.0
  0
TEXT
  5
284E4
  8
1TEXT
 10
3529.864032391269
 20
-622.0863203964433
 30
0.0
 40
4.0
  1
DA-151-4Q7-0900
 41
0.5
 72
     1
 11
3543.413106465343
 21
-622.0863203964433
 31
0.0
  0
TEXT
  5
284E5
  8
1TEXT
 10
3496.320542870959
 20
-621.7072520723184
 30
0.0
 40
4.0
  1
Black Leather
 41
0.6
 72
     1
 11
3510.442209537625
 21
-621.7072520723184
 31
0.0
  0
LINE
  5
284E6
  8
1DIM
 10
3463.181195436351
 20
-630.371963412794
 30
0.0
 11
3561.013106465344
 21
-630.371963412794
 31
0.0
  0
TEXT
  5
284E8
  8
1TEXT
 10
3529.86403239127
 20
-629.0863203964433
 30
0.0
 40
4.0
  1
DA-151-4Q8-0900
 41
0.5
 72
     1
 11
3543.413106465344
 21
-629.0863203964433
 31
0.0
  0
TEXT
  5
284E9
  8
1TEXT
 10
3495.262209537626
 20
-628.7072520723184
 30
0.0
 40
4.0
  1
Dark Brown Leather
 41
0.45
 72
     1
 11
3510.442209537626
 21
-628.7072520723184
 31
0.0
  0
LINE
  5
284EA
  8
1DIM
 10
3463.181195436351
 20
-637.371963412794
 30
0.0
 11
3561.013106465344
 21
-637.371963412794
 31
0.0
  0
TEXT
  5
284EC
  8
1TEXT
 10
3529.863569428307
 20
-636.0863203964433
 30
0.0
 40
4.0
  1
DA-151-4Q9-0900
 41
0.5
 72
     1
 11
3543.413106465344
 21
-636.0863203964433
 31
0.0
  0
TEXT
  5
284ED
  8
1TEXT
 10
3496.529987315404
 20
-635.7072520723184
 30
0.0
 40
4.0
  1
Beige Leather
 41
0.6
 72
     1
 11
3510.442209537626
 21
-635.7072520723184
 31
0.0
  0
TEXT
  5
285B0
  8
1TEXT
 10
3466.94438849123
 20
-607.7072520723184
 30
0.0
 40
4.0
  1
Dark Bronze
 41
0.6
 72
     1
 11
3479.26438849123
 21
-607.7072520723184
 31
0.0
  0
TEXT
  5
285B1
  8
1TEXT
 10
3466.944388491231
 20
-614.7072520723184
 30
0.0
 40
4.0
  1
Dark Bronze
 41
0.6
 72
     1
 11
3479.264388491231
 21
-614.7072520723184
 31
0.0
  0
TEXT
  5
285B2
  8
1TEXT
 10
3466.944388491231
 20
-621.7072520723184
 30
0.0
 40
4.0
  1
Dark Bronze
 41
0.6
 72
     1
 11
3479.264388491231
 21
-621.7072520723184
 31
0.0
  0
TEXT
  5
285B3
  8
1TEXT
 10
3466.944388491231
 20
-628.7072520723184
 30
0.0
 40
4.0
  1
Dark Bronze
 41
0.6
 72
     1
 11
3479.264388491231
 21
-628.7072520723184
 31
0.0
  0
TEXT
  5
285B4
  8
1TEXT
 10
3466.944388491231
 20
-635.7072520723184
 30
0.0
 40
4.0
  1
Dark Bronze
 41
0.6
 72
     1
 11
3479.264388491231
 21
-635.7072520723184
 31
0.0
  0
LINE
  5
288B7
  8
1DIM
 10
3422.895408463083
 20
-588.371963412794
 30
0.0
 11
3451.479442156943
 21
-588.371963412794
 31
0.0
1001
ACAD
1000
DSTYLE
1002
{
1070
    45
1040
0.5
1002
}
  0
LINE
  5
288B8
  8
1DIM
 10
3407.414913688853
 20
-663.371963412794
 30
0.0
 11
3451.479442156943
 21
-663.371963412794
 31
0.0
1001
ACAD
1000
DSTYLE
1002
{
1070
    45
1040
0.5
1002
}
  0
LINE
  5
288B9
  8
1DIM
 10
3450.479442156943
 20
-590.371963412794
 30
0.0
 11
3450.479442156943
 21
-661.371963412794
 31
0.0
1001
ACAD
1000
DSTYLE
1002
{
1070
    45
1040
0.5
1002
}
  0
LINE
  5
288BD
  8
1DIM
 10
3422.895408463083
 20
-580.371963412794
 30
0.0
 11
3451.479442156943
 21
-580.371963412794
 31
0.0
1001
ACAD
1000
DSTYLE
1002
{
1070
    45
1040
0.5
1002
}
  0
LINE
  5
288BE
  8
1DIM
 10
3397.069758840033
 20
-572.3719634127924
 30
0.0
 11
3451.479442156943
 21
-572.3719634127924
 31
0.0
1001
ACAD
1000
DSTYLE
1002
{
1070
    45
1040
0.5
1002
}
  0
LINE
  5
288BF
  8
1DIM
 10
3450.479442156943
 20
-578.371963412794
 30
0.0
 11
3450.479442156943
 21
-574.3719634127924
 31
0.0
1001
ACAD
1000
DSTYLE
1002
{
1070
    45
1040
0.5
1002
}
  0
LINE
  5
288C3
  8
1DIM1
 10
2507.414913688853
 20
-712.3719634127943
 30
0.0
 11
2507.414913688853
 21
-806.6030727261898
 31
0.0
1001
ACAD
1000
DSTYLE
1002
{
1070
    40
1040
4.0
1070
    45
1040
0.5
1002
}
  0
LINE
  5
288C4
  8
1DIM1
 10
3407.414913688853
 20
-713.3719634127942
 30
0.0
 11
3407.414913688853
 21
-806.6030727261898
 31
0.0
1001
ACAD
1000
DSTYLE
1002
{
1070
    40
1040
4.0
1070
    45
1040
0.5
1002
}
  0
LINE
  5
288C5
  8
1DIM1
 10
2515.414913688853
 20
-802.6030727261898
 30
0.0
 11
3399.414913688853
 21
-802.6030727261898
 31
0.0
1001
ACAD
1000
DSTYLE
1002
{
1070
    40
1040
4.0
1070
    45
1040
0.5
1002
}
  0
LINE
  5
288C9
  8
1DIM1
 10
2527.414913688855
 20
-719.0726750667319
 30
0.0
 11
2527.414913688855
 21
-778.2199533782998
 31
0.0
1001
ACAD
1000
DSTYLE
1002
{
1070
    40
1040
4.0
1070
    45
1040
0.5
1002
}
  0
LINE
  5
288CA
  8
1DIM1
 10
3387.414913688853
 20
-717.845542941539
 30
0.0
 11
3387.414913688853
 21
-778.2199533782998
 31
0.0
1001
ACAD
1000
DSTYLE
1002
{
1070
    40
1040
4.0
1070
    45
1040
0.5
1002
}
  0
LINE
  5
288CB
  8
1DIM1
 10
2535.414913688855
 20
-774.2199533782998
 30
0.0
 11
3379.414913688853
 21
-774.2199533782998
 31
0.0
1001
ACAD
1000
DSTYLE
1002
{
1070
    40
1040
4.0
1070
    45
1040
0.5
1002
}
  0
LINE
  5
288CF
  8
1DIM
 10
3407.414913688853
 20
-693.3719634127943
 30
0.0
 11
3451.479442156943
 21
-693.3719634127943
 31
0.0
1001
ACAD
1000
DSTYLE
1002
{
1070
     3
1000
<>
1070
    45
1040
0.5
1070
    75
1070
     0
1070
    76
1070
     0
1070
   281
1070
     0
1070
   282
1070
     0
1002
}
  0
LINE
  5
288D0
  8
1DIM
 10
3407.414913688853
 20
-713.3719634127942
 30
0.0
 11
3451.479442156943
 21
-713.3719634127942
 31
0.0
1001
ACAD
1000
DSTYLE
1002
{
1070
     3
1000
<>
1070
    45
1040
0.5
1070
    75
1070
     0
1070
    76
1070
     0
1070
   281
1070
     0
1070
   282
1070
     0
1002
}
  0
LINE
  5
288D1
  8
1DIM
 10
3450.479442156943
 20
-695.3719634127943
 30
0.0
 11
3450.479442156943
 21
-711.3719634127942
 31
0.0
1001
ACAD
1000
DSTYLE
1002
{
1070
     3
1000
<>
1070
    45
1040
0.5
1070
    75
1070
     0
1070
    76
1070
     0
1070
   281
1070
     0
1070
   282
1070
     0
1002
}
  0
LINE
  5
288D5
  8
1DIM1
 10
3207.414913688853
 20
-713.3719634127943
 30
0.0
 11
3207.414913688853
 21
-750.6320570007638
 31
0.0
1001
ACAD
1000
DSTYLE
1002
{
1070
    40
1040
4.0
1070
    45
1040
0.5
1002
}
  0
LINE
  5
288D6
  8
1DIM1
 10
2707.414913688853
 20
-713.3719634127943
 30
0.0
 11
2707.414913688853
 21
-750.6320570007638
 31
0.0
1001
ACAD
1000
DSTYLE
1002
{
1070
    40
1040
4.0
1070
    45
1040
0.5
1002
}
  0
LINE
  5
288D7
  8
1DIM1
 10
3199.414913688853
 20
-746.6320570007638
 30
0.0
 11
2715.414913688853
 21
-746.6320570007638
 31
0.0
1001
ACAD
1000
DSTYLE
1002
{
1070
    40
1040
4.0
1070
    45
1040
0.5
1002
}
  0
SOLID
  5
288DB
  8
1DIM
 10
3539.226132988554
 20
-729.2275233792875
 30
0.0
 11
3539.884832209019
 21
-727.3099138131689
 31
0.0
 12
3539.883665778671
 22
-729.3375009877564
 32
0.0
 13
3539.883665778671
 23
-729.3375009877564
 33
0.0
  0
LINE
  5
288DC
  8
1DIM
 10
3539.554899383612
 20
-729.2825121835219
 30
0.0
 11
3538.088533915143
 21
-738.0496002411672
 31
0.0
  0
LINE
  5
288DD
  8
1DIM
 10
3538.088533915143
 20
-738.0496002411672
 30
0.0
 11
3435.321867248476
 21
-738.0496002411672
 31
0.0
  0
TEXT
  5
288DE
  8
1DIM
  6
CONTINUOUS
 10
3429.541080211439
 20
-731.5162669078338
 30
0.0
 40
3.5
  1
Wooden Door t35～45mm Hole Size φ8
  0
TEXT
  5
288DF
  8
1DIM
  6
CONTINUOUS
 10
3438.307283915143
 20
-737.3496002411672
 30
0.0
 40
3.5
  1
Glass Door t8～12mm Hole Size φ12
  0
SOLID
  5
288E0
  8
1DIM
 10
3543.38694672771
 20
-694.211862542772
 30
0.0
 11
3542.220284171236
 21
-695.8701778295718
 31
0.0
 12
3542.786051901911
 22
-693.9231241615806
 32
0.0
 13
3542.786051901911
 23
-693.9231241615806
 33
0.0
  0
LINE
  5
288E1
  8
1DIM
 10
3543.08649931481
 20
-694.0674933521763
 30
0.0
 11
3551.214720291615
 21
-677.1518138094842
 31
0.0
  0
LINE
  5
288E2
  8
1DIM
 10
3551.214720291615
 20
-677.1518138094842
 30
0.0
 11
3588.614720291615
 21
-677.1518138094842
 31
0.0
  0
TEXT
  5
288E3
  8
1DIM
  6
CONTINUOUS
 10
3553.914720291615
 20
-670.6184804761508
 30
0.0
 40
3.5
  1
Material：Gum
  0
TEXT
  5
288E4
  8
1DIM
  6
CONTINUOUS
 10
3553.914720291615
 20
-676.4518138094842
 30
0.0
 40
3.5
  1
Finish：Black
  0
LINE
  5
288E5
  8
1DIM
 10
3368.392730069084
 20
-623.371963412794
 30
0.0
 11
3437.274455247565
 21
-623.371963412794
 31
0.0
1001
ACAD
1000
DSTYLE
1002
{
1070
    45
1040
0.5
1002
}
  0
LINE
  5
288E6
  8
1DIM
 10
3408.392730069084
 20
-663.371963412794
 30
0.0
 11
3437.274455247565
 21
-663.371963412794
 31
0.0
1001
ACAD
1000
DSTYLE
1002
{
1070
    45
1040
0.5
1002
}
  0
LINE
  5
288E7
  8
1DIM
 10
3436.274455247565
 20
-625.371963412794
 30
0.0
 11
3436.274455247565
 21
-661.371963412794
 31
0.0
1001
ACAD
1000
DSTYLE
1002
{
1070
    45
1040
0.5
1002
}
  0
LINE
  5
288EB
  8
0
  6
BYBLOCK
 10
3449.943543776943
 20
-590.371963412794
 30
0.0
 11
3450.479442156943
 21
-588.371963412794
 31
0.0
  0
LINE
  5
288EC
  8
0
  6
BYBLOCK
 10
3450.479442156943
 20
-588.371963412794
 30
0.0
 11
3451.015340536943
 21
-590.371963412794
 31
0.0
  0
LINE
  5
288ED
  8
0
  6
BYBLOCK
 10
3450.479442156943
 20
-588.371963412794
 30
0.0
 11
3450.479442156943
 21
-590.371963412794
 31
0.0
  0
LINE
  5
288EE
  8
0
  6
BYBLOCK
 10
3451.015340536943
 20
-661.371963412794
 30
0.0
 11
3450.479442156943
 21
-663.371963412794
 31
0.0
  0
LINE
  5
288EF
  8
0
  6
BYBLOCK
 10
3450.479442156943
 20
-663.371963412794
 30
0.0
 11
3449.943543776943
 21
-661.371963412794
 31
0.0
  0
LINE
  5
288F0
  8
0
  6
BYBLOCK
 10
3450.479442156943
 20
-663.371963412794
 30
0.0
 11
3450.479442156943
 21
-661.371963412794
 31
0.0
  0
TEXT
  5
288F1
  8
1DIM
  6
CONTINUOUS
 10
3449.779442156943
 20
-628.7886300794598
 30
0.0
 40
3.5
  1
75
 50
90.0
1001
ACAD
1000
DSTYLE
1002
{
1070
    45
1040
0.5
1002
}
  0
LINE
  5
288F2
  8
0
  6
BYBLOCK
 10
3451.015340536943
 20
-578.371963412794
 30
0.0
 11
3450.479442156943
 21
-580.371963412794
 31
0.0
  0
LINE
  5
288F3
  8
0
  6
BYBLOCK
 10
3450.479442156943
 20
-580.371963412794
 30
0.0
 11
3449.943543776943
 21
-578.371963412794
 31
0.0
  0
LINE
  5
288F4
  8
0
  6
BYBLOCK
 10
3450.479442156943
 20
-580.371963412794
 30
0.0
 11
3450.479442156943
 21
-578.371963412794
 31
0.0
  0
LINE
  5
288F5
  8
0
  6
BYBLOCK
 10
3449.943543776943
 20
-574.3719634127924
 30
0.0
 11
3450.479442156943
 21
-572.3719634127924
 31
0.0
  0
LINE
  5
288F6
  8
0
  6
BYBLOCK
 10
3450.479442156943
 20
-572.3719634127924
 30
0.0
 11
3451.015340536943
 21
-574.3719634127924
 31
0.0
  0
LINE
  5
288F7
  8
0
  6
BYBLOCK
 10
3450.479442156943
 20
-572.3719634127924
 30
0.0
 11
3450.479442156943
 21
-574.3719634127924
 31
0.0
  0
TEXT
  5
288F8
  8
1DIM
  6
CONTINUOUS
 10
3449.779442156943
 20
-577.5386300794594
 30
0.0
 40
3.5
  1
8
 50
90.0
1001
ACAD
1000
DSTYLE
1002
{
1070
    45
1040
0.5
1002
}
  0
LINE
  5
288F9
  8
0
  6
BYBLOCK
 10
2515.414913688853
 20
-804.7466662461898
 30
0.0
 11
2507.414913688853
 21
-802.6030727261898
 31
0.0
  0
LINE
  5
288FA
  8
0
  6
BYBLOCK
 10
2507.414913688853
 20
-802.6030727261898
 30
0.0
 11
2515.414913688853
 21
-800.4594792061898
 31
0.0
  0
LINE
  5
288FB
  8
0
  6
BYBLOCK
 10
2507.414913688853
 20
-802.6030727261898
 30
0.0
 11
2515.414913688853
 21
-802.6030727261898
 31
0.0
  0
LINE
  5
288FC
  8
0
  6
BYBLOCK
 10
3399.414913688853
 20
-800.4594792061898
 30
0.0
 11
3407.414913688853
 21
-802.6030727261898
 31
0.0
  0
LINE
  5
288FD
  8
0
  6
BYBLOCK
 10
3407.414913688853
 20
-802.6030727261898
 30
0.0
 11
3399.414913688853
 21
-804.7466662461898
 31
0.0
  0
LINE
  5
288FE
  8
0
  6
BYBLOCK
 10
3407.414913688853
 20
-802.6030727261898
 30
0.0
 11
3399.414913688853
 21
-802.6030727261898
 31
0.0
  0
TEXT
  5
288FF
  8
1DIM1
  6
CONTINUOUS
 10
2940.783432207371
 20
-799.8030727261898
 30
0.0
 40
14.0
  1
900
1001
ACAD
1000
DSTYLE
1002
{
1070
    40
1040
4.0
1070
    45
1040
0.5
1002
}
  0
LINE
  5
28900
  8
0
  6
BYBLOCK
 10
2535.414913688855
 20
-776.3635468982998
 30
0.0
 11
2527.414913688855
 21
-774.2199533782998
 31
0.0
  0
LINE
  5
28901
  8
0
  6
BYBLOCK
 10
2527.414913688855
 20
-774.2199533782998
 30
0.0
 11
2535.414913688855
 21
-772.0763598582998
 31
0.0
  0
LINE
  5
28902
  8
0
  6
BYBLOCK
 10
2527.414913688855
 20
-774.2199533782998
 30
0.0
 11
2535.414913688855
 21
-774.2199533782998
 31
0.0
  0
LINE
  5
28903
  8
0
  6
BYBLOCK
 10
3379.414913688853
 20
-772.0763598582998
 30
0.0
 11
3387.414913688853
 21
-774.2199533782998
 31
0.0
  0
LINE
  5
28904
  8
0
  6
BYBLOCK
 10
3387.414913688853
 20
-774.2199533782998
 30
0.0
 11
3379.414913688853
 21
-776.3635468982998
 31
0.0
  0
LINE
  5
28905
  8
0
  6
BYBLOCK
 10
3387.414913688853
 20
-774.2199533782998
 30
0.0
 11
3379.414913688853
 21
-774.2199533782998
 31
0.0
  0
TEXT
  5
28906
  8
1DIM1
  6
CONTINUOUS
 10
2932.574635911076
 20
-771.4199533782999
 30
0.0
 40
14.0
  1
P860
1001
ACAD
1000
DSTYLE
1002
{
1070
    40
1040
4.0
1070
    45
1040
0.5
1002
}
  0
LINE
  5
28907
  8
0
  6
BYBLOCK
 10
3449.943543776943
 20
-695.3719634127943
 30
0.0
 11
3450.479442156943
 21
-693.3719634127943
 31
0.0
  0
LINE
  5
28908
  8
0
  6
BYBLOCK
 10
3450.479442156943
 20
-693.3719634127943
 30
0.0
 11
3451.015340536943
 21
-695.3719634127943
 31
0.0
  0
LINE
  5
28909
  8
0
  6
BYBLOCK
 10
3450.479442156943
 20
-693.3719634127943
 30
0.0
 11
3450.479442156943
 21
-695.3719634127943
 31
0.0
  0
LINE
  5
2890A
  8
0
  6
BYBLOCK
 10
3451.015340536943
 20
-711.3719634127942
 30
0.0
 11
3450.479442156943
 21
-713.3719634127942
 31
0.0
  0
LINE
  5
2890B
  8
0
  6
BYBLOCK
 10
3450.479442156943
 20
-713.3719634127942
 30
0.0
 11
3449.943543776943
 21
-711.3719634127942
 31
0.0
  0
LINE
  5
2890C
  8
0
  6
BYBLOCK
 10
3450.479442156943
 20
-713.3719634127942
 30
0.0
 11
3450.479442156943
 21
-711.3719634127942
 31
0.0
  0
TEXT
  5
2890D
  8
1DIM
  6
CONTINUOUS
 10
3449.779442156943
 20
-706.0698800794603
 30
0.0
 40
3.5
  1
20
 50
90.0
1001
ACAD
1000
DSTYLE
1002
{
1070
     3
1000
<>
1070
    45
1040
0.5
1070
    75
1070
     0
1070
    76
1070
     0
1070
   281
1070
     0
1070
   282
1070
     0
1002
}
  0
LINE
  5
2890E
  8
0
  6
BYBLOCK
 10
3199.414913688853
 20
-744.4884634807638
 30
0.0
 11
3207.414913688853
 21
-746.6320570007638
 31
0.0
  0
LINE
  5
2890F
  8
0
  6
BYBLOCK
 10
3207.414913688853
 20
-746.6320570007638
 30
0.0
 11
3199.414913688853
 21
-748.7756505207637
 31
0.0
  0
LINE
  5
28910
  8
0
  6
BYBLOCK
 10
3207.414913688853
 20
-746.6320570007638
 30
0.0
 11
3199.414913688853
 21
-746.6320570007638
 31
0.0
  0
LINE
  5
28911
  8
0
  6
BYBLOCK
 10
2715.414913688853
 20
-748.7756505207637
 30
0.0
 11
2707.414913688853
 21
-746.6320570007638
 31
0.0
  0
LINE
  5
28912
  8
0
  6
BYBLOCK
 10
2707.414913688853
 20
-746.6320570007638
 30
0.0
 11
2715.414913688853
 21
-744.4884634807638
 31
0.0
  0
LINE
  5
28913
  8
0
  6
BYBLOCK
 10
2707.414913688853
 20
-746.6320570007638
 30
0.0
 11
2715.414913688853
 21
-746.6320570007638
 31
0.0
  0
TEXT
  5
28914
  8
1DIM1
  6
CONTINUOUS
 10
2940.741302577741
 20
-743.8320570007638
 30
0.0
 40
14.0
  1
500
1001
ACAD
1000
DSTYLE
1002
{
1070
    40
1040
4.0
1070
    45
1040
0.5
1002
}
  0
LINE
  5
28915
  8
0
  6
BYBLOCK
 10
3435.738556867565
 20
-625.371963412794
 30
0.0
 11
3436.274455247565
 21
-623.371963412794
 31
0.0
  0
LINE
  5
28916
  8
0
  6
BYBLOCK
 10
3436.274455247565
 20
-623.371963412794
 30
0.0
 11
3436.810353627565
 21
-625.371963412794
 31
0.0
  0
LINE
  5
28917
  8
0
  6
BYBLOCK
 10
3436.274455247565
 20
-623.371963412794
 30
0.0
 11
3436.274455247565
 21
-625.371963412794
 31
0.0
  0
LINE
  5
28918
  8
0
  6
BYBLOCK
 10
3436.810353627565
 20
-661.371963412794
 30
0.0
 11
3436.274455247565
 21
-663.371963412794
 31
0.0
  0
LINE
  5
28919
  8
0
  6
BYBLOCK
 10
3436.274455247565
 20
-663.371963412794
 30
0.0
 11
3435.738556867565
 21
-661.371963412794
 31
0.0
  0
LINE
  5
2891A
  8
0
  6
BYBLOCK
 10
3436.274455247565
 20
-663.371963412794
 30
0.0
 11
3436.274455247565
 21
-661.371963412794
 31
0.0
  0
TEXT
  5
2891B
  8
1DIM
  6
CONTINUOUS
 10
3435.574455247565
 20
-646.0698800794598
 30
0.0
 40
3.5
  1
40
 50
90.0
1001
ACAD
1000
DSTYLE
1002
{
1070
    45
1040
0.5
1002
}
  0
VIEWPORT
  5
57
 67
     1
  8
0
 10
0.0
 20
0.0
 30
0.0
 40
606.7812328765339
 41
286.1099999999158
 68
     1
 69
     1
1001
ACAD
1000
MVIEW
1002
{
1070
    16
1010
0.0
1020
0.0
1030
0.0
1010
0.0
1020
0.0
1030
1.0
1040
0.0
1040
286.1099999999158
1040
-12.72202443129225
1040
10.08904653602718
1040
50.0
1040
0.0
1040
0.0
1070
    16
1070
   100
1070
     0
1070
     1
1070
     0
1070
     0
1070
     0
1070
     0
1040
0.0
1040
0.0
1040
0.0
1040
10.0
1040
10.0
1040
10.0
1040
10.0
1070
     0
1002
{
1002
}
1002
}
  0
ENDSEC
  0
EOF
