  0
SECTION
  2
HEADER
  9
$ACADVER
  1
AC1009
  9
$INSBASE
 10
0.0
 20
0.0
 30
0.0
  9
$EXTMIN
 10
4666.6686913148842
 20
526.19897520059453
 30
0.0
  9
$EXTMAX
 10
5932.5506351050271
 20
1499.728728320305
 30
0.0
  9
$LIMMIN
 10
0.0
 20
0.0
  9
$LIMMAX
 10
420.0
 20
297.0
  9
$ORTHOMODE
 70
     0
  9
$REGENMODE
 70
     1
  9
$FILLMODE
 70
     1
  9
$QTEXTMODE
 70
     0
  9
$MIRRTEXT
 70
     1
  9
$DRAGMODE
 70
     2
  9
$LTSCALE
 40
0.5
  9
$OSMODE
 70
  2175
  9
$ATTMODE
 70
     1
  9
$TEXTSIZE
 40
4.0
  9
$TRACEWID
 40
1.0
  9
$TEXTSTYLE
  7
STANDARD
  9
$CLAYER
  8
1TEXT
  9
$CELTYPE
  6
BYLAYER
  9
$CECOLOR
 62
   256
  9
$DIMSCALE
 40
1.0
  9
$DIMASZ
 40
2.0
  9
$DIMEXO
 40
0.0
  9
$DIMDLI
 40
7.0
  9
$DIMRND
 40
0.0
  9
$DIMDLE
 40
0.0
  9
$DIMEXE
 40
1.0
  9
$DIMTP
 40
0.0
  9
$DIMTM
 40
0.0
  9
$DIMTXT
 40
3.5
  9
$DIMCEN
 40
0.0
  9
$DIMTSZ
 40
0.0
  9
$DIMTOL
 70
     0
  9
$DIMLIM
 70
     0
  9
$DIMTIH
 70
     0
  9
$DIMTOH
 70
     0
  9
$DIMSE1
 70
     0
  9
$DIMSE2
 70
     0
  9
$DIMTAD
 70
     1
  9
$DIMZIN
 70
     8
  9
$DIMBLK
  1

  9
$DIMASO
 70
     1
  9
$DIMSHO
 70
     1
  9
$DIMPOST
  1
 
  9
$DIMAPOST
  1

  9
$DIMALT
 70
     0
  9
$DIMALTD
 70
     2
  9
$DIMALTF
 40
25.399999999999999
  9
$DIMLFAC
 40
1.0
  9
$DIMTOFL
 70
     1
  9
$DIMTVP
 40
0.0
  9
$DIMTIX
 70
     0
  9
$DIMSOXD
 70
     0
  9
$DIMSAH
 70
     1
  9
$DIMBLK1
  1
OPEN30
  9
$DIMBLK2
  1
OPEN30
  9
$DIMSTYLE
  2
NEWX10
  9
$DIMCLRD
 70
   256
  9
$DIMCLRE
 70
   256
  9
$DIMCLRT
 70
   201
  9
$DIMTFAC
 40
0.7
  9
$DIMGAP
 40
0.7
  9
$LUNITS
 70
     2
  9
$LUPREC
 70
     4
  9
$SKETCHINC
 40
1.0
  9
$FILLETRAD
 40
0.0
  9
$AUNITS
 70
     0
  9
$AUPREC
 70
     2
  9
$MENU
  1
acad
  9
$ELEVATION
 40
0.0
  9
$PELEVATION
 40
0.0
  9
$THICKNESS
 40
0.0
  9
$LIMCHECK
 70
     0
  9
$BLIPMODE
 70
     0
  9
$CHAMFERA
 40
0.5
  9
$CHAMFERB
 40
0.5
  9
$SKPOLY
 70
     0
  9
$TDCREATE
 40
2451318.621352917
  9
$TDUPDATE
 40
2456274.727504699
  9
$TDINDWG
 40
2.2342428588000001
  9
$TDUSRTIMER
 40
2.2342428588000001
  9
$USRTIMER
 70
     1
  9
$ANGBASE
 50
0.0
  9
$ANGDIR
 70
     0
  9
$PDMODE
 70
     0
  9
$PDSIZE
 40
0.0
  9
$PLINEWID
 40
0.0
  9
$COORDS
 70
     0
  9
$SPLFRAME
 70
     0
  9
$SPLINETYPE
 70
     6
  9
$SPLINESEGS
 70
     8
  9
$ATTDIA
 70
     0
  9
$ATTREQ
 70
     1
  9
$HANDLING
 70
     1
  9
$HANDSEED
  5
BB93
  9
$SURFTAB1
 70
     6
  9
$SURFTAB2
 70
     6
  9
$SURFTYPE
 70
     6
  9
$SURFU
 70
     6
  9
$SURFV
 70
     6
  9
$UCSNAME
  2

  9
$UCSORG
 10
0.0
 20
0.0
 30
0.0
  9
$UCSXDIR
 10
1.0
 20
0.0
 30
0.0
  9
$UCSYDIR
 10
0.0
 20
1.0
 30
0.0
  9
$PUCSNAME
  2

  9
$PUCSORG
 10
0.0
 20
0.0
 30
0.0
  9
$PUCSXDIR
 10
1.0
 20
0.0
 30
0.0
  9
$PUCSYDIR
 10
0.0
 20
1.0
 30
0.0
  9
$USERI1
 70
     0
  9
$USERI2
 70
     0
  9
$USERI3
 70
     0
  9
$USERI4
 70
     0
  9
$USERI5
 70
     0
  9
$USERR1
 40
0.0
  9
$USERR2
 40
0.0
  9
$USERR3
 40
0.0
  9
$USERR4
 40
0.0
  9
$USERR5
 40
0.0
  9
$WORLDVIEW
 70
     1
  9
$SHADEDGE
 70
     3
  9
$SHADEDIF
 70
    70
  9
$TILEMODE
 70
     1
  9
$MAXACTVP
 70
    48
  9
$PLIMCHECK
 70
     0
  9
$PEXTMIN
 10
1.0000000000000000E+020
 20
1.0000000000000000E+020
 30
1.0000000000000000E+020
  9
$PEXTMAX
 10
-1.0000000000000000E+020
 20
-1.0000000000000000E+020
 30
-1.0000000000000000E+020
  9
$PLIMMIN
 10
0.0
 20
0.0
  9
$PLIMMAX
 10
420.0
 20
297.0
  9
$UNITMODE
 70
     0
  9
$VISRETAIN
 70
     1
  9
$PLINEGEN
 70
     0
  9
$PSLTSCALE
 70
     1
  0
ENDSEC
  0
SECTION
  2
TABLES
  0
TABLE
  2
VPORT
 70
     1
  0
VPORT
  2
*ACTIVE
 70
     0
 10
0.0
 20
0.0
 11
1.0
 21
1.0
 12
5299.5195451996069
 22
1012.973667486214
 13
0.0
 23
0.0
 14
10.0
 24
10.0
 15
10.0
 25
10.0
 16
0.0
 26
0.0
 36
1.0
 17
0.0
 27
0.0
 37
0.0
 40
1032.956078224574
 41
1.492734478203434
 42
50.0
 43
0.0
 44
0.0
 50
0.0
 51
0.0
 71
     0
 72
   100
 73
     1
 74
     1
 75
     0
 76
     0
 77
     0
 78
     0
  0
ENDTAB
  0
TABLE
  2
LTYPE
 70
    18
  0
LTYPE
  2
CONTINUOUS
 70
     0
  3
Solid line
 72
    65
 73
     0
 40
0.0
  0
LTYPE
  2
CENTER2
 70
     0
  3
Center (.5x) ___ _ ___ _ ___ _ ___ _ ___ _ ___
 72
    65
 73
     4
 40
28.574999999999999
 49
19.050000000000001
 49
-3.1749999999999989
 49
3.1749999999999989
 49
-3.1749999999999989
  0
LTYPE
  2
XREF1|CENTER2
 70
    48
  3
Center (.5x) ___ _ ___ _ ___ _ ___ _ ___ _ ___
 72
    65
 73
     4
 40
28.574999999999999
 49
19.050000000000001
 49
-3.1749999999999989
 49
3.1749999999999989
 49
-3.1749999999999989
  0
LTYPE
  2
PHANTOM2
 70
     0
  3
Phantom (.5x) ___ _ _ ___ _ _ ___ _ _ ___ _ _
 72
    65
 73
     6
 40
31.75
 49
15.875
 49
-3.1749999999999989
 49
3.1749999999999989
 49
-3.1749999999999989
 49
3.1749999999999989
 49
-3.1749999999999989
  0
LTYPE
  2
A3WAKUDAKE|CENTER2
 70
    48
  3
Center (.5x) ___ _ ___ _ ___ _ ___ _ ___ _ ___
 72
    65
 73
     4
 40
28.574999999999999
 49
19.050000000000001
 49
-3.1749999999999989
 49
3.1749999999999989
 49
-3.1749999999999989
  0
ENDTAB
  0
TABLE
  2
LAYER
 70
   100
  0
LAYER
  2
0
 70
     0
 62
     7
  6
CONTINUOUS
  0
LAYER
  2
1CENTER
 70
     0
 62
     7
  6
CENTER2
  0
LAYER
  2
1TEXT
 70
     0
 62
     7
  6
CONTINUOUS
  0
LAYER
  2
XREF1|1CENTER
 70
    48
 62
     7
  6
XREF1|CENTER2
  0
LAYER
  2
1DIM
 70
     0
 62
     7
  6
CONTINUOUS
  0
LAYER
  2
1PHANTOM
 70
     0
 62
     7
  6
PHANTOM2
  0
LAYER
  2
01
 70
     0
 62
     1
  6
CONTINUOUS
  0
LAYER
  2
A3WAKUDAKE|THICK
 70
    48
 62
     7
  6
CONTINUOUS
  0
LAYER
  2
A3WAKUDAKE|POINT
 70
    48
 62
     7
  6
CONTINUOUS
  0
LAYER
  2
A3WAKUDAKE|1CENTER
 70
    48
 62
     7
  6
A3WAKUDAKE|CENTER2
  0
LAYER
  2
A3WAKUDAKE|0-6
 70
    48
 62
     7
  6
CONTINUOUS
  0
LAYER
  2
A3WAKUDAKE|1DIM
 70
    48
 62
     7
  6
CONTINUOUS
  0
ENDTAB
  0
TABLE
  2
STYLE
 70
    22
  0
STYLE
  2
STANDARD
 70
     0
 40
0.0
 41
1.0
 50
0.0
 71
     0
 42
4.0
  3
txt.shx
  4
extfont.shx
  0
ENDTAB
  0
TABLE
  2
VIEW
 70
     5
  0
ENDTAB
  0
TABLE
  2
UCS
 70
     0
  0
ENDTAB
  0
TABLE
  2
APPID
 70
    10
  0
APPID
  2
ACAD
 70
     0
  0
APPID
  2
DRAWINGVARIABLESXDATA
 70
     0
  0
APPID
  2
CONTENTTABDATA
 70
     0
  0
APPID
  2
CONTENTCURRENTTAB
 70
     0
  0
APPID
  2
CONTENTBLOCKDESCRIPTION
 70
     0
  0
APPID
  2
CONTENTBLOCKICON
 70
     0
  0
APPID
  2
CONTENTLONGBLOCKNAME
 70
     0
  0
APPID
  2
ACAD_PSEXT
 70
     0
  0
APPID
  2
ACAD_EXEMPT_FROM_CAD_STANDARDS
 70
     0
  0
APPID
  2
ACAD_MLEADERVER
 70
     0
  0
ENDTAB
  0
TABLE
  2
DIMSTYLE
 70
     7
  0
DIMSTYLE
  2
NEWX10
 70
     0
  3
 
  4

  5

  6
OPEN30
  7
OPEN30
 40
1.0
 41
2.0
 42
0.0
 43
7.0
 44
1.0
 45
0.0
 46
0.0
 47
0.0
 48
0.0
140
3.5
141
0.0
142
0.0
143
25.399999999999999
144
1.0
145
0.0
146
0.7
147
0.7
 71
     0
 72
     0
 73
     0
 74
     0
 75
     0
 76
     0
 77
     1
 78
     8
170
     0
171
     2
172
     1
173
     1
174
     0
175
     0
176
   256
177
   256
178
   201
  0
ENDTAB
  0
ENDSEC
  0
SECTION
  2
BLOCKS
  0
BLOCK
  8
0
  2
$MODEL_SPACE
 70
     0
 10
0.0
 20
0.0
 30
0.0
  3
$MODEL_SPACE
  1

  0
ENDBLK
  5
1A
  8
0
  0
BLOCK
 67
     1
  8
0
  2
$PAPER_SPACE
 70
     0
 10
0.0
 20
0.0
 30
0.0
  3
$PAPER_SPACE
  1

  0
ENDBLK
  5
17
 67
     1
  8
0
  0
BLOCK
  8
0
  2
_OPEN30
 70
     0
 10
0.0
 20
0.0
 30
0.0
  3
_OPEN30
  1

  0
LINE
  5
44
  8
0
  6
BYBLOCK
 62
     0
 10
-1.0
 20
0.26794919
 30
0.0
 11
0.0
 21
0.0
 31
0.0
  0
LINE
  5
45
  8
0
  6
BYBLOCK
 62
     0
 10
0.0
 20
0.0
 30
0.0
 11
-1.0
 21
-0.26794919
 31
0.0
  0
LINE
  5
46
  8
0
  6
BYBLOCK
 62
     0
 10
0.0
 20
0.0
 30
0.0
 11
-1.0
 21
0.0
 31
0.0
  0
ENDBLK
  5
47
  8
0
  0
BLOCK
  8
0
  2
XREF1
 70
    36
 10
0.0
 20
0.0
 30
0.0
  3
XREF1
  1
D:\ACLT\FORMAT\KAWAJUN(9)図面用.dwg
  0
ENDBLK
  5
5D
  8
0
  0
BLOCK
  8
0
  2
A3WAKUDAKE
 70
    36
 10
0.0
 20
0.0
 30
0.0
  3
A3WAKUDAKE
  1
D:\ACLT\FORMAT\A3WAKUdake.dwg
  0
ENDBLK
  5
7517
  8
0
  0
ENDSEC
  0
SECTION
  2
ENTITIES
  0
LINE
  5
AF01
  8
01
 10
5351.2733004425254
 20
1229.401763176827
 30
0.0
 11
5351.2733004425254
 21
526.19897520059453
 31
0.0
  0
LINE
  5
AF02
  8
01
 10
5363.2733004425254
 20
1229.401763176827
 30
0.0
 11
5363.2733004425254
 21
526.19897520059453
 31
0.0
  0
LINE
  5
AF03
  8
01
 10
5378.2733004425263
 20
1229.401763176827
 30
0.0
 11
5378.2733004425263
 21
526.19897520059453
 31
0.0
  0
LINE
  5
AF07
  8
01
 10
5321.2733004425254
 20
985.49581895632866
 30
0.0
 11
5321.2733004425254
 21
991.49581895632878
 31
0.0
  0
LINE
  5
AF08
  8
01
 10
5211.2733004425254
 20
985.49581895632866
 30
0.0
 11
5211.2733004425254
 21
991.49581895632878
 31
0.0
  0
LINE
  5
AF0A
  8
01
 10
5326.2733004425263
 20
974.49581895632787
 30
0.0
 11
5326.2733004425263
 21
997.49581895632787
 31
0.0
  0
LINE
  5
AF0C
  8
01
 10
5321.2733004425254
 20
983.49581895632878
 30
0.0
 11
5321.2733004425254
 21
992.49581895632866
 31
0.0
  0
LINE
  5
AF0D
  8
01
 10
5326.2733004425263
 20
1207.495818956329
 30
0.0
 11
5326.2733004425263
 21
554.49581895632878
 31
0.0
  0
LINE
  5
AF0E
  8
01
 10
5331.2733004425254
 20
1207.495818956329
 30
0.0
 11
5331.2733004425254
 21
554.49581895633014
 31
0.0
  0
LINE
  5
AF16
  8
01
 10
5116.2838831232812
 20
991.49581895632468
 30
0.0
 11
5116.2838831232766
 21
985.49581895633185
 31
0.0
  0
LINE
  5
AF17
  8
01
 10
4816.2838831232848
 20
991.49581895632411
 30
0.0
 11
4816.2838831232812
 21
985.49581895633185
 31
0.0
  0
LINE
  5
AF1A
  8
01
 10
4941.2838831232812
 20
1206.995818956329
 30
0.0
 11
4941.2838831232812
 21
1202.4958189563281
 31
0.0
  0
LINE
  5
AF1B
  8
01
 10
4991.2838831232766
 20
1206.9958189563249
 30
0.0
 11
4991.2838831232766
 21
1202.4958189563281
 31
0.0
  0
LINE
  5
AF22
  8
01
 10
4817.2838831232839
 20
572.49581895632923
 30
0.0
 11
5115.2838831232793
 21
572.49581895632923
 31
0.0
  0
LINE
  5
AF25
  8
01
 10
4817.2838831232893
 20
564.49581895632923
 30
0.0
 11
5115.2838831232821
 21
564.49581895632923
 31
0.0
  0
LINE
  5
AF26
  8
01
 10
4816.2838831232848
 20
571.49581895632548
 30
0.0
 11
4816.2838831232812
 21
565.49581895633332
 31
0.0
  0
LINE
  5
AF27
  8
01
 10
4816.2838831232848
 20
565.49581895632923
 30
0.0
 11
4817.2838831232884
 21
564.49581895632923
 31
0.0
  0
LINE
  5
AF28
  8
01
 10
4816.2838831232848
 20
571.49581895632923
 30
0.0
 11
4817.2838831232848
 21
572.49581895632923
 31
0.0
  0
LINE
  5
AF2A
  8
01
 10
4991.2838831232812
 20
572.49581895632775
 30
0.0
 11
4941.2838831232848
 21
572.49581895632775
 31
0.0
  0
LINE
  5
AF2B
  8
01
 10
4991.2838831232812
 20
577.49581895632775
 30
0.0
 11
4941.2838831232848
 21
577.49581895632866
 31
0.0
  0
LINE
  5
AF2C
  8
01
 10
4990.7838831232302
 20
554.49581895632514
 30
0.0
 11
4941.7838831232339
 21
554.49581895632878
 31
0.0
  0
LINE
  5
AF2D
  8
01
 10
4991.2838831232812
 20
554.49581895632878
 30
0.0
 11
4941.2838831232884
 21
554.49581895632878
 31
0.0
  0
LINE
  5
AF2E
  8
01
 10
4991.2838831232812
 20
563.49581895632866
 30
0.0
 11
4941.2838831232884
 21
563.49581895632866
 31
0.0
  0
CIRCLE
  5
AF2F
  8
1PHANTOM
 10
4977.2838831232812
 20
567.99581895632866
 30
0.0
 40
4.25
  0
CIRCLE
  5
AF34
  8
1PHANTOM
 10
4955.2838831232812
 20
567.99581895632866
 30
0.0
 40
4.25
  0
LINE
  5
AF3D
  8
01
 10
5116.2838831232812
 20
571.49581895632605
 30
0.0
 11
5116.2838831232766
 21
565.49581895633332
 31
0.0
  0
LINE
  5
AF3E
  8
01
 10
5116.2838831232766
 20
565.49581895632923
 30
0.0
 11
5115.2838831232812
 21
564.49581895632923
 31
0.0
  0
LINE
  5
AF3F
  8
01
 10
5116.2838831232812
 20
571.49581895632923
 30
0.0
 11
5115.2838831232784
 21
572.49581895632923
 31
0.0
  0
LINE
  5
AF41
  8
01
 10
4817.2838831232848
 20
782.49581895632923
 30
0.0
 11
5115.2838831232793
 21
782.49581895632923
 31
0.0
  0
LINE
  5
AF43
  8
01
 10
4817.2838831232893
 20
774.49581895632923
 30
0.0
 11
5115.2838831232821
 21
774.49581895632923
 31
0.0
  0
LINE
  5
AF44
  8
01
 10
4816.2838831232848
 20
781.49581895632923
 30
0.0
 11
4817.2838831232848
 21
782.49581895632923
 31
0.0
  0
LINE
  5
AF45
  8
01
 10
4816.2838831232848
 20
775.49581895632923
 30
0.0
 11
4817.2838831232884
 21
774.49581895632923
 31
0.0
  0
LINE
  5
AF46
  8
01
 10
4816.2838831232848
 20
781.49581895632559
 30
0.0
 11
4816.2838831232812
 21
775.49581895633332
 31
0.0
  0
LINE
  5
AF4F
  8
01
 10
4991.2838831232812
 20
764.49581895633014
 30
0.0
 11
4941.2838831232884
 21
764.49581895633014
 31
0.0
  0
LINE
  5
AF50
  8
01
 10
4991.2838831232812
 20
787.49581895632923
 30
0.0
 11
4941.2838831232848
 21
787.49581895633014
 31
0.0
  0
LINE
  5
AF51
  8
01
 10
4991.2838831232812
 20
782.49581895632923
 30
0.0
 11
4941.2838831232848
 21
782.49581895632923
 31
0.0
  0
LINE
  5
AF53
  8
01
 10
4991.2838831232812
 20
773.49581895633014
 30
0.0
 11
4941.2838831232884
 21
773.49581895633014
 31
0.0
  0
LINE
  5
AF5A
  8
01
 10
5116.2838831232812
 20
781.49581895632923
 30
0.0
 11
5115.2838831232784
 21
782.49581895632923
 31
0.0
  0
LINE
  5
AF5B
  8
01
 10
5116.2838831232766
 20
775.49581895632923
 30
0.0
 11
5115.2838831232812
 21
774.49581895632923
 31
0.0
  0
LINE
  5
AF5C
  8
01
 10
5116.2838831232812
 20
781.49581895632605
 30
0.0
 11
5116.2838831232766
 21
775.49581895633332
 31
0.0
  0
LINE
  5
AF5D
  8
01
 10
4817.2838831232884
 20
984.49581895632775
 30
0.0
 11
5115.2838831232821
 21
984.49581895632775
 31
0.0
  0
LINE
  5
AF5F
  8
01
 10
4816.2838831232848
 20
985.49581895632775
 30
0.0
 11
4817.2838831232884
 21
984.49581895632775
 31
0.0
  0
LINE
  5
AF60
  8
01
 10
4991.2838831232812
 20
974.49581895632878
 30
0.0
 11
4941.2838831232884
 21
974.49581895632878
 31
0.0
  0
LINE
  5
AF61
  8
01
 10
4991.2838831232812
 20
983.49581895632878
 30
0.0
 11
4941.2838831232884
 21
983.49581895632878
 31
0.0
  0
LINE
  5
AF68
  8
01
 10
5116.2838831232766
 20
985.49581895632775
 30
0.0
 11
5115.2838831232812
 21
984.49581895632775
 31
0.0
  0
LINE
  5
AF6B
  8
1CENTER
 10
5386.7377758698522
 20
567.99581895633014
 30
0.0
 11
5321.6030240332148
 21
567.99581895633014
 31
0.0
  0
LINE
  5
AF6C
  8
1PHANTOM
 10
5373.1733306910182
 20
569.4957724204321
 30
0.0
 11
5326.2733655928942
 21
569.4957724204321
 31
0.0
  0
LINE
  5
AF6D
  8
1PHANTOM
 10
5373.1733237106346
 20
566.49577242043199
 30
0.0
 11
5326.2733004425299
 21
566.49577242043199
 31
0.0
  0
LINE
  5
AF6F
  8
01
 10
5212.2733004425254
 20
572.49581895633014
 30
0.0
 11
5320.2733004425263
 21
572.49581895633014
 31
0.0
  0
LINE
  5
AF71
  8
01
 10
5212.2733004425254
 20
564.49581895633014
 30
0.0
 11
5320.2733004425263
 21
564.49581895633014
 31
0.0
  0
LINE
  5
AF72
  8
01
 10
5211.2733004425254
 20
565.49581895633014
 30
0.0
 11
5211.2733004425254
 21
571.49581895633014
 31
0.0
  0
LINE
  5
AF73
  8
01
 10
5211.2733004425254
 20
565.49581895633014
 30
0.0
 11
5212.2733004425254
 21
564.49581895633014
 31
0.0
  0
LINE
  5
AF74
  8
01
 10
5212.2733004425254
 20
572.49581895633014
 30
0.0
 11
5211.2733004425254
 21
571.49581895633014
 31
0.0
  0
LINE
  5
AF76
  8
1PHANTOM
 10
5325.2733085863083
 20
571.49581895633014
 30
0.0
 11
5325.2733039326095
 21
569.4957724204321
 31
0.0
  0
ARC
  5
AF77
  8
1PHANTOM
 10
5324.1733050961129
 20
569.99581895633014
 30
0.0
 40
1.5
 50
90.0
 51
179.9998666844663
  0
LINE
  5
AF78
  8
01
 10
5326.2733004425299
 20
554.49581895633014
 30
0.0
 11
5326.2733004425299
 21
577.49581895633014
 31
0.0
  0
LINE
  5
AF79
  8
01
 10
5321.273300442529
 20
563.49581895633105
 30
0.0
 11
5321.273300442529
 21
572.49581895633105
 31
0.0
  0
LINE
  5
AF7A
  8
01
 10
5331.273300442529
 20
577.49581895632912
 30
0.0
 11
5331.273300442529
 21
554.49581895633014
 31
0.0
  0
LINE
  5
AF7B
  8
01
 10
5351.273300442529
 20
577.49581895632912
 30
0.0
 11
5351.273300442529
 21
554.49581895632923
 31
0.0
  0
LINE
  5
AF7C
  8
01
 10
5321.2733004425254
 20
565.49581895633014
 30
0.0
 11
5321.2733004425254
 21
571.49581895633014
 31
0.0
  0
LINE
  5
AF7D
  8
01
 10
5326.2733004425299
 20
554.49581895633105
 30
0.0
 11
5299.2733004425281
 21
554.49581895633105
 31
0.0
  0
LINE
  5
AF7E
  8
01
 10
5321.273300442529
 20
563.49581895633105
 30
0.0
 11
5299.2733004425318
 21
563.49581895633105
 31
0.0
  0
LINE
  5
AF7F
  8
01
 10
5299.2733004425281
 20
554.49581895633105
 30
0.0
 11
5299.2733004425281
 21
563.49581895633105
 31
0.0
  0
LINE
  5
AF81
  8
1PHANTOM
 10
5325.2733004425254
 20
567.99581895633014
 30
0.0
 11
5326.2733004425299
 21
569.72786976390125
 31
0.0
  0
LINE
  5
AF82
  8
1PHANTOM
 10
5339.2733306910104
 20
569.4957724204321
 30
0.0
 11
5339.3733318544082
 21
569.99577242043199
 31
0.0
  0
LINE
  5
AF83
  8
1PHANTOM
 10
5336.0733306910088
 20
569.4957724204321
 30
0.0
 11
5336.1733318544066
 21
569.99577242043199
 31
0.0
  0
LINE
  5
AF84
  8
1PHANTOM
 10
5337.673330691011
 20
569.4957724204321
 30
0.0
 11
5337.7733318544097
 21
569.99577242043199
 31
0.0
  0
LINE
  5
AF85
  8
1PHANTOM
 10
5334.4733306910102
 20
569.4957724204321
 30
0.0
 11
5334.5733318544089
 21
569.99577242043199
 31
0.0
  0
LINE
  5
AF86
  8
1PHANTOM
 10
5332.8733306910044
 20
569.4957724204321
 30
0.0
 11
5332.9733318544031
 21
569.99577242043199
 31
0.0
  0
LINE
  5
AF87
  8
1PHANTOM
 10
5328.0733306910006
 20
569.4957724204321
 30
0.0
 11
5328.1733318544011
 21
569.99577242043199
 31
0.0
  0
LINE
  5
AF88
  8
1PHANTOM
 10
5331.2733306910022
 20
569.4957724204321
 30
0.0
 11
5331.3733318544
 21
569.99577242043199
 31
0.0
  0
LINE
  5
AF89
  8
1PHANTOM
 10
5329.673330691
 20
569.4957724204321
 30
0.0
 11
5329.7733318543987
 21
569.99577242043199
 31
0.0
  0
LINE
  5
AF8A
  8
1PHANTOM
 10
5352.0733306910161
 20
569.4957724204321
 30
0.0
 11
5352.173331854412
 21
569.99577242043199
 31
0.0
  0
LINE
  5
AF8B
  8
1PHANTOM
 10
5347.2733306910104
 20
569.4957724204321
 30
0.0
 11
5347.3733318544082
 21
569.99577242043199
 31
0.0
  0
LINE
  5
AF8C
  8
1PHANTOM
 10
5345.673330691011
 20
569.4957724204321
 30
0.0
 11
5345.7733318544097
 21
569.99577242043199
 31
0.0
  0
LINE
  5
AF8D
  8
1PHANTOM
 10
5344.0733306910133
 20
569.4957724204321
 30
0.0
 11
5344.1733318544066
 21
569.99577242043199
 31
0.0
  0
LINE
  5
AF8E
  8
1PHANTOM
 10
5342.4733306910102
 20
569.4957724204321
 30
0.0
 11
5342.5733318544089
 21
569.99577242043199
 31
0.0
  0
LINE
  5
AF8F
  8
1PHANTOM
 10
5340.8733306910108
 20
569.4957724204321
 30
0.0
 11
5340.9733318544068
 21
569.99577242043199
 31
0.0
  0
LINE
  5
AF90
  8
1PHANTOM
 10
5348.8733306910117
 20
569.4957724204321
 30
0.0
 11
5348.9733318544068
 21
569.99577242043199
 31
0.0
  0
LINE
  5
AF91
  8
1PHANTOM
 10
5350.4733306910102
 20
569.4957724204321
 30
0.0
 11
5350.5733318544089
 21
569.99577242043199
 31
0.0
  0
LINE
  5
AF92
  8
01
 10
5326.2733004425299
 20
554.49581895633014
 30
0.0
 11
5331.273300442529
 21
554.49581895633014
 31
0.0
  0
LINE
  5
AF93
  8
01
 10
5326.2733004425263
 20
554.49581895632878
 30
0.0
 11
5331.2733004425254
 21
554.49581895632878
 31
0.0
  0
LINE
  5
AF94
  8
01
 10
5331.273300442529
 20
554.49581895633014
 30
0.0
 11
5351.273300442529
 21
554.49581895632923
 31
0.0
  0
LINE
  5
AF95
  8
01
 10
5320.2733004425263
 20
564.49581895633014
 30
0.0
 11
5321.2733004425254
 21
565.49581895633014
 31
0.0
  0
LINE
  5
AF96
  8
1PHANTOM
 10
5321.273300442529
 20
564.49581895633014
 30
0.0
 11
5326.2733004425263
 21
564.49581895633014
 31
0.0
  0
LINE
  5
AF97
  8
1PHANTOM
 10
5325.2732969522231
 20
566.49577242043199
 30
0.0
 11
5325.2732922987416
 21
564.49581895633014
 31
0.0
  0
LINE
  5
AF98
  8
1PHANTOM
 10
5325.2732922987416
 20
564.49581895633014
 30
0.0
 11
5324.1732957889326
 21
564.49581895633014
 31
0.0
  0
ARC
  5
AF99
  8
1PHANTOM
 10
5324.1732957889326
 20
565.99581895633014
 30
0.0
 40
1.5
 50
179.9998666844663
 51
270.0
  0
LINE
  5
AF9A
  8
1PHANTOM
 10
5338.5733225472259
 20
565.99577242043199
 30
0.0
 11
5338.6733237106246
 21
566.49577242043199
 31
0.0
  0
LINE
  5
AF9B
  8
1PHANTOM
 10
5335.3733225472251
 20
565.99577242043199
 30
0.0
 11
5335.4733237106229
 21
566.49577242043199
 31
0.0
  0
LINE
  5
AF9C
  8
1PHANTOM
 10
5336.9733225472273
 20
565.99577242043199
 30
0.0
 11
5337.0733237106224
 21
566.49577242043199
 31
0.0
  0
LINE
  5
AF9D
  8
1PHANTOM
 10
5333.773322547223
 20
565.99577242043199
 30
0.0
 11
5333.873323710618
 21
566.49577242043199
 31
0.0
  0
LINE
  5
AF9E
  8
1PHANTOM
 10
5327.3733225472142
 20
565.99577242043199
 30
0.0
 11
5327.4733237106093
 21
566.49577242043199
 31
0.0
  0
LINE
  5
AF9F
  8
1PHANTOM
 10
5330.5733225472186
 20
565.99577242043199
 30
0.0
 11
5330.6733237106127
 21
566.49577242043199
 31
0.0
  0
LINE
  5
AFA0
  8
1PHANTOM
 10
5328.9733225472164
 20
565.99577242043199
 30
0.0
 11
5329.0733237106151
 21
566.49577242043199
 31
0.0
  0
LINE
  5
AFA1
  8
1PHANTOM
 10
5332.1733225472171
 20
565.99577242043199
 30
0.0
 11
5332.2733237106158
 21
566.49577242043199
 31
0.0
  0
LINE
  5
AFA2
  8
1PHANTOM
 10
5352.9733225472319
 20
565.99577242043199
 30
0.0
 11
5353.0733237106297
 21
566.49577242043199
 31
0.0
  0
LINE
  5
AFA3
  8
1PHANTOM
 10
5344.973322547231
 20
565.99577242043199
 30
0.0
 11
5345.073323710626
 21
566.49577242043199
 31
0.0
  0
LINE
  5
AFA4
  8
1PHANTOM
 10
5348.1733225472317
 20
565.99577242043199
 30
0.0
 11
5348.2733237106268
 21
566.49577242043199
 31
0.0
  0
LINE
  5
AFA5
  8
1PHANTOM
 10
5346.5733225472304
 20
565.99577242043199
 30
0.0
 11
5346.6733237106282
 21
566.49577242043199
 31
0.0
  0
LINE
  5
AFA6
  8
1PHANTOM
 10
5343.3733225472333
 20
565.99577242043199
 30
0.0
 11
5343.4733237106284
 21
566.49577242043199
 31
0.0
  0
LINE
  5
AFA7
  8
1PHANTOM
 10
5341.7733225472302
 20
565.99577242043199
 30
0.0
 11
5341.8733237106289
 21
566.49577242043199
 31
0.0
  0
LINE
  5
AFA8
  8
1PHANTOM
 10
5349.7733225472302
 20
565.99577242043199
 30
0.0
 11
5349.8733237106289
 21
566.49577242043199
 31
0.0
  0
LINE
  5
AFA9
  8
1PHANTOM
 10
5351.3733225472324
 20
565.99577242043199
 30
0.0
 11
5351.4733237106284
 21
566.49577242043199
 31
0.0
  0
LINE
  5
AFAA
  8
1PHANTOM
 10
5340.1733225472317
 20
565.99577242043199
 30
0.0
 11
5340.2733237106268
 21
566.49577242043199
 31
0.0
  0
LINE
  5
AFAB
  8
1PHANTOM
 10
5325.2732969522231
 20
566.49577242043199
 30
0.0
 11
5325.2733039326095
 21
569.4957724204321
 31
0.0
  0
LINE
  5
AFAC
  8
1PHANTOM
 10
5322.6733050961166
 20
569.99582244652265
 30
0.0
 11
5322.673295788938
 21
565.99582244652265
 31
0.0
  0
LINE
  5
AFAD
  8
1PHANTOM
 10
5339.3733318544082
 20
569.99577242043199
 30
0.0
 11
5340.1733225472317
 21
565.99577242043199
 31
0.0
  0
LINE
  5
AFAE
  8
1PHANTOM
 10
5352.173331854412
 20
569.99577242043199
 30
0.0
 11
5352.9733225472319
 21
565.99577242043199
 31
0.0
  0
LINE
  5
AFAF
  8
1PHANTOM
 10
5344.1733318544066
 20
569.99577242043199
 30
0.0
 11
5344.973322547231
 21
565.99577242043199
 31
0.0
  0
LINE
  5
AFB0
  8
1PHANTOM
 10
5345.7733318544097
 20
569.99577242043199
 30
0.0
 11
5346.5733225472304
 21
565.99577242043199
 31
0.0
  0
LINE
  5
AFB1
  8
1PHANTOM
 10
5347.3733318544082
 20
569.99577242043199
 30
0.0
 11
5348.1733225472317
 21
565.99577242043199
 31
0.0
  0
LINE
  5
AFB2
  8
1PHANTOM
 10
5340.9733318544068
 20
569.99577242043199
 30
0.0
 11
5341.7733225472302
 21
565.99577242043199
 31
0.0
  0
LINE
  5
AFB3
  8
1PHANTOM
 10
5342.5733318544089
 20
569.99577242043199
 30
0.0
 11
5343.3733225472333
 21
565.99577242043199
 31
0.0
  0
LINE
  5
AFB4
  8
1PHANTOM
 10
5348.9733318544068
 20
569.99577242043199
 30
0.0
 11
5349.7733225472302
 21
565.99577242043199
 31
0.0
  0
LINE
  5
AFB5
  8
1PHANTOM
 10
5350.5733318544089
 20
569.99577242043199
 30
0.0
 11
5351.3733225472324
 21
565.99577242043199
 31
0.0
  0
LINE
  5
AFB6
  8
1PHANTOM
 10
5332.9733318544031
 20
569.99577242043199
 30
0.0
 11
5333.773322547223
 21
565.99577242043199
 31
0.0
  0
LINE
  5
AFB7
  8
1PHANTOM
 10
5334.5733318544089
 20
569.99577242043199
 30
0.0
 11
5335.3733225472251
 21
565.99577242043199
 31
0.0
  0
LINE
  5
AFB8
  8
1PHANTOM
 10
5337.7733318544097
 20
569.99577242043199
 30
0.0
 11
5338.5733225472259
 21
565.99577242043199
 31
0.0
  0
LINE
  5
AFB9
  8
1PHANTOM
 10
5336.1733318544066
 20
569.99577242043199
 30
0.0
 11
5336.9733225472273
 21
565.99577242043199
 31
0.0
  0
LINE
  5
AFBA
  8
1PHANTOM
 10
5329.7733318543987
 20
569.99577242043199
 30
0.0
 11
5330.5733225472186
 21
565.99577242043199
 31
0.0
  0
LINE
  5
AFBB
  8
1PHANTOM
 10
5331.3733318544
 20
569.99577242043199
 30
0.0
 11
5332.1733225472171
 21
565.99577242043199
 31
0.0
  0
LINE
  5
AFBC
  8
1PHANTOM
 10
5328.1733318544011
 20
569.99577242043199
 30
0.0
 11
5328.9733225472164
 21
565.99577242043199
 31
0.0
  0
LINE
  5
AFBD
  8
1PHANTOM
 10
5326.5733318543944
 20
569.99577242043199
 30
0.0
 11
5327.3733225472142
 21
565.99577242043199
 31
0.0
  0
LINE
  5
AFBE
  8
01
 10
5326.2733004425299
 20
577.49581895633105
 30
0.0
 11
5299.2733004425281
 21
577.49581895633105
 31
0.0
  0
LINE
  5
AFBF
  8
01
 10
5321.273300442529
 20
572.49581895633105
 30
0.0
 11
5299.2733004425254
 21
572.49581895633105
 31
0.0
  0
LINE
  5
AFC0
  8
01
 10
5299.2733004425281
 20
572.49581895633105
 30
0.0
 11
5299.2733004425281
 21
577.49581895633014
 31
0.0
  0
LINE
  5
AFC1
  8
01
 10
5331.273300442529
 20
577.49581895632832
 30
0.0
 11
5351.273300442529
 21
577.49581895632912
 31
0.0
  0
LINE
  5
AFC2
  8
01
 10
5321.2733004425254
 20
571.49581895633014
 30
0.0
 11
5320.2733004425263
 21
572.49581895633014
 31
0.0
  0
LINE
  5
AFC3
  8
1PHANTOM
 10
5321.2733004425254
 20
571.49581895633014
 30
0.0
 11
5326.2733004425299
 21
571.49581895633014
 31
0.0
  0
LINE
  5
AFC4
  8
1PHANTOM
 10
5325.2733085863083
 20
571.49581895633014
 30
0.0
 11
5324.1733050961129
 21
571.49581895633014
 31
0.0
  0
LINE
  5
AFC5
  8
1PHANTOM
 10
5376.3733297472027
 20
569.09014277032509
 30
0.0
 11
5377.173325181252
 21
567.12780768144978
 31
0.0
  0
LINE
  5
AFC6
  8
1PHANTOM
 10
5377.173325181252
 20
567.12780768144978
 30
0.0
 11
5377.4850950375048
 21
567.71608425649219
 31
0.0
  0
LINE
  5
AFC7
  8
1PHANTOM
 10
5378.4733272008789
 20
567.9957724204321
 30
0.0
 11
5373.1733306910182
 21
569.4957724204321
 31
0.0
  0
LINE
  5
AFC8
  8
1PHANTOM
 10
5353.6733306910191
 20
569.4957724204321
 30
0.0
 11
5353.7733318544169
 21
569.99577242043199
 31
0.0
  0
LINE
  5
AFC9
  8
1PHANTOM
 10
5356.873330691019
 20
569.4957724204321
 30
0.0
 11
5356.9733318544177
 21
569.99577242043199
 31
0.0
  0
LINE
  5
AFCA
  8
1PHANTOM
 10
5355.2733306910204
 20
569.4957724204321
 30
0.0
 11
5355.3733318544164
 21
569.99577242043199
 31
0.0
  0
LINE
  5
AFCB
  8
1PHANTOM
 10
5358.4733306910166
 20
569.4957724204321
 30
0.0
 11
5358.5733318544162
 21
569.99577242043199
 31
0.0
  0
LINE
  5
AFCC
  8
1PHANTOM
 10
5371.2733306910204
 20
569.4957724204321
 30
0.0
 11
5371.3733318544164
 21
569.99577242043199
 31
0.0
  0
LINE
  5
AFCD
  8
1PHANTOM
 10
5369.6733306910182
 20
569.4957724204321
 30
0.0
 11
5369.7733318544178
 21
569.99577242043199
 31
0.0
  0
LINE
  5
AFCE
  8
1PHANTOM
 10
5368.0733306910197
 20
569.4957724204321
 30
0.0
 11
5368.1733318544184
 21
569.99577242043199
 31
0.0
  0
LINE
  5
AFCF
  8
1PHANTOM
 10
5360.0733306910197
 20
569.4957724204321
 30
0.0
 11
5360.1733318544193
 21
569.99577242043199
 31
0.0
  0
LINE
  5
AFD0
  8
1PHANTOM
 10
5361.6733306910191
 20
569.4957724204321
 30
0.0
 11
5361.7733318544169
 21
569.99577242043199
 31
0.0
  0
LINE
  5
AFD1
  8
1PHANTOM
 10
5363.2733306910204
 20
569.4957724204321
 30
0.0
 11
5363.3733318544164
 21
569.99577242043199
 31
0.0
  0
LINE
  5
AFD2
  8
1PHANTOM
 10
5364.8733306910181
 20
569.4957724204321
 30
0.0
 11
5364.9733318544177
 21
569.99577242043199
 31
0.0
  0
LINE
  5
AFD3
  8
1PHANTOM
 10
5373.0733306910197
 20
569.4957724204321
 30
0.0
 11
5373.1733318544193
 21
569.99577242043199
 31
0.0
  0
LINE
  5
AFD4
  8
1PHANTOM
 10
5366.4733306910221
 20
569.4957724204321
 30
0.0
 11
5366.5733318544162
 21
569.99577242043199
 31
0.0
  0
LINE
  5
AFD5
  8
1PHANTOM
 10
5376.2218939507629
 20
568.63297092969401
 30
0.0
 11
5376.3733297472027
 21
569.09014277032509
 31
0.0
  0
LINE
  5
AFD6
  8
1PHANTOM
 10
5374.6605612884568
 20
569.07485782322351
 30
0.0
 11
5374.7733308008073
 21
569.54295627837348
 31
0.0
  0
LINE
  5
AFD7
  8
1PHANTOM
 10
5356.1733225472353
 20
565.99577242043199
 30
0.0
 11
5356.2733237106349
 21
566.49577242043199
 31
0.0
  0
LINE
  5
AFD8
  8
1PHANTOM
 10
5354.5733225472368
 20
565.99577242043199
 30
0.0
 11
5354.6733237106309
 21
566.49577242043199
 31
0.0
  0
LINE
  5
AFD9
  8
1PHANTOM
 10
5359.3733225472397
 20
565.99577242043199
 30
0.0
 11
5359.4733237106338
 21
566.49577242043199
 31
0.0
  0
LINE
  5
AFDA
  8
1PHANTOM
 10
5357.7733225472348
 20
565.99577242043199
 30
0.0
 11
5357.8733237106326
 21
566.49577242043199
 31
0.0
  0
LINE
  5
AFDB
  8
1PHANTOM
 10
5372.173322547239
 20
565.99577242043199
 30
0.0
 11
5372.2733237106368
 21
566.49577242043199
 31
0.0
  0
LINE
  5
AFDC
  8
1PHANTOM
 10
5370.5733225472404
 20
565.99577242043199
 30
0.0
 11
5370.6733237106364
 21
566.49577242043199
 31
0.0
  0
LINE
  5
AFDD
  8
1PHANTOM
 10
5368.9733225472382
 20
565.99577242043199
 30
0.0
 11
5369.0733237106369
 21
566.49577242043199
 31
0.0
  0
LINE
  5
AFDE
  8
1PHANTOM
 10
5360.9733225472382
 20
565.99577242043199
 30
0.0
 11
5361.0733237106379
 21
566.49577242043199
 31
0.0
  0
LINE
  5
AFDF
  8
1PHANTOM
 10
5362.5733225472404
 20
565.99577242043199
 30
0.0
 11
5362.6733237106364
 21
566.49577242043199
 31
0.0
  0
LINE
  5
AFE0
  8
1PHANTOM
 10
5373.973323074043
 20
566.22217947263618
 30
0.0
 11
5374.1025937716704
 21
566.75877320790732
 31
0.0
  0
LINE
  5
AFE1
  8
1PHANTOM
 10
5365.7733225472412
 20
565.99577242043199
 30
0.0
 11
5365.8733237106362
 21
566.49577242043199
 31
0.0
  0
LINE
  5
AFE2
  8
1PHANTOM
 10
5367.3733225472397
 20
565.99577242043199
 30
0.0
 11
5367.4733237106348
 21
566.49577242043199
 31
0.0
  0
LINE
  5
AFE3
  8
1PHANTOM
 10
5364.173322547239
 20
565.99577242043199
 30
0.0
 11
5364.2733237106368
 21
566.49577242043199
 31
0.0
  0
LINE
  5
AFE4
  8
1PHANTOM
 10
5378.4733272008789
 20
567.9957724204321
 30
0.0
 11
5373.1733237106346
 21
566.49577242043199
 31
0.0
  0
LINE
  5
AFE5
  8
1PHANTOM
 10
5355.3733318544164
 20
569.99577242043199
 30
0.0
 11
5356.1733225472353
 21
565.99577242043199
 31
0.0
  0
LINE
  5
AFE6
  8
1PHANTOM
 10
5358.5733318544162
 20
569.99577242043199
 30
0.0
 11
5359.3733225472397
 21
565.99577242043199
 31
0.0
  0
LINE
  5
AFE7
  8
1PHANTOM
 10
5356.9733318544177
 20
569.99577242043199
 30
0.0
 11
5357.7733225472348
 21
565.99577242043199
 31
0.0
  0
LINE
  5
AFE8
  8
1PHANTOM
 10
5353.7733318544169
 20
569.99577242043199
 30
0.0
 11
5354.5733225472368
 21
565.99577242043199
 31
0.0
  0
LINE
  5
AFE9
  8
1PHANTOM
 10
5371.3733318544164
 20
569.99577242043199
 30
0.0
 11
5372.173322547239
 21
565.99577242043199
 31
0.0
  0
LINE
  5
AFEA
  8
1PHANTOM
 10
5369.7733318544178
 20
569.99577242043199
 30
0.0
 11
5370.5733225472404
 21
565.99577242043199
 31
0.0
  0
LINE
  5
AFEB
  8
1PHANTOM
 10
5368.1733318544184
 20
569.99577242043199
 30
0.0
 11
5368.9733225472382
 21
565.99577242043199
 31
0.0
  0
LINE
  5
AFEC
  8
1PHANTOM
 10
5361.7733318544169
 20
569.99577242043199
 30
0.0
 11
5362.5733225472404
 21
565.99577242043199
 31
0.0
  0
LINE
  5
AFED
  8
1PHANTOM
 10
5360.1733318544193
 20
569.99577242043199
 30
0.0
 11
5360.9733225472382
 21
565.99577242043199
 31
0.0
  0
LINE
  5
AFEE
  8
1PHANTOM
 10
5373.1733318544193
 20
569.99577242043199
 30
0.0
 11
5373.973323074043
 21
566.22217947263618
 31
0.0
  0
LINE
  5
AFEF
  8
1PHANTOM
 10
5366.5733318544162
 20
569.99577242043199
 30
0.0
 11
5367.3733225472397
 21
565.99577242043199
 31
0.0
  0
LINE
  5
AFF0
  8
1PHANTOM
 10
5364.9733318544177
 20
569.99577242043199
 30
0.0
 11
5365.7733225472412
 21
565.99577242043199
 31
0.0
  0
LINE
  5
AFF1
  8
1PHANTOM
 10
5374.7733308008073
 20
569.54295627837348
 30
0.0
 11
5375.5733241276466
 21
566.67499357704276
 31
0.0
  0
LINE
  5
AFF2
  8
1PHANTOM
 10
5375.5733241276466
 20
566.67499357704276
 30
0.0
 11
5375.7560882702746
 21
567.22674304084615
 31
0.0
  0
LINE
  5
AFF3
  8
1PHANTOM
 10
5363.3733318544164
 20
569.99577242043199
 30
0.0
 11
5364.173322547239
 21
565.99577242043199
 31
0.0
  0
LINE
  5
B005
  8
01
 10
5299.2733004425254
 20
764.49581895633014
 30
0.0
 11
5299.2733004425254
 21
773.49581895633014
 31
0.0
  0
LINE
  5
B009
  8
01
 10
5326.2733004425263
 20
764.49581895632923
 30
0.0
 11
5326.2733004425263
 21
787.49581895632923
 31
0.0
  0
LINE
  5
B00C
  8
01
 10
5326.2733004425263
 20
764.49581895633014
 30
0.0
 11
5299.2733004425254
 21
764.49581895633014
 31
0.0
  0
LINE
  5
B010
  8
01
 10
5212.2733004425254
 20
782.49581895633014
 30
0.0
 11
5320.2733004425263
 21
782.49581895633014
 31
0.0
  0
LINE
  5
B012
  8
01
 10
5212.2733004425254
 20
774.49581895633014
 30
0.0
 11
5320.2733004425263
 21
774.49581895633014
 31
0.0
  0
LINE
  5
B014
  8
01
 10
5212.2733004425254
 20
782.49581895633014
 30
0.0
 11
5211.2733004425254
 21
781.49581895633014
 31
0.0
  0
LINE
  5
B015
  8
01
 10
5211.2733004425254
 20
775.49581895633014
 30
0.0
 11
5212.2733004425254
 21
774.49581895633014
 31
0.0
  0
LINE
  5
B016
  8
01
 10
5211.2733004425254
 20
775.49581895633014
 30
0.0
 11
5211.2733004425254
 21
781.49581895633014
 31
0.0
  0
LINE
  5
B017
  8
01
 10
5326.2733004425263
 20
787.49581895633014
 30
0.0
 11
5299.2733004425254
 21
787.49581895633014
 31
0.0
  0
LINE
  5
B018
  8
01
 10
5321.2733004425254
 20
782.49581895633014
 30
0.0
 11
5299.2733004425208
 21
782.49581895633014
 31
0.0
  0
LINE
  5
B01B
  8
01
 10
5321.2733004425254
 20
773.49581895633014
 30
0.0
 11
5299.2733004425281
 21
773.49581895633014
 31
0.0
  0
LINE
  5
B01C
  8
01
 10
5299.2733004425254
 20
782.49581895633014
 30
0.0
 11
5299.2733004425254
 21
787.49581895632923
 31
0.0
  0
LINE
  5
B023
  8
01
 10
5321.2733004425254
 20
781.49581895633014
 30
0.0
 11
5320.2733004425263
 21
782.49581895633014
 31
0.0
  0
LINE
  5
B02A
  8
01
 10
5320.2733004425263
 20
774.49581895633014
 30
0.0
 11
5321.2733004425254
 21
775.49581895633014
 31
0.0
  0
LINE
  5
B02C
  8
01
 10
5321.2733004425254
 20
773.49581895633014
 30
0.0
 11
5321.2733004425254
 21
782.49581895633014
 31
0.0
  0
LINE
  5
B02D
  8
01
 10
5321.2733004425254
 20
775.49581895633014
 30
0.0
 11
5321.2733004425254
 21
781.49581895633014
 31
0.0
  0
LINE
  5
B032
  8
01
 10
5212.2733004425254
 20
984.49581895632866
 30
0.0
 11
5320.2733004425263
 21
984.49581895632866
 31
0.0
  0
LINE
  5
B033
  8
01
 10
5211.2733004425254
 20
985.49581895632866
 30
0.0
 11
5212.2733004425254
 21
984.49581895632866
 31
0.0
  0
LINE
  5
B034
  8
01
 10
5326.2733004425263
 20
974.49581895632878
 30
0.0
 11
5299.2733004425254
 21
974.49581895632878
 31
0.0
  0
LINE
  5
B035
  8
01
 10
5321.2733004425254
 20
983.49581895632878
 30
0.0
 11
5299.2733004425281
 21
983.49581895632878
 31
0.0
  0
LINE
  5
B03B
  8
01
 10
5299.2733004425254
 20
974.49581895632878
 30
0.0
 11
5299.2733004425254
 21
983.49581895632878
 31
0.0
  0
LINE
  5
B052
  8
01
 10
5320.2733004425263
 20
984.49581895632866
 30
0.0
 11
5321.2733004425254
 21
985.49581895632866
 31
0.0
  0
LINE
  5
B05C
  8
01
 10
4816.2838831232848
 20
1315.128728320303
 30
0.0
 11
4816.2838831232812
 21
1419.128728320303
 31
0.0
  0
LINE
  5
B05D
  8
01
 10
5116.2838831232812
 20
1315.128728320303
 30
0.0
 11
5116.2838831232812
 21
1419.128728320303
 31
0.0
  0
LINE
  5
B05E
  8
01
 10
4817.2838831232848
 20
992.49581895632787
 30
0.0
 11
5115.2838831232784
 21
992.49581895632787
 31
0.0
  0
LINE
  5
B060
  8
01
 10
4816.2838831232848
 20
991.49581895632787
 30
0.0
 11
4817.2838831232848
 21
992.49581895632787
 31
0.0
  0
LINE
  5
B061
  8
01
 10
4991.2838831232812
 20
992.49581895632787
 30
0.0
 11
4941.2838831232848
 21
992.49581895632787
 31
0.0
  0
LINE
  5
B062
  8
01
 10
4991.2838831232812
 20
997.49581895632787
 30
0.0
 11
4941.2838831232848
 21
997.49581895632878
 31
0.0
  0
LINE
  5
B064
  8
01
 10
5116.2838831232812
 20
991.49581895632787
 30
0.0
 11
5115.2838831232784
 21
992.49581895632787
 31
0.0
  0
LINE
  5
B066
  8
01
 10
4819.2838831232848
 20
1312.128728320303
 30
0.0
 11
5113.2838831232812
 21
1312.128728320303
 31
0.0
  0
LINE
  5
B067
  8
01
 10
4817.2838831232848
 20
1202.4958189563281
 30
0.0
 11
5115.2838831232793
 21
1202.4958189563281
 31
0.0
  0
LINE
  5
B068
  8
01
 10
4817.2838831232884
 20
1194.4958189563281
 30
0.0
 11
5115.2838831232812
 21
1194.4958189563281
 31
0.0
  0
LINE
  5
B06C
  8
01
 10
4816.2838831232848
 20
1201.495818956324
 30
0.0
 11
4816.2838831232812
 21
1195.495818956332
 31
0.0
  0
LINE
  5
B06D
  8
01
 10
4816.2838831232848
 20
1195.4958189563281
 30
0.0
 11
4817.2838831232884
 21
1194.4958189563281
 31
0.0
  0
LINE
  5
B06E
  8
01
 10
4816.2838831232848
 20
1201.4958189563281
 30
0.0
 11
4817.2838831232848
 21
1202.4958189563281
 31
0.0
  0
ARC
  5
B06F
  8
01
 10
4819.2838831232848
 20
1315.128728320303
 30
0.0
 40
3.0
 50
180.0
 51
270.0
  0
CIRCLE
  5
B078
  8
1PHANTOM
 10
4977.2838831232812
 20
1197.995818956329
 30
0.0
 40
4.25
  0
LINE
  5
B079
  8
01
 10
4991.2838831232812
 20
1184.495818956329
 30
0.0
 11
4941.2838831232884
 21
1184.495818956329
 31
0.0
  0
LINE
  5
B07A
  8
01
 10
4991.2838831232812
 20
1193.4958189563281
 30
0.0
 11
4941.2838831232884
 21
1193.4958189563281
 31
0.0
  0
LINE
  5
B07B
  8
01
 10
4991.2838831232812
 20
1202.4958189563281
 30
0.0
 11
4941.2838831232848
 21
1202.4958189563281
 31
0.0
  0
CIRCLE
  5
B07E
  8
1PHANTOM
 10
4955.2838831232812
 20
1197.995818956329
 30
0.0
 40
4.25
  0
LINE
  5
B081
  8
01
 10
4990.7838831232784
 20
1207.4958189563249
 30
0.0
 11
4941.7838831232821
 21
1207.495818956329
 31
0.0
  0
LINE
  5
B082
  8
01
 10
4991.2838831232812
 20
1207.4958189563281
 30
0.0
 11
4941.2838831232848
 21
1207.495818956329
 31
0.0
  0
ARC
  5
B084
  8
01
 10
4941.7838831232821
 20
1206.995818956327
 30
0.0
 40
0.5
 50
89.999999999995765
 51
180.0
  0
ARC
  5
B085
  8
01
 10
4990.7838831232784
 20
1206.995818956324
 30
0.0
 40
0.5
 50
0.0
 51
90.0
  0
LINE
  5
B086
  8
01
 10
5116.2838831232812
 20
1201.495818956324
 30
0.0
 11
5116.2838831232766
 21
1195.495818956332
 31
0.0
  0
LINE
  5
B087
  8
01
 10
5116.2838831232812
 20
1201.4958189563281
 30
0.0
 11
5115.2838831232784
 21
1202.4958189563281
 31
0.0
  0
LINE
  5
B088
  8
01
 10
5116.2838831232766
 20
1195.4958189563281
 30
0.0
 11
5115.2838831232812
 21
1194.4958189563281
 31
0.0
  0
ARC
  5
B089
  8
01
 10
5113.2838831232812
 20
1315.128728320303
 30
0.0
 40
3.0
 50
270.0
 51
0.0
  0
TEXT
  5
B08B
  8
1TEXT
 10
4666.6686913148842
 20
1447.971195554805
 30
0.0
 40
30.0
  1
DD-15-
  0
LINE
  5
B08D
  8
01
 10
4819.2838831232812
 20
1422.128728320303
 30
0.0
 11
4941.2838831232866
 21
1422.128728320303
 31
0.0
  0
ARC
  5
B08E
  8
01
 10
4819.2838831232812
 20
1419.128728320303
 30
0.0
 40
3.0
 50
89.999999999999986
 51
180.00000000000071
  0
LINE
  5
B090
  8
01
 10
4941.2838831232884
 20
1432.1287283203051
 30
0.0
 11
4941.2838831232884
 21
1447.1287283203051
 31
0.0
  0
LINE
  5
B093
  8
1PHANTOM
 10
4953.0338831232812
 20
1432.1287283203051
 30
0.0
 11
4953.0338831232812
 21
1447.1287283203051
 31
0.0
  0
LINE
  5
B094
  8
1PHANTOM
 10
4957.5338831232812
 20
1432.1287283203051
 30
0.0
 11
4957.5338831232812
 21
1447.1287283203051
 31
0.0
  0
LINE
  5
B097
  8
1PHANTOM
 10
4975.0338831232802
 20
1432.1287283203051
 30
0.0
 11
4975.0338831232802
 21
1447.1287283203051
 31
0.0
  0
LINE
  5
B098
  8
1PHANTOM
 10
4979.5338831232812
 20
1432.1287283203051
 30
0.0
 11
4979.5338831232812
 21
1447.1287283203051
 31
0.0
  0
LINE
  5
B09B
  8
01
 10
4991.2838831232766
 20
1432.1287283203051
 30
0.0
 11
4991.2838831232766
 21
1447.1287283203051
 31
0.0
  0
LINE
  5
B0AF
  8
01
 10
4991.2838831232812
 20
1427.1287283203051
 30
0.0
 11
4941.2838831232766
 21
1427.1287283203051
 31
0.0
  0
LINE
  5
B0B0
  8
01
 10
4991.2838831232812
 20
1432.1287283203051
 30
0.0
 11
4941.2838831232766
 21
1432.1287283203051
 31
0.0
  0
LINE
  5
B0B1
  8
01
 10
4941.2838831232884
 20
1427.1287283203051
 30
0.0
 11
4991.2838831232766
 21
1427.1287283203051
 31
0.0
  0
LINE
  5
B0B4
  8
01
 10
4941.2838831232884
 20
1432.1287283203051
 30
0.0
 11
4991.2838831232766
 21
1432.1287283203051
 31
0.0
  0
LINE
  5
B0B6
  8
01
 10
4941.2838831232884
 20
1400.1287283203051
 30
0.0
 11
4991.2838831232812
 21
1400.1287283203039
 31
0.0
  0
LINE
  5
B0B7
  8
01
 10
4941.2838831232848
 20
1400.1287283203039
 30
0.0
 11
4941.2838831232884
 21
1427.1287283203051
 31
0.0
  0
LINE
  5
B0C0
  8
1PHANTOM
 10
4957.5338831232812
 20
1427.1287283203051
 30
0.0
 11
4957.5338831232812
 21
1432.1287283203051
 31
0.0
  0
LINE
  5
B0C1
  8
01
 10
4941.2838831232766
 20
1427.1287283203051
 30
0.0
 11
4941.2838831232766
 21
1432.1287283203051
 31
0.0
  0
LINE
  5
B0C3
  8
1PHANTOM
 10
4953.0338831232812
 20
1427.1287283203051
 30
0.0
 11
4953.0338831232812
 21
1432.1287283203051
 31
0.0
  0
LINE
  5
B0D5
  8
01
 10
4991.2838831232812
 20
1400.1287283203039
 30
0.0
 11
4991.2838831232766
 21
1427.1287283203051
 31
0.0
  0
LINE
  5
B0D9
  8
01
 10
4991.2838831232812
 20
1427.1287283203051
 30
0.0
 11
4991.2838831232812
 21
1432.1287283203051
 31
0.0
  0
LINE
  5
B0DC
  8
1PHANTOM
 10
4979.5338831232812
 20
1427.1287283203051
 30
0.0
 11
4979.5338831232812
 21
1432.1287283203051
 31
0.0
  0
LINE
  5
B0DD
  8
1PHANTOM
 10
4975.0338831232802
 20
1427.1287283203051
 30
0.0
 11
4975.0338831232802
 21
1432.1287283203051
 31
0.0
  0
ARC
  5
B0EA
  8
01
 10
5113.2838831232812
 20
1419.128728320303
 30
0.0
 40
3.0
 50
0.0
 51
90.0
  0
LINE
  5
B0EC
  8
01
 10
4941.2838831232884
 20
1447.1287283203051
 30
0.0
 11
4991.2838831232766
 21
1447.1287283203051
 31
0.0
  0
LINE
  5
B0F7
  8
01
 10
5212.2733004425254
 20
992.49581895632866
 30
0.0
 11
5320.2733004425263
 21
992.49581895632866
 31
0.0
  0
LINE
  5
B0F9
  8
01
 10
5212.2733004425254
 20
992.49581895632866
 30
0.0
 11
5211.2733004425254
 21
991.49581895632878
 31
0.0
  0
LINE
  5
B0FA
  8
01
 10
5321.2733004425254
 20
992.49581895632866
 30
0.0
 11
5299.2733004425208
 21
992.49581895632866
 31
0.0
  0
LINE
  5
B0FB
  8
01
 10
5326.2733004425263
 20
997.49581895632878
 30
0.0
 11
5299.2733004425254
 21
997.49581895632878
 31
0.0
  0
LINE
  5
B0FC
  8
01
 10
5299.2733004425254
 20
992.49581895632866
 30
0.0
 11
5299.2733004425254
 21
997.49581895632787
 31
0.0
  0
LINE
  5
B101
  8
01
 10
5321.2733004425254
 20
991.49581895632878
 30
0.0
 11
5320.2733004425263
 21
992.49581895632866
 31
0.0
  0
LINE
  5
B105
  8
1CENTER
 10
5381.5198126989108
 20
1197.995818956329
 30
0.0
 11
5321.6030240332148
 21
1197.995818956329
 31
0.0
  0
LINE
  5
B106
  8
1PHANTOM
 10
5373.1733306910137
 20
1199.495772420431
 30
0.0
 11
5326.2733655928896
 21
1199.495772420431
 31
0.0
  0
LINE
  5
B107
  8
1PHANTOM
 10
5373.1733237106318
 20
1196.495772420431
 30
0.0
 11
5326.2733004425263
 21
1196.495772420431
 31
0.0
  0
LINE
  5
B109
  8
01
 10
5326.2733004425263
 20
1184.4958189563281
 30
0.0
 11
5326.2733004425263
 21
1207.4958189563281
 31
0.0
  0
LINE
  5
B10A
  8
01
 10
5299.2733004425254
 20
1202.495818956329
 30
0.0
 11
5299.2733004425254
 21
1207.4958189563281
 31
0.0
  0
LINE
  5
B10B
  8
01
 10
5331.2733004425254
 20
1207.495818956329
 30
0.0
 11
5331.2733004425254
 21
1184.495818956329
 31
0.0
  0
LINE
  5
B10C
  8
01
 10
5351.2733004425254
 20
1207.495818956329
 30
0.0
 11
5351.2733004425254
 21
1184.495818956329
 31
0.0
  0
LINE
  5
B10F
  8
01
 10
5212.2733004425254
 20
1194.495818956329
 30
0.0
 11
5320.2733004425263
 21
1194.495818956329
 31
0.0
  0
LINE
  5
B110
  8
01
 10
5212.2733004425254
 20
1202.495818956329
 30
0.0
 11
5320.2733004425263
 21
1202.495818956329
 31
0.0
  0
LINE
  5
B113
  8
01
 10
5211.2733004425254
 20
1195.4958189563281
 30
0.0
 11
5211.2733004425254
 21
1201.495818956329
 31
0.0
  0
LINE
  5
B114
  8
01
 10
5212.2733004425254
 20
1202.495818956329
 30
0.0
 11
5211.2733004425254
 21
1201.495818956329
 31
0.0
  0
LINE
  5
B115
  8
01
 10
5211.2733004425254
 20
1195.4958189563281
 30
0.0
 11
5212.2733004425254
 21
1194.495818956329
 31
0.0
  0
LINE
  5
B116
  8
01
 10
5299.2733004425254
 20
1184.495818956329
 30
0.0
 11
5299.2733004425254
 21
1193.4958189563281
 31
0.0
  0
LINE
  5
B118
  8
01
 10
5326.2733004425263
 20
1184.495818956329
 30
0.0
 11
5299.2733004425254
 21
1184.495818956329
 31
0.0
  0
LINE
  5
B119
  8
01
 10
5331.2733004425254
 20
1184.495818956329
 30
0.0
 11
5351.2733004425254
 21
1184.495818956329
 31
0.0
  0
LINE
  5
B11A
  8
01
 10
5321.2733004425254
 20
1202.495818956329
 30
0.0
 11
5299.2733004425208
 21
1202.495818956329
 31
0.0
  0
LINE
  5
B11B
  8
01
 10
5321.2733004425254
 20
1193.4958189563281
 30
0.0
 11
5299.2733004425281
 21
1193.4958189563281
 31
0.0
  0
LINE
  5
B11C
  8
01
 10
5321.2733004425254
 20
1193.4958189563281
 30
0.0
 11
5321.2733004425254
 21
1202.495818956329
 31
0.0
  0
LINE
  5
B11D
  8
01
 10
5321.2733004425254
 20
1195.4958189563281
 30
0.0
 11
5321.2733004425254
 21
1201.495818956329
 31
0.0
  0
LINE
  5
B11E
  8
01
 10
5320.2733004425263
 20
1194.495818956329
 30
0.0
 11
5321.2733004425254
 21
1195.4958189563281
 31
0.0
  0
LINE
  5
B11F
  8
01
 10
5321.2733004425254
 20
1201.495818956329
 30
0.0
 11
5320.2733004425263
 21
1202.495818956329
 31
0.0
  0
LINE
  5
B120
  8
1PHANTOM
 10
5321.2733004425254
 20
1194.4958189563281
 30
0.0
 11
5326.2733004425263
 21
1194.495818956329
 31
0.0
  0
LINE
  5
B121
  8
1PHANTOM
 10
5325.2733004425254
 20
1197.995818956329
 30
0.0
 11
5326.2733004425299
 21
1199.7278697638999
 31
0.0
  0
LINE
  5
B122
  8
1PHANTOM
 10
5321.2733004425254
 20
1201.495818956329
 30
0.0
 11
5326.2733004425299
 21
1201.495818956329
 31
0.0
  0
LINE
  5
B123
  8
1PHANTOM
 10
5325.2732969522231
 20
1196.495772420431
 30
0.0
 11
5325.2733039326095
 21
1199.4957724204301
 31
0.0
  0
LINE
  5
B124
  8
1PHANTOM
 10
5325.2733085863083
 20
1201.4958189563281
 30
0.0
 11
5325.2733039326095
 21
1199.4957724204301
 31
0.0
  0
LINE
  5
B125
  8
1PHANTOM
 10
5325.2733085863083
 20
1201.4958189563281
 30
0.0
 11
5324.1733050961129
 21
1201.495818956329
 31
0.0
  0
LINE
  5
B126
  8
1PHANTOM
 10
5325.2732969522231
 20
1196.495772420431
 30
0.0
 11
5325.2732922987416
 21
1194.495818956329
 31
0.0
  0
ARC
  5
B127
  8
1PHANTOM
 10
5324.1733050961129
 20
1199.9958189563281
 30
0.0
 40
1.5
 50
90.0
 51
179.99986668447059
  0
LINE
  5
B128
  8
1PHANTOM
 10
5325.2732922987416
 20
1194.495818956329
 30
0.0
 11
5324.1732957889326
 21
1194.495818956329
 31
0.0
  0
LINE
  5
B129
  8
1PHANTOM
 10
5322.6733050961166
 20
1199.9958224465211
 30
0.0
 11
5322.673295788938
 21
1195.9958224465211
 31
0.0
  0
ARC
  5
B12A
  8
1PHANTOM
 10
5324.1732957889326
 20
1195.995818956329
 30
0.0
 40
1.5
 50
179.99986668447059
 51
270.0
  0
LINE
  5
B12B
  8
1PHANTOM
 10
5338.5733225472222
 20
1195.995772420431
 30
0.0
 11
5338.6733237106209
 21
1196.495772420431
 31
0.0
  0
LINE
  5
B12C
  8
1PHANTOM
 10
5335.3733225472224
 20
1195.995772420431
 30
0.0
 11
5335.4733237106202
 21
1196.495772420431
 31
0.0
  0
LINE
  5
B12D
  8
1PHANTOM
 10
5336.9733225472237
 20
1195.995772420431
 30
0.0
 11
5337.0733237106188
 21
1196.495772420431
 31
0.0
  0
LINE
  5
B12E
  8
1PHANTOM
 10
5333.7733225472193
 20
1195.995772420431
 30
0.0
 11
5333.8733237106153
 21
1196.495772420431
 31
0.0
  0
LINE
  5
B12F
  8
1PHANTOM
 10
5327.3733225472097
 20
1195.995772420431
 30
0.0
 11
5327.4733237106057
 21
1196.495772420431
 31
0.0
  0
LINE
  5
B130
  8
1PHANTOM
 10
5330.573322547215
 20
1195.995772420431
 30
0.0
 11
5330.67332371061
 21
1196.495772420431
 31
0.0
  0
LINE
  5
B131
  8
1PHANTOM
 10
5328.9733225472128
 20
1195.995772420431
 30
0.0
 11
5329.0733237106124
 21
1196.495772420431
 31
0.0
  0
LINE
  5
B132
  8
1PHANTOM
 10
5332.1733225472126
 20
1195.995772420431
 30
0.0
 11
5332.2733237106122
 21
1196.495772420431
 31
0.0
  0
LINE
  5
B133
  8
1PHANTOM
 10
5352.9733225472282
 20
1195.995772420431
 30
0.0
 11
5353.073323710626
 21
1196.495772420431
 31
0.0
  0
LINE
  5
B134
  8
1PHANTOM
 10
5344.9733225472273
 20
1195.995772420431
 30
0.0
 11
5345.0733237106224
 21
1196.495772420431
 31
0.0
  0
LINE
  5
B135
  8
1PHANTOM
 10
5348.1733225472281
 20
1195.995772420431
 30
0.0
 11
5348.2733237106231
 21
1196.495772420431
 31
0.0
  0
LINE
  5
B136
  8
1PHANTOM
 10
5346.5733225472259
 20
1195.995772420431
 30
0.0
 11
5346.6733237106246
 21
1196.495772420431
 31
0.0
  0
LINE
  5
B137
  8
1PHANTOM
 10
5343.3733225472288
 20
1195.995772420431
 30
0.0
 11
5343.4733237106238
 21
1196.495772420431
 31
0.0
  0
LINE
  5
B138
  8
1PHANTOM
 10
5341.7733225472266
 20
1195.995772420431
 30
0.0
 11
5341.8733237106253
 21
1196.495772420431
 31
0.0
  0
LINE
  5
B139
  8
1PHANTOM
 10
5349.7733225472266
 20
1195.995772420431
 30
0.0
 11
5349.8733237106253
 21
1196.495772420431
 31
0.0
  0
LINE
  5
B13A
  8
1PHANTOM
 10
5351.3733225472279
 20
1195.995772420431
 30
0.0
 11
5351.4733237106238
 21
1196.495772420431
 31
0.0
  0
LINE
  5
B13B
  8
1PHANTOM
 10
5340.1733225472281
 20
1195.995772420431
 30
0.0
 11
5340.2733237106231
 21
1196.495772420431
 31
0.0
  0
LINE
  5
B13C
  8
1PHANTOM
 10
5339.2733306910059
 20
1199.495772420431
 30
0.0
 11
5339.3733318544037
 21
1199.995772420431
 31
0.0
  0
LINE
  5
B13D
  8
1PHANTOM
 10
5336.0733306910051
 20
1199.495772420431
 30
0.0
 11
5336.1733318544038
 21
1199.995772420431
 31
0.0
  0
LINE
  5
B13E
  8
1PHANTOM
 10
5337.6733306910073
 20
1199.495772420431
 30
0.0
 11
5337.773331854406
 21
1199.995772420431
 31
0.0
  0
LINE
  5
B13F
  8
1PHANTOM
 10
5334.4733306910066
 20
1199.495772420431
 30
0.0
 11
5334.5733318544053
 21
1199.995772420431
 31
0.0
  0
LINE
  5
B140
  8
1PHANTOM
 10
5332.8733306910008
 20
1199.495772420431
 30
0.0
 11
5332.9733318543986
 21
1199.995772420431
 31
0.0
  0
LINE
  5
B141
  8
1PHANTOM
 10
5326.473330690992
 20
1199.495772420431
 30
0.0
 11
5326.5733318543898
 21
1199.995772420431
 31
0.0
  0
LINE
  5
B142
  8
1PHANTOM
 10
5328.073330690997
 20
1199.495772420431
 30
0.0
 11
5328.1733318543957
 21
1199.995772420431
 31
0.0
  0
LINE
  5
B143
  8
1PHANTOM
 10
5331.2733306909986
 20
1199.495772420431
 30
0.0
 11
5331.3733318543973
 21
1199.995772420431
 31
0.0
  0
LINE
  5
B144
  8
1PHANTOM
 10
5329.6733306909964
 20
1199.495772420431
 30
0.0
 11
5329.7733318543951
 21
1199.995772420431
 31
0.0
  0
LINE
  5
B145
  8
1PHANTOM
 10
5352.0733306910133
 20
1199.495772420431
 30
0.0
 11
5352.1733318544084
 21
1199.995772420431
 31
0.0
  0
LINE
  5
B146
  8
1PHANTOM
 10
5347.2733306910059
 20
1199.495772420431
 30
0.0
 11
5347.3733318544046
 21
1199.995772420431
 31
0.0
  0
LINE
  5
B147
  8
1PHANTOM
 10
5345.6733306910073
 20
1199.495772420431
 30
0.0
 11
5345.773331854406
 21
1199.995772420431
 31
0.0
  0
LINE
  5
B148
  8
1PHANTOM
 10
5344.0733306910088
 20
1199.495772420431
 30
0.0
 11
5344.1733318544038
 21
1199.995772420431
 31
0.0
  0
LINE
  5
B149
  8
1PHANTOM
 10
5342.4733306910066
 20
1199.495772420431
 30
0.0
 11
5342.5733318544053
 21
1199.995772420431
 31
0.0
  0
LINE
  5
B14A
  8
1PHANTOM
 10
5340.8733306910081
 20
1199.495772420431
 30
0.0
 11
5340.9733318544031
 21
1199.995772420431
 31
0.0
  0
LINE
  5
B14B
  8
1PHANTOM
 10
5348.873330691009
 20
1199.495772420431
 30
0.0
 11
5348.9733318544031
 21
1199.995772420431
 31
0.0
  0
LINE
  5
B14C
  8
1PHANTOM
 10
5350.4733306910066
 20
1199.495772420431
 30
0.0
 11
5350.5733318544053
 21
1199.995772420431
 31
0.0
  0
LINE
  5
B14D
  8
1PHANTOM
 10
5339.3733318544037
 20
1199.995772420431
 30
0.0
 11
5340.1733225472281
 21
1195.995772420431
 31
0.0
  0
LINE
  5
B14E
  8
1PHANTOM
 10
5352.1733318544084
 20
1199.995772420431
 30
0.0
 11
5352.9733225472282
 21
1195.995772420431
 31
0.0
  0
LINE
  5
B14F
  8
1PHANTOM
 10
5344.1733318544038
 20
1199.995772420431
 30
0.0
 11
5344.9733225472273
 21
1195.995772420431
 31
0.0
  0
LINE
  5
B150
  8
1PHANTOM
 10
5345.773331854406
 20
1199.995772420431
 30
0.0
 11
5346.5733225472259
 21
1195.995772420431
 31
0.0
  0
LINE
  5
B151
  8
1PHANTOM
 10
5347.3733318544046
 20
1199.995772420431
 30
0.0
 11
5348.1733225472281
 21
1195.995772420431
 31
0.0
  0
LINE
  5
B152
  8
1PHANTOM
 10
5340.9733318544031
 20
1199.995772420431
 30
0.0
 11
5341.7733225472266
 21
1195.995772420431
 31
0.0
  0
LINE
  5
B153
  8
1PHANTOM
 10
5342.5733318544053
 20
1199.995772420431
 30
0.0
 11
5343.3733225472288
 21
1195.995772420431
 31
0.0
  0
LINE
  5
B154
  8
1PHANTOM
 10
5348.9733318544031
 20
1199.995772420431
 30
0.0
 11
5349.7733225472266
 21
1195.995772420431
 31
0.0
  0
LINE
  5
B155
  8
1PHANTOM
 10
5350.5733318544053
 20
1199.995772420431
 30
0.0
 11
5351.3733225472279
 21
1195.995772420431
 31
0.0
  0
LINE
  5
B156
  8
1PHANTOM
 10
5332.9733318543986
 20
1199.995772420431
 30
0.0
 11
5333.7733225472193
 21
1195.995772420431
 31
0.0
  0
LINE
  5
B157
  8
1PHANTOM
 10
5334.5733318544053
 20
1199.995772420431
 30
0.0
 11
5335.3733225472224
 21
1195.995772420431
 31
0.0
  0
LINE
  5
B158
  8
1PHANTOM
 10
5337.773331854406
 20
1199.995772420431
 30
0.0
 11
5338.5733225472222
 21
1195.995772420431
 31
0.0
  0
LINE
  5
B159
  8
1PHANTOM
 10
5336.1733318544038
 20
1199.995772420431
 30
0.0
 11
5336.9733225472237
 21
1195.995772420431
 31
0.0
  0
LINE
  5
B15A
  8
1PHANTOM
 10
5329.7733318543951
 20
1199.995772420431
 30
0.0
 11
5330.573322547215
 21
1195.995772420431
 31
0.0
  0
LINE
  5
B15B
  8
1PHANTOM
 10
5331.3733318543973
 20
1199.995772420431
 30
0.0
 11
5332.1733225472126
 21
1195.995772420431
 31
0.0
  0
LINE
  5
B15C
  8
1PHANTOM
 10
5328.1733318543957
 20
1199.995772420431
 30
0.0
 11
5328.9733225472128
 21
1195.995772420431
 31
0.0
  0
LINE
  5
B15D
  8
1PHANTOM
 10
5326.5733318543898
 20
1199.995772420431
 30
0.0
 11
5327.3733225472097
 21
1195.995772420431
 31
0.0
  0
LINE
  5
B15E
  8
01
 10
5326.2733004425263
 20
1207.495818956329
 30
0.0
 11
5299.2733004425254
 21
1207.495818956329
 31
0.0
  0
LINE
  5
B15F
  8
01
 10
5326.2733004425263
 20
1207.495818956329
 30
0.0
 11
5331.2733004425254
 21
1207.495818956329
 31
0.0
  0
LINE
  5
B160
  8
01
 10
5331.2733004425254
 20
1207.4958189563281
 30
0.0
 11
5351.2733004425254
 21
1207.495818956329
 31
0.0
  0
LINE
  5
B161
  8
1PHANTOM
 10
5378.4733272008752
 20
1197.995772420431
 30
0.0
 11
5373.1733306910137
 21
1199.495772420431
 31
0.0
  0
LINE
  5
B162
  8
1PHANTOM
 10
5378.4733272008752
 20
1197.995772420431
 30
0.0
 11
5373.1733237106318
 21
1196.495772420431
 31
0.0
  0
LINE
  5
B163
  8
1PHANTOM
 10
5356.1733225472308
 20
1195.995772420431
 30
0.0
 11
5356.2733237106313
 21
1196.495772420431
 31
0.0
  0
LINE
  5
B164
  8
1PHANTOM
 10
5354.5733225472331
 20
1195.995772420431
 30
0.0
 11
5354.6733237106282
 21
1196.495772420431
 31
0.0
  0
LINE
  5
B165
  8
1PHANTOM
 10
5359.3733225472361
 20
1195.995772420431
 30
0.0
 11
5359.4733237106311
 21
1196.495772420431
 31
0.0
  0
LINE
  5
B166
  8
1PHANTOM
 10
5357.7733225472302
 20
1195.995772420431
 30
0.0
 11
5357.8733237106289
 21
1196.495772420431
 31
0.0
  0
LINE
  5
B167
  8
1PHANTOM
 10
5353.6733306910146
 20
1199.495772420431
 30
0.0
 11
5353.7733318544133
 21
1199.995772420431
 31
0.0
  0
LINE
  5
B168
  8
1PHANTOM
 10
5356.8733306910162
 20
1199.495772420431
 30
0.0
 11
5356.973331854414
 21
1199.995772420431
 31
0.0
  0
LINE
  5
B169
  8
1PHANTOM
 10
5355.2733306910168
 20
1199.495772420431
 30
0.0
 11
5355.3733318544118
 21
1199.995772420431
 31
0.0
  0
LINE
  5
B16A
  8
1PHANTOM
 10
5358.4733306910139
 20
1199.495772420431
 30
0.0
 11
5358.5733318544126
 21
1199.995772420431
 31
0.0
  0
LINE
  5
B16B
  8
1PHANTOM
 10
5355.3733318544118
 20
1199.995772420431
 30
0.0
 11
5356.1733225472308
 21
1195.995772420431
 31
0.0
  0
LINE
  5
B16C
  8
1PHANTOM
 10
5358.5733318544126
 20
1199.995772420431
 30
0.0
 11
5359.3733225472361
 21
1195.995772420431
 31
0.0
  0
LINE
  5
B16D
  8
1PHANTOM
 10
5356.973331854414
 20
1199.995772420431
 30
0.0
 11
5357.7733225472302
 21
1195.995772420431
 31
0.0
  0
LINE
  5
B16E
  8
1PHANTOM
 10
5353.7733318544133
 20
1199.995772420431
 30
0.0
 11
5354.5733225472331
 21
1195.995772420431
 31
0.0
  0
LINE
  5
B16F
  8
1PHANTOM
 10
5372.1733225472362
 20
1195.995772420431
 30
0.0
 11
5372.273323710634
 21
1196.495772420431
 31
0.0
  0
LINE
  5
B170
  8
1PHANTOM
 10
5370.5733225472368
 20
1195.995772420431
 30
0.0
 11
5370.6733237106318
 21
1196.495772420431
 31
0.0
  0
LINE
  5
B171
  8
1PHANTOM
 10
5368.9733225472337
 20
1195.995772420431
 30
0.0
 11
5369.0733237106333
 21
1196.495772420431
 31
0.0
  0
LINE
  5
B172
  8
1PHANTOM
 10
5360.9733225472337
 20
1195.995772420431
 30
0.0
 11
5361.0733237106333
 21
1196.495772420431
 31
0.0
  0
LINE
  5
B173
  8
1PHANTOM
 10
5362.5733225472368
 20
1195.995772420431
 30
0.0
 11
5362.6733237106318
 21
1196.495772420431
 31
0.0
  0
LINE
  5
B174
  8
1PHANTOM
 10
5373.9733230740394
 20
1196.222179472634
 30
0.0
 11
5374.1025937716668
 21
1196.758773207906
 31
0.0
  0
LINE
  5
B175
  8
1PHANTOM
 10
5365.7733225472366
 20
1195.995772420431
 30
0.0
 11
5365.8733237106326
 21
1196.495772420431
 31
0.0
  0
LINE
  5
B176
  8
1PHANTOM
 10
5367.3733225472361
 20
1195.995772420431
 30
0.0
 11
5367.4733237106311
 21
1196.495772420431
 31
0.0
  0
LINE
  5
B177
  8
1PHANTOM
 10
5364.1733225472362
 20
1195.995772420431
 30
0.0
 11
5364.273323710634
 21
1196.495772420431
 31
0.0
  0
LINE
  5
B178
  8
1PHANTOM
 10
5371.2733306910168
 20
1199.495772420431
 30
0.0
 11
5371.3733318544118
 21
1199.995772420431
 31
0.0
  0
LINE
  5
B179
  8
1PHANTOM
 10
5369.6733306910137
 20
1199.495772420431
 30
0.0
 11
5369.7733318544133
 21
1199.995772420431
 31
0.0
  0
LINE
  5
B17A
  8
1PHANTOM
 10
5368.0733306910161
 20
1199.495772420431
 30
0.0
 11
5368.1733318544138
 21
1199.995772420431
 31
0.0
  0
LINE
  5
B17B
  8
1PHANTOM
 10
5360.0733306910161
 20
1199.495772420431
 30
0.0
 11
5360.1733318544148
 21
1199.995772420431
 31
0.0
  0
LINE
  5
B17C
  8
1PHANTOM
 10
5361.6733306910146
 20
1199.495772420431
 30
0.0
 11
5361.7733318544133
 21
1199.995772420431
 31
0.0
  0
LINE
  5
B17D
  8
1PHANTOM
 10
5363.2733306910168
 20
1199.495772420431
 30
0.0
 11
5363.3733318544109
 21
1199.995772420431
 31
0.0
  0
LINE
  5
B17E
  8
1PHANTOM
 10
5364.8733306910153
 20
1199.495772420431
 30
0.0
 11
5364.9733318544149
 21
1199.995772420431
 31
0.0
  0
LINE
  5
B17F
  8
1PHANTOM
 10
5373.0733306910161
 20
1199.495772420431
 30
0.0
 11
5373.1733318544148
 21
1199.995772420431
 31
0.0
  0
LINE
  5
B180
  8
1PHANTOM
 10
5366.4733306910184
 20
1199.495772420431
 30
0.0
 11
5366.5733318544126
 21
1199.995772420431
 31
0.0
  0
LINE
  5
B181
  8
1PHANTOM
 10
5376.3733297471999
 20
1199.0901427703241
 30
0.0
 11
5377.1733251812493
 21
1197.1278076814481
 31
0.0
  0
LINE
  5
B182
  8
1PHANTOM
 10
5376.2218939507593
 20
1198.6329709296931
 30
0.0
 11
5376.3733297471999
 21
1199.0901427703241
 31
0.0
  0
LINE
  5
B183
  8
1PHANTOM
 10
5377.1733251812493
 20
1197.1278076814481
 30
0.0
 11
5377.4850950375012
 21
1197.7160842564911
 31
0.0
  0
LINE
  5
B184
  8
1PHANTOM
 10
5374.6605612884541
 20
1199.0748578232219
 30
0.0
 11
5374.7733308008028
 21
1199.542956278372
 31
0.0
  0
LINE
  5
B185
  8
1PHANTOM
 10
5371.3733318544118
 20
1199.995772420431
 30
0.0
 11
5372.1733225472362
 21
1195.995772420431
 31
0.0
  0
LINE
  5
B186
  8
1PHANTOM
 10
5369.7733318544133
 20
1199.995772420431
 30
0.0
 11
5370.5733225472368
 21
1195.995772420431
 31
0.0
  0
LINE
  5
B187
  8
1PHANTOM
 10
5368.1733318544138
 20
1199.995772420431
 30
0.0
 11
5368.9733225472337
 21
1195.995772420431
 31
0.0
  0
LINE
  5
B188
  8
1PHANTOM
 10
5361.7733318544133
 20
1199.995772420431
 30
0.0
 11
5362.5733225472368
 21
1195.995772420431
 31
0.0
  0
LINE
  5
B189
  8
1PHANTOM
 10
5360.1733318544148
 20
1199.995772420431
 30
0.0
 11
5360.9733225472337
 21
1195.995772420431
 31
0.0
  0
LINE
  5
B18A
  8
1PHANTOM
 10
5373.1733318544148
 20
1199.995772420431
 30
0.0
 11
5373.9733230740394
 21
1196.222179472634
 31
0.0
  0
LINE
  5
B18B
  8
1PHANTOM
 10
5366.5733318544126
 20
1199.995772420431
 30
0.0
 11
5367.3733225472361
 21
1195.995772420431
 31
0.0
  0
LINE
  5
B18C
  8
1PHANTOM
 10
5364.9733318544149
 20
1199.995772420431
 30
0.0
 11
5365.7733225472366
 21
1195.995772420431
 31
0.0
  0
LINE
  5
B18D
  8
1PHANTOM
 10
5374.7733308008028
 20
1199.542956278372
 30
0.0
 11
5375.573324127643
 21
1196.6749935770411
 31
0.0
  0
LINE
  5
B18E
  8
1PHANTOM
 10
5375.573324127643
 20
1196.6749935770411
 30
0.0
 11
5375.756088270271
 21
1197.2267430408449
 31
0.0
  0
LINE
  5
B18F
  8
1PHANTOM
 10
5363.3733318544109
 20
1199.995772420431
 30
0.0
 11
5364.1733225472362
 21
1195.995772420431
 31
0.0
  0
LINE
  5
B63B
  8
1PHANTOM
 10
5351.2733004425254
 20
1200.245818956329
 30
0.0
 11
5326.2733004425263
 21
1200.245818956329
 31
0.0
  0
LINE
  5
B63C
  8
1PHANTOM
 10
5351.2733004425254
 20
1195.7458189563281
 30
0.0
 11
5326.2733004425263
 21
1195.745818956329
 31
0.0
  0
LINE
  5
B63F
  8
1PHANTOM
 10
5351.2733004425254
 20
565.74581895632991
 30
0.0
 11
5326.2733004425263
 21
565.74581895633014
 31
0.0
  0
LINE
  5
B640
  8
1PHANTOM
 10
5351.2733004425254
 20
570.24581895633014
 30
0.0
 11
5326.2733004425263
 21
570.24581895633014
 31
0.0
  0
LINE
  5
B6BF
  8
1CENTER
 10
4977.2838831232812
 20
1482.37524057669
 30
0.0
 11
4977.2838831232812
 21
1422.4584519109951
 31
0.0
  0
LINE
  5
B6C2
  8
1PHANTOM
 10
4975.7839296591792
 20
1474.028758568794
 30
0.0
 11
4975.7839296591792
 21
1427.12879347067
 31
0.0
  0
LINE
  5
B6C3
  8
1PHANTOM
 10
4978.7839296591792
 20
1474.0287515884111
 30
0.0
 11
4978.7839296591792
 21
1427.1287283203051
 31
0.0
  0
LINE
  5
B6C4
  8
1PHANTOM
 10
4977.2838831232812
 20
1426.1287283203039
 30
0.0
 11
4975.5518323157103
 21
1427.128728320308
 31
0.0
  0
LINE
  5
B6C5
  8
1PHANTOM
 10
4978.7839296591792
 20
1426.1287248300021
 30
0.0
 11
4975.7839296591792
 21
1426.1287318103889
 31
0.0
  0
LINE
  5
B6C6
  8
1PHANTOM
 10
4973.7838831232821
 20
1426.128736464088
 30
0.0
 11
4975.7839296591792
 21
1426.1287318103889
 31
0.0
  0
LINE
  5
B6C7
  8
1PHANTOM
 10
4973.7838831232821
 20
1427.128728320306
 30
0.0
 11
4973.7838831232821
 21
1425.0287329738919
 31
0.0
  0
LINE
  5
B6C8
  8
1PHANTOM
 10
4978.7839296591792
 20
1426.1287248300021
 30
0.0
 11
4980.7838831232812
 21
1426.1287201765219
 31
0.0
  0
ARC
  5
B6C9
  8
1PHANTOM
 10
4975.2838831232821
 20
1425.0287329738919
 30
0.0
 40
1.5
 50
180.0
 51
269.99986668447059
  0
LINE
  5
B6CA
  8
1PHANTOM
 10
4980.7838831232812
 20
1427.1287283203039
 30
0.0
 11
4980.7838831232812
 21
1425.0287236667129
 31
0.0
  0
LINE
  5
B6CB
  8
1PHANTOM
 10
4975.2838796330889
 20
1423.528732973896
 30
0.0
 11
4979.2838796330889
 21
1423.5287236667159
 31
0.0
  0
ARC
  5
B6CC
  8
1PHANTOM
 10
4979.2838831232812
 20
1425.0287236667129
 30
0.0
 40
1.5
 50
269.99986668447059
 51
0.0
  0
LINE
  5
B6CD
  8
1PHANTOM
 10
4979.2839296591792
 20
1439.428750425001
 30
0.0
 11
4978.7839296591792
 21
1439.5287515883999
 31
0.0
  0
LINE
  5
B6CE
  8
1PHANTOM
 10
4979.2839296591792
 20
1436.228750425001
 30
0.0
 11
4978.7839296591792
 21
1436.3287515884001
 31
0.0
  0
LINE
  5
B6CF
  8
1PHANTOM
 10
4979.2839296591792
 20
1437.8287504250029
 30
0.0
 11
4978.7839296591792
 21
1437.928751588398
 31
0.0
  0
LINE
  5
B6D0
  8
1PHANTOM
 10
4979.2839296591792
 20
1434.628750424999
 30
0.0
 11
4978.7839296591792
 21
1434.7287515883941
 31
0.0
  0
LINE
  5
B6D1
  8
1PHANTOM
 10
4979.2839296591792
 20
1428.22875042499
 30
0.0
 11
4978.7839296591792
 21
1428.3287515883851
 31
0.0
  0
LINE
  5
B6D2
  8
1PHANTOM
 10
4979.2839296591792
 20
1431.428750424994
 30
0.0
 11
4978.7839296591792
 21
1431.528751588389
 31
0.0
  0
LINE
  5
B6D3
  8
1PHANTOM
 10
4979.2839296591792
 20
1429.828750424992
 30
0.0
 11
4978.7839296591792
 21
1429.9287515883909
 31
0.0
  0
LINE
  5
B6D4
  8
1PHANTOM
 10
4979.2839296591792
 20
1433.0287504249929
 30
0.0
 11
4978.7839296591792
 21
1433.128751588391
 31
0.0
  0
LINE
  5
B6D5
  8
1PHANTOM
 10
4979.2839296591792
 20
1453.828750425007
 30
0.0
 11
4978.7839296591792
 21
1453.928751588405
 31
0.0
  0
LINE
  5
B6D6
  8
1PHANTOM
 10
4979.2839296591792
 20
1445.828750425007
 30
0.0
 11
4978.7839296591792
 21
1445.9287515884021
 31
0.0
  0
LINE
  5
B6D7
  8
1PHANTOM
 10
4979.2839296591792
 20
1449.028750425007
 30
0.0
 11
4978.7839296591792
 21
1449.1287515884021
 31
0.0
  0
LINE
  5
B6D8
  8
1PHANTOM
 10
4979.2839296591792
 20
1447.4287504250051
 30
0.0
 11
4978.7839296591792
 21
1447.528751588404
 31
0.0
  0
LINE
  5
B6D9
  8
1PHANTOM
 10
4979.2839296591792
 20
1444.228750425008
 30
0.0
 11
4978.7839296591792
 21
1444.3287515884031
 31
0.0
  0
LINE
  5
B6DA
  8
1PHANTOM
 10
4979.2839296591792
 20
1442.628750425006
 30
0.0
 11
4978.7839296591792
 21
1442.728751588405
 31
0.0
  0
LINE
  5
B6DB
  8
1PHANTOM
 10
4979.2839296591792
 20
1450.628750425006
 30
0.0
 11
4978.7839296591792
 21
1450.728751588405
 31
0.0
  0
LINE
  5
B6DC
  8
1PHANTOM
 10
4979.2839296591792
 20
1452.228750425008
 30
0.0
 11
4978.7839296591792
 21
1452.3287515884031
 31
0.0
  0
LINE
  5
B6DD
  8
1PHANTOM
 10
4979.2839296591792
 20
1441.028750425007
 30
0.0
 11
4978.7839296591792
 21
1441.128751588403
 31
0.0
  0
LINE
  5
B6DE
  8
1PHANTOM
 10
4975.7839296591792
 20
1440.1287585687851
 30
0.0
 11
4975.2839296591792
 21
1440.228759732184
 31
0.0
  0
LINE
  5
B6DF
  8
1PHANTOM
 10
4975.7839296591792
 20
1436.9287585687839
 30
0.0
 11
4975.2839296591792
 21
1437.0287597321831
 31
0.0
  0
LINE
  5
B6E0
  8
1PHANTOM
 10
4975.7839296591792
 20
1438.528758568787
 30
0.0
 11
4975.2839296591792
 21
1438.628759732185
 31
0.0
  0
LINE
  5
B6E1
  8
1PHANTOM
 10
4975.7839296591792
 20
1435.328758568786
 30
0.0
 11
4975.2839296591792
 21
1435.428759732185
 31
0.0
  0
LINE
  5
B6E2
  8
1PHANTOM
 10
4975.7839296591792
 20
1433.72875856878
 30
0.0
 11
4975.2839296591792
 21
1433.8287597321789
 31
0.0
  0
LINE
  5
B6E3
  8
1PHANTOM
 10
4975.7839296591792
 20
1427.328758568771
 30
0.0
 11
4975.2839296591792
 21
1427.42875973217
 31
0.0
  0
LINE
  5
B6E4
  8
1PHANTOM
 10
4975.7839296591792
 20
1428.9287585687771
 30
0.0
 11
4975.2839296591792
 21
1429.028759732176
 31
0.0
  0
LINE
  5
B6E5
  8
1PHANTOM
 10
4975.7839296591792
 20
1432.128758568778
 30
0.0
 11
4975.2839296591792
 21
1432.228759732177
 31
0.0
  0
LINE
  5
B6E6
  8
1PHANTOM
 10
4975.7839296591792
 20
1430.5287585687761
 30
0.0
 11
4975.2839296591792
 21
1430.6287597321741
 31
0.0
  0
LINE
  5
B6E7
  8
1PHANTOM
 10
4975.7839296591792
 20
1452.9287585687921
 30
0.0
 11
4975.2839296591792
 21
1453.0287597321869
 31
0.0
  0
LINE
  5
B6E8
  8
1PHANTOM
 10
4975.7839296591792
 20
1448.1287585687851
 30
0.0
 11
4975.2839296591792
 21
1448.228759732184
 31
0.0
  0
LINE
  5
B6E9
  8
1PHANTOM
 10
4975.7839296591792
 20
1446.528758568787
 30
0.0
 11
4975.2839296591792
 21
1446.628759732185
 31
0.0
  0
LINE
  5
B6EA
  8
1PHANTOM
 10
4975.7839296591792
 20
1444.928758568788
 30
0.0
 11
4975.2839296591792
 21
1445.0287597321831
 31
0.0
  0
LINE
  5
B6EB
  8
1PHANTOM
 10
4975.7839296591792
 20
1443.328758568786
 30
0.0
 11
4975.2839296591792
 21
1443.428759732185
 31
0.0
  0
LINE
  5
B6EC
  8
1PHANTOM
 10
4975.7839296591792
 20
1441.728758568787
 30
0.0
 11
4975.2839296591792
 21
1441.8287597321821
 31
0.0
  0
LINE
  5
B6ED
  8
1PHANTOM
 10
4975.7839296591792
 20
1449.728758568787
 30
0.0
 11
4975.2839296591792
 21
1449.8287597321821
 31
0.0
  0
LINE
  5
B6EE
  8
1PHANTOM
 10
4975.7839296591792
 20
1451.328758568786
 30
0.0
 11
4975.2839296591792
 21
1451.428759732185
 31
0.0
  0
LINE
  5
B6EF
  8
1PHANTOM
 10
4975.2839296591792
 20
1440.228759732184
 30
0.0
 11
4979.2839296591792
 21
1441.028750425007
 31
0.0
  0
LINE
  5
B6F0
  8
1PHANTOM
 10
4975.2839296591792
 20
1453.0287597321869
 30
0.0
 11
4979.2839296591792
 21
1453.828750425007
 31
0.0
  0
LINE
  5
B6F1
  8
1PHANTOM
 10
4975.2839296591792
 20
1445.0287597321831
 30
0.0
 11
4979.2839296591792
 21
1445.828750425007
 31
0.0
  0
LINE
  5
B6F2
  8
1PHANTOM
 10
4975.2839296591792
 20
1446.628759732185
 30
0.0
 11
4979.2839296591792
 21
1447.4287504250051
 31
0.0
  0
LINE
  5
B6F3
  8
1PHANTOM
 10
4975.2839296591792
 20
1448.228759732184
 30
0.0
 11
4979.2839296591792
 21
1449.028750425007
 31
0.0
  0
LINE
  5
B6F4
  8
1PHANTOM
 10
4975.2839296591792
 20
1441.8287597321821
 30
0.0
 11
4979.2839296591792
 21
1442.628750425006
 31
0.0
  0
LINE
  5
B6F5
  8
1PHANTOM
 10
4975.2839296591792
 20
1443.428759732185
 30
0.0
 11
4979.2839296591792
 21
1444.228750425008
 31
0.0
  0
LINE
  5
B6F6
  8
1PHANTOM
 10
4975.2839296591792
 20
1449.8287597321821
 30
0.0
 11
4979.2839296591792
 21
1450.628750425006
 31
0.0
  0
LINE
  5
B6F7
  8
1PHANTOM
 10
4975.2839296591792
 20
1451.428759732185
 30
0.0
 11
4979.2839296591792
 21
1452.228750425008
 31
0.0
  0
LINE
  5
B6F8
  8
1PHANTOM
 10
4975.2839296591792
 20
1433.8287597321789
 30
0.0
 11
4979.2839296591792
 21
1434.628750424999
 31
0.0
  0
LINE
  5
B6F9
  8
1PHANTOM
 10
4975.2839296591792
 20
1435.428759732185
 30
0.0
 11
4979.2839296591792
 21
1436.228750425001
 31
0.0
  0
LINE
  5
B6FA
  8
1PHANTOM
 10
4975.2839296591792
 20
1438.628759732185
 30
0.0
 11
4979.2839296591792
 21
1439.428750425001
 31
0.0
  0
LINE
  5
B6FB
  8
1PHANTOM
 10
4975.2839296591792
 20
1437.0287597321831
 30
0.0
 11
4979.2839296591792
 21
1437.8287504250029
 31
0.0
  0
LINE
  5
B6FC
  8
1PHANTOM
 10
4975.2839296591792
 20
1430.6287597321741
 30
0.0
 11
4979.2839296591792
 21
1431.428750424994
 31
0.0
  0
LINE
  5
B6FD
  8
1PHANTOM
 10
4975.2839296591792
 20
1432.228759732177
 30
0.0
 11
4979.2839296591792
 21
1433.0287504249929
 31
0.0
  0
LINE
  5
B6FE
  8
1PHANTOM
 10
4975.2839296591792
 20
1429.028759732176
 30
0.0
 11
4979.2839296591792
 21
1429.828750424992
 31
0.0
  0
LINE
  5
B6FF
  8
1PHANTOM
 10
4975.2839296591792
 20
1427.42875973217
 30
0.0
 11
4979.2839296591792
 21
1428.22875042499
 31
0.0
  0
LINE
  5
B700
  8
1PHANTOM
 10
4977.2839296591792
 20
1479.328755078654
 30
0.0
 11
4975.7839296591792
 21
1474.028758568794
 31
0.0
  0
LINE
  5
B701
  8
1PHANTOM
 10
4977.2839296591792
 20
1479.328755078654
 30
0.0
 11
4978.7839296591792
 21
1474.0287515884111
 31
0.0
  0
LINE
  5
B702
  8
1PHANTOM
 10
4979.2839296591792
 20
1457.0287504250109
 30
0.0
 11
4978.7839296591792
 21
1457.1287515884101
 31
0.0
  0
LINE
  5
B703
  8
1PHANTOM
 10
4979.2839296591792
 20
1455.428750425013
 30
0.0
 11
4978.7839296591792
 21
1455.528751588407
 31
0.0
  0
LINE
  5
B704
  8
1PHANTOM
 10
4979.2839296591792
 20
1460.2287504250151
 30
0.0
 11
4978.7839296591792
 21
1460.3287515884099
 31
0.0
  0
LINE
  5
B705
  8
1PHANTOM
 10
4979.2839296591792
 20
1458.628750425009
 30
0.0
 11
4978.7839296591792
 21
1458.7287515884079
 31
0.0
  0
LINE
  5
B706
  8
1PHANTOM
 10
4975.7839296591792
 20
1454.528758568794
 30
0.0
 11
4975.2839296591792
 21
1454.628759732193
 31
0.0
  0
LINE
  5
B707
  8
1PHANTOM
 10
4975.7839296591792
 20
1457.7287585687941
 30
0.0
 11
4975.2839296591792
 21
1457.828759732193
 31
0.0
  0
LINE
  5
B708
  8
1PHANTOM
 10
4975.7839296591792
 20
1456.128758568796
 30
0.0
 11
4975.2839296591792
 21
1456.2287597321911
 31
0.0
  0
LINE
  5
B709
  8
1PHANTOM
 10
4975.7839296591792
 20
1459.3287585687931
 30
0.0
 11
4975.2839296591792
 21
1459.428759732192
 31
0.0
  0
LINE
  5
B70A
  8
1PHANTOM
 10
4975.2839296591792
 20
1456.2287597321911
 30
0.0
 11
4979.2839296591792
 21
1457.0287504250109
 31
0.0
  0
LINE
  5
B70B
  8
1PHANTOM
 10
4975.2839296591792
 20
1459.428759732192
 30
0.0
 11
4979.2839296591792
 21
1460.2287504250151
 31
0.0
  0
LINE
  5
B70C
  8
1PHANTOM
 10
4975.2839296591792
 20
1457.828759732193
 30
0.0
 11
4979.2839296591792
 21
1458.628750425009
 31
0.0
  0
LINE
  5
B70D
  8
1PHANTOM
 10
4975.2839296591792
 20
1454.628759732193
 30
0.0
 11
4979.2839296591792
 21
1455.428750425013
 31
0.0
  0
LINE
  5
B70E
  8
1PHANTOM
 10
4979.2839296591792
 20
1473.0287504250141
 30
0.0
 11
4978.7839296591792
 21
1473.128751588413
 31
0.0
  0
LINE
  5
B70F
  8
1PHANTOM
 10
4979.2839296591792
 20
1471.428750425016
 30
0.0
 11
4978.7839296591792
 21
1471.5287515884111
 31
0.0
  0
LINE
  5
B710
  8
1PHANTOM
 10
4979.2839296591792
 20
1469.8287504250141
 30
0.0
 11
4978.7839296591792
 21
1469.928751588413
 31
0.0
  0
LINE
  5
B711
  8
1PHANTOM
 10
4979.2839296591792
 20
1461.8287504250141
 30
0.0
 11
4978.7839296591792
 21
1461.928751588413
 31
0.0
  0
LINE
  5
B712
  8
1PHANTOM
 10
4979.2839296591792
 20
1463.428750425016
 30
0.0
 11
4978.7839296591792
 21
1463.5287515884111
 31
0.0
  0
LINE
  5
B713
  8
1PHANTOM
 10
4979.057522606975
 20
1474.8287509518191
 30
0.0
 11
4978.5209288717042
 21
1474.958021649446
 31
0.0
  0
LINE
  5
B714
  8
1PHANTOM
 10
4979.2839296591792
 20
1466.628750425017
 30
0.0
 11
4978.7839296591792
 21
1466.728751588412
 31
0.0
  0
LINE
  5
B715
  8
1PHANTOM
 10
4979.2839296591792
 20
1468.2287504250151
 30
0.0
 11
4978.7839296591792
 21
1468.3287515884099
 31
0.0
  0
LINE
  5
B716
  8
1PHANTOM
 10
4979.2839296591792
 20
1465.0287504250141
 30
0.0
 11
4978.7839296591792
 21
1465.128751588413
 31
0.0
  0
LINE
  5
B717
  8
1PHANTOM
 10
4975.7839296591792
 20
1472.128758568796
 30
0.0
 11
4975.2839296591792
 21
1472.2287597321911
 31
0.0
  0
LINE
  5
B718
  8
1PHANTOM
 10
4975.7839296591792
 20
1470.528758568794
 30
0.0
 11
4975.2839296591792
 21
1470.628759732193
 31
0.0
  0
LINE
  5
B719
  8
1PHANTOM
 10
4975.7839296591792
 20
1468.928758568795
 30
0.0
 11
4975.2839296591792
 21
1469.028759732194
 31
0.0
  0
LINE
  5
B71A
  8
1PHANTOM
 10
4975.7839296591792
 20
1460.928758568795
 30
0.0
 11
4975.2839296591792
 21
1461.028759732194
 31
0.0
  0
LINE
  5
B71B
  8
1PHANTOM
 10
4975.7839296591792
 20
1462.528758568794
 30
0.0
 11
4975.2839296591792
 21
1462.628759732193
 31
0.0
  0
LINE
  5
B71C
  8
1PHANTOM
 10
4975.7839296591792
 20
1464.128758568796
 30
0.0
 11
4975.2839296591792
 21
1464.2287597321911
 31
0.0
  0
LINE
  5
B71D
  8
1PHANTOM
 10
4975.7839296591792
 20
1465.7287585687941
 30
0.0
 11
4975.2839296591792
 21
1465.828759732193
 31
0.0
  0
LINE
  5
B71E
  8
1PHANTOM
 10
4975.7839296591792
 20
1473.928758568795
 30
0.0
 11
4975.2839296591792
 21
1474.028759732194
 31
0.0
  0
LINE
  5
B71F
  8
1PHANTOM
 10
4975.7839296591792
 20
1467.328758568797
 30
0.0
 11
4975.2839296591792
 21
1467.428759732192
 31
0.0
  0
LINE
  5
B720
  8
1PHANTOM
 10
4976.1895593092859
 20
1477.2287576249789
 30
0.0
 11
4978.1518943981619
 21
1478.0287530590281
 31
0.0
  0
LINE
  5
B721
  8
1PHANTOM
 10
4976.6467311499182
 20
1477.077321828539
 30
0.0
 11
4976.1895593092859
 21
1477.2287576249789
 31
0.0
  0
LINE
  5
B722
  8
1PHANTOM
 10
4978.1518943981619
 20
1478.0287530590281
 30
0.0
 11
4977.563617823118
 21
1478.3405229152811
 31
0.0
  0
LINE
  5
B723
  8
1PHANTOM
 10
4976.2048442563873
 20
1475.5159891662331
 30
0.0
 11
4975.7367458012377
 21
1475.6287586785829
 31
0.0
  0
LINE
  5
B724
  8
1PHANTOM
 10
4975.2839296591792
 20
1472.2287597321911
 30
0.0
 11
4979.2839296591792
 21
1473.0287504250141
 31
0.0
  0
LINE
  5
B725
  8
1PHANTOM
 10
4975.2839296591792
 20
1470.628759732193
 30
0.0
 11
4979.2839296591792
 21
1471.428750425016
 31
0.0
  0
LINE
  5
B726
  8
1PHANTOM
 10
4975.2839296591792
 20
1469.028759732194
 30
0.0
 11
4979.2839296591792
 21
1469.8287504250141
 31
0.0
  0
LINE
  5
B727
  8
1PHANTOM
 10
4975.2839296591792
 20
1462.628759732193
 30
0.0
 11
4979.2839296591792
 21
1463.428750425016
 31
0.0
  0
LINE
  5
B728
  8
1PHANTOM
 10
4975.2839296591792
 20
1461.028759732194
 30
0.0
 11
4979.2839296591792
 21
1461.8287504250141
 31
0.0
  0
LINE
  5
B729
  8
1PHANTOM
 10
4975.2839296591792
 20
1474.028759732194
 30
0.0
 11
4979.057522606975
 21
1474.8287509518191
 31
0.0
  0
LINE
  5
B72A
  8
1PHANTOM
 10
4975.2839296591792
 20
1467.428759732192
 30
0.0
 11
4979.2839296591792
 21
1468.2287504250151
 31
0.0
  0
LINE
  5
B72B
  8
1PHANTOM
 10
4975.2839296591792
 20
1465.828759732193
 30
0.0
 11
4979.2839296591792
 21
1466.628750425017
 31
0.0
  0
LINE
  5
B72C
  8
1PHANTOM
 10
4975.7367458012377
 20
1475.6287586785829
 30
0.0
 11
4978.6047085025693
 21
1476.4287520054229
 31
0.0
  0
LINE
  5
B72D
  8
1PHANTOM
 10
4978.6047085025693
 20
1476.4287520054229
 30
0.0
 11
4978.052959038765
 21
1476.6115161480509
 31
0.0
  0
LINE
  5
B72E
  8
1PHANTOM
 10
4975.2839296591792
 20
1464.2287597321911
 30
0.0
 11
4979.2839296591792
 21
1465.0287504250141
 31
0.0
  0
LINE
  5
B72F
  8
1PHANTOM
 10
4973.7838831232821
 20
1427.128728320306
 30
0.0
 11
4980.7838831232812
 21
1427.1287283203039
 31
0.0
  0
LINE
  5
B731
  8
1CENTER
 10
4955.2838831232848
 20
1482.37524057669
 30
0.0
 11
4955.2838831232848
 21
1422.4584519109951
 31
0.0
  0
LINE
  5
B732
  8
1PHANTOM
 10
4953.7839296591828
 20
1474.028758568794
 30
0.0
 11
4953.7839296591828
 21
1427.12879347067
 31
0.0
  0
LINE
  5
B733
  8
1PHANTOM
 10
4956.7839296591828
 20
1474.0287515884111
 30
0.0
 11
4956.7839296591828
 21
1427.1287283203051
 31
0.0
  0
LINE
  5
B734
  8
1PHANTOM
 10
4955.2838831232848
 20
1426.1287283203039
 30
0.0
 11
4953.5518323157139
 21
1427.128728320308
 31
0.0
  0
LINE
  5
B735
  8
1PHANTOM
 10
4956.7839296591828
 20
1426.1287248300021
 30
0.0
 11
4953.7839296591828
 21
1426.1287318103889
 31
0.0
  0
LINE
  5
B736
  8
1PHANTOM
 10
4951.7838831232848
 20
1426.128736464088
 30
0.0
 11
4953.7839296591828
 21
1426.1287318103889
 31
0.0
  0
LINE
  5
B737
  8
1PHANTOM
 10
4951.7838831232848
 20
1427.128728320306
 30
0.0
 11
4951.7838831232848
 21
1425.0287329738919
 31
0.0
  0
LINE
  5
B738
  8
1PHANTOM
 10
4956.7839296591828
 20
1426.1287248300021
 30
0.0
 11
4958.7838831232848
 21
1426.1287201765219
 31
0.0
  0
ARC
  5
B739
  8
1PHANTOM
 10
4953.2838831232848
 20
1425.0287329738919
 30
0.0
 40
1.5
 50
180.0
 51
269.99986668447059
  0
LINE
  5
B73A
  8
1PHANTOM
 10
4958.7838831232848
 20
1427.1287283203039
 30
0.0
 11
4958.7838831232848
 21
1425.0287236667129
 31
0.0
  0
LINE
  5
B73B
  8
1PHANTOM
 10
4953.2838796330934
 20
1423.528732973896
 30
0.0
 11
4957.2838796330916
 21
1423.5287236667159
 31
0.0
  0
ARC
  5
B73C
  8
1PHANTOM
 10
4957.2838831232848
 20
1425.0287236667129
 30
0.0
 40
1.5
 50
269.99986668447059
 51
0.0
  0
LINE
  5
B73D
  8
1PHANTOM
 10
4957.2839296591828
 20
1439.428750425001
 30
0.0
 11
4956.7839296591828
 21
1439.5287515883999
 31
0.0
  0
LINE
  5
B73E
  8
1PHANTOM
 10
4957.2839296591828
 20
1436.228750425001
 30
0.0
 11
4956.7839296591828
 21
1436.3287515884001
 31
0.0
  0
LINE
  5
B73F
  8
1PHANTOM
 10
4957.2839296591828
 20
1437.8287504250029
 30
0.0
 11
4956.7839296591828
 21
1437.928751588398
 31
0.0
  0
LINE
  5
B740
  8
1PHANTOM
 10
4957.2839296591828
 20
1434.628750424999
 30
0.0
 11
4956.7839296591828
 21
1434.7287515883941
 31
0.0
  0
LINE
  5
B741
  8
1PHANTOM
 10
4957.2839296591828
 20
1428.22875042499
 30
0.0
 11
4956.7839296591828
 21
1428.3287515883851
 31
0.0
  0
LINE
  5
B742
  8
1PHANTOM
 10
4957.2839296591828
 20
1431.428750424994
 30
0.0
 11
4956.7839296591828
 21
1431.528751588389
 31
0.0
  0
LINE
  5
B743
  8
1PHANTOM
 10
4957.2839296591828
 20
1429.828750424992
 30
0.0
 11
4956.7839296591828
 21
1429.9287515883909
 31
0.0
  0
LINE
  5
B744
  8
1PHANTOM
 10
4957.2839296591828
 20
1433.0287504249929
 30
0.0
 11
4956.7839296591828
 21
1433.128751588391
 31
0.0
  0
LINE
  5
B745
  8
1PHANTOM
 10
4957.2839296591828
 20
1453.828750425007
 30
0.0
 11
4956.7839296591828
 21
1453.928751588405
 31
0.0
  0
LINE
  5
B746
  8
1PHANTOM
 10
4957.2839296591828
 20
1445.828750425007
 30
0.0
 11
4956.7839296591828
 21
1445.9287515884021
 31
0.0
  0
LINE
  5
B747
  8
1PHANTOM
 10
4957.2839296591828
 20
1449.028750425007
 30
0.0
 11
4956.7839296591828
 21
1449.1287515884021
 31
0.0
  0
LINE
  5
B748
  8
1PHANTOM
 10
4957.2839296591828
 20
1447.4287504250051
 30
0.0
 11
4956.7839296591828
 21
1447.528751588404
 31
0.0
  0
LINE
  5
B749
  8
1PHANTOM
 10
4957.2839296591828
 20
1444.228750425008
 30
0.0
 11
4956.7839296591828
 21
1444.3287515884031
 31
0.0
  0
LINE
  5
B74A
  8
1PHANTOM
 10
4957.2839296591828
 20
1442.628750425006
 30
0.0
 11
4956.7839296591828
 21
1442.728751588405
 31
0.0
  0
LINE
  5
B74B
  8
1PHANTOM
 10
4957.2839296591828
 20
1450.628750425006
 30
0.0
 11
4956.7839296591828
 21
1450.728751588405
 31
0.0
  0
LINE
  5
B74C
  8
1PHANTOM
 10
4957.2839296591828
 20
1452.228750425008
 30
0.0
 11
4956.7839296591828
 21
1452.3287515884031
 31
0.0
  0
LINE
  5
B74D
  8
1PHANTOM
 10
4957.2839296591828
 20
1441.028750425007
 30
0.0
 11
4956.7839296591828
 21
1441.128751588403
 31
0.0
  0
LINE
  5
B74E
  8
1PHANTOM
 10
4953.7839296591828
 20
1440.1287585687851
 30
0.0
 11
4953.2839296591828
 21
1440.228759732184
 31
0.0
  0
LINE
  5
B74F
  8
1PHANTOM
 10
4953.7839296591828
 20
1436.9287585687839
 30
0.0
 11
4953.2839296591828
 21
1437.0287597321831
 31
0.0
  0
LINE
  5
B750
  8
1PHANTOM
 10
4953.7839296591828
 20
1438.528758568787
 30
0.0
 11
4953.2839296591828
 21
1438.628759732185
 31
0.0
  0
LINE
  5
B751
  8
1PHANTOM
 10
4953.7839296591828
 20
1435.328758568786
 30
0.0
 11
4953.2839296591828
 21
1435.428759732185
 31
0.0
  0
LINE
  5
B752
  8
1PHANTOM
 10
4953.7839296591828
 20
1433.72875856878
 30
0.0
 11
4953.2839296591828
 21
1433.8287597321789
 31
0.0
  0
LINE
  5
B753
  8
1PHANTOM
 10
4953.7839296591828
 20
1427.328758568771
 30
0.0
 11
4953.2839296591828
 21
1427.42875973217
 31
0.0
  0
LINE
  5
B754
  8
1PHANTOM
 10
4953.7839296591828
 20
1428.9287585687771
 30
0.0
 11
4953.2839296591828
 21
1429.028759732176
 31
0.0
  0
LINE
  5
B755
  8
1PHANTOM
 10
4953.7839296591828
 20
1432.128758568778
 30
0.0
 11
4953.2839296591828
 21
1432.228759732177
 31
0.0
  0
LINE
  5
B756
  8
1PHANTOM
 10
4953.7839296591828
 20
1430.5287585687761
 30
0.0
 11
4953.2839296591828
 21
1430.6287597321741
 31
0.0
  0
LINE
  5
B757
  8
1PHANTOM
 10
4953.7839296591828
 20
1452.9287585687921
 30
0.0
 11
4953.2839296591828
 21
1453.0287597321869
 31
0.0
  0
LINE
  5
B758
  8
1PHANTOM
 10
4953.7839296591828
 20
1448.1287585687851
 30
0.0
 11
4953.2839296591828
 21
1448.228759732184
 31
0.0
  0
LINE
  5
B759
  8
1PHANTOM
 10
4953.7839296591828
 20
1446.528758568787
 30
0.0
 11
4953.2839296591828
 21
1446.628759732185
 31
0.0
  0
LINE
  5
B75A
  8
1PHANTOM
 10
4953.7839296591828
 20
1444.928758568788
 30
0.0
 11
4953.2839296591828
 21
1445.0287597321831
 31
0.0
  0
LINE
  5
B75B
  8
1PHANTOM
 10
4953.7839296591828
 20
1443.328758568786
 30
0.0
 11
4953.2839296591828
 21
1443.428759732185
 31
0.0
  0
LINE
  5
B75C
  8
1PHANTOM
 10
4953.7839296591828
 20
1441.728758568787
 30
0.0
 11
4953.2839296591828
 21
1441.8287597321821
 31
0.0
  0
LINE
  5
B75D
  8
1PHANTOM
 10
4953.7839296591828
 20
1449.728758568787
 30
0.0
 11
4953.2839296591828
 21
1449.8287597321821
 31
0.0
  0
LINE
  5
B75E
  8
1PHANTOM
 10
4953.7839296591828
 20
1451.328758568786
 30
0.0
 11
4953.2839296591828
 21
1451.428759732185
 31
0.0
  0
LINE
  5
B75F
  8
1PHANTOM
 10
4953.2839296591828
 20
1440.228759732184
 30
0.0
 11
4957.2839296591828
 21
1441.028750425007
 31
0.0
  0
LINE
  5
B760
  8
1PHANTOM
 10
4953.2839296591828
 20
1453.0287597321869
 30
0.0
 11
4957.2839296591828
 21
1453.828750425007
 31
0.0
  0
LINE
  5
B761
  8
1PHANTOM
 10
4953.2839296591828
 20
1445.0287597321831
 30
0.0
 11
4957.2839296591828
 21
1445.828750425007
 31
0.0
  0
LINE
  5
B762
  8
1PHANTOM
 10
4953.2839296591828
 20
1446.628759732185
 30
0.0
 11
4957.2839296591828
 21
1447.4287504250051
 31
0.0
  0
LINE
  5
B763
  8
1PHANTOM
 10
4953.2839296591828
 20
1448.228759732184
 30
0.0
 11
4957.2839296591828
 21
1449.028750425007
 31
0.0
  0
LINE
  5
B764
  8
1PHANTOM
 10
4953.2839296591828
 20
1441.8287597321821
 30
0.0
 11
4957.2839296591828
 21
1442.628750425006
 31
0.0
  0
LINE
  5
B765
  8
1PHANTOM
 10
4953.2839296591828
 20
1443.428759732185
 30
0.0
 11
4957.2839296591828
 21
1444.228750425008
 31
0.0
  0
LINE
  5
B766
  8
1PHANTOM
 10
4953.2839296591828
 20
1449.8287597321821
 30
0.0
 11
4957.2839296591828
 21
1450.628750425006
 31
0.0
  0
LINE
  5
B767
  8
1PHANTOM
 10
4953.2839296591828
 20
1451.428759732185
 30
0.0
 11
4957.2839296591828
 21
1452.228750425008
 31
0.0
  0
LINE
  5
B768
  8
1PHANTOM
 10
4953.2839296591828
 20
1433.8287597321789
 30
0.0
 11
4957.2839296591828
 21
1434.628750424999
 31
0.0
  0
LINE
  5
B769
  8
1PHANTOM
 10
4953.2839296591828
 20
1435.428759732185
 30
0.0
 11
4957.2839296591828
 21
1436.228750425001
 31
0.0
  0
LINE
  5
B76A
  8
1PHANTOM
 10
4953.2839296591828
 20
1438.628759732185
 30
0.0
 11
4957.2839296591828
 21
1439.428750425001
 31
0.0
  0
LINE
  5
B76B
  8
1PHANTOM
 10
4953.2839296591828
 20
1437.0287597321831
 30
0.0
 11
4957.2839296591828
 21
1437.8287504250029
 31
0.0
  0
LINE
  5
B76C
  8
1PHANTOM
 10
4953.2839296591828
 20
1430.6287597321741
 30
0.0
 11
4957.2839296591828
 21
1431.428750424994
 31
0.0
  0
LINE
  5
B76D
  8
1PHANTOM
 10
4953.2839296591828
 20
1432.228759732177
 30
0.0
 11
4957.2839296591828
 21
1433.0287504249929
 31
0.0
  0
LINE
  5
B76E
  8
1PHANTOM
 10
4953.2839296591828
 20
1429.028759732176
 30
0.0
 11
4957.2839296591828
 21
1429.828750424992
 31
0.0
  0
LINE
  5
B76F
  8
1PHANTOM
 10
4953.2839296591828
 20
1427.42875973217
 30
0.0
 11
4957.2839296591828
 21
1428.22875042499
 31
0.0
  0
LINE
  5
B770
  8
1PHANTOM
 10
4955.2839296591828
 20
1479.328755078654
 30
0.0
 11
4953.7839296591828
 21
1474.028758568794
 31
0.0
  0
LINE
  5
B771
  8
1PHANTOM
 10
4955.2839296591828
 20
1479.328755078654
 30
0.0
 11
4956.7839296591828
 21
1474.0287515884111
 31
0.0
  0
LINE
  5
B772
  8
1PHANTOM
 10
4957.2839296591828
 20
1457.0287504250109
 30
0.0
 11
4956.7839296591828
 21
1457.1287515884101
 31
0.0
  0
LINE
  5
B773
  8
1PHANTOM
 10
4957.2839296591828
 20
1455.428750425013
 30
0.0
 11
4956.7839296591828
 21
1455.528751588407
 31
0.0
  0
LINE
  5
B774
  8
1PHANTOM
 10
4957.2839296591828
 20
1460.2287504250151
 30
0.0
 11
4956.7839296591828
 21
1460.3287515884099
 31
0.0
  0
LINE
  5
B775
  8
1PHANTOM
 10
4957.2839296591828
 20
1458.628750425009
 30
0.0
 11
4956.7839296591828
 21
1458.7287515884079
 31
0.0
  0
LINE
  5
B776
  8
1PHANTOM
 10
4953.7839296591828
 20
1454.528758568794
 30
0.0
 11
4953.2839296591828
 21
1454.628759732193
 31
0.0
  0
LINE
  5
B777
  8
1PHANTOM
 10
4953.7839296591828
 20
1457.7287585687941
 30
0.0
 11
4953.2839296591828
 21
1457.828759732193
 31
0.0
  0
LINE
  5
B778
  8
1PHANTOM
 10
4953.7839296591828
 20
1456.128758568796
 30
0.0
 11
4953.2839296591828
 21
1456.2287597321911
 31
0.0
  0
LINE
  5
B779
  8
1PHANTOM
 10
4953.7839296591828
 20
1459.3287585687931
 30
0.0
 11
4953.2839296591828
 21
1459.428759732192
 31
0.0
  0
LINE
  5
B77A
  8
1PHANTOM
 10
4953.2839296591828
 20
1456.2287597321911
 30
0.0
 11
4957.2839296591828
 21
1457.0287504250109
 31
0.0
  0
LINE
  5
B77B
  8
1PHANTOM
 10
4953.2839296591828
 20
1459.428759732192
 30
0.0
 11
4957.2839296591828
 21
1460.2287504250151
 31
0.0
  0
LINE
  5
B77C
  8
1PHANTOM
 10
4953.2839296591828
 20
1457.828759732193
 30
0.0
 11
4957.2839296591828
 21
1458.628750425009
 31
0.0
  0
LINE
  5
B77D
  8
1PHANTOM
 10
4953.2839296591828
 20
1454.628759732193
 30
0.0
 11
4957.2839296591828
 21
1455.428750425013
 31
0.0
  0
LINE
  5
B77E
  8
1PHANTOM
 10
4957.2839296591828
 20
1473.0287504250141
 30
0.0
 11
4956.7839296591828
 21
1473.128751588413
 31
0.0
  0
LINE
  5
B77F
  8
1PHANTOM
 10
4957.2839296591828
 20
1471.428750425016
 30
0.0
 11
4956.7839296591828
 21
1471.5287515884111
 31
0.0
  0
LINE
  5
B780
  8
1PHANTOM
 10
4957.2839296591828
 20
1469.8287504250141
 30
0.0
 11
4956.7839296591828
 21
1469.928751588413
 31
0.0
  0
LINE
  5
B781
  8
1PHANTOM
 10
4957.2839296591828
 20
1461.8287504250141
 30
0.0
 11
4956.7839296591828
 21
1461.928751588413
 31
0.0
  0
LINE
  5
B782
  8
1PHANTOM
 10
4957.2839296591828
 20
1463.428750425016
 30
0.0
 11
4956.7839296591828
 21
1463.5287515884111
 31
0.0
  0
LINE
  5
B783
  8
1PHANTOM
 10
4957.0575226069777
 20
1474.8287509518191
 30
0.0
 11
4956.5209288717069
 21
1474.958021649446
 31
0.0
  0
LINE
  5
B784
  8
1PHANTOM
 10
4957.2839296591828
 20
1466.628750425017
 30
0.0
 11
4956.7839296591828
 21
1466.728751588412
 31
0.0
  0
LINE
  5
B785
  8
1PHANTOM
 10
4957.2839296591828
 20
1468.2287504250151
 30
0.0
 11
4956.7839296591828
 21
1468.3287515884099
 31
0.0
  0
LINE
  5
B786
  8
1PHANTOM
 10
4957.2839296591828
 20
1465.0287504250141
 30
0.0
 11
4956.7839296591828
 21
1465.128751588413
 31
0.0
  0
LINE
  5
B787
  8
1PHANTOM
 10
4953.7839296591828
 20
1472.128758568796
 30
0.0
 11
4953.2839296591828
 21
1472.2287597321911
 31
0.0
  0
LINE
  5
B788
  8
1PHANTOM
 10
4953.7839296591828
 20
1470.528758568794
 30
0.0
 11
4953.2839296591828
 21
1470.628759732193
 31
0.0
  0
LINE
  5
B789
  8
1PHANTOM
 10
4953.7839296591828
 20
1468.928758568795
 30
0.0
 11
4953.2839296591828
 21
1469.028759732194
 31
0.0
  0
LINE
  5
B78A
  8
1PHANTOM
 10
4953.7839296591828
 20
1460.928758568795
 30
0.0
 11
4953.2839296591828
 21
1461.028759732194
 31
0.0
  0
LINE
  5
B78B
  8
1PHANTOM
 10
4953.7839296591828
 20
1462.528758568794
 30
0.0
 11
4953.2839296591828
 21
1462.628759732193
 31
0.0
  0
LINE
  5
B78C
  8
1PHANTOM
 10
4953.7839296591828
 20
1464.128758568796
 30
0.0
 11
4953.2839296591828
 21
1464.2287597321911
 31
0.0
  0
LINE
  5
B78D
  8
1PHANTOM
 10
4953.7839296591828
 20
1465.7287585687941
 30
0.0
 11
4953.2839296591828
 21
1465.828759732193
 31
0.0
  0
LINE
  5
B78E
  8
1PHANTOM
 10
4953.7839296591828
 20
1473.928758568795
 30
0.0
 11
4953.2839296591828
 21
1474.028759732194
 31
0.0
  0
LINE
  5
B78F
  8
1PHANTOM
 10
4953.7839296591828
 20
1467.328758568797
 30
0.0
 11
4953.2839296591828
 21
1467.428759732192
 31
0.0
  0
LINE
  5
B790
  8
1PHANTOM
 10
4954.1895593092886
 20
1477.2287576249789
 30
0.0
 11
4956.1518943981646
 21
1478.0287530590281
 31
0.0
  0
LINE
  5
B791
  8
1PHANTOM
 10
4954.6467311499209
 20
1477.077321828539
 30
0.0
 11
4954.1895593092886
 21
1477.2287576249789
 31
0.0
  0
LINE
  5
B792
  8
1PHANTOM
 10
4956.1518943981646
 20
1478.0287530590281
 30
0.0
 11
4955.5636178231234
 21
1478.3405229152811
 31
0.0
  0
LINE
  5
B793
  8
1PHANTOM
 10
4954.204844256391
 20
1475.5159891662331
 30
0.0
 11
4953.7367458012413
 21
1475.6287586785829
 31
0.0
  0
LINE
  5
B794
  8
1PHANTOM
 10
4953.2839296591828
 20
1472.2287597321911
 30
0.0
 11
4957.2839296591828
 21
1473.0287504250141
 31
0.0
  0
LINE
  5
B795
  8
1PHANTOM
 10
4953.2839296591828
 20
1470.628759732193
 30
0.0
 11
4957.2839296591828
 21
1471.428750425016
 31
0.0
  0
LINE
  5
B796
  8
1PHANTOM
 10
4953.2839296591828
 20
1469.028759732194
 30
0.0
 11
4957.2839296591828
 21
1469.8287504250141
 31
0.0
  0
LINE
  5
B797
  8
1PHANTOM
 10
4953.2839296591828
 20
1462.628759732193
 30
0.0
 11
4957.2839296591828
 21
1463.428750425016
 31
0.0
  0
LINE
  5
B798
  8
1PHANTOM
 10
4953.2839296591828
 20
1461.028759732194
 30
0.0
 11
4957.2839296591828
 21
1461.8287504250141
 31
0.0
  0
LINE
  5
B799
  8
1PHANTOM
 10
4953.2839296591828
 20
1474.028759732194
 30
0.0
 11
4957.0575226069777
 21
1474.8287509518191
 31
0.0
  0
LINE
  5
B79A
  8
1PHANTOM
 10
4953.2839296591828
 20
1467.428759732192
 30
0.0
 11
4957.2839296591828
 21
1468.2287504250151
 31
0.0
  0
LINE
  5
B79B
  8
1PHANTOM
 10
4953.2839296591828
 20
1465.828759732193
 30
0.0
 11
4957.2839296591828
 21
1466.628750425017
 31
0.0
  0
LINE
  5
B79C
  8
1PHANTOM
 10
4953.7367458012413
 20
1475.6287586785829
 30
0.0
 11
4956.6047085025721
 21
1476.4287520054229
 31
0.0
  0
LINE
  5
B79D
  8
1PHANTOM
 10
4956.6047085025721
 20
1476.4287520054229
 30
0.0
 11
4956.0529590387678
 21
1476.6115161480509
 31
0.0
  0
LINE
  5
B79E
  8
1PHANTOM
 10
4953.2839296591828
 20
1464.2287597321911
 30
0.0
 11
4957.2839296591828
 21
1465.0287504250141
 31
0.0
  0
LINE
  5
B79F
  8
1PHANTOM
 10
4951.7838831232848
 20
1427.128728320306
 30
0.0
 11
4958.7838831232848
 21
1427.1287283203039
 31
0.0
  0
LINE
  5
B7B2
  8
01
 10
4991.2838831232784
 20
1422.128728320303
 30
0.0
 11
5113.2838831232812
 21
1422.128728320303
 31
0.0
  0
LINE
  5
B807
  8
01
 10
4941.2838831232812
 20
1194.4958189563281
 30
0.0
 11
4941.2838831232812
 21
992.49581895632798
 31
0.0
  0
LINE
  5
B809
  8
01
 10
4991.2838831232757
 20
1194.495818956327
 30
0.0
 11
4991.2838831232757
 21
992.49581895632798
 31
0.0
  0
LINE
  5
B80A
  8
01
 10
4991.2838831232766
 20
564.49581895632923
 30
0.0
 11
4991.2838831232766
 21
554.99581895633241
 31
0.0
  0
LINE
  5
B80B
  8
01
 10
4941.2838831232821
 20
564.49581895632923
 30
0.0
 11
4941.2838831232812
 21
554.99581895632514
 31
0.0
  0
LINE
  5
B80C
  8
01
 10
4941.2838831232821
 20
774.49581895632923
 30
0.0
 11
4941.2838831232812
 21
572.49581895632775
 31
0.0
  0
LINE
  5
B80D
  8
01
 10
4991.2838831232757
 20
774.49581895632934
 30
0.0
 11
4991.2838831232757
 21
572.49581895632775
 31
0.0
  0
LINE
  5
B80E
  8
01
 10
4941.2838831232802
 20
984.49581895632775
 30
0.0
 11
4941.2838831232812
 21
782.49581895632923
 31
0.0
  0
LINE
  5
B80F
  8
01
 10
4991.2838831232757
 20
984.49581895632775
 30
0.0
 11
4991.2838831232757
 21
782.49581895632923
 31
0.0
  0
LINE
  5
B815
  8
1CENTER
 10
4955.2838831232812
 20
1194.995818956329
 30
0.0
 11
4955.2838831232812
 21
1200.995818956329
 31
0.0
  0
LINE
  5
B816
  8
1CENTER
 10
4952.2838831232812
 20
1197.995818956329
 30
0.0
 11
4958.2838831232812
 21
1197.995818956329
 31
0.0
  0
LINE
  5
B817
  8
1CENTER
 10
4977.2838831232812
 20
1194.995818956329
 30
0.0
 11
4977.2838831232812
 21
1200.995818956329
 31
0.0
  0
LINE
  5
B818
  8
1CENTER
 10
4974.2838831232802
 20
1197.995818956329
 30
0.0
 11
4980.2838831232812
 21
1197.995818956329
 31
0.0
  0
LINE
  5
B819
  8
1CENTER
 10
4955.2838831232812
 20
564.99581895632866
 30
0.0
 11
4955.2838831232812
 21
570.99581895632878
 31
0.0
  0
LINE
  5
B81A
  8
1CENTER
 10
4952.2838831232812
 20
567.99581895632866
 30
0.0
 11
4958.2838831232812
 21
567.99581895632866
 31
0.0
  0
LINE
  5
B81B
  8
1CENTER
 10
4977.2838831232812
 20
564.99581895632866
 30
0.0
 11
4977.2838831232812
 21
570.99581895632878
 31
0.0
  0
LINE
  5
B81C
  8
1CENTER
 10
4974.2838831232802
 20
567.99581895632866
 30
0.0
 11
4980.2838831232812
 21
567.99581895632866
 31
0.0
  0
LINE
  5
B842
  8
1DIM
 10
5512.5506351050217
 20
811.12109032947217
 30
0.0
 11
5932.5506351050226
 21
811.12109032947217
 31
0.0
  0
TEXT
  5
B843
  8
1TEXT
 10
5517.0839684383536
 20
817.12109032947217
 30
0.0
 40
16.0
  1
表面処理：脚部
 72
     1
 11
5582.1506351050211
 21
817.12109032947217
 31
0.0
  0
LINE
  5
B844
  8
1DIM
 10
5512.5506351050217
 20
839.12109032947228
 30
0.0
 11
5932.5506351050226
 21
839.12109032947228
 31
0.0
  0
TEXT
  5
B845
  8
1TEXT
 10
5834.9506351050213
 20
817.12109032947217
 30
0.0
 40
16.0
  1
コード
 72
     1
 11
5862.1506351050211
 21
817.12109032947217
 31
0.0
  0
TEXT
  5
B846
  8
1TEXT
 10
5658.1506351050211
 20
817.12109032947217
 30
0.0
 40
16.0
  1
表面処理：バー
 72
     1
 11
5722.1506351050211
 21
817.12109032947217
 31
0.0
  0
LINE
  5
B848
  8
1DIM
 10
5512.550635105019
 20
783.12109032947228
 30
0.0
 11
5932.5506351050226
 21
783.12109032947228
 31
0.0
  0
TEXT
  5
B84D
  8
1TEXT
 10
5676.283968438358
 20
788.2636623948747
 30
0.0
 40
16.0
  1
ヘアライン
 72
     1
 11
5722.1506351050248
 21
788.2636623948747
 31
0.0
  0
LINE
  5
B84F
  8
1DIM
 10
5652.5506351050217
 20
839.12109032947228
 30
0.0
 11
5652.5506351050262
 21
783.12109032947308
 31
0.0
  0
LINE
  5
B850
  8
1DIM
 10
5792.5506351050226
 20
839.12109032947228
 30
0.0
 11
5792.5506351050226
 21
783.12109032947308
 31
0.0
  0
LINE
  5
B851
  8
1DIM
 10
5932.5506351050226
 20
839.12109032947228
 30
0.0
 11
5932.5506351050271
 21
783.12109032947308
 31
0.0
  0
LINE
  5
B852
  8
1DIM
 10
5512.5506351050217
 20
839.12109032947228
 30
0.0
 11
5512.5506351050217
 21
783.12109032947308
 31
0.0
  0
TEXT
  5
B855
  8
1TEXT
 10
5803.4839684383569
 20
788.2636623948747
 30
0.0
 40
16.0
  1
DD-15-TC
 72
     1
 11
5862.1506351050248
 21
788.2636623948747
 31
0.0
  0
TEXT
  5
B861
  8
1TEXT
 10
5544.8173017716917
 20
788.2636623948747
 30
0.0
 40
16.0
  1
クローム
 72
     1
 11
5582.1506351050239
 21
788.2636623948747
 31
0.0
  0
TEXT
  5
BAA9
  8
1DIM
 10
5179.3829864927648
 20
914.9761338609726
 30
0.0
 40
10.5
  1
材質：ガラス
  0
TEXT
  5
BAAC
  8
1DIM
 10
5208.7736383294059
 20
1064.300345823578
 30
0.0
 40
10.5
  1
材質：ステンレス
  0
TEXT
  5
BAAD
  8
1DIM
 10
5196.1736383294074
 20
1046.800345823578
 30
0.0
 40
10.5
  1
仕上げ：ヘアライン
  0
LINE
  5
BAB0
  8
1DIM
 10
5113.2838831232812
 20
1312.128728320303
 30
0.0
 11
5159.2838831232812
 21
1312.128728320303
 31
0.0
  0
LINE
  5
BAB1
  8
1DIM
 10
5113.2838831232812
 20
1422.128728320303
 30
0.0
 11
5159.2838831232812
 21
1422.128728320303
 31
0.0
  0
LINE
  5
BAB2
  8
1DIM
 10
5156.2838831232812
 20
1318.128728320303
 30
0.0
 11
5156.2838831232812
 21
1416.128728320303
 31
0.0
  0
LINE
  5
BAB6
  8
1DIM
 10
4816.2838831232848
 20
1315.128728320303
 30
0.0
 11
4816.2838831232848
 21
1269.128728320303
 31
0.0
  0
LINE
  5
BAB7
  8
1DIM
 10
5116.2838831232812
 20
1315.128728320303
 30
0.0
 11
5116.2838831232812
 21
1269.128728320303
 31
0.0
  0
LINE
  5
BAB8
  8
1DIM
 10
4822.2838831232848
 20
1272.128728320303
 30
0.0
 11
5110.2838831232812
 21
1272.128728320303
 31
0.0
  0
LINE
  5
BABC
  8
1DIM
 10
4955.2838831232848
 20
1482.37524057669
 30
0.0
 11
4955.2838831232848
 21
1490.1287283203051
 31
0.0
  0
LINE
  5
BABD
  8
1DIM
 10
4977.2838831232812
 20
1482.37524057669
 30
0.0
 11
4977.2838831232812
 21
1490.1287283203051
 31
0.0
  0
LINE
  5
BABE
  8
1DIM
 10
4961.2838831232848
 20
1487.1287283203051
 30
0.0
 11
4971.2838831232812
 21
1487.1287283203051
 31
0.0
  0
LINE
  5
BAC2
  8
1DIM
 10
5351.2733004425254
 20
1207.495818956329
 30
0.0
 11
5461.2733004425254
 21
1207.495818956329
 31
0.0
  0
LINE
  5
BAC3
  8
1DIM
 10
5351.2733004425254
 20
554.49581895632923
 30
0.0
 11
5461.2733004425254
 21
554.49581895632912
 31
0.0
  0
LINE
  5
BAC4
  8
1DIM
 10
5458.2733004425263
 20
1201.495818956329
 30
0.0
 11
5458.2733004425263
 21
560.49581895632912
 31
0.0
  0
LINE
  5
BAC8
  8
1DIM
 10
5351.2733004425254
 20
1229.401763176827
 30
0.0
 11
5351.2733004425254
 21
1250.495818956329
 31
0.0
  0
LINE
  5
BAC9
  8
1DIM
 10
5299.2733004425254
 20
1207.4958189563281
 30
0.0
 11
5299.2733004425254
 21
1250.495818956329
 31
0.0
  0
LINE
  5
BACA
  8
1DIM
 10
5345.2733004425254
 20
1247.495818956329
 30
0.0
 11
5305.2733004425254
 21
1247.495818956329
 31
0.0
  0
LINE
  5
BACE
  8
1DIM
 10
5351.2733004425254
 20
1229.401763176827
 30
0.0
 11
5351.2733004425254
 21
1290.495818956329
 31
0.0
  0
LINE
  5
BACF
  8
1DIM
 10
5211.2733004425254
 20
1201.495818956329
 30
0.0
 11
5211.2733004425254
 21
1290.495818956329
 31
0.0
  0
LINE
  5
BAD0
  8
1DIM
 10
5345.2733004425254
 20
1287.495818956329
 30
0.0
 11
5217.2733004425254
 21
1287.495818956329
 31
0.0
  0
TEXT
  5
BAD4
  8
1DIM
 10
5366.1069272400291
 20
1267.3369003882019
 30
0.0
 40
10.5
  1
PB
  0
TEXT
  5
BAD7
  8
1DIM
 10
5378.5043701857139
 20
1249.102541969469
 30
0.0
 40
10.5
  1
合板9mm以上
  0
TEXT
  5
BADA
  8
1TEXT
 10
5161.4395804229644
 20
1144.613191372559
 30
0.0
 40
10.5
  1
材質：亜鉛ダイキャスト
  0
TEXT
  5
BADB
  8
1TEXT
 10
5185.9395804229644
 20
1127.113191372559
 30
0.0
 40
10.5
  1
仕上げ：各種メッキ
  0
LINE
  5
BADE
  8
1DIM
 10
4941.2838831232848
 20
1207.495818956329
 30
0.0
 11
4941.2838831232848
 21
1250.495818956329
 31
0.0
  0
LINE
  5
BADF
  8
1DIM
 10
4991.2838831232812
 20
1207.495818956329
 30
0.0
 11
4991.2838831232812
 21
1250.495818956329
 31
0.0
  0
LINE
  5
BAE0
  8
1DIM
 10
4947.2838831232848
 20
1247.495818956329
 30
0.0
 11
4985.2838831232812
 21
1247.495818956329
 31
0.0
  0
LINE
  5
BAE4
  8
1DIM
 10
5386.7377758698522
 20
567.99581895633014
 30
0.0
 11
5421.2733004425254
 21
567.99581895633014
 31
0.0
  0
LINE
  5
BAE5
  8
1DIM
 10
5381.5198126989108
 20
1197.995818956329
 30
0.0
 11
5421.2733004425254
 21
1197.995818956329
 31
0.0
  0
LINE
  5
BAE6
  8
1DIM
 10
5418.2733004425254
 20
573.99581895633014
 30
0.0
 11
5418.2733004425254
 21
1191.9958189563281
 31
0.0
  0
TEXT
  5
BAEA
  8
1DIM
 10
5416.173300442525
 20
869.87081895633025
 30
0.0
 40
10.5
  1
630
 50
90.0
  0
LINE
  5
BAEB
  8
0
  6
BYBLOCK
 10
5416.6656053025263
 20
1191.9958189563281
 30
0.0
 11
5418.2733004425254
 21
1197.995818956329
 31
0.0
  0
LINE
  5
BAEC
  8
0
  6
BYBLOCK
 10
5418.2733004425254
 20
1197.995818956329
 30
0.0
 11
5419.8809955825254
 21
1191.9958189563281
 31
0.0
  0
LINE
  5
BAED
  8
0
  6
BYBLOCK
 10
5418.2733004425254
 20
1197.995818956329
 30
0.0
 11
5418.2733004425254
 21
1191.9958189563281
 31
0.0
  0
LINE
  5
BAEE
  8
0
  6
BYBLOCK
 10
5419.8809955825254
 20
573.99581895633014
 30
0.0
 11
5418.2733004425254
 21
567.99581895633014
 31
0.0
  0
LINE
  5
BAEF
  8
0
  6
BYBLOCK
 10
5418.2733004425254
 20
567.99581895633014
 30
0.0
 11
5416.6656053025263
 21
573.99581895633014
 31
0.0
  0
LINE
  5
BAF0
  8
0
  6
BYBLOCK
 10
5418.2733004425254
 20
567.99581895633014
 30
0.0
 11
5418.2733004425254
 21
573.99581895633014
 31
0.0
  0
TEXT
  5
BAF1
  8
1DIM
 10
4958.408883123283
 20
1249.595818956328
 30
0.0
 40
10.5
  1
50
  0
LINE
  5
BAF2
  8
0
  6
BYBLOCK
 10
4985.2838831232812
 20
1249.103514096329
 30
0.0
 11
4991.2838831232812
 21
1247.495818956329
 31
0.0
  0
LINE
  5
BAF3
  8
0
  6
BYBLOCK
 10
4991.2838831232812
 20
1247.495818956329
 30
0.0
 11
4985.2838831232812
 21
1245.888123816329
 31
0.0
  0
LINE
  5
BAF4
  8
0
  6
BYBLOCK
 10
4991.2838831232812
 20
1247.495818956329
 30
0.0
 11
4985.2838831232812
 21
1247.495818956329
 31
0.0
  0
LINE
  5
BAF5
  8
0
  6
BYBLOCK
 10
4947.2838831232848
 20
1245.888123816329
 30
0.0
 11
4941.2838831232848
 21
1247.495818956329
 31
0.0
  0
LINE
  5
BAF6
  8
0
  6
BYBLOCK
 10
4941.2838831232848
 20
1247.495818956329
 30
0.0
 11
4947.2838831232848
 21
1249.103514096329
 31
0.0
  0
LINE
  5
BAF7
  8
0
  6
BYBLOCK
 10
4941.2838831232848
 20
1247.495818956329
 30
0.0
 11
4947.2838831232848
 21
1247.495818956329
 31
0.0
  0
LINE
  5
BAF8
  8
1DIM
 10
5312.1836310187909
 20
1178.556510479078
 30
0.0
 11
5303.2395804229636
 21
1125.013191372559
 31
0.0
1001
ACAD
1000
DSTYLE
1002
{
1070
    40
1040
3.0
1002
}
  0
LINE
  5
BAF9
  8
1DIM
 10
5303.2395804229636
 20
1125.013191372559
 30
0.0
 11
5295.1395804229633
 21
1125.013191372559
 31
0.0
1001
ACAD
1000
DSTYLE
1002
{
1070
    40
1040
3.0
1002
}
  0
LINE
  5
BAFA
  8
0
  6
BYBLOCK
 10
5310.5979072467298
 20
1178.821394948046
 30
0.0
 11
5313.172193324086
 21
1184.4745122168731
 31
0.0
  0
LINE
  5
BAFB
  8
0
  6
BYBLOCK
 10
5313.172193324086
 20
1184.4745122168731
 30
0.0
 11
5313.769354790853
 21
1178.291626010109
 31
0.0
  0
LINE
  5
BAFC
  8
0
  6
BYBLOCK
 10
5313.172193324086
 20
1184.4745122168731
 30
0.0
 11
5312.1836310187909
 21
1178.556510479078
 31
0.0
  0
LINE
  5
BAFD
  8
1DIM
 10
5370.571523934057
 20
1231.4747507721149
 30
0.0
 11
5370.4043701857127
 21
1247.0025419694689
 31
0.0
1001
ACAD
1000
DSTYLE
1002
{
1070
    40
1040
3.0
1002
}
  0
LINE
  5
BAFE
  8
1DIM
 10
5370.4043701857127
 20
1247.0025419694689
 30
0.0
 11
5378.5043701857139
 21
1247.0025419694689
 31
0.0
1001
ACAD
1000
DSTYLE
1002
{
1070
    40
1040
3.0
1002
}
  0
LINE
  5
BAFF
  8
0
  6
BYBLOCK
 10
5372.1791259313541
 20
1231.4920563049029
 30
0.0
 11
5370.6361090622604
 21
1225.475098385416
 31
0.0
  0
LINE
  5
BB00
  8
0
  6
BYBLOCK
 10
5370.6361090622604
 20
1225.475098385416
 30
0.0
 11
5368.96392193676
 21
1231.4574452393269
 31
0.0
  0
LINE
  5
BB01
  8
0
  6
BYBLOCK
 10
5370.6361090622604
 20
1225.475098385416
 30
0.0
 11
5370.571523934057
 21
1231.4747507721149
 31
0.0
  0
LINE
  5
BB02
  8
1DIM
 10
5357.4710634537832
 20
1230.7888245715831
 30
0.0
 11
5358.0069272400278
 21
1265.2369003882029
 31
0.0
1001
ACAD
1000
DSTYLE
1002
{
1070
    40
1040
3.0
1002
}
  0
LINE
  5
BB03
  8
1DIM
 10
5358.0069272400278
 20
1265.2369003882029
 30
0.0
 11
5366.1069272400291
 21
1265.2369003882029
 31
0.0
1001
ACAD
1000
DSTYLE
1002
{
1070
    40
1040
3.0
1002
}
  0
LINE
  5
BB04
  8
0
  6
BYBLOCK
 10
5359.0785641143084
 20
1230.763818780405
 30
0.0
 11
5357.3777405697783
 21
1224.7895503788729
 31
0.0
  0
LINE
  5
BB05
  8
0
  6
BYBLOCK
 10
5357.3777405697783
 20
1224.7895503788729
 30
0.0
 11
5355.8635627932581
 21
1230.81383036276
 31
0.0
  0
LINE
  5
BB06
  8
0
  6
BYBLOCK
 10
5357.3777405697783
 20
1224.7895503788729
 30
0.0
 11
5357.4710634537832
 21
1230.7888245715831
 31
0.0
  0
TEXT
  5
BB07
  8
1DIM
 10
5269.8983004425263
 20
1289.5958189563289
 30
0.0
 40
10.5
  1
140
  0
LINE
  5
BB08
  8
0
  6
BYBLOCK
 10
5217.2733004425254
 20
1285.888123816329
 30
0.0
 11
5211.2733004425254
 21
1287.495818956329
 31
0.0
  0
LINE
  5
BB09
  8
0
  6
BYBLOCK
 10
5211.2733004425254
 20
1287.495818956329
 30
0.0
 11
5217.2733004425254
 21
1289.103514096329
 31
0.0
  0
LINE
  5
BB0A
  8
0
  6
BYBLOCK
 10
5211.2733004425254
 20
1287.495818956329
 30
0.0
 11
5217.2733004425254
 21
1287.495818956329
 31
0.0
  0
LINE
  5
BB0B
  8
0
  6
BYBLOCK
 10
5345.2733004425254
 20
1289.103514096329
 30
0.0
 11
5351.2733004425254
 21
1287.495818956329
 31
0.0
  0
LINE
  5
BB0C
  8
0
  6
BYBLOCK
 10
5351.2733004425254
 20
1287.495818956329
 30
0.0
 11
5345.2733004425254
 21
1285.888123816329
 31
0.0
  0
LINE
  5
BB0D
  8
0
  6
BYBLOCK
 10
5351.2733004425254
 20
1287.495818956329
 30
0.0
 11
5345.2733004425254
 21
1287.495818956329
 31
0.0
  0
TEXT
  5
BB0E
  8
1DIM
 10
5316.5233004425263
 20
1249.595818956328
 30
0.0
 40
10.5
  1
52
  0
LINE
  5
BB0F
  8
0
  6
BYBLOCK
 10
5305.2733004425254
 20
1245.888123816329
 30
0.0
 11
5299.2733004425254
 21
1247.495818956329
 31
0.0
  0
LINE
  5
BB10
  8
0
  6
BYBLOCK
 10
5299.2733004425254
 20
1247.495818956329
 30
0.0
 11
5305.2733004425254
 21
1249.103514096329
 31
0.0
  0
LINE
  5
BB11
  8
0
  6
BYBLOCK
 10
5299.2733004425254
 20
1247.495818956329
 30
0.0
 11
5305.2733004425254
 21
1247.495818956329
 31
0.0
  0
LINE
  5
BB12
  8
0
  6
BYBLOCK
 10
5345.2733004425254
 20
1249.103514096329
 30
0.0
 11
5351.2733004425254
 21
1247.495818956329
 31
0.0
  0
LINE
  5
BB13
  8
0
  6
BYBLOCK
 10
5351.2733004425254
 20
1247.495818956329
 30
0.0
 11
5345.2733004425254
 21
1245.888123816329
 31
0.0
  0
LINE
  5
BB14
  8
0
  6
BYBLOCK
 10
5351.2733004425254
 20
1247.495818956329
 30
0.0
 11
5345.2733004425254
 21
1247.495818956329
 31
0.0
  0
TEXT
  5
BB15
  8
1DIM
 10
5456.173300442525
 20
866.99581895632969
 30
0.0
 40
10.5
  1
653
 50
90.0
  0
LINE
  5
BB16
  8
0
  6
BYBLOCK
 10
5459.8809955825254
 20
560.49581895632912
 30
0.0
 11
5458.2733004425263
 21
554.49581895632912
 31
0.0
  0
LINE
  5
BB17
  8
0
  6
BYBLOCK
 10
5458.2733004425263
 20
554.49581895632912
 30
0.0
 11
5456.6656053025254
 21
560.49581895632912
 31
0.0
  0
LINE
  5
BB18
  8
0
  6
BYBLOCK
 10
5458.2733004425263
 20
554.49581895632912
 30
0.0
 11
5458.2733004425263
 21
560.49581895632912
 31
0.0
  0
LINE
  5
BB19
  8
0
  6
BYBLOCK
 10
5456.6656053025254
 20
1201.495818956329
 30
0.0
 11
5458.2733004425263
 21
1207.495818956329
 31
0.0
  0
LINE
  5
BB1A
  8
0
  6
BYBLOCK
 10
5458.2733004425263
 20
1207.495818956329
 30
0.0
 11
5459.8809955825254
 21
1201.495818956329
 31
0.0
  0
LINE
  5
BB1B
  8
0
  6
BYBLOCK
 10
5458.2733004425263
 20
1207.495818956329
 30
0.0
 11
5458.2733004425263
 21
1201.495818956329
 31
0.0
  0
TEXT
  5
BB1C
  8
1DIM
 10
4957.533883123283
 20
1489.228728320305
 30
0.0
 40
10.5
  1
22
  0
LINE
  5
BB1D
  8
0
  6
BYBLOCK
 10
4971.2838831232812
 20
1488.7364234603051
 30
0.0
 11
4977.2838831232812
 21
1487.1287283203051
 31
0.0
  0
LINE
  5
BB1E
  8
0
  6
BYBLOCK
 10
4977.2838831232812
 20
1487.1287283203051
 30
0.0
 11
4971.2838831232812
 21
1485.521033180305
 31
0.0
  0
LINE
  5
BB1F
  8
0
  6
BYBLOCK
 10
4977.2838831232812
 20
1487.1287283203051
 30
0.0
 11
4971.2838831232812
 21
1487.1287283203051
 31
0.0
  0
LINE
  5
BB20
  8
0
  6
BYBLOCK
 10
4961.2838831232848
 20
1485.521033180305
 30
0.0
 11
4955.2838831232848
 21
1487.1287283203051
 31
0.0
  0
LINE
  5
BB21
  8
0
  6
BYBLOCK
 10
4955.2838831232848
 20
1487.1287283203051
 30
0.0
 11
4961.2838831232848
 21
1488.7364234603051
 31
0.0
  0
LINE
  5
BB22
  8
0
  6
BYBLOCK
 10
4955.2838831232848
 20
1487.1287283203051
 30
0.0
 11
4961.2838831232848
 21
1487.1287283203051
 31
0.0
  0
TEXT
  5
BB23
  8
1DIM
 10
4954.033883123283
 20
1274.2287283203029
 30
0.0
 40
10.5
  1
300
  0
LINE
  5
BB24
  8
0
  6
BYBLOCK
 10
5110.2838831232812
 20
1273.7364234603031
 30
0.0
 11
5116.2838831232812
 21
1272.128728320303
 31
0.0
  0
LINE
  5
BB25
  8
0
  6
BYBLOCK
 10
5116.2838831232812
 20
1272.128728320303
 30
0.0
 11
5110.2838831232812
 21
1270.521033180303
 31
0.0
  0
LINE
  5
BB26
  8
0
  6
BYBLOCK
 10
5116.2838831232812
 20
1272.128728320303
 30
0.0
 11
5110.2838831232812
 21
1272.128728320303
 31
0.0
  0
LINE
  5
BB27
  8
0
  6
BYBLOCK
 10
4822.2838831232848
 20
1270.521033180303
 30
0.0
 11
4816.2838831232848
 21
1272.128728320303
 31
0.0
  0
LINE
  5
BB28
  8
0
  6
BYBLOCK
 10
4816.2838831232848
 20
1272.128728320303
 30
0.0
 11
4822.2838831232848
 21
1273.7364234603031
 31
0.0
  0
LINE
  5
BB29
  8
0
  6
BYBLOCK
 10
4816.2838831232848
 20
1272.128728320303
 30
0.0
 11
4822.2838831232848
 21
1272.128728320303
 31
0.0
  0
TEXT
  5
BB2A
  8
1DIM
 10
5154.1838831232799
 20
1357.5037283203039
 30
0.0
 40
10.5
  1
110
 50
90.0
  0
LINE
  5
BB2B
  8
0
  6
BYBLOCK
 10
5154.6761879832811
 20
1416.128728320303
 30
0.0
 11
5156.2838831232812
 21
1422.128728320303
 31
0.0
  0
LINE
  5
BB2C
  8
0
  6
BYBLOCK
 10
5156.2838831232812
 20
1422.128728320303
 30
0.0
 11
5157.8915782632812
 21
1416.128728320303
 31
0.0
  0
LINE
  5
BB2D
  8
0
  6
BYBLOCK
 10
5156.2838831232812
 20
1422.128728320303
 30
0.0
 11
5156.2838831232812
 21
1416.128728320303
 31
0.0
  0
LINE
  5
BB2E
  8
0
  6
BYBLOCK
 10
5157.8915782632812
 20
1318.128728320303
 30
0.0
 11
5156.2838831232812
 21
1312.128728320303
 31
0.0
  0
LINE
  5
BB2F
  8
0
  6
BYBLOCK
 10
5156.2838831232812
 20
1312.128728320303
 30
0.0
 11
5154.6761879832811
 21
1318.128728320303
 31
0.0
  0
LINE
  5
BB30
  8
0
  6
BYBLOCK
 10
5156.2838831232812
 20
1312.128728320303
 30
0.0
 11
5156.2838831232812
 21
1318.128728320303
 31
0.0
  0
LINE
  5
BB31
  8
1DIM
 10
5325.6311137061984
 20
1110.6254281535871
 30
0.0
 11
5313.4736383294066
 21
1044.7003458235779
 31
0.0
1001
ACAD
1000
DSTYLE
1002
{
1070
    40
1040
3.0
1002
}
  0
LINE
  5
BB32
  8
1DIM
 10
5313.4736383294066
 20
1044.7003458235779
 30
0.0
 11
5305.3736383294063
 21
1044.7003458235779
 31
0.0
1001
ACAD
1000
DSTYLE
1002
{
1070
    40
1040
3.0
1002
}
  0
LINE
  5
BB33
  8
0
  6
BYBLOCK
 10
5324.0500780004477
 20
1110.9169924866619
 30
0.0
 11
5326.7192466207835
 21
1116.5259337895629
 31
0.0
  0
LINE
  5
BB34
  8
0
  6
BYBLOCK
 10
5326.7192466207835
 20
1116.5259337895629
 30
0.0
 11
5327.2121494119492
 21
1110.3338638205109
 31
0.0
  0
LINE
  5
BB35
  8
0
  6
BYBLOCK
 10
5326.7192466207835
 20
1116.5259337895629
 30
0.0
 11
5325.6311137061984
 21
1110.6254281535871
 31
0.0
  0
LINE
  5
BB36
  8
1DIM
 10
5271.0404618695557
 20
978.80121619098099
 30
0.0
 11
5258.8829864927638
 21
912.87613386097246
 31
0.0
1001
ACAD
1000
DSTYLE
1002
{
1070
    40
1040
3.0
1002
}
  0
LINE
  5
BB37
  8
1DIM
 10
5258.8829864927638
 20
912.87613386097246
 30
0.0
 11
5250.7829864927644
 21
912.87613386097246
 31
0.0
1001
ACAD
1000
DSTYLE
1002
{
1070
    40
1040
3.0
1002
}
  0
LINE
  5
BB38
  8
0
  6
BYBLOCK
 10
5269.4594261638049
 20
979.09278052405625
 30
0.0
 11
5272.1285947841416
 21
984.70172182695785
 31
0.0
  0
LINE
  5
BB39
  8
0
  6
BYBLOCK
 10
5272.1285947841416
 20
984.70172182695785
 30
0.0
 11
5272.6214975753082
 21
978.5096518579054
 31
0.0
  0
LINE
  5
BB3A
  8
0
  6
BYBLOCK
 10
5272.1285947841416
 20
984.70172182695785
 30
0.0
 11
5271.0404618695557
 21
978.80121619098099
 31
0.0
  0
VIEWPORT
  5
57
 67
     1
  8
0
 10
-7.1362985426016223
 20
10.09248672500371
 30
0.0
 40
422.02004915034581
 41
282.7160860237272
 68
     1
 69
     1
1001
ACAD
1000
MVIEW
1002
{
1070
    16
1010
0.0
1020
0.0
1030
0.0
1010
0.0
1020
0.0
1030
1.0
1040
0.0
1040
282.7160860237272
1040
-7.1362985426016223
1040
10.09248672500371
1040
50.0
1040
0.0
1040
0.0
1070
     0
1070
  1000
1070
     1
1070
     1
1070
     0
1070
     0
1070
     0
1070
     0
1040
0.0
1040
0.0
1040
0.0
1040
10.0
1040
10.0
1040
10.0
1040
10.0
1070
     0
1002
{
1002
}
1002
}
  0
ENDSEC
  0
EOF
