  0
SECTION
  2
HEADER
  9
$ACADVER
  1
AC1009
  9
$INSBASE
 10
0.0
 20
0.0
 30
0.0
  9
$EXTMIN
 10
8802.9689941991146
 20
-400.32483250724039
 30
0.0
  9
$EXTMAX
 10
10584.88391233975
 20
856.61158691598644
 30
0.0
  9
$LIMMIN
 10
0.0
 20
0.0
  9
$LIMMAX
 10
420.0
 20
297.0
  9
$ORTHOMODE
 70
     0
  9
$REGENMODE
 70
     1
  9
$FILLMODE
 70
     1
  9
$QTEXTMODE
 70
     0
  9
$MIRRTEXT
 70
     1
  9
$DRAGMODE
 70
     2
  9
$LTSCALE
 40
0.5
  9
$OSMODE
 70
  2175
  9
$ATTMODE
 70
     1
  9
$TEXTSIZE
 40
4.0
  9
$TRACEWID
 40
1.0
  9
$TEXTSTYLE
  7
STANDARD
  9
$CLAYER
  8
1TEXT
  9
$CELTYPE
  6
BYLAYER
  9
$CECOLOR
 62
   256
  9
$DIMSCALE
 40
5.0
  9
$DIMASZ
 40
2.0
  9
$DIMEXO
 40
0.0
  9
$DIMDLI
 40
7.0
  9
$DIMRND
 40
0.0
  9
$DIMDLE
 40
0.0
  9
$DIMEXE
 40
1.0
  9
$DIMTP
 40
0.0
  9
$DIMTM
 40
0.0
  9
$DIMTXT
 40
3.5
  9
$DIMCEN
 40
0.0
  9
$DIMTSZ
 40
0.0
  9
$DIMTOL
 70
     0
  9
$DIMLIM
 70
     0
  9
$DIMTIH
 70
     0
  9
$DIMTOH
 70
     0
  9
$DIMSE1
 70
     0
  9
$DIMSE2
 70
     0
  9
$DIMTAD
 70
     1
  9
$DIMZIN
 70
     8
  9
$DIMBLK
  1

  9
$DIMASO
 70
     1
  9
$DIMSHO
 70
     1
  9
$DIMPOST
  1
 
  9
$DIMAPOST
  1

  9
$DIMALT
 70
     0
  9
$DIMALTD
 70
     2
  9
$DIMALTF
 40
25.399999999999999
  9
$DIMLFAC
 40
1.0
  9
$DIMTOFL
 70
     1
  9
$DIMTVP
 40
0.0
  9
$DIMTIX
 70
     0
  9
$DIMSOXD
 70
     0
  9
$DIMSAH
 70
     1
  9
$DIMBLK1
  1
OPEN30
  9
$DIMBLK2
  1
OPEN30
  9
$DIMSTYLE
  2
NEWX10
  9
$DIMCLRD
 70
   256
  9
$DIMCLRE
 70
   256
  9
$DIMCLRT
 70
   201
  9
$DIMTFAC
 40
0.7
  9
$DIMGAP
 40
0.7
  9
$LUNITS
 70
     2
  9
$LUPREC
 70
     4
  9
$SKETCHINC
 40
1.0
  9
$FILLETRAD
 40
0.0
  9
$AUNITS
 70
     0
  9
$AUPREC
 70
     2
  9
$MENU
  1
acad
  9
$ELEVATION
 40
0.0
  9
$PELEVATION
 40
0.0
  9
$THICKNESS
 40
0.0
  9
$LIMCHECK
 70
     0
  9
$BLIPMODE
 70
     0
  9
$CHAMFERA
 40
10.0
  9
$CHAMFERB
 40
10.0
  9
$SKPOLY
 70
     0
  9
$TDCREATE
 40
2451318.621352917
  9
$TDUPDATE
 40
2455600.5850967481
  9
$TDINDWG
 40
0.5147534491
  9
$TDUSRTIMER
 40
0.5147534491
  9
$USRTIMER
 70
     1
  9
$ANGBASE
 50
0.0
  9
$ANGDIR
 70
     0
  9
$PDMODE
 70
     0
  9
$PDSIZE
 40
0.0
  9
$PLINEWID
 40
0.0
  9
$COORDS
 70
     2
  9
$SPLFRAME
 70
     0
  9
$SPLINETYPE
 70
     6
  9
$SPLINESEGS
 70
     8
  9
$ATTDIA
 70
     0
  9
$ATTREQ
 70
     1
  9
$HANDLING
 70
     1
  9
$HANDSEED
  5
DEB4
  9
$SURFTAB1
 70
     6
  9
$SURFTAB2
 70
     6
  9
$SURFTYPE
 70
     6
  9
$SURFU
 70
     6
  9
$SURFV
 70
     6
  9
$UCSNAME
  2

  9
$UCSORG
 10
0.0
 20
0.0
 30
0.0
  9
$UCSXDIR
 10
1.0
 20
0.0
 30
0.0
  9
$UCSYDIR
 10
0.0
 20
1.0
 30
0.0
  9
$PUCSNAME
  2

  9
$PUCSORG
 10
0.0
 20
0.0
 30
0.0
  9
$PUCSXDIR
 10
1.0
 20
0.0
 30
0.0
  9
$PUCSYDIR
 10
0.0
 20
1.0
 30
0.0
  9
$USERI1
 70
     0
  9
$USERI2
 70
     0
  9
$USERI3
 70
     0
  9
$USERI4
 70
     0
  9
$USERI5
 70
     0
  9
$USERR1
 40
0.0
  9
$USERR2
 40
0.0
  9
$USERR3
 40
0.0
  9
$USERR4
 40
0.0
  9
$USERR5
 40
0.0
  9
$WORLDVIEW
 70
     1
  9
$SHADEDGE
 70
     3
  9
$SHADEDIF
 70
    70
  9
$TILEMODE
 70
     1
  9
$MAXACTVP
 70
    48
  9
$PLIMCHECK
 70
     0
  9
$PEXTMIN
 10
1.0000000000000000E+020
 20
1.0000000000000000E+020
 30
1.0000000000000000E+020
  9
$PEXTMAX
 10
-1.0000000000000000E+020
 20
-1.0000000000000000E+020
 30
-1.0000000000000000E+020
  9
$PLIMMIN
 10
0.0
 20
0.0
  9
$PLIMMAX
 10
420.0
 20
297.0
  9
$UNITMODE
 70
     0
  9
$VISRETAIN
 70
     1
  9
$PLINEGEN
 70
     0
  9
$PSLTSCALE
 70
     1
  0
ENDSEC
  0
SECTION
  2
TABLES
  0
TABLE
  2
VPORT
 70
     1
  0
VPORT
  2
*ACTIVE
 70
     0
 10
0.0
 20
0.0
 11
1.0
 21
1.0
 12
9694.0616884083538
 22
228.1433801309058
 13
0.0
 23
0.0
 14
10.0
 24
10.0
 15
10.0
 25
10.0
 16
0.0
 26
0.0
 36
1.0
 17
0.0
 27
0.0
 37
0.0
 40
1333.1705016402721
 41
1.4438839848675911
 42
50.0
 43
0.0
 44
0.0
 50
0.0
 51
0.0
 71
     0
 72
  1000
 73
     1
 74
     1
 75
     0
 76
     0
 77
     0
 78
     0
  0
ENDTAB
  0
TABLE
  2
LTYPE
 70
    15
  0
LTYPE
  2
CONTINUOUS
 70
     0
  3
Solid line
 72
    65
 73
     0
 40
0.0
  0
LTYPE
  2
XREF1|CENTER2
 70
    48
  3
Center (.5x) ___ _ ___ _ ___ _ ___ _ ___ _ ___
 72
    65
 73
     4
 40
28.574999999999999
 49
19.050000000000001
 49
-3.1749999999999989
 49
3.1749999999999989
 49
-3.1749999999999989
  0
LTYPE
  2
PHANTOM2
 70
     0
  3
Phantom (.5x) ___ _ _ ___ _ _ ___ _ _ ___ _ _
 72
    65
 73
     6
 40
31.75
 49
15.875
 49
-3.1749999999999989
 49
3.1749999999999989
 49
-3.1749999999999989
 49
3.1749999999999989
 49
-3.1749999999999989
  0
LTYPE
  2
A3WAKUDAKE|CENTER2
 70
    48
  3
Center (.5x) ___ _ ___ _ ___ _ ___ _ ___ _ ___
 72
    65
 73
     4
 40
28.574999999999999
 49
19.050000000000001
 49
-3.1749999999999989
 49
3.1749999999999989
 49
-3.1749999999999989
  0
LTYPE
  2
CENTER2
 70
     0
  3
Center (.5x) ___ _ ___ _ ___ _ ___ _ ___ _ ___
 72
    65
 73
     4
 40
28.574999999999999
 49
19.050000000000001
 49
-3.1749999999999989
 49
3.1749999999999989
 49
-3.1749999999999989
  0
LTYPE
  2
HIDDEN
 70
     0
  3
Hidden __ __ __ __ __ __ __ __ __ __ __ __ __ _
 72
    65
 73
     2
 40
9.5249999999999986
 49
6.3499999999999988
 49
-3.1749999999999989
  0
ENDTAB
  0
TABLE
  2
LAYER
 70
    43
  0
LAYER
  2
0
 70
     0
 62
     7
  6
CONTINUOUS
  0
LAYER
  2
1CENTER
 70
     0
 62
     7
  6
CENTER2
  0
LAYER
  2
1TEXT
 70
     0
 62
     7
  6
CONTINUOUS
  0
LAYER
  2
1DIM
 70
     0
 62
     7
  6
CONTINUOUS
  0
LAYER
  2
1HATCH
 70
     0
 62
     7
  6
CONTINUOUS
  0
LAYER
  2
1PHANTOM
 70
     0
 62
     7
  6
PHANTOM2
  0
LAYER
  2
A3WAKUDAKE|THICK
 70
    48
 62
     7
  6
CONTINUOUS
  0
LAYER
  2
A3WAKUDAKE|POINT
 70
    48
 62
     7
  6
CONTINUOUS
  0
LAYER
  2
A3WAKUDAKE|1CENTER
 70
    48
 62
     7
  6
A3WAKUDAKE|CENTER2
  0
LAYER
  2
A3WAKUDAKE|0-6
 70
    48
 62
     7
  6
CONTINUOUS
  0
LAYER
  2
01
 70
     0
 62
     1
  6
CONTINUOUS
  0
LAYER
  2
1HIDDEN
 70
     0
 62
     7
  6
HIDDEN
  0
LAYER
  2
A3WAKUDAKE|1DIM
 70
    48
 62
     7
  6
CONTINUOUS
  0
LAYER
  2
XREF1|1CENTER
 70
    48
 62
     7
  6
XREF1|CENTER2
  0
ENDTAB
  0
TABLE
  2
STYLE
 70
    21
  0
STYLE
  2
STANDARD
 70
     0
 40
0.0
 41
1.0
 50
0.0
 71
     0
 42
4.0
  3
txt.shx
  4
extfont.shx
  0
ENDTAB
  0
TABLE
  2
VIEW
 70
     0
  0
ENDTAB
  0
TABLE
  2
UCS
 70
     0
  0
ENDTAB
  0
TABLE
  2
APPID
 70
    14
  0
APPID
  2
ACAD
 70
     0
  0
APPID
  2
DRAWINGVARIABLESXDATA
 70
     0
  0
APPID
  2
CONTENTTABDATA
 70
     0
  0
APPID
  2
CONTENTCURRENTTAB
 70
     0
  0
APPID
  2
CONTENTBLOCKDESCRIPTION
 70
     0
  0
APPID
  2
CONTENTBLOCKICON
 70
     0
  0
APPID
  2
CONTENTLONGBLOCKNAME
 70
     0
  0
APPID
  2
ACAD_PSEXT
 70
     0
  0
APPID
  2
ACAECLAYERSTANDARD
 70
     0
  0
APPID
  2
ACAD_MLEADERVER
 70
     0
  0
APPID
  2
ACAD_DSTYLE_DIMRADIAL_EXTENSION
 70
     0
  0
APPID
  2
ACAD_DIMASSOC_CALC_DIMLFAC
 70
     0
  0
APPID
  2
ACAD_DIMASSOC_DIMLFAC
 70
     0
  0
APPID
  2
ACAD_DIMASSOC_OVERRIDDEN_D
 70
     0
  0
ENDTAB
  0
TABLE
  2
DIMSTYLE
 70
     7
  0
DIMSTYLE
  2
NEWX10
 70
     0
  3
 
  4

  5

  6
OPEN30
  7
OPEN30
 40
1.0
 41
2.0
 42
0.0
 43
7.0
 44
1.0
 45
0.0
 46
0.0
 47
0.0
 48
0.0
140
3.5
141
0.0
142
0.0
143
25.399999999999999
144
1.0
145
0.0
146
0.7
147
0.7
 71
     0
 72
     0
 73
     0
 74
     0
 75
     0
 76
     0
 77
     1
 78
     8
170
     0
171
     2
172
     1
173
     1
174
     0
175
     0
176
   256
177
   256
178
   201
  0
ENDTAB
  0
ENDSEC
  0
SECTION
  2
BLOCKS
  0
BLOCK
  8
0
  2
$MODEL_SPACE
 70
     0
 10
0.0
 20
0.0
 30
0.0
  3
$MODEL_SPACE
  1

  0
ENDBLK
  5
1A
  8
0
  0
BLOCK
 67
     1
  8
0
  2
$PAPER_SPACE
 70
     0
 10
0.0
 20
0.0
 30
0.0
  3
$PAPER_SPACE
  1

  0
ENDBLK
  5
17
 67
     1
  8
0
  0
BLOCK
  8
0
  2
_OPEN30
 70
     0
 10
0.0
 20
0.0
 30
0.0
  3
_OPEN30
  1

  0
LINE
  5
44
  8
0
  6
BYBLOCK
 62
     0
 10
-1.0
 20
0.26794919
 30
0.0
 11
0.0
 21
0.0
 31
0.0
  0
LINE
  5
45
  8
0
  6
BYBLOCK
 62
     0
 10
0.0
 20
0.0
 30
0.0
 11
-1.0
 21
-0.26794919
 31
0.0
  0
LINE
  5
46
  8
0
  6
BYBLOCK
 62
     0
 10
0.0
 20
0.0
 30
0.0
 11
-1.0
 21
0.0
 31
0.0
  0
ENDBLK
  5
47
  8
0
  0
BLOCK
  8
0
  2
XREF1
 70
    36
 10
0.0
 20
0.0
 30
0.0
  3
XREF1
  1
D:\ACLT\FORMAT\KAWAJUN(9)図面用.dwg
  0
ENDBLK
  5
5D
  8
0
  0
BLOCK
  8
0
  2
A3WAKUDAKE
 70
    36
 10
0.0
 20
0.0
 30
0.0
  3
A3WAKUDAKE
  1
D:\ACLT\FORMAT\A3WAKUdake.dwg
  0
ENDBLK
  5
2E9
  8
0
  0
BLOCK
  8
0
  2
*U22
 70
     1
 10
0.0
 20
0.0
 30
0.0
  3
*U22
  1

  0
LINE
  5
DE6D
  8
0
 10
-0.3499999999999659
 20
-5.0
 30
0.0
 11
-3.6000000000000512
 21
-1.75
 31
0.0
  0
LINE
  5
DE6E
  8
0
 10
-0.3499999999999659
 20
-5.0
 30
0.0
 11
0.0
 21
-5.0
 31
0.0
  0
LINE
  5
DE6F
  8
0
 10
-28.468911086754559
 20
-1.75
 30
0.0
 11
-3.6000000000000512
 21
-1.75
 31
0.0
  0
LINE
  5
DE70
  8
0
 10
0.0
 20
5.0
 30
0.0
 11
0.0
 21
-5.0
 31
0.0
  0
LINE
  5
DE71
  8
0
 10
-34.999999999999972
 20
0.0
 30
0.0
 11
-28.468911086754559
 21
-1.75
 31
0.0
  0
LINE
  5
DE72
  8
0
 10
-0.3499999999999659
 20
5.0
 30
0.0
 11
0.0
 21
5.0
 31
0.0
  0
LINE
  5
DE73
  8
0
 10
-34.999999999999972
 20
0.0
 30
0.0
 11
-28.468911086754499
 21
1.75
 31
0.0
  0
LINE
  5
DE74
  8
0
 10
-0.3499999999999659
 20
5.0
 30
0.0
 11
-3.5999999999998229
 21
1.750000000000056
 31
0.0
  0
LINE
  5
DE75
  8
0
 10
-28.468911086754499
 20
1.75
 30
0.0
 11
-3.5999999999998229
 21
1.750000000000056
 31
0.0
  0
ENDBLK
  5
DE77
  8
0
  0
BLOCK
  8
0
  2
*U23
 70
     1
 10
0.0
 20
0.0
 30
0.0
  3
*U23
  1

  0
TEXT
  5
DE79
  8
1DIM
 62
   201
 10
9416.8745026733504
 20
828.03666623044035
 30
0.0
 40
17.5
  1
P180
  0
ENDBLK
  5
DE7B
  8
0
  0
BLOCK
  8
0
  2
*U24
 70
     1
 10
0.0
 20
0.0
 30
0.0
  3
*U24
  1

  0
TEXT
  5
DE7D
  8
1DIM
 62
   201
 10
9315.9863612538484
 20
828.03666623044035
 30
0.0
 40
17.5
  1
48
  0
ENDBLK
  5
DE7F
  8
0
  0
BLOCK
  8
0
  2
*U25
 70
     1
 10
0.0
 20
0.0
 30
0.0
  3
*U25
  1

  0
TEXT
  5
DE81
  8
1DIM
 62
   201
 10
9267.5754029256332
 20
629.80903295966243
 30
0.0
 40
17.5
  1
有効内寸134
 50
90.0
  0
ENDBLK
  5
DE83
  8
0
  0
BLOCK
  8
0
  2
*U26
 70
     1
 10
0.0
 20
0.0
 30
0.0
  3
*U26
  1

  0
TEXT
  5
DE85
  8
1DIM
 62
   201
 10
9236.5446812367409
 20
669.74693349884433
 30
0.0
 40
17.5
  1
154
 50
90.0
  0
ENDBLK
  5
DE87
  8
0
  0
BLOCK
  8
0
  2
*U27
 70
     1
 10
0.0
 20
0.0
 30
0.0
  3
*U27
  1

  0
TEXT
  5
DE89
  8
1DIM
 62
   201
 10
9449.9505873298876
 20
449.9975715586292
 30
0.0
 40
17.5
  1
約90°
 50
44.999999999999211
  0
ENDBLK
  5
DE8B
  8
0
  0
BLOCK
  8
0
  2
*U28
 70
     1
 10
0.0
 20
0.0
 30
0.0
  3
*U28
  1

  0
TEXT
  5
DE8D
  8
1DIM
 62
   201
 10
9379.2190606768618
 20
284.71383959233759
 30
0.0
 40
17.5
  1
有効内寸253
  0
ENDBLK
  5
DE8F
  8
0
  0
BLOCK
  8
0
  2
*U29
 70
     1
 10
0.0
 20
0.0
 30
0.0
  3
*U29
  1

  0
TEXT
  5
DE91
  8
1DIM
 62
   201
 10
9410.3021707000298
 20
318.18450570314781
 30
0.0
 40
17.5
  1
277.5
  0
ENDBLK
  5
DE93
  8
0
  0
BLOCK
  8
0
  2
*U30
 70
     1
 10
0.0
 20
0.0
 30
0.0
  3
*U30
  1

  0
TEXT
  5
DE95
  8
1DIM
 62
   201
 10
9264.9163219632155
 20
-107.3866550823338
 30
0.0
 40
17.5
  1
有効内寸601
 50
90.0
  0
ENDBLK
  5
DE97
  8
0
  0
BLOCK
  8
0
  2
*U31
 70
     1
 10
0.0
 20
0.0
 30
0.0
  3
*U31
  1

  0
TEXT
  5
DE99
  8
1DIM
 62
   201
 10
9235.1755459567739
 20
-69.761655082328346
 30
0.0
 40
17.5
  1
623
 50
90.0
  0
ENDBLK
  5
DE9B
  8
0
  0
BLOCK
  8
0
  2
*U32
 70
     1
 10
0.0
 20
0.0
 30
0.0
  3
*U32
  1

  0
TEXT
  5
DE9D
  8
1DIM
 62
   201
 10
9625.2404423870685
 20
175.3361529192205
 30
0.0
 40
17.5
  1
120
 50
90.0
  0
ENDBLK
  5
DE9F
  8
0
  0
BLOCK
  8
0
  2
*U33
 70
     1
 10
0.0
 20
0.0
 30
0.0
  3
*U33
  1

  0
TEXT
  5
DEA1
  8
1DIM
 62
   201
 10
9625.2404423870685
 20
-81.428335729605806
 30
0.0
 40
17.5
  1
352.5
 50
90.0
  0
ENDBLK
  5
DEA3
  8
0
  0
BLOCK
  8
0
  2
*U34
 70
     1
 10
0.0
 20
0.0
 30
0.0
  3
*U34
  1

  0
TEXT
  5
DEA5
  8
1DIM
 62
   201
 10
9625.2404423870685
 20
-306.08596555694209
 30
0.0
 40
17.5
  1
120
 50
90.0
  0
ENDBLK
  5
DEA7
  8
0
  0
BLOCK
  8
0
  2
*U35
 70
     1
 10
0.0
 20
0.0
 30
0.0
  3
*U35
  1

  0
TEXT
  5
DEA9
  8
1DIM
 62
   201
 10
10003.88615311851
 20
214.36873134031649
 30
0.0
 40
17.5
  1
67
 50
90.0
  0
ENDBLK
  5
DEAB
  8
0
  0
BLOCK
  8
0
  2
*U36
 70
     1
 10
0.0
 20
0.0
 30
0.0
  3
*U36
  1

  0
TEXT
  5
DEAD
  8
1DIM
 62
   201
 10
10385.96101826031
 20
298.2104432571611
 30
0.0
 40
17.5
  1
約90°
 50
315.0000000000008
  0
ENDBLK
  5
DEAF
  8
0
  0
BLOCK
  8
0
  2
*U37
 70
     1
 10
0.0
 20
0.0
 30
0.0
  3
*U37
  1

  0
TEXT
  5
DEB1
  8
1DIM
 62
   201
 10
10003.88615311851
 20
-78.511667007003837
 30
0.0
 40
17.5
  1
P484
 50
90.0
  0
ENDBLK
  5
DEB3
  8
0
  0
ENDSEC
  0
SECTION
  2
ENTITIES
  0
LINE
  5
6608
  8
01
 10
9583.0828337875791
 20
617.6256996263287
 30
0.0
 11
9333.5828337870917
 21
617.6256996263287
 31
0.0
  0
LINE
  5
6609
  8
1PHANTOM
 10
9584.0828337875791
 20
618.62569962632801
 30
0.0
 11
9335.4822411416462
 21
618.62569962632915
 31
0.0
  0
LINE
  5
660A
  8
01
 10
9333.5828337870917
 20
621.62569962632926
 30
0.0
 11
9583.0828337875791
 21
621.6256996263204
 31
0.0
  0
LINE
  5
660B
  8
1PHANTOM
 10
9335.4822411416462
 20
620.62569962632858
 30
0.0
 11
9584.0828337875791
 21
620.62569962632006
 31
0.0
  0
LINE
  5
660C
  8
01
 10
9583.0828337875791
 20
621.6256996263204
 30
0.0
 11
9584.0828337875791
 21
620.62569962632051
 31
0.0
  0
LINE
  5
660D
  8
01
 10
9584.0828337875791
 20
618.62569962632915
 30
0.0
 11
9583.0828337875791
 21
617.6256996263287
 31
0.0
  0
LINE
  5
660E
  8
01
 10
9584.0828337875791
 20
620.62569962632051
 30
0.0
 11
9584.0828337875791
 21
618.6256996263287
 31
0.0
  0
LINE
  5
660F
  8
1DIM
 10
9333.5828337870917
 20
618.62569962632915
 30
0.0
 11
9335.4822411416462
 21
618.62569962632915
 31
0.0
  0
LINE
  5
6610
  8
1DIM
 10
9333.5828337870917
 20
620.62569962632892
 30
0.0
 11
9335.4822411416462
 21
620.62569962632858
 31
0.0
  0
LINE
  5
6611
  8
01
 10
9336.0828337870807
 20
621.62569962632961
 30
0.0
 11
9335.0828337870807
 21
620.62569962632961
 31
0.0
  0
LINE
  5
6612
  8
01
 10
9335.0828337870807
 20
618.62569962632915
 30
0.0
 11
9336.0828337870807
 21
617.62569962632915
 31
0.0
  0
LINE
  5
6613
  8
01
 10
9335.0828337870807
 20
620.62569962632961
 30
0.0
 11
9335.0828337870844
 21
618.62569962632915
 31
0.0
  0
LINE
  5
6614
  8
01
 10
9572.2828370037678
 20
625.2256996263277
 30
0.0
 11
9572.2858917418107
 21
624.5243895132553
 31
0.0
  0
LINE
  5
6615
  8
01
 10
9581.8797808590516
 20
624.5243895132553
 30
0.0
 11
9581.8828355970963
 21
625.2256996263277
 31
0.0
  0
ARC
  5
6616
  8
01
 10
9581.5797788010259
 20
624.52569917929304
 30
0.0
 40
0.3000000000000398
 50
270.0
 51
359.75000000000841
  0
ARC
  5
6617
  8
01
 10
9572.5858932037954
 20
624.52569917929304
 30
0.0
 40
0.300000000000043
 50
180.25000000001759
 51
270.0
  0
LINE
  5
6618
  8
01
 10
9581.3436221781358
 20
767.22570055019969
 30
0.0
 11
9307.8220498266819
 21
767.22570055019969
 31
0.0
  0
LINE
  5
661B
  8
01
 10
9582.0777849228416
 20
625.2256996263277
 30
0.0
 11
9307.0872162630349
 21
625.22569962632758
 31
0.0
  0
ARC
  5
661F
  8
01
 10
9582.0784535293205
 20
625.72569917929275
 30
0.0
 40
0.5000000000000316
 50
269.92338331805718
 51
0.4999999999915751
  0
LINE
  5
6621
  8
01
 10
9306.5872353015275
 20
625.73006289691182
 30
0.0
 11
9307.8220498266819
 21
767.22570055019969
 31
0.0
  0
LINE
  5
6623
  8
01
 10
9581.3436221781358
 20
767.22570055019969
 30
0.0
 11
9582.5784535293205
 21
625.72569917929275
 31
0.0
  0
LINE
  5
6624
  8
01
 10
9581.5797757807377
 20
624.22569946241492
 30
0.0
 11
9572.5858968201264
 21
624.22569946241492
 31
0.0
  0
LINE
  5
6633
  8
01
 10
9310.5828337870917
 20
625.12569962632767
 30
0.0
 11
9311.9828337870931
 21
625.12569962632733
 31
0.0
  0
ARC
  5
6634
  8
01
 10
9310.5828337870917
 20
624.12569962632779
 30
0.0
 40
1.0
 50
89.999999999947889
 51
179.99999999997391
  0
LINE
  5
6635
  8
1PHANTOM
 10
9331.1828337870938
 20
625.12569962632733
 30
0.0
 11
9332.5828337870917
 21
625.12569962632767
 31
0.0
  0
ARC
  5
6636
  8
01
 10
9332.5828337870917
 20
624.12569962632779
 30
0.0
 40
1.0
 50
0.0
 51
90.0
  0
ARC
  5
6637
  8
01
 10
9321.5828337870989
 20
661.10149978081972
 30
0.0
 40
48.0
 50
257.4441422014047
 51
282.55585779859518
  0
ARC
  5
6638
  8
01
 10
9331.5828337870917
 20
616.20161113953054
 30
0.0
 40
2.0
 50
282.55585779859518
 51
0.0
  0
ARC
  5
6639
  8
01
 10
9311.5828337870917
 20
616.20161113953372
 30
0.0
 40
2.0
 50
180.0
 51
257.4441422014047
  0
LINE
  5
663A
  8
01
 10
9333.5828337870917
 20
624.12569962632779
 30
0.0
 11
9333.5828337870917
 21
616.20161113953054
 31
0.0
  0
LINE
  5
663B
  8
01
 10
9331.1828337870938
 20
625.12569962632733
 30
0.0
 11
9311.9828337870931
 21
625.12569962632733
 31
0.0
  0
LINE
  5
663C
  8
01
 10
9309.5828337870917
 20
624.12569962632779
 30
0.0
 11
9309.5828337870917
 21
616.62569962632858
 31
0.0
  0
LINE
  5
663D
  8
01
 10
9309.5828337870917
 20
616.62569962632858
 30
0.0
 11
9309.5828337870917
 21
616.20161113953372
 31
0.0
  0
LINE
  5
663E
  8
01
 10
9333.5828337870917
 20
616.34742662431972
 30
0.0
 11
9333.5828337870917
 21
616.62569962632858
 31
0.0
  0
LINE
  5
663F
  8
01
 10
9333.5828337870917
 20
616.20161113953054
 30
0.0
 11
9333.5828337870917
 21
621.62569962632915
 31
0.0
  0
LINE
  5
6640
  8
01
 10
9333.5828337870917
 20
621.6256996263287
 30
0.0
 11
9333.5828337870917
 21
621.89631963173997
 31
0.0
  0
ARC
  5
6641
  8
01
 10
9321.5828337870989
 20
661.10149978081915
 30
0.0
 40
48.0
 50
257.4441422014047
 51
282.55585779859518
  0
ARC
  5
6642
  8
01
 10
9331.5828337870917
 20
616.20161113953054
 30
0.0
 40
2.0
 50
282.55585779859518
 51
0.0
  0
ARC
  5
6643
  8
01
 10
9311.5828337870917
 20
616.20161113953372
 30
0.0
 40
2.0
 50
180.0
 51
257.4441422014047
  0
LINE
  5
6644
  8
01
 10
9581.0828384590532
 20
624.22569946241492
 30
0.0
 11
9581.0828384590532
 21
622.22569946241492
 31
0.0
  0
LINE
  5
6645
  8
01
 10
9581.0828384590532
 20
622.22569946241492
 30
0.0
 11
9577.0828384590532
 21
622.22569946241492
 31
0.0
  0
LINE
  5
6646
  8
01
 10
9573.0828384590532
 20
624.22569946241492
 30
0.0
 11
9573.0828384590532
 21
622.22569946241492
 31
0.0
  0
LINE
  5
6647
  8
01
 10
9573.0828384590532
 20
622.22569946241492
 30
0.0
 11
9577.0828384590532
 21
622.22569946241492
 31
0.0
  0
LINE
  5
6649
  8
01
 10
9339.0521707002918
 20
265.07167825099799
 30
0.0
 11
9580.0521706997697
 21
265.07167825100441
 31
0.0
  0
LINE
  5
664A
  8
01
 10
9339.0521707002918
 20
264.0716782509981
 30
0.0
 11
9580.0521707007883
 21
264.07167825100441
 31
0.0
  0
ARC
  5
664B
  8
01
 10
9339.0521707002918
 20
261.07167825099799
 30
0.0
 40
4.0
 50
90.0
 51
180.0
  0
ARC
  5
664C
  8
01
 10
9339.0521707002918
 20
261.07167825099799
 30
0.0
 40
3.0
 50
90.0
 51
180.0
  0
LINE
  5
664D
  8
01
 10
9335.0521707002918
 20
253.07167825096889
 30
0.0
 11
9335.0521707002918
 21
261.07167825099799
 31
0.0
  0
LINE
  5
664E
  8
01
 10
9336.0521707002918
 20
253.07167825096889
 30
0.0
 11
9336.0521707002918
 21
261.07167825099799
 31
0.0
  0
LINE
  5
664F
  8
01
 10
9584.0521706997715
 20
261.07167825101078
 30
0.0
 11
9584.0521707002663
 21
-36.928321748997469
 31
0.0
  0
ARC
  5
6650
  8
01
 10
9580.0521706997697
 20
261.07167825100441
 30
0.0
 40
4.0
 50
0.0000000000781653
 51
90.0
  0
LINE
  5
6651
  8
01
 10
9309.5522973438274
 20
-327.72834559086368
 30
0.0
 11
9309.5522973438274
 21
234.87167824725751
 31
0.0
  0
LINE
  5
6652
  8
01
 10
9339.0521707002918
 20
-357.92832174899098
 30
0.0
 11
9580.0521707007883
 21
-357.9283217489974
 31
0.0
  0
LINE
  5
6653
  8
01
 10
9339.0521707002918
 20
-356.92832174899098
 30
0.0
 11
9580.0521707007883
 21
-356.9283217489974
 31
0.0
  0
ARC
  5
6654
  8
01
 10
9339.0521707002918
 20
-353.92832174899098
 30
0.0
 40
4.0
 50
180.0
 51
270.0
  0
ARC
  5
6655
  8
01
 10
9580.0521707007883
 20
-353.9283217489974
 30
0.0
 40
4.0
 50
270.0
 51
0.0000000000781653
  0
ARC
  5
6656
  8
01
 10
9580.0521707007883
 20
-353.9283217489974
 30
0.0
 40
3.0
 50
270.0
 51
0.0000000000781653
  0
ARC
  5
6657
  8
01
 10
9339.0521707002918
 20
-353.92832174899098
 30
0.0
 40
4.0
 50
180.0
 51
270.0
  0
ARC
  5
6658
  8
01
 10
9339.0521707002918
 20
-353.92832174899098
 30
0.0
 40
3.0
 50
180.0
 51
270.0
  0
LINE
  5
6659
  8
01
 10
9335.0521707002918
 20
-345.92832174899007
 30
0.0
 11
9335.0521707002918
 21
-353.92832174899098
 31
0.0
  0
LINE
  5
665A
  8
01
 10
9336.0521707002918
 20
-345.92832174899007
 30
0.0
 11
9336.0521707002918
 21
-353.92832174899098
 31
0.0
  0
LINE
  5
665B
  8
01
 10
9583.0521707007902
 20
-36.928321748997448
 30
0.0
 11
9583.0521707007883
 21
261.07167825100441
 31
0.0
  0
ARC
  5
665C
  8
01
 10
9580.0521707007883
 20
261.07167825100441
 30
0.0
 40
3.0
 50
0.0
 51
90.0
  0
ARC
  5
665D
  8
01
 10
9329.0521707002918
 20
-345.92832174899007
 30
0.0
 40
6.0
 50
0.0
 51
41.409622109271609
  0
ARC
  5
665F
  8
01
 10
9329.0521707002918
 20
253.07167825096889
 30
0.0
 40
6.0
 50
318.59037789072698
 51
0.0
  0
ARC
  5
6660
  8
01
 10
9329.0521707002918
 20
253.07167825096889
 30
0.0
 40
7.0
 50
310.0052008848408
 51
0.0
  0
LINE
  5
6664
  8
01
 10
9310.5521707002918
 20
253.57167824725639
 30
0.0
 11
9332.5521707002918
 21
253.57167824725639
 31
0.0
  0
ARC
  5
6665
  8
01
 10
9310.5521707002918
 20
254.57167824725639
 30
0.0
 40
1.0
 50
180.0
 51
270.0
  0
ARC
  5
6666
  8
01
 10
9332.5521707002918
 20
254.57167824725639
 30
0.0
 40
1.0
 50
270.0
 51
0.0
  0
LINE
  5
6667
  8
01
 10
9333.5521707002918
 20
262.57167824725639
 30
0.0
 11
9333.5521707002918
 21
254.57167824725639
 31
0.0
  0
ARC
  5
6668
  8
01
 10
9332.5521707002918
 20
262.57167824725639
 30
0.0
 40
1.0
 50
0.0
 51
90.0
  0
LINE
  5
6669
  8
01
 10
9309.5521707002918
 20
262.57167824725639
 30
0.0
 11
9309.5521707002918
 21
254.57167824725639
 31
0.0
  0
ARC
  5
666A
  8
01
 10
9310.5521707002918
 20
262.57167824725639
 30
0.0
 40
1.0
 50
90.0
 51
180.0
  0
POINT
  5
666B
  8
01
 10
9321.5521707002918
 20
252.57167824725639
 30
0.0
 50
359.99999999999989
  0
LINE
  5
666C
  8
01
 10
9333.5521707002863
 20
234.8716782472556
 30
0.0
 11
9333.5521707002918
 21
252.2716782472562
 31
0.0
  0
ARC
  5
666D
  8
01
 10
9333.252170700287
 20
234.8716782472556
 30
0.0
 40
0.3
 50
270.0
 51
0.0
  0
ARC
  5
666E
  8
01
 10
9309.8522973438266
 20
252.2716782472562
 30
0.0
 40
0.3
 50
90.0
 51
180.0241820291443
  0
ARC
  5
666F
  8
01
 10
9333.2521707002925
 20
252.2716782472562
 30
0.0
 40
0.3
 50
0.0
 51
90.0
  0
LINE
  5
6670
  8
01
 10
9333.252170700287
 20
234.57167824725551
 30
0.0
 11
9309.8522973438266
 21
234.5716782472573
 31
0.0
  0
LINE
  5
6671
  8
01
 10
9333.2521707002925
 20
252.57167824725821
 30
0.0
 11
9309.8522973438266
 21
252.57167824725499
 31
0.0
  0
LINE
  5
6672
  8
01
 10
9309.5522973438274
 20
252.2716782472562
 30
0.0
 11
9309.5522973438274
 21
234.87167824725751
 31
0.0
  0
ARC
  5
6673
  8
01
 10
9309.8522973438266
 20
234.87167824725751
 30
0.0
 40
0.3
 50
180.0
 51
270.0
  0
LINE
  5
6674
  8
01
 10
9326.0521298756321
 20
253.5716782472573
 30
0.0
 11
9326.0521298756321
 21
253.0716782472573
 31
0.0
  0
ARC
  5
6675
  8
01
 10
9325.5521298756321
 20
253.0716782472573
 30
0.0
 40
0.5
 50
270.0
 51
0.0
  0
LINE
  5
6676
  8
01
 10
9317.0521298756321
 20
253.5716782472573
 30
0.0
 11
9317.0521298756321
 21
253.07167824725639
 31
0.0
  0
ARC
  5
6677
  8
01
 10
9317.5521298756321
 20
253.07167824725639
 30
0.0
 40
0.5
 50
180.0
 51
270.0
  0
LINE
  5
6678
  8
01
 10
9310.5521707002918
 20
-356.42834559086259
 30
0.0
 11
9332.5521707002918
 21
-356.42834559086259
 31
0.0
  0
LINE
  5
6679
  8
01
 10
9310.5521707002918
 20
-351.42834559086259
 30
0.0
 11
9332.5521707002918
 21
-351.42834559086259
 31
0.0
  0
ARC
  5
667A
  8
01
 10
9310.5521707002918
 20
-350.42834559086259
 30
0.0
 40
1.0
 50
180.0
 51
270.0
  0
LINE
  5
667B
  8
01
 10
9310.5521707002918
 20
-346.42834559086259
 30
0.0
 11
9332.5521707002918
 21
-346.42834559086259
 31
0.0
  0
ARC
  5
667C
  8
01
 10
9310.5521707002918
 20
-347.42834559086259
 30
0.0
 40
1.0
 50
90.0
 51
180.0
  0
ARC
  5
667D
  8
01
 10
9332.5521707002918
 20
-347.42834559086259
 30
0.0
 40
1.0
 50
0.0
 51
90.0
  0
LINE
  5
667E
  8
01
 10
9333.5521707002918
 20
-355.42834559086259
 30
0.0
 11
9333.5521707002918
 21
-347.42834559086259
 31
0.0
  0
ARC
  5
667F
  8
01
 10
9332.5521707002918
 20
-350.42834559086259
 30
0.0
 40
1.0
 50
270.0
 51
0.0
  0
ARC
  5
6680
  8
01
 10
9332.5521707002918
 20
-355.42834559086259
 30
0.0
 40
1.0
 50
270.0
 51
0.0
  0
LINE
  5
6681
  8
01
 10
9309.5521707002918
 20
-355.42834559086259
 30
0.0
 11
9309.5521707002918
 21
-347.42834559086259
 31
0.0
  0
ARC
  5
6682
  8
01
 10
9310.5521707002918
 20
-355.42834559086259
 30
0.0
 40
1.0
 50
180.0
 51
270.0
  0
LINE
  5
6683
  8
01
 10
9333.5521707002863
 20
-327.72834559086101
 30
0.0
 11
9333.5521707002918
 21
-345.12834559086241
 31
0.0
  0
ARC
  5
6684
  8
01
 10
9333.252170700287
 20
-327.72834559086101
 30
0.0
 40
0.3
 50
0.0
 51
90.0
  0
ARC
  5
6685
  8
01
 10
9309.8522973438266
 20
-345.12834559086241
 30
0.0
 40
0.3
 50
179.9758179708557
 51
270.0
  0
LINE
  5
6686
  8
01
 10
9333.2521707002925
 20
-345.42834559086259
 30
0.0
 11
9309.8522973438266
 21
-345.42834559086259
 31
0.0
  0
ARC
  5
6687
  8
01
 10
9333.2521707002925
 20
-345.12834559086241
 30
0.0
 40
0.3
 50
270.0
 51
0.0
  0
LINE
  5
6688
  8
01
 10
9333.252170700287
 20
-327.42834559086168
 30
0.0
 11
9309.8522973438266
 21
-327.4283455908635
 31
0.0
  0
LINE
  5
6689
  8
01
 10
9309.5522973438274
 20
-345.12834559086241
 30
0.0
 11
9309.5522973438274
 21
-327.72834559086368
 31
0.0
  0
ARC
  5
668A
  8
01
 10
9309.8522973438266
 20
-327.72834559086368
 30
0.0
 40
0.3
 50
90.0
 51
180.0
  0
ARC
  5
668B
  8
01
 10
9325.5521298756321
 20
-345.92834559086259
 30
0.0
 40
0.5
 50
0.0
 51
90.0
  0
LINE
  5
668C
  8
01
 10
9317.0521298756321
 20
-346.42834559086259
 30
0.0
 11
9317.0521298756321
 21
-345.92834559086168
 31
0.0
  0
ARC
  5
668D
  8
01
 10
9317.5521298756321
 20
-345.92834559086168
 30
0.0
 40
0.5
 50
90.0
 51
180.0
  0
LINE
  5
6696
  8
01
 10
9580.0521751309316
 20
263.57167824725639
 30
0.0
 11
9335.9296716980989
 21
263.57167824725639
 31
0.0
  0
LINE
  5
6697
  8
01
 10
9335.9296716980989
 20
263.57167824725639
 30
0.0
 11
9309.0521707002863
 21
263.57167824725639
 31
0.0
  0
LINE
  5
6698
  8
01
 10
9580.0521751309316
 20
-356.42832174526279
 30
0.0
 11
9332.5521707002918
 21
-356.42834559086259
 31
0.0
  0
LINE
  5
6699
  8
01
 10
9582.5521751309334
 20
261.07167824725639
 30
0.0
 11
9582.5521751309298
 21
-46.428321749002748
 31
0.0
  0
LINE
  5
669A
  8
01
 10
9306.5521707002845
 20
-353.92832174526279
 30
0.0
 11
9306.5521707002845
 21
261.07167824725639
 31
0.0
  0
ARC
  5
669B
  8
01
 10
9580.0521751309298
 20
261.07167824725661
 30
0.0
 40
2.5
 50
359.99999999999352
 51
90.0
  0
ARC
  5
669C
  8
01
 10
9580.0521751309298
 20
-353.92832174526239
 30
0.0
 40
2.5
 50
270.0
 51
359.99999999999352
  0
ARC
  5
669D
  8
01
 10
9309.0521707002845
 20
-353.92832174526239
 30
0.0
 40
2.5
 50
180.00000000000651
 51
270.0
  0
ARC
  5
669E
  8
01
 10
9309.0521707002863
 20
261.0716782472561
 30
0.0
 40
2.5
 50
90.0
 51
179.99999999999349
  0
LINE
  5
669F
  8
01
 10
9583.0521707007902
 20
-55.928321748997128
 30
0.0
 11
9583.0521707007883
 21
-353.9283217489974
 31
0.0
  0
LINE
  5
66A0
  8
01
 10
9584.0521707007902
 20
-55.928321748997121
 30
0.0
 11
9584.0521707007883
 21
-353.928321748992
 31
0.0
  0
LINE
  5
66A1
  8
01
 10
9309.0521707002845
 20
-356.42832174526239
 30
0.0
 11
9310.5521707002918
 21
-356.42834559086259
 31
0.0
  0
LINE
  5
66A2
  8
01
 10
9326.0522115249514
 20
-346.42834559086259
 30
0.0
 11
9326.0522115249514
 21
-345.92834559086168
 31
0.0
  0
ARC
  5
680B
  8
01
 10
9791.9552811863359
 20
263.067295774169
 30
0.0
 40
0.5000000000000313
 50
89.499999999982379
 51
180.0
  0
LINE
  5
680C
  8
01
 10
9933.4552811863359
 20
262.33246302096899
 30
0.0
 11
9791.9596444540857
 21
263.56727673570089
 31
0.0
  0
ARC
  5
680D
  8
01
 10
9791.9552811863359
 20
-355.92393927217472
 30
0.0
 40
0.5000000000000313
 50
180.0
 51
270.50000000001751
  0
LINE
  5
680E
  8
01
 10
9933.4552811863359
 20
-355.18910651897568
 30
0.0
 11
9791.9596444540857
 21
-356.42392023370672
 31
0.0
  0
LINE
  5
6810
  8
01
 10
9933.4552811863359
 20
262.33246302096899
 30
0.0
 11
9933.4552811863359
 21
-355.18910651897568
 31
0.0
  0
LINE
  5
6811
  8
01
 10
9783.8552811863465
 20
-210.87256264874671
 30
0.0
 11
9787.8552811863428
 21
-210.87256264874711
 31
0.0
  0
LINE
  5
6812
  8
01
 10
9791.4552811863377
 20
263.067295774169
 30
0.0
 11
9791.4552811863377
 21
-355.92393927217472
 31
0.0
  0
LINE
  5
6814
  8
01
 10
9782.8552811863374
 20
-356.42832174526302
 30
0.0
 11
9780.3310813408298
 21
-356.42832174526302
 31
0.0
  0
LINE
  5
6815
  8
01
 10
9789.8552811863392
 20
-346.42832174526302
 30
0.0
 11
9787.8486424878356
 21
-346.42832174526308
 31
0.0
  0
LINE
  5
6816
  8
01
 10
9783.8485283087448
 20
-346.42832174526308
 30
0.0
 11
9782.8052811863381
 21
-346.42832174526302
 31
0.0
  0
ARC
  5
6817
  8
01
 10
9780.3310813408298
 20
-347.42832174526302
 30
0.0
 40
1.0
 50
90.0
 51
180.0
  0
LINE
  5
6818
  8
01
 10
9779.331081340828
 20
-347.42832174526302
 30
0.0
 11
9779.331081340828
 21
-355.42832174526302
 31
0.0
  0
ARC
  5
6819
  8
01
 10
9780.3310813408298
 20
-355.42832174526302
 30
0.0
 40
1.0
 50
180.0
 51
270.0
  0
LINE
  5
681A
  8
01
 10
9782.8552811863374
 20
-356.42832174526302
 30
0.0
 11
9783.8485283087448
 21
-356.42832174526308
 31
0.0
  0
LINE
  5
681B
  8
01
 10
9787.8485337458442
 20
-356.42832174526302
 30
0.0
 11
9790.3552811863374
 21
-356.42832174526302
 31
0.0
  0
ARC
  5
681C
  8
01
 10
9790.3552811863374
 20
-355.42832174526302
 30
0.0
 40
1.0
 50
270.0
 51
330.06735074171058
  0
LINE
  5
681D
  8
01
 10
9790.5344469205065
 20
-346.42832174526302
 30
0.0
 11
9789.8552811863392
 21
-346.42832174526302
 31
0.0
  0
LINE
  5
681E
  8
01
 10
9781.3052811863381
 20
-346.42832174526302
 30
0.0
 11
9780.3310813408298
 21
-346.42832174526302
 31
0.0
  0
LINE
  5
6820
  8
01
 10
9780.8552811863374
 20
-346.42832174526302
 30
0.0
 11
9783.8485283087448
 21
-346.42832174526302
 31
0.0
  0
LINE
  5
6821
  8
01
 10
9791.4552811863377
 20
253.4716782472569
 30
0.0
 11
9790.7539721935518
 21
253.47473830442601
 31
0.0
  0
LINE
  5
6822
  8
01
 10
9790.7539721935518
 20
263.06861819008742
 30
0.0
 11
9791.4552811863377
 21
263.0716782472573
 31
0.0
  0
ARC
  5
6823
  8
01
 10
9790.755281186337
 20
262.7686210458715
 30
0.0
 40
0.3000000000000429
 50
90.249999999991559
 51
180.0
  0
ARC
  5
6824
  8
01
 10
9790.755281186337
 20
253.77473544864191
 30
0.0
 40
0.3000000000000429
 50
180.0
 51
269.75000000000841
  0
LINE
  5
682A
  8
01
 10
9790.4552811863396
 20
262.76862104577231
 30
0.0
 11
9790.4552811863396
 21
253.77473544864191
 31
0.0
  0
LINE
  5
682B
  8
01
 10
9783.8485283087448
 20
263.57167824725713
 30
0.0
 11
9781.2856962224196
 21
263.57167824725713
 31
0.0
  0
LINE
  5
682C
  8
01
 10
9791.4552811863377
 20
-346.32832174526362
 30
0.0
 11
9790.7539721935536
 21
-346.33138180243259
 31
0.0
  0
LINE
  5
682D
  8
01
 10
9790.7539721935536
 20
-355.925261688094
 30
0.0
 11
9791.4552811863377
 21
-355.92832174526302
 31
0.0
  0
ARC
  5
682E
  8
01
 10
9790.7552811863407
 20
-355.62526454387807
 30
0.0
 40
0.3000000000000429
 50
180.0
 51
269.75000000000841
  0
ARC
  5
682F
  8
01
 10
9790.7552811863407
 20
-346.63137894664851
 30
0.0
 40
0.3000000000000429
 50
90.249999999991559
 51
180.0
  0
LINE
  5
6835
  8
01
 10
9790.4552811863396
 20
-355.625264543779
 30
0.0
 11
9790.4552811863396
 21
-346.63137894664851
 31
0.0
  0
LINE
  5
6836
  8
01
 10
9782.8552811863374
 20
263.57167824725639
 30
0.0
 11
9780.3310813408298
 21
263.57167824725639
 31
0.0
  0
LINE
  5
6837
  8
01
 10
9789.8552811863392
 20
253.57167824725639
 30
0.0
 11
9787.8551670072466
 21
253.57167824725639
 31
0.0
  0
LINE
  5
6838
  8
01
 10
9783.8485283087448
 20
253.57167824725639
 30
0.0
 11
9782.8552811863374
 21
253.57167824725639
 31
0.0
  0
ARC
  5
6839
  8
01
 10
9780.3310813408298
 20
254.57167824725639
 30
0.0
 40
1.0
 50
180.0
 51
270.0
  0
LINE
  5
683A
  8
01
 10
9779.331081340828
 20
254.57167824725639
 30
0.0
 11
9779.331081340828
 21
262.57167824725639
 31
0.0
  0
ARC
  5
683B
  8
01
 10
9780.3310813408298
 20
262.57167824725639
 30
0.0
 40
1.0
 50
90.0
 51
180.0
  0
LINE
  5
683C
  8
01
 10
9782.8552811863374
 20
263.57167824725639
 30
0.0
 11
9783.8485283087448
 21
263.57167824725639
 31
0.0
  0
LINE
  5
683D
  8
01
 10
9787.8485283087357
 20
263.57167824725639
 30
0.0
 11
9790.3552811863374
 21
263.57167824725639
 31
0.0
  0
ARC
  5
683E
  8
01
 10
9790.3552811863374
 20
262.57167824725639
 30
0.0
 40
1.0
 50
29.932649258299971
 51
90.0
  0
LINE
  5
683F
  8
01
 10
9781.3052811863381
 20
253.57167824725639
 30
0.0
 11
9780.3310813408298
 21
253.57167824725639
 31
0.0
  0
LINE
  5
6840
  8
01
 10
9781.3052811863381
 20
253.57167824725639
 30
0.0
 11
9783.8485283087448
 21
253.57167824725619
 31
0.0
  0
LINE
  5
6841
  8
01
 10
9787.8551670072484
 20
253.57167824725639
 30
0.0
 11
9788.9829335953254
 21
253.57167824725639
 31
0.0
  0
LINE
  5
6842
  8
01
 10
9779.8552811863374
 20
-345.42832174526387
 30
0.0
 11
9779.8552811863374
 21
-328.92836734869888
 31
0.0
  0
LINE
  5
6843
  8
01
 10
9782.8552811863374
 20
-342.42832174526387
 30
0.0
 11
9782.8552811863374
 21
-328.4283673486994
 31
0.0
  0
LINE
  5
6845
  8
01
 10
9789.8552811863392
 20
-328.92836734869979
 30
0.0
 11
9789.8552811863392
 21
-345.42832174526387
 31
0.0
  0
ARC
  5
6846
  8
01
 10
9789.3552811863374
 20
-328.92836734869979
 30
0.0
 40
0.5
 50
0.0
 51
90.0
  0
LINE
  5
6848
  8
01
 10
9782.8485283087357
 20
-328.4283673486994
 30
0.0
 11
9780.3552811863374
 21
-328.42836734869888
 31
0.0
  0
ARC
  5
6849
  8
01
 10
9780.3552811863374
 20
-328.92836734869888
 30
0.0
 40
0.5
 50
90.0
 51
180.0
  0
LINE
  5
684A
  8
01
 10
9779.8557830275531
 20
-345.42832174526387
 30
0.0
 11
9779.8554027572609
 21
-345.42832174526387
 31
0.0
  0
LINE
  5
684B
  8
01
 10
9779.8554027572609
 20
-345.42832174526387
 30
0.0
 11
9779.8552813088572
 21
-345.42832174526387
 31
0.0
  0
LINE
  5
684C
  8
01
 10
9779.8552813088572
 20
-345.42832174526387
 30
0.0
 11
9779.8558148824795
 21
-345.42832174526387
 31
0.0
  0
LINE
  5
684D
  8
01
 10
9779.8558148824795
 20
-345.42832174526387
 30
0.0
 11
9779.8599876406115
 21
-345.42832174526387
 31
0.0
  0
LINE
  5
684E
  8
01
 10
9779.8599876406115
 20
-345.42832174526387
 30
0.0
 11
9779.8807488741004
 21
-345.42832174526387
 31
0.0
  0
LINE
  5
684F
  8
01
 10
9779.8807488741004
 20
-345.42832174526387
 30
0.0
 11
9779.9718076438294
 21
-345.42832174526387
 31
0.0
  0
LINE
  5
6850
  8
01
 10
9779.9718076438294
 20
-345.42832174526387
 30
0.0
 11
9780.3499081017762
 21
-345.42832174526387
 31
0.0
  0
LINE
  5
6851
  8
01
 10
9780.3499081017762
 20
-345.42832174526387
 30
0.0
 11
9781.8552811863374
 21
-345.42832174526387
 31
0.0
  0
LINE
  5
6852
  8
01
 10
9788.8552811863374
 20
-345.42832174526387
 30
0.0
 11
9789.8552811863392
 21
-345.42832174526387
 31
0.0
  0
LINE
  5
6853
  8
01
 10
9786.8552811863392
 20
-340.42832174526387
 30
0.0
 11
9786.8485283087539
 21
-340.42832174526387
 31
0.0
  0
LINE
  5
6854
  8
01
 10
9790.8552811863374
 20
-339.42832174526302
 30
0.0
 11
9791.4552811863377
 21
-339.42832174526319
 31
0.0
  0
ARC
  5
6855
  8
01
 10
9790.8552811863374
 20
-340.42832174526302
 30
0.0
 40
1.0
 50
90.0
 51
180.0
  0
LINE
  5
6856
  8
01
 10
9789.3552811863374
 20
-328.42836734869979
 30
0.0
 11
9787.8485283087357
 21
-328.42836734869979
 31
0.0
  0
LINE
  5
6857
  8
01
 10
9781.8052811863381
 20
-345.42832174526387
 30
0.0
 11
9783.8485283087448
 21
-345.42832174526359
 31
0.0
  0
LINE
  5
6858
  8
01
 10
9787.8486533620326
 20
-345.42832174526319
 30
0.0
 11
9788.8552811863374
 21
-345.42832174526302
 31
0.0
  0
LINE
  5
6859
  8
01
 10
9789.3552811863374
 20
-328.42836734869979
 30
0.0
 11
9791.4552811863377
 21
-328.42836734869979
 31
0.0
  0
LINE
  5
685A
  8
01
 10
9786.8485283087575
 20
-343.42832174526387
 30
0.0
 11
9786.8552811863392
 21
-343.42832174526387
 31
0.0
  0
ARC
  5
685B
  8
01
 10
9783.8552811863392
 20
-342.42832174526387
 30
0.0
 40
1.0
 50
180.00000000002601
 51
270.0
  0
LINE
  5
685C
  8
01
 10
9789.3552811863374
 20
-345.42832174526302
 30
0.0
 11
9788.9052811863385
 21
-345.42832174526302
 31
0.0
  0
LINE
  5
685D
  8
01
 10
9781.8052811863381
 20
-345.42832174526387
 30
0.0
 11
9781.3552811863374
 21
-345.42832174526387
 31
0.0
  0
LINE
  5
685E
  8
01
 10
9789.8552811863392
 20
-346.42832174526387
 30
0.0
 11
9787.8486424878356
 21
-346.42832174526347
 31
0.0
  0
LINE
  5
685F
  8
01
 10
9783.8485283087448
 20
-346.42832174526251
 30
0.0
 11
9781.6552811863385
 21
-346.42832174526211
 31
0.0
  0
LINE
  5
6860
  8
01
 10
9781.8552811863374
 20
-346.42832174526302
 30
0.0
 11
9780.8552811863374
 21
-346.42832174526302
 31
0.0
  0
LINE
  5
6861
  8
01
 10
9780.8552811863374
 20
-346.42832174526302
 30
0.0
 11
9780.8552811863374
 21
-345.92832174526399
 31
0.0
  0
ARC
  5
6862
  8
01
 10
9781.3552811863374
 20
-345.92832174526399
 30
0.0
 40
0.5
 50
90.0
 51
180.0
  0
LINE
  5
6863
  8
01
 10
9789.8552811863392
 20
-346.42832174526387
 30
0.0
 11
9789.8552811863392
 21
-345.92832174526302
 31
0.0
  0
ARC
  5
6864
  8
01
 10
9789.3552811863374
 20
-345.92832174526302
 30
0.0
 40
0.5
 50
0.0
 51
90.0
  0
LINE
  5
6865
  8
01
 10
9789.8552811863392
 20
-346.42832174526387
 30
0.0
 11
9790.5344469205047
 21
-346.42832174526399
 31
0.0
  0
LINE
  5
6866
  8
01
 10
9789.8552811863392
 20
-346.42832174526387
 30
0.0
 11
9790.5344469205047
 21
-346.42832174526399
 31
0.0
  0
LINE
  5
6867
  8
01
 10
9788.9052811863385
 20
-345.42832174526302
 30
0.0
 11
9787.8486533620326
 21
-345.42832174526319
 31
0.0
  0
LINE
  5
6868
  8
01
 10
9783.8485283087448
 20
-345.4283217452637
 30
0.0
 11
9781.3552811863374
 21
-345.42832174526399
 31
0.0
  0
ARC
  5
6869
  8
01
 10
9789.3552811863374
 20
-345.92832174526262
 30
0.0
 40
0.500000000001819
 50
11.236704671291969
 51
90.0
  0
LINE
  5
686A
  8
01
 10
9779.8552811863374
 20
252.5716782472573
 30
0.0
 11
9779.8552811863374
 21
236.07172385069319
 31
0.0
  0
LINE
  5
686B
  8
01
 10
9787.8485283087412
 20
-356.92832174899098
 30
0.0
 11
9787.8518014426518
 21
-55.928321748997071
 31
0.0
  0
LINE
  5
686C
  8
01
 10
9782.8552811863374
 20
249.5716782472573
 30
0.0
 11
9782.8552811863374
 21
235.57172385069319
 31
0.0
  0
LINE
  5
686E
  8
01
 10
9789.8552811863392
 20
236.07172385069319
 30
0.0
 11
9789.8552811863392
 21
252.5716782472573
 31
0.0
  0
ARC
  5
686F
  8
01
 10
9789.3552811863374
 20
236.07172385069319
 30
0.0
 40
0.5
 50
270.0
 51
0.0
  0
LINE
  5
6871
  8
01
 10
9782.8485283087357
 20
235.57172385069319
 30
0.0
 11
9780.3552811863374
 21
235.57172385069319
 31
0.0
  0
ARC
  5
6872
  8
01
 10
9780.3552811863374
 20
236.07172385069319
 30
0.0
 40
0.5
 50
180.0
 51
270.0
  0
LINE
  5
6873
  8
01
 10
9779.8557830275531
 20
252.5716782472573
 30
0.0
 11
9779.8554027572609
 21
252.5716782472573
 31
0.0
  0
LINE
  5
6874
  8
01
 10
9779.8554027572609
 20
252.5716782472573
 30
0.0
 11
9779.8552813088572
 21
252.5716782472573
 31
0.0
  0
LINE
  5
6875
  8
01
 10
9779.8552813088572
 20
252.5716782472573
 30
0.0
 11
9779.8558148824795
 21
252.5716782472573
 31
0.0
  0
LINE
  5
6876
  8
01
 10
9779.8558148824795
 20
252.5716782472573
 30
0.0
 11
9779.8599876406115
 21
252.5716782472573
 31
0.0
  0
LINE
  5
6877
  8
01
 10
9779.8599876406115
 20
252.5716782472573
 30
0.0
 11
9779.8807488741004
 21
252.5716782472573
 31
0.0
  0
LINE
  5
6878
  8
01
 10
9779.8807488741004
 20
252.5716782472573
 30
0.0
 11
9779.9718076438294
 21
252.5716782472573
 31
0.0
  0
LINE
  5
6879
  8
01
 10
9779.9718076438294
 20
252.5716782472573
 30
0.0
 11
9780.3499081017762
 21
252.5716782472573
 31
0.0
  0
LINE
  5
687A
  8
01
 10
9780.3499081017762
 20
252.5716782472573
 30
0.0
 11
9781.8552811863374
 21
252.5716782472573
 31
0.0
  0
LINE
  5
687B
  8
01
 10
9788.8552811863374
 20
252.5716782472573
 30
0.0
 11
9789.8552811863392
 21
252.5716782472573
 31
0.0
  0
LINE
  5
687C
  8
01
 10
9786.8552811863392
 20
247.5716782472573
 30
0.0
 11
9786.8485283087357
 21
247.5716782472573
 31
0.0
  0
LINE
  5
687D
  8
01
 10
9790.8552811863374
 20
246.5716782472573
 30
0.0
 11
9791.4552811863377
 21
246.5716782472573
 31
0.0
  0
ARC
  5
687E
  8
01
 10
9790.8552811863374
 20
247.5716782472573
 30
0.0
 40
1.0
 50
180.0
 51
270.0
  0
LINE
  5
687F
  8
01
 10
9789.3552811863374
 20
235.57172385069319
 30
0.0
 11
9787.8485283087357
 21
235.57172385069319
 31
0.0
  0
LINE
  5
6880
  8
01
 10
9781.8552811863374
 20
252.5716782472573
 30
0.0
 11
9783.8485283087448
 21
252.5716782472573
 31
0.0
  0
LINE
  5
6881
  8
01
 10
9787.8551561330478
 20
252.5716782472571
 30
0.0
 11
9788.8552811863374
 21
252.5716782472573
 31
0.0
  0
LINE
  5
6882
  8
01
 10
9789.3552811863374
 20
235.57172385069319
 30
0.0
 11
9791.4552811863377
 21
235.57172385069319
 31
0.0
  0
LINE
  5
6887
  8
01
 10
9786.8485283087357
 20
250.5716782472573
 30
0.0
 11
9786.8552811863392
 21
250.5716782472573
 31
0.0
  0
ARC
  5
6888
  8
01
 10
9783.8552811863392
 20
249.5716782472573
 30
0.0
 40
1.0
 50
90.0
 51
179.99999999997391
  0
LINE
  5
6889
  8
01
 10
9789.3552811863374
 20
252.57167824725639
 30
0.0
 11
9788.9052811863367
 21
252.57167824725639
 31
0.0
  0
LINE
  5
688A
  8
01
 10
9781.8052811863381
 20
252.5716782472573
 30
0.0
 11
9781.3552811863374
 21
252.5716782472573
 31
0.0
  0
LINE
  5
688B
  8
01
 10
9780.8552811863374
 20
253.5716782472573
 30
0.0
 11
9780.8552811863374
 21
253.0716782472573
 31
0.0
  0
ARC
  5
688C
  8
01
 10
9781.3552811863374
 20
253.0716782472573
 30
0.0
 40
0.5
 50
180.0
 51
270.0
  0
LINE
  5
688D
  8
01
 10
9789.8552811863392
 20
253.5716782472573
 30
0.0
 11
9789.8552811863392
 21
253.07167824725639
 31
0.0
  0
ARC
  5
688E
  8
01
 10
9789.3552811863374
 20
253.07167824725639
 30
0.0
 40
0.5
 50
270.0
 51
0.0
  0
LINE
  5
688F
  8
01
 10
9788.9052811863367
 20
252.57167824725639
 30
0.0
 11
9787.8551561330478
 21
252.5716782472569
 31
0.0
  0
LINE
  5
6890
  8
01
 10
9783.8485283087448
 20
252.57167824725769
 30
0.0
 11
9781.8052811863381
 21
252.57167824725821
 31
0.0
  0
LINE
  5
6891
  8
01
 10
9783.8485283087448
 20
264.0716782509981
 30
0.0
 11
9783.8485283087448
 21
-36.928321748997519
 31
0.0
  0
LINE
  5
6892
  8
01
 10
9784.8485283087412
 20
265.07167825099799
 30
0.0
 11
9784.8485283087412
 21
-36.928321748997519
 31
0.0
  0
LINE
  5
6893
  8
01
 10
9786.8485283087575
 20
-357.92832174898012
 30
0.0
 11
9786.8485283087448
 21
-55.92832174899705
 31
0.0
  0
LINE
  5
6894
  8
01
 10
9783.8485283087448
 20
-356.92832174899189
 30
0.0
 11
9783.8485283087448
 21
-345.62845039041167
 31
0.0
  0
LINE
  5
6895
  8
01
 10
9787.8552811863374
 20
264.0716782509981
 30
0.0
 11
9786.8485283087357
 21
265.07167825099799
 31
0.0
  0
LINE
  5
6896
  8
01
 10
9784.8485283087412
 20
265.07167825099799
 30
0.0
 11
9783.8485283087448
 21
264.0716782509981
 31
0.0
  0
LINE
  5
6897
  8
01
 10
9787.8485283087412
 20
-356.92832174899098
 30
0.0
 11
9786.8485283087448
 21
-357.92832174899098
 31
0.0
  0
LINE
  5
6898
  8
01
 10
9784.8485283087412
 20
-357.92832174899098
 30
0.0
 11
9783.8485283087448
 21
-356.92832174899098
 31
0.0
  0
LINE
  5
6899
  8
01
 10
9786.8485283087448
 20
-357.92832174899098
 30
0.0
 11
9784.8485283087412
 21
-357.92832174899098
 31
0.0
  0
LINE
  5
689A
  8
01
 10
9786.8485283087357
 20
265.07167825099799
 30
0.0
 11
9784.8485283087412
 21
265.07167825099799
 31
0.0
  0
LINE
  5
689B
  8
01
 10
9784.8485283087412
 20
-357.92832174899098
 30
0.0
 11
9784.8485283087412
 21
-332.02891439443101
 31
0.0
  0
LINE
  5
689C
  8
01
 10
9786.8485283087448
 20
-357.928321748992
 30
0.0
 11
9786.8485283087448
 21
-332.02891439443101
 31
0.0
  0
LINE
  5
689D
  8
01
 10
9783.8485283087448
 20
-210.87256264874671
 30
0.0
 11
9787.8485283087412
 21
-210.87256264874671
 31
0.0
  0
LINE
  5
689E
  8
01
 10
9789.8552811863392
 20
253.57167824725639
 30
0.0
 11
9790.5344469205047
 21
253.57167824725639
 31
0.0
  0
LINE
  5
689F
  8
01
 10
9790.4552811863396
 20
254.27167824720709
 30
0.0
 11
9788.4552811863396
 21
254.27167824720709
 31
0.0
  0
LINE
  5
68A0
  8
01
 10
9788.4552811863396
 20
254.27167824720709
 30
0.0
 11
9788.4552811863396
 21
258.27167824720709
 31
0.0
  0
LINE
  5
68A1
  8
01
 10
9790.4552811863396
 20
262.27167824720709
 30
0.0
 11
9788.4552811863396
 21
262.27167824720709
 31
0.0
  0
LINE
  5
68A2
  8
01
 10
9788.4552811863396
 20
262.27167824720709
 30
0.0
 11
9788.4552811863396
 21
258.27167824720709
 31
0.0
  0
LINE
  5
68A3
  8
01
 10
9790.4552811863396
 20
-355.12832174521373
 30
0.0
 11
9788.4552811863396
 21
-355.12832174521373
 31
0.0
  0
LINE
  5
68A4
  8
01
 10
9788.4552811863396
 20
-355.12832174521373
 30
0.0
 11
9788.4552811863396
 21
-351.12832174521373
 31
0.0
  0
LINE
  5
68A5
  8
01
 10
9790.4552811863396
 20
-347.12832174521373
 30
0.0
 11
9788.4552811863396
 21
-347.12832174521373
 31
0.0
  0
LINE
  5
68A6
  8
01
 10
9788.4552811863396
 20
-347.12832174521373
 30
0.0
 11
9788.4552811863396
 21
-351.12832174521373
 31
0.0
  0
LINE
  5
68AB
  8
01
 10
9528.5521729198845
 20
195.5716663263274
 30
0.0
 11
9540.5521729198863
 21
195.5716663263274
 31
0.0
  0
LINE
  5
68AC
  8
01
 10
9534.5521729198863
 20
189.5716663263274
 30
0.0
 11
9534.5521729198863
 21
201.5716663263274
 31
0.0
  0
LINE
  5
68AD
  8
01
 10
9348.5521729198863
 20
195.5716663263274
 30
0.0
 11
9360.5521729198845
 21
195.5716663263274
 31
0.0
  0
LINE
  5
68AE
  8
01
 10
9354.5521729198863
 20
189.5716663263274
 30
0.0
 11
9354.5521729198863
 21
201.5716663263274
 31
0.0
  0
LINE
  5
68AF
  8
01
 10
9528.5521729198845
 20
-288.42833367367172
 30
0.0
 11
9540.5521729198863
 21
-288.42833367367172
 31
0.0
  0
LINE
  5
68B0
  8
01
 10
9534.5521729198863
 20
-294.42833367367172
 30
0.0
 11
9534.5521729198863
 21
-282.42833367367172
 31
0.0
  0
LINE
  5
68B1
  8
01
 10
9348.5521729200846
 20
-288.42833367367263
 30
0.0
 11
9360.5521729196753
 21
-288.42833367367263
 31
0.0
  0
LINE
  5
68B2
  8
01
 10
9354.5521729198863
 20
-294.42833367347259
 30
0.0
 11
9354.5521729198863
 21
-282.4283336738726
 31
0.0
  0
ARC
  5
6DC4
  8
01
 10
9580.5828337875791
 20
619.62569962632824
 30
0.0
 40
6.0
 50
319.89197433605779
 51
40.108025663942172
  0
LINE
  5
6DC5
  8
01
 10
9584.5599558625363
 20
623.77569962632788
 30
0.0
 11
9581.0828384590532
 21
623.77569962632788
 31
0.0
  0
LINE
  5
6DC6
  8
01
 10
9584.5599558625363
 20
622.97569962632861
 30
0.0
 11
9581.0828384590532
 21
622.97569962632849
 31
0.0
  0
LINE
  5
6DC7
  8
01
 10
9584.5599558625363
 20
615.47569962632849
 30
0.0
 11
9563.5828337875791
 21
615.47569962632849
 31
0.0
  0
LINE
  5
6DC8
  8
01
 10
9584.5599558625363
 20
616.27569962632867
 30
0.0
 11
9563.5828337875791
 21
616.27569962632867
 31
0.0
  0
LINE
  5
6DC9
  8
01
 10
9563.5828337875791
 20
617.62569962632824
 30
0.0
 11
9563.5828337875791
 21
615.47569962632849
 31
0.0
  0
LINE
  5
6DCA
  8
01
 10
9563.5828337875791
 20
623.77569962632788
 30
0.0
 11
9563.5828337875791
 21
621.62569962632824
 31
0.0
  0
ARC
  5
6DCB
  8
01
 10
9580.5828337875791
 20
619.62569962632824
 30
0.0
 40
5.2000000000000002
 50
319.89197433605779
 51
40.108025663942172
  0
ARC
  5
6DCC
  8
01
 10
9584.5599558625363
 20
616.27569962632776
 30
0.0
 40
0.8
 50
270.0
 51
319.89197433605779
  0
ARC
  5
6DCD
  8
01
 10
9584.5599558625363
 20
622.9756996263277
 30
0.0
 40
0.8
 50
40.108025663942172
 51
90.0
  0
LINE
  5
6E90
  8
01
 10
9586.5521707012886
 20
-36.928321748997519
 30
0.0
 11
9586.5521707012886
 21
-55.928321748997057
 31
0.0
  0
LINE
  5
6E91
  8
01
 10
9586.5521707012886
 20
-36.928321748997519
 30
0.0
 11
9565.5521707012886
 21
-36.928321748997057
 31
0.0
  0
LINE
  5
6E92
  8
01
 10
9586.5521707012886
 20
-55.928321748997057
 30
0.0
 11
9565.5521707012886
 21
-55.928321748997519
 31
0.0
  0
ARC
  5
6E93
  8
01
 10
9565.5521707012886
 20
-38.928321748997071
 30
0.0
 40
2.0
 50
90.0
 51
180.0
  0
ARC
  5
6E94
  8
01
 10
9565.5521707012886
 20
-53.928321748997512
 30
0.0
 40
2.0
 50
180.0
 51
270.0
  0
LINE
  5
6E95
  8
01
 10
9563.5521707012886
 20
-38.928321748997071
 30
0.0
 11
9563.5521707012886
 21
-53.928321748997512
 31
0.0
  0
ARC
  5
6ED1
  8
01
 10
9307.0872162630349
 20
625.72569962632758
 30
0.0
 40
0.5
 50
179.49999967511499
 51
270.0
  0
LINE
  5
70A1
  8
01
 10
9573.0828384590532
 20
622.97569962632849
 30
0.0
 11
9563.5828337875791
 21
622.97569962632861
 31
0.0
  0
LINE
  5
70A2
  8
01
 10
9573.0828384590532
 20
623.77569962632788
 30
0.0
 11
9563.5828337875791
 21
623.77569962632788
 31
0.0
  0
LINE
  5
75A2
  8
01
 10
9790.0001964287439
 20
-36.928321748997519
 30
0.0
 11
9781.7001964287447
 21
-36.928321748997519
 31
0.0
  0
LINE
  5
75A3
  8
01
 10
9781.7001964287447
 20
-55.928321748997057
 30
0.0
 11
9790.0001964287439
 21
-55.928321748997057
 31
0.0
  0
LINE
  5
75A4
  8
01
 10
9582.5521751309334
 20
-46.428321749002748
 30
0.0
 11
9582.5521751309334
 21
-353.92832174526279
 31
0.0
  0
LINE
  5
75A6
  8
01
 10
9785.8501964287425
 20
264.0716782509981
 30
0.0
 11
9785.8501964287425
 21
-36.928321748997519
 31
0.0
  0
LINE
  5
75A7
  8
01
 10
9781.7001964287447
 20
-36.928321748997519
 30
0.0
 11
9781.7001964287447
 21
-55.928321748997057
 31
0.0
  0
LINE
  5
75A8
  8
01
 10
9790.0001964287439
 20
-36.928321748997519
 30
0.0
 11
9790.0001964287439
 21
-55.928321748997057
 31
0.0
  0
LINE
  5
75AC
  8
01
 10
9786.8485283087448
 20
-36.928321748997519
 30
0.0
 11
9786.8485283087357
 21
265.07167825099799
 31
0.0
  0
LINE
  5
75AD
  8
01
 10
9784.8485283087412
 20
-55.92832174899705
 30
0.0
 11
9784.8485283087466
 21
-345.92832174899189
 31
0.0
  0
LINE
  5
75AE
  8
01
 10
9785.8501964287425
 20
-55.92832174899705
 30
0.0
 11
9785.8501964287425
 21
-345.92832174899189
 31
0.0
  0
LINE
  5
75AF
  8
01
 10
9783.8485283087448
 20
-55.92832174899705
 30
0.0
 11
9783.8485283087448
 21
-345.92832174899189
 31
0.0
  0
LINE
  5
75B0
  8
01
 10
9787.8520080524322
 20
-36.928321748997519
 30
0.0
 11
9787.8552811863374
 21
264.0716782509981
 31
0.0
  0
LINE
  5
75B2
  8
01
 10
9791.4552811863377
 20
-43.928321749002748
 30
0.0
 11
9790.0001964287439
 21
-43.928321749002748
 31
0.0
  0
LINE
  5
75B3
  8
01
 10
9791.4552811863377
 20
-48.928321749002748
 30
0.0
 11
9790.0001964287439
 21
-48.928321749002748
 31
0.0
  0
LINE
  5
762C
  8
01
 10
9810.9552811863377
 20
-34.428321749002748
 30
0.0
 11
9791.4552811863377
 21
-33.928321749002762
 31
0.0
  0
LINE
  5
762D
  8
01
 10
9810.9552811863377
 20
-58.428321749002748
 30
0.0
 11
9791.4552811863377
 21
-58.928321749002748
 31
0.0
  0
LINE
  5
77BC
  8
1HATCH
 10
9306.5565531762331
 20
767.22570055019969
 30
0.0
 11
9736.1207527036349
 21
767.22570055019969
 31
0.0
  0
LINE
  5
77BE
  8
1DIM
 10
9306.5565531762331
 20
767.22570055019969
 30
0.0
 11
9306.5565531762331
 21
543.62620908387305
 31
0.0
  0
ARC
  5
79A7
  8
01
 10
9810.9552811863377
 20
-46.428321749002741
 30
0.0
 40
12.0
 50
270.00000000001302
 51
90.0
  0
TEXT
  5
8291
  8
1TEXT
 10
8802.9689941991146
 20
806.61158691598621
 30
0.0
 40
50.0
  1
DD-30-SS
  0
TEXT
  5
8292
  8
1TEXT
 10
9030.9689941991146
 20
759.11158691598621
 30
0.0
 40
20.0
  1
コード
 72
     1
 11
9064.9689941991146
 21
759.11158691598621
 31
0.0
  0
TEXT
  5
8293
  8
1TEXT
 10
8820.6356608657807
 20
759.11158691598621
 30
0.0
 40
20.0
  1
扉ガラス仕上
 72
     1
 11
8889.9689941991128
 21
759.11158691598621
 31
0.0
  0
LINE
  5
8294
  8
1HATCH
 10
9152.9689941991146
 20
786.61158691598621
 30
0.0
 11
9152.9689941991146
 21
716.61158691598609
 31
0.0
  0
LINE
  5
8295
  8
1HATCH
 10
8977.9689941991146
 20
786.61158691598621
 30
0.0
 11
8977.9689941991146
 21
716.61158691598609
 31
0.0
  0
LINE
  5
8296
  8
1HATCH
 10
8802.9689941991146
 20
786.61158691598621
 30
0.0
 11
8802.9689941991146
 21
716.61158691598609
 31
0.0
  0
TEXT
  5
8297
  8
1TEXT
 10
8989.9689941991146
 20
724.11158691598621
 30
0.0
 40
20.0
  1
DD-30-SS
 72
     1
 11
9064.9689941991146
 21
724.11158691598621
 31
0.0
  0
LINE
  5
8298
  8
1HATCH
 10
8802.9689941991146
 20
751.61158691598621
 30
0.0
 11
9152.9689941991146
 21
751.61158691598621
 31
0.0
  0
LINE
  5
8299
  8
1HATCH
 10
8802.9689941991146
 20
716.61158691598609
 30
0.0
 11
9152.9689941991146
 21
716.61158691598609
 31
0.0
  0
TEXT
  5
829A
  8
1TEXT
 10
8842.3689941991142
 20
724.11158691598621
 30
0.0
 40
20.0
  1
乳白ガラス
 41
0.85
 72
     1
 11
8889.9689941991128
 21
724.11158691598621
 31
0.0
  0
LINE
  5
829B
  8
1HATCH
 10
8802.9689941991146
 20
786.61158691598621
 30
0.0
 11
9152.9689941991146
 21
786.61158691598621
 31
0.0
  0
LINE
  5
A11C
  8
1HIDDEN
 10
9571.2483478738104
 20
-347.07692666167861
 30
0.0
 11
9571.2483478738104
 21
-227.178337785542
 31
0.0
  0
LINE
  5
A11D
  8
1HIDDEN
 10
9571.2483478738104
 20
254.26730617877729
 30
0.0
 11
9338.5521707002918
 21
254.2673061787782
 31
0.0
  0
LINE
  5
A11E
  8
1HIDDEN
 10
9573.2477950064076
 20
-347.12394967678313
 30
0.0
 11
9338.5521707002918
 21
-347.12394967678222
 31
0.0
  0
LINE
  5
A11F
  8
1HIDDEN
 10
9317.856440146581
 20
248.5716782472563
 30
0.0
 11
9317.856440146581
 21
134.3006250609798
 31
0.0
  0
LINE
  5
A120
  8
1HIDDEN
 10
9338.5521707002918
 20
-347.12394967678222
 30
0.0
 11
9338.5521707002918
 21
-341.42834559086259
 31
0.0
  0
LINE
  5
A121
  8
1HIDDEN
 10
9317.856440146581
 20
-341.42834559086248
 30
0.0
 11
9338.5521707002918
 21
-341.42834559086259
 31
0.0
  0
LINE
  5
A122
  8
1HIDDEN
 10
9338.5521707002918
 20
254.2673061787782
 30
0.0
 11
9338.5521707002918
 21
248.57167824725639
 31
0.0
  0
LINE
  5
A123
  8
1HIDDEN
 10
9317.856440146581
 20
248.5716782472563
 30
0.0
 11
9338.5521707002918
 21
248.57167824725639
 31
0.0
  0
LINE
  5
A1C7
  8
1PHANTOM
 10
9571.2483478738104
 20
759.2256996263277
 30
0.0
 11
9317.856440146581
 21
759.22569962632758
 31
0.0
  0
LINE
  5
C5C0
  8
01
 10
9942.4552811863377
 20
317.3324630209691
 30
0.0
 11
9942.4552811863377
 21
-400.32483250724039
 31
0.0
  0
LINE
  5
C5C1
  8
01
 10
9951.4552811863377
 20
317.3324630209691
 30
0.0
 11
9951.4552811863377
 21
-400.32483250724039
 31
0.0
  0
LINE
  5
C5C2
  8
01
 10
9933.4552811863359
 20
317.3324630209691
 30
0.0
 11
9933.4552811863359
 21
-400.32483250724039
 31
0.0
  0
LINE
  5
C967
  8
1HIDDEN
 10
9317.856440146581
 20
134.3216663263272
 30
0.0
 11
9571.2483478738104
 21
134.32166632632729
 31
0.0
  0
LINE
  5
C968
  8
1HIDDEN
 10
9317.856440146581
 20
129.8216663263272
 30
0.0
 11
9571.2483478738104
 21
129.82166632632729
 31
0.0
  0
LINE
  5
C969
  8
1HIDDEN
 10
9317.8564401465828
 20
-222.678337785542
 30
0.0
 11
9571.2483478738104
 21
-222.678337785542
 31
0.0
  0
LINE
  5
C96A
  8
1HIDDEN
 10
9317.856440146581
 20
-227.178337785542
 30
0.0
 11
9571.2483478738104
 21
-227.178337785542
 31
0.0
  0
LINE
  5
C96B
  8
1HIDDEN
 10
9571.2483478738104
 20
-222.678337785542
 30
0.0
 11
9571.2483478738104
 21
129.82166632632729
 31
0.0
  0
LINE
  5
C96C
  8
1HIDDEN
 10
9317.856440146581
 20
-227.178337785542
 30
0.0
 11
9317.856440146581
 21
-341.42834559086248
 31
0.0
  0
LINE
  5
C96D
  8
1HIDDEN
 10
9317.856440146581
 20
129.8216663263272
 30
0.0
 11
9317.8564401465828
 21
-222.678337785542
 31
0.0
  0
LINE
  5
C96E
  8
1HIDDEN
 10
9571.2483478738104
 20
134.32166632632729
 30
0.0
 11
9571.2483478738104
 21
254.26730617877729
 31
0.0
  0
ARC
  5
CA35
  8
01
 10
9329.0521707002918
 20
-345.92832174899007
 30
0.0
 40
7.0
 50
0.0
 51
49.994799115127712
  0
LINE
  5
CAB7
  8
01
 10
9319.9828337871004
 20
357.72569962584743
 30
0.0
 11
9319.9828337871004
 21
607.22569962633474
 31
0.0
  0
LINE
  5
CAB9
  8
01
 10
9323.9828337871004
 20
607.22569962633474
 30
0.0
 11
9323.9828337870931
 21
357.72569962584743
 31
0.0
  0
LINE
  5
CABB
  8
01
 10
9323.9828337870931
 20
357.72569962584743
 30
0.0
 11
9322.9828337870913
 21
356.72569962584828
 31
0.0
  0
LINE
  5
CABC
  8
01
 10
9320.9828337871004
 20
356.72569962584743
 30
0.0
 11
9319.9828337871004
 21
357.72569962584828
 31
0.0
  0
LINE
  5
CABD
  8
01
 10
9322.9828337870913
 20
356.72569962584828
 30
0.0
 11
9320.9828337871004
 21
356.72569962584828
 31
0.0
  0
ARC
  5
CADC
  8
01
 10
9321.9828337871004
 20
360.22569962584743
 30
0.0
 40
6.0
 50
229.8919743360608
 51
310.1080256639392
  0
LINE
  5
CADD
  8
01
 10
9326.1328337871018
 20
356.24857755089022
 30
0.0
 11
9326.1328337871018
 21
377.22569962584828
 31
0.0
  0
LINE
  5
CADF
  8
01
 10
9325.3328337871008
 20
356.24857755089022
 30
0.0
 11
9325.3328337871008
 21
377.22569962584828
 31
0.0
  0
LINE
  5
CAE1
  8
01
 10
9317.8328337871008
 20
356.24857755089022
 30
0.0
 11
9317.8328337871008
 21
377.22569962584731
 31
0.0
  0
LINE
  5
CAE2
  8
01
 10
9318.6328337871018
 20
356.24857755089022
 30
0.0
 11
9318.6328337871018
 21
377.22569962584731
 31
0.0
  0
LINE
  5
CAE3
  8
01
 10
9319.9828337871004
 20
377.22569962584731
 30
0.0
 11
9317.8328337871008
 21
377.22569962584731
 31
0.0
  0
LINE
  5
CAE4
  8
01
 10
9326.1328337871018
 20
377.22569962584828
 30
0.0
 11
9323.9828337871004
 21
377.22569962584731
 31
0.0
  0
ARC
  5
CAE5
  8
01
 10
9321.9828337871004
 20
360.22569962584743
 30
0.0
 40
5.2000000000000002
 50
229.8919743360608
 51
310.1080256639392
  0
ARC
  5
CAE6
  8
01
 10
9318.6328337871
 20
356.24857755089022
 30
0.0
 40
0.8
 50
180.0
 51
229.8919743360608
  0
ARC
  5
CAE7
  8
01
 10
9325.3328337870989
 20
356.24857755089022
 30
0.0
 40
0.8
 50
310.1080256639392
 51
0.0
  0
LINE
  5
CB67
  8
1PHANTOM
 10
9326.0828337870989
 20
609.22569962632758
 30
0.0
 11
9326.0828337870989
 21
610.22569962632758
 31
0.0
  0
ARC
  5
CB68
  8
1PHANTOM
 10
9324.0828337871008
 20
609.22569962632758
 30
0.0
 40
2.0
 50
270.0
 51
0.0
  0
LINE
  5
CB6A
  8
1PHANTOM
 10
9326.0828337870989
 20
628.22569962632747
 30
0.0
 11
9326.0828337870989
 21
629.22569962632758
 31
0.0
  0
LINE
  5
CB6D
  8
1PHANTOM
 10
9324.0828337871008
 20
631.22569962632747
 30
0.0
 11
9319.0828337870989
 21
631.22569962632747
 31
0.0
  0
ARC
  5
CB6F
  8
1PHANTOM
 10
9324.0828337871008
 20
629.22569962632758
 30
0.0
 40
2.0
 50
0.0
 51
90.0
  0
LINE
  5
CB71
  8
1PHANTOM
 10
9319.0828337870989
 20
631.22569962632747
 30
0.0
 11
9318.6587453003067
 21
631.22569962632747
 31
0.0
  0
LINE
  5
CB73
  8
01
 10
9332.5828337870971
 20
614.50536440529299
 30
0.0
 11
9332.5828337870971
 21
623.94603484736194
 31
0.0
  0
ARC
  5
CB75
  8
1PHANTOM
 10
9330.5828337870989
 20
614.50536440529299
 30
0.0
 40
2.0
 50
294.77514056882859
 51
0.0
  0
LINE
  5
CB76
  8
1PHANTOM
 10
9318.8045607850909
 20
607.22569962632747
 30
0.0
 11
9319.0828337870989
 21
607.22569962632747
 31
0.0
  0
LINE
  5
CB78
  8
1PHANTOM
 10
9318.6587453003012
 20
607.22569962632747
 30
0.0
 11
9324.0828337871008
 21
607.22569962632747
 31
0.0
  0
LINE
  5
CBCD
  8
1PHANTOM
 10
9331.4209501420228
 20
625.7619536163628
 30
0.0
 11
9326.0828337870989
 21
628.22569962632747
 31
0.0
  0
ARC
  5
CBCE
  8
1PHANTOM
 10
9330.5828337870989
 20
623.94603484736194
 30
0.0
 40
2.0
 50
0.0
 51
65.224859431171325
  0
LINE
  5
CBCF
  8
1PHANTOM
 10
9326.0828337870989
 20
610.22569962632758
 30
0.0
 11
9331.4209501420228
 21
612.68944563629225
 31
0.0
  0
ARC
  5
CBD2
  8
1PHANTOM
 10
9363.5586339415895
 20
619.22569962632031
 30
0.0
 40
48.0
 50
167.44414220141081
 51
192.5558577985891
  0
ARC
  5
CBD4
  8
1PHANTOM
 10
9318.6587453003012
 20
609.22569962632758
 30
0.0
 40
2.0
 50
192.5558577985891
 51
270.0
  0
ARC
  5
CBD5
  8
1PHANTOM
 10
9318.6587453003067
 20
629.22569962632758
 30
0.0
 40
2.0
 50
90.0
 51
167.44414220141081
  0
LINE
  5
CF63
  8
1PHANTOM
 10
9948.7731467723825
 20
193.0716663263274
 30
0.0
 11
9949.7731467723825
 21
198.0716663263274
 31
0.0
  0
LINE
  5
CF64
  8
1PHANTOM
 10
9946.7731467723825
 20
193.0716663263274
 30
0.0
 11
9947.7731467723843
 21
198.0716663263274
 31
0.0
  0
LINE
  5
CF65
  8
1PHANTOM
 10
9948.7731467723825
 20
193.0716663263274
 30
0.0
 11
9948.6231467723846
 21
193.8216663263274
 31
0.0
  0
LINE
  5
CF66
  8
1PHANTOM
 10
9946.7731467723825
 20
193.0716663263274
 30
0.0
 11
9946.6231467723828
 21
193.8216663263274
 31
0.0
  0
LINE
  5
CF67
  8
1PHANTOM
 10
9927.005281186337
 20
200.5716663263274
 30
0.0
 11
9927.005281186337
 21
190.5716663263274
 31
0.0
  0
LINE
  5
CF68
  8
1PHANTOM
 10
9950.7731467723843
 20
193.0716663263274
 30
0.0
 11
9950.6231467723846
 21
193.8216663263274
 31
0.0
  0
LINE
  5
CF69
  8
1PHANTOM
 10
9952.7731467723825
 20
193.0716663263274
 30
0.0
 11
9952.6231467723828
 21
193.8216663263274
 31
0.0
  0
LINE
  5
CF6A
  8
1PHANTOM
 10
9950.7731467723843
 20
193.0716663263274
 30
0.0
 11
9951.7731467723825
 21
198.0716663263274
 31
0.0
  0
LINE
  5
CF6B
  8
1PHANTOM
 10
9954.7731467723825
 20
193.0716663263274
 30
0.0
 11
9954.6231467723846
 21
193.8216663263274
 31
0.0
  0
LINE
  5
CF6C
  8
1PHANTOM
 10
9954.7731467723825
 20
193.0716663263274
 30
0.0
 11
9955.7731467723825
 21
198.0716663263274
 31
0.0
  0
LINE
  5
CF6D
  8
1PHANTOM
 10
9952.7731467723825
 20
193.0716663263274
 30
0.0
 11
9953.7731467723843
 21
198.0716663263274
 31
0.0
  0
LINE
  5
CF6E
  8
1PHANTOM
 10
9958.7731467723825
 20
193.0716663263274
 30
0.0
 11
9959.7731467723843
 21
198.0716663263274
 31
0.0
  0
LINE
  5
CF6F
  8
1PHANTOM
 10
9960.7731467723825
 20
193.0716663263274
 30
0.0
 11
9960.6231467723846
 21
193.8216663263274
 31
0.0
  0
LINE
  5
CF70
  8
1PHANTOM
 10
9960.7731467723825
 20
193.0716663263274
 30
0.0
 11
9961.7731467723825
 21
198.0716663263274
 31
0.0
  0
LINE
  5
CF71
  8
1PHANTOM
 10
9962.7731467723843
 20
193.0716663263274
 30
0.0
 11
9962.6231467723828
 21
193.8216663263274
 31
0.0
  0
LINE
  5
CF72
  8
1PHANTOM
 10
9964.7731467723825
 20
193.0716663263274
 30
0.0
 11
9964.6231467723846
 21
193.8216663263274
 31
0.0
  0
LINE
  5
CF73
  8
1PHANTOM
 10
9968.7731467723825
 20
193.0716663263274
 30
0.0
 11
9968.6231467723828
 21
193.8216663263274
 31
0.0
  0
LINE
  5
CF74
  8
1PHANTOM
 10
9966.7731467723825
 20
193.0716663263274
 30
0.0
 11
9966.6231467723846
 21
193.8216663263274
 31
0.0
  0
LINE
  5
CF75
  8
1PHANTOM
 10
9964.7731467723825
 20
193.0716663263274
 30
0.0
 11
9965.7731467723825
 21
198.0716663263274
 31
0.0
  0
LINE
  5
CF76
  8
1PHANTOM
 10
9966.7731467723825
 20
193.0716663263274
 30
0.0
 11
9967.7731467723825
 21
198.0716663263274
 31
0.0
  0
LINE
  5
CF77
  8
1PHANTOM
 10
9968.7731467723825
 20
193.0716663263274
 30
0.0
 11
9969.7731467723825
 21
198.0716663263274
 31
0.0
  0
LINE
  5
CF78
  8
1PHANTOM
 10
9962.7731467723843
 20
193.0716663263274
 30
0.0
 11
9963.7731467723825
 21
198.0716663263274
 31
0.0
  0
LINE
  5
CF79
  8
1PHANTOM
 10
9970.8098933841757
 20
193.25539938529161
 30
0.0
 11
9970.6598933841742
 21
194.00539938529161
 31
0.0
  0
LINE
  5
CF7A
  8
1PHANTOM
 10
9970.8098933841757
 20
193.25539938529161
 30
0.0
 11
9971.6892742803939
 21
197.65230386638081
 31
0.0
  0
LINE
  5
CF7B
  8
1PHANTOM
 10
9956.7731467723843
 20
193.0716663263274
 30
0.0
 11
9956.6231467723828
 21
193.8216663263274
 31
0.0
  0
LINE
  5
CF7C
  8
1PHANTOM
 10
9958.7731467723825
 20
193.0716663263274
 30
0.0
 11
9958.6231467723828
 21
193.8216663263274
 31
0.0
  0
LINE
  5
CF7D
  8
1PHANTOM
 10
9956.7731467723843
 20
193.0716663263274
 30
0.0
 11
9957.7731467723825
 21
198.0716663263274
 31
0.0
  0
LINE
  5
CF7F
  8
1PHANTOM
 10
9959.9231467723821
 20
197.3216663263274
 30
0.0
 11
9959.7731467723843
 21
198.0716663263274
 31
0.0
  0
LINE
  5
CF80
  8
1PHANTOM
 10
9965.9231467723821
 20
197.3216663263274
 30
0.0
 11
9965.7731467723825
 21
198.0716663263274
 31
0.0
  0
LINE
  5
CF81
  8
1PHANTOM
 10
9963.9231467723821
 20
197.3216663263274
 30
0.0
 11
9963.7731467723825
 21
198.0716663263274
 31
0.0
  0
LINE
  5
CF82
  8
1PHANTOM
 10
9967.9231467723821
 20
197.3216663263274
 30
0.0
 11
9967.7731467723825
 21
198.0716663263274
 31
0.0
  0
LINE
  5
CF83
  8
1PHANTOM
 10
9969.9231467723821
 20
197.3216663263274
 30
0.0
 11
9969.7731467723825
 21
198.0716663263274
 31
0.0
  0
LINE
  5
CF84
  8
1PHANTOM
 10
9961.9231467723821
 20
197.3216663263274
 30
0.0
 11
9961.7731467723825
 21
198.0716663263274
 31
0.0
  0
LINE
  5
CF85
  8
1PHANTOM
 10
9973.7375461950814
 20
196.3936634398278
 30
0.0
 11
9973.5875461950836
 21
197.1436634398278
 31
0.0
  0
LINE
  5
CF86
  8
1PHANTOM
 10
9971.8392742803935
 20
196.90230386638081
 30
0.0
 11
9971.6892742803939
 21
197.65230386638081
 31
0.0
  0
LINE
  5
CF87
  8
1PHANTOM
 10
9975.6358181097712
 20
195.88502301327111
 30
0.0
 11
9975.4858181097716
 21
196.63502301327111
 31
0.0
  0
LINE
  5
CF88
  8
1PHANTOM
 10
9972.9231420382275
 20
193.8216426555509
 30
0.0
 11
9972.7731420382279
 21
194.5716426555509
 31
0.0
  0
LINE
  5
CF89
  8
1PHANTOM
 10
9975.0363906922812
 20
194.3878859258102
 30
0.0
 11
9975.4858181097716
 21
196.63502301327111
 31
0.0
  0
LINE
  5
CF8A
  8
1PHANTOM
 10
9972.9231420382275
 20
193.8216426555509
 30
0.0
 11
9973.5875461950836
 21
197.1436634398278
 31
0.0
  0
LINE
  5
CF8B
  8
1PHANTOM
 10
9975.0363906922812
 20
194.3878859258102
 30
0.0
 11
9974.8863906922779
 21
195.1378859258102
 31
0.0
  0
LINE
  5
CF8C
  8
1PHANTOM
 10
9957.9231467723821
 20
197.3216663263274
 30
0.0
 11
9957.7731467723825
 21
198.0716663263274
 31
0.0
  0
LINE
  5
CF8D
  8
1PHANTOM
 10
9949.9231467723821
 20
197.3216663263274
 30
0.0
 11
9949.7731467723825
 21
198.0716663263274
 31
0.0
  0
LINE
  5
CF8E
  8
1PHANTOM
 10
9947.9231467723821
 20
197.3216663263274
 30
0.0
 11
9947.7731467723843
 21
198.0716663263274
 31
0.0
  0
LINE
  5
CF8F
  8
1PHANTOM
 10
9951.9231467723821
 20
197.3216663263274
 30
0.0
 11
9951.7731467723825
 21
198.0716663263274
 31
0.0
  0
LINE
  5
CF90
  8
1PHANTOM
 10
9955.9231467723821
 20
197.3216663263274
 30
0.0
 11
9955.7731467723825
 21
198.0716663263274
 31
0.0
  0
LINE
  5
CF91
  8
1PHANTOM
 10
9953.9231467723821
 20
197.3216663263274
 30
0.0
 11
9953.7731467723843
 21
198.0716663263274
 31
0.0
  0
LINE
  5
D01B
  8
1PHANTOM
 10
9927.005281186337
 20
190.5716663263274
 30
0.0
 11
9930.2552811863388
 21
193.8216663263274
 31
0.0
  0
LINE
  5
D01C
  8
1PHANTOM
 10
9970.1241922730915
 20
193.8216663263274
 30
0.0
 11
9930.2552811863388
 21
193.8216663263274
 31
0.0
  0
LINE
  5
D01D
  8
1PHANTOM
 10
9927.005281186337
 20
190.5716663263274
 30
0.0
 11
9926.6552811863367
 21
190.5716663263274
 31
0.0
  0
LINE
  5
D01E
  8
1PHANTOM
 10
9976.6552811863367
 20
195.5716663263274
 30
0.0
 11
9970.1241922730915
 21
193.8216663263274
 31
0.0
  0
LINE
  5
D01F
  8
1PHANTOM
 10
9926.6552811863367
 20
200.5716663263274
 30
0.0
 11
9926.6552811863367
 21
190.5716663263274
 31
0.0
  0
LINE
  5
D020
  8
1PHANTOM
 10
9976.6552811863367
 20
195.5716663263274
 30
0.0
 11
9970.1241922730915
 21
197.3216663263274
 31
0.0
  0
LINE
  5
D021
  8
1PHANTOM
 10
9927.005281186337
 20
200.5716663263274
 30
0.0
 11
9926.6552811863367
 21
200.5716663263274
 31
0.0
  0
LINE
  5
D022
  8
1PHANTOM
 10
9970.1241922730915
 20
197.3216663263274
 30
0.0
 11
9930.2552811863352
 21
197.3216663263274
 31
0.0
  0
LINE
  5
D023
  8
1PHANTOM
 10
9927.005281186337
 20
200.5716663263274
 30
0.0
 11
9930.2552811863352
 21
197.3216663263274
 31
0.0
  0
LINE
  5
D027
  8
1PHANTOM
 10
9942.7731467723825
 20
193.0716663263274
 30
0.0
 11
9943.7731467723825
 21
198.0716663263274
 31
0.0
  0
LINE
  5
D028
  8
1PHANTOM
 10
9940.7731467723825
 20
193.0716663263274
 30
0.0
 11
9941.7731467723825
 21
198.0716663263274
 31
0.0
  0
LINE
  5
D029
  8
1PHANTOM
 10
9942.7731467723825
 20
193.0716663263274
 30
0.0
 11
9942.6231467723828
 21
193.8216663263274
 31
0.0
  0
LINE
  5
D02A
  8
1PHANTOM
 10
9940.7731467723825
 20
193.0716663263274
 30
0.0
 11
9940.6231467723828
 21
193.8216663263274
 31
0.0
  0
LINE
  5
D02B
  8
1PHANTOM
 10
9944.7731467723843
 20
193.0716663263274
 30
0.0
 11
9944.6231467723846
 21
193.8216663263274
 31
0.0
  0
LINE
  5
D02C
  8
1PHANTOM
 10
9944.7731467723843
 20
193.0716663263274
 30
0.0
 11
9945.7731467723825
 21
198.0716663263274
 31
0.0
  0
LINE
  5
D02D
  8
1PHANTOM
 10
9943.9231467723839
 20
197.3216663263274
 30
0.0
 11
9943.7731467723825
 21
198.0716663263274
 31
0.0
  0
LINE
  5
D02E
  8
1PHANTOM
 10
9941.9231467723803
 20
197.3216663263274
 30
0.0
 11
9941.7731467723825
 21
198.0716663263274
 31
0.0
  0
LINE
  5
D02F
  8
1PHANTOM
 10
9945.9231467723821
 20
197.3216663263274
 30
0.0
 11
9945.7731467723825
 21
198.0716663263274
 31
0.0
  0
LINE
  5
D030
  8
1PHANTOM
 10
9938.7731467723825
 20
193.0716663263274
 30
0.0
 11
9939.7731467723825
 21
198.0716663263274
 31
0.0
  0
LINE
  5
D031
  8
1PHANTOM
 10
9936.7731467723825
 20
193.0716663263274
 30
0.0
 11
9937.7731467723843
 21
198.0716663263274
 31
0.0
  0
LINE
  5
D032
  8
1PHANTOM
 10
9938.7731467723825
 20
193.0716663263274
 30
0.0
 11
9938.6231467723846
 21
193.8216663263274
 31
0.0
  0
LINE
  5
D033
  8
1PHANTOM
 10
9936.7731467723825
 20
193.0716663263274
 30
0.0
 11
9936.6231467723828
 21
193.8216663263274
 31
0.0
  0
LINE
  5
D034
  8
1PHANTOM
 10
9939.9231467723821
 20
197.3216663263274
 30
0.0
 11
9939.7731467723825
 21
198.0716663263274
 31
0.0
  0
LINE
  5
D035
  8
1PHANTOM
 10
9937.9231467723839
 20
197.3216663263274
 30
0.0
 11
9937.7731467723843
 21
198.0716663263274
 31
0.0
  0
LINE
  5
D0B6
  8
1PHANTOM
 10
9934.7731467723843
 20
193.0716663263274
 30
0.0
 11
9935.7731467723825
 21
198.0716663263274
 31
0.0
  0
LINE
  5
D0B7
  8
1PHANTOM
 10
9934.7731467723843
 20
193.0716663263274
 30
0.0
 11
9934.6231467723828
 21
193.8216663263274
 31
0.0
  0
LINE
  5
D0B8
  8
1PHANTOM
 10
9935.9231467723803
 20
197.3216663263274
 30
0.0
 11
9935.7731467723825
 21
198.0716663263274
 31
0.0
  0
LINE
  5
D0B9
  8
1PHANTOM
 10
9932.7731467723825
 20
193.0716663263274
 30
0.0
 11
9933.7731467723825
 21
198.0716663263274
 31
0.0
  0
LINE
  5
D0BA
  8
1PHANTOM
 10
9930.7731467723825
 20
193.0716663263274
 30
0.0
 11
9931.7731467723843
 21
198.0716663263274
 31
0.0
  0
LINE
  5
D0BB
  8
1PHANTOM
 10
9932.7731467723825
 20
193.0716663263274
 30
0.0
 11
9932.6231467723846
 21
193.8216663263274
 31
0.0
  0
LINE
  5
D0BC
  8
1PHANTOM
 10
9930.7731467723825
 20
193.0716663263274
 30
0.0
 11
9930.6231467723828
 21
193.8216663263274
 31
0.0
  0
LINE
  5
D0BD
  8
1PHANTOM
 10
9933.9231467723821
 20
197.3216663263274
 30
0.0
 11
9933.7731467723825
 21
198.0716663263274
 31
0.0
  0
LINE
  5
D0BE
  8
1PHANTOM
 10
9931.9231467723821
 20
197.3216663263274
 30
0.0
 11
9931.7731467723843
 21
198.0716663263274
 31
0.0
  0
LINE
  5
D0C8
  8
1PHANTOM
 10
9927.005281186337
 20
-293.42833367367172
 30
0.0
 11
9930.2552811863388
 21
-290.17833367367172
 31
0.0
  0
LINE
  5
D0C9
  8
1PHANTOM
 10
9970.1241922730915
 20
-290.17833367367172
 30
0.0
 11
9930.2552811863388
 21
-290.17833367367172
 31
0.0
  0
LINE
  5
D0CA
  8
1PHANTOM
 10
9927.005281186337
 20
-293.42833367367172
 30
0.0
 11
9926.6552811863367
 21
-293.42833367367172
 31
0.0
  0
LINE
  5
D0CB
  8
1PHANTOM
 10
9976.6552811863367
 20
-288.42833367367172
 30
0.0
 11
9970.1241922730915
 21
-290.17833367367172
 31
0.0
  0
LINE
  5
D0CC
  8
1PHANTOM
 10
9926.6552811863367
 20
-283.42833367367172
 30
0.0
 11
9926.6552811863367
 21
-293.42833367367172
 31
0.0
  0
LINE
  5
D0CD
  8
1PHANTOM
 10
9976.6552811863367
 20
-288.42833367367172
 30
0.0
 11
9970.1241922730915
 21
-286.6783336736716
 31
0.0
  0
LINE
  5
D0CE
  8
1PHANTOM
 10
9927.005281186337
 20
-283.42833367367172
 30
0.0
 11
9926.6552811863367
 21
-283.42833367367172
 31
0.0
  0
LINE
  5
D0CF
  8
1PHANTOM
 10
9970.1241922730915
 20
-286.6783336736716
 30
0.0
 11
9930.2552811863352
 21
-286.6783336736716
 31
0.0
  0
LINE
  5
D0D0
  8
1PHANTOM
 10
9927.005281186337
 20
-283.42833367367172
 30
0.0
 11
9930.2552811863352
 21
-286.6783336736716
 31
0.0
  0
LINE
  5
D0D1
  8
1PHANTOM
 10
9948.7731467723825
 20
-290.92833367367172
 30
0.0
 11
9949.7731467723825
 21
-285.92833367367172
 31
0.0
  0
LINE
  5
D0D2
  8
1PHANTOM
 10
9946.7731467723825
 20
-290.92833367367172
 30
0.0
 11
9947.7731467723843
 21
-285.92833367367172
 31
0.0
  0
LINE
  5
D0D3
  8
1PHANTOM
 10
9948.7731467723825
 20
-290.92833367367172
 30
0.0
 11
9948.6231467723846
 21
-290.17833367367172
 31
0.0
  0
LINE
  5
D0D4
  8
1PHANTOM
 10
9946.7731467723825
 20
-290.92833367367172
 30
0.0
 11
9946.6231467723828
 21
-290.17833367367172
 31
0.0
  0
LINE
  5
D0D5
  8
1PHANTOM
 10
9927.005281186337
 20
-283.42833367367172
 30
0.0
 11
9927.005281186337
 21
-293.42833367367172
 31
0.0
  0
LINE
  5
D0D6
  8
1PHANTOM
 10
9950.7731467723843
 20
-290.92833367367172
 30
0.0
 11
9950.6231467723846
 21
-290.17833367367172
 31
0.0
  0
LINE
  5
D0D7
  8
1PHANTOM
 10
9952.7731467723825
 20
-290.92833367367172
 30
0.0
 11
9952.6231467723828
 21
-290.17833367367172
 31
0.0
  0
LINE
  5
D0D8
  8
1PHANTOM
 10
9950.7731467723843
 20
-290.92833367367172
 30
0.0
 11
9951.7731467723825
 21
-285.92833367367172
 31
0.0
  0
LINE
  5
D0D9
  8
1PHANTOM
 10
9954.7731467723825
 20
-290.92833367367172
 30
0.0
 11
9954.6231467723846
 21
-290.17833367367172
 31
0.0
  0
LINE
  5
D0DA
  8
1PHANTOM
 10
9954.7731467723825
 20
-290.92833367367172
 30
0.0
 11
9955.7731467723825
 21
-285.92833367367172
 31
0.0
  0
LINE
  5
D0DB
  8
1PHANTOM
 10
9952.7731467723825
 20
-290.92833367367172
 30
0.0
 11
9953.7731467723843
 21
-285.92833367367172
 31
0.0
  0
LINE
  5
D0DC
  8
1PHANTOM
 10
9958.7731467723825
 20
-290.92833367367172
 30
0.0
 11
9959.7731467723843
 21
-285.92833367367172
 31
0.0
  0
LINE
  5
D0DD
  8
1PHANTOM
 10
9960.7731467723825
 20
-290.92833367367172
 30
0.0
 11
9960.6231467723846
 21
-290.17833367367172
 31
0.0
  0
LINE
  5
D0DE
  8
1PHANTOM
 10
9960.7731467723825
 20
-290.92833367367172
 30
0.0
 11
9961.7731467723825
 21
-285.92833367367172
 31
0.0
  0
LINE
  5
D0DF
  8
1PHANTOM
 10
9962.7731467723843
 20
-290.92833367367172
 30
0.0
 11
9962.6231467723828
 21
-290.17833367367172
 31
0.0
  0
LINE
  5
D0E0
  8
1PHANTOM
 10
9964.7731467723825
 20
-290.92833367367172
 30
0.0
 11
9964.6231467723846
 21
-290.17833367367172
 31
0.0
  0
LINE
  5
D0E1
  8
1PHANTOM
 10
9968.7731467723825
 20
-290.92833367367172
 30
0.0
 11
9968.6231467723828
 21
-290.17833367367172
 31
0.0
  0
LINE
  5
D0E2
  8
1PHANTOM
 10
9966.7731467723825
 20
-290.92833367367172
 30
0.0
 11
9966.6231467723846
 21
-290.17833367367172
 31
0.0
  0
LINE
  5
D0E3
  8
1PHANTOM
 10
9964.7731467723825
 20
-290.92833367367172
 30
0.0
 11
9965.7731467723825
 21
-285.92833367367172
 31
0.0
  0
LINE
  5
D0E4
  8
1PHANTOM
 10
9966.7731467723825
 20
-290.92833367367172
 30
0.0
 11
9967.7731467723825
 21
-285.92833367367172
 31
0.0
  0
LINE
  5
D0E5
  8
1PHANTOM
 10
9968.7731467723825
 20
-290.92833367367172
 30
0.0
 11
9969.7731467723825
 21
-285.92833367367172
 31
0.0
  0
LINE
  5
D0E6
  8
1PHANTOM
 10
9962.7731467723843
 20
-290.92833367367172
 30
0.0
 11
9963.7731467723825
 21
-285.92833367367172
 31
0.0
  0
LINE
  5
D0E7
  8
1PHANTOM
 10
9970.8098933841757
 20
-290.74460061470751
 30
0.0
 11
9970.6598933841742
 21
-289.99460061470751
 31
0.0
  0
LINE
  5
D0E8
  8
1PHANTOM
 10
9970.8098933841757
 20
-290.74460061470751
 30
0.0
 11
9971.6892742803939
 21
-286.34769613361817
 31
0.0
  0
LINE
  5
D0E9
  8
1PHANTOM
 10
9956.7731467723843
 20
-290.92833367367172
 30
0.0
 11
9956.6231467723828
 21
-290.17833367367172
 31
0.0
  0
LINE
  5
D0EA
  8
1PHANTOM
 10
9958.7731467723825
 20
-290.92833367367172
 30
0.0
 11
9958.6231467723828
 21
-290.17833367367172
 31
0.0
  0
LINE
  5
D0EB
  8
1PHANTOM
 10
9956.7731467723843
 20
-290.92833367367172
 30
0.0
 11
9957.7731467723825
 21
-285.92833367367172
 31
0.0
  0
LINE
  5
D0EC
  8
1PHANTOM
 10
9959.9231467723821
 20
-286.6783336736716
 30
0.0
 11
9959.7731467723843
 21
-285.92833367367172
 31
0.0
  0
LINE
  5
D0ED
  8
1PHANTOM
 10
9965.9231467723821
 20
-286.6783336736716
 30
0.0
 11
9965.7731467723825
 21
-285.92833367367172
 31
0.0
  0
LINE
  5
D0EE
  8
1PHANTOM
 10
9963.9231467723821
 20
-286.6783336736716
 30
0.0
 11
9963.7731467723825
 21
-285.92833367367172
 31
0.0
  0
LINE
  5
D0EF
  8
1PHANTOM
 10
9967.9231467723821
 20
-286.6783336736716
 30
0.0
 11
9967.7731467723825
 21
-285.92833367367172
 31
0.0
  0
LINE
  5
D0F0
  8
1PHANTOM
 10
9969.9231467723821
 20
-286.6783336736716
 30
0.0
 11
9969.7731467723825
 21
-285.92833367367172
 31
0.0
  0
LINE
  5
D0F1
  8
1PHANTOM
 10
9961.9231467723821
 20
-286.6783336736716
 30
0.0
 11
9961.7731467723825
 21
-285.92833367367172
 31
0.0
  0
LINE
  5
D0F2
  8
1PHANTOM
 10
9973.7375461950814
 20
-287.60633656017131
 30
0.0
 11
9973.5875461950836
 21
-286.8563365601712
 31
0.0
  0
LINE
  5
D0F3
  8
1PHANTOM
 10
9971.8392742803935
 20
-287.09769613361817
 30
0.0
 11
9971.6892742803939
 21
-286.34769613361817
 31
0.0
  0
LINE
  5
D0F4
  8
1PHANTOM
 10
9975.6358181097712
 20
-288.11497698672792
 30
0.0
 11
9975.4858181097716
 21
-287.36497698672792
 31
0.0
  0
LINE
  5
D0F5
  8
1PHANTOM
 10
9972.9231420382275
 20
-290.17835734444822
 30
0.0
 11
9972.7731420382279
 21
-289.42835734444822
 31
0.0
  0
LINE
  5
D0F6
  8
1PHANTOM
 10
9975.0363906922812
 20
-289.61211407418892
 30
0.0
 11
9975.4858181097716
 21
-287.36497698672792
 31
0.0
  0
LINE
  5
D0F7
  8
1PHANTOM
 10
9972.9231420382275
 20
-290.17835734444822
 30
0.0
 11
9973.5875461950836
 21
-286.8563365601712
 31
0.0
  0
LINE
  5
D0F8
  8
1PHANTOM
 10
9975.0363906922812
 20
-289.61211407418892
 30
0.0
 11
9974.8863906922779
 21
-288.86211407418892
 31
0.0
  0
LINE
  5
D0F9
  8
1PHANTOM
 10
9957.9231467723821
 20
-286.6783336736716
 30
0.0
 11
9957.7731467723825
 21
-285.92833367367172
 31
0.0
  0
LINE
  5
D0FA
  8
1PHANTOM
 10
9949.9231467723821
 20
-286.6783336736716
 30
0.0
 11
9949.7731467723825
 21
-285.92833367367172
 31
0.0
  0
LINE
  5
D0FB
  8
1PHANTOM
 10
9947.9231467723821
 20
-286.6783336736716
 30
0.0
 11
9947.7731467723843
 21
-285.92833367367172
 31
0.0
  0
LINE
  5
D0FC
  8
1PHANTOM
 10
9951.9231467723821
 20
-286.6783336736716
 30
0.0
 11
9951.7731467723825
 21
-285.92833367367172
 31
0.0
  0
LINE
  5
D0FD
  8
1PHANTOM
 10
9955.9231467723821
 20
-286.6783336736716
 30
0.0
 11
9955.7731467723825
 21
-285.92833367367172
 31
0.0
  0
LINE
  5
D0FE
  8
1PHANTOM
 10
9953.9231467723821
 20
-286.6783336736716
 30
0.0
 11
9953.7731467723843
 21
-285.92833367367172
 31
0.0
  0
LINE
  5
D0FF
  8
1PHANTOM
 10
9942.7731467723825
 20
-290.92833367367172
 30
0.0
 11
9943.7731467723825
 21
-285.92833367367172
 31
0.0
  0
LINE
  5
D100
  8
1PHANTOM
 10
9940.7731467723825
 20
-290.92833367367172
 30
0.0
 11
9941.7731467723825
 21
-285.92833367367172
 31
0.0
  0
LINE
  5
D101
  8
1PHANTOM
 10
9942.7731467723825
 20
-290.92833367367172
 30
0.0
 11
9942.6231467723828
 21
-290.17833367367172
 31
0.0
  0
LINE
  5
D102
  8
1PHANTOM
 10
9940.7731467723825
 20
-290.92833367367172
 30
0.0
 11
9940.6231467723828
 21
-290.17833367367172
 31
0.0
  0
LINE
  5
D103
  8
1PHANTOM
 10
9944.7731467723843
 20
-290.92833367367172
 30
0.0
 11
9944.6231467723846
 21
-290.17833367367172
 31
0.0
  0
LINE
  5
D104
  8
1PHANTOM
 10
9944.7731467723843
 20
-290.92833367367172
 30
0.0
 11
9945.7731467723825
 21
-285.92833367367172
 31
0.0
  0
LINE
  5
D105
  8
1PHANTOM
 10
9943.9231467723839
 20
-286.6783336736716
 30
0.0
 11
9943.7731467723825
 21
-285.92833367367172
 31
0.0
  0
LINE
  5
D106
  8
1PHANTOM
 10
9941.9231467723803
 20
-286.6783336736716
 30
0.0
 11
9941.7731467723825
 21
-285.92833367367172
 31
0.0
  0
LINE
  5
D107
  8
1PHANTOM
 10
9945.9231467723821
 20
-286.6783336736716
 30
0.0
 11
9945.7731467723825
 21
-285.92833367367172
 31
0.0
  0
LINE
  5
D108
  8
1PHANTOM
 10
9938.7731467723825
 20
-290.92833367367172
 30
0.0
 11
9939.7731467723825
 21
-285.92833367367172
 31
0.0
  0
LINE
  5
D109
  8
1PHANTOM
 10
9936.7731467723825
 20
-290.92833367367172
 30
0.0
 11
9937.7731467723843
 21
-285.92833367367172
 31
0.0
  0
LINE
  5
D10A
  8
1PHANTOM
 10
9938.7731467723825
 20
-290.92833367367172
 30
0.0
 11
9938.6231467723846
 21
-290.17833367367172
 31
0.0
  0
LINE
  5
D10B
  8
1PHANTOM
 10
9936.7731467723825
 20
-290.92833367367172
 30
0.0
 11
9936.6231467723828
 21
-290.17833367367172
 31
0.0
  0
LINE
  5
D10C
  8
1PHANTOM
 10
9939.9231467723821
 20
-286.6783336736716
 30
0.0
 11
9939.7731467723825
 21
-285.92833367367172
 31
0.0
  0
LINE
  5
D10D
  8
1PHANTOM
 10
9937.9231467723839
 20
-286.6783336736716
 30
0.0
 11
9937.7731467723843
 21
-285.92833367367172
 31
0.0
  0
LINE
  5
D10E
  8
1PHANTOM
 10
9934.7731467723843
 20
-290.92833367367172
 30
0.0
 11
9935.7731467723825
 21
-285.92833367367172
 31
0.0
  0
LINE
  5
D10F
  8
1PHANTOM
 10
9934.7731467723843
 20
-290.92833367367172
 30
0.0
 11
9934.6231467723828
 21
-290.17833367367172
 31
0.0
  0
LINE
  5
D110
  8
1PHANTOM
 10
9935.9231467723803
 20
-286.6783336736716
 30
0.0
 11
9935.7731467723825
 21
-285.92833367367172
 31
0.0
  0
LINE
  5
D111
  8
1PHANTOM
 10
9932.7731467723825
 20
-290.92833367367172
 30
0.0
 11
9933.7731467723825
 21
-285.92833367367172
 31
0.0
  0
LINE
  5
D112
  8
1PHANTOM
 10
9930.7731467723825
 20
-290.92833367367172
 30
0.0
 11
9931.7731467723843
 21
-285.92833367367172
 31
0.0
  0
LINE
  5
D113
  8
1PHANTOM
 10
9932.7731467723825
 20
-290.92833367367172
 30
0.0
 11
9932.6231467723846
 21
-290.17833367367172
 31
0.0
  0
LINE
  5
D114
  8
1PHANTOM
 10
9930.7731467723825
 20
-290.92833367367172
 30
0.0
 11
9930.6231467723828
 21
-290.17833367367172
 31
0.0
  0
LINE
  5
D115
  8
1PHANTOM
 10
9933.9231467723821
 20
-286.6783336736716
 30
0.0
 11
9933.7731467723825
 21
-285.92833367367172
 31
0.0
  0
LINE
  5
D116
  8
1PHANTOM
 10
9931.9231467723821
 20
-286.6783336736716
 30
0.0
 11
9931.7731467723843
 21
-285.92833367367172
 31
0.0
  0
LINE
  5
D117
  8
1PHANTOM
 10
9359.5828360066844
 20
760.77570055019999
 30
0.0
 11
9356.3328360066844
 21
764.02570055019999
 31
0.0
  0
LINE
  5
D118
  8
1PHANTOM
 10
9356.3328360066844
 20
803.89461163695455
 30
0.0
 11
9356.3328360066844
 21
764.02570055019999
 31
0.0
  0
LINE
  5
D119
  8
1PHANTOM
 10
9359.5828360066844
 20
760.77570055019999
 30
0.0
 11
9359.5828360066844
 21
760.42570055019974
 31
0.0
  0
LINE
  5
D11A
  8
1PHANTOM
 10
9354.5828360066844
 20
810.42570055019974
 30
0.0
 11
9356.3328360066844
 21
803.89461163695455
 31
0.0
  0
LINE
  5
D11B
  8
1PHANTOM
 10
9349.5828360066844
 20
760.42570055019974
 30
0.0
 11
9359.5828360066844
 21
760.42570055019974
 31
0.0
  0
LINE
  5
D11C
  8
1PHANTOM
 10
9354.5828360066844
 20
810.42570055019974
 30
0.0
 11
9352.8328360066844
 21
803.89461163695455
 31
0.0
  0
LINE
  5
D11D
  8
1PHANTOM
 10
9349.5828360066844
 20
760.77570055019999
 30
0.0
 11
9349.5828360066844
 21
760.42570055019974
 31
0.0
  0
LINE
  5
D11E
  8
1PHANTOM
 10
9352.8328360066844
 20
803.89461163695455
 30
0.0
 11
9352.8328360066844
 21
764.02570055019817
 31
0.0
  0
LINE
  5
D11F
  8
1PHANTOM
 10
9349.5828360066844
 20
760.77570055019999
 30
0.0
 11
9352.8328360066844
 21
764.02570055019817
 31
0.0
  0
LINE
  5
D120
  8
1PHANTOM
 10
9357.0828360066844
 20
782.54356613624554
 30
0.0
 11
9352.0828360066844
 21
783.54356613624554
 31
0.0
  0
LINE
  5
D121
  8
1PHANTOM
 10
9357.0828360066844
 20
780.54356613624554
 30
0.0
 11
9352.0828360066844
 21
781.54356613624554
 31
0.0
  0
LINE
  5
D122
  8
1PHANTOM
 10
9357.0828360066844
 20
782.54356613624554
 30
0.0
 11
9356.3328360066844
 21
782.39356613624591
 31
0.0
  0
LINE
  5
D123
  8
1PHANTOM
 10
9357.0828360066844
 20
780.54356613624554
 30
0.0
 11
9356.3328360066844
 21
780.39356613624591
 31
0.0
  0
LINE
  5
D124
  8
1PHANTOM
 10
9349.5828360066844
 20
760.77570055019999
 30
0.0
 11
9359.5828360066844
 21
760.77570055019999
 31
0.0
  0
LINE
  5
D125
  8
1PHANTOM
 10
9357.0828360066844
 20
784.54356613624554
 30
0.0
 11
9356.3328360066844
 21
784.39356613624591
 31
0.0
  0
LINE
  5
D126
  8
1PHANTOM
 10
9357.0828360066844
 20
786.54356613624554
 30
0.0
 11
9356.3328360066844
 21
786.39356613624591
 31
0.0
  0
LINE
  5
D127
  8
1PHANTOM
 10
9357.0828360066844
 20
784.54356613624554
 30
0.0
 11
9352.0828360066844
 21
785.54356613624554
 31
0.0
  0
LINE
  5
D128
  8
1PHANTOM
 10
9357.0828360066844
 20
788.54356613624554
 30
0.0
 11
9356.3328360066844
 21
788.39356613624591
 31
0.0
  0
LINE
  5
D129
  8
1PHANTOM
 10
9357.0828360066844
 20
788.54356613624554
 30
0.0
 11
9352.0828360066844
 21
789.54356613624554
 31
0.0
  0
LINE
  5
D12A
  8
1PHANTOM
 10
9357.0828360066844
 20
786.54356613624554
 30
0.0
 11
9352.0828360066844
 21
787.54356613624554
 31
0.0
  0
LINE
  5
D12B
  8
1PHANTOM
 10
9357.0828360066844
 20
792.54356613624554
 30
0.0
 11
9352.0828360066844
 21
793.54356613624554
 31
0.0
  0
LINE
  5
D12C
  8
1PHANTOM
 10
9357.0828360066844
 20
794.54356613624554
 30
0.0
 11
9356.3328360066844
 21
794.39356613624591
 31
0.0
  0
LINE
  5
D12D
  8
1PHANTOM
 10
9357.0828360066844
 20
794.54356613624554
 30
0.0
 11
9352.0828360066844
 21
795.54356613624554
 31
0.0
  0
LINE
  5
D12E
  8
1PHANTOM
 10
9357.0828360066844
 20
796.54356613624554
 30
0.0
 11
9356.3328360066844
 21
796.39356613624591
 31
0.0
  0
LINE
  5
D12F
  8
1PHANTOM
 10
9357.0828360066844
 20
798.54356613624554
 30
0.0
 11
9356.3328360066844
 21
798.39356613624591
 31
0.0
  0
LINE
  5
D130
  8
1PHANTOM
 10
9357.0828360066844
 20
802.54356613624554
 30
0.0
 11
9356.3328360066844
 21
802.39356613624591
 31
0.0
  0
LINE
  5
D131
  8
1PHANTOM
 10
9357.0828360066844
 20
800.54356613624543
 30
0.0
 11
9356.3328360066844
 21
800.39356613624579
 31
0.0
  0
LINE
  5
D132
  8
1PHANTOM
 10
9357.0828360066844
 20
798.54356613624554
 30
0.0
 11
9352.0828360066844
 21
799.54356613624554
 31
0.0
  0
LINE
  5
D133
  8
1PHANTOM
 10
9357.0828360066844
 20
800.54356613624543
 30
0.0
 11
9352.0828360066844
 21
801.54356613624554
 31
0.0
  0
LINE
  5
D134
  8
1PHANTOM
 10
9357.0828360066844
 20
802.54356613624554
 30
0.0
 11
9352.0828360066844
 21
803.54356613624554
 31
0.0
  0
LINE
  5
D135
  8
1PHANTOM
 10
9357.0828360066844
 20
796.54356613624554
 30
0.0
 11
9352.0828360066844
 21
797.54356613624554
 31
0.0
  0
LINE
  5
D136
  8
1PHANTOM
 10
9356.8991029477202
 20
804.58031274803875
 30
0.0
 11
9356.1491029477238
 21
804.43031274803718
 31
0.0
  0
LINE
  5
D137
  8
1PHANTOM
 10
9356.8991029477202
 20
804.58031274803875
 30
0.0
 11
9352.5021984666309
 21
805.45969364425684
 31
0.0
  0
LINE
  5
D138
  8
1PHANTOM
 10
9357.0828360066844
 20
790.54356613624554
 30
0.0
 11
9356.3328360066844
 21
790.39356613624591
 31
0.0
  0
LINE
  5
D139
  8
1PHANTOM
 10
9357.0828360066844
 20
792.54356613624554
 30
0.0
 11
9356.3328360066844
 21
792.39356613624591
 31
0.0
  0
LINE
  5
D13A
  8
1PHANTOM
 10
9357.0828360066844
 20
790.54356613624554
 30
0.0
 11
9352.0828360066844
 21
791.54356613624554
 31
0.0
  0
LINE
  5
D13B
  8
1PHANTOM
 10
9352.8328360066844
 20
793.69356613624507
 30
0.0
 11
9352.0828360066844
 21
793.54356613624554
 31
0.0
  0
LINE
  5
D13C
  8
1PHANTOM
 10
9352.8328360066844
 20
799.69356613624507
 30
0.0
 11
9352.0828360066844
 21
799.54356613624554
 31
0.0
  0
LINE
  5
D13D
  8
1PHANTOM
 10
9352.8328360066844
 20
797.69356613624518
 30
0.0
 11
9352.0828360066844
 21
797.54356613624554
 31
0.0
  0
LINE
  5
D13E
  8
1PHANTOM
 10
9352.8328360066844
 20
801.69356613624507
 30
0.0
 11
9352.0828360066844
 21
801.54356613624554
 31
0.0
  0
LINE
  5
D13F
  8
1PHANTOM
 10
9352.8328360066844
 20
803.69356613624518
 30
0.0
 11
9352.0828360066844
 21
803.54356613624554
 31
0.0
  0
LINE
  5
D140
  8
1PHANTOM
 10
9352.8328360066844
 20
795.69356613624507
 30
0.0
 11
9352.0828360066844
 21
795.54356613624554
 31
0.0
  0
LINE
  5
D141
  8
1PHANTOM
 10
9353.7608388931858
 20
807.50796555894442
 30
0.0
 11
9353.0108388931822
 21
807.3579655589449
 31
0.0
  0
LINE
  5
D142
  8
1PHANTOM
 10
9353.2521984666328
 20
805.60969364425659
 30
0.0
 11
9352.5021984666309
 21
805.45969364425684
 31
0.0
  0
LINE
  5
D143
  8
1PHANTOM
 10
9354.2694793197406
 20
809.40623747363418
 30
0.0
 11
9353.5194793197406
 21
809.25623747363454
 31
0.0
  0
LINE
  5
D144
  8
1PHANTOM
 10
9356.3328596774627
 20
806.69356140209061
 30
0.0
 11
9355.5828596774627
 21
806.54356140208915
 31
0.0
  0
LINE
  5
D145
  8
1PHANTOM
 10
9355.7666164072034
 20
808.80681005614247
 30
0.0
 11
9353.5194793197406
 21
809.25623747363454
 31
0.0
  0
LINE
  5
D146
  8
1PHANTOM
 10
9356.3328596774627
 20
806.69356140209061
 30
0.0
 11
9353.0108388931822
 21
807.3579655589449
 31
0.0
  0
LINE
  5
D147
  8
1PHANTOM
 10
9355.7666164072034
 20
808.80681005614247
 30
0.0
 11
9355.0166164072034
 21
808.6568100561409
 31
0.0
  0
LINE
  5
D148
  8
1PHANTOM
 10
9352.8328360066844
 20
791.69356613624518
 30
0.0
 11
9352.0828360066844
 21
791.54356613624554
 31
0.0
  0
LINE
  5
D149
  8
1PHANTOM
 10
9352.8328360066844
 20
783.69356613624518
 30
0.0
 11
9352.0828360066844
 21
783.54356613624554
 31
0.0
  0
LINE
  5
D14A
  8
1PHANTOM
 10
9352.8328360066844
 20
781.69356613624507
 30
0.0
 11
9352.0828360066844
 21
781.54356613624554
 31
0.0
  0
LINE
  5
D14B
  8
1PHANTOM
 10
9352.8328360066844
 20
785.69356613624507
 30
0.0
 11
9352.0828360066844
 21
785.54356613624554
 31
0.0
  0
LINE
  5
D14C
  8
1PHANTOM
 10
9352.8328360066844
 20
789.69356613624507
 30
0.0
 11
9352.0828360066844
 21
789.54356613624554
 31
0.0
  0
LINE
  5
D14D
  8
1PHANTOM
 10
9352.8328360066844
 20
787.69356613624518
 30
0.0
 11
9352.0828360066844
 21
787.54356613624554
 31
0.0
  0
LINE
  5
D14E
  8
1PHANTOM
 10
9357.0828360066844
 20
776.54356613624554
 30
0.0
 11
9352.0828360066844
 21
777.54356613624554
 31
0.0
  0
LINE
  5
D14F
  8
1PHANTOM
 10
9357.0828360066844
 20
774.54356613624554
 30
0.0
 11
9352.0828360066844
 21
775.54356613624554
 31
0.0
  0
LINE
  5
D150
  8
1PHANTOM
 10
9357.0828360066844
 20
776.54356613624554
 30
0.0
 11
9356.3328360066844
 21
776.39356613624591
 31
0.0
  0
LINE
  5
D151
  8
1PHANTOM
 10
9357.0828360066844
 20
774.54356613624554
 30
0.0
 11
9356.3328360066844
 21
774.39356613624591
 31
0.0
  0
LINE
  5
D152
  8
1PHANTOM
 10
9357.0828360066844
 20
778.54356613624554
 30
0.0
 11
9356.3328360066844
 21
778.39356613624591
 31
0.0
  0
LINE
  5
D153
  8
1PHANTOM
 10
9357.0828360066844
 20
778.54356613624554
 30
0.0
 11
9352.0828360066844
 21
779.54356613624554
 31
0.0
  0
LINE
  5
D154
  8
1PHANTOM
 10
9352.8328360066844
 20
777.69356613624507
 30
0.0
 11
9352.0828360066844
 21
777.54356613624554
 31
0.0
  0
LINE
  5
D155
  8
1PHANTOM
 10
9352.8328360066844
 20
775.69356613624518
 30
0.0
 11
9352.0828360066844
 21
775.54356613624554
 31
0.0
  0
LINE
  5
D156
  8
1PHANTOM
 10
9352.8328360066844
 20
779.69356613624518
 30
0.0
 11
9352.0828360066844
 21
779.54356613624554
 31
0.0
  0
LINE
  5
D157
  8
1PHANTOM
 10
9357.0828360066844
 20
772.54356613624554
 30
0.0
 11
9352.0828360066844
 21
773.54356613624554
 31
0.0
  0
LINE
  5
D158
  8
1PHANTOM
 10
9357.0828360066844
 20
770.54356613624554
 30
0.0
 11
9352.0828360066844
 21
771.54356613624554
 31
0.0
  0
LINE
  5
D159
  8
1PHANTOM
 10
9357.0828360066844
 20
772.54356613624554
 30
0.0
 11
9356.3328360066844
 21
772.39356613624591
 31
0.0
  0
LINE
  5
D15A
  8
1PHANTOM
 10
9357.0828360066844
 20
770.54356613624554
 30
0.0
 11
9356.3328360066844
 21
770.39356613624591
 31
0.0
  0
LINE
  5
D15B
  8
1PHANTOM
 10
9352.8328360066844
 20
773.69356613624507
 30
0.0
 11
9352.0828360066844
 21
773.54356613624554
 31
0.0
  0
LINE
  5
D15C
  8
1PHANTOM
 10
9352.8328360066844
 20
771.69356613624518
 30
0.0
 11
9352.0828360066844
 21
771.54356613624554
 31
0.0
  0
LINE
  5
D15D
  8
1PHANTOM
 10
9357.0828360066844
 20
768.54356613624554
 30
0.0
 11
9352.0828360066844
 21
769.54356613624554
 31
0.0
  0
LINE
  5
D15E
  8
1PHANTOM
 10
9357.0828360066844
 20
768.54356613624554
 30
0.0
 11
9356.3328360066844
 21
768.39356613624579
 31
0.0
  0
LINE
  5
D15F
  8
1PHANTOM
 10
9352.8328360066844
 20
769.69356613624507
 30
0.0
 11
9352.0828360066844
 21
769.54356613624554
 31
0.0
  0
LINE
  5
D160
  8
1PHANTOM
 10
9357.0828360066844
 20
766.54356613624554
 30
0.0
 11
9352.0828360066844
 21
767.54356613624554
 31
0.0
  0
LINE
  5
D161
  8
1PHANTOM
 10
9357.0828360066844
 20
764.54356613624554
 30
0.0
 11
9352.0828360066844
 21
765.54356613624554
 31
0.0
  0
LINE
  5
D162
  8
1PHANTOM
 10
9357.0828360066844
 20
766.54356613624554
 30
0.0
 11
9356.3328360066844
 21
766.39356613624591
 31
0.0
  0
LINE
  5
D163
  8
1PHANTOM
 10
9357.0828360066844
 20
764.54356613624554
 30
0.0
 11
9356.3328360066844
 21
764.39356613624579
 31
0.0
  0
LINE
  5
D164
  8
1PHANTOM
 10
9352.8328360066844
 20
767.69356613624518
 30
0.0
 11
9352.0828360066844
 21
767.54356613624554
 31
0.0
  0
LINE
  5
D165
  8
1PHANTOM
 10
9352.8328360066844
 20
765.69356613624507
 30
0.0
 11
9352.0828360066844
 21
765.54356613624554
 31
0.0
  0
LINE
  5
D16C
  8
1PHANTOM
 10
9539.5828360066844
 20
760.77570055019999
 30
0.0
 11
9536.3328360066844
 21
764.02570055019999
 31
0.0
  0
LINE
  5
D16D
  8
1PHANTOM
 10
9536.3328360066844
 20
803.89461163695455
 30
0.0
 11
9536.3328360066844
 21
764.02570055019999
 31
0.0
  0
LINE
  5
D16E
  8
1PHANTOM
 10
9539.5828360066844
 20
760.77570055019999
 30
0.0
 11
9539.5828360066844
 21
760.42570055019974
 31
0.0
  0
LINE
  5
D16F
  8
1PHANTOM
 10
9534.5828360066844
 20
810.42570055019974
 30
0.0
 11
9536.3328360066844
 21
803.89461163695455
 31
0.0
  0
LINE
  5
D170
  8
1PHANTOM
 10
9529.5828360066844
 20
760.42570055019974
 30
0.0
 11
9539.5828360066844
 21
760.42570055019974
 31
0.0
  0
LINE
  5
D171
  8
1PHANTOM
 10
9534.5828360066844
 20
810.42570055019974
 30
0.0
 11
9532.8328360066844
 21
803.89461163695455
 31
0.0
  0
LINE
  5
D172
  8
1PHANTOM
 10
9529.5828360066844
 20
760.77570055019999
 30
0.0
 11
9529.5828360066844
 21
760.42570055019974
 31
0.0
  0
LINE
  5
D173
  8
1PHANTOM
 10
9532.8328360066844
 20
803.89461163695455
 30
0.0
 11
9532.8328360066844
 21
764.02570055019817
 31
0.0
  0
LINE
  5
D174
  8
1PHANTOM
 10
9529.5828360066844
 20
760.77570055019999
 30
0.0
 11
9532.8328360066844
 21
764.02570055019817
 31
0.0
  0
LINE
  5
D175
  8
1PHANTOM
 10
9537.0828360066844
 20
782.54356613624554
 30
0.0
 11
9532.0828360066844
 21
783.54356613624554
 31
0.0
  0
LINE
  5
D176
  8
1PHANTOM
 10
9537.0828360066844
 20
780.54356613624554
 30
0.0
 11
9532.0828360066844
 21
781.54356613624554
 31
0.0
  0
LINE
  5
D177
  8
1PHANTOM
 10
9537.0828360066844
 20
782.54356613624554
 30
0.0
 11
9536.3328360066844
 21
782.39356613624591
 31
0.0
  0
LINE
  5
D178
  8
1PHANTOM
 10
9537.0828360066844
 20
780.54356613624554
 30
0.0
 11
9536.3328360066844
 21
780.39356613624591
 31
0.0
  0
LINE
  5
D179
  8
1PHANTOM
 10
9529.5828360066844
 20
760.77570055019999
 30
0.0
 11
9539.5828360066844
 21
760.77570055019999
 31
0.0
  0
LINE
  5
D17A
  8
1PHANTOM
 10
9537.0828360066844
 20
784.54356613624554
 30
0.0
 11
9536.3328360066844
 21
784.39356613624591
 31
0.0
  0
LINE
  5
D17B
  8
1PHANTOM
 10
9537.0828360066844
 20
786.54356613624554
 30
0.0
 11
9536.3328360066844
 21
786.39356613624591
 31
0.0
  0
LINE
  5
D17C
  8
1PHANTOM
 10
9537.0828360066844
 20
784.54356613624554
 30
0.0
 11
9532.0828360066844
 21
785.54356613624554
 31
0.0
  0
LINE
  5
D17D
  8
1PHANTOM
 10
9537.0828360066844
 20
788.54356613624554
 30
0.0
 11
9536.3328360066844
 21
788.39356613624591
 31
0.0
  0
LINE
  5
D17E
  8
1PHANTOM
 10
9537.0828360066844
 20
788.54356613624554
 30
0.0
 11
9532.0828360066844
 21
789.54356613624554
 31
0.0
  0
LINE
  5
D17F
  8
1PHANTOM
 10
9537.0828360066844
 20
786.54356613624554
 30
0.0
 11
9532.0828360066844
 21
787.54356613624554
 31
0.0
  0
LINE
  5
D180
  8
1PHANTOM
 10
9537.0828360066844
 20
792.54356613624554
 30
0.0
 11
9532.0828360066844
 21
793.54356613624554
 31
0.0
  0
LINE
  5
D181
  8
1PHANTOM
 10
9537.0828360066844
 20
794.54356613624554
 30
0.0
 11
9536.3328360066844
 21
794.39356613624591
 31
0.0
  0
LINE
  5
D182
  8
1PHANTOM
 10
9537.0828360066844
 20
794.54356613624554
 30
0.0
 11
9532.0828360066844
 21
795.54356613624554
 31
0.0
  0
LINE
  5
D183
  8
1PHANTOM
 10
9537.0828360066844
 20
796.54356613624554
 30
0.0
 11
9536.3328360066844
 21
796.39356613624591
 31
0.0
  0
LINE
  5
D184
  8
1PHANTOM
 10
9537.0828360066844
 20
798.54356613624554
 30
0.0
 11
9536.3328360066844
 21
798.39356613624591
 31
0.0
  0
LINE
  5
D185
  8
1PHANTOM
 10
9537.0828360066844
 20
802.54356613624554
 30
0.0
 11
9536.3328360066844
 21
802.39356613624591
 31
0.0
  0
LINE
  5
D186
  8
1PHANTOM
 10
9537.0828360066844
 20
800.54356613624543
 30
0.0
 11
9536.3328360066844
 21
800.39356613624579
 31
0.0
  0
LINE
  5
D187
  8
1PHANTOM
 10
9537.0828360066844
 20
798.54356613624554
 30
0.0
 11
9532.0828360066844
 21
799.54356613624554
 31
0.0
  0
LINE
  5
D188
  8
1PHANTOM
 10
9537.0828360066844
 20
800.54356613624543
 30
0.0
 11
9532.0828360066844
 21
801.54356613624554
 31
0.0
  0
LINE
  5
D189
  8
1PHANTOM
 10
9537.0828360066844
 20
802.54356613624554
 30
0.0
 11
9532.0828360066844
 21
803.54356613624554
 31
0.0
  0
LINE
  5
D18A
  8
1PHANTOM
 10
9537.0828360066844
 20
796.54356613624554
 30
0.0
 11
9532.0828360066844
 21
797.54356613624554
 31
0.0
  0
LINE
  5
D18B
  8
1PHANTOM
 10
9536.8991029477202
 20
804.58031274803875
 30
0.0
 11
9536.1491029477238
 21
804.43031274803718
 31
0.0
  0
LINE
  5
D18C
  8
1PHANTOM
 10
9536.8991029477202
 20
804.58031274803875
 30
0.0
 11
9532.5021984666291
 21
805.45969364425684
 31
0.0
  0
LINE
  5
D18D
  8
1PHANTOM
 10
9537.0828360066844
 20
790.54356613624554
 30
0.0
 11
9536.3328360066844
 21
790.39356613624591
 31
0.0
  0
LINE
  5
D18E
  8
1PHANTOM
 10
9537.0828360066844
 20
792.54356613624554
 30
0.0
 11
9536.3328360066844
 21
792.39356613624591
 31
0.0
  0
LINE
  5
D18F
  8
1PHANTOM
 10
9537.0828360066844
 20
790.54356613624554
 30
0.0
 11
9532.0828360066844
 21
791.54356613624554
 31
0.0
  0
LINE
  5
D190
  8
1PHANTOM
 10
9532.8328360066844
 20
793.69356613624507
 30
0.0
 11
9532.0828360066844
 21
793.54356613624554
 31
0.0
  0
LINE
  5
D191
  8
1PHANTOM
 10
9532.8328360066844
 20
799.69356613624507
 30
0.0
 11
9532.0828360066844
 21
799.54356613624554
 31
0.0
  0
LINE
  5
D192
  8
1PHANTOM
 10
9532.8328360066844
 20
797.69356613624518
 30
0.0
 11
9532.0828360066844
 21
797.54356613624554
 31
0.0
  0
LINE
  5
D193
  8
1PHANTOM
 10
9532.8328360066844
 20
801.69356613624507
 30
0.0
 11
9532.0828360066844
 21
801.54356613624554
 31
0.0
  0
LINE
  5
D194
  8
1PHANTOM
 10
9532.8328360066844
 20
803.69356613624518
 30
0.0
 11
9532.0828360066844
 21
803.54356613624554
 31
0.0
  0
LINE
  5
D195
  8
1PHANTOM
 10
9532.8328360066844
 20
795.69356613624507
 30
0.0
 11
9532.0828360066844
 21
795.54356613624554
 31
0.0
  0
LINE
  5
D196
  8
1PHANTOM
 10
9533.7608388931858
 20
807.50796555894442
 30
0.0
 11
9533.0108388931858
 21
807.3579655589449
 31
0.0
  0
LINE
  5
D197
  8
1PHANTOM
 10
9533.2521984666328
 20
805.60969364425659
 30
0.0
 11
9532.5021984666291
 21
805.45969364425684
 31
0.0
  0
LINE
  5
D198
  8
1PHANTOM
 10
9534.2694793197406
 20
809.40623747363418
 30
0.0
 11
9533.5194793197406
 21
809.25623747363454
 31
0.0
  0
LINE
  5
D199
  8
1PHANTOM
 10
9536.3328596774627
 20
806.69356140209061
 30
0.0
 11
9535.5828596774627
 21
806.54356140208915
 31
0.0
  0
LINE
  5
D19A
  8
1PHANTOM
 10
9535.7666164072034
 20
808.80681005614247
 30
0.0
 11
9533.5194793197406
 21
809.25623747363454
 31
0.0
  0
LINE
  5
D19B
  8
1PHANTOM
 10
9536.3328596774627
 20
806.69356140209061
 30
0.0
 11
9533.0108388931858
 21
807.3579655589449
 31
0.0
  0
LINE
  5
D19C
  8
1PHANTOM
 10
9535.7666164072034
 20
808.80681005614247
 30
0.0
 11
9535.0166164072034
 21
808.6568100561409
 31
0.0
  0
LINE
  5
D19D
  8
1PHANTOM
 10
9532.8328360066844
 20
791.69356613624518
 30
0.0
 11
9532.0828360066844
 21
791.54356613624554
 31
0.0
  0
LINE
  5
D19E
  8
1PHANTOM
 10
9532.8328360066844
 20
783.69356613624518
 30
0.0
 11
9532.0828360066844
 21
783.54356613624554
 31
0.0
  0
LINE
  5
D19F
  8
1PHANTOM
 10
9532.8328360066844
 20
781.69356613624507
 30
0.0
 11
9532.0828360066844
 21
781.54356613624554
 31
0.0
  0
LINE
  5
D1A0
  8
1PHANTOM
 10
9532.8328360066844
 20
785.69356613624507
 30
0.0
 11
9532.0828360066844
 21
785.54356613624554
 31
0.0
  0
LINE
  5
D1A1
  8
1PHANTOM
 10
9532.8328360066844
 20
789.69356613624507
 30
0.0
 11
9532.0828360066844
 21
789.54356613624554
 31
0.0
  0
LINE
  5
D1A2
  8
1PHANTOM
 10
9532.8328360066844
 20
787.69356613624518
 30
0.0
 11
9532.0828360066844
 21
787.54356613624554
 31
0.0
  0
LINE
  5
D1A3
  8
1PHANTOM
 10
9537.0828360066844
 20
776.54356613624554
 30
0.0
 11
9532.0828360066844
 21
777.54356613624554
 31
0.0
  0
LINE
  5
D1A4
  8
1PHANTOM
 10
9537.0828360066844
 20
774.54356613624554
 30
0.0
 11
9532.0828360066844
 21
775.54356613624554
 31
0.0
  0
LINE
  5
D1A5
  8
1PHANTOM
 10
9537.0828360066844
 20
776.54356613624554
 30
0.0
 11
9536.3328360066844
 21
776.39356613624591
 31
0.0
  0
LINE
  5
D1A6
  8
1PHANTOM
 10
9537.0828360066844
 20
774.54356613624554
 30
0.0
 11
9536.3328360066844
 21
774.39356613624591
 31
0.0
  0
LINE
  5
D1A7
  8
1PHANTOM
 10
9537.0828360066844
 20
778.54356613624554
 30
0.0
 11
9536.3328360066844
 21
778.39356613624591
 31
0.0
  0
LINE
  5
D1A8
  8
1PHANTOM
 10
9537.0828360066844
 20
778.54356613624554
 30
0.0
 11
9532.0828360066844
 21
779.54356613624554
 31
0.0
  0
LINE
  5
D1A9
  8
1PHANTOM
 10
9532.8328360066844
 20
777.69356613624507
 30
0.0
 11
9532.0828360066844
 21
777.54356613624554
 31
0.0
  0
LINE
  5
D1AA
  8
1PHANTOM
 10
9532.8328360066844
 20
775.69356613624518
 30
0.0
 11
9532.0828360066844
 21
775.54356613624554
 31
0.0
  0
LINE
  5
D1AB
  8
1PHANTOM
 10
9532.8328360066844
 20
779.69356613624518
 30
0.0
 11
9532.0828360066844
 21
779.54356613624554
 31
0.0
  0
LINE
  5
D1AC
  8
1PHANTOM
 10
9537.0828360066844
 20
772.54356613624554
 30
0.0
 11
9532.0828360066844
 21
773.54356613624554
 31
0.0
  0
LINE
  5
D1AD
  8
1PHANTOM
 10
9537.0828360066844
 20
770.54356613624554
 30
0.0
 11
9532.0828360066844
 21
771.54356613624554
 31
0.0
  0
LINE
  5
D1AE
  8
1PHANTOM
 10
9537.0828360066844
 20
772.54356613624554
 30
0.0
 11
9536.3328360066844
 21
772.39356613624591
 31
0.0
  0
LINE
  5
D1AF
  8
1PHANTOM
 10
9537.0828360066844
 20
770.54356613624554
 30
0.0
 11
9536.3328360066844
 21
770.39356613624591
 31
0.0
  0
LINE
  5
D1B0
  8
1PHANTOM
 10
9532.8328360066844
 20
773.69356613624507
 30
0.0
 11
9532.0828360066844
 21
773.54356613624554
 31
0.0
  0
LINE
  5
D1B1
  8
1PHANTOM
 10
9532.8328360066844
 20
771.69356613624518
 30
0.0
 11
9532.0828360066844
 21
771.54356613624554
 31
0.0
  0
LINE
  5
D1B2
  8
1PHANTOM
 10
9537.0828360066844
 20
768.54356613624554
 30
0.0
 11
9532.0828360066844
 21
769.54356613624554
 31
0.0
  0
LINE
  5
D1B3
  8
1PHANTOM
 10
9537.0828360066844
 20
768.54356613624554
 30
0.0
 11
9536.3328360066844
 21
768.39356613624579
 31
0.0
  0
LINE
  5
D1B4
  8
1PHANTOM
 10
9532.8328360066844
 20
769.69356613624507
 30
0.0
 11
9532.0828360066844
 21
769.54356613624554
 31
0.0
  0
LINE
  5
D1B5
  8
1PHANTOM
 10
9537.0828360066844
 20
766.54356613624554
 30
0.0
 11
9532.0828360066844
 21
767.54356613624554
 31
0.0
  0
LINE
  5
D1B6
  8
1PHANTOM
 10
9537.0828360066844
 20
764.54356613624554
 30
0.0
 11
9532.0828360066844
 21
765.54356613624554
 31
0.0
  0
LINE
  5
D1B7
  8
1PHANTOM
 10
9537.0828360066844
 20
766.54356613624554
 30
0.0
 11
9536.3328360066844
 21
766.39356613624591
 31
0.0
  0
LINE
  5
D1B8
  8
1PHANTOM
 10
9537.0828360066844
 20
764.54356613624554
 30
0.0
 11
9536.3328360066844
 21
764.39356613624579
 31
0.0
  0
LINE
  5
D1B9
  8
1PHANTOM
 10
9532.8328360066844
 20
767.69356613624518
 30
0.0
 11
9532.0828360066844
 21
767.54356613624554
 31
0.0
  0
LINE
  5
D1BA
  8
1PHANTOM
 10
9532.8328360066844
 20
765.69356613624507
 30
0.0
 11
9532.0828360066844
 21
765.54356613624554
 31
0.0
  0
LINE
  5
D1D7
  8
1CENTER
 10
9534.5828360066862
 20
810.42570055019632
 30
0.0
 11
9534.5828360066862
 21
759.88448163981411
 31
0.0
  0
LINE
  5
D1EA
  8
1CENTER
 10
9976.6552811863367
 20
195.5716663263274
 30
0.0
 11
9919.7635580564383
 21
195.5716663263274
 31
0.0
  0
LINE
  5
D1EB
  8
1CENTER
 10
9976.6552811863367
 20
-288.42833367367172
 30
0.0
 11
9919.0196285896054
 21
-288.42833367367172
 31
0.0
  0
LINE
  5
D59A
  8
01
 10
10221.04776321146
 20
350.73681368388998
 30
0.0
 11
10470.547763211949
 21
350.73681368388998
 31
0.0
  0
LINE
  5
D59B
  8
1PHANTOM
 10
10220.04776321146
 20
351.7368136838893
 30
0.0
 11
10468.648355857389
 21
351.73681368389038
 31
0.0
  0
LINE
  5
D59C
  8
01
 10
10470.547763211949
 20
354.7368136838906
 30
0.0
 11
10221.04776321146
 21
354.73681368388179
 31
0.0
  0
LINE
  5
D59D
  8
1PHANTOM
 10
10468.648355857389
 20
353.73681368388998
 30
0.0
 11
10220.04776321146
 21
353.73681368388128
 31
0.0
  0
LINE
  5
D59E
  8
01
 10
10221.04776321146
 20
354.73681368388179
 30
0.0
 11
10220.04776321146
 21
353.73681368388179
 31
0.0
  0
LINE
  5
D59F
  8
01
 10
10220.04776321146
 20
351.73681368389038
 30
0.0
 11
10221.04776321146
 21
350.73681368388998
 31
0.0
  0
LINE
  5
D5A0
  8
01
 10
10220.04776321146
 20
353.73681368388179
 30
0.0
 11
10220.04776321146
 21
351.73681368388998
 31
0.0
  0
LINE
  5
D5A1
  8
1DIM
 10
10470.547763211949
 20
351.73681368389038
 30
0.0
 11
10468.648355857389
 21
351.73681368389038
 31
0.0
  0
LINE
  5
D5A2
  8
1DIM
 10
10470.547763211949
 20
353.7368136838902
 30
0.0
 11
10468.648355857389
 21
353.73681368388998
 31
0.0
  0
LINE
  5
D5A3
  8
01
 10
10468.04776321196
 20
354.73681368389089
 30
0.0
 11
10469.04776321196
 21
353.73681368389089
 31
0.0
  0
LINE
  5
D5A4
  8
01
 10
10469.04776321196
 20
351.73681368389038
 30
0.0
 11
10468.04776321196
 21
350.73681368389038
 31
0.0
  0
LINE
  5
D5A5
  8
01
 10
10469.04776321196
 20
353.73681368389089
 30
0.0
 11
10469.04776321196
 21
351.73681368389038
 31
0.0
  0
LINE
  5
D5A6
  8
01
 10
10231.847759995269
 20
358.33681368388898
 30
0.0
 11
10231.84470525723
 21
357.63550357081658
 31
0.0
  0
LINE
  5
D5A7
  8
01
 10
10222.250816139989
 20
357.63550357081658
 30
0.0
 11
10222.247761401941
 21
358.33681368388898
 31
0.0
  0
ARC
  5
D5A8
  8
01
 10
10222.55081819802
 20
357.63681323685432
 30
0.0
 40
0.3000000000000398
 50
180.2499999999915
 51
270.0
  0
ARC
  5
D5A9
  8
01
 10
10231.544703795251
 20
357.63681323685432
 30
0.0
 40
0.300000000000043
 50
270.0
 51
359.74999999998238
  0
LINE
  5
D5AA
  8
01
 10
10222.7869748209
 20
500.33681460776091
 30
0.0
 11
10496.308547172361
 21
500.33681460776091
 31
0.0
  0
LINE
  5
D5AB
  8
01
 10
10222.052812076199
 20
358.33681368388898
 30
0.0
 11
10497.04338073601
 21
358.33681368388892
 31
0.0
  0
LINE
  5
D5AC
  8
1HIDDEN
 10
10232.88224912523
 20
492.33681368388892
 30
0.0
 11
10486.27415685246
 21
492.33681368388881
 31
0.0
  0
ARC
  5
D5AD
  8
01
 10
10497.04338073601
 20
358.83681368388892
 30
0.0
 40
0.5
 50
270.0
 51
0.5000003248850082
  0
ARC
  5
D5AE
  8
01
 10
10222.05214346972
 20
358.83681323685408
 30
0.0
 40
0.5000000000000316
 50
179.50000000000841
 51
270.07661668183857
  0
LINE
  5
D5AF
  8
01
 10
10497.54336169751
 20
358.8411769544731
 30
0.0
 11
10496.308547172361
 21
500.33681460776091
 31
0.0
  0
LINE
  5
D5B0
  8
01
 10
10222.7869748209
 20
500.33681460776091
 30
0.0
 11
10221.55214346972
 21
358.83681323685408
 31
0.0
  0
LINE
  5
D5B1
  8
01
 10
10222.550821218299
 20
357.3368135199762
 30
0.0
 11
10231.544700178911
 21
357.3368135199762
 31
0.0
  0
LINE
  5
D5B2
  8
01
 10
10493.547763211949
 20
358.23681368388912
 30
0.0
 11
10492.147763211949
 21
358.23681368388861
 31
0.0
  0
ARC
  5
D5B3
  8
01
 10
10493.547763211949
 20
357.23681368388912
 30
0.0
 40
1.0
 50
0.0000000000260551
 51
90.0
  0
LINE
  5
D5B4
  8
1PHANTOM
 10
10472.947763211951
 20
358.23681368388861
 30
0.0
 11
10471.547763211949
 21
358.23681368388912
 31
0.0
  0
ARC
  5
D5B5
  8
01
 10
10471.547763211949
 20
357.23681368388912
 30
0.0
 40
1.0
 50
90.0
 51
180.0
  0
ARC
  5
D5B6
  8
01
 10
10482.54776321194
 20
394.212613838381
 30
0.0
 40
48.0
 50
257.4441422014047
 51
282.55585779859518
  0
ARC
  5
D5B7
  8
01
 10
10472.547763211949
 20
349.31272519709182
 30
0.0
 40
2.0
 50
180.0
 51
257.4441422014047
  0
ARC
  5
D5B8
  8
01
 10
10492.547763211949
 20
349.31272519709501
 30
0.0
 40
2.0
 50
282.55585779859518
 51
0.0
  0
LINE
  5
D5B9
  8
01
 10
10470.547763211949
 20
357.23681368388912
 30
0.0
 11
10470.547763211949
 21
349.31272519709182
 31
0.0
  0
LINE
  5
D5BA
  8
01
 10
10472.947763211951
 20
358.23681368388861
 30
0.0
 11
10492.147763211949
 21
358.23681368388861
 31
0.0
  0
LINE
  5
D5BB
  8
01
 10
10494.547763211949
 20
357.23681368388912
 30
0.0
 11
10494.547763211949
 21
349.73681368388998
 31
0.0
  0
LINE
  5
D5BC
  8
01
 10
10494.547763211949
 20
349.73681368388998
 30
0.0
 11
10494.547763211949
 21
349.31272519709501
 31
0.0
  0
LINE
  5
D5BD
  8
01
 10
10470.547763211949
 20
349.458540681881
 30
0.0
 11
10470.547763211949
 21
349.73681368388998
 31
0.0
  0
LINE
  5
D5BE
  8
01
 10
10470.547763211949
 20
349.31272519709182
 30
0.0
 11
10470.547763211949
 21
354.73681368389038
 31
0.0
  0
LINE
  5
D5BF
  8
01
 10
10470.547763211949
 20
354.73681368388998
 30
0.0
 11
10470.547763211949
 21
355.00743368930119
 31
0.0
  0
ARC
  5
D5C0
  8
01
 10
10482.54776321194
 20
394.21261383838061
 30
0.0
 40
48.0
 50
257.4441422014047
 51
282.55585779859518
  0
ARC
  5
D5C1
  8
01
 10
10472.547763211949
 20
349.31272519709182
 30
0.0
 40
2.0
 50
180.0
 51
257.4441422014047
  0
ARC
  5
D5C2
  8
01
 10
10492.547763211949
 20
349.31272519709501
 30
0.0
 40
2.0
 50
282.55585779859518
 51
0.0
  0
LINE
  5
D5C3
  8
01
 10
10223.047758539989
 20
357.3368135199762
 30
0.0
 11
10223.047758539989
 21
355.3368135199762
 31
0.0
  0
LINE
  5
D5C4
  8
01
 10
10223.047758539989
 20
355.3368135199762
 30
0.0
 11
10227.047758539989
 21
355.3368135199762
 31
0.0
  0
LINE
  5
D5C5
  8
01
 10
10231.047758539989
 20
357.3368135199762
 30
0.0
 11
10231.047758539989
 21
355.3368135199762
 31
0.0
  0
LINE
  5
D5C6
  8
01
 10
10231.047758539989
 20
355.3368135199762
 30
0.0
 11
10227.047758539989
 21
355.3368135199762
 31
0.0
  0
ARC
  5
D5C7
  8
01
 10
10223.54776321146
 20
352.73681368388952
 30
0.0
 40
6.0
 50
139.8919743361169
 51
220.1080256638831
  0
LINE
  5
D5C8
  8
01
 10
10219.570641136501
 20
356.8868136838891
 30
0.0
 11
10223.047758539989
 21
356.8868136838891
 31
0.0
  0
LINE
  5
D5C9
  8
01
 10
10231.047758539989
 20
356.8868136838891
 30
0.0
 11
10240.54776321146
 21
356.8868136838891
 31
0.0
  0
LINE
  5
D5CA
  8
01
 10
10219.570641136501
 20
356.08681368388989
 30
0.0
 11
10223.047758539989
 21
356.08681368388977
 31
0.0
  0
LINE
  5
D5CB
  8
01
 10
10231.047758539989
 20
356.08681368388977
 30
0.0
 11
10240.54776321146
 21
356.08681368388989
 31
0.0
  0
LINE
  5
D5CC
  8
01
 10
10219.570641136501
 20
348.58681368388989
 30
0.0
 11
10240.54776321146
 21
348.58681368388989
 31
0.0
  0
LINE
  5
D5CD
  8
01
 10
10219.570641136501
 20
349.38681368389013
 30
0.0
 11
10240.54776321146
 21
349.38681368389013
 31
0.0
  0
LINE
  5
D5CE
  8
01
 10
10240.54776321146
 20
350.73681368388952
 30
0.0
 11
10240.54776321146
 21
348.58681368388989
 31
0.0
  0
LINE
  5
D5CF
  8
01
 10
10240.54776321146
 20
356.8868136838891
 30
0.0
 11
10240.54776321146
 21
354.73681368388952
 31
0.0
  0
ARC
  5
D5D0
  8
01
 10
10223.54776321146
 20
352.73681368388952
 30
0.0
 40
5.2000000000000002
 50
139.8919743361169
 51
220.1080256638831
  0
ARC
  5
D5D1
  8
01
 10
10219.570641136501
 20
349.38681368388922
 30
0.0
 40
0.8
 50
220.1080256638831
 51
270.0
  0
ARC
  5
D5D2
  8
01
 10
10219.570641136501
 20
356.08681368388898
 30
0.0
 40
0.8
 50
90.0
 51
139.8919743361169
  0
LINE
  5
D5D7
  8
01
 10
10497.574043822809
 20
500.33681460776091
 30
0.0
 11
10144.10762200916
 21
500.33681460776091
 31
0.0
  0
LINE
  5
D5D8
  8
01
 10
10497.574043822809
 20
500.33681460776091
 30
0.0
 11
10497.574043822809
 21
-52.217654171970942
 31
0.0
  0
LINE
  5
D5DD
  8
01
 10
10484.14776321194
 20
90.83681368340865
 30
0.0
 11
10484.14776321194
 21
340.33681368389608
 31
0.0
  0
LINE
  5
D5DE
  8
01
 10
10480.14776321194
 20
340.33681368389608
 30
0.0
 11
10480.147763211949
 21
90.83681368340865
 31
0.0
  0
LINE
  5
D5DF
  8
01
 10
10480.147763211949
 20
90.836813683407755
 30
0.0
 11
10481.147763211949
 21
89.836813683408664
 31
0.0
  0
LINE
  5
D5E0
  8
01
 10
10483.14776321194
 20
89.836813683407726
 30
0.0
 11
10484.14776321194
 21
90.83681368340865
 31
0.0
  0
LINE
  5
D5E1
  8
01
 10
10481.147763211949
 20
89.836813683408664
 30
0.0
 11
10483.14776321194
 21
89.836813683408664
 31
0.0
  0
ARC
  5
D5E2
  8
01
 10
10482.14776321194
 20
93.336813683407755
 30
0.0
 40
6.0
 50
229.89197433606219
 51
310.10802566393772
  0
LINE
  5
D5E3
  8
01
 10
10477.997763211941
 20
89.359691608450589
 30
0.0
 11
10477.997763211941
 21
110.33681368340859
 31
0.0
  0
LINE
  5
D5E4
  8
01
 10
10478.79776321194
 20
89.359691608450589
 30
0.0
 11
10478.79776321194
 21
110.33681368340859
 31
0.0
  0
LINE
  5
D5E5
  8
01
 10
10486.29776321194
 20
89.359691608450589
 30
0.0
 11
10486.29776321194
 21
110.3368136834077
 31
0.0
  0
LINE
  5
D5E6
  8
01
 10
10485.497763211941
 20
89.359691608450589
 30
0.0
 11
10485.497763211941
 21
110.3368136834077
 31
0.0
  0
LINE
  5
D5E7
  8
01
 10
10484.14776321194
 20
110.3368136834077
 30
0.0
 11
10486.29776321194
 21
110.3368136834077
 31
0.0
  0
LINE
  5
D5E8
  8
01
 10
10477.997763211941
 20
110.33681368340859
 30
0.0
 11
10480.14776321194
 21
110.3368136834077
 31
0.0
  0
ARC
  5
D5E9
  8
01
 10
10482.14776321194
 20
93.336813683407755
 30
0.0
 40
5.2000000000000002
 50
229.89197433606219
 51
310.10802566393772
  0
ARC
  5
D5EA
  8
01
 10
10485.497763211941
 20
89.359691608450589
 30
0.0
 40
0.8
 50
310.10802566393772
 51
0.0
  0
ARC
  5
D5EB
  8
01
 10
10478.79776321194
 20
89.359691608450589
 30
0.0
 40
0.8
 50
180.0
 51
229.89197433606219
  0
LINE
  5
D5EC
  8
1PHANTOM
 10
10478.04776321194
 20
342.33681368388892
 30
0.0
 11
10478.04776321194
 21
343.33681368388892
 31
0.0
  0
ARC
  5
D5ED
  8
1PHANTOM
 10
10480.04776321194
 20
342.33681368388892
 30
0.0
 40
2.0
 50
180.0
 51
270.0
  0
LINE
  5
D5EE
  8
1PHANTOM
 10
10478.04776321194
 20
361.33681368388892
 30
0.0
 11
10478.04776321194
 21
362.33681368388892
 31
0.0
  0
LINE
  5
D5EF
  8
1PHANTOM
 10
10480.04776321194
 20
364.33681368388892
 30
0.0
 11
10485.04776321194
 21
364.33681368388892
 31
0.0
  0
ARC
  5
D5F0
  8
1PHANTOM
 10
10480.04776321194
 20
362.33681368388892
 30
0.0
 40
2.0
 50
90.0
 51
180.0
  0
LINE
  5
D5F1
  8
1PHANTOM
 10
10485.04776321194
 20
364.33681368388892
 30
0.0
 11
10485.47185169873
 21
364.33681368388892
 31
0.0
  0
LINE
  5
D5F2
  8
01
 10
10471.54776321194
 20
347.61647846285439
 30
0.0
 11
10471.54776321194
 21
357.05714890492328
 31
0.0
  0
ARC
  5
D5F3
  8
1PHANTOM
 10
10473.54776321194
 20
347.61647846285439
 30
0.0
 40
2.0
 50
180.0
 51
245.22485943125761
  0
LINE
  5
D5F4
  8
1PHANTOM
 10
10485.32603621395
 20
340.33681368388892
 30
0.0
 11
10485.04776321194
 21
340.33681368388892
 31
0.0
  0
LINE
  5
D5F5
  8
1PHANTOM
 10
10485.47185169874
 20
340.33681368388892
 30
0.0
 11
10480.04776321194
 21
340.33681368388892
 31
0.0
  0
LINE
  5
D5F6
  8
1PHANTOM
 10
10472.70964685702
 20
358.87306767392408
 30
0.0
 11
10478.04776321194
 21
361.33681368388892
 31
0.0
  0
ARC
  5
D5F7
  8
1PHANTOM
 10
10473.54776321194
 20
357.05714890492328
 30
0.0
 40
2.0
 50
114.7751405687424
 51
180.0
  0
LINE
  5
D5F8
  8
1PHANTOM
 10
10478.04776321194
 20
343.33681368388892
 30
0.0
 11
10472.70964685702
 21
345.80055969385359
 31
0.0
  0
ARC
  5
D5F9
  8
1PHANTOM
 10
10440.571963057449
 20
352.33681368388159
 30
0.0
 40
48.0
 50
347.44414220140158
 51
12.55585779859841
  0
ARC
  5
D5FA
  8
1PHANTOM
 10
10485.47185169874
 20
342.33681368388892
 30
0.0
 40
2.0
 50
270.0
 51
347.44414220140158
  0
ARC
  5
D5FB
  8
1PHANTOM
 10
10485.47185169873
 20
362.33681368388892
 30
0.0
 40
2.0
 50
12.55585779859841
 51
90.0
  0
LINE
  5
D5FD
  8
1PHANTOM
 10
10444.54776099236
 20
493.88681460776138
 30
0.0
 11
10447.79776099236
 21
497.13681460776138
 31
0.0
  0
LINE
  5
D5FE
  8
1PHANTOM
 10
10447.79776099236
 20
537.00572569451583
 30
0.0
 11
10447.79776099236
 21
497.13681460776138
 31
0.0
  0
LINE
  5
D5FF
  8
1PHANTOM
 10
10444.54776099236
 20
493.88681460776138
 30
0.0
 11
10444.54776099236
 21
493.5368146077609
 31
0.0
  0
LINE
  5
D600
  8
1PHANTOM
 10
10449.54776099236
 20
543.5368146077609
 30
0.0
 11
10447.79776099236
 21
537.00572569451583
 31
0.0
  0
LINE
  5
D601
  8
1PHANTOM
 10
10454.54776099236
 20
493.5368146077609
 30
0.0
 11
10444.54776099236
 21
493.5368146077609
 31
0.0
  0
LINE
  5
D602
  8
1PHANTOM
 10
10449.54776099236
 20
543.5368146077609
 30
0.0
 11
10451.29776099236
 21
537.00572569451583
 31
0.0
  0
LINE
  5
D603
  8
1PHANTOM
 10
10454.54776099236
 20
493.88681460776138
 30
0.0
 11
10454.54776099236
 21
493.5368146077609
 31
0.0
  0
LINE
  5
D604
  8
1PHANTOM
 10
10451.29776099236
 20
537.00572569451583
 30
0.0
 11
10451.29776099236
 21
497.1368146077595
 31
0.0
  0
LINE
  5
D605
  8
1PHANTOM
 10
10454.54776099236
 20
493.88681460776138
 30
0.0
 11
10451.29776099236
 21
497.1368146077595
 31
0.0
  0
LINE
  5
D606
  8
1PHANTOM
 10
10447.04776099236
 20
515.65468019380683
 30
0.0
 11
10452.04776099236
 21
516.65468019380683
 31
0.0
  0
LINE
  5
D607
  8
1PHANTOM
 10
10447.04776099236
 20
513.65468019380683
 30
0.0
 11
10452.04776099236
 21
514.65468019380683
 31
0.0
  0
LINE
  5
D608
  8
1PHANTOM
 10
10447.04776099236
 20
515.65468019380683
 30
0.0
 11
10447.79776099236
 21
515.50468019380708
 31
0.0
  0
LINE
  5
D609
  8
1PHANTOM
 10
10447.04776099236
 20
513.65468019380683
 30
0.0
 11
10447.79776099236
 21
513.50468019380719
 31
0.0
  0
LINE
  5
D60A
  8
1PHANTOM
 10
10454.54776099236
 20
493.88681460776138
 30
0.0
 11
10444.54776099236
 21
493.88681460776138
 31
0.0
  0
LINE
  5
D60B
  8
1PHANTOM
 10
10447.04776099236
 20
517.65468019380683
 30
0.0
 11
10447.79776099236
 21
517.50468019380719
 31
0.0
  0
LINE
  5
D60C
  8
1PHANTOM
 10
10447.04776099236
 20
519.65468019380683
 30
0.0
 11
10447.79776099236
 21
519.50468019380719
 31
0.0
  0
LINE
  5
D60D
  8
1PHANTOM
 10
10447.04776099236
 20
517.65468019380683
 30
0.0
 11
10452.04776099236
 21
518.65468019380683
 31
0.0
  0
LINE
  5
D60E
  8
1PHANTOM
 10
10447.04776099236
 20
521.65468019380683
 30
0.0
 11
10447.79776099236
 21
521.50468019380708
 31
0.0
  0
LINE
  5
D60F
  8
1PHANTOM
 10
10447.04776099236
 20
521.65468019380683
 30
0.0
 11
10452.04776099236
 21
522.65468019380683
 31
0.0
  0
LINE
  5
D610
  8
1PHANTOM
 10
10447.04776099236
 20
519.65468019380683
 30
0.0
 11
10452.04776099236
 21
520.65468019380683
 31
0.0
  0
LINE
  5
D611
  8
1PHANTOM
 10
10447.04776099236
 20
525.65468019380683
 30
0.0
 11
10452.04776099236
 21
526.65468019380683
 31
0.0
  0
LINE
  5
D612
  8
1PHANTOM
 10
10447.04776099236
 20
527.65468019380683
 30
0.0
 11
10447.79776099236
 21
527.50468019380719
 31
0.0
  0
LINE
  5
D613
  8
1PHANTOM
 10
10447.04776099236
 20
527.65468019380683
 30
0.0
 11
10452.04776099236
 21
528.65468019380683
 31
0.0
  0
LINE
  5
D614
  8
1PHANTOM
 10
10447.04776099236
 20
529.65468019380683
 30
0.0
 11
10447.79776099236
 21
529.50468019380708
 31
0.0
  0
LINE
  5
D615
  8
1PHANTOM
 10
10447.04776099236
 20
531.65468019380683
 30
0.0
 11
10447.79776099236
 21
531.50468019380719
 31
0.0
  0
LINE
  5
D616
  8
1PHANTOM
 10
10447.04776099236
 20
535.65468019380683
 30
0.0
 11
10447.79776099236
 21
535.50468019380719
 31
0.0
  0
LINE
  5
D617
  8
1PHANTOM
 10
10447.04776099236
 20
533.65468019380683
 30
0.0
 11
10447.79776099236
 21
533.50468019380708
 31
0.0
  0
LINE
  5
D618
  8
1PHANTOM
 10
10447.04776099236
 20
531.65468019380683
 30
0.0
 11
10452.04776099236
 21
532.65468019380683
 31
0.0
  0
LINE
  5
D619
  8
1PHANTOM
 10
10447.04776099236
 20
533.65468019380683
 30
0.0
 11
10452.04776099236
 21
534.65468019380671
 31
0.0
  0
LINE
  5
D61A
  8
1PHANTOM
 10
10447.04776099236
 20
535.65468019380683
 30
0.0
 11
10452.04776099236
 21
536.65468019380683
 31
0.0
  0
LINE
  5
D61B
  8
1PHANTOM
 10
10447.04776099236
 20
529.65468019380683
 30
0.0
 11
10452.04776099236
 21
530.65468019380671
 31
0.0
  0
LINE
  5
D61C
  8
1PHANTOM
 10
10447.231494051321
 20
537.69142680560003
 30
0.0
 11
10447.981494051321
 21
537.54142680559846
 31
0.0
  0
LINE
  5
D61D
  8
1PHANTOM
 10
10447.231494051321
 20
537.69142680560003
 30
0.0
 11
10451.62839853241
 21
538.57080770181824
 31
0.0
  0
LINE
  5
D61E
  8
1PHANTOM
 10
10447.04776099236
 20
523.65468019380683
 30
0.0
 11
10447.79776099236
 21
523.50468019380719
 31
0.0
  0
LINE
  5
D61F
  8
1PHANTOM
 10
10447.04776099236
 20
525.65468019380683
 30
0.0
 11
10447.79776099236
 21
525.50468019380708
 31
0.0
  0
LINE
  5
D620
  8
1PHANTOM
 10
10447.04776099236
 20
523.65468019380683
 30
0.0
 11
10452.04776099236
 21
524.65468019380683
 31
0.0
  0
LINE
  5
D621
  8
1PHANTOM
 10
10451.29776099236
 20
526.80468019380635
 30
0.0
 11
10452.04776099236
 21
526.65468019380683
 31
0.0
  0
LINE
  5
D622
  8
1PHANTOM
 10
10451.29776099236
 20
532.80468019380635
 30
0.0
 11
10452.04776099236
 21
532.65468019380683
 31
0.0
  0
LINE
  5
D623
  8
1PHANTOM
 10
10451.29776099236
 20
530.80468019380635
 30
0.0
 11
10452.04776099236
 21
530.65468019380671
 31
0.0
  0
LINE
  5
D624
  8
1PHANTOM
 10
10451.29776099236
 20
534.80468019380635
 30
0.0
 11
10452.04776099236
 21
534.65468019380671
 31
0.0
  0
LINE
  5
D625
  8
1PHANTOM
 10
10451.29776099236
 20
536.80468019380635
 30
0.0
 11
10452.04776099236
 21
536.65468019380683
 31
0.0
  0
LINE
  5
D626
  8
1PHANTOM
 10
10451.29776099236
 20
528.80468019380635
 30
0.0
 11
10452.04776099236
 21
528.65468019380683
 31
0.0
  0
LINE
  5
D627
  8
1PHANTOM
 10
10450.36975810586
 20
540.6190796165057
 30
0.0
 11
10451.11975810586
 21
540.46907961650618
 31
0.0
  0
LINE
  5
D628
  8
1PHANTOM
 10
10450.87839853241
 20
538.72080770181776
 30
0.0
 11
10451.62839853241
 21
538.57080770181824
 31
0.0
  0
LINE
  5
D629
  8
1PHANTOM
 10
10449.8611176793
 20
542.51735153119546
 30
0.0
 11
10450.6111176793
 21
542.36735153119594
 31
0.0
  0
LINE
  5
D62A
  8
1PHANTOM
 10
10447.79773732158
 20
539.80467545965189
 30
0.0
 11
10448.54773732158
 21
539.65467545965043
 31
0.0
  0
LINE
  5
D62B
  8
1PHANTOM
 10
10448.363980591839
 20
541.91792411370375
 30
0.0
 11
10450.6111176793
 21
542.36735153119594
 31
0.0
  0
LINE
  5
D62C
  8
1PHANTOM
 10
10447.79773732158
 20
539.80467545965189
 30
0.0
 11
10451.11975810586
 21
540.46907961650618
 31
0.0
  0
LINE
  5
D62D
  8
1PHANTOM
 10
10448.363980591839
 20
541.91792411370375
 30
0.0
 11
10449.113980591839
 21
541.76792411370218
 31
0.0
  0
LINE
  5
D62E
  8
1PHANTOM
 10
10451.29776099236
 20
524.80468019380635
 30
0.0
 11
10452.04776099236
 21
524.65468019380683
 31
0.0
  0
LINE
  5
D62F
  8
1PHANTOM
 10
10451.29776099236
 20
516.80468019380635
 30
0.0
 11
10452.04776099236
 21
516.65468019380683
 31
0.0
  0
LINE
  5
D630
  8
1PHANTOM
 10
10451.29776099236
 20
514.80468019380635
 30
0.0
 11
10452.04776099236
 21
514.65468019380683
 31
0.0
  0
LINE
  5
D631
  8
1PHANTOM
 10
10451.29776099236
 20
518.80468019380635
 30
0.0
 11
10452.04776099236
 21
518.65468019380683
 31
0.0
  0
LINE
  5
D632
  8
1PHANTOM
 10
10451.29776099236
 20
522.80468019380635
 30
0.0
 11
10452.04776099236
 21
522.65468019380683
 31
0.0
  0
LINE
  5
D633
  8
1PHANTOM
 10
10451.29776099236
 20
520.80468019380635
 30
0.0
 11
10452.04776099236
 21
520.65468019380683
 31
0.0
  0
LINE
  5
D634
  8
1PHANTOM
 10
10447.04776099236
 20
509.65468019380671
 30
0.0
 11
10452.04776099236
 21
510.65468019380683
 31
0.0
  0
LINE
  5
D635
  8
1PHANTOM
 10
10447.04776099236
 20
507.65468019380683
 30
0.0
 11
10452.04776099236
 21
508.65468019380683
 31
0.0
  0
LINE
  5
D636
  8
1PHANTOM
 10
10447.04776099236
 20
509.65468019380671
 30
0.0
 11
10447.79776099236
 21
509.50468019380719
 31
0.0
  0
LINE
  5
D637
  8
1PHANTOM
 10
10447.04776099236
 20
507.65468019380683
 30
0.0
 11
10447.79776099236
 21
507.50468019380708
 31
0.0
  0
LINE
  5
D638
  8
1PHANTOM
 10
10447.04776099236
 20
511.65468019380683
 30
0.0
 11
10447.79776099236
 21
511.50468019380708
 31
0.0
  0
LINE
  5
D639
  8
1PHANTOM
 10
10447.04776099236
 20
511.65468019380683
 30
0.0
 11
10452.04776099236
 21
512.65468019380683
 31
0.0
  0
LINE
  5
D63A
  8
1PHANTOM
 10
10451.29776099236
 20
510.80468019380652
 30
0.0
 11
10452.04776099236
 21
510.65468019380683
 31
0.0
  0
LINE
  5
D63B
  8
1PHANTOM
 10
10451.29776099236
 20
508.8046801938064
 30
0.0
 11
10452.04776099236
 21
508.65468019380683
 31
0.0
  0
LINE
  5
D63C
  8
1PHANTOM
 10
10451.29776099236
 20
512.80468019380635
 30
0.0
 11
10452.04776099236
 21
512.65468019380683
 31
0.0
  0
LINE
  5
D63D
  8
1PHANTOM
 10
10447.04776099236
 20
505.65468019380671
 30
0.0
 11
10452.04776099236
 21
506.65468019380683
 31
0.0
  0
LINE
  5
D63E
  8
1PHANTOM
 10
10447.04776099236
 20
503.65468019380683
 30
0.0
 11
10452.04776099236
 21
504.65468019380683
 31
0.0
  0
LINE
  5
D63F
  8
1PHANTOM
 10
10447.04776099236
 20
505.65468019380671
 30
0.0
 11
10447.79776099236
 21
505.50468019380719
 31
0.0
  0
LINE
  5
D640
  8
1PHANTOM
 10
10447.04776099236
 20
503.65468019380683
 30
0.0
 11
10447.79776099236
 21
503.50468019380708
 31
0.0
  0
LINE
  5
D641
  8
1PHANTOM
 10
10451.29776099236
 20
506.80468019380652
 30
0.0
 11
10452.04776099236
 21
506.65468019380683
 31
0.0
  0
LINE
  5
D642
  8
1PHANTOM
 10
10451.29776099236
 20
504.8046801938064
 30
0.0
 11
10452.04776099236
 21
504.65468019380683
 31
0.0
  0
LINE
  5
D643
  8
1PHANTOM
 10
10447.04776099236
 20
501.65468019380683
 30
0.0
 11
10452.04776099236
 21
502.65468019380683
 31
0.0
  0
LINE
  5
D644
  8
1PHANTOM
 10
10447.04776099236
 20
501.65468019380683
 30
0.0
 11
10447.79776099236
 21
501.50468019380719
 31
0.0
  0
LINE
  5
D645
  8
1PHANTOM
 10
10451.29776099236
 20
502.80468019380652
 30
0.0
 11
10452.04776099236
 21
502.65468019380683
 31
0.0
  0
LINE
  5
D646
  8
1PHANTOM
 10
10447.04776099236
 20
499.65468019380683
 30
0.0
 11
10452.04776099236
 21
500.65468019380683
 31
0.0
  0
LINE
  5
D647
  8
1PHANTOM
 10
10447.04776099236
 20
497.65468019380683
 30
0.0
 11
10452.04776099236
 21
498.65468019380683
 31
0.0
  0
LINE
  5
D648
  8
1PHANTOM
 10
10447.04776099236
 20
499.65468019380683
 30
0.0
 11
10447.79776099236
 21
499.50468019380708
 31
0.0
  0
LINE
  5
D649
  8
1PHANTOM
 10
10447.04776099236
 20
497.65468019380683
 30
0.0
 11
10447.79776099236
 21
497.50468019380719
 31
0.0
  0
LINE
  5
D64A
  8
1PHANTOM
 10
10451.29776099236
 20
500.8046801938064
 30
0.0
 11
10452.04776099236
 21
500.65468019380683
 31
0.0
  0
LINE
  5
D64B
  8
1PHANTOM
 10
10451.29776099236
 20
498.80468019380652
 30
0.0
 11
10452.04776099236
 21
498.65468019380683
 31
0.0
  0
LINE
  5
D64C
  8
1PHANTOM
 10
10264.54776099236
 20
493.88681460776138
 30
0.0
 11
10267.79776099236
 21
497.13681460776138
 31
0.0
  0
LINE
  5
D64D
  8
1PHANTOM
 10
10267.79776099236
 20
537.00572569451583
 30
0.0
 11
10267.79776099236
 21
497.13681460776138
 31
0.0
  0
LINE
  5
D64E
  8
1PHANTOM
 10
10264.54776099236
 20
493.88681460776138
 30
0.0
 11
10264.54776099236
 21
493.5368146077609
 31
0.0
  0
LINE
  5
D64F
  8
1PHANTOM
 10
10269.54776099236
 20
543.5368146077609
 30
0.0
 11
10267.79776099236
 21
537.00572569451583
 31
0.0
  0
LINE
  5
D650
  8
1PHANTOM
 10
10274.54776099236
 20
493.5368146077609
 30
0.0
 11
10264.54776099236
 21
493.5368146077609
 31
0.0
  0
LINE
  5
D651
  8
1PHANTOM
 10
10269.54776099236
 20
543.5368146077609
 30
0.0
 11
10271.29776099236
 21
537.00572569451583
 31
0.0
  0
LINE
  5
D652
  8
1PHANTOM
 10
10274.54776099236
 20
493.88681460776138
 30
0.0
 11
10274.54776099236
 21
493.5368146077609
 31
0.0
  0
LINE
  5
D653
  8
1PHANTOM
 10
10271.29776099236
 20
537.00572569451583
 30
0.0
 11
10271.29776099236
 21
497.1368146077595
 31
0.0
  0
LINE
  5
D654
  8
1PHANTOM
 10
10274.54776099236
 20
493.88681460776138
 30
0.0
 11
10271.29776099236
 21
497.1368146077595
 31
0.0
  0
LINE
  5
D655
  8
1PHANTOM
 10
10267.04776099236
 20
515.65468019380683
 30
0.0
 11
10272.047760992349
 21
516.65468019380683
 31
0.0
  0
LINE
  5
D656
  8
1PHANTOM
 10
10267.04776099236
 20
513.65468019380683
 30
0.0
 11
10272.047760992349
 21
514.65468019380683
 31
0.0
  0
LINE
  5
D657
  8
1PHANTOM
 10
10267.04776099236
 20
515.65468019380683
 30
0.0
 11
10267.79776099236
 21
515.50468019380708
 31
0.0
  0
LINE
  5
D658
  8
1PHANTOM
 10
10267.04776099236
 20
513.65468019380683
 30
0.0
 11
10267.79776099236
 21
513.50468019380719
 31
0.0
  0
LINE
  5
D659
  8
1PHANTOM
 10
10274.54776099236
 20
493.88681460776138
 30
0.0
 11
10264.54776099236
 21
493.88681460776138
 31
0.0
  0
LINE
  5
D65A
  8
1PHANTOM
 10
10267.04776099236
 20
517.65468019380683
 30
0.0
 11
10267.79776099236
 21
517.50468019380719
 31
0.0
  0
LINE
  5
D65B
  8
1PHANTOM
 10
10267.04776099236
 20
519.65468019380683
 30
0.0
 11
10267.79776099236
 21
519.50468019380719
 31
0.0
  0
LINE
  5
D65C
  8
1PHANTOM
 10
10267.04776099236
 20
517.65468019380683
 30
0.0
 11
10272.047760992349
 21
518.65468019380683
 31
0.0
  0
LINE
  5
D65D
  8
1PHANTOM
 10
10267.04776099236
 20
521.65468019380683
 30
0.0
 11
10267.79776099236
 21
521.50468019380708
 31
0.0
  0
LINE
  5
D65E
  8
1PHANTOM
 10
10267.04776099236
 20
521.65468019380683
 30
0.0
 11
10272.047760992349
 21
522.65468019380683
 31
0.0
  0
LINE
  5
D65F
  8
1PHANTOM
 10
10267.04776099236
 20
519.65468019380683
 30
0.0
 11
10272.047760992349
 21
520.65468019380683
 31
0.0
  0
LINE
  5
D660
  8
1PHANTOM
 10
10267.04776099236
 20
525.65468019380683
 30
0.0
 11
10272.047760992349
 21
526.65468019380683
 31
0.0
  0
LINE
  5
D661
  8
1PHANTOM
 10
10267.04776099236
 20
527.65468019380683
 30
0.0
 11
10267.79776099236
 21
527.50468019380719
 31
0.0
  0
LINE
  5
D662
  8
1PHANTOM
 10
10267.04776099236
 20
527.65468019380683
 30
0.0
 11
10272.047760992349
 21
528.65468019380683
 31
0.0
  0
LINE
  5
D663
  8
1PHANTOM
 10
10267.04776099236
 20
529.65468019380683
 30
0.0
 11
10267.79776099236
 21
529.50468019380708
 31
0.0
  0
LINE
  5
D664
  8
1PHANTOM
 10
10267.04776099236
 20
531.65468019380683
 30
0.0
 11
10267.79776099236
 21
531.50468019380719
 31
0.0
  0
LINE
  5
D665
  8
1PHANTOM
 10
10267.04776099236
 20
535.65468019380683
 30
0.0
 11
10267.79776099236
 21
535.50468019380719
 31
0.0
  0
LINE
  5
D666
  8
1PHANTOM
 10
10267.04776099236
 20
533.65468019380683
 30
0.0
 11
10267.79776099236
 21
533.50468019380708
 31
0.0
  0
LINE
  5
D667
  8
1PHANTOM
 10
10267.04776099236
 20
531.65468019380683
 30
0.0
 11
10272.047760992349
 21
532.65468019380683
 31
0.0
  0
LINE
  5
D668
  8
1PHANTOM
 10
10267.04776099236
 20
533.65468019380683
 30
0.0
 11
10272.047760992349
 21
534.65468019380671
 31
0.0
  0
LINE
  5
D669
  8
1PHANTOM
 10
10267.04776099236
 20
535.65468019380683
 30
0.0
 11
10272.047760992349
 21
536.65468019380683
 31
0.0
  0
LINE
  5
D66A
  8
1PHANTOM
 10
10267.04776099236
 20
529.65468019380683
 30
0.0
 11
10272.047760992349
 21
530.65468019380671
 31
0.0
  0
LINE
  5
D66B
  8
1PHANTOM
 10
10267.231494051321
 20
537.69142680560003
 30
0.0
 11
10267.981494051321
 21
537.54142680559846
 31
0.0
  0
LINE
  5
D66C
  8
1PHANTOM
 10
10267.231494051321
 20
537.69142680560003
 30
0.0
 11
10271.62839853241
 21
538.57080770181824
 31
0.0
  0
LINE
  5
D66D
  8
1PHANTOM
 10
10267.04776099236
 20
523.65468019380683
 30
0.0
 11
10267.79776099236
 21
523.50468019380719
 31
0.0
  0
LINE
  5
D66E
  8
1PHANTOM
 10
10267.04776099236
 20
525.65468019380683
 30
0.0
 11
10267.79776099236
 21
525.50468019380708
 31
0.0
  0
LINE
  5
D66F
  8
1PHANTOM
 10
10267.04776099236
 20
523.65468019380683
 30
0.0
 11
10272.047760992349
 21
524.65468019380683
 31
0.0
  0
LINE
  5
D670
  8
1PHANTOM
 10
10271.29776099236
 20
526.80468019380635
 30
0.0
 11
10272.047760992349
 21
526.65468019380683
 31
0.0
  0
LINE
  5
D671
  8
1PHANTOM
 10
10271.29776099236
 20
532.80468019380635
 30
0.0
 11
10272.047760992349
 21
532.65468019380683
 31
0.0
  0
LINE
  5
D672
  8
1PHANTOM
 10
10271.29776099236
 20
530.80468019380635
 30
0.0
 11
10272.047760992349
 21
530.65468019380671
 31
0.0
  0
LINE
  5
D673
  8
1PHANTOM
 10
10271.29776099236
 20
534.80468019380635
 30
0.0
 11
10272.047760992349
 21
534.65468019380671
 31
0.0
  0
LINE
  5
D674
  8
1PHANTOM
 10
10271.29776099236
 20
536.80468019380635
 30
0.0
 11
10272.047760992349
 21
536.65468019380683
 31
0.0
  0
LINE
  5
D675
  8
1PHANTOM
 10
10271.29776099236
 20
528.80468019380635
 30
0.0
 11
10272.047760992349
 21
528.65468019380683
 31
0.0
  0
LINE
  5
D676
  8
1PHANTOM
 10
10270.36975810586
 20
540.6190796165057
 30
0.0
 11
10271.11975810586
 21
540.46907961650618
 31
0.0
  0
LINE
  5
D677
  8
1PHANTOM
 10
10270.87839853241
 20
538.72080770181776
 30
0.0
 11
10271.62839853241
 21
538.57080770181824
 31
0.0
  0
LINE
  5
D678
  8
1PHANTOM
 10
10269.8611176793
 20
542.51735153119546
 30
0.0
 11
10270.6111176793
 21
542.36735153119594
 31
0.0
  0
LINE
  5
D679
  8
1PHANTOM
 10
10267.79773732158
 20
539.80467545965189
 30
0.0
 11
10268.54773732158
 21
539.65467545965043
 31
0.0
  0
LINE
  5
D67A
  8
1PHANTOM
 10
10268.363980591839
 20
541.91792411370375
 30
0.0
 11
10270.6111176793
 21
542.36735153119594
 31
0.0
  0
LINE
  5
D67B
  8
1PHANTOM
 10
10267.79773732158
 20
539.80467545965189
 30
0.0
 11
10271.11975810586
 21
540.46907961650618
 31
0.0
  0
LINE
  5
D67C
  8
1PHANTOM
 10
10268.363980591839
 20
541.91792411370375
 30
0.0
 11
10269.113980591839
 21
541.76792411370218
 31
0.0
  0
LINE
  5
D67D
  8
1PHANTOM
 10
10271.29776099236
 20
524.80468019380635
 30
0.0
 11
10272.047760992349
 21
524.65468019380683
 31
0.0
  0
LINE
  5
D67E
  8
1PHANTOM
 10
10271.29776099236
 20
516.80468019380635
 30
0.0
 11
10272.047760992349
 21
516.65468019380683
 31
0.0
  0
LINE
  5
D67F
  8
1PHANTOM
 10
10271.29776099236
 20
514.80468019380635
 30
0.0
 11
10272.047760992349
 21
514.65468019380683
 31
0.0
  0
LINE
  5
D680
  8
1PHANTOM
 10
10271.29776099236
 20
518.80468019380635
 30
0.0
 11
10272.047760992349
 21
518.65468019380683
 31
0.0
  0
LINE
  5
D681
  8
1PHANTOM
 10
10271.29776099236
 20
522.80468019380635
 30
0.0
 11
10272.047760992349
 21
522.65468019380683
 31
0.0
  0
LINE
  5
D682
  8
1PHANTOM
 10
10271.29776099236
 20
520.80468019380635
 30
0.0
 11
10272.047760992349
 21
520.65468019380683
 31
0.0
  0
LINE
  5
D683
  8
1PHANTOM
 10
10267.04776099236
 20
509.65468019380671
 30
0.0
 11
10272.047760992349
 21
510.65468019380683
 31
0.0
  0
LINE
  5
D684
  8
1PHANTOM
 10
10267.04776099236
 20
507.65468019380683
 30
0.0
 11
10272.047760992349
 21
508.65468019380683
 31
0.0
  0
LINE
  5
D685
  8
1PHANTOM
 10
10267.04776099236
 20
509.65468019380671
 30
0.0
 11
10267.79776099236
 21
509.50468019380719
 31
0.0
  0
LINE
  5
D686
  8
1PHANTOM
 10
10267.04776099236
 20
507.65468019380683
 30
0.0
 11
10267.79776099236
 21
507.50468019380708
 31
0.0
  0
LINE
  5
D687
  8
1PHANTOM
 10
10267.04776099236
 20
511.65468019380683
 30
0.0
 11
10267.79776099236
 21
511.50468019380708
 31
0.0
  0
LINE
  5
D688
  8
1PHANTOM
 10
10267.04776099236
 20
511.65468019380683
 30
0.0
 11
10272.047760992349
 21
512.65468019380683
 31
0.0
  0
LINE
  5
D689
  8
1PHANTOM
 10
10271.29776099236
 20
510.80468019380652
 30
0.0
 11
10272.047760992349
 21
510.65468019380683
 31
0.0
  0
LINE
  5
D68A
  8
1PHANTOM
 10
10271.29776099236
 20
508.8046801938064
 30
0.0
 11
10272.047760992349
 21
508.65468019380683
 31
0.0
  0
LINE
  5
D68B
  8
1PHANTOM
 10
10271.29776099236
 20
512.80468019380635
 30
0.0
 11
10272.047760992349
 21
512.65468019380683
 31
0.0
  0
LINE
  5
D68C
  8
1PHANTOM
 10
10267.04776099236
 20
505.65468019380671
 30
0.0
 11
10272.047760992349
 21
506.65468019380683
 31
0.0
  0
LINE
  5
D68D
  8
1PHANTOM
 10
10267.04776099236
 20
503.65468019380683
 30
0.0
 11
10272.047760992349
 21
504.65468019380683
 31
0.0
  0
LINE
  5
D68E
  8
1PHANTOM
 10
10267.04776099236
 20
505.65468019380671
 30
0.0
 11
10267.79776099236
 21
505.50468019380719
 31
0.0
  0
LINE
  5
D68F
  8
1PHANTOM
 10
10267.04776099236
 20
503.65468019380683
 30
0.0
 11
10267.79776099236
 21
503.50468019380708
 31
0.0
  0
LINE
  5
D690
  8
1PHANTOM
 10
10271.29776099236
 20
506.80468019380652
 30
0.0
 11
10272.047760992349
 21
506.65468019380683
 31
0.0
  0
LINE
  5
D691
  8
1PHANTOM
 10
10271.29776099236
 20
504.8046801938064
 30
0.0
 11
10272.047760992349
 21
504.65468019380683
 31
0.0
  0
LINE
  5
D692
  8
1PHANTOM
 10
10267.04776099236
 20
501.65468019380683
 30
0.0
 11
10272.047760992349
 21
502.65468019380683
 31
0.0
  0
LINE
  5
D693
  8
1PHANTOM
 10
10267.04776099236
 20
501.65468019380683
 30
0.0
 11
10267.79776099236
 21
501.50468019380719
 31
0.0
  0
LINE
  5
D694
  8
1PHANTOM
 10
10271.29776099236
 20
502.80468019380652
 30
0.0
 11
10272.047760992349
 21
502.65468019380683
 31
0.0
  0
LINE
  5
D695
  8
1PHANTOM
 10
10267.04776099236
 20
499.65468019380683
 30
0.0
 11
10272.047760992349
 21
500.65468019380683
 31
0.0
  0
LINE
  5
D696
  8
1PHANTOM
 10
10267.04776099236
 20
497.65468019380683
 30
0.0
 11
10272.047760992349
 21
498.65468019380683
 31
0.0
  0
LINE
  5
D697
  8
1PHANTOM
 10
10267.04776099236
 20
499.65468019380683
 30
0.0
 11
10267.79776099236
 21
499.50468019380708
 31
0.0
  0
LINE
  5
D698
  8
1PHANTOM
 10
10267.04776099236
 20
497.65468019380683
 30
0.0
 11
10267.79776099236
 21
497.50468019380719
 31
0.0
  0
LINE
  5
D699
  8
1PHANTOM
 10
10271.29776099236
 20
500.8046801938064
 30
0.0
 11
10272.047760992349
 21
500.65468019380683
 31
0.0
  0
LINE
  5
D69A
  8
1PHANTOM
 10
10271.29776099236
 20
498.80468019380652
 30
0.0
 11
10272.047760992349
 21
498.65468019380683
 31
0.0
  0
LINE
  5
D69B
  8
1CENTER
 10
10269.547760992349
 20
543.53681460775761
 30
0.0
 11
10269.547760992349
 21
492.99559569737539
 31
0.0
  0
LINE
  5
D73C
  8
01
 10
10109.222932950381
 20
-162.59097134761581
 30
0.0
 11
10584.88391233975
 21
-162.59097134761581
 31
0.0
  0
LINE
  5
D799
  8
01
 10
10584.88391233975
 20
602.09380213864358
 30
0.0
 11
10109.222932950381
 21
602.09380213864358
 31
0.0
  0
TEXT
  5
D79C
  8
1TEXT
 10
10111.772529673681
 20
-105.5515170359167
 30
0.0
 40
28.0
  1
（上下反転にて取り付け）
  0
TEXT
  5
D79D
  8
1TEXT
 10
10228.279758472219
 20
-39.248998031323943
 30
0.0
 40
40.0
  1
右吊元
  0
LINE
  5
D821
  8
1DIM
 10
9354.5828360066862
 20
803.91561311505166
 30
0.0
 11
9354.5828360066862
 21
819.96019146645119
 31
0.0
  0
LINE
  5
D835
  8
01
 10
10584.88391233975
 20
602.09380213864358
 30
0.0
 11
10584.88391233975
 21
-162.59097134761581
 31
0.0
  0
LINE
  5
D836
  8
01
 10
10109.222932950381
 20
602.09380213864358
 30
0.0
 11
10109.222932950381
 21
-162.59097134761581
 31
0.0
  0
LINE
  5
D963
  8
1CENTER
 10
9354.5828359981333
 20
810.42570055019632
 30
0.0
 11
9354.5828359981333
 21
759.88448163981411
 31
0.0
  0
TEXT
  5
DA42
  8
1TEXT
 10
9636.8973452862901
 20
651.26764524000805
 30
0.0
 40
20.0
  1
仕上げ：白塗装
  0
LINE
  5
DBC3
  8
1CENTER
 10
10449.547760992349
 20
543.53681460775761
 30
0.0
 11
10449.547760992349
 21
492.99559569737539
 31
0.0
  0
TEXT
  5
DC30
  8
1TEXT
 10
9630.4846015057628
 20
777.83124381668176
 30
0.0
 40
18.0
  1
4本（付属）
  0
TEXT
  5
DD49
  8
1DIM
 10
9579.5431195314322
 20
802.78978897486559
 30
0.0
 40
17.5
  1
十字穴付皿タッピンφ5x50
  0
ARC
  5
DD4C
  8
1DIM
 10
10480.14776321194
 20
350.73681368388861
 30
0.0
 40
107.24183877304171
 50
185.34460788579179
 51
264.6553921142098
  0
TEXT
  5
DD50
  8
1DIM
 10
9929.0776584868254
 20
390.15587960830362
 30
0.0
 40
17.5
  1
PB
  0
TEXT
  5
DD53
  8
1DIM
 10
9951.2695482194667
 20
358.21009636854518
 30
0.0
 40
17.5
  1
合板9ミリ以上
  0
LINE
  5
DD56
  8
1DIM
 10
9976.6552811863367
 20
195.5716663263274
 30
0.0
 11
10012.38615311851
 21
195.5716663263274
 31
0.0
  0
LINE
  5
DD57
  8
1DIM
 10
9981.2368097781218
 20
-288.42833367367172
 30
0.0
 11
10012.38615311851
 21
-288.42833367367172
 31
0.0
  0
LINE
  5
DD58
  8
1DIM
 10
10007.38615311851
 20
185.5716663263274
 30
0.0
 11
10007.38615311851
 21
-278.42833367367172
 31
0.0
  0
LINE
  5
DD5C
  8
1DIM
 10
9976.6552811863367
 20
195.5716663263274
 30
0.0
 11
10012.38615311851
 21
195.5716663263274
 31
0.0
  0
LINE
  5
DD5D
  8
1DIM
 10
9933.4552811863359
 20
262.33246302096899
 30
0.0
 11
10012.38615311851
 21
262.33246302096899
 31
0.0
  0
LINE
  5
DD5E
  8
1DIM
 10
10007.38615311851
 20
205.5716663263274
 30
0.0
 11
10007.38615311851
 21
252.33246302096899
 31
0.0
  0
TEXT
  5
DD62
  8
1DIM
 10
9648.7467301539837
 20
-77.841724380318709
 30
0.0
 40
17.5
  1
マグネット
  0
TEXT
  5
DD65
  8
1DIM
 10
9654.788664211068
 20
-150.74559391491499
 30
0.0
 40
17.5
  1
固定棚
  0
TEXT
  5
DD68
  8
1DIM
 10
9356.0199842899819
 20
-65.366385654717106
 30
0.0
 40
17.5
  1
材質：ステンレス
  0
TEXT
  5
DD69
  8
1DIM
 10
9395.686650956648
 20
-94.533052321383778
 30
0.0
 40
17.5
  1
仕上げ：鏡面
  0
TEXT
  5
DD6C
  8
1DIM
 10
9648.1253099467831
 20
71.581087171874884
 30
0.0
 40
17.5
  1
材質：ガラス
  0
LINE
  5
DD6F
  8
1DIM
 10
9571.2483478738104
 20
-227.178337785542
 30
0.0
 11
9633.7404423870685
 21
-227.178337785542
 31
0.0
  0
LINE
  5
DD70
  8
1DIM
 10
9571.2483478738104
 20
-347.07692666167861
 30
0.0
 11
9633.7404423870685
 21
-347.07692666167873
 31
0.0
  0
LINE
  5
DD71
  8
1DIM
 10
9628.7404423870685
 20
-237.178337785542
 30
0.0
 11
9628.7404423870685
 21
-337.07692666167861
 31
0.0
  0
LINE
  5
DD75
  8
1DIM
 10
9571.2483478738104
 20
129.82166632632729
 30
0.0
 11
9633.7404423870685
 21
129.82166632632729
 31
0.0
  0
LINE
  5
DD76
  8
1DIM
 10
9571.2483478738104
 20
-222.678337785542
 30
0.0
 11
9633.7404423870685
 21
-222.678337785542
 31
0.0
  0
LINE
  5
DD77
  8
1DIM
 10
9628.7404423870685
 20
119.8216663263273
 30
0.0
 11
9628.7404423870685
 21
-212.678337785542
 31
0.0
  0
LINE
  5
DD7B
  8
1DIM
 10
9571.2483478738104
 20
134.32166632632729
 30
0.0
 11
9633.7404423870685
 21
134.32166632632729
 31
0.0
  0
LINE
  5
DD7C
  8
1DIM
 10
9571.2483478738104
 20
254.26730617877729
 30
0.0
 11
9633.7404423870685
 21
254.26730617877729
 31
0.0
  0
LINE
  5
DD7D
  8
1DIM
 10
9628.7404423870685
 20
144.32166632632729
 30
0.0
 11
9628.7404423870685
 21
244.26730617877729
 31
0.0
  0
LINE
  5
DD81
  8
1DIM
 10
9339.0521707002918
 20
-357.92832174899098
 30
0.0
 11
9233.6755459567739
 21
-357.92832174899098
 31
0.0
  0
LINE
  5
DD82
  8
1DIM
 10
9339.0521707002918
 20
265.07167825099799
 30
0.0
 11
9233.6755459567739
 21
265.07167825099799
 31
0.0
  0
LINE
  5
DD83
  8
1DIM
 10
9238.6755459567721
 20
-347.9283217489911
 30
0.0
 11
9238.6755459567721
 21
255.07167825099799
 31
0.0
  0
LINE
  5
DD87
  8
1DIM
 10
9317.856440146581
 20
254.2673061787782
 30
0.0
 11
9263.4163219632155
 21
254.2673061787782
 31
0.0
  0
LINE
  5
DD88
  8
1DIM
 10
9338.5521707002918
 20
-347.12394967678222
 30
0.0
 11
9263.4163219632155
 21
-347.12394967678222
 31
0.0
  0
LINE
  5
DD89
  8
1DIM
 10
9268.4163219632155
 20
244.2673061787782
 30
0.0
 11
9268.4163219632155
 21
-337.12394967678222
 31
0.0
  0
LINE
  5
DD8D
  8
1DIM
 10
9306.5521707002845
 20
261.0716782472561
 30
0.0
 11
9306.5521707002845
 21
319.68450570314781
 31
0.0
  0
LINE
  5
DD8E
  8
1DIM
 10
9584.0521706997715
 20
261.07167825101101
 30
0.0
 11
9584.0521706997715
 21
319.68450570314781
 31
0.0
  0
LINE
  5
DD8F
  8
1DIM
 10
9316.5521707002863
 20
314.68450570314781
 30
0.0
 11
9574.0521706997697
 21
314.68450570314781
 31
0.0
  0
LINE
  5
DD93
  8
1DIM
 10
9317.856440146581
 20
248.5716782472563
 30
0.0
 11
9317.856440146581
 21
286.21383959233748
 31
0.0
  0
LINE
  5
DD94
  8
1DIM
 10
9571.2483478738104
 20
254.3143291938818
 30
0.0
 11
9571.2483478738104
 21
286.21383959233748
 31
0.0
  0
LINE
  5
DD95
  8
1DIM
 10
9327.856440146581
 20
281.21383959233748
 30
0.0
 11
9561.2483478738086
 21
281.21383959233748
 31
0.0
  0
TEXT
  5
DD99
  8
1DIM
 10
9345.98377137032
 20
93.497124032261183
 30
0.0
 40
17.5
  1
材質：亜鉛ダイキャスト
  0
TEXT
  5
DD9A
  8
1DIM
 10
9345.98377137032
 20
64.330457365594526
 30
0.0
 40
17.5
  1
仕上げ：クローム
  0
TEXT
  5
DD9D
  8
1DIM
 10
9349.3854703810448
 20
526.21736345678573
 30
0.0
 40
17.5
  1
壁面
  0
TEXT
  5
DDA0
  8
1DIM
 10
9627.6818732796055
 20
678.38958537834174
 30
0.0
 40
17.5
  1
材質：ABS樹脂
  0
ARC
  5
DDA3
  8
1DIM
 10
9323.9828337871004
 20
617.62569962632824
 30
0.0
 40
211.10363881521761
 50
272.71436049925592
 51
357.28563950074238
  0
LINE
  5
DDA7
  8
1DIM
 10
9321.5828337870989
 20
613.10149978081915
 30
0.0
 11
9235.0446812367409
 21
613.10149978081915
 31
0.0
  0
LINE
  5
DDA8
  8
1DIM
 10
9306.5565531762331
 20
767.22570055019969
 30
0.0
 11
9235.0446812367409
 21
767.22570055019969
 31
0.0
  0
LINE
  5
DDA9
  8
1DIM
 10
9240.0446812367409
 20
623.10149978081915
 30
0.0
 11
9240.0446812367409
 21
757.22570055019958
 31
0.0
  0
LINE
  5
DDAD
  8
1DIM
 10
9317.856440146581
 20
759.22569962632758
 30
0.0
 11
9266.0754029256332
 21
759.22569962632758
 31
0.0
  0
LINE
  5
DDAE
  8
1DIM
 10
9307.0872162630349
 20
625.22569962632758
 30
0.0
 11
9266.0754029256332
 21
625.22569962632758
 31
0.0
  0
LINE
  5
DDAF
  8
1DIM
 10
9271.075402925635
 20
749.22569962632747
 30
0.0
 11
9271.075402925635
 21
635.22569962632758
 31
0.0
  0
LINE
  5
DDB3
  8
1DIM
 10
9306.5565531762331
 20
767.22570055019969
 30
0.0
 11
9306.5565531762331
 21
829.53666623044035
 31
0.0
  0
LINE
  5
DDB4
  8
1DIM
 10
9354.5828359981333
 20
810.42570058211265
 30
0.0
 11
9354.5828359981333
 21
829.53666623044035
 31
0.0
  0
LINE
  5
DDB5
  8
1DIM
 10
9316.5565531762331
 20
824.53666623044035
 30
0.0
 11
9344.5828359981333
 21
824.53666623044035
 31
0.0
  0
LINE
  5
DDB9
  8
1DIM
 10
9354.5828359981333
 20
810.4257005182867
 30
0.0
 11
9354.5828359981333
 21
829.53666623044035
 31
0.0
  0
LINE
  5
DDBA
  8
1DIM
 10
9534.5828360152354
 20
810.4257005182867
 30
0.0
 11
9534.5828360152354
 21
829.53666623044035
 31
0.0
  0
LINE
  5
DDBB
  8
1DIM
 10
9364.5828359981333
 20
824.53666623044035
 30
0.0
 11
9524.5828360152354
 21
824.53666623044035
 31
0.0
  0
TEXT
  5
DDBF
  8
1DIM
 10
9416.8745026733504
 20
828.03666623044035
 30
0.0
 40
17.5
  1
P180
  0
LINE
  5
DDC0
  8
0
  6
BYBLOCK
 10
9524.5828360152354
 20
827.21615813044036
 30
0.0
 11
9534.5828360152354
 21
824.53666623044035
 31
0.0
  0
LINE
  5
DDC1
  8
0
  6
BYBLOCK
 10
9534.5828360152354
 20
824.53666623044035
 30
0.0
 11
9524.5828360152354
 21
821.85717433044044
 31
0.0
  0
LINE
  5
DDC2
  8
0
  6
BYBLOCK
 10
9534.5828360152354
 20
824.53666623044035
 30
0.0
 11
9524.5828360152354
 21
824.53666623044035
 31
0.0
  0
LINE
  5
DDC3
  8
0
  6
BYBLOCK
 10
9364.5828359981333
 20
821.85717433044044
 30
0.0
 11
9354.5828359981333
 21
824.53666623044035
 31
0.0
  0
LINE
  5
DDC4
  8
0
  6
BYBLOCK
 10
9354.5828359981333
 20
824.53666623044035
 30
0.0
 11
9364.5828359981333
 21
827.21615813044036
 31
0.0
  0
LINE
  5
DDC5
  8
0
  6
BYBLOCK
 10
9354.5828359981333
 20
824.53666623044035
 30
0.0
 11
9364.5828359981333
 21
824.53666623044035
 31
0.0
  0
TEXT
  5
DDC6
  8
1DIM
 10
9315.9863612538484
 20
828.03666623044035
 30
0.0
 40
17.5
  1
48
  0
LINE
  5
DDC7
  8
0
  6
BYBLOCK
 10
9344.5828359981333
 20
827.21615813044036
 30
0.0
 11
9354.5828359981333
 21
824.53666623044035
 31
0.0
  0
LINE
  5
DDC8
  8
0
  6
BYBLOCK
 10
9354.5828359981333
 20
824.53666623044035
 30
0.0
 11
9344.5828359981333
 21
821.85717433044044
 31
0.0
  0
LINE
  5
DDC9
  8
0
  6
BYBLOCK
 10
9354.5828359981333
 20
824.53666623044035
 30
0.0
 11
9344.5828359981333
 21
824.53666623044035
 31
0.0
  0
LINE
  5
DDCA
  8
0
  6
BYBLOCK
 10
9316.5565531762331
 20
821.85717433044044
 30
0.0
 11
9306.5565531762331
 21
824.53666623044035
 31
0.0
  0
LINE
  5
DDCB
  8
0
  6
BYBLOCK
 10
9306.5565531762331
 20
824.53666623044035
 30
0.0
 11
9316.5565531762331
 21
827.21615813044036
 31
0.0
  0
LINE
  5
DDCC
  8
0
  6
BYBLOCK
 10
9306.5565531762331
 20
824.53666623044035
 30
0.0
 11
9316.5565531762331
 21
824.53666623044035
 31
0.0
  0
TEXT
  5
DDCD
  8
1DIM
 10
9267.5754029256332
 20
629.80903295966243
 30
0.0
 40
17.5
  1
有効内寸134
 50
90.0
  0
LINE
  5
DDCE
  8
0
  6
BYBLOCK
 10
9273.7548948256353
 20
635.22569962632758
 30
0.0
 11
9271.075402925635
 21
625.22569962632758
 31
0.0
  0
LINE
  5
DDCF
  8
0
  6
BYBLOCK
 10
9271.075402925635
 20
625.22569962632758
 30
0.0
 11
9268.3959110256346
 21
635.22569962632758
 31
0.0
  0
LINE
  5
DDD0
  8
0
  6
BYBLOCK
 10
9271.075402925635
 20
625.22569962632758
 30
0.0
 11
9271.075402925635
 21
635.22569962632758
 31
0.0
  0
LINE
  5
DDD1
  8
0
  6
BYBLOCK
 10
9268.3959110256346
 20
749.22569962632747
 30
0.0
 11
9271.075402925635
 21
759.22569962632758
 31
0.0
  0
LINE
  5
DDD2
  8
0
  6
BYBLOCK
 10
9271.075402925635
 20
759.22569962632758
 30
0.0
 11
9273.7548948256353
 21
749.22569962632747
 31
0.0
  0
LINE
  5
DDD3
  8
0
  6
BYBLOCK
 10
9271.075402925635
 20
759.22569962632758
 30
0.0
 11
9271.075402925635
 21
749.22569962632747
 31
0.0
  0
TEXT
  5
DDD4
  8
1DIM
 10
9236.5446812367409
 20
669.74693349884433
 30
0.0
 40
17.5
  1
154
 50
90.0
  0
LINE
  5
DDD5
  8
0
  6
BYBLOCK
 10
9237.3651893367405
 20
757.22570055019958
 30
0.0
 11
9240.0446812367409
 21
767.22570055019969
 31
0.0
  0
LINE
  5
DDD6
  8
0
  6
BYBLOCK
 10
9240.0446812367409
 20
767.22570055019969
 30
0.0
 11
9242.7241731367412
 21
757.22570055019958
 31
0.0
  0
LINE
  5
DDD7
  8
0
  6
BYBLOCK
 10
9240.0446812367409
 20
767.22570055019969
 30
0.0
 11
9240.0446812367409
 21
757.22570055019958
 31
0.0
  0
LINE
  5
DDD8
  8
0
  6
BYBLOCK
 10
9242.7241731367412
 20
623.10149978081915
 30
0.0
 11
9240.0446812367409
 21
613.10149978081915
 31
0.0
  0
LINE
  5
DDD9
  8
0
  6
BYBLOCK
 10
9240.0446812367409
 20
613.10149978081915
 30
0.0
 11
9237.3651893367405
 21
623.10149978081915
 31
0.0
  0
LINE
  5
DDDA
  8
0
  6
BYBLOCK
 10
9240.0446812367409
 20
613.10149978081915
 30
0.0
 11
9240.0446812367409
 21
623.10149978081915
 31
0.0
  0
TEXT
  5
DDDB
  8
1DIM
 10
9449.9505873298876
 20
449.9975715586292
 30
0.0
 40
17.5
  1
約90°
 50
44.999999999999211
  0
LINE
  5
DDDC
  8
0
  6
BYBLOCK
 10
9532.1708818918905
 20
607.69196882408482
 30
0.0
 11
9535.0864726023174
 21
617.62569962632824
 31
0.0
  0
LINE
  5
DDDD
  8
0
  6
BYBLOCK
 10
9535.0864726023174
 20
617.62569962632824
 30
0.0
 11
9537.5283623355317
 21
607.56504103093846
 31
0.0
  0
LINE
  5
DDDE
  8
0
  6
BYBLOCK
 10
9535.0864726023174
 20
617.62569962632824
 30
0.0
 11
9534.8496221137084
 21
607.62850492751147
 31
0.0
  0
LINE
  5
DDDF
  8
0
  6
BYBLOCK
 10
9334.0434923824814
 20
404.08017107789721
 30
0.0
 11
9323.9828337870931
 21
406.5220608111112
 31
0.0
  0
LINE
  5
DDE0
  8
0
  6
BYBLOCK
 10
9323.9828337870931
 20
406.5220608111112
 30
0.0
 11
9333.9165645893372
 21
409.4376515215377
 31
0.0
  0
LINE
  5
DDE1
  8
0
  6
BYBLOCK
 10
9323.9828337870931
 20
406.5220608111112
 30
0.0
 11
9333.9800284859102
 21
406.7589112997174
 31
0.0
  0
LINE
  5
DDE2
  8
1DIM
 10
9574.0605921606584
 20
702.84691972970802
 30
0.0
 11
9614.1818732796055
 21
674.88958537834174
 31
0.0
1001
ACAD
1000
DSTYLE
1002
{
1070
    40
1040
5.0
1002
}
  0
LINE
  5
DDE3
  8
1DIM
 10
9614.1818732796055
 20
674.88958537834174
 30
0.0
 11
9777.1818732796037
 21
674.88958537834174
 31
0.0
1001
ACAD
1000
DSTYLE
1002
{
1070
    40
1040
5.0
1002
}
  0
LINE
  5
DDE4
  8
0
  6
BYBLOCK
 10
9572.5286990037894
 20
700.64851571813449
 30
0.0
 11
9565.8560366194633
 21
708.5640228747834
 31
0.0
  0
LINE
  5
DDE5
  8
0
  6
BYBLOCK
 10
9565.8560366194633
 20
708.5640228747834
 30
0.0
 11
9575.5924853175293
 21
705.04532374128155
 31
0.0
  0
LINE
  5
DDE6
  8
0
  6
BYBLOCK
 10
9565.8560366194633
 20
708.5640228747834
 30
0.0
 11
9574.0605921606584
 21
702.84691972970802
 31
0.0
  0
LINE
  5
DDE7
  8
1DIM
 10
9316.1640414368248
 20
550.15516895802966
 30
0.0
 11
9335.8854703810448
 21
522.71736345678573
 31
0.0
1001
ACAD
1000
DSTYLE
1002
{
1070
    40
1040
5.0
1002
}
  0
LINE
  5
DDE8
  8
1DIM
 10
9335.8854703810448
 20
522.71736345678573
 30
0.0
 11
9386.7188037143787
 21
522.71736345678573
 31
0.0
1001
ACAD
1000
DSTYLE
1002
{
1070
    40
1040
5.0
1002
}
  0
LINE
  5
DDE9
  8
0
  6
BYBLOCK
 10
9313.9882718518766
 20
548.59129442489439
 30
0.0
 11
9310.3275821695443
 21
558.27525166828582
 31
0.0
  0
LINE
  5
DDEA
  8
0
  6
BYBLOCK
 10
9310.3275821695443
 20
558.27525166828582
 30
0.0
 11
9318.3398110217695
 21
551.71904349116505
 31
0.0
  0
LINE
  5
DDEB
  8
0
  6
BYBLOCK
 10
9310.3275821695443
 20
558.27525166828582
 30
0.0
 11
9316.1640414368248
 21
550.15516895802966
 31
0.0
  0
LINE
  5
DDEC
  8
1DIM
 10
9325.1591586912182
 20
224.56401346432409
 30
0.0
 11
9332.48377137032
 21
60.830457365594519
 31
0.0
1001
ACAD
1000
DSTYLE
1002
{
1070
    40
1040
5.0
1002
}
  0
LINE
  5
DDED
  8
1DIM
 10
9332.48377137032
 20
60.830457365594519
 30
0.0
 11
9572.3171047036558
 21
60.830457365594519
 31
0.0
1001
ACAD
1000
DSTYLE
1002
{
1070
    40
1040
5.0
1002
}
  0
LINE
  5
DDEE
  8
0
  6
BYBLOCK
 10
9322.4823438946605
 20
224.44426628442019
 30
0.0
 11
9324.7122561276992
 21
234.55402237817
 31
0.0
  0
LINE
  5
DDEF
  8
0
  6
BYBLOCK
 10
9324.7122561276992
 20
234.55402237817
 30
0.0
 11
9327.8359734877758
 21
224.6837606442281
 31
0.0
  0
LINE
  5
DDF0
  8
0
  6
BYBLOCK
 10
9324.7122561276992
 20
234.55402237817
 30
0.0
 11
9325.1591586912182
 21
224.56401346432409
 31
0.0
  0
TEXT
  5
DDF1
  8
1DIM
 10
9379.2190606768618
 20
284.71383959233759
 30
0.0
 40
17.5
  1
有効内寸253
  0
LINE
  5
DDF2
  8
0
  6
BYBLOCK
 10
9561.2483478738086
 20
283.89333149233761
 30
0.0
 11
9571.2483478738104
 21
281.21383959233748
 31
0.0
  0
LINE
  5
DDF3
  8
0
  6
BYBLOCK
 10
9571.2483478738104
 20
281.21383959233748
 30
0.0
 11
9561.2483478738086
 21
278.53434769233752
 31
0.0
  0
LINE
  5
DDF4
  8
0
  6
BYBLOCK
 10
9571.2483478738104
 20
281.21383959233748
 30
0.0
 11
9561.2483478738086
 21
281.21383959233748
 31
0.0
  0
LINE
  5
DDF5
  8
0
  6
BYBLOCK
 10
9327.856440146581
 20
278.53434769233752
 30
0.0
 11
9317.856440146581
 21
281.21383959233748
 31
0.0
  0
LINE
  5
DDF6
  8
0
  6
BYBLOCK
 10
9317.856440146581
 20
281.21383959233748
 30
0.0
 11
9327.856440146581
 21
283.89333149233761
 31
0.0
  0
LINE
  5
DDF7
  8
0
  6
BYBLOCK
 10
9317.856440146581
 20
281.21383959233748
 30
0.0
 11
9327.856440146581
 21
281.21383959233748
 31
0.0
  0
TEXT
  5
DDF8
  8
1DIM
 10
9410.3021707000298
 20
318.18450570314781
 30
0.0
 40
17.5
  1
277.5
  0
LINE
  5
DDF9
  8
0
  6
BYBLOCK
 10
9574.0521706997697
 20
317.36399760314782
 30
0.0
 11
9584.0521706997715
 21
314.68450570314781
 31
0.0
  0
LINE
  5
DDFA
  8
0
  6
BYBLOCK
 10
9584.0521706997715
 20
314.68450570314781
 30
0.0
 11
9574.0521706997697
 21
312.00501380314779
 31
0.0
  0
LINE
  5
DDFB
  8
0
  6
BYBLOCK
 10
9584.0521706997715
 20
314.68450570314781
 30
0.0
 11
9574.0521706997697
 21
314.68450570314781
 31
0.0
  0
LINE
  5
DDFC
  8
0
  6
BYBLOCK
 10
9316.5521707002863
 20
312.00501380314779
 30
0.0
 11
9306.5521707002845
 21
314.68450570314781
 31
0.0
  0
LINE
  5
DDFD
  8
0
  6
BYBLOCK
 10
9306.5521707002845
 20
314.68450570314781
 30
0.0
 11
9316.5521707002863
 21
317.36399760314782
 31
0.0
  0
LINE
  5
DDFE
  8
0
  6
BYBLOCK
 10
9306.5521707002845
 20
314.68450570314781
 30
0.0
 11
9316.5521707002863
 21
314.68450570314781
 31
0.0
  0
TEXT
  5
DDFF
  8
1DIM
 10
9264.9163219632155
 20
-107.3866550823338
 30
0.0
 40
17.5
  1
有効内寸601
 50
90.0
  0
LINE
  5
DE00
  8
0
  6
BYBLOCK
 10
9271.0958138632177
 20
-337.12394967678222
 30
0.0
 11
9268.4163219632155
 21
-347.12394967678222
 31
0.0
  0
LINE
  5
DE01
  8
0
  6
BYBLOCK
 10
9268.4163219632155
 20
-347.12394967678222
 30
0.0
 11
9265.7368300632152
 21
-337.12394967678222
 31
0.0
  0
LINE
  5
DE02
  8
0
  6
BYBLOCK
 10
9268.4163219632155
 20
-347.12394967678222
 30
0.0
 11
9268.4163219632155
 21
-337.12394967678222
 31
0.0
  0
LINE
  5
DE03
  8
0
  6
BYBLOCK
 10
9265.7368300632152
 20
244.2673061787782
 30
0.0
 11
9268.4163219632155
 21
254.2673061787782
 31
0.0
  0
LINE
  5
DE04
  8
0
  6
BYBLOCK
 10
9268.4163219632155
 20
254.2673061787782
 30
0.0
 11
9271.0958138632177
 21
244.2673061787782
 31
0.0
  0
LINE
  5
DE05
  8
0
  6
BYBLOCK
 10
9268.4163219632155
 20
254.2673061787782
 30
0.0
 11
9268.4163219632155
 21
244.2673061787782
 31
0.0
  0
TEXT
  5
DE06
  8
1DIM
 10
9235.1755459567739
 20
-69.761655082328346
 30
0.0
 40
17.5
  1
623
 50
90.0
  0
LINE
  5
DE07
  8
0
  6
BYBLOCK
 10
9235.9960540567754
 20
255.07167825099799
 30
0.0
 11
9238.6755459567721
 21
265.07167825099799
 31
0.0
  0
LINE
  5
DE08
  8
0
  6
BYBLOCK
 10
9238.6755459567721
 20
265.07167825099799
 30
0.0
 11
9241.3550378567743
 21
255.07167825099799
 31
0.0
  0
LINE
  5
DE09
  8
0
  6
BYBLOCK
 10
9238.6755459567721
 20
265.07167825099799
 30
0.0
 11
9238.6755459567721
 21
255.07167825099799
 31
0.0
  0
LINE
  5
DE0A
  8
0
  6
BYBLOCK
 10
9241.3550378567743
 20
-347.9283217489911
 30
0.0
 11
9238.6755459567721
 21
-357.92832174899098
 31
0.0
  0
LINE
  5
DE0B
  8
0
  6
BYBLOCK
 10
9238.6755459567721
 20
-357.92832174899098
 30
0.0
 11
9235.9960540567754
 21
-347.9283217489911
 31
0.0
  0
LINE
  5
DE0C
  8
0
  6
BYBLOCK
 10
9238.6755459567721
 20
-357.92832174899098
 30
0.0
 11
9238.6755459567721
 21
-347.9283217489911
 31
0.0
  0
TEXT
  5
DE0D
  8
1DIM
 10
9625.2404423870685
 20
175.3361529192205
 30
0.0
 40
17.5
  1
120
 50
90.0
  0
LINE
  5
DE0E
  8
0
  6
BYBLOCK
 10
9626.0609504870681
 20
244.26730617877729
 30
0.0
 11
9628.7404423870685
 21
254.26730617877729
 31
0.0
  0
LINE
  5
DE0F
  8
0
  6
BYBLOCK
 10
9628.7404423870685
 20
254.26730617877729
 30
0.0
 11
9631.4199342870706
 21
244.26730617877729
 31
0.0
  0
LINE
  5
DE10
  8
0
  6
BYBLOCK
 10
9628.7404423870685
 20
254.26730617877729
 30
0.0
 11
9628.7404423870685
 21
244.26730617877729
 31
0.0
  0
LINE
  5
DE11
  8
0
  6
BYBLOCK
 10
9631.4199342870706
 20
144.32166632632729
 30
0.0
 11
9628.7404423870685
 21
134.32166632632729
 31
0.0
  0
LINE
  5
DE12
  8
0
  6
BYBLOCK
 10
9628.7404423870685
 20
134.32166632632729
 30
0.0
 11
9626.0609504870681
 21
144.32166632632729
 31
0.0
  0
LINE
  5
DE13
  8
0
  6
BYBLOCK
 10
9628.7404423870685
 20
134.32166632632729
 30
0.0
 11
9628.7404423870685
 21
144.32166632632729
 31
0.0
  0
TEXT
  5
DE14
  8
1DIM
 10
9625.2404423870685
 20
-81.428335729605806
 30
0.0
 40
17.5
  1
352.5
 50
90.0
  0
LINE
  5
DE15
  8
0
  6
BYBLOCK
 10
9631.4199342870706
 20
-212.678337785542
 30
0.0
 11
9628.7404423870685
 21
-222.678337785542
 31
0.0
  0
LINE
  5
DE16
  8
0
  6
BYBLOCK
 10
9628.7404423870685
 20
-222.678337785542
 30
0.0
 11
9626.0609504870681
 21
-212.678337785542
 31
0.0
  0
LINE
  5
DE17
  8
0
  6
BYBLOCK
 10
9628.7404423870685
 20
-222.678337785542
 30
0.0
 11
9628.7404423870685
 21
-212.678337785542
 31
0.0
  0
LINE
  5
DE18
  8
0
  6
BYBLOCK
 10
9626.0609504870681
 20
119.8216663263273
 30
0.0
 11
9628.7404423870685
 21
129.82166632632729
 31
0.0
  0
LINE
  5
DE19
  8
0
  6
BYBLOCK
 10
9628.7404423870685
 20
129.82166632632729
 30
0.0
 11
9631.4199342870706
 21
119.8216663263273
 31
0.0
  0
LINE
  5
DE1A
  8
0
  6
BYBLOCK
 10
9628.7404423870685
 20
129.82166632632729
 30
0.0
 11
9628.7404423870685
 21
119.8216663263273
 31
0.0
  0
TEXT
  5
DE1B
  8
1DIM
 10
9625.2404423870685
 20
-306.08596555694209
 30
0.0
 40
17.5
  1
120
 50
90.0
  0
LINE
  5
DE1C
  8
0
  6
BYBLOCK
 10
9631.4199342870706
 20
-337.07692666167861
 30
0.0
 11
9628.7404423870685
 21
-347.07692666167873
 31
0.0
  0
LINE
  5
DE1D
  8
0
  6
BYBLOCK
 10
9628.7404423870685
 20
-347.07692666167873
 30
0.0
 11
9626.0609504870681
 21
-337.07692666167861
 31
0.0
  0
LINE
  5
DE1E
  8
0
  6
BYBLOCK
 10
9628.7404423870685
 20
-347.07692666167873
 30
0.0
 11
9628.7404423870685
 21
-337.07692666167861
 31
0.0
  0
LINE
  5
DE1F
  8
0
  6
BYBLOCK
 10
9626.0609504870681
 20
-237.178337785542
 30
0.0
 11
9628.7404423870685
 21
-227.178337785542
 31
0.0
  0
LINE
  5
DE20
  8
0
  6
BYBLOCK
 10
9628.7404423870685
 20
-227.178337785542
 30
0.0
 11
9631.4199342870706
 21
-237.178337785542
 31
0.0
  0
LINE
  5
DE21
  8
0
  6
BYBLOCK
 10
9628.7404423870685
 20
-227.178337785542
 30
0.0
 11
9628.7404423870685
 21
-237.178337785542
 31
0.0
  0
LINE
  5
DE22
  8
1DIM
 10
9529.975842678934
 20
11.167954538479981
 30
0.0
 11
9634.6253099467831
 21
68.081087171874884
 31
0.0
1001
ACAD
1000
DSTYLE
1002
{
1070
    40
1040
5.0
1002
}
  0
LINE
  5
DE23
  8
1DIM
 10
9634.6253099467831
 20
68.081087171874884
 30
0.0
 11
9769.4586432801188
 21
68.081087171874884
 31
0.0
1001
ACAD
1000
DSTYLE
1002
{
1070
    40
1040
5.0
1002
}
  0
LINE
  5
DE24
  8
0
  6
BYBLOCK
 10
9531.2560028775133
 20
8.8140499719912224
 30
0.0
 11
9521.1909511609229
 21
6.390331592203359
 31
0.0
  0
LINE
  5
DE25
  8
0
  6
BYBLOCK
 10
9521.1909511609229
 20
6.390331592203359
 30
0.0
 11
9528.6956824803528
 21
13.52185910496874
 31
0.0
  0
LINE
  5
DE26
  8
0
  6
BYBLOCK
 10
9521.1909511609229
 20
6.390331592203359
 30
0.0
 11
9529.975842678934
 21
11.167954538479981
 31
0.0
  0
LINE
  5
DE27
  8
1DIM
 10
9556.0830563083782
 20
-64.383553886633436
 30
0.0
 11
9530.5199842899819
 21
-98.033052321383764
 31
0.0
1001
ACAD
1000
DSTYLE
1002
{
1070
    40
1040
5.0
1002
}
  0
LINE
  5
DE28
  8
1DIM
 10
9530.5199842899819
 20
-98.033052321383764
 30
0.0
 11
9353.686650956648
 21
-98.033052321383764
 31
0.0
1001
ACAD
1000
DSTYLE
1002
{
1070
    40
1040
5.0
1002
}
  0
LINE
  5
DE29
  8
0
  6
BYBLOCK
 10
9553.9494240354798
 20
-62.762662105478839
 30
0.0
 11
9562.1323068441034
 21
-56.420729767262863
 31
0.0
  0
LINE
  5
DE2A
  8
0
  6
BYBLOCK
 10
9562.1323068441034
 20
-56.420729767262863
 30
0.0
 11
9558.2166885812767
 21
-66.004445667788033
 31
0.0
  0
LINE
  5
DE2B
  8
0
  6
BYBLOCK
 10
9562.1323068441034
 20
-56.420729767262863
 30
0.0
 11
9556.0830563083782
 21
-64.383553886633436
 31
0.0
  0
LINE
  5
DE2C
  8
1DIM
 10
9548.3184831816761
 20
-213.89362413142041
 30
0.0
 11
9642.4553308777322
 21
-154.24559391491499
 31
0.0
1001
ACAD
1000
DSTYLE
1002
{
1070
    40
1040
5.0
1002
}
  0
LINE
  5
DE2D
  8
1DIM
 10
9642.4553308777322
 20
-154.24559391491499
 30
0.0
 11
9713.1219975443983
 21
-154.24559391491499
 31
0.0
1001
ACAD
1000
DSTYLE
1002
{
1070
    40
1040
5.0
1002
}
  0
LINE
  5
DE2E
  8
0
  6
BYBLOCK
 10
9549.7526318137607
 20
-216.15700535058249
 30
0.0
 11
9539.8714293982248
 21
-219.24593974052729
 31
0.0
  0
LINE
  5
DE2F
  8
0
  6
BYBLOCK
 10
9539.8714293982248
 20
-219.24593974052729
 30
0.0
 11
9546.8843345495916
 21
-211.6302429122583
 31
0.0
  0
LINE
  5
DE30
  8
0
  6
BYBLOCK
 10
9539.8714293982248
 20
-219.24593974052729
 30
0.0
 11
9548.3184831816761
 21
-213.89362413142041
 31
0.0
  0
LINE
  5
DE31
  8
1DIM
 10
9776.6241604404186
 20
-56.260166440319033
 30
0.0
 11
9759.0800634873176
 21
-81.341724380318709
 31
0.0
1001
ACAD
1000
DSTYLE
1002
{
1070
    40
1040
5.0
1002
}
  0
LINE
  5
DE32
  8
1DIM
 10
9759.0800634873176
 20
-81.341724380318709
 30
0.0
 11
9645.2467301539855
 21
-81.341724380318709
 31
0.0
1001
ACAD
1000
DSTYLE
1002
{
1070
    40
1040
5.0
1002
}
  0
LINE
  5
DE33
  8
0
  6
BYBLOCK
 10
9774.4285008957886
 20
-54.724342229594072
 30
0.0
 11
9782.3559344783407
 21
-48.065853389295619
 31
0.0
  0
LINE
  5
DE34
  8
0
  6
BYBLOCK
 10
9782.3559344783407
 20
-48.065853389295619
 30
0.0
 11
9778.8198199850449
 21
-57.795990651043979
 31
0.0
  0
LINE
  5
DE35
  8
0
  6
BYBLOCK
 10
9782.3559344783407
 20
-48.065853389295619
 30
0.0
 11
9776.6241604404186
 21
-56.260166440319033
 31
0.0
  0
TEXT
  5
DE36
  8
1DIM
 10
10003.88615311851
 20
214.36873134031649
 30
0.0
 40
17.5
  1
67
 50
90.0
  0
LINE
  5
DE37
  8
0
  6
BYBLOCK
 10
10004.706661218501
 20
252.33246302096899
 30
0.0
 11
10007.38615311851
 21
262.33246302096899
 31
0.0
  0
LINE
  5
DE38
  8
0
  6
BYBLOCK
 10
10007.38615311851
 20
262.33246302096899
 30
0.0
 11
10010.065645018511
 21
252.33246302096899
 31
0.0
  0
LINE
  5
DE39
  8
0
  6
BYBLOCK
 10
10007.38615311851
 20
262.33246302096899
 30
0.0
 11
10007.38615311851
 21
252.33246302096899
 31
0.0
  0
LINE
  5
DE3A
  8
0
  6
BYBLOCK
 10
10010.065645018511
 20
205.5716663263274
 30
0.0
 11
10007.38615311851
 21
195.5716663263274
 31
0.0
  0
LINE
  5
DE3B
  8
0
  6
BYBLOCK
 10
10007.38615311851
 20
195.5716663263274
 30
0.0
 11
10004.706661218501
 21
205.5716663263274
 31
0.0
  0
LINE
  5
DE3C
  8
0
  6
BYBLOCK
 10
10007.38615311851
 20
195.5716663263274
 30
0.0
 11
10007.38615311851
 21
205.5716663263274
 31
0.0
  0
TEXT
  5
DE3D
  8
1DIM
 10
10003.88615311851
 20
-78.511667007003837
 30
0.0
 40
17.5
  1
P484
 50
90.0
  0
LINE
  5
DE3E
  8
0
  6
BYBLOCK
 10
10010.065645018511
 20
-278.42833367367172
 30
0.0
 11
10007.38615311851
 21
-288.42833367367172
 31
0.0
  0
LINE
  5
DE3F
  8
0
  6
BYBLOCK
 10
10007.38615311851
 20
-288.42833367367172
 30
0.0
 11
10004.706661218501
 21
-278.42833367367172
 31
0.0
  0
LINE
  5
DE40
  8
0
  6
BYBLOCK
 10
10007.38615311851
 20
-288.42833367367172
 30
0.0
 11
10007.38615311851
 21
-278.42833367367172
 31
0.0
  0
LINE
  5
DE41
  8
0
  6
BYBLOCK
 10
10004.706661218501
 20
185.5716663263274
 30
0.0
 11
10007.38615311851
 21
195.5716663263274
 31
0.0
  0
LINE
  5
DE42
  8
0
  6
BYBLOCK
 10
10007.38615311851
 20
195.5716663263274
 30
0.0
 11
10010.065645018511
 21
185.5716663263274
 31
0.0
  0
LINE
  5
DE43
  8
0
  6
BYBLOCK
 10
10007.38615311851
 20
195.5716663263274
 30
0.0
 11
10007.38615311851
 21
185.5716663263274
 31
0.0
  0
LINE
  5
DE44
  8
1DIM
 10
9946.0061608658561
 20
327.55332804059412
 30
0.0
 11
9937.7695482194649
 21
354.71009636854518
 31
0.0
1001
ACAD
1000
DSTYLE
1002
{
1070
    40
1040
5.0
1002
}
  0
LINE
  5
DE45
  8
1DIM
 10
9937.7695482194649
 20
354.71009636854518
 30
0.0
 11
10089.269548219459
 21
354.71009636854518
 31
0.0
1001
ACAD
1000
DSTYLE
1002
{
1070
    40
1040
5.0
1002
}
  0
LINE
  5
DE46
  8
0
  6
BYBLOCK
 10
9948.5703089165727
 20
328.33103082196789
 30
0.0
 11
9948.9085871854641
 21
317.9837971503548
 31
0.0
  0
LINE
  5
DE47
  8
0
  6
BYBLOCK
 10
9948.9085871854641
 20
317.9837971503548
 30
0.0
 11
9943.4420128151341
 21
326.77562525922031
 31
0.0
  0
LINE
  5
DE48
  8
0
  6
BYBLOCK
 10
9948.9085871854641
 20
317.9837971503548
 30
0.0
 11
9946.0061608658561
 21
327.55332804059412
 31
0.0
  0
LINE
  5
DE49
  8
1DIM
 10
9934.3070266809973
 20
330.94628583389238
 30
0.0
 11
9915.5776584868236
 21
386.65587960830362
 31
0.0
1001
ACAD
1000
DSTYLE
1002
{
1070
    40
1040
5.0
1002
}
  0
LINE
  5
DE4A
  8
1DIM
 10
9915.5776584868236
 20
386.65587960830362
 30
0.0
 11
9958.2443251534914
 21
386.65587960830362
 31
0.0
1001
ACAD
1000
DSTYLE
1002
{
1070
    40
1040
5.0
1002
}
  0
LINE
  5
DE4B
  8
0
  6
BYBLOCK
 10
9936.8468259391339
 20
331.80015735263947
 30
0.0
 11
9937.4937186010084
 21
321.46762587549529
 31
0.0
  0
LINE
  5
DE4C
  8
0
  6
BYBLOCK
 10
9937.4937186010084
 20
321.46762587549529
 30
0.0
 11
9931.7672274228571
 21
330.09241431514522
 31
0.0
  0
LINE
  5
DE4D
  8
0
  6
BYBLOCK
 10
9937.4937186010084
 20
321.46762587549529
 30
0.0
 11
9934.3070266809973
 21
330.94628583389238
 31
0.0
  0
TEXT
  5
DE4E
  8
1DIM
 10
10385.96101826031
 20
298.2104432571611
 30
0.0
 40
17.5
  1
約90°
 50
315.0000000000008
  0
LINE
  5
DE4F
  8
0
  6
BYBLOCK
 10
10470.28356546641
 20
246.63778888549601
 30
0.0
 11
10480.14776321194
 21
243.4949749108473
 31
0.0
  0
LINE
  5
DE50
  8
0
  6
BYBLOCK
 10
10480.14776321194
 20
243.4949749108473
 30
0.0
 11
10470.03371037901
 21
241.28463282537959
 31
0.0
  0
LINE
  5
DE51
  8
0
  6
BYBLOCK
 10
10480.14776321194
 20
243.4949749108473
 30
0.0
 11
10470.15863792271
 21
243.9612108554378
 31
0.0
  0
LINE
  5
DE52
  8
0
  6
BYBLOCK
 10
10370.69558235343
 20
340.62276085095567
 30
0.0
 11
10372.905924438899
 21
350.73681368388952
 31
0.0
  0
LINE
  5
DE53
  8
0
  6
BYBLOCK
 10
10372.905924438899
 20
350.73681368388952
 30
0.0
 11
10376.04873841355
 21
340.87261593835962
 31
0.0
  0
LINE
  5
DE54
  8
0
  6
BYBLOCK
 10
10372.905924438899
 20
350.73681368388952
 30
0.0
 11
10373.372160383489
 21
340.74768839465759
 31
0.0
  0
LINE
  5
DE55
  8
1DIM
 10
9549.5513657755146
 20
785.84048440258516
 30
0.0
 11
9566.0431195314341
 21
799.28978897486559
 31
0.0
1001
ACAD
1000
DSTYLE
1002
{
1070
    40
1040
5.0
1002
}
  0
LINE
  5
DE56
  8
1DIM
 10
9566.0431195314341
 20
799.28978897486559
 30
0.0
 11
9851.2097861980983
 21
799.28978897486559
 31
0.0
1001
ACAD
1000
DSTYLE
1002
{
1070
    40
1040
5.0
1002
}
  0
LINE
  5
DE57
  8
0
  6
BYBLOCK
 10
9551.244804411348
 20
783.76396268855649
 30
0.0
 11
9541.801681165427
 21
779.52048531681237
 31
0.0
  0
LINE
  5
DE58
  8
0
  6
BYBLOCK
 10
9541.801681165427
 20
779.52048531681237
 30
0.0
 11
9547.8579271396811
 21
787.91700611661361
 31
0.0
  0
LINE
  5
DE59
  8
0
  6
BYBLOCK
 10
9541.801681165427
 20
779.52048531681237
 30
0.0
 11
9549.5513657755146
 21
785.84048440258516
 31
0.0
  0
VIEWPORT
  5
57
 67
     1
  8
0
 10
-7.7312501469941992
 20
14.470729695735409
 30
0.0
 40
400.99285954941291
 41
277.71819879710432
 68
     1
 69
     1
1001
ACAD
1000
MVIEW
1002
{
1070
    16
1010
0.0
1020
0.0
1030
0.0
1010
0.0
1020
0.0
1030
1.0
1040
0.0
1040
277.71819879710432
1040
-7.7312501469941992
1040
14.470729695735409
1040
50.0
1040
0.0
1040
0.0
1070
     0
1070
   100
1070
     1
1070
     1
1070
     0
1070
     0
1070
     0
1070
     0
1040
0.0
1040
0.0
1040
0.0
1040
10.0
1040
10.0
1040
10.0
1040
10.0
1070
     0
1002
{
1002
}
1002
}
  0
ENDSEC
  0
EOF
