  0
SECTION
  2
HEADER
  9
$ACADVER
  1
AC1012
  9
$DWGCODEPAGE
  3
ansi_932
  9
$INSBASE
 10
0.0
 20
0.0
 30
0.0
  9
$EXTMIN
 10
963.3615671705263
 20
-361.590978121569
 30
0.0
  9
$EXTMAX
 10
2395.349091149918
 20
863.2875331820438
 30
0.0
  9
$LIMMIN
 10
0.0
 20
0.0
  9
$LIMMAX
 10
420.0
 20
297.0
  9
$ORTHOMODE
 70
     0
  9
$REGENMODE
 70
     1
  9
$FILLMODE
 70
     1
  9
$QTEXTMODE
 70
     0
  9
$MIRRTEXT
 70
     1
  9
$DRAGMODE
 70
     2
  9
$LTSCALE
 40
0.5
  9
$OSMODE
 70
 14463
  9
$ATTMODE
 70
     1
  9
$TEXTSIZE
 40
4.0
  9
$TRACEWID
 40
1.0
  9
$TEXTSTYLE
  7
STANDARD
  9
$CLAYER
  8
1TEXT
  9
$CELTYPE
  6
BYLAYER
  9
$CECOLOR
 62
   256
  9
$CELTSCALE
 40
1.0
  9
$DELOBJ
 70
     1
  9
$DISPSILH
 70
     0
  9
$DIMSCALE
 40
5.0
  9
$DIMASZ
 40
2.0
  9
$DIMEXO
 40
0.0
  9
$DIMDLI
 40
7.0
  9
$DIMRND
 40
0.0
  9
$DIMDLE
 40
0.0
  9
$DIMEXE
 40
1.0
  9
$DIMTP
 40
0.0
  9
$DIMTM
 40
0.0
  9
$DIMTXT
 40
3.5
  9
$DIMCEN
 40
0.0
  9
$DIMTSZ
 40
0.0
  9
$DIMTOL
 70
     0
  9
$DIMLIM
 70
     0
  9
$DIMTIH
 70
     0
  9
$DIMTOH
 70
     0
  9
$DIMSE1
 70
     0
  9
$DIMSE2
 70
     0
  9
$DIMTAD
 70
     1
  9
$DIMZIN
 70
     8
  9
$DIMBLK
  1

  9
$DIMASO
 70
     1
  9
$DIMSHO
 70
     1
  9
$DIMPOST
  1
 
  9
$DIMAPOST
  1

  9
$DIMALT
 70
     0
  9
$DIMALTD
 70
     2
  9
$DIMALTF
 40
25.4
  9
$DIMLFAC
 40
1.0
  9
$DIMTOFL
 70
     1
  9
$DIMTVP
 40
0.0
  9
$DIMTIX
 70
     0
  9
$DIMSOXD
 70
     0
  9
$DIMSAH
 70
     1
  9
$DIMBLK1
  1
OPEN30
  9
$DIMBLK2
  1
OPEN30
  9
$DIMSTYLE
  2
NEWX10
  9
$DIMCLRD
 70
   256
  9
$DIMCLRE
 70
   256
  9
$DIMCLRT
 70
   201
  9
$DIMTFAC
 40
0.7
  9
$DIMGAP
 40
0.7
  9
$DIMJUST
 70
     0
  9
$DIMSD1
 70
     0
  9
$DIMSD2
 70
     0
  9
$DIMTOLJ
 70
     1
  9
$DIMTZIN
 70
     8
  9
$DIMALTZ
 70
     0
  9
$DIMALTTZ
 70
     0
  9
$DIMFIT
 70
     2
  9
$DIMUPT
 70
     0
  9
$DIMUNIT
 70
     2
  9
$DIMDEC
 70
     2
  9
$DIMTDEC
 70
     4
  9
$DIMALTU
 70
     2
  9
$DIMALTTD
 70
     2
  9
$DIMTXSTY
  7
STANDARD
  9
$DIMAUNIT
 70
     0
  9
$LUNITS
 70
     2
  9
$LUPREC
 70
     4
  9
$SKETCHINC
 40
1.0
  9
$FILLETRAD
 40
1.0
  9
$AUNITS
 70
     0
  9
$AUPREC
 70
     2
  9
$MENU
  1
acad
  9
$ELEVATION
 40
0.0
  9
$PELEVATION
 40
0.0
  9
$THICKNESS
 40
0.0
  9
$LIMCHECK
 70
     0
  9
$CHAMFERA
 40
1.0
  9
$CHAMFERB
 40
1.0
  9
$CHAMFERC
 40
20.0
  9
$CHAMFERD
 40
0.0
  9
$SKPOLY
 70
     0
  9
$TDCREATE
 40
2451318.621352917
  9
$TDUPDATE
 40
2458149.704136539
  9
$TDINDWG
 40
0.4419987847
  9
$TDUSRTIMER
 40
0.4419987847
  9
$USRTIMER
 70
     1
  9
$ANGBASE
 50
0.0
  9
$ANGDIR
 70
     0
  9
$PDMODE
 70
     0
  9
$PDSIZE
 40
0.0
  9
$PLINEWID
 40
0.0
  9
$COORDS
 70
     2
  9
$SPLFRAME
 70
     0
  9
$SPLINETYPE
 70
     6
  9
$SPLINESEGS
 70
     8
  9
$ATTDIA
 70
     0
  9
$ATTREQ
 70
     1
  9
$HANDLING
 70
     1
  9
$HANDSEED
  5
BCA4
  9
$SURFTAB1
 70
     6
  9
$SURFTAB2
 70
     6
  9
$SURFTYPE
 70
     6
  9
$SURFU
 70
     6
  9
$SURFV
 70
     6
  9
$UCSNAME
  2

  9
$UCSORG
 10
0.0
 20
0.0
 30
0.0
  9
$UCSXDIR
 10
1.0
 20
0.0
 30
0.0
  9
$UCSYDIR
 10
0.0
 20
1.0
 30
0.0
  9
$PUCSNAME
  2

  9
$PUCSORG
 10
0.0
 20
0.0
 30
0.0
  9
$PUCSXDIR
 10
1.0
 20
0.0
 30
0.0
  9
$PUCSYDIR
 10
0.0
 20
1.0
 30
0.0
  9
$USERI1
 70
     0
  9
$USERI2
 70
     0
  9
$USERI3
 70
     0
  9
$USERI4
 70
     0
  9
$USERI5
 70
     0
  9
$USERR1
 40
0.0
  9
$USERR2
 40
0.0
  9
$USERR3
 40
0.0
  9
$USERR4
 40
0.0
  9
$USERR5
 40
0.0
  9
$WORLDVIEW
 70
     1
  9
$SHADEDGE
 70
     3
  9
$SHADEDIF
 70
    70
  9
$TILEMODE
 70
     1
  9
$MAXACTVP
 70
    48
  9
$PINSBASE
 10
0.0
 20
0.0
 30
0.0
  9
$PLIMCHECK
 70
     0
  9
$PEXTMIN
 10
1.000000000000000E+20
 20
1.000000000000000E+20
 30
1.000000000000000E+20
  9
$PEXTMAX
 10
-1.000000000000000E+20
 20
-1.000000000000000E+20
 30
-1.000000000000000E+20
  9
$PLIMMIN
 10
0.0
 20
0.0
  9
$PLIMMAX
 10
420.0
 20
297.0
  9
$UNITMODE
 70
     0
  9
$VISRETAIN
 70
     1
  9
$PLINEGEN
 70
     0
  9
$PSLTSCALE
 70
     1
  9
$TREEDEPTH
 70
  3020
  9
$PICKSTYLE
 70
     1
  9
$CMLSTYLE
  2
STANDARD
  9
$CMLJUST
 70
     0
  9
$CMLSCALE
 40
20.0
  9
$SAVEIMAGES
 70
     1
  0
ENDSEC
  0
SECTION
  2
CLASSES
  0
CLASS
  1
DICTIONARYVAR
  2
AcDbDictionaryVar
  3
ObjectDBX Classes
 90
        0
280
     0
281
     0
  0
CLASS
  1
IDBUFFER
  2
AcDbIdBuffer
  3
ObjectDBX Classes
 90
    32768
280
     0
281
     0
  0
CLASS
  1
LWPOLYLINE
  2
AcDbPolyline
  3
ObjectDBX Classes
 90
    32768
280
     0
281
     1
  0
CLASS
  1
ACDBDICTIONARYWDFLT
  2
AcDbDictionaryWithDefault
  3
ObjectDBX Classes
 90
    32768
280
     0
281
     0
  0
CLASS
  1
ACDBPLACEHOLDER
  2
AcDbPlaceHolder
  3
ObjectDBX Classes
 90
        0
280
     0
281
     0
  0
CLASS
  1
LAYOUT
  2
AcDbLayout
  3
ObjectDBX Classes
 90
        0
280
     0
281
     0
  0
CLASS
  1
TABLESTYLE
  2
AcDbTableStyle
  3
ObjectDBX Classes
 90
     4095
280
     0
281
     0
  0
CLASS
  1
SORTENTSTABLE
  2
AcDbSortentsTable
  3
ObjectDBX Classes
 90
    32768
280
     0
281
     0
  0
CLASS
  1
MATERIAL
  2
AcDbMaterial
  3
ObjectDBX Classes
 90
     1153
280
     0
281
     0
  0
CLASS
  1
VISUALSTYLE
  2
AcDbVisualStyle
  3
ObjectDBX Classes
 90
     4095
280
     0
281
     0
  0
CLASS
  1
SCALE
  2
AcDbScale
  3
ObjectDBX Classes
 90
     1153
280
     0
281
     0
  0
CLASS
  1
MLEADERSTYLE
  2
AcDbMLeaderStyle
  3
ACDB_MLEADERSTYLE_CLASS
 90
     4095
280
     0
281
     0
  0
CLASS
  1
CELLSTYLEMAP
  2
AcDbCellStyleMap
  3
ObjectDBX Classes
 90
     1152
280
     0
281
     0
  0
CLASS
  1
SUN
  2
AcDbSun
  3
SCENEOE
 90
     1153
280
     0
281
     0
  0
CLASS
  1
XRECORD
  2
AcDbXrecord
  3
ObjectDBX Classes
 90
    32768
280
     0
281
     0
  0
CLASS
  1
HATCH
  2
AcDbHatch
  3
ObjectDBX Classes
 90
    32768
280
     0
281
     1
  0
ENDSEC
  0
SECTION
  2
TABLES
  0
TABLE
  2
VPORT
  5
8
330
0
100
AcDbSymbolTable
 70
     1
  0
VPORT
  5
7E5F
330
8
100
AcDbSymbolTableRecord
100
AcDbViewportTableRecord
  2
*ACTIVE
 70
     0
 10
0.0
 20
0.0
 11
1.0
 21
1.0
 12
1679.355329160222
 22
250.8482775302374
 13
0.0
 23
0.0
 14
10.0
 24
10.0
 15
10.0
 25
10.0
 16
0.0
 26
0.0
 36
1.0
 17
0.0
 27
0.0
 37
0.0
 40
1315.132717399669
 41
2.233782129742962
 42
50.0
 43
0.0
 44
0.0
 50
0.0
 51
0.0
 71
    16
 72
   100
 73
     1
 74
     1
 75
     0
 76
     0
 77
     0
 78
     0
1001
ACAD_NAV_VCDISPLAY
1070
     3
  0
ENDTAB
  0
TABLE
  2
LTYPE
  5
5
330
0
100
AcDbSymbolTable
 70
     5
  0
LTYPE
  5
12
330
5
100
AcDbSymbolTableRecord
100
AcDbLinetypeTableRecord
  2
BYBLOCK
 70
     0
  3

 72
    65
 73
     0
 40
0.0
  0
LTYPE
  5
13
330
5
100
AcDbSymbolTableRecord
100
AcDbLinetypeTableRecord
  2
BYLAYER
 70
     0
  3

 72
    65
 73
     0
 40
0.0
  0
LTYPE
  5
14
330
5
100
AcDbSymbolTableRecord
100
AcDbLinetypeTableRecord
  2
CONTINUOUS
 70
     0
  3
Solid line
 72
    65
 73
     0
 40
0.0
  0
LTYPE
  5
26
330
5
100
AcDbSymbolTableRecord
100
AcDbLinetypeTableRecord
  2
CENTER2
 70
     0
  3
Center (.5x) ___ _ ___ _ ___ _ ___ _ ___ _ ___
 72
    65
 73
     4
 40
28.575
 49
19.05
 74
     0
 49
-3.175
 74
     0
 49
3.175
 74
     0
 49
-3.175
 74
     0
  0
LTYPE
  5
6A
330
5
100
AcDbSymbolTableRecord
100
AcDbLinetypeTableRecord
  2
XREF1|CENTER2
 70
    48
  3
Center (.5x) ___ _ ___ _ ___ _ ___ _ ___ _ ___
 72
    65
 73
     4
 40
28.575
 49
19.05
 74
     0
 49
-3.175
 74
     0
 49
3.175
 74
     0
 49
-3.175
 74
     0
  0
LTYPE
  5
242
330
5
100
AcDbSymbolTableRecord
100
AcDbLinetypeTableRecord
  2
PHANTOM2
 70
     0
  3
Phantom (0.5x) ___ _ _ ___ _ _ ___ _ _ ___ _ _
 72
    65
 73
     6
 40
31.75
 49
15.875
 74
     0
 49
-3.175
 74
     0
 49
3.175
 74
     0
 49
-3.175
 74
     0
 49
3.175
 74
     0
 49
-3.175
 74
     0
  0
LTYPE
  5
2EF
330
5
100
AcDbSymbolTableRecord
100
AcDbLinetypeTableRecord
  2
A3WAKUDAKE|CENTER2
 70
    48
  3
Center (.5x) ___ _ ___ _ ___ _ ___ _ ___ _ ___
 72
    65
 73
     4
 40
28.575
 49
19.05
 74
     0
 49
-3.175
 74
     0
 49
3.175
 74
     0
 49
-3.175
 74
     0
  0
ENDTAB
  0
TABLE
  2
LAYER
  5
2
102
{ACAD_XDICTIONARY
360
886
102
}
330
0
100
AcDbSymbolTable
 70
    11
  0
LAYER
  5
E
102
{ACAD_XDICTIONARY
360
8D36
102
}
330
2
100
AcDbSymbolTableRecord
100
AcDbLayerTableRecord
  2
0
 70
     0
 62
     7
  6
CONTINUOUS
  0
LAYER
  5
29
102
{ACAD_XDICTIONARY
360
8D38
102
}
330
2
100
AcDbSymbolTableRecord
100
AcDbLayerTableRecord
  2
1CENTER
 70
     0
 62
     7
  6
CENTER2
  0
LAYER
  5
31
102
{ACAD_XDICTIONARY
360
8D3A
102
}
330
2
100
AcDbSymbolTableRecord
100
AcDbLayerTableRecord
  2
1TEXT
 70
     0
 62
     7
  6
CONTINUOUS
  0
LAYER
  5
24E
102
{ACAD_XDICTIONARY
360
8D40
102
}
330
2
100
AcDbSymbolTableRecord
100
AcDbLayerTableRecord
  2
1DIM
 70
     0
 62
     7
  6
CONTINUOUS
  0
LAYER
  5
252
102
{ACAD_XDICTIONARY
360
8D42
102
}
330
2
100
AcDbSymbolTableRecord
100
AcDbLayerTableRecord
  2
1HATCH
 70
     0
 62
     7
  6
CONTINUOUS
  0
LAYER
  5
254
102
{ACAD_XDICTIONARY
360
8D44
102
}
330
2
100
AcDbSymbolTableRecord
100
AcDbLayerTableRecord
  2
1PHANTOM
 70
     0
 62
     7
  6
PHANTOM2
  0
LAYER
  5
2EA
102
{ACAD_XDICTIONARY
360
8D46
102
}
330
2
100
AcDbSymbolTableRecord
100
AcDbLayerTableRecord
  2
A3WAKUDAKE|THICK
 70
    48
 62
     7
  6
CONTINUOUS
  0
LAYER
  5
2EB
102
{ACAD_XDICTIONARY
360
8D48
102
}
330
2
100
AcDbSymbolTableRecord
100
AcDbLayerTableRecord
  2
A3WAKUDAKE|POINT
 70
    48
 62
     7
  6
CONTINUOUS
  0
LAYER
  5
2EC
102
{ACAD_XDICTIONARY
360
8D4A
102
}
330
2
100
AcDbSymbolTableRecord
100
AcDbLayerTableRecord
  2
A3WAKUDAKE|1CENTER
 70
    48
 62
     7
  6
A3WAKUDAKE|CENTER2
  0
LAYER
  5
2ED
102
{ACAD_XDICTIONARY
360
8D4C
102
}
330
2
100
AcDbSymbolTableRecord
100
AcDbLayerTableRecord
  2
A3WAKUDAKE|0-6
 70
    48
 62
     7
  6
CONTINUOUS
  0
LAYER
  5
5C08
102
{ACAD_XDICTIONARY
360
8D4E
102
}
330
2
100
AcDbSymbolTableRecord
100
AcDbLayerTableRecord
  2
01
 70
     0
 62
     1
  6
CONTINUOUS
  0
ENDTAB
  0
TABLE
  2
STYLE
  5
3
330
0
100
AcDbSymbolTable
 70
     3
  0
STYLE
  5
F
330
3
100
AcDbSymbolTableRecord
100
AcDbTextStyleTableRecord
  2
STANDARD
 70
     0
 40
0.0
 41
1.0
 50
0.0
 71
     0
 42
4.0
  3
txt.shx
  4
extfont.shx
  0
STYLE
  5
AF58
330
3
100
AcDbSymbolTableRecord
100
AcDbTextStyleTableRecord
  2
A3WAKUDAKE|STANDARD
 70
    48
 40
0.0
 41
1.0
 50
0.0
 71
     0
 42
4.0
  3
romans.shx
  4
extfont.shx
  0
STYLE
  5
AF80
330
3
100
AcDbSymbolTableRecord
100
AcDbTextStyleTableRecord
  2
XREF1|STANDARD
 70
    48
 40
0.0
 41
1.0
 50
0.0
 71
     0
 42
4.0
  3
romans.shx
  4
extfont.shx
  0
ENDTAB
  0
TABLE
  2
VIEW
  5
6
330
0
100
AcDbSymbolTable
 70
     0
  0
ENDTAB
  0
TABLE
  2
UCS
  5
7
330
0
100
AcDbSymbolTable
 70
     0
  0
ENDTAB
  0
TABLE
  2
APPID
  5
9
330
0
100
AcDbSymbolTable
 70
    19
  0
APPID
  5
10
330
9
100
AcDbSymbolTableRecord
100
AcDbRegAppTableRecord
  2
ACAD
 70
     0
  0
APPID
  5
21
330
9
100
AcDbSymbolTableRecord
100
AcDbRegAppTableRecord
  2
DRAWINGVARIABLESXDATA
 70
     0
  0
APPID
  5
64
330
9
100
AcDbSymbolTableRecord
100
AcDbRegAppTableRecord
  2
CONTENTTABDATA
 70
     0
  0
APPID
  5
65
330
9
100
AcDbSymbolTableRecord
100
AcDbRegAppTableRecord
  2
CONTENTCURRENTTAB
 70
     0
  0
APPID
  5
66
330
9
100
AcDbSymbolTableRecord
100
AcDbRegAppTableRecord
  2
CONTENTBLOCKDESCRIPTION
 70
     0
  0
APPID
  5
67
330
9
100
AcDbSymbolTableRecord
100
AcDbRegAppTableRecord
  2
CONTENTBLOCKICON
 70
     0
  0
APPID
  5
68
330
9
100
AcDbSymbolTableRecord
100
AcDbRegAppTableRecord
  2
CONTENTLONGBLOCKNAME
 70
     0
  0
APPID
  5
2AE
330
9
100
AcDbSymbolTableRecord
100
AcDbRegAppTableRecord
  2
ACAD_PSEXT
 70
     0
  0
APPID
  5
1A80
330
9
100
AcDbSymbolTableRecord
100
AcDbRegAppTableRecord
  2
ACAECLAYERSTANDARD
 70
     0
  0
APPID
  5
7EC0
330
9
100
AcDbSymbolTableRecord
100
AcDbRegAppTableRecord
  2
ACAD_MLEADERVER
 70
     0
  0
APPID
  5
90EF
330
9
100
AcDbSymbolTableRecord
100
AcDbRegAppTableRecord
  2
ACAD_NAV_VCDISPLAY
 70
     0
  0
APPID
  5
91B0
330
9
100
AcDbSymbolTableRecord
100
AcDbRegAppTableRecord
  2
ACAD_SPLINE_DATA
 70
     0
  0
APPID
  5
91B1
330
9
100
AcDbSymbolTableRecord
100
AcDbRegAppTableRecord
  2
ACLAYERTOOLS
 70
     0
  0
APPID
  5
91B2
330
9
100
AcDbSymbolTableRecord
100
AcDbRegAppTableRecord
  2
GRADIENTCOLOR1ACI
 70
     0
  0
APPID
  5
91B3
330
9
100
AcDbSymbolTableRecord
100
AcDbRegAppTableRecord
  2
GRADIENTCOLOR2ACI
 70
     0
  0
APPID
  5
9F13
330
9
100
AcDbSymbolTableRecord
100
AcDbRegAppTableRecord
  2
ACAD_DSTYLE_DIMRADIAL_EXTE
 70
     0
  0
APPID
  5
A5DC
330
9
100
AcDbSymbolTableRecord
100
AcDbRegAppTableRecord
  2
ACAD_EXEMPT_FROM_CAD_STAND
 70
     0
  0
APPID
  5
AFB6
330
9
100
AcDbSymbolTableRecord
100
AcDbRegAppTableRecord
  2
ACADANNOTATIVE
 70
     0
  0
APPID
  5
AFB7
330
9
100
AcDbSymbolTableRecord
100
AcDbRegAppTableRecord
  2
ACDBBLOCKREPETAG
 70
     0
  0
ENDTAB
  0
TABLE
  2
DIMSTYLE
  5
A
330
0
100
AcDbSymbolTable
 70
     1
  0
DIMSTYLE
105
48
330
A
100
AcDbSymbolTableRecord
100
AcDbDimStyleTableRecord
  2
NEWX10
 70
     0
  3
 
  4

  5

  6
OPEN30
  7
OPEN30
 40
1.0
 41
2.0
 42
0.0
 43
7.0
 44
1.0
 45
0.0
 46
0.0
 47
0.0
 48
0.0
140
3.5
141
0.0
142
0.0
143
25.4
144
1.0
145
0.0
146
0.7
147
0.7
 71
     0
 72
     0
 73
     0
 74
     0
 75
     0
 76
     0
 77
     1
 78
     8
170
     0
171
     2
172
     1
173
     1
174
     0
175
     0
176
   256
177
   256
178
   201
179
     2
270
     2
271
     2
272
     4
273
     2
274
     2
340
F
275
     0
280
     0
281
     0
282
     0
283
     1
284
     8
285
     0
286
     0
287
     2
288
     0
  0
ENDTAB
  0
TABLE
  2
BLOCK_RECORD
  5
1
330
0
100
AcDbSymbolTable
 70
    10
  0
BLOCK_RECORD
  5
18
102
{ACAD_XDICTIONARY
360
F07
102
}
330
1
100
AcDbSymbolTableRecord
100
AcDbBlockTableRecord
  2
*MODEL_SPACE
  0
BLOCK_RECORD
  5
15
330
1
100
AcDbSymbolTableRecord
100
AcDbBlockTableRecord
  2
*PAPER_SPACE
  0
BLOCK_RECORD
  5
42
330
1
100
AcDbSymbolTableRecord
100
AcDbBlockTableRecord
  2
_OPEN30
  0
BLOCK_RECORD
  5
5B
330
1
100
AcDbSymbolTableRecord
100
AcDbBlockTableRecord
  2
XREF1
  0
BLOCK_RECORD
  5
2E7
330
1
100
AcDbSymbolTableRecord
100
AcDbBlockTableRecord
  2
A3WAKUDAKE
  0
BLOCK_RECORD
  5
B008
330
1
100
AcDbSymbolTableRecord
100
AcDbBlockTableRecord
  2
A3WAKUKAWAJUN2017_HYOUDAI_
  0
BLOCK_RECORD
  5
BB04
330
1
100
AcDbSymbolTableRecord
100
AcDbBlockTableRecord
  2
*X169
  0
BLOCK_RECORD
  5
BB52
330
1
100
AcDbSymbolTableRecord
100
AcDbBlockTableRecord
  2
*X170
  0
BLOCK_RECORD
  5
BBA4
330
1
100
AcDbSymbolTableRecord
100
AcDbBlockTableRecord
  2
*X171
  0
BLOCK_RECORD
  5
BBF5
330
1
100
AcDbSymbolTableRecord
100
AcDbBlockTableRecord
  2
*X172
  0
BLOCK_RECORD
  5
BC32
330
1
100
AcDbSymbolTableRecord
100
AcDbBlockTableRecord
  2
*X173
  0
BLOCK_RECORD
  5
BC72
330
1
100
AcDbSymbolTableRecord
100
AcDbBlockTableRecord
  2
*X174
  0
ENDTAB
  0
ENDSEC
  0
SECTION
  2
BLOCKS
  0
BLOCK
  5
19
330
18
100
AcDbEntity
  8
0
100
AcDbBlockBegin
  2
*MODEL_SPACE
 70
     0
 10
0.0
 20
0.0
 30
0.0
  3
*MODEL_SPACE
  1

  0
ENDBLK
  5
1A
330
18
100
AcDbEntity
  8
0
100
AcDbBlockEnd
  0
BLOCK
  5
16
330
15
100
AcDbEntity
 67
     1
  8
0
100
AcDbBlockBegin
  2
*PAPER_SPACE
 70
     0
 10
0.0
 20
0.0
 30
0.0
  3
*PAPER_SPACE
  1

  0
ENDBLK
  5
17
330
15
100
AcDbEntity
 67
     1
  8
0
100
AcDbBlockEnd
  0
BLOCK
  5
43
330
42
100
AcDbEntity
  8
0
100
AcDbBlockBegin
  2
_OPEN30
 70
     0
 10
0.0
 20
0.0
 30
0.0
  3
_OPEN30
  1

  0
LINE
  5
44
330
42
100
AcDbEntity
  8
0
  6
BYBLOCK
 62
     0
100
AcDbLine
 10
-1.0
 20
0.26794919
 30
0.0
 11
0.0
 21
0.0
 31
0.0
  0
LINE
  5
45
330
42
100
AcDbEntity
  8
0
  6
BYBLOCK
 62
     0
100
AcDbLine
 10
0.0
 20
0.0
 30
0.0
 11
-1.0
 21
-0.26794919
 31
0.0
  0
LINE
  5
46
330
42
100
AcDbEntity
  8
0
  6
BYBLOCK
 62
     0
100
AcDbLine
 10
0.0
 20
0.0
 30
0.0
 11
-1.0
 21
0.0
 31
0.0
  0
ENDBLK
  5
47
330
42
100
AcDbEntity
  8
0
100
AcDbBlockEnd
  0
BLOCK
  5
5C
330
5B
100
AcDbEntity
  8
0
100
AcDbBlockBegin
  2
XREF1
 70
    36
 10
0.0
 20
0.0
 30
0.0
  3
XREF1
  1
D:\ACLT\FORMAT\KAWAJUN(9)図面用.dwg
  0
ENDBLK
  5
5D
330
5B
100
AcDbEntity
  8
0
100
AcDbBlockEnd
  0
BLOCK
  5
2E8
330
2E7
100
AcDbEntity
  8
0
100
AcDbBlockBegin
  2
A3WAKUDAKE
 70
    36
 10
0.0
 20
0.0
 30
0.0
  3
A3WAKUDAKE
  1
D:\ACLT\FORMAT\A3WAKUdake.dwg
  0
ENDBLK
  5
2E9
330
2E7
100
AcDbEntity
  8
0
100
AcDbBlockEnd
  0
BLOCK
  5
B71A
330
B008
100
AcDbEntity
  8
0
100
AcDbBlockBegin
  2
A3WAKUKAWAJUN2017_HYOUDAI_
 70
     0
 10
0.0
 20
0.0
 30
0.0
  3
A3WAKUKAWAJUN2017_HYOUDAI_
  1

  0
LINE
  5
B00A
330
B008
100
AcDbEntity
  8
0
100
AcDbLine
 10
13.26299999998673
 20
-0.0001000000000317
 30
0.0
 11
9.236999999990758
 21
8.999899999990987
 31
0.0
1001
ACAD
1000
ASC_BOUNDS
1002
{
1070
    19
1005
B04B
1002
}
  0
LINE
  5
B00B
330
B008
100
AcDbEntity
  8
0
100
AcDbLine
 10
5.657999999994331
 20
0.9999999999989768
 30
0.0
 11
9.236999999990758
 21
8.999999999991019
 31
0.0
1001
ACAD
1000
ASC_BOUNDS
1002
{
1070
    19
1005
B04B
1002
}
  0
LINE
  5
B00C
330
B008
100
AcDbEntity
  8
0
100
AcDbLine
 10
18.59199999998134
 20
-0.2368999999997641
 30
0.0
 11
16.46099999998353
 21
5.432899999994561
 31
0.0
1001
ACAD
1000
ASC_BOUNDS
1002
{
1070
    19
1005
B04C
1002
}
  0
LINE
  5
B00D
330
B008
100
AcDbEntity
  8
0
100
AcDbLine
 10
18.59199999998134
 20
-0.2368999999997641
 30
0.0
 11
22.38199999997767
 21
8.763099999991255
 31
0.0
1001
ACAD
1000
ASC_BOUNDS
1002
{
1070
    19
1005
B04C
1002
}
  0
LINE
  5
B00E
330
B008
100
AcDbEntity
  8
0
100
AcDbLine
 10
14.32899999998563
 20
-0.2368999999997641
 30
0.0
 11
16.46099999998353
 21
5.432899999994561
 31
0.0
1001
ACAD
1000
ASC_BOUNDS
1002
{
1070
    19
1005
B04C
1002
}
  0
LINE
  5
B00F
330
B008
100
AcDbEntity
  8
0
100
AcDbLine
 10
14.32899999998563
 20
-0.2368999999997641
 30
0.0
 11
10.53899999998941
 21
8.763099999991255
 31
0.0
1001
ACAD
1000
ASC_BOUNDS
1002
{
1070
    19
1005
B04C
1002
}
  0
LINE
  5
B010
330
B008
100
AcDbEntity
  8
0
100
AcDbLine
 10
19.53899999998043
 20
-0.0001000000000317
 30
0.0
 11
23.56599999997638
 21
8.999899999990987
 31
0.0
1001
ACAD
1000
ASC_BOUNDS
1002
{
1070
    19
1005
B04D
1002
}
  0
LINE
  5
B011
330
B008
100
AcDbEntity
  8
0
100
AcDbLine
 10
26.97358892824991
 20
1.383099999991202
 30
0.0
 11
23.56599999997638
 21
8.999899999990987
 31
0.0
1001
ACAD
1000
ASC_BOUNDS
1002
{
1070
    19
1005
B04D
1002
}
  0
LINE
  5
B012
330
B008
100
AcDbEntity
  8
0
100
AcDbLine
 10
5.657999999994331
 20
0.9999999999989768
 30
0.0
 11
3.181999999996833
 21
4.668599999995308
 31
0.0
1001
ACAD
1000
ASC_BOUNDS
1002
{
1070
    19
1005
B04B
1002
}
  0
LINE
  5
B013
330
B008
100
AcDbEntity
  8
0
100
AcDbLine
 10
4.617999999995391
 20
-0.0001000000000317
 30
0.0
 11
1.420999999998571
 21
4.736799999995242
 31
0.0
1001
ACAD
1000
ASC_BOUNDS
1002
{
1070
    19
1005
B04B
1002
}
  0
LINE
  5
B014
330
B008
100
AcDbEntity
  8
0
100
AcDbLine
 10
1.420999999998571
 20
8.763099999991255
 30
0.0
 11
1.420999999998571
 21
0.0
 31
0.0
1001
ACAD
1000
ASC_BOUNDS
1002
{
1070
    19
1005
B050
1002
}
  0
LINE
  5
B015
330
B008
100
AcDbEntity
  8
0
100
AcDbLine
 10
0.0
 20
8.763099999991255
 30
0.0
 11
0.0
 21
0.0
 31
0.0
1001
ACAD
1000
ASC_BOUNDS
1002
{
1070
    19
1005
B050
1002
}
  0
LINE
  5
B016
330
B008
100
AcDbEntity
  8
0
100
AcDbLine
 10
6.766999999993232
 20
-0.0001000000000317
 30
0.0
 11
7.826999999992154
 21
2.368399999997621
 31
0.0
1001
ACAD
1000
ASC_BOUNDS
1002
{
1070
    19
1005
B04B
1002
}
  0
LINE
  5
B017
330
B008
100
AcDbEntity
  8
0
100
AcDbLine
 10
0.0
 20
0.0
 30
0.0
 11
1.420999999998571
 21
0.0
 31
0.0
1001
ACAD
1000
ASC_BOUNDS
1002
{
1070
    19
1005
B050
1002
}
  0
LINE
  5
B018
330
B008
100
AcDbEntity
  8
0
100
AcDbLine
 10
4.617999999995391
 20
0.0
 30
0.0
 11
6.766999999993232
 21
0.0
 31
0.0
1001
ACAD
1000
ASC_BOUNDS
1002
{
1070
    19
1005
B04B
1002
}
  0
LINE
  5
B019
330
B008
100
AcDbEntity
  8
0
100
AcDbLine
 10
11.70599999998831
 20
-0.0001000000000317
 30
0.0
 11
10.64699999998936
 21
2.368399999997621
 31
0.0
1001
ACAD
1000
ASC_BOUNDS
1002
{
1070
    19
1005
B04B
1002
}
  0
LINE
  5
B01A
330
B008
100
AcDbEntity
  8
0
100
AcDbLine
 10
7.826999999992154
 20
2.368399999997621
 30
0.0
 11
10.64699999998936
 21
2.368399999997621
 31
0.0
1001
ACAD
1000
ASC_BOUNDS
1002
{
1070
    19
1005
B04B
1002
}
  0
LINE
  5
B01B
330
B008
100
AcDbEntity
  8
0
100
AcDbLine
 10
11.70599999998831
 20
0.0
 30
0.0
 11
13.26299999998673
 21
0.0
 31
0.0
1001
ACAD
1000
ASC_BOUNDS
1002
{
1070
    19
1005
B04B
1002
}
  0
LINE
  5
B01C
330
B008
100
AcDbEntity
  8
0
100
AcDbLine
 10
22.15599999997789
 20
2.368399999997621
 30
0.0
 11
24.97599999997499
 21
2.368399999997621
 31
0.0
1001
ACAD
1000
ASC_BOUNDS
1002
{
1070
    19
1005
B04D
1002
}
  0
LINE
  5
B01D
330
B008
100
AcDbEntity
  8
0
100
AcDbLine
 10
19.53899999998043
 20
0.0
 30
0.0
 11
21.09599999997886
 21
0.0
 31
0.0
1001
ACAD
1000
ASC_BOUNDS
1002
{
1070
    19
1005
B04D
1002
}
  0
LINE
  5
B01E
330
B008
100
AcDbEntity
  8
0
100
AcDbLine
 10
21.09599999997886
 20
-0.0001000000000317
 30
0.0
 11
22.15599999997789
 21
2.368399999997621
 31
0.0
1001
ACAD
1000
ASC_BOUNDS
1002
{
1070
    19
1005
B04D
1002
}
  0
LINE
  5
B01F
330
B008
100
AcDbEntity
  8
0
100
AcDbLine
 10
26.02015566812236
 20
0.0330999999912365
 30
0.0
 11
24.97599999997499
 21
2.368399999997621
 31
0.0
1001
ACAD
1000
ASC_BOUNDS
1002
{
1070
    19
1005
B04D
1002
}
  0
LINE
  5
B020
330
B008
100
AcDbEntity
  8
0
100
AcDbLine
 10
14.32399999998563
 20
3.315799999996671
 30
0.0
 11
16.46099999998353
 21
8.999899999990987
 31
0.0
1001
ACAD
1000
ASC_BOUNDS
1002
{
1070
    19
1005
B04C
1002
}
  0
LINE
  5
B021
330
B008
100
AcDbEntity
  8
0
100
AcDbLine
 10
6.432999999993513
 20
8.763099999991255
 30
0.0
 11
3.181999999996833
 21
4.668599999995308
 31
0.0
1001
ACAD
1000
ASC_BOUNDS
1002
{
1070
    19
1005
B04B
1002
}
  0
LINE
  5
B022
330
B008
100
AcDbEntity
  8
0
100
AcDbLine
 10
4.617999999995391
 20
8.763099999991255
 30
0.0
 11
1.420999999998571
 21
4.736799999995242
 31
0.0
1001
ACAD
1000
ASC_BOUNDS
1002
{
1070
    19
1005
B04B
1002
}
  0
LINE
  5
B023
330
B008
100
AcDbEntity
  8
0
100
AcDbLine
 10
0.0
 20
8.763099999991255
 30
0.0
 11
1.420999999998571
 21
8.763099999991255
 31
0.0
1001
ACAD
1000
ASC_BOUNDS
1002
{
1070
    19
1005
B050
1002
}
  0
LINE
  5
B024
330
B008
100
AcDbEntity
  8
0
100
AcDbLine
 10
4.617999999995391
 20
8.763099999991255
 30
0.0
 11
6.432999999993513
 21
8.763099999991255
 31
0.0
1001
ACAD
1000
ASC_BOUNDS
1002
{
1070
    19
1005
B04B
1002
}
  0
LINE
  5
B025
330
B008
100
AcDbEntity
  8
0
100
AcDbLine
 10
14.32399999998563
 20
3.315799999996671
 30
0.0
 11
12.02999999998792
 21
8.763099999991255
 31
0.0
1001
ACAD
1000
ASC_BOUNDS
1002
{
1070
    19
1005
B04C
1002
}
  0
LINE
  5
B026
330
B008
100
AcDbEntity
  8
0
100
AcDbLine
 10
10.06399999998996
 20
3.670999999996297
 30
0.0
 11
9.236999999990758
 21
5.5200999999945
 31
0.0
1001
ACAD
1000
ASC_BOUNDS
1002
{
1070
    19
1005
B04B
1002
}
  0
LINE
  5
B027
330
B008
100
AcDbEntity
  8
0
100
AcDbLine
 10
8.409999999991555
 20
3.670999999996297
 30
0.0
 11
9.236999999990758
 21
5.5200999999945
 31
0.0
1001
ACAD
1000
ASC_BOUNDS
1002
{
1070
    19
1005
B04B
1002
}
  0
LINE
  5
B028
330
B008
100
AcDbEntity
  8
0
100
AcDbLine
 10
8.409999999991555
 20
3.670999999996297
 30
0.0
 11
10.06399999998996
 21
3.670999999996297
 31
0.0
1001
ACAD
1000
ASC_BOUNDS
1002
{
1070
    19
1005
B04B
1002
}
  0
LINE
  5
B029
330
B008
100
AcDbEntity
  8
0
100
AcDbLine
 10
10.53899999998941
 20
8.763099999991255
 30
0.0
 11
12.02999999998792
 21
8.763099999991255
 31
0.0
1001
ACAD
1000
ASC_BOUNDS
1002
{
1070
    19
1005
B04C
1002
}
  0
LINE
  5
B02A
330
B008
100
AcDbEntity
  8
0
100
AcDbLine
 10
22.7389999999773
 20
3.670999999996297
 30
0.0
 11
23.56599999997638
 21
5.5200999999945
 31
0.0
1001
ACAD
1000
ASC_BOUNDS
1002
{
1070
    19
1005
B04D
1002
}
  0
LINE
  5
B02B
330
B008
100
AcDbEntity
  8
0
100
AcDbLine
 10
22.7389999999773
 20
3.670999999996297
 30
0.0
 11
24.39299999997559
 21
3.670999999996297
 31
0.0
1001
ACAD
1000
ASC_BOUNDS
1002
{
1070
    19
1005
B04D
1002
}
  0
LINE
  5
B02C
330
B008
100
AcDbEntity
  8
0
100
AcDbLine
 10
18.59799999998143
 20
3.315799999996671
 30
0.0
 11
20.89099999997916
 21
8.763099999991255
 31
0.0
1001
ACAD
1000
ASC_BOUNDS
1002
{
1070
    19
1005
B04C
1002
}
  0
LINE
  5
B02D
330
B008
100
AcDbEntity
  8
0
100
AcDbLine
 10
18.59799999998143
 20
3.315799999996671
 30
0.0
 11
16.46099999998353
 21
8.999899999990987
 31
0.0
1001
ACAD
1000
ASC_BOUNDS
1002
{
1070
    19
1005
B04C
1002
}
  0
LINE
  5
B02E
330
B008
100
AcDbEntity
  8
0
100
AcDbLine
 10
20.89099999997916
 20
8.763099999991255
 30
0.0
 11
22.38199999997767
 21
8.763099999991255
 31
0.0
1001
ACAD
1000
ASC_BOUNDS
1002
{
1070
    19
1005
B04C
1002
}
  0
LINE
  5
B02F
330
B008
100
AcDbEntity
  8
0
100
AcDbLine
 10
24.39299999997559
 20
3.670999999996297
 30
0.0
 11
23.56599999997638
 21
5.5200999999945
 31
0.0
1001
ACAD
1000
ASC_BOUNDS
1002
{
1070
    19
1005
B04D
1002
}
  0
LINE
  5
B030
330
B008
100
AcDbEntity
  8
0
100
AcDbLine
 10
44.99999999995498
 20
-0.2368999999997641
 30
0.0
 11
40.02599999995994
 21
5.341799999994635
 31
0.0
1001
ACAD
1000
ASC_BOUNDS
1002
{
1070
    19
1005
B04F
1002
}
  0
LINE
  5
B031
330
B008
100
AcDbEntity
  8
0
100
AcDbLine
 10
40.02599999995994
 20
5.341799999994635
 30
0.0
 11
40.02599999995994
 21
0.0
 31
0.0
1001
ACAD
1000
ASC_BOUNDS
1002
{
1070
    19
1005
B04F
1002
}
  0
LINE
  5
B032
330
B008
100
AcDbEntity
  8
0
100
AcDbLine
 10
38.60499999996136
 20
8.999999999991019
 30
0.0
 11
38.60499999996136
 21
0.0
 31
0.0
1001
ACAD
1000
ASC_BOUNDS
1002
{
1070
    19
1005
B04F
1002
}
  0
LINE
  5
B033
330
B008
100
AcDbEntity
  8
0
100
AcDbLine
 10
44.99999999995498
 20
8.763099999991255
 30
0.0
 11
44.99999999995498
 21
-0.2368999999997641
 31
0.0
1001
ACAD
1000
ASC_BOUNDS
1002
{
1070
    19
1005
B04F
1002
}
  0
LINE
  5
B034
330
B008
100
AcDbEntity
  8
0
100
AcDbLine
 10
38.60499999996136
 20
0.0
 30
0.0
 11
40.02599999995994
 21
0.0
 31
0.0
1001
ACAD
1000
ASC_BOUNDS
1002
{
1070
    19
1005
B04F
1002
}
  0
LINE
  5
B035
330
B008
100
AcDbEntity
  8
0
100
AcDbLine
 10
43.57899999995641
 20
3.421199999996588
 30
0.0
 11
38.60499999996136
 21
8.999899999990987
 31
0.0
1001
ACAD
1000
ASC_BOUNDS
1002
{
1070
    19
1005
B04F
1002
}
  0
LINE
  5
B036
330
B008
100
AcDbEntity
  8
0
100
AcDbLine
 10
43.57899999995641
 20
8.763099999991255
 30
0.0
 11
43.57899999995641
 21
3.421199999996588
 31
0.0
1001
ACAD
1000
ASC_BOUNDS
1002
{
1070
    19
1005
B04F
1002
}
  0
LINE
  5
B037
330
B008
100
AcDbEntity
  8
0
100
AcDbLine
 10
43.57899999995641
 20
8.763099999991255
 30
0.0
 11
44.99999999995498
 21
8.763099999991255
 31
0.0
1001
ACAD
1000
ASC_BOUNDS
1002
{
1070
    19
1005
B04F
1002
}
  0
LINE
  5
B038
330
B008
100
AcDbEntity
  8
0
100
AcDbLine
 10
37.67199999996831
 20
8.763099999991255
 30
0.0
 11
36.23199999996837
 21
8.763099999991255
 31
0.0
  0
LINE
  5
B039
330
B008
100
AcDbEntity
  8
0
100
AcDbLine
 10
31.64199999996833
 20
8.763099999991255
 30
0.0
 11
31.64199999996833
 21
2.481619422925121
 31
0.0
  0
LINE
  5
B03A
330
B008
100
AcDbEntity
  8
0
100
AcDbLine
 10
37.67199999996831
 20
8.763099999991255
 30
0.0
 11
37.67199999996831
 21
2.481619422925121
 31
0.0
  0
LINE
  5
B03B
330
B008
100
AcDbEntity
  8
0
100
AcDbLine
 10
36.23199999996837
 20
8.763099999991255
 30
0.0
 11
36.23199999996837
 21
2.481619422925064
 31
0.0
  0
LINE
  5
B03C
330
B008
100
AcDbEntity
  8
0
100
AcDbLine
 10
33.08199999996839
 20
8.763099999991255
 30
0.0
 11
33.08199999996839
 21
2.481619422925121
 31
0.0
  0
ARC
  5
B03D
330
B008
100
AcDbEntity
  8
0
100
AcDbCircle
 10
34.65699999996832
 20
3.183099999991214
 30
0.0
 40
3.420000000000007
100
AcDbArc
 50
240.0000000000255
 51
299.9999999999766
  0
ARC
  5
B03E
330
B008
100
AcDbEntity
  8
0
100
AcDbCircle
 10
34.65699999996832
 20
3.183099999991214
 30
0.0
 40
1.97999999999999
100
AcDbArc
 50
240.000000000026
 51
299.9999999999703
  0
LINE
  5
B03F
330
B008
100
AcDbEntity
  8
0
100
AcDbLine
 10
33.08199999996828
 20
8.763099999991255
 30
0.0
 11
31.64199999996833
 21
8.763099999991255
 31
0.0
  0
ARC
  5
B040
330
B008
100
AcDbEntity
  8
0
100
AcDbCircle
 10
35.06199999996829
 20
2.481619422925064
 30
0.0
 40
1.17
100
AcDbArc
 50
299.9999999999699
 51
0.0
  0
ARC
  5
B041
330
B008
100
AcDbEntity
  8
0
100
AcDbCircle
 10
34.25199999996835
 20
2.481619422925121
 30
0.0
 40
1.17
100
AcDbArc
 50
180.0
 51
240.0000000000238
  0
ARC
  5
B042
330
B008
100
AcDbEntity
  8
0
100
AcDbCircle
 10
35.06199999996841
 20
2.481619422925121
 30
0.0
 40
2.61
100
AcDbArc
 50
299.9999999999756
 51
0.0
  0
ARC
  5
B043
330
B008
100
AcDbEntity
  8
0
100
AcDbCircle
 10
34.25199999996835
 20
2.481619422925121
 30
0.0
 40
2.61
100
AcDbArc
 50
180.0
 51
240.0000000000244
  0
LINE
  5
B044
330
B008
100
AcDbEntity
  8
0
100
AcDbLine
 10
29.30199999996933
 20
8.763099999991255
 30
0.0
 11
30.74199999996927
 21
8.763099999991255
 31
0.0
1001
ACAD
1000
ASC_BOUNDS
1002
{
1070
    19
1005
B04D
1002
}
  0
LINE
  5
B045
330
B008
100
AcDbEntity
  8
0
100
AcDbLine
 10
30.74199999996927
 20
8.763099999991255
 30
0.0
 11
30.74199999996927
 21
2.373099999991211
 31
0.0
1001
ACAD
1000
ASC_BOUNDS
1002
{
1070
    19
1005
B04D
1002
}
  0
LINE
  5
B046
330
B008
100
AcDbEntity
  8
0
100
AcDbLine
 10
26.02015566812236
 20
0.0330999999912365
 30
0.0
 11
28.40199999996923
 21
0.0330999999912365
 31
0.0
1001
ACAD
1000
ASC_BOUNDS
1002
{
1070
    19
1005
B04D
1002
}
  0
LINE
  5
B047
330
B008
100
AcDbEntity
  8
0
100
AcDbLine
 10
29.30199999996933
 20
8.763099999991255
 30
0.0
 11
29.30199999996933
 21
2.283099999991236
 31
0.0
1001
ACAD
1000
ASC_BOUNDS
1002
{
1070
    19
1005
B04D
1002
}
  0
LINE
  5
B048
330
B008
100
AcDbEntity
  8
0
100
AcDbLine
 10
26.97358892824991
 20
1.383099999991202
 30
0.0
 11
28.40199999996923
 21
1.383099999991202
 31
0.0
1001
ACAD
1000
ASC_BOUNDS
1002
{
1070
    19
1005
B04D
1002
}
  0
ARC
  5
B049
330
B008
100
AcDbEntity
  8
0
100
AcDbCircle
 10
28.40199999996923
 20
2.283099999991236
 30
0.0
 40
0.9
100
AcDbArc
 50
270.0
 51
0.0
1001
ACAD
1000
ASC_BOUNDS
1002
{
1070
    19
1005
B04D
1002
}
  0
ARC
  5
B04A
330
B008
100
AcDbEntity
  8
0
100
AcDbCircle
 10
28.40199999996923
 20
2.373099999991211
 30
0.0
 40
2.34
100
AcDbArc
 50
270.0
 51
0.0
1001
ACAD
1000
ASC_BOUNDS
1002
{
1070
    19
1005
B04D
1002
}
  0
INSERT
  5
B04B
330
B008
100
AcDbEntity
  8
0
100
AcDbBlockReference
  2
*X169
 10
0.0
 20
0.0
 30
0.0
1001
ACAD
1000
HATCH
1002
{
1070
    19
1000
ANSI37
1040
0.15
1040
0.0
1000
ASC_BOUNDS
1070
     2
1070
     2
1070
    12
1005
B00A
1005
B00B
1005
B012
1005
B021
1005
B024
1005
B022
1005
B013
1005
B018
1005
B016
1005
B01A
1005
B019
1005
B01B
1070
     2
1070
     3
1005
B026
1005
B028
1005
B027
1000
ASC_SEEDPOINT
1011
3.614004224891801
1021
2.996669441146025
1031
0.0
1000
R14_HATCH_DATA
1000
B04B
1011
1.0
1021
0.0
1031
0.0
1011
0.0
1021
1.0
1031
0.0
1011
0.0
1021
0.0
1031
1.0
1040
0.0
1010
0.0
1020
0.0
1030
1.0
1000
ANSI37
1070
     0
1070
     1
1071
        2
1071
        7
1070
     0
1070
     1
1071
       17
1040
13.26299999998673
1040
-0.0001000000000317
1040
9.236999999990758
1040
8.999899999990987
1040
9.236999999990758
1040
8.999999999991019
1040
5.657999999994331
1040
0.9999999999989768
1040
3.181999999996833
1040
4.668599999995308
1040
6.432999999993513
1040
8.763099999991255
1040
4.617999999995391
1040
8.763099999991255
1040
1.420999999998571
1040
4.736799999995242
1040
4.617999999995391
1040
-0.0001000000000317
1040
4.617999999995391
1040
0.0
1040
6.766999999993232
1040
0.0
1040
6.766999999993232
1040
-0.0001000000000317
1040
7.826999999992154
1040
2.368399999997621
1040
10.64699999998936
1040
2.368399999997621
1040
11.70599999998831
1040
-0.0001000000000317
1040
11.70599999998831
1040
0.0
1040
13.26299999998673
1040
0.0
1071
       12
1005
B00A
1005
B00B
1005
B012
1005
B021
1005
B024
1005
B022
1005
B013
1005
B018
1005
B016
1005
B01A
1005
B019
1005
B01B
1071
       22
1070
     0
1070
     1
1071
        3
1040
9.236999999990758
1040
5.5200999999945
1040
10.06399999998996
1040
3.670999999996297
1040
8.409999999991555
1040
3.670999999996297
1071
        3
1005
B026
1005
B028
1005
B027
1070
     0
1070
     1
1040
0.0
1040
0.15
1070
     0
1070
     2
1040
0.7853981633974483
1040
49.29960901727088
1040
-10.17736998311392
1040
-0.3367596045400932
1040
0.3367596045400932
1070
     0
1040
2.356194490192345
1040
49.29960901727088
1040
-10.17736998311392
1040
-0.3367596045400932
1040
-0.3367596045400932
1070
     0
1040
0.0110235143455945
1071
        2
1040
3.614004224891801
1040
2.996669441146025
1040
0.0
1040
3.614004224891801
1040
2.996669441146025
1040
0.0
1002
}
  0
INSERT
  5
B04C
330
B008
100
AcDbEntity
  8
0
100
AcDbBlockReference
  2
*X170
 10
0.0
 20
0.0
 30
0.0
1001
ACAD
1000
HATCH
1002
{
1070
    19
1000
ANSI37
1040
0.15
1040
0.0
1000
ASC_BOUNDS
1070
     1
1070
     2
1070
    10
1005
B00C
1005
B00D
1005
B02E
1005
B02C
1005
B02D
1005
B020
1005
B025
1005
B029
1005
B00F
1005
B00E
1000
ASC_SEEDPOINT
1011
14.73245321214324
1021
2.798246178283421
1031
0.0
1000
R14_HATCH_DATA
1000
B04C
1011
1.0
1021
0.0
1031
0.0
1011
0.0
1021
1.0
1031
0.0
1011
0.0
1021
0.0
1031
1.0
1040
0.0
1010
0.0
1020
0.0
1030
1.0
1000
ANSI37
1070
     0
1070
     1
1071
        1
1071
        7
1070
     0
1070
     1
1071
       10
1040
16.46099999998353
1040
5.432899999994561
1040
18.59199999998134
1040
-0.2368999999997641
1040
22.38199999997767
1040
8.763099999991255
1040
20.89099999997916
1040
8.763099999991255
1040
18.59799999998143
1040
3.315799999996671
1040
16.46099999998353
1040
8.999899999990987
1040
14.32399999998563
1040
3.315799999996671
1040
12.02999999998792
1040
8.763099999991255
1040
10.53899999998941
1040
8.763099999991255
1040
14.32899999998563
1040
-0.2368999999997641
1071
       10
1005
B00C
1005
B00D
1005
B02E
1005
B02C
1005
B02D
1005
B020
1005
B025
1005
B029
1005
B00F
1005
B00E
1070
     0
1070
     1
1040
0.0
1040
0.15
1070
     0
1070
     2
1040
0.7853981633974483
1040
49.29960901727088
1040
-10.17736998311392
1040
-0.3367596045400932
1040
0.3367596045400932
1070
     0
1040
2.356194490192345
1040
49.29960901727088
1040
-10.17736998311392
1040
-0.3367596045400932
1040
-0.3367596045400932
1070
     0
1040
0.0110235143455945
1071
        1
1040
14.73245321214324
1040
2.798246178283421
1040
0.0
1002
}
  0
INSERT
  5
B04D
330
B008
100
AcDbEntity
  8
0
100
AcDbBlockReference
  2
*X171
 10
0.0
 20
0.0
 30
0.0
1001
ACAD
1000
HATCH
1002
{
1070
    19
1000
ANSI37
1040
0.15
1040
0.0
1000
ASC_BOUNDS
1070
     2
1070
     2
1070
    13
1005
B010
1005
B01D
1005
B01E
1005
B01C
1005
B01F
1005
B046
1005
B04A
1005
B045
1005
B044
1005
B047
1005
B049
1005
B048
1005
B011
1070
     2
1070
     3
1005
B02A
1005
B02F
1005
B02B
1000
ASC_SEEDPOINT
1011
21.97929957367762
1021
3.294304244259308
1031
0.0
1000
R14_HATCH_DATA
1000
B04D
1011
1.0
1021
0.0
1031
0.0
1011
0.0
1021
1.0
1031
0.0
1011
0.0
1021
0.0
1031
1.0
1040
0.0
1010
0.0
1020
0.0
1030
1.0
1000
ANSI37
1070
     0
1070
     1
1071
        2
1071
        7
1070
     1
1070
     1
1071
       15
1040
23.56599999997638
1040
8.999899999990987
1040
0.0
1040
19.53899999998043
1040
-0.0001000000000317
1040
0.0
1040
19.53899999998043
1040
0.0
1040
0.0
1040
21.09599999997886
1040
0.0
1040
0.0
1040
21.09599999997886
1040
-0.0001000000000317
1040
0.0
1040
22.15599999997789
1040
2.368399999997621
1040
0.0
1040
24.97599999997499
1040
2.368399999997621
1040
0.0
1040
26.02015566812236
1040
0.0330999999912365
1040
0.0
1040
28.40199999996923
1040
0.0330999999912365
1040
0.414213562373095
1040
30.74199999996923
1040
2.373099999991211
1040
0.0
1040
30.74199999996927
1040
8.763099999991255
1040
0.0
1040
29.30199999996933
1040
8.763099999991255
1040
0.0
1040
29.30199999996933
1040
2.283099999991236
1040
-0.414213562373095
1040
28.40199999996923
1040
1.383099999991237
1040
0.0
1040
26.97358892824991
1040
1.383099999991202
1040
0.0
1071
       13
1005
B010
1005
B01D
1005
B01E
1005
B01C
1005
B01F
1005
B046
1005
B04A
1005
B045
1005
B044
1005
B047
1005
B049
1005
B048
1005
B011
1071
       22
1070
     0
1070
     1
1071
        3
1040
22.7389999999773
1040
3.670999999996297
1040
23.56599999997638
1040
5.5200999999945
1040
24.39299999997559
1040
3.670999999996297
1071
        3
1005
B02A
1005
B02F
1005
B02B
1070
     0
1070
     1
1040
0.0
1040
0.15
1070
     0
1070
     2
1040
0.7853981633974483
1040
49.29960901727088
1040
-10.17736998311392
1040
-0.3367596045400932
1040
0.3367596045400932
1070
     0
1040
2.356194490192345
1040
49.29960901727088
1040
-10.17736998311392
1040
-0.3367596045400932
1040
-0.3367596045400932
1070
     0
1040
0.0110235143455945
1071
        2
1040
21.97929957367762
1040
3.294304244259308
1040
0.0
1040
21.97929957367762
1040
3.294304244259308
1040
0.0
1002
}
  0
INSERT
  5
B04E
330
B008
100
AcDbEntity
  8
0
100
AcDbBlockReference
  2
*X172
 10
0.0
 20
0.0
 30
0.0
1001
ACAD
1000
HATCH
1002
{
1070
    19
1000
ANSI37
1040
0.15
1040
0.0
1000
R14_HATCH_DATA
1000
B04E
1011
1.0
1021
0.0
1031
0.0
1011
0.0
1021
1.0
1031
0.0
1011
0.0
1021
0.0
1031
1.0
1040
0.0
1010
0.0
1020
0.0
1030
1.0
1000
ANSI37
1070
     0
1070
     1
1071
        1
1071
        7
1070
     1
1070
     1
1071
       12
1040
31.64199999996833
1040
2.481619422925121
1040
0.2679491924310942
1040
32.94699999997067
1040
0.2212931190493919
1040
0.2679491924301353
1040
36.36699999995983
1040
0.2212931190459813
1040
0.2679491924321411
1040
37.67199999996831
1040
2.481619422928361
1040
0.0
1040
37.67199999996831
1040
8.763099999991255
1040
0.0
1040
36.23199999996837
1040
8.763099999991255
1040
0.0
1040
36.23199999996837
1040
2.481619422925064
1040
-0.2679491924310291
1040
35.64699999996708
1040
1.468369700498386
1040
-0.267949192430519
1040
33.66699999997093
1040
1.468369700497703
1040
-0.267949192431809
1040
33.08199999996839
1040
2.481619422926997
1040
0.0
1040
33.08199999996839
1040
8.763099999991255
1040
0.0
1040
31.64199999996833
1040
8.763099999991255
1040
0.0
1071
        0
1070
     0
1070
     1
1040
0.0
1040
0.15
1070
     0
1070
     2
1040
0.7853981633974483
1040
49.29960901727088
1040
-10.17736998311392
1040
-0.3367596045400932
1040
0.3367596045400932
1070
     0
1040
2.356194490192345
1040
49.29960901727088
1040
-10.17736998311392
1040
-0.3367596045400932
1040
-0.3367596045400932
1070
     0
1040
0.0110235143455945
1071
        1
1040
32.30357378967278
1040
3.988785755459219
1040
0.0
1002
}
  0
INSERT
  5
B04F
330
B008
100
AcDbEntity
  8
0
100
AcDbBlockReference
  2
*X173
 10
0.0
 20
0.0
 30
0.0
1001
ACAD
1000
HATCH
1002
{
1070
    19
1000
ANSI37
1040
0.15
1040
0.0
1000
ASC_BOUNDS
1070
     1
1070
     2
1070
     8
1005
B030
1005
B033
1005
B037
1005
B036
1005
B035
1005
B032
1005
B034
1005
B031
1000
ASC_SEEDPOINT
1011
39.74896370716704
1021
4.484843821435049
1031
0.0
1000
R14_HATCH_DATA
1000
B04F
1011
1.0
1021
0.0
1031
0.0
1011
0.0
1021
1.0
1031
0.0
1011
0.0
1021
0.0
1031
1.0
1040
0.0
1010
0.0
1020
0.0
1030
1.0
1000
ANSI37
1070
     0
1070
     1
1071
        1
1071
        7
1070
     0
1070
     1
1071
        9
1040
40.02599999995994
1040
5.341799999994635
1040
44.99999999995498
1040
-0.2368999999997641
1040
44.99999999995498
1040
8.763099999991255
1040
43.57899999995641
1040
8.763099999991255
1040
43.57899999995641
1040
3.421199999996588
1040
38.60499999996136
1040
8.999899999990987
1040
38.60499999996136
1040
8.999999999991019
1040
38.60499999996136
1040
0.0
1040
40.02599999995994
1040
0.0
1071
        8
1005
B030
1005
B033
1005
B037
1005
B036
1005
B035
1005
B032
1005
B034
1005
B031
1070
     0
1070
     1
1040
0.0
1040
0.15
1070
     0
1070
     2
1040
0.7853981633974483
1040
49.29960901727088
1040
-10.17736998311392
1040
-0.3367596045400932
1040
0.3367596045400932
1070
     0
1040
2.356194490192345
1040
49.29960901727088
1040
-10.17736998311392
1040
-0.3367596045400932
1040
-0.3367596045400932
1070
     0
1040
0.0110235143455945
1071
        1
1040
39.74896370716704
1040
4.484843821435049
1040
0.0
1002
}
  0
INSERT
  5
B050
330
B008
100
AcDbEntity
  8
0
100
AcDbBlockReference
  2
*X174
 10
0.0
 20
0.0
 30
0.0
1001
ACAD
1000
HATCH
1002
{
1070
    19
1000
ANSI37
1040
0.15
1040
0.0
1000
ASC_BOUNDS
1070
     1
1070
     2
1070
     4
1005
B014
1005
B023
1005
B015
1005
B017
1000
ASC_SEEDPOINT
1011
1.079051535452663
1021
4.148538732891836
1031
0.0
1000
R14_HATCH_DATA
1000
B050
1011
1.0
1021
0.0
1031
0.0
1011
0.0
1021
1.0
1031
0.0
1011
0.0
1021
0.0
1031
1.0
1040
0.0
1010
0.0
1020
0.0
1030
1.0
1000
ANSI37
1070
     0
1070
     1
1071
        1
1071
        7
1070
     0
1070
     1
1071
        4
1040
1.420999999998571
1040
0.0
1040
1.420999999998571
1040
8.763099999991255
1040
0.0
1040
8.763099999991255
1040
0.0
1040
0.0
1071
        4
1005
B014
1005
B023
1005
B015
1005
B017
1070
     0
1070
     1
1040
0.0
1040
0.15
1070
     0
1070
     2
1040
0.7853981633974483
1040
49.29960901727088
1040
-10.17736998311392
1040
-0.3367596045400932
1040
0.3367596045400932
1070
     0
1040
2.356194490192345
1040
49.29960901727088
1040
-10.17736998311392
1040
-0.3367596045400932
1040
-0.3367596045400932
1070
     0
1040
0.0053004257112761
1071
        1
1040
1.079051535452663
1040
4.148538732891836
1040
0.0
1002
}
  0
ENDBLK
  5
B71B
330
B008
100
AcDbEntity
  8
0
100
AcDbBlockEnd
  0
BLOCK
  5
BC92
330
BB04
100
AcDbEntity
  8
0
100
AcDbBlockBegin
  2
*X169
 70
     1
 10
0.0
 20
0.0
 30
0.0
  3
*X169
  1

  0
LINE
  5
BB05
330
BB04
100
AcDbEntity
  8
0
  6
CONTINUOUS
100
AcDbLine
 10
3.418023043697893
 20
7.251849696850613
 30
0.0
 11
4.929273346838536
 21
8.763099999991255
 31
0.0
  0
LINE
  5
BB06
330
BB04
100
AcDbEntity
  8
0
  6
CONTINUOUS
100
AcDbLine
 10
1.483656411257782
 20
4.643963855330318
 30
0.0
 11
5.60279255591872
 21
8.763099999991255
 31
0.0
  0
LINE
  5
BB07
330
BB04
100
AcDbEntity
  8
0
  6
CONTINUOUS
100
AcDbLine
 10
1.755053947328235
 20
4.241842182320584
 30
0.0
 11
6.276311764998907
 21
8.763099999991255
 31
0.0
  0
LINE
  5
BB08
330
BB04
100
AcDbEntity
  8
0
  6
CONTINUOUS
100
AcDbLine
 10
2.026451483398688
 20
3.839720509310849
 30
0.0
 11
4.441040904851878
 21
6.254309930764039
 31
0.0
  0
LINE
  5
BB09
330
BB04
100
AcDbEntity
  8
0
  6
CONTINUOUS
100
AcDbLine
 10
2.297849019469139
 20
3.437598836301114
 30
0.0
 11
3.321765168359338
 21
4.461514985191313
 31
0.0
  0
LINE
  5
BB0A
330
BB04
100
AcDbEntity
  8
0
  6
CONTINUOUS
100
AcDbLine
 10
2.569246555539591
 20
3.03547716329138
 30
0.0
 11
3.593163397972743
 21
4.059394005724531
 31
0.0
  0
LINE
  5
BB0B
330
BB04
100
AcDbEntity
  8
0
  6
CONTINUOUS
100
AcDbLine
 10
2.840644091610043
 20
2.633355490281646
 30
0.0
 11
3.864561627586149
 21
3.657273026257751
 31
0.0
  0
LINE
  5
BB0C
330
BB04
100
AcDbEntity
  8
0
  6
CONTINUOUS
100
AcDbLine
 10
3.112041627680496
 20
2.231233817271911
 30
0.0
 11
4.135959857199554
 21
3.25515204679097
 31
0.0
  0
LINE
  5
BB0D
330
BB04
100
AcDbEntity
  8
0
  6
CONTINUOUS
100
AcDbLine
 10
3.383439163750948
 20
1.829112144262177
 30
0.0
 11
4.40735808681296
 21
2.853031067324189
 31
0.0
  0
LINE
  5
BB0E
330
BB04
100
AcDbEntity
  8
0
  6
CONTINUOUS
100
AcDbLine
 10
3.654836699821399
 20
1.426990471252442
 30
0.0
 11
4.678756316426365
 21
2.450910087857407
 31
0.0
  0
LINE
  5
BB0F
330
BB04
100
AcDbEntity
  8
0
  6
CONTINUOUS
100
AcDbLine
 10
3.926234235891853
 20
1.024868798242709
 30
0.0
 11
4.95015454603977
 21
2.048789108390626
 31
0.0
  0
LINE
  5
BB10
330
BB04
100
AcDbEntity
  8
0
  6
CONTINUOUS
100
AcDbLine
 10
4.197631771962304
 20
0.6227471252329737
 30
0.0
 11
5.221552775653176
 21
1.646668128923846
 31
0.0
  0
LINE
  5
BB11
330
BB04
100
AcDbEntity
  8
0
  6
CONTINUOUS
100
AcDbLine
 10
8.715877546767851
 20
7.835069736359266
 30
0.0
 11
9.435953450375058
 21
8.555145639966472
 31
0.0
  0
LINE
  5
BB12
330
BB04
100
AcDbEntity
  8
0
  6
CONTINUOUS
100
AcDbLine
 10
8.170620868422267
 20
6.616293848933497
 30
0.0
 11
9.644120833743461
 21
8.08979381425469
 31
0.0
  0
LINE
  5
BB13
330
BB04
100
AcDbEntity
  8
0
  6
CONTINUOUS
100
AcDbLine
 10
7.625364190076684
 20
5.397517961507727
 30
0.0
 11
9.852288217111864
 21
7.624441988542907
 31
0.0
  0
LINE
  5
BB14
330
BB04
100
AcDbEntity
  8
0
  6
CONTINUOUS
100
AcDbLine
 10
7.080107511731101
 20
4.178742074081957
 30
0.0
 11
10.06045560048027
 21
7.159090162831124
 31
0.0
  0
LINE
  5
BB15
330
BB04
100
AcDbEntity
  8
0
  6
CONTINUOUS
100
AcDbLine
 10
6.534850833385518
 20
2.959966186656187
 30
0.0
 11
10.26862298384867
 21
6.693738337119342
 31
0.0
  0
LINE
  5
BB16
330
BB04
100
AcDbEntity
  8
0
  6
CONTINUOUS
100
AcDbLine
 10
4.469029308032756
 20
0.2206254522232385
 30
0.0
 11
5.492951005266582
 21
1.244547149457064
 31
0.0
  0
LINE
  5
BB17
330
BB04
100
AcDbEntity
  8
0
  6
CONTINUOUS
100
AcDbLine
 10
5.989594155039935
 20
1.741190299230417
 30
0.0
 11
8.806950407233131
 21
4.558546551423613
 31
0.0
  0
LINE
  5
BB18
330
BB04
100
AcDbEntity
  8
0
  6
CONTINUOUS
100
AcDbLine
 10
9.401251593263643
 20
5.152847737454126
 30
0.0
 11
10.47679036721708
 21
6.228386511407559
 31
0.0
  0
LINE
  5
BB19
330
BB04
100
AcDbEntity
  8
0
  6
CONTINUOUS
100
AcDbLine
 10
4.921837203428691
 20
-0.0000858614610131
 30
0.0
 11
8.592923064886001
 21
3.670999999996297
 31
0.0
  0
LINE
  5
BB1A
330
BB04
100
AcDbEntity
  8
0
  6
CONTINUOUS
100
AcDbLine
 10
9.609390446785305
 20
4.6874673818956
 30
0.0
 11
10.68495775058548
 21
5.763034685695775
 31
0.0
  0
LINE
  5
BB1B
330
BB04
100
AcDbEntity
  8
0
  6
CONTINUOUS
100
AcDbLine
 10
5.595387755019432
 20
-0.0000545189504582
 30
0.0
 11
7.716137258923768
 21
2.120694984953879
 31
0.0
  0
LINE
  5
BB1C
330
BB04
100
AcDbEntity
  8
0
  6
CONTINUOUS
100
AcDbLine
 10
6.268938306610172
 20
-0.000023176439905
 30
0.0
 11
7.170485805526503
 21
0.9015243224764267
 31
0.0
  0
LINE
  5
BB1D
330
BB04
100
AcDbEntity
  8
0
  6
CONTINUOUS
100
AcDbLine
 10
7.963842273967511
 20
2.368399999997621
 30
0.0
 11
9.266442273966188
 21
3.670999999996297
 31
0.0
  0
LINE
  5
BB1E
330
BB04
100
AcDbEntity
  8
0
  6
CONTINUOUS
100
AcDbLine
 10
8.637361483047696
 20
2.368399999997621
 30
0.0
 11
9.939961483046375
 21
3.670999999996297
 31
0.0
  0
LINE
  5
BB1F
330
BB04
100
AcDbEntity
  8
0
  6
CONTINUOUS
100
AcDbLine
 10
9.817529300306965
 20
4.222087026337075
 30
0.0
 11
10.89312513395388
 21
5.297682859983993
 31
0.0
  0
LINE
  5
BB20
330
BB04
100
AcDbEntity
  8
0
  6
CONTINUOUS
100
AcDbLine
 10
10.02566815382863
 20
3.756706670778549
 30
0.0
 11
11.10129251732229
 21
4.832331034272211
 31
0.0
  0
LINE
  5
BB21
330
BB04
100
AcDbEntity
  8
0
  6
CONTINUOUS
100
AcDbLine
 10
9.310880692127883
 20
2.368399999997621
 30
0.0
 11
11.30945990069069
 21
4.366979208560428
 31
0.0
  0
LINE
  5
BB22
330
BB04
100
AcDbEntity
  8
0
  6
CONTINUOUS
100
AcDbLine
 10
9.98439990120807
 20
2.36839999999762
 30
0.0
 11
11.5176272840591
 21
3.901627382848645
 31
0.0
  0
LINE
  5
BB23
330
BB04
100
AcDbEntity
  8
0
  6
CONTINUOUS
100
AcDbLine
 10
10.65037369446246
 20
2.36085458417182
 30
0.0
 11
11.7257946674275
 21
3.436275557136862
 31
0.0
  0
LINE
  5
BB24
330
BB04
100
AcDbEntity
  8
0
  6
CONTINUOUS
100
AcDbLine
 10
10.85847197087848
 20
1.895433651507656
 30
0.0
 11
11.9339620507959
 21
2.97092373142508
 31
0.0
  0
LINE
  5
BB25
330
BB04
100
AcDbEntity
  8
0
  6
CONTINUOUS
100
AcDbLine
 10
11.0665702472945
 20
1.430012718843491
 30
0.0
 11
12.14212943416431
 21
2.505571905713296
 31
0.0
  0
LINE
  5
BB26
330
BB04
100
AcDbEntity
  8
0
  6
CONTINUOUS
100
AcDbLine
 10
11.27466852371052
 20
0.9645917861793256
 30
0.0
 11
12.35029681753271
 21
2.040220080001513
 31
0.0
  0
LINE
  5
BB27
330
BB04
100
AcDbEntity
  8
0
  6
CONTINUOUS
100
AcDbLine
 10
11.48276680012654
 20
0.4991708535151611
 30
0.0
 11
12.55846420090111
 21
1.57486825428973
 31
0.0
  0
LINE
  5
BB28
330
BB04
100
AcDbEntity
  8
0
  6
CONTINUOUS
100
AcDbLine
 10
11.69086507654257
 20
0.0337499208509957
 30
0.0
 11
12.76663158426952
 21
1.109516428577947
 31
0.0
  0
LINE
  5
BB29
330
BB04
100
AcDbEntity
  8
0
  6
CONTINUOUS
100
AcDbLine
 10
12.33057447873954
 20
-0.0000598860322123
 30
0.0
 11
12.97479896763792
 21
0.6441646028661663
 31
0.0
  0
LINE
  5
BB2A
330
BB04
100
AcDbEntity
  8
0
  6
CONTINUOUS
100
AcDbLine
 10
13.00413694809395
 20
-0.0000166257579952
 30
0.0
 11
13.18296635100632
 21
0.1788127771543824
 31
0.0
  0
LINE
  5
BB2B
330
BB04
100
AcDbEntity
  8
0
  6
CONTINUOUS
100
AcDbLine
 10
4.772852165289667
 20
-0.000092794222212
 30
0.0
 11
4.296495091028902
 21
0.4762642800385528
 31
0.0
  0
LINE
  5
BB2C
330
BB04
100
AcDbEntity
  8
0
  6
CONTINUOUS
100
AcDbLine
 10
5.446340034776103
 20
-0.0000614546284616
 30
0.0
 11
2.898195908335625
 21
2.548082671812017
 31
0.0
  0
LINE
  5
BB2D
330
BB04
100
AcDbEntity
  8
0
  6
CONTINUOUS
100
AcDbLine
 10
6.119827904262539
 20
-0.0000301150347113
 30
0.0
 11
1.499896725642348
 21
4.61990106358548
 31
0.0
  0
LINE
  5
BB2E
330
BB04
100
AcDbEntity
  8
0
  6
CONTINUOUS
100
AcDbLine
 10
6.775136745476159
 20
0.0181802528318542
 30
0.0
 11
5.699826040202669
 21
1.093490958105344
 31
0.0
  0
LINE
  5
BB2F
330
BB04
100
AcDbEntity
  8
0
  6
CONTINUOUS
100
AcDbLine
 10
6.983376846288489
 20
0.4834593610997118
 30
0.0
 11
5.908008617934405
 21
1.558827589453796
 31
0.0
  0
LINE
  5
BB30
330
BB04
100
AcDbEntity
  8
0
  6
CONTINUOUS
100
AcDbLine
 10
5.377063484962296
 20
1.416253513345719
 30
0.0
 11
1.702276957014131
 21
5.091040041293883
 31
0.0
  0
LINE
  5
BB31
330
BB04
100
AcDbEntity
  8
0
  6
CONTINUOUS
100
AcDbLine
 10
3.978745891735324
 20
3.488090315652877
 30
0.0
 11
2.000373521109399
 21
5.466462686278803
 31
0.0
  0
LINE
  5
BB32
330
BB04
100
AcDbEntity
  8
0
  6
CONTINUOUS
100
AcDbLine
 10
7.191616947100819
 20
0.948738469367568
 30
0.0
 11
6.11619119566614
 21
2.024164220802247
 31
0.0
  0
LINE
  5
BB33
330
BB04
100
AcDbEntity
  8
0
  6
CONTINUOUS
100
AcDbLine
 10
7.399857047913149
 20
1.414017577635424
 30
0.0
 11
6.324373773397875
 21
2.489500852150698
 31
0.0
  0
LINE
  5
BB34
330
BB04
100
AcDbEntity
  8
0
  6
CONTINUOUS
100
AcDbLine
 10
7.608097148725479
 20
1.879296685903281
 30
0.0
 11
6.53255635112961
 21
2.95483748349915
 31
0.0
  0
LINE
  5
BB35
330
BB04
100
AcDbEntity
  8
0
  6
CONTINUOUS
100
AcDbLine
 10
7.816337249537808
 20
2.344575794171138
 30
0.0
 11
6.740738928861345
 21
3.420174114847601
 31
0.0
  0
LINE
  5
BB36
330
BB04
100
AcDbEntity
  8
0
  6
CONTINUOUS
100
AcDbLine
 10
3.310241080789734
 20
4.830114335678653
 30
0.0
 11
2.298470085204666
 21
5.84188533126372
 31
0.0
  0
LINE
  5
BB37
330
BB04
100
AcDbEntity
  8
0
  6
CONTINUOUS
100
AcDbLine
 10
3.60832983563551
 20
5.205544789913063
 30
0.0
 11
2.596566649299935
 21
6.217307976248638
 31
0.0
  0
LINE
  5
BB38
330
BB04
100
AcDbEntity
  8
0
  6
CONTINUOUS
100
AcDbLine
 10
3.906418590481286
 20
5.580975244147473
 30
0.0
 11
2.894663213395203
 21
6.592730621233557
 31
0.0
  0
LINE
  5
BB39
330
BB04
100
AcDbEntity
  8
0
  6
CONTINUOUS
100
AcDbLine
 10
4.204507345327062
 20
5.956405698381884
 30
0.0
 11
3.192759777490472
 21
6.968153266218474
 31
0.0
  0
LINE
  5
BB3A
330
BB04
100
AcDbEntity
  8
0
  6
CONTINUOUS
100
AcDbLine
 10
8.466032252791512
 20
2.368399999997621
 30
0.0
 11
6.948921506593081
 21
3.885510746196053
 31
0.0
  0
LINE
  5
BB3B
330
BB04
100
AcDbEntity
  8
0
  6
CONTINUOUS
100
AcDbLine
 10
9.139551461871699
 20
2.36839999999762
 30
0.0
 11
7.157104084324816
 21
4.350847377544504
 31
0.0
  0
LINE
  5
BB3C
330
BB04
100
AcDbEntity
  8
0
  6
CONTINUOUS
100
AcDbLine
 10
4.502596100172839
 20
6.331836152616295
 30
0.0
 11
3.49085634158574
 21
7.343575911203393
 31
0.0
  0
LINE
  5
BB3D
330
BB04
100
AcDbEntity
  8
0
  6
CONTINUOUS
100
AcDbLine
 10
4.800684855018615
 20
6.707266606850705
 30
0.0
 11
3.788952905681008
 21
7.718998556188312
 31
0.0
  0
LINE
  5
BB3E
330
BB04
100
AcDbEntity
  8
0
  6
CONTINUOUS
100
AcDbLine
 10
12.18154012887317
 20
-0.0000694579236642
 30
0.0
 11
11.32140332908496
 21
0.8600673418645499
 31
0.0
  0
LINE
  5
BB3F
330
BB04
100
AcDbEntity
  8
0
  6
CONTINUOUS
100
AcDbLine
 10
12.85501608323566
 20
-0.0000262032059659
 30
0.0
 11
10.77672456435345
 21
2.078265315676246
 31
0.0
  0
LINE
  5
BB40
330
BB04
100
AcDbEntity
  8
0
  6
CONTINUOUS
100
AcDbLine
 10
9.813070670951886
 20
2.36839999999762
 30
0.0
 11
8.51047067095321
 21
3.670999999996297
 31
0.0
  0
LINE
  5
BB41
330
BB04
100
AcDbEntity
  8
0
  6
CONTINUOUS
100
AcDbLine
 10
10.48658988003207
 20
2.36839999999762
 30
0.0
 11
9.183989880033396
 21
3.670999999996297
 31
0.0
  0
LINE
  5
BB42
330
BB04
100
AcDbEntity
  8
0
  6
CONTINUOUS
100
AcDbLine
 10
8.441048632286794
 20
3.740422038662712
 30
0.0
 11
7.365286662056551
 21
4.816184008892956
 31
0.0
  0
LINE
  5
BB43
330
BB04
100
AcDbEntity
  8
0
  6
CONTINUOUS
100
AcDbLine
 10
8.649187485808454
 20
4.205802394221237
 30
0.0
 11
7.573469239788285
 21
5.281520640241407
 31
0.0
  0
LINE
  5
BB44
330
BB04
100
AcDbEntity
  8
0
  6
CONTINUOUS
100
AcDbLine
 10
5.098773609864391
 20
7.082697061085115
 30
0.0
 11
4.087049469776277
 21
8.09442120117323
 31
0.0
  0
LINE
  5
BB45
330
BB04
100
AcDbEntity
  8
0
  6
CONTINUOUS
100
AcDbLine
 10
5.396862364710167
 20
7.458127515319526
 30
0.0
 11
4.385146033871544
 21
8.469843846158149
 31
0.0
  0
LINE
  5
BB46
330
BB04
100
AcDbEntity
  8
0
  6
CONTINUOUS
100
AcDbLine
 10
13.04801363231285
 20
0.4804954567970334
 30
0.0
 11
9.85750908911358
 21
3.670999999996297
 31
0.0
  0
LINE
  5
BB47
330
BB04
100
AcDbEntity
  8
0
  6
CONTINUOUS
100
AcDbLine
 10
8.857326339330116
 20
4.671182749779763
 30
0.0
 11
7.781651817520021
 21
5.746857271589858
 31
0.0
  0
LINE
  5
BB48
330
BB04
100
AcDbEntity
  8
0
  6
CONTINUOUS
100
AcDbLine
 10
5.694951119555943
 20
7.833557969553937
 30
0.0
 11
4.765409089118624
 21
8.763099999991255
 31
0.0
  0
LINE
  5
BB49
330
BB04
100
AcDbEntity
  8
0
  6
CONTINUOUS
100
AcDbLine
 10
12.50286117236978
 20
1.699167125820288
 30
0.0
 11
9.68611877250287
 21
4.515909525687196
 31
0.0
  0
LINE
  5
BB4A
330
BB04
100
AcDbEntity
  8
0
  6
CONTINUOUS
100
AcDbLine
 10
9.065465192851777
 20
5.136563105338288
 30
0.0
 11
7.989834395251757
 21
6.21219390293831
 31
0.0
  0
LINE
  5
BB4B
330
BB04
100
AcDbEntity
  8
0
  6
CONTINUOUS
100
AcDbLine
 10
5.993039874401719
 20
8.208988423788346
 30
0.0
 11
5.43892829819881
 21
8.763099999991255
 31
0.0
  0
LINE
  5
BB4C
330
BB04
100
AcDbEntity
  8
0
  6
CONTINUOUS
100
AcDbLine
 10
11.95770871242671
 20
2.917838794843543
 30
0.0
 11
8.19801697298349
 21
6.677530534286761
 31
0.0
  0
LINE
  5
BB4D
330
BB04
100
AcDbEntity
  8
0
  6
CONTINUOUS
100
AcDbLine
 10
6.291128629247495
 20
8.584418878022756
 30
0.0
 11
6.112447507278997
 21
8.763099999991255
 31
0.0
  0
LINE
  5
BB4E
330
BB04
100
AcDbEntity
  8
0
  6
CONTINUOUS
100
AcDbLine
 10
11.41255625248364
 20
4.136510463866797
 30
0.0
 11
8.406199550715227
 21
7.142867165635211
 31
0.0
  0
LINE
  5
BB4F
330
BB04
100
AcDbEntity
  8
0
  6
CONTINUOUS
100
AcDbLine
 10
10.86740379254057
 20
5.355182132890051
 30
0.0
 11
8.614382128446962
 21
7.608203796983664
 31
0.0
  0
LINE
  5
BB50
330
BB04
100
AcDbEntity
  8
0
  6
CONTINUOUS
100
AcDbLine
 10
10.3222513325975
 20
6.573853801913305
 30
0.0
 11
8.822564706178696
 21
8.073540428332114
 31
0.0
  0
LINE
  5
BB51
330
BB04
100
AcDbEntity
  8
0
  6
CONTINUOUS
100
AcDbLine
 10
9.777098872654436
 20
7.792525470936562
 30
0.0
 11
9.030747283910433
 21
8.538877059680566
 31
0.0
  0
ENDBLK
  5
BC93
330
BB04
100
AcDbEntity
  8
0
100
AcDbBlockEnd
  0
BLOCK
  5
BC94
330
BB52
100
AcDbEntity
  8
0
100
AcDbBlockBegin
  2
*X170
 70
     1
 10
0.0
 20
0.0
 30
0.0
  3
*X170
  1

  0
LINE
  5
BB53
330
BB52
100
AcDbEntity
  8
0
  6
CONTINUOUS
100
AcDbLine
 10
10.67292308101235
 20
8.445076852443387
 30
0.0
 11
10.99094622856022
 21
8.763099999991255
 31
0.0
  0
LINE
  5
BB54
330
BB52
100
AcDbEntity
  8
0
  6
CONTINUOUS
100
AcDbLine
 10
10.87250383178748
 20
7.971138394138331
 30
0.0
 11
11.6644654376404
 21
8.763099999991255
 31
0.0
  0
LINE
  5
BB55
330
BB52
100
AcDbEntity
  8
0
  6
CONTINUOUS
100
AcDbLine
 10
11.07208458256261
 20
7.497199935833273
 30
0.0
 11
12.12126590876355
 21
8.546381262034211
 31
0.0
  0
LINE
  5
BB56
330
BB52
100
AcDbEntity
  8
0
  6
CONTINUOUS
100
AcDbLine
 10
11.27166533333774
 20
7.023261477528216
 30
0.0
 11
12.32085164573666
 21
8.072447789927136
 31
0.0
  0
LINE
  5
BB57
330
BB52
100
AcDbEntity
  8
0
  6
CONTINUOUS
100
AcDbLine
 10
11.47124608411287
 20
6.549323019223158
 30
0.0
 11
12.52043738270977
 21
7.59851431782006
 31
0.0
  0
LINE
  5
BB58
330
BB52
100
AcDbEntity
  8
0
  6
CONTINUOUS
100
AcDbLine
 10
11.670826834888
 20
6.075384560918101
 30
0.0
 11
12.72002311968288
 21
7.124580845712984
 31
0.0
  0
LINE
  5
BB59
330
BB52
100
AcDbEntity
  8
0
  6
CONTINUOUS
100
AcDbLine
 10
11.87040758566313
 20
5.601446102613043
 30
0.0
 11
12.91960885665599
 21
6.650647373605907
 31
0.0
  0
LINE
  5
BB5A
330
BB52
100
AcDbEntity
  8
0
  6
CONTINUOUS
100
AcDbLine
 10
12.06998833643825
 20
5.127507644307986
 30
0.0
 11
13.1191945936291
 21
6.176713901498832
 31
0.0
  0
LINE
  5
BB5B
330
BB52
100
AcDbEntity
  8
0
  6
CONTINUOUS
100
AcDbLine
 10
12.26956908721338
 20
4.65356918600293
 30
0.0
 11
13.31878033060221
 21
5.702780429391757
 31
0.0
  0
LINE
  5
BB5C
330
BB52
100
AcDbEntity
  8
0
  6
CONTINUOUS
100
AcDbLine
 10
12.46914983798851
 20
4.179630727697873
 30
0.0
 11
13.51836606757532
 21
5.228846957284683
 31
0.0
  0
LINE
  5
BB5D
330
BB52
100
AcDbEntity
  8
0
  6
CONTINUOUS
100
AcDbLine
 10
12.66873058876364
 20
3.705692269392816
 30
0.0
 11
13.71795180454843
 21
4.754913485177607
 31
0.0
  0
LINE
  5
BB5E
330
BB52
100
AcDbEntity
  8
0
  6
CONTINUOUS
100
AcDbLine
 10
12.86831133953877
 20
3.231753811087759
 30
0.0
 11
13.91753754152154
 21
4.280980013070531
 31
0.0
  0
LINE
  5
BB5F
330
BB52
100
AcDbEntity
  8
0
  6
CONTINUOUS
100
AcDbLine
 10
13.0678920903139
 20
2.757815352782702
 30
0.0
 11
14.11712327849465
 21
3.807046540963456
 31
0.0
  0
LINE
  5
BB60
330
BB52
100
AcDbEntity
  8
0
  6
CONTINUOUS
100
AcDbLine
 10
13.26747284108903
 20
2.283876894477644
 30
0.0
 11
14.31670901546777
 21
3.333113068856379
 31
0.0
  0
LINE
  5
BB61
330
BB52
100
AcDbEntity
  8
0
  6
CONTINUOUS
100
AcDbLine
 10
16.36767838827179
 20
8.751678487061342
 30
0.0
 11
16.50332410898388
 21
8.887324207773432
 31
0.0
  0
LINE
  5
BB62
330
BB52
100
AcDbEntity
  8
0
  6
CONTINUOUS
100
AcDbLine
 10
15.96190732182191
 20
7.67238821153127
 30
0.0
 11
16.68735328004734
 21
8.397834169756699
 31
0.0
  0
LINE
  5
BB63
330
BB52
100
AcDbEntity
  8
0
  6
CONTINUOUS
100
AcDbLine
 10
15.55613625537202
 20
6.593097936001196
 30
0.0
 11
16.87138245111079
 21
7.908344131739965
 31
0.0
  0
LINE
  5
BB64
330
BB52
100
AcDbEntity
  8
0
  6
CONTINUOUS
100
AcDbLine
 10
15.15036518892213
 20
5.513807660471122
 30
0.0
 11
17.05541162217424
 21
7.418854093723231
 31
0.0
  0
LINE
  5
BB65
330
BB52
100
AcDbEntity
  8
0
  6
CONTINUOUS
100
AcDbLine
 10
14.74459412247225
 20
4.434517384941048
 30
0.0
 11
17.2394407932377
 21
6.929364055706499
 31
0.0
  0
LINE
  5
BB66
330
BB52
100
AcDbEntity
  8
0
  6
CONTINUOUS
100
AcDbLine
 10
14.33882305602236
 20
3.355227109410975
 30
0.0
 11
17.42346996430115
 21
6.439874017689766
 31
0.0
  0
LINE
  5
BB67
330
BB52
100
AcDbEntity
  8
0
  6
CONTINUOUS
100
AcDbLine
 10
13.46705359186416
 20
1.809938436172586
 30
0.0
 11
16.0819338255367
 21
4.424818669845129
 31
0.0
  0
LINE
  5
BB68
330
BB52
100
AcDbEntity
  8
0
  6
CONTINUOUS
100
AcDbLine
 10
16.63283254238972
 20
4.975717386698149
 30
0.0
 11
17.60749913536461
 21
5.950383979673033
 31
0.0
  0
LINE
  5
BB69
330
BB52
100
AcDbEntity
  8
0
  6
CONTINUOUS
100
AcDbLine
 10
13.66663434263929
 20
1.335999977867529
 30
0.0
 11
15.67604797733754
 21
3.345413612565779
 31
0.0
  0
LINE
  5
BB6A
330
BB52
100
AcDbEntity
  8
0
  6
CONTINUOUS
100
AcDbLine
 10
13.86621509341442
 20
0.8620615195624723
 30
0.0
 11
15.27016212913838
 21
2.26600855528643
 31
0.0
  0
LINE
  5
BB6B
330
BB52
100
AcDbEntity
  8
0
  6
CONTINUOUS
100
AcDbLine
 10
16.81682257348267
 20
4.486188208710908
 30
0.0
 11
17.79152830642806
 21
5.460893941656299
 31
0.0
  0
LINE
  5
BB6C
330
BB52
100
AcDbEntity
  8
0
  6
CONTINUOUS
100
AcDbLine
 10
17.00081260457561
 20
3.996659030723667
 30
0.0
 11
17.97555747749151
 21
4.971403903639565
 31
0.0
  0
LINE
  5
BB6D
330
BB52
100
AcDbEntity
  8
0
  6
CONTINUOUS
100
AcDbLine
 10
20.74362343514722
 20
8.412989070375462
 30
0.0
 11
21.09373436476302
 21
8.763099999991256
 31
0.0
  0
LINE
  5
BB6E
330
BB52
100
AcDbEntity
  8
0
  6
CONTINUOUS
100
AcDbLine
 10
20.25401257174777
 20
7.249858997895826
 30
0.0
 11
21.7672535738432
 21
8.763099999991255
 31
0.0
  0
LINE
  5
BB6F
330
BB52
100
AcDbEntity
  8
0
  6
CONTINUOUS
100
AcDbLine
 10
14.06579584418955
 20
0.3881230612574149
 30
0.0
 11
14.86427628093921
 21
1.186603498007082
 31
0.0
  0
LINE
  5
BB70
330
BB52
100
AcDbEntity
  8
0
  6
CONTINUOUS
100
AcDbLine
 10
14.26537659496467
 20
-0.0858153970476412
 30
0.0
 11
14.45839043274005
 21
0.1071984407277329
 31
0.0
  0
LINE
  5
BB71
330
BB52
100
AcDbEntity
  8
0
  6
CONTINUOUS
100
AcDbLine
 10
17.18480263566856
 20
3.507129852736426
 30
0.0
 11
18.15958664855496
 21
4.481913865622833
 31
0.0
  0
LINE
  5
BB72
330
BB52
100
AcDbEntity
  8
0
  6
CONTINUOUS
100
AcDbLine
 10
17.3687926667615
 20
3.017600674749186
 30
0.0
 11
18.34361581961842
 21
3.9924238276061
 31
0.0
  0
LINE
  5
BB73
330
BB52
100
AcDbEntity
  8
0
  6
CONTINUOUS
100
AcDbLine
 10
19.76440170834832
 20
6.086728925416191
 30
0.0
 11
22.33924590259489
 21
8.661573119662755
 31
0.0
  0
LINE
  5
BB74
330
BB52
100
AcDbEntity
  8
0
  6
CONTINUOUS
100
AcDbLine
 10
19.27479084494887
 20
4.923598852936555
 30
0.0
 11
21.84929622842713
 21
7.498104236414807
 31
0.0
  0
LINE
  5
BB75
330
BB52
100
AcDbEntity
  8
0
  6
CONTINUOUS
100
AcDbLine
 10
17.55278269785445
 20
2.528071496761945
 30
0.0
 11
18.52764499068187
 21
3.502933789589366
 31
0.0
  0
LINE
  5
BB76
330
BB52
100
AcDbEntity
  8
0
  6
CONTINUOUS
100
AcDbLine
 10
18.78517998154942
 20
3.760468780456919
 30
0.0
 11
21.35934655425936
 21
6.33463535316686
 31
0.0
  0
LINE
  5
BB77
330
BB52
100
AcDbEntity
  8
0
  6
CONTINUOUS
100
AcDbLine
 10
17.73677272894739
 20
2.038542318774704
 30
0.0
 11
20.8693968800916
 21
5.171166469918914
 31
0.0
  0
LINE
  5
BB78
330
BB52
100
AcDbEntity
  8
0
  6
CONTINUOUS
100
AcDbLine
 10
17.92076276004034
 20
1.549013140787464
 30
0.0
 11
20.37944720592384
 21
4.007697586670968
 31
0.0
  0
LINE
  5
BB79
330
BB52
100
AcDbEntity
  8
0
  6
CONTINUOUS
100
AcDbLine
 10
18.10475279113329
 20
1.059483962800223
 30
0.0
 11
19.88949753175608
 21
2.84422870342302
 31
0.0
  0
LINE
  5
BB7A
330
BB52
100
AcDbEntity
  8
0
  6
CONTINUOUS
100
AcDbLine
 10
18.28874282222623
 20
0.5699547848129822
 30
0.0
 11
19.39954785758832
 21
1.680759820175074
 31
0.0
  0
LINE
  5
BB7B
330
BB52
100
AcDbEntity
  8
0
  6
CONTINUOUS
100
AcDbLine
 10
18.47273285331918
 20
0.0804256068257416
 30
0.0
 11
18.90959818342056
 21
0.517290936927127
 31
0.0
  0
LINE
  5
BB7C
330
BB52
100
AcDbEntity
  8
0
  6
CONTINUOUS
100
AcDbLine
 10
14.3590401358224
 20
-0.1570118376323384
 30
0.0
 11
14.24903296539946
 21
-0.0470046672093929
 31
0.0
  0
LINE
  5
BB7D
330
BB52
100
AcDbEntity
  8
0
  6
CONTINUOUS
100
AcDbLine
 10
14.54309291258661
 20
0.332454594683643
 30
0.0
 11
13.75908329123172
 21
1.116464216038529
 31
0.0
  0
LINE
  5
BB7E
330
BB52
100
AcDbEntity
  8
0
  6
CONTINUOUS
100
AcDbLine
 10
14.72714568935081
 20
0.8219210269996244
 30
0.0
 11
13.26913361706399
 21
2.27993309928645
 31
0.0
  0
LINE
  5
BB7F
330
BB52
100
AcDbEntity
  8
0
  6
CONTINUOUS
100
AcDbLine
 10
14.91119846611502
 20
1.311387459315606
 30
0.0
 11
12.77918394289625
 21
3.443401982534371
 31
0.0
  0
LINE
  5
BB80
330
BB52
100
AcDbEntity
  8
0
  6
CONTINUOUS
100
AcDbLine
 10
15.09525124287922
 20
1.800853891631587
 30
0.0
 11
12.28923426872852
 21
4.606870865782293
 31
0.0
  0
LINE
  5
BB81
330
BB52
100
AcDbEntity
  8
0
  6
CONTINUOUS
100
AcDbLine
 10
15.27930401964343
 20
2.290320323947569
 30
0.0
 11
11.79928459456078
 21
5.770339749030213
 31
0.0
  0
LINE
  5
BB82
330
BB52
100
AcDbEntity
  8
0
  6
CONTINUOUS
100
AcDbLine
 10
15.46335679640763
 20
2.77978675626355
 30
0.0
 11
14.48885470994921
 21
3.754288842721972
 31
0.0
  0
LINE
  5
BB83
330
BB52
100
AcDbEntity
  8
0
  6
CONTINUOUS
100
AcDbLine
 10
13.88507249233704
 20
4.358071060334137
 30
0.0
 11
11.30933492039305
 21
6.933808632278135
 31
0.0
  0
LINE
  5
BB84
330
BB52
100
AcDbEntity
  8
0
  6
CONTINUOUS
100
AcDbLine
 10
18.75840522805855
 20
0.1582575336928151
 30
0.0
 11
18.25383727664818
 21
0.6628254851031863
 31
0.0
  0
LINE
  5
BB85
330
BB52
100
AcDbEntity
  8
0
  6
CONTINUOUS
100
AcDbLine
 10
15.64740957317184
 20
3.269253188579531
 30
0.0
 11
14.67288388101266
 21
4.243778880738705
 31
0.0
  0
LINE
  5
BB86
330
BB52
100
AcDbEntity
  8
0
  6
CONTINUOUS
100
AcDbLine
 10
13.39509276772158
 20
5.521569994029786
 30
0.0
 11
10.81938524622531
 21
8.097277515526056
 31
0.0
  0
LINE
  5
BB87
330
BB52
100
AcDbEntity
  8
0
  6
CONTINUOUS
100
AcDbLine
 10
18.95798597883369
 20
0.6321959919978686
 30
0.0
 11
17.84825644852853
 21
1.741925522303024
 31
0.0
  0
LINE
  5
BB88
330
BB52
100
AcDbEntity
  8
0
  6
CONTINUOUS
100
AcDbLine
 10
19.15756672960882
 20
1.106134450302922
 30
0.0
 11
17.44267562040888
 21
2.821025559502861
 31
0.0
  0
LINE
  5
BB89
330
BB52
100
AcDbEntity
  8
0
  6
CONTINUOUS
100
AcDbLine
 10
15.83146234993604
 20
3.758719620895513
 30
0.0
 11
14.85691305207612
 21
4.733268918755439
 31
0.0
  0
LINE
  5
BB8A
330
BB52
100
AcDbEntity
  8
0
  6
CONTINUOUS
100
AcDbLine
 10
16.01551512670025
 20
4.248186053211494
 30
0.0
 11
15.04094222313957
 21
5.222758956772172
 31
0.0
  0
LINE
  5
BB8B
330
BB52
100
AcDbEntity
  8
0
  6
CONTINUOUS
100
AcDbLine
 10
12.90511304310612
 20
6.685068927725435
 30
0.0
 11
10.8270819708403
 21
8.763099999991255
 31
0.0
  0
LINE
  5
BB8C
330
BB52
100
AcDbEntity
  8
0
  6
CONTINUOUS
100
AcDbLine
 10
12.41513331849066
 20
7.848567861421083
 30
0.0
 11
11.50060117992049
 21
8.763099999991255
 31
0.0
  0
LINE
  5
BB8D
330
BB52
100
AcDbEntity
  8
0
  6
CONTINUOUS
100
AcDbLine
 10
19.35714748038395
 20
1.580072908607975
 30
0.0
 11
17.03709479228923
 21
3.900125596702697
 31
0.0
  0
LINE
  5
BB8E
330
BB52
100
AcDbEntity
  8
0
  6
CONTINUOUS
100
AcDbLine
 10
19.55672823115909
 20
2.054011366913028
 30
0.0
 11
16.63151396416958
 21
4.979225633902534
 31
0.0
  0
LINE
  5
BB8F
330
BB52
100
AcDbEntity
  8
0
  6
CONTINUOUS
100
AcDbLine
 10
16.19956790346445
 20
4.737652485527476
 30
0.0
 11
15.22497139420302
 21
5.712248994788904
 31
0.0
  0
LINE
  5
BB90
330
BB52
100
AcDbEntity
  8
0
  6
CONTINUOUS
100
AcDbLine
 10
16.38362068022866
 20
5.227118917843457
 30
0.0
 11
15.40900056526648
 21
6.201739032805637
 31
0.0
  0
LINE
  5
BB91
330
BB52
100
AcDbEntity
  8
0
  6
CONTINUOUS
100
AcDbLine
 10
19.75630898193422
 20
2.527949825218081
 30
0.0
 11
18.70774536448286
 21
3.576513442669441
 31
0.0
  0
LINE
  5
BB92
330
BB52
100
AcDbEntity
  8
0
  6
CONTINUOUS
100
AcDbLine
 10
19.95588973270936
 20
3.001888283523134
 30
0.0
 11
18.90726987211446
 21
4.050508144118028
 31
0.0
  0
LINE
  5
BB93
330
BB52
100
AcDbEntity
  8
0
  6
CONTINUOUS
100
AcDbLine
 10
20.15547048348449
 20
3.475826741828186
 30
0.0
 11
19.10679437974606
 21
4.524502845566614
 31
0.0
  0
LINE
  5
BB94
330
BB52
100
AcDbEntity
  8
0
  6
CONTINUOUS
100
AcDbLine
 10
20.35505123425962
 20
3.94976520013324
 30
0.0
 11
19.30631888737766
 21
4.998497547015201
 31
0.0
  0
LINE
  5
BB95
330
BB52
100
AcDbEntity
  8
0
  6
CONTINUOUS
100
AcDbLine
 10
20.55463198503475
 20
4.423703658438292
 30
0.0
 11
19.50584339500926
 21
5.472492248463787
 31
0.0
  0
LINE
  5
BB96
330
BB52
100
AcDbEntity
  8
0
  6
CONTINUOUS
100
AcDbLine
 10
18.37481191085755
 20
3.909446896294752
 30
0.0
 11
15.59302973632993
 21
6.691229070822371
 31
0.0
  0
LINE
  5
BB97
330
BB52
100
AcDbEntity
  8
0
  6
CONTINUOUS
100
AcDbLine
 10
17.96904084440766
 20
4.988737171824825
 30
0.0
 11
15.77705890739338
 21
7.180719108839104
 31
0.0
  0
LINE
  5
BB98
330
BB52
100
AcDbEntity
  8
0
  6
CONTINUOUS
100
AcDbLine
 10
17.56326977795777
 20
6.068027447354899
 30
0.0
 11
15.96108807845684
 21
7.670209146855838
 31
0.0
  0
LINE
  5
BB99
330
BB52
100
AcDbEntity
  8
0
  6
CONTINUOUS
100
AcDbLine
 10
17.15749871150789
 20
7.147317722884972
 30
0.0
 11
16.14511724952029
 21
8.15969918487257
 31
0.0
  0
LINE
  5
BB9A
330
BB52
100
AcDbEntity
  8
0
  6
CONTINUOUS
100
AcDbLine
 10
16.751727645058
 20
8.226607998415046
 30
0.0
 11
16.32914642058374
 21
8.649189222889303
 31
0.0
  0
LINE
  5
BB9B
330
BB52
100
AcDbEntity
  8
0
  6
CONTINUOUS
100
AcDbLine
 10
20.75421273580989
 20
4.897642116743345
 30
0.0
 11
19.70536790264086
 21
5.946486949912374
 31
0.0
  0
LINE
  5
BB9C
330
BB52
100
AcDbEntity
  8
0
  6
CONTINUOUS
100
AcDbLine
 10
20.95379348658502
 20
5.371580575048398
 30
0.0
 11
19.90489241027246
 21
6.42048165136096
 31
0.0
  0
LINE
  5
BB9D
330
BB52
100
AcDbEntity
  8
0
  6
CONTINUOUS
100
AcDbLine
 10
21.15337423736015
 20
5.845519033353452
 30
0.0
 11
20.10441691790406
 21
6.894476352809547
 31
0.0
  0
LINE
  5
BB9E
330
BB52
100
AcDbEntity
  8
0
  6
CONTINUOUS
100
AcDbLine
 10
21.35295498813529
 20
6.319457491658505
 30
0.0
 11
20.30394142553566
 21
7.368471054258134
 31
0.0
  0
LINE
  5
BB9F
330
BB52
100
AcDbEntity
  8
0
  6
CONTINUOUS
100
AcDbLine
 10
21.55253573891042
 20
6.793395949963558
 30
0.0
 11
20.50346593316726
 21
7.842465755706721
 31
0.0
  0
LINE
  5
BBA0
330
BB52
100
AcDbEntity
  8
0
  6
CONTINUOUS
100
AcDbLine
 10
21.75211648968556
 20
7.267334408268612
 30
0.0
 11
20.70299044079886
 21
8.316460457155308
 31
0.0
  0
LINE
  5
BBA1
330
BB52
100
AcDbEntity
  8
0
  6
CONTINUOUS
100
AcDbLine
 10
21.95169724046069
 20
7.741272866573663
 30
0.0
 11
20.9298701070431
 21
8.763099999991256
 31
0.0
  0
LINE
  5
BBA2
330
BB52
100
AcDbEntity
  8
0
  6
CONTINUOUS
100
AcDbLine
 10
22.15127799123582
 20
8.215211324878716
 30
0.0
 11
21.60338931612328
 21
8.763099999991256
 31
0.0
  0
LINE
  5
BBA3
330
BB52
100
AcDbEntity
  8
0
  6
CONTINUOUS
100
AcDbLine
 10
22.35085874201096
 20
8.689149783183769
 30
0.0
 11
22.27690852520347
 21
8.763099999991255
 31
0.0
  0
ENDBLK
  5
BC95
330
BB52
100
AcDbEntity
  8
0
100
AcDbBlockEnd
  0
BLOCK
  5
BC96
330
BBA4
100
AcDbEntity
  8
0
100
AcDbBlockBegin
  2
*X171
 70
     1
 10
0.0
 20
0.0
 30
0.0
  3
*X171
  1

  0
LINE
  5
BBA5
330
BBA4
100
AcDbEntity
  8
0
  6
CONTINUOUS
100
AcDbLine
 10
23.19462913593892
 20
8.169917934846424
 30
0.0
 11
23.70775465517246
 21
8.683043454079957
 31
0.0
  0
LINE
  5
BBA6
330
BBA4
100
AcDbEntity
  8
0
  6
CONTINUOUS
100
AcDbLine
 10
22.64923161835078
 20
6.951001208178088
 30
0.0
 11
23.9159364069932
 21
8.217705996820516
 31
0.0
  0
LINE
  5
BBA7
330
BBA4
100
AcDbEntity
  8
0
  6
CONTINUOUS
100
AcDbLine
 10
22.10383410076263
 20
5.732084481509751
 30
0.0
 11
24.12411815881395
 21
7.752368539561078
 31
0.0
  0
LINE
  5
BBA8
330
BBA4
100
AcDbEntity
  8
0
  6
CONTINUOUS
100
AcDbLine
 10
21.55843658317447
 20
4.513167754841414
 30
0.0
 11
24.3322999106347
 21
7.287031082301639
 31
0.0
  0
LINE
  5
BBA9
330
BBA4
100
AcDbEntity
  8
0
  6
CONTINUOUS
100
AcDbLine
 10
21.01303906558632
 20
3.294251028173077
 30
0.0
 11
24.54048166245544
 21
6.821693625042199
 31
0.0
  0
LINE
  5
BBAA
330
BBA4
100
AcDbEntity
  8
0
  6
CONTINUOUS
100
AcDbLine
 10
20.46764154799817
 20
2.075334301504738
 30
0.0
 11
23.28571549467848
 21
4.89340824818505
 31
0.0
  0
LINE
  5
BBAB
330
BBA4
100
AcDbEntity
  8
0
  6
CONTINUOUS
100
AcDbLine
 10
19.92224403041002
 20
0.8564175748364002
 30
0.0
 11
22.74075865492779
 21
3.674932199354171
 31
0.0
  0
LINE
  5
BBAC
330
BBA4
100
AcDbEntity
  8
0
  6
CONTINUOUS
100
AcDbLine
 10
23.67305085490148
 20
5.280743608408048
 30
0.0
 11
24.74866341427619
 21
6.356356167782759
 31
0.0
  0
LINE
  5
BBAD
330
BBA4
100
AcDbEntity
  8
0
  6
CONTINUOUS
100
AcDbLine
 10
23.88118970842314
 20
4.815363252849522
 30
0.0
 11
24.95684516609694
 21
5.89101871052332
 31
0.0
  0
LINE
  5
BBAE
330
BBA4
100
AcDbEntity
  8
0
  6
CONTINUOUS
100
AcDbLine
 10
19.73925852647308
 20
-0.0000871381807288
 30
0.0
 11
23.4103456646501
 21
3.670999999996297
 31
0.0
  0
LINE
  5
BBAF
330
BBA4
100
AcDbEntity
  8
0
  6
CONTINUOUS
100
AcDbLine
 10
24.0893285619448
 20
4.349982897290997
 30
0.0
 11
25.16502691791769
 21
5.42568125326388
 31
0.0
  0
LINE
  5
BBB0
330
BBA4
100
AcDbEntity
  8
0
  6
CONTINUOUS
100
AcDbLine
 10
20.41282099582748
 20
-0.0000438779065108
 30
0.0
 11
21.64944178675636
 21
1.236576913022366
 31
0.0
  0
LINE
  5
BBB1
330
BBA4
100
AcDbEntity
  8
0
  6
CONTINUOUS
100
AcDbLine
 10
22.78126487373161
 20
2.36839999999762
 30
0.0
 11
24.08386487373029
 21
3.670999999996297
 31
0.0
  0
LINE
  5
BBB2
330
BBA4
100
AcDbEntity
  8
0
  6
CONTINUOUS
100
AcDbLine
 10
24.29746741546646
 20
3.884602541732471
 30
0.0
 11
25.37320866973843
 21
4.960343796004441
 31
0.0
  0
LINE
  5
BBB3
330
BBA4
100
AcDbEntity
  8
0
  6
CONTINUOUS
100
AcDbLine
 10
21.08638346518189
 20
-0.0000006176322938
 30
0.0
 11
21.10379033335899
 21
0.0174062505448083
 31
0.0
  0
LINE
  5
BBB4
330
BBA4
100
AcDbEntity
  8
0
  6
CONTINUOUS
100
AcDbLine
 10
23.4547840828118
 20
2.36839999999762
 30
0.0
 11
25.58139042155918
 21
4.495006338745002
 31
0.0
  0
LINE
  5
BBB5
330
BBA4
100
AcDbEntity
  8
0
  6
CONTINUOUS
100
AcDbLine
 10
29.30199999996933
 20
8.215615917155148
 30
0.0
 11
29.84948408280543
 21
8.763099999991255
 31
0.0
  0
LINE
  5
BBB6
330
BBA4
100
AcDbEntity
  8
0
  6
CONTINUOUS
100
AcDbLine
 10
24.12830329189199
 20
2.36839999999762
 30
0.0
 11
25.78957217337993
 21
4.029668881485562
 31
0.0
  0
LINE
  5
BBB7
330
BBA4
100
AcDbEntity
  8
0
  6
CONTINUOUS
100
AcDbLine
 10
29.30199999996933
 20
7.54209670807496
 30
0.0
 11
30.52300329188562
 21
8.763099999991255
 31
0.0
  0
LINE
  5
BBB8
330
BBA4
100
AcDbEntity
  8
0
  6
CONTINUOUS
100
AcDbLine
 10
24.80182250097217
 20
2.36839999999762
 30
0.0
 11
25.99775392520067
 21
3.564331424226122
 31
0.0
  0
LINE
  5
BBB9
330
BBA4
100
AcDbEntity
  8
0
  6
CONTINUOUS
100
AcDbLine
 10
29.30199999996933
 20
6.868577498994774
 30
0.0
 11
30.74199999996926
 21
8.308577498994712
 31
0.0
  0
LINE
  5
BBBA
330
BBA4
100
AcDbEntity
  8
0
  6
CONTINUOUS
100
AcDbLine
 10
25.13028238392013
 20
2.023340673865392
 30
0.0
 11
26.20593567702142
 21
3.098993966966683
 31
0.0
  0
LINE
  5
BBBB
330
BBA4
100
AcDbEntity
  8
0
  6
CONTINUOUS
100
AcDbLine
 10
25.33838066033617
 20
1.557919741201244
 30
0.0
 11
26.41411742884217
 21
2.633656509707244
 31
0.0
  0
LINE
  5
BBBC
330
BBA4
100
AcDbEntity
  8
0
  6
CONTINUOUS
100
AcDbLine
 10
25.54647893675221
 20
1.092498808537098
 30
0.0
 11
26.62229918066291
 21
2.168319052447804
 31
0.0
  0
LINE
  5
BBBD
330
BBA4
100
AcDbEntity
  8
0
  6
CONTINUOUS
100
AcDbLine
 10
25.75457721316825
 20
0.62707787587295
 30
0.0
 11
26.83048093248366
 21
1.702981595188365
 31
0.0
  0
LINE
  5
BBBE
330
BBA4
100
AcDbEntity
  8
0
  6
CONTINUOUS
100
AcDbLine
 10
29.30199999996933
 20
6.195058289914587
 30
0.0
 11
30.74199999996926
 21
7.635058289914522
 31
0.0
  0
LINE
  5
BBBF
330
BBA4
100
AcDbEntity
  8
0
  6
CONTINUOUS
100
AcDbLine
 10
29.30199999996933
 20
5.521539080834401
 30
0.0
 11
30.74199999996926
 21
6.961539080834331
 31
0.0
  0
LINE
  5
BBC0
330
BBA4
100
AcDbEntity
  8
0
  6
CONTINUOUS
100
AcDbLine
 10
29.30199999996933
 20
4.848019871754214
 30
0.0
 11
30.74199999996925
 21
6.288019871754143
 31
0.0
  0
LINE
  5
BBC1
330
BBA4
100
AcDbEntity
  8
0
  6
CONTINUOUS
100
AcDbLine
 10
29.30199999996933
 20
4.174500662674028
 30
0.0
 11
30.74199999996925
 21
5.614500662673953
 31
0.0
  0
LINE
  5
BBC2
330
BBA4
100
AcDbEntity
  8
0
  6
CONTINUOUS
100
AcDbLine
 10
25.96267548958429
 20
0.1616569432088024
 30
0.0
 11
27.18411854636669
 21
1.383099999991207
 31
0.0
  0
LINE
  5
BBC3
330
BBA4
100
AcDbEntity
  8
0
  6
CONTINUOUS
100
AcDbLine
 10
29.30199999996933
 20
3.500981453593841
 30
0.0
 11
30.74199999996925
 21
4.940981453593762
 31
0.0
  0
LINE
  5
BBC4
330
BBA4
100
AcDbEntity
  8
0
  6
CONTINUOUS
100
AcDbLine
 10
26.50763775544691
 20
0.0330999999912356
 30
0.0
 11
27.85763775544689
 21
1.383099999991223
 31
0.0
  0
LINE
  5
BBC5
330
BBA4
100
AcDbEntity
  8
0
  6
CONTINUOUS
100
AcDbLine
 10
29.30199999996933
 20
2.827462244513656
 30
0.0
 11
30.74199999996925
 21
4.267462244513574
 31
0.0
  0
LINE
  5
BBC6
330
BBA4
100
AcDbEntity
  8
0
  6
CONTINUOUS
100
AcDbLine
 10
27.18115696452709
 20
0.0330999999912356
 30
0.0
 11
28.55073879889363
 21
1.402681834357775
 31
0.0
  0
LINE
  5
BBC7
330
BBA4
100
AcDbEntity
  8
0
  6
CONTINUOUS
100
AcDbLine
 10
29.28241816560272
 20
2.134361201066866
 30
0.0
 11
30.74199999996924
 21
3.593943035433383
 31
0.0
  0
LINE
  5
BBC8
330
BBA4
100
AcDbEntity
  8
0
  6
CONTINUOUS
100
AcDbLine
 10
27.85467617360728
 20
0.0330999999912356
 30
0.0
 11
30.74199999996924
 21
2.920423826353195
 31
0.0
  0
LINE
  5
BBC9
330
BBA4
100
AcDbEntity
  8
0
  6
CONTINUOUS
100
AcDbLine
 10
28.53897559587887
 20
0.0438802131826428
 30
0.0
 11
30.73121978677781
 21
2.236124404081585
 31
0.0
  0
LINE
  5
BBCA
330
BBA4
100
AcDbEntity
  8
0
  6
CONTINUOUS
100
AcDbLine
 10
29.45140055588722
 20
0.2827859641107988
 30
0.0
 11
30.49231403584965
 21
1.323699444073236
 31
0.0
  0
LINE
  5
BBCB
330
BBA4
100
AcDbEntity
  8
0
  6
CONTINUOUS
100
AcDbLine
 10
19.59027867740337
 20
-0.0000967065718083
 30
0.0
 11
19.55485265190471
 21
0.035329318926844
 31
0.0
  0
LINE
  5
BBCC
330
BBA4
100
AcDbEntity
  8
0
  6
CONTINUOUS
100
AcDbLine
 10
20.26375463176586
 20
-0.0000534518541091
 30
0.0
 11
19.76305575737534
 21
0.5006454225364014
 31
0.0
  0
LINE
  5
BBCD
330
BBA4
100
AcDbEntity
  8
0
  6
CONTINUOUS
100
AcDbLine
 10
20.93723058612834
 20
-0.0000101971364099
 30
0.0
 11
19.97125886284597
 21
0.965961526145958
 31
0.0
  0
LINE
  5
BBCE
330
BBA4
100
AcDbEntity
  8
0
  6
CONTINUOUS
100
AcDbLine
 10
21.25514828313686
 20
0.355591314935257
 30
0.0
 11
20.1794619683166
 21
1.431277629755512
 31
0.0
  0
LINE
  5
BBCF
330
BBA4
100
AcDbEntity
  8
0
  6
CONTINUOUS
100
AcDbLine
 10
21.46338838394921
 20
0.8208704232030986
 30
0.0
 11
20.38766507378723
 21
1.896593733365069
 31
0.0
  0
LINE
  5
BBD0
330
BBA4
100
AcDbEntity
  8
0
  6
CONTINUOUS
100
AcDbLine
 10
21.67162848476155
 20
1.28614953147094
 30
0.0
 11
20.59586817925786
 21
2.361909836974626
 31
0.0
  0
LINE
  5
BBD1
330
BBA4
100
AcDbEntity
  8
0
  6
CONTINUOUS
100
AcDbLine
 10
21.8798685855739
 20
1.751428639738782
 30
0.0
 11
20.80407128472849
 21
2.827225940584183
 31
0.0
  0
LINE
  5
BBD2
330
BBA4
100
AcDbEntity
  8
0
  6
CONTINUOUS
100
AcDbLine
 10
22.08810868638624
 20
2.216707748006623
 30
0.0
 11
21.01227439019912
 21
3.292542044193739
 31
0.0
  0
LINE
  5
BBD3
330
BBA4
100
AcDbEntity
  8
0
  6
CONTINUOUS
100
AcDbLine
 10
22.60993564347543
 20
2.36839999999762
 30
0.0
 11
21.22047749566975
 21
3.757858147803296
 31
0.0
  0
LINE
  5
BBD4
330
BBA4
100
AcDbEntity
  8
0
  6
CONTINUOUS
100
AcDbLine
 10
23.28345485255561
 20
2.36839999999762
 30
0.0
 11
21.42868060114038
 21
4.223174251412853
 31
0.0
  0
LINE
  5
BBD5
330
BBA4
100
AcDbEntity
  8
0
  6
CONTINUOUS
100
AcDbLine
 10
26.29227406164219
 20
0.0330999999912356
 30
0.0
 11
25.80009199592872
 21
0.5252820657046957
 31
0.0
  0
LINE
  5
BBD6
330
BBA4
100
AcDbEntity
  8
0
  6
CONTINUOUS
100
AcDbLine
 10
23.9569740616358
 20
2.36839999999762
 30
0.0
 11
21.63688370661101
 21
4.688490355022409
 31
0.0
  0
LINE
  5
BBD7
330
BBA4
100
AcDbEntity
  8
0
  6
CONTINUOUS
100
AcDbLine
 10
26.96579327072237
 20
0.0330999999912356
 30
0.0
 11
25.2554132311971
 21
1.743480039516508
 31
0.0
  0
LINE
  5
BBD8
330
BBA4
100
AcDbEntity
  8
0
  6
CONTINUOUS
100
AcDbLine
 10
24.63049327071599
 20
2.36839999999762
 30
0.0
 11
23.32789327071731
 21
3.670999999996297
 31
0.0
  0
LINE
  5
BBD9
330
BBA4
100
AcDbEntity
  8
0
  6
CONTINUOUS
100
AcDbLine
 10
22.92098674744635
 20
4.077906523267254
 30
0.0
 11
21.84508681208164
 21
5.153806458631966
 31
0.0
  0
LINE
  5
BBDA
330
BBA4
100
AcDbEntity
  8
0
  6
CONTINUOUS
100
AcDbLine
 10
27.63931247980256
 20
0.0330999999912356
 30
0.0
 11
24.0014124797975
 21
3.670999999996297
 31
0.0
  0
LINE
  5
BBDB
330
BBA4
100
AcDbEntity
  8
0
  6
CONTINUOUS
100
AcDbLine
 10
23.129125600968
 20
4.5432868788258
 30
0.0
 11
22.05328991755227
 21
5.619122562241522
 31
0.0
  0
LINE
  5
BBDC
330
BBA4
100
AcDbEntity
  8
0
  6
CONTINUOUS
100
AcDbLine
 10
28.31283168888275
 20
0.0330999999912356
 30
0.0
 11
24.16488385994816
 21
4.181047828925828
 31
0.0
  0
LINE
  5
BBDD
330
BBA4
100
AcDbEntity
  8
0
  6
CONTINUOUS
100
AcDbLine
 10
23.33726445448964
 20
5.008667234384345
 30
0.0
 11
22.2614930230229
 21
6.084438665851079
 31
0.0
  0
LINE
  5
BBDE
330
BBA4
100
AcDbEntity
  8
0
  6
CONTINUOUS
100
AcDbLine
 10
28.92085740005492
 20
0.0985934978992438
 30
0.0
 11
27.63635089796295
 21
1.383099999991217
 31
0.0
  0
LINE
  5
BBDF
330
BBA4
100
AcDbEntity
  8
0
  6
CONTINUOUS
100
AcDbLine
 10
26.43704649509776
 20
2.582404402856405
 30
0.0
 11
23.61992702019732
 21
5.399523877756844
 31
0.0
  0
LINE
  5
BBE0
330
BBA4
100
AcDbEntity
  8
0
  6
CONTINUOUS
100
AcDbLine
 10
23.54540330801128
 20
5.47404758994289
 30
0.0
 11
22.46969612849353
 21
6.549754769460635
 31
0.0
  0
LINE
  5
BBE1
330
BBA4
100
AcDbEntity
  8
0
  6
CONTINUOUS
100
AcDbLine
 10
29.42225615078443
 20
0.2707139562499279
 30
0.0
 11
28.30987010704312
 21
1.383099999991234
 31
0.0
  0
LINE
  5
BBE2
330
BBA4
100
AcDbEntity
  8
0
  6
CONTINUOUS
100
AcDbLine
 10
25.89179548232307
 20
3.801174624711282
 30
0.0
 11
22.67789923396416
 21
7.015070873070191
 31
0.0
  0
LINE
  5
BBE3
330
BBA4
100
AcDbEntity
  8
0
  6
CONTINUOUS
100
AcDbLine
 10
29.83624534690007
 20
0.5302439692144705
 30
0.0
 11
28.85811781497101
 21
1.508371501143527
 31
0.0
  0
LINE
  5
BBE4
330
BBA4
100
AcDbEntity
  8
0
  6
CONTINUOUS
100
AcDbLine
 10
25.34654446954838
 20
5.01994484656616
 30
0.0
 11
22.88610233943479
 21
7.480386976679748
 31
0.0
  0
LINE
  5
BBE5
330
BBA4
100
AcDbEntity
  8
0
  6
CONTINUOUS
100
AcDbLine
 10
30.17865975401872
 20
0.8613487711760022
 30
0.0
 11
29.18888744090175
 21
1.851121084292977
 31
0.0
  0
LINE
  5
BBE6
330
BBA4
100
AcDbEntity
  8
0
  6
CONTINUOUS
100
AcDbLine
 10
24.80129345677369
 20
6.238715068421037
 30
0.0
 11
23.09430544490542
 21
7.945703080289305
 31
0.0
  0
LINE
  5
BBE7
330
BBA4
100
AcDbEntity
  8
0
  6
CONTINUOUS
100
AcDbLine
 10
30.45496647202376
 20
1.258561262251155
 30
0.0
 11
29.30199999996933
 21
2.411527734305588
 31
0.0
  0
LINE
  5
BBE8
330
BBA4
100
AcDbEntity
  8
0
  6
CONTINUOUS
100
AcDbLine
 10
24.256042443999
 20
7.457485290275915
 30
0.0
 11
23.30250855037605
 21
8.411019183898862
 31
0.0
  0
LINE
  5
BBE9
330
BBA4
100
AcDbEntity
  8
0
  6
CONTINUOUS
100
AcDbLine
 10
30.64868582078271
 20
1.738361122572387
 30
0.0
 11
29.30199999996933
 21
3.085046943385775
 31
0.0
  0
LINE
  5
BBEA
330
BBA4
100
AcDbEntity
  8
0
  6
CONTINUOUS
100
AcDbLine
 10
23.71079143122431
 20
8.676255512130794
 30
0.0
 11
23.51071165584668
 21
8.876335287508416
 31
0.0
  0
LINE
  5
BBEB
330
BBA4
100
AcDbEntity
  8
0
  6
CONTINUOUS
100
AcDbLine
 10
30.73802122914428
 20
2.322544923291007
 30
0.0
 11
29.30199999996933
 21
3.758566152465961
 31
0.0
  0
LINE
  5
BBEC
330
BBA4
100
AcDbEntity
  8
0
  6
CONTINUOUS
100
AcDbLine
 10
30.74199999996924
 20
2.992085361546236
 30
0.0
 11
29.30199999996933
 21
4.432085361546148
 31
0.0
  0
LINE
  5
BBED
330
BBA4
100
AcDbEntity
  8
0
  6
CONTINUOUS
100
AcDbLine
 10
30.74199999996924
 20
3.665604570626419
 30
0.0
 11
29.30199999996933
 21
5.105604570626333
 31
0.0
  0
LINE
  5
BBEE
330
BBA4
100
AcDbEntity
  8
0
  6
CONTINUOUS
100
AcDbLine
 10
30.74199999996925
 20
4.339123779706602
 30
0.0
 11
29.30199999996933
 21
5.77912377970652
 31
0.0
  0
LINE
  5
BBEF
330
BBA4
100
AcDbEntity
  8
0
  6
CONTINUOUS
100
AcDbLine
 10
30.74199999996925
 20
5.012642988786785
 30
0.0
 11
29.30199999996933
 21
6.452642988786707
 31
0.0
  0
LINE
  5
BBF0
330
BBA4
100
AcDbEntity
  8
0
  6
CONTINUOUS
100
AcDbLine
 10
30.74199999996925
 20
5.68616219786697
 30
0.0
 11
29.30199999996933
 21
7.126162197866894
 31
0.0
  0
LINE
  5
BBF1
330
BBA4
100
AcDbEntity
  8
0
  6
CONTINUOUS
100
AcDbLine
 10
30.74199999996925
 20
6.359681406947153
 30
0.0
 11
29.30199999996933
 21
7.799681406947081
 31
0.0
  0
LINE
  5
BBF2
330
BBA4
100
AcDbEntity
  8
0
  6
CONTINUOUS
100
AcDbLine
 10
30.74199999996926
 20
7.033200616027337
 30
0.0
 11
29.30199999996933
 21
8.473200616027269
 31
0.0
  0
LINE
  5
BBF3
330
BBA4
100
AcDbEntity
  8
0
  6
CONTINUOUS
100
AcDbLine
 10
30.74199999996926
 20
7.706719825107518
 30
0.0
 11
29.68561982508552
 21
8.763099999991255
 31
0.0
  0
LINE
  5
BBF4
330
BBA4
100
AcDbEntity
  8
0
  6
CONTINUOUS
100
AcDbLine
 10
30.74199999996926
 20
8.380239034187703
 30
0.0
 11
30.35913903416571
 21
8.763099999991255
 31
0.0
  0
ENDBLK
  5
BC97
330
BBA4
100
AcDbEntity
  8
0
100
AcDbBlockEnd
  0
BLOCK
  5
BC98
330
BBF5
100
AcDbEntity
  8
0
100
AcDbBlockBegin
  2
*X172
 70
     1
 10
0.0
 20
0.0
 30
0.0
  3
*X172
  1

  0
LINE
  5
BBF6
330
BBF5
100
AcDbEntity
  8
0
  6
CONTINUOUS
100
AcDbLine
 10
31.64199999996833
 20
8.535058289913598
 30
0.0
 11
31.87004171004599
 21
8.763099999991255
 31
0.0
  0
LINE
  5
BBF7
330
BBF5
100
AcDbEntity
  8
0
  6
CONTINUOUS
100
AcDbLine
 10
31.64199999996833
 20
7.861539080833412
 30
0.0
 11
32.54356091912618
 21
8.763099999991255
 31
0.0
  0
LINE
  5
BBF8
330
BBF5
100
AcDbEntity
  8
0
  6
CONTINUOUS
100
AcDbLine
 10
31.64199999996833
 20
7.188019871753226
 30
0.0
 11
33.08199999996839
 21
8.628019871753281
 31
0.0
  0
LINE
  5
BBF9
330
BBF5
100
AcDbEntity
  8
0
  6
CONTINUOUS
100
AcDbLine
 10
31.64199999996833
 20
6.51450066267304
 30
0.0
 11
33.08199999996839
 21
7.954500662673095
 31
0.0
  0
LINE
  5
BBFA
330
BBF5
100
AcDbEntity
  8
0
  6
CONTINUOUS
100
AcDbLine
 10
31.64199999996833
 20
5.840981453592853
 30
0.0
 11
33.08199999996839
 21
7.280981453592908
 31
0.0
  0
LINE
  5
BBFB
330
BBF5
100
AcDbEntity
  8
0
  6
CONTINUOUS
100
AcDbLine
 10
31.64199999996833
 20
5.167462244512667
 30
0.0
 11
33.08199999996839
 21
6.607462244512721
 31
0.0
  0
LINE
  5
BBFC
330
BBF5
100
AcDbEntity
  8
0
  6
CONTINUOUS
100
AcDbLine
 10
31.64199999996833
 20
4.493943035432481
 30
0.0
 11
33.08199999996839
 21
5.933943035432535
 31
0.0
  0
LINE
  5
BBFD
330
BBF5
100
AcDbEntity
  8
0
  6
CONTINUOUS
100
AcDbLine
 10
31.64199999996833
 20
3.820423826352293
 30
0.0
 11
33.08199999996839
 21
5.260423826352348
 31
0.0
  0
LINE
  5
BBFE
330
BBF5
100
AcDbEntity
  8
0
  6
CONTINUOUS
100
AcDbLine
 10
31.64199999996833
 20
3.146904617272106
 30
0.0
 11
33.08199999996839
 21
4.586904617272161
 31
0.0
  0
LINE
  5
BBFF
330
BBF5
100
AcDbEntity
  8
0
  6
CONTINUOUS
100
AcDbLine
 10
36.23199999996837
 20
8.410423826352325
 30
0.0
 11
36.5846761736073
 21
8.763099999991255
 31
0.0
  0
LINE
  5
BC00
330
BBF5
100
AcDbEntity
  8
0
  6
CONTINUOUS
100
AcDbLine
 10
36.23199999996837
 20
7.73690461727214
 30
0.0
 11
37.25819538268748
 21
8.763099999991255
 31
0.0
  0
LINE
  5
BC01
330
BBF5
100
AcDbEntity
  8
0
  6
CONTINUOUS
100
AcDbLine
 10
31.64257403601376
 20
2.473959444237348
 30
0.0
 11
33.08199999996839
 21
3.913385408191974
 31
0.0
  0
LINE
  5
BC02
330
BBF5
100
AcDbEntity
  8
0
  6
CONTINUOUS
100
AcDbLine
 10
36.23199999996837
 20
7.063385408191953
 30
0.0
 11
37.67199999996831
 21
8.503385408191894
 31
0.0
  0
LINE
  5
BC03
330
BBF5
100
AcDbEntity
  8
0
  6
CONTINUOUS
100
AcDbLine
 10
31.72013636841932
 20
1.87800256756272
 30
0.0
 11
33.08199999996839
 21
3.239866199111788
 31
0.0
  0
LINE
  5
BC04
330
BBF5
100
AcDbEntity
  8
0
  6
CONTINUOUS
100
AcDbLine
 10
36.23199999996837
 20
6.389866199111767
 30
0.0
 11
37.67199999996831
 21
7.829866199111708
 31
0.0
  0
LINE
  5
BC05
330
BBF5
100
AcDbEntity
  8
0
  6
CONTINUOUS
100
AcDbLine
 10
31.89042734314753
 20
1.374774333210744
 30
0.0
 11
33.08199999996839
 21
2.566346990031601
 31
0.0
  0
LINE
  5
BC06
330
BBF5
100
AcDbEntity
  8
0
  6
CONTINUOUS
100
AcDbLine
 10
36.23199999996837
 20
5.71634699003158
 30
0.0
 11
37.67199999996831
 21
7.156346990031521
 31
0.0
  0
LINE
  5
BC07
330
BBF5
100
AcDbEntity
  8
0
  6
CONTINUOUS
100
AcDbLine
 10
32.14210568064475
 20
0.952933461627778
 30
0.0
 11
33.18745552475986
 21
1.998283305742888
 31
0.0
  0
LINE
  5
BC08
330
BBF5
100
AcDbEntity
  8
0
  6
CONTINUOUS
100
AcDbLine
 10
36.23199999996837
 20
5.042827780951393
 30
0.0
 11
37.67199999996831
 21
6.482827780951334
 31
0.0
  0
LINE
  5
BC09
330
BBF5
100
AcDbEntity
  8
0
  6
CONTINUOUS
100
AcDbLine
 10
32.45820639400955
 20
0.5955149659123915
 30
0.0
 11
33.47242681921943
 21
1.60973539112227
 31
0.0
  0
LINE
  5
BC0A
330
BBF5
100
AcDbEntity
  8
0
  6
CONTINUOUS
100
AcDbLine
 10
36.23199999996837
 20
4.369308571871207
 30
0.0
 11
37.67199999996831
 21
5.809308571871147
 31
0.0
  0
LINE
  5
BC0B
330
BBF5
100
AcDbEntity
  8
0
  6
CONTINUOUS
100
AcDbLine
 10
32.83432456621412
 20
0.2981139290367771
 30
0.0
 11
33.89722476612215
 21
1.361014128944803
 31
0.0
  0
LINE
  5
BC0C
330
BBF5
100
AcDbEntity
  8
0
  6
CONTINUOUS
100
AcDbLine
 10
36.23199999996837
 20
3.69578936279102
 30
0.0
 11
37.67199999996831
 21
5.135789362790962
 31
0.0
  0
LINE
  5
BC0D
330
BBF5
100
AcDbEntity
  8
0
  6
CONTINUOUS
100
AcDbLine
 10
33.2711633111245
 20
0.0614334648669672
 30
0.0
 11
34.43247338014423
 21
1.222743533886696
 31
0.0
  0
LINE
  5
BC0E
330
BBF5
100
AcDbEntity
  8
0
  6
CONTINUOUS
100
AcDbLine
 10
36.23199999996837
 20
3.022270153710834
 30
0.0
 11
37.67199999996831
 21
4.462270153710775
 31
0.0
  0
LINE
  5
BC0F
330
BBF5
100
AcDbEntity
  8
0
  6
CONTINUOUS
100
AcDbLine
 10
33.76515245874577
 20
-0.1180965965919523
 30
0.0
 11
35.1587445516215
 21
1.27549549628378
 31
0.0
  0
LINE
  5
BC10
330
BBF5
100
AcDbEntity
  8
0
  6
CONTINUOUS
100
AcDbLine
 10
36.21639478609585
 20
2.333145730758136
 30
0.0
 11
37.67199999996831
 21
3.788750944630588
 31
0.0
  0
LINE
  5
BC11
330
BBF5
100
AcDbEntity
  8
0
  6
CONTINUOUS
100
AcDbLine
 10
34.34060583368432
 20
-0.2161624307335863
 30
0.0
 11
37.67199999996831
 21
3.115231735550401
 31
0.0
  0
LINE
  5
BC12
330
BBF5
100
AcDbEntity
  8
0
  6
CONTINUOUS
100
AcDbLine
 10
35.01698193613905
 20
-0.2133055373590427
 30
0.0
 11
37.66876712070525
 21
2.438479647207154
 31
0.0
  0
LINE
  5
BC13
330
BBF5
100
AcDbEntity
  8
0
  6
CONTINUOUS
100
AcDbLine
 10
35.90743367693304
 20
0.0036269943547609
 30
0.0
 11
37.51723902192366
 21
1.613432339345381
 31
0.0
  0
LINE
  5
BC14
330
BBF5
100
AcDbEntity
  8
0
  6
CONTINUOUS
100
AcDbLine
 10
32.55309425579761
 20
0.5074718966376706
 30
0.0
 11
32.27784730925847
 21
0.7827188431768102
 31
0.0
  0
LINE
  5
BC15
330
BBF5
100
AcDbEntity
  8
0
  6
CONTINUOUS
100
AcDbLine
 10
33.87496468909684
 20
-0.1408793275813673
 30
0.0
 11
31.67993083278052
 21
2.054154528734943
 31
0.0
  0
LINE
  5
BC16
330
BBF5
100
AcDbEntity
  8
0
  6
CONTINUOUS
100
AcDbLine
 10
34.64362813207632
 20
-0.2360235614806649
 30
0.0
 11
31.64199999996833
 21
2.765604570627322
 31
0.0
  0
LINE
  5
BC17
330
BBF5
100
AcDbEntity
  8
0
  6
CONTINUOUS
100
AcDbLine
 10
35.25801106796118
 20
-0.1768872882853429
 30
0.0
 11
31.64199999996833
 21
3.439123779707508
 31
0.0
  0
LINE
  5
BC18
330
BBF5
100
AcDbEntity
  8
0
  6
CONTINUOUS
100
AcDbLine
 10
35.79065650332146
 20
-0.0360135145654361
 30
0.0
 11
34.54143210838231
 21
1.213210880373721
 31
0.0
  0
LINE
  5
BC19
330
BBF5
100
AcDbEntity
  8
0
  6
CONTINUOUS
100
AcDbLine
 10
33.08199999996839
 20
2.67264298878764
 30
0.0
 11
31.64199999996833
 21
4.112642988787695
 31
0.0
  0
LINE
  5
BC1A
330
BBF5
100
AcDbEntity
  8
0
  6
CONTINUOUS
100
AcDbLine
 10
36.25975597779143
 20
0.1684062200447833
 30
0.0
 11
35.15395110240023
 21
1.274211095435983
 31
0.0
  0
LINE
  5
BC1B
330
BBF5
100
AcDbEntity
  8
0
  6
CONTINUOUS
100
AcDbLine
 10
33.08199999996839
 20
3.346162197867826
 30
0.0
 11
31.64199999996833
 21
4.786162197867881
 31
0.0
  0
LINE
  5
BC1C
330
BBF5
100
AcDbEntity
  8
0
  6
CONTINUOUS
100
AcDbLine
 10
36.67226329638774
 20
0.4294181105286579
 30
0.0
 11
35.63766478748767
 21
1.464016619428737
 31
0.0
  0
LINE
  5
BC1D
330
BBF5
100
AcDbEntity
  8
0
  6
CONTINUOUS
100
AcDbLine
 10
33.08199999996839
 20
4.019681406948012
 30
0.0
 11
31.64199999996833
 21
5.459681406948068
 31
0.0
  0
LINE
  5
BC1E
330
BBF5
100
AcDbEntity
  8
0
  6
CONTINUOUS
100
AcDbLine
 10
37.01677749710036
 20
0.7584231188962329
 30
0.0
 11
35.99563422741351
 21
1.779566388583076
 31
0.0
  0
LINE
  5
BC1F
330
BBF5
100
AcDbEntity
  8
0
  6
CONTINUOUS
100
AcDbLine
 10
33.08199999996839
 20
4.693200616028199
 30
0.0
 11
31.64199999996833
 21
6.133200616028255
 31
0.0
  0
LINE
  5
BC20
330
BBF5
100
AcDbEntity
  8
0
  6
CONTINUOUS
100
AcDbLine
 10
37.29859977568887
 20
1.1501200493879
 30
0.0
 11
36.20680593341555
 21
2.241913891661226
 31
0.0
  0
LINE
  5
BC21
330
BBF5
100
AcDbEntity
  8
0
  6
CONTINUOUS
100
AcDbLine
 10
33.08199999996839
 20
5.366719825108386
 30
0.0
 11
31.64199999996833
 21
6.80671982510844
 31
0.0
  0
LINE
  5
BC22
330
BBF5
100
AcDbEntity
  8
0
  6
CONTINUOUS
100
AcDbLine
 10
37.5148623517228
 20
1.607376682434161
 30
0.0
 11
36.23199999996837
 21
2.890239034188594
 31
0.0
  0
LINE
  5
BC23
330
BBF5
100
AcDbEntity
  8
0
  6
CONTINUOUS
100
AcDbLine
 10
33.08199999996839
 20
6.040239034188573
 30
0.0
 11
31.64199999996833
 21
7.480239034188627
 31
0.0
  0
LINE
  5
BC24
330
BBF5
100
AcDbEntity
  8
0
  6
CONTINUOUS
100
AcDbLine
 10
37.64705163358367
 20
2.148706609653477
 30
0.0
 11
36.23199999996837
 21
3.56375824326878
 31
0.0
  0
LINE
  5
BC25
330
BBF5
100
AcDbEntity
  8
0
  6
CONTINUOUS
100
AcDbLine
 10
33.08199999996839
 20
6.713758243268758
 30
0.0
 11
31.64199999996833
 21
8.153758243268815
 31
0.0
  0
LINE
  5
BC26
330
BBF5
100
AcDbEntity
  8
0
  6
CONTINUOUS
100
AcDbLine
 10
37.67199999996831
 20
2.797277452349026
 30
0.0
 11
36.23199999996837
 21
4.237277452348967
 31
0.0
  0
LINE
  5
BC27
330
BBF5
100
AcDbEntity
  8
0
  6
CONTINUOUS
100
AcDbLine
 10
37.67199999996831
 20
3.470796661429213
 30
0.0
 11
36.23199999996837
 21
4.910796661429154
 31
0.0
  0
LINE
  5
BC28
330
BBF5
100
AcDbEntity
  8
0
  6
CONTINUOUS
100
AcDbLine
 10
37.67199999996831
 20
4.144315870509399
 30
0.0
 11
36.23199999996837
 21
5.58431587050934
 31
0.0
  0
LINE
  5
BC29
330
BBF5
100
AcDbEntity
  8
0
  6
CONTINUOUS
100
AcDbLine
 10
33.08199999996839
 20
7.387277452348945
 30
0.0
 11
31.70617745232608
 21
8.763099999991255
 31
0.0
  0
LINE
  5
BC2A
330
BBF5
100
AcDbEntity
  8
0
  6
CONTINUOUS
100
AcDbLine
 10
33.08199999996839
 20
8.060796661429132
 30
0.0
 11
32.37969666140626
 21
8.763099999991255
 31
0.0
  0
LINE
  5
BC2B
330
BBF5
100
AcDbEntity
  8
0
  6
CONTINUOUS
100
AcDbLine
 10
33.08199999996839
 20
8.734315870509318
 30
0.0
 11
33.05321587048645
 21
8.763099999991255
 31
0.0
  0
LINE
  5
BC2C
330
BBF5
100
AcDbEntity
  8
0
  6
CONTINUOUS
100
AcDbLine
 10
37.67199999996831
 20
4.817835079589585
 30
0.0
 11
36.23199999996837
 21
6.257835079589526
 31
0.0
  0
LINE
  5
BC2D
330
BBF5
100
AcDbEntity
  8
0
  6
CONTINUOUS
100
AcDbLine
 10
37.67199999996831
 20
5.491354288669771
 30
0.0
 11
36.23199999996837
 21
6.931354288669713
 31
0.0
  0
LINE
  5
BC2E
330
BBF5
100
AcDbEntity
  8
0
  6
CONTINUOUS
100
AcDbLine
 10
37.67199999996831
 20
6.164873497749958
 30
0.0
 11
36.23199999996837
 21
7.6048734977499
 31
0.0
  0
LINE
  5
BC2F
330
BBF5
100
AcDbEntity
  8
0
  6
CONTINUOUS
100
AcDbLine
 10
37.67199999996831
 20
6.838392706830144
 30
0.0
 11
36.23199999996837
 21
8.278392706830086
 31
0.0
  0
LINE
  5
BC30
330
BBF5
100
AcDbEntity
  8
0
  6
CONTINUOUS
100
AcDbLine
 10
37.67199999996831
 20
7.511911915910332
 30
0.0
 11
36.42081191588738
 21
8.763099999991255
 31
0.0
  0
LINE
  5
BC31
330
BBF5
100
AcDbEntity
  8
0
  6
CONTINUOUS
100
AcDbLine
 10
37.67199999996831
 20
8.185431124990519
 30
0.0
 11
37.09433112496757
 21
8.763099999991255
 31
0.0
  0
ENDBLK
  5
BC99
330
BBF5
100
AcDbEntity
  8
0
100
AcDbBlockEnd
  0
BLOCK
  5
BC9A
330
BC32
100
AcDbEntity
  8
0
100
AcDbBlockBegin
  2
*X173
 70
     1
 10
0.0
 20
0.0
 30
0.0
  3
*X173
  1

  0
LINE
  5
BC33
330
BC32
100
AcDbEntity
  8
0
  6
CONTINUOUS
100
AcDbLine
 10
38.60499999996136
 20
8.762866199104765
 30
0.0
 11
38.71672554182345
 21
8.874591740966855
 31
0.0
  0
LINE
  5
BC34
330
BC32
100
AcDbEntity
  8
0
  6
CONTINUOUS
100
AcDbLine
 10
38.60499999996136
 20
8.089346990024577
 30
0.0
 11
39.03418785440363
 21
8.518534844466847
 31
0.0
  0
LINE
  5
BC35
330
BC32
100
AcDbEntity
  8
0
  6
CONTINUOUS
100
AcDbLine
 10
38.60499999996136
 20
7.41582778094439
 30
0.0
 11
39.35165016698382
 21
8.16247794796684
 31
0.0
  0
LINE
  5
BC36
330
BC32
100
AcDbEntity
  8
0
  6
CONTINUOUS
100
AcDbLine
 10
38.60499999996136
 20
6.742308571864204
 30
0.0
 11
39.66911247956399
 21
7.806421051466834
 31
0.0
  0
LINE
  5
BC37
330
BC32
100
AcDbEntity
  8
0
  6
CONTINUOUS
100
AcDbLine
 10
38.60499999996136
 20
6.068789362784018
 30
0.0
 11
39.98657479214418
 21
7.450364154966827
 31
0.0
  0
LINE
  5
BC38
330
BC32
100
AcDbEntity
  8
0
  6
CONTINUOUS
100
AcDbLine
 10
38.60499999996136
 20
5.395270153703832
 30
0.0
 11
40.30403710472435
 21
7.09430725846682
 31
0.0
  0
LINE
  5
BC39
330
BC32
100
AcDbEntity
  8
0
  6
CONTINUOUS
100
AcDbLine
 10
38.60499999996136
 20
4.721750944623645
 30
0.0
 11
40.62149941730453
 21
6.738250361966813
 31
0.0
  0
LINE
  5
BC3A
330
BC32
100
AcDbEntity
  8
0
  6
CONTINUOUS
100
AcDbLine
 10
38.60499999996136
 20
4.048231735543458
 30
0.0
 11
40.93896172988471
 21
6.382193465466806
 31
0.0
  0
LINE
  5
BC3B
330
BC32
100
AcDbEntity
  8
0
  6
CONTINUOUS
100
AcDbLine
 10
38.60499999996136
 20
3.374712526463272
 30
0.0
 11
40.02599999995994
 21
4.795712526461843
 31
0.0
  0
LINE
  5
BC3C
330
BC32
100
AcDbEntity
  8
0
  6
CONTINUOUS
100
AcDbLine
 10
38.60499999996136
 20
2.701193317383085
 30
0.0
 11
40.02599999995994
 21
4.122193317381657
 31
0.0
  0
LINE
  5
BC3D
330
BC32
100
AcDbEntity
  8
0
  6
CONTINUOUS
100
AcDbLine
 10
40.28339754687704
 20
5.053110073378947
 30
0.0
 11
41.25642404246489
 21
6.026136568966799
 31
0.0
  0
LINE
  5
BC3E
330
BC32
100
AcDbEntity
  8
0
  6
CONTINUOUS
100
AcDbLine
 10
40.60085985945722
 20
4.697053176878939
 30
0.0
 11
41.57388635504507
 21
5.670079672466793
 31
0.0
  0
LINE
  5
BC3F
330
BC32
100
AcDbEntity
  8
0
  6
CONTINUOUS
100
AcDbLine
 10
43.57899999995641
 20
8.348712526458318
 30
0.0
 11
43.99338747348935
 21
8.763099999991255
 31
0.0
  0
LINE
  5
BC40
330
BC32
100
AcDbEntity
  8
0
  6
CONTINUOUS
100
AcDbLine
 10
43.57899999995641
 20
7.675193317378131
 30
0.0
 11
44.66690668256953
 21
8.763099999991255
 31
0.0
  0
LINE
  5
BC41
330
BC32
100
AcDbEntity
  8
0
  6
CONTINUOUS
100
AcDbLine
 10
38.60499999996136
 20
2.027674108302898
 30
0.0
 11
40.02599999995994
 21
3.44867410830147
 31
0.0
  0
LINE
  5
BC42
330
BC32
100
AcDbEntity
  8
0
  6
CONTINUOUS
100
AcDbLine
 10
38.60499999996136
 20
1.354154899222712
 30
0.0
 11
40.02599999995994
 21
2.775154899221284
 31
0.0
  0
LINE
  5
BC43
330
BC32
100
AcDbEntity
  8
0
  6
CONTINUOUS
100
AcDbLine
 10
38.60499999996136
 20
0.6806356901425255
 30
0.0
 11
40.02599999995994
 21
2.101635690141098
 31
0.0
  0
LINE
  5
BC44
330
BC32
100
AcDbEntity
  8
0
  6
CONTINUOUS
100
AcDbLine
 10
38.60499999996136
 20
0.0071164810623383
 30
0.0
 11
40.02599999995994
 21
1.428116481060911
 31
0.0
  0
LINE
  5
BC45
330
BC32
100
AcDbEntity
  8
0
  6
CONTINUOUS
100
AcDbLine
 10
40.9183221720374
 20
4.340996280378933
 30
0.0
 11
41.89134866762525
 21
5.314022775966786
 31
0.0
  0
LINE
  5
BC46
330
BC32
100
AcDbEntity
  8
0
  6
CONTINUOUS
100
AcDbLine
 10
41.23578448461758
 20
3.984939383878926
 30
0.0
 11
42.20881098020543
 21
4.957965879466778
 31
0.0
  0
LINE
  5
BC47
330
BC32
100
AcDbEntity
  8
0
  6
CONTINUOUS
100
AcDbLine
 10
41.55324679719776
 20
3.628882487378919
 30
0.0
 11
42.52627329278561
 21
4.601908982966772
 31
0.0
  0
LINE
  5
BC48
330
BC32
100
AcDbEntity
  8
0
  6
CONTINUOUS
100
AcDbLine
 10
41.87070910977793
 20
3.272825590878912
 30
0.0
 11
42.84373560536579
 21
4.245852086466765
 31
0.0
  0
LINE
  5
BC49
330
BC32
100
AcDbEntity
  8
0
  6
CONTINUOUS
100
AcDbLine
 10
43.57899999995641
 20
7.001674108297943
 30
0.0
 11
44.99999999995498
 21
8.422674108296516
 31
0.0
  0
LINE
  5
BC4A
330
BC32
100
AcDbEntity
  8
0
  6
CONTINUOUS
100
AcDbLine
 10
43.57899999995641
 20
6.328154899217758
 30
0.0
 11
44.99999999995498
 21
7.749154899216329
 31
0.0
  0
LINE
  5
BC4B
330
BC32
100
AcDbEntity
  8
0
  6
CONTINUOUS
100
AcDbLine
 10
43.57899999995641
 20
5.654635690137571
 30
0.0
 11
44.99999999995498
 21
7.075635690136142
 31
0.0
  0
LINE
  5
BC4C
330
BC32
100
AcDbEntity
  8
0
  6
CONTINUOUS
100
AcDbLine
 10
43.57899999995641
 20
4.981116481057384
 30
0.0
 11
44.99999999995498
 21
6.402116481055955
 31
0.0
  0
LINE
  5
BC4D
330
BC32
100
AcDbEntity
  8
0
  6
CONTINUOUS
100
AcDbLine
 10
39.27140272797921
 20
-0.0000000000000009
 30
0.0
 11
40.02599999995994
 21
0.7545972719807246
 31
0.0
  0
LINE
  5
BC4E
330
BC32
100
AcDbEntity
  8
0
  6
CONTINUOUS
100
AcDbLine
 10
39.9449219370594
 20
-0.0000000000000009
 30
0.0
 11
40.02599999995994
 21
0.0810780629005379
 31
0.0
  0
LINE
  5
BC4F
330
BC32
100
AcDbEntity
  8
0
  6
CONTINUOUS
100
AcDbLine
 10
42.18817142235812
 20
2.916768694378905
 30
0.0
 11
43.16119791794597
 21
3.889795189966758
 31
0.0
  0
LINE
  5
BC50
330
BC32
100
AcDbEntity
  8
0
  6
CONTINUOUS
100
AcDbLine
 10
42.50563373493829
 20
2.560711797878898
 30
0.0
 11
43.47866023052615
 21
3.533738293466751
 31
0.0
  0
LINE
  5
BC51
330
BC32
100
AcDbEntity
  8
0
  6
CONTINUOUS
100
AcDbLine
 10
43.57899999995641
 20
4.307597271977198
 30
0.0
 11
44.99999999995498
 21
5.728597271975769
 31
0.0
  0
LINE
  5
BC52
330
BC32
100
AcDbEntity
  8
0
  6
CONTINUOUS
100
AcDbLine
 10
43.57899999995641
 20
3.634078062897011
 30
0.0
 11
44.99999999995498
 21
5.055078062895582
 31
0.0
  0
LINE
  5
BC53
330
BC32
100
AcDbEntity
  8
0
  6
CONTINUOUS
100
AcDbLine
 10
42.82309604751848
 20
2.204654901378891
 30
0.0
 11
44.99999999995498
 21
4.381558853815395
 31
0.0
  0
LINE
  5
BC54
330
BC32
100
AcDbEntity
  8
0
  6
CONTINUOUS
100
AcDbLine
 10
43.14055836009865
 20
1.848598004878885
 30
0.0
 11
44.99999999995498
 21
3.70803964473521
 31
0.0
  0
LINE
  5
BC55
330
BC32
100
AcDbEntity
  8
0
  6
CONTINUOUS
100
AcDbLine
 10
43.45802067267883
 20
1.492541108378878
 30
0.0
 11
44.99999999995498
 21
3.034520435655023
 31
0.0
  0
LINE
  5
BC56
330
BC32
100
AcDbEntity
  8
0
  6
CONTINUOUS
100
AcDbLine
 10
43.77548298525902
 20
1.136484211878871
 30
0.0
 11
44.99999999995498
 21
2.361001226574837
 31
0.0
  0
LINE
  5
BC57
330
BC32
100
AcDbEntity
  8
0
  6
CONTINUOUS
100
AcDbLine
 10
44.09294529783919
 20
0.7804273153788639
 30
0.0
 11
44.99999999995498
 21
1.687482017494649
 31
0.0
  0
LINE
  5
BC58
330
BC32
100
AcDbEntity
  8
0
  6
CONTINUOUS
100
AcDbLine
 10
44.41040761041938
 20
0.4243704188788566
 30
0.0
 11
44.99999999995498
 21
1.013962808414463
 31
0.0
  0
LINE
  5
BC59
330
BC32
100
AcDbEntity
  8
0
  6
CONTINUOUS
100
AcDbLine
 10
44.72786992299955
 20
0.0683135223788494
 30
0.0
 11
44.99999999995498
 21
0.340443599334276
 31
0.0
  0
LINE
  5
BC5A
330
BC32
100
AcDbEntity
  8
0
  6
CONTINUOUS
100
AcDbLine
 10
39.12223903415696
 20
-0.0000000000000009
 30
0.0
 11
38.60499999996136
 21
0.5172390341955961
 31
0.0
  0
LINE
  5
BC5B
330
BC32
100
AcDbEntity
  8
0
  6
CONTINUOUS
100
AcDbLine
 10
39.79575824323715
 20
-0.0000000000000009
 30
0.0
 11
38.60499999996136
 21
1.190758243275783
 31
0.0
  0
LINE
  5
BC5C
330
BC32
100
AcDbEntity
  8
0
  6
CONTINUOUS
100
AcDbLine
 10
40.02599999995994
 20
0.443277452357397
 30
0.0
 11
38.60499999996136
 21
1.864277452355969
 31
0.0
  0
LINE
  5
BC5D
330
BC32
100
AcDbEntity
  8
0
  6
CONTINUOUS
100
AcDbLine
 10
40.02599999995994
 20
1.116796661437583
 30
0.0
 11
38.60499999996136
 21
2.537796661436155
 31
0.0
  0
LINE
  5
BC5E
330
BC32
100
AcDbEntity
  8
0
  6
CONTINUOUS
100
AcDbLine
 10
40.02599999995994
 20
1.79031587051777
 30
0.0
 11
38.60499999996136
 21
3.211315870516341
 31
0.0
  0
LINE
  5
BC5F
330
BC32
100
AcDbEntity
  8
0
  6
CONTINUOUS
100
AcDbLine
 10
40.02599999995994
 20
2.463835079597956
 30
0.0
 11
38.60499999996136
 21
3.884835079596527
 31
0.0
  0
LINE
  5
BC60
330
BC32
100
AcDbEntity
  8
0
  6
CONTINUOUS
100
AcDbLine
 10
40.02599999995994
 20
3.137354288678143
 30
0.0
 11
38.60499999996136
 21
4.558354288676714
 31
0.0
  0
LINE
  5
BC61
330
BC32
100
AcDbEntity
  8
0
  6
CONTINUOUS
100
AcDbLine
 10
40.02599999995994
 20
3.810873497758329
 30
0.0
 11
38.60499999996136
 21
5.2318734977569
 31
0.0
  0
LINE
  5
BC62
330
BC32
100
AcDbEntity
  8
0
  6
CONTINUOUS
100
AcDbLine
 10
40.02599999995994
 20
4.484392706838515
 30
0.0
 11
38.60499999996136
 21
5.905392706837086
 31
0.0
  0
LINE
  5
BC63
330
BC32
100
AcDbEntity
  8
0
  6
CONTINUOUS
100
AcDbLine
 10
44.99999999995498
 20
0.183911915923658
 30
0.0
 11
41.53858364506288
 21
3.64532827081576
 31
0.0
  0
LINE
  5
BC64
330
BC32
100
AcDbEntity
  8
0
  6
CONTINUOUS
100
AcDbLine
 10
40.02599999995994
 20
5.157911915918703
 30
0.0
 11
38.60499999996136
 21
6.578911915917274
 31
0.0
  0
LINE
  5
BC65
330
BC32
100
AcDbEntity
  8
0
  6
CONTINUOUS
100
AcDbLine
 10
44.99999999995498
 20
0.8574311250038447
 30
0.0
 11
38.60499999996136
 21
7.25243112499746
 31
0.0
  0
LINE
  5
BC66
330
BC32
100
AcDbEntity
  8
0
  6
CONTINUOUS
100
AcDbLine
 10
44.99999999995498
 20
1.530950334084031
 30
0.0
 11
38.60499999996136
 21
7.925950334077647
 31
0.0
  0
LINE
  5
BC67
330
BC32
100
AcDbEntity
  8
0
  6
CONTINUOUS
100
AcDbLine
 10
44.99999999995498
 20
2.204469543164218
 30
0.0
 11
43.57899999995641
 21
3.625469543162789
 31
0.0
  0
LINE
  5
BC68
330
BC32
100
AcDbEntity
  8
0
  6
CONTINUOUS
100
AcDbLine
 10
41.89876730984767
 20
5.305702233271528
 30
0.0
 11
38.60499999996136
 21
8.599469543157834
 31
0.0
  0
LINE
  5
BC69
330
BC32
100
AcDbEntity
  8
0
  6
CONTINUOUS
100
AcDbLine
 10
44.99999999995498
 20
2.877988752244405
 30
0.0
 11
43.57899999995641
 21
4.298988752242975
 31
0.0
  0
LINE
  5
BC6A
330
BC32
100
AcDbEntity
  8
0
  6
CONTINUOUS
100
AcDbLine
 10
44.99999999995498
 20
3.551507961324591
 30
0.0
 11
43.57899999995641
 21
4.972507961323163
 31
0.0
  0
LINE
  5
BC6B
330
BC32
100
AcDbEntity
  8
0
  6
CONTINUOUS
100
AcDbLine
 10
44.99999999995498
 20
4.225027170404777
 30
0.0
 11
43.57899999995641
 21
5.646027170403348
 31
0.0
  0
LINE
  5
BC6C
330
BC32
100
AcDbEntity
  8
0
  6
CONTINUOUS
100
AcDbLine
 10
44.99999999995498
 20
4.898546379484964
 30
0.0
 11
43.57899999995641
 21
6.319546379483535
 31
0.0
  0
LINE
  5
BC6D
330
BC32
100
AcDbEntity
  8
0
  6
CONTINUOUS
100
AcDbLine
 10
44.99999999995498
 20
5.572065588565151
 30
0.0
 11
43.57899999995641
 21
6.993065588563722
 31
0.0
  0
LINE
  5
BC6E
330
BC32
100
AcDbEntity
  8
0
  6
CONTINUOUS
100
AcDbLine
 10
44.99999999995498
 20
6.245584797645336
 30
0.0
 11
43.57899999995641
 21
7.666584797643908
 31
0.0
  0
LINE
  5
BC6F
330
BC32
100
AcDbEntity
  8
0
  6
CONTINUOUS
100
AcDbLine
 10
44.99999999995498
 20
6.919104006725522
 30
0.0
 11
43.57899999995641
 21
8.340104006724093
 31
0.0
  0
LINE
  5
BC70
330
BC32
100
AcDbEntity
  8
0
  6
CONTINUOUS
100
AcDbLine
 10
44.99999999995498
 20
7.592623215805709
 30
0.0
 11
43.82952321576943
 21
8.763099999991255
 31
0.0
  0
LINE
  5
BC71
330
BC32
100
AcDbEntity
  8
0
  6
CONTINUOUS
100
AcDbLine
 10
44.99999999995498
 20
8.266142424885896
 30
0.0
 11
44.50304242484962
 21
8.763099999991255
 31
0.0
  0
ENDBLK
  5
BC9B
330
BC32
100
AcDbEntity
  8
0
100
AcDbBlockEnd
  0
BLOCK
  5
BC9C
330
BC72
100
AcDbEntity
  8
0
100
AcDbBlockBegin
  2
*X174
 70
     1
 10
0.0
 20
0.0
 30
0.0
  3
*X174
  1

  0
LINE
  5
BC73
330
BC72
100
AcDbEntity
  8
0
  6
CONTINUOUS
100
AcDbLine
 10
0.0
 20
8.548461116714023
 30
0.0
 11
0.2146388832772324
 21
8.763099999991255
 31
0.0
  0
LINE
  5
BC74
330
BC72
100
AcDbEntity
  8
0
  6
CONTINUOUS
100
AcDbLine
 10
-0.0000000000000002
 20
7.874941907633837
 30
0.0
 11
0.8881580923574184
 21
8.763099999991255
 31
0.0
  0
LINE
  5
BC75
330
BC72
100
AcDbEntity
  8
0
  6
CONTINUOUS
100
AcDbLine
 10
0.0
 20
7.20142269855365
 30
0.0
 11
1.420999999998572
 21
8.622422698552223
 31
0.0
  0
LINE
  5
BC76
330
BC72
100
AcDbEntity
  8
0
  6
CONTINUOUS
100
AcDbLine
 10
-0.0000000000000001
 20
6.527903489473465
 30
0.0
 11
1.420999999998571
 21
7.948903489472036
 31
0.0
  0
LINE
  5
BC77
330
BC72
100
AcDbEntity
  8
0
  6
CONTINUOUS
100
AcDbLine
 10
-0.0000000000000002
 20
5.854384280393278
 30
0.0
 11
1.420999999998571
 21
7.275384280391849
 31
0.0
  0
LINE
  5
BC78
330
BC72
100
AcDbEntity
  8
0
  6
CONTINUOUS
100
AcDbLine
 10
-0.0000000000000002
 20
5.180865071313091
 30
0.0
 11
1.420999999998571
 21
6.601865071311663
 31
0.0
  0
LINE
  5
BC79
330
BC72
100
AcDbEntity
  8
0
  6
CONTINUOUS
100
AcDbLine
 10
0.0
 20
4.507345862232905
 30
0.0
 11
1.420999999998571
 21
5.928345862231477
 31
0.0
  0
LINE
  5
BC7A
330
BC72
100
AcDbEntity
  8
0
  6
CONTINUOUS
100
AcDbLine
 10
-0.0000000000000003
 20
3.833826653152718
 30
0.0
 11
1.420999999998571
 21
5.25482665315129
 31
0.0
  0
LINE
  5
BC7B
330
BC72
100
AcDbEntity
  8
0
  6
CONTINUOUS
100
AcDbLine
 10
-0.0000000000000002
 20
3.160307444072532
 30
0.0
 11
1.420999999998571
 21
4.581307444071103
 31
0.0
  0
LINE
  5
BC7C
330
BC72
100
AcDbEntity
  8
0
  6
CONTINUOUS
100
AcDbLine
 10
-0.0000000000000001
 20
2.486788234992345
 30
0.0
 11
1.420999999998571
 21
3.907788234990917
 31
0.0
  0
LINE
  5
BC7D
330
BC72
100
AcDbEntity
  8
0
  6
CONTINUOUS
100
AcDbLine
 10
-0.0000000000000006
 20
1.813269025912159
 30
0.0
 11
1.420999999998571
 21
3.234269025910731
 31
0.0
  0
LINE
  5
BC7E
330
BC72
100
AcDbEntity
  8
0
  6
CONTINUOUS
100
AcDbLine
 10
0.0
 20
1.139749816831973
 30
0.0
 11
1.420999999998571
 21
2.560749816830544
 31
0.0
  0
LINE
  5
BC7F
330
BC72
100
AcDbEntity
  8
0
  6
CONTINUOUS
100
AcDbLine
 10
0.0000000000000002
 20
0.466230607751787
 30
0.0
 11
1.420999999998571
 21
1.887230607750358
 31
0.0
  0
LINE
  5
BC80
330
BC72
100
AcDbEntity
  8
0
  6
CONTINUOUS
100
AcDbLine
 10
0.2072886013284003
 20
-0.0000000000000009
 30
0.0
 11
1.420999999998571
 21
1.213711398670171
 31
0.0
  0
LINE
  5
BC81
330
BC72
100
AcDbEntity
  8
0
  6
CONTINUOUS
100
AcDbLine
 10
0.8808078104085864
 20
-0.0000000000000009
 30
0.0
 11
1.420999999998571
 21
0.5401921895899839
 31
0.0
  0
LINE
  5
BC82
330
BC72
100
AcDbEntity
  8
0
  6
CONTINUOUS
100
AcDbLine
 10
0.0581249075061505
 20
-0.0000000000000009
 30
0.0
 11
-0.0000000000000002
 21
0.0581249075061496
 31
0.0
  0
LINE
  5
BC83
330
BC72
100
AcDbEntity
  8
0
  6
CONTINUOUS
100
AcDbLine
 10
0.7316441165863372
 20
-0.0000000000000009
 30
0.0
 11
-0.0000000000000002
 21
0.7316441165863363
 31
0.0
  0
LINE
  5
BC84
330
BC72
100
AcDbEntity
  8
0
  6
CONTINUOUS
100
AcDbLine
 10
1.405163325666523
 20
-0.0000000000000009
 30
0.0
 11
-0.0000000000000002
 21
1.405163325666523
 31
0.0
  0
LINE
  5
BC85
330
BC72
100
AcDbEntity
  8
0
  6
CONTINUOUS
100
AcDbLine
 10
1.420999999998572
 20
0.6576825347481381
 30
0.0
 11
-0.0000000000000001
 21
2.07868253474671
 31
0.0
  0
LINE
  5
BC86
330
BC72
100
AcDbEntity
  8
0
  6
CONTINUOUS
100
AcDbLine
 10
1.420999999998571
 20
1.331201743828324
 30
0.0
 11
-0.0000000000000001
 21
2.752201743826896
 31
0.0
  0
LINE
  5
BC87
330
BC72
100
AcDbEntity
  8
0
  6
CONTINUOUS
100
AcDbLine
 10
1.420999999998571
 20
2.004720952908511
 30
0.0
 11
-0.0000000000000002
 21
3.425720952907082
 31
0.0
  0
LINE
  5
BC88
330
BC72
100
AcDbEntity
  8
0
  6
CONTINUOUS
100
AcDbLine
 10
1.420999999998571
 20
2.678240161988697
 30
0.0
 11
-0.0000000000000001
 21
4.099240161987269
 31
0.0
  0
LINE
  5
BC89
330
BC72
100
AcDbEntity
  8
0
  6
CONTINUOUS
100
AcDbLine
 10
1.420999999998572
 20
3.351759371068884
 30
0.0
 11
0.0
 21
4.772759371067455
 31
0.0
  0
LINE
  5
BC8A
330
BC72
100
AcDbEntity
  8
0
  6
CONTINUOUS
100
AcDbLine
 10
1.420999999998571
 20
4.02527858014907
 30
0.0
 11
-0.0000000000000003
 21
5.446278580147642
 31
0.0
  0
LINE
  5
BC8B
330
BC72
100
AcDbEntity
  8
0
  6
CONTINUOUS
100
AcDbLine
 10
1.420999999998571
 20
4.698797789229257
 30
0.0
 11
0.0
 21
6.119797789227828
 31
0.0
  0
LINE
  5
BC8C
330
BC72
100
AcDbEntity
  8
0
  6
CONTINUOUS
100
AcDbLine
 10
1.420999999998571
 20
5.372316998309444
 30
0.0
 11
-0.0000000000000001
 21
6.793316998308015
 31
0.0
  0
LINE
  5
BC8D
330
BC72
100
AcDbEntity
  8
0
  6
CONTINUOUS
100
AcDbLine
 10
1.420999999998572
 20
6.045836207389629
 30
0.0
 11
-0.0000000000000004
 21
7.466836207388202
 31
0.0
  0
LINE
  5
BC8E
330
BC72
100
AcDbEntity
  8
0
  6
CONTINUOUS
100
AcDbLine
 10
1.420999999998571
 20
6.719355416469816
 30
0.0
 11
0.0
 21
8.140355416468388
 31
0.0
  0
LINE
  5
BC8F
330
BC72
100
AcDbEntity
  8
0
  6
CONTINUOUS
100
AcDbLine
 10
1.420999999998571
 20
7.392874625550003
 30
0.0
 11
0.0507746255573185
 21
8.763099999991255
 31
0.0
  0
LINE
  5
BC90
330
BC72
100
AcDbEntity
  8
0
  6
CONTINUOUS
100
AcDbLine
 10
1.420999999998571
 20
8.06639383463019
 30
0.0
 11
0.7242938346375052
 21
8.763099999991255
 31
0.0
  0
LINE
  5
BC91
330
BC72
100
AcDbEntity
  8
0
  6
CONTINUOUS
100
AcDbLine
 10
1.420999999998571
 20
8.739913043710375
 30
0.0
 11
1.397813043717691
 21
8.763099999991255
 31
0.0
  0
ENDBLK
  5
BC9D
330
BC72
100
AcDbEntity
  8
0
100
AcDbBlockEnd
  0
ENDSEC
  0
SECTION
  2
ENTITIES
  0
LINE
  5
5F77
330
18
100
AcDbEntity
  8
1DIM
100
AcDbLine
 10
963.361567170527
 20
703.5801336532261
 30
0.0
 11
1313.361567170526
 21
703.5801336532261
 31
0.0
  0
TEXT
  5
5F78
330
18
100
AcDbEntity
  8
1TEXT
100
AcDbText
 10
996.3615671705252
 20
711.0801336532261
 30
0.0
 40
20.0
  1
表面処理：
 72
     1
 11
1050.361567170525
 21
711.0801336532261
 31
0.0
100
AcDbText
  0
LINE
  5
5F79
330
18
100
AcDbEntity
  8
1DIM
100
AcDbLine
 10
963.361567170527
 20
738.5801336532261
 30
0.0
 11
1313.361567170526
 21
738.5801336532261
 31
0.0
  0
LINE
  5
5F7A
330
18
100
AcDbEntity
  8
1DIM
100
AcDbLine
 10
963.361567170527
 20
738.5801336532261
 30
0.0
 11
1313.361567170526
 21
738.5801336532261
 31
0.0
  0
LINE
  5
5F7B
330
18
100
AcDbEntity
  8
1DIM
100
AcDbLine
 10
1138.361567170526
 20
738.5801336532261
 30
0.0
 11
1138.361567170527
 21
668.5801336532261
 31
0.0
  0
TEXT
  5
5F7C
330
18
100
AcDbEntity
  8
1TEXT
100
AcDbText
 10
1191.028233837191
 20
711.0801336532261
 30
0.0
 40
20.0
  1
コード
 72
     1
 11
1225.361567170524
 21
711.0801336532261
 31
0.0
100
AcDbText
  0
LINE
  5
5F7D
330
18
100
AcDbEntity
  8
1DIM
100
AcDbLine
 10
963.361567170527
 20
668.5801336532261
 30
0.0
 11
1313.361567170526
 21
668.5801336532261
 31
0.0
  0
TEXT
  5
5F7E
330
18
100
AcDbEntity
  8
1TEXT
100
AcDbText
 10
1016.361567170525
 20
677.0255655953717
 30
0.0
 40
20.0
  1
乳白色
 72
     1
 11
1050.361567170525
 21
677.0255655953717
 31
0.0
100
AcDbText
  0
TEXT
  5
5F7F
330
18
100
AcDbEntity
  8
1TEXT
100
AcDbText
 10
1150.361567170529
 20
675.0083487349791
 30
0.0
 40
20.0
  1
DE-02-SS
 72
     1
 11
1225.361567170529
 21
675.0083487349791
 31
0.0
100
AcDbText
  0
LINE
  5
5F80
330
18
100
AcDbEntity
  8
1DIM
100
AcDbLine
 10
963.3615671705268
 20
668.5801336532261
 30
0.0
 11
963.3615671705263
 21
738.5801336532261
 31
0.0
  0
LINE
  5
5F81
330
18
100
AcDbEntity
  8
1DIM
100
AcDbLine
 10
1313.361567170526
 20
668.5801336532261
 30
0.0
 11
1313.361567170526
 21
738.5801336532261
 31
0.0
  0
TEXT
  5
5F82
330
18
100
AcDbEntity
  8
1TEXT
100
AcDbText
 10
963.361567170527
 20
763.5801336532261
 30
0.0
 40
40.0
  1
DE-02-X
100
AcDbText
  0
LINE
  5
8F4E
330
18
100
AcDbEntity
  8
01
100
AcDbLine
 10
1253.574455186307
 20
102.3265633369341
 30
0.0
 11
999.5744551863145
 21
102.3265633369341
 31
0.0
  0
LINE
  5
8F4F
330
18
100
AcDbEntity
  8
01
100
AcDbLine
 10
999.5744551863108
 20
36.3265633369341
 30
0.0
 11
1253.574455186307
 21
36.3265633369341
 31
0.0
  0
ARC
  5
8F50
330
18
100
AcDbEntity
  8
01
100
AcDbCircle
 10
999.5744551863145
 20
99.3265633369341
 30
0.0
 40
3.0
100
AcDbArc
 50
90.0
 51
180.0
  0
LINE
  5
8F51
330
18
100
AcDbEntity
  8
01
100
AcDbLine
 10
996.5744551863145
 20
99.3265633369341
 30
0.0
 11
996.5744551863108
 21
39.3265633369341
 31
0.0
  0
ARC
  5
8F52
330
18
100
AcDbEntity
  8
01
100
AcDbCircle
 10
999.5744551863072
 20
39.3265633369341
 30
0.0
 40
3.0
100
AcDbArc
 50
180.0
 51
270.0
  0
ARC
  5
8F53
330
18
100
AcDbEntity
  8
01
100
AcDbCircle
 10
1253.574455186307
 20
99.3265633369341
 30
0.0
 40
3.0
100
AcDbArc
 50
0.0
 51
90.0
  0
LINE
  5
8F54
330
18
100
AcDbEntity
  8
01
100
AcDbLine
 10
1256.574455186307
 20
99.3265633369341
 30
0.0
 11
1256.574455186307
 21
39.3265633369341
 31
0.0
  0
ARC
  5
8F55
330
18
100
AcDbEntity
  8
01
100
AcDbCircle
 10
1253.574455186307
 20
39.3265633369341
 30
0.0
 40
3.0
100
AcDbArc
 50
270.0
 51
0.0
  0
LINE
  5
8FA6
330
18
100
AcDbEntity
  8
01
100
AcDbLine
 10
1347.76975182874
 20
101.3265633369341
 30
0.0
 11
1347.76975182874
 21
37.3265633369341
 31
0.0
  0
LINE
  5
8FA7
330
18
100
AcDbEntity
  8
01
100
AcDbLine
 10
1352.76975182874
 20
101.3265633369341
 30
0.0
 11
1352.76975182874
 21
37.3265633369341
 31
0.0
  0
LINE
  5
8FA8
330
18
100
AcDbEntity
  8
01
100
AcDbLine
 10
1348.76975182874
 20
102.3265633369341
 30
0.0
 11
1351.76975182874
 21
102.3265633369341
 31
0.0
  0
LINE
  5
8FA9
330
18
100
AcDbEntity
  8
01
100
AcDbLine
 10
1348.76975182874
 20
36.3265633369341
 30
0.0
 11
1351.76975182874
 21
36.3265633369341
 31
0.0
  0
LINE
  5
8FAA
330
18
100
AcDbEntity
  8
01
100
AcDbLine
 10
1351.76975182874
 20
102.3265633369341
 30
0.0
 11
1352.76975182874
 21
101.3265633369341
 31
0.0
  0
LINE
  5
8FAB
330
18
100
AcDbEntity
  8
01
100
AcDbLine
 10
1347.76975182874
 20
101.3265633369341
 30
0.0
 11
1348.76975182874
 21
102.3265633369341
 31
0.0
  0
LINE
  5
8FAC
330
18
100
AcDbEntity
  8
01
100
AcDbLine
 10
1348.76975182874
 20
36.3265633369341
 30
0.0
 11
1347.76975182874
 21
37.3265633369341
 31
0.0
  0
LINE
  5
8FAD
330
18
100
AcDbEntity
  8
01
100
AcDbLine
 10
1351.76975182874
 20
36.3265633369341
 30
0.0
 11
1352.76975182874
 21
37.3265633369341
 31
0.0
  0
TEXT
  5
8FD7
330
18
100
AcDbEntity
  8
1TEXT
100
AcDbText
 10
1069.314757511379
 20
3.092495520759257
 30
0.0
 40
10.5
  1
ガラス棚2枚付属
100
AcDbText
  0
LINE
  5
961C
330
18
100
AcDbEntity
  8
1CENTER
 48
0.5
100
AcDbLine
 10
1698.741167003087
 20
-294.7835965032831
 30
0.0
 11
1698.741167003087
 21
469.9967845279162
 31
0.0
  0
LINE
  5
961D
330
18
100
AcDbEntity
  8
1CENTER
 48
0.5
100
AcDbLine
 10
2198.694341740781
 20
88.47981031033271
 30
0.0
 11
2321.200989327474
 21
88.47981031033225
 31
0.0
  0
LINE
  5
961E
330
18
100
AcDbEntity
  8
1CENTER
 48
0.5
100
AcDbLine
 10
1878.849623005092
 20
88.47981031033225
 30
0.0
 11
1536.033691100119
 21
88.47981031033225
 31
0.0
  0
LINE
  5
9620
330
18
100
AcDbEntity
  8
1CENTER
 48
0.2
100
AcDbLine
 10
2281.672372875815
 20
-163.0409855967517
 30
0.0
 11
2281.672372875815
 21
-149.999393785727
 31
0.0
  0
LINE
  5
9621
330
18
100
AcDbEntity
  8
1CENTER
 48
0.2
100
AcDbLine
 10
2288.193168784484
 20
-156.5201896880807
 30
0.0
 11
2275.151576973458
 21
-156.5201896880807
 31
0.0
  0
LINE
  5
9627
330
18
100
AcDbEntity
  8
1CENTER
 48
0.5
100
AcDbLine
 10
1698.741167003087
 20
774.3858577344764
 30
0.0
 11
1698.741167003087
 21
684.0065154316272
 31
0.0
  0
LINE
  5
9635
330
18
100
AcDbEntity
  8
01
100
AcDbLine
 10
1560.130865583075
 20
720.6208778263805
 30
0.0
 11
1560.253901621071
 21
727.6696430311348
 31
0.0
  0
ARC
  5
964C
330
18
100
AcDbEntity
  8
01
100
AcDbCircle
 10
2545.336770097758
 20
806.6155011774837
 30
0.0
 40
1000.0
100
AcDbArc
 50
184.9332220252907
 51
186.43677501061
  0
ARC
  5
964D
330
18
100
AcDbEntity
  8
01
100
AcDbCircle
 10
1552.634297578488
 20
694.6208537423073
 30
0.0
 40
0.9999999999999245
100
AcDbArc
 50
186.4367750105818
 51
270.0000050089635
  0
LINE
  5
964F
330
18
100
AcDbEntity
  8
01
100
AcDbLine
 10
1564.726758973969
 20
755.6208547994644
 30
0.0
 11
1564.205160197806
 21
755.6208547538646
 31
0.0
  0
ARC
  5
9650
330
18
100
AcDbEntity
  8
01
100
AcDbCircle
 10
1564.205160372652
 20
753.6208547538646
 30
0.0
 40
2.000000000000007
100
AcDbArc
 50
90.00000500896347
 51
179.5000050089542
  0
LINE
  5
9651
330
18
100
AcDbEntity
  8
01
100
AcDbLine
 10
1564.115835164144
 20
720.6208778263805
 30
0.0
 11
1564.859042146389
 21
763.1993906399967
 31
0.0
  0
ARC
  5
9652
330
18
100
AcDbEntity
  8
01
100
AcDbCircle
 10
1569.358356781458
 20
763.1208552043714
 30
0.0
 40
4.5
100
AcDbArc
 50
90.00000500896347
 51
179.0000050089429
  0
LINE
  5
9653
330
18
100
AcDbEntity
  8
01
100
AcDbLine
 10
1569.358356388056
 20
767.6208552043714
 30
0.0
 11
1828.123977224715
 21
767.6208778263805
 31
0.0
  0
LINE
  5
9656
330
18
100
AcDbEntity
  8
01
100
AcDbLine
 10
1552.634297665911
 20
693.6208537423071
 30
0.0
 11
1845.741167178235
 21
693.6208793665211
 31
0.0
  0
ARC
  5
9658
330
18
100
AcDbEntity
  8
01
100
AcDbCircle
 10
2301.749559983245
 20
215.4798123025795
 30
0.0
 40
0.9999999999999999
100
AcDbArc
 50
135.0000025044775
 51
225.0000025044585
  0
CIRCLE
  5
9659
330
18
100
AcDbEntity
  8
01
100
AcDbCircle
 10
2281.672357833131
 20
106.9798114248989
 30
0.0
 40
2.250000000819341
  0
CIRCLE
  5
965A
330
18
100
AcDbEntity
  8
01
100
AcDbCircle
 10
2281.672368542422
 20
-156.5201885749451
 30
0.0
 40
2.250000000819341
  0
LINE
  5
965C
330
18
100
AcDbEntity
  8
01
100
AcDbLine
 10
2256.172372876934
 20
-263.720189689663
 30
0.0
 11
2256.17237244144
 21
-258.7387116571443
 31
0.0
  0
LINE
  5
965D
330
18
100
AcDbEntity
  8
01
100
AcDbLine
 10
2256.17237244144
 20
-258.7387116571448
 30
0.0
 11
2256.172341868886
 21
440.6798102915405
 31
0.0
  0
ARC
  5
965E
330
18
100
AcDbEntity
  8
01
100
AcDbCircle
 10
2342.166555708114
 20
-555.6118694951741
 30
0.0
 40
999.9960580052609
100
AcDbArc
 50
94.93321796966842
 51
96.43677547316288
  0
ARC
  5
965F
330
18
100
AcDbEntity
  8
01
100
AcDbCircle
 10
2230.172342183007
 20
437.0866849748842
 30
0.0
 40
1.0
100
AcDbArc
 50
96.43677547316288
 51
180.0000025044687
  0
ARC
  5
9660
330
18
100
AcDbEntity
  8
01
100
AcDbCircle
 10
2342.166499399972
 20
732.5714976350238
 30
0.0
 40
999.9960580065963
100
AcDbArc
 50
263.5632295357973
 51
265.0667870518127
  0
ARC
  5
9661
330
18
100
AcDbEntity
  8
01
100
AcDbCircle
 10
2230.172372659186
 20
-260.1270666272034
 30
0.0
 40
1.0
100
AcDbArc
 50
180.0000025044687
 51
263.5632295357973
  0
ARC
  5
9662
330
18
100
AcDbEntity
  8
01
100
AcDbCircle
 10
2298.672343620644
 20
420.9214313764247
 30
0.0
 40
4.5
100
AcDbArc
 50
0.0000025044687019
 51
89.5000025044683
  0
LINE
  5
9663
330
18
100
AcDbEntity
  8
01
100
AcDbLine
 10
2256.172342519631
 20
425.792492760001
 30
0.0
 11
2298.711612833693
 21
425.4212600319303
 31
0.0
  0
ARC
  5
9664
330
18
100
AcDbEntity
  8
01
100
AcDbCircle
 10
2298.672372683614
 20
-243.9618070402838
 30
0.0
 40
4.499999999999986
100
AcDbArc
 50
270.5000025044774
 51
0.0000025044687019
  0
LINE
  5
9665
330
18
100
AcDbEntity
  8
01
100
AcDbLine
 10
2256.172372864077
 20
-248.8328721318611
 30
0.0
 11
2298.71164229005
 21
-248.4616356923565
 31
0.0
  0
LINE
  5
9666
330
18
100
AcDbEntity
  8
01
100
AcDbLine
 10
2288.19853704334
 20
116.5057638476347
 30
0.0
 11
2256.17235739818
 21
116.7852506830124
 31
0.0
  0
ARC
  5
9667
330
18
100
AcDbEntity
  8
01
100
AcDbCircle
 10
2288.172357567994
 20
113.505878077298
 30
0.0
 40
3.0
100
AcDbArc
 50
0.0000025044687019
 51
89.50000250485914
  0
LINE
  5
9668
330
18
100
AcDbEntity
  8
01
100
AcDbLine
 10
2291.172356759233
 20
113.5080809321854
 30
0.0
 11
2291.17235760431
 21
94.17508789427495
 31
0.0
  0
LINE
  5
9669
330
18
100
AcDbEntity
  8
01
100
AcDbLine
 10
2291.172358102205
 20
82.78453272646959
 30
0.0
 11
2291.17235813852
 21
81.95374547203767
 31
0.0
  0
LINE
  5
966A
330
18
100
AcDbEntity
  8
01
100
AcDbLine
 10
2288.198537876125
 20
78.95385957285555
 30
0.0
 11
2256.172358255399
 21
78.67436993765989
 31
0.0
  0
ARC
  5
966B
330
18
100
AcDbEntity
  8
01
100
AcDbCircle
 10
2288.17235813852
 20
81.95374534090399
 30
0.0
 40
3.0
100
AcDbArc
 50
270.5000025040866
 51
0.0000025044687019
  0
LINE
  5
966C
330
18
100
AcDbEntity
  8
01
100
AcDbLine
 10
2291.17236814729
 20
-147.0201881597626
 30
0.0
 11
2256.172368107469
 21
-146.7147493169867
 31
0.0
  0
ARC
  5
966D
330
18
100
AcDbEntity
  8
01
100
AcDbCircle
 10
2286.172288086452
 20
-151.9768240113152
 30
0.0
 40
5.000080278131815
100
AcDbArc
 50
0.0009144096313613
 51
89.49909064042018
  0
LINE
  5
966E
330
18
100
AcDbEntity
  8
01
100
AcDbLine
 10
2291.17236814729
 20
-147.0201881597626
 30
0.0
 11
2291.172368977805
 21
-166.0201881597667
 31
0.0
  0
ARC
  5
966F
330
18
100
AcDbEntity
  8
01
100
AcDbCircle
 10
2286.172288483645
 20
-161.063552745335
 30
0.0
 40
5.000080278132099
100
AcDbArc
 50
270.5009143685523
 51
359.999090599306
  0
LINE
  5
9670
330
18
100
AcDbEntity
  8
01
100
AcDbLine
 10
2291.172368977805
 20
-166.0201881597667
 30
0.0
 11
2256.172368964688
 21
-166.3256300623397
 31
0.0
  0
ARC
  5
9671
330
18
100
AcDbEntity
  8
01
100
AcDbCircle
 10
2301.749571085938
 20
-38.52018769742051
 30
0.0
 40
0.9999999999999999
100
AcDbArc
 50
135.0000025044775
 51
225.0000025044585
  0
LINE
  5
9672
330
18
100
AcDbEntity
  8
01
100
AcDbLine
 10
2302.586208348466
 20
217.7306743651321
 30
0.0
 11
2301.042453171151
 21
216.186919052857
 31
0.0
  0
LINE
  5
9673
330
18
100
AcDbEntity
  8
01
100
AcDbLine
 10
2303.172352440561
 20
219.1452456675789
 30
0.0
 11
2303.172343620644
 21
420.9214315731261
 31
0.0
  0
ARC
  5
9674
330
18
100
AcDbEntity
  8
01
100
AcDbCircle
 10
2301.172570679582
 20
219.144244732931
 30
0.0
 40
1.99913797513006
100
AcDbArc
 50
315.0013639138451
 51
0.0184348464160099
  0
LINE
  5
9675
330
18
100
AcDbEntity
  8
01
100
AcDbLine
 10
2301.042453232967
 20
214.7727054904841
 30
0.0
 11
2302.586208545243
 21
213.2289503131689
 31
0.0
  0
ARC
  5
9676
330
18
100
AcDbEntity
  8
01
100
AcDbCircle
 10
2301.172570999925
 20
211.8153798217796
 30
0.0
 40
1.999137975142085
100
AcDbArc
 50
359.9815701627301
 51
44.99864109500768
  0
LINE
  5
9677
330
18
100
AcDbEntity
  8
01
100
AcDbLine
 10
2302.586219647935
 20
-40.77104968683113
 30
0.0
 11
2301.04246433566
 21
-39.22729450951545
 31
0.0
  0
ARC
  5
9678
330
18
100
AcDbEntity
  8
01
100
AcDbCircle
 10
2301.172582102615
 20
-42.18462017822037
 30
0.0
 40
1.999137975144453
100
AcDbArc
 50
359.9815701627301
 51
44.99864109497084
  0
LINE
  5
9679
330
18
100
AcDbEntity
  8
01
100
AcDbLine
 10
2303.172372683614
 20
-243.9618068435828
 30
0.0
 11
2303.172363863696
 21
-42.18562093803564
 31
0.0
  0
LINE
  5
967A
330
18
100
AcDbEntity
  8
01
100
AcDbLine
 10
2301.042464273843
 20
-37.81308094714257
 30
0.0
 11
2302.586219451158
 21
-36.26932563486741
 31
0.0
  0
LINE
  5
967B
330
18
100
AcDbEntity
  8
01
100
AcDbLine
 10
2303.172363543254
 20
-34.85475433242061
 30
0.0
 11
2303.172352761003
 21
211.8143790619639
 31
0.0
  0
ARC
  5
967C
330
18
100
AcDbEntity
  8
01
100
AcDbCircle
 10
2301.172581782257
 20
-34.85575526706077
 30
0.0
 40
1.999137975148113
100
AcDbArc
 50
315.0013639140293
 51
0.0184348461815139
  0
LINE
  5
967E
330
18
100
AcDbEntity
  8
01
100
AcDbLine
 10
2229.172372659188
 20
-260.1270666709148
 30
0.0
 11
2229.172342183007
 21
437.0866849748842
 31
0.0
  0
LINE
  5
9680
330
18
100
AcDbEntity
  8
01
100
AcDbLine
 10
2252.172357915383
 20
77.17183952336757
 30
0.0
 11
2252.17235692681
 21
99.78778118380444
 31
0.0
  0
ARC
  5
9681
330
18
100
AcDbEntity
  8
01
100
AcDbCircle
 10
2251.17235692681
 20
99.78778114009322
 30
0.0
 40
1.0
100
AcDbArc
 50
0.0000025044687019
 51
89.50000000000846
  0
ARC
  5
9682
330
18
100
AcDbEntity
  8
01
100
AcDbCircle
 10
1843.467119936539
 20
435.7057632437828
 30
0.0
 40
4.974052617282021
100
AcDbArc
 50
359.9144031680223
 51
90.08559683200373
  0
LINE
  5
9683
330
18
100
AcDbEntity
  8
01
100
AcDbLine
 10
1554.022645035606
 20
-263.7201896896676
 30
0.0
 11
1843.459688970568
 21
-263.7201896896676
 31
0.0
  0
ARC
  5
9684
330
18
100
AcDbEntity
  8
01
100
AcDbCircle
 10
1843.467119936543
 20
-258.746142623122
 30
0.0
 40
4.974052617278729
100
AcDbArc
 50
269.9144031679442
 51
0.0855968320297829
  0
LINE
  5
9685
330
18
100
AcDbEntity
  8
01
100
AcDbLine
 10
1848.441167003087
 20
-258.7387116571493
 30
0.0
 11
1848.441167003086
 21
435.6983322778129
 31
0.0
  0
LINE
  5
9686
330
18
100
AcDbEntity
  8
01
100
AcDbLine
 10
1843.459688970568
 20
440.6798103103316
 30
0.0
 11
1554.022645035605
 21
440.6798103103316
 31
0.0
  0
ARC
  5
9687
330
18
100
AcDbEntity
  8
01
100
AcDbCircle
 10
1554.01521406963
 20
435.7057632437887
 30
0.0
 40
4.974052617277325
100
AcDbArc
 50
89.91440316797022
 51
180.0855968320298
  0
LINE
  5
9688
330
18
100
AcDbEntity
  8
01
100
AcDbLine
 10
1549.041167003086
 20
435.6983322778129
 30
0.0
 11
1549.041167003086
 21
-258.7387116571489
 31
0.0
  0
ARC
  5
9689
330
18
100
AcDbEntity
  8
01
100
AcDbCircle
 10
1554.015214069628
 20
-258.7461426231274
 30
0.0
 40
4.974052617274699
100
AcDbArc
 50
179.9144031679181
 51
270.0855968320558
  0
ARC
  5
968A
330
18
100
AcDbEntity
  8
01
100
AcDbCircle
 10
1839.241167003087
 20
-254.5201908698754
 30
0.0
 40
4.25
100
AcDbArc
 50
258.5688446395837
 51
39.10788233059704
  0
LINE
  5
9697
330
18
100
AcDbEntity
  8
01
100
AcDbLine
 10
1848.441167003086
 20
720.6208778263805
 30
0.0
 11
1549.041169006043
 21
720.6208778263805
 31
0.0
  0
ARC
  5
969B
330
18
100
AcDbEntity
  8
01
100
AcDbCircle
 10
852.1455604993985
 20
806.6154384767498
 30
0.0
 40
1000.0
100
AcDbArc
 50
353.5120322332659
 51
355.0667815805569
  0
ARC
  5
969C
330
18
100
AcDbEntity
  8
01
100
AcDbCircle
 10
1844.848042809547
 20
694.6208778263805
 30
0.0
 40
0.9999999999999245
100
AcDbArc
 50
270.0
 51
270.0979811744433
  0
LINE
  5
969E
330
18
100
AcDbEntity
  8
01
100
AcDbLine
 10
1832.755576081277
 20
755.6208778263805
 30
0.0
 11
1834.964988099697
 21
755.6208778263805
 31
0.0
  0
LINE
  5
969F
330
18
100
AcDbEntity
  8
01
100
AcDbLine
 10
1833.366503353768
 20
720.6208778263805
 30
0.0
 11
1832.623292246321
 21
763.1994136553486
 31
0.0
  0
ARC
  5
96A0
330
18
100
AcDbEntity
  8
01
100
AcDbCircle
 10
1828.123977618117
 20
763.1208778263805
 30
0.0
 40
4.5
100
AcDbArc
 50
1.000000000001762
 51
90.0
  0
LINE
  5
970E
330
18
100
AcDbEntity
  8
01
100
AcDbLine
 10
1845.741167178236
 20
-256.0501920500836
 30
0.0
 11
1845.741167178236
 21
75.97981031032862
 31
0.0
  0
LINE
  5
970F
330
18
100
AcDbEntity
  8
01
100
AcDbLine
 10
1845.741167178236
 20
100.9798103103304
 30
0.0
 11
1845.741167178236
 21
433.0098079499145
 31
0.0
  0
LINE
  5
9710
330
18
100
AcDbEntity
  8
01
100
AcDbLine
 10
1840.771167178236
 20
437.9798079499147
 30
0.0
 11
1556.711173472373
 21
437.9798079499147
 31
0.0
  0
LINE
  5
9711
330
18
100
AcDbEntity
  8
01
100
AcDbLine
 10
1556.711173472373
 20
-261.0201920500839
 30
0.0
 11
1840.771167178236
 21
-261.0201920500839
 31
0.0
  0
LINE
  5
9712
330
18
100
AcDbEntity
  8
01
100
AcDbLine
 10
1551.741173472373
 20
-256.0501920500836
 30
0.0
 11
1551.741173472373
 21
433.0098079499145
 31
0.0
  0
ARC
  5
9713
330
18
100
AcDbEntity
  8
01
100
AcDbCircle
 10
1556.711173472373
 20
-256.0501920500836
 30
0.0
 40
4.97
100
AcDbArc
 50
180.0
 51
270.0
  0
ARC
  5
9714
330
18
100
AcDbEntity
  8
01
100
AcDbCircle
 10
1840.771167178235
 20
-256.0501920500845
 30
0.0
 40
4.97
100
AcDbArc
 50
270.0
 51
0.0
  0
ARC
  5
9715
330
18
100
AcDbEntity
  8
01
100
AcDbCircle
 10
1840.771167178234
 20
433.0098079499145
 30
0.0
 40
4.97
100
AcDbArc
 50
0.0
 51
89.99999999997394
  0
ARC
  5
9716
330
18
100
AcDbEntity
  8
01
100
AcDbCircle
 10
1556.711173472373
 20
433.0098079499145
 30
0.0
 40
4.97
100
AcDbArc
 50
90.0
 51
180.0
  0
LINE
  5
9761
330
18
100
AcDbEntity
  8
01
100
AcDbLine
 10
1559.626388504606
 20
437.4798103103323
 30
0.0
 11
1832.626388504606
 21
437.4798103103323
 31
0.0
  0
LINE
  5
9762
330
18
100
AcDbEntity
  8
01
100
AcDbLine
 10
1832.626388504606
 20
-260.5201896896677
 30
0.0
 11
1559.626388504606
 21
-260.5201896896677
 31
0.0
  0
ARC
  5
9763
330
18
100
AcDbEntity
  8
01
100
AcDbCircle
 10
1559.626388504606
 20
-255.5201896896677
 30
0.0
 40
5.0
100
AcDbArc
 50
180.0
 51
270.0
  0
LINE
  5
9764
330
18
100
AcDbEntity
  8
01
100
AcDbLine
 10
1842.626388504606
 20
427.4798103103323
 30
0.0
 11
1842.626388504606
 21
103.4798103103286
 31
0.0
  0
ARC
  5
9765
330
18
100
AcDbEntity
  8
01
100
AcDbCircle
 10
1832.626388504606
 20
-250.5201896896677
 30
0.0
 40
10.0
100
AcDbArc
 50
270.0
 51
0.0
  0
LINE
  5
9766
330
18
100
AcDbEntity
  8
01
100
AcDbLine
 10
1554.626388504606
 20
432.4798103103323
 30
0.0
 11
1554.626388504606
 21
379.6501196968248
 31
0.0
  0
ARC
  5
9767
330
18
100
AcDbEntity
  8
01
100
AcDbCircle
 10
1559.626388504606
 20
432.4798103103323
 30
0.0
 40
5.0
100
AcDbArc
 50
90.0
 51
180.0
  0
LINE
  5
9768
330
18
100
AcDbEntity
  8
01
100
AcDbLine
 10
1554.626388504606
 20
347.3095009198197
 30
0.0
 11
1554.626388504606
 21
-170.3498803000938
 31
0.0
  0
LINE
  5
9769
330
18
100
AcDbEntity
  8
01
100
AcDbLine
 10
1554.626388504606
 20
-202.6904990770989
 30
0.0
 11
1554.626388504606
 21
-255.5201896896677
 31
0.0
  0
LINE
  5
976A
330
18
100
AcDbEntity
  8
01
100
AcDbLine
 10
1590.061295975767
 20
378.9798103083205
 30
0.0
 11
1590.061295975767
 21
347.9798103083277
 31
0.0
  0
LINE
  5
976B
330
18
100
AcDbEntity
  8
01
100
AcDbLine
 10
1554.561295975767
 20
378.9798103083205
 30
0.0
 11
1554.561295975767
 21
347.9798103083277
 31
0.0
  0
LINE
  5
976C
330
18
100
AcDbEntity
  8
01
100
AcDbLine
 10
1589.061295975767
 20
379.9798103083205
 30
0.0
 11
1555.561295975767
 21
379.9798103083205
 31
0.0
  0
LINE
  5
976D
330
18
100
AcDbEntity
  8
01
100
AcDbLine
 10
1555.561295975767
 20
346.9798103083277
 30
0.0
 11
1589.061295975767
 21
346.9798103083277
 31
0.0
  0
ARC
  5
976E
330
18
100
AcDbEntity
  8
01
100
AcDbCircle
 10
1589.061295975767
 20
378.9798103083205
 30
0.0
 40
1.0
100
AcDbArc
 50
0.0
 51
90.0
  0
ARC
  5
976F
330
18
100
AcDbEntity
  8
01
100
AcDbCircle
 10
1555.561295975767
 20
378.9798103083205
 30
0.0
 40
1.0
100
AcDbArc
 50
90.0
 51
180.0
  0
ARC
  5
9770
330
18
100
AcDbEntity
  8
01
100
AcDbCircle
 10
1555.561295975767
 20
347.9798103083277
 30
0.0
 40
1.0
100
AcDbArc
 50
180.0
 51
270.0
  0
ARC
  5
9771
330
18
100
AcDbEntity
  8
01
100
AcDbCircle
 10
1589.061295975767
 20
347.9798103083277
 30
0.0
 40
1.0
100
AcDbArc
 50
270.0
 51
0.0
  0
LINE
  5
9772
330
18
100
AcDbEntity
  8
01
100
AcDbLine
 10
1590.061295975998
 20
-171.0201896877505
 30
0.0
 11
1590.061295975998
 21
-202.0201896877433
 31
0.0
  0
LINE
  5
9773
330
18
100
AcDbEntity
  8
01
100
AcDbLine
 10
1554.561295975998
 20
-171.0201896877505
 30
0.0
 11
1554.561295975998
 21
-202.0201896877433
 31
0.0
  0
LINE
  5
9774
330
18
100
AcDbEntity
  8
01
100
AcDbLine
 10
1589.061295976
 20
-170.0201896877505
 30
0.0
 11
1555.561295975998
 21
-170.0201896877505
 31
0.0
  0
LINE
  5
9775
330
18
100
AcDbEntity
  8
01
100
AcDbLine
 10
1555.561295975998
 20
-203.0201896877433
 30
0.0
 11
1589.061295975998
 21
-203.0201896877433
 31
0.0
  0
ARC
  5
9776
330
18
100
AcDbEntity
  8
01
100
AcDbCircle
 10
1589.061295976
 20
-171.0201896877505
 30
0.0
 40
1.0
100
AcDbArc
 50
0.0
 51
90.0
  0
ARC
  5
9777
330
18
100
AcDbEntity
  8
01
100
AcDbCircle
 10
1555.561295975998
 20
-171.0201896877505
 30
0.0
 40
1.0
100
AcDbArc
 50
90.0
 51
180.0
  0
ARC
  5
9778
330
18
100
AcDbEntity
  8
01
100
AcDbCircle
 10
1555.561295975998
 20
-202.0201896877433
 30
0.0
 40
1.0
100
AcDbArc
 50
180.0
 51
270.0
  0
ARC
  5
9779
330
18
100
AcDbEntity
  8
01
100
AcDbCircle
 10
1589.061295975998
 20
-202.0201896877433
 30
0.0
 40
1.0
100
AcDbArc
 50
270.0
 51
0.0
  0
LINE
  5
977C
330
18
100
AcDbEntity
  8
01
100
AcDbLine
 10
1587.198678352652
 20
690.6208665092319
 30
0.0
 11
1556.49867835264
 21
690.6208665094865
 31
0.0
  0
LINE
  5
977D
330
18
100
AcDbEntity
  8
01
100
AcDbLine
 10
1554.661295975828
 20
690.6208665093628
 30
0.0
 11
1841.541871892618
 21
690.6208665093628
 31
0.0
  0
LINE
  5
977E
330
18
100
AcDbEntity
  8
01
100
AcDbLine
 10
1554.561295975768
 20
686.6208665093626
 30
0.0
 11
1841.626388504606
 21
686.6208665093628
 31
0.0
  0
LINE
  5
977F
330
18
100
AcDbEntity
  8
01
100
AcDbLine
 10
1842.626388504606
 20
687.6208665093628
 30
0.0
 11
1841.626388504606
 21
686.6208665093628
 31
0.0
  0
LINE
  5
9780
330
18
100
AcDbEntity
  8
01
 48
0.5
100
AcDbLine
 10
1842.626388504606
 20
689.6208665093628
 30
0.0
 11
1842.626388504606
 21
687.6208665093628
 31
0.0
  0
LINE
  5
9781
330
18
100
AcDbEntity
  8
01
 48
0.5
100
AcDbLine
 10
1841.626388504606
 20
690.6208665093628
 30
0.0
 11
1842.626388504606
 21
689.6208665093628
 31
0.0
  0
LINE
  5
9783
330
18
100
AcDbEntity
  8
01
100
AcDbLine
 10
1844.126388504606
 20
692.7708665093625
 30
0.0
 11
1815.126388504606
 21
692.7708665093625
 31
0.0
  0
LINE
  5
9784
330
18
100
AcDbEntity
  8
01
100
AcDbLine
 10
1844.326388504605
 20
691.9708665093614
 30
0.0
 11
1815.126388504606
 21
691.9708665093632
 31
0.0
  0
LINE
  5
9785
330
18
100
AcDbEntity
  8
01
100
AcDbLine
 10
1844.126388504606
 20
684.4708665093614
 30
0.0
 11
1815.126388504606
 21
684.4708665093614
 31
0.0
  0
LINE
  5
9786
330
18
100
AcDbEntity
  8
01
100
AcDbLine
 10
1844.326388504605
 20
685.2708665093625
 30
0.0
 11
1815.126388504606
 21
685.2708665093625
 31
0.0
  0
LINE
  5
9787
330
18
100
AcDbEntity
  8
01
100
AcDbLine
 10
1845.126388504606
 20
691.7708665093625
 30
0.0
 11
1845.126388504606
 21
685.4708665093614
 31
0.0
  0
LINE
  5
9788
330
18
100
AcDbEntity
  8
01
100
AcDbLine
 10
1844.326388504605
 20
691.9708665093614
 30
0.0
 11
1844.326388504605
 21
685.2708665093625
 31
0.0
  0
ARC
  5
9789
330
18
100
AcDbEntity
  8
01
100
AcDbCircle
 10
1844.126388504606
 20
691.7708665093606
 30
0.0
 40
1.0
100
AcDbArc
 50
0.0000000000521102
 51
90.0
  0
ARC
  5
978A
330
18
100
AcDbEntity
  8
01
100
AcDbCircle
 10
1844.126388504606
 20
685.4708665093614
 30
0.0
 40
1.0
100
AcDbArc
 50
270.0
 51
0.0000000000521102
  0
ARC
  5
978B
330
18
100
AcDbEntity
  8
01
100
AcDbCircle
 10
1839.126388504606
 20
688.6208665093628
 30
0.0
 40
3.7
100
AcDbArc
 50
327.2795566304388
 51
32.72044336956116
  0
LINE
  5
978C
330
18
100
AcDbEntity
  8
01
100
AcDbLine
 10
1817.126388504606
 20
690.620866509361
 30
0.0
 11
1842.239264987478
 21
690.6208665093628
 31
0.0
  0
LINE
  5
978D
330
18
100
AcDbEntity
  8
01
100
AcDbLine
 10
1842.239264987478
 20
686.6208665093628
 30
0.0
 11
1817.126388504606
 21
686.620866509361
 31
0.0
  0
LINE
  5
978E
330
18
100
AcDbEntity
  8
01
100
AcDbLine
 10
1815.126388504606
 20
692.7708665093625
 30
0.0
 11
1815.126388504606
 21
691.9708665093632
 31
0.0
  0
LINE
  5
978F
330
18
100
AcDbEntity
  8
01
100
AcDbLine
 10
1815.126388504606
 20
685.2708665093625
 30
0.0
 11
1815.126388504606
 21
684.4708665093614
 31
0.0
  0
LINE
  5
9790
330
18
100
AcDbEntity
  8
01
100
AcDbLine
 10
1817.126388504606
 20
690.6208665093628
 30
0.0
 11
1817.126388504606
 21
691.9708665093632
 31
0.0
  0
LINE
  5
9791
330
18
100
AcDbEntity
  8
01
100
AcDbLine
 10
1817.126388504606
 20
686.6208665093628
 30
0.0
 11
1817.126388504606
 21
685.2708665093625
 31
0.0
  0
ARC
  5
97AA
330
18
100
AcDbEntity
  8
01
100
AcDbCircle
 10
1576.178106651692
 20
692.5362707942596
 30
0.0
 40
1.5
100
AcDbArc
 50
359.4999999999823
 51
46.30742993460316
  0
LINE
  5
97B2
330
18
100
AcDbEntity
  8
01
100
AcDbLine
 10
1588.633632739702
 20
691.820866509469
 30
0.0
 11
1558.633632739702
 21
691.8208665094672
 31
0.0
  0
LINE
  5
97B5
330
18
100
AcDbEntity
  8
01
100
AcDbLine
 10
1587.833632739701
 20
692.6208665094701
 30
0.0
 11
1576.933632739701
 21
692.620866509472
 31
0.0
  0
LINE
  5
97B8
330
18
100
AcDbEntity
  8
01
100
AcDbLine
 10
1558.6336327397
 20
690.6208665094683
 30
0.0
 11
1558.633632739702
 21
691.8208665094672
 31
0.0
  0
LINE
  5
97B9
330
18
100
AcDbEntity
  8
01
100
AcDbLine
 10
1588.6336327397
 20
690.6208665094683
 30
0.0
 11
1588.633632739702
 21
691.820866509469
 31
0.0
  0
LINE
  5
97BC
330
18
100
AcDbEntity
  8
01
100
AcDbLine
 10
1588.633632739702
 20
691.820866509469
 30
0.0
 11
1587.833632739701
 21
692.6208665094701
 31
0.0
  0
LINE
  5
97BD
330
18
100
AcDbEntity
  8
01
100
AcDbLine
 10
1576.133632739702
 20
691.820866509469
 30
0.0
 11
1576.933632739701
 21
692.620866509472
 31
0.0
  0
ARC
  5
9810
330
18
100
AcDbEntity
  8
01
100
AcDbCircle
 10
1555.561295975767
 20
679.8208665093636
 30
0.0
 40
1.000000000000036
100
AcDbArc
 50
180.0
 51
270.0
  0
LINE
  5
9811
330
18
100
AcDbEntity
  8
01
100
AcDbLine
 10
1555.561295975767
 20
678.8208665093636
 30
0.0
 11
1589.061295975769
 21
678.8208665093636
 31
0.0
  0
ARC
  5
9812
330
18
100
AcDbEntity
  8
01
100
AcDbCircle
 10
1589.061295975767
 20
679.8208665093636
 30
0.0
 40
1.000000000000014
100
AcDbArc
 50
270.0
 51
0.0
  0
LINE
  5
9816
330
18
100
AcDbEntity
  8
01
100
AcDbLine
 10
1590.061295975767
 20
679.8208665093636
 30
0.0
 11
1590.061295975767
 21
686.6208665093628
 31
0.0
  0
LINE
  5
9817
330
18
100
AcDbEntity
  8
01
100
AcDbLine
 10
1554.561295975767
 20
686.6208665093628
 30
0.0
 11
1554.561295975767
 21
679.8208665093636
 31
0.0
  0
LINE
  5
981C
330
18
100
AcDbEntity
  8
01
100
AcDbLine
 10
1560.406814489507
 20
730.9081408216895
 30
0.0
 11
1560.544518991344
 21
746.6875138039283
 31
0.0
  0
ARC
  5
9820
330
18
100
AcDbEntity
  8
01
 48
0.5
100
AcDbCircle
 10
1559.925420820275
 20
733.0423968218471
 30
0.0
 40
0.5
100
AcDbArc
 50
269.4999999999824
 51
359.5000000000344
  0
ARC
  5
9821
330
18
100
AcDbEntity
  8
01
100
AcDbCircle
 10
1559.875679567942
 20
727.3426138603769
 30
0.0
 40
0.5
100
AcDbArc
 50
359.5000000000344
 51
89.49999999998239
  0
LINE
  5
9822
330
18
100
AcDbEntity
  8
01
 48
0.5
100
AcDbLine
 10
1559.180069489461
 20
727.8487033967573
 30
0.0
 11
1559.880042835691
 21
727.8425948219079
 31
0.0
  0
LINE
  5
9823
330
18
100
AcDbEntity
  8
01
100
AcDbLine
 10
1559.180069489461
 20
727.8487033967573
 30
0.0
 11
1559.221084206303
 21
732.5485244351709
 31
0.0
  0
LINE
  5
9824
330
18
100
AcDbEntity
  8
01
 48
0.5
100
AcDbLine
 10
1559.221084206303
 20
732.5485244351709
 30
0.0
 11
1559.921057552526
 21
732.5424158603142
 31
0.0
  0
LINE
  5
9826
330
18
100
AcDbEntity
  8
01
100
AcDbLine
 10
1562.14445806814
 20
746.6735513471318
 30
0.0
 11
1560.544518991344
 21
746.6875138039283
 31
0.0
  0
LINE
  5
982F
330
18
100
AcDbEntity
  8
01
100
AcDbLine
 10
2229.172356874704
 20
100.9798103103304
 30
0.0
 11
2251.181083462308
 21
100.7877430631576
 31
0.0
  0
LINE
  5
9830
330
18
100
AcDbEntity
  8
01
100
AcDbLine
 10
2229.172357967489
 20
75.97981031032862
 30
0.0
 11
2251.181084450882
 21
76.17187755659245
 31
0.0
  0
ARC
  5
9831
330
18
100
AcDbEntity
  8
01
100
AcDbCircle
 10
2251.172357915383
 20
77.17183947965634
 30
0.0
 40
1.0
100
AcDbArc
 50
270.4999999999915
 51
0.0000025044687019
  0
LINE
  5
9832
330
18
100
AcDbEntity
  8
01
100
AcDbLine
 10
1848.087817696847
 20
99.97981031033044
 30
0.0
 11
1848.087817696847
 21
76.97981031033407
 31
0.0
  0
LINE
  5
9833
330
18
100
AcDbEntity
  8
01
100
AcDbLine
 10
1845.741167178236
 20
75.97981031032862
 30
0.0
 11
1847.925212334574
 21
76.16662001331144
 31
0.0
  0
LINE
  5
9834
330
18
100
AcDbEntity
  8
01
100
AcDbLine
 10
1845.741167178236
 20
100.9798103103304
 30
0.0
 11
1847.925212336306
 21
100.793000607057
 31
0.0
  0
LINE
  5
9851
330
18
100
AcDbEntity
  8
01
100
AcDbLine
 10
2303.172357898602
 20
94.27981031033244
 30
0.0
 11
2256.172357028439
 21
93.86964751657263
 31
0.0
  0
LINE
  5
9852
330
18
100
AcDbEntity
  8
01
100
AcDbLine
 10
2303.172358405654
 20
82.67981031033207
 30
0.0
 11
2256.172357499633
 21
83.08997310440475
 31
0.0
  0
LINE
  5
9855
330
18
100
AcDbEntity
  8
01
100
AcDbLine
 10
1835.264942408243
 20
755.3261135483118
 30
0.0
 11
1835.870724551119
 21
720.6208778263805
 31
0.0
  0
ARC
  5
9856
330
18
100
AcDbEntity
  8
01
100
AcDbCircle
 10
1834.964988099697
 20
755.3208778263808
 30
0.0
 40
0.3
100
AcDbArc
 50
1.000000000001762
 51
90.0
  0
ELLIPSE
  5
9857
330
18
100
AcDbEntity
  8
01
100
AcDbEllipse
 10
1847.919239666968
 20
99.97981031033044
 30
0.0
 11
0.0
 21
0.813701161890009
 31
0.0
210
0.0
220
0.0
230
1.0
 40
0.2071743752803125
 41
4.71238898038469
 42
6.247748188863823
  0
ELLIPSE
  5
9859
330
18
100
AcDbEntity
  8
01
100
AcDbEllipse
 10
1847.919239666968
 20
76.97981031033407
 30
0.0
 11
0.0
 21
-0.813701161890009
 31
0.0
210
0.0
220
0.0
230
-1.0
 40
0.2071743752803125
 41
4.71238898038469
 42
6.24774819913983
  0
ARC
  5
985F
330
18
100
AcDbEntity
  8
01
100
AcDbCircle
 10
2215.372364144671
 20
-202.0201896886655
 30
0.0
 40
1.0
100
AcDbArc
 50
180.0000000011464
 51
270.0000000011464
  0
LINE
  5
9860
330
18
100
AcDbEntity
  8
01
100
AcDbLine
 10
2214.372364144045
 20
-171.0201896886728
 30
0.0
 11
2214.372364144671
 21
-202.0201896886728
 31
0.0
  0
LINE
  5
9861
330
18
100
AcDbEntity
  8
01
100
AcDbLine
 10
2222.172364144034
 20
-170.0201896885127
 30
0.0
 11
2215.372364144031
 21
-170.0201896886509
 31
0.0
  0
ARC
  5
9862
330
18
100
AcDbEntity
  8
01
100
AcDbCircle
 10
2215.372364144045
 20
-171.0201896886655
 30
0.0
 40
1.0
100
AcDbArc
 50
90.00000000114642
 51
180.0000000011464
  0
LINE
  5
9863
330
18
100
AcDbEntity
  8
01
100
AcDbLine
 10
2222.172364144696
 20
-203.0201896885127
 30
0.0
 11
2215.372364144685
 21
-203.0201896886509
 31
0.0
  0
LINE
  5
9864
330
18
100
AcDbEntity
  8
01
100
AcDbLine
 10
2226.172364145303
 20
436.479810310345
 30
0.0
 11
2226.172364145303
 21
103.4798103103286
 31
0.0
  0
LINE
  5
9865
330
18
100
AcDbEntity
  8
01
100
AcDbLine
 10
2225.1723641453
 20
-260.5201896896587
 30
0.0
 11
2226.1723641453
 21
-259.5201896896587
 31
0.0
  0
LINE
  5
9866
330
18
100
AcDbEntity
  8
01
100
AcDbLine
 10
2222.172364145303
 20
436.4798103103348
 30
0.0
 11
2222.172364145301
 21
103.4798103103286
 31
0.0
  0
LINE
  5
9867
330
18
100
AcDbEntity
  8
01
100
AcDbLine
 10
2223.1723641453
 20
-260.5201896896587
 30
0.0
 11
2222.1723641453
 21
-259.5201896896587
 31
0.0
  0
LINE
  5
9868
330
18
100
AcDbEntity
  8
01
 48
0.5
100
AcDbLine
 10
2223.1723641453
 20
-260.5201896896587
 30
0.0
 11
2225.1723641453
 21
-260.5201896896587
 31
0.0
  0
LINE
  5
9869
330
18
100
AcDbEntity
  8
01
100
AcDbLine
 10
2228.322364145297
 20
103.4798103103286
 30
0.0
 11
2220.022364145296
 21
103.4798103103286
 31
0.0
  0
LINE
  5
986B
330
18
100
AcDbEntity
  8
01
100
AcDbLine
 10
2228.322364145297
 20
73.47981031032862
 30
0.0
 11
2220.022364145296
 21
73.47981031032862
 31
0.0
  0
LINE
  5
986D
330
18
100
AcDbEntity
  8
01
100
AcDbLine
 10
2220.022364145296
 20
73.47981031032862
 30
0.0
 11
2220.022364145296
 21
103.4798103103286
 31
0.0
  0
LINE
  5
986F
330
18
100
AcDbEntity
  8
01
100
AcDbLine
 10
2228.322364145297
 20
103.4798103103286
 30
0.0
 11
2228.322364145297
 21
73.47981031032862
 31
0.0
  0
ARC
  5
9871
330
18
100
AcDbEntity
  8
01
100
AcDbCircle
 10
2228.172364144492
 20
-171.520189687696
 30
0.0
 40
1.0
100
AcDbArc
 50
0.0050838446879736
 51
89.99999999989578
  0
LINE
  5
9872
330
18
100
AcDbEntity
  8
01
100
AcDbLine
 10
2226.172364144485
 20
-170.5201896876814
 30
0.0
 11
2228.172364144492
 21
-170.520189687696
 31
0.0
  0
LINE
  5
9873
330
18
100
AcDbEntity
  8
01
100
AcDbLine
 10
2226.172364144485
 20
-202.5201896875068
 30
0.0
 11
2228.172364144492
 21
-202.5201896874922
 31
0.0
  0
ARC
  5
9874
330
18
100
AcDbEntity
  8
01
100
AcDbCircle
 10
2228.172364144492
 20
-201.5201896874922
 30
0.0
 40
1.0
100
AcDbArc
 50
270.0000000001563
 51
359.994916155312
  0
ARC
  5
987F
330
18
100
AcDbEntity
  8
01
100
AcDbCircle
 10
2301.74956553644
 20
215.4798103103382
 30
0.0
 40
0.9999999999999999
100
AcDbArc
 50
135.0000000000279
 51
225.0000000000089
  0
LINE
  5
9888
330
18
100
AcDbEntity
  8
01
100
AcDbLine
 10
2302.586571714502
 20
217.7310300507726
 30
0.0
 11
2301.042458755254
 21
216.1869170915248
 31
0.0
  0
ARC
  5
9889
330
18
100
AcDbEntity
  8
01
100
AcDbCircle
 10
2301.172358152129
 20
219.1452436131455
 30
0.0
 40
2.0
100
AcDbArc
 50
315.0000000000279
 51
0.0
  0
LINE
  5
988A
330
18
100
AcDbEntity
  8
01
100
AcDbLine
 10
2301.042458755254
 20
214.7727035291515
 30
0.0
 11
2302.586571714502
 21
213.2285905699033
 31
0.0
  0
ARC
  5
988B
330
18
100
AcDbEntity
  8
01
100
AcDbCircle
 10
2301.172358152129
 20
211.8143770075304
 30
0.0
 40
2.000000000000016
100
AcDbArc
 50
0.0
 51
44.99999999997209
  0
LINE
  5
98EE
330
18
100
AcDbEntity
  8
01
100
AcDbLine
 10
2227.372364145302
 20
348.479810308722
 30
0.0
 11
2227.372364145302
 21
348.9243685969947
 31
0.0
  0
LINE
  5
98EF
330
18
100
AcDbEntity
  8
01
100
AcDbLine
 10
2227.372364145302
 20
378.0352520204457
 30
0.0
 11
2227.372364145302
 21
378.479810308722
 31
0.0
  0
LINE
  5
98F3
330
18
100
AcDbEntity
  8
01
100
AcDbLine
 10
2228.172364145303
 20
349.7243685969958
 30
0.0
 11
2228.172364145303
 21
377.2352520204464
 31
0.0
  0
LINE
  5
98F5
330
18
100
AcDbEntity
  8
01
100
AcDbLine
 10
2226.172364145303
 20
378.479810308722
 30
0.0
 11
2227.372364145302
 21
378.479810308722
 31
0.0
  0
LINE
  5
98F6
330
18
100
AcDbEntity
  8
01
100
AcDbLine
 10
2226.172364145303
 20
348.479810308722
 30
0.0
 11
2227.372364145302
 21
348.479810308722
 31
0.0
  0
LINE
  5
98F9
330
18
100
AcDbEntity
  8
01
100
AcDbLine
 10
2227.372364145302
 20
348.9243685969947
 30
0.0
 11
2228.172364145303
 21
349.7243685969958
 31
0.0
  0
LINE
  5
98FA
330
18
100
AcDbEntity
  8
01
100
AcDbLine
 10
2227.372364145302
 20
378.0352520204475
 30
0.0
 11
2228.172364145303
 21
377.2352520204464
 31
0.0
  0
ARC
  5
993C
330
18
100
AcDbEntity
  8
01
100
AcDbCircle
 10
2215.372364145304
 20
378.979810308722
 30
0.0
 40
1.000000000000004
100
AcDbArc
 50
90.0
 51
180.0
  0
LINE
  5
993D
330
18
100
AcDbEntity
  8
01
100
AcDbLine
 10
2214.372364145304
 20
378.979810308722
 30
0.0
 11
2214.372364145304
 21
347.979810308722
 31
0.0
  0
ARC
  5
993E
330
18
100
AcDbEntity
  8
01
100
AcDbCircle
 10
2215.372364145304
 20
347.979810308722
 30
0.0
 40
1.000000000000004
100
AcDbArc
 50
180.0
 51
270.0
  0
LINE
  5
9942
330
18
100
AcDbEntity
  8
01
100
AcDbLine
 10
2215.372364145304
 20
346.979810308722
 30
0.0
 11
2222.172364145303
 21
346.979810308722
 31
0.0
  0
LINE
  5
9943
330
18
100
AcDbEntity
  8
01
100
AcDbLine
 10
2222.172364145303
 20
379.979810308722
 30
0.0
 11
2215.372364145304
 21
379.979810308722
 31
0.0
  0
LINE
  5
9954
330
18
100
AcDbEntity
  8
01
100
AcDbLine
 10
2225.172364145307
 20
437.4798103103413
 30
0.0
 11
2226.172364145307
 21
436.4798103103413
 31
0.0
  0
LINE
  5
9956
330
18
100
AcDbEntity
  8
01
100
AcDbLine
 10
2223.172364145305
 20
437.4798103103413
 30
0.0
 11
2222.172364145303
 21
436.4798103103341
 31
0.0
  0
LINE
  5
9957
330
18
100
AcDbEntity
  8
01
 48
0.5
100
AcDbLine
 10
2223.172364145305
 20
437.4798103103413
 30
0.0
 11
2225.172364145307
 21
437.4798103103413
 31
0.0
  0
LINE
  5
9958
330
18
100
AcDbEntity
  8
1CENTER
100
AcDbLine
 10
2278.747357832089
 20
106.9798114248989
 30
0.0
 11
2284.597357834168
 21
106.9798114248989
 31
0.0
  0
LINE
  5
9959
330
18
100
AcDbEntity
  8
1CENTER
100
AcDbLine
 10
2281.672357833128
 20
104.0548114238587
 30
0.0
 11
2281.672357833128
 21
109.9048114259386
 31
0.0
  0
LINE
  5
99F1
330
18
100
AcDbEntity
  8
1CENTER
100
AcDbLine
 10
2226.162945774444
 20
-254.5201903145406
 30
0.0
 11
2232.779508423271
 21
-254.5201903145406
 31
0.0
  0
LINE
  5
99F2
330
18
100
AcDbEntity
  8
01
100
AcDbLine
 10
2228.972366443049
 20
-250.5701903145408
 30
0.0
 11
2229.172372241444
 21
-250.5701903145408
 31
0.0
  0
LINE
  5
99F3
330
18
100
AcDbEntity
  8
01
100
AcDbLine
 10
2228.972366443049
 20
-258.4701903145409
 30
0.0
 11
2229.172372586764
 21
-258.4701903145411
 31
0.0
  0
LINE
  5
99F4
330
18
100
AcDbEntity
  8
01
100
AcDbLine
 10
2228.972366443055
 20
-258.4701903145409
 30
0.0
 11
2228.972366443055
 21
-250.5701903145408
 31
0.0
  0
ARC
  5
99F5
330
18
100
AcDbEntity
  8
01
100
AcDbCircle
 10
2233.423199776388
 20
-254.5201903145411
 30
0.0
 40
5.950833333333279
100
AcDbArc
 50
138.4117700890283
 51
221.5882299109717
  0
ARC
  5
A024
330
18
100
AcDbEntity
  8
01
100
AcDbCircle
 10
1832.626388504606
 20
427.4798103103323
 30
0.0
 40
10.0
100
AcDbArc
 50
0.0
 51
90.0
  0
ARC
  5
A025
330
18
100
AcDbEntity
  8
01
100
AcDbCircle
 10
1839.241167003087
 20
431.4798091301242
 30
0.0
 40
4.25
100
AcDbArc
 50
320.892123438553
 51
101.4311196493239
  0
ARC
  5
A026
330
18
100
AcDbEntity
  8
01
100
AcDbCircle
 10
1839.241167003088
 20
431.4798103103309
 30
0.0
 40
3.95
100
AcDbArc
 50
324.9599996555309
 51
97.3632584033056
  0
ARC
  5
A027
330
18
100
AcDbEntity
  8
01
100
AcDbCircle
 10
1839.241167003087
 20
-254.5201908698754
 30
0.0
 40
3.95
100
AcDbArc
 50
262.6367224333026
 51
35.04000453687454
  0
LINE
  5
A029
330
18
100
AcDbEntity
  8
01
100
AcDbLine
 10
2228.972366443049
 20
435.429809130124
 30
0.0
 11
2229.172372241444
 21
435.429809130124
 31
0.0
  0
LINE
  5
A02A
330
18
100
AcDbEntity
  8
01
100
AcDbLine
 10
2228.972366443049
 20
427.5298091301239
 30
0.0
 11
2229.172372586764
 21
427.5298091301237
 31
0.0
  0
LINE
  5
A02B
330
18
100
AcDbEntity
  8
01
100
AcDbLine
 10
2228.972366443055
 20
427.5298091301239
 30
0.0
 11
2228.972366443055
 21
435.429809130124
 31
0.0
  0
ARC
  5
A02C
330
18
100
AcDbEntity
  8
01
100
AcDbCircle
 10
2233.423199776388
 20
431.4798091301237
 30
0.0
 40
5.950833333333279
100
AcDbArc
 50
138.4117700890283
 51
221.5882299109717
  0
LINE
  5
A02D
330
18
100
AcDbEntity
  8
01
100
AcDbLine
 10
2229.172345094486
 20
370.4798103087218
 30
0.0
 11
2228.172364145303
 21
370.479810308722
 31
0.0
  0
LINE
  5
A02E
330
18
100
AcDbEntity
  8
01
100
AcDbLine
 10
2229.172345706445
 20
356.4798103087222
 30
0.0
 11
2228.172364145303
 21
356.479810308722
 31
0.0
  0
LINE
  5
A02F
330
18
100
AcDbEntity
  8
01
100
AcDbLine
 10
2226.172364145303
 20
73.47981031032839
 30
0.0
 11
2226.172364145303
 21
-259.5201896896659
 31
0.0
  0
LINE
  5
A032
330
18
100
AcDbEntity
  8
01
100
AcDbLine
 10
2222.172364145301
 20
73.47981031032839
 30
0.0
 11
2222.1723641453
 21
-259.5201896896587
 31
0.0
  0
LINE
  5
A033
330
18
100
AcDbEntity
  8
1CENTER
 48
0.2
100
AcDbLine
 10
2281.672372875814
 20
340.0006062174162
 30
0.0
 11
2281.672372875814
 21
326.9590144063915
 31
0.0
  0
LINE
  5
A034
330
18
100
AcDbEntity
  8
1CENTER
 48
0.2
100
AcDbLine
 10
2288.193168784483
 20
333.4798103087452
 30
0.0
 11
2275.151576973456
 21
333.4798103087452
 31
0.0
  0
CIRCLE
  5
A035
330
18
100
AcDbEntity
  8
01
100
AcDbCircle
 10
2281.67234712384
 20
333.4798114248985
 30
0.0
 40
2.250000000819341
  0
LINE
  5
A036
330
18
100
AcDbEntity
  8
01
100
AcDbLine
 10
2286.215979416004
 20
343.0230651857984
 30
0.0
 11
2256.172346688888
 21
343.2852506830128
 31
0.0
  0
ARC
  5
A037
330
18
100
AcDbEntity
  8
01
100
AcDbCircle
 10
2286.172266667871
 20
338.0231759886861
 30
0.0
 40
5.000080278130353
100
AcDbArc
 50
0.0009144096053062
 51
89.49909064042018
  0
LINE
  5
A038
330
18
100
AcDbEntity
  8
01
100
AcDbLine
 10
2291.172346945365
 20
338.0232557472146
 30
0.0
 11
2291.172347342566
 21
328.936367905969
 31
0.0
  0
ARC
  5
A039
330
18
100
AcDbEntity
  8
01
100
AcDbCircle
 10
2286.172267065065
 20
328.9364472546632
 30
0.0
 40
5.000080278130595
100
AcDbArc
 50
270.5009143685263
 51
359.9990905993321
  0
LINE
  5
A03A
330
18
100
AcDbEntity
  8
01
100
AcDbLine
 10
2286.215980232144
 20
323.9365580612135
 30
0.0
 11
2256.172347546106
 21
323.6743699376599
 31
0.0
  0
LINE
  5
A03F
330
18
100
AcDbEntity
  8
01
100
AcDbLine
 10
1845.126388504606
 20
103.4798103103286
 30
0.0
 11
1845.126388504606
 21
73.47981031032862
 31
0.0
  0
LINE
  5
A040
330
18
100
AcDbEntity
  8
01
100
AcDbLine
 10
1815.126388504606
 20
101.4798103103286
 30
0.0
 11
1815.126388504606
 21
75.47981031032862
 31
0.0
  0
LINE
  5
A041
330
18
100
AcDbEntity
  8
01
100
AcDbLine
 10
1817.126388504606
 20
103.4798103103286
 30
0.0
 11
1845.126388504606
 21
103.4798103103286
 31
0.0
  0
LINE
  5
A042
330
18
100
AcDbEntity
  8
01
100
AcDbLine
 10
1845.126388504606
 20
73.47981031032862
 30
0.0
 11
1817.126388504606
 21
73.47981031032862
 31
0.0
  0
LINE
  5
A043
330
18
100
AcDbEntity
  8
01
100
AcDbLine
 10
1845.126388504606
 20
100.9798103103307
 30
0.0
 11
1845.741167178236
 21
100.9798103103304
 31
0.0
  0
LINE
  5
A044
330
18
100
AcDbEntity
  8
01
100
AcDbLine
 10
1845.126388504606
 20
75.97981031032839
 30
0.0
 11
1845.741167178236
 21
75.97981031032862
 31
0.0
  0
LINE
  5
A046
330
18
100
AcDbEntity
  8
01
100
AcDbLine
 10
1842.626388504606
 20
73.47981031032862
 30
0.0
 11
1842.626388504606
 21
-250.5201896896677
 31
0.0
  0
ARC
  5
A047
330
18
100
AcDbEntity
  8
01
100
AcDbCircle
 10
1817.126388504606
 20
101.4798103103286
 30
0.0
 40
2.0
100
AcDbArc
 50
90.0
 51
180.0
  0
ARC
  5
A048
330
18
100
AcDbEntity
  8
01
100
AcDbCircle
 10
1817.126388504606
 20
75.47981031032862
 30
0.0
 40
2.0
100
AcDbArc
 50
180.0
 51
270.0
  0
LINE
  5
A049
330
18
100
AcDbEntity
  8
01
100
AcDbLine
 10
1583.187838235699
 20
693.6208564133823
 30
0.0
 11
1583.179111456016
 21
692.620866509472
 31
0.0
  0
LINE
  5
A04A
330
18
100
AcDbEntity
  8
01
100
AcDbLine
 10
1560.317038905418
 20
720.6208778263803
 30
0.0
 11
1560.406814489507
 21
730.9081408216895
 31
0.0
  0
LINE
  5
A04B
330
18
100
AcDbEntity
  8
01
100
AcDbLine
 10
1561.917100666832
 20
720.6208778263805
 30
0.0
 11
1562.205236524997
 21
753.6383076500225
 31
0.0
  0
LINE
  5
A04C
330
18
100
AcDbEntity
  8
01
100
AcDbLine
 10
1554.956596602669
 20
689.6208665093628
 30
0.0
 11
1555.956596602669
 21
690.6208665093628
 31
0.0
  0
LINE
  5
A04D
330
18
100
AcDbEntity
  8
01
100
AcDbLine
 10
1554.956596602669
 20
687.6208665093628
 30
0.0
 11
1555.95659660267
 21
686.6208665093628
 31
0.0
  0
LINE
  5
A04E
330
18
100
AcDbEntity
  8
01
 48
0.5
100
AcDbLine
 10
1554.956596602669
 20
689.6208665093628
 30
0.0
 11
1554.956596602669
 21
687.6208665093628
 31
0.0
  0
LINE
  5
A04F
330
18
100
AcDbEntity
  8
1PHANTOM
100
AcDbLine
 10
1567.586765362686
 20
691.2321712694071
 30
0.0
 11
1555.831667925141
 21
692.260609033847
 31
0.0
  0
LINE
  5
A050
330
18
100
AcDbEntity
  8
1PHANTOM
100
AcDbLine
 10
1552.955528414468
 20
659.3861839968204
 30
0.0
 11
1555.831667925141
 21
692.260609033847
 31
0.0
  0
LINE
  5
A051
330
18
100
AcDbEntity
  8
1PHANTOM
100
AcDbLine
 10
1560.725847059586
 20
658.7063692033794
 30
0.0
 11
1552.955528414468
 21
659.3861839968204
 31
0.0
  0
LINE
  5
A052
330
18
100
AcDbEntity
  8
1PHANTOM
100
AcDbLine
 10
1567.586765362686
 20
691.2321712694071
 30
0.0
 11
1542.463432394714
 21
404.0711614258086
 31
0.0
  0
LINE
  5
A053
330
18
100
AcDbEntity
  8
1PHANTOM
100
AcDbLine
 10
1563.601986570319
 20
691.5807942404018
 30
0.0
 11
1538.478653602348
 21
404.4197843967978
 31
0.0
  0
LINE
  5
A054
330
18
100
AcDbEntity
  8
1PHANTOM
 48
0.5
100
AcDbLine
 10
1542.463432394714
 20
404.0711614258086
 30
0.0
 11
1538.478653602348
 21
404.4197843967978
 31
0.0
  0
LINE
  5
A056
330
18
100
AcDbEntity
  8
01
100
AcDbLine
 10
1554.361295975771
 20
690.3208665093056
 30
0.0
 11
1554.66129597577
 21
690.6208665093045
 31
0.0
  0
LINE
  5
A057
330
18
100
AcDbEntity
  8
01
100
AcDbLine
 10
1554.961295975766
 20
686.62086650931
 30
0.0
 11
1554.361295975771
 21
687.2208665093049
 31
0.0
  0
LINE
  5
A058
330
18
100
AcDbEntity
  8
01
100
AcDbLine
 10
1554.361295975771
 20
690.3208665093056
 30
0.0
 11
1554.361295975771
 21
687.2208665093049
 31
0.0
  0
LINE
  5
A1CD
330
18
100
AcDbEntity
  8
01
100
AcDbLine
 10
2280.572365911706
 20
92.21971667515356
 30
0.0
 11
2280.572365911704
 21
84.73990394550776
 31
0.0
  0
LINE
  5
A1D0
330
18
100
AcDbEntity
  8
01
100
AcDbLine
 10
2279.574343193006
 20
83.73990590033065
 30
0.0
 11
2256.172357473247
 21
83.69363350109018
 31
0.0
  0
LINE
  5
A1D1
330
18
100
AcDbEntity
  8
01
100
AcDbLine
 10
2279.574343193008
 20
93.21971472033113
 30
0.0
 11
2256.172357054826
 21
93.26598712039993
 31
0.0
  0
ARC
  5
A1D6
330
18
100
AcDbEntity
  8
01
100
AcDbCircle
 10
2232.734865905786
 20
88.47981031033271
 30
0.0
 40
4.412500000000427
100
AcDbArc
 50
143.8395097960419
 51
216.1604952129172
  0
ARC
  5
A1D8
330
18
100
AcDbEntity
  8
01
100
AcDbCircle
 10
2279.572365911706
 20
92.21971667515379
 30
0.0
 40
1.0
100
AcDbArc
 50
359.999999999987
 51
89.88671005267422
  0
ARC
  5
A1D9
330
18
100
AcDbEntity
  8
01
100
AcDbCircle
 10
2279.572365911704
 20
84.73990394550799
 30
0.0
 40
1.0
100
AcDbArc
 50
270.1132899473128
 51
359.999999999987
  0
ARC
  5
A1F7
330
18
100
AcDbEntity
  8
01
100
AcDbCircle
 10
1830.741166442133
 20
697.1833863110694
 30
0.0
 40
4.412500000000427
100
AcDbArc
 50
233.8395072654816
 51
306.1605027524381
  0
LINE
  5
A1F8
330
18
100
AcDbEntity
  8
1PHANTOM
100
AcDbLine
 10
1568.75602893481
 20
-243.9528651813399
 30
0.0
 11
1828.756028934811
 21
-243.9528651813399
 31
0.0
  0
LINE
  5
A1F9
330
18
100
AcDbEntity
  8
1PHANTOM
100
AcDbLine
 10
1568.75602893481
 20
-243.9528651813399
 30
0.0
 11
1568.75602893481
 21
420.912485802004
 31
0.0
  0
LINE
  5
A1FA
330
18
100
AcDbEntity
  8
1PHANTOM
100
AcDbLine
 10
1576.75602893481
 20
313.4841347484368
 30
0.0
 11
1576.75602893481
 21
317.4841347484368
 31
0.0
  0
LINE
  5
A1FB
330
18
100
AcDbEntity
  8
1PHANTOM
100
AcDbLine
 10
1828.756028934811
 20
-243.9528651813399
 30
0.0
 11
1828.756028934811
 21
420.912485802004
 31
0.0
  0
LINE
  5
A1FC
330
18
100
AcDbEntity
  8
1PHANTOM
100
AcDbLine
 10
1568.75602893481
 20
420.912485802004
 30
0.0
 11
1828.756028934811
 21
420.912485802004
 31
0.0
  0
LINE
  5
A1FD
330
18
100
AcDbEntity
  8
1PHANTOM
100
AcDbLine
 10
1568.75602893481
 20
217.4841347484368
 30
0.0
 11
1828.756028934811
 21
217.4841347484368
 31
0.0
  0
LINE
  5
A1FE
330
18
100
AcDbEntity
  8
1PHANTOM
100
AcDbLine
 10
1568.75602893481
 20
317.4841347484368
 30
0.0
 11
1576.75602893481
 21
317.4841347484368
 31
0.0
  0
LINE
  5
A1FF
330
18
100
AcDbEntity
  8
1PHANTOM
100
AcDbLine
 10
1568.75602893481
 20
313.4841347484368
 30
0.0
 11
1576.75602893481
 21
313.4841347484368
 31
0.0
  0
LINE
  5
A200
330
18
100
AcDbEntity
  8
1PHANTOM
100
AcDbLine
 10
1568.75602893481
 20
213.4754840359675
 30
0.0
 11
1828.756028934811
 21
213.4754840359675
 31
0.0
  0
LINE
  5
A201
330
18
100
AcDbEntity
  8
1PHANTOM
100
AcDbLine
 10
1568.75602893481
 20
-36.51586525156301
 30
0.0
 11
1828.756028934811
 21
-36.51586525156301
 31
0.0
  0
LINE
  5
A202
330
18
100
AcDbEntity
  8
1PHANTOM
100
AcDbLine
 10
1568.75602893481
 20
-40.52451596403228
 30
0.0
 11
1828.756028934811
 21
-40.52451596403228
 31
0.0
  0
LINE
  5
A203
330
18
100
AcDbEntity
  8
1PHANTOM
100
AcDbLine
 10
1576.75602893481
 20
128.5077593860316
 30
0.0
 11
1576.75602893481
 21
132.5077593860318
 31
0.0
  0
LINE
  5
A204
330
18
100
AcDbEntity
  8
1PHANTOM
100
AcDbLine
 10
1568.75602893481
 20
132.5077593860316
 30
0.0
 11
1576.75602893481
 21
132.5077593860316
 31
0.0
  0
LINE
  5
A205
330
18
100
AcDbEntity
  8
1PHANTOM
100
AcDbLine
 10
1568.75602893481
 20
128.5077593860316
 30
0.0
 11
1576.75602893481
 21
128.5077593860316
 31
0.0
  0
LINE
  5
A206
330
18
100
AcDbEntity
  8
1PHANTOM
100
AcDbLine
 10
1576.75602893481
 20
44.50775938603158
 30
0.0
 11
1576.75602893481
 21
48.50775938603181
 31
0.0
  0
LINE
  5
A207
330
18
100
AcDbEntity
  8
1PHANTOM
100
AcDbLine
 10
1568.75602893481
 20
48.50775938603158
 30
0.0
 11
1576.75602893481
 21
48.50775938603158
 31
0.0
  0
LINE
  5
A208
330
18
100
AcDbEntity
  8
1PHANTOM
100
AcDbLine
 10
1568.75602893481
 20
44.50775938603158
 30
0.0
 11
1576.75602893481
 21
44.50775938603158
 31
0.0
  0
LINE
  5
A209
330
18
100
AcDbEntity
  8
1PHANTOM
100
AcDbLine
 10
1576.75602893481
 20
-140.4922406139682
 30
0.0
 11
1576.75602893481
 21
-136.492240613968
 31
0.0
  0
LINE
  5
A20A
330
18
100
AcDbEntity
  8
1PHANTOM
100
AcDbLine
 10
1568.75602893481
 20
-136.492240613968
 30
0.0
 11
1576.75602893481
 21
-136.492240613968
 31
0.0
  0
LINE
  5
A20B
330
18
100
AcDbEntity
  8
1PHANTOM
100
AcDbLine
 10
1568.75602893481
 20
-140.492240613968
 30
0.0
 11
1576.75602893481
 21
-140.4922406139682
 31
0.0
  0
LINE
  5
A20C
330
18
100
AcDbEntity
  8
1PHANTOM
100
AcDbLine
 10
1820.756028934813
 20
128.5077593860316
 30
0.0
 11
1820.756028934813
 21
132.5077593860318
 31
0.0
  0
LINE
  5
A20D
330
18
100
AcDbEntity
  8
1PHANTOM
100
AcDbLine
 10
1828.756028934813
 20
132.5077593860316
 30
0.0
 11
1820.756028934813
 21
132.5077593860316
 31
0.0
  0
LINE
  5
A20E
330
18
100
AcDbEntity
  8
1PHANTOM
100
AcDbLine
 10
1828.756028934813
 20
128.5077593860316
 30
0.0
 11
1820.756028934813
 21
128.5077593860316
 31
0.0
  0
LINE
  5
A20F
330
18
100
AcDbEntity
  8
1PHANTOM
100
AcDbLine
 10
1820.756028934813
 20
44.50775938603158
 30
0.0
 11
1820.756028934813
 21
48.50775938603181
 31
0.0
  0
LINE
  5
A210
330
18
100
AcDbEntity
  8
1PHANTOM
100
AcDbLine
 10
1828.756028934813
 20
48.50775938603158
 30
0.0
 11
1820.756028934813
 21
48.50775938603158
 31
0.0
  0
LINE
  5
A211
330
18
100
AcDbEntity
  8
1PHANTOM
100
AcDbLine
 10
1828.756028934813
 20
44.50775938603158
 30
0.0
 11
1820.756028934813
 21
44.50775938603158
 31
0.0
  0
LINE
  5
A212
330
18
100
AcDbEntity
  8
1PHANTOM
100
AcDbLine
 10
1820.756028934813
 20
-140.4922406139682
 30
0.0
 11
1820.756028934812
 21
-136.492240613968
 31
0.0
  0
LINE
  5
A213
330
18
100
AcDbEntity
  8
1PHANTOM
100
AcDbLine
 10
1828.756028934813
 20
-136.492240613968
 30
0.0
 11
1820.756028934813
 21
-136.492240613968
 31
0.0
  0
LINE
  5
A214
330
18
100
AcDbEntity
  8
1PHANTOM
100
AcDbLine
 10
1828.756028934813
 20
-140.492240613968
 30
0.0
 11
1820.756028934813
 21
-140.4922406139682
 31
0.0
  0
LINE
  5
A266
330
18
100
AcDbEntity
  8
1HATCH
100
AcDbLine
 10
1558.741167003262
 20
760.6208778277686
 30
0.0
 11
1558.741167003262
 21
720.6208778277686
 31
0.0
  0
LINE
  5
A267
330
18
100
AcDbEntity
  8
1HATCH
100
AcDbLine
 10
1838.741167003261
 20
760.6208778264446
 30
0.0
 11
1838.741167003262
 21
720.6208778264446
 31
0.0
  0
LINE
  5
A268
330
18
100
AcDbEntity
  8
1HATCH
100
AcDbLine
 10
1558.741167003262
 20
720.6208778277686
 30
0.0
 11
1508.741167003262
 21
720.6208778277686
 31
0.0
  0
LINE
  5
A269
330
18
100
AcDbEntity
  8
1HATCH
100
AcDbLine
 10
1838.741167003262
 20
720.6208778264446
 30
0.0
 11
1888.741167003262
 21
720.6208778264444
 31
0.0
  0
LINE
  5
A26A
330
18
100
AcDbEntity
  8
1HATCH
100
AcDbLine
 10
1838.741167003261
 20
760.6208778264446
 30
0.0
 11
1858.741167003261
 21
760.6208778264446
 31
0.0
  0
LINE
  5
A26B
330
18
100
AcDbEntity
  8
1HATCH
100
AcDbLine
 10
1558.741167003262
 20
760.6208778277686
 30
0.0
 11
1538.741167003261
 21
760.6208778277686
 31
0.0
  0
LINE
  5
A26C
330
18
100
AcDbEntity
  8
1HATCH
100
AcDbLine
 10
1538.741167003261
 20
760.6208778277686
 30
0.0
 11
1538.741167003262
 21
730.1208778277686
 31
0.0
  0
LINE
  5
A26D
330
18
100
AcDbEntity
  8
1HATCH
100
AcDbLine
 10
1858.741167003261
 20
760.6208778264446
 30
0.0
 11
1858.741167003262
 21
730.1208778264446
 31
0.0
  0
LINE
  5
A26E
330
18
100
AcDbEntity
  8
1HATCH
100
AcDbLine
 10
1835.701061057055
 20
730.1208778264446
 30
0.0
 11
1888.741167003262
 21
730.1208778264446
 31
0.0
  0
LINE
  5
A26F
330
18
100
AcDbEntity
  8
1HATCH
100
AcDbLine
 10
1559.196359265187
 20
730.1208778277686
 30
0.0
 11
1508.741167003262
 21
730.1208778277686
 31
0.0
  0
LINE
  5
A270
330
18
100
AcDbEntity
  8
1HATCH
100
AcDbLine
 10
1508.741167003262
 20
730.1208778277686
 30
0.0
 11
1508.741167003262
 21
720.6208778277686
 31
0.0
  0
LINE
  5
A271
330
18
100
AcDbEntity
  8
1HATCH
100
AcDbLine
 10
1888.741167003262
 20
730.1208778264446
 30
0.0
 11
1888.741167003262
 21
720.6208778264444
 31
0.0
  0
LINE
  5
A296
330
18
100
AcDbEntity
  8
1HATCH
100
AcDbLine
 10
1509.036422409328
 20
770.6208665167011
 30
0.0
 11
1888.445911597195
 21
770.6208665167013
 31
0.0
  0
LINE
  5
A297
330
18
100
AcDbEntity
  8
1HATCH
100
AcDbLine
 10
2256.172341868876
 20
428.479809736206
 30
0.0
 11
2256.172341868875
 21
478.4798097362058
 31
0.0
  0
LINE
  5
A298
330
18
100
AcDbEntity
  8
1HATCH
100
AcDbLine
 10
2256.172341868607
 20
-251.5201902637939
 30
0.0
 11
2256.172341868606
 21
-301.5201902637939
 31
0.0
  0
LINE
  5
A299
330
18
100
AcDbEntity
  8
1HATCH
100
AcDbLine
 10
2256.172341868876
 20
428.479809736206
 30
0.0
 11
2296.172341868875
 21
428.479809736206
 31
0.0
  0
LINE
  5
A29A
330
18
100
AcDbEntity
  8
1HATCH
100
AcDbLine
 10
2256.172341868607
 20
-251.5201902637939
 30
0.0
 11
2296.172341868606
 21
-251.5201902637939
 31
0.0
  0
LINE
  5
A29B
330
18
100
AcDbEntity
  8
1HATCH
100
AcDbLine
 10
2265.672341868875
 20
448.4798097362059
 30
0.0
 11
2296.172341868875
 21
448.479809736206
 31
0.0
  0
LINE
  5
A29C
330
18
100
AcDbEntity
  8
1HATCH
100
AcDbLine
 10
2265.672341868606
 20
-271.5201902637939
 30
0.0
 11
2296.172341868607
 21
-271.5201902637939
 31
0.0
  0
LINE
  5
A29D
330
18
100
AcDbEntity
  8
1HATCH
100
AcDbLine
 10
2296.172341868606
 20
-251.5201902637939
 30
0.0
 11
2296.172341868607
 21
-271.5201902637939
 31
0.0
  0
LINE
  5
A29E
330
18
100
AcDbEntity
  8
1HATCH
100
AcDbLine
 10
2296.172341868875
 20
428.479809736206
 30
0.0
 11
2296.172341868875
 21
448.479809736206
 31
0.0
  0
LINE
  5
A29F
330
18
100
AcDbEntity
  8
1HATCH
100
AcDbLine
 10
2265.672341868606
 20
-251.5201902637939
 30
0.0
 11
2265.672341868606
 21
-301.5201902637939
 31
0.0
  0
LINE
  5
A2A0
330
18
100
AcDbEntity
  8
1HATCH
100
AcDbLine
 10
2265.672341868875
 20
428.479809736206
 30
0.0
 11
2265.672341868875
 21
478.4798097362059
 31
0.0
  0
LINE
  5
A2A1
330
18
100
AcDbEntity
  8
1HATCH
100
AcDbLine
 10
2256.172341868875
 20
478.4798097362058
 30
0.0
 11
2265.672341868875
 21
478.4798097362059
 31
0.0
  0
LINE
  5
A2A2
330
18
100
AcDbEntity
  8
1HATCH
100
AcDbLine
 10
2256.172341868606
 20
-301.5201902637939
 30
0.0
 11
2265.672341868606
 21
-301.5201902637939
 31
0.0
  0
LINE
  5
A2AD
330
18
100
AcDbEntity
  8
1PHANTOM
100
AcDbLine
 10
2298.672348302395
 20
-243.9528676818247
 30
0.0
 11
2298.672348302395
 21
-193.4185627203004
 31
0.0
  0
LINE
  5
A44E
330
18
100
AcDbEntity
  8
1PHANTOM
100
AcDbLine
 10
1820.726305071364
 20
313.4841347484368
 30
0.0
 11
1820.726305071364
 21
317.4841347484368
 31
0.0
  0
LINE
  5
A44F
330
18
100
AcDbEntity
  8
1PHANTOM
100
AcDbLine
 10
1828.726305071364
 20
317.4841347484368
 30
0.0
 11
1820.726305071364
 21
317.4841347484368
 31
0.0
  0
LINE
  5
A450
330
18
100
AcDbEntity
  8
1PHANTOM
100
AcDbLine
 10
1828.726305071364
 20
313.4841347484368
 30
0.0
 11
1820.726305071364
 21
313.4841347484368
 31
0.0
  0
LINE
  5
B780
330
18
100
AcDbEntity
  8
1DIM
100
AcDbLine
 10
963.3615671705272
 20
668.5801336532261
 30
0.0
 11
1313.361567170527
 21
668.5801336532261
 31
0.0
  0
LINE
  5
B781
330
18
100
AcDbEntity
  8
1DIM
100
AcDbLine
 10
1138.361567170527
 20
668.5801336532261
 30
0.0
 11
1138.361567170527
 21
633.5801336532261
 31
0.0
  0
LINE
  5
B782
330
18
100
AcDbEntity
  8
1DIM
100
AcDbLine
 10
963.3615671705272
 20
633.5801336532261
 30
0.0
 11
1313.361567170527
 21
633.5801336532261
 31
0.0
  0
TEXT
  5
B783
330
18
100
AcDbEntity
  8
1TEXT
100
AcDbText
 10
1040.361567170525
 20
642.0255655953717
 30
0.0
 40
20.0
  1
鏡
 72
     1
 11
1050.361567170525
 21
642.0255655953717
 31
0.0
100
AcDbText
  0
TEXT
  5
B784
330
18
100
AcDbEntity
  8
1TEXT
100
AcDbText
 10
1150.361567170529
 20
640.0083487349791
 30
0.0
 40
20.0
  1
DE-02-SG
 72
     1
 11
1225.361567170529
 21
640.0083487349791
 31
0.0
100
AcDbText
  0
LINE
  5
B785
330
18
100
AcDbEntity
  8
1DIM
100
AcDbLine
 10
963.361567170527
 20
633.5801336532261
 30
0.0
 11
963.3615671705268
 21
668.5801336532261
 31
0.0
  0
LINE
  5
B786
330
18
100
AcDbEntity
  8
1DIM
100
AcDbLine
 10
1313.361567170527
 20
633.5801336532261
 30
0.0
 11
1313.361567170527
 21
668.5801336532261
 31
0.0
  0
LINE
  5
B88B
330
18
100
AcDbEntity
  8
1CENTER
100
AcDbLine
 10
1864.621174412929
 20
746.1208665153764
 30
0.0
 11
1826.788041365554
 21
746.1208665153765
 31
0.0
  0
LINE
  5
B88C
330
18
100
AcDbEntity
  8
01
100
AcDbLine
 10
1855.966681712268
 20
747.6208199794785
 30
0.0
 11
1856.066682875665
 21
748.1208199794785
 31
0.0
  0
LINE
  5
B88D
330
18
100
AcDbEntity
  8
01
100
AcDbLine
 10
1856.066682875665
 20
748.1208199794785
 30
0.0
 11
1856.866673568487
 21
744.1208199794785
 31
0.0
  0
LINE
  5
B88E
330
18
100
AcDbEntity
  8
01
100
AcDbLine
 10
1856.866673568487
 20
744.1208199794785
 30
0.0
 11
1856.966674731884
 21
744.6208199794785
 31
0.0
  0
LINE
  5
B88F
330
18
100
AcDbEntity
  8
01
100
AcDbLine
 10
1854.366681712268
 20
747.6208199794785
 30
0.0
 11
1854.466682875665
 21
748.1208199794785
 31
0.0
  0
LINE
  5
B890
330
18
100
AcDbEntity
  8
01
100
AcDbLine
 10
1855.266673568487
 20
744.1208199794785
 30
0.0
 11
1855.366674731885
 21
744.6208199794785
 31
0.0
  0
LINE
  5
B891
330
18
100
AcDbEntity
  8
01
100
AcDbLine
 10
1854.466682875665
 20
748.1208199794785
 30
0.0
 11
1855.266673568487
 21
744.1208199794785
 31
0.0
  0
LINE
  5
B892
330
18
100
AcDbEntity
  8
01
100
AcDbLine
 10
1852.766681712268
 20
747.6208199794785
 30
0.0
 11
1852.866682875665
 21
748.1208199794785
 31
0.0
  0
LINE
  5
B893
330
18
100
AcDbEntity
  8
01
100
AcDbLine
 10
1852.866682875665
 20
748.1208199794785
 30
0.0
 11
1853.666673568487
 21
744.1208199794785
 31
0.0
  0
LINE
  5
B894
330
18
100
AcDbEntity
  8
01
100
AcDbLine
 10
1853.666673568487
 20
744.1208199794785
 30
0.0
 11
1853.766674731884
 21
744.6208199794785
 31
0.0
  0
LINE
  5
B895
330
18
100
AcDbEntity
  8
01
100
AcDbLine
 10
1844.766681712268
 20
747.6208199794786
 30
0.0
 11
1844.866682875665
 21
748.1208199794786
 31
0.0
  0
LINE
  5
B896
330
18
100
AcDbEntity
  8
01
100
AcDbLine
 10
1845.666673568487
 20
744.1208199794786
 30
0.0
 11
1845.766674731884
 21
744.6208199794786
 31
0.0
  0
LINE
  5
B897
330
18
100
AcDbEntity
  8
01
100
AcDbLine
 10
1847.266673568487
 20
744.1208199794786
 30
0.0
 11
1847.366674731885
 21
744.6208199794786
 31
0.0
  0
LINE
  5
B898
330
18
100
AcDbEntity
  8
01
100
AcDbLine
 10
1846.366681712268
 20
747.6208199794786
 30
0.0
 11
1846.466682875665
 21
748.1208199794786
 31
0.0
  0
LINE
  5
B899
330
18
100
AcDbEntity
  8
01
100
AcDbLine
 10
1847.966681712268
 20
747.6208199794786
 30
0.0
 11
1848.066682875665
 21
748.1208199794786
 31
0.0
  0
LINE
  5
B89A
330
18
100
AcDbEntity
  8
01
100
AcDbLine
 10
1846.466682875665
 20
748.1208199794786
 30
0.0
 11
1847.266673568487
 21
744.1208199794786
 31
0.0
  0
LINE
  5
B89B
330
18
100
AcDbEntity
  8
01
100
AcDbLine
 10
1844.866682875665
 20
748.1208199794786
 30
0.0
 11
1845.666673568487
 21
744.1208199794786
 31
0.0
  0
LINE
  5
B89C
330
18
100
AcDbEntity
  8
01
100
AcDbLine
 10
1849.566681712268
 20
747.6208199794786
 30
0.0
 11
1849.666682875665
 21
748.1208199794786
 31
0.0
  0
LINE
  5
B89D
330
18
100
AcDbEntity
  8
01
100
AcDbLine
 10
1857.766681712268
 20
747.6208199794785
 30
0.0
 11
1857.866682875665
 21
748.1208199794785
 31
0.0
  0
LINE
  5
B89E
330
18
100
AcDbEntity
  8
01
100
AcDbLine
 10
1857.866682875665
 20
748.1208199794785
 30
0.0
 11
1858.66667409529
 21
744.3472270316825
 31
0.0
  0
LINE
  5
B89F
330
18
100
AcDbEntity
  8
01
100
AcDbLine
 10
1858.66667409529
 20
744.3472270316825
 30
0.0
 11
1858.79594479292
 21
744.8838207669536
 31
0.0
  0
LINE
  5
B8A0
330
18
100
AcDbEntity
  8
01
100
AcDbLine
 10
1850.466673568487
 20
744.1208199794786
 30
0.0
 11
1850.566674731884
 21
744.6208199794786
 31
0.0
  0
LINE
  5
B8A1
330
18
100
AcDbEntity
  8
01
100
AcDbLine
 10
1852.066673568487
 20
744.1208199794786
 30
0.0
 11
1852.166674731885
 21
744.6208199794786
 31
0.0
  0
LINE
  5
B8A2
330
18
100
AcDbEntity
  8
01
100
AcDbLine
 10
1851.166681712268
 20
747.6208199794786
 30
0.0
 11
1851.266682875665
 21
748.1208199794786
 31
0.0
  0
LINE
  5
B8A3
330
18
100
AcDbEntity
  8
01
100
AcDbLine
 10
1851.266682875665
 20
748.1208199794786
 30
0.0
 11
1852.066673568487
 21
744.1208199794786
 31
0.0
  0
LINE
  5
B8A4
330
18
100
AcDbEntity
  8
01
100
AcDbLine
 10
1849.666682875665
 20
748.1208199794786
 30
0.0
 11
1850.466673568487
 21
744.1208199794786
 31
0.0
  0
LINE
  5
B8A5
330
18
100
AcDbEntity
  8
01
100
AcDbLine
 10
1859.466681822055
 20
747.6680038374197
 30
0.0
 11
1860.266675148896
 21
744.8000411360892
 31
0.0
  0
LINE
  5
B8A6
330
18
100
AcDbEntity
  8
01
100
AcDbLine
 10
1861.06668076845
 20
747.2151903293715
 30
0.0
 11
1861.866676202501
 21
745.252855240496
 31
0.0
  0
LINE
  5
B8A7
330
18
100
AcDbEntity
  8
01
100
AcDbLine
 10
1860.266675148896
 20
744.8000411360892
 30
0.0
 11
1860.449439291524
 21
745.3517905998925
 31
0.0
  0
LINE
  5
B8A8
330
18
100
AcDbEntity
  8
01
100
AcDbLine
 10
1860.91524497201
 20
746.7580184887404
 30
0.0
 11
1861.06668076845
 21
747.2151903293715
 31
0.0
  0
LINE
  5
B8A9
330
18
100
AcDbEntity
  8
01
100
AcDbLine
 10
1861.866676202501
 20
745.252855240496
 30
0.0
 11
1862.178446058753
 21
745.8411318155385
 31
0.0
  0
LINE
  5
B8AA
330
18
100
AcDbEntity
  8
01
100
AcDbLine
 10
1859.353912309705
 20
747.1999053822698
 30
0.0
 11
1859.466681822055
 21
747.6680038374197
 31
0.0
  0
LINE
  5
B8AB
330
18
100
AcDbEntity
  8
01
100
AcDbLine
 10
1848.866673568487
 20
744.1208199794786
 30
0.0
 11
1848.966674731884
 21
744.6208199794786
 31
0.0
  0
LINE
  5
B8AC
330
18
100
AcDbEntity
  8
01
100
AcDbLine
 10
1848.066682875665
 20
748.1208199794786
 30
0.0
 11
1848.866673568487
 21
744.1208199794786
 31
0.0
  0
LINE
  5
B8AD
330
18
100
AcDbEntity
  8
01
100
AcDbLine
 10
1831.166674731868
 20
744.6208199794786
 30
0.0
 11
1831.26667356847
 21
744.1208199794786
 31
0.0
  0
LINE
  5
B8AE
330
18
100
AcDbEntity
  8
01
100
AcDbLine
 10
1832.066682875656
 20
748.1208199794786
 30
0.0
 11
1832.866673568474
 21
744.1208199794786
 31
0.0
  0
LINE
  5
B8AF
330
18
100
AcDbEntity
  8
01
100
AcDbLine
 10
1835.266682875656
 20
748.1208199794786
 30
0.0
 11
1836.066673568474
 21
744.1208199794786
 31
0.0
  0
LINE
  5
B8B0
330
18
100
AcDbEntity
  8
01
100
AcDbLine
 10
1836.066673568474
 20
744.1208199794786
 30
0.0
 11
1836.166674731872
 21
744.6208199794786
 31
0.0
  0
LINE
  5
B8B1
330
18
100
AcDbEntity
  8
01
100
AcDbLine
 10
1832.866673568474
 20
744.1208199794786
 30
0.0
 11
1832.966674731872
 21
744.6208199794786
 31
0.0
  0
LINE
  5
B8B2
330
18
100
AcDbEntity
  8
01
100
AcDbLine
 10
1833.566681712258
 20
747.6208199794786
 30
0.0
 11
1833.666682875656
 21
748.1208199794786
 31
0.0
  0
LINE
  5
B8B3
330
18
100
AcDbEntity
  8
01
100
AcDbLine
 10
1834.466673568474
 20
744.1208199794786
 30
0.0
 11
1834.566674731872
 21
744.6208199794786
 31
0.0
  0
LINE
  5
B8B4
330
18
100
AcDbEntity
  8
01
100
AcDbLine
 10
1833.666682875656
 20
748.1208199794786
 30
0.0
 11
1834.466673568474
 21
744.1208199794786
 31
0.0
  0
LINE
  5
B8B5
330
18
100
AcDbEntity
  8
01
100
AcDbLine
 10
1835.166681712258
 20
747.6208199794786
 30
0.0
 11
1835.266682875656
 21
748.1208199794786
 31
0.0
  0
LINE
  5
B8B6
330
18
100
AcDbEntity
  8
01
100
AcDbLine
 10
1831.26667356847
 20
744.1208199794786
 30
0.0
 11
1831.366674731868
 21
744.6208199794786
 31
0.0
  0
LINE
  5
B8B7
330
18
100
AcDbEntity
  8
01
100
AcDbLine
 10
1831.966681712258
 20
747.6208199794786
 30
0.0
 11
1832.066682875656
 21
748.1208199794786
 31
0.0
  0
LINE
  5
B8B8
330
18
100
AcDbEntity
  8
01
100
AcDbLine
 10
1828.466687529471
 20
750.1208665153765
 30
0.0
 11
1828.466668915112
 21
742.1208665153765
 31
0.0
  0
LINE
  5
B8B9
330
18
100
AcDbEntity
  8
01
100
AcDbLine
 10
1836.766681712263
 20
747.6208199794786
 30
0.0
 11
1836.86668287566
 21
748.1208199794786
 31
0.0
  0
LINE
  5
B8BA
330
18
100
AcDbEntity
  8
01
100
AcDbLine
 10
1838.366681712267
 20
747.6208199794786
 30
0.0
 11
1838.466682875665
 21
748.1208199794786
 31
0.0
  0
LINE
  5
B8BB
330
18
100
AcDbEntity
  8
01
100
AcDbLine
 10
1837.666673568479
 20
744.1208199794786
 30
0.0
 11
1837.766674731876
 21
744.6208199794786
 31
0.0
  0
LINE
  5
B8BC
330
18
100
AcDbEntity
  8
01
100
AcDbLine
 10
1841.566681712267
 20
747.6208199794786
 30
0.0
 11
1841.666682875665
 21
748.1208199794786
 31
0.0
  0
LINE
  5
B8BD
330
18
100
AcDbEntity
  8
01
100
AcDbLine
 10
1840.066682875665
 20
748.1208199794786
 30
0.0
 11
1840.866673568483
 21
744.1208199794786
 31
0.0
  0
LINE
  5
B8BE
330
18
100
AcDbEntity
  8
01
100
AcDbLine
 10
1840.866673568483
 20
744.1208199794786
 30
0.0
 11
1840.966674731881
 21
744.6208199794786
 31
0.0
  0
LINE
  5
B8BF
330
18
100
AcDbEntity
  8
01
100
AcDbLine
 10
1839.966681712267
 20
747.6208199794786
 30
0.0
 11
1840.066682875665
 21
748.1208199794786
 31
0.0
  0
LINE
  5
B8C0
330
18
100
AcDbEntity
  8
01
100
AcDbLine
 10
1839.266673568483
 20
744.1208199794786
 30
0.0
 11
1839.366674731881
 21
744.6208199794786
 31
0.0
  0
LINE
  5
B8C1
330
18
100
AcDbEntity
  8
01
100
AcDbLine
 10
1844.066673568487
 20
744.1208199794786
 30
0.0
 11
1844.166674731885
 21
744.6208199794786
 31
0.0
  0
LINE
  5
B8C2
330
18
100
AcDbEntity
  8
01
100
AcDbLine
 10
1842.466673568483
 20
744.1208199794786
 30
0.0
 11
1842.566674731881
 21
744.6208199794786
 31
0.0
  0
LINE
  5
B8C3
330
18
100
AcDbEntity
  8
01
100
AcDbLine
 10
1843.166681712267
 20
747.6208199794786
 30
0.0
 11
1843.266682875665
 21
748.1208199794786
 31
0.0
  0
LINE
  5
B8C4
330
18
100
AcDbEntity
  8
01
100
AcDbLine
 10
1843.266682875665
 20
748.1208199794786
 30
0.0
 11
1844.066673568487
 21
744.1208199794786
 31
0.0
  0
LINE
  5
B8C5
330
18
100
AcDbEntity
  8
01
100
AcDbLine
 10
1841.666682875665
 20
748.1208199794786
 30
0.0
 11
1842.466673568483
 21
744.1208199794786
 31
0.0
  0
LINE
  5
B8C6
330
18
100
AcDbEntity
  8
01
100
AcDbLine
 10
1838.466682875665
 20
748.1208199794786
 30
0.0
 11
1839.266673568483
 21
744.1208199794786
 31
0.0
  0
LINE
  5
B8C7
330
18
100
AcDbEntity
  8
01
100
AcDbLine
 10
1836.86668287566
 20
748.1208199794786
 30
0.0
 11
1837.666673568479
 21
744.1208199794786
 31
0.0
  0
LINE
  5
B907
330
18
100
AcDbEntity
  8
1CENTER
100
AcDbLine
 10
1532.861159593245
 20
746.1208665153765
 30
0.0
 11
1570.69429264062
 21
746.1208665153765
 31
0.0
  0
LINE
  5
B908
330
18
100
AcDbEntity
  8
01
100
AcDbLine
 10
1541.515652293906
 20
747.6208199794786
 30
0.0
 11
1541.415651130509
 21
748.1208199794786
 31
0.0
  0
LINE
  5
B909
330
18
100
AcDbEntity
  8
01
100
AcDbLine
 10
1541.415651130509
 20
748.1208199794786
 30
0.0
 11
1540.615660437687
 21
744.1208199794786
 31
0.0
  0
LINE
  5
B90A
330
18
100
AcDbEntity
  8
01
100
AcDbLine
 10
1540.615660437687
 20
744.1208199794786
 30
0.0
 11
1540.515659274289
 21
744.6208199794786
 31
0.0
  0
LINE
  5
B90B
330
18
100
AcDbEntity
  8
01
100
AcDbLine
 10
1543.115652293906
 20
747.6208199794786
 30
0.0
 11
1543.015651130509
 21
748.1208199794786
 31
0.0
  0
LINE
  5
B90C
330
18
100
AcDbEntity
  8
01
100
AcDbLine
 10
1542.215660437686
 20
744.1208199794786
 30
0.0
 11
1542.115659274289
 21
744.6208199794786
 31
0.0
  0
LINE
  5
B90D
330
18
100
AcDbEntity
  8
01
100
AcDbLine
 10
1543.015651130509
 20
748.1208199794786
 30
0.0
 11
1542.215660437686
 21
744.1208199794786
 31
0.0
  0
LINE
  5
B90E
330
18
100
AcDbEntity
  8
01
100
AcDbLine
 10
1544.715652293906
 20
747.6208199794786
 30
0.0
 11
1544.615651130509
 21
748.1208199794786
 31
0.0
  0
LINE
  5
B90F
330
18
100
AcDbEntity
  8
01
100
AcDbLine
 10
1544.615651130509
 20
748.1208199794786
 30
0.0
 11
1543.815660437687
 21
744.1208199794786
 31
0.0
  0
LINE
  5
B910
330
18
100
AcDbEntity
  8
01
100
AcDbLine
 10
1543.815660437687
 20
744.1208199794786
 30
0.0
 11
1543.715659274289
 21
744.6208199794786
 31
0.0
  0
LINE
  5
B911
330
18
100
AcDbEntity
  8
01
100
AcDbLine
 10
1552.715652293906
 20
747.6208199794786
 30
0.0
 11
1552.615651130509
 21
748.1208199794786
 31
0.0
  0
LINE
  5
B912
330
18
100
AcDbEntity
  8
01
100
AcDbLine
 10
1551.815660437687
 20
744.1208199794786
 30
0.0
 11
1551.715659274289
 21
744.6208199794786
 31
0.0
  0
LINE
  5
B913
330
18
100
AcDbEntity
  8
01
100
AcDbLine
 10
1550.215660437686
 20
744.1208199794786
 30
0.0
 11
1550.115659274289
 21
744.6208199794786
 31
0.0
  0
LINE
  5
B914
330
18
100
AcDbEntity
  8
01
100
AcDbLine
 10
1551.115652293906
 20
747.6208199794786
 30
0.0
 11
1551.015651130509
 21
748.1208199794786
 31
0.0
  0
LINE
  5
B915
330
18
100
AcDbEntity
  8
01
100
AcDbLine
 10
1549.515652293906
 20
747.6208199794786
 30
0.0
 11
1549.415651130509
 21
748.1208199794786
 31
0.0
  0
LINE
  5
B916
330
18
100
AcDbEntity
  8
01
100
AcDbLine
 10
1551.015651130509
 20
748.1208199794786
 30
0.0
 11
1550.215660437686
 21
744.1208199794786
 31
0.0
  0
LINE
  5
B917
330
18
100
AcDbEntity
  8
01
100
AcDbLine
 10
1552.615651130509
 20
748.1208199794786
 30
0.0
 11
1551.815660437687
 21
744.1208199794786
 31
0.0
  0
LINE
  5
B918
330
18
100
AcDbEntity
  8
01
100
AcDbLine
 10
1547.915652293906
 20
747.6208199794786
 30
0.0
 11
1547.815651130509
 21
748.1208199794786
 31
0.0
  0
LINE
  5
B919
330
18
100
AcDbEntity
  8
01
100
AcDbLine
 10
1539.715652293906
 20
747.6208199794786
 30
0.0
 11
1539.615651130509
 21
748.1208199794786
 31
0.0
  0
LINE
  5
B91A
330
18
100
AcDbEntity
  8
01
100
AcDbLine
 10
1539.615651130509
 20
748.1208199794786
 30
0.0
 11
1538.815659910884
 21
744.3472270316826
 31
0.0
  0
LINE
  5
B91B
330
18
100
AcDbEntity
  8
01
100
AcDbLine
 10
1538.815659910884
 20
744.3472270316826
 30
0.0
 11
1538.686389213254
 21
744.8838207669537
 31
0.0
  0
LINE
  5
B91C
330
18
100
AcDbEntity
  8
01
100
AcDbLine
 10
1547.015660437687
 20
744.1208199794786
 30
0.0
 11
1546.91565927429
 21
744.6208199794786
 31
0.0
  0
LINE
  5
B91D
330
18
100
AcDbEntity
  8
01
100
AcDbLine
 10
1545.415660437686
 20
744.1208199794786
 30
0.0
 11
1545.315659274289
 21
744.6208199794786
 31
0.0
  0
LINE
  5
B91E
330
18
100
AcDbEntity
  8
01
100
AcDbLine
 10
1546.315652293906
 20
747.6208199794786
 30
0.0
 11
1546.215651130509
 21
748.1208199794786
 31
0.0
  0
LINE
  5
B91F
330
18
100
AcDbEntity
  8
01
100
AcDbLine
 10
1546.215651130509
 20
748.1208199794786
 30
0.0
 11
1545.415660437686
 21
744.1208199794786
 31
0.0
  0
LINE
  5
B920
330
18
100
AcDbEntity
  8
01
100
AcDbLine
 10
1547.815651130509
 20
748.1208199794786
 30
0.0
 11
1547.015660437687
 21
744.1208199794786
 31
0.0
  0
LINE
  5
B921
330
18
100
AcDbEntity
  8
01
100
AcDbLine
 10
1538.015652184119
 20
747.6680038374199
 30
0.0
 11
1537.215658857278
 21
744.8000411360894
 31
0.0
  0
LINE
  5
B922
330
18
100
AcDbEntity
  8
01
100
AcDbLine
 10
1536.415653237724
 20
747.2151903293716
 30
0.0
 11
1535.615657803673
 21
745.2528552404962
 31
0.0
  0
LINE
  5
B923
330
18
100
AcDbEntity
  8
01
100
AcDbLine
 10
1537.215658857278
 20
744.8000411360894
 30
0.0
 11
1537.03289471465
 21
745.3517905998926
 31
0.0
  0
LINE
  5
B924
330
18
100
AcDbEntity
  8
01
100
AcDbLine
 10
1536.567089034164
 20
746.7580184887405
 30
0.0
 11
1536.415653237724
 21
747.2151903293716
 31
0.0
  0
LINE
  5
B925
330
18
100
AcDbEntity
  8
01
100
AcDbLine
 10
1535.615657803673
 20
745.2528552404962
 30
0.0
 11
1535.30388794742
 21
745.8411318155386
 31
0.0
  0
LINE
  5
B926
330
18
100
AcDbEntity
  8
01
100
AcDbLine
 10
1538.128421696469
 20
747.1999053822699
 30
0.0
 11
1538.015652184119
 21
747.6680038374199
 31
0.0
  0
LINE
  5
B927
330
18
100
AcDbEntity
  8
01
100
AcDbLine
 10
1548.615660437687
 20
744.1208199794786
 30
0.0
 11
1548.515659274289
 21
744.6208199794786
 31
0.0
  0
LINE
  5
B928
330
18
100
AcDbEntity
  8
01
100
AcDbLine
 10
1549.415651130509
 20
748.1208199794786
 30
0.0
 11
1548.615660437687
 21
744.1208199794786
 31
0.0
  0
LINE
  5
B929
330
18
100
AcDbEntity
  8
01
100
AcDbLine
 10
1566.315659274306
 20
744.6208199794786
 30
0.0
 11
1566.215660437704
 21
744.1208199794786
 31
0.0
  0
LINE
  5
B92A
330
18
100
AcDbEntity
  8
01
100
AcDbLine
 10
1565.415651130518
 20
748.1208199794786
 30
0.0
 11
1564.6156604377
 21
744.1208199794786
 31
0.0
  0
LINE
  5
B92B
330
18
100
AcDbEntity
  8
01
100
AcDbLine
 10
1562.215651130518
 20
748.1208199794786
 30
0.0
 11
1561.4156604377
 21
744.1208199794786
 31
0.0
  0
LINE
  5
B92C
330
18
100
AcDbEntity
  8
01
100
AcDbLine
 10
1561.4156604377
 20
744.1208199794786
 30
0.0
 11
1561.315659274302
 21
744.6208199794786
 31
0.0
  0
LINE
  5
B92D
330
18
100
AcDbEntity
  8
01
100
AcDbLine
 10
1564.6156604377
 20
744.1208199794786
 30
0.0
 11
1564.515659274302
 21
744.6208199794786
 31
0.0
  0
LINE
  5
B92E
330
18
100
AcDbEntity
  8
01
100
AcDbLine
 10
1563.915652293916
 20
747.6208199794786
 30
0.0
 11
1563.815651130518
 21
748.1208199794786
 31
0.0
  0
LINE
  5
B92F
330
18
100
AcDbEntity
  8
01
100
AcDbLine
 10
1563.0156604377
 20
744.1208199794786
 30
0.0
 11
1562.915659274302
 21
744.6208199794786
 31
0.0
  0
LINE
  5
B930
330
18
100
AcDbEntity
  8
01
100
AcDbLine
 10
1563.815651130518
 20
748.1208199794786
 30
0.0
 11
1563.0156604377
 21
744.1208199794786
 31
0.0
  0
LINE
  5
B931
330
18
100
AcDbEntity
  8
01
100
AcDbLine
 10
1562.315652293915
 20
747.6208199794786
 30
0.0
 11
1562.215651130518
 21
748.1208199794786
 31
0.0
  0
LINE
  5
B932
330
18
100
AcDbEntity
  8
01
100
AcDbLine
 10
1566.215660437704
 20
744.1208199794786
 30
0.0
 11
1566.115659274306
 21
744.6208199794786
 31
0.0
  0
LINE
  5
B933
330
18
100
AcDbEntity
  8
01
100
AcDbLine
 10
1565.515652293916
 20
747.6208199794786
 30
0.0
 11
1565.415651130518
 21
748.1208199794786
 31
0.0
  0
LINE
  5
B934
330
18
100
AcDbEntity
  8
01
100
AcDbLine
 10
1569.015646476703
 20
750.1208665153765
 30
0.0
 11
1569.015665091062
 21
742.1208665153765
 31
0.0
  0
LINE
  5
B935
330
18
100
AcDbEntity
  8
01
100
AcDbLine
 10
1560.715652293911
 20
747.6208199794786
 30
0.0
 11
1560.615651130513
 21
748.1208199794786
 31
0.0
  0
LINE
  5
B936
330
18
100
AcDbEntity
  8
01
100
AcDbLine
 10
1559.115652293907
 20
747.6208199794786
 30
0.0
 11
1559.015651130509
 21
748.1208199794786
 31
0.0
  0
LINE
  5
B937
330
18
100
AcDbEntity
  8
01
100
AcDbLine
 10
1559.815660437695
 20
744.1208199794786
 30
0.0
 11
1559.715659274298
 21
744.6208199794786
 31
0.0
  0
LINE
  5
B938
330
18
100
AcDbEntity
  8
01
100
AcDbLine
 10
1555.915652293907
 20
747.6208199794786
 30
0.0
 11
1555.815651130509
 21
748.1208199794786
 31
0.0
  0
LINE
  5
B939
330
18
100
AcDbEntity
  8
01
100
AcDbLine
 10
1557.415651130509
 20
748.1208199794786
 30
0.0
 11
1556.615660437691
 21
744.1208199794786
 31
0.0
  0
LINE
  5
B93A
330
18
100
AcDbEntity
  8
01
100
AcDbLine
 10
1556.615660437691
 20
744.1208199794786
 30
0.0
 11
1556.515659274293
 21
744.6208199794786
 31
0.0
  0
LINE
  5
B93B
330
18
100
AcDbEntity
  8
01
100
AcDbLine
 10
1557.515652293907
 20
747.6208199794786
 30
0.0
 11
1557.415651130509
 21
748.1208199794786
 31
0.0
  0
LINE
  5
B93C
330
18
100
AcDbEntity
  8
01
100
AcDbLine
 10
1558.215660437691
 20
744.1208199794786
 30
0.0
 11
1558.115659274293
 21
744.6208199794786
 31
0.0
  0
LINE
  5
B93D
330
18
100
AcDbEntity
  8
01
100
AcDbLine
 10
1553.415660437686
 20
744.1208199794786
 30
0.0
 11
1553.315659274289
 21
744.6208199794786
 31
0.0
  0
LINE
  5
B93E
330
18
100
AcDbEntity
  8
01
100
AcDbLine
 10
1555.015660437691
 20
744.1208199794786
 30
0.0
 11
1554.915659274293
 21
744.6208199794786
 31
0.0
  0
LINE
  5
B93F
330
18
100
AcDbEntity
  8
01
100
AcDbLine
 10
1554.315652293907
 20
747.6208199794786
 30
0.0
 11
1554.215651130509
 21
748.1208199794786
 31
0.0
  0
LINE
  5
B940
330
18
100
AcDbEntity
  8
01
100
AcDbLine
 10
1554.215651130509
 20
748.1208199794786
 30
0.0
 11
1553.415660437686
 21
744.1208199794786
 31
0.0
  0
LINE
  5
B941
330
18
100
AcDbEntity
  8
01
100
AcDbLine
 10
1555.815651130509
 20
748.1208199794786
 30
0.0
 11
1555.015660437691
 21
744.1208199794786
 31
0.0
  0
LINE
  5
B942
330
18
100
AcDbEntity
  8
01
100
AcDbLine
 10
1559.015651130509
 20
748.1208199794786
 30
0.0
 11
1558.215660437691
 21
744.1208199794786
 31
0.0
  0
LINE
  5
B943
330
18
100
AcDbEntity
  8
01
100
AcDbLine
 10
1560.615651130513
 20
748.1208199794786
 30
0.0
 11
1559.815660437695
 21
744.1208199794786
 31
0.0
  0
LINE
  5
B944
330
18
100
AcDbEntity
  8
01
100
AcDbLine
 10
1857.866681712267
 20
747.6208199794785
 30
0.0
 11
1830.966716614143
 21
747.6208199794786
 31
0.0
  0
LINE
  5
B945
330
18
100
AcDbEntity
  8
01
100
AcDbLine
 10
1830.966716614143
 20
747.6208199794786
 30
0.0
 11
1828.466687529471
 21
750.1208665153765
 31
0.0
  0
LINE
  5
B946
330
18
100
AcDbEntity
  8
01
100
AcDbLine
 10
1828.466687529471
 20
750.1208665153765
 30
0.0
 11
1828.16668752947
 21
750.1208665153765
 31
0.0
  0
LINE
  5
B947
330
18
100
AcDbEntity
  8
01
100
AcDbLine
 10
1828.16668752947
 20
750.1208665153765
 30
0.0
 11
1828.166668915111
 21
742.1208665153765
 31
0.0
  0
LINE
  5
B948
330
18
100
AcDbEntity
  8
01
100
AcDbLine
 10
1828.166668915111
 20
742.1208665153765
 30
0.0
 11
1828.466668915112
 21
742.1208665153765
 31
0.0
  0
LINE
  5
B949
330
18
100
AcDbEntity
  8
01
100
AcDbLine
 10
1828.466668915112
 20
742.1208665153765
 30
0.0
 11
1830.966651463778
 21
744.6208199794786
 31
0.0
  0
LINE
  5
B94A
330
18
100
AcDbEntity
  8
01
100
AcDbLine
 10
1830.966651463778
 20
744.6208199794786
 30
0.0
 11
1857.866674731883
 21
744.6208199794785
 31
0.0
  0
LINE
  5
B94B
330
18
100
AcDbEntity
  8
01
100
AcDbLine
 10
1857.866674731883
 20
744.6208199794785
 30
0.0
 11
1863.166678222128
 21
746.1208199794785
 31
0.0
  0
LINE
  5
B94C
330
18
100
AcDbEntity
  8
01
100
AcDbLine
 10
1863.166678222128
 20
746.1208199794785
 30
0.0
 11
1857.866681712267
 21
747.6208199794785
 31
0.0
  0
LINE
  5
B94D
330
18
100
AcDbEntity
  8
01
100
AcDbLine
 10
1566.515617392031
 20
747.6208199794786
 30
0.0
 11
1539.615652293907
 21
747.6208199794786
 31
0.0
  0
LINE
  5
B94E
330
18
100
AcDbEntity
  8
01
100
AcDbLine
 10
1539.615652293907
 20
747.6208199794786
 30
0.0
 11
1534.315655784046
 21
746.1208199794786
 31
0.0
  0
LINE
  5
B94F
330
18
100
AcDbEntity
  8
01
100
AcDbLine
 10
1534.315655784046
 20
746.1208199794786
 30
0.0
 11
1539.615659274291
 21
744.6208199794786
 31
0.0
  0
LINE
  5
B950
330
18
100
AcDbEntity
  8
01
100
AcDbLine
 10
1539.615659274291
 20
744.6208199794786
 30
0.0
 11
1566.515682542396
 21
744.6208199794786
 31
0.0
  0
LINE
  5
B951
330
18
100
AcDbEntity
  8
01
100
AcDbLine
 10
1566.515682542396
 20
744.6208199794786
 30
0.0
 11
1569.015665091062
 21
742.1208665153765
 31
0.0
  0
LINE
  5
B952
330
18
100
AcDbEntity
  8
01
100
AcDbLine
 10
1569.015665091062
 20
742.1208665153765
 30
0.0
 11
1569.315665091063
 21
742.1208665153765
 31
0.0
  0
LINE
  5
B953
330
18
100
AcDbEntity
  8
01
100
AcDbLine
 10
1569.315665091063
 20
742.1208665153765
 30
0.0
 11
1569.315646476704
 21
750.1208665153765
 31
0.0
  0
LINE
  5
B954
330
18
100
AcDbEntity
  8
01
100
AcDbLine
 10
1569.315646476704
 20
750.1208665153765
 30
0.0
 11
1569.015646476703
 21
750.1208665153765
 31
0.0
  0
LINE
  5
B955
330
18
100
AcDbEntity
  8
01
100
AcDbLine
 10
1569.015646476703
 20
750.1208665153765
 30
0.0
 11
1566.515617392031
 21
747.6208199794786
 31
0.0
  0
LINE
  5
B956
330
18
100
AcDbEntity
  8
1DIM
100
AcDbLine
 10
996.5744551863145
 20
99.3265633369341
 30
0.0
 11
996.5744551863145
 21
148.9789986721868
 31
0.0
1001
ACAD
1000
DSTYLE
1002
{
1070
    40
1040
5.0
1002
}
  0
LINE
  5
B957
330
18
100
AcDbEntity
  8
1DIM
100
AcDbLine
 10
1256.574455186307
 20
99.3265633369341
 30
0.0
 11
1256.574455186307
 21
148.9789986721868
 31
0.0
1001
ACAD
1000
DSTYLE
1002
{
1070
    40
1040
5.0
1002
}
  0
LINE
  5
B958
330
18
100
AcDbEntity
  8
1DIM
100
AcDbLine
 10
1006.574455186314
 20
143.9789986721868
 30
0.0
 11
1246.574455186307
 21
143.9789986721868
 31
0.0
1001
ACAD
1000
DSTYLE
1002
{
1070
    40
1040
5.0
1002
}
  0
LINE
  5
B95C
330
18
100
AcDbEntity
  8
1DIM
100
AcDbLine
 10
1253.574455186307
 20
36.3265633369341
 30
0.0
 11
1312.757631137469
 21
36.32656333693408
 31
0.0
1001
ACAD
1000
DSTYLE
1002
{
1070
    40
1040
5.0
1002
}
  0
LINE
  5
B95D
330
18
100
AcDbEntity
  8
1DIM
100
AcDbLine
 10
1253.574455186307
 20
102.3265633369341
 30
0.0
 11
1312.757631137469
 21
102.3265633369341
 31
0.0
1001
ACAD
1000
DSTYLE
1002
{
1070
    40
1040
5.0
1002
}
  0
LINE
  5
B95E
330
18
100
AcDbEntity
  8
1DIM
100
AcDbLine
 10
1307.757631137469
 20
46.32656333693409
 30
0.0
 11
1307.757631137469
 21
92.3265633369341
 31
0.0
1001
ACAD
1000
DSTYLE
1002
{
1070
    40
1040
5.0
1002
}
  0
LINE
  5
B962
330
18
100
AcDbEntity
  8
1DIM
100
AcDbLine
 10
1352.76975182874
 20
101.3265633369341
 30
0.0
 11
1352.76975182874
 21
142.8355739482868
 31
0.0
1001
ACAD
1000
DSTYLE
1002
{
1070
     3
1000
t=<>
1070
    40
1040
5.0
1002
}
  0
LINE
  5
B963
330
18
100
AcDbEntity
  8
1DIM
100
AcDbLine
 10
1347.76975182874
 20
101.3265633369341
 30
0.0
 11
1347.76975182874
 21
142.8355739482868
 31
0.0
1001
ACAD
1000
DSTYLE
1002
{
1070
     3
1000
t=<>
1070
    40
1040
5.0
1002
}
  0
LINE
  5
B964
330
18
100
AcDbEntity
  8
1DIM
100
AcDbLine
 10
1362.76975182874
 20
137.8355739482868
 30
0.0
 11
1372.76975182874
 21
137.8355739482868
 31
0.0
1001
ACAD
1000
DSTYLE
1002
{
1070
     3
1000
t=<>
1070
    40
1040
5.0
1002
}
  0
LINE
  5
B965
330
18
100
AcDbEntity
  8
1DIM
100
AcDbLine
 10
1337.76975182874
 20
137.8355739482868
 30
0.0
 11
1276.603085162073
 21
137.8355739482868
 31
0.0
1001
ACAD
1000
DSTYLE
1002
{
1070
     3
1000
t=<>
1070
    40
1040
5.0
1002
}
  0
LINE
  5
B966
330
18
100
AcDbEntity
  8
1DIM
100
AcDbLine
 10
1352.76975182874
 20
137.8355739482868
 30
0.0
 11
1347.76975182874
 21
137.8355739482868
 31
0.0
1001
ACAD
1000
DSTYLE
1002
{
1070
     3
1000
t=<>
1070
    40
1040
5.0
1002
}
  0
ARC
  5
B96A
330
18
100
AcDbEntity
  8
1DIM
100
AcDbCircle
 10
1567.183328472118
 20
686.6208665093627
 30
0.0
 40
101.0779017888273
100
AcDbArc
 50
270.6707916419646
 51
354.3292083580352
1001
ACAD
1000
DSTYLE
1002
{
1070
    40
1040
5.0
1002
}
  0
LINE
  5
B96E
330
18
100
AcDbEntity
  8
1DIM
100
AcDbLine
 10
2256.17234830246
 20
428.4798103103293
 30
0.0
 11
2157.805303998456
 21
428.4798103103294
 31
0.0
1001
ACAD
1000
DSTYLE
1002
{
1070
    40
1040
5.0
1002
}
  0
LINE
  5
B96F
330
18
100
AcDbEntity
  8
1DIM
100
AcDbLine
 10
2256.172363164197
 20
-251.5201896896706
 30
0.0
 11
2157.805303998456
 21
-251.5201896896705
 31
0.0
1001
ACAD
1000
DSTYLE
1002
{
1070
    40
1040
5.0
1002
}
  0
LINE
  5
B970
330
18
100
AcDbEntity
  8
1DIM
100
AcDbLine
 10
2162.805303998456
 20
418.4798103103294
 30
0.0
 11
2162.805303998456
 21
-241.5201896896705
 31
0.0
1001
ACAD
1000
DSTYLE
1002
{
1070
    40
1040
5.0
1002
}
  0
LINE
  5
B974
330
18
100
AcDbEntity
  8
1DIM
100
AcDbLine
 10
2284.597357834168
 20
106.9798114248989
 30
0.0
 11
2395.349091149918
 21
106.9798114248989
 31
0.0
1001
ACAD
1000
DSTYLE
1002
{
1070
    40
1040
5.0
1002
}
  0
LINE
  5
B975
330
18
100
AcDbEntity
  8
1DIM
100
AcDbLine
 10
2288.193137776136
 20
333.4798103087438
 30
0.0
 11
2395.349091149918
 21
333.4798103087438
 31
0.0
1001
ACAD
1000
DSTYLE
1002
{
1070
    40
1040
5.0
1002
}
  0
LINE
  5
B976
330
18
100
AcDbEntity
  8
1DIM
100
AcDbLine
 10
2390.349091149918
 20
116.9798114248989
 30
0.0
 11
2390.349091149918
 21
323.4798103087438
 31
0.0
1001
ACAD
1000
DSTYLE
1002
{
1070
    40
1040
5.0
1002
}
  0
LINE
  5
B97A
330
18
100
AcDbEntity
  8
1DIM
100
AcDbLine
 10
2284.597357834168
 20
106.9798114248989
 30
0.0
 11
2395.349091149918
 21
106.9798114248989
 31
0.0
1001
ACAD
1000
DSTYLE
1002
{
1070
    40
1040
5.0
1002
}
  0
LINE
  5
B97B
330
18
100
AcDbEntity
  8
1DIM
100
AcDbLine
 10
2288.193137776136
 20
-156.520189688082
 30
0.0
 11
2395.349091149918
 21
-156.520189688082
 31
0.0
1001
ACAD
1000
DSTYLE
1002
{
1070
    40
1040
5.0
1002
}
  0
LINE
  5
B97C
330
18
100
AcDbEntity
  8
1DIM
100
AcDbLine
 10
2390.349091149918
 20
96.9798114248989
 30
0.0
 11
2390.349091149918
 21
-146.520189688082
 31
0.0
1001
ACAD
1000
DSTYLE
1002
{
1070
    40
1040
5.0
1002
}
  0
LINE
  5
B980
330
18
100
AcDbEntity
  8
1DIM
100
AcDbLine
 10
2281.672341867463
 20
326.9590144063901
 30
0.0
 11
2281.672341867463
 21
271.5274058136599
 31
0.0
1001
ACAD
1000
DSTYLE
1002
{
1070
    40
1040
5.0
1070
    75
1070
     0
1070
    76
1070
     1
1070
   281
1070
     0
1070
   282
1070
     0
1002
}
  0
LINE
  5
B981
330
18
100
AcDbEntity
  8
1DIM
100
AcDbLine
 10
2291.672341867463
 20
276.5274058136599
 30
0.0
 11
2301.672341867463
 21
276.5274058136599
 31
0.0
1001
ACAD
1000
DSTYLE
1002
{
1070
    40
1040
5.0
1070
    75
1070
     0
1070
    76
1070
     1
1070
   281
1070
     0
1070
   282
1070
     0
1002
}
  0
LINE
  5
B982
330
18
100
AcDbEntity
  8
1DIM
100
AcDbLine
 10
2246.172348302327
 20
276.5274058136599
 30
0.0
 11
2147.265025017128
 21
276.5274058136599
 31
0.0
1001
ACAD
1000
DSTYLE
1002
{
1070
    40
1040
5.0
1070
    75
1070
     0
1070
    76
1070
     1
1070
   281
1070
     0
1070
   282
1070
     0
1002
}
  0
LINE
  5
B983
330
18
100
AcDbEntity
  8
1DIM
100
AcDbLine
 10
2281.672341867463
 20
276.5274058136599
 30
0.0
 11
2256.172348302327
 21
276.5274058136599
 31
0.0
1001
ACAD
1000
DSTYLE
1002
{
1070
    40
1040
5.0
1070
    75
1070
     0
1070
    76
1070
     1
1070
   281
1070
     0
1070
   282
1070
     0
1002
}
  0
LINE
  5
B987
330
18
100
AcDbEntity
  8
1DIM
100
AcDbLine
 10
2256.17234830246
 20
468.4798103103291
 30
0.0
 11
2256.17234830246
 21
496.4129078748107
 31
0.0
1001
ACAD
1000
DSTYLE
1002
{
1070
    40
1040
5.0
1002
}
  0
LINE
  5
B988
330
18
100
AcDbEntity
  8
1DIM
100
AcDbLine
 10
2222.172364145303
 20
436.4798103103341
 30
0.0
 11
2222.172364145303
 21
496.4129078748107
 31
0.0
1001
ACAD
1000
DSTYLE
1002
{
1070
    40
1040
5.0
1002
}
  0
LINE
  5
B989
330
18
100
AcDbEntity
  8
1DIM
100
AcDbLine
 10
2246.17234830246
 20
491.4129078748107
 30
0.0
 11
2232.172364145303
 21
491.4129078748107
 31
0.0
1001
ACAD
1000
DSTYLE
1002
{
1070
    40
1040
5.0
1002
}
  0
LINE
  5
B98A
330
18
100
AcDbEntity
  8
1DIM
100
AcDbLine
 10
2222.172364145303
 20
491.4129078748107
 30
0.0
 11
2176.005697478637
 21
491.4129078748107
 31
0.0
1001
ACAD
1000
DSTYLE
1002
{
1070
    40
1040
5.0
1002
}
  0
LINE
  5
B98E
330
18
100
AcDbEntity
  8
1DIM
100
AcDbLine
 10
2303.172341868555
 20
420.9214295186792
 30
0.0
 11
2303.172341868555
 21
516.5082980295834
 31
0.0
1001
ACAD
1000
DSTYLE
1002
{
1070
    40
1040
5.0
1002
}
  0
LINE
  5
B98F
330
18
100
AcDbEntity
  8
1DIM
100
AcDbLine
 10
2222.172364145303
 20
436.4798103103341
 30
0.0
 11
2222.172364145303
 21
516.5082980295834
 31
0.0
1001
ACAD
1000
DSTYLE
1002
{
1070
    40
1040
5.0
1002
}
  0
LINE
  5
B990
330
18
100
AcDbEntity
  8
1DIM
100
AcDbLine
 10
2293.172341868555
 20
511.5082980295834
 30
0.0
 11
2232.172364145303
 21
511.5082980295834
 31
0.0
1001
ACAD
1000
DSTYLE
1002
{
1070
    40
1040
5.0
1002
}
  0
LINE
  5
B995
330
18
100
AcDbEntity
  8
1DIM
100
AcDbLine
 10
2273.893566388557
 20
468.8750307430829
 30
0.0
 11
2315.815528628414
 21
497.9055957963446
 31
0.0
1001
ACAD
1000
DSTYLE
1002
{
1070
    40
1040
5.0
1002
}
  0
LINE
  5
B996
330
18
100
AcDbEntity
  8
1DIM
100
AcDbLine
 10
2315.815528628414
 20
497.9055957963446
 30
0.0
 11
2358.482195295081
 21
497.9055957963446
 31
0.0
1001
ACAD
1000
DSTYLE
1002
{
1070
    40
1040
5.0
1002
}
  0
TEXT
  5
B997
330
18
100
AcDbEntity
  8
1DIM
  6
CONTINUOUS
100
AcDbText
 10
2329.315528628414
 20
501.4055957963446
 30
0.0
 40
17.5
  1
PB
100
AcDbText
  0
LINE
  5
B998
330
18
100
AcDbEntity
  8
1DIM
100
AcDbLine
 10
2298.672348302395
 20
-243.9528676818247
 30
0.0
 11
2298.672348302395
 21
-315.1972163091053
 31
0.0
1001
ACAD
1000
DSTYLE
1002
{
1070
    40
1040
5.0
1002
}
  0
LINE
  5
B999
330
18
100
AcDbEntity
  8
1DIM
100
AcDbLine
 10
2229.172347857015
 20
-260.1305262595162
 30
0.0
 11
2229.172347857015
 21
-315.1972163091053
 31
0.0
1001
ACAD
1000
DSTYLE
1002
{
1070
    40
1040
5.0
1002
}
  0
LINE
  5
B99A
330
18
100
AcDbEntity
  8
1DIM
100
AcDbLine
 10
2229.172347857015
 20
-310.1972163091053
 30
0.0
 11
2072.630681190348
 21
-310.1972163091053
 31
0.0
1001
ACAD
1000
DSTYLE
1002
{
1070
    40
1040
5.0
1002
}
  0
LINE
  5
B99B
330
18
100
AcDbEntity
  8
1DIM
100
AcDbLine
 10
2288.672348302395
 20
-310.1972163091053
 30
0.0
 11
2239.172347857015
 21
-310.1972163091053
 31
0.0
1001
ACAD
1000
DSTYLE
1002
{
1070
    40
1040
5.0
1002
}
  0
LINE
  5
B99F
330
18
100
AcDbEntity
  8
1DIM
100
AcDbLine
 10
1549.056023384076
 20
435.7057632437874
 30
0.0
 11
1549.056023384076
 21
491.4822830496452
 31
0.0
1001
ACAD
1000
DSTYLE
1002
{
1070
    40
1040
5.0
1070
   271
1070
     0
1002
}
  0
LINE
  5
B9A0
330
18
100
AcDbEntity
  8
1DIM
100
AcDbLine
 10
1848.456034485544
 20
435.7057632437819
 30
0.0
 11
1848.456034485544
 21
491.4822830496452
 31
0.0
1001
ACAD
1000
DSTYLE
1002
{
1070
    40
1040
5.0
1070
   271
1070
     0
1002
}
  0
LINE
  5
B9A1
330
18
100
AcDbEntity
  8
1DIM
100
AcDbLine
 10
1559.056023384076
 20
486.4822830496452
 30
0.0
 11
1838.456034485544
 21
486.4822830496452
 31
0.0
1001
ACAD
1000
DSTYLE
1002
{
1070
    40
1040
5.0
1070
   271
1070
     0
1002
}
  0
LINE
  5
B9A5
330
18
100
AcDbEntity
  8
1DIM
100
AcDbLine
 10
1554.037506967327
 20
440.6798103103303
 30
0.0
 11
1477.069349709126
 21
440.6798103103303
 31
0.0
1001
ACAD
1000
DSTYLE
1002
{
1070
    40
1040
5.0
1070
   271
1070
     0
1002
}
  0
LINE
  5
B9A6
330
18
100
AcDbEntity
  8
1DIM
100
AcDbLine
 10
1554.037506967327
 20
-263.7201896896689
 30
0.0
 11
1477.069349709126
 21
-263.7201896896689
 31
0.0
1001
ACAD
1000
DSTYLE
1002
{
1070
    40
1040
5.0
1070
   271
1070
     0
1002
}
  0
LINE
  5
B9A7
330
18
100
AcDbEntity
  8
1DIM
100
AcDbLine
 10
1482.069349709126
 20
430.6798103103303
 30
0.0
 11
1482.069349709126
 21
-253.7201896896689
 31
0.0
1001
ACAD
1000
DSTYLE
1002
{
1070
    40
1040
5.0
1070
   271
1070
     0
1002
}
  0
LINE
  5
B9AB
330
18
100
AcDbEntity
  8
1DIM
100
AcDbLine
 10
1828.756028934809
 20
213.4754840359661
 30
0.0
 11
1925.811745770613
 21
213.4754840359661
 31
0.0
1001
ACAD
1000
DSTYLE
1002
{
1070
    40
1040
5.0
1070
   271
1070
     1
1002
}
  0
LINE
  5
B9AC
330
18
100
AcDbEntity
  8
1DIM
100
AcDbLine
 10
1828.756028934808
 20
-36.51586525156438
 30
0.0
 11
1925.811745770613
 21
-36.51586525156441
 31
0.0
1001
ACAD
1000
DSTYLE
1002
{
1070
    40
1040
5.0
1070
   271
1070
     1
1002
}
  0
LINE
  5
B9AD
330
18
100
AcDbEntity
  8
1DIM
100
AcDbLine
 10
1920.811745770613
 20
203.4754840359661
 30
0.0
 11
1920.811745770613
 21
-26.51586525156441
 31
0.0
1001
ACAD
1000
DSTYLE
1002
{
1070
    40
1040
5.0
1070
   271
1070
     1
1002
}
  0
LINE
  5
B9B1
330
18
100
AcDbEntity
  8
1DIM
100
AcDbLine
 10
1568.756028934808
 20
-243.9528651813413
 30
0.0
 11
1568.756028934808
 21
-361.590978121569
 31
0.0
1001
ACAD
1000
DSTYLE
1002
{
1070
    40
1040
5.0
1002
}
  0
LINE
  5
B9B2
330
18
100
AcDbEntity
  8
1DIM
100
AcDbLine
 10
1828.756028934808
 20
-243.9528651813413
 30
0.0
 11
1828.756028934808
 21
-361.590978121569
 31
0.0
1001
ACAD
1000
DSTYLE
1002
{
1070
    40
1040
5.0
1002
}
  0
LINE
  5
B9B3
330
18
100
AcDbEntity
  8
1DIM
100
AcDbLine
 10
1578.756028934808
 20
-356.590978121569
 30
0.0
 11
1818.756028934808
 21
-356.590978121569
 31
0.0
1001
ACAD
1000
DSTYLE
1002
{
1070
    40
1040
5.0
1002
}
  0
LINE
  5
B9B7
330
18
100
AcDbEntity
  8
1DIM
100
AcDbLine
 10
1828.756028934808
 20
-40.52451596403364
 30
0.0
 11
1925.811745770612
 21
-40.52451596403367
 31
0.0
1001
ACAD
1000
DSTYLE
1002
{
1070
    40
1040
5.0
1070
   271
1070
     0
1002
}
  0
LINE
  5
B9B8
330
18
100
AcDbEntity
  8
1DIM
100
AcDbLine
 10
1828.756028934808
 20
-243.9528651813413
 30
0.0
 11
1925.811745770612
 21
-243.9528651813414
 31
0.0
1001
ACAD
1000
DSTYLE
1002
{
1070
    40
1040
5.0
1070
   271
1070
     0
1002
}
  0
LINE
  5
B9B9
330
18
100
AcDbEntity
  8
1DIM
100
AcDbLine
 10
1920.811745770612
 20
-50.52451596403367
 30
0.0
 11
1920.811745770612
 21
-233.9528651813414
 31
0.0
1001
ACAD
1000
DSTYLE
1002
{
1070
    40
1040
5.0
1070
   271
1070
     0
1002
}
  0
LINE
  5
B9BD
330
18
100
AcDbEntity
  8
1DIM
100
AcDbLine
 10
1828.756028934809
 20
217.4841347484354
 30
0.0
 11
1925.811745770613
 21
217.4841347484354
 31
0.0
1001
ACAD
1000
DSTYLE
1002
{
1070
    40
1040
5.0
1070
   271
1070
     0
1002
}
  0
LINE
  5
B9BE
330
18
100
AcDbEntity
  8
1DIM
100
AcDbLine
 10
1828.756028934809
 20
420.9124858020026
 30
0.0
 11
1925.811745770613
 21
420.9124858020025
 31
0.0
1001
ACAD
1000
DSTYLE
1002
{
1070
    40
1040
5.0
1070
   271
1070
     0
1002
}
  0
LINE
  5
B9BF
330
18
100
AcDbEntity
  8
1DIM
100
AcDbLine
 10
1920.811745770613
 20
227.4841347484354
 30
0.0
 11
1920.811745770613
 21
410.9124858020025
 31
0.0
1001
ACAD
1000
DSTYLE
1002
{
1070
    40
1040
5.0
1070
   271
1070
     0
1002
}
  0
LINE
  5
B9C3
330
18
100
AcDbEntity
  8
1DIM
100
AcDbLine
 10
1828.756028934808
 20
-243.9528651813413
 30
0.0
 11
1888.527547880128
 21
-243.9528651813414
 31
0.0
1001
ACAD
1000
DSTYLE
1002
{
1070
    40
1040
5.0
1070
   271
1070
     0
1002
}
  0
LINE
  5
B9C4
330
18
100
AcDbEntity
  8
1DIM
100
AcDbLine
 10
1828.75602893481
 20
-136.4922406139694
 30
0.0
 11
1888.527547880128
 21
-136.4922406139695
 31
0.0
1001
ACAD
1000
DSTYLE
1002
{
1070
    40
1040
5.0
1070
   271
1070
     0
1002
}
  0
LINE
  5
B9C5
330
18
100
AcDbEntity
  8
1DIM
100
AcDbLine
 10
1883.527547880128
 20
-233.9528651813414
 30
0.0
 11
1883.527547880128
 21
-146.4922406139695
 31
0.0
1001
ACAD
1000
DSTYLE
1002
{
1070
    40
1040
5.0
1070
   271
1070
     0
1002
}
  0
LINE
  5
B9C9
330
18
100
AcDbEntity
  8
1DIM
100
AcDbLine
 10
1828.756028934808
 20
-36.51586525156438
 30
0.0
 11
1888.527547880128
 21
-36.5158652515644
 31
0.0
1001
ACAD
1000
DSTYLE
1002
{
1070
    40
1040
5.0
1070
   271
1070
     0
1002
}
  0
LINE
  5
B9CA
330
18
100
AcDbEntity
  8
1DIM
100
AcDbLine
 10
1828.756028934808
 20
48.50775938603033
 30
0.0
 11
1888.527547880128
 21
48.50775938603031
 31
0.0
1001
ACAD
1000
DSTYLE
1002
{
1070
    40
1040
5.0
1070
   271
1070
     0
1002
}
  0
LINE
  5
B9CB
330
18
100
AcDbEntity
  8
1DIM
100
AcDbLine
 10
1883.527547880128
 20
-26.51586525156439
 30
0.0
 11
1883.527547880128
 21
38.50775938603032
 31
0.0
1001
ACAD
1000
DSTYLE
1002
{
1070
    40
1040
5.0
1070
   271
1070
     0
1002
}
  0
LINE
  5
B9CF
330
18
100
AcDbEntity
  8
1DIM
100
AcDbLine
 10
1828.756028934811
 20
48.50775938603033
 30
0.0
 11
1888.527547880128
 21
48.50775938603031
 31
0.0
1001
ACAD
1000
DSTYLE
1002
{
1070
    40
1040
5.0
1002
}
  0
LINE
  5
B9D0
330
18
100
AcDbEntity
  8
1DIM
100
AcDbLine
 10
1828.756028934809
 20
132.5077593860303
 30
0.0
 11
1888.527547880128
 21
132.5077593860303
 31
0.0
1001
ACAD
1000
DSTYLE
1002
{
1070
    40
1040
5.0
1002
}
  0
LINE
  5
B9D1
330
18
100
AcDbEntity
  8
1DIM
100
AcDbLine
 10
1883.527547880128
 20
58.50775938603032
 30
0.0
 11
1883.527547880128
 21
122.5077593860303
 31
0.0
1001
ACAD
1000
DSTYLE
1002
{
1070
    40
1040
5.0
1002
}
  0
LINE
  5
B9D5
330
18
100
AcDbEntity
  8
1DIM
100
AcDbLine
 10
1828.756028934809
 20
217.4841347484354
 30
0.0
 11
1888.527547880128
 21
217.4841347484354
 31
0.0
1001
ACAD
1000
DSTYLE
1002
{
1070
    40
1040
5.0
1002
}
  0
LINE
  5
B9D6
330
18
100
AcDbEntity
  8
1DIM
100
AcDbLine
 10
1828.756028934809
 20
317.4841347484354
 30
0.0
 11
1888.527547880128
 21
317.4841347484354
 31
0.0
1001
ACAD
1000
DSTYLE
1002
{
1070
    40
1040
5.0
1002
}
  0
LINE
  5
B9D7
330
18
100
AcDbEntity
  8
1DIM
100
AcDbLine
 10
1883.527547880128
 20
227.4841347484354
 30
0.0
 11
1883.527547880128
 21
307.4841347484354
 31
0.0
1001
ACAD
1000
DSTYLE
1002
{
1070
    40
1040
5.0
1002
}
  0
LINE
  5
B9DC
330
18
100
AcDbEntity
  8
1DIM
100
AcDbLine
 10
1877.005872424515
 20
123.2956657237043
 30
0.0
 11
1923.862109259423
 21
178.9434047287622
 31
0.0
1001
ACAD
1000
DSTYLE
1002
{
1070
    40
1040
5.0
1002
}
  0
LINE
  5
B9DD
330
18
100
AcDbEntity
  8
1DIM
100
AcDbLine
 10
1923.862109259423
 20
178.9434047287622
 30
0.0
 11
2079.695442592757
 21
178.9434047287622
 31
0.0
1001
ACAD
1000
DSTYLE
1002
{
1070
    40
1040
5.0
1002
}
  0
TEXT
  5
B9DE
330
18
100
AcDbEntity
  8
1DIM
  6
CONTINUOUS
100
AcDbText
 10
1937.362109259423
 20
182.4434047287622
 30
0.0
 40
17.5
  1
可動棚取付位置
100
AcDbText
  0
LINE
  5
B9DF
330
18
100
AcDbEntity
  8
1DIM
100
AcDbLine
 10
1558.741166026954
 20
720.6208665167011
 30
0.0
 11
1558.741166026954
 21
550.9868690787034
 31
0.0
1001
ACAD
1000
DSTYLE
1002
{
1070
    40
1040
5.0
1070
    47
1040
3.0
1070
    71
1070
     1
1070
   272
1070
     2
1070
   341
1005
0
1002
}
  0
LINE
  5
B9E0
330
18
100
AcDbEntity
  8
1DIM
100
AcDbLine
 10
1838.741166026954
 20
720.6208665153771
 30
0.0
 11
1838.741166026954
 21
550.9868690787034
 31
0.0
1001
ACAD
1000
DSTYLE
1002
{
1070
    40
1040
5.0
1070
    47
1040
3.0
1070
    71
1070
     1
1070
   272
1070
     2
1070
   341
1005
0
1002
}
  0
LINE
  5
B9E1
330
18
100
AcDbEntity
  8
1DIM
100
AcDbLine
 10
1568.741166026954
 20
555.9868690787034
 30
0.0
 11
1828.741166026954
 21
555.9868690787034
 31
0.0
1001
ACAD
1000
DSTYLE
1002
{
1070
    40
1040
5.0
1070
    47
1040
3.0
1070
    71
1070
     1
1070
   272
1070
     2
1070
   341
1005
0
1002
}
  0
LINE
  5
B9E5
330
18
100
AcDbEntity
  8
1DIM
100
AcDbLine
 10
1559.221442113195
 20
732.9951880850289
 30
0.0
 11
1559.221442113195
 21
827.4363794277948
 31
0.0
1001
ACAD
1000
DSTYLE
1002
{
1070
    40
1040
5.0
1070
   271
1070
     1
1002
}
  0
LINE
  5
B9E6
330
18
100
AcDbEntity
  8
1DIM
100
AcDbLine
 10
1835.866883197566
 20
720.6208665153762
 30
0.0
 11
1835.866883197566
 21
827.4363794277948
 31
0.0
1001
ACAD
1000
DSTYLE
1002
{
1070
    40
1040
5.0
1070
   271
1070
     1
1002
}
  0
LINE
  5
B9E7
330
18
100
AcDbEntity
  8
1DIM
100
AcDbLine
 10
1569.221442113195
 20
822.4363794277948
 30
0.0
 11
1825.866883197566
 21
822.4363794277948
 31
0.0
1001
ACAD
1000
DSTYLE
1002
{
1070
    40
1040
5.0
1070
   271
1070
     1
1002
}
  0
LINE
  5
B9EB
330
18
100
AcDbEntity
  8
1DIM
100
AcDbLine
 10
1838.741166026954
 20
720.6208665167024
 30
0.0
 11
1838.741166026954
 21
550.9868690787034
 31
0.0
1001
ACAD
1000
DSTYLE
1002
{
1070
    40
1040
5.0
1002
}
  0
LINE
  5
B9EC
330
18
100
AcDbEntity
  8
1DIM
100
AcDbLine
 10
1858.741166026954
 20
730.1208665153771
 30
0.0
 11
1858.741166026954
 21
550.9868690787034
 31
0.0
1001
ACAD
1000
DSTYLE
1002
{
1070
    40
1040
5.0
1002
}
  0
LINE
  5
B9ED
330
18
100
AcDbEntity
  8
1DIM
100
AcDbLine
 10
1828.741166026954
 20
555.9868690787034
 30
0.0
 11
1818.741166026954
 21
555.9868690787034
 31
0.0
1001
ACAD
1000
DSTYLE
1002
{
1070
    40
1040
5.0
1002
}
  0
LINE
  5
B9EE
330
18
100
AcDbEntity
  8
1DIM
100
AcDbLine
 10
1868.741166026954
 20
555.9868690787034
 30
0.0
 11
2036.907832693621
 21
555.9868690787034
 31
0.0
1001
ACAD
1000
DSTYLE
1002
{
1070
    40
1040
5.0
1002
}
  0
LINE
  5
B9EF
330
18
100
AcDbEntity
  8
1DIM
100
AcDbLine
 10
1838.741166026954
 20
555.9868690787034
 30
0.0
 11
1858.741166026954
 21
555.9868690787034
 31
0.0
1001
ACAD
1000
DSTYLE
1002
{
1070
    40
1040
5.0
1002
}
  0
LINE
  5
B9F3
330
18
100
AcDbEntity
  8
1DIM
100
AcDbLine
 10
1555.561295975767
 20
678.8208665093636
 30
0.0
 11
1483.317909200679
 21
678.8208665093636
 31
0.0
1001
ACAD
1000
DSTYLE
1002
{
1070
    40
1040
5.0
1070
   271
1070
     0
1002
}
  0
LINE
  5
B9F4
330
18
100
AcDbEntity
  8
1DIM
100
AcDbLine
 10
1508.741166026954
 20
720.6208665167011
 30
0.0
 11
1483.317909200679
 21
720.6208665167011
 31
0.0
1001
ACAD
1000
DSTYLE
1002
{
1070
    40
1040
5.0
1070
   271
1070
     0
1002
}
  0
LINE
  5
B9F5
330
18
100
AcDbEntity
  8
1DIM
100
AcDbLine
 10
1488.317909200679
 20
688.8208665093636
 30
0.0
 11
1488.317909200679
 21
710.6208665167011
 31
0.0
1001
ACAD
1000
DSTYLE
1002
{
1070
    40
1040
5.0
1070
   271
1070
     0
1002
}
  0
LINE
  5
B9F9
330
18
100
AcDbEntity
  8
1DIM
100
AcDbLine
 10
1888.741166026954
 20
720.6208665153769
 30
0.0
 11
1925.484554170374
 21
720.6208665153769
 31
0.0
1001
ACAD
1000
DSTYLE
1002
{
1070
    40
1040
5.0
1002
}
  0
LINE
  5
B9FA
330
18
100
AcDbEntity
  8
1DIM
100
AcDbLine
 10
1858.741166026954
 20
760.6208665153771
 30
0.0
 11
1925.484554170374
 21
760.6208665153771
 31
0.0
1001
ACAD
1000
DSTYLE
1002
{
1070
    40
1040
5.0
1002
}
  0
LINE
  5
B9FB
330
18
100
AcDbEntity
  8
1DIM
100
AcDbLine
 10
1920.484554170374
 20
730.6208665153769
 30
0.0
 11
1920.484554170374
 21
750.6208665153771
 31
0.0
1001
ACAD
1000
DSTYLE
1002
{
1070
    40
1040
5.0
1002
}
  0
LINE
  5
B9FC
330
18
100
AcDbEntity
  8
1DIM
100
AcDbLine
 10
1920.484554170374
 20
760.6208665153771
 30
0.0
 11
1920.484554170374
 21
863.2875331820438
 31
0.0
1001
ACAD
1000
DSTYLE
1002
{
1070
    40
1040
5.0
1002
}
  0
LINE
  5
BA00
330
18
100
AcDbEntity
  8
1DIM
100
AcDbLine
 10
1888.741166026954
 20
720.6208665153769
 30
0.0
 11
2074.288153960742
 21
720.6208665153769
 31
0.0
1001
ACAD
1000
DSTYLE
1002
{
1070
    40
1040
5.0
1002
}
  0
LINE
  5
BA01
330
18
100
AcDbEntity
  8
1DIM
100
AcDbLine
 10
1888.445910620888
 20
770.6208665167013
 30
0.0
 11
2074.288153960742
 21
770.6208665167013
 31
0.0
1001
ACAD
1000
DSTYLE
1002
{
1070
    40
1040
5.0
1002
}
  0
LINE
  5
BA02
330
18
100
AcDbEntity
  8
1DIM
100
AcDbLine
 10
2069.288153960742
 20
730.6208665153769
 30
0.0
 11
2069.288153960742
 21
760.6208665167013
 31
0.0
1001
ACAD
1000
DSTYLE
1002
{
1070
    40
1040
5.0
1002
}
  0
LINE
  5
BA06
330
18
100
AcDbEntity
  8
1DIM
100
AcDbLine
 10
1549.04116802974
 20
720.6208665153787
 30
0.0
 11
1483.317909200679
 21
720.6208665153787
 31
0.0
1001
ACAD
1000
DSTYLE
1002
{
1070
    40
1040
5.0
1002
}
  0
LINE
  5
BA07
330
18
100
AcDbEntity
  8
1DIM
100
AcDbLine
 10
1569.358355805155
 20
767.6208438933669
 30
0.0
 11
1483.317909200679
 21
767.6208438933669
 31
0.0
1001
ACAD
1000
DSTYLE
1002
{
1070
    40
1040
5.0
1002
}
  0
LINE
  5
BA08
330
18
100
AcDbEntity
  8
1DIM
100
AcDbLine
 10
1488.317909200679
 20
730.6208665153787
 30
0.0
 11
1488.317909200679
 21
757.6208438933669
 31
0.0
1001
ACAD
1000
DSTYLE
1002
{
1070
    40
1040
5.0
1002
}
  0
LINE
  5
BA0D
330
18
100
AcDbEntity
  8
1DIM
100
AcDbLine
 10
1844.473807303784
 20
75.66661359540925
 30
0.0
 11
1948.135578670443
 21
10.47984539655268
 31
0.0
1001
ACAD
1000
DSTYLE
1002
{
1070
    40
1040
5.0
1002
}
  0
LINE
  5
BA0E
330
18
100
AcDbEntity
  8
1DIM
100
AcDbLine
 10
1948.135578670443
 20
10.47984539655268
 30
0.0
 11
2123.218912003776
 21
10.47984539655268
 31
0.0
1001
ACAD
1000
DSTYLE
1002
{
1070
    40
1040
5.0
1002
}
  0
TEXT
  5
BA0F
330
18
100
AcDbEntity
  8
1DIM
  6
CONTINUOUS
100
AcDbText
 10
1960.468912003776
 20
43.14651206321934
 30
0.0
 40
17.5
  1
材質：ステンレス
100
AcDbText
  0
TEXT
  5
BA10
330
18
100
AcDbEntity
  8
1DIM
  6
CONTINUOUS
100
AcDbText
 10
1961.052245337109
 20
13.97984539655268
 30
0.0
 40
17.5
  1
仕上げ：鏡面
100
AcDbText
  0
LINE
  5
BA12
330
18
100
AcDbEntity
  8
1DIM
100
AcDbLine
 10
2259.31905183164
 20
-66.6949918321128
 30
0.0
 11
2156.527883656661
 21
-164.0141407109177
 31
0.0
1001
ACAD
1000
DSTYLE
1002
{
1070
    40
1040
5.0
1002
}
  0
LINE
  5
BA13
330
18
100
AcDbEntity
  8
1DIM
100
AcDbLine
 10
2156.527883656661
 20
-164.0141407109177
 30
0.0
 11
1993.527883656661
 21
-164.0141407109177
 31
0.0
1001
ACAD
1000
DSTYLE
1002
{
1070
    40
1040
5.0
1002
}
  0
TEXT
  5
BA14
330
18
100
AcDbEntity
  8
1DIM
  6
CONTINUOUS
100
AcDbText
 10
1989.027883656661
 20
-160.5141407109177
 30
0.0
 40
17.5
  1
材質：ABS樹脂
100
AcDbText
  0
LINE
  5
BA16
330
18
100
AcDbEntity
  8
1DIM
100
AcDbLine
 10
1810.124283836884
 20
333.5783451001999
 30
0.0
 11
1898.512967615969
 21
444.6481625308315
 31
0.0
1001
ACAD
1000
DSTYLE
1002
{
1070
    40
1040
5.0
1002
}
  0
LINE
  5
BA17
330
18
100
AcDbEntity
  8
1DIM
100
AcDbLine
 10
1898.512967615969
 20
444.6481625308315
 30
0.0
 11
2031.596300949302
 21
444.6481625308315
 31
0.0
1001
ACAD
1000
DSTYLE
1002
{
1070
    40
1040
5.0
1002
}
  0
TEXT
  5
BA18
330
18
100
AcDbEntity
  8
1DIM
  6
CONTINUOUS
100
AcDbText
 10
1910.846300949302
 20
448.1481625308315
 30
0.0
 40
17.5
  1
材質：ガラス
100
AcDbText
  0
LINE
  5
BA1A
330
18
100
AcDbEntity
  8
1DIM
100
AcDbLine
 10
1558.635649692576
 20
350.5091353488561
 30
0.0
 11
1463.397311552123
 21
245.9310995608727
 31
0.0
1001
ACAD
1000
DSTYLE
1002
{
1070
    40
1040
5.0
1002
}
  0
LINE
  5
BA1B
330
18
100
AcDbEntity
  8
1DIM
100
AcDbLine
 10
1463.397311552123
 20
245.9310995608727
 30
0.0
 11
1285.980644885457
 21
245.9310995608727
 31
0.0
1001
ACAD
1000
DSTYLE
1002
{
1070
    40
1040
5.0
1002
}
  0
TEXT
  5
BA1C
330
18
100
AcDbEntity
  8
1DIM
  6
CONTINUOUS
100
AcDbText
 10
1295.897311552123
 20
278.5977662275394
 30
0.0
 40
17.5
  1
材質：ABS樹脂
100
AcDbText
  0
TEXT
  5
BA1D
330
18
100
AcDbEntity
  8
1DIM
  6
CONTINUOUS
100
AcDbText
 10
1285.397311552123
 20
249.4310995608727
 30
0.0
 40
17.5
  1
仕上げ：クローム
100
AcDbText
  0
LINE
  5
BA1F
330
18
100
AcDbEntity
  8
1DIM
100
AcDbLine
 10
1529.981492617738
 20
710.838144403258
 30
0.0
 11
1477.192381937384
 21
583.031177003294
 31
0.0
1001
ACAD
1000
DSTYLE
1002
{
1070
    40
1040
5.0
1002
}
  0
LINE
  5
BA20
330
18
100
AcDbEntity
  8
1DIM
100
AcDbLine
 10
1477.192381937384
 20
583.031177003294
 30
0.0
 11
1425.775715270717
 21
583.031177003294
 31
0.0
1001
ACAD
1000
DSTYLE
1002
{
1070
    40
1040
5.0
1002
}
  0
TEXT
  5
BA21
330
18
100
AcDbEntity
  8
1DIM
  6
CONTINUOUS
100
AcDbText
 10
1425.775715270717
 20
586.531177003294
 30
0.0
 40
17.5
  1
壁面
100
AcDbText
  0
LINE
  5
BA22
330
18
100
AcDbEntity
  8
0
  6
BYBLOCK
100
AcDbLine
 10
1006.574455186314
 20
141.2995067721868
 30
0.0
 11
996.5744551863145
 21
143.9789986721868
 31
0.0
  0
LINE
  5
BA23
330
18
100
AcDbEntity
  8
0
  6
BYBLOCK
100
AcDbLine
 10
996.5744551863145
 20
143.9789986721868
 30
0.0
 11
1006.574455186314
 21
146.6584905721868
 31
0.0
  0
LINE
  5
BA24
330
18
100
AcDbEntity
  8
0
  6
BYBLOCK
100
AcDbLine
 10
996.5744551863145
 20
143.9789986721868
 30
0.0
 11
1006.574455186314
 21
143.9789986721868
 31
0.0
  0
LINE
  5
BA25
330
18
100
AcDbEntity
  8
0
  6
BYBLOCK
100
AcDbLine
 10
1246.574455186307
 20
146.6584905721868
 30
0.0
 11
1256.574455186307
 21
143.9789986721868
 31
0.0
  0
LINE
  5
BA26
330
18
100
AcDbEntity
  8
0
  6
BYBLOCK
100
AcDbLine
 10
1256.574455186307
 20
143.9789986721868
 30
0.0
 11
1246.574455186307
 21
141.2995067721868
 31
0.0
  0
LINE
  5
BA27
330
18
100
AcDbEntity
  8
0
  6
BYBLOCK
100
AcDbLine
 10
1256.574455186307
 20
143.9789986721868
 30
0.0
 11
1246.574455186307
 21
143.9789986721868
 31
0.0
  0
TEXT
  5
BA28
330
18
100
AcDbEntity
  8
1DIM
  6
CONTINUOUS
100
AcDbText
 10
1104.274107964089
 20
147.4789986721868
 30
0.0
 40
17.5
  1
260
100
AcDbText
1001
ACAD
1000
DSTYLE
1002
{
1070
    40
1040
5.0
1002
}
  0
LINE
  5
BA29
330
18
100
AcDbEntity
  8
0
  6
BYBLOCK
100
AcDbLine
 10
1310.437123037469
 20
46.32656333693409
 30
0.0
 11
1307.757631137469
 21
36.32656333693409
 31
0.0
  0
LINE
  5
BA2A
330
18
100
AcDbEntity
  8
0
  6
BYBLOCK
100
AcDbLine
 10
1307.757631137469
 20
36.32656333693409
 30
0.0
 11
1305.078139237469
 21
46.32656333693409
 31
0.0
  0
LINE
  5
BA2B
330
18
100
AcDbEntity
  8
0
  6
BYBLOCK
100
AcDbLine
 10
1307.757631137469
 20
36.32656333693409
 30
0.0
 11
1307.757631137469
 21
46.32656333693409
 31
0.0
  0
LINE
  5
BA2C
330
18
100
AcDbEntity
  8
0
  6
BYBLOCK
100
AcDbLine
 10
1305.078139237469
 20
92.3265633369341
 30
0.0
 11
1307.757631137469
 21
102.3265633369341
 31
0.0
  0
LINE
  5
BA2D
330
18
100
AcDbEntity
  8
0
  6
BYBLOCK
100
AcDbLine
 10
1307.757631137469
 20
102.3265633369341
 30
0.0
 11
1310.437123037469
 21
92.3265633369341
 31
0.0
  0
LINE
  5
BA2E
330
18
100
AcDbEntity
  8
0
  6
BYBLOCK
100
AcDbLine
 10
1307.757631137469
 20
102.3265633369341
 30
0.0
 11
1307.757631137469
 21
92.3265633369341
 31
0.0
  0
TEXT
  5
BA2F
330
18
100
AcDbEntity
  8
1DIM
  6
CONTINUOUS
100
AcDbText
 10
1304.257631137469
 20
54.68246611471204
 30
0.0
 40
17.5
  1
66
 50
90.0
100
AcDbText
1001
ACAD
1000
DSTYLE
1002
{
1070
    40
1040
5.0
1002
}
  0
LINE
  5
BA30
330
18
100
AcDbEntity
  8
0
  6
BYBLOCK
100
AcDbLine
 10
1362.76975182874
 20
135.1560820482868
 30
0.0
 11
1352.76975182874
 21
137.8355739482868
 31
0.0
  0
LINE
  5
BA31
330
18
100
AcDbEntity
  8
0
  6
BYBLOCK
100
AcDbLine
 10
1352.76975182874
 20
137.8355739482868
 30
0.0
 11
1362.76975182874
 21
140.5150658482868
 31
0.0
  0
LINE
  5
BA32
330
18
100
AcDbEntity
  8
0
  6
BYBLOCK
100
AcDbLine
 10
1352.76975182874
 20
137.8355739482868
 30
0.0
 11
1362.76975182874
 21
137.8355739482868
 31
0.0
  0
LINE
  5
BA33
330
18
100
AcDbEntity
  8
0
  6
BYBLOCK
100
AcDbLine
 10
1337.76975182874
 20
140.5150658482868
 30
0.0
 11
1347.76975182874
 21
137.8355739482868
 31
0.0
  0
LINE
  5
BA34
330
18
100
AcDbEntity
  8
0
  6
BYBLOCK
100
AcDbLine
 10
1347.76975182874
 20
137.8355739482868
 30
0.0
 11
1337.76975182874
 21
135.1560820482868
 31
0.0
  0
LINE
  5
BA35
330
18
100
AcDbEntity
  8
0
  6
BYBLOCK
100
AcDbLine
 10
1347.76975182874
 20
137.8355739482868
 30
0.0
 11
1337.76975182874
 21
137.8355739482868
 31
0.0
  0
TEXT
  5
BA36
330
18
100
AcDbEntity
  8
1DIM
  6
CONTINUOUS
100
AcDbText
 10
1278.853085162074
 20
141.3355739482868
 30
0.0
 40
17.5
  1
t=5
100
AcDbText
1001
ACAD
1000
DSTYLE
1002
{
1070
     3
1000
t=<>
1070
    40
1040
5.0
1002
}
  0
LINE
  5
BA37
330
18
100
AcDbEntity
  8
0
  6
BYBLOCK
100
AcDbLine
 10
1568.265467568681
 20
582.8723118941027
 30
0.0
 11
1558.373808866338
 21
585.9275966530947
 31
0.0
  0
LINE
  5
BA38
330
18
100
AcDbEntity
  8
0
  6
BYBLOCK
100
AcDbLine
 10
1558.373808866338
 20
585.9275966530947
 30
0.0
 11
1568.467878978062
 21
588.2274717413916
 31
0.0
  0
LINE
  5
BA39
330
18
100
AcDbEntity
  8
0
  6
BYBLOCK
100
AcDbLine
 10
1558.373808866338
 20
585.9275966530947
 30
0.0
 11
1568.366673273372
 21
585.5498918177472
 31
0.0
  0
LINE
  5
BA3A
330
18
100
AcDbEntity
  8
0
  6
BYBLOCK
100
AcDbLine
 10
1665.090350713777
 20
676.7656547034444
 30
0.0
 11
1668.261230260945
 21
686.6208665093627
 31
0.0
  0
LINE
  5
BA3B
330
18
100
AcDbEntity
  8
0
  6
BYBLOCK
100
AcDbLine
 10
1668.261230260945
 20
686.6208665093627
 30
0.0
 11
1670.442773877805
 21
676.50056294228
 31
0.0
  0
LINE
  5
BA3C
330
18
100
AcDbEntity
  8
0
  6
BYBLOCK
100
AcDbLine
 10
1668.261230260945
 20
686.6208665093627
 30
0.0
 11
1667.766562295791
 21
676.6331088228623
 31
0.0
  0
TEXT
  5
BA3D
330
18
100
AcDbEntity
  8
1DIM
  6
CONTINUOUS
100
AcDbText
 10
1609.828007485004
 20
593.3485376211113
 30
0.0
 40
17.5
  1
約95°
 50
42.49999999999998
100
AcDbText
1001
ACAD
1000
DSTYLE
1002
{
1070
    40
1040
5.0
1002
}
  0
LINE
  5
BA3E
330
18
100
AcDbEntity
  8
0
  6
BYBLOCK
100
AcDbLine
 10
2160.125812098456
 20
418.4798103103294
 30
0.0
 11
2162.805303998456
 21
428.4798103103294
 31
0.0
  0
LINE
  5
BA3F
330
18
100
AcDbEntity
  8
0
  6
BYBLOCK
100
AcDbLine
 10
2162.805303998456
 20
428.4798103103294
 30
0.0
 11
2165.484795898456
 21
418.4798103103294
 31
0.0
  0
LINE
  5
BA40
330
18
100
AcDbEntity
  8
0
  6
BYBLOCK
100
AcDbLine
 10
2162.805303998456
 20
428.4798103103294
 30
0.0
 11
2162.805303998456
 21
418.4798103103294
 31
0.0
  0
LINE
  5
BA41
330
18
100
AcDbEntity
  8
0
  6
BYBLOCK
100
AcDbLine
 10
2165.484795898456
 20
-241.5201896896705
 30
0.0
 11
2162.805303998456
 21
-251.5201896896705
 31
0.0
  0
LINE
  5
BA42
330
18
100
AcDbEntity
  8
0
  6
BYBLOCK
100
AcDbLine
 10
2162.805303998456
 20
-251.5201896896705
 30
0.0
 11
2160.125812098456
 21
-241.5201896896705
 31
0.0
  0
LINE
  5
BA43
330
18
100
AcDbEntity
  8
0
  6
BYBLOCK
100
AcDbLine
 10
2162.805303998456
 20
-251.5201896896705
 30
0.0
 11
2162.805303998456
 21
-241.5201896896705
 31
0.0
  0
TEXT
  5
BA44
330
18
100
AcDbEntity
  8
1DIM
  6
CONTINUOUS
100
AcDbText
 10
2153.808553998456
 20
-4.882203578558801
 30
0.0
 40
17.5
  1
開口高さ　680
 50
90.0
100
AcDbText
1001
ACAD
1000
DSTYLE
1002
{
1070
    40
1040
5.0
1002
}
  0
TEXT
  5
BA45
330
18
100
AcDbEntity
  8
1DIM
  6
CONTINUOUS
100
AcDbText
 10
2143.023303998456
 20
160.3226575325525
 30
0.0
 40
12.2115
  1
+3
 50
90.0
100
AcDbText
1001
ACAD
1000
DSTYLE
1002
{
1070
    40
1040
5.0
1002
}
  0
TEXT
  5
BA46
330
18
100
AcDbEntity
  8
1DIM
  6
CONTINUOUS
100
AcDbText
 10
2159.305303998456
 20
160.3226575325525
 30
0.0
 40
12.2115
  1
-2
 50
90.0
100
AcDbText
1001
ACAD
1000
DSTYLE
1002
{
1070
    40
1040
5.0
1002
}
  0
LINE
  5
BA47
330
18
100
AcDbEntity
  8
0
  6
BYBLOCK
100
AcDbLine
 10
2393.028583049917
 20
116.9798114248989
 30
0.0
 11
2390.349091149918
 21
106.9798114248989
 31
0.0
  0
LINE
  5
BA48
330
18
100
AcDbEntity
  8
0
  6
BYBLOCK
100
AcDbLine
 10
2390.349091149918
 20
106.9798114248989
 30
0.0
 11
2387.669599249918
 21
116.9798114248989
 31
0.0
  0
LINE
  5
BA49
330
18
100
AcDbEntity
  8
0
  6
BYBLOCK
100
AcDbLine
 10
2390.349091149918
 20
106.9798114248989
 30
0.0
 11
2390.349091149918
 21
116.9798114248989
 31
0.0
  0
LINE
  5
BA4A
330
18
100
AcDbEntity
  8
0
  6
BYBLOCK
100
AcDbLine
 10
2387.669599249918
 20
323.4798103087438
 30
0.0
 11
2390.349091149918
 21
333.4798103087438
 31
0.0
  0
LINE
  5
BA4B
330
18
100
AcDbEntity
  8
0
  6
BYBLOCK
100
AcDbLine
 10
2390.349091149918
 20
333.4798103087438
 30
0.0
 11
2393.028583049917
 21
323.4798103087438
 31
0.0
  0
LINE
  5
BA4C
330
18
100
AcDbEntity
  8
0
  6
BYBLOCK
100
AcDbLine
 10
2390.349091149918
 20
333.4798103087438
 30
0.0
 11
2390.349091149918
 21
323.4798103087438
 31
0.0
  0
TEXT
  5
BA4D
330
18
100
AcDbEntity
  8
1DIM
  6
CONTINUOUS
100
AcDbText
 10
2386.849091149918
 20
176.4190469779332
 30
0.0
 40
17.5
  1
P226.5
 50
90.0
100
AcDbText
1001
ACAD
1000
DSTYLE
1002
{
1070
    40
1040
5.0
1002
}
  0
LINE
  5
BA4E
330
18
100
AcDbEntity
  8
0
  6
BYBLOCK
100
AcDbLine
 10
2387.669599249918
 20
96.9798114248989
 30
0.0
 11
2390.349091149918
 21
106.9798114248989
 31
0.0
  0
LINE
  5
BA4F
330
18
100
AcDbEntity
  8
0
  6
BYBLOCK
100
AcDbLine
 10
2390.349091149918
 20
106.9798114248989
 30
0.0
 11
2393.028583049917
 21
96.9798114248989
 31
0.0
  0
LINE
  5
BA50
330
18
100
AcDbEntity
  8
0
  6
BYBLOCK
100
AcDbLine
 10
2390.349091149918
 20
106.9798114248989
 30
0.0
 11
2390.349091149918
 21
96.9798114248989
 31
0.0
  0
LINE
  5
BA51
330
18
100
AcDbEntity
  8
0
  6
BYBLOCK
100
AcDbLine
 10
2393.028583049917
 20
-146.520189688082
 30
0.0
 11
2390.349091149918
 21
-156.520189688082
 31
0.0
  0
LINE
  5
BA52
330
18
100
AcDbEntity
  8
0
  6
BYBLOCK
100
AcDbLine
 10
2390.349091149918
 20
-156.520189688082
 30
0.0
 11
2387.669599249918
 21
-146.520189688082
 31
0.0
  0
LINE
  5
BA53
330
18
100
AcDbEntity
  8
0
  6
BYBLOCK
100
AcDbLine
 10
2390.349091149918
 20
-156.520189688082
 30
0.0
 11
2390.349091149918
 21
-146.520189688082
 31
0.0
  0
TEXT
  5
BA54
330
18
100
AcDbEntity
  8
1DIM
  6
CONTINUOUS
100
AcDbText
 10
2386.849091149918
 20
-68.58095302047968
 30
0.0
 40
17.5
  1
P263.5
 50
90.0
100
AcDbText
1001
ACAD
1000
DSTYLE
1002
{
1070
    40
1040
5.0
1002
}
  0
LINE
  5
BA55
330
18
100
AcDbEntity
  8
0
  6
BYBLOCK
100
AcDbLine
 10
2291.672341867463
 20
273.8479139136599
 30
0.0
 11
2281.672341867463
 21
276.5274058136599
 31
0.0
  0
LINE
  5
BA56
330
18
100
AcDbEntity
  8
0
  6
BYBLOCK
100
AcDbLine
 10
2281.672341867463
 20
276.5274058136599
 30
0.0
 11
2291.672341867463
 21
279.2068977136599
 31
0.0
  0
LINE
  5
BA57
330
18
100
AcDbEntity
  8
0
  6
BYBLOCK
100
AcDbLine
 10
2281.672341867463
 20
276.5274058136599
 30
0.0
 11
2291.672341867463
 21
276.5274058136599
 31
0.0
  0
LINE
  5
BA58
330
18
100
AcDbEntity
  8
0
  6
BYBLOCK
100
AcDbLine
 10
2246.172348302327
 20
279.2068977136599
 30
0.0
 11
2256.172348302327
 21
276.5274058136599
 31
0.0
  0
LINE
  5
BA59
330
18
100
AcDbEntity
  8
0
  6
BYBLOCK
100
AcDbLine
 10
2256.172348302327
 20
276.5274058136599
 30
0.0
 11
2246.172348302327
 21
273.8479139136599
 31
0.0
  0
LINE
  5
BA5A
330
18
100
AcDbEntity
  8
0
  6
BYBLOCK
100
AcDbLine
 10
2256.172348302327
 20
276.5274058136599
 30
0.0
 11
2246.172348302327
 21
276.5274058136599
 31
0.0
  0
TEXT
  5
BA5B
330
18
100
AcDbEntity
  8
1DIM
  6
CONTINUOUS
100
AcDbText
 10
2151.120927794906
 20
280.0274058136599
 30
0.0
 40
17.5
  1
25.5
100
AcDbText
1001
ACAD
1000
DSTYLE
1002
{
1070
    40
1040
5.0
1070
    75
1070
     0
1070
    76
1070
     1
1070
   281
1070
     0
1070
   282
1070
     0
1002
}
  0
LINE
  5
BA5C
330
18
100
AcDbEntity
  8
0
  6
BYBLOCK
100
AcDbLine
 10
2246.17234830246
 20
494.0923997748107
 30
0.0
 11
2256.17234830246
 21
491.4129078748107
 31
0.0
  0
LINE
  5
BA5D
330
18
100
AcDbEntity
  8
0
  6
BYBLOCK
100
AcDbLine
 10
2256.17234830246
 20
491.4129078748107
 30
0.0
 11
2246.17234830246
 21
488.7334159748107
 31
0.0
  0
LINE
  5
BA5E
330
18
100
AcDbEntity
  8
0
  6
BYBLOCK
100
AcDbLine
 10
2256.17234830246
 20
491.4129078748107
 30
0.0
 11
2246.17234830246
 21
491.4129078748107
 31
0.0
  0
LINE
  5
BA5F
330
18
100
AcDbEntity
  8
0
  6
BYBLOCK
100
AcDbLine
 10
2232.172364145303
 20
488.7334159748107
 30
0.0
 11
2222.172364145303
 21
491.4129078748107
 31
0.0
  0
LINE
  5
BA60
330
18
100
AcDbEntity
  8
0
  6
BYBLOCK
100
AcDbLine
 10
2222.172364145303
 20
491.4129078748107
 30
0.0
 11
2232.172364145303
 21
494.0923997748107
 31
0.0
  0
LINE
  5
BA61
330
18
100
AcDbEntity
  8
0
  6
BYBLOCK
100
AcDbLine
 10
2222.172364145303
 20
491.4129078748107
 30
0.0
 11
2232.172364145303
 21
491.4129078748107
 31
0.0
  0
TEXT
  5
BA62
330
18
100
AcDbEntity
  8
1DIM
  6
CONTINUOUS
100
AcDbText
 10
2179.505697478636
 20
494.9129078748107
 30
0.0
 40
17.5
  1
34
100
AcDbText
1001
ACAD
1000
DSTYLE
1002
{
1070
    40
1040
5.0
1002
}
  0
LINE
  5
BA63
330
18
100
AcDbEntity
  8
0
  6
BYBLOCK
100
AcDbLine
 10
2293.172341868555
 20
514.1877899295835
 30
0.0
 11
2303.172341868555
 21
511.5082980295834
 31
0.0
  0
LINE
  5
BA64
330
18
100
AcDbEntity
  8
0
  6
BYBLOCK
100
AcDbLine
 10
2303.172341868555
 20
511.5082980295834
 30
0.0
 11
2293.172341868555
 21
508.8288061295834
 31
0.0
  0
LINE
  5
BA65
330
18
100
AcDbEntity
  8
0
  6
BYBLOCK
100
AcDbLine
 10
2303.172341868555
 20
511.5082980295834
 30
0.0
 11
2293.172341868555
 21
511.5082980295834
 31
0.0
  0
LINE
  5
BA66
330
18
100
AcDbEntity
  8
0
  6
BYBLOCK
100
AcDbLine
 10
2232.172364145303
 20
508.8288061295834
 30
0.0
 11
2222.172364145303
 21
511.5082980295834
 31
0.0
  0
LINE
  5
BA67
330
18
100
AcDbEntity
  8
0
  6
BYBLOCK
100
AcDbLine
 10
2222.172364145303
 20
511.5082980295834
 30
0.0
 11
2232.172364145303
 21
514.1877899295835
 31
0.0
  0
LINE
  5
BA68
330
18
100
AcDbEntity
  8
0
  6
BYBLOCK
100
AcDbLine
 10
2222.172364145303
 20
511.5082980295834
 30
0.0
 11
2232.172364145303
 21
511.5082980295834
 31
0.0
  0
TEXT
  5
BA69
330
18
100
AcDbEntity
  8
1DIM
  6
CONTINUOUS
100
AcDbText
 10
2249.005681638029
 20
515.0082980295834
 30
0.0
 40
17.5
  1
81
100
AcDbText
1001
ACAD
1000
DSTYLE
1002
{
1070
    40
1040
5.0
1002
}
  0
LINE
  5
BA6A
330
18
100
AcDbEntity
  8
0
  6
BYBLOCK
100
AcDbLine
 10
2275.419032289141
 20
466.6721620160997
 30
0.0
 11
2265.67234830246
 21
463.1819144452347
 31
0.0
  0
LINE
  5
BA6B
330
18
100
AcDbEntity
  8
0
  6
BYBLOCK
100
AcDbLine
 10
2265.67234830246
 20
463.1819144452347
 30
0.0
 11
2272.368100487973
 21
471.077899470066
 31
0.0
  0
LINE
  5
BA6C
330
18
100
AcDbEntity
  8
0
  6
BYBLOCK
100
AcDbLine
 10
2265.67234830246
 20
463.1819144452347
 30
0.0
 11
2273.893566388557
 21
468.8750307430828
 31
0.0
  0
LINE
  5
BA6D
330
18
100
AcDbEntity
  8
0
  6
BYBLOCK
100
AcDbLine
 10
2288.672348302395
 20
-307.5177244091053
 30
0.0
 11
2298.672348302395
 21
-310.1972163091053
 31
0.0
  0
LINE
  5
BA6E
330
18
100
AcDbEntity
  8
0
  6
BYBLOCK
100
AcDbLine
 10
2298.672348302395
 20
-310.1972163091053
 30
0.0
 11
2288.672348302395
 21
-312.8767082091053
 31
0.0
  0
LINE
  5
BA6F
330
18
100
AcDbEntity
  8
0
  6
BYBLOCK
100
AcDbLine
 10
2298.672348302395
 20
-310.1972163091053
 30
0.0
 11
2288.672348302395
 21
-310.1972163091053
 31
0.0
  0
LINE
  5
BA70
330
18
100
AcDbEntity
  8
0
  6
BYBLOCK
100
AcDbLine
 10
2239.172347857015
 20
-312.8767082091053
 30
0.0
 11
2229.172347857015
 21
-310.1972163091053
 31
0.0
  0
LINE
  5
BA71
330
18
100
AcDbEntity
  8
0
  6
BYBLOCK
100
AcDbLine
 10
2229.172347857015
 20
-310.1972163091053
 30
0.0
 11
2239.172347857015
 21
-307.5177244091053
 31
0.0
  0
LINE
  5
BA72
330
18
100
AcDbEntity
  8
0
  6
BYBLOCK
100
AcDbLine
 10
2229.172347857015
 20
-310.1972163091053
 30
0.0
 11
2239.172347857015
 21
-310.1972163091053
 31
0.0
  0
TEXT
  5
BA73
330
18
100
AcDbEntity
  8
1DIM
  6
CONTINUOUS
100
AcDbText
 10
2077.149199708866
 20
-306.6972163091053
 30
0.0
 40
17.5
  1
有効内寸69.5
100
AcDbText
1001
ACAD
1000
DSTYLE
1002
{
1070
    40
1040
5.0
1002
}
  0
LINE
  5
BA74
330
18
100
AcDbEntity
  8
0
  6
BYBLOCK
100
AcDbLine
 10
1559.056023384076
 20
483.8027911496451
 30
0.0
 11
1549.056023384076
 21
486.4822830496452
 31
0.0
  0
LINE
  5
BA75
330
18
100
AcDbEntity
  8
0
  6
BYBLOCK
100
AcDbLine
 10
1549.056023384076
 20
486.4822830496452
 30
0.0
 11
1559.056023384076
 21
489.1617749496452
 31
0.0
  0
LINE
  5
BA76
330
18
100
AcDbEntity
  8
0
  6
BYBLOCK
100
AcDbLine
 10
1549.056023384076
 20
486.4822830496452
 30
0.0
 11
1559.056023384076
 21
486.4822830496452
 31
0.0
  0
LINE
  5
BA77
330
18
100
AcDbEntity
  8
0
  6
BYBLOCK
100
AcDbLine
 10
1838.456034485544
 20
489.1617749496452
 30
0.0
 11
1848.456034485544
 21
486.4822830496452
 31
0.0
  0
LINE
  5
BA78
330
18
100
AcDbEntity
  8
0
  6
BYBLOCK
100
AcDbLine
 10
1848.456034485544
 20
486.4822830496452
 30
0.0
 11
1838.456034485544
 21
483.8027911496451
 31
0.0
  0
LINE
  5
BA79
330
18
100
AcDbEntity
  8
0
  6
BYBLOCK
100
AcDbLine
 10
1848.456034485544
 20
486.4822830496452
 30
0.0
 11
1838.456034485544
 21
486.4822830496452
 31
0.0
  0
TEXT
  5
BA7A
330
18
100
AcDbEntity
  8
1DIM
  6
CONTINUOUS
100
AcDbText
 10
1675.414593749624
 20
489.9822830496452
 30
0.0
 40
17.5
  1
299
100
AcDbText
1001
ACAD
1000
DSTYLE
1002
{
1070
    40
1040
5.0
1070
   271
1070
     0
1002
}
  0
LINE
  5
BA7B
330
18
100
AcDbEntity
  8
0
  6
BYBLOCK
100
AcDbLine
 10
1479.389857809126
 20
430.6798103103303
 30
0.0
 11
1482.069349709126
 21
440.6798103103303
 31
0.0
  0
LINE
  5
BA7C
330
18
100
AcDbEntity
  8
0
  6
BYBLOCK
100
AcDbLine
 10
1482.069349709126
 20
440.6798103103303
 30
0.0
 11
1484.748841609126
 21
430.6798103103303
 31
0.0
  0
LINE
  5
BA7D
330
18
100
AcDbEntity
  8
0
  6
BYBLOCK
100
AcDbLine
 10
1482.069349709126
 20
440.6798103103303
 30
0.0
 11
1482.069349709126
 21
430.6798103103303
 31
0.0
  0
LINE
  5
BA7E
330
18
100
AcDbEntity
  8
0
  6
BYBLOCK
100
AcDbLine
 10
1484.748841609126
 20
-253.7201896896689
 30
0.0
 11
1482.069349709126
 21
-263.7201896896689
 31
0.0
  0
LINE
  5
BA7F
330
18
100
AcDbEntity
  8
0
  6
BYBLOCK
100
AcDbLine
 10
1482.069349709126
 20
-263.7201896896689
 30
0.0
 11
1479.389857809126
 21
-253.7201896896689
 31
0.0
  0
LINE
  5
BA80
330
18
100
AcDbEntity
  8
0
  6
BYBLOCK
100
AcDbLine
 10
1482.069349709126
 20
-263.7201896896689
 30
0.0
 11
1482.069349709126
 21
-253.7201896896689
 31
0.0
  0
TEXT
  5
BA81
330
18
100
AcDbEntity
  8
1DIM
  6
CONTINUOUS
100
AcDbText
 10
1478.569349709126
 20
66.604810310331
 30
0.0
 40
17.5
  1
704
 50
90.0
100
AcDbText
1001
ACAD
1000
DSTYLE
1002
{
1070
    40
1040
5.0
1070
   271
1070
     0
1002
}
  0
LINE
  5
BA82
330
18
100
AcDbEntity
  8
0
  6
BYBLOCK
100
AcDbLine
 10
1918.132253870613
 20
203.4754840359661
 30
0.0
 11
1920.811745770613
 21
213.4754840359661
 31
0.0
  0
LINE
  5
BA83
330
18
100
AcDbEntity
  8
0
  6
BYBLOCK
100
AcDbLine
 10
1920.811745770613
 20
213.4754840359661
 30
0.0
 11
1923.491237670612
 21
203.4754840359661
 31
0.0
  0
LINE
  5
BA84
330
18
100
AcDbEntity
  8
0
  6
BYBLOCK
100
AcDbLine
 10
1920.811745770613
 20
213.4754840359661
 30
0.0
 11
1920.811745770613
 21
203.4754840359661
 31
0.0
  0
LINE
  5
BA85
330
18
100
AcDbEntity
  8
0
  6
BYBLOCK
100
AcDbLine
 10
1923.491237670612
 20
-26.51586525156441
 30
0.0
 11
1920.811745770613
 21
-36.51586525156441
 31
0.0
  0
LINE
  5
BA86
330
18
100
AcDbEntity
  8
0
  6
BYBLOCK
100
AcDbLine
 10
1920.811745770613
 20
-36.51586525156441
 30
0.0
 11
1918.132253870613
 21
-26.51586525156441
 31
0.0
  0
LINE
  5
BA87
330
18
100
AcDbEntity
  8
0
  6
BYBLOCK
100
AcDbLine
 10
1920.811745770613
 20
-36.51586525156441
 30
0.0
 11
1920.811745770613
 21
-26.51586525156441
 31
0.0
  0
TEXT
  5
BA88
330
18
100
AcDbEntity
  8
1DIM
  6
CONTINUOUS
100
AcDbText
 10
1917.311745770613
 20
66.17946216997893
 30
0.0
 40
17.5
  1
250
 50
90.0
100
AcDbText
1001
ACAD
1000
DSTYLE
1002
{
1070
    40
1040
5.0
1070
   271
1070
     1
1002
}
  0
LINE
  5
BA89
330
18
100
AcDbEntity
  8
0
  6
BYBLOCK
100
AcDbLine
 10
1578.756028934808
 20
-359.2704700215691
 30
0.0
 11
1568.756028934808
 21
-356.590978121569
 31
0.0
  0
LINE
  5
BA8A
330
18
100
AcDbEntity
  8
0
  6
BYBLOCK
100
AcDbLine
 10
1568.756028934808
 20
-356.590978121569
 30
0.0
 11
1578.756028934808
 21
-353.911486221569
 31
0.0
  0
LINE
  5
BA8B
330
18
100
AcDbEntity
  8
0
  6
BYBLOCK
100
AcDbLine
 10
1568.756028934808
 20
-356.590978121569
 30
0.0
 11
1578.756028934808
 21
-356.590978121569
 31
0.0
  0
LINE
  5
BA8C
330
18
100
AcDbEntity
  8
0
  6
BYBLOCK
100
AcDbLine
 10
1818.756028934808
 20
-353.911486221569
 30
0.0
 11
1828.756028934808
 21
-356.590978121569
 31
0.0
  0
LINE
  5
BA8D
330
18
100
AcDbEntity
  8
0
  6
BYBLOCK
100
AcDbLine
 10
1828.756028934808
 20
-356.590978121569
 30
0.0
 11
1818.756028934808
 21
-359.2704700215691
 31
0.0
  0
LINE
  5
BA8E
330
18
100
AcDbEntity
  8
0
  6
BYBLOCK
100
AcDbLine
 10
1828.756028934808
 20
-356.590978121569
 30
0.0
 11
1818.756028934808
 21
-356.590978121569
 31
0.0
  0
TEXT
  5
BA8F
330
18
100
AcDbEntity
  8
1DIM
  6
CONTINUOUS
100
AcDbText
 10
1634.16401504592
 20
-353.090978121569
 30
0.0
 40
17.5
  1
有効内寸260
100
AcDbText
1001
ACAD
1000
DSTYLE
1002
{
1070
    40
1040
5.0
1002
}
  0
LINE
  5
BA90
330
18
100
AcDbEntity
  8
0
  6
BYBLOCK
100
AcDbLine
 10
1918.132253870612
 20
-50.52451596403367
 30
0.0
 11
1920.811745770612
 21
-40.52451596403367
 31
0.0
  0
LINE
  5
BA91
330
18
100
AcDbEntity
  8
0
  6
BYBLOCK
100
AcDbLine
 10
1920.811745770612
 20
-40.52451596403367
 30
0.0
 11
1923.491237670612
 21
-50.52451596403367
 31
0.0
  0
LINE
  5
BA92
330
18
100
AcDbEntity
  8
0
  6
BYBLOCK
100
AcDbLine
 10
1920.811745770612
 20
-40.52451596403367
 30
0.0
 11
1920.811745770612
 21
-50.52451596403367
 31
0.0
  0
LINE
  5
BA93
330
18
100
AcDbEntity
  8
0
  6
BYBLOCK
100
AcDbLine
 10
1923.491237670612
 20
-233.9528651813414
 30
0.0
 11
1920.811745770612
 21
-243.9528651813414
 31
0.0
  0
LINE
  5
BA94
330
18
100
AcDbEntity
  8
0
  6
BYBLOCK
100
AcDbLine
 10
1920.811745770612
 20
-243.9528651813414
 30
0.0
 11
1918.132253870612
 21
-233.9528651813414
 31
0.0
  0
LINE
  5
BA95
330
18
100
AcDbEntity
  8
0
  6
BYBLOCK
100
AcDbLine
 10
1920.811745770612
 20
-243.9528651813414
 30
0.0
 11
1920.811745770612
 21
-233.9528651813414
 31
0.0
  0
TEXT
  5
BA96
330
18
100
AcDbEntity
  8
1DIM
  6
CONTINUOUS
100
AcDbText
 10
1917.311745770612
 20
-164.1136905726871
 30
0.0
 40
17.5
  1
203
 50
90.0
100
AcDbText
1001
ACAD
1000
DSTYLE
1002
{
1070
    40
1040
5.0
1070
   271
1070
     0
1002
}
  0
LINE
  5
BA97
330
18
100
AcDbEntity
  8
0
  6
BYBLOCK
100
AcDbLine
 10
1923.491237670612
 20
227.4841347484354
 30
0.0
 11
1920.811745770613
 21
217.4841347484354
 31
0.0
  0
LINE
  5
BA98
330
18
100
AcDbEntity
  8
0
  6
BYBLOCK
100
AcDbLine
 10
1920.811745770613
 20
217.4841347484354
 30
0.0
 11
1918.132253870613
 21
227.4841347484354
 31
0.0
  0
LINE
  5
BA99
330
18
100
AcDbEntity
  8
0
  6
BYBLOCK
100
AcDbLine
 10
1920.811745770613
 20
217.4841347484354
 30
0.0
 11
1920.811745770613
 21
227.4841347484354
 31
0.0
  0
LINE
  5
BA9A
330
18
100
AcDbEntity
  8
0
  6
BYBLOCK
100
AcDbLine
 10
1918.132253870613
 20
410.9124858020025
 30
0.0
 11
1920.811745770613
 21
420.9124858020025
 31
0.0
  0
LINE
  5
BA9B
330
18
100
AcDbEntity
  8
0
  6
BYBLOCK
100
AcDbLine
 10
1920.811745770613
 20
420.9124858020025
 30
0.0
 11
1923.491237670612
 21
410.9124858020025
 31
0.0
  0
LINE
  5
BA9C
330
18
100
AcDbEntity
  8
0
  6
BYBLOCK
100
AcDbLine
 10
1920.811745770613
 20
420.9124858020025
 30
0.0
 11
1920.811745770613
 21
410.9124858020025
 31
0.0
  0
TEXT
  5
BA9D
330
18
100
AcDbEntity
  8
1DIM
  6
CONTINUOUS
100
AcDbText
 10
1917.311745770613
 20
297.3233102752192
 30
0.0
 40
17.5
  1
203
 50
90.0
100
AcDbText
1001
ACAD
1000
DSTYLE
1002
{
1070
    40
1040
5.0
1070
   271
1070
     0
1002
}
  0
LINE
  5
BA9E
330
18
100
AcDbEntity
  8
0
  6
BYBLOCK
100
AcDbLine
 10
1886.207039780128
 20
-233.9528651813414
 30
0.0
 11
1883.527547880128
 21
-243.9528651813414
 31
0.0
  0
LINE
  5
BA9F
330
18
100
AcDbEntity
  8
0
  6
BYBLOCK
100
AcDbLine
 10
1883.527547880128
 20
-243.9528651813414
 30
0.0
 11
1880.848055980128
 21
-233.9528651813414
 31
0.0
  0
LINE
  5
BAA0
330
18
100
AcDbEntity
  8
0
  6
BYBLOCK
100
AcDbLine
 10
1883.527547880128
 20
-243.9528651813414
 30
0.0
 11
1883.527547880128
 21
-233.9528651813414
 31
0.0
  0
LINE
  5
BAA1
330
18
100
AcDbEntity
  8
0
  6
BYBLOCK
100
AcDbLine
 10
1880.848055980128
 20
-146.4922406139695
 30
0.0
 11
1883.527547880128
 21
-136.4922406139695
 31
0.0
  0
LINE
  5
BAA2
330
18
100
AcDbEntity
  8
0
  6
BYBLOCK
100
AcDbLine
 10
1883.527547880128
 20
-136.4922406139695
 30
0.0
 11
1886.207039780128
 21
-146.4922406139695
 31
0.0
  0
LINE
  5
BAA3
330
18
100
AcDbEntity
  8
0
  6
BYBLOCK
100
AcDbLine
 10
1883.527547880128
 20
-136.4922406139695
 30
0.0
 11
1883.527547880128
 21
-146.4922406139695
 31
0.0
  0
TEXT
  5
BAA4
330
18
100
AcDbEntity
  8
1DIM
  6
CONTINUOUS
100
AcDbText
 10
1880.027547880128
 20
-209.1808862309883
 30
0.0
 40
17.5
  1
107
 50
90.0
100
AcDbText
1001
ACAD
1000
DSTYLE
1002
{
1070
    40
1040
5.0
1070
   271
1070
     0
1002
}
  0
LINE
  5
BAA5
330
18
100
AcDbEntity
  8
0
  6
BYBLOCK
100
AcDbLine
 10
1886.207039780128
 20
-26.51586525156439
 30
0.0
 11
1883.527547880128
 21
-36.51586525156439
 31
0.0
  0
LINE
  5
BAA6
330
18
100
AcDbEntity
  8
0
  6
BYBLOCK
100
AcDbLine
 10
1883.527547880128
 20
-36.51586525156439
 30
0.0
 11
1880.848055980128
 21
-26.51586525156439
 31
0.0
  0
LINE
  5
BAA7
330
18
100
AcDbEntity
  8
0
  6
BYBLOCK
100
AcDbLine
 10
1883.527547880128
 20
-36.51586525156439
 30
0.0
 11
1883.527547880128
 21
-26.51586525156439
 31
0.0
  0
LINE
  5
BAA8
330
18
100
AcDbEntity
  8
0
  6
BYBLOCK
100
AcDbLine
 10
1880.848055980128
 20
38.50775938603032
 30
0.0
 11
1883.527547880128
 21
48.50775938603032
 31
0.0
  0
LINE
  5
BAA9
330
18
100
AcDbEntity
  8
0
  6
BYBLOCK
100
AcDbLine
 10
1883.527547880128
 20
48.50775938603032
 30
0.0
 11
1886.207039780128
 21
38.50775938603032
 31
0.0
  0
LINE
  5
BAAA
330
18
100
AcDbEntity
  8
0
  6
BYBLOCK
100
AcDbLine
 10
1883.527547880128
 20
48.50775938603032
 30
0.0
 11
1883.527547880128
 21
38.50775938603032
 31
0.0
  0
TEXT
  5
BAAB
330
18
100
AcDbEntity
  8
1DIM
  6
CONTINUOUS
100
AcDbText
 10
1880.027547880128
 20
-8.587386266099884
 30
0.0
 40
17.5
  1
85
 50
90.0
100
AcDbText
1001
ACAD
1000
DSTYLE
1002
{
1070
    40
1040
5.0
1070
   271
1070
     0
1002
}
  0
LINE
  5
BAAC
330
18
100
AcDbEntity
  8
0
  6
BYBLOCK
100
AcDbLine
 10
1886.207039780128
 20
58.50775938603032
 30
0.0
 11
1883.527547880128
 21
48.50775938603032
 31
0.0
  0
LINE
  5
BAAD
330
18
100
AcDbEntity
  8
0
  6
BYBLOCK
100
AcDbLine
 10
1883.527547880128
 20
48.50775938603032
 30
0.0
 11
1880.848055980128
 21
58.50775938603032
 31
0.0
  0
LINE
  5
BAAE
330
18
100
AcDbEntity
  8
0
  6
BYBLOCK
100
AcDbLine
 10
1883.527547880128
 20
48.50775938603032
 30
0.0
 11
1883.527547880128
 21
58.50775938603032
 31
0.0
  0
LINE
  5
BAAF
330
18
100
AcDbEntity
  8
0
  6
BYBLOCK
100
AcDbLine
 10
1880.848055980128
 20
122.5077593860303
 30
0.0
 11
1883.527547880128
 21
132.5077593860303
 31
0.0
  0
LINE
  5
BAB0
330
18
100
AcDbEntity
  8
0
  6
BYBLOCK
100
AcDbLine
 10
1883.527547880128
 20
132.5077593860303
 30
0.0
 11
1886.207039780128
 21
122.5077593860303
 31
0.0
  0
LINE
  5
BAB1
330
18
100
AcDbEntity
  8
0
  6
BYBLOCK
100
AcDbLine
 10
1883.527547880128
 20
132.5077593860303
 30
0.0
 11
1883.527547880128
 21
122.5077593860303
 31
0.0
  0
TEXT
  5
BAB2
330
18
100
AcDbEntity
  8
1DIM
  6
CONTINUOUS
100
AcDbText
 10
1880.027547880128
 20
75.9244260526973
 30
0.0
 40
17.5
  1
84
 50
90.0
100
AcDbText
1001
ACAD
1000
DSTYLE
1002
{
1070
    40
1040
5.0
1002
}
  0
LINE
  5
BAB3
330
18
100
AcDbEntity
  8
0
  6
BYBLOCK
100
AcDbLine
 10
1886.207039780128
 20
227.4841347484354
 30
0.0
 11
1883.527547880128
 21
217.4841347484354
 31
0.0
  0
LINE
  5
BAB4
330
18
100
AcDbEntity
  8
0
  6
BYBLOCK
100
AcDbLine
 10
1883.527547880128
 20
217.4841347484354
 30
0.0
 11
1880.848055980128
 21
227.4841347484354
 31
0.0
  0
LINE
  5
BAB5
330
18
100
AcDbEntity
  8
0
  6
BYBLOCK
100
AcDbLine
 10
1883.527547880128
 20
217.4841347484354
 30
0.0
 11
1883.527547880128
 21
227.4841347484354
 31
0.0
  0
LINE
  5
BAB6
330
18
100
AcDbEntity
  8
0
  6
BYBLOCK
100
AcDbLine
 10
1880.848055980128
 20
307.4841347484354
 30
0.0
 11
1883.527547880128
 21
317.4841347484354
 31
0.0
  0
LINE
  5
BAB7
330
18
100
AcDbEntity
  8
0
  6
BYBLOCK
100
AcDbLine
 10
1883.527547880128
 20
317.4841347484354
 30
0.0
 11
1886.207039780128
 21
307.4841347484354
 31
0.0
  0
LINE
  5
BAB8
330
18
100
AcDbEntity
  8
0
  6
BYBLOCK
100
AcDbLine
 10
1883.527547880128
 20
317.4841347484354
 30
0.0
 11
1883.527547880128
 21
307.4841347484354
 31
0.0
  0
TEXT
  5
BAB9
330
18
100
AcDbEntity
  8
1DIM
  6
CONTINUOUS
100
AcDbText
 10
1880.027547880128
 20
249.6195514151025
 30
0.0
 40
17.5
  1
100
 50
90.0
100
AcDbText
1001
ACAD
1000
DSTYLE
1002
{
1070
    40
1040
5.0
1002
}
  0
LINE
  5
BABA
330
18
100
AcDbEntity
  8
0
  6
BYBLOCK
100
AcDbLine
 10
1879.055536829843
 20
121.5698173330008
 30
0.0
 11
1870.564918485809
 21
115.6462139551478
 31
0.0
  0
LINE
  5
BABB
330
18
100
AcDbEntity
  8
0
  6
BYBLOCK
100
AcDbLine
 10
1870.564918485809
 20
115.6462139551478
 30
0.0
 11
1874.956208019186
 21
125.0215141144078
 31
0.0
  0
LINE
  5
BABC
330
18
100
AcDbEntity
  8
0
  6
BYBLOCK
100
AcDbLine
 10
1870.564918485809
 20
115.6462139551478
 30
0.0
 11
1877.005872424515
 21
123.2956657237043
 31
0.0
  0
LINE
  5
BABD
330
18
100
AcDbEntity
  8
0
  6
BYBLOCK
100
AcDbLine
 10
1568.741166026954
 20
553.3073771787034
 30
0.0
 11
1558.741166026954
 21
555.9868690787034
 31
0.0
  0
LINE
  5
BABE
330
18
100
AcDbEntity
  8
0
  6
BYBLOCK
100
AcDbLine
 10
1558.741166026954
 20
555.9868690787034
 30
0.0
 11
1568.741166026954
 21
558.6663609787034
 31
0.0
  0
LINE
  5
BABF
330
18
100
AcDbEntity
  8
0
  6
BYBLOCK
100
AcDbLine
 10
1558.741166026954
 20
555.9868690787034
 30
0.0
 11
1568.741166026954
 21
555.9868690787034
 31
0.0
  0
LINE
  5
BAC0
330
18
100
AcDbEntity
  8
0
  6
BYBLOCK
100
AcDbLine
 10
1828.741166026954
 20
558.6663609787034
 30
0.0
 11
1838.741166026954
 21
555.9868690787034
 31
0.0
  0
LINE
  5
BAC1
330
18
100
AcDbEntity
  8
0
  6
BYBLOCK
100
AcDbLine
 10
1838.741166026954
 20
555.9868690787034
 30
0.0
 11
1828.741166026954
 21
553.3073771787034
 31
0.0
  0
LINE
  5
BAC2
330
18
100
AcDbEntity
  8
0
  6
BYBLOCK
100
AcDbLine
 10
1838.741166026954
 20
555.9868690787034
 30
0.0
 11
1828.741166026954
 21
555.9868690787034
 31
0.0
  0
TEXT
  5
BAC3
330
18
100
AcDbEntity
  8
1DIM
  6
CONTINUOUS
100
AcDbText
 10
1667.813318535995
 20
565.0285357453699
 30
0.0
 40
17.5
  1
開口巾　280
100
AcDbText
1001
ACAD
1000
DSTYLE
1002
{
1070
    40
1040
5.0
1070
    47
1040
3.0
1070
    71
1070
     1
1070
   272
1070
     2
1070
   341
1005
0
1002
}
  0
TEXT
  5
BAC4
330
18
100
AcDbEntity
  8
1DIM
  6
CONTINUOUS
100
AcDbText
 10
1811.896651869328
 20
575.8202024120367
 30
0.0
 40
12.25
  1
+3
100
AcDbText
1001
ACAD
1000
DSTYLE
1002
{
1070
    40
1040
5.0
1070
    47
1040
3.0
1070
    71
1070
     1
1070
   272
1070
     2
1070
   341
1005
0
1002
}
  0
TEXT
  5
BAC5
330
18
100
AcDbEntity
  8
1DIM
  6
CONTINUOUS
100
AcDbText
 10
1811.896651869328
 20
559.4868690787033
 30
0.0
 40
12.25
  1
 0
100
AcDbText
1001
ACAD
1000
DSTYLE
1002
{
1070
    40
1040
5.0
1070
    47
1040
3.0
1070
    71
1070
     1
1070
   272
1070
     2
1070
   341
1005
0
1002
}
  0
LINE
  5
BAC6
330
18
100
AcDbEntity
  8
0
  6
BYBLOCK
100
AcDbLine
 10
1569.221442113195
 20
819.7568875277948
 30
0.0
 11
1559.221442113195
 21
822.4363794277948
 31
0.0
  0
LINE
  5
BAC7
330
18
100
AcDbEntity
  8
0
  6
BYBLOCK
100
AcDbLine
 10
1559.221442113195
 20
822.4363794277948
 30
0.0
 11
1569.221442113195
 21
825.1158713277948
 31
0.0
  0
LINE
  5
BAC8
330
18
100
AcDbEntity
  8
0
  6
BYBLOCK
100
AcDbLine
 10
1559.221442113195
 20
822.4363794277948
 30
0.0
 11
1569.221442113195
 21
822.4363794277948
 31
0.0
  0
LINE
  5
BAC9
330
18
100
AcDbEntity
  8
0
  6
BYBLOCK
100
AcDbLine
 10
1825.866883197566
 20
825.1158713277948
 30
0.0
 11
1835.866883197566
 21
822.4363794277948
 31
0.0
  0
LINE
  5
BACA
330
18
100
AcDbEntity
  8
0
  6
BYBLOCK
100
AcDbLine
 10
1835.866883197566
 20
822.4363794277948
 30
0.0
 11
1825.866883197566
 21
819.7568875277948
 31
0.0
  0
LINE
  5
BACB
330
18
100
AcDbEntity
  8
0
  6
BYBLOCK
100
AcDbLine
 10
1835.866883197566
 20
822.4363794277948
 30
0.0
 11
1825.866883197566
 21
822.4363794277948
 31
0.0
  0
TEXT
  5
BACC
330
18
100
AcDbEntity
  8
1DIM
  6
CONTINUOUS
100
AcDbText
 10
1596.074499360236
 20
825.9363794277947
 30
0.0
 40
17.5
  1
製品埋め込み巾 277
100
AcDbText
1001
ACAD
1000
DSTYLE
1002
{
1070
    40
1040
5.0
1070
   271
1070
     1
1002
}
  0
LINE
  5
BACD
330
18
100
AcDbEntity
  8
0
  6
BYBLOCK
100
AcDbLine
 10
1828.741166026954
 20
558.6663609787034
 30
0.0
 11
1838.741166026954
 21
555.9868690787034
 31
0.0
  0
LINE
  5
BACE
330
18
100
AcDbEntity
  8
0
  6
BYBLOCK
100
AcDbLine
 10
1838.741166026954
 20
555.9868690787034
 30
0.0
 11
1828.741166026954
 21
553.3073771787034
 31
0.0
  0
LINE
  5
BACF
330
18
100
AcDbEntity
  8
0
  6
BYBLOCK
100
AcDbLine
 10
1838.741166026954
 20
555.9868690787034
 30
0.0
 11
1828.741166026954
 21
555.9868690787034
 31
0.0
  0
LINE
  5
BAD0
330
18
100
AcDbEntity
  8
0
  6
BYBLOCK
100
AcDbLine
 10
1868.741166026954
 20
553.3073771787034
 30
0.0
 11
1858.741166026954
 21
555.9868690787034
 31
0.0
  0
LINE
  5
BAD1
330
18
100
AcDbEntity
  8
0
  6
BYBLOCK
100
AcDbLine
 10
1858.741166026954
 20
555.9868690787034
 30
0.0
 11
1868.741166026954
 21
558.6663609787034
 31
0.0
  0
LINE
  5
BAD2
330
18
100
AcDbEntity
  8
0
  6
BYBLOCK
100
AcDbLine
 10
1858.741166026954
 20
555.9868690787034
 30
0.0
 11
1868.741166026954
 21
555.9868690787034
 31
0.0
  0
TEXT
  5
BAD3
330
18
100
AcDbEntity
  8
1DIM
  6
CONTINUOUS
100
AcDbText
 10
1885.782832693621
 20
559.4868690787034
 30
0.0
 40
17.5
  1
縦桟　20 以上
100
AcDbText
1001
ACAD
1000
DSTYLE
1002
{
1070
    40
1040
5.0
1002
}
  0
LINE
  5
BAD4
330
18
100
AcDbEntity
  8
0
  6
BYBLOCK
100
AcDbLine
 10
1490.997401100679
 20
688.8208665093636
 30
0.0
 11
1488.317909200679
 21
678.8208665093636
 31
0.0
  0
LINE
  5
BAD5
330
18
100
AcDbEntity
  8
0
  6
BYBLOCK
100
AcDbLine
 10
1488.317909200679
 20
678.8208665093636
 30
0.0
 11
1485.638417300679
 21
688.8208665093636
 31
0.0
  0
LINE
  5
BAD6
330
18
100
AcDbEntity
  8
0
  6
BYBLOCK
100
AcDbLine
 10
1488.317909200679
 20
678.8208665093636
 30
0.0
 11
1488.317909200679
 21
688.8208665093636
 31
0.0
  0
LINE
  5
BAD7
330
18
100
AcDbEntity
  8
0
  6
BYBLOCK
100
AcDbLine
 10
1485.638417300679
 20
710.6208665167011
 30
0.0
 11
1488.317909200679
 21
720.6208665167011
 31
0.0
  0
LINE
  5
BAD8
330
18
100
AcDbEntity
  8
0
  6
BYBLOCK
100
AcDbLine
 10
1488.317909200679
 20
720.6208665167011
 30
0.0
 11
1490.997401100679
 21
710.6208665167011
 31
0.0
  0
LINE
  5
BAD9
330
18
100
AcDbEntity
  8
0
  6
BYBLOCK
100
AcDbLine
 10
1488.317909200679
 20
720.6208665167011
 30
0.0
 11
1488.317909200679
 21
710.6208665167011
 31
0.0
  0
TEXT
  5
BADA
330
18
100
AcDbEntity
  8
1DIM
  6
CONTINUOUS
100
AcDbText
 10
1484.817909200679
 20
685.6375212419938
 30
0.0
 40
17.5
  1
42
 50
90.0
100
AcDbText
1001
ACAD
1000
DSTYLE
1002
{
1070
    40
1040
5.0
1070
   271
1070
     0
1002
}
  0
LINE
  5
BADB
330
18
100
AcDbEntity
  8
0
  6
BYBLOCK
100
AcDbLine
 10
1923.164046070374
 20
730.6208665153769
 30
0.0
 11
1920.484554170374
 21
720.6208665153769
 31
0.0
  0
LINE
  5
BADC
330
18
100
AcDbEntity
  8
0
  6
BYBLOCK
100
AcDbLine
 10
1920.484554170374
 20
720.6208665153769
 30
0.0
 11
1917.805062270374
 21
730.6208665153769
 31
0.0
  0
LINE
  5
BADD
330
18
100
AcDbEntity
  8
0
  6
BYBLOCK
100
AcDbLine
 10
1920.484554170374
 20
720.6208665153769
 30
0.0
 11
1920.484554170374
 21
730.6208665153769
 31
0.0
  0
LINE
  5
BADE
330
18
100
AcDbEntity
  8
0
  6
BYBLOCK
100
AcDbLine
 10
1917.805062270374
 20
750.6208665153771
 30
0.0
 11
1920.484554170374
 21
760.6208665153771
 31
0.0
  0
LINE
  5
BADF
330
18
100
AcDbEntity
  8
0
  6
BYBLOCK
100
AcDbLine
 10
1920.484554170374
 20
760.6208665153771
 30
0.0
 11
1923.164046070374
 21
750.6208665153771
 31
0.0
  0
LINE
  5
BAE0
330
18
100
AcDbEntity
  8
0
  6
BYBLOCK
100
AcDbLine
 10
1920.484554170374
 20
760.6208665153771
 30
0.0
 11
1920.484554170374
 21
750.6208665153771
 31
0.0
  0
TEXT
  5
BAE1
330
18
100
AcDbEntity
  8
1DIM
  6
CONTINUOUS
100
AcDbText
 10
1916.984554170374
 20
776.4125331820442
 30
0.0
 40
17.5
  1
40 以上
 50
90.0
100
AcDbText
1001
ACAD
1000
DSTYLE
1002
{
1070
    40
1040
5.0
1002
}
  0
LINE
  5
BAE2
330
18
100
AcDbEntity
  8
0
  6
BYBLOCK
100
AcDbLine
 10
2071.967645860742
 20
730.6208665153769
 30
0.0
 11
2069.288153960742
 21
720.6208665153769
 31
0.0
  0
LINE
  5
BAE3
330
18
100
AcDbEntity
  8
0
  6
BYBLOCK
100
AcDbLine
 10
2069.288153960742
 20
720.6208665153769
 30
0.0
 11
2066.608662060742
 21
730.6208665153769
 31
0.0
  0
LINE
  5
BAE4
330
18
100
AcDbEntity
  8
0
  6
BYBLOCK
100
AcDbLine
 10
2069.288153960742
 20
720.6208665153769
 30
0.0
 11
2069.288153960742
 21
730.6208665153769
 31
0.0
  0
LINE
  5
BAE5
330
18
100
AcDbEntity
  8
0
  6
BYBLOCK
100
AcDbLine
 10
2066.608662060742
 20
760.6208665167013
 30
0.0
 11
2069.288153960742
 21
770.6208665167013
 31
0.0
  0
LINE
  5
BAE6
330
18
100
AcDbEntity
  8
0
  6
BYBLOCK
100
AcDbLine
 10
2069.288153960742
 20
770.6208665167013
 30
0.0
 11
2071.967645860742
 21
760.6208665167013
 31
0.0
  0
LINE
  5
BAE7
330
18
100
AcDbEntity
  8
0
  6
BYBLOCK
100
AcDbLine
 10
2069.288153960742
 20
770.6208665167013
 30
0.0
 11
2069.288153960742
 21
760.6208665167013
 31
0.0
  0
TEXT
  5
BAE8
330
18
100
AcDbEntity
  8
1DIM
  6
CONTINUOUS
100
AcDbText
 10
2036.609334516297
 20
664.8291998493728
 30
0.0
 40
17.5
  1
推奨掘り込み深さ
 50
90.0
100
AcDbText
1001
ACAD
1000
DSTYLE
1002
{
1070
    40
1040
5.0
1002
}
  0
TEXT
  5
BAE9
330
18
100
AcDbEntity
  8
1DIM
  6
CONTINUOUS
100
AcDbText
 10
2065.788153960742
 20
705.0184359604839
 30
0.0
 40
17.5
  1
50 以上
 50
90.0
100
AcDbText
1001
ACAD
1000
DSTYLE
1002
{
1070
    40
1040
5.0
1002
}
  0
LINE
  5
BAEA
330
18
100
AcDbEntity
  8
0
  6
BYBLOCK
100
AcDbLine
 10
1490.997401100679
 20
730.6208665153787
 30
0.0
 11
1488.317909200679
 21
720.6208665153787
 31
0.0
  0
LINE
  5
BAEB
330
18
100
AcDbEntity
  8
0
  6
BYBLOCK
100
AcDbLine
 10
1488.317909200679
 20
720.6208665153787
 30
0.0
 11
1485.63841730068
 21
730.6208665153787
 31
0.0
  0
LINE
  5
BAEC
330
18
100
AcDbEntity
  8
0
  6
BYBLOCK
100
AcDbLine
 10
1488.317909200679
 20
720.6208665153787
 30
0.0
 11
1488.317909200679
 21
730.6208665153787
 31
0.0
  0
LINE
  5
BAED
330
18
100
AcDbEntity
  8
0
  6
BYBLOCK
100
AcDbLine
 10
1485.63841730068
 20
757.6208438933669
 30
0.0
 11
1488.317909200679
 21
767.6208438933669
 31
0.0
  0
LINE
  5
BAEE
330
18
100
AcDbEntity
  8
0
  6
BYBLOCK
100
AcDbLine
 10
1488.317909200679
 20
767.6208438933669
 30
0.0
 11
1490.997401100679
 21
757.6208438933669
 31
0.0
  0
LINE
  5
BAEF
330
18
100
AcDbEntity
  8
0
  6
BYBLOCK
100
AcDbLine
 10
1488.317909200679
 20
767.6208438933669
 30
0.0
 11
1488.317909200679
 21
757.6208438933669
 31
0.0
  0
TEXT
  5
BAF0
330
18
100
AcDbEntity
  8
1DIM
  6
CONTINUOUS
100
AcDbText
 10
1484.817909200679
 20
729.5375218710398
 30
0.0
 40
17.5
  1
47
 50
90.0
100
AcDbText
1001
ACAD
1000
DSTYLE
1002
{
1070
    40
1040
5.0
1002
}
  0
LINE
  5
BAF1
330
18
100
AcDbEntity
  8
0
  6
BYBLOCK
100
AcDbLine
 10
1843.047419751617
 20
73.39833332322337
 30
0.0
 11
1836.008470005374
 21
80.98996445968078
 31
0.0
  0
LINE
  5
BAF2
330
18
100
AcDbEntity
  8
0
  6
BYBLOCK
100
AcDbLine
 10
1836.008470005374
 20
80.98996445968078
 30
0.0
 11
1845.900194855952
 21
77.93489386759511
 31
0.0
  0
LINE
  5
BAF3
330
18
100
AcDbEntity
  8
0
  6
BYBLOCK
100
AcDbLine
 10
1836.008470005374
 20
80.98996445968078
 30
0.0
 11
1844.473807303784
 21
75.66661359540925
 31
0.0
  0
LINE
  5
BAF4
330
18
100
AcDbEntity
  8
0
  6
BYBLOCK
100
AcDbLine
 10
2257.476863796557
 20
-64.74922203957227
 30
0.0
 11
2266.58076362312
 21
-59.81985242570954
 31
0.0
  0
LINE
  5
BAF5
330
18
100
AcDbEntity
  8
0
  6
BYBLOCK
100
AcDbLine
 10
2266.58076362312
 20
-59.81985242570954
 30
0.0
 11
2261.161239866723
 21
-68.64076162465335
 31
0.0
  0
LINE
  5
BAF6
330
18
100
AcDbEntity
  8
0
  6
BYBLOCK
100
AcDbLine
 10
2266.58076362312
 20
-59.81985242570954
 30
0.0
 11
2259.31905183164
 21
-66.6949918321128
 31
0.0
  0
LINE
  5
BAF7
330
18
100
AcDbEntity
  8
0
  6
BYBLOCK
100
AcDbLine
 10
1812.220910337893
 20
331.9098625089118
 30
0.0
 11
1803.897421978156
 21
325.7536284029438
 31
0.0
  0
LINE
  5
BAF8
330
18
100
AcDbEntity
  8
0
  6
BYBLOCK
100
AcDbLine
 10
1803.897421978156
 20
325.7536284029438
 30
0.0
 11
1808.027657335875
 21
335.246827691488
 31
0.0
  0
LINE
  5
BAF9
330
18
100
AcDbEntity
  8
0
  6
BYBLOCK
100
AcDbLine
 10
1803.897421978156
 20
325.7536284029438
 30
0.0
 11
1810.124283836884
 21
333.5783451001999
 31
0.0
  0
LINE
  5
BAFA
330
18
100
AcDbEntity
  8
0
  6
BYBLOCK
100
AcDbLine
 10
1556.654565391373
 20
352.3132921695601
 30
0.0
 11
1565.368854673356
 21
357.9026426821047
 31
0.0
  0
LINE
  5
BAFB
330
18
100
AcDbEntity
  8
0
  6
BYBLOCK
100
AcDbLine
 10
1565.368854673356
 20
357.9026426821047
 30
0.0
 11
1560.616733993779
 21
348.7049785281522
 31
0.0
  0
LINE
  5
BAFC
330
18
100
AcDbEntity
  8
0
  6
BYBLOCK
100
AcDbLine
 10
1565.368854673356
 20
357.9026426821047
 30
0.0
 11
1558.635649692576
 21
350.5091353488561
 31
0.0
  0
LINE
  5
BAFD
330
18
100
AcDbEntity
  8
0
  6
BYBLOCK
100
AcDbLine
 10
1527.504936664048
 20
711.8610556654924
 30
0.0
 11
1533.799049454668
 21
720.0807771340769
 31
0.0
  0
LINE
  5
BAFE
330
18
100
AcDbEntity
  8
0
  6
BYBLOCK
100
AcDbLine
 10
1533.799049454668
 20
720.0807771340769
 30
0.0
 11
1532.458048571428
 21
709.8152331410234
 31
0.0
  0
LINE
  5
BAFF
330
18
100
AcDbEntity
  8
0
  6
BYBLOCK
100
AcDbLine
 10
1533.799049454668
 20
720.0807771340769
 30
0.0
 11
1529.981492617738
 21
710.838144403258
 31
0.0
  0
VIEWPORT
  5
57
330
15
100
AcDbEntity
 67
     1
  8
0
100
AcDbViewport
 68
     1
 10
0.0
 20
0.0
 30
0.0
 40
663.4332925336597
 41
297.0
 68
     1
 69
     1
1001
ACAD
1000
MVIEW
1002
{
1070
    16
1010
0.0
1020
0.0
1030
0.0
1010
0.0
1020
0.0
1030
1.0
1040
0.0
1040
297.0
1040
3.20696403206415
1040
9.357237011531709
1040
50.0
1040
0.0
1040
0.0
1070
    16
1070
   100
1070
     0
1070
     1
1070
     0
1070
     0
1070
     0
1070
     0
1040
0.0
1040
0.0
1040
0.0
1040
10.0
1040
10.0
1040
10.0
1040
10.0
1070
     0
1002
{
1002
}
1002
}
  0
ENDSEC
  0
SECTION
  2
OBJECTS
  0
DICTIONARY
  5
C
330
0
100
AcDbDictionary
  3
ACAD_CIP_PREVIOUS_PRODUCT_INFO
350
90E5
  3
ACAD_COLOR
350
18D
  3
ACAD_GROUP
350
D
  3
ACAD_LAYOUT
350
18E
  3
ACAD_MATERIAL
350
18C
  3
ACAD_MLEADERSTYLE
350
7EBE
  3
ACAD_MLINESTYLE
350
1B
  3
ACAD_PLOTSETTINGS
350
18F
  3
ACAD_SCALELIST
350
7E9C
  3
ACAD_VISUALSTYLE
350
7E8B
  3
ACDBHEADERROUNDTRIPXREC
350
BB00
  3
ACDBVARIABLEDICTIONARY
350
37
  3
CONTENTDICTIONARY
350
D8
  3
DRAWINGVARIABLESDICT
350
20
  3
DWGPROPS
350
BB03
1001
ACAD
1000
TREAT_AS_HARD
1070
     0
  0
DICTIONARY
  5
886
330
2
100
AcDbDictionary
  3
ACAD_LAYERSTATES
360
887
1001
ACAD
1000
TREAT_AS_HARD
1070
     1
  0
DICTIONARY
  5
8D36
330
E
100
AcDbDictionary
  3
ADSK_XREC_LAYER_RECONCILED
360
8D37
1001
ACAD
1000
TREAT_AS_HARD
1070
     1
  0
DICTIONARY
  5
8D38
330
29
100
AcDbDictionary
  3
ADSK_XREC_LAYER_RECONCILED
360
8D39
1001
ACAD
1000
TREAT_AS_HARD
1070
     1
  0
DICTIONARY
  5
8D3A
330
31
100
AcDbDictionary
  3
ADSK_XREC_LAYER_RECONCILED
360
8D3B
1001
ACAD
1000
TREAT_AS_HARD
1070
     1
  0
DICTIONARY
  5
8D40
330
24E
100
AcDbDictionary
  3
ADSK_XREC_LAYER_RECONCILED
360
8D41
1001
ACAD
1000
TREAT_AS_HARD
1070
     1
  0
DICTIONARY
  5
8D42
330
252
100
AcDbDictionary
  3
ADSK_XREC_LAYER_RECONCILED
360
8D43
1001
ACAD
1000
TREAT_AS_HARD
1070
     1
  0
DICTIONARY
  5
8D44
330
254
100
AcDbDictionary
  3
ADSK_XREC_LAYER_RECONCILED
360
8D45
1001
ACAD
1000
TREAT_AS_HARD
1070
     1
  0
DICTIONARY
  5
8D46
330
2EA
100
AcDbDictionary
  3
ADSK_XREC_LAYER_RECONCILED
360
8D47
1001
ACAD
1000
TREAT_AS_HARD
1070
     1
  0
DICTIONARY
  5
8D48
330
2EB
100
AcDbDictionary
  3
ADSK_XREC_LAYER_RECONCILED
360
8D49
1001
ACAD
1000
TREAT_AS_HARD
1070
     1
  0
DICTIONARY
  5
8D4A
330
2EC
100
AcDbDictionary
  3
ADSK_XREC_LAYER_RECONCILED
360
8D4B
1001
ACAD
1000
TREAT_AS_HARD
1070
     1
  0
DICTIONARY
  5
8D4C
330
2ED
100
AcDbDictionary
  3
ADSK_XREC_LAYER_RECONCILED
360
8D4D
1001
ACAD
1000
TREAT_AS_HARD
1070
     1
  0
DICTIONARY
  5
8D4E
330
5C08
100
AcDbDictionary
  3
ADSK_XREC_LAYER_RECONCILED
360
8D4F
1001
ACAD
1000
TREAT_AS_HARD
1070
     1
  0
DICTIONARY
  5
F07
330
18
100
AcDbDictionary
  3
ACAD_SORTENTS
360
F08
1001
ACAD
1000
TREAT_AS_HARD
1070
     1
  0
XRECORD
  5
90E5
102
{ACAD_REACTORS
330
C
102
}
330
C
100
AcDbXrecord
300
ACDLT
300
2012
300
ACDLT_F_S
  0
DICTIONARY
  5
18D
102
{ACAD_REACTORS
330
C
102
}
330
C
100
AcDbDictionary
1001
ACAD
1000
TREAT_AS_HARD
1070
     0
  0
DICTIONARY
  5
D
102
{ACAD_REACTORS
330
C
102
}
330
C
100
AcDbDictionary
1001
ACAD
1000
TREAT_AS_HARD
1070
     0
  0
DICTIONARY
  5
18E
102
{ACAD_REACTORS
330
C
102
}
330
C
100
AcDbDictionary
1001
ACAD
1000
TREAT_AS_HARD
1070
     0
  0
DICTIONARY
  5
18C
102
{ACAD_REACTORS
330
C
102
}
330
C
100
AcDbDictionary
  3
BYBLOCK
350
7E7B
  3
BYLAYER
350
7E73
  3
GLOBAL
350
7E83
1001
ACAD
1000
TREAT_AS_HARD
1070
     0
  0
DICTIONARY
  5
7EBE
102
{ACAD_REACTORS
330
C
102
}
330
C
100
AcDbDictionary
  3
STANDARD
350
7EBF
1001
ACAD
1000
TREAT_AS_HARD
1070
     0
  0
DICTIONARY
  5
1B
102
{ACAD_REACTORS
330
C
102
}
330
C
100
AcDbDictionary
  3
STANDARD
350
1C
1001
ACAD
1000
TREAT_AS_HARD
1070
     0
  0
DICTIONARY
  5
18F
102
{ACAD_REACTORS
330
C
102
}
330
C
100
AcDbDictionary
1001
ACAD
1000
TREAT_AS_HARD
1070
     0
  0
DICTIONARY
  5
7E9C
102
{ACAD_REACTORS
330
C
102
}
330
C
100
AcDbDictionary
  3
A0
350
7E9D
  3
A1
350
7E9E
  3
A2
350
7E9F
  3
A3
350
7EA0
  3
A4
350
7EA1
  3
A5
350
7EA2
  3
A6
350
7EA3
  3
A7
350
7EA4
  3
A8
350
7EA5
  3
A9
350
7EA6
  3
B0
350
7EA7
  3
B1
350
7EA8
  3
B2
350
7EA9
  3
B3
350
7EAA
  3
B4
350
7EAB
  3
B5
350
7EAC
  3
B6
350
7EAD
  3
B7
350
7EAE
  3
B8
350
7EAF
  3
B9
350
7EB0
  3
C0
350
7EB1
  3
C1
350
7EB2
  3
C2
350
7EB3
  3
C3
350
7EB4
  3
C4
350
7EB5
  3
C5
350
7EB6
  3
C6
350
7EB7
  3
C7
350
7EB8
  3
C8
350
7EB9
  3
C9
350
7EBA
  3
D0
350
7EBB
  3
D1
350
7EBC
  3
D2
350
7EBD
1001
ACAD
1000
TREAT_AS_HARD
1070
     0
  0
DICTIONARY
  5
7E8B
102
{ACAD_REACTORS
330
C
102
}
330
C
100
AcDbDictionary
  3
2DWIREFRAME
350
7E91
  3
3D_HIDDEN
350
7E93
  3
3DWIREFRAME
350
7E92
  3
BASIC
350
7E90
  3
BRIGHTEN
350
7E97
  3
COLORCHANGE
350
7E9B
  3
CONCEPTUAL
350
7E94
  3
DIM
350
7E96
  3
EDGECOLOROFF
350
90DF
  3
FACEPATTERN
350
7E9A
  3
FLAT
350
7E8C
  3
FLATWITHEDGES
350
7E8D
  3
GOURAUD
350
7E8E
  3
GOURAUDWITHEDGES
350
7E8F
  3
HIDDEN
350
90D7
  3
JITTEROFF
350
90DD
  3
LINEPATTERN
350
7E99
  3
MODELING
350
AF4A
  3
OVERHANGOFF
350
90DE
  3
REALISTIC
350
7E95
  3
SHADED
350
90DC
  3
SHADED_WITH_EDGES
350
90DB
  3
SHADES_OF_GRAY
350
90D8
  3
SKETCHY
350
90D9
  3
THICKEN
350
7E98
  3
WIREFRAME
350
90D6
  3
X-RAY
350
90DA
1001
ACAD
1000
TREAT_AS_HARD
1070
     0
  0
DICTIONARY
  5
BB00
102
{ACAD_REACTORS
330
C
102
}
330
C
100
AcDbDictionary
  3
COLORDICT
350
BB01
  3
MATERIALDICT
350
BB02
1001
ACAD
1000
TREAT_AS_HARD
1070
     0
  0
DICTIONARY
  5
37
102
{ACAD_REACTORS
330
C
102
}
330
C
100
AcDbDictionary
  3
CANNOSCALE
350
8DC3
  3
CMLEADERSTYLE
350
8DC2
  3
CTABLESTYLE
350
29E
  3
DIMADEC
350
38
  3
DIMASSOC
350
1CE
  3
HIDETEXT
350
5F5B
  3
INDEXCTL
350
8DC5
  3
INTERSECTIONCOLOR
350
5F5F
  3
INTERSECTIONDISPLAY
350
5F5E
  3
MSLTSCALE
350
B7F4
  3
OBSCOLOR
350
5F5C
  3
OBSLTYPE
350
5F5D
  3
PROJECTNAME
350
1CF
  3
SORTENTS
350
8DC4
  3
XCLIPFRAME
350
AF49
1001
ACAD
1000
TREAT_AS_HARD
1070
     0
  0
DICTIONARY
  5
D8
102
{ACAD_REACTORS
330
C
102
}
330
C
100
AcDbDictionary
1001
ACAD
1000
TREAT_AS_HARD
1070
     0
  0
DICTIONARY
  5
20
102
{ACAD_REACTORS
330
C
102
}
330
C
100
AcDbDictionary
1001
DRAWINGVARIABLESXDATA
1000
POLARANG
1000
0.261799387799149410000000
1000
POLARMODE
1000
1
1000
POLARSTYLE
1000
1
1001
ACAD
1000
TREAT_AS_HARD
1070
     0
  0
XRECORD
  5
BB03
102
{ACAD_REACTORS
330
C
102
}
330
C
100
AcDbXrecord
  1
DWGPROPS COOKIE
  2

  3

  4

  6

  7

  8
3684
  9

300
=
301
=
302
=
303
=
304
=
305
=
306
=
307
=
308
=
309
=
 40
0.0
 41
2451318.246352917
 42
2458149.329136539
  1

 90
        0
  0
DICTIONARY
  5
887
102
{ACAD_REACTORS
330
886
102
}
330
886
100
AcDbDictionary
  3
_LAYISO_STATE
350
A1C4
1001
ACLAYERTOOLS
1000
190
1000
0
1001
ACAD
1000
TREAT_AS_HARD
1070
     0
  0
ACAD_PROXY_OBJECT
  5
8D37
102
{ACAD_REACTORS
330
8D36
102
}
330
8D36
100
AcDbZombieObject
 90
      499
 91
      514
 93
       34
310
40C8804040
  0
ACAD_PROXY_OBJECT
  5
8D39
102
{ACAD_REACTORS
330
8D38
102
}
330
8D38
100
AcDbZombieObject
 90
      499
 91
      514
 93
       34
310
40C8804040
  0
ACAD_PROXY_OBJECT
  5
8D3B
102
{ACAD_REACTORS
330
8D3A
102
}
330
8D3A
100
AcDbZombieObject
 90
      499
 91
      514
 93
       34
310
40C8804040
  0
ACAD_PROXY_OBJECT
  5
8D41
102
{ACAD_REACTORS
330
8D40
102
}
330
8D40
100
AcDbZombieObject
 90
      499
 91
      514
 93
       34
310
40C8804040
  0
ACAD_PROXY_OBJECT
  5
8D43
102
{ACAD_REACTORS
330
8D42
102
}
330
8D42
100
AcDbZombieObject
 90
      499
 91
      514
 93
       34
310
40C8804040
  0
ACAD_PROXY_OBJECT
  5
8D45
102
{ACAD_REACTORS
330
8D44
102
}
330
8D44
100
AcDbZombieObject
 90
      499
 91
      514
 93
       34
310
40C8804040
  0
ACAD_PROXY_OBJECT
  5
8D47
102
{ACAD_REACTORS
330
8D46
102
}
330
8D46
100
AcDbZombieObject
 90
      499
 91
      514
 93
       34
310
40C8804040
  0
ACAD_PROXY_OBJECT
  5
8D49
102
{ACAD_REACTORS
330
8D48
102
}
330
8D48
100
AcDbZombieObject
 90
      499
 91
      514
 93
       34
310
40C8804040
  0
ACAD_PROXY_OBJECT
  5
8D4B
102
{ACAD_REACTORS
330
8D4A
102
}
330
8D4A
100
AcDbZombieObject
 90
      499
 91
      514
 93
       34
310
40C8804040
  0
ACAD_PROXY_OBJECT
  5
8D4D
102
{ACAD_REACTORS
330
8D4C
102
}
330
8D4C
100
AcDbZombieObject
 90
      499
 91
      514
 93
       34
310
40C8804040
  0
ACAD_PROXY_OBJECT
  5
8D4F
102
{ACAD_REACTORS
330
8D4E
102
}
330
8D4E
100
AcDbZombieObject
 90
      499
 91
      514
 93
       34
310
40C8804040
  0
SORTENTSTABLE
  5
F08
102
{ACAD_REACTORS
330
F07
102
}
330
F07
100
AcDbSortentsTable
330
18
331
5F77
  5
5F78
331
5F78
  5
5F79
331
5F79
  5
5F7A
331
5F7A
  5
5F7B
331
5F7B
  5
5F7C
331
5F7C
  5
5F7D
331
5F7D
  5
5F7E
331
5F7E
  5
5F7F
331
5F7F
  5
5F80
331
5F80
  5
5F81
331
5F81
  5
5F82
331
5F82
  5
5F83
331
8F4E
  5
8F4F
331
8F4F
  5
8F50
331
8F50
  5
8F51
331
8F51
  5
8F52
331
8F52
  5
8F53
331
8F53
  5
8F54
331
8F54
  5
8F55
331
8F55
  5
8F7A
331
0
  5
8F87
331
0
  5
8FA6
331
8FA6
  5
965F
331
8FA7
  5
9661
331
8FA8
  5
9664
331
8FA9
  5
9666
331
8FAA
  5
9663
331
8FAB
  5
9665
331
8FAC
  5
9660
331
8FAD
  5
9662
331
0
  5
8FD7
331
8FD7
  5
9673
331
961C
  5
9674
331
961D
  5
9675
331
961E
  5
9676
331
9620
  5
9677
331
9621
  5
9678
331
9627
  5
9679
331
9635
  5
967A
331
964C
  5
967B
331
964D
  5
967C
331
964F
  5
967F
331
9650
  5
9681
331
9651
  5
9682
331
9652
  5
9683
331
9653
  5
9684
331
9656
  5
9685
331
9658
  5
9686
331
9659
  5
9687
331
965A
  5
9688
331
965C
  5
9689
331
965D
  5
968A
331
965E
  5
968B
331
965F
  5
968D
331
9660
  5
968E
331
9661
  5
9690
331
9662
  5
969E
331
9663
  5
969F
331
9664
  5
96A1
331
9665
  5
96A2
331
9666
  5
96A3
331
9667
  5
970F
331
9668
  5
9712
331
9669
  5
9713
331
966A
  5
9714
331
966B
  5
9715
331
966C
  5
9716
331
966D
  5
9717
331
966E
  5
9762
331
966F
  5
9763
331
9670
  5
9764
331
9671
  5
9765
331
9672
  5
9766
331
9673
  5
9767
331
9674
  5
9768
331
9675
  5
976A
331
9676
  5
976B
331
9677
  5
976C
331
9678
  5
976D
331
9679
  5
976E
331
967A
  5
976F
331
967B
  5
9770
331
967C
  5
9771
331
967E
  5
9772
331
9680
  5
9773
331
9681
  5
9774
331
9682
  5
9775
331
9683
  5
9776
331
9684
  5
9777
331
9685
  5
9778
331
9686
  5
9779
331
9687
  5
977A
331
9688
  5
977B
331
9689
  5
977C
331
968A
  5
977D
331
9697
  5
9780
331
969B
  5
9783
331
969C
  5
9784
331
969E
  5
9785
331
969F
  5
9786
331
96A0
  5
9787
331
970E
  5
9788
331
970F
  5
978A
331
9710
  5
978B
331
9711
  5
978C
331
9712
  5
978D
331
9713
  5
978E
331
9714
  5
978F
331
9715
  5
9790
331
9716
  5
9791
331
9761
  5
9792
331
9762
  5
9794
331
9763
  5
9795
331
9764
  5
9796
331
9765
  5
9798
331
9766
  5
97AB
331
9767
  5
97B5
331
9768
  5
97BA
331
9769
  5
97BD
331
976A
  5
97C0
331
976B
  5
97C1
331
976C
  5
97C4
331
976D
  5
97C5
331
976E
  5
9818
331
976F
  5
9819
331
9770
  5
981A
331
9771
  5
981E
331
9772
  5
981F
331
9773
  5
9824
331
9774
  5
9828
331
9775
  5
9829
331
9776
  5
982A
331
9777
  5
982B
331
9778
  5
982C
331
9779
  5
982D
331
977C
  5
9834
331
977D
  5
9856
331
977E
  5
9857
331
977F
  5
9858
331
9780
  5
9859
331
9781
  5
985A
331
9783
  5
985B
331
9784
  5
985C
331
9785
  5
985D
331
9786
  5
9863
331
9787
  5
9864
331
9788
  5
9866
331
9789
  5
9867
331
978A
  5
9868
331
978B
  5
9869
331
978C
  5
986A
331
978D
  5
986C
331
978E
  5
986E
331
978F
  5
9870
331
9790
  5
9872
331
9791
  5
9873
331
97AA
  5
9875
331
97B2
  5
9876
331
97B5
  5
9877
331
97B8
  5
987B
331
97B9
  5
987C
331
97BC
  5
987D
331
97BD
  5
9883
331
9810
  5
988C
331
9811
  5
988E
331
9812
  5
9890
331
9816
  5
98A0
331
9817
  5
98D8
331
981C
  5
98E0
331
9820
  5
98FF
331
9821
  5
9900
331
9822
  5
9901
331
9823
  5
9942
331
9824
  5
9943
331
9826
  5
9944
331
982F
  5
998E
331
9830
  5
998F
331
9831
  5
9990
331
9832
  5
999D
331
9833
  5
999F
331
9834
  5
99A0
331
9851
  5
99A1
331
9852
  5
99A2
331
9855
  5
99A3
331
9856
  5
99A4
331
9857
  5
99A5
331
9859
  5
99A6
331
985F
  5
99F2
331
9860
  5
99F6
331
9861
  5
99FA
331
9862
  5
9C6E
331
9863
  5
9C6F
331
9864
  5
9C70
331
9865
  5
9C72
331
9866
  5
A036
331
9867
  5
A038
331
9868
  5
A039
331
9869
  5
A03A
331
986B
  5
A03F
331
986D
  5
A040
331
986F
  5
A041
331
9871
  5
A042
331
9872
  5
A043
331
9873
  5
A044
331
9874
  5
A045
331
987F
  5
A046
331
9888
  5
A047
331
9889
  5
A048
331
988A
  5
A049
331
988B
  5
A04A
331
98EE
  5
A04D
331
98EF
  5
A04E
331
98F3
  5
A04F
331
98F5
  5
A050
331
98F6
  5
A051
331
98F9
  5
A052
331
98FA
  5
A053
331
993C
  5
A054
331
993D
  5
A055
331
993E
  5
A056
331
9942
  5
A057
331
9943
  5
A058
331
9954
  5
A1CD
331
9956
  5
A1CE
331
9957
  5
A1D1
331
9958
  5
A1D3
331
9959
  5
A1D4
331
0
  5
9C67
331
99F1
  5
A459
331
99F2
  5
A45A
331
99F3
  5
A45B
331
99F4
  5
A45C
331
99F5
  5
A45D
331
A024
  5
9793
331
A025
  5
977F
331
A026
  5
A458
331
A027
  5
977E
331
A029
  5
A45E
331
A02A
  5
A45F
331
A02B
  5
A460
331
A02C
  5
A533
331
A02D
  5
A04B
331
A02E
  5
A04C
331
A02F
  5
9C71
331
A032
  5
A037
331
A033
  5
A534
331
A034
  5
A535
331
A035
  5
A536
331
A036
  5
AD8D
331
A037
  5
AD8E
331
A038
  5
AD8F
331
A039
  5
AD90
331
A03A
  5
AD91
331
A03F
  5
AD92
331
A040
  5
AD93
331
A041
  5
AD94
331
A042
  5
ADAA
331
A043
  5
994A
331
A044
  5
995A
331
A046
  5
9797
331
A047
  5
ADA9
331
A048
  5
B780
331
A049
  5
9874
331
A04A
  5
98FC
331
A04B
  5
967D
331
A04C
  5
B781
331
A04D
  5
B782
331
A04E
  5
B783
331
A04F
  5
B784
331
A050
  5
B785
331
A051
  5
B786
331
A052
  5
B88A
331
A053
  5
B88B
331
A054
  5
B88C
331
0
  5
A2AA
331
A056
  5
B895
331
A057
  5
B896
331
A058
  5
B897
331
A1CD
  5
B91C
331
A1D0
  5
B91E
331
A1D1
  5
B920
331
A1D6
  5
B921
331
A1D8
  5
B91D
331
A1D9
  5
B91F
331
A1F7
  5
B922
331
A1F8
  5
B923
331
A1F9
  5
B924
331
A1FA
  5
B92D
331
A1FB
  5
B92F
331
A1FC
  5
B930
331
A1FD
  5
B931
331
A1FE
  5
B94F
331
A1FF
  5
B950
331
A200
  5
B951
331
A201
  5
B952
331
A202
  5
B953
331
A203
  5
B954
331
A204
  5
B955
331
A205
  5
B956
331
A206
  5
B957
331
A207
  5
B958
331
A208
  5
B959
331
A209
  5
B95A
331
A20A
  5
B95B
331
A20B
  5
B95C
331
A20C
  5
B95D
331
A20D
  5
B95E
331
A20E
  5
B95F
331
A20F
  5
B960
331
A210
  5
B961
331
A211
  5
B962
331
A212
  5
B963
331
A213
  5
B964
331
A214
  5
B965
331
A266
  5
B969
331
A267
  5
B96A
331
A268
  5
B96B
331
A269
  5
B96F
331
A26A
  5
B970
331
A26B
  5
B971
331
A26C
  5
B975
331
A26D
  5
B976
331
A26E
  5
B977
331
A26F
  5
B978
331
A270
  5
B97C
331
A271
  5
B97D
331
A296
  5
B97E
331
A297
  5
B97F
331
A298
  5
B983
331
A299
  5
B984
331
A29A
  5
B985
331
A29B
  5
B98A
331
A29C
  5
B98B
331
A29D
  5
B98C
331
A29E
  5
B98D
331
A29F
  5
B98E
331
A2A0
  5
B98F
331
A2A1
  5
B990
331
A2A2
  5
B991
331
0
  5
B925
331
0
  5
B926
331
0
  5
B927
331
0
  5
B928
331
0
  5
B929
331
0
  5
B92A
331
0
  5
B92B
331
0
  5
B92C
331
A2AD
  5
BA13
331
0
  5
B92E
331
A44E
  5
BA20
331
A44F
  5
BA21
331
A450
  5
BA22
331
0
  5
B932
331
0
  5
B933
331
0
  5
B934
331
0
  5
B935
331
0
  5
B936
331
0
  5
B937
331
0
  5
B938
331
0
  5
B939
331
0
  5
B93A
331
0
  5
B93B
331
0
  5
B93C
331
0
  5
B93D
331
0
  5
B93E
331
0
  5
B93F
331
0
  5
B940
331
0
  5
B941
331
0
  5
B942
331
0
  5
B943
331
0
  5
B944
331
0
  5
B945
331
0
  5
B946
331
0
  5
B947
331
0
  5
B948
331
0
  5
B949
331
0
  5
B94A
331
0
  5
B94B
331
0
  5
B94C
331
0
  5
B94D
331
0
  5
B94E
331
B780
  5
BAF9
331
B781
  5
BAFA
331
B782
  5
BAFB
331
B783
  5
BAFC
331
B784
  5
BAFD
331
B785
  5
BAFE
331
B786
  5
BAFF
331
0
  5
9C6D
331
B88B
  5
A1FF
331
B88C
  5
A200
331
B88D
  5
A201
331
B88E
  5
A202
331
B88F
  5
A203
331
B890
  5
A204
331
B891
  5
A205
331
B892
  5
A206
331
B893
  5
A207
331
B894
  5
A208
331
B895
  5
A209
331
B896
  5
A20A
331
B897
  5
A20B
331
B898
  5
A20C
331
B899
  5
A20D
331
B89A
  5
A20E
331
B89B
  5
A20F
331
B89C
  5
A210
331
B89D
  5
A211
331
B89E
  5
A212
331
B89F
  5
A213
331
B8A0
  5
A214
331
B8A1
  5
A266
331
B8A2
  5
A267
331
B8A3
  5
A268
331
B8A4
  5
A269
331
B8A5
  5
A26A
331
B8A6
  5
A26B
331
B8A7
  5
A26C
331
B8A8
  5
A26D
331
B8A9
  5
A26E
331
B8AA
  5
A26F
331
B8AB
  5
A270
331
B8AC
  5
A271
331
B8AD
  5
A296
331
B8AE
  5
A297
331
B8AF
  5
A298
331
B8B0
  5
A299
331
B8B1
  5
A29A
331
B8B2
  5
A29B
331
B8B3
  5
A29C
331
B8B4
  5
A29D
331
B8B5
  5
A29E
331
B8B6
  5
A29F
331
B8B7
  5
A2A0
331
B8B8
  5
A2A1
331
B8B9
  5
A2A2
331
B8BA
  5
A2A3
331
B8BB
  5
A2A5
331
B8BC
  5
A2A6
331
B8BD
  5
A2A7
331
B8BE
  5
A2A8
331
B8BF
  5
A2A9
331
B8C0
  5
A2AD
331
B8C1
  5
A2AE
331
B8C2
  5
A44E
331
B8C3
  5
A44F
331
B8C4
  5
A450
331
B8C5
  5
A451
331
B8C6
  5
A452
331
B8C7
  5
A453
331
0
  5
A2A4
331
B907
  5
B8A1
331
B908
  5
B8A2
331
B909
  5
B8A3
331
B90A
  5
B8A4
331
B90B
  5
B8A5
331
B90C
  5
B8A6
331
B90D
  5
B8A7
331
B90E
  5
B8A8
331
B90F
  5
B8A9
331
B910
  5
B8AA
331
B911
  5
B8AB
331
B912
  5
B8AC
331
B913
  5
B8AD
331
B914
  5
B8AE
331
B915
  5
B8AF
331
B916
  5
B8B0
331
B917
  5
B8B1
331
B918
  5
B8B2
331
B919
  5
B8B3
331
B91A
  5
B8B4
331
B91B
  5
B8B5
331
B91C
  5
B8B6
331
B91D
  5
B8B7
331
B91E
  5
B8B8
331
B91F
  5
B8B9
331
B920
  5
B8BA
331
B921
  5
B8BB
331
B922
  5
B8BC
331
B923
  5
B8BD
331
B924
  5
B8BE
331
B925
  5
B8BF
331
B926
  5
B8C0
331
B927
  5
B8C1
331
B928
  5
B8C2
331
B929
  5
B8C3
331
B92A
  5
B8C4
331
B92B
  5
B8C5
331
B92C
  5
B8C6
331
B92D
  5
B8C7
331
B92E
  5
B906
331
B92F
  5
B907
331
B930
  5
B908
331
B931
  5
B909
331
B932
  5
B90A
331
B933
  5
B90B
331
B934
  5
B90C
331
B935
  5
B90D
331
B936
  5
B90E
331
B937
  5
B90F
331
B938
  5
B910
331
B939
  5
B911
331
B93A
  5
B912
331
B93B
  5
B913
331
B93C
  5
B914
331
B93D
  5
B915
331
B93E
  5
B916
331
B93F
  5
B917
331
B940
  5
B918
331
B941
  5
B919
331
B942
  5
B91A
331
B943
  5
B91B
331
B944
  5
A1DB
331
B945
  5
A1F7
331
B946
  5
A1F8
331
B947
  5
A1F9
331
B948
  5
A1FA
331
B949
  5
A1FB
331
B94A
  5
A1FC
331
B94B
  5
A1FD
331
B94C
  5
A1FE
331
B94D
  5
B898
331
B94E
  5
B899
331
B94F
  5
B89A
331
B950
  5
B89B
331
B951
  5
B89C
331
B952
  5
B89D
331
B953
  5
B89E
331
B954
  5
B89F
331
B955
  5
B8A0
331
B956
  5
8FA7
331
B957
  5
8FA8
331
B958
  5
8FA9
331
0
  5
8FAA
331
0
  5
8FAB
331
0
  5
8FAC
331
B95C
  5
964D
331
B95D
  5
964E
331
B95E
  5
9650
331
0
  5
961D
331
0
  5
961E
331
0
  5
961F
331
B962
  5
9667
331
B963
  5
9668
331
B964
  5
9669
331
B965
  5
966A
331
B966
  5
966B
331
0
  5
965A
331
0
  5
965B
331
0
  5
965D
331
B96A
  5
B88D
331
0
  5
A537
331
0
  5
A538
331
0
  5
A539
331
B96E
  5
B995
331
B96F
  5
B996
331
B970
  5
B997
331
0
  5
B966
331
0
  5
B967
331
0
  5
B968
331
B974
  5
B9AA
331
B975
  5
B9AB
331
B976
  5
B9AC
331
0
  5
B96C
331
0
  5
B96D
331
0
  5
B96E
331
B97A
  5
B9BD
331
B97B
  5
B9BE
331
B97C
  5
B9C2
331
0
  5
B972
331
0
  5
B973
331
0
  5
B974
331
B980
  5
B9D0
331
B981
  5
B9D5
331
B982
  5
B9D6
331
B983
  5
B9D7
331
0
  5
B979
331
0
  5
B97A
331
0
  5
B97B
331
B987
  5
B9E5
331
B988
  5
B9E6
331
B989
  5
B9E7
331
B98A
  5
B9E8
331
0
  5
B980
331
0
  5
B981
331
0
  5
B982
331
B98E
  5
B9F9
331
B98F
  5
B9FA
331
B990
  5
B9FB
331
0
  5
B986
331
0
  5
B987
331
0
  5
B988
331
0
  5
B989
331
B995
  5
BA0F
331
B996
  5
BA10
331
B997
  5
BA11
331
B998
  5
BA14
331
B999
  5
BA15
331
B99A
  5
BA16
331
B99B
  5
BA18
331
0
  5
B992
331
0
  5
B993
331
0
  5
B994
331
B99F
  5
BA23
331
B9A0
  5
BA24
331
B9A1
  5
BA25
331
0
  5
B99B
331
0
  5
B99C
331
0
  5
B99D
331
B9A5
  5
BA2D
331
B9A6
  5
BA2E
331
B9A7
  5
BA2F
331
0
  5
B9A1
331
0
  5
B9A2
331
0
  5
B9A3
331
B9AB
  5
BA37
331
B9AC
  5
BA38
331
B9AD
  5
BA39
331
0
  5
B9A7
331
0
  5
B9A8
331
0
  5
B9A9
331
B9B1
  5
BA41
331
B9B2
  5
BA42
331
B9B3
  5
BA43
331
0
  5
B9AD
331
0
  5
B9AE
331
0
  5
B9AF
331
B9B7
  5
BA4B
331
B9B8
  5
BA4C
331
B9B9
  5
BA4D
331
0
  5
B9B3
331
0
  5
B9B4
331
0
  5
B9B5
331
B9BD
  5
BA55
331
B9BE
  5
BA56
331
B9BF
  5
BA57
331
0
  5
B9B9
331
0
  5
B9BA
331
0
  5
B9BB
331
B9C3
  5
BA5F
331
B9C4
  5
BA60
331
B9C5
  5
BA61
331
0
  5
B9BF
331
0
  5
B9C0
331
0
  5
B9C1
331
B9C9
  5
BA69
331
B9CA
  5
BA6A
331
B9CB
  5
BA6B
331
0
  5
B9C5
331
0
  5
B9C6
331
0
  5
B9C7
331
B9CF
  5
BA73
331
B9D0
  5
BA74
331
B9D1
  5
BA75
331
0
  5
B9CB
331
0
  5
B9CC
331
0
  5
B9CD
331
B9D5
  5
BA7D
331
B9D6
  5
BA7E
331
B9D7
  5
BA7F
331
0
  5
B9D1
331
0
  5
B9D2
331
0
  5
B9D3
331
0
  5
B9D4
331
B9DC
  5
BA8A
331
B9DD
  5
BA8B
331
B9DE
  5
BA8C
331
B9DF
  5
BA8D
331
B9E0
  5
BA8E
331
B9E1
  5
BA8F
331
0
  5
B9DB
331
0
  5
B9DC
331
0
  5
B9DD
331
B9E5
  5
BA99
331
B9E6
  5
BA9A
331
B9E7
  5
BA9B
331
0
  5
B9E1
331
0
  5
B9E2
331
0
  5
B9E3
331
B9EB
  5
BAA3
331
B9EC
  5
BAA4
331
B9ED
  5
BAA5
331
B9EE
  5
BAA6
331
B9EF
  5
BAA7
331
0
  5
B9E9
331
0
  5
B9EA
331
0
  5
B9EB
331
B9F3
  5
BAAF
331
B9F4
  5
BAB0
331
B9F5
  5
BAB1
331
0
  5
B9EF
331
0
  5
B9F0
331
0
  5
B9F1
331
B9F9
  5
BAB9
331
B9FA
  5
BABA
331
B9FB
  5
BABB
331
B9FC
  5
BABC
331
0
  5
B9F6
331
0
  5
B9F7
331
0
  5
B9F8
331
BA00
  5
BAC4
331
BA01
  5
BAC5
331
BA02
  5
BAC6
331
0
  5
B9FC
331
0
  5
B9FD
331
0
  5
B9FE
331
BA06
  5
BACF
331
BA07
  5
BAD0
331
BA08
  5
BAD1
331
0
  5
BA02
331
0
  5
BA03
331
0
  5
BA04
331
0
  5
BA05
331
BA0D
  5
BADC
331
BA0E
  5
BADD
331
BA0F
  5
BADE
331
BA10
  5
BADF
331
0
  5
BA0A
331
BA12
  5
BAE3
331
BA13
  5
BAE4
331
BA14
  5
BAE5
331
0
  5
BA0E
331
BA16
  5
BAE9
331
BA17
  5
BAEA
331
BA18
  5
BAEB
331
0
  5
BA12
331
BA1A
  5
BAEF
331
BA1B
  5
BAF0
331
BA1C
  5
BAF1
331
BA1D
  5
BAF2
331
0
  5
BA17
331
BA1F
  5
BAF6
331
BA20
  5
BAF7
331
BA21
  5
BAF8
331
BA22
  5
8FAD
331
BA23
  5
8FB0
331
BA24
  5
9031
331
BA25
  5
9621
331
BA26
  5
9622
331
BA27
  5
962D
331
BA28
  5
9636
331
BA29
  5
9651
331
BA2A
  5
9652
331
BA2B
  5
9653
331
BA2C
  5
9654
331
BA2D
  5
9657
331
BA2E
  5
9659
331
BA2F
  5
965E
331
BA30
  5
966C
331
BA31
  5
966D
331
BA32
  5
966E
331
BA33
  5
966F
331
BA34
  5
9670
331
BA35
  5
9671
331
BA36
  5
9672
331
BA37
  5
B88E
331
BA38
  5
B88F
331
BA39
  5
B890
331
BA3A
  5
B891
331
BA3B
  5
B892
331
BA3C
  5
B893
331
BA3D
  5
B894
331
BA3E
  5
B998
331
BA3F
  5
B999
331
BA40
  5
B99A
331
BA41
  5
B99E
331
BA42
  5
B99F
331
BA43
  5
B9A0
331
BA44
  5
B9A4
331
BA45
  5
B9A5
331
BA46
  5
B9A6
331
BA47
  5
B9B0
331
BA48
  5
B9B1
331
BA49
  5
B9B2
331
BA4A
  5
B9B6
331
BA4B
  5
B9B7
331
BA4C
  5
B9B8
331
BA4D
  5
B9BC
331
BA4E
  5
B9C3
331
BA4F
  5
B9C4
331
BA50
  5
B9C8
331
BA51
  5
B9C9
331
BA52
  5
B9CA
331
BA53
  5
B9CE
331
BA54
  5
B9CF
331
BA55
  5
B9D8
331
BA56
  5
B9D9
331
BA57
  5
B9DA
331
BA58
  5
B9DE
331
BA59
  5
B9DF
331
BA5A
  5
B9E0
331
BA5B
  5
B9E4
331
BA5C
  5
B9EC
331
BA5D
  5
B9ED
331
BA5E
  5
B9EE
331
BA5F
  5
B9F2
331
BA60
  5
B9F3
331
BA61
  5
B9F4
331
BA62
  5
B9F5
331
BA63
  5
B9FF
331
BA64
  5
BA00
331
BA65
  5
BA01
331
BA66
  5
BA06
331
BA67
  5
BA07
331
BA68
  5
BA08
331
BA69
  5
BA09
331
BA6A
  5
BA0B
331
BA6B
  5
BA0C
331
BA6C
  5
BA0D
331
BA6D
  5
BA19
331
BA6E
  5
BA1A
331
BA6F
  5
BA1B
331
BA70
  5
BA1C
331
BA71
  5
BA1D
331
BA72
  5
BA1E
331
BA73
  5
BA1F
331
BA74
  5
BA26
331
BA75
  5
BA27
331
BA76
  5
BA28
331
BA77
  5
BA29
331
BA78
  5
BA2A
331
BA79
  5
BA2B
331
BA7A
  5
BA2C
331
BA7B
  5
BA30
331
BA7C
  5
BA31
331
BA7D
  5
BA32
331
BA7E
  5
BA33
331
BA7F
  5
BA34
331
BA80
  5
BA35
331
BA81
  5
BA36
331
BA82
  5
BA3A
331
BA83
  5
BA3B
331
BA84
  5
BA3C
331
BA85
  5
BA3D
331
BA86
  5
BA3E
331
BA87
  5
BA3F
331
BA88
  5
BA40
331
BA89
  5
BA44
331
BA8A
  5
BA45
331
BA8B
  5
BA46
331
BA8C
  5
BA47
331
BA8D
  5
BA48
331
BA8E
  5
BA49
331
BA8F
  5
BA4A
331
BA90
  5
BA4E
331
BA91
  5
BA4F
331
BA92
  5
BA50
331
BA93
  5
BA51
331
BA94
  5
BA52
331
BA95
  5
BA53
331
BA96
  5
BA54
331
BA97
  5
BA58
331
BA98
  5
BA59
331
BA99
  5
BA5A
331
BA9A
  5
BA5B
331
BA9B
  5
BA5C
331
BA9C
  5
BA5D
331
BA9D
  5
BA5E
331
BA9E
  5
BA62
331
BA9F
  5
BA63
331
BAA0
  5
BA64
331
BAA1
  5
BA65
331
BAA2
  5
BA66
331
BAA3
  5
BA67
331
BAA4
  5
BA68
331
BAA5
  5
BA6C
331
BAA6
  5
BA6D
331
BAA7
  5
BA6E
331
BAA8
  5
BA6F
331
BAA9
  5
BA70
331
BAAA
  5
BA71
331
BAAB
  5
BA72
331
BAAC
  5
BA76
331
BAAD
  5
BA77
331
BAAE
  5
BA78
331
BAAF
  5
BA79
331
BAB0
  5
BA7A
331
BAB1
  5
BA7B
331
BAB2
  5
BA7C
331
BAB3
  5
BA80
331
BAB4
  5
BA81
331
BAB5
  5
BA82
331
BAB6
  5
BA83
331
BAB7
  5
BA84
331
BAB8
  5
BA85
331
BAB9
  5
BA86
331
BABA
  5
BA87
331
BABB
  5
BA88
331
BABC
  5
BA89
331
BABD
  5
BA90
331
BABE
  5
BA91
331
BABF
  5
BA92
331
BAC0
  5
BA93
331
BAC1
  5
BA94
331
BAC2
  5
BA95
331
BAC3
  5
BA96
331
BAC4
  5
BA97
331
BAC5
  5
BA98
331
BAC6
  5
BA9C
331
BAC7
  5
BA9D
331
BAC8
  5
BA9E
331
BAC9
  5
BA9F
331
BACA
  5
BAA0
331
BACB
  5
BAA1
331
BACC
  5
BAA2
331
BACD
  5
BAA8
331
BACE
  5
BAA9
331
BACF
  5
BAAA
331
BAD0
  5
BAAB
331
BAD1
  5
BAAC
331
BAD2
  5
BAAD
331
BAD3
  5
BAAE
331
BAD4
  5
BAB2
331
BAD5
  5
BAB3
331
BAD6
  5
BAB4
331
BAD7
  5
BAB5
331
BAD8
  5
BAB6
331
BAD9
  5
BAB7
331
BADA
  5
BAB8
331
BADB
  5
BABD
331
BADC
  5
BABE
331
BADD
  5
BABF
331
BADE
  5
BAC0
331
BADF
  5
BAC1
331
BAE0
  5
BAC2
331
BAE1
  5
BAC3
331
BAE2
  5
BAC7
331
BAE3
  5
BAC8
331
BAE4
  5
BAC9
331
BAE5
  5
BACA
331
BAE6
  5
BACB
331
BAE7
  5
BACC
331
BAE8
  5
BACD
331
BAE9
  5
BACE
331
BAEA
  5
BAD2
331
BAEB
  5
BAD3
331
BAEC
  5
BAD4
331
BAED
  5
BAD5
331
BAEE
  5
BAD6
331
BAEF
  5
BAD7
331
BAF0
  5
BAD8
331
BAF1
  5
BAD9
331
BAF2
  5
BADA
331
BAF3
  5
BADB
331
BAF4
  5
BAE0
331
BAF5
  5
BAE1
331
BAF6
  5
BAE2
331
BAF7
  5
BAE6
331
BAF8
  5
BAE7
331
BAF9
  5
BAE8
331
BAFA
  5
BAEC
331
BAFB
  5
BAED
331
BAFC
  5
BAEE
331
BAFD
  5
BAF3
331
BAFE
  5
BAF4
331
BAFF
  5
BAF5
  0
MATERIAL
  5
7E7B
102
{ACAD_REACTORS
330
18C
102
}
102
{ACAD_XDICTIONARY
360
BC9E
102
}
330
18C
100
AcDbMaterial
  1
BYBLOCK
 72
     0
 73
     2
 43
0.0208333333333333
 43
0.0
 43
0.0
 43
0.0
 43
0.0
 43
0.0208333333333333
 43
0.0
 43
0.0
 43
0.0
 43
0.0
 43
1.0
 43
0.0
 43
0.0
 43
0.0
 43
0.0
 43
1.0
 77
     0
 78
     2
 47
0.0208333333333333
 47
0.0
 47
0.0
 47
0.0
 47
0.0
 47
0.0208333333333333
 47
0.0
 47
0.0
 47
0.0
 47
0.0
 47
1.0
 47
0.0
 47
0.0
 47
0.0
 47
0.0
 47
1.0
171
     0
172
     2
 49
0.0208333333333333
 49
0.0
 49
0.0
 49
0.0
 49
0.0
 49
0.0208333333333333
 49
0.0
 49
0.0
 49
0.0
 49
0.0
 49
1.0
 49
0.0
 49
0.0
 49
0.0
 49
0.0
 49
1.0
175
     0
176
     2
142
0.0208333333333333
142
0.0
142
0.0
142
0.0
142
0.0
142
0.0208333333333333
142
0.0
142
0.0
142
0.0
142
0.0
142
1.0
142
0.0
142
0.0
142
0.0
142
0.0
142
1.0
179
     0
270
     2
144
0.0208333333333333
144
0.0
144
0.0
144
0.0
144
0.0
144
0.0208333333333333
144
0.0
144
0.0
144
0.0
144
0.0
144
1.0
144
0.0
144
0.0
144
0.0
144
0.0
144
1.0
274
     2
147
0.0208333333333333
147
0.0
147
0.0
147
0.0
147
0.0
147
0.0208333333333333
147
0.0
147
0.0
147
0.0
147
0.0
147
1.0
147
0.0
147
0.0
147
0.0
147
0.0
147
1.0
  0
MATERIAL
  5
7E73
102
{ACAD_REACTORS
330
18C
102
}
102
{ACAD_XDICTIONARY
360
BCA0
102
}
330
18C
100
AcDbMaterial
  1
BYLAYER
 72
     0
 73
     2
 43
0.0208333333333333
 43
0.0
 43
0.0
 43
0.0
 43
0.0
 43
0.0208333333333333
 43
0.0
 43
0.0
 43
0.0
 43
0.0
 43
1.0
 43
0.0
 43
0.0
 43
0.0
 43
0.0
 43
1.0
 77
     0
 78
     2
 47
0.0208333333333333
 47
0.0
 47
0.0
 47
0.0
 47
0.0
 47
0.0208333333333333
 47
0.0
 47
0.0
 47
0.0
 47
0.0
 47
1.0
 47
0.0
 47
0.0
 47
0.0
 47
0.0
 47
1.0
171
     0
172
     2
 49
0.0208333333333333
 49
0.0
 49
0.0
 49
0.0
 49
0.0
 49
0.0208333333333333
 49
0.0
 49
0.0
 49
0.0
 49
0.0
 49
1.0
 49
0.0
 49
0.0
 49
0.0
 49
0.0
 49
1.0
175
     0
176
     2
142
0.0208333333333333
142
0.0
142
0.0
142
0.0
142
0.0
142
0.0208333333333333
142
0.0
142
0.0
142
0.0
142
0.0
142
1.0
142
0.0
142
0.0
142
0.0
142
0.0
142
1.0
179
     0
270
     2
144
0.0208333333333333
144
0.0
144
0.0
144
0.0
144
0.0
144
0.0208333333333333
144
0.0
144
0.0
144
0.0
144
0.0
144
1.0
144
0.0
144
0.0
144
0.0
144
0.0
144
1.0
274
     2
147
0.0208333333333333
147
0.0
147
0.0
147
0.0
147
0.0
147
0.0208333333333333
147
0.0
147
0.0
147
0.0
147
0.0
147
1.0
147
0.0
147
0.0
147
0.0
147
0.0
147
1.0
  0
MATERIAL
  5
7E83
102
{ACAD_REACTORS
330
18C
102
}
102
{ACAD_XDICTIONARY
360
BCA2
102
}
330
18C
100
AcDbMaterial
  1
GLOBAL
 72
     0
 73
     2
 43
0.0208333333333333
 43
0.0
 43
0.0
 43
0.0
 43
0.0
 43
0.0208333333333333
 43
0.0
 43
0.0
 43
0.0
 43
0.0
 43
1.0
 43
0.0
 43
0.0
 43
0.0
 43
0.0
 43
1.0
 77
     0
 78
     2
 47
0.0208333333333333
 47
0.0
 47
0.0
 47
0.0
 47
0.0
 47
0.0208333333333333
 47
0.0
 47
0.0
 47
0.0
 47
0.0
 47
1.0
 47
0.0
 47
0.0
 47
0.0
 47
0.0
 47
1.0
171
     0
172
     2
 49
0.0208333333333333
 49
0.0
 49
0.0
 49
0.0
 49
0.0
 49
0.0208333333333333
 49
0.0
 49
0.0
 49
0.0
 49
0.0
 49
1.0
 49
0.0
 49
0.0
 49
0.0
 49
0.0
 49
1.0
175
     0
176
     2
142
0.0208333333333333
142
0.0
142
0.0
142
0.0
142
0.0
142
0.0208333333333333
142
0.0
142
0.0
142
0.0
142
0.0
142
1.0
142
0.0
142
0.0
142
0.0
142
0.0
142
1.0
179
     0
270
     2
144
0.0208333333333333
144
0.0
144
0.0
144
0.0
144
0.0
144
0.0208333333333333
144
0.0
144
0.0
144
0.0
144
0.0
144
1.0
144
0.0
144
0.0
144
0.0
144
0.0
144
1.0
274
     2
147
0.0208333333333333
147
0.0
147
0.0
147
0.0
147
0.0
147
0.0208333333333333
147
0.0
147
0.0
147
0.0
147
0.0
147
1.0
147
0.0
147
0.0
147
0.0
147
0.0
147
1.0
  0
ACAD_PROXY_OBJECT
  5
7EBF
102
{ACAD_REACTORS
330
7EBE
102
}
330
7EBE
100
AcDbZombieObject
 90
      499
 91
      511
 93
      610
310
40901902A4063FBFFFFFE000000000000002040AD7A3703D0AD73F4214DD185B99185C990000000000000104090141901A00000000000004100000000000000041025764000000000000300FC0
340
12
340
0
340
F
340
0
 94
        0
1001
ACAD_MLEADERVER
1070
     2
  0
MLINESTYLE
  5
1C
102
{ACAD_REACTORS
330
1B
102
}
330
1B
100
AcDbMlineStyle
  2
STANDARD
 70
     0
  3

 62
   256
 51
90.0
 52
90.0
 71
     2
 49
0.5
 62
   256
  6
BYLAYER
 49
-0.5
 62
   256
  6
BYLAYER
  0
ACAD_PROXY_OBJECT
  5
7E9D
102
{ACAD_REACTORS
330
7E9C
102
}
330
7E9C
100
AcDbZombieObject
 90
      499
 91
      510
 93
       41
310
903313A31580
  0
ACAD_PROXY_OBJECT
  5
7E9E
102
{ACAD_REACTORS
330
7E9C
102
}
330
7E9C
100
AcDbZombieObject
 90
      499
 91
      510
 93
      105
310
903313A324000000000000004000
  0
ACAD_PROXY_OBJECT
  5
7E9F
102
{ACAD_REACTORS
330
7E9C
102
}
330
7E9C
100
AcDbZombieObject
 90
      499
 91
      510
 93
      105
310
903313A344000000000000104000
  0
ACAD_PROXY_OBJECT
  5
7EA0
102
{ACAD_REACTORS
330
7E9C
102
}
330
7E9C
100
AcDbZombieObject
 90
      499
 91
      510
 93
      105
310
903313A354000000000000144000
  0
ACAD_PROXY_OBJECT
  5
7EA1
102
{ACAD_REACTORS
330
7E9C
102
}
330
7E9C
100
AcDbZombieObject
 90
      499
 91
      510
 93
      105
310
903313A384000000000000204000
  0
ACAD_PROXY_OBJECT
  5
7EA2
102
{ACAD_REACTORS
330
7E9C
102
}
330
7E9C
100
AcDbZombieObject
 90
      499
 91
      510
 93
      113
310
904313A31304000000000000244000
  0
ACAD_PROXY_OBJECT
  5
7EA3
102
{ACAD_REACTORS
330
7E9C
102
}
330
7E9C
100
AcDbZombieObject
 90
      499
 91
      510
 93
      113
310
904313A31364000000000000304000
  0
ACAD_PROXY_OBJECT
  5
7EA4
102
{ACAD_REACTORS
330
7E9C
102
}
330
7E9C
100
AcDbZombieObject
 90
      499
 91
      510
 93
      113
310
904313A32304000000000000344000
  0
ACAD_PROXY_OBJECT
  5
7EA5
102
{ACAD_REACTORS
330
7E9C
102
}
330
7E9C
100
AcDbZombieObject
 90
      499
 91
      510
 93
      113
310
904313A333040000000000003E4000
  0
ACAD_PROXY_OBJECT
  5
7EA6
102
{ACAD_REACTORS
330
7E9C
102
}
330
7E9C
100
AcDbZombieObject
 90
      499
 91
      510
 93
      113
310
904313A34304000000000000444000
  0
ACAD_PROXY_OBJECT
  5
7EA7
102
{ACAD_REACTORS
330
7E9C
102
}
330
7E9C
100
AcDbZombieObject
 90
      499
 91
      510
 93
      113
310
904313A35304000000000000494000
  0
ACAD_PROXY_OBJECT
  5
7EA8
102
{ACAD_REACTORS
330
7E9C
102
}
330
7E9C
100
AcDbZombieObject
 90
      499
 91
      510
 93
      121
310
905313A3130304000000000000594000
  0
ACAD_PROXY_OBJECT
  5
7EA9
102
{ACAD_REACTORS
330
7E9C
102
}
330
7E9C
100
AcDbZombieObject
 90
      499
 91
      510
 93
      105
310
903323A310000000000000010100
  0
ACAD_PROXY_OBJECT
  5
7EAA
102
{ACAD_REACTORS
330
7E9C
102
}
330
7E9C
100
AcDbZombieObject
 90
      499
 91
      510
 93
      105
310
903343A310000000000000410100
  0
ACAD_PROXY_OBJECT
  5
7EAB
102
{ACAD_REACTORS
330
7E9C
102
}
330
7E9C
100
AcDbZombieObject
 90
      499
 91
      510
 93
      105
310
903383A310000000000000810100
  0
ACAD_PROXY_OBJECT
  5
7EAC
102
{ACAD_REACTORS
330
7E9C
102
}
330
7E9C
100
AcDbZombieObject
 90
      499
 91
      510
 93
      113
310
90431303A310000000000000910100
  0
ACAD_PROXY_OBJECT
  5
7EAD
102
{ACAD_REACTORS
330
7E9C
102
}
330
7E9C
100
AcDbZombieObject
 90
      499
 91
      510
 93
      121
310
9053130303A310000000000001650100
  0
ACAD_PROXY_OBJECT
  5
7EAE
102
{ACAD_REACTORS
330
7E9C
102
}
330
7E9C
100
AcDbZombieObject
 90
      499
 91
      510
 93
      257
310
90E312F31323822203D2031272D3022000000000000200FC000000000000284000
  0
ACAD_PROXY_OBJECT
  5
7EAF
102
{ACAD_REACTORS
330
7E9C
102
}
330
7E9C
100
AcDbZombieObject
 90
      499
 91
      510
 93
      249
310
90D312F363422203D2031272D3022000000000000240FC000000000000284000
  0
ACAD_PROXY_OBJECT
  5
7EB0
102
{ACAD_REACTORS
330
7E9C
102
}
330
7E9C
100
AcDbZombieObject
 90
      499
 91
      510
 93
      249
310
90D312F333222203D2031272D3022000000000000280FC000000000000284000
  0
ACAD_PROXY_OBJECT
  5
7EB1
102
{ACAD_REACTORS
330
7E9C
102
}
330
7E9C
100
AcDbZombieObject
 90
      499
 91
      510
 93
      249
310
90D312F313622203D2031272D30220000000000002C0FC000000000000284000
  0
ACAD_PROXY_OBJECT
  5
7EB2
102
{ACAD_REACTORS
330
7E9C
102
}
330
7E9C
100
AcDbZombieObject
 90
      499
 91
      510
 93
      249
310
90D332F333222203D2031272D30220000000000002E0FC000000000000284000
  0
ACAD_PROXY_OBJECT
  5
7EB3
102
{ACAD_REACTORS
330
7E9C
102
}
330
7E9C
100
AcDbZombieObject
 90
      499
 91
      510
 93
      241
310
90C312F3822203D2031272D3022000000000000300FC000000000000284000
  0
ACAD_PROXY_OBJECT
  5
7EB4
102
{ACAD_REACTORS
330
7E9C
102
}
330
7E9C
100
AcDbZombieObject
 90
      499
 91
      510
 93
      249
310
90D332F313622203D2031272D3022000000000000320FC000000000000284000
  0
ACAD_PROXY_OBJECT
  5
7EB5
102
{ACAD_REACTORS
330
7E9C
102
}
330
7E9C
100
AcDbZombieObject
 90
      499
 91
      510
 93
      241
310
90C312F3422203D2031272D3022000000000000340FC000000000000284000
  0
ACAD_PROXY_OBJECT
  5
7EB6
102
{ACAD_REACTORS
330
7E9C
102
}
330
7E9C
100
AcDbZombieObject
 90
      499
 91
      510
 93
      241
310
90C332F3822203D2031272D3022000000000000360FC000000000000284000
  0
ACAD_PROXY_OBJECT
  5
7EB7
102
{ACAD_REACTORS
330
7E9C
102
}
330
7E9C
100
AcDbZombieObject
 90
      499
 91
      510
 93
      241
310
90C312F3222203D2031272D3022000000000000380FC000000000000284000
  0
ACAD_PROXY_OBJECT
  5
7EB8
102
{ACAD_REACTORS
330
7E9C
102
}
330
7E9C
100
AcDbZombieObject
 90
      499
 91
      510
 93
      241
310
90C332F3422203D2031272D30220000000000003A0FC000000000000284000
  0
ACAD_PROXY_OBJECT
  5
7EB9
102
{ACAD_REACTORS
330
7E9C
102
}
330
7E9C
100
AcDbZombieObject
 90
      499
 91
      510
 93
      161
310
90A3122203D2031272D30224000000000000284000
  0
ACAD_PROXY_OBJECT
  5
7EBA
102
{ACAD_REACTORS
330
7E9C
102
}
330
7E9C
100
AcDbZombieObject
 90
      499
 91
      510
 93
      257
310
90E312D312F3222203D2031272D30220000000000003E0FC000000000000284000
  0
ACAD_PROXY_OBJECT
  5
7EBB
102
{ACAD_REACTORS
330
7E9C
102
}
330
7E9C
100
AcDbZombieObject
 90
      499
 91
      510
 93
      225
310
90A3322203D2031272D302200000000000002100000000000000284000
  0
ACAD_PROXY_OBJECT
  5
7EBC
102
{ACAD_REACTORS
330
7E9C
102
}
330
7E9C
100
AcDbZombieObject
 90
      499
 91
      510
 93
      225
310
90A3622203D2031272D302200000000000006100000000000000284000
  0
ACAD_PROXY_OBJECT
  5
7EBD
102
{ACAD_REACTORS
330
7E9C
102
}
330
7E9C
100
AcDbZombieObject
 90
      499
 91
      510
 93
      249
310
90D31272D3022203D2031272D30220000000000000A100000000000000284000
  0
ACAD_PROXY_OBJECT
  5
7E91
102
{ACAD_REACTORS
330
7E8B
102
}
330
7E8B
100
AcDbZombieObject
 90
      499
 91
      509
 93
      436
310
42CC9915DA5C99599C985B595049028333333333333E3BF0000000000000FB0107901411070040501600405405064090741402480A0340
1001
ACAD
1000
AcDbSavedByObjectVersion
1070
     0
  0
ACAD_PROXY_OBJECT
  5
7E93
102
{ACAD_REACTORS
330
7E8B
102
}
330
7E8B
100
AcDbZombieObject
 90
      499
 91
      509
 93
      500
310
424CD108121A5919195B90640502408333333333333E3BF0000000000000FB01079024090700405020000000000001110200405405064090740C02480A0340
1001
ACAD
1000
AcDbSavedByObjectVersion
1070
     0
  0
ACAD_PROXY_OBJECT
  5
7E92
102
{ACAD_REACTORS
330
7E8B
102
}
330
7E8B
100
AcDbZombieObject
 90
      499
 91
      509
 93
      436
310
42CCD915DA5C99599C985B595059028333333333333E3BF0000000000000FB0107901411070040501600405405064090741402480A0340
1001
ACAD
1000
AcDbSavedByObjectVersion
1070
     0
  0
ACAD_PROXY_OBJECT
  5
7E90
102
{ACAD_REACTORS
330
7E8B
102
}
330
7E8B
100
AcDbZombieObject
 90
      499
 91
      509
 93
      388
310
4150985CDA58D07406404333333333333E3BF0000000000000FB0107A41107004050150841D405064090741402480A0350
1001
ACAD
1000
AcDbSavedByObjectVersion
1070
     0
  0
ACAD_PROXY_OBJECT
  5
7E97
102
{ACAD_REACTORS
330
7E8B
102
}
330
7E8B
100
AcDbZombieObject
 90
      499
 91
      509
 93
      428
310
42109C9A59DA1D195B90C409028333333333333E3BF0000000000000FB010790141107004050150841D405064090741402480A029950
1001
ACAD
1000
AcDbSavedByObjectVersion
1070
     0
  0
ACAD_PROXY_OBJECT
  5
7E9B
102
{ACAD_REACTORS
330
7E8B
102
}
330
7E8B
100
AcDbZombieObject
 90
      499
 91
      509
 93
      452
310
42D0DBDB1BDC90DA185B99D95104090240C333333333333E3BF0000000000000FB0108901411070040501508421405064090741402480A0350
1001
ACAD
1000
AcDbSavedByObjectVersion
1070
     0
  0
ACAD_PROXY_OBJECT
  5
7E94
102
{ACAD_REACTORS
330
7E8B
102
}
330
7E8B
100
AcDbZombieObject
 90
      499
 91
      509
 93
      500
310
4290DBDB98D95C1D1D585B10940D028333333333333E3BF0000000000000FB0107902409070040501000000000000111010841D405064090740C02480A0340
1001
ACAD
1000
AcDbSavedByObjectVersion
1070
     0
  0
ACAD_PROXY_OBJECT
  5
7E96
102
{ACAD_REACTORS
330
7E8B
102
}
330
7E8B
100
AcDbZombieObject
 90
      499
 91
      509
 93
      412
310
40D11A5B50B409028333333333333E3BF0000000000000FB010790141107004050150841D405064090741402480A02677FFFFFD0
1001
ACAD
1000
AcDbSavedByObjectVersion
1070
     0
  0
ACAD_PROXY_OBJECT
  5
90DF
102
{ACAD_REACTORS
330
7E8B
102
}
330
7E8B
100
AcDbZombieObject
 90
      499
 91
      509
 93
      452
310
43115919D950DBDB1BDC93D999916409028333333333333E3BF0000000000000FB010790141107004050150841D405064090741402480A0350
1001
ACAD
1000
AcDbSavedByObjectVersion
1070
     0
  0
ACAD_PROXY_OBJECT
  5
7E9A
102
{ACAD_REACTORS
330
7E8B
102
}
330
7E8B
100
AcDbZombieObject
 90
      499
 91
      509
 93
      444
310
42D19858D95C185D1D195C9B90F409028333333333333E3BF0000000000000FB010790141107004050150841D405064090741402480A0350
1001
ACAD
1000
AcDbSavedByObjectVersion
1070
     0
  0
ACAD_PROXY_OBJECT
  5
7E8C
102
{ACAD_REACTORS
330
7E8B
102
}
330
7E8B
100
AcDbZombieObject
 90
      499
 91
      509
 93
      388
310
41119B185D240901404333333333333E3BF0000000000000F9010740A41107004050150841D405064090741402480A1B50
1001
ACAD
1000
AcDbSavedByObjectVersion
1070
     0
  0
ACAD_PROXY_OBJECT
  5
7E8D
102
{ACAD_REACTORS
330
7E8B
102
}
330
7E8B
100
AcDbZombieObject
 90
      499
 91
      509
 93
      476
310
43519B185D15DA5D1A115919D95CD0140901404333333333333E3BF0000000000000F9010740901411070040501600405405064090741402480A1B50
1001
ACAD
1000
AcDbSavedByObjectVersion
1070
     0
  0
ACAD_PROXY_OBJECT
  5
7E8E
102
{ACAD_REACTORS
330
7E8B
102
}
330
7E8B
100
AcDbZombieObject
 90
      499
 91
      509
 93
      412
310
41D1DBDD5C985D5910240902404333333333333E3BF0000000000000F9010740A411070040501641D405064090741402480A1B50
1001
ACAD
1000
AcDbSavedByObjectVersion
1070
     0
  0
ACAD_PROXY_OBJECT
  5
7E8F
102
{ACAD_REACTORS
330
7E8B
102
}
330
7E8B
100
AcDbZombieObject
 90
      499
 91
      509
 93
      500
310
4411DBDD5C985D5915DA5D1A115919D95CD0340902404333333333333E3BF0000000000000F9010740901411070040501600405405064090741402480A1B50
1001
ACAD
1000
AcDbSavedByObjectVersion
1070
     0
  0
ACAD_PROXY_OBJECT
  5
90D7
102
{ACAD_REACTORS
330
7E8B
102
}
330
7E8B
100
AcDbZombieObject
 90
      499
 91
      509
 93
      476
310
41921A5919195B90640502408333333333333E3BF0000000000000FB01079024090700405020000000000001110200405405064090740C02480A0340
1001
ACAD
1000
AcDbSavedByObjectVersion
1070
     0
  0
ACAD_PROXY_OBJECT
  5
90DD
102
{ACAD_REACTORS
330
7E8B
102
}
330
7E8B
100
AcDbZombieObject
 90
      499
 91
      509
 93
      428
310
42529A5D1D195C93D999914409028333333333333E3BF0000000000000FB010790141107004050150A41D405064090741402480A0350
1001
ACAD
1000
AcDbSavedByObjectVersion
1070
     0
  0
ACAD_PROXY_OBJECT
  5
7E99
102
{ACAD_REACTORS
330
7E8B
102
}
330
7E8B
100
AcDbZombieObject
 90
      499
 91
      509
 93
      444
310
42D31A5B995C185D1D195C9B90E409028333333333333E3BF0000000000000FB010790141107004050750841D405064090741402483A0350
1001
ACAD
1000
AcDbSavedByObjectVersion
1070
     0
  0
ACAD_PROXY_OBJECT
  5
AF4A
102
{ACAD_REACTORS
330
7E8B
102
}
330
7E8B
100
AcDbZombieObject
 90
      499
 91
      509
 93
      484
310
42135BD9195B1A5B99D0A409038333333333333E33F0000000000000F901074090290700405010000000000201990108421405064090741402480A1B40
1001
ACAD
1000
AcDbSavedByObjectVersion
1070
     0
  0
ACAD_PROXY_OBJECT
  5
90DE
102
{ACAD_REACTORS
330
7E8B
102
}
330
7E8B
100
AcDbZombieObject
 90
      499
 91
      509
 93
      444
310
42D3DD995C9A185B99D3D999915409028333333333333E3BF0000000000000FB010790141107004050150941D405064090741402480A0350
1001
ACAD
1000
AcDbSavedByObjectVersion
1070
     0
  0
ACAD_PROXY_OBJECT
  5
7E95
102
{ACAD_REACTORS
330
7E8B
102
}
330
7E8B
100
AcDbZombieObject
 90
      499
 91
      509
 93
      420
310
425499585B1A5CDD1A58D08409028333333333333E3BF0000000000000FB01079019070040501508421405064090741402480A1B40
1001
ACAD
1000
AcDbSavedByObjectVersion
1070
     0
  0
ACAD_PROXY_OBJECT
  5
90DC
102
{ACAD_REACTORS
330
7E8B
102
}
330
7E8B
100
AcDbZombieObject
 90
      499
 91
      509
 93
      420
310
4194DA1859195911B40902404333333333333E3BF0000000000000F9010740A41107004050150800405405064090840C02480A0B40
1001
ACAD
1000
AcDbSavedByObjectVersion
1070
     0
  0
ACAD_PROXY_OBJECT
  5
90DB
102
{ACAD_REACTORS
330
7E8B
102
}
330
7E8B
100
AcDbZombieObject
 90
      499
 91
      509
 93
      516
310
4454DA18591959081DDA5D1A08195919D95CD1A40902404333333333333E3BF0000000000000F901074090142907004050250800405405064090740C02480A0B40
1001
ACAD
1000
AcDbSavedByObjectVersion
1070
     0
  0
ACAD_PROXY_OBJECT
  5
90D8
102
{ACAD_REACTORS
330
7E8B
102
}
330
7E8B
100
AcDbZombieObject
 90
      499
 91
      509
 93
      532
310
4394DA1859195CC81BD98811DC985E5174090240C333333333333E3BF0000000000000FB01079024090741D01000000000000111010841D405064090740C02480A0340
1001
ACAD
1000
AcDbSavedByObjectVersion
1070
     0
  0
ACAD_PROXY_OBJECT
  5
90D9
102
{ACAD_REACTORS
330
7E8B
102
}
330
7E8B
100
AcDbZombieObject
 90
      499
 91
      509
 93
      476
310
41D4DAD95D18DA1E51840502408333333333333E3BF0000000000000FB01079024090741D01000000000000111010B41D405064090741802480A0340
1001
ACAD
1000
AcDbSavedByObjectVersion
1070
     0
  0
ACAD_PROXY_OBJECT
  5
7E98
102
{ACAD_REACTORS
330
7E8B
102
}
330
7E8B
100
AcDbZombieObject
 90
      499
 91
      509
 93
      412
310
41D51A1A58DAD95B90D409028333333333333E3BF0000000000000FB010790141107004050150C41D405064090741402480A0350
1001
ACAD
1000
AcDbSavedByObjectVersion
1070
     0
  0
ACAD_PROXY_OBJECT
  5
90D6
102
{ACAD_REACTORS
330
7E8B
102
}
330
7E8B
100
AcDbZombieObject
 90
      499
 91
      509
 93
      420
310
4255DA5C99599C985B595059028333333333333E3BF0000000000000FB0107901411070040501600405405064090740C02480A0340
1001
ACAD
1000
AcDbSavedByObjectVersion
1070
     0
  0
ACAD_PROXY_OBJECT
  5
90DA
102
{ACAD_REACTORS
330
7E8B
102
}
330
7E8B
100
AcDbZombieObject
 90
      499
 91
      509
 93
      404
310
41560B54985E51940902404000000000000E03F0000000000000FB010740501907004050150841D405064090740C02480A1B40
1001
ACAD
1000
AcDbSavedByObjectVersion
1070
     0
  0
XRECORD
  5
BB01
102
{ACAD_REACTORS
330
BB00
102
}
330
BB00
100
AcDbXrecord
340
18D
  0
XRECORD
  5
BB02
102
{ACAD_REACTORS
330
BB00
102
}
330
BB00
100
AcDbXrecord
340
18C
  0
DICTIONARYVAR
  5
8DC3
102
{ACAD_REACTORS
330
37
102
}
330
37
100
DictionaryVariables
280
     0
  1
1:1
  0
DICTIONARYVAR
  5
8DC2
102
{ACAD_REACTORS
330
37
102
}
330
37
100
DictionaryVariables
280
     0
  1
Standard
  0
DICTIONARYVAR
  5
29E
102
{ACAD_REACTORS
330
37
102
}
330
37
100
DictionaryVariables
280
     0
  1
Standard
  0
DICTIONARYVAR
  5
38
102
{ACAD_REACTORS
330
37
102
}
330
37
100
DictionaryVariables
280
     0
  1
-1
  0
DICTIONARYVAR
  5
1CE
102
{ACAD_REACTORS
330
37
102
}
330
37
100
DictionaryVariables
280
     0
  1
2
  0
DICTIONARYVAR
  5
5F5B
102
{ACAD_REACTORS
330
37
102
}
330
37
100
DictionaryVariables
280
     0
  1
1
  0
DICTIONARYVAR
  5
8DC5
102
{ACAD_REACTORS
330
37
102
}
330
37
100
DictionaryVariables
280
     0
  1
0
  0
DICTIONARYVAR
  5
5F5F
102
{ACAD_REACTORS
330
37
102
}
330
37
100
DictionaryVariables
280
     0
  1
8
  0
DICTIONARYVAR
  5
5F5E
102
{ACAD_REACTORS
330
37
102
}
330
37
100
DictionaryVariables
280
     0
  1
1
  0
DICTIONARYVAR
  5
B7F4
102
{ACAD_REACTORS
330
37
102
}
330
37
100
DictionaryVariables
280
     0
  1
0
  0
DICTIONARYVAR
  5
5F5C
102
{ACAD_REACTORS
330
37
102
}
330
37
100
DictionaryVariables
280
     0
  1
8
  0
DICTIONARYVAR
  5
5F5D
102
{ACAD_REACTORS
330
37
102
}
330
37
100
DictionaryVariables
280
     0
  1
2
  0
DICTIONARYVAR
  5
1CF
102
{ACAD_REACTORS
330
37
102
}
330
37
100
DictionaryVariables
280
     0
  1

  0
DICTIONARYVAR
  5
8DC4
102
{ACAD_REACTORS
330
37
102
}
330
37
100
DictionaryVariables
280
     0
  1
127
  0
DICTIONARYVAR
  5
AF49
102
{ACAD_REACTORS
330
37
102
}
330
37
100
DictionaryVariables
280
     0
  1
2
  0
ACAD_PROXY_OBJECT
  5
A1C4
102
{ACAD_REACTORS
330
887
102
}
102
{ACAD_XDICTIONARY
360
A1C5
102
}
330
887
100
AcDbZombieObject
 90
      499
 91
      514
 93
    11762
310
2E81400016C005C080000B404000098880400B804100098C51125352804467C000000000001680020000000F8037401C80448012C045000000000000000040018009A41197CC8C8C6E004000000012806BE44000000000001680020000000F8012801C807F7FD2C045000000000000000040014009A41197CDCD2E00400000
310
0012806BA44000000000001680020000000F8000401C807F7FD2C045000000000000000040010009A41197CC6E004000000012806B244000000000001680020000000F8000C01C80478012C045000000000000000040010009A41197CCEE004000000012806AA44000000000001680020000000F8023C01C80478012C04500
310
0000000000000040018009A41197CC4D0CEE004000000012806A244000000000001680020000000F8001801C80478012C045000000000000000040010009A41197CDAE0040000000128069A44000000000001680020000000F8001401C80478012C045000000000000000040010009A41197CD6E0040000000128069244000
310
000000001680020000000F8000801C80478012C045000000000000000040010009A41197CCAE0040000000128079240000000000001680020000000F8037401C807F7FD2C05A800000000000000040018009A41197CC8C8C6E00400000001280421E8000000000001680020000000F8002001C80448012C041DE8000000000
310
000040010009A41197CE2E0040000000128040588000000000001680020000000F8001001C80478012C045000000000000000040010009A41197CD2E0040000000128040188000000000001680020000000F8017C01C80478012C045000000000000000040014009A41197CE4D6E004000000012807FD84000000000001680
310
020000000F8037401C80448012C045000000000000000040018009A41197CC8C8C6E004000000012807F984000000000001680020000000F8002001C80448012C045000000000000000040010009A41197CE2E004000000012807F584000000000001680020000000F8001C01C807F7FD2C045000000000000000040010009
310
A41197CDEE0040000000128042170000000000001680020000000F8000401C80478012C045000000000000000040010009A41197CC6E004000000012807B408000000000001680020000000F8001C01C807F7FD2C045000000000000000040010009A41197CDEE004000000012807B008000000000001680020000000F8037
310
401C807F7FD2C07BC08000000000000040018009A41197CC8C8C6E004000000012807AC08000000000001680020000000F8001C01C807F7FD2C045000000000000000040010009A41197CDEE004000000012807A808000000000001680020000000F803F001C807F7FD2C045000000000000000040018009A41197CC8D4CAE
310
004000000012805C008000000000001680000000000F8001C01C807F7FD2C045000000000000000040010009A41197CDEE0040000000128055008000000000001680020000000F803F801C80434012C050808000000000000040018009A41197CC8D4D2E0040000000128054808000000000001680020000000F8002001C80
310
448012C045000000000000000040010009A41197CE2E0040000000128053808000000000001680020000000F8002001C80448012C045000000000000000040010009A41197CE2E004000000012804D000000000000001680020000000F803F401C80434012C045000000000000000040018009A41197CC8D4CEE0040000000
310
12804CC00000000000001680024000000F8000401C807F7FD2C045000000000000000040010009A41197CC6E004000000012804C400000000000001680020000000F8032401C80464012C045000000000000000040018009A41197CC8C0C6E004000000012804A400000000000001680020000000F8037401C80448012C045
310
000000000000000040018009A41197CC8C8C6E0040000000128043800000000000001680020000000F8001C01C80478012C045000000000000000040010009A41197CDEE004000000000
  0
DICTIONARY
  5
BC9E
330
7E7B
100
AcDbDictionary
  3
ACAD_XREC_ROUNDTRIP
360
BC9F
1001
ACAD
1000
TREAT_AS_HARD
1070
     1
  0
DICTIONARY
  5
BCA0
330
7E73
100
AcDbDictionary
  3
ACAD_XREC_ROUNDTRIP
360
BCA1
1001
ACAD
1000
TREAT_AS_HARD
1070
     1
  0
DICTIONARY
  5
BCA2
330
7E83
100
AcDbDictionary
  3
ACAD_XREC_ROUNDTRIP
360
BCA3
1001
ACAD
1000
TREAT_AS_HARD
1070
     1
  0
DICTIONARY
  5
A1C5
330
A1C4
100
AcDbDictionary
  3
ACADLAYERSTATEANNOSCALE
360
A1C6
1001
ACAD
1000
TREAT_AS_HARD
1070
     1
  0
XRECORD
  5
BC9F
102
{ACAD_REACTORS
330
BC9E
102
}
330
BC9E
100
AcDbXrecord
102
MATERIAL
148
0.0
149
0.0
149
0.0
 93
        0
 94
      127
282
     0
 72
     0
 77
     0
171
     0
175
     0
179
     0
273
     0
  0
XRECORD
  5
BCA1
102
{ACAD_REACTORS
330
BCA0
102
}
330
BCA0
100
AcDbXrecord
102
MATERIAL
148
0.0
149
0.0
149
0.0
 93
        0
 94
      127
282
     0
 72
     0
 77
     0
171
     0
175
     0
179
     0
273
     0
  0
XRECORD
  5
BCA3
102
{ACAD_REACTORS
330
BCA2
102
}
330
BCA2
100
AcDbXrecord
102
MATERIAL
148
0.0
149
0.0
149
0.0
 93
        0
 94
      127
282
     0
 72
     0
 77
     0
171
     0
175
     0
179
     0
273
     0
  0
XRECORD
  5
A1C6
102
{ACAD_REACTORS
330
A1C5
102
}
330
A1C5
100
AcDbXrecord
330
7E9D
  0
ENDSEC
  0
EOF
