  0
SECTION
  2
HEADER
  9
$ACADVER
  1
AC1009
  9
$INSBASE
 10
0.0
 20
0.0
 30
0.0
  9
$EXTMIN
 10
2987.0827430917279
 20
-325.0892262270545
 30
0.0
  9
$EXTMAX
 10
4436.4926117636669
 20
888.95375611613576
 30
0.0
  9
$LIMMIN
 10
0.0
 20
0.0
  9
$LIMMAX
 10
420.0
 20
297.0
  9
$ORTHOMODE
 70
     0
  9
$REGENMODE
 70
     1
  9
$FILLMODE
 70
     1
  9
$QTEXTMODE
 70
     0
  9
$MIRRTEXT
 70
     1
  9
$DRAGMODE
 70
     2
  9
$LTSCALE
 40
0.5
  9
$OSMODE
 70
  2175
  9
$ATTMODE
 70
     1
  9
$TEXTSIZE
 40
4.0
  9
$TRACEWID
 40
1.0
  9
$TEXTSTYLE
  7
STANDARD
  9
$CLAYER
  8
1TEXT
  9
$CELTYPE
  6
BYLAYER
  9
$CECOLOR
 62
   256
  9
$DIMSCALE
 40
3.0
  9
$DIMASZ
 40
2.0
  9
$DIMEXO
 40
0.0
  9
$DIMDLI
 40
7.0
  9
$DIMRND
 40
0.0
  9
$DIMDLE
 40
0.0
  9
$DIMEXE
 40
1.0
  9
$DIMTP
 40
0.0
  9
$DIMTM
 40
0.0
  9
$DIMTXT
 40
3.5
  9
$DIMCEN
 40
0.0
  9
$DIMTSZ
 40
0.0
  9
$DIMTOL
 70
     0
  9
$DIMLIM
 70
     0
  9
$DIMTIH
 70
     0
  9
$DIMTOH
 70
     0
  9
$DIMSE1
 70
     0
  9
$DIMSE2
 70
     0
  9
$DIMTAD
 70
     1
  9
$DIMZIN
 70
     8
  9
$DIMBLK
  1

  9
$DIMASO
 70
     1
  9
$DIMSHO
 70
     1
  9
$DIMPOST
  1
 
  9
$DIMAPOST
  1

  9
$DIMALT
 70
     0
  9
$DIMALTD
 70
     2
  9
$DIMALTF
 40
25.399999999999999
  9
$DIMLFAC
 40
1.0
  9
$DIMTOFL
 70
     1
  9
$DIMTVP
 40
0.0
  9
$DIMTIX
 70
     0
  9
$DIMSOXD
 70
     0
  9
$DIMSAH
 70
     1
  9
$DIMBLK1
  1
OPEN30
  9
$DIMBLK2
  1
OPEN30
  9
$DIMSTYLE
  2
NEWX10
  9
$DIMCLRD
 70
   256
  9
$DIMCLRE
 70
   256
  9
$DIMCLRT
 70
   201
  9
$DIMTFAC
 40
0.7
  9
$DIMGAP
 40
0.7
  9
$LUNITS
 70
     2
  9
$LUPREC
 70
     4
  9
$SKETCHINC
 40
1.0
  9
$FILLETRAD
 40
0.0
  9
$AUNITS
 70
     0
  9
$AUPREC
 70
     2
  9
$MENU
  1
acad
  9
$ELEVATION
 40
0.0
  9
$PELEVATION
 40
0.0
  9
$THICKNESS
 40
0.0
  9
$LIMCHECK
 70
     0
  9
$BLIPMODE
 70
     0
  9
$CHAMFERA
 40
10.0
  9
$CHAMFERB
 40
10.0
  9
$SKPOLY
 70
     0
  9
$TDCREATE
 40
2451318.621352917
  9
$TDUPDATE
 40
2456045.6749086692
  9
$TDINDWG
 40
0.2976237963
  9
$TDUSRTIMER
 40
0.2976237963
  9
$USRTIMER
 70
     1
  9
$ANGBASE
 50
0.0
  9
$ANGDIR
 70
     0
  9
$PDMODE
 70
     0
  9
$PDSIZE
 40
0.0
  9
$PLINEWID
 40
0.0
  9
$COORDS
 70
     2
  9
$SPLFRAME
 70
     0
  9
$SPLINETYPE
 70
     6
  9
$SPLINESEGS
 70
     8
  9
$ATTDIA
 70
     0
  9
$ATTREQ
 70
     1
  9
$HANDLING
 70
     1
  9
$HANDSEED
  5
79BB
  9
$SURFTAB1
 70
     6
  9
$SURFTAB2
 70
     6
  9
$SURFTYPE
 70
     6
  9
$SURFU
 70
     6
  9
$SURFV
 70
     6
  9
$UCSNAME
  2

  9
$UCSORG
 10
0.0
 20
0.0
 30
0.0
  9
$UCSXDIR
 10
1.0
 20
0.0
 30
0.0
  9
$UCSYDIR
 10
0.0
 20
1.0
 30
0.0
  9
$PUCSNAME
  2

  9
$PUCSORG
 10
0.0
 20
0.0
 30
0.0
  9
$PUCSXDIR
 10
1.0
 20
0.0
 30
0.0
  9
$PUCSYDIR
 10
0.0
 20
1.0
 30
0.0
  9
$USERI1
 70
     0
  9
$USERI2
 70
     0
  9
$USERI3
 70
     0
  9
$USERI4
 70
     0
  9
$USERI5
 70
     0
  9
$USERR1
 40
0.0
  9
$USERR2
 40
0.0
  9
$USERR3
 40
0.0
  9
$USERR4
 40
0.0
  9
$USERR5
 40
0.0
  9
$WORLDVIEW
 70
     1
  9
$SHADEDGE
 70
     3
  9
$SHADEDIF
 70
    70
  9
$TILEMODE
 70
     1
  9
$MAXACTVP
 70
    48
  9
$PLIMCHECK
 70
     0
  9
$PEXTMIN
 10
1.0000000000000000E+020
 20
1.0000000000000000E+020
 30
1.0000000000000000E+020
  9
$PEXTMAX
 10
-1.0000000000000000E+020
 20
-1.0000000000000000E+020
 30
-1.0000000000000000E+020
  9
$PLIMMIN
 10
0.0
 20
0.0
  9
$PLIMMAX
 10
420.0
 20
297.0
  9
$UNITMODE
 70
     0
  9
$VISRETAIN
 70
     1
  9
$PLINEGEN
 70
     0
  9
$PSLTSCALE
 70
     1
  0
ENDSEC
  0
SECTION
  2
TABLES
  0
TABLE
  2
VPORT
 70
     1
  0
VPORT
  2
*ACTIVE
 70
     0
 10
0.0
 20
0.0
 11
1.0
 21
1.0
 12
3711.8692846300032
 22
281.93226777120481
 13
0.0
 23
0.0
 14
10.0
 24
10.0
 15
10.0
 25
10.0
 16
0.0
 26
0.0
 36
1.0
 17
0.0
 27
0.0
 37
0.0
 40
1288.081114386564
 41
1.4848883048620229
 42
50.0
 43
0.0
 44
0.0
 50
0.0
 51
0.0
 71
     0
 72
  1000
 73
     1
 74
     1
 75
     0
 76
     0
 77
     0
 78
     0
  0
ENDTAB
  0
TABLE
  2
LTYPE
 70
    14
  0
LTYPE
  2
CONTINUOUS
 70
     0
  3
Solid line
 72
    65
 73
     0
 40
0.0
  0
LTYPE
  2
XREF1|CENTER2
 70
    48
  3
Center (.5x) ___ _ ___ _ ___ _ ___ _ ___ _ ___
 72
    65
 73
     4
 40
28.574999999999999
 49
19.050000000000001
 49
-3.1749999999999989
 49
3.1749999999999989
 49
-3.1749999999999989
  0
LTYPE
  2
PHANTOM2
 70
     0
  3
Phantom (.5x) ___ _ _ ___ _ _ ___ _ _ ___ _ _
 72
    65
 73
     6
 40
31.75
 49
15.875
 49
-3.1749999999999989
 49
3.1749999999999989
 49
-3.1749999999999989
 49
3.1749999999999989
 49
-3.1749999999999989
  0
LTYPE
  2
A3WAKUDAKE|CENTER2
 70
    48
  3
Center (.5x) ___ _ ___ _ ___ _ ___ _ ___ _ ___
 72
    65
 73
     4
 40
28.574999999999999
 49
19.050000000000001
 49
-3.1749999999999989
 49
3.1749999999999989
 49
-3.1749999999999989
  0
LTYPE
  2
CENTER2
 70
     0
  3
Center (.5x) ___ _ ___ _ ___ _ ___ _ ___ _ ___
 72
    65
 73
     4
 40
28.574999999999999
 49
19.050000000000001
 49
-3.1749999999999989
 49
3.1749999999999989
 49
-3.1749999999999989
  0
ENDTAB
  0
TABLE
  2
LAYER
 70
    43
  0
LAYER
  2
0
 70
     0
 62
     7
  6
CONTINUOUS
  0
LAYER
  2
1CENTER
 70
     0
 62
     7
  6
CENTER2
  0
LAYER
  2
1TEXT
 70
     0
 62
     7
  6
CONTINUOUS
  0
LAYER
  2
1DIM
 70
     0
 62
     7
  6
CONTINUOUS
  0
LAYER
  2
1HATCH
 70
     0
 62
     7
  6
CONTINUOUS
  0
LAYER
  2
1PHANTOM
 70
     0
 62
     7
  6
PHANTOM2
  0
LAYER
  2
A3WAKUDAKE|THICK
 70
    48
 62
     7
  6
CONTINUOUS
  0
LAYER
  2
A3WAKUDAKE|POINT
 70
    48
 62
     7
  6
CONTINUOUS
  0
LAYER
  2
A3WAKUDAKE|1CENTER
 70
    48
 62
     7
  6
A3WAKUDAKE|CENTER2
  0
LAYER
  2
A3WAKUDAKE|0-6
 70
    48
 62
     7
  6
CONTINUOUS
  0
LAYER
  2
01
 70
     0
 62
     1
  6
CONTINUOUS
  0
LAYER
  2
A3WAKUDAKE|1DIM
 70
    48
 62
     7
  6
CONTINUOUS
  0
LAYER
  2
XREF1|1CENTER
 70
    48
 62
     7
  6
XREF1|CENTER2
  0
ENDTAB
  0
TABLE
  2
STYLE
 70
    21
  0
STYLE
  2
STANDARD
 70
     0
 40
0.0
 41
1.0
 50
0.0
 71
     0
 42
4.0
  3
txt.shx
  4
extfont.shx
  0
ENDTAB
  0
TABLE
  2
VIEW
 70
     5
  0
ENDTAB
  0
TABLE
  2
UCS
 70
     0
  0
ENDTAB
  0
TABLE
  2
APPID
 70
    12
  0
APPID
  2
ACAD
 70
     0
  0
APPID
  2
DRAWINGVARIABLESXDATA
 70
     0
  0
APPID
  2
CONTENTTABDATA
 70
     0
  0
APPID
  2
CONTENTCURRENTTAB
 70
     0
  0
APPID
  2
CONTENTBLOCKDESCRIPTION
 70
     0
  0
APPID
  2
CONTENTBLOCKICON
 70
     0
  0
APPID
  2
CONTENTLONGBLOCKNAME
 70
     0
  0
APPID
  2
ACAD_PSEXT
 70
     0
  0
APPID
  2
ACAECLAYERSTANDARD
 70
     0
  0
APPID
  2
ACAD_MLEADERVER
 70
     0
  0
APPID
  2
ACAD_DSTYLE_DIMJOGGED_JOGA
 70
     0
  0
APPID
  2
ACAD_DSTYLE_DIMRADIAL_EXTENSION
 70
     0
  0
ENDTAB
  0
TABLE
  2
DIMSTYLE
 70
     7
  0
DIMSTYLE
  2
NEWX10
 70
     0
  3
 
  4

  5

  6
OPEN30
  7
OPEN30
 40
1.0
 41
2.0
 42
0.0
 43
7.0
 44
1.0
 45
0.0
 46
0.0
 47
0.0
 48
0.0
140
3.5
141
0.0
142
0.0
143
25.399999999999999
144
1.0
145
0.0
146
0.7
147
0.7
 71
     0
 72
     0
 73
     0
 74
     0
 75
     0
 76
     0
 77
     1
 78
     8
170
     0
171
     2
172
     1
173
     1
174
     0
175
     0
176
   256
177
   256
178
   201
  0
ENDTAB
  0
ENDSEC
  0
SECTION
  2
BLOCKS
  0
BLOCK
  8
0
  2
$MODEL_SPACE
 70
     0
 10
0.0
 20
0.0
 30
0.0
  3
$MODEL_SPACE
  1

  0
ENDBLK
  5
1A
  8
0
  0
BLOCK
 67
     1
  8
0
  2
$PAPER_SPACE
 70
     0
 10
0.0
 20
0.0
 30
0.0
  3
$PAPER_SPACE
  1

  0
ENDBLK
  5
17
 67
     1
  8
0
  0
BLOCK
  8
0
  2
_OPEN30
 70
     0
 10
0.0
 20
0.0
 30
0.0
  3
_OPEN30
  1

  0
LINE
  5
44
  8
0
  6
BYBLOCK
 62
     0
 10
-1.0
 20
0.26794919
 30
0.0
 11
0.0
 21
0.0
 31
0.0
  0
LINE
  5
45
  8
0
  6
BYBLOCK
 62
     0
 10
0.0
 20
0.0
 30
0.0
 11
-1.0
 21
-0.26794919
 31
0.0
  0
LINE
  5
46
  8
0
  6
BYBLOCK
 62
     0
 10
0.0
 20
0.0
 30
0.0
 11
-1.0
 21
0.0
 31
0.0
  0
ENDBLK
  5
47
  8
0
  0
BLOCK
  8
0
  2
XREF1
 70
    36
 10
0.0
 20
0.0
 30
0.0
  3
XREF1
  1
D:\ACLT\FORMAT\KAWAJUN(9)図面用.dwg
  0
ENDBLK
  5
5D
  8
0
  0
BLOCK
  8
0
  2
A3WAKUDAKE
 70
    36
 10
0.0
 20
0.0
 30
0.0
  3
A3WAKUDAKE
  1
D:\ACLT\FORMAT\A3WAKUdake.dwg
  0
ENDBLK
  5
2E9
  8
0
  0
ENDSEC
  0
SECTION
  2
ENTITIES
  0
LINE
  5
4A18
  8
1HATCH
 10
4161.5497021748079
 20
428.47981031032913
 30
0.0
 11
4161.5497021748079
 21
478.4798103103289
 31
0.0
  0
LINE
  5
4A19
  8
1HATCH
 10
4161.5497021745387
 20
-251.5201896896707
 30
0.0
 11
4161.5497021745387
 21
-301.5201896896707
 31
0.0
  0
LINE
  5
4A1A
  8
1HATCH
 10
4161.5497021748079
 20
428.47981031032913
 30
0.0
 11
4231.5497021748088
 21
428.4798103103293
 31
0.0
  0
LINE
  5
4A1B
  8
1HATCH
 10
4161.5497021745387
 20
-251.5201896896707
 30
0.0
 11
4231.5497021745387
 21
-251.5201896896707
 31
0.0
  0
LINE
  5
4A1C
  8
1HATCH
 10
4261.5497021748361
 20
499.0804998976472
 30
0.0
 11
4261.5497021745114
 21
-322.1208792769886
 31
0.0
  0
LINE
  5
4A1D
  8
1HATCH
 10
4171.0497021748079
 20
448.4798103103289
 30
0.0
 11
4231.5497021748088
 21
448.47981031032913
 31
0.0
  0
LINE
  5
4A1E
  8
1HATCH
 10
4171.0497021745387
 20
-271.5201896896707
 30
0.0
 11
4231.5497021745387
 21
-271.5201896896707
 31
0.0
  0
LINE
  5
4A1F
  8
1HATCH
 10
4231.5497021745387
 20
-251.5201896896707
 30
0.0
 11
4231.5497021745387
 21
-271.5201896896707
 31
0.0
  0
LINE
  5
4A20
  8
1HATCH
 10
4231.5497021748088
 20
428.4798103103293
 30
0.0
 11
4231.5497021748088
 21
448.47981031032913
 31
0.0
  0
LINE
  5
4A22
  8
1HATCH
 10
4171.0497021745387
 20
-251.5201896896707
 30
0.0
 11
4171.0497021745387
 21
-301.5201896896707
 31
0.0
  0
LINE
  5
4A23
  8
1HATCH
 10
4171.0497021748079
 20
428.47981031032913
 30
0.0
 11
4171.0497021748079
 21
478.4798103103289
 31
0.0
  0
LINE
  5
4A24
  8
1HATCH
 10
4161.5497021748079
 20
478.4798103103289
 30
0.0
 11
4171.0497021748079
 21
478.4798103103289
 31
0.0
  0
LINE
  5
4A25
  8
1HATCH
 10
4161.5497021745387
 20
-301.5201896896707
 30
0.0
 11
4171.0497021745387
 21
-301.5201896896707
 31
0.0
  0
LINE
  5
4CEC
  8
01
 10
3886.1247604199339
 20
-256.5201896896782
 30
0.0
 11
3886.124760419937
 21
73.479810310329981
 31
0.0
  0
LINE
  5
4CED
  8
01
 10
3886.124760419937
 20
103.47981031033
 30
0.0
 11
3886.124760419937
 21
433.4798103103272
 31
0.0
  0
LINE
  5
4CEE
  8
01
 10
3891.1247604199339
 20
-261.52018968967087
 30
0.0
 11
3891.1247604199361
 21
438.47981031032538
 31
0.0
  0
ARC
  5
4CEF
  8
01
 10
3886.124760419937
 20
438.47981031032538
 30
0.0
 40
5.0
 50
0.0
 51
90.0
  0
ARC
  5
4CF0
  8
01
 10
3886.1247604199339
 20
-261.52018968967087
 30
0.0
 40
5.0
 50
270.0
 51
0.0
  0
LINE
  5
4CF1
  8
01
 10
3596.1247604199361
 20
-256.52018968967087
 30
0.0
 11
3596.124760419938
 21
433.4798103103272
 31
0.0
  0
LINE
  5
4CF2
  8
01
 10
3591.1247604199361
 20
-261.52018968967087
 30
0.0
 11
3591.124760419938
 21
438.47981031032913
 31
0.0
  0
ARC
  5
4CF3
  8
01
 10
3596.124760419938
 20
438.47981031032913
 30
0.0
 40
5.0
 50
90.0
 51
180.0
  0
LINE
  5
4CF4
  8
01
 10
3881.1247604199348
 20
-261.52018968967087
 30
0.0
 11
3601.1247604199361
 21
-261.52018968967087
 31
0.0
  0
ARC
  5
4CF5
  8
01
 10
3601.1247604199361
 20
-256.52018968967087
 30
0.0
 40
5.0
 50
180.0
 51
270.0
  0
ARC
  5
4CF6
  8
01
 10
3881.1247604199348
 20
-256.5201896896782
 30
0.0
 40
5.0
 50
270.0
 51
0.0
  0
LINE
  5
4CF7
  8
01
 10
3881.1247604199348
 20
438.4798103103272
 30
0.0
 11
3601.1247604199361
 21
438.4798103103272
 31
0.0
  0
LINE
  5
4CF8
  8
01
 10
3886.124760419937
 20
443.47981031032538
 30
0.0
 11
3596.124760419938
 21
443.47981031032913
 31
0.0
  0
ARC
  5
4CF9
  8
01
 10
3601.1247604199361
 20
433.4798103103272
 30
0.0
 40
5.0
 50
90.0
 51
180.0
  0
ARC
  5
4CFA
  8
01
 10
3881.1247604199348
 20
433.4798103103272
 30
0.0
 40
5.0
 50
0.0
 51
90.0
  0
LINE
  5
4CFB
  8
01
 10
3889.149282142303
 20
75.97981031033089
 30
0.0
 11
3887.755673407531
 21
75.979810310328162
 31
0.0
  0
LINE
  5
4CFC
  8
01
 10
3889.1492821423021
 20
100.9798103103272
 30
0.0
 11
3887.755673407531
 21
100.9798103103254
 31
0.0
  0
LINE
  5
4CFD
  8
01
 10
4257.5497021699166
 20
411.50708331818493
 30
0.0
 11
4257.5497021699166
 21
158.4878396971431
 31
0.0
  0
LINE
  5
4CFE
  8
01
 10
4257.5497021699166
 20
148.47178092393511
 30
0.0
 11
4257.5497021699193
 21
28.48783969672661
 31
0.0
  0
LINE
  5
4CFF
  8
01
 10
4257.5497021699193
 20
18.471780923518619
 30
0.0
 11
4257.5497021699193
 21
-234.54746269753591
 31
0.0
  0
LINE
  5
4D00
  8
01
 10
4132.5497021699166
 20
437.6496192998253
 30
0.0
 11
4132.5497021699166
 21
-260.6899986791654
 31
0.0
  0
LINE
  5
4D01
  8
01
 10
3881.1247604199348
 20
-261.52018968967087
 30
0.0
 11
3601.1247604199361
 21
-261.52018968967087
 31
0.0
  0
LINE
  5
4D02
  8
01
 10
3886.1247604199339
 20
-266.52018968967087
 30
0.0
 11
3596.1247604199361
 21
-266.52018968967087
 31
0.0
  0
ARC
  5
4D03
  8
01
 10
3596.1247604199361
 20
-261.52018968967087
 30
0.0
 40
5.0
 50
180.0
 51
270.0
  0
ARC
  5
4D04
  8
01
 10
3881.1247604199348
 20
-256.52018968967087
 30
0.0
 40
5.0
 50
270.0
 51
0.0
  0
LINE
  5
4D05
  8
01
 10
4235.0497021734973
 20
-137.9336760037225
 30
0.0
 11
4235.0497021734973
 21
-145.10670337243971
 31
0.0
  0
ARC
  5
4D06
  8
01
 10
4230.0497021734982
 20
-137.9336760037225
 30
0.0
 40
5.0
 50
0.0
 51
89.000000000024301
  0
LINE
  5
4D08
  8
1CENTER
 10
4120.7291557706476
 20
88.479810310329057
 30
0.0
 11
4265.9654932824751
 21
88.479810310329057
 31
0.0
  0
LINE
  5
4D09
  8
01
 10
4129.5497021746642
 20
74.479810310329071
 30
0.0
 11
4130.8997021746582
 21
74.479810310329071
 31
0.0
  0
LINE
  5
4D0A
  8
01
 10
4129.5497021746642
 20
102.479810310329
 30
0.0
 11
4130.8997021746582
 21
102.4798103103272
 31
0.0
  0
LINE
  5
4D0B
  8
1CENTER
 10
4204.549702168757
 20
-148.0409855967558
 30
0.0
 11
4204.549702168757
 21
-134.999393785731
 31
0.0
  0
LINE
  5
4D0C
  8
1CENTER
 10
4211.0704980774299
 20
-141.52018968808471
 30
0.0
 11
4198.0289062664042
 21
-141.52018968808471
 31
0.0
  0
LINE
  5
4D0D
  8
01
 10
4161.5497021746733
 20
-266.5201896904112
 30
0.0
 11
4161.5497021746733
 21
443.4798103110694
 31
0.0
  0
ARC
  5
4D15
  8
01
 10
4316.9382252583164
 20
721.33324422267981
 30
0.0
 40
1000.0
 50
259.422106185833
 51
261.06066999435069
  0
ARC
  5
4D16
  8
01
 10
4133.5497021699184
 20
-260.6899986791654
 30
0.0
 40
1.0
 50
180.0
 51
259.42210618588541
  0
LINE
  5
4D17
  8
01
 10
3890.487259662912
 20
98.979810310327267
 30
0.0
 11
3890.487259662912
 21
77.97981031033089
 31
0.0
  0
POLYLINE
  5
4D18
  8
01
 10
3890.487259662912
 20
98.979810310327267
 30
0.0
 66
     1
 70
     8
  0
VERTEX
  8
01
  5
77B3
 10
3890.49
 20
98.9798
 30
0.000000
  70
    32
  0
VERTEX
  8
01
  5
77B4
 10
3890.49
 20
99.0044
 30
0.000000
  70
    32
  0
VERTEX
  8
01
  5
77B5
 10
3890.49
 20
99.0289
 30
0.000000
  70
    32
  0
VERTEX
  8
01
  5
77B6
 10
3890.49
 20
99.0534
 30
0.000000
  70
    32
  0
VERTEX
  8
01
  5
77B7
 10
3890.49
 20
99.0779
 30
0.000000
  70
    32
  0
VERTEX
  8
01
  5
77B8
 10
3890.48
 20
99.1025
 30
0.000000
  70
    32
  0
VERTEX
  8
01
  5
77B9
 10
3890.48
 20
99.1269
 30
0.000000
  70
    32
  0
VERTEX
  8
01
  5
77BA
 10
3890.48
 20
99.1514
 30
0.000000
  70
    32
  0
VERTEX
  8
01
  5
77BB
 10
3890.48
 20
99.1758
 30
0.000000
  70
    32
  0
VERTEX
  8
01
  5
77BC
 10
3890.48
 20
99.2003
 30
0.000000
  70
    32
  0
VERTEX
  8
01
  5
77BD
 10
3890.48
 20
99.2246
 30
0.000000
  70
    32
  0
VERTEX
  8
01
  5
77BE
 10
3890.48
 20
99.2490
 30
0.000000
  70
    32
  0
VERTEX
  8
01
  5
77BF
 10
3890.47
 20
99.2733
 30
0.000000
  70
    32
  0
VERTEX
  8
01
  5
77C0
 10
3890.47
 20
99.2975
 30
0.000000
  70
    32
  0
VERTEX
  8
01
  5
77C1
 10
3890.47
 20
99.3217
 30
0.000000
  70
    32
  0
VERTEX
  8
01
  5
77C2
 10
3890.46
 20
99.3459
 30
0.000000
  70
    32
  0
VERTEX
  8
01
  5
77C3
 10
3890.46
 20
99.3700
 30
0.000000
  70
    32
  0
VERTEX
  8
01
  5
77C4
 10
3890.46
 20
99.3940
 30
0.000000
  70
    32
  0
VERTEX
  8
01
  5
77C5
 10
3890.45
 20
99.4180
 30
0.000000
  70
    32
  0
VERTEX
  8
01
  5
77C6
 10
3890.45
 20
99.4419
 30
0.000000
  70
    32
  0
VERTEX
  8
01
  5
77C7
 10
3890.45
 20
99.4658
 30
0.000000
  70
    32
  0
VERTEX
  8
01
  5
77C8
 10
3890.44
 20
99.4895
 30
0.000000
  70
    32
  0
VERTEX
  8
01
  5
77C9
 10
3890.44
 20
99.5132
 30
0.000000
  70
    32
  0
VERTEX
  8
01
  5
77CA
 10
3890.43
 20
99.5368
 30
0.000000
  70
    32
  0
VERTEX
  8
01
  5
77CB
 10
3890.43
 20
99.5604
 30
0.000000
  70
    32
  0
VERTEX
  8
01
  5
77CC
 10
3890.42
 20
99.5838
 30
0.000000
  70
    32
  0
VERTEX
  8
01
  5
77CD
 10
3890.42
 20
99.6072
 30
0.000000
  70
    32
  0
VERTEX
  8
01
  5
77CE
 10
3890.41
 20
99.6304
 30
0.000000
  70
    32
  0
VERTEX
  8
01
  5
77CF
 10
3890.41
 20
99.6536
 30
0.000000
  70
    32
  0
VERTEX
  8
01
  5
77D0
 10
3890.40
 20
99.6766
 30
0.000000
  70
    32
  0
VERTEX
  8
01
  5
77D1
 10
3890.40
 20
99.6996
 30
0.000000
  70
    32
  0
VERTEX
  8
01
  5
77D2
 10
3890.39
 20
99.7224
 30
0.000000
  70
    32
  0
VERTEX
  8
01
  5
77D3
 10
3890.39
 20
99.7452
 30
0.000000
  70
    32
  0
VERTEX
  8
01
  5
77D4
 10
3890.38
 20
99.7678
 30
0.000000
  70
    32
  0
VERTEX
  8
01
  5
77D5
 10
3890.37
 20
99.7903
 30
0.000000
  70
    32
  0
VERTEX
  8
01
  5
77D6
 10
3890.37
 20
99.8127
 30
0.000000
  70
    32
  0
VERTEX
  8
01
  5
77D7
 10
3890.36
 20
99.8349
 30
0.000000
  70
    32
  0
VERTEX
  8
01
  5
77D8
 10
3890.35
 20
99.8570
 30
0.000000
  70
    32
  0
VERTEX
  8
01
  5
77D9
 10
3890.34
 20
99.8790
 30
0.000000
  70
    32
  0
VERTEX
  8
01
  5
77DA
 10
3890.34
 20
99.9009
 30
0.000000
  70
    32
  0
VERTEX
  8
01
  5
77DB
 10
3890.33
 20
99.9226
 30
0.000000
  70
    32
  0
VERTEX
  8
01
  5
77DC
 10
3890.32
 20
99.9442
 30
0.000000
  70
    32
  0
VERTEX
  8
01
  5
77DD
 10
3890.31
 20
99.9656
 30
0.000000
  70
    32
  0
VERTEX
  8
01
  5
77DE
 10
3890.31
 20
99.9869
 30
0.000000
  70
    32
  0
VERTEX
  8
01
  5
77DF
 10
3890.30
 20
100.008
 30
0.000000
  70
    32
  0
VERTEX
  8
01
  5
77E0
 10
3890.29
 20
100.029
 30
0.000000
  70
    32
  0
VERTEX
  8
01
  5
77E1
 10
3890.28
 20
100.050
 30
0.000000
  70
    32
  0
VERTEX
  8
01
  5
77E2
 10
3890.27
 20
100.070
 30
0.000000
  70
    32
  0
VERTEX
  8
01
  5
77E3
 10
3890.26
 20
100.091
 30
0.000000
  70
    32
  0
VERTEX
  8
01
  5
77E4
 10
3890.25
 20
100.111
 30
0.000000
  70
    32
  0
VERTEX
  8
01
  5
77E5
 10
3890.24
 20
100.131
 30
0.000000
  70
    32
  0
VERTEX
  8
01
  5
77E6
 10
3890.23
 20
100.151
 30
0.000000
  70
    32
  0
VERTEX
  8
01
  5
77E7
 10
3890.22
 20
100.171
 30
0.000000
  70
    32
  0
VERTEX
  8
01
  5
77E8
 10
3890.21
 20
100.191
 30
0.000000
  70
    32
  0
VERTEX
  8
01
  5
77E9
 10
3890.20
 20
100.210
 30
0.000000
  70
    32
  0
VERTEX
  8
01
  5
77EA
 10
3890.19
 20
100.230
 30
0.000000
  70
    32
  0
VERTEX
  8
01
  5
77EB
 10
3890.18
 20
100.249
 30
0.000000
  70
    32
  0
VERTEX
  8
01
  5
77EC
 10
3890.17
 20
100.267
 30
0.000000
  70
    32
  0
VERTEX
  8
01
  5
77ED
 10
3890.16
 20
100.286
 30
0.000000
  70
    32
  0
VERTEX
  8
01
  5
77EE
 10
3890.15
 20
100.305
 30
0.000000
  70
    32
  0
VERTEX
  8
01
  5
77EF
 10
3890.14
 20
100.323
 30
0.000000
  70
    32
  0
VERTEX
  8
01
  5
77F0
 10
3890.13
 20
100.341
 30
0.000000
  70
    32
  0
VERTEX
  8
01
  5
77F1
 10
3890.12
 20
100.359
 30
0.000000
  70
    32
  0
VERTEX
  8
01
  5
77F2
 10
3890.11
 20
100.377
 30
0.000000
  70
    32
  0
VERTEX
  8
01
  5
77F3
 10
3890.10
 20
100.394
 30
0.000000
  70
    32
  0
VERTEX
  8
01
  5
77F4
 10
3890.08
 20
100.411
 30
0.000000
  70
    32
  0
VERTEX
  8
01
  5
77F5
 10
3890.07
 20
100.428
 30
0.000000
  70
    32
  0
VERTEX
  8
01
  5
77F6
 10
3890.06
 20
100.445
 30
0.000000
  70
    32
  0
VERTEX
  8
01
  5
77F7
 10
3890.05
 20
100.462
 30
0.000000
  70
    32
  0
VERTEX
  8
01
  5
77F8
 10
3890.04
 20
100.478
 30
0.000000
  70
    32
  0
VERTEX
  8
01
  5
77F9
 10
3890.02
 20
100.494
 30
0.000000
  70
    32
  0
VERTEX
  8
01
  5
77FA
 10
3890.01
 20
100.510
 30
0.000000
  70
    32
  0
VERTEX
  8
01
  5
77FB
 10
3890.00
 20
100.526
 30
0.000000
  70
    32
  0
VERTEX
  8
01
  5
77FC
 10
3889.99
 20
100.541
 30
0.000000
  70
    32
  0
VERTEX
  8
01
  5
77FD
 10
3889.97
 20
100.557
 30
0.000000
  70
    32
  0
VERTEX
  8
01
  5
77FE
 10
3889.96
 20
100.571
 30
0.000000
  70
    32
  0
VERTEX
  8
01
  5
77FF
 10
3889.95
 20
100.586
 30
0.000000
  70
    32
  0
VERTEX
  8
01
  5
7800
 10
3889.93
 20
100.601
 30
0.000000
  70
    32
  0
VERTEX
  8
01
  5
7801
 10
3889.92
 20
100.615
 30
0.000000
  70
    32
  0
VERTEX
  8
01
  5
7802
 10
3889.91
 20
100.629
 30
0.000000
  70
    32
  0
VERTEX
  8
01
  5
7803
 10
3889.89
 20
100.643
 30
0.000000
  70
    32
  0
VERTEX
  8
01
  5
7804
 10
3889.88
 20
100.656
 30
0.000000
  70
    32
  0
VERTEX
  8
01
  5
7805
 10
3889.87
 20
100.670
 30
0.000000
  70
    32
  0
VERTEX
  8
01
  5
7806
 10
3889.85
 20
100.683
 30
0.000000
  70
    32
  0
VERTEX
  8
01
  5
7807
 10
3889.84
 20
100.695
 30
0.000000
  70
    32
  0
VERTEX
  8
01
  5
7808
 10
3889.82
 20
100.708
 30
0.000000
  70
    32
  0
VERTEX
  8
01
  5
7809
 10
3889.81
 20
100.720
 30
0.000000
  70
    32
  0
VERTEX
  8
01
  5
780A
 10
3889.79
 20
100.732
 30
0.000000
  70
    32
  0
VERTEX
  8
01
  5
780B
 10
3889.78
 20
100.744
 30
0.000000
  70
    32
  0
VERTEX
  8
01
  5
780C
 10
3889.77
 20
100.755
 30
0.000000
  70
    32
  0
VERTEX
  8
01
  5
780D
 10
3889.75
 20
100.766
 30
0.000000
  70
    32
  0
VERTEX
  8
01
  5
780E
 10
3889.74
 20
100.777
 30
0.000000
  70
    32
  0
VERTEX
  8
01
  5
780F
 10
3889.72
 20
100.788
 30
0.000000
  70
    32
  0
VERTEX
  8
01
  5
7810
 10
3889.71
 20
100.798
 30
0.000000
  70
    32
  0
VERTEX
  8
01
  5
7811
 10
3889.69
 20
100.808
 30
0.000000
  70
    32
  0
VERTEX
  8
01
  5
7812
 10
3889.68
 20
100.818
 30
0.000000
  70
    32
  0
VERTEX
  8
01
  5
7813
 10
3889.66
 20
100.828
 30
0.000000
  70
    32
  0
VERTEX
  8
01
  5
7814
 10
3889.65
 20
100.837
 30
0.000000
  70
    32
  0
VERTEX
  8
01
  5
7815
 10
3889.63
 20
100.846
 30
0.000000
  70
    32
  0
VERTEX
  8
01
  5
7816
 10
3889.62
 20
100.854
 30
0.000000
  70
    32
  0
VERTEX
  8
01
  5
7817
 10
3889.60
 20
100.863
 30
0.000000
  70
    32
  0
VERTEX
  8
01
  5
7818
 10
3889.58
 20
100.871
 30
0.000000
  70
    32
  0
VERTEX
  8
01
  5
7819
 10
3889.57
 20
100.879
 30
0.000000
  70
    32
  0
VERTEX
  8
01
  5
781A
 10
3889.55
 20
100.886
 30
0.000000
  70
    32
  0
VERTEX
  8
01
  5
781B
 10
3889.54
 20
100.894
 30
0.000000
  70
    32
  0
VERTEX
  8
01
  5
781C
 10
3889.52
 20
100.901
 30
0.000000
  70
    32
  0
VERTEX
  8
01
  5
781D
 10
3889.51
 20
100.907
 30
0.000000
  70
    32
  0
VERTEX
  8
01
  5
781E
 10
3889.49
 20
100.914
 30
0.000000
  70
    32
  0
VERTEX
  8
01
  5
781F
 10
3889.47
 20
100.920
 30
0.000000
  70
    32
  0
VERTEX
  8
01
  5
7820
 10
3889.46
 20
100.926
 30
0.000000
  70
    32
  0
VERTEX
  8
01
  5
7821
 10
3889.44
 20
100.931
 30
0.000000
  70
    32
  0
VERTEX
  8
01
  5
7822
 10
3889.43
 20
100.936
 30
0.000000
  70
    32
  0
VERTEX
  8
01
  5
7823
 10
3889.41
 20
100.941
 30
0.000000
  70
    32
  0
VERTEX
  8
01
  5
7824
 10
3889.39
 20
100.946
 30
0.000000
  70
    32
  0
VERTEX
  8
01
  5
7825
 10
3889.38
 20
100.950
 30
0.000000
  70
    32
  0
VERTEX
  8
01
  5
7826
 10
3889.36
 20
100.954
 30
0.000000
  70
    32
  0
VERTEX
  8
01
  5
7827
 10
3889.35
 20
100.958
 30
0.000000
  70
    32
  0
VERTEX
  8
01
  5
7828
 10
3889.33
 20
100.962
 30
0.000000
  70
    32
  0
VERTEX
  8
01
  5
7829
 10
3889.31
 20
100.965
 30
0.000000
  70
    32
  0
VERTEX
  8
01
  5
782A
 10
3889.30
 20
100.968
 30
0.000000
  70
    32
  0
VERTEX
  8
01
  5
782B
 10
3889.28
 20
100.970
 30
0.000000
  70
    32
  0
VERTEX
  8
01
  5
782C
 10
3889.26
 20
100.972
 30
0.000000
  70
    32
  0
VERTEX
  8
01
  5
782D
 10
3889.25
 20
100.974
 30
0.000000
  70
    32
  0
VERTEX
  8
01
  5
782E
 10
3889.23
 20
100.976
 30
0.000000
  70
    32
  0
VERTEX
  8
01
  5
782F
 10
3889.21
 20
100.977
 30
0.000000
  70
    32
  0
VERTEX
  8
01
  5
7830
 10
3889.20
 20
100.978
 30
0.000000
  70
    32
  0
VERTEX
  8
01
  5
7831
 10
3889.18
 20
100.979
 30
0.000000
  70
    32
  0
VERTEX
  8
01
  5
7832
 10
3889.17
 20
100.980
 30
0.000000
  70
    32
  0
VERTEX
  8
01
  5
7833
 10
3889.15
 20
100.980
 30
0.000000
  70
    32
  0
SEQEND
  8
01
  5
7834
  0
POLYLINE
  5
4D19
  8
01
 10
3890.487259662912
 20
77.97981031033089
 30
0.0
 66
     1
 70
     8
  0
VERTEX
  8
01
  5
7835
 10
3890.49
 20
77.9798
 30
0.000000
  70
    32
  0
VERTEX
  8
01
  5
7836
 10
3890.49
 20
77.9553
 30
0.000000
  70
    32
  0
VERTEX
  8
01
  5
7837
 10
3890.49
 20
77.9307
 30
0.000000
  70
    32
  0
VERTEX
  8
01
  5
7838
 10
3890.49
 20
77.9062
 30
0.000000
  70
    32
  0
VERTEX
  8
01
  5
7839
 10
3890.49
 20
77.8817
 30
0.000000
  70
    32
  0
VERTEX
  8
01
  5
783A
 10
3890.48
 20
77.8572
 30
0.000000
  70
    32
  0
VERTEX
  8
01
  5
783B
 10
3890.48
 20
77.8327
 30
0.000000
  70
    32
  0
VERTEX
  8
01
  5
783C
 10
3890.48
 20
77.8082
 30
0.000000
  70
    32
  0
VERTEX
  8
01
  5
783D
 10
3890.48
 20
77.7838
 30
0.000000
  70
    32
  0
VERTEX
  8
01
  5
783E
 10
3890.48
 20
77.7594
 30
0.000000
  70
    32
  0
VERTEX
  8
01
  5
783F
 10
3890.48
 20
77.7350
 30
0.000000
  70
    32
  0
VERTEX
  8
01
  5
7840
 10
3890.48
 20
77.7106
 30
0.000000
  70
    32
  0
VERTEX
  8
01
  5
7841
 10
3890.47
 20
77.6863
 30
0.000000
  70
    32
  0
VERTEX
  8
01
  5
7842
 10
3890.47
 20
77.6621
 30
0.000000
  70
    32
  0
VERTEX
  8
01
  5
7843
 10
3890.47
 20
77.6379
 30
0.000000
  70
    32
  0
VERTEX
  8
01
  5
7844
 10
3890.46
 20
77.6137
 30
0.000000
  70
    32
  0
VERTEX
  8
01
  5
7845
 10
3890.46
 20
77.5896
 30
0.000000
  70
    32
  0
VERTEX
  8
01
  5
7846
 10
3890.46
 20
77.5656
 30
0.000000
  70
    32
  0
VERTEX
  8
01
  5
7847
 10
3890.45
 20
77.5416
 30
0.000000
  70
    32
  0
VERTEX
  8
01
  5
7848
 10
3890.45
 20
77.5177
 30
0.000000
  70
    32
  0
VERTEX
  8
01
  5
7849
 10
3890.45
 20
77.4938
 30
0.000000
  70
    32
  0
VERTEX
  8
01
  5
784A
 10
3890.44
 20
77.4701
 30
0.000000
  70
    32
  0
VERTEX
  8
01
  5
784B
 10
3890.44
 20
77.4464
 30
0.000000
  70
    32
  0
VERTEX
  8
01
  5
784C
 10
3890.43
 20
77.4228
 30
0.000000
  70
    32
  0
VERTEX
  8
01
  5
784D
 10
3890.43
 20
77.3992
 30
0.000000
  70
    32
  0
VERTEX
  8
01
  5
784E
 10
3890.42
 20
77.3758
 30
0.000000
  70
    32
  0
VERTEX
  8
01
  5
784F
 10
3890.42
 20
77.3524
 30
0.000000
  70
    32
  0
VERTEX
  8
01
  5
7850
 10
3890.41
 20
77.3292
 30
0.000000
  70
    32
  0
VERTEX
  8
01
  5
7851
 10
3890.41
 20
77.3060
 30
0.000000
  70
    32
  0
VERTEX
  8
01
  5
7852
 10
3890.40
 20
77.2830
 30
0.000000
  70
    32
  0
VERTEX
  8
01
  5
7853
 10
3890.40
 20
77.2600
 30
0.000000
  70
    32
  0
VERTEX
  8
01
  5
7854
 10
3890.39
 20
77.2372
 30
0.000000
  70
    32
  0
VERTEX
  8
01
  5
7855
 10
3890.39
 20
77.2144
 30
0.000000
  70
    32
  0
VERTEX
  8
01
  5
7856
 10
3890.38
 20
77.1918
 30
0.000000
  70
    32
  0
VERTEX
  8
01
  5
7857
 10
3890.37
 20
77.1693
 30
0.000000
  70
    32
  0
VERTEX
  8
01
  5
7858
 10
3890.37
 20
77.1470
 30
0.000000
  70
    32
  0
VERTEX
  8
01
  5
7859
 10
3890.36
 20
77.1247
 30
0.000000
  70
    32
  0
VERTEX
  8
01
  5
785A
 10
3890.35
 20
77.1026
 30
0.000000
  70
    32
  0
VERTEX
  8
01
  5
785B
 10
3890.34
 20
77.0806
 30
0.000000
  70
    32
  0
VERTEX
  8
01
  5
785C
 10
3890.34
 20
77.0587
 30
0.000000
  70
    32
  0
VERTEX
  8
01
  5
785D
 10
3890.33
 20
77.0370
 30
0.000000
  70
    32
  0
VERTEX
  8
01
  5
785E
 10
3890.32
 20
77.0154
 30
0.000000
  70
    32
  0
VERTEX
  8
01
  5
785F
 10
3890.31
 20
76.9940
 30
0.000000
  70
    32
  0
VERTEX
  8
01
  5
7860
 10
3890.31
 20
76.9727
 30
0.000000
  70
    32
  0
VERTEX
  8
01
  5
7861
 10
3890.30
 20
76.9516
 30
0.000000
  70
    32
  0
VERTEX
  8
01
  5
7862
 10
3890.29
 20
76.9306
 30
0.000000
  70
    32
  0
VERTEX
  8
01
  5
7863
 10
3890.28
 20
76.9098
 30
0.000000
  70
    32
  0
VERTEX
  8
01
  5
7864
 10
3890.27
 20
76.8892
 30
0.000000
  70
    32
  0
VERTEX
  8
01
  5
7865
 10
3890.26
 20
76.8687
 30
0.000000
  70
    32
  0
VERTEX
  8
01
  5
7866
 10
3890.25
 20
76.8483
 30
0.000000
  70
    32
  0
VERTEX
  8
01
  5
7867
 10
3890.24
 20
76.8282
 30
0.000000
  70
    32
  0
VERTEX
  8
01
  5
7868
 10
3890.23
 20
76.8082
 30
0.000000
  70
    32
  0
VERTEX
  8
01
  5
7869
 10
3890.22
 20
76.7884
 30
0.000000
  70
    32
  0
VERTEX
  8
01
  5
786A
 10
3890.21
 20
76.7688
 30
0.000000
  70
    32
  0
VERTEX
  8
01
  5
786B
 10
3890.20
 20
76.7493
 30
0.000000
  70
    32
  0
VERTEX
  8
01
  5
786C
 10
3890.19
 20
76.7301
 30
0.000000
  70
    32
  0
VERTEX
  8
01
  5
786D
 10
3890.18
 20
76.7110
 30
0.000000
  70
    32
  0
VERTEX
  8
01
  5
786E
 10
3890.17
 20
76.6921
 30
0.000000
  70
    32
  0
VERTEX
  8
01
  5
786F
 10
3890.16
 20
76.6735
 30
0.000000
  70
    32
  0
VERTEX
  8
01
  5
7870
 10
3890.15
 20
76.6550
 30
0.000000
  70
    32
  0
VERTEX
  8
01
  5
7871
 10
3890.14
 20
76.6367
 30
0.000000
  70
    32
  0
VERTEX
  8
01
  5
7872
 10
3890.13
 20
76.6186
 30
0.000000
  70
    32
  0
VERTEX
  8
01
  5
7873
 10
3890.12
 20
76.6007
 30
0.000000
  70
    32
  0
VERTEX
  8
01
  5
7874
 10
3890.11
 20
76.5831
 30
0.000000
  70
    32
  0
VERTEX
  8
01
  5
7875
 10
3890.10
 20
76.5656
 30
0.000000
  70
    32
  0
VERTEX
  8
01
  5
7876
 10
3890.08
 20
76.5483
 30
0.000000
  70
    32
  0
VERTEX
  8
01
  5
7877
 10
3890.07
 20
76.5313
 30
0.000000
  70
    32
  0
VERTEX
  8
01
  5
7878
 10
3890.06
 20
76.5145
 30
0.000000
  70
    32
  0
VERTEX
  8
01
  5
7879
 10
3890.05
 20
76.4979
 30
0.000000
  70
    32
  0
VERTEX
  8
01
  5
787A
 10
3890.04
 20
76.4815
 30
0.000000
  70
    32
  0
VERTEX
  8
01
  5
787B
 10
3890.02
 20
76.4654
 30
0.000000
  70
    32
  0
VERTEX
  8
01
  5
787C
 10
3890.01
 20
76.4495
 30
0.000000
  70
    32
  0
VERTEX
  8
01
  5
787D
 10
3890.00
 20
76.4338
 30
0.000000
  70
    32
  0
VERTEX
  8
01
  5
787E
 10
3889.99
 20
76.4183
 30
0.000000
  70
    32
  0
VERTEX
  8
01
  5
787F
 10
3889.97
 20
76.4031
 30
0.000000
  70
    32
  0
VERTEX
  8
01
  5
7880
 10
3889.96
 20
76.3881
 30
0.000000
  70
    32
  0
VERTEX
  8
01
  5
7881
 10
3889.95
 20
76.3734
 30
0.000000
  70
    32
  0
VERTEX
  8
01
  5
7882
 10
3889.93
 20
76.3589
 30
0.000000
  70
    32
  0
VERTEX
  8
01
  5
7883
 10
3889.92
 20
76.3446
 30
0.000000
  70
    32
  0
VERTEX
  8
01
  5
7884
 10
3889.91
 20
76.3306
 30
0.000000
  70
    32
  0
VERTEX
  8
01
  5
7885
 10
3889.89
 20
76.3169
 30
0.000000
  70
    32
  0
VERTEX
  8
01
  5
7886
 10
3889.88
 20
76.3034
 30
0.000000
  70
    32
  0
VERTEX
  8
01
  5
7887
 10
3889.87
 20
76.2901
 30
0.000000
  70
    32
  0
VERTEX
  8
01
  5
7888
 10
3889.85
 20
76.2771
 30
0.000000
  70
    32
  0
VERTEX
  8
01
  5
7889
 10
3889.84
 20
76.2644
 30
0.000000
  70
    32
  0
VERTEX
  8
01
  5
788A
 10
3889.82
 20
76.2519
 30
0.000000
  70
    32
  0
VERTEX
  8
01
  5
788B
 10
3889.81
 20
76.2396
 30
0.000000
  70
    32
  0
VERTEX
  8
01
  5
788C
 10
3889.79
 20
76.2277
 30
0.000000
  70
    32
  0
VERTEX
  8
01
  5
788D
 10
3889.78
 20
76.2160
 30
0.000000
  70
    32
  0
VERTEX
  8
01
  5
788E
 10
3889.77
 20
76.2045
 30
0.000000
  70
    32
  0
VERTEX
  8
01
  5
788F
 10
3889.75
 20
76.1934
 30
0.000000
  70
    32
  0
VERTEX
  8
01
  5
7890
 10
3889.74
 20
76.1825
 30
0.000000
  70
    32
  0
VERTEX
  8
01
  5
7891
 10
3889.72
 20
76.1718
 30
0.000000
  70
    32
  0
VERTEX
  8
01
  5
7892
 10
3889.71
 20
76.1615
 30
0.000000
  70
    32
  0
VERTEX
  8
01
  5
7893
 10
3889.69
 20
76.1514
 30
0.000000
  70
    32
  0
VERTEX
  8
01
  5
7894
 10
3889.68
 20
76.1416
 30
0.000000
  70
    32
  0
VERTEX
  8
01
  5
7895
 10
3889.66
 20
76.1321
 30
0.000000
  70
    32
  0
VERTEX
  8
01
  5
7896
 10
3889.65
 20
76.1228
 30
0.000000
  70
    32
  0
VERTEX
  8
01
  5
7897
 10
3889.63
 20
76.1138
 30
0.000000
  70
    32
  0
VERTEX
  8
01
  5
7898
 10
3889.62
 20
76.1051
 30
0.000000
  70
    32
  0
VERTEX
  8
01
  5
7899
 10
3889.60
 20
76.0967
 30
0.000000
  70
    32
  0
VERTEX
  8
01
  5
789A
 10
3889.58
 20
76.0886
 30
0.000000
  70
    32
  0
VERTEX
  8
01
  5
789B
 10
3889.57
 20
76.0808
 30
0.000000
  70
    32
  0
VERTEX
  8
01
  5
789C
 10
3889.55
 20
76.0732
 30
0.000000
  70
    32
  0
VERTEX
  8
01
  5
789D
 10
3889.54
 20
76.0659
 30
0.000000
  70
    32
  0
VERTEX
  8
01
  5
789E
 10
3889.52
 20
76.0589
 30
0.000000
  70
    32
  0
VERTEX
  8
01
  5
789F
 10
3889.51
 20
76.0523
 30
0.000000
  70
    32
  0
VERTEX
  8
01
  5
78A0
 10
3889.49
 20
76.0459
 30
0.000000
  70
    32
  0
VERTEX
  8
01
  5
78A1
 10
3889.47
 20
76.0397
 30
0.000000
  70
    32
  0
VERTEX
  8
01
  5
78A2
 10
3889.46
 20
76.0339
 30
0.000000
  70
    32
  0
VERTEX
  8
01
  5
78A3
 10
3889.44
 20
76.0284
 30
0.000000
  70
    32
  0
VERTEX
  8
01
  5
78A4
 10
3889.43
 20
76.0232
 30
0.000000
  70
    32
  0
VERTEX
  8
01
  5
78A5
 10
3889.41
 20
76.0182
 30
0.000000
  70
    32
  0
VERTEX
  8
01
  5
78A6
 10
3889.39
 20
76.0136
 30
0.000000
  70
    32
  0
VERTEX
  8
01
  5
78A7
 10
3889.38
 20
76.0093
 30
0.000000
  70
    32
  0
VERTEX
  8
01
  5
78A8
 10
3889.36
 20
76.0052
 30
0.000000
  70
    32
  0
VERTEX
  8
01
  5
78A9
 10
3889.35
 20
76.0015
 30
0.000000
  70
    32
  0
VERTEX
  8
01
  5
78AA
 10
3889.33
 20
75.9980
 30
0.000000
  70
    32
  0
VERTEX
  8
01
  5
78AB
 10
3889.31
 20
75.9949
 30
0.000000
  70
    32
  0
VERTEX
  8
01
  5
78AC
 10
3889.30
 20
75.9920
 30
0.000000
  70
    32
  0
VERTEX
  8
01
  5
78AD
 10
3889.28
 20
75.9894
 30
0.000000
  70
    32
  0
VERTEX
  8
01
  5
78AE
 10
3889.26
 20
75.9872
 30
0.000000
  70
    32
  0
VERTEX
  8
01
  5
78AF
 10
3889.25
 20
75.9852
 30
0.000000
  70
    32
  0
VERTEX
  8
01
  5
78B0
 10
3889.23
 20
75.9836
 30
0.000000
  70
    32
  0
VERTEX
  8
01
  5
78B1
 10
3889.21
 20
75.9822
 30
0.000000
  70
    32
  0
VERTEX
  8
01
  5
78B2
 10
3889.20
 20
75.9812
 30
0.000000
  70
    32
  0
VERTEX
  8
01
  5
78B3
 10
3889.18
 20
75.9804
 30
0.000000
  70
    32
  0
VERTEX
  8
01
  5
78B4
 10
3889.17
 20
75.9800
 30
0.000000
  70
    32
  0
VERTEX
  8
01
  5
78B5
 10
3889.15
 20
75.9798
 30
0.000000
  70
    32
  0
SEQEND
  8
01
  5
78B6
  0
CIRCLE
  5
4D1A
  8
01
 10
4204.5497021687579
 20
-141.52018968809929
 30
0.0
 40
2.250000000014551
  0
LINE
  5
4D1B
  8
01
 10
4161.5497021746733
 20
-131.73724241594419
 30
0.0
 11
4230.1369642056834
 21
-132.93443752793999
 31
0.0
  0
LINE
  5
4D1C
  8
01
 10
4161.5497021746733
 20
-151.30313696022529
 30
0.0
 11
4230.1369642056834
 21
-150.10594184822219
 31
0.0
  0
ARC
  5
4D1D
  8
01
 10
4230.0497021734982
 20
-145.10670337243971
 30
0.0
 40
5.0
 50
270.99999999997573
 51
0.0
  0
LINE
  5
4D1E
  8
01
 10
4235.0497021734973
 20
92.066323994691274
 30
0.0
 11
4235.0497021734973
 21
84.893296625974131
 31
0.0
  0
ARC
  5
4D1F
  8
01
 10
4230.0497021734982
 20
92.066323994691274
 30
0.0
 40
5.0
 50
0.0
 51
89.000000000024301
  0
LINE
  5
4D20
  8
1CENTER
 10
4204.549702168757
 20
81.95901440165801
 30
0.0
 11
4204.549702168757
 21
95.000606212682783
 31
0.0
  0
LINE
  5
4D21
  8
1CENTER
 10
4211.0704980774299
 20
88.479810310329057
 30
0.0
 11
4198.0289062664042
 21
88.479810310329057
 31
0.0
  0
CIRCLE
  5
4D22
  8
01
 10
4204.5497021687579
 20
88.479810310314505
 30
0.0
 40
2.250000000014551
  0
LINE
  5
4D23
  8
01
 10
4161.5497021746733
 20
98.262757582473228
 30
0.0
 11
4230.1369642056834
 21
97.065562470473765
 31
0.0
  0
LINE
  5
4D24
  8
01
 10
4161.5497021746733
 20
78.696863038188553
 30
0.0
 11
4230.1369642056834
 21
79.894058150191654
 31
0.0
  0
ARC
  5
4D25
  8
01
 10
4230.0497021734982
 20
84.893296625974131
 30
0.0
 40
5.0
 50
270.99999999997573
 51
0.0
  0
ARC
  5
4D2F
  8
01
 10
4253.0497021699166
 20
158.4878396971431
 30
0.0
 40
4.5
 50
300.00000000000222
 51
0.0
  0
ARC
  5
4D30
  8
01
 10
4253.0497021699202
 20
148.47178092393511
 30
0.0
 40
4.5
 50
0.0
 51
59.999999999997833
  0
LINE
  5
4D31
  8
01
 10
4255.1755408266072
 20
152.44057982573901
 30
0.0
 11
4255.2997021699193
 21
152.36889524096441
 31
0.0
  0
ARC
  5
4D32
  8
01
 10
4255.7755408265202
 20
153.47981031033089
 30
0.0
 40
1.1999999999999991
 50
120.00000000451369
 51
240.00000000481
  0
LINE
  5
4D33
  8
01
 10
4255.2997021699193
 20
154.59072538011389
 30
0.0
 11
4255.175540826438
 21
154.51904079482449
 31
0.0
  0
ARC
  5
4D34
  8
01
 10
4253.0497021699166
 20
18.471780923518619
 30
0.0
 40
4.5
 50
0.0
 51
59.999999999997833
  0
ARC
  5
4D35
  8
01
 10
4253.0497021699202
 20
28.48783969672661
 30
0.0
 40
4.5
 50
300.00000000000222
 51
0.0
  0
LINE
  5
4D36
  8
01
 10
4255.1755408266072
 20
24.51904079492272
 30
0.0
 11
4255.2997021699193
 21
24.59072537969735
 31
0.0
  0
ARC
  5
4D37
  8
01
 10
4255.7755408265202
 20
23.47981031033089
 30
0.0
 40
1.1999999999999991
 50
119.99999999519009
 51
239.99999999548629
  0
LINE
  5
4D38
  8
01
 10
4255.2997021699193
 20
22.368895240547889
 30
0.0
 11
4255.175540826438
 21
22.44057982583729
 31
0.0
  0
LINE
  5
4D39
  8
01
 10
4161.5497021746733
 20
-240.64528661457041
 30
0.0
 11
4253.1282379988843
 21
-239.0467773257391
 31
0.0
  0
ARC
  5
4D3A
  8
01
 10
4253.0497021699202
 20
-234.54746269753591
 30
0.0
 40
4.5
 50
270.99999999997573
 51
0.0
  0
LINE
  5
4D60
  8
1DIM
 10
3887.755673407531
 20
98.979810310327267
 30
0.0
 11
3890.487259662912
 21
98.979810310327267
 31
0.0
  0
LINE
  5
4D61
  8
1DIM
 10
3887.755673407531
 20
77.979810310329071
 30
0.0
 11
3890.487259662912
 21
77.97981031033089
 31
0.0
  0
ARC
  5
4D93
  8
01
 10
4118.7497021740319
 20
-202.02018968866869
 30
0.0
 40
1.0
 50
180.00000000114639
 51
270.00000000114642
  0
LINE
  5
4D94
  8
01
 10
4117.7497021734071
 20
-171.02018968867591
 30
0.0
 11
4117.7497021740328
 21
-202.020189688676
 31
0.0
  0
LINE
  5
4D95
  8
01
 10
4125.5497021733954
 20
-170.02018968851581
 30
0.0
 11
4118.7497021733916
 21
-170.02018968865411
 31
0.0
  0
ARC
  5
4D96
  8
01
 10
4118.7497021734071
 20
-171.02018968866869
 30
0.0
 40
1.0
 50
90.000000001146418
 51
180.00000000114639
  0
LINE
  5
4D97
  8
01
 10
4125.5497021740566
 20
-203.0201896885159
 30
0.0
 11
4118.7497021740483
 21
-203.02018968865411
 31
0.0
  0
LINE
  5
4D98
  8
01
 10
4129.5497021746642
 20
436.47981031033089
 30
0.0
 11
4129.5497021746642
 21
-259.52018968966911
 31
0.0
  0
LINE
  5
4D99
  8
01
 10
4128.5497021746614
 20
-260.52018968966178
 30
0.0
 11
4129.5497021746614
 21
-259.52018968966178
 31
0.0
  0
LINE
  5
4D9A
  8
01
 10
4125.5497021746651
 20
436.47981031033089
 30
0.0
 11
4125.5497021746614
 21
-259.52018968966178
 31
0.0
  0
LINE
  5
4D9B
  8
01
 10
4126.5497021746623
 20
-260.52018968966178
 30
0.0
 11
4125.5497021746614
 21
-259.52018968966178
 31
0.0
  0
LINE
  5
4D9C
  8
01
 10
4126.5497021746623
 20
-260.52018968966178
 30
0.0
 11
4128.5497021746614
 21
-260.52018968966178
 31
0.0
  0
LINE
  5
4D9D
  8
01
 10
4131.6997021746593
 20
103.4798103103254
 30
0.0
 11
4129.5497021746642
 21
103.4798103103254
 31
0.0
  0
LINE
  5
4D9E
  8
01
 10
4125.5497021746633
 20
103.4798103103254
 30
0.0
 11
4123.3997021746582
 21
103.4798103103254
 31
0.0
  0
LINE
  5
4D9F
  8
01
 10
4131.6997021746593
 20
73.479810310325433
 30
0.0
 11
4129.5497021746642
 21
73.479810310325433
 31
0.0
  0
LINE
  5
4DA0
  8
01
 10
4125.5497021746633
 20
73.479810310325433
 30
0.0
 11
4123.3997021746582
 21
73.479810310325433
 31
0.0
  0
LINE
  5
4DA1
  8
01
 10
4123.3997021746582
 20
73.479810310325433
 30
0.0
 11
4123.3997021746582
 21
103.4798103103254
 31
0.0
  0
LINE
  5
4DA2
  8
01
 10
4124.1997021746593
 20
73.479810310325433
 30
0.0
 11
4124.1997021746593
 21
103.4798103103254
 31
0.0
  0
LINE
  5
4DA3
  8
01
 10
4131.6997021746593
 20
103.4798103103254
 30
0.0
 11
4131.6997021746593
 21
73.479810310325433
 31
0.0
  0
LINE
  5
4DA4
  8
01
 10
4130.8997021746582
 20
103.4798103103254
 30
0.0
 11
4130.8997021746582
 21
73.479810310325433
 31
0.0
  0
ARC
  5
4DA5
  8
01
 10
4131.5497021738529
 20
-171.52018968769909
 30
0.0
 40
1.0
 50
0.0050838446879725
 51
89.999999999895778
  0
LINE
  5
4DA6
  8
01
 10
4129.5497021738456
 20
-170.52018968768459
 30
0.0
 11
4131.5497021738529
 21
-170.52018968769909
 31
0.0
  0
LINE
  5
4DA7
  8
01
 10
4129.5497021738456
 20
-202.52018968750991
 30
0.0
 11
4131.5497021738529
 21
-202.52018968749539
 31
0.0
  0
ARC
  5
4DA8
  8
01
 10
4131.5497021738529
 20
-201.52018968749539
 30
0.0
 40
1.0
 50
270.00000000015632
 51
359.99491615531201
  0
LINE
  5
4DA9
  8
1DIM
 10
4128.5497021746614
 20
-260.52018968966178
 30
0.0
 11
4128.5497021746614
 21
437.47981031031912
 31
0.0
  0
LINE
  5
4DAA
  8
1DIM
 10
4126.5497021746623
 20
-260.52018968966178
 30
0.0
 11
4126.5497021746633
 21
437.4798103103227
 31
0.0
  0
LINE
  5
4DAB
  8
01
 10
4125.5497021746596
 20
74.479810310329071
 30
0.0
 11
4124.1997021746647
 21
74.479810310329071
 31
0.0
  0
LINE
  5
4DAC
  8
01
 10
4125.5497021746596
 20
102.479810310329
 30
0.0
 11
4124.1997021746647
 21
102.4798103103272
 31
0.0
  0
LINE
  5
4DAD
  8
01
 10
4132.4497021805782
 20
94.379810310326889
 30
0.0
 11
4132.5497021699166
 21
94.379810310326889
 31
0.0
  0
LINE
  5
4DAE
  8
01
 10
4132.4497021805782
 20
82.579810310327616
 30
0.0
 11
4132.5497021699166
 21
82.579810310327616
 31
0.0
  0
LINE
  5
4DAF
  8
01
 10
4132.4497021805782
 20
94.379810310326889
 30
0.0
 11
4132.4497021805782
 21
82.579810310327616
 31
0.0
  0
ARC
  5
4DB0
  8
01
 10
4136.1122021746587
 20
88.479810310327252
 30
0.0
 40
4.412500000000426
 50
146.1016480083197
 51
213.8983519916803
  0
LINE
  5
4DB1
  8
01
 10
3887.755673407531
 20
73.479810310329981
 30
0.0
 11
3859.7556734075301
 21
73.479810310329981
 31
0.0
  0
ARC
  5
4DB2
  8
01
 10
3859.7556734075301
 20
75.479810310329981
 30
0.0
 40
2.0
 50
180.0
 51
270.0
  0
LINE
  5
4DB3
  8
01
 10
3887.755673407531
 20
103.47981031033
 30
0.0
 11
3859.755673407532
 21
103.47981031033
 31
0.0
  0
LINE
  5
4DB4
  8
01
 10
3887.755673407531
 20
103.47981031033
 30
0.0
 11
3887.755673407531
 21
73.479810310329981
 31
0.0
  0
LINE
  5
4DB5
  8
01
 10
3857.755673407531
 20
75.479810310329981
 30
0.0
 11
3857.755673407531
 21
101.4798103103299
 31
0.0
  0
ARC
  5
4DB6
  8
01
 10
3859.755673407532
 20
101.4798103103299
 30
0.0
 40
2.0
 50
90.0
 51
180.0
  0
LINE
  5
4DB8
  8
01
 10
4235.0497021734973
 20
314.8932966243807
 30
0.0
 11
4235.0497021734973
 21
322.06632399309791
 31
0.0
  0
ARC
  5
4DB9
  8
01
 10
4230.0497021734982
 20
314.8932966243807
 30
0.0
 40
5.0
 50
270.99999999997573
 51
0.0
  0
LINE
  5
4DBA
  8
1CENTER
 10
4204.549702168757
 20
325.00060621741397
 30
0.0
 11
4204.549702168757
 21
311.9590144063892
 31
0.0
  0
LINE
  5
4DBB
  8
1CENTER
 10
4211.0704980774299
 20
318.47981030874291
 30
0.0
 11
4198.0289062664042
 21
318.47981030874291
 31
0.0
  0
ARC
  5
4DBC
  8
01
 10
4316.9382252583164
 20
-544.37362360202167
 30
0.0
 40
1000.0
 50
98.939330005649239
 51
100.577893814167
  0
ARC
  5
4DBD
  8
01
 10
4133.5497021699184
 20
437.64961929982343
 30
0.0
 40
1.0
 50
100.5778938141146
 51
180.0
  0
CIRCLE
  5
4DBE
  8
01
 10
4204.5497021687579
 20
318.47981030875752
 30
0.0
 40
2.250000000014551
  0
LINE
  5
4DBF
  8
01
 10
4161.5497021746733
 20
308.69686303660239
 30
0.0
 11
4230.1369642056834
 21
309.89405814859822
 31
0.0
  0
LINE
  5
4DC0
  8
01
 10
4161.5497021746733
 20
328.26275758088349
 30
0.0
 11
4230.1369642056834
 21
327.06556246888027
 31
0.0
  0
ARC
  5
4DC1
  8
01
 10
4230.0497021734982
 20
322.06632399309791
 30
0.0
 40
5.0
 50
0.0
 51
89.000000000024301
  0
LINE
  5
4DC2
  8
01
 10
4161.5497021746733
 20
417.6049072352285
 30
0.0
 11
4253.1282379988843
 21
416.00639794639721
 31
0.0
  0
ARC
  5
4DC3
  8
01
 10
4253.0497021699202
 20
411.50708331819402
 30
0.0
 40
4.5
 50
0.0
 51
89.000000000024301
  0
ARC
  5
4DC4
  8
01
 10
4118.7497021740319
 20
378.97981030932681
 30
0.0
 40
1.0
 50
89.999999998853596
 51
179.99999999885361
  0
LINE
  5
4DC5
  8
01
 10
4117.7497021734071
 20
347.97981030933408
 30
0.0
 11
4117.7497021740328
 21
378.97981030933408
 31
0.0
  0
LINE
  5
4DC6
  8
01
 10
4125.5497021733954
 20
346.97981030917401
 30
0.0
 11
4118.7497021733916
 21
346.9798103093122
 31
0.0
  0
ARC
  5
4DC7
  8
01
 10
4118.7497021734071
 20
347.97981030932681
 30
0.0
 40
1.0
 50
179.99999999885361
 51
269.99999999885358
  0
LINE
  5
4DC8
  8
01
 10
4125.5497021740566
 20
379.97981030917401
 30
0.0
 11
4118.7497021740483
 21
379.9798103093122
 31
0.0
  0
LINE
  5
4DC9
  8
01
 10
4128.5497021746614
 20
437.47981031031992
 30
0.0
 11
4129.5497021746614
 21
436.47981031031998
 31
0.0
  0
LINE
  5
4DCA
  8
01
 10
4126.5497021746623
 20
437.47981031031992
 30
0.0
 11
4125.5497021746614
 21
436.47981031031998
 31
0.0
  0
LINE
  5
4DCB
  8
01
 10
4126.5497021746623
 20
437.47981031031992
 30
0.0
 11
4128.5497021746614
 21
437.47981031031992
 31
0.0
  0
ARC
  5
4DCC
  8
01
 10
4131.5497021738529
 20
348.47981030835729
 30
0.0
 40
1.0
 50
270.00000000010419
 51
359.99491615531201
  0
LINE
  5
4DCD
  8
01
 10
4129.5497021738456
 20
347.47981030834268
 30
0.0
 11
4131.5497021738529
 21
347.47981030835729
 31
0.0
  0
LINE
  5
4DCE
  8
01
 10
4129.5497021738456
 20
379.47981030816811
 30
0.0
 11
4131.5497021738529
 21
379.47981030815362
 31
0.0
  0
ARC
  5
4DCF
  8
01
 10
4131.5497021738529
 20
378.47981030815362
 30
0.0
 40
1.0
 50
0.0050838446879725
 51
89.999999999843666
  0
ARC
  5
4DD3
  8
01
 10
4133.0497021746851
 20
75.265983010265359
 30
0.0
 40
0.5
 50
90.500000000017607
 51
180.0
  0
ARC
  5
4DD4
  8
01
 10
4133.0497021746842
 20
101.6936376103891
 30
0.0
 40
0.5
 50
180.0
 51
269.49999999998238
  0
LINE
  5
4DD5
  8
01
 10
4155.8766830210652
 20
100.99441052729129
 30
0.0
 11
4133.0453389069344
 21
101.1936566488599
 31
0.0
  0
LINE
  5
4DD6
  8
01
 10
4155.8517082621029
 20
75.964992141945572
 30
0.0
 11
4133.0453389069362
 21
75.765963971794577
 31
0.0
  0
LINE
  5
4DD7
  8
01
 10
4157.5497021746733
 20
98.979810310325433
 30
0.0
 11
4157.5497021746733
 21
77.97981031033089
 31
0.0
  0
LINE
  5
4DD8
  8
1DIM
 10
4157.5497021746733
 20
98.979810310327267
 30
0.0
 11
4132.5497021746733
 21
98.979810310327267
 31
0.0
  0
LINE
  5
4DD9
  8
1DIM
 10
4157.5497021746733
 20
77.97981031033089
 30
0.0
 11
4132.5497021746733
 21
77.97981031033089
 31
0.0
  0
POLYLINE
  5
4DDA
  8
01
 10
4157.5497021746733
 20
98.979810310327267
 30
0.0
 66
     1
 70
     8
  0
VERTEX
  8
01
  5
78B7
 10
4157.55
 20
98.9798
 30
0.000000
  70
    32
  0
VERTEX
  8
01
  5
78B8
 10
4157.55
 20
99.0045
 30
0.000000
  70
    32
  0
VERTEX
  8
01
  5
78B9
 10
4157.55
 20
99.0293
 30
0.000000
  70
    32
  0
VERTEX
  8
01
  5
78BA
 10
4157.55
 20
99.0540
 30
0.000000
  70
    32
  0
VERTEX
  8
01
  5
78BB
 10
4157.55
 20
99.0787
 30
0.000000
  70
    32
  0
VERTEX
  8
01
  5
78BC
 10
4157.55
 20
99.1034
 30
0.000000
  70
    32
  0
VERTEX
  8
01
  5
78BD
 10
4157.55
 20
99.1280
 30
0.000000
  70
    32
  0
VERTEX
  8
01
  5
78BE
 10
4157.54
 20
99.1527
 30
0.000000
  70
    32
  0
VERTEX
  8
01
  5
78BF
 10
4157.54
 20
99.1773
 30
0.000000
  70
    32
  0
VERTEX
  8
01
  5
78C0
 10
4157.54
 20
99.2019
 30
0.000000
  70
    32
  0
VERTEX
  8
01
  5
78C1
 10
4157.54
 20
99.2264
 30
0.000000
  70
    32
  0
VERTEX
  8
01
  5
78C2
 10
4157.53
 20
99.2510
 30
0.000000
  70
    32
  0
VERTEX
  8
01
  5
78C3
 10
4157.53
 20
99.2754
 30
0.000000
  70
    32
  0
VERTEX
  8
01
  5
78C4
 10
4157.53
 20
99.2999
 30
0.000000
  70
    32
  0
VERTEX
  8
01
  5
78C5
 10
4157.52
 20
99.3243
 30
0.000000
  70
    32
  0
VERTEX
  8
01
  5
78C6
 10
4157.52
 20
99.3486
 30
0.000000
  70
    32
  0
VERTEX
  8
01
  5
78C7
 10
4157.52
 20
99.3729
 30
0.000000
  70
    32
  0
VERTEX
  8
01
  5
78C8
 10
4157.51
 20
99.3971
 30
0.000000
  70
    32
  0
VERTEX
  8
01
  5
78C9
 10
4157.51
 20
99.4213
 30
0.000000
  70
    32
  0
VERTEX
  8
01
  5
78CA
 10
4157.50
 20
99.4454
 30
0.000000
  70
    32
  0
VERTEX
  8
01
  5
78CB
 10
4157.50
 20
99.4694
 30
0.000000
  70
    32
  0
VERTEX
  8
01
  5
78CC
 10
4157.49
 20
99.4933
 30
0.000000
  70
    32
  0
VERTEX
  8
01
  5
78CD
 10
4157.49
 20
99.5172
 30
0.000000
  70
    32
  0
VERTEX
  8
01
  5
78CE
 10
4157.48
 20
99.5410
 30
0.000000
  70
    32
  0
VERTEX
  8
01
  5
78CF
 10
4157.48
 20
99.5647
 30
0.000000
  70
    32
  0
VERTEX
  8
01
  5
78D0
 10
4157.47
 20
99.5883
 30
0.000000
  70
    32
  0
VERTEX
  8
01
  5
78D1
 10
4157.46
 20
99.6118
 30
0.000000
  70
    32
  0
VERTEX
  8
01
  5
78D2
 10
4157.46
 20
99.6353
 30
0.000000
  70
    32
  0
VERTEX
  8
01
  5
78D3
 10
4157.45
 20
99.6586
 30
0.000000
  70
    32
  0
VERTEX
  8
01
  5
78D4
 10
4157.44
 20
99.6818
 30
0.000000
  70
    32
  0
VERTEX
  8
01
  5
78D5
 10
4157.44
 20
99.7049
 30
0.000000
  70
    32
  0
VERTEX
  8
01
  5
78D6
 10
4157.43
 20
99.7279
 30
0.000000
  70
    32
  0
VERTEX
  8
01
  5
78D7
 10
4157.42
 20
99.7508
 30
0.000000
  70
    32
  0
VERTEX
  8
01
  5
78D8
 10
4157.41
 20
99.7736
 30
0.000000
  70
    32
  0
VERTEX
  8
01
  5
78D9
 10
4157.40
 20
99.7963
 30
0.000000
  70
    32
  0
VERTEX
  8
01
  5
78DA
 10
4157.40
 20
99.8188
 30
0.000000
  70
    32
  0
VERTEX
  8
01
  5
78DB
 10
4157.39
 20
99.8413
 30
0.000000
  70
    32
  0
VERTEX
  8
01
  5
78DC
 10
4157.38
 20
99.8635
 30
0.000000
  70
    32
  0
VERTEX
  8
01
  5
78DD
 10
4157.37
 20
99.8857
 30
0.000000
  70
    32
  0
VERTEX
  8
01
  5
78DE
 10
4157.36
 20
99.9077
 30
0.000000
  70
    32
  0
VERTEX
  8
01
  5
78DF
 10
4157.35
 20
99.9296
 30
0.000000
  70
    32
  0
VERTEX
  8
01
  5
78E0
 10
4157.34
 20
99.9513
 30
0.000000
  70
    32
  0
VERTEX
  8
01
  5
78E1
 10
4157.33
 20
99.9729
 30
0.000000
  70
    32
  0
VERTEX
  8
01
  5
78E2
 10
4157.32
 20
99.9943
 30
0.000000
  70
    32
  0
VERTEX
  8
01
  5
78E3
 10
4157.31
 20
100.016
 30
0.000000
  70
    32
  0
VERTEX
  8
01
  5
78E4
 10
4157.30
 20
100.037
 30
0.000000
  70
    32
  0
VERTEX
  8
01
  5
78E5
 10
4157.29
 20
100.058
 30
0.000000
  70
    32
  0
VERTEX
  8
01
  5
78E6
 10
4157.28
 20
100.079
 30
0.000000
  70
    32
  0
VERTEX
  8
01
  5
78E7
 10
4157.26
 20
100.099
 30
0.000000
  70
    32
  0
VERTEX
  8
01
  5
78E8
 10
4157.25
 20
100.120
 30
0.000000
  70
    32
  0
VERTEX
  8
01
  5
78E9
 10
4157.24
 20
100.140
 30
0.000000
  70
    32
  0
VERTEX
  8
01
  5
78EA
 10
4157.23
 20
100.160
 30
0.000000
  70
    32
  0
VERTEX
  8
01
  5
78EB
 10
4157.22
 20
100.180
 30
0.000000
  70
    32
  0
VERTEX
  8
01
  5
78EC
 10
4157.20
 20
100.200
 30
0.000000
  70
    32
  0
VERTEX
  8
01
  5
78ED
 10
4157.19
 20
100.219
 30
0.000000
  70
    32
  0
VERTEX
  8
01
  5
78EE
 10
4157.18
 20
100.239
 30
0.000000
  70
    32
  0
VERTEX
  8
01
  5
78EF
 10
4157.16
 20
100.258
 30
0.000000
  70
    32
  0
VERTEX
  8
01
  5
78F0
 10
4157.15
 20
100.277
 30
0.000000
  70
    32
  0
VERTEX
  8
01
  5
78F1
 10
4157.14
 20
100.296
 30
0.000000
  70
    32
  0
VERTEX
  8
01
  5
78F2
 10
4157.12
 20
100.314
 30
0.000000
  70
    32
  0
VERTEX
  8
01
  5
78F3
 10
4157.11
 20
100.333
 30
0.000000
  70
    32
  0
VERTEX
  8
01
  5
78F4
 10
4157.10
 20
100.351
 30
0.000000
  70
    32
  0
VERTEX
  8
01
  5
78F5
 10
4157.08
 20
100.369
 30
0.000000
  70
    32
  0
VERTEX
  8
01
  5
78F6
 10
4157.07
 20
100.387
 30
0.000000
  70
    32
  0
VERTEX
  8
01
  5
78F7
 10
4157.05
 20
100.405
 30
0.000000
  70
    32
  0
VERTEX
  8
01
  5
78F8
 10
4157.04
 20
100.422
 30
0.000000
  70
    32
  0
VERTEX
  8
01
  5
78F9
 10
4157.02
 20
100.439
 30
0.000000
  70
    32
  0
VERTEX
  8
01
  5
78FA
 10
4157.01
 20
100.456
 30
0.000000
  70
    32
  0
VERTEX
  8
01
  5
78FB
 10
4156.99
 20
100.473
 30
0.000000
  70
    32
  0
VERTEX
  8
01
  5
78FC
 10
4156.98
 20
100.489
 30
0.000000
  70
    32
  0
VERTEX
  8
01
  5
78FD
 10
4156.96
 20
100.505
 30
0.000000
  70
    32
  0
VERTEX
  8
01
  5
78FE
 10
4156.94
 20
100.521
 30
0.000000
  70
    32
  0
VERTEX
  8
01
  5
78FF
 10
4156.93
 20
100.537
 30
0.000000
  70
    32
  0
VERTEX
  8
01
  5
7900
 10
4156.91
 20
100.553
 30
0.000000
  70
    32
  0
VERTEX
  8
01
  5
7901
 10
4156.90
 20
100.568
 30
0.000000
  70
    32
  0
VERTEX
  8
01
  5
7902
 10
4156.88
 20
100.583
 30
0.000000
  70
    32
  0
VERTEX
  8
01
  5
7903
 10
4156.86
 20
100.598
 30
0.000000
  70
    32
  0
VERTEX
  8
01
  5
7904
 10
4156.85
 20
100.613
 30
0.000000
  70
    32
  0
VERTEX
  8
01
  5
7905
 10
4156.83
 20
100.627
 30
0.000000
  70
    32
  0
VERTEX
  8
01
  5
7906
 10
4156.81
 20
100.641
 30
0.000000
  70
    32
  0
VERTEX
  8
01
  5
7907
 10
4156.80
 20
100.655
 30
0.000000
  70
    32
  0
VERTEX
  8
01
  5
7908
 10
4156.78
 20
100.669
 30
0.000000
  70
    32
  0
VERTEX
  8
01
  5
7909
 10
4156.76
 20
100.682
 30
0.000000
  70
    32
  0
VERTEX
  8
01
  5
790A
 10
4156.74
 20
100.695
 30
0.000000
  70
    32
  0
VERTEX
  8
01
  5
790B
 10
4156.72
 20
100.708
 30
0.000000
  70
    32
  0
VERTEX
  8
01
  5
790C
 10
4156.71
 20
100.721
 30
0.000000
  70
    32
  0
VERTEX
  8
01
  5
790D
 10
4156.69
 20
100.733
 30
0.000000
  70
    32
  0
VERTEX
  8
01
  5
790E
 10
4156.67
 20
100.745
 30
0.000000
  70
    32
  0
VERTEX
  8
01
  5
790F
 10
4156.65
 20
100.757
 30
0.000000
  70
    32
  0
VERTEX
  8
01
  5
7910
 10
4156.63
 20
100.768
 30
0.000000
  70
    32
  0
VERTEX
  8
01
  5
7911
 10
4156.62
 20
100.779
 30
0.000000
  70
    32
  0
VERTEX
  8
01
  5
7912
 10
4156.60
 20
100.790
 30
0.000000
  70
    32
  0
VERTEX
  8
01
  5
7913
 10
4156.58
 20
100.801
 30
0.000000
  70
    32
  0
VERTEX
  8
01
  5
7914
 10
4156.56
 20
100.812
 30
0.000000
  70
    32
  0
VERTEX
  8
01
  5
7915
 10
4156.54
 20
100.822
 30
0.000000
  70
    32
  0
VERTEX
  8
01
  5
7916
 10
4156.52
 20
100.832
 30
0.000000
  70
    32
  0
VERTEX
  8
01
  5
7917
 10
4156.50
 20
100.841
 30
0.000000
  70
    32
  0
VERTEX
  8
01
  5
7918
 10
4156.48
 20
100.851
 30
0.000000
  70
    32
  0
VERTEX
  8
01
  5
7919
 10
4156.46
 20
100.860
 30
0.000000
  70
    32
  0
VERTEX
  8
01
  5
791A
 10
4156.44
 20
100.868
 30
0.000000
  70
    32
  0
VERTEX
  8
01
  5
791B
 10
4156.42
 20
100.877
 30
0.000000
  70
    32
  0
VERTEX
  8
01
  5
791C
 10
4156.40
 20
100.885
 30
0.000000
  70
    32
  0
VERTEX
  8
01
  5
791D
 10
4156.38
 20
100.893
 30
0.000000
  70
    32
  0
VERTEX
  8
01
  5
791E
 10
4156.36
 20
100.901
 30
0.000000
  70
    32
  0
VERTEX
  8
01
  5
791F
 10
4156.34
 20
100.908
 30
0.000000
  70
    32
  0
VERTEX
  8
01
  5
7920
 10
4156.32
 20
100.915
 30
0.000000
  70
    32
  0
VERTEX
  8
01
  5
7921
 10
4156.30
 20
100.922
 30
0.000000
  70
    32
  0
VERTEX
  8
01
  5
7922
 10
4156.28
 20
100.928
 30
0.000000
  70
    32
  0
VERTEX
  8
01
  5
7923
 10
4156.26
 20
100.934
 30
0.000000
  70
    32
  0
VERTEX
  8
01
  5
7924
 10
4156.24
 20
100.940
 30
0.000000
  70
    32
  0
VERTEX
  8
01
  5
7925
 10
4156.22
 20
100.946
 30
0.000000
  70
    32
  0
VERTEX
  8
01
  5
7926
 10
4156.20
 20
100.951
 30
0.000000
  70
    32
  0
VERTEX
  8
01
  5
7927
 10
4156.18
 20
100.956
 30
0.000000
  70
    32
  0
VERTEX
  8
01
  5
7928
 10
4156.16
 20
100.961
 30
0.000000
  70
    32
  0
VERTEX
  8
01
  5
7929
 10
4156.14
 20
100.965
 30
0.000000
  70
    32
  0
VERTEX
  8
01
  5
792A
 10
4156.12
 20
100.969
 30
0.000000
  70
    32
  0
VERTEX
  8
01
  5
792B
 10
4156.10
 20
100.973
 30
0.000000
  70
    32
  0
VERTEX
  8
01
  5
792C
 10
4156.08
 20
100.976
 30
0.000000
  70
    32
  0
VERTEX
  8
01
  5
792D
 10
4156.06
 20
100.979
 30
0.000000
  70
    32
  0
VERTEX
  8
01
  5
792E
 10
4156.04
 20
100.982
 30
0.000000
  70
    32
  0
VERTEX
  8
01
  5
792F
 10
4156.02
 20
100.985
 30
0.000000
  70
    32
  0
VERTEX
  8
01
  5
7930
 10
4156.00
 20
100.987
 30
0.000000
  70
    32
  0
VERTEX
  8
01
  5
7931
 10
4155.98
 20
100.989
 30
0.000000
  70
    32
  0
VERTEX
  8
01
  5
7932
 10
4155.96
 20
100.991
 30
0.000000
  70
    32
  0
VERTEX
  8
01
  5
7933
 10
4155.94
 20
100.992
 30
0.000000
  70
    32
  0
VERTEX
  8
01
  5
7934
 10
4155.91
 20
100.993
 30
0.000000
  70
    32
  0
VERTEX
  8
01
  5
7935
 10
4155.89
 20
100.994
 30
0.000000
  70
    32
  0
VERTEX
  8
01
  5
7936
 10
4155.87
 20
100.994
 30
0.000000
  70
    32
  0
VERTEX
  8
01
  5
7937
 10
4155.85
 20
100.995
 30
0.000000
  70
    32
  0
SEQEND
  8
01
  5
7938
  0
POLYLINE
  5
4DDB
  8
01
 10
4157.5497021746733
 20
77.97981031033089
 30
0.0
 66
     1
 70
     8
  0
VERTEX
  8
01
  5
7939
 10
4157.55
 20
77.9798
 30
0.000000
  70
    32
  0
VERTEX
  8
01
  5
793A
 10
4157.55
 20
77.9551
 30
0.000000
  70
    32
  0
VERTEX
  8
01
  5
793B
 10
4157.55
 20
77.9304
 30
0.000000
  70
    32
  0
VERTEX
  8
01
  5
793C
 10
4157.55
 20
77.9057
 30
0.000000
  70
    32
  0
VERTEX
  8
01
  5
793D
 10
4157.55
 20
77.8809
 30
0.000000
  70
    32
  0
VERTEX
  8
01
  5
793E
 10
4157.55
 20
77.8563
 30
0.000000
  70
    32
  0
VERTEX
  8
01
  5
793F
 10
4157.55
 20
77.8316
 30
0.000000
  70
    32
  0
VERTEX
  8
01
  5
7940
 10
4157.54
 20
77.8069
 30
0.000000
  70
    32
  0
VERTEX
  8
01
  5
7941
 10
4157.54
 20
77.7823
 30
0.000000
  70
    32
  0
VERTEX
  8
01
  5
7942
 10
4157.54
 20
77.7577
 30
0.000000
  70
    32
  0
VERTEX
  8
01
  5
7943
 10
4157.54
 20
77.7332
 30
0.000000
  70
    32
  0
VERTEX
  8
01
  5
7944
 10
4157.53
 20
77.7087
 30
0.000000
  70
    32
  0
VERTEX
  8
01
  5
7945
 10
4157.53
 20
77.6842
 30
0.000000
  70
    32
  0
VERTEX
  8
01
  5
7946
 10
4157.53
 20
77.6597
 30
0.000000
  70
    32
  0
VERTEX
  8
01
  5
7947
 10
4157.52
 20
77.6354
 30
0.000000
  70
    32
  0
VERTEX
  8
01
  5
7948
 10
4157.52
 20
77.6110
 30
0.000000
  70
    32
  0
VERTEX
  8
01
  5
7949
 10
4157.52
 20
77.5867
 30
0.000000
  70
    32
  0
VERTEX
  8
01
  5
794A
 10
4157.51
 20
77.5625
 30
0.000000
  70
    32
  0
VERTEX
  8
01
  5
794B
 10
4157.51
 20
77.5384
 30
0.000000
  70
    32
  0
VERTEX
  8
01
  5
794C
 10
4157.50
 20
77.5143
 30
0.000000
  70
    32
  0
VERTEX
  8
01
  5
794D
 10
4157.50
 20
77.4902
 30
0.000000
  70
    32
  0
VERTEX
  8
01
  5
794E
 10
4157.49
 20
77.4663
 30
0.000000
  70
    32
  0
VERTEX
  8
01
  5
794F
 10
4157.49
 20
77.4424
 30
0.000000
  70
    32
  0
VERTEX
  8
01
  5
7950
 10
4157.48
 20
77.4186
 30
0.000000
  70
    32
  0
VERTEX
  8
01
  5
7951
 10
4157.48
 20
77.3949
 30
0.000000
  70
    32
  0
VERTEX
  8
01
  5
7952
 10
4157.47
 20
77.3713
 30
0.000000
  70
    32
  0
VERTEX
  8
01
  5
7953
 10
4157.46
 20
77.3478
 30
0.000000
  70
    32
  0
VERTEX
  8
01
  5
7954
 10
4157.46
 20
77.3244
 30
0.000000
  70
    32
  0
VERTEX
  8
01
  5
7955
 10
4157.45
 20
77.3010
 30
0.000000
  70
    32
  0
VERTEX
  8
01
  5
7956
 10
4157.44
 20
77.2778
 30
0.000000
  70
    32
  0
VERTEX
  8
01
  5
7957
 10
4157.44
 20
77.2547
 30
0.000000
  70
    32
  0
VERTEX
  8
01
  5
7958
 10
4157.43
 20
77.2317
 30
0.000000
  70
    32
  0
VERTEX
  8
01
  5
7959
 10
4157.42
 20
77.2088
 30
0.000000
  70
    32
  0
VERTEX
  8
01
  5
795A
 10
4157.41
 20
77.1860
 30
0.000000
  70
    32
  0
VERTEX
  8
01
  5
795B
 10
4157.40
 20
77.1633
 30
0.000000
  70
    32
  0
VERTEX
  8
01
  5
795C
 10
4157.40
 20
77.1408
 30
0.000000
  70
    32
  0
VERTEX
  8
01
  5
795D
 10
4157.39
 20
77.1184
 30
0.000000
  70
    32
  0
VERTEX
  8
01
  5
795E
 10
4157.38
 20
77.0961
 30
0.000000
  70
    32
  0
VERTEX
  8
01
  5
795F
 10
4157.37
 20
77.0739
 30
0.000000
  70
    32
  0
VERTEX
  8
01
  5
7960
 10
4157.36
 20
77.0519
 30
0.000000
  70
    32
  0
VERTEX
  8
01
  5
7961
 10
4157.35
 20
77.0300
 30
0.000000
  70
    32
  0
VERTEX
  8
01
  5
7962
 10
4157.34
 20
77.0083
 30
0.000000
  70
    32
  0
VERTEX
  8
01
  5
7963
 10
4157.33
 20
76.9867
 30
0.000000
  70
    32
  0
VERTEX
  8
01
  5
7964
 10
4157.32
 20
76.9653
 30
0.000000
  70
    32
  0
VERTEX
  8
01
  5
7965
 10
4157.31
 20
76.9440
 30
0.000000
  70
    32
  0
VERTEX
  8
01
  5
7966
 10
4157.30
 20
76.9229
 30
0.000000
  70
    32
  0
VERTEX
  8
01
  5
7967
 10
4157.29
 20
76.9019
 30
0.000000
  70
    32
  0
VERTEX
  8
01
  5
7968
 10
4157.28
 20
76.8811
 30
0.000000
  70
    32
  0
VERTEX
  8
01
  5
7969
 10
4157.26
 20
76.8604
 30
0.000000
  70
    32
  0
VERTEX
  8
01
  5
796A
 10
4157.25
 20
76.8400
 30
0.000000
  70
    32
  0
VERTEX
  8
01
  5
796B
 10
4157.24
 20
76.8197
 30
0.000000
  70
    32
  0
VERTEX
  8
01
  5
796C
 10
4157.23
 20
76.7995
 30
0.000000
  70
    32
  0
VERTEX
  8
01
  5
796D
 10
4157.22
 20
76.7796
 30
0.000000
  70
    32
  0
VERTEX
  8
01
  5
796E
 10
4157.20
 20
76.7598
 30
0.000000
  70
    32
  0
VERTEX
  8
01
  5
796F
 10
4157.19
 20
76.7402
 30
0.000000
  70
    32
  0
VERTEX
  8
01
  5
7970
 10
4157.18
 20
76.7208
 30
0.000000
  70
    32
  0
VERTEX
  8
01
  5
7971
 10
4157.16
 20
76.7016
 30
0.000000
  70
    32
  0
VERTEX
  8
01
  5
7972
 10
4157.15
 20
76.6826
 30
0.000000
  70
    32
  0
VERTEX
  8
01
  5
7973
 10
4157.14
 20
76.6638
 30
0.000000
  70
    32
  0
VERTEX
  8
01
  5
7974
 10
4157.12
 20
76.6452
 30
0.000000
  70
    32
  0
VERTEX
  8
01
  5
7975
 10
4157.11
 20
76.6267
 30
0.000000
  70
    32
  0
VERTEX
  8
01
  5
7976
 10
4157.10
 20
76.6085
 30
0.000000
  70
    32
  0
VERTEX
  8
01
  5
7977
 10
4157.08
 20
76.5905
 30
0.000000
  70
    32
  0
VERTEX
  8
01
  5
7978
 10
4157.07
 20
76.5727
 30
0.000000
  70
    32
  0
VERTEX
  8
01
  5
7979
 10
4157.05
 20
76.5551
 30
0.000000
  70
    32
  0
VERTEX
  8
01
  5
797A
 10
4157.04
 20
76.5377
 30
0.000000
  70
    32
  0
VERTEX
  8
01
  5
797B
 10
4157.02
 20
76.5206
 30
0.000000
  70
    32
  0
VERTEX
  8
01
  5
797C
 10
4157.01
 20
76.5036
 30
0.000000
  70
    32
  0
VERTEX
  8
01
  5
797D
 10
4156.99
 20
76.4869
 30
0.000000
  70
    32
  0
VERTEX
  8
01
  5
797E
 10
4156.98
 20
76.4704
 30
0.000000
  70
    32
  0
VERTEX
  8
01
  5
797F
 10
4156.96
 20
76.4542
 30
0.000000
  70
    32
  0
VERTEX
  8
01
  5
7980
 10
4156.94
 20
76.4381
 30
0.000000
  70
    32
  0
VERTEX
  8
01
  5
7981
 10
4156.93
 20
76.4223
 30
0.000000
  70
    32
  0
VERTEX
  8
01
  5
7982
 10
4156.91
 20
76.4068
 30
0.000000
  70
    32
  0
VERTEX
  8
01
  5
7983
 10
4156.90
 20
76.3914
 30
0.000000
  70
    32
  0
VERTEX
  8
01
  5
7984
 10
4156.88
 20
76.3763
 30
0.000000
  70
    32
  0
VERTEX
  8
01
  5
7985
 10
4156.86
 20
76.3615
 30
0.000000
  70
    32
  0
VERTEX
  8
01
  5
7986
 10
4156.85
 20
76.3469
 30
0.000000
  70
    32
  0
VERTEX
  8
01
  5
7987
 10
4156.83
 20
76.3325
 30
0.000000
  70
    32
  0
VERTEX
  8
01
  5
7988
 10
4156.81
 20
76.3184
 30
0.000000
  70
    32
  0
VERTEX
  8
01
  5
7989
 10
4156.80
 20
76.3046
 30
0.000000
  70
    32
  0
VERTEX
  8
01
  5
798A
 10
4156.78
 20
76.2909
 30
0.000000
  70
    32
  0
VERTEX
  8
01
  5
798B
 10
4156.76
 20
76.2776
 30
0.000000
  70
    32
  0
VERTEX
  8
01
  5
798C
 10
4156.74
 20
76.2645
 30
0.000000
  70
    32
  0
VERTEX
  8
01
  5
798D
 10
4156.72
 20
76.2516
 30
0.000000
  70
    32
  0
VERTEX
  8
01
  5
798E
 10
4156.71
 20
76.2391
 30
0.000000
  70
    32
  0
VERTEX
  8
01
  5
798F
 10
4156.69
 20
76.2267
 30
0.000000
  70
    32
  0
VERTEX
  8
01
  5
7990
 10
4156.67
 20
76.2147
 30
0.000000
  70
    32
  0
VERTEX
  8
01
  5
7991
 10
4156.65
 20
76.2029
 30
0.000000
  70
    32
  0
VERTEX
  8
01
  5
7992
 10
4156.63
 20
76.1914
 30
0.000000
  70
    32
  0
VERTEX
  8
01
  5
7993
 10
4156.62
 20
76.1801
 30
0.000000
  70
    32
  0
VERTEX
  8
01
  5
7994
 10
4156.60
 20
76.1691
 30
0.000000
  70
    32
  0
VERTEX
  8
01
  5
7995
 10
4156.58
 20
76.1584
 30
0.000000
  70
    32
  0
VERTEX
  8
01
  5
7996
 10
4156.56
 20
76.1480
 30
0.000000
  70
    32
  0
VERTEX
  8
01
  5
7997
 10
4156.54
 20
76.1378
 30
0.000000
  70
    32
  0
VERTEX
  8
01
  5
7998
 10
4156.52
 20
76.1280
 30
0.000000
  70
    32
  0
VERTEX
  8
01
  5
7999
 10
4156.50
 20
76.1184
 30
0.000000
  70
    32
  0
VERTEX
  8
01
  5
799A
 10
4156.48
 20
76.1090
 30
0.000000
  70
    32
  0
VERTEX
  8
01
  5
799B
 10
4156.46
 20
76.1000
 30
0.000000
  70
    32
  0
VERTEX
  8
01
  5
799C
 10
4156.44
 20
76.0912
 30
0.000000
  70
    32
  0
VERTEX
  8
01
  5
799D
 10
4156.42
 20
76.0828
 30
0.000000
  70
    32
  0
VERTEX
  8
01
  5
799E
 10
4156.40
 20
76.0746
 30
0.000000
  70
    32
  0
VERTEX
  8
01
  5
799F
 10
4156.38
 20
76.0667
 30
0.000000
  70
    32
  0
VERTEX
  8
01
  5
79A0
 10
4156.36
 20
76.0591
 30
0.000000
  70
    32
  0
VERTEX
  8
01
  5
79A1
 10
4156.34
 20
76.0517
 30
0.000000
  70
    32
  0
VERTEX
  8
01
  5
79A2
 10
4156.32
 20
76.0447
 30
0.000000
  70
    32
  0
VERTEX
  8
01
  5
79A3
 10
4156.30
 20
76.0380
 30
0.000000
  70
    32
  0
VERTEX
  8
01
  5
79A4
 10
4156.28
 20
76.0315
 30
0.000000
  70
    32
  0
VERTEX
  8
01
  5
79A5
 10
4156.26
 20
76.0254
 30
0.000000
  70
    32
  0
VERTEX
  8
01
  5
79A6
 10
4156.24
 20
76.0195
 30
0.000000
  70
    32
  0
VERTEX
  8
01
  5
79A7
 10
4156.22
 20
76.0139
 30
0.000000
  70
    32
  0
VERTEX
  8
01
  5
79A8
 10
4156.20
 20
76.0087
 30
0.000000
  70
    32
  0
VERTEX
  8
01
  5
79A9
 10
4156.18
 20
76.0037
 30
0.000000
  70
    32
  0
VERTEX
  8
01
  5
79AA
 10
4156.16
 20
75.9990
 30
0.000000
  70
    32
  0
VERTEX
  8
01
  5
79AB
 10
4156.14
 20
75.9947
 30
0.000000
  70
    32
  0
VERTEX
  8
01
  5
79AC
 10
4156.12
 20
75.9906
 30
0.000000
  70
    32
  0
VERTEX
  8
01
  5
79AD
 10
4156.10
 20
75.9868
 30
0.000000
  70
    32
  0
VERTEX
  8
01
  5
79AE
 10
4156.08
 20
75.9833
 30
0.000000
  70
    32
  0
VERTEX
  8
01
  5
79AF
 10
4156.06
 20
75.9801
 30
0.000000
  70
    32
  0
VERTEX
  8
01
  5
79B0
 10
4156.04
 20
75.9773
 30
0.000000
  70
    32
  0
VERTEX
  8
01
  5
79B1
 10
4156.02
 20
75.9747
 30
0.000000
  70
    32
  0
VERTEX
  8
01
  5
79B2
 10
4156.00
 20
75.9724
 30
0.000000
  70
    32
  0
VERTEX
  8
01
  5
79B3
 10
4155.98
 20
75.9705
 30
0.000000
  70
    32
  0
VERTEX
  8
01
  5
79B4
 10
4155.96
 20
75.9688
 30
0.000000
  70
    32
  0
VERTEX
  8
01
  5
79B5
 10
4155.94
 20
75.9674
 30
0.000000
  70
    32
  0
VERTEX
  8
01
  5
79B6
 10
4155.91
 20
75.9664
 30
0.000000
  70
    32
  0
VERTEX
  8
01
  5
79B7
 10
4155.89
 20
75.9656
 30
0.000000
  70
    32
  0
VERTEX
  8
01
  5
79B8
 10
4155.87
 20
75.9651
 30
0.000000
  70
    32
  0
VERTEX
  8
01
  5
79B9
 10
4155.85
 20
75.9650
 30
0.000000
  70
    32
  0
SEQEND
  8
01
  5
79BA
  0
LINE
  5
4DDC
  8
01
 10
4185.5497021746733
 20
82.230059570723483
 30
0.0
 11
4185.5497021746733
 21
94.729561049905556
 31
0.0
  0
LINE
  5
4DDD
  8
01
 10
4161.5497021746733
 20
94.939005876883698
 30
0.0
 11
4185.5497021746733
 21
94.729561049905556
 31
0.0
  0
LINE
  5
4DDE
  8
01
 10
4161.5497021746733
 20
82.020614743745341
 30
0.0
 11
4185.5497021746733
 21
82.230059570723483
 31
0.0
  0
TEXT
  5
4F1D
  8
1TEXT
 10
2987.0827430917279
 20
805.03457724208465
 30
0.0
 40
50.0
  1
DE-03-X
  0
TEXT
  5
4F84
  8
1TEXT
 10
3215.0827430917279
 20
757.53457724208465
 30
0.0
 40
20.0
  1
コード
 72
     1
 11
3249.0827430917288
 21
757.53457724208465
 31
0.0
  0
TEXT
  5
4F85
  8
1TEXT
 10
3040.7494097583949
 20
757.53457724208465
 30
0.0
 40
20.0
  1
仕上げ
 72
     1
 11
3074.0827430917288
 21
757.53457724208465
 31
0.0
  0
LINE
  5
4F86
  8
1HATCH
 10
3337.0827430917279
 20
785.03457724208465
 30
0.0
 11
3337.0827430917279
 21
680.03457724208465
 31
0.0
  0
LINE
  5
4F87
  8
1HATCH
 10
3162.0827430917279
 20
785.03457724208465
 30
0.0
 11
3162.0827430917279
 21
680.03457724208465
 31
0.0
  0
LINE
  5
4F88
  8
1HATCH
 10
2987.0827430917279
 20
785.03457724208465
 30
0.0
 11
2987.0827430917279
 21
680.03457724208465
 31
0.0
  0
TEXT
  5
4F89
  8
1TEXT
 10
3174.0827430917288
 20
687.53457724208795
 30
0.0
 40
20.0
  1
DE-03-SG
 72
     1
 11
3249.0827430917288
 21
687.53457724208795
 31
0.0
  0
TEXT
  5
4F8A
  8
1TEXT
 10
3174.0827430917288
 20
722.53457724208465
 30
0.0
 40
20.0
  1
DE-03-SS
 72
     1
 11
3249.0827430917288
 21
722.53457724208465
 31
0.0
  0
LINE
  5
4F8B
  8
1HATCH
 10
2987.0827430917279
 20
750.03457724208465
 30
0.0
 11
3337.0827430917279
 21
750.03457724208465
 31
0.0
  0
LINE
  5
4F8C
  8
1HATCH
 10
2987.0827430917279
 20
715.03457724208465
 30
0.0
 11
3337.0827430917279
 21
715.03457724208465
 31
0.0
  0
LINE
  5
4F8D
  8
1HATCH
 10
2987.0827430917279
 20
680.03457724208465
 30
0.0
 11
3337.0827430917279
 21
680.03457724208465
 31
0.0
  0
TEXT
  5
4F8E
  8
1TEXT
 10
3054.0827430917288
 20
722.53457724208465
 30
0.0
 40
20.0
  1
乳白
 72
     1
 11
3074.0827430917288
 21
722.53457724208465
 31
0.0
  0
TEXT
  5
4F8F
  8
1TEXT
 10
3039.4160764250619
 20
687.53457724208465
 30
0.0
 40
20.0
  1
ミラー
 72
     1
 11
3074.0827430917288
 21
687.53457724208465
 31
0.0
  0
LINE
  5
4F90
  8
1HATCH
 10
2987.0827430917279
 20
785.03457724208465
 30
0.0
 11
3337.0827430917279
 21
785.03457724208465
 31
0.0
  0
LINE
  5
5008
  8
1PHANTOM
 10
4253.0846069874378
 20
-196.6702342745611
 30
0.0
 11
4253.0846069874378
 21
-236.5471580877404
 31
0.0
  0
LINE
  5
54B3
  8
1PHANTOM
 10
3861.1247604199361
 20
-238.5201896896709
 30
0.0
 11
3621.124760419937
 21
-238.52018968967269
 31
0.0
  0
LINE
  5
54B4
  8
1PHANTOM
 10
3861.1247604199239
 20
415.47981030939042
 30
0.0
 11
3861.1247604199361
 21
-238.5201896896709
 31
0.0
  0
LINE
  5
54B5
  8
1PHANTOM
 10
3621.1247604199611
 20
415.47981030939229
 30
0.0
 11
3621.124760419937
 21
-238.52018968967269
 31
0.0
  0
LINE
  5
5693
  8
1PHANTOM
 10
3861.1247604199239
 20
415.47981030939042
 30
0.0
 11
3621.1247604199611
 21
415.47981030939229
 31
0.0
  0
LINE
  5
5C91
  8
1PHANTOM
 10
3621.1247604199561
 20
285.46235657474449
 30
0.0
 11
3629.1247604199571
 21
285.46235657474449
 31
0.0
  0
LINE
  5
5CA0
  8
1PHANTOM
 10
3621.124760419942
 20
-104.53764342525371
 30
0.0
 11
3629.124760419942
 21
-104.53764342525371
 31
0.0
  0
LINE
  5
5CDB
  8
1PHANTOM
 10
3861.1247604199361
 20
21.479810310329022
 30
0.0
 11
3621.1247604199389
 21
21.47981031033083
 31
0.0
  0
LINE
  5
5CDC
  8
1PHANTOM
 10
3861.1247604199361
 20
25.479810310329022
 30
0.0
 11
3621.124760419938
 21
25.479810310329022
 31
0.0
  0
LINE
  5
5CDD
  8
1PHANTOM
 10
3861.1247604199361
 20
155.47981031032899
 30
0.0
 11
3621.124760419938
 21
155.47981031033081
 31
0.0
  0
LINE
  5
5CDE
  8
1PHANTOM
 10
3861.1247604199361
 20
151.47981031032899
 30
0.0
 11
3621.1247604199389
 21
151.47981031033081
 31
0.0
  0
LINE
  5
5DD3
  8
1PHANTOM
 10
3621.1247604199561
 20
281.46235657474438
 30
0.0
 11
3629.1247604199561
 21
281.46235657474438
 31
0.0
  0
LINE
  5
5DD4
  8
1PHANTOM
 10
3629.1247604199571
 20
285.46235657474449
 30
0.0
 11
3629.1247604199561
 21
281.46235657474438
 31
0.0
  0
LINE
  5
5DD5
  8
1PHANTOM
 10
3621.124760419942
 20
-108.53764342525371
 30
0.0
 11
3629.124760419942
 21
-108.53764342525371
 31
0.0
  0
LINE
  5
5DD6
  8
1PHANTOM
 10
3629.124760419942
 20
-104.53764342525371
 30
0.0
 11
3629.124760419942
 21
-108.53764342525371
 31
0.0
  0
LINE
  5
5DD7
  8
1PHANTOM
 10
3853.124760419932
 20
-104.53764342525371
 30
0.0
 11
3853.124760419933
 21
-108.53764342525371
 31
0.0
  0
LINE
  5
5DD8
  8
1PHANTOM
 10
3853.1247604199179
 20
285.46235657474449
 30
0.0
 11
3853.1247604199179
 21
281.46235657474438
 31
0.0
  0
LINE
  5
5DD9
  8
1PHANTOM
 10
3861.1247604199179
 20
285.46235657474449
 30
0.0
 11
3853.1247604199179
 21
285.46235657474449
 31
0.0
  0
LINE
  5
5DDA
  8
1PHANTOM
 10
3861.1247604199179
 20
281.46235657474438
 30
0.0
 11
3853.1247604199179
 21
281.46235657474438
 31
0.0
  0
LINE
  5
5DDB
  8
1PHANTOM
 10
3861.124760419932
 20
-104.53764342525371
 30
0.0
 11
3853.124760419932
 21
-104.53764342525371
 31
0.0
  0
LINE
  5
5DDC
  8
1PHANTOM
 10
3861.124760419932
 20
-108.53764342525371
 30
0.0
 11
3853.124760419933
 21
-108.53764342525371
 31
0.0
  0
LINE
  5
5EF9
  8
01
 10
3056.5927652321561
 20
175.77248429316839
 30
0.0
 11
3288.5927652321561
 21
175.77248429316839
 31
0.0
  0
ARC
  5
5EFB
  8
01
 10
3288.5927652321561
 20
172.77248429316839
 30
0.0
 40
3.0
 50
0.0
 51
90.0
  0
ARC
  5
5EFD
  8
01
 10
3056.5927652321561
 20
172.77248429316839
 30
0.0
 40
3.0
 50
90.0
 51
180.0
  0
LINE
  5
5EFF
  8
01
 10
3053.5927652321561
 20
172.77248429316839
 30
0.0
 11
3053.5927652321561
 21
63.772484293168418
 31
0.0
  0
LINE
  5
5F01
  8
01
 10
3291.5927652321561
 20
172.77248429316839
 30
0.0
 11
3291.5927652321561
 21
63.772484293168418
 31
0.0
  0
ARC
  5
5F03
  8
01
 10
3288.5927652321561
 20
63.772484293168418
 30
0.0
 40
3.0
 50
270.0
 51
0.0
  0
LINE
  5
5F05
  8
01
 10
3056.5927652321561
 20
60.772484293168418
 30
0.0
 11
3288.5927652321561
 21
60.772484293168418
 31
0.0
  0
ARC
  5
5F07
  8
01
 10
3056.5927652321561
 20
63.772484293168418
 30
0.0
 40
3.0
 50
180.0
 51
270.0
  0
LINE
  5
5F09
  8
01
 10
3346.2972257398869
 20
174.77248429316839
 30
0.0
 11
3346.2972257398869
 21
61.772484293168418
 31
0.0
  0
LINE
  5
5F0A
  8
01
 10
3341.297225739886
 20
174.77248429316839
 30
0.0
 11
3341.297225739886
 21
61.772484293168418
 31
0.0
  0
LINE
  5
5F0B
  8
01
 10
3342.2972257398869
 20
175.77248429316839
 30
0.0
 11
3345.297225739886
 21
175.77248429316839
 31
0.0
  0
LINE
  5
5F0C
  8
01
 10
3342.2972257398869
 20
60.772484293168418
 30
0.0
 11
3345.297225739886
 21
60.772484293168418
 31
0.0
  0
LINE
  5
5F0D
  8
01
 10
3342.2972257398869
 20
175.77248429316839
 30
0.0
 11
3341.297225739886
 21
174.77248429316839
 31
0.0
  0
LINE
  5
5F0E
  8
01
 10
3346.2972257398869
 20
174.77248429316839
 30
0.0
 11
3345.297225739886
 21
175.77248429316839
 31
0.0
  0
LINE
  5
5F0F
  8
01
 10
3342.2972257398869
 20
60.772484293168418
 30
0.0
 11
3341.297225739886
 21
61.772484293168418
 31
0.0
  0
LINE
  5
5F10
  8
01
 10
3346.2972257398869
 20
61.772484293168418
 30
0.0
 11
3345.297225739886
 21
60.772484293168418
 31
0.0
  0
TEXT
  5
5FCB
  8
1TEXT
 10
3122.5134945947411
 20
25.450962983343292
 30
0.0
 40
10.5
  1
ガラス棚2枚付属
  0
LINE
  5
6047
  8
1HATCH
 10
3601.1247604199348
 20
798.31606223938115
 30
0.0
 11
3601.1247604199348
 21
728.31606223938115
 31
0.0
  0
LINE
  5
6048
  8
1HATCH
 10
3881.1247604199361
 20
798.31606223805716
 30
0.0
 11
3881.1247604199361
 21
728.31606223805738
 31
0.0
  0
LINE
  5
6049
  8
1HATCH
 10
3601.1247604199348
 20
728.31606223938115
 30
0.0
 11
3551.1247604199361
 21
728.31606223938115
 31
0.0
  0
LINE
  5
604A
  8
1HATCH
 10
3881.1247604199361
 20
728.31606223805738
 30
0.0
 11
3931.1247604199361
 21
728.31606223805693
 31
0.0
  0
LINE
  5
604B
  8
1HATCH
 10
3551.4200158260019
 20
828.31606223938115
 30
0.0
 11
3930.8295050138699
 21
828.31606223938127
 31
0.0
  0
LINE
  5
604C
  8
1HATCH
 10
3881.1247604199361
 20
798.31606223805716
 30
0.0
 11
3901.1247604199361
 21
798.31606223805716
 31
0.0
  0
LINE
  5
604D
  8
1HATCH
 10
3601.1247604199348
 20
798.31606223938115
 30
0.0
 11
3581.1247604199361
 21
798.31606223938115
 31
0.0
  0
LINE
  5
604E
  8
1HATCH
 10
3581.1247604199361
 20
798.31606223938115
 30
0.0
 11
3581.1247604199361
 21
737.81606223938115
 31
0.0
  0
LINE
  5
604F
  8
1HATCH
 10
3901.1247604199361
 20
798.31606223805716
 30
0.0
 11
3901.1247604199361
 21
737.81606223805716
 31
0.0
  0
LINE
  5
6050
  8
1HATCH
 10
3881.1247604199361
 20
737.81606223805693
 30
0.0
 11
3931.1247604199361
 21
737.81606223805716
 31
0.0
  0
LINE
  5
6051
  8
1HATCH
 10
3601.1247604199348
 20
737.81606223938115
 30
0.0
 11
3551.1247604199361
 21
737.81606223938115
 31
0.0
  0
LINE
  5
6052
  8
1HATCH
 10
3551.1247604199361
 20
737.81606223938115
 30
0.0
 11
3551.1247604199361
 21
728.31606223938115
 31
0.0
  0
LINE
  5
6053
  8
1HATCH
 10
3931.1247604199361
 20
737.81606223805716
 30
0.0
 11
3931.1247604199361
 21
728.31606223805693
 31
0.0
  0
TEXT
  5
605F
  8
1TEXT
 10
3453.9369136640571
 20
735.92832173496015
 30
0.0
 40
10.5
  1
6本（付属）
  0
LINE
  5
6062
  8
01
 10
3623.0974874290941
 20
824.31606223943288
 30
0.0
 11
3859.1520334107781
 21
824.31606223943106
 31
0.0
  0
LINE
  5
6063
  8
01
 10
3596.9549514466248
 20
699.31606223950212
 30
0.0
 11
3885.2945693932461
 21
699.31606223942924
 31
0.0
  0
LINE
  5
6064
  8
01
 10
3618.2826107840669
 20
801.81606223234064
 30
0.0
 11
3616.782382292
 21
801.81606223234064
 31
0.0
  0
LINE
  5
6065
  8
01
 10
3891.1247604037271
 20
728.31606223933113
 30
0.0
 11
3591.1247604361311
 21
728.31606223943106
 31
0.0
  0
ARC
  5
6067
  8
01
 10
4578.9781943484832
 20
883.70458532776274
 30
0.0
 40
1000.0
 50
188.93933000596559
 51
190.5778938141143
  0
ARC
  5
6068
  8
01
 10
3596.9549514466271
 20
700.31606223943106
 30
0.0
 40
1.0
 50
190.57789381416731
 51
270.0
  0
LINE
  5
606A
  8
01
 10
3616.9996635119719
 20
728.31606223942299
 30
0.0
 11
3618.5981728008901
 21
819.89459806839977
 31
0.0
  0
ARC
  5
606B
  8
01
 10
3623.0974874290941
 20
819.81606223943288
 30
0.0
 40
4.5
 50
90.0
 51
179.00000000002419
  0
LINE
  5
606C
  8
01
 10
3616.1016347598129
 20
762.81606223311383
 30
0.0
 11
3616.782382292
 21
801.81606223234064
 31
0.0
  0
LINE
  5
606D
  8
01
 10
3604.513080351755
 20
760.33787857185996
 30
0.0
 11
3604.2336301942041
 21
728.31606223942663
 31
0.0
  0
LINE
  5
606F
  8
01
 10
3602.3033689797048
 20
736.31606223350309
 30
0.0
 11
3602.2335540374311
 21
728.31606223942663
 31
0.0
  0
LINE
  5
6070
  8
01
 10
3602.3033689797048
 20
736.31606223350309
 30
0.0
 11
3604.3034451364751
 21
736.31606223350309
 31
0.0
  0
LINE
  5
6071
  8
01
 10
3863.9669100558058
 20
801.81606223234439
 30
0.0
 11
3865.4671385478719
 21
801.81606223234064
 31
0.0
  0
LINE
  5
6072
  8
01
 10
3877.2825671809451
 20
728.31606223942754
 30
0.0
 11
3891.1247604037421
 21
728.31606223943106
 31
0.0
  0
ARC
  5
6073
  8
01
 10
2903.2713264913891
 20
883.70458532776274
 30
0.0
 40
1000.0
 50
349.42210618588558
 51
351.06066999403441
  0
ARC
  5
6074
  8
01
 10
3885.2945693932461
 20
700.31606223943106
 30
0.0
 40
1.0
 50
270.0
 51
349.4221061858326
  0
LINE
  5
6075
  8
01
 10
3865.2498573279031
 20
728.31606223934023
 30
0.0
 11
3863.6513480389831
 21
819.89459806839795
 31
0.0
  0
ARC
  5
6076
  8
01
 10
3859.1520334107781
 20
819.81606223943106
 30
0.0
 40
4.5
 50
0.9999999999757163
 51
90.0
  0
LINE
  5
6077
  8
01
 10
3866.750085819971
 20
728.31606223934023
 30
0.0
 11
3865.4671385478719
 21
801.81606223234064
 31
0.0
  0
LINE
  5
6078
  8
01
 10
3866.3433828071429
 20
751.61606223942863
 30
0.0
 11
3877.0745111381411
 21
751.61606223942863
 31
0.0
  0
LINE
  5
6079
  8
01
 10
3877.2778471576662
 20
728.31606223933647
 30
0.0
 11
3877.0745111381411
 21
751.61606223942863
 31
0.0
  0
LINE
  5
607A
  8
01
 10
3876.7247603985661
 20
699.21606223943263
 30
0.0
 11
3876.7247603985661
 21
699.31606223943299
 31
0.0
  0
LINE
  5
607B
  8
01
 10
3864.9247603985668
 20
699.21606223943263
 30
0.0
 11
3864.9247603985668
 21
699.31606223943561
 31
0.0
  0
LINE
  5
607C
  8
01
 10
3876.7247603985661
 20
699.21606223943263
 30
0.0
 11
3864.9247603985668
 21
699.21606223943263
 31
0.0
  0
ARC
  5
607D
  8
01
 10
3870.8247603985678
 20
702.87856223351389
 30
0.0
 40
4.412500000000426
 50
236.10164800831319
 51
303.89835199168681
  0
LINE
  5
607E
  8
01
 10
3597.255673407531
 20
695.316062233514
 30
0.0
 11
3598.255673407531
 21
696.316062233514
 31
0.0
  0
LINE
  5
607F
  8
01
 10
3597.255673407531
 20
693.31606223351389
 30
0.0
 11
3598.255673407532
 21
692.316062233514
 31
0.0
  0
LINE
  5
6080
  8
01
 10
3597.255673407531
 20
695.316062233514
 30
0.0
 11
3597.255673407531
 21
693.31606223351389
 31
0.0
  0
ARC
  5
6081
  8
01
 10
3597.8603727806139
 20
685.51606223344368
 30
0.0
 40
1.0
 50
180.0
 51
270.0
  0
LINE
  5
6082
  8
01
 10
3596.860372780628
 20
692.31606223346125
 30
0.0
 11
3596.8603727806212
 21
685.51606223345095
 31
0.0
  0
LINE
  5
6083
  8
01
 10
3629.997755157543
 20
692.31606223345386
 30
0.0
 11
3596.860372780628
 21
692.31606223346125
 31
0.0
  0
LINE
  5
6084
  8
01
 10
3631.3603727806139
 20
684.51606223345095
 30
0.0
 11
3597.9977551575348
 21
684.51606223345095
 31
0.0
  0
LINE
  5
6085
  8
01
 10
3632.3603727806289
 20
692.316062233514
 30
0.0
 11
3632.3603727806221
 21
685.51606223351109
 31
0.0
  0
ARC
  5
6086
  8
01
 10
3631.3603727806139
 20
685.51606223350382
 30
0.0
 40
1.0
 50
270.0
 51
0.0
  0
LINE
  5
6087
  8
01
 10
3599.2477551575498
 20
692.31606223345386
 30
0.0
 11
3627.7477551575571
 21
692.31606223345386
 31
0.0
  0
LINE
  5
608B
  8
01
 10
3629.497755157513
 20
696.31606223332301
 30
0.0
 11
3598.7977551575018
 21
696.31606223357755
 31
0.0
  0
LINE
  5
608E
  8
01
 10
3628.4977551574839
 20
699.31606223333017
 30
0.0
 11
3613.9977551574989
 21
699.31606223341021
 31
0.0
  0
LINE
  5
608F
  8
01
 10
3602.7035060596741
 20
736.33002532271485
 30
0.0
 11
3602.8412105615112
 21
752.10939830495363
 31
0.0
  0
LINE
  5
6090
  8
01
 10
3602.7033842056412
 20
736.31606223350309
 30
0.0
 11
3602.7035060596741
 21
736.33002532271485
 31
0.0
  0
ARC
  5
6091
  8
01
 10
3602.2283957243048
 20
739.18428007120337
 30
0.0
 40
0.5
 50
269.49999999998238
 51
359.5000000000345
  0
ARC
  5
6092
  8
01
 10
3602.1786544719721
 20
733.48449710973307
 30
0.0
 40
0.5
 50
77.96304033333395
 51
89.49999999998235
  0
LINE
  5
6093
  8
01
 10
3601.4830443934911
 20
733.99058664611346
 30
0.0
 11
3602.183017739721
 21
733.98447807126422
 31
0.0
  0
LINE
  5
6094
  8
01
 10
3601.4830443934911
 20
733.99058664611346
 30
0.0
 11
3601.5240591103329
 21
738.69040768452714
 31
0.0
  0
LINE
  5
6095
  8
01
 10
3601.5240591103329
 20
738.69040768452714
 30
0.0
 11
3602.224032456556
 21
738.68429910967052
 31
0.0
  0
LINE
  5
6096
  8
01
 10
3604.4411496383068
 20
752.09543584815719
 30
0.0
 11
3602.8412105615112
 21
752.10939830495363
 31
0.0
  0
LINE
  5
6097
  8
01
 10
3598.255673407531
 20
696.316062233514
 30
0.0
 11
3884.255673407531
 21
696.316062233514
 31
0.0
  0
LINE
  5
6098
  8
01
 10
3598.255673407532
 20
692.316062233514
 30
0.0
 11
3884.255673407532
 21
692.316062233514
 31
0.0
  0
LINE
  5
6099
  8
01
 10
3885.255673407531
 20
693.31606223351389
 30
0.0
 11
3884.255673407532
 21
692.316062233514
 31
0.0
  0
LINE
  5
609A
  8
01
 10
3885.255673407531
 20
695.316062233514
 30
0.0
 11
3885.255673407531
 21
693.31606223351389
 31
0.0
  0
LINE
  5
609B
  8
01
 10
3884.255673407531
 20
696.316062233514
 30
0.0
 11
3885.255673407531
 21
695.316062233514
 31
0.0
  0
LINE
  5
609C
  8
01
 10
3886.755673407531
 20
698.46606223351364
 30
0.0
 11
3857.755673407531
 21
698.46606223351364
 31
0.0
  0
LINE
  5
609D
  8
01
 10
3886.9556734075309
 20
697.66606223351255
 30
0.0
 11
3857.755673407531
 21
697.66606223351437
 31
0.0
  0
LINE
  5
609E
  8
01
 10
3886.755673407531
 20
690.16606223351255
 30
0.0
 11
3857.755673407531
 21
690.16606223351255
 31
0.0
  0
LINE
  5
609F
  8
01
 10
3886.9556734075309
 20
690.96606223351364
 30
0.0
 11
3857.755673407531
 21
690.96606223351364
 31
0.0
  0
LINE
  5
60A0
  8
01
 10
3887.755673407531
 20
697.46606223351364
 30
0.0
 11
3887.755673407531
 21
691.16606223351255
 31
0.0
  0
LINE
  5
60A1
  8
01
 10
3886.9556734075309
 20
697.66606223351255
 30
0.0
 11
3886.9556734075309
 21
690.96606223351364
 31
0.0
  0
ARC
  5
60A2
  8
01
 10
3886.755673407531
 20
697.46606223351182
 30
0.0
 40
1.0
 50
0.0000000000521102
 51
90.0
  0
ARC
  5
60A3
  8
01
 10
3886.755673407531
 20
691.16606223351255
 30
0.0
 40
1.0
 50
270.0
 51
0.0000000000521102
  0
ARC
  5
60A4
  8
01
 10
3881.755673407531
 20
694.316062233514
 30
0.0
 40
3.7000000000000002
 50
327.27955663041269
 51
32.720443369586988
  0
LINE
  5
60A5
  8
01
 10
3859.755673407532
 20
696.31606223351218
 30
0.0
 11
3884.8685498904019
 21
696.316062233514
 31
0.0
  0
LINE
  5
60A6
  8
01
 10
3884.8685498904019
 20
692.316062233514
 30
0.0
 11
3859.755673407532
 21
692.31606223351218
 31
0.0
  0
LINE
  5
60A7
  8
01
 10
3857.755673407531
 20
698.46606223351364
 30
0.0
 11
3857.755673407531
 21
697.66606223351437
 31
0.0
  0
LINE
  5
60A8
  8
01
 10
3857.755673407531
 20
690.96606223351364
 30
0.0
 11
3857.755673407531
 21
690.16606223351255
 31
0.0
  0
LINE
  5
60A9
  8
01
 10
3859.7556734075301
 20
696.316062233514
 30
0.0
 11
3859.7556734075301
 21
697.66606223351437
 31
0.0
  0
LINE
  5
60AA
  8
01
 10
3859.7556734075301
 20
692.316062233514
 30
0.0
 11
3859.7556734075301
 21
690.96606223351364
 31
0.0
  0
LINE
  5
60AB
  8
1DIM
 10
3885.255673407531
 20
695.316062233514
 30
0.0
 11
3597.255673407531
 21
695.316062233514
 31
0.0
  0
LINE
  5
60AC
  8
1DIM
 10
3885.255673407531
 20
693.31606223351389
 30
0.0
 11
3597.255673407531
 21
693.31606223351389
 31
0.0
  0
LINE
  5
6144
  8
1PHANTOM
 10
3609.8858421675468
 20
696.92736699355817
 30
0.0
 11
3598.1307447300019
 21
697.95580475799807
 31
0.0
  0
LINE
  5
6145
  8
1PHANTOM
 10
3595.2546052193288
 20
665.08137972097154
 30
0.0
 11
3598.1307447300019
 21
697.95580475799807
 31
0.0
  0
LINE
  5
6146
  8
1PHANTOM
 10
3603.0249238644478
 20
664.40156492753044
 30
0.0
 11
3595.2546052193288
 21
665.08137972097154
 31
0.0
  0
LINE
  5
6147
  8
1PHANTOM
 10
3609.8858421675468
 20
696.92736699355817
 30
0.0
 11
3584.7625091995751
 21
409.76635714995979
 31
0.0
  0
LINE
  5
6148
  8
1PHANTOM
 10
3605.90106337518
 20
697.27598996455299
 30
0.0
 11
3580.7777304072079
 21
410.11498012094899
 31
0.0
  0
LINE
  5
6149
  8
1PHANTOM
 10
3584.7625091995751
 20
409.76635714995979
 30
0.0
 11
3580.7777304072079
 21
410.11498012094899
 31
0.0
  0
LINE
  5
69EB
  8
01
 10
3617.6018632518831
 20
762.81606223311371
 30
0.0
 11
3607.012985159482
 21
762.81606223311371
 31
0.0
  0
ARC
  5
69EC
  8
01
 10
3607.012985159482
 20
760.31606223311371
 30
0.0
 40
2.5
 50
90.0
 51
179.5000000000345
  0
LINE
  5
7389
  8
01
 10
3601.9254653094681
 20
437.47981031032901
 30
0.0
 11
3879.9254653094672
 21
437.47981031032901
 31
0.0
  0
LINE
  5
738A
  8
01
 10
3879.925465309469
 20
-260.52018968967087
 30
0.0
 11
3601.9254653094681
 21
-260.52018968967087
 31
0.0
  0
ARC
  5
738B
  8
01
 10
3601.9254653094681
 20
-255.5201896896709
 30
0.0
 40
5.0
 50
180.0
 51
270.0
  0
LINE
  5
738C
  8
01
 10
3884.9254653094681
 20
432.47981031032901
 30
0.0
 11
3884.9254653094681
 21
-255.5201896896709
 31
0.0
  0
LINE
  5
738D
  8
01
 10
3596.9254653094681
 20
432.47981031032901
 30
0.0
 11
3596.9254653094681
 21
379.6501196968216
 31
0.0
  0
ARC
  5
738E
  8
01
 10
3601.9254653094681
 20
432.47981031032901
 30
0.0
 40
5.0
 50
90.0
 51
180.0
  0
LINE
  5
738F
  8
01
 10
3596.9254653094681
 20
347.30950091981651
 30
0.0
 11
3596.9254653094681
 21
-170.34988030009691
 31
0.0
  0
LINE
  5
7390
  8
01
 10
3596.9254653094681
 20
-202.69049907710209
 30
0.0
 11
3596.9254653094681
 21
-255.5201896896709
 31
0.0
  0
LINE
  5
7391
  8
01
 10
3632.3603727806289
 20
378.97981030831733
 30
0.0
 11
3632.3603727806289
 21
347.9798103083246
 31
0.0
  0
LINE
  5
7392
  8
01
 10
3596.860372780628
 20
378.97981030831733
 30
0.0
 11
3596.860372780628
 21
347.9798103083246
 31
0.0
  0
LINE
  5
7393
  8
01
 10
3631.3603727806289
 20
379.97981030831733
 30
0.0
 11
3597.8603727806289
 21
379.97981030831733
 31
0.0
  0
LINE
  5
7394
  8
01
 10
3597.8603727806289
 20
346.97981030832449
 30
0.0
 11
3631.3603727806289
 21
346.97981030832449
 31
0.0
  0
ARC
  5
7395
  8
01
 10
3631.3603727806289
 20
378.97981030831733
 30
0.0
 40
1.0
 50
0.0
 51
90.0
  0
ARC
  5
7396
  8
01
 10
3597.8603727806289
 20
378.97981030831733
 30
0.0
 40
1.0
 50
90.0
 51
180.0
  0
ARC
  5
7397
  8
01
 10
3597.8603727806289
 20
347.9798103083246
 30
0.0
 40
1.0
 50
180.0
 51
270.0
  0
ARC
  5
7398
  8
01
 10
3631.3603727806289
 20
347.9798103083246
 30
0.0
 40
1.0
 50
270.0
 51
0.0
  0
LINE
  5
7399
  8
01
 10
3632.36037278086
 20
-171.02018968775371
 30
0.0
 11
3632.36037278086
 21
-202.02018968774641
 31
0.0
  0
LINE
  5
739A
  8
01
 10
3596.86037278086
 20
-171.02018968775371
 30
0.0
 11
3596.86037278086
 21
-202.02018968774641
 31
0.0
  0
LINE
  5
739B
  8
01
 10
3631.3603727808609
 20
-170.02018968775371
 30
0.0
 11
3597.86037278086
 21
-170.02018968775371
 31
0.0
  0
LINE
  5
739C
  8
01
 10
3597.86037278086
 20
-203.02018968774641
 30
0.0
 11
3631.36037278086
 21
-203.02018968774641
 31
0.0
  0
ARC
  5
739D
  8
01
 10
3631.3603727808609
 20
-171.02018968775371
 30
0.0
 40
1.0
 50
0.0
 51
90.0
  0
ARC
  5
739E
  8
01
 10
3597.86037278086
 20
-171.02018968775371
 30
0.0
 40
1.0
 50
90.0
 51
180.0
  0
ARC
  5
739F
  8
01
 10
3597.86037278086
 20
-202.02018968774641
 30
0.0
 40
1.0
 50
180.0
 51
270.0
  0
ARC
  5
73A0
  8
01
 10
3631.36037278086
 20
-202.02018968774641
 30
0.0
 40
1.0
 50
270.0
 51
0.0
  0
ARC
  5
73AA
  8
01
 10
3879.925465309469
 20
-255.5201896896709
 30
0.0
 40
5.0
 50
270.0
 51
0.0
  0
ARC
  5
73AB
  8
01
 10
3879.9254653094672
 20
432.47981031032901
 30
0.0
 40
5.0
 50
0.0000000000001018
 51
90.0
  0
LINE
  5
73AE
  8
01
 10
3630.9327095445651
 20
697.51606223356191
 30
0.0
 11
3600.9327095445642
 21
697.51606223355998
 31
0.0
  0
LINE
  5
73AF
  8
01
 10
3630.1327095445631
 20
698.31606223356289
 30
0.0
 11
3619.2327095445639
 21
698.31606223356482
 31
0.0
  0
LINE
  5
73B0
  8
01
 10
3600.9327095445642
 20
696.31606223356107
 30
0.0
 11
3600.9327095445642
 21
697.51606223355998
 31
0.0
  0
LINE
  5
73B1
  8
01
 10
3630.9327095445628
 20
696.31606223356107
 30
0.0
 11
3630.9327095445651
 21
697.51606223356191
 31
0.0
  0
LINE
  5
73B2
  8
01
 10
3630.9327095445651
 20
697.51606223356191
 30
0.0
 11
3630.1327095445631
 21
698.31606223356289
 31
0.0
  0
LINE
  5
73B3
  8
01
 10
3618.4327095445651
 20
697.51606223356191
 30
0.0
 11
3619.2327095445639
 21
698.31606223356482
 31
0.0
  0
LINE
  5
73B4
  8
01
 10
3596.960372780632
 20
696.31606223345557
 30
0.0
 11
3598.1603727806332
 21
696.31606223345557
 31
0.0
  0
LINE
  5
73B5
  8
01
 10
3596.6603727806319
 20
696.01606223345675
 30
0.0
 11
3596.960372780632
 21
696.31606223345557
 31
0.0
  0
LINE
  5
73B6
  8
01
 10
3597.2603727806272
 20
692.31606223346114
 30
0.0
 11
3596.6603727806319
 21
692.91606223345605
 31
0.0
  0
LINE
  5
73B7
  8
01
 10
3596.6603727806319
 20
696.01606223345675
 30
0.0
 11
3596.6603727806319
 21
692.91606223345605
 31
0.0
  0
LINE
  5
74F3
  8
1CENTER
 10
3911.206982854525
 20
772.10516146730254
 30
0.0
 11
3858.3818965492169
 21
771.1830961560031
 31
0.0
  0
LINE
  5
74F4
  8
0
 10
3902.527630477528
 20
773.45384475710614
 30
0.0
 11
3902.6188902070448
 21
773.95551386563216
 31
0.0
  0
LINE
  5
74F5
  8
0
 10
3902.6188902070448
 20
773.95551386563216
 30
0.0
 11
3903.4885686831599
 21
769.97008484772368
 31
0.0
  0
LINE
  5
74F6
  8
0
 10
3903.4885686831599
 20
769.97008484772368
 30
0.0
 11
3903.5798284126772
 21
770.47175395624981
 31
0.0
  0
LINE
  5
74F7
  8
0
 10
3900.9278741652779
 20
773.42592090680637
 30
0.0
 11
3901.0191338947948
 21
773.9275900153325
 31
0.0
  0
LINE
  5
74F8
  8
0
 10
3901.8888123709098
 20
769.94216099742414
 30
0.0
 11
3901.9800721004272
 21
770.44383010595016
 31
0.0
  0
LINE
  5
74F9
  8
0
 10
3901.0191338947948
 20
773.9275900153325
 30
0.0
 11
3901.8888123709098
 21
769.94216099742414
 31
0.0
  0
LINE
  5
74FA
  8
0
 10
3899.3281178530278
 20
773.39799705650671
 30
0.0
 11
3899.4193775825452
 21
773.89966616503273
 31
0.0
  0
LINE
  5
74FB
  8
0
 10
3899.4193775825452
 20
773.89966616503273
 30
0.0
 11
3900.2890560586588
 21
769.91423714712437
 31
0.0
  0
LINE
  5
74FC
  8
0
 10
3900.2890560586588
 20
769.91423714712437
 30
0.0
 11
3900.3803157881762
 21
770.41590625565027
 31
0.0
  0
LINE
  5
74FD
  8
0
 10
3891.3293362917771
 20
773.25837780500819
 30
0.0
 11
3891.420596021293
 21
773.76004691353421
 31
0.0
  0
LINE
  5
74FE
  8
0
 10
3892.2902744974081
 20
769.77461789562585
 30
0.0
 11
3892.3815342269249
 21
770.27628700415175
 31
0.0
  0
LINE
  5
74FF
  8
0
 10
3893.890030809659
 20
769.80254174592562
 30
0.0
 11
3893.981290539175
 21
770.30421085445164
 31
0.0
  0
LINE
  5
7500
  8
0
 10
3892.929092604028
 20
773.28630165530785
 30
0.0
 11
3893.0203523335449
 21
773.78797076383398
 31
0.0
  0
LINE
  5
7501
  8
0
 10
3894.5288489162772
 20
773.31422550560762
 30
0.0
 11
3894.6201086457941
 21
773.81589461413364
 31
0.0
  0
LINE
  5
7502
  8
0
 10
3893.0203523335449
 20
773.78797076383398
 30
0.0
 11
3893.890030809659
 21
769.80254174592562
 31
0.0
  0
LINE
  5
7503
  8
0
 10
3891.420596021293
 20
773.76004691353421
 30
0.0
 11
3892.2902744974081
 21
769.77461789562585
 31
0.0
  0
LINE
  5
7504
  8
0
 10
3896.1286052285282
 20
773.3421493559074
 30
0.0
 11
3896.219864958045
 21
773.8438184644333
 31
0.0
  0
LINE
  5
7505
  8
0
 10
3904.3273563288099
 20
773.48525908869328
 30
0.0
 11
3904.4186160583272
 21
773.98692819721919
 31
0.0
  0
LINE
  5
7506
  8
0
 10
3904.4186160583272
 20
773.98692819721919
 30
0.0
 11
3905.2843437132692
 21
770.22787175781821
 31
0.0
  0
LINE
  5
7507
  8
0
 10
3905.2843437132692
 20
770.22787175781821
 30
0.0
 11
3905.4042298703848
 21
770.76663985201992
 31
0.0
  0
LINE
  5
7508
  8
0
 10
3897.0895434341592
 20
769.85838944652505
 30
0.0
 11
3897.180803163676
 21
770.36005855505095
 31
0.0
  0
LINE
  5
7509
  8
0
 10
3898.6892997464088
 20
769.88631329682471
 30
0.0
 11
3898.7805594759261
 21
770.38798240535073
 31
0.0
  0
LINE
  5
750A
  8
0
 10
3897.7283615407782
 20
773.37007320620705
 30
0.0
 11
3897.8196212702951
 21
773.87174231473296
 31
0.0
  0
LINE
  5
750B
  8
0
 10
3897.8196212702951
 20
773.87174231473296
 30
0.0
 11
3898.6892997464088
 21
769.88631329682471
 31
0.0
  0
LINE
  5
750C
  8
0
 10
3896.219864958045
 20
773.8438184644333
 30
0.0
 11
3897.0895434341592
 21
769.85838944652505
 31
0.0
  0
LINE
  5
750D
  8
0
 10
3906.02627404848
 20
773.56210485316399
 30
0.0
 11
3906.8761983831728
 21
770.70854076513126
 31
0.0
  0
LINE
  5
750E
  8
0
 10
3907.6339319926692
 20
773.13728414271793
 30
0.0
 11
3908.4680530530768
 21
771.18920977244443
 31
0.0
  0
LINE
  5
750F
  8
0
 10
3906.8761983831728
 20
770.70854076513126
 30
0.0
 11
3907.0493053340429
 21
771.26339586891811
 31
0.0
  0
LINE
  5
7510
  8
0
 10
3907.4904980094079
 20
772.67753901250387
 30
0.0
 11
3907.6339319926692
 21
773.13728414271793
 31
0.0
  0
LINE
  5
7511
  8
0
 10
3908.4680530530768
 20
771.18920977244443
 30
0.0
 11
3908.7695085833848
 21
771.78283788436136
 31
0.0
  0
LINE
  5
7512
  8
0
 10
3905.9216911559652
 20
773.09210959231257
 30
0.0
 11
3906.02627404848
 21
773.56210485316399
 31
0.0
  0
LINE
  5
7513
  8
0
 10
3895.4897871219091
 20
769.83046559622517
 30
0.0
 11
3895.581046851426
 21
770.3321347047513
 31
0.0
  0
LINE
  5
7514
  8
0
 10
3894.6201086457941
 20
773.81589461413364
 30
0.0
 11
3895.4897871219091
 21
769.83046559622517
 31
0.0
  0
LINE
  5
7515
  8
0
 10
3870.6237639620322
 20
773.39703685963798
 30
0.0
 11
3871.4934424381422
 21
769.41160784172951
 31
0.0
  0
LINE
  5
7516
  8
0
 10
3872.2235202742818
 20
773.42496070993764
 30
0.0
 11
3873.0931987503918
 21
769.43953169202916
 31
0.0
  0
LINE
  5
7517
  8
0
 10
3873.8232765865332
 20
773.45288456023729
 30
0.0
 11
3874.6929550626469
 21
769.46745554232905
 31
0.0
  0
LINE
  5
7518
  8
0
 10
3873.732016857015
 20
772.95121545171139
 30
0.0
 11
3873.8232765865332
 21
773.45288456023729
 31
0.0
  0
LINE
  5
7519
  8
0
 10
3873.0931987503918
 20
769.43953169202916
 30
0.0
 11
3873.1844584799101
 21
769.94120080055529
 31
0.0
  0
LINE
  5
751A
  8
0
 10
3874.6929550626469
 20
769.46745554232905
 30
0.0
 11
3874.7842147921642
 21
769.96912465085495
 31
0.0
  0
LINE
  5
751B
  8
0
 10
3871.4934424381422
 20
769.41160784172951
 30
0.0
 11
3871.5847021676591
 21
769.91327695025552
 31
0.0
  0
LINE
  5
751C
  8
0
 10
3872.1322605447649
 20
772.92329160141162
 30
0.0
 11
3872.2235202742818
 21
773.42496070993764
 31
0.0
  0
LINE
  5
751D
  8
0
 10
3878.622545523283
 20
773.53665611113649
 30
0.0
 11
3879.4922239993971
 21
769.55122709322814
 31
0.0
  0
LINE
  5
751E
  8
0
 10
3879.4922239993971
 20
769.55122709322814
 30
0.0
 11
3879.583483728914
 21
770.05289620175415
 31
0.0
  0
LINE
  5
751F
  8
0
 10
3880.222301835533
 20
773.56457996143615
 30
0.0
 11
3881.0919803116481
 21
769.57915094352768
 31
0.0
  0
LINE
  5
7520
  8
0
 10
3881.822058147784
 20
773.59250381173581
 30
0.0
 11
3882.6917366238981
 21
769.60707479382745
 31
0.0
  0
LINE
  5
7521
  8
0
 10
3881.7307984182671
 20
773.09083470320991
 30
0.0
 11
3881.822058147784
 21
773.59250381173581
 31
0.0
  0
LINE
  5
7522
  8
0
 10
3882.6917366238981
 20
769.60707479382745
 30
0.0
 11
3882.782996353415
 21
770.10874390235347
 31
0.0
  0
LINE
  5
7523
  8
0
 10
3881.0919803116481
 20
769.57915094352768
 30
0.0
 11
3881.1832400411649
 21
770.08082005205381
 31
0.0
  0
LINE
  5
7524
  8
0
 10
3880.131042106017
 20
773.06291085291014
 30
0.0
 11
3880.222301835533
 21
773.56457996143615
 31
0.0
  0
LINE
  5
7525
  8
0
 10
3875.4230328987819
 20
773.48080841053695
 30
0.0
 11
3876.292711374897
 21
769.49537939262871
 31
0.0
  0
LINE
  5
7526
  8
0
 10
3877.0227892110329
 20
773.50873226083672
 30
0.0
 11
3877.8924676871479
 21
769.52330324292848
 31
0.0
  0
LINE
  5
7527
  8
0
 10
3878.5312857937661
 20
773.03498700261036
 30
0.0
 11
3878.622545523283
 21
773.53665611113649
 31
0.0
  0
LINE
  5
7528
  8
0
 10
3876.931529481516
 20
773.00706315231082
 30
0.0
 11
3877.0227892110329
 21
773.50873226083672
 31
0.0
  0
LINE
  5
7529
  8
0
 10
3877.8924676871479
 20
769.52330324292848
 30
0.0
 11
3877.9837274166648
 21
770.02497235145427
 31
0.0
  0
LINE
  5
752A
  8
0
 10
3876.292711374897
 20
769.49537939262871
 30
0.0
 11
3876.3839711044138
 21
769.99704850115472
 31
0.0
  0
LINE
  5
752B
  8
0
 10
3875.3317731692659
 20
772.97913930201105
 30
0.0
 11
3875.4230328987819
 21
773.48080841053695
 31
0.0
  0
LINE
  5
752C
  8
0
 10
3883.3305547305199
 20
773.11875855350968
 30
0.0
 11
3883.4218144600391
 21
773.62042766203558
 31
0.0
  0
LINE
  5
752D
  8
0
 10
3884.930311042775
 20
773.14668240380945
 30
0.0
 11
3885.0215707722932
 21
773.64835151233535
 31
0.0
  0
LINE
  5
752E
  8
0
 10
3884.2914929361482
 20
769.63499864412722
 30
0.0
 11
3884.3827526656651
 21
770.13666775265324
 31
0.0
  0
LINE
  5
752F
  8
0
 10
3888.129823667276
 20
773.20253010440888
 30
0.0
 11
3888.2210833967929
 21
773.70419921293478
 31
0.0
  0
LINE
  5
7530
  8
0
 10
3886.6213270845428
 20
773.67627536263512
 30
0.0
 11
3887.4910055606529
 21
769.69084634472665
 31
0.0
  0
LINE
  5
7531
  8
0
 10
3887.4910055606529
 20
769.69084634472665
 30
0.0
 11
3887.5822652901702
 21
770.19251545325278
 31
0.0
  0
LINE
  5
7532
  8
0
 10
3886.5300673550259
 20
773.17460625410911
 30
0.0
 11
3886.6213270845428
 21
773.67627536263512
 31
0.0
  0
LINE
  5
7533
  8
0
 10
3885.8912492484028
 20
769.66292249442699
 30
0.0
 11
3885.9825089779201
 21
770.16459160295301
 31
0.0
  0
LINE
  5
7534
  8
0
 10
3890.690518185158
 20
769.74669404532619
 30
0.0
 11
3890.7817779146749
 21
770.2483631538521
 31
0.0
  0
LINE
  5
7535
  8
0
 10
3889.0907618729038
 20
769.71877019502642
 30
0.0
 11
3889.1820216024212
 21
770.22043930355244
 31
0.0
  0
LINE
  5
7536
  8
0
 10
3889.7295799795261
 20
773.23045395470854
 30
0.0
 11
3889.8208397090439
 21
773.73212306323455
 31
0.0
  0
LINE
  5
7537
  8
0
 10
3889.8208397090439
 20
773.73212306323455
 30
0.0
 11
3890.690518185158
 21
769.74669404532619
 31
0.0
  0
LINE
  5
7538
  8
0
 10
3888.2210833967929
 20
773.70419921293478
 30
0.0
 11
3889.0907618729038
 21
769.71877019502642
 31
0.0
  0
LINE
  5
7539
  8
0
 10
3885.0215707722932
 20
773.64835151233535
 30
0.0
 11
3885.8912492484028
 21
769.66292249442699
 31
0.0
  0
LINE
  5
753A
  8
0
 10
3883.4218144600391
 20
773.62042766203558
 30
0.0
 11
3884.2914929361482
 21
769.63499864412722
 31
0.0
  0
LINE
  5
753B
  8
0
 10
3862.53372267125
 20
772.75574849961322
 30
0.0
 11
3862.6249824007682
 21
773.25741760813924
 31
0.0
  0
LINE
  5
753C
  8
0
 10
3862.6249824007682
 20
773.25741760813924
 30
0.0
 11
3863.4946608768778
 21
769.27198859023065
 31
0.0
  0
LINE
  5
753D
  8
0
 10
3863.4946608768778
 20
769.27198859023065
 30
0.0
 11
3863.585920606396
 21
769.77365769875667
 31
0.0
  0
LINE
  5
753E
  8
0
 10
3864.133478983505
 20
772.78367234991288
 30
0.0
 11
3864.2247387130228
 21
773.28534145843901
 31
0.0
  0
LINE
  5
753F
  8
0
 10
3865.7332352957601
 20
772.81159620021265
 30
0.0
 11
3865.824495025277
 21
773.31326530873878
 31
0.0
  0
LINE
  5
7540
  8
0
 10
3865.0944171891329
 20
769.29991244053053
 30
0.0
 11
3865.1856769186502
 21
769.80158154905655
 31
0.0
  0
LINE
  5
7541
  8
0
 10
3866.694173501387
 20
769.32783629083019
 30
0.0
 11
3866.7854332309039
 21
769.82950539935632
 31
0.0
  0
LINE
  5
7542
  8
0
 10
3865.824495025277
 20
773.31326530873878
 30
0.0
 11
3866.694173501387
 21
769.32783629083019
 31
0.0
  0
LINE
  5
7543
  8
0
 10
3864.2247387130228
 20
773.28534145843901
 30
0.0
 11
3865.0944171891329
 21
769.29991244053053
 31
0.0
  0
LINE
  5
7544
  8
0
 10
3867.424251337527
 20
773.34118915903844
 30
0.0
 11
3868.2939298136371
 21
769.35576014112996
 31
0.0
  0
LINE
  5
7545
  8
0
 10
3869.0240076497821
 20
773.36911300933832
 30
0.0
 11
3869.8936861258908
 21
769.38368399142985
 31
0.0
  0
LINE
  5
7546
  8
0
 10
3869.8936861258908
 20
769.38368399142985
 30
0.0
 11
3869.984945855409
 21
769.88535309995575
 31
0.0
  0
LINE
  5
7547
  8
0
 10
3870.5325042325139
 20
772.89536775111185
 30
0.0
 11
3870.6237639620322
 21
773.39703685963798
 31
0.0
  0
LINE
  5
7548
  8
0
 10
3868.2939298136371
 20
769.35576014112996
 30
0.0
 11
3868.3851895431549
 21
769.85742924965609
 31
0.0
  0
LINE
  5
7549
  8
0
 10
3868.9327479202648
 20
772.8674439008123
 30
0.0
 11
3869.0240076497821
 21
773.36911300933832
 31
0.0
  0
LINE
  5
754A
  8
0
 10
3867.3329916080102
 20
772.83952005051242
 30
0.0
 11
3867.424251337527
 21
773.34118915903844
 31
0.0
  0
LINE
  5
754B
  8
0
 10
3859.9904774214419
 20
775.21178335174568
 30
0.0
 11
3860.130078061417
 21
767.2130014656293
 31
0.0
  0
LINE
  5
754D
  8
1CENTER
 10
3571.042537985451
 20
772.10516146730049
 30
0.0
 11
3623.86762429076
 21
771.18309615600117
 31
0.0
  0
LINE
  5
754E
  8
0
 10
3579.6695347674622
 20
770.45439472925568
 30
0.0
 11
3579.560822631508
 21
769.95621614262529
 31
0.0
  0
LINE
  5
754F
  8
0
 10
3579.560822631508
 20
769.95621614262529
 30
0.0
 11
3578.830763406891
 21
773.96956868596806
 31
0.0
  0
LINE
  5
7550
  8
0
 10
3578.830763406891
 20
773.96956868596806
 30
0.0
 11
3578.7220512709382
 21
773.47139009933755
 31
0.0
  0
LINE
  5
7551
  8
0
 10
3581.2692910797118
 20
770.42647087895591
 30
0.0
 11
3581.1605789437581
 21
769.92829229232552
 31
0.0
  0
LINE
  5
7552
  8
0
 10
3580.430519719142
 20
773.94164483566817
 30
0.0
 11
3580.3218075831869
 21
773.4434662490379
 31
0.0
  0
LINE
  5
7553
  8
0
 10
3581.1605789437581
 20
769.92829229232552
 30
0.0
 11
3580.430519719142
 21
773.94164483566817
 31
0.0
  0
LINE
  5
7554
  8
0
 10
3582.8690473919619
 20
770.39854702865625
 30
0.0
 11
3582.7603352560081
 21
769.90036844202575
 31
0.0
  0
LINE
  5
7555
  8
0
 10
3582.7603352560081
 20
769.90036844202575
 30
0.0
 11
3582.0302760313921
 21
773.91372098536863
 31
0.0
  0
LINE
  5
7556
  8
0
 10
3582.0302760313921
 20
773.91372098536863
 30
0.0
 11
3581.9215638954379
 21
773.41554239873824
 31
0.0
  0
LINE
  5
7557
  8
0
 10
3590.8678289532131
 20
770.25892777715774
 30
0.0
 11
3590.7591168172589
 21
769.76074919052735
 31
0.0
  0
LINE
  5
7558
  8
0
 10
3590.0290575926429
 20
773.77410173387
 30
0.0
 11
3589.9203454566891
 21
773.27592314723972
 31
0.0
  0
LINE
  5
7559
  8
0
 10
3588.4293012803928
 20
773.80202558416966
 30
0.0
 11
3588.3205891444381
 21
773.30384699753938
 31
0.0
  0
LINE
  5
755A
  8
0
 10
3589.2680726409631
 20
770.28685162745728
 30
0.0
 11
3589.1593605050089
 21
769.78867304082701
 31
0.0
  0
LINE
  5
755B
  8
0
 10
3587.668316328713
 20
770.31477547775705
 30
0.0
 11
3587.5596041927588
 21
769.81659689112678
 31
0.0
  0
LINE
  5
755C
  8
0
 10
3589.1593605050089
 20
769.78867304082701
 30
0.0
 11
3588.4293012803928
 21
773.80202558416966
 31
0.0
  0
LINE
  5
755D
  8
0
 10
3590.7591168172589
 20
769.76074919052735
 30
0.0
 11
3590.0290575926429
 21
773.77410173387
 31
0.0
  0
LINE
  5
755E
  8
0
 10
3586.0685600164629
 20
770.34269932805682
 30
0.0
 11
3585.9598478805078
 21
769.84452074142644
 31
0.0
  0
LINE
  5
755F
  8
0
 10
3577.8698089161808
 20
770.48580906084283
 30
0.0
 11
3577.7610967802261
 21
769.98763047421244
 31
0.0
  0
LINE
  5
7560
  8
0
 10
3577.7610967802261
 20
769.98763047421244
 30
0.0
 11
3577.0270856809921
 21
773.77461045743576
 31
0.0
  0
LINE
  5
7561
  8
0
 10
3577.0270856809921
 20
773.77461045743576
 30
0.0
 11
3576.8884698199572
 21
773.24035453274519
 31
0.0
  0
LINE
  5
7562
  8
0
 10
3585.2297886558931
 20
773.8578732847692
 30
0.0
 11
3585.121076519938
 21
773.3596946981387
 31
0.0
  0
LINE
  5
7563
  8
0
 10
3583.6300323436431
 20
773.88579713506886
 30
0.0
 11
3583.5213202076879
 21
773.38761854843847
 31
0.0
  0
LINE
  5
7564
  8
0
 10
3584.4688037042129
 20
770.37062317835648
 30
0.0
 11
3584.3600915682591
 21
769.87244459172621
 31
0.0
  0
LINE
  5
7565
  8
0
 10
3584.3600915682591
 20
769.87244459172621
 30
0.0
 11
3583.6300323436431
 21
773.88579713506886
 31
0.0
  0
LINE
  5
7566
  8
0
 10
3585.9598478805078
 20
769.84452074142644
 30
0.0
 11
3585.2297886558931
 21
773.8578732847692
 31
0.0
  0
LINE
  5
7567
  8
0
 10
3576.1692442527778
 20
770.46830148209096
 30
0.0
 11
3575.419425619506
 21
773.34978918749812
 31
0.0
  0
LINE
  5
7568
  8
0
 10
3574.5773916793551
 20
770.94896985636069
 30
0.0
 11
3573.8117655580199
 21
772.92496791756037
 31
0.0
  0
LINE
  5
7569
  8
0
 10
3575.419425619506
 20
773.34978918749812
 30
0.0
 11
3575.2270599568478
 21
772.80131343190976
 31
0.0
  0
LINE
  5
756A
  8
0
 10
3574.7367831601641
 20
771.40342914843745
 30
0.0
 11
3574.5773916793551
 21
770.94896985636069
 31
0.0
  0
LINE
  5
756B
  8
0
 10
3573.8117655580199
 20
772.92496791756037
 30
0.0
 11
3573.4897763439421
 21
772.34222207413575
 31
0.0
  0
LINE
  5
756C
  8
0
 10
3576.2901660342768
 20
770.93436054421579
 30
0.0
 11
3576.1692442527778
 21
770.46830148209096
 31
0.0
  0
LINE
  5
756D
  8
0
 10
3586.8295449681432
 20
773.82994943446954
 30
0.0
 11
3586.720832832189
 21
773.33177084783915
 31
0.0
  0
LINE
  5
756E
  8
0
 10
3587.5596041927588
 20
769.81659689112678
 30
0.0
 11
3586.8295449681432
 21
773.82994943446954
 31
0.0
  0
LINE
  5
756F
  8
0
 10
3611.5559488765211
 20
769.397739136631
 30
0.0
 11
3610.8258896519092
 21
773.41109167997365
 31
0.0
  0
LINE
  5
7570
  8
0
 10
3609.9561925642711
 20
769.42566298693077
 30
0.0
 11
3609.2261333396591
 21
773.43901553027342
 31
0.0
  0
LINE
  5
7571
  8
0
 10
3608.3564362520201
 20
769.45358683723043
 30
0.0
 11
3607.6263770274049
 21
773.46693938057319
 31
0.0
  0
LINE
  5
7572
  8
0
 10
3608.4651483879752
 20
769.95176542386082
 30
0.0
 11
3608.3564362520201
 21
769.45358683723043
 31
0.0
  0
LINE
  5
7573
  8
0
 10
3609.2261333396591
 20
773.43901553027342
 30
0.0
 11
3609.117421203704
 21
772.94083694364303
 31
0.0
  0
LINE
  5
7574
  8
0
 10
3607.6263770274049
 20
773.46693938057319
 30
0.0
 11
3607.5176648914512
 21
772.96876079394269
 31
0.0
  0
LINE
  5
7575
  8
0
 10
3610.8258896519092
 20
773.41109167997365
 30
0.0
 11
3610.717177515955
 21
772.91291309334338
 31
0.0
  0
LINE
  5
7576
  8
0
 10
3610.0649047002262
 20
769.92384157356105
 30
0.0
 11
3609.9561925642711
 21
769.42566298693077
 31
0.0
  0
LINE
  5
7577
  8
0
 10
3603.557167315269
 20
769.53735838812952
 30
0.0
 11
3602.8271080906538
 21
773.55071093147217
 31
0.0
  0
LINE
  5
7578
  8
0
 10
3602.8271080906538
 20
773.55071093147217
 30
0.0
 11
3602.7183959547001
 21
773.05253234484189
 31
0.0
  0
LINE
  5
7579
  8
0
 10
3601.9574110030189
 20
769.56528223842929
 30
0.0
 11
3601.2273517784029
 21
773.57863478177205
 31
0.0
  0
LINE
  5
757A
  8
0
 10
3600.3576546907698
 20
769.59320608872895
 30
0.0
 11
3599.6275954661542
 21
773.60655863207171
 31
0.0
  0
LINE
  5
757B
  8
0
 10
3600.466366826724
 20
770.09138467535934
 30
0.0
 11
3600.3576546907698
 21
769.59320608872895
 31
0.0
  0
LINE
  5
757C
  8
0
 10
3599.6275954661542
 20
773.60655863207171
 30
0.0
 11
3599.5188833301991
 21
773.10838004544132
 31
0.0
  0
LINE
  5
757D
  8
0
 10
3601.2273517784029
 20
773.57863478177205
 30
0.0
 11
3601.1186396424491
 21
773.08045619514155
 31
0.0
  0
LINE
  5
757E
  8
0
 10
3602.066123138974
 20
770.06346082505956
 30
0.0
 11
3601.9574110030189
 21
769.56528223842929
 31
0.0
  0
LINE
  5
757F
  8
0
 10
3606.7566799397709
 20
769.4815106875302
 30
0.0
 11
3606.026620715154
 21
773.49486323087285
 31
0.0
  0
LINE
  5
7580
  8
0
 10
3605.15692362752
 20
769.50943453782975
 30
0.0
 11
3604.4268644029039
 21
773.52278708117262
 31
0.0
  0
LINE
  5
7581
  8
0
 10
3603.6658794512241
 20
770.03553697475979
 30
0.0
 11
3603.557167315269
 21
769.53735838812952
 31
0.0
  0
LINE
  5
7582
  8
0
 10
3605.2656357634751
 20
770.00761312446025
 30
0.0
 11
3605.15692362752
 21
769.50943453782975
 31
0.0
  0
LINE
  5
7583
  8
0
 10
3604.4268644029039
 20
773.52278708117262
 30
0.0
 11
3604.3181522669502
 21
773.02460849454224
 31
0.0
  0
LINE
  5
7584
  8
0
 10
3606.026620715154
 20
773.49486323087285
 30
0.0
 11
3605.9179085791998
 21
772.99668464424246
 31
0.0
  0
LINE
  5
7585
  8
0
 10
3606.8653920757238
 20
769.97968927416059
 30
0.0
 11
3606.7566799397709
 21
769.4815106875302
 31
0.0
  0
LINE
  5
7586
  8
0
 10
3598.8666105144698
 20
770.11930852565911
 30
0.0
 11
3598.7578983785152
 21
769.62112993902872
 31
0.0
  0
LINE
  5
7587
  8
0
 10
3597.2668542022152
 20
770.14723237595877
 30
0.0
 11
3597.1581420662601
 21
769.64905378932849
 31
0.0
  0
LINE
  5
7588
  8
0
 10
3598.0278391539032
 20
773.63448248237137
 30
0.0
 11
3597.919127017949
 21
773.13630389574109
 31
0.0
  0
LINE
  5
7589
  8
0
 10
3594.0673415777142
 20
770.20308007655831
 30
0.0
 11
3593.95862944176
 21
769.70490148992781
 31
0.0
  0
LINE
  5
758A
  8
0
 10
3595.55838575401
 20
769.67697763962826
 30
0.0
 11
3594.8283265293981
 21
773.69033018297091
 31
0.0
  0
LINE
  5
758B
  8
0
 10
3594.8283265293981
 20
773.69033018297091
 30
0.0
 11
3594.7196143934439
 21
773.19215159634052
 31
0.0
  0
LINE
  5
758C
  8
0
 10
3595.6670978899651
 20
770.17515622625865
 30
0.0
 11
3595.55838575401
 21
769.67697763962826
 31
0.0
  0
LINE
  5
758D
  8
0
 10
3596.428082841649
 20
773.66240633267125
 30
0.0
 11
3596.3193707056939
 21
773.16422774604086
 31
0.0
  0
LINE
  5
758E
  8
0
 10
3591.6288139048938
 20
773.74617788357045
 30
0.0
 11
3591.5201017689392
 21
773.24799929693995
 31
0.0
  0
LINE
  5
758F
  8
0
 10
3593.228570217148
 20
773.71825403327068
 30
0.0
 11
3593.1198580811929
 21
773.22007544664018
 31
0.0
  0
LINE
  5
7590
  8
0
 10
3592.467585265465
 20
770.23100392685797
 30
0.0
 11
3592.3588731295099
 21
769.73282534022758
 31
0.0
  0
LINE
  5
7591
  8
0
 10
3592.3588731295099
 20
769.73282534022758
 30
0.0
 11
3591.6288139048938
 21
773.74617788357045
 31
0.0
  0
LINE
  5
7592
  8
0
 10
3593.95862944176
 20
769.70490148992781
 30
0.0
 11
3593.228570217148
 21
773.71825403327068
 31
0.0
  0
LINE
  5
7593
  8
0
 10
3597.1581420662601
 20
769.64905378932849
 30
0.0
 11
3596.428082841649
 21
773.66240633267125
 31
0.0
  0
LINE
  5
7594
  8
0
 10
3598.7578983785152
 20
769.62112993902872
 30
0.0
 11
3598.0278391539032
 21
773.63448248237137
 31
0.0
  0
LINE
  5
7595
  8
0
 10
3619.6634425737402
 20
769.75629847176265
 30
0.0
 11
3619.5547304377851
 21
769.25811988513215
 31
0.0
  0
LINE
  5
7596
  8
0
 10
3619.5547304377851
 20
769.25811988513215
 30
0.0
 11
3618.8246712131731
 21
773.27147242847502
 31
0.0
  0
LINE
  5
7597
  8
0
 10
3618.8246712131731
 20
773.27147242847502
 30
0.0
 11
3618.715959077218
 21
772.77329384184463
 31
0.0
  0
LINE
  5
7598
  8
0
 10
3618.0636862614861
 20
769.78422232206242
 30
0.0
 11
3617.95497412553
 21
769.28604373543203
 31
0.0
  0
LINE
  5
7599
  8
0
 10
3616.463929949231
 20
769.81214617236219
 30
0.0
 11
3616.3552178132759
 21
769.3139675857318
 31
0.0
  0
LINE
  5
759A
  8
0
 10
3617.2249149009181
 20
773.29939627877468
 30
0.0
 11
3617.1162027649639
 21
772.80121769214441
 31
0.0
  0
LINE
  5
759B
  8
0
 10
3615.6251585886639
 20
773.32732012907445
 30
0.0
 11
3615.5164464527102
 21
772.82914154244406
 31
0.0
  0
LINE
  5
759C
  8
0
 10
3616.3552178132759
 20
769.3139675857318
 30
0.0
 11
3615.6251585886639
 21
773.32732012907445
 31
0.0
  0
LINE
  5
759D
  8
0
 10
3617.95497412553
 20
769.28604373543203
 30
0.0
 11
3617.2249149009181
 21
773.29939627877468
 31
0.0
  0
LINE
  5
759E
  8
0
 10
3614.7554615010258
 20
769.34189143603146
 30
0.0
 11
3614.0254022764138
 21
773.35524397937422
 31
0.0
  0
LINE
  5
759F
  8
0
 10
3613.1557051887712
 20
769.36981528633135
 30
0.0
 11
3612.4256459641588
 21
773.38316782967399
 31
0.0
  0
LINE
  5
75A0
  8
0
 10
3612.4256459641588
 20
773.38316782967399
 30
0.0
 11
3612.316933828205
 21
772.88498924304361
 31
0.0
  0
LINE
  5
75A1
  8
0
 10
3611.6646610124758
 20
769.89591772326128
 30
0.0
 11
3611.5559488765211
 21
769.397739136631
 31
0.0
  0
LINE
  5
75A2
  8
0
 10
3614.0254022764138
 20
773.35524397937422
 30
0.0
 11
3613.9166901404601
 21
772.85706539274383
 31
0.0
  0
LINE
  5
75A3
  8
0
 10
3613.2644173247259
 20
769.86799387296173
 30
0.0
 11
3613.1557051887712
 21
769.36981528633135
 31
0.0
  0
LINE
  5
75A4
  8
0
 10
3614.8641736369809
 20
769.84007002266196
 30
0.0
 11
3614.7554615010258
 21
769.34189143603146
 31
0.0
  0
LINE
  5
75A5
  8
0
 10
3622.1194241670341
 20
767.21300179049274
 30
0.0
 11
3622.2590620300571
 21
775.21178302687849
 31
0.0
  0
ARC
  5
75A6
  8
1DIM
 10
3609.4824052769791
 20
692.316062233514
 30
0.0
 40
101.0779017888283
 50
268.40158593784008
 51
356.59841406215992
  0
TEXT
  5
75AA
  8
1DIM
 10
3470.2470221042022
 20
625.91186140099899
 30
0.0
 40
10.5
  1
材質：ABS樹脂
  0
TEXT
  5
75AD
  8
1DIM
 10
3435.3900343512059
 20
753.94169166004122
 30
0.0
 40
10.5
  1
皿タッピン\U+03C64x50
  0
LINE
  5
75B0
  8
1DIM
 10
3931.1247604199361
 20
728.31606223805693
 30
0.0
 11
4035.2881367960081
 21
728.31606223805693
 31
0.0
  0
LINE
  5
75B1
  8
1DIM
 10
3930.8295050138699
 20
828.31606223938127
 30
0.0
 11
4035.2881367960081
 21
828.31606223938127
 31
0.0
  0
LINE
  5
75B2
  8
1DIM
 10
4032.288136796009
 20
734.31606223805693
 30
0.0
 11
4032.288136796009
 21
822.31606223938138
 31
0.0
  0
LINE
  5
75B6
  8
1DIM
 10
3931.1247604199361
 20
728.31606223805693
 30
0.0
 11
3965.8681485633551
 21
728.31606223805693
 31
0.0
  0
LINE
  5
75B7
  8
1DIM
 10
3901.1247604199361
 20
798.31606223805716
 30
0.0
 11
3965.8681485633551
 21
798.31606223805716
 31
0.0
  0
LINE
  5
75B8
  8
1DIM
 10
3962.8681485633551
 20
734.31606223805693
 30
0.0
 11
3962.8681485633551
 21
792.31606223805716
 31
0.0
  0
TEXT
  5
75BC
  8
1DIM
 10
3514.7614396505141
 20
649.46294090631909
 30
0.0
 40
10.5
  1
壁面
  0
LINE
  5
75BF
  8
1DIM
 10
3597.9977551575271
 20
684.51606223344379
 30
0.0
 11
3527.7015035936602
 21
684.51606223344379
 31
0.0
  0
LINE
  5
75C0
  8
1DIM
 10
3551.1247604199361
 20
728.31606223938115
 30
0.0
 11
3527.7015035936602
 21
728.31606223938115
 31
0.0
  0
LINE
  5
75C1
  8
1DIM
 10
3530.7015035936602
 20
690.51606223344368
 30
0.0
 11
3530.7015035936602
 21
722.31606223938115
 31
0.0
  0
LINE
  5
75C5
  8
1DIM
 10
3881.1247604199361
 20
728.31606223938252
 30
0.0
 11
3881.1247604199361
 21
637.58552537472133
 31
0.0
  0
LINE
  5
75C6
  8
1DIM
 10
3901.1247604199361
 20
737.81606223805716
 30
0.0
 11
3901.1247604199361
 21
637.58552537472133
 31
0.0
  0
LINE
  5
75C7
  8
1DIM
 10
3887.1247604199361
 20
640.58552537472133
 30
0.0
 11
3895.1247604199361
 21
640.58552537472133
 31
0.0
  0
LINE
  5
75C8
  8
1DIM
 10
3901.1247604199361
 20
640.58552537472133
 30
0.0
 11
4002.0247604199358
 21
640.58552537472133
 31
0.0
  0
LINE
  5
75CC
  8
1DIM
 10
3601.4830443934911
 20
733.99058664611346
 30
0.0
 11
3601.4830443934911
 21
879.35375611613563
 31
0.0
  0
LINE
  5
75CD
  8
1DIM
 10
3877.2778471576648
 20
728.31606223938252
 30
0.0
 11
3877.2778471576648
 21
879.35375611613563
 31
0.0
  0
LINE
  5
75CE
  8
1DIM
 10
3607.4830443934911
 20
876.35375611613563
 30
0.0
 11
3871.2778471576662
 21
876.35375611613563
 31
0.0
  0
LINE
  5
75D2
  8
1DIM
 10
3896.12476040414
 20
728.31606223938252
 30
0.0
 11
3991.8070834060618
 21
728.31606223938252
 31
0.0
  0
LINE
  5
75D3
  8
1DIM
 10
3859.1520334107781
 20
824.31606223943106
 30
0.0
 11
3991.8070834060618
 21
824.31606223943106
 31
0.0
  0
LINE
  5
75D4
  8
1DIM
 10
3988.8070834060618
 20
734.31606223938252
 30
0.0
 11
3988.8070834060618
 21
818.31606223943106
 31
0.0
  0
LINE
  5
75D8
  8
1DIM
 10
3601.1247604199348
 20
728.31606223938115
 30
0.0
 11
3601.1247604199348
 21
637.58552537472133
 31
0.0
  0
LINE
  5
75D9
  8
1DIM
 10
3881.1247604199361
 20
728.31606223805716
 30
0.0
 11
3881.1247604199361
 21
637.58552537472133
 31
0.0
  0
LINE
  5
75DA
  8
1DIM
 10
3607.1247604199361
 20
640.58552537472133
 30
0.0
 11
3875.1247604199361
 21
640.58552537472133
 31
0.0
  0
LINE
  5
75DE
  8
1DIM
 10
3341.297225739886
 20
174.77248429316839
 30
0.0
 11
3341.297225739886
 21
224.19925607048521
 31
0.0
  0
LINE
  5
75DF
  8
1DIM
 10
3346.2972257398869
 20
174.77248429316751
 30
0.0
 11
3346.2972257398869
 21
224.19925607048521
 31
0.0
  0
LINE
  5
75E0
  8
1DIM
 10
3335.2972257398869
 20
221.19925607048529
 30
0.0
 11
3329.2972257398869
 21
221.19925607048529
 31
0.0
  0
LINE
  5
75E1
  8
1DIM
 10
3352.297225739886
 20
221.19925607048529
 30
0.0
 11
3375.9972257398872
 21
221.19925607048529
 31
0.0
  0
LINE
  5
75E2
  8
1DIM
 10
3341.297225739886
 20
221.19925607048529
 30
0.0
 11
3346.2972257398869
 21
221.19925607048529
 31
0.0
  0
LINE
  5
75E6
  8
1DIM
 10
3288.5927652321552
 20
175.77248429316839
 30
0.0
 11
3322.0811930100499
 21
175.77248429316839
 31
0.0
  0
LINE
  5
75E7
  8
1DIM
 10
3288.5927652321561
 20
60.772484293168418
 30
0.0
 11
3322.0811930100499
 21
60.772484293168411
 31
0.0
  0
LINE
  5
75E8
  8
1DIM
 10
3319.0811930100499
 20
169.77248429316839
 30
0.0
 11
3319.0811930100499
 21
66.772484293168418
 31
0.0
  0
LINE
  5
75EC
  8
1DIM
 10
3053.5927652321561
 20
172.77248429316839
 30
0.0
 11
3053.5927652321561
 21
224.6695270568116
 31
0.0
  0
LINE
  5
75ED
  8
1DIM
 10
3291.5927652321552
 20
172.77248429316839
 30
0.0
 11
3291.5927652321552
 21
224.6695270568116
 31
0.0
  0
LINE
  5
75EE
  8
1DIM
 10
3059.5927652321561
 20
221.6695270568116
 30
0.0
 11
3285.5927652321552
 21
221.6695270568116
 31
0.0
  0
TEXT
  5
75F2
  8
1DIM
 10
3958.1392991269909
 20
235.3517932195106
 30
0.0
 40
10.5
  1
可動棚取付位置
  0
LINE
  5
75F5
  8
1DIM
 10
3861.1247604199361
 20
155.47981031032899
 30
0.0
 11
3922.3605920064929
 21
155.47981031032899
 31
0.0
  0
LINE
  5
75F6
  8
1DIM
 10
3861.1247604199361
 20
285.46235657474449
 30
0.0
 11
3922.3605920064929
 21
285.46235657474449
 31
0.0
  0
LINE
  5
75F7
  8
1DIM
 10
3919.3605920064929
 20
161.47981031032899
 30
0.0
 11
3919.3605920064929
 21
279.46235657474438
 31
0.0
  0
LINE
  5
75FB
  8
1DIM
 10
3861.1247604199311
 20
-238.5201896896709
 30
0.0
 11
3924.5368601556552
 21
-238.52018968967101
 31
0.0
  0
LINE
  5
75FC
  8
1DIM
 10
3861.124760419933
 20
-104.53764342525371
 30
0.0
 11
3924.5368601556552
 21
-104.53764342525371
 31
0.0
  0
LINE
  5
75FD
  8
1DIM
 10
3921.5368601556561
 20
-232.52018968967101
 30
0.0
 11
3921.5368601556561
 21
-110.53764342525371
 31
0.0
  0
LINE
  5
7603
  8
1DIM
 10
3861.1247604199311
 20
21.479810310329022
 30
0.0
 11
3951.1445100241149
 21
21.47981031032899
 31
0.0
  0
LINE
  5
7604
  8
1DIM
 10
3861.1247604199311
 20
-238.5201896896709
 30
0.0
 11
3951.1445100241149
 21
-238.52018968967101
 31
0.0
  0
LINE
  5
7605
  8
1DIM
 10
3948.144510024114
 20
15.47981031032899
 30
0.0
 11
3948.144510024114
 21
-232.52018968967101
 31
0.0
  0
LINE
  5
7609
  8
1DIM
 10
3861.1247604199361
 20
155.47981031032899
 30
0.0
 11
3950.9930539357952
 21
155.47981031032899
 31
0.0
  0
LINE
  5
760A
  8
1DIM
 10
3861.1247604199239
 20
415.47981030939042
 30
0.0
 11
3950.9930539357952
 21
415.47981030939042
 31
0.0
  0
LINE
  5
760B
  8
1DIM
 10
3947.9930539357952
 20
161.47981031032899
 30
0.0
 11
3947.9930539357952
 21
409.47981030939042
 31
0.0
  0
LINE
  5
760F
  8
1DIM
 10
3621.124760419937
 20
-238.52018968967269
 30
0.0
 11
3621.124760419937
 21
-317.73922622705447
 31
0.0
  0
LINE
  5
7610
  8
1DIM
 10
3861.1247604199361
 20
-238.5201896896709
 30
0.0
 11
3861.1247604199361
 21
-317.73922622705447
 31
0.0
  0
LINE
  5
7611
  8
1DIM
 10
3627.124760419937
 20
-314.73922622705447
 30
0.0
 11
3855.1247604199348
 21
-314.73922622705447
 31
0.0
  0
LINE
  5
7615
  8
1HATCH
 10
4253.0846069874378
 20
-236.5471580877404
 30
0.0
 11
4253.0846069874378
 21
-325.0892262270545
 31
0.0
  0
LINE
  5
7616
  8
1HATCH
 10
4132.5497021699166
 20
-260.6899986791654
 30
0.0
 11
4132.5497021699166
 21
-325.0892262270545
 31
0.0
  0
LINE
  5
7617
  8
1HATCH
 10
4247.0846069874378
 20
-322.0892262270545
 30
0.0
 11
4138.5497021699166
 21
-322.0892262270545
 31
0.0
  0
TEXT
  5
761B
  8
1DIM
 10
3488.1984741011179
 20
199.4448086930297
 30
0.0
 40
10.5
  1
一体成形固定棚
  0
TEXT
  5
761E
  8
1DIM
 10
3966.8463190639468
 20
-8.5262645963800132
 30
0.0
 40
10.5
  1
材質：ステンレス
  0
TEXT
  5
761F
  8
1DIM
 10
3966.8463190639468
 20
-26.02626459638002
 30
0.0
 40
10.5
  1
仕上げ：鏡面
  0
TEXT
  5
7622
  8
1DIM
 10
3406.7472775225551
 20
419.18814738184761
 30
0.0
 40
10.5
  1
材質：ABS樹脂
  0
TEXT
  5
7623
  8
1DIM
 10
3401.1472775225538
 20
401.68814738184761
 30
0.0
 40
10.5
  1
仕上げ：クローム
  0
LINE
  5
7626
  8
1DIM
 10
3860.5888620350688
 20
25.479810310329022
 30
0.0
 11
3951.1445100241149
 21
25.47981031032899
 31
0.0
  0
LINE
  5
7627
  8
1DIM
 10
3861.1247604199289
 20
151.47981031032899
 30
0.0
 11
3951.1445100241149
 21
151.47981031032899
 31
0.0
  0
LINE
  5
7628
  8
1DIM
 10
3948.144510024114
 20
31.47981031032899
 30
0.0
 11
3948.144510024114
 21
145.47981031032899
 31
0.0
  0
TEXT
  5
762C
  8
1DIM
 10
3390.817922695474
 20
-101.1836979736422
 30
0.0
 40
10.5
  1
材質：ガラス
  0
TEXT
  5
762D
  8
1DIM
 10
3390.817922695474
 20
-118.6836979736422
 30
0.0
 40
10.5
  1
仕上げ：各種仕上げ
  0
TEXT
  5
7630
  8
1DIM
 10
4296.4926117636669
 20
350.14546562178941
 30
0.0
 40
10.5
  1
取付けねじ位置（6ヶ所）
  0
LINE
  5
7633
  8
1DIM
 10
4257.5497021699157
 20
411.50708331819402
 30
0.0
 11
4257.5497021699157
 21
514.50829802958333
 31
0.0
  0
LINE
  5
7634
  8
1DIM
 10
4125.5497021746614
 20
436.47981031031998
 30
0.0
 11
4125.5497021746614
 21
514.50829802958333
 31
0.0
  0
LINE
  5
7635
  8
1DIM
 10
4251.5497021699157
 20
511.50829802958327
 30
0.0
 11
4131.5497021746623
 21
511.50829802958327
 31
0.0
  0
LINE
  5
7639
  8
1DIM
 10
4161.5497021748079
 20
468.4798103103289
 30
0.0
 11
4161.5497021748079
 21
494.41290787481063
 31
0.0
  0
LINE
  5
763A
  8
1DIM
 10
4125.5497021746614
 20
436.47981031031998
 30
0.0
 11
4125.5497021746614
 21
494.41290787481063
 31
0.0
  0
LINE
  5
763B
  8
1DIM
 10
4155.5497021748079
 20
491.41290787481051
 30
0.0
 11
4131.5497021746623
 21
491.41290787481051
 31
0.0
  0
LINE
  5
763F
  8
1DIM
 10
4204.54970217351
 20
311.95901440638852
 30
0.0
 11
4204.54970217351
 21
272.42508410891242
 31
0.0
  0
LINE
  5
7640
  8
1DIM
 10
4198.54970217351
 20
275.42508410891242
 30
0.0
 11
4167.5497021746751
 21
275.42508410891242
 31
0.0
  0
LINE
  5
7644
  8
1DIM
 10
4254.5783186251683
 20
88.479810310329285
 30
0.0
 11
4325.3165750123899
 21
88.479810310329285
 31
0.0
  0
LINE
  5
7645
  8
1DIM
 10
4211.070498082182
 20
-141.5201896880836
 30
0.0
 11
4325.3165750123899
 21
-141.5201896880836
 31
0.0
  0
LINE
  5
7646
  8
1DIM
 10
4322.3165750123908
 20
82.479810310329256
 30
0.0
 11
4322.3165750123908
 21
-135.5201896880836
 31
0.0
  0
LINE
  5
764A
  8
1DIM
 10
4254.5783186251683
 20
88.479810310329285
 30
0.0
 11
4325.3165750123899
 21
88.479810310329285
 31
0.0
  0
LINE
  5
764B
  8
1DIM
 10
4211.070498082182
 20
318.47981030874308
 30
0.0
 11
4325.3165750123899
 21
318.47981030874308
 31
0.0
  0
LINE
  5
764C
  8
1DIM
 10
4322.3165750123908
 20
94.47981031032927
 30
0.0
 11
4322.3165750123908
 21
312.47981030874308
 31
0.0
  0
LINE
  5
7650
  8
1DIM
 10
4161.5497021748079
 20
428.47981031032913
 30
0.0
 11
4045.151875651532
 21
428.47981031032913
 31
0.0
  0
LINE
  5
7651
  8
1DIM
 10
4161.5497170365461
 20
-251.5201896896707
 30
0.0
 11
4045.151875651532
 21
-251.52018968967059
 31
0.0
  0
LINE
  5
7652
  8
1DIM
 10
4048.151875651532
 20
422.47981031032913
 30
0.0
 11
4048.151875651532
 21
-245.52018968967059
 31
0.0
  0
LINE
  5
7656
  8
1DIM
 10
3596.124760419938
 20
443.47981031031748
 30
0.0
 11
3526.4380811940832
 21
443.47981031031748
 31
0.0
  0
LINE
  5
7657
  8
1DIM
 10
3596.1247604199361
 20
-266.52018968967099
 30
0.0
 11
3526.4380811940832
 21
-266.52018968967099
 31
0.0
  0
LINE
  5
7658
  8
1DIM
 10
3529.4380811940832
 20
437.47981031031748
 30
0.0
 11
3529.4380811940832
 21
-260.52018968967099
 31
0.0
  0
LINE
  5
765C
  8
1DIM
 10
3591.124760419938
 20
438.47981031032913
 30
0.0
 11
3591.124760419938
 21
489.48228304964499
 31
0.0
  0
LINE
  5
765D
  8
1DIM
 10
3891.1247604199361
 20
438.47981031032538
 30
0.0
 11
3891.1247604199361
 21
489.48228304964499
 31
0.0
  0
LINE
  5
765E
  8
1DIM
 10
3597.1247604199389
 20
486.48228304964499
 30
0.0
 11
3885.124760419937
 21
486.48228304964499
 31
0.0
  0
TEXT
  5
7662
  8
1DIM
 10
3728.874760419937
 20
488.58228304964501
 30
0.0
 40
10.5
  1
300
  0
LINE
  5
7663
  8
0
  6
BYBLOCK
 10
3885.124760419937
 20
488.08997818964502
 30
0.0
 11
3891.1247604199361
 21
486.48228304964499
 31
0.0
  0
LINE
  5
7664
  8
0
  6
BYBLOCK
 10
3891.1247604199361
 20
486.48228304964499
 30
0.0
 11
3885.124760419937
 21
484.87458790964502
 31
0.0
  0
LINE
  5
7665
  8
0
  6
BYBLOCK
 10
3891.1247604199361
 20
486.48228304964499
 30
0.0
 11
3885.124760419937
 21
486.48228304964499
 31
0.0
  0
LINE
  5
7666
  8
0
  6
BYBLOCK
 10
3597.1247604199389
 20
484.87458790964502
 30
0.0
 11
3591.124760419938
 21
486.48228304964499
 31
0.0
  0
LINE
  5
7667
  8
0
  6
BYBLOCK
 10
3591.124760419938
 20
486.48228304964499
 30
0.0
 11
3597.1247604199389
 21
488.08997818964502
 31
0.0
  0
LINE
  5
7668
  8
0
  6
BYBLOCK
 10
3591.124760419938
 20
486.48228304964499
 30
0.0
 11
3597.1247604199389
 21
486.48228304964499
 31
0.0
  0
TEXT
  5
7669
  8
1DIM
 10
3527.3380811940829
 20
77.104810310323884
 30
0.0
 40
10.5
  1
710
 50
90.0
  0
LINE
  5
766A
  8
0
  6
BYBLOCK
 10
3531.0457763340828
 20
-260.52018968967099
 30
0.0
 11
3529.4380811940832
 21
-266.52018968967099
 31
0.0
  0
LINE
  5
766B
  8
0
  6
BYBLOCK
 10
3529.4380811940832
 20
-266.52018968967099
 30
0.0
 11
3527.8303860540832
 21
-260.52018968967099
 31
0.0
  0
LINE
  5
766C
  8
0
  6
BYBLOCK
 10
3529.4380811940832
 20
-266.52018968967099
 30
0.0
 11
3529.4380811940832
 21
-260.52018968967099
 31
0.0
  0
LINE
  5
766D
  8
0
  6
BYBLOCK
 10
3527.8303860540832
 20
437.47981031031748
 30
0.0
 11
3529.4380811940832
 21
443.47981031031748
 31
0.0
  0
LINE
  5
766E
  8
0
  6
BYBLOCK
 10
3529.4380811940832
 20
443.47981031031748
 30
0.0
 11
3531.0457763340828
 21
437.47981031031748
 31
0.0
  0
LINE
  5
766F
  8
0
  6
BYBLOCK
 10
3529.4380811940832
 20
443.47981031031748
 30
0.0
 11
3529.4380811940832
 21
437.47981031031748
 31
0.0
  0
TEXT
  5
7670
  8
1DIM
 10
4042.7538256515331
 20
32.49906031032959
 30
0.0
 40
10.5
  1
開口高さ　680 
 50
90.0
  0
TEXT
  5
7671
  8
1DIM
 10
4036.2826756515319
 20
131.54906031032959
 30
0.0
 40
7.3269000000000011
  1
+3
 50
90.0
  0
TEXT
  5
7672
  8
1DIM
 10
4046.0518756515321
 20
131.54906031032959
 30
0.0
 40
7.3269000000000011
  1
-2
 50
90.0
  0
LINE
  5
7673
  8
0
  6
BYBLOCK
 10
4049.759570791532
 20
-245.52018968967059
 30
0.0
 11
4048.151875651532
 21
-251.52018968967059
 31
0.0
  0
LINE
  5
7674
  8
0
  6
BYBLOCK
 10
4048.151875651532
 20
-251.52018968967059
 30
0.0
 11
4046.5441805115311
 21
-245.52018968967059
 31
0.0
  0
LINE
  5
7675
  8
0
  6
BYBLOCK
 10
4048.151875651532
 20
-251.52018968967059
 30
0.0
 11
4048.151875651532
 21
-245.52018968967059
 31
0.0
  0
LINE
  5
7676
  8
0
  6
BYBLOCK
 10
4046.5441805115311
 20
422.47981031032913
 30
0.0
 11
4048.151875651532
 21
428.47981031032913
 31
0.0
  0
LINE
  5
7677
  8
0
  6
BYBLOCK
 10
4048.151875651532
 20
428.47981031032913
 30
0.0
 11
4049.759570791532
 21
422.47981031032913
 31
0.0
  0
LINE
  5
7678
  8
0
  6
BYBLOCK
 10
4048.151875651532
 20
428.47981031032913
 30
0.0
 11
4048.151875651532
 21
422.47981031032913
 31
0.0
  0
TEXT
  5
7679
  8
1DIM
 10
4320.2165750123904
 20
185.10481030953679
 30
0.0
 40
10.5
  1
P230
 50
90.0
  0
LINE
  5
767A
  8
0
  6
BYBLOCK
 10
4320.7088798723898
 20
312.47981030874308
 30
0.0
 11
4322.3165750123908
 21
318.47981030874308
 31
0.0
  0
LINE
  5
767B
  8
0
  6
BYBLOCK
 10
4322.3165750123908
 20
318.47981030874308
 30
0.0
 11
4323.9242701523908
 21
312.47981030874308
 31
0.0
  0
LINE
  5
767C
  8
0
  6
BYBLOCK
 10
4322.3165750123908
 20
318.47981030874308
 30
0.0
 11
4322.3165750123908
 21
312.47981030874308
 31
0.0
  0
LINE
  5
767D
  8
0
  6
BYBLOCK
 10
4323.9242701523908
 20
94.47981031032927
 30
0.0
 11
4322.3165750123908
 21
88.479810310329285
 31
0.0
  0
LINE
  5
767E
  8
0
  6
BYBLOCK
 10
4322.3165750123908
 20
88.479810310329285
 30
0.0
 11
4320.7088798723898
 21
94.47981031032927
 31
0.0
  0
LINE
  5
767F
  8
0
  6
BYBLOCK
 10
4322.3165750123908
 20
88.479810310329285
 30
0.0
 11
4322.3165750123908
 21
94.47981031032927
 31
0.0
  0
TEXT
  5
7680
  8
1DIM
 10
4320.2165750123904
 20
-44.895189688876492
 30
0.0
 40
10.5
  1
P230
 50
90.0
  0
LINE
  5
7681
  8
0
  6
BYBLOCK
 10
4323.9242701523908
 20
-135.5201896880836
 30
0.0
 11
4322.3165750123908
 21
-141.5201896880836
 31
0.0
  0
LINE
  5
7682
  8
0
  6
BYBLOCK
 10
4322.3165750123908
 20
-141.5201896880836
 30
0.0
 11
4320.7088798723898
 21
-135.5201896880836
 31
0.0
  0
LINE
  5
7683
  8
0
  6
BYBLOCK
 10
4322.3165750123908
 20
-141.5201896880836
 30
0.0
 11
4322.3165750123908
 21
-135.5201896880836
 31
0.0
  0
LINE
  5
7684
  8
0
  6
BYBLOCK
 10
4320.7088798723898
 20
82.479810310329256
 30
0.0
 11
4322.3165750123908
 21
88.479810310329285
 31
0.0
  0
LINE
  5
7685
  8
0
  6
BYBLOCK
 10
4322.3165750123908
 20
88.479810310329285
 30
0.0
 11
4323.9242701523908
 21
82.479810310329256
 31
0.0
  0
LINE
  5
7686
  8
0
  6
BYBLOCK
 10
4322.3165750123908
 20
88.479810310329285
 30
0.0
 11
4322.3165750123908
 21
82.479810310329256
 31
0.0
  0
TEXT
  5
7687
  8
1DIM
 10
4174.299702174093
 20
277.52508410891238
 30
0.0
 40
10.5
  1
43
  0
LINE
  5
7688
  8
0
  6
BYBLOCK
 10
4167.5497021746751
 20
273.81738896891238
 30
0.0
 11
4161.549702174676
 21
275.42508410891242
 31
0.0
  0
LINE
  5
7689
  8
0
  6
BYBLOCK
 10
4161.549702174676
 20
275.42508410891242
 30
0.0
 11
4167.5497021746751
 21
277.03277924891239
 31
0.0
  0
LINE
  5
768A
  8
0
  6
BYBLOCK
 10
4161.549702174676
 20
275.42508410891242
 30
0.0
 11
4167.5497021746751
 21
275.42508410891242
 31
0.0
  0
LINE
  5
768B
  8
0
  6
BYBLOCK
 10
4198.54970217351
 20
277.03277924891239
 30
0.0
 11
4204.54970217351
 21
275.42508410891242
 31
0.0
  0
LINE
  5
768C
  8
0
  6
BYBLOCK
 10
4204.54970217351
 20
275.42508410891242
 30
0.0
 11
4198.54970217351
 21
273.81738896891238
 31
0.0
  0
LINE
  5
768D
  8
0
  6
BYBLOCK
 10
4204.54970217351
 20
275.42508410891242
 30
0.0
 11
4198.54970217351
 21
275.42508410891242
 31
0.0
  0
TEXT
  5
768E
  8
1DIM
 10
4134.7997021747351
 20
493.51290787481048
 30
0.0
 40
10.5
  1
36
  0
LINE
  5
768F
  8
0
  6
BYBLOCK
 10
4131.5497021746623
 20
489.8052127348106
 30
0.0
 11
4125.5497021746614
 21
491.41290787481051
 31
0.0
  0
LINE
  5
7690
  8
0
  6
BYBLOCK
 10
4125.5497021746614
 20
491.41290787481051
 30
0.0
 11
4131.5497021746623
 21
493.02060301481049
 31
0.0
  0
LINE
  5
7691
  8
0
  6
BYBLOCK
 10
4125.5497021746614
 20
491.41290787481051
 30
0.0
 11
4131.5497021746623
 21
491.41290787481051
 31
0.0
  0
LINE
  5
7692
  8
0
  6
BYBLOCK
 10
4155.5497021748079
 20
493.02060301481049
 30
0.0
 11
4161.5497021748079
 21
491.41290787481051
 31
0.0
  0
LINE
  5
7693
  8
0
  6
BYBLOCK
 10
4161.5497021748079
 20
491.41290787481051
 30
0.0
 11
4155.5497021748079
 21
489.8052127348106
 31
0.0
  0
LINE
  5
7694
  8
0
  6
BYBLOCK
 10
4161.5497021748079
 20
491.41290787481051
 30
0.0
 11
4155.5497021748079
 21
491.41290787481051
 31
0.0
  0
TEXT
  5
7695
  8
1DIM
 10
4179.2997021722886
 20
513.60829802958335
 30
0.0
 40
10.5
  1
132
  0
LINE
  5
7696
  8
0
  6
BYBLOCK
 10
4131.5497021746623
 20
509.9006028895833
 30
0.0
 11
4125.5497021746614
 21
511.50829802958327
 31
0.0
  0
LINE
  5
7697
  8
0
  6
BYBLOCK
 10
4125.5497021746614
 20
511.50829802958327
 30
0.0
 11
4131.5497021746623
 21
513.11599316958325
 31
0.0
  0
LINE
  5
7698
  8
0
  6
BYBLOCK
 10
4125.5497021746614
 20
511.50829802958327
 30
0.0
 11
4131.5497021746623
 21
511.50829802958327
 31
0.0
  0
LINE
  5
7699
  8
0
  6
BYBLOCK
 10
4251.5497021699157
 20
513.11599316958325
 30
0.0
 11
4257.5497021699157
 21
511.50829802958327
 31
0.0
  0
LINE
  5
769A
  8
0
  6
BYBLOCK
 10
4257.5497021699157
 20
511.50829802958327
 30
0.0
 11
4251.5497021699157
 21
509.9006028895833
 31
0.0
  0
LINE
  5
769B
  8
0
  6
BYBLOCK
 10
4257.5497021699157
 20
511.50829802958327
 30
0.0
 11
4251.5497021699157
 21
511.50829802958327
 31
0.0
  0
LINE
  5
769C
  8
1DIM
 10
4214.7518220709944
 20
323.93336140252319
 30
0.0
 11
4288.3926117636684
 21
348.04546562178939
 31
0.0
1001
ACAD
1000
DSTYLE
1002
{
1070
    40
1040
3.0
1002
}
  0
LINE
  5
769D
  8
1DIM
 10
4288.3926117636684
 20
348.04546562178939
 30
0.0
 11
4296.4926117636669
 21
348.04546562178939
 31
0.0
1001
ACAD
1000
DSTYLE
1002
{
1070
    40
1040
3.0
1002
}
  0
LINE
  5
769E
  8
0
  6
BYBLOCK
 10
4215.2520932325324
 20
322.40548299502018
 30
0.0
 11
4209.0497021746696
 21
322.0663239931647
 31
0.0
  0
LINE
  5
769F
  8
0
  6
BYBLOCK
 10
4209.0497021746696
 20
322.0663239931647
 30
0.0
 11
4214.2515509094574
 21
325.46123981002609
 31
0.0
  0
LINE
  5
76A0
  8
0
  6
BYBLOCK
 10
4209.0497021746696
 20
322.0663239931647
 30
0.0
 11
4214.7518220709944
 21
323.93336140252319
 31
0.0
  0
LINE
  5
76A1
  8
1DIM
 10
3645.8732730440252
 20
-53.93759655776288
 30
0.0
 11
3509.5179226954742
 21
-120.78369797364221
 31
0.0
1001
ACAD
1000
DSTYLE
1002
{
1070
    40
1040
3.0
1002
}
  0
LINE
  5
76A2
  8
1DIM
 10
3509.5179226954742
 20
-120.78369797364221
 30
0.0
 11
3501.4179226954739
 21
-120.78369797364221
 31
0.0
1001
ACAD
1000
DSTYLE
1002
{
1070
    40
1040
3.0
1002
}
  0
LINE
  5
76A3
  8
0
  6
BYBLOCK
 10
3645.1655896696402
 20
-52.494035715678258
 30
0.0
 11
3651.2607154993821
 21
-51.296486224926873
 31
0.0
  0
LINE
  5
76A4
  8
0
  6
BYBLOCK
 10
3651.2607154993821
 20
-51.296486224926873
 30
0.0
 11
3646.5809564184092
 21
-55.381157399847503
 31
0.0
  0
LINE
  5
76A5
  8
0
  6
BYBLOCK
 10
3651.2607154993821
 20
-51.296486224926873
 30
0.0
 11
3645.8732730440252
 21
-53.93759655776288
 31
0.0
  0
TEXT
  5
76A6
  8
1DIM
 10
3946.044510024115
 20
76.229810310329626
 30
0.0
 40
10.5
  1
126
 50
90.0
  0
LINE
  5
76A7
  8
0
  6
BYBLOCK
 10
3946.5368148841139
 20
145.47981031032899
 30
0.0
 11
3948.144510024114
 21
151.47981031032899
 31
0.0
  0
LINE
  5
76A8
  8
0
  6
BYBLOCK
 10
3948.144510024114
 20
151.47981031032899
 30
0.0
 11
3949.7522051641149
 21
145.47981031032899
 31
0.0
  0
LINE
  5
76A9
  8
0
  6
BYBLOCK
 10
3948.144510024114
 20
151.47981031032899
 30
0.0
 11
3948.144510024114
 21
145.47981031032899
 31
0.0
  0
LINE
  5
76AA
  8
0
  6
BYBLOCK
 10
3949.7522051641149
 20
31.47981031032899
 30
0.0
 11
3948.144510024114
 21
25.47981031032899
 31
0.0
  0
LINE
  5
76AB
  8
0
  6
BYBLOCK
 10
3948.144510024114
 20
25.47981031032899
 30
0.0
 11
3946.5368148841139
 21
31.47981031032899
 31
0.0
  0
LINE
  5
76AC
  8
0
  6
BYBLOCK
 10
3948.144510024114
 20
25.47981031032899
 30
0.0
 11
3948.144510024114
 21
31.47981031032899
 31
0.0
  0
LINE
  5
76AD
  8
1DIM
 10
3591.2955675876378
 20
365.70711799444541
 30
0.0
 11
3506.5472775225549
 21
399.5881473818477
 31
0.0
1001
ACAD
1000
DSTYLE
1002
{
1070
    40
1040
3.0
1002
}
  0
LINE
  5
76AE
  8
1DIM
 10
3506.5472775225549
 20
399.5881473818477
 30
0.0
 11
3498.4472775225549
 21
399.5881473818477
 31
0.0
1001
ACAD
1000
DSTYLE
1002
{
1070
    40
1040
3.0
1002
}
  0
LINE
  5
76AF
  8
0
  6
BYBLOCK
 10
3591.892372878016
 20
367.19993650603891
 30
0.0
 11
3596.866842169934
 21
363.4798103083192
 31
0.0
  0
LINE
  5
76B0
  8
0
  6
BYBLOCK
 10
3596.866842169934
 20
363.4798103083192
 30
0.0
 11
3590.6987622972601
 21
364.21429948285203
 31
0.0
  0
LINE
  5
76B1
  8
0
  6
BYBLOCK
 10
3596.866842169934
 20
363.4798103083192
 30
0.0
 11
3591.2955675876378
 21
365.70711799444541
 31
0.0
  0
LINE
  5
76B2
  8
1DIM
 10
3875.159255473558
 20
68.933381038752941
 30
0.0
 11
3958.7463190639469
 21
-28.126264596380022
 31
0.0
1001
ACAD
1000
DSTYLE
1002
{
1070
    40
1040
3.0
1002
}
  0
LINE
  5
76B3
  8
1DIM
 10
3958.7463190639469
 20
-28.126264596380022
 30
0.0
 11
3966.8463190639468
 21
-28.126264596380022
 31
0.0
1001
ACAD
1000
DSTYLE
1002
{
1070
    40
1040
3.0
1002
}
  0
LINE
  5
76B4
  8
0
  6
BYBLOCK
 10
3873.941043432847
 20
67.884265655658453
 30
0.0
 11
3871.2439035253228
 21
73.479810310329981
 31
0.0
  0
LINE
  5
76B5
  8
0
  6
BYBLOCK
 10
3871.2439035253228
 20
73.479810310329981
 30
0.0
 11
3876.377467514269
 21
69.982496421847415
 31
0.0
  0
LINE
  5
76B6
  8
0
  6
BYBLOCK
 10
3871.2439035253228
 20
73.479810310329981
 30
0.0
 11
3875.159255473558
 21
68.933381038752941
 31
0.0
  0
LINE
  5
76B7
  8
1DIM
 10
3650.7321662933018
 20
161.09048547576211
 30
0.0
 11
3581.698474101117
 21
197.34480869302971
 31
0.0
1001
ACAD
1000
DSTYLE
1002
{
1070
    40
1040
3.0
1002
}
  0
LINE
  5
76B8
  8
1DIM
 10
3581.698474101117
 20
197.34480869302971
 30
0.0
 11
3573.5984741011171
 21
197.34480869302971
 31
0.0
1001
ACAD
1000
DSTYLE
1002
{
1070
    40
1040
3.0
1002
}
  0
LINE
  5
76B9
  8
0
  6
BYBLOCK
 10
3651.4796655432119
 20
162.51383663923579
 30
0.0
 11
3656.0441852005938
 21
158.30078027116309
 31
0.0
  0
LINE
  5
76BA
  8
0
  6
BYBLOCK
 10
3656.0441852005938
 20
158.30078027116309
 30
0.0
 11
3649.9846670433908
 21
159.6671343122884
 31
0.0
  0
LINE
  5
76BB
  8
0
  6
BYBLOCK
 10
3656.0441852005938
 20
158.30078027116309
 30
0.0
 11
3650.7321662933018
 21
161.09048547576211
 31
0.0
  0
TEXT
  5
76BC
  8
1HATCH
 10
4149.2421545786774
 20
-319.98922622705447
 30
0.0
 40
10.5
  1
有効内寸120.5
  0
LINE
  5
76BD
  8
0
  6
BYBLOCK
 10
4138.5497021699166
 20
-323.69692136705447
 30
0.0
 11
4132.5497021699166
 21
-322.0892262270545
 31
0.0
  0
LINE
  5
76BE
  8
0
  6
BYBLOCK
 10
4132.5497021699166
 20
-322.0892262270545
 30
0.0
 11
4138.5497021699166
 21
-320.48153108705452
 31
0.0
  0
LINE
  5
76BF
  8
0
  6
BYBLOCK
 10
4132.5497021699166
 20
-322.0892262270545
 30
0.0
 11
4138.5497021699166
 21
-322.0892262270545
 31
0.0
  0
LINE
  5
76C0
  8
0
  6
BYBLOCK
 10
4247.0846069874378
 20
-320.48153108705452
 30
0.0
 11
4253.0846069874378
 21
-322.0892262270545
 31
0.0
  0
LINE
  5
76C1
  8
0
  6
BYBLOCK
 10
4253.0846069874378
 20
-322.0892262270545
 30
0.0
 11
4247.0846069874378
 21
-323.69692136705447
 31
0.0
  0
LINE
  5
76C2
  8
0
  6
BYBLOCK
 10
4253.0846069874378
 20
-322.0892262270545
 30
0.0
 11
4247.0846069874378
 21
-322.0892262270545
 31
0.0
  0
TEXT
  5
76C3
  8
1DIM
 10
3702.7997604199359
 20
-312.63922622705439
 30
0.0
 40
10.5
  1
有効内寸240
  0
LINE
  5
76C4
  8
0
  6
BYBLOCK
 10
3855.1247604199348
 20
-313.1315310870545
 30
0.0
 11
3861.1247604199361
 21
-314.73922622705447
 31
0.0
  0
LINE
  5
76C5
  8
0
  6
BYBLOCK
 10
3861.1247604199361
 20
-314.73922622705447
 30
0.0
 11
3855.1247604199348
 21
-316.34692136705439
 31
0.0
  0
LINE
  5
76C6
  8
0
  6
BYBLOCK
 10
3861.1247604199361
 20
-314.73922622705447
 30
0.0
 11
3855.1247604199348
 21
-314.73922622705447
 31
0.0
  0
LINE
  5
76C7
  8
0
  6
BYBLOCK
 10
3627.124760419937
 20
-316.34692136705439
 30
0.0
 11
3621.124760419937
 21
-314.73922622705447
 31
0.0
  0
LINE
  5
76C8
  8
0
  6
BYBLOCK
 10
3621.124760419937
 20
-314.73922622705447
 30
0.0
 11
3627.124760419937
 21
-313.1315310870545
 31
0.0
  0
LINE
  5
76C9
  8
0
  6
BYBLOCK
 10
3621.124760419937
 20
-314.73922622705447
 30
0.0
 11
3627.124760419937
 21
-314.73922622705447
 31
0.0
  0
TEXT
  5
76CA
  8
1DIM
 10
3945.8930539357939
 20
272.35481030986028
 30
0.0
 40
10.5
  1
260
 50
90.0
  0
LINE
  5
76CB
  8
0
  6
BYBLOCK
 10
3946.3853587957942
 20
409.47981030939042
 30
0.0
 11
3947.9930539357952
 21
415.47981030939042
 31
0.0
  0
LINE
  5
76CC
  8
0
  6
BYBLOCK
 10
3947.9930539357952
 20
415.47981030939042
 30
0.0
 11
3949.6007490757952
 21
409.47981030939042
 31
0.0
  0
LINE
  5
76CD
  8
0
  6
BYBLOCK
 10
3947.9930539357952
 20
415.47981030939042
 30
0.0
 11
3947.9930539357952
 21
409.47981030939042
 31
0.0
  0
LINE
  5
76CE
  8
0
  6
BYBLOCK
 10
3949.6007490757952
 20
161.47981031032899
 30
0.0
 11
3947.9930539357952
 21
155.47981031032899
 31
0.0
  0
LINE
  5
76CF
  8
0
  6
BYBLOCK
 10
3947.9930539357952
 20
155.47981031032899
 30
0.0
 11
3946.3853587957942
 21
161.47981031032899
 31
0.0
  0
LINE
  5
76D0
  8
0
  6
BYBLOCK
 10
3947.9930539357952
 20
155.47981031032899
 30
0.0
 11
3947.9930539357952
 21
161.47981031032899
 31
0.0
  0
TEXT
  5
76D1
  8
1DIM
 10
3946.044510024115
 20
-121.6451896896703
 30
0.0
 40
10.5
  1
260
 50
90.0
  0
LINE
  5
76D2
  8
0
  6
BYBLOCK
 10
3949.7522051641149
 20
-232.52018968967101
 30
0.0
 11
3948.144510024114
 21
-238.52018968967101
 31
0.0
  0
LINE
  5
76D3
  8
0
  6
BYBLOCK
 10
3948.144510024114
 20
-238.52018968967101
 30
0.0
 11
3946.5368148841139
 21
-232.52018968967101
 31
0.0
  0
LINE
  5
76D4
  8
0
  6
BYBLOCK
 10
3948.144510024114
 20
-238.52018968967101
 30
0.0
 11
3948.144510024114
 21
-232.52018968967101
 31
0.0
  0
LINE
  5
76D5
  8
0
  6
BYBLOCK
 10
3946.5368148841139
 20
15.47981031032899
 30
0.0
 11
3948.144510024114
 21
21.47981031032899
 31
0.0
  0
LINE
  5
76D6
  8
0
  6
BYBLOCK
 10
3948.144510024114
 20
21.47981031032899
 30
0.0
 11
3949.7522051641149
 21
15.47981031032899
 31
0.0
  0
LINE
  5
76D7
  8
0
  6
BYBLOCK
 10
3948.144510024114
 20
21.47981031032899
 30
0.0
 11
3948.144510024114
 21
15.47981031032899
 31
0.0
  0
LINE
  5
76D8
  8
1DIM
 10
3658.2271447781859
 20
33.77204627116388
 30
0.0
 11
3581.698474101117
 21
197.34480869302971
 31
0.0
1001
ACAD
1000
DSTYLE
1002
{
1070
    40
1040
3.0
1002
}
  0
LINE
  5
76D9
  8
0
  6
BYBLOCK
 10
3659.6833460373209
 20
34.453340301721681
 30
0.0
 11
3660.769768738191
 21
28.33742913671815
 31
0.0
  0
LINE
  5
76DA
  8
0
  6
BYBLOCK
 10
3660.769768738191
 20
28.33742913671815
 30
0.0
 11
3656.7709435190518
 21
33.090752240606093
 31
0.0
  0
LINE
  5
76DB
  8
0
  6
BYBLOCK
 10
3660.769768738191
 20
28.33742913671815
 30
0.0
 11
3658.2271447781859
 21
33.77204627116388
 31
0.0
  0
TEXT
  5
76DC
  8
1DIM
 10
3919.4368601556562
 20
-183.77891655746171
 30
0.0
 40
10.5
  1
134
 50
90.0
  0
LINE
  5
76DD
  8
0
  6
BYBLOCK
 10
3919.9291650156561
 20
-110.53764342525371
 30
0.0
 11
3921.5368601556561
 21
-104.53764342525371
 31
0.0
  0
LINE
  5
76DE
  8
0
  6
BYBLOCK
 10
3921.5368601556561
 20
-104.53764342525371
 30
0.0
 11
3923.1445552956552
 21
-110.53764342525371
 31
0.0
  0
LINE
  5
76DF
  8
0
  6
BYBLOCK
 10
3921.5368601556561
 20
-104.53764342525371
 30
0.0
 11
3921.5368601556561
 21
-110.53764342525371
 31
0.0
  0
LINE
  5
76E0
  8
0
  6
BYBLOCK
 10
3923.1445552956552
 20
-232.52018968967101
 30
0.0
 11
3921.5368601556561
 21
-238.52018968967101
 31
0.0
  0
LINE
  5
76E1
  8
0
  6
BYBLOCK
 10
3921.5368601556561
 20
-238.52018968967101
 30
0.0
 11
3919.9291650156561
 21
-232.52018968967101
 31
0.0
  0
LINE
  5
76E2
  8
0
  6
BYBLOCK
 10
3921.5368601556561
 20
-238.52018968967101
 30
0.0
 11
3921.5368601556561
 21
-232.52018968967101
 31
0.0
  0
TEXT
  5
76E3
  8
1DIM
 10
3917.260592006493
 20
209.09608344253741
 30
0.0
 40
10.5
  1
130
 50
90.0
  0
LINE
  5
76E4
  8
0
  6
BYBLOCK
 10
3917.7528968664928
 20
279.46235657474438
 30
0.0
 11
3919.3605920064929
 21
285.46235657474449
 31
0.0
  0
LINE
  5
76E5
  8
0
  6
BYBLOCK
 10
3919.3605920064929
 20
285.46235657474449
 30
0.0
 11
3920.9682871464929
 21
279.46235657474438
 31
0.0
  0
LINE
  5
76E6
  8
0
  6
BYBLOCK
 10
3919.3605920064929
 20
285.46235657474449
 30
0.0
 11
3919.3605920064929
 21
279.46235657474438
 31
0.0
  0
LINE
  5
76E7
  8
0
  6
BYBLOCK
 10
3920.9682871464929
 20
161.47981031032899
 30
0.0
 11
3919.3605920064929
 21
155.47981031032899
 31
0.0
  0
LINE
  5
76E8
  8
0
  6
BYBLOCK
 10
3919.3605920064929
 20
155.47981031032899
 30
0.0
 11
3917.7528968664928
 21
161.47981031032899
 31
0.0
  0
LINE
  5
76E9
  8
0
  6
BYBLOCK
 10
3919.3605920064929
 20
155.47981031032899
 30
0.0
 11
3919.3605920064929
 21
161.47981031032899
 31
0.0
  0
LINE
  5
76EA
  8
1DIM
 10
3933.3926427781512
 20
224.42409456133311
 30
0.0
 11
3950.039299126991
 21
233.2517932195106
 31
0.0
1001
ACAD
1000
DSTYLE
1002
{
1070
    40
1040
3.0
1002
}
  0
LINE
  5
76EB
  8
1DIM
 10
3950.039299126991
 20
233.2517932195106
 30
0.0
 11
3958.1392991269909
 21
233.2517932195106
 31
0.0
1001
ACAD
1000
DSTYLE
1002
{
1070
    40
1040
3.0
1002
}
  0
LINE
  5
76EC
  8
0
  6
BYBLOCK
 10
3934.1458472747031
 20
223.00375423255511
 30
0.0
 11
3928.0918604590179
 21
221.6130970862059
 31
0.0
  0
LINE
  5
76ED
  8
0
  6
BYBLOCK
 10
3928.0918604590179
 20
221.6130970862059
 30
0.0
 11
3932.6394382815988
 21
225.84443489011099
 31
0.0
  0
LINE
  5
76EE
  8
0
  6
BYBLOCK
 10
3928.0918604590179
 20
221.6130970862059
 30
0.0
 11
3933.3926427781512
 21
224.42409456133311
 31
0.0
  0
TEXT
  5
76EF
  8
1DIM
 10
3158.5927652321552
 20
223.7695270568116
 30
0.0
 40
10.5
  1
238
  0
LINE
  5
76F0
  8
0
  6
BYBLOCK
 10
3285.5927652321552
 20
223.27722219681161
 30
0.0
 11
3291.5927652321552
 21
221.6695270568116
 31
0.0
  0
LINE
  5
76F1
  8
0
  6
BYBLOCK
 10
3291.5927652321552
 20
221.6695270568116
 30
0.0
 11
3285.5927652321552
 21
220.0618319168116
 31
0.0
  0
LINE
  5
76F2
  8
0
  6
BYBLOCK
 10
3291.5927652321552
 20
221.6695270568116
 30
0.0
 11
3285.5927652321552
 21
221.6695270568116
 31
0.0
  0
LINE
  5
76F3
  8
0
  6
BYBLOCK
 10
3059.5927652321561
 20
220.0618319168116
 30
0.0
 11
3053.5927652321561
 21
221.6695270568116
 31
0.0
  0
LINE
  5
76F4
  8
0
  6
BYBLOCK
 10
3053.5927652321561
 20
221.6695270568116
 30
0.0
 11
3059.5927652321561
 21
223.27722219681161
 31
0.0
  0
LINE
  5
76F5
  8
0
  6
BYBLOCK
 10
3053.5927652321561
 20
221.6695270568116
 30
0.0
 11
3059.5927652321561
 21
221.6695270568116
 31
0.0
  0
TEXT
  5
76F6
  8
1DIM
 10
3316.9811930100509
 20
113.0806242161553
 30
0.0
 40
10.5
  1
115
 50
90.0
  0
LINE
  5
76F7
  8
0
  6
BYBLOCK
 10
3320.6888881500499
 20
66.772484293168418
 30
0.0
 11
3319.0811930100499
 21
60.772484293168411
 31
0.0
  0
LINE
  5
76F8
  8
0
  6
BYBLOCK
 10
3319.0811930100499
 20
60.772484293168411
 30
0.0
 11
3317.4734978700508
 21
66.772484293168418
 31
0.0
  0
LINE
  5
76F9
  8
0
  6
BYBLOCK
 10
3319.0811930100499
 20
60.772484293168411
 30
0.0
 11
3319.0811930100499
 21
66.772484293168418
 31
0.0
  0
LINE
  5
76FA
  8
0
  6
BYBLOCK
 10
3317.4734978700508
 20
169.77248429316839
 30
0.0
 11
3319.0811930100499
 21
175.77248429316839
 31
0.0
  0
LINE
  5
76FB
  8
0
  6
BYBLOCK
 10
3319.0811930100499
 20
175.77248429316839
 30
0.0
 11
3320.6888881500499
 21
169.77248429316839
 31
0.0
  0
LINE
  5
76FC
  8
0
  6
BYBLOCK
 10
3319.0811930100499
 20
175.77248429316839
 30
0.0
 11
3319.0811930100499
 21
169.77248429316839
 31
0.0
  0
TEXT
  5
76FD
  8
1DIM
 10
3358.3972257398859
 20
223.29925607048531
 30
0.0
 40
10.5
  1
t5
  0
LINE
  5
76FE
  8
0
  6
BYBLOCK
 10
3352.297225739886
 20
219.59156093048529
 30
0.0
 11
3346.2972257398869
 21
221.19925607048529
 31
0.0
  0
LINE
  5
76FF
  8
0
  6
BYBLOCK
 10
3346.2972257398869
 20
221.19925607048529
 30
0.0
 11
3352.297225739886
 21
222.80695121048529
 31
0.0
  0
LINE
  5
7700
  8
0
  6
BYBLOCK
 10
3346.2972257398869
 20
221.19925607048529
 30
0.0
 11
3352.297225739886
 21
221.19925607048529
 31
0.0
  0
LINE
  5
7701
  8
0
  6
BYBLOCK
 10
3335.2972257398869
 20
222.80695121048529
 30
0.0
 11
3341.297225739886
 21
221.19925607048529
 31
0.0
  0
LINE
  5
7702
  8
0
  6
BYBLOCK
 10
3341.297225739886
 20
221.19925607048529
 30
0.0
 11
3335.2972257398869
 21
219.59156093048529
 31
0.0
  0
LINE
  5
7703
  8
0
  6
BYBLOCK
 10
3341.297225739886
 20
221.19925607048529
 30
0.0
 11
3335.2972257398869
 21
221.19925607048529
 31
0.0
  0
TEXT
  5
7704
  8
1DIM
 10
3717.5135984719659
 20
646.00195037472133
 30
0.0
 40
10.5
  1
開口巾　280 
  0
TEXT
  5
7705
  8
1DIM
 10
3803.9635984719648
 20
652.47572537472126
 30
0.0
 40
7.3426499999999999
  1
+3
  0
TEXT
  5
7706
  8
1DIM
 10
3803.9635984719648
 20
642.68552537472135
 30
0.0
 40
7.3426499999999999
  1
  0
  0
LINE
  5
7707
  8
0
  6
BYBLOCK
 10
3875.1247604199361
 20
642.19322051472125
 30
0.0
 11
3881.1247604199361
 21
640.58552537472133
 31
0.0
  0
LINE
  5
7708
  8
0
  6
BYBLOCK
 10
3881.1247604199361
 20
640.58552537472133
 30
0.0
 11
3875.1247604199361
 21
638.97783023472118
 31
0.0
  0
LINE
  5
7709
  8
0
  6
BYBLOCK
 10
3881.1247604199361
 20
640.58552537472133
 30
0.0
 11
3875.1247604199361
 21
640.58552537472133
 31
0.0
  0
LINE
  5
770A
  8
0
  6
BYBLOCK
 10
3607.1247604199361
 20
638.97783023472118
 30
0.0
 11
3601.1247604199348
 21
640.58552537472133
 31
0.0
  0
LINE
  5
770B
  8
0
  6
BYBLOCK
 10
3601.1247604199348
 20
640.58552537472133
 30
0.0
 11
3607.1247604199361
 21
642.19322051472125
 31
0.0
  0
LINE
  5
770C
  8
0
  6
BYBLOCK
 10
3601.1247604199348
 20
640.58552537472133
 30
0.0
 11
3607.1247604199361
 21
640.58552537472133
 31
0.0
  0
TEXT
  5
770D
  8
1DIM
 10
3986.7070834060619
 20
767.56606223940685
 30
0.0
 40
10.5
  1
96
 50
90.0
  0
LINE
  5
770E
  8
0
  6
BYBLOCK
 10
3987.1993882660622
 20
818.31606223943106
 30
0.0
 11
3988.8070834060618
 21
824.31606223943106
 31
0.0
  0
LINE
  5
770F
  8
0
  6
BYBLOCK
 10
3988.8070834060618
 20
824.31606223943106
 30
0.0
 11
3990.4147785460618
 21
818.31606223943106
 31
0.0
  0
LINE
  5
7710
  8
0
  6
BYBLOCK
 10
3988.8070834060618
 20
824.31606223943106
 30
0.0
 11
3988.8070834060618
 21
818.31606223943106
 31
0.0
  0
LINE
  5
7711
  8
0
  6
BYBLOCK
 10
3990.4147785460618
 20
734.31606223938252
 30
0.0
 11
3988.8070834060618
 21
728.31606223938252
 31
0.0
  0
LINE
  5
7712
  8
0
  6
BYBLOCK
 10
3988.8070834060618
 20
728.31606223938252
 30
0.0
 11
3987.1993882660622
 21
734.31606223938252
 31
0.0
  0
LINE
  5
7713
  8
0
  6
BYBLOCK
 10
3988.8070834060618
 20
728.31606223938252
 30
0.0
 11
3988.8070834060618
 21
734.31606223938252
 31
0.0
  0
TEXT
  5
7714
  8
1DIM
 10
3678.1304457755782
 20
878.45375611613554
 30
0.0
 40
10.5
  1
製品埋め込み巾 276
  0
LINE
  5
7715
  8
0
  6
BYBLOCK
 10
3871.2778471576662
 20
877.96145125613566
 30
0.0
 11
3877.2778471576648
 21
876.35375611613563
 31
0.0
  0
LINE
  5
7716
  8
0
  6
BYBLOCK
 10
3877.2778471576648
 20
876.35375611613563
 30
0.0
 11
3871.2778471576662
 21
874.7460609761356
 31
0.0
  0
LINE
  5
7717
  8
0
  6
BYBLOCK
 10
3877.2778471576648
 20
876.35375611613563
 30
0.0
 11
3871.2778471576662
 21
876.35375611613563
 31
0.0
  0
LINE
  5
7718
  8
0
  6
BYBLOCK
 10
3607.4830443934911
 20
874.7460609761356
 30
0.0
 11
3601.4830443934911
 21
876.35375611613563
 31
0.0
  0
LINE
  5
7719
  8
0
  6
BYBLOCK
 10
3601.4830443934911
 20
876.35375611613563
 30
0.0
 11
3607.4830443934911
 21
877.96145125613566
 31
0.0
  0
LINE
  5
771A
  8
0
  6
BYBLOCK
 10
3601.4830443934911
 20
876.35375611613563
 30
0.0
 11
3607.4830443934911
 21
876.35375611613563
 31
0.0
  0
TEXT
  5
771B
  8
1DIM
 10
3911.699760419935
 20
642.68552537472135
 30
0.0
 40
10.5
  1
縦桟　20 以上
  0
LINE
  5
771C
  8
0
  6
BYBLOCK
 10
3895.1247604199361
 20
642.19322051472125
 30
0.0
 11
3901.1247604199361
 21
640.58552537472133
 31
0.0
  0
LINE
  5
771D
  8
0
  6
BYBLOCK
 10
3901.1247604199361
 20
640.58552537472133
 30
0.0
 11
3895.1247604199361
 21
638.97783023472118
 31
0.0
  0
LINE
  5
771E
  8
0
  6
BYBLOCK
 10
3901.1247604199361
 20
640.58552537472133
 30
0.0
 11
3895.1247604199361
 21
640.58552537472133
 31
0.0
  0
LINE
  5
771F
  8
0
  6
BYBLOCK
 10
3887.1247604199361
 20
638.97783023472118
 30
0.0
 11
3881.1247604199361
 21
640.58552537472133
 31
0.0
  0
LINE
  5
7720
  8
0
  6
BYBLOCK
 10
3881.1247604199361
 20
640.58552537472133
 30
0.0
 11
3887.1247604199361
 21
642.19322051472125
 31
0.0
  0
LINE
  5
7721
  8
0
  6
BYBLOCK
 10
3881.1247604199361
 20
640.58552537472133
 30
0.0
 11
3887.1247604199361
 21
640.58552537472133
 31
0.0
  0
TEXT
  5
7722
  8
1DIM
 10
3528.6015035936598
 20
697.66606223641304
 30
0.0
 40
10.5
  1
44
 50
90.0
  0
LINE
  5
7723
  8
0
  6
BYBLOCK
 10
3529.0938084536601
 20
722.31606223938115
 30
0.0
 11
3530.7015035936602
 21
728.31606223938115
 31
0.0
  0
LINE
  5
7724
  8
0
  6
BYBLOCK
 10
3530.7015035936602
 20
728.31606223938115
 30
0.0
 11
3532.3091987336602
 21
722.31606223938115
 31
0.0
  0
LINE
  5
7725
  8
0
  6
BYBLOCK
 10
3530.7015035936602
 20
728.31606223938115
 30
0.0
 11
3530.7015035936602
 21
722.31606223938115
 31
0.0
  0
LINE
  5
7726
  8
0
  6
BYBLOCK
 10
3532.3091987336602
 20
690.51606223344368
 30
0.0
 11
3530.7015035936602
 21
684.51606223344379
 31
0.0
  0
LINE
  5
7727
  8
0
  6
BYBLOCK
 10
3530.7015035936602
 20
684.51606223344379
 30
0.0
 11
3529.0938084536601
 21
690.51606223344368
 31
0.0
  0
LINE
  5
7728
  8
0
  6
BYBLOCK
 10
3530.7015035936602
 20
684.51606223344379
 30
0.0
 11
3530.7015035936602
 21
690.51606223344368
 31
0.0
  0
LINE
  5
7729
  8
1DIM
 10
3574.8716457668779
 20
722.73158095554254
 30
0.0
 11
3545.2614396505141
 21
647.36294090631907
 31
0.0
1001
ACAD
1000
DSTYLE
1002
{
1070
    40
1040
3.0
1002
}
  0
LINE
  5
772A
  8
1DIM
 10
3545.2614396505141
 20
647.36294090631907
 30
0.0
 11
3537.1614396505138
 21
647.36294090631907
 31
0.0
1001
ACAD
1000
DSTYLE
1002
{
1070
    40
1040
3.0
1002
}
  0
LINE
  5
772B
  8
0
  6
BYBLOCK
 10
3573.3752885303038
 20
723.31945737429908
 30
0.0
 11
3577.0656304501558
 21
728.31606223938115
 31
0.0
  0
LINE
  5
772C
  8
0
  6
BYBLOCK
 10
3577.0656304501558
 20
728.31606223938115
 30
0.0
 11
3576.3680030034529
 21
722.14370453678578
 31
0.0
  0
LINE
  5
772D
  8
0
  6
BYBLOCK
 10
3577.0656304501558
 20
728.31606223938115
 30
0.0
 11
3574.8716457668779
 21
722.73158095554254
 31
0.0
  0
TEXT
  5
772E
  8
1DIM
 10
3960.7681485633561
 20
739.34106223805691
 30
0.0
 40
10.5
  1
70 以上
 50
90.0
  0
LINE
  5
772F
  8
0
  6
BYBLOCK
 10
3961.2604534233551
 20
792.31606223805716
 30
0.0
 11
3962.8681485633551
 21
798.31606223805716
 31
0.0
  0
LINE
  5
7730
  8
0
  6
BYBLOCK
 10
3962.8681485633551
 20
798.31606223805716
 30
0.0
 11
3964.4758437033552
 21
792.31606223805716
 31
0.0
  0
LINE
  5
7731
  8
0
  6
BYBLOCK
 10
3962.8681485633551
 20
798.31606223805716
 30
0.0
 11
3962.8681485633551
 21
792.31606223805716
 31
0.0
  0
LINE
  5
7732
  8
0
  6
BYBLOCK
 10
3964.4758437033552
 20
734.31606223805693
 30
0.0
 11
3962.8681485633551
 21
728.31606223805693
 31
0.0
  0
LINE
  5
7733
  8
0
  6
BYBLOCK
 10
3962.8681485633551
 20
728.31606223805693
 30
0.0
 11
3961.2604534233551
 21
734.31606223805693
 31
0.0
  0
LINE
  5
7734
  8
0
  6
BYBLOCK
 10
3962.8681485633551
 20
728.31606223805693
 30
0.0
 11
3962.8681485633551
 21
734.31606223805693
 31
0.0
  0
TEXT
  5
7735
  8
1DIM
 10
4012.6881367960082
 20
729.91606223871975
 30
0.0
 40
10.5
  1
推奨掘り込み深さ
 50
90.0
  0
TEXT
  5
7736
  8
1DIM
 10
4030.1881367960091
 20
745.41606223871975
 30
0.0
 40
10.5
  1
　100 以上
 50
90.0
  0
LINE
  5
7737
  8
0
  6
BYBLOCK
 10
4030.680441656008
 20
822.31606223938138
 30
0.0
 11
4032.288136796009
 21
828.31606223938127
 31
0.0
  0
LINE
  5
7738
  8
0
  6
BYBLOCK
 10
4032.288136796009
 20
828.31606223938127
 30
0.0
 11
4033.895831936009
 21
822.31606223938138
 31
0.0
  0
LINE
  5
7739
  8
0
  6
BYBLOCK
 10
4032.288136796009
 20
828.31606223938127
 30
0.0
 11
4032.288136796009
 21
822.31606223938138
 31
0.0
  0
LINE
  5
773A
  8
0
  6
BYBLOCK
 10
4033.895831936009
 20
734.31606223805693
 30
0.0
 11
4032.288136796009
 21
728.31606223805693
 31
0.0
  0
LINE
  5
773B
  8
0
  6
BYBLOCK
 10
4032.288136796009
 20
728.31606223805693
 30
0.0
 11
4030.680441656008
 21
734.31606223805693
 31
0.0
  0
LINE
  5
773C
  8
0
  6
BYBLOCK
 10
4032.288136796009
 20
728.31606223805693
 30
0.0
 11
4032.288136796009
 21
734.31606223805693
 31
0.0
  0
LINE
  5
773D
  8
1DIM
 10
3579.957329272077
 20
767.52601850554049
 30
0.0
 11
3555.8400343512062
 21
751.84169166004108
 31
0.0
1001
ACAD
1000
DSTYLE
1002
{
1070
    40
1040
3.0
1002
}
  0
LINE
  5
773E
  8
1DIM
 10
3555.8400343512062
 20
751.84169166004108
 30
0.0
 11
3547.7400343512049
 21
751.84169166004108
 31
0.0
1001
ACAD
1000
DSTYLE
1002
{
1070
    40
1040
3.0
1002
}
  0
LINE
  5
773F
  8
0
  6
BYBLOCK
 10
3579.080836546309
 20
768.87377373734455
 30
0.0
 11
3584.9872203189739
 21
770.7971339202503
 31
0.0
  0
LINE
  5
7740
  8
0
  6
BYBLOCK
 10
3584.9872203189739
 20
770.7971339202503
 30
0.0
 11
3580.833821997845
 21
766.17826327373632
 31
0.0
  0
LINE
  5
7741
  8
0
  6
BYBLOCK
 10
3584.9872203189739
 20
770.7971339202503
 30
0.0
 11
3579.957329272077
 21
767.52601850554049
 31
0.0
  0
LINE
  5
7742
  8
1DIM
 10
3624.6921316166258
 20
708.09083323525488
 30
0.0
 11
3570.0470221042019
 21
623.81186140099885
 31
0.0
1001
ACAD
1000
DSTYLE
1002
{
1070
    40
1040
3.0
1002
}
  0
LINE
  5
7743
  8
1DIM
 10
3570.0470221042019
 20
623.81186140099885
 30
0.0
 11
3561.9470221042011
 21
623.81186140099885
 31
0.0
1001
ACAD
1000
DSTYLE
1002
{
1070
    40
1040
3.0
1002
}
  0
LINE
  5
7744
  8
0
  6
BYBLOCK
 10
3623.3431744662539
 20
708.96547503029979
 30
0.0
 11
3627.9563392637742
 21
713.12520990335452
 31
0.0
  0
LINE
  5
7745
  8
0
  6
BYBLOCK
 10
3627.9563392637742
 20
713.12520990335452
 30
0.0
 11
3626.0410887669982
 21
707.21619144021008
 31
0.0
  0
LINE
  5
7746
  8
0
  6
BYBLOCK
 10
3627.9563392637742
 20
713.12520990335452
 30
0.0
 11
3624.6921316166258
 21
708.09083323525488
 31
0.0
  0
TEXT
  5
7747
  8
1DIM
 10
3662.6744118980282
 20
606.80970004832216
 30
0.0
 40
10.5
  1
約95\U+00B0
 50
42.5
  0
LINE
  5
7748
  8
0
  6
BYBLOCK
 10
3708.775239729337
 20
686.36642205385181
 30
0.0
 11
3710.5603070658071
 21
692.31606223351378
 31
0.0
  0
LINE
  5
7749
  8
0
  6
BYBLOCK
 10
3710.5603070658071
 20
692.31606223351378
 30
0.0
 11
3711.9892134673651
 21
686.27098901983265
 31
0.0
  0
LINE
  5
774A
  8
0
  6
BYBLOCK
 10
3710.5603070658071
 20
692.31606223351378
 30
0.0
 11
3710.3822265983522
 21
686.31870553684223
 31
0.0
  0
LINE
  5
774B
  8
0
  6
BYBLOCK
 10
3606.5704181575002
 20
589.6724605500408
 30
0.0
 11
3600.6728856711989
 21
591.6227923772451
 31
0.0
  0
LINE
  5
774C
  8
0
  6
BYBLOCK
 10
3600.6728856711989
 20
591.6227923772451
 30
0.0
 11
3606.7554645432961
 21
592.8825216846335
 31
0.0
  0
LINE
  5
774D
  8
0
  6
BYBLOCK
 10
3600.6728856711989
 20
591.6227923772451
 30
0.0
 11
3606.6629413503979
 21
591.27749111733715
 31
0.0
  0
LINE
  5
774E
  8
0
 10
3577.8221883452989
 20
773.48709726513118
 30
0.0
 11
3619.7158300369119
 21
772.75584102932328
 31
0.0
  0
LINE
  5
774F
  8
0
 10
3572.4968134616001
 20
772.0798235374275
 30
0.0
 11
3577.8221883452989
 21
773.48709726513118
 31
0.0
  0
LINE
  5
7750
  8
0
 10
3622.2590620300571
 20
775.21178302687849
 30
0.0
 11
3619.7158300369119
 21
772.75584102932328
 31
0.0
  0
LINE
  5
7751
  8
0
 10
3572.4968134616001
 20
772.0798235374275
 30
0.0
 11
3577.769824146666
 21
770.48755430148651
 31
0.0
  0
LINE
  5
7752
  8
0
 10
3622.2590620300571
 20
775.21178302687849
 30
0.0
 11
3622.5590163386041
 21
775.20654730494732
 31
0.0
  0
LINE
  5
7753
  8
0
 10
3577.769824146666
 20
770.48755430148651
 30
0.0
 11
3619.663407677157
 21
769.75629908088467
 31
0.0
  0
LINE
  5
7754
  8
0
 10
3622.4193784755821
 20
767.20776606856145
 30
0.0
 11
3622.5590163386041
 21
775.20654730494732
 31
0.0
  0
LINE
  5
7755
  8
0
 10
3622.1194241670341
 20
767.21300179049274
 30
0.0
 11
3619.663407677157
 21
769.75629908088467
 31
0.0
  0
LINE
  5
7756
  8
0
 10
3622.1194241670341
 20
767.21300179049274
 30
0.0
 11
3622.4193784755821
 21
767.20776606856145
 31
0.0
  0
LINE
  5
7757
  8
0
 10
3904.4796913383161
 20
770.48746112204333
 30
0.0
 11
3862.5860496467021
 21
769.75620488623554
 31
0.0
  0
LINE
  5
7758
  8
0
 10
3909.752709002702
 20
772.07973047980886
 30
0.0
 11
3904.4796913383161
 21
770.48746112204333
 31
0.0
  0
LINE
  5
7759
  8
0
 10
3860.130078061417
 20
767.2130014656293
 30
0.0
 11
3862.5860496467021
 21
769.75620488623554
 31
0.0
  0
LINE
  5
775A
  8
0
 10
3909.752709002702
 20
772.07973047980886
 30
0.0
 11
3904.4273410983251
 21
773.48700432933697
 31
0.0
  0
LINE
  5
775B
  8
0
 10
3860.130078061417
 20
767.2130014656293
 30
0.0
 11
3859.830123752869
 21
767.20776574369813
 31
0.0
  0
LINE
  5
775C
  8
0
 10
3904.4273410983251
 20
773.48700432933697
 30
0.0
 11
3862.5337575678318
 21
772.75574910873524
 31
0.0
  0
LINE
  5
775D
  8
0
 10
3859.690523112894
 20
775.20654762981439
 30
0.0
 11
3859.830123752869
 21
767.20776574369813
 31
0.0
  0
LINE
  5
775E
  8
0
 10
3859.9904774214419
 20
775.21178335174568
 30
0.0
 11
3862.5337575678318
 21
772.75574910873524
 31
0.0
  0
LINE
  5
775F
  8
0
 10
3859.9904774214419
 20
775.21178335174568
 30
0.0
 11
3859.690523112894
 21
775.20654762981439
 31
0.0
  0
VIEWPORT
  5
57
 67
     1
  8
0
 10
-7.2067484576606091
 20
10.992471000106599
 30
0.0
 40
401.5319840801256
 41
270.41224768581912
 68
     1
 69
     1
1001
ACAD
1000
MVIEW
1002
{
1070
    16
1010
0.0
1020
0.0
1030
0.0
1010
0.0
1020
0.0
1030
1.0
1040
0.0
1040
270.41224768581912
1040
-7.2067484576606091
1040
10.992471000106599
1040
50.0
1040
0.0
1040
0.0
1070
     0
1070
   100
1070
     1
1070
     1
1070
     0
1070
     0
1070
     0
1070
     0
1040
0.0
1040
0.0
1040
0.0
1040
10.0
1040
10.0
1040
10.0
1040
10.0
1070
     0
1002
{
1002
}
1002
}
  0
ENDSEC
  0
EOF
