  0
SECTION
  2
HEADER
  9
$ACADVER
  1
AC1009
  9
$INSBASE
 10
0.0
 20
0.0
 30
0.0
  9
$EXTMIN
 10
-134.4902419790173
 20
-378.1097955079606
 30
0.0
  9
$EXTMAX
 10
1374.9122912211001
 20
903.93317162520975
 30
0.0
  9
$LIMMIN
 10
0.0
 20
0.0
  9
$LIMMAX
 10
420.0
 20
297.0
  9
$ORTHOMODE
 70
     0
  9
$REGENMODE
 70
     1
  9
$FILLMODE
 70
     1
  9
$QTEXTMODE
 70
     0
  9
$MIRRTEXT
 70
     0
  9
$DRAGMODE
 70
     2
  9
$LTSCALE
 40
0.5
  9
$OSMODE
 70
    63
  9
$ATTMODE
 70
     1
  9
$TEXTSIZE
 40
4.0
  9
$TRACEWID
 40
1.0
  9
$TEXTSTYLE
  7
STANDARD
  9
$CLAYER
  8
1TEXT
  9
$CELTYPE
  6
BYLAYER
  9
$CECOLOR
 62
   256
  9
$DIMSCALE
 40
1.0
  9
$DIMASZ
 40
2.0
  9
$DIMEXO
 40
0.0
  9
$DIMDLI
 40
7.0
  9
$DIMRND
 40
0.0
  9
$DIMDLE
 40
0.0
  9
$DIMEXE
 40
1.0
  9
$DIMTP
 40
0.0
  9
$DIMTM
 40
0.0
  9
$DIMTXT
 40
3.5
  9
$DIMCEN
 40
0.0
  9
$DIMTSZ
 40
0.0
  9
$DIMTOL
 70
     0
  9
$DIMLIM
 70
     0
  9
$DIMTIH
 70
     0
  9
$DIMTOH
 70
     0
  9
$DIMSE1
 70
     0
  9
$DIMSE2
 70
     0
  9
$DIMTAD
 70
     1
  9
$DIMZIN
 70
     8
  9
$DIMBLK
  1

  9
$DIMASO
 70
     1
  9
$DIMSHO
 70
     1
  9
$DIMPOST
  1
 
  9
$DIMAPOST
  1

  9
$DIMALT
 70
     0
  9
$DIMALTD
 70
     2
  9
$DIMALTF
 40
25.399999999999999
  9
$DIMLFAC
 40
1.0
  9
$DIMTOFL
 70
     1
  9
$DIMTVP
 40
0.0
  9
$DIMTIX
 70
     0
  9
$DIMSOXD
 70
     0
  9
$DIMSAH
 70
     1
  9
$DIMBLK1
  1
OPEN30
  9
$DIMBLK2
  1
OPEN30
  9
$DIMSTYLE
  2
NEWX10
  9
$DIMCLRD
 70
   256
  9
$DIMCLRE
 70
   256
  9
$DIMCLRT
 70
   201
  9
$DIMTFAC
 40
0.7
  9
$DIMGAP
 40
0.7
  9
$LUNITS
 70
     2
  9
$LUPREC
 70
     4
  9
$SKETCHINC
 40
1.0
  9
$FILLETRAD
 40
0.0
  9
$AUNITS
 70
     0
  9
$AUPREC
 70
     2
  9
$MENU
  1
acad
  9
$ELEVATION
 40
0.0
  9
$PELEVATION
 40
0.0
  9
$THICKNESS
 40
0.0
  9
$LIMCHECK
 70
     0
  9
$BLIPMODE
 70
     0
  9
$CHAMFERA
 40
1.0
  9
$CHAMFERB
 40
1.0
  9
$SKPOLY
 70
     0
  9
$TDCREATE
 40
2453033.7326634838
  9
$TDUPDATE
 40
2456735.384453299
  9
$TDINDWG
 40
2.3609029167000002
  9
$TDUSRTIMER
 40
2.3609029167000002
  9
$USRTIMER
 70
     1
  9
$ANGBASE
 50
0.0
  9
$ANGDIR
 70
     0
  9
$PDMODE
 70
     0
  9
$PDSIZE
 40
0.0
  9
$PLINEWID
 40
0.0
  9
$COORDS
 70
     0
  9
$SPLFRAME
 70
     0
  9
$SPLINETYPE
 70
     6
  9
$SPLINESEGS
 70
     8
  9
$ATTDIA
 70
     0
  9
$ATTREQ
 70
     1
  9
$HANDLING
 70
     1
  9
$HANDSEED
  5
2071E
  9
$SURFTAB1
 70
     6
  9
$SURFTAB2
 70
     6
  9
$SURFTYPE
 70
     6
  9
$SURFU
 70
     6
  9
$SURFV
 70
     6
  9
$UCSNAME
  2

  9
$UCSORG
 10
0.0
 20
0.0
 30
0.0
  9
$UCSXDIR
 10
1.0
 20
0.0
 30
0.0
  9
$UCSYDIR
 10
0.0
 20
1.0
 30
0.0
  9
$PUCSNAME
  2

  9
$PUCSORG
 10
0.0
 20
0.0
 30
0.0
  9
$PUCSXDIR
 10
1.0
 20
0.0
 30
0.0
  9
$PUCSYDIR
 10
0.0
 20
1.0
 30
0.0
  9
$USERI1
 70
     0
  9
$USERI2
 70
     0
  9
$USERI3
 70
     0
  9
$USERI4
 70
     0
  9
$USERI5
 70
     0
  9
$USERR1
 40
0.0
  9
$USERR2
 40
0.0
  9
$USERR3
 40
0.0
  9
$USERR4
 40
0.0
  9
$USERR5
 40
0.0
  9
$WORLDVIEW
 70
     1
  9
$SHADEDGE
 70
     3
  9
$SHADEDIF
 70
    70
  9
$TILEMODE
 70
     1
  9
$MAXACTVP
 70
    48
  9
$PLIMCHECK
 70
     0
  9
$PEXTMIN
 10
1.0000000000000000E+020
 20
1.0000000000000000E+020
 30
1.0000000000000000E+020
  9
$PEXTMAX
 10
-1.0000000000000000E+020
 20
-1.0000000000000000E+020
 30
-1.0000000000000000E+020
  9
$PLIMMIN
 10
0.0
 20
0.0
  9
$PLIMMAX
 10
420.0
 20
297.0
  9
$UNITMODE
 70
     0
  9
$VISRETAIN
 70
     1
  9
$PLINEGEN
 70
     0
  9
$PSLTSCALE
 70
     1
  0
ENDSEC
  0
SECTION
  2
TABLES
  0
TABLE
  2
VPORT
 70
     1
  0
VPORT
  2
*ACTIVE
 70
     0
 10
0.0
 20
0.0
 11
1.0
 21
1.0
 12
620.19736615800548
 22
262.91169104361381
 13
0.0
 23
0.0
 14
10.0
 24
10.0
 15
10.0
 25
10.0
 16
0.0
 26
0.0
 36
1.0
 17
0.0
 27
0.0
 37
0.0
 40
1359.5492018587679
 41
2.1771217712177111
 42
50.0
 43
0.0
 44
0.0
 50
0.0
 51
0.0
 71
     0
 72
   100
 73
     1
 74
     1
 75
     0
 76
     0
 77
     0
 78
     0
  0
ENDTAB
  0
TABLE
  2
LTYPE
 70
    18
  0
LTYPE
  2
CONTINUOUS
 70
     0
  3
Solid line
 72
    65
 73
     0
 40
0.0
  0
LTYPE
  2
CENTER2
 70
     0
  3
Center (.5x) ___ _ ___ _ ___ _ ___ _ ___ _ ___
 72
    65
 73
     4
 40
28.574999999999999
 49
19.050000000000001
 49
-3.1749999999999989
 49
3.1749999999999989
 49
-3.1749999999999989
  0
LTYPE
  2
PHANTOM2
 70
     0
  3
Phantom (.5x) ___ _ _ ___ _ _ ___ _ _ ___ _ _
 72
    65
 73
     6
 40
31.75
 49
15.875
 49
-3.1749999999999989
 49
3.1749999999999989
 49
-3.1749999999999989
 49
3.1749999999999989
 49
-3.1749999999999989
  0
ENDTAB
  0
TABLE
  2
LAYER
 70
    44
  0
LAYER
  2
0
 70
     0
 62
     7
  6
CONTINUOUS
  0
LAYER
  2
1CENTER
 70
     0
 62
     7
  6
CENTER2
  0
LAYER
  2
1TEXT
 70
     0
 62
     7
  6
CONTINUOUS
  0
LAYER
  2
1DIM
 70
     0
 62
     7
  6
CONTINUOUS
  0
LAYER
  2
1PHANTOM
 70
     0
 62
     7
  6
PHANTOM2
  0
LAYER
  2
01
 70
     0
 62
     1
  6
CONTINUOUS
  0
LAYER
  2
1HATCH
 70
     0
 62
     7
  6
CONTINUOUS
  0
ENDTAB
  0
TABLE
  2
STYLE
 70
    24
  0
STYLE
  2
STANDARD
 70
     0
 40
0.0
 41
1.0
 50
0.0
 71
     0
 42
4.0
  3
txt.shx
  4
extfont.shx
  0
ENDTAB
  0
TABLE
  2
VIEW
 70
     5
  0
ENDTAB
  0
TABLE
  2
UCS
 70
     0
  0
ENDTAB
  0
TABLE
  2
APPID
 70
    14
  0
APPID
  2
ACAD
 70
     0
  0
APPID
  2
DRAWINGVARIABLESXDATA
 70
     0
  0
APPID
  2
CONTENTTABDATA
 70
     0
  0
APPID
  2
CONTENTCURRENTTAB
 70
     0
  0
APPID
  2
CONTENTBLOCKDESCRIPTION
 70
     0
  0
APPID
  2
CONTENTBLOCKICON
 70
     0
  0
APPID
  2
CONTENTLONGBLOCKNAME
 70
     0
  0
APPID
  2
ACAD_PSEXT
 70
     0
  0
APPID
  2
ACAD_DSTYLE_DIMTEXT_FILL
 70
     0
  0
APPID
  2
ACAD_MLEADERVER
 70
     0
  0
APPID
  2
ACAD_DSTYLE_DIMRADIAL_EXTENSION
 70
     0
  0
APPID
  2
ACADANNOTATIVE
 70
     0
  0
APPID
  2
ACAD_EXEMPT_FROM_CAD_STANDARDS
 70
     0
  0
APPID
  2
ACLAYERTOOLS
 70
     0
  0
ENDTAB
  0
TABLE
  2
DIMSTYLE
 70
    10
  0
DIMSTYLE
  2
NEWX10
 70
     0
  3
 
  4

  5

  6
OPEN30
  7
OPEN30
 40
1.0
 41
2.0
 42
0.0
 43
7.0
 44
1.0
 45
0.0
 46
0.0
 47
0.0
 48
0.0
140
3.5
141
0.0
142
0.0
143
25.399999999999999
144
1.0
145
0.0
146
0.7
147
0.7
 71
     0
 72
     0
 73
     0
 74
     0
 75
     0
 76
     0
 77
     1
 78
     8
170
     0
171
     2
172
     1
173
     1
174
     0
175
     0
176
   256
177
   256
178
   201
  0
ENDTAB
  0
ENDSEC
  0
SECTION
  2
BLOCKS
  0
BLOCK
  8
0
  2
$MODEL_SPACE
 70
     0
 10
0.0
 20
0.0
 30
0.0
  3
$MODEL_SPACE
  1

  0
ENDBLK
  5
1A
  8
0
  0
BLOCK
 67
     1
  8
0
  2
$PAPER_SPACE
 70
     0
 10
0.0
 20
0.0
 30
0.0
  3
$PAPER_SPACE
  1

  0
ENDBLK
  5
17
 67
     1
  8
0
  0
BLOCK
  8
0
  2
_OPEN30
 70
     0
 10
0.0
 20
0.0
 30
0.0
  3
_OPEN30
  1

  0
LINE
  5
44
  8
0
  6
BYBLOCK
 62
     0
 10
-1.0
 20
0.26794919
 30
0.0
 11
0.0
 21
0.0
 31
0.0
  0
LINE
  5
45
  8
0
  6
BYBLOCK
 62
     0
 10
0.0
 20
0.0
 30
0.0
 11
-1.0
 21
-0.26794919
 31
0.0
  0
LINE
  5
46
  8
0
  6
BYBLOCK
 62
     0
 10
0.0
 20
0.0
 30
0.0
 11
-1.0
 21
0.0
 31
0.0
  0
ENDBLK
  5
47
  8
0
  0
BLOCK
  8
0
  2
*U97
 70
     1
 10
0.0
 20
0.0
 30
0.0
  3
*U97
  1

  0
TEXT
  5
20676
  8
1TEXT
 62
   201
 10
341.01624161536461
 20
-729.32133035126765
 30
0.0
 40
10.5
  1
576
  0
ENDBLK
  5
20678
  8
0
  0
BLOCK
  8
0
  2
*U98
 70
     1
 10
0.0
 20
0.0
 30
0.0
  3
*U98
  1

  0
TEXT
  5
2067A
  8
1DIM
 62
   201
 10
843.81624161536502
 20
-643.19633035126537
 30
0.0
 40
3.5
  1
11
 50
90.0
  0
ENDBLK
  5
2067C
  8
0
  0
BLOCK
  8
0
  2
*U99
 70
     1
 10
0.0
 20
0.0
 30
0.0
  3
*U99
  1

  0
TEXT
  5
2067E
  8
1DIM
 62
   201
 10
853.81624161536502
 20
-656.48799701793121
 30
0.0
 40
3.5
  1
35
 50
90.0
  0
ENDBLK
  5
20680
  8
0
  0
BLOCK
  8
0
  2
*U100
 70
     1
 10
0.0
 20
0.0
 30
0.0
  3
*U100
  1

  0
TEXT
  5
20682
  8
1DIM
 62
   201
 10
843.81624161536502
 20
-659.90466368459965
 30
0.0
 40
3.5
  1
P18
 50
90.0
  0
ENDBLK
  5
20684
  8
0
  0
BLOCK
  8
0
  2
*U101
 70
     1
 10
0.0
 20
0.0
 30
0.0
  3
*U101
  1

  0
TEXT
  5
20686
  8
1DIM
 62
   201
 10
736.43290828203146
 20
-720.72133035126762
 30
0.0
 40
3.5
  1
125
  0
ENDBLK
  5
20688
  8
0
  0
BLOCK
  8
0
  2
*U102
 70
     1
 10
0.0
 20
0.0
 30
0.0
  3
*U102
  1

  0
TEXT
  5
2068A
  8
1DIM
 62
   201
 10
617.59957494869786
 20
-470.12133035126629
 30
0.0
 40
3.5
  1
45
  0
ENDBLK
  5
2068C
  8
0
  0
BLOCK
  8
0
  2
*U103
 70
     1
 10
0.0
 20
0.0
 30
0.0
  3
*U103
  1

  0
TEXT
  5
2068E
  8
1TEXT
 62
   201
 10
7.922111059233341
 20
-584.61299701793291
 30
0.0
 40
3.5
  1
150
 50
90.0
  0
ENDBLK
  5
20690
  8
0
  0
BLOCK
  8
0
  2
*U104
 70
     1
 10
0.0
 20
0.0
 30
0.0
  3
*U104
  1

  0
TEXT
  5
20692
  8
1DIM
 62
   201
 10
667.31624161536502
 20
-646.7046636845995
 30
0.0
 40
3.5
  1
8
 50
90.0
  0
ENDBLK
  5
20694
  8
0
  0
BLOCK
  8
0
  2
*U105
 70
     1
 10
0.0
 20
0.0
 30
0.0
  3
*U105
  1

  0
TEXT
  5
20696
  8
1DIM
 62
   201
 10
791.68289925513488
 20
-690.72133035126762
 30
0.0
 40
3.5
  1
18
  0
ENDBLK
  5
20698
  8
0
  0
BLOCK
  8
0
  2
*U106
 70
     1
 10
0.0
 20
0.0
 30
0.0
  3
*U106
  1

  0
TEXT
  5
2069A
  8
1DIM
 62
   201
 10
770.39124161536495
 20
-700.72133035126762
 30
0.0
 40
3.5
  1
60
  0
ENDBLK
  5
2069C
  8
0
  0
BLOCK
  8
0
  2
*U107
 70
     1
 10
0.0
 20
0.0
 30
0.0
  3
*U107
  1

  0
TEXT
  5
2069E
  8
1DIM
 62
   201
 10
734.22457494869832
 20
-710.72133035126762
 30
0.0
 40
3.5
  1
120
  0
ENDBLK
  5
206A0
  8
0
  0
BLOCK
  8
0
  2
*U108
 70
     1
 10
0.0
 20
0.0
 30
0.0
  3
*U108
  1

  0
TEXT
  5
206A2
  8
1TEXT
 62
   201
 10
337.51624161536449
 20
-699.32133035126765
 30
0.0
 40
10.5
  1
P518
  0
ENDBLK
  5
206A4
  8
0
  0
BLOCK
  8
0
  2
*U109
 70
     1
 10
0.0
 20
0.0
 30
0.0
  3
*U109
  1

  0
TEXT
  5
206A6
  8
1DIM
 62
   201
 10
609.93290828203124
 20
-690.72133035126762
 30
0.0
 40
3.5
  1
P18
  0
ENDBLK
  5
206A8
  8
0
  0
BLOCK
  8
0
  2
*U110
 70
     1
 10
0.0
 20
0.0
 30
0.0
  3
*U110
  1

  0
TEXT
  5
206AA
  8
1DIM
 62
   201
 10
3728.874760419937
 20
478.58228304965547
 30
0.0
 40
10.5
  1
314
  0
ENDBLK
  5
206AC
  8
0
  0
BLOCK
  8
0
  2
*U111
 70
     1
 10
0.0
 20
0.0
 30
0.0
  3
*U111
  1

  0
TEXT
  5
206AE
  8
1DIM
 62
   201
 10
3561.3380812102791
 20
77.479810310328631
 30
0.0
 40
10.5
  1
724
 50
90.0
  0
ENDBLK
  5
206B0
  8
0
  0
BLOCK
  8
0
  2
*U112
 70
     1
 10
0.0
 20
0.0
 30
0.0
  3
*U112
  1

  0
TEXT
  5
206B2
  8
1DIM
 62
   201
 10
4129.7538070910623
 20
35.499075520298618
 30
0.0
 40
10.5
  1
開口高さ　680 
 50
90.0
  0
TEXT
  5
206B3
  8
1DIM
 62
   201
 10
4123.2826570910629
 20
134.5490755202986
 30
0.0
 40
7.3269000000000011
  1
+3
 50
90.0
  0
TEXT
  5
206B4
  8
1DIM
 62
   201
 10
4133.0518570910626
 20
134.5490755202986
 30
0.0
 40
7.3269000000000011
  1
-2
 50
90.0
  0
ENDBLK
  5
206B6
  8
0
  0
BLOCK
  8
0
  2
*U113
 70
     1
 10
0.0
 20
0.0
 30
0.0
  3
*U113
  1

  0
TEXT
  5
206B8
  8
1DIM
 62
   201
 10
4190.249692616625
 20
503.51292308344318
 30
0.0
 40
10.5
  1
39
  0
ENDBLK
  5
206BA
  8
0
  0
BLOCK
  8
0
  2
*U114
 70
     1
 10
0.0
 20
0.0
 30
0.0
  3
*U114
  1

  0
TEXT
  5
206BC
  8
1DIM
 62
   201
 10
4236.2996991299997
 20
523.60831323821606
 30
0.0
 40
10.5
  1
135
  0
ENDBLK
  5
206BE
  8
0
  0
BLOCK
  8
0
  2
*U115
 70
     1
 10
0.0
 20
0.0
 30
0.0
  3
*U115
  1

  0
TEXT
  5
206C0
  8
1DIM
 62
   201
 10
3949.0371775411841
 20
79.229810310328546
 30
0.0
 40
10.5
  1
124
 50
90.0
  0
ENDBLK
  5
206C2
  8
0
  0
BLOCK
  8
0
  2
*U116
 70
     1
 10
0.0
 20
0.0
 30
0.0
  3
*U116
  1

  0
TEXT
  5
206C4
  8
1HATCH
 62
   201
 10
4206.2421515360229
 20
-313.98921101708532
 30
0.0
 40
10.5
  1
有効内寸120.5
  0
ENDBLK
  5
206C6
  8
0
  0
BLOCK
  8
0
  2
*U117
 70
     1
 10
0.0
 20
0.0
 30
0.0
  3
*U117
  1

  0
TEXT
  5
206C8
  8
1DIM
 62
   201
 10
3701.9247604199368
 20
-313.98921101708532
 30
0.0
 40
10.5
  1
有効内寸246
  0
ENDBLK
  5
206CA
  8
0
  0
BLOCK
  8
0
  2
*U118
 70
     1
 10
0.0
 20
0.0
 30
0.0
  3
*U118
  1

  0
TEXT
  5
206CC
  8
1DIM
 62
   201
 10
3948.8857214528639
 20
276.4757572579806
 30
0.0
 40
10.5
  1
262
 50
90.0
  0
ENDBLK
  5
206CE
  8
0
  0
BLOCK
  8
0
  2
*U119
 70
     1
 10
0.0
 20
0.0
 30
0.0
  3
*U119
  1

  0
TEXT
  5
206D0
  8
1DIM
 62
   201
 10
3949.0371775411841
 20
-121.516136637323
 30
0.0
 40
10.5
  1
262
 50
90.0
  0
ENDBLK
  5
206D2
  8
0
  0
BLOCK
  8
0
  2
*U120
 70
     1
 10
0.0
 20
0.0
 30
0.0
  3
*U120
  1

  0
TEXT
  5
206D4
  8
1DIM
 62
   201
 10
3922.4295276727262
 20
-183.7715840907226
 30
0.0
 40
10.5
  1
138
 50
90.0
  0
ENDBLK
  5
206D6
  8
0
  0
BLOCK
  8
0
  2
*U121
 70
     1
 10
0.0
 20
0.0
 30
0.0
  3
*U121
  1

  0
TEXT
  5
206D8
  8
1DIM
 62
   201
 10
3920.253259523563
 20
209.10341590927649
 30
0.0
 40
10.5
  1
130
 50
90.0
  0
ENDBLK
  5
206DA
  8
0
  0
BLOCK
  8
0
  2
*U122
 70
     1
 10
0.0
 20
0.0
 30
0.0
  3
*U122
  1

  0
TEXT
  5
206DC
  8
1DIM
 62
   201
 10
3155.6000977150729
 20
227.76875341885221
 30
0.0
 40
10.5
  1
248
  0
ENDBLK
  5
206DE
  8
0
  0
BLOCK
  8
0
  2
*U123
 70
     1
 10
0.0
 20
0.0
 30
0.0
  3
*U123
  1

  0
TEXT
  5
206E0
  8
1DIM
 62
   201
 10
3313.9885254929682
 20
117.0798505781958
 30
0.0
 40
10.5
  1
115
 50
90.0
  0
ENDBLK
  5
206E2
  8
0
  0
BLOCK
  8
0
  2
*U124
 70
     1
 10
0.0
 20
0.0
 30
0.0
  3
*U124
  1

  0
TEXT
  5
206E4
  8
1DIM
 62
   201
 10
3355.4045582228041
 20
227.2984824325259
 30
0.0
 40
10.5
  1
t5
  0
ENDBLK
  5
206E6
  8
0
  0
BLOCK
  8
0
  2
*U125
 70
     1
 10
0.0
 20
0.0
 30
0.0
  3
*U125
  1

  0
TEXT
  5
206E8
  8
1DIM
 62
   201
 10
3711.0136213615679
 20
770.00195037467063
 30
0.0
 40
10.5
  1
開口巾　280 
  0
TEXT
  5
206E9
  8
1DIM
 62
   201
 10
3797.4636213615681
 20
776.47572537467056
 30
0.0
 40
7.3426499999999999
  1
+3
  0
TEXT
  5
206EA
  8
1DIM
 62
   201
 10
3797.4636213615681
 20
766.68552537467065
 30
0.0
 40
7.3426499999999999
  1
  0
  0
ENDBLK
  5
206EC
  8
0
  0
BLOCK
  8
0
  2
*U126
 70
     1
 10
0.0
 20
0.0
 30
0.0
  3
*U126
  1

  0
TEXT
  5
206EE
  8
1DIM
 62
   201
 10
3980.2071062956652
 20
871.56606223935626
 30
0.0
 40
10.5
  1
96
 50
90.0
  0
ENDBLK
  5
206F0
  8
0
  0
BLOCK
  8
0
  2
*U127
 70
     1
 10
0.0
 20
0.0
 30
0.0
  3
*U127
  1

  0
TEXT
  5
206F2
  8
1DIM
 62
   201
 10
3905.1997833095388
 20
766.68552537467065
 30
0.0
 40
10.5
  1
縦桟　20 以上
  0
ENDBLK
  5
206F4
  8
0
  0
BLOCK
  8
0
  2
*U128
 70
     1
 10
0.0
 20
0.0
 30
0.0
  3
*U128
  1

  0
TEXT
  5
206F6
  8
1DIM
 62
   201
 10
3522.101526483264
 20
805.06606955622408
 30
0.0
 40
10.5
  1
37
 50
90.0
  0
ENDBLK
  5
206F8
  8
0
  0
BLOCK
  8
0
  2
*U129
 70
     1
 10
0.0
 20
0.0
 30
0.0
  3
*U129
  1

  0
TEXT
  5
206FA
  8
1DIM
 62
   201
 10
3954.268171452959
 20
843.3410622380062
 30
0.0
 40
10.5
  1
70 以上
 50
90.0
  0
ENDBLK
  5
206FC
  8
0
  0
BLOCK
  8
0
  2
*U130
 70
     1
 10
0.0
 20
0.0
 30
0.0
  3
*U130
  1

  0
TEXT
  5
206FE
  8
1DIM
 62
   201
 10
4006.1881596856128
 20
833.91606223866916
 30
0.0
 40
10.5
  1
推奨掘り込み深さ
 50
90.0
  0
TEXT
  5
206FF
  8
1DIM
 62
   201
 10
4023.6881596856119
 20
849.41606223866916
 30
0.0
 40
10.5
  1
　100 以上
 50
90.0
  0
ENDBLK
  5
20701
  8
0
  0
BLOCK
  8
0
  2
*U131
 70
     1
 10
0.0
 20
0.0
 30
0.0
  3
*U131
  1

  0
TEXT
  5
20703
  8
1DIM
 62
   201
 10
3673.2418428183018
 20
952.45375611608495
 30
0.0
 40
10.5
  1
製品埋め込み巾 275
  0
ENDBLK
  5
20705
  8
0
  0
BLOCK
  8
0
  2
*U132
 70
     1
 10
0.0
 20
0.0
 30
0.0
  3
*U132
  1

  0
TEXT
  5
20707
  8
1DIM
 62
   201
 10
3649.2957284632612
 20
580.25615430911148
 30
0.0
 40
10.5
  1
約105\U+00B0
 50
17.499997490742381
  0
ENDBLK
  5
20709
  8
0
  0
BLOCK
  8
0
  2
*U133
 70
     1
 10
0.0
 20
0.0
 30
0.0
  3
*U133
  1

  0
TEXT
  5
2070B
  8
1DIM
 62
   201
 10
3811.1858699967802
 20
725.43770429719507
 30
0.0
 40
10.5
  1
約20\U+00B0
 50
76.222315295295232
  0
ENDBLK
  5
2070D
  8
0
  0
BLOCK
  8
0
  2
*U134
 70
     1
 10
0.0
 20
0.0
 30
0.0
  3
*U134
  1

  0
TEXT
  5
2070F
  8
1DIM
 62
   201
 10
4347.2165720234771
 20
188.1048255219832
 30
0.0
 40
10.5
  1
P230
 50
90.0
  0
ENDBLK
  5
20711
  8
0
  0
BLOCK
  8
0
  2
*U135
 70
     1
 10
0.0
 20
0.0
 30
0.0
  3
*U135
  1

  0
TEXT
  5
20713
  8
1DIM
 62
   201
 10
4347.2165720234771
 20
-41.895174476430149
 30
0.0
 40
10.5
  1
P230
 50
90.0
  0
ENDBLK
  5
20715
  8
0
  0
BLOCK
  8
0
  2
*U136
 70
     1
 10
0.0
 20
0.0
 30
0.0
  3
*U136
  1

  0
TEXT
  5
20717
  8
1DIM
 62
   201
 10
4231.2996991851796
 20
280.5250993213586
 30
0.0
 40
10.5
  1
43
  0
ENDBLK
  5
20719
  8
0
  0
BLOCK
  8
0
  2
*U137
 70
     1
 10
0.0
 20
0.0
 30
0.0
  3
*U137
  1

  0
TEXT
  5
2071B
  8
1DIM
 62
   201
 10
3414.080595139767
 20
612.08750687981751
 30
0.0
 40
10.5
  1
扉最大出巾　337
 50
90.0
  0
ENDBLK
  5
2071D
  8
0
  0
ENDSEC
  0
SECTION
  2
ENTITIES
  0
LINE
  5
1FF1A
  8
1HATCH
 10
1099.969366060687
 20
372.45924102942308
 30
0.0
 11
1099.969366060687
 21
422.45924102942303
 31
0.0
  0
LINE
  5
1FF1B
  8
1HATCH
 10
1099.96938157823
 20
-307.54075897057669
 30
0.0
 11
1099.96938157823
 21
-357.54075897057669
 31
0.0
  0
LINE
  5
1FF1C
  8
1HATCH
 10
1099.969366060687
 20
372.45924102942308
 30
0.0
 11
1169.9693660606861
 21
372.45924102942308
 31
0.0
  0
LINE
  5
1FF1D
  8
1HATCH
 10
1099.96938157823
 20
-307.54075897057669
 30
0.0
 11
1169.9693815782309
 21
-307.54075897057669
 31
0.0
  0
LINE
  5
1FF1E
  8
1HATCH
 10
1199.9693815788939
 20
450.05993061540488
 30
0.0
 11
1199.9693815785699
 21
-371.14144855923109
 31
0.0
  0
LINE
  5
1FF1F
  8
1HATCH
 10
1109.469366060687
 20
392.45924102942308
 30
0.0
 11
1169.9693660606861
 21
392.45924102942308
 31
0.0
  0
LINE
  5
1FF20
  8
1HATCH
 10
1109.4693815782309
 20
-327.54075897057669
 30
0.0
 11
1169.9693815782309
 21
-327.54075897057669
 31
0.0
  0
LINE
  5
1FF21
  8
1HATCH
 10
1169.9693815782309
 20
-307.54075897057669
 30
0.0
 11
1169.9693815782309
 21
-327.54075897057669
 31
0.0
  0
LINE
  5
1FF22
  8
1HATCH
 10
1169.9693660606861
 20
372.45924102942308
 30
0.0
 11
1169.9693660606861
 21
392.45924102942308
 31
0.0
  0
LINE
  5
1FF23
  8
1HATCH
 10
1109.4693815782309
 20
-307.54075897057669
 30
0.0
 11
1109.4693815782309
 21
-357.54075897057669
 31
0.0
  0
LINE
  5
1FF24
  8
1HATCH
 10
1109.469366060687
 20
372.45924102942308
 30
0.0
 11
1109.469366060687
 21
422.45924102942303
 31
0.0
  0
LINE
  5
1FF25
  8
1HATCH
 10
1099.969366060687
 20
422.45924102942303
 30
0.0
 11
1109.469366060687
 21
422.45924102942303
 31
0.0
  0
LINE
  5
1FF26
  8
1HATCH
 10
1099.96938157823
 20
-357.54075897057669
 30
0.0
 11
1109.4693815782309
 21
-357.54075897057669
 31
0.0
  0
TEXT
  5
1FF35
  8
1TEXT
 10
-134.4902419790173
 20
838.77058425126177
 30
0.0
 40
50.0
  1
DE-04-XX
  0
TEXT
  5
1FF36
  8
1TEXT
 10
93.509758020983085
 20
791.27058425126177
 30
0.0
 40
20.0
  1
コード
 72
     1
 11
127.5097580209831
 21
791.27058425126177
 31
0.0
  0
TEXT
  5
1FF37
  8
1TEXT
 10
-80.823575312350229
 20
791.27058425126177
 30
0.0
 40
20.0
  1
仕上げ
 72
     1
 11
-47.490241979016901
 21
791.27058425126177
 31
0.0
  0
LINE
  5
1FF38
  8
1HATCH
 10
215.50975802098259
 20
818.77058425126188
 30
0.0
 11
215.50975802098259
 21
713.77058425126188
 31
0.0
  0
LINE
  5
1FF39
  8
1HATCH
 10
40.509758020982638
 20
818.77058425126188
 30
0.0
 11
40.509758020982638
 21
713.77058425126188
 31
0.0
  0
LINE
  5
1FF3A
  8
1HATCH
 10
-134.4902419790173
 20
818.77058425126188
 30
0.0
 11
-134.4902419790173
 21
713.77058425126188
 31
0.0
  0
TEXT
  5
1FF3B
  8
1TEXT
 10
52.509758020983092
 20
721.2705842512654
 30
0.0
 40
20.0
  1
DE-04-SG
 72
     1
 11
127.5097580209831
 21
721.2705842512654
 31
0.0
  0
TEXT
  5
1FF3C
  8
1TEXT
 10
52.509758020983092
 20
756.27058425126188
 30
0.0
 40
20.0
  1
DE-04-SS
 72
     1
 11
127.5097580209831
 21
756.27058425126188
 31
0.0
  0
LINE
  5
1FF3D
  8
1HATCH
 10
-134.4902419790173
 20
783.77058425126188
 30
0.0
 11
215.50975802098259
 21
783.77058425126188
 31
0.0
  0
LINE
  5
1FF3E
  8
1HATCH
 10
-134.4902419790173
 20
748.77058425126177
 30
0.0
 11
215.50975802098259
 21
748.77058425126177
 31
0.0
  0
LINE
  5
1FF3F
  8
1HATCH
 10
-134.4902419790173
 20
713.77058425126188
 30
0.0
 11
215.50975802098259
 21
713.77058425126188
 31
0.0
  0
TEXT
  5
1FF40
  8
1TEXT
 10
-80.823575312350229
 20
756.27058425126188
 30
0.0
 40
20.0
  1
乳白色
 72
     1
 11
-47.490241979016901
 21
756.27058425126188
 31
0.0
  0
TEXT
  5
1FF41
  8
1TEXT
 10
-56.823575312350229
 20
721.27058425126188
 30
0.0
 40
20.0
  1
鏡
 72
     1
 11
-47.490241979016901
 21
721.27058425126188
 31
0.0
  0
LINE
  5
1FF42
  8
1HATCH
 10
-134.4902419790173
 20
818.77058425126188
 30
0.0
 11
215.50975802098259
 21
818.77058425126188
 31
0.0
  0
LINE
  5
1FF43
  8
1PHANTOM
 10
1191.504286391129
 20
-259.6908035554672
 30
0.0
 11
1191.504286391129
 21
-299.5677273686465
 31
0.0
  0
LINE
  5
1FF4D
  8
01
 10
224.7242406691507
 20
119.7511261643337
 30
0.0
 11
224.7242406691507
 21
6.7511261643337539
 31
0.0
  0
LINE
  5
1FF4E
  8
01
 10
219.7242406691507
 20
119.7511261643337
 30
0.0
 11
219.7242406691507
 21
6.7511261643337539
 31
0.0
  0
LINE
  5
1FF4F
  8
01
 10
220.7242406691507
 20
120.7511261643337
 30
0.0
 11
223.7242406691507
 21
120.7511261643337
 31
0.0
  0
LINE
  5
1FF50
  8
01
 10
220.7242406691507
 20
5.7511261643337539
 30
0.0
 11
223.7242406691507
 21
5.7511261643337539
 31
0.0
  0
LINE
  5
1FF51
  8
01
 10
220.7242406691507
 20
120.7511261643337
 30
0.0
 11
219.7242406691507
 21
119.7511261643337
 31
0.0
  0
LINE
  5
1FF52
  8
01
 10
224.7242406691507
 20
119.7511261643337
 30
0.0
 11
223.7242406691507
 21
120.7511261643337
 31
0.0
  0
LINE
  5
1FF53
  8
01
 10
220.7242406691507
 20
5.7511261643337539
 30
0.0
 11
219.7242406691507
 21
6.7511261643337539
 31
0.0
  0
LINE
  5
1FF54
  8
01
 10
224.7242406691507
 20
6.7511261643337539
 30
0.0
 11
223.7242406691507
 21
5.7511261643337539
 31
0.0
  0
TEXT
  5
1FF58
  8
1TEXT
 10
0.9405095240049377
 20
-29.570395145491371
 30
0.0
 40
10.5
  1
ガラス棚2枚付属
  0
LINE
  5
1FF59
  8
1HATCH
 10
476.04446575588548
 20
843.29547774845514
 30
0.0
 11
476.04446575588548
 21
773.29547774845514
 31
0.0
  0
LINE
  5
1FF5A
  8
1HATCH
 10
756.04446575588554
 20
843.29547774713092
 30
0.0
 11
756.04446575588645
 21
773.29547774713137
 31
0.0
  0
LINE
  5
1FF5B
  8
1HATCH
 10
476.04446575588548
 20
773.29547774845514
 30
0.0
 11
426.04446575588599
 21
773.29547774845514
 31
0.0
  0
LINE
  5
1FF5C
  8
1HATCH
 10
756.04446575588645
 20
773.29547774713137
 30
0.0
 11
806.04446575588554
 21
773.2954777471308
 31
0.0
  0
LINE
  5
1FF5D
  8
1HATCH
 10
426.33972116195167
 20
873.29547774845503
 30
0.0
 11
805.74921034981935
 21
873.29547774845503
 31
0.0
  0
LINE
  5
1FF5E
  8
1HATCH
 10
756.04446575588554
 20
843.29547774713092
 30
0.0
 11
776.04446575588554
 21
843.29547774713092
 31
0.0
  0
LINE
  5
1FF5F
  8
1HATCH
 10
476.04446575588548
 20
843.29547774845514
 30
0.0
 11
456.04446575588548
 21
843.29547774845514
 31
0.0
  0
LINE
  5
1FF60
  8
1HATCH
 10
456.04446575588548
 20
843.29547774845514
 30
0.0
 11
456.04446575588548
 21
782.79547774845514
 31
0.0
  0
LINE
  5
1FF61
  8
1HATCH
 10
776.04446575588554
 20
843.29547774713092
 30
0.0
 11
776.04446575588554
 21
782.79547774713092
 31
0.0
  0
LINE
  5
1FF62
  8
1HATCH
 10
756.04446575588599
 20
782.79547774713092
 30
0.0
 11
806.04446575588554
 21
782.79547774713092
 31
0.0
  0
LINE
  5
1FF63
  8
1HATCH
 10
476.04446575588548
 20
782.79547774845514
 30
0.0
 11
426.04446575588599
 21
782.79547774845514
 31
0.0
  0
LINE
  5
1FF64
  8
1HATCH
 10
426.04446575588599
 20
782.79547774845514
 30
0.0
 11
426.04446575588599
 21
773.29547774845514
 31
0.0
  0
LINE
  5
1FF65
  8
1HATCH
 10
806.04446575588554
 20
782.79547774713092
 30
0.0
 11
806.04446575588554
 21
773.2954777471308
 31
0.0
  0
TEXT
  5
1FF70
  8
1TEXT
 10
328.85661900000702
 20
780.90773724403425
 30
0.0
 40
10.5
  1
6本（付属）
  0
LINE
  5
1FF77
  8
01
 10
1068.969383840968
 20
388.15922821427688
 30
0.0
 11
1068.969383840966
 21
-323.240746150728
 31
0.0
  0
LINE
  5
1FF78
  8
01
 10
1062.969383840968
 20
388.15922851430292
 30
0.0
 11
1062.969383840966
 21
-323.24074645075387
 31
0.0
  0
LINE
  5
1FF79
  8
01
 10
491.5444117592283
 20
388.4592409077182
 30
0.0
 11
720.54444286631758
 21
388.4592409077182
 31
0.0
  0
LINE
  5
1FF7A
  8
01
 10
744.54444286631997
 20
388.4592409077182
 30
0.0
 11
753.54447309911075
 21
388.4592409077182
 31
0.0
  0
ARC
  5
1FF7B
  8
01
 10
491.54441263345637
 20
368.45924090771808
 30
0.0
 40
20.0
 50
90.000002505146128
 51
180.00000250491161
  0
LINE
  5
1FF7C
  8
01
 10
471.54444200750862
 20
-303.5407599665084
 30
0.0
 11
471.54441263345637
 21
368.45924003349
 31
0.0
  0
ARC
  5
1FF7D
  8
01
 10
491.54444200750862
 20
-303.54075909228072
 30
0.0
 40
20.0
 50
180.00000250491161
 51
270.00000250467713
  0
LINE
  5
1FF7E
  8
01
 10
753.52302102947942
 20
-323.54074761898028
 30
0.0
 11
491.54444288173681
 21
-323.54075909228072
 31
0.0
  0
ARC
  5
1FF7F
  8
01
 10
1064.46938318311
 20
-319.64074213640453
 30
0.0
 40
3.900003729455281
 50
247.38015513327349
 51
292.61984486678449
  0
ARC
  5
1FF80
  8
01
 10
1067.469383653596
 20
-319.64074151058122
 30
0.0
 40
3.9000043552784209
 50
247.38015697205341
 51
292.6198280519468
  0
ARC
  5
1FF81
  8
01
 10
1064.46938318311
 20
384.55922419995301
 30
0.0
 40
3.9000037294559191
 50
67.380155133273561
 51
112.6198448667264
  0
ARC
  5
1FF82
  8
01
 10
1067.469383653596
 20
384.55922357412959
 30
0.0
 40
3.900004355279441
 50
67.380171948053146
 51
112.6198430279466
  0
LINE
  5
1FF83
  8
01
 10
479.07214902728668
 20
821.29547947036872
 30
0.0
 11
478.65325937337769
 21
773.29547945798504
 31
0.0
  0
LINE
  5
1FF84
  8
01
 10
751.97259604383953
 20
841.88274369388398
 30
0.0
 11
751.88684388363481
 21
846.79548188022227
 31
0.0
  0
LINE
  5
1FF85
  8
01
 10
753.54446575588588
 20
773.2954762635103
 30
0.0
 11
491.54446575588588
 21
773.2954762635103
 31
0.0
  0
LINE
  5
1FF86
  8
01
 10
491.54446577208222
 20
773.29547740000589
 30
0.0
 11
465.54446577208222
 21
773.29547740000589
 31
0.0
  0
LINE
  5
1FF87
  8
01
 10
779.54446573969335
 20
773.29547740000589
 30
0.0
 11
753.54446575588588
 21
773.29547626353042
 31
0.0
  0
LINE
  5
1FF88
  8
01
 10
750.07105337492476
 20
864.87401357750196
 30
0.0
 11
751.66956266384523
 21
773.29547767866234
 31
0.0
  0
LINE
  5
1FF89
  8
01
 10
493.41936884792671
 20
773.29547767866234
 30
0.0
 11
495.01787813684717
 21
864.87401357750196
 31
0.0
  0
ARC
  5
1FF8A
  8
01
 10
745.57174106272805
 20
864.79548017610023
 30
0.0
 40
4.49999764198005
 50
0.9999696106146286
 51
90.00002948812444
  0
LINE
  5
1FF8B
  8
01
 10
745.57173874672162
 20
869.29547781808049
 30
0.0
 11
743.98006311725328
 21
869.29547774850607
 31
0.0
  0
ARC
  5
1FF8C
  8
01
 10
499.51719044904388
 20
864.79548017610023
 30
0.0
 40
4.4999976419801051
 50
89.999970511875546
 51
179.0000303893853
  0
LINE
  5
1FF8D
  8
01
 10
501.10886839451848
 20
869.29547774850607
 30
0.0
 11
743.98006311725328
 21
869.29547774850607
 31
0.0
  0
LINE
  5
1FF8E
  8
01
 10
499.51719276505031
 20
869.29547781808049
 30
0.0
 11
501.10886839451848
 21
869.29547774850607
 31
0.0
  0
LINE
  5
1FF8F
  8
01
 10
481.072225271479
 20
821.29547947036872
 30
0.0
 11
479.07214902728668
 21
821.29547947036872
 31
0.0
  0
LINE
  5
1FF90
  8
01
 10
753.54446575588236
 20
744.29547651837265
 30
0.0
 11
773.71427472991354
 21
744.29547739999134
 31
0.0
  0
LINE
  5
1FF91
  8
01
 10
491.5444657558823
 20
744.29547651880546
 30
0.0
 11
471.37465678176022
 21
744.29547740048793
 31
0.0
  0
ARC
  5
1FF92
  8
01
 10
-208.30896817651731
 20
928.6840004638193
 30
0.0
 40
1000.0
 50
349.42210618734367
 51
351.06066999544572
  0
ARC
  5
1FF93
  8
01
 10
773.71427472991718
 20
745.29547739999134
 30
0.0
 40
1.0000000000000779
 50
270.0
 51
349.42210618734367
  0
ARC
  5
1FF94
  8
01
 10
1453.3978996880271
 20
928.68400046377212
 30
0.0
 40
999.99999999973443
 50
188.93933000455431
 51
190.5778938126563
  0
ARC
  5
1FF95
  8
01
 10
471.3746567817638
 20
745.29547740048793
 30
0.0
 40
1.0000000000000699
 50
190.5778938126563
 51
269.99999999958311
  0
LINE
  5
1FF96
  8
01
 10
722.04371084387685
 20
744.29547684905947
 30
0.0
 11
719.54881012356645
 21
744.29547673657487
 31
0.0
  0
LINE
  5
1FF97
  8
01
 10
743.04522091497211
 20
744.29547684902491
 30
0.0
 11
722.04371059679988
 21
744.29547684905947
 31
0.0
  0
LINE
  5
1FF98
  8
01
 10
743.04522066789514
 20
744.29547684902491
 30
0.0
 11
745.54012138820553
 21
744.29547673653133
 31
0.0
  0
LINE
  5
1FF9A
  8
01
 10
745.03657799751318
 20
745.19932717801146
 30
0.0
 11
744.90572836372894
 21
760.19320996592569
 31
0.0
  0
LINE
  5
1FF9C
  8
01
 10
742.88352004331909
 20
764.18071084248686
 30
0.0
 11
722.20541146845289
 21
764.18071084248686
 31
0.0
  0
LINE
  5
1FF9E
  8
01
 10
720.05235351425881
 20
745.19932717801146
 30
0.0
 11
720.18320314804305
 21
760.19320996592751
 31
0.0
  0
LINE
  5
1FFA0
  8
01
 10
719.54881012356645
 20
744.29547651842904
 30
0.0
 11
491.5444657558823
 21
744.29547651880546
 31
0.0
  0
ARC
  5
1FFA1
  8
01
 10
719.54881012356645
 20
744.79547651842904
 30
0.0
 40
0.5000000000000028
 50
270.0
 51
359.5000000000345
  0
LINE
  5
1FFA2
  8
01
 10
753.54446575588236
 20
744.29547651837265
 30
0.0
 11
745.54012138820553
 21
744.2954765183872
 31
0.0
  0
ARC
  5
1FFA3
  8
01
 10
745.54012138820553
 20
744.7954765183872
 30
0.0
 40
0.5000000000000029
 50
180.4999999999655
 51
269.99999999958311
  0
LINE
  5
1FFA4
  8
01
 10
753.16979115591903
 20
773.29548160578577
 30
0.0
 11
751.97259604383953
 21
841.88274369388398
 31
0.0
  0
LINE
  5
1FFA5
  8
01
 10
750.38661539156465
 20
846.79548188022227
 30
0.0
 11
751.88684388363481
 21
846.79548188022227
 31
0.0
  0
ARC
  5
1FFA6
  8
01
 10
485.79929518682411
 20
847.29547945079094
 30
0.0
 40
4.4999999999999956
 50
90.000000000208431
 51
179.50000000003439
  0
LINE
  5
1FFA7
  8
01
 10
481.29946653303563
 20
847.33474886053364
 30
0.0
 11
480.65333561757359
 21
773.2954794227785
 31
0.0
  0
LINE
  5
1FFA8
  8
01
 10
494.7895914447858
 20
851.79547944736203
 30
0.0
 11
485.79929518682411
 21
851.79547945079094
 31
0.0
  0
LINE
  5
1FFA9
  8
01
 10
753.54444286628348
 20
394.459225819452
 30
0.0
 11
491.54444286628348
 21
394.459225819452
 31
0.0
  0
ARC
  5
1FFAA
  8
01
 10
491.54444288247981
 20
368.45922581945302
 30
0.0
 40
26.0
 50
90.0
 51
179.9999999997915
  0
ARC
  5
1FFAB
  8
01
 10
491.5444568320658
 20
368.4592116778108
 30
0.0
 40
21.000014499979208
 50
90.000038103817786
 51
179.99996145830011
  0
ARC
  5
1FFAC
  8
01
 10
753.54442682097795
 20
368.45920979034372
 30
0.0
 40
26.00001602911707
 50
0.0000352890327906
 51
89.999964640931083
  0
ARC
  5
1FFAD
  8
01
 10
753.54442890050132
 20
368.4592116778108
 30
0.0
 40
21.000014499979208
 50
0.0000385416998576
 51
89.999961896182214
  0
LINE
  5
1FFAE
  8
1PHANTOM
 10
499.5517753492154
 20
362.4518933527138
 30
0.0
 11
745.53711038335177
 21
362.4518933527138
 31
0.0
  0
LINE
  5
1FFAF
  8
01
 10
745.04444286628348
 20
388.4592409077182
 30
0.0
 11
745.04444286628348
 21
389.45922618624041
 31
0.0
  0
LINE
  5
1FFB0
  8
01
 10
720.04444286628313
 20
388.4592409077182
 30
0.0
 11
720.04444286628348
 21
389.45922618624041
 31
0.0
  0
LINE
  5
1FFB1
  8
1PHANTOM
 10
499.5517753492154
 20
100.4584521814961
 30
0.0
 11
745.53711038335177
 21
100.4584521814956
 31
0.0
  0
LINE
  5
1FFB2
  8
1PHANTOM
 10
499.5517753492154
 20
94.459999457413005
 30
0.0
 11
745.53711038335177
 21
94.459999457413005
 31
0.0
  0
ARC
  5
1FFB3
  8
01
 10
136.19426928238539
 20
361.23462064086237
 30
0.0
 40
609.50402970885784
 50
2.654173264110721
 51
2.808536816728739
  0
ARC
  5
1FFB4
  8
01
 10
742.96859422352145
 20
391.00145965224459
 30
0.0
 40
2.0
 50
2.808536816728739
 51
90.0
  0
LINE
  5
1FFB5
  8
01
 10
742.96859422352145
 20
393.00145965224459
 30
0.0
 11
722.12029150903106
 21
393.00145965224459
 31
0.0
  0
ARC
  5
1FFB6
  8
01
 10
1328.8946164535
 20
361.23462064070151
 30
0.0
 40
609.50402971218045
 50
177.1914631832712
 51
177.34582673588929
  0
ARC
  5
1FFB7
  8
01
 10
722.12029150903106
 20
391.00145965224459
 30
0.0
 40
2.0
 50
90.0
 51
177.1914631832712
  0
LINE
  5
1FFB8
  8
01
 10
753.54444286628348
 20
389.45922617778569
 30
0.0
 11
745.04444286628348
 21
389.45922617778569
 31
0.0
  0
LINE
  5
1FFB9
  8
01
 10
720.04444286628348
 20
389.45922617778569
 30
0.0
 11
491.54444286628348
 21
389.45922617778569
 31
0.0
  0
LINE
  5
1FFBA
  8
01
 10
753.54444286628348
 20
-329.54077418054641
 30
0.0
 11
491.54444286628348
 21
-329.54077418054641
 31
0.0
  0
LINE
  5
1FFBB
  8
01
 10
753.54444286628348
 20
-324.54077453887999
 30
0.0
 11
745.04444286628348
 21
-324.54077453887999
 31
0.0
  0
LINE
  5
1FFBC
  8
01
 10
720.04444286628348
 20
-324.54077453887999
 30
0.0
 11
491.54444286628348
 21
-324.54077453887999
 31
0.0
  0
ARC
  5
1FFBD
  8
01
 10
491.54444288247981
 20
-303.54077418054732
 30
0.0
 40
26.0
 50
180.00000000020839
 51
270.0
  0
ARC
  5
1FFBE
  8
01
 10
491.5444568320658
 20
-303.54076003890509
 30
0.0
 40
21.000014499979208
 50
180.00003854169981
 51
269.99996189618219
  0
ARC
  5
1FFBF
  8
01
 10
753.54442682097795
 20
-303.54075815143801
 30
0.0
 40
26.00001602911707
 50
270.00003535886049
 51
359.99996471096722
  0
ARC
  5
1FFC0
  8
01
 10
753.54442890050132
 20
-303.54076003890509
 30
0.0
 40
21.000014499979208
 50
270.00003810381781
 51
359.99996145830022
  0
LINE
  5
1FFC1
  8
1PHANTOM
 10
499.5517753492158
 20
-29.541547818507748
 30
0.0
 11
745.53711038335177
 21
-29.541547818507748
 31
0.0
  0
LINE
  5
1FFC2
  8
1PHANTOM
 10
499.5517753492154
 20
-35.54000054259086
 30
0.0
 11
745.53711038335177
 21
-35.540000542590633
 31
0.0
  0
LINE
  5
1FFC3
  8
1PHANTOM
 10
499.5517753492154
 20
-297.53344171380809
 30
0.0
 11
745.53711038335177
 21
-297.53344171380809
 31
0.0
  0
LINE
  5
1FFC4
  8
01
 10
465.54444288247981
 20
368.45922580400338
 30
0.0
 11
465.54444288247981
 21
-303.54077416509767
 31
0.0
  0
LINE
  5
1FFC5
  8
01
 10
779.54444285008719
 20
368.45922580400338
 30
0.0
 11
779.54444285008719
 21
-303.54077416509767
 31
0.0
  0
LINE
  5
1FFC6
  8
01
 10
470.54444288173772
 20
368.45922580400338
 30
0.0
 11
470.54444288173772
 21
-303.54077416509767
 31
0.0
  0
LINE
  5
1FFC7
  8
01
 10
774.54444285082945
 20
368.45922580400338
 30
0.0
 11
774.54444285082945
 21
-303.54077416509767
 31
0.0
  0
ARC
  5
1FFC8
  8
01
 10
1168.469381652297
 20
258.87272734464449
 30
0.0
 40
5.0000000018255362
 50
270.99999997777331
 51
359.9999999786869
  0
ARC
  5
1FFC9
  8
01
 10
1168.469381652297
 20
266.04575470964102
 30
0.0
 40
5.0000000018276856
 50
0.0000000215736261
 51
89.000000022435074
  0
LINE
  5
1FFCA
  8
01
 10
1173.469381654123
 20
258.87272734278548
 30
0.0
 11
1173.469381654123
 21
266.0457547115027
 31
0.0
  0
ARC
  5
1FFCB
  8
01
 10
1168.469381652297
 20
28.872727346232519
 30
0.0
 40
5.000000001826673
 50
270.99999997777331
 51
359.9999999786869
  0
ARC
  5
1FFCC
  8
01
 10
1168.469381652297
 20
36.045754711228028
 30
0.0
 40
5.0000000018267139
 50
0.0000000215215159
 51
89.000000022435074
  0
LINE
  5
1FFCD
  8
01
 10
1173.469381654123
 20
28.8727273443717
 30
0.0
 11
1173.469381654123
 21
36.045754713088861
 31
0.0
  0
ARC
  5
1FFCE
  8
01
 10
1255.3579117333261
 20
-593.39419177200875
 30
0.0
 40
1000.0
 50
98.939330415787367
 51
100.57789405080899
  0
ARC
  5
1FFCF
  8
01
 10
1071.9693845886211
 20
388.6290503723389
 30
0.0
 40
1.0
 50
100.57789405080899
 51
179.999997163003
  0
LINE
  5
1FFD0
  8
1DIM
 10
1099.9693804415699
 20
368.45924101327682
 30
0.0
 11
1070.969380660129
 21
368.45924101327682
 31
0.0
  0
LINE
  5
1FFD1
  8
01
 10
1099.969380441589
 20
368.45924101327682
 30
0.0
 11
1099.9693815781079
 21
394.45924102872908
 31
0.0
  0
LINE
  5
1FFD2
  8
01
 10
1070.9693845886211
 20
388.62905042185361
 30
0.0
 11
1070.9693835899141
 21
368.45924101327682
 31
0.0
  0
LINE
  5
1FFD3
  8
01
 10
1195.9693817332859
 20
102.46727041553891
 30
0.0
 11
1195.9693817332859
 21
360.48651403912982
 31
0.0
  0
ARC
  5
1FFD4
  8
01
 10
1191.4693817332859
 20
360.48651403912982
 30
0.0
 40
4.5
 50
0.0
 51
89.000000000753957
  0
LINE
  5
1FFD5
  8
01
 10
1191.5479175621931
 20
364.98582866733477
 30
0.0
 11
1099.9693818567221
 21
366.58433795288101
 31
0.0
  0
LINE
  5
1FFD6
  8
1DIM
 10
1195.9693817332859
 20
360.40865171977612
 30
0.0
 11
1099.96938166002
 21
362.08433795288101
 31
0.0
  0
ARC
  5
1FFD7
  8
01
 10
1194.1952204825291
 20
97.459241028726623
 30
0.0
 40
1.2000000472257379
 50
120.00000003417649
 51
240.00000011047749
  0
LINE
  5
1FFD8
  8
01
 10
1193.719381736458
 20
98.570156101329985
 30
0.0
 11
1193.5952204582979
 21
98.498471553810987
 31
0.0
  0
LINE
  5
1FFD9
  8
01
 10
1193.719381726635
 20
96.348325962209628
 30
0.0
 11
1193.595220460918
 21
96.420010502129799
 31
0.0
  0
ARC
  5
1FFDA
  8
01
 10
1191.469381733915
 20
102.4672704161673
 30
0.0
 40
4.4999999993716839
 50
300.00000004212018
 51
359.99999999197502
  0
ARC
  5
1FFDB
  8
01
 10
1191.469381733915
 20
92.451211641702457
 30
0.0
 40
4.4999999993716084
 50
0.000000008024972
 51
60.000000102305982
  0
LINE
  5
1FFDC
  8
01
 10
1168.5566436825591
 20
253.87348886700309
 30
0.0
 11
1099.9693815944461
 21
252.6762937549199
 31
0.0
  0
LINE
  5
1FFDD
  8
01
 10
1099.9693815944461
 20
272.24218829936649
 30
0.0
 11
1168.5566436825591
 21
271.04499318728421
 31
0.0
  0
CIRCLE
  5
1FFDE
  8
01
 10
1142.9693816261911
 20
262.45924102712593
 30
0.0
 40
2.2500000009119239
  0
ARC
  5
1FFDF
  8
01
 10
1255.3579117333261
 20
658.31267382946089
 30
0.0
 40
1000.0
 50
259.42210594919101
 51
261.06066958421258
  0
ARC
  5
1FFE0
  8
01
 10
1071.9693845886211
 20
-323.71056831488642
 30
0.0
 40
1.0
 50
180.000002836997
 51
259.42210594919101
  0
LINE
  5
1FFE1
  8
1DIM
 10
1099.9693804415699
 20
-303.54075895582378
 30
0.0
 11
1070.969380660129
 21
-303.54075895582378
 31
0.0
  0
LINE
  5
1FFE2
  8
01
 10
1099.969380441589
 20
-303.54075895582378
 30
0.0
 11
1099.9693815781079
 21
-329.54075897127609
 31
0.0
  0
LINE
  5
1FFE3
  8
01
 10
1070.9693845886211
 20
-323.71056836440152
 30
0.0
 11
1070.9693835899141
 21
-303.54075895582378
 31
0.0
  0
ARC
  5
1FFE4
  8
01
 10
1194.1952204825291
 20
-32.540758971273362
 30
0.0
 40
1.2000000472257379
 50
119.9999998895224
 51
239.99999996582349
  0
ARC
  5
1FFE5
  8
01
 10
1191.469381733915
 20
-27.532729584249179
 30
0.0
 40
4.4999999993716084
 50
299.99999989769401
 51
359.99999999197502
  0
ARC
  5
1FFE6
  8
01
 10
1191.469381733915
 20
-37.548788358714091
 30
0.0
 40
4.4999999993716839
 50
0.000000008024972
 51
59.999999957879801
  0
LINE
  5
1FFE7
  8
01
 10
1193.719381726635
 20
-31.42984390475636
 30
0.0
 11
1193.595220460918
 21
-31.50152844467652
 31
0.0
  0
LINE
  5
1FFE8
  8
01
 10
1193.719381736458
 20
-33.65167404387671
 30
0.0
 11
1193.5952204582979
 21
-33.579989496357712
 31
0.0
  0
LINE
  5
1FFE9
  8
1DIM
 10
1195.9693817332859
 20
-295.49016966232313
 30
0.0
 11
1099.96938166002
 21
-297.16585589542802
 31
0.0
  0
LINE
  5
1FFEA
  8
01
 10
1195.9693817332859
 20
-37.548788358085631
 30
0.0
 11
1195.9693817332859
 21
-295.56803198167682
 31
0.0
  0
ARC
  5
1FFEB
  8
01
 10
1191.4693817332859
 20
-295.56803198167682
 30
0.0
 40
4.5
 50
270.99999999924609
 51
0.0
  0
LINE
  5
1FFEC
  8
01
 10
1191.5479175621931
 20
-300.06734660988172
 30
0.0
 11
1099.9693818567221
 21
-301.66585589542802
 31
0.0
  0
ARC
  5
1FFED
  8
01
 10
1168.469381652297
 20
-193.95424528719121
 30
0.0
 40
5.0000000018255362
 50
0.000000021313075
 51
89.000000022226686
  0
LINE
  5
1FFEE
  8
01
 10
1168.5566436825591
 20
-188.95500680954979
 30
0.0
 11
1099.9693815944461
 21
-187.75781169746659
 31
0.0
  0
LINE
  5
1FFEF
  8
01
 10
1099.9693815944461
 20
-207.32370624191319
 30
0.0
 11
1168.5566436825591
 21
-206.12651112983099
 31
0.0
  0
ARC
  5
1FFF0
  8
01
 10
1168.469381652297
 20
-201.12727265218859
 30
0.0
 40
5.0000000018276856
 50
270.99999997756493
 51
359.99999997842639
  0
LINE
  5
1FFF1
  8
01
 10
1173.469381654123
 20
-193.95424528533221
 30
0.0
 11
1173.469381654123
 21
-201.12727265404939
 31
0.0
  0
CIRCLE
  5
1FFF2
  8
01
 10
1142.9693816261911
 20
-197.54075896967259
 30
0.0
 40
2.2500000009119239
  0
LINE
  5
1FFF3
  8
01
 10
1099.9693804415699
 20
368.45924101327682
 30
0.0
 11
1099.9693804415699
 21
-303.54075895582378
 31
0.0
  0
LINE
  5
1FFF4
  8
01
 10
1070.969380660129
 20
368.45924101327682
 30
0.0
 11
1070.969380660129
 21
-303.54075895582378
 31
0.0
  0
LINE
  5
1FFF5
  8
01
 10
1195.9693817332859
 20
92.451211642330918
 30
0.0
 11
1195.9693817332859
 21
-27.53272958487765
 31
0.0
  0
LINE
  5
1FFF6
  8
01
 10
1168.5566436825591
 20
23.87348886858922
 30
0.0
 11
1099.9693815944461
 21
22.67629375650608
 31
0.0
  0
LINE
  5
1FFF7
  8
01
 10
1099.9693815944461
 20
42.242188300952641
 30
0.0
 11
1168.5566436825591
 21
41.044993188870421
 31
0.0
  0
CIRCLE
  5
1FFF8
  8
01
 10
1142.9693816261911
 20
32.459241028712093
 30
0.0
 40
2.2500000009119239
  0
LINE
  5
1FFF9
  8
01
 10
745.04444286628348
 20
-323.54074799029831
 30
0.0
 11
745.04444286628348
 21
-324.54074402975652
 31
0.0
  0
LINE
  5
1FFFA
  8
01
 10
720.04444286628348
 20
-323.5407490851685
 30
0.0
 11
720.04444286628348
 21
-324.54074402975652
 31
0.0
  0
ARC
  5
1FFFB
  8
01
 10
136.19426928238539
 20
-296.3161384843786
 30
0.0
 40
609.50402970885784
 50
357.1914631832712
 51
357.34582673588932
  0
ARC
  5
1FFFC
  8
01
 10
742.96859422352145
 20
-326.08297749576082
 30
0.0
 40
2.0
 50
270.0
 51
357.1914631832712
  0
LINE
  5
1FFFD
  8
01
 10
742.96859422352145
 20
-328.08297749576082
 30
0.0
 11
722.12029150903106
 21
-328.08297749576082
 31
0.0
  0
ARC
  5
1FFFE
  8
01
 10
1328.8946164535
 20
-296.31613848421762
 30
0.0
 40
609.50402971218045
 50
182.65417326411071
 51
182.80853681672869
  0
ARC
  5
1FFFF
  8
01
 10
722.12029150903106
 20
-326.08297749576082
 30
0.0
 40
2.0
 50
182.80853681672869
 51
270.0
  0
LINE
  5
20000
  8
1PHANTOM
 10
505.42958989470799
 20
224.49413329061579
 30
0.0
 11
505.42958989470799
 21
230.42431834828969
 31
0.0
  0
LINE
  5
20001
  8
1PHANTOM
 10
505.42958989470799
 20
224.49413329061579
 30
0.0
 11
499.5517753492154
 21
224.49413329061619
 31
0.0
  0
LINE
  5
20002
  8
1PHANTOM
 10
505.42958989470799
 20
230.42431834828969
 30
0.0
 11
499.5517753492154
 21
230.42431834828969
 31
0.0
  0
LINE
  5
20003
  8
1PHANTOM
 10
499.5517753492154
 20
239.1375624022819
 30
0.0
 11
505.48195508949209
 21
239.13756240228241
 31
0.0
  0
LINE
  5
20004
  8
1PHANTOM
 10
505.48195508949169
 20
235.93684444309591
 30
0.0
 11
505.48195508949209
 21
239.13756240228241
 31
0.0
  0
LINE
  5
20005
  8
1PHANTOM
 10
505.48195508949169
 20
235.93684444309591
 30
0.0
 11
499.5517753492154
 21
235.93684444309591
 31
0.0
  0
LINE
  5
20006
  8
01
 10
-69.980219838580069
 20
120.7511261643337
 30
0.0
 11
172.0197801614199
 21
120.7511261643337
 31
0.0
  0
ARC
  5
20007
  8
01
 10
172.0197801614199
 20
117.7511261643337
 30
0.0
 40
3.0
 50
0.0
 51
90.0
  0
ARC
  5
20008
  8
01
 10
-69.980219838580069
 20
117.7511261643337
 30
0.0
 40
3.0
 50
90.0
 51
180.0
  0
LINE
  5
20009
  8
01
 10
-72.980219838580055
 20
117.7511261643337
 30
0.0
 11
-72.980219838580055
 21
8.7511261643337548
 31
0.0
  0
LINE
  5
2000A
  8
01
 10
175.0197801614199
 20
117.7511261643337
 30
0.0
 11
175.0197801614199
 21
8.7511261643337548
 31
0.0
  0
ARC
  5
2000B
  8
01
 10
172.0197801614199
 20
8.7511261643337548
 30
0.0
 40
3.0
 50
270.0
 51
0.0
  0
LINE
  5
2000C
  8
01
 10
-69.980219838580069
 20
5.7511261643337539
 30
0.0
 11
172.0197801614199
 21
5.7511261643337539
 31
0.0
  0
ARC
  5
2000D
  8
01
 10
-69.980219838580069
 20
8.7511261643337548
 30
0.0
 40
3.0
 50
180.0
 51
270.0
  0
LINE
  5
2000E
  8
1PHANTOM
 10
499.5517753492154
 20
362.4518933527138
 30
0.0
 11
499.5517753492154
 21
239.1375624022819
 31
0.0
  0
LINE
  5
2000F
  8
1PHANTOM
 10
499.5517753492154
 20
235.93684444309591
 30
0.0
 11
499.5517753492154
 21
230.42431834828969
 31
0.0
  0
LINE
  5
20010
  8
1PHANTOM
 10
499.5517753492154
 20
224.49413329061619
 30
0.0
 11
499.5517753492154
 21
218.9816071958096
 31
0.0
  0
LINE
  5
20011
  8
1PHANTOM
 10
499.5517753492154
 20
215.78088923662361
 30
0.0
 11
499.5517753492154
 21
100.4584521814961
 31
0.0
  0
LINE
  5
20012
  8
1PHANTOM
 10
499.5517753492154
 20
94.459999457413005
 30
0.0
 11
499.5517753492154
 21
-29.541547818507748
 31
0.0
  0
LINE
  5
20013
  8
1PHANTOM
 10
499.5517753492154
 20
-35.54000054259086
 30
0.0
 11
499.5517753492154
 21
-150.8624375977181
 31
0.0
  0
LINE
  5
20014
  8
1PHANTOM
 10
499.5517753492154
 20
-154.06315555690409
 30
0.0
 11
499.5517753492154
 21
-159.57568165171071
 31
0.0
  0
LINE
  5
20015
  8
1PHANTOM
 10
499.5517753492154
 20
-165.50586670938421
 30
0.0
 11
499.5517753492154
 21
-171.0183928041904
 31
0.0
  0
LINE
  5
20016
  8
1PHANTOM
 10
499.5517753492154
 20
-174.21911076337639
 30
0.0
 11
499.5517753492154
 21
-297.53344171380809
 31
0.0
  0
LINE
  5
20017
  8
1PHANTOM
 10
499.5517753492154
 20
215.78088923662361
 30
0.0
 11
505.48195508949209
 21
215.7808892366231
 31
0.0
  0
LINE
  5
20018
  8
1PHANTOM
 10
505.48195508949169
 20
218.9816071958096
 30
0.0
 11
505.48195508949209
 21
215.7808892366231
 31
0.0
  0
LINE
  5
20019
  8
1PHANTOM
 10
505.48195508949169
 20
218.9816071958096
 30
0.0
 11
499.5517753492154
 21
218.9816071958096
 31
0.0
  0
LINE
  5
2001A
  8
1PHANTOM
 10
505.42958989470799
 20
-159.5756816517102
 30
0.0
 11
505.42958989470799
 21
-165.50586670938421
 31
0.0
  0
LINE
  5
2001B
  8
1PHANTOM
 10
505.42958989470799
 20
-159.5756816517102
 30
0.0
 11
499.5517753492154
 21
-159.57568165171071
 31
0.0
  0
LINE
  5
2001C
  8
1PHANTOM
 10
505.42958989470799
 20
-165.50586670938421
 30
0.0
 11
499.5517753492154
 21
-165.50586670938421
 31
0.0
  0
LINE
  5
2001D
  8
1PHANTOM
 10
499.5517753492154
 20
-174.21911076337639
 30
0.0
 11
505.48195508949209
 21
-174.2191107633769
 31
0.0
  0
LINE
  5
2001E
  8
1PHANTOM
 10
505.48195508949169
 20
-171.0183928041904
 30
0.0
 11
505.48195508949209
 21
-174.2191107633769
 31
0.0
  0
LINE
  5
2001F
  8
1PHANTOM
 10
505.48195508949169
 20
-171.0183928041904
 30
0.0
 11
499.5517753492154
 21
-171.0183928041904
 31
0.0
  0
LINE
  5
20020
  8
1PHANTOM
 10
499.5517753492154
 20
-171.0183928041904
 30
0.0
 11
499.5517753492154
 21
-165.50586670938421
 31
0.0
  0
LINE
  5
20021
  8
1PHANTOM
 10
499.5517753492154
 20
-159.57568165171071
 30
0.0
 11
499.5517753492154
 21
-154.06315555690409
 31
0.0
  0
LINE
  5
20022
  8
1PHANTOM
 10
499.5517753492154
 20
-150.8624375977181
 30
0.0
 11
505.48195508949209
 21
-150.86243759771759
 31
0.0
  0
LINE
  5
20023
  8
1PHANTOM
 10
505.48195508949169
 20
-154.06315555690409
 30
0.0
 11
505.48195508949209
 21
-150.86243759771759
 31
0.0
  0
LINE
  5
20024
  8
1PHANTOM
 10
505.48195508949169
 20
-154.06315555690409
 30
0.0
 11
499.5517753492154
 21
-154.06315555690409
 31
0.0
  0
ARC
  5
20025
  8
01
 10
753.54447309911075
 20
368.45924090771808
 30
0.0
 40
20.0
 50
359.99999749508828
 51
90.0
  0
LINE
  5
20026
  8
01
 10
773.5444437250585
 20
-303.5407599665084
 30
0.0
 11
773.54447309911075
 21
368.45924003349
 31
0.0
  0
ARC
  5
20027
  8
01
 10
753.5444437250585
 20
-303.54075909228072
 30
0.0
 40
20.0
 50
269.93862848613418
 51
359.99999749508828
  0
LINE
  5
20028
  8
1PHANTOM
 10
739.65929583785908
 20
224.49413329061579
 30
0.0
 11
739.65929583785908
 21
230.42431834828969
 31
0.0
  0
LINE
  5
20029
  8
1PHANTOM
 10
739.65929583785908
 20
224.49413329061579
 30
0.0
 11
745.53711038335177
 21
224.49413329061619
 31
0.0
  0
LINE
  5
2002A
  8
1PHANTOM
 10
739.65929583785908
 20
230.42431834828969
 30
0.0
 11
745.53711038335177
 21
230.42431834828969
 31
0.0
  0
LINE
  5
2002B
  8
1PHANTOM
 10
745.53711038335177
 20
239.1375624022819
 30
0.0
 11
739.60693064307486
 21
239.13756240228241
 31
0.0
  0
LINE
  5
2002C
  8
1PHANTOM
 10
739.60693064307543
 20
235.93684444309591
 30
0.0
 11
739.60693064307486
 21
239.13756240228241
 31
0.0
  0
LINE
  5
2002D
  8
1PHANTOM
 10
739.60693064307543
 20
235.93684444309591
 30
0.0
 11
745.53711038335177
 21
235.93684444309591
 31
0.0
  0
LINE
  5
2002E
  8
1PHANTOM
 10
745.53711038335177
 20
362.4518933527138
 30
0.0
 11
745.53711038335177
 21
239.1375624022819
 31
0.0
  0
LINE
  5
2002F
  8
1PHANTOM
 10
745.53711038335177
 20
235.93684444309591
 30
0.0
 11
745.53711038335177
 21
230.42431834828969
 31
0.0
  0
LINE
  5
20030
  8
1PHANTOM
 10
745.53711038335177
 20
224.49413329061619
 30
0.0
 11
745.53711038335177
 21
218.9816071958096
 31
0.0
  0
LINE
  5
20031
  8
1PHANTOM
 10
745.53711038335177
 20
215.78088923662361
 30
0.0
 11
745.53711038335177
 21
100.4584521814956
 31
0.0
  0
LINE
  5
20032
  8
1PHANTOM
 10
745.53711038335177
 20
94.459999457413005
 30
0.0
 11
745.53711038335177
 21
-29.541547818507748
 31
0.0
  0
LINE
  5
20033
  8
1PHANTOM
 10
745.53711038335177
 20
-35.540000542590633
 30
0.0
 11
745.53711038335177
 21
-150.8624375977181
 31
0.0
  0
LINE
  5
20034
  8
1PHANTOM
 10
745.53711038335177
 20
-154.06315555690409
 30
0.0
 11
745.53711038335177
 21
-159.57568165171071
 31
0.0
  0
LINE
  5
20035
  8
1PHANTOM
 10
745.53711038335177
 20
-165.50586670938421
 30
0.0
 11
745.53711038335177
 21
-171.0183928041904
 31
0.0
  0
LINE
  5
20036
  8
1PHANTOM
 10
745.53711038335177
 20
-174.21911076337639
 30
0.0
 11
745.53711038335177
 21
-297.53344171380809
 31
0.0
  0
LINE
  5
20037
  8
1PHANTOM
 10
745.53711038335177
 20
215.78088923662361
 30
0.0
 11
739.60693064307486
 21
215.7808892366231
 31
0.0
  0
LINE
  5
20038
  8
1PHANTOM
 10
739.60693064307543
 20
218.9816071958096
 30
0.0
 11
739.60693064307486
 21
215.7808892366231
 31
0.0
  0
LINE
  5
20039
  8
1PHANTOM
 10
739.60693064307543
 20
218.9816071958096
 30
0.0
 11
745.53711038335177
 21
218.9816071958096
 31
0.0
  0
LINE
  5
2003A
  8
1PHANTOM
 10
739.65929583785908
 20
-159.5756816517102
 30
0.0
 11
739.65929583785908
 21
-165.50586670938421
 31
0.0
  0
LINE
  5
2003B
  8
1PHANTOM
 10
739.65929583785908
 20
-159.5756816517102
 30
0.0
 11
745.53711038335177
 21
-159.57568165171071
 31
0.0
  0
LINE
  5
2003C
  8
1PHANTOM
 10
739.65929583785908
 20
-165.50586670938421
 30
0.0
 11
745.53711038335177
 21
-165.50586670938421
 31
0.0
  0
LINE
  5
2003D
  8
1PHANTOM
 10
745.53711038335177
 20
-174.21911076337639
 30
0.0
 11
739.60693064307486
 21
-174.2191107633769
 31
0.0
  0
LINE
  5
2003E
  8
1PHANTOM
 10
739.60693064307543
 20
-171.0183928041904
 30
0.0
 11
739.60693064307486
 21
-174.2191107633769
 31
0.0
  0
LINE
  5
2003F
  8
1PHANTOM
 10
739.60693064307543
 20
-171.0183928041904
 30
0.0
 11
745.53711038335177
 21
-171.0183928041904
 31
0.0
  0
LINE
  5
20040
  8
1PHANTOM
 10
745.53711038335177
 20
-171.0183928041904
 30
0.0
 11
745.53711038335177
 21
-165.50586670938421
 31
0.0
  0
LINE
  5
20041
  8
1PHANTOM
 10
745.53711038335177
 20
-159.57568165171071
 30
0.0
 11
745.53711038335177
 21
-154.06315555690409
 31
0.0
  0
LINE
  5
20042
  8
1PHANTOM
 10
745.53711038335177
 20
-150.8624375977181
 30
0.0
 11
739.60693064307486
 21
-150.86243759771759
 31
0.0
  0
LINE
  5
20043
  8
1PHANTOM
 10
739.60693064307543
 20
-154.06315555690409
 30
0.0
 11
739.60693064307486
 21
-150.86243759771759
 31
0.0
  0
LINE
  5
20044
  8
1PHANTOM
 10
739.60693064307543
 20
-154.06315555690409
 30
0.0
 11
745.53711038335177
 21
-154.06315555690409
 31
0.0
  0
LINE
  5
20045
  8
01
 10
545.67089344633075
 20
742.29547438832333
 30
0.0
 11
545.67089340602286
 21
743.21758784121585
 31
0.0
  0
LINE
  5
20046
  8
01
 10
485.67089344633081
 20
742.29547176563892
 30
0.0
 11
485.67089335890699
 21
744.29547677555684
 31
0.0
  0
ARC
  5
20047
  8
01
 10
764.5444744966494
 20
747.19611205382671
 30
0.0
 40
4.9006250000013134
 50
216.2915947508265
 51
270.00000251171201
  0
ARC
  5
20048
  8
01
 10
764.54447449664747
 20
747.19611205382671
 30
0.0
 40
4.9006250000013134
 50
270.00000251202471
 51
323.70880023529747
  0
LINE
  5
20049
  8
01
 10
545.67089340602286
 20
743.21758784121585
 30
0.0
 11
545.06105333437563
 21
744.29547651871735
 31
0.0
  0
LINE
  5
2004A
  8
01
 10
485.67089344633081
 20
742.29547176563892
 30
0.0
 11
545.67089344633075
 21
742.29547438832333
 31
0.0
  0
LINE
  5
2004B
  8
01
 10
773.24439597224
 20
736.2954676470589
 30
0.0
 11
744.5444428663194
 21
736.2954701608769
 31
0.0
  0
LINE
  5
2004C
  8
01
 10
720.54444286631815
 20
736.29547226302793
 30
0.0
 11
471.84450073293959
 21
736.29549404655916
 31
0.0
  0
LINE
  5
2004D
  8
01
 10
773.24439567343279
 20
742.29546764705935
 30
0.0
 11
744.54444286631997
 21
742.2954701608769
 31
0.0
  0
LINE
  5
2004E
  8
01
 10
720.54444286631758
 20
742.29547226302793
 30
0.0
 11
471.84453583834011
 21
742.29549404655654
 31
0.0
  0
ARC
  5
2004F
  8
01
 10
769.64518575236025
 20
737.79546616197331
 30
0.0
 40
3.899270412734912
 50
337.37566534058749
 51
22.624334659412462
  0
ARC
  5
20050
  8
01
 10
769.64539044982155
 20
740.79546663232895
 30
0.0
 40
3.8990815162710901
 50
337.37450651843159
 51
22.625478505559599
  0
ARC
  5
20051
  8
01
 10
475.44336234492988
 20
737.79545848301632
 30
0.0
 40
3.898935523048598
 50
157.3734920864471
 51
202.62584321633341
  0
ARC
  5
20052
  8
01
 10
474.27189585211312
 20
740.79546642742162
 30
0.0
 40
2.8534469496781552
 50
148.28531609217509
 51
211.71403417393
  0
LINE
  5
20054
  8
1PHANTOM
 10
308.85153862362591
 20
493.08875711723562
 30
0.0
 11
481.7274380767671
 21
739.9810823088651
 31
0.0
  0
LINE
  5
20055
  8
1PHANTOM
 10
313.76645106074869
 20
489.64729874389781
 30
0.0
 11
486.64233020686828
 21
736.53959493410048
 31
0.0
  0
ARC
  5
20056
  8
1PHANTOM
 10
312.1446876451451
 20
495.17669372395989
 30
0.0
 40
3.899270412734912
 50
212.37566534058479
 51
257.62433465941251
  0
ARC
  5
20057
  8
1PHANTOM
 10
314.60202675366418
 20
493.45579646677788
 30
0.0
 40
3.8990815162710901
 50
212.37450651842181
 51
257.62547850555518
  0
ARC
  5
20058
  8
1PHANTOM
 10
480.89191479292549
 20
736.17272320617394
 30
0.0
 40
3.898935523048598
 50
32.373492086431703
 51
77.62584321632508
  0
ARC
  5
20059
  8
1PHANTOM
 10
484.02130300972289
 20
735.41159851280406
 30
0.0
 40
2.8534469496781552
 50
23.285316092174661
 51
86.714034173924858
  0
LINE
  5
2005A
  8
01
 10
471.84450142660938
 20
736.29549238224115
 30
0.0
 11
481.7274380767671
 21
739.9810823088651
 31
0.0
  0
LINE
  5
2005C
  8
1PHANTOM
 10
757.95706390390342
 20
629.41528183834498
 30
0.0
 11
474.73381547104822
 21
732.50014201384784
 31
0.0
  0
LINE
  5
2005D
  8
1PHANTOM
 10
760.00918448307027
 20
635.05343766525857
 30
0.0
 11
476.78596931928632
 21
738.13828573180672
 31
0.0
  0
ARC
  5
2005E
  8
1PHANTOM
 10
755.0879423266847
 20
632.05582176926191
 30
0.0
 40
3.899270412734912
 50
317.37566534060193
 51
2.6243346594357662
  0
ARC
  5
2005F
  8
1PHANTOM
 10
756.1141952702269
 20
634.87483006295395
 30
0.0
 40
3.8990815162710901
 50
317.37450651843687
 51
2.6254785055550518
  0
ARC
  5
20060
  8
1PHANTOM
 10
478.62865722260528
 20
732.67876436188544
 30
0.0
 40
3.898935523048598
 50
137.3734920864037
 51
182.6258432163124
  0
ARC
  5
20061
  8
1PHANTOM
 10
478.55390195093099
 20
735.89851482731638
 30
0.0
 40
2.8534469496781538
 50
128.28531609217251
 51
191.7140341739541
  0
ARC
  5
20065
  8
01
 10
1073.8700021579191
 20
-314.54075933562291
 30
0.0
 40
4.9006250000013134
 50
126.2915947507978
 51
180.00000251171201
  0
ARC
  5
20066
  8
01
 10
1073.8700021579191
 20
-314.54075933562098
 30
0.0
 40
4.9006250000013134
 50
180.00000251202471
 51
233.70880023531569
  0
ARC
  5
20067
  8
01
 10
1073.8700021579191
 20
379.45924139307641
 30
0.0
 40
4.9006250000013134
 50
179.99999748828799
 51
233.70840524920209
  0
ARC
  5
20068
  8
01
 10
1073.8700021579191
 20
379.45924139307448
 30
0.0
 40
4.9006250000013134
 50
126.29119976468429
 51
179.99999748797529
  0
LINE
  5
2006C
  8
1CENTER
 10
1059.1488352280819
 20
32.459241031899872
 30
0.0
 11
1204.3851727399101
 21
32.459241031899872
 31
0.0
  0
LINE
  5
2006D
  8
1CENTER
 10
1142.9693816261911
 20
-204.06155487518501
 30
0.0
 11
1142.9693816261911
 21
-191.01996306416029
 31
0.0
  0
LINE
  5
2006E
  8
1CENTER
 10
1149.490177534864
 20
-197.54075896651401
 30
0.0
 11
1136.4485857238369
 21
-197.54075896651401
 31
0.0
  0
LINE
  5
2006F
  8
1CENTER
 10
1142.9693816261911
 20
25.938445123228799
 30
0.0
 11
1142.9693816261911
 21
38.980036934253583
 31
0.0
  0
LINE
  5
20070
  8
1CENTER
 10
1142.9693816261911
 20
268.98003693898482
 30
0.0
 11
1142.9693816261911
 21
255.93844512795999
 31
0.0
  0
LINE
  5
20071
  8
1CENTER
 10
1149.490177534864
 20
262.45924103031371
 30
0.0
 11
1136.4485857238369
 21
262.45924103031371
 31
0.0
  0
LINE
  5
20072
  8
01
 10
723.54444286631815
 20
372.50922581945321
 30
0.0
 11
741.54444286631986
 21
372.50922581945321
 31
0.0
  0
ARC
  5
20073
  8
01
 10
741.54444286631986
 20
375.50922581945309
 30
0.0
 40
3.0
 50
270.0
 51
359.99999999976552
  0
ARC
  5
20074
  8
01
 10
723.54444286631815
 20
375.50922581945309
 30
0.0
 40
3.0
 50
180.00000000023451
 51
270.0
  0
LINE
  5
20075
  8
01
 10
720.54444286631815
 20
390.50922581945321
 30
0.0
 11
744.54444286631997
 21
390.50922581945321
 31
0.0
  0
LINE
  5
20076
  8
01
 10
720.54444286631815
 20
390.50922581945321
 30
0.0
 11
720.54444286631815
 21
375.50922581945309
 31
0.0
  0
LINE
  5
20077
  8
01
 10
744.54444286631997
 20
390.50922581945321
 30
0.0
 11
744.54444286631997
 21
375.50922581945309
 31
0.0
  0
LINE
  5
20078
  8
01
 10
1061.6693840652581
 20
389.70923858789462
 30
0.0
 11
1070.1693840652581
 21
389.70923858789462
 31
0.0
  0
LINE
  5
20079
  8
01
 10
1060.8693840652579
 20
372.50923858789469
 30
0.0
 11
1061.669384196392
 21
372.50923858789469
 31
0.0
  0
LINE
  5
2007A
  8
01
 10
1070.169384065257
 20
372.50923858789469
 30
0.0
 11
1070.9693840652569
 21
372.50923858789469
 31
0.0
  0
LINE
  5
2007B
  8
01
 10
1061.6693840652581
 20
372.50923858789469
 30
0.0
 11
1061.6693840652581
 21
389.70923858789462
 31
0.0
  0
LINE
  5
2007C
  8
01
 10
1070.169384065257
 20
389.70923858789462
 30
0.0
 11
1070.169384065257
 21
382.67195848657951
 31
0.0
  0
LINE
  5
2007D
  8
01
 10
1070.169384065257
 20
376.24652429957092
 30
0.0
 11
1070.169384065257
 21
372.50923858789469
 31
0.0
  0
LINE
  5
2007E
  8
01
 10
1060.8693840652579
 20
389.50923858789469
 30
0.0
 11
1060.8693840652579
 21
372.50923858789469
 31
0.0
  0
LINE
  5
2007F
  8
01
 10
1069.9693840652569
 20
390.5092385878948
 30
0.0
 11
1061.869384065257
 21
390.5092385878948
 31
0.0
  0
LINE
  5
20080
  8
01
 10
1070.9693840652569
 20
389.46861790412959
 30
0.0
 11
1070.9693840652569
 21
389.50923858789469
 31
0.0
  0
ARC
  5
20081
  8
01
 10
1061.8693840652579
 20
389.50923858789469
 30
0.0
 40
1.0
 50
90.0
 51
179.99999999976549
  0
ARC
  5
20082
  8
01
 10
1069.9693840652569
 20
389.50923858789469
 30
0.0
 40
1.0
 50
0.0000000002344959
 51
90.0
  0
LINE
  5
20083
  8
01
 10
1070.9693840652569
 20
389.46861790412959
 30
0.0
 11
1070.9693840652569
 21
372.50923858789469
 31
0.0
  0
LINE
  5
20084
  8
1PHANTOM
 10
470.78594143800359
 20
436.73842722228301
 30
0.0
 11
470.7859678375043
 21
738.13832246158324
 31
0.0
  0
LINE
  5
20085
  8
1PHANTOM
 10
476.78594143800359
 20
436.73842752109022
 30
0.0
 11
476.78596783750112
 21
738.13828735618381
 31
0.0
  0
ARC
  5
20086
  8
1PHANTOM
 10
472.28593995291789
 20
440.3376374421627
 30
0.0
 40
3.899270412734912
 50
247.3756653405996
 51
292.62433465942951
  0
ARC
  5
20087
  8
1PHANTOM
 10
475.28594042327308
 20
440.33743274470129
 30
0.0
 40
3.8990815162710901
 50
247.3745065184437
 51
292.62547850555961
  0
ARC
  5
20088
  8
1PHANTOM
 10
472.28593227396141
 20
734.53946084959261
 30
0.0
 40
3.898935523048598
 50
67.373492086406031
 51
112.6258432163214
  0
ARC
  5
20089
  8
1PHANTOM
 10
475.28594021836619
 20
735.71092734240983
 30
0.0
 40
2.8534469496781538
 50
58.285316092175059
 51
121.71403417394789
  0
LINE
  5
2008B
  8
01
 10
744.54444286631997
 20
744.295476781464
 30
0.0
 11
744.54444286631997
 21
734.19547625810117
 31
0.0
  0
LINE
  5
2008C
  8
01
 10
720.54444286631815
 20
744.295476781464
 30
0.0
 11
720.54444286631815
 21
734.19547625810117
 31
0.0
  0
LINE
  5
2008D
  8
01
 10
744.54444286631997
 20
744.295476781464
 30
0.0
 11
720.54444286631815
 21
744.295476781464
 31
0.0
  0
LINE
  5
2008E
  8
01
 10
744.54444286631997
 20
734.19547625810117
 30
0.0
 11
720.54444286631815
 21
734.19547625810117
 31
0.0
  0
LINE
  5
2008F
  8
01
 10
1070.169384065257
 20
374.50923858789469
 30
0.0
 11
1068.969383840968
 21
374.50923858789469
 31
0.0
  0
LINE
  5
20090
  8
01
 10
1062.969383840968
 20
374.50923858789469
 30
0.0
 11
1061.6693840652581
 21
374.50923858789469
 31
0.0
  0
LINE
  5
2039C
  8
01
 10
720.04879162258521
 20
744.79112807336185
 30
0.0
 11
720.04915783352271
 21
744.83281508508071
 31
0.0
  0
LINE
  5
2039D
  8
01
 10
720.04915783352271
 20
744.83281508508071
 30
0.0
 11
720.05019543117885
 21
744.95104018273685
 31
0.0
  0
LINE
  5
2039E
  8
01
 10
720.05019543117885
 20
744.95104018273685
 30
0.0
 11
720.05236217922584
 21
745.19933119836196
 31
0.0
  0
LINE
  5
2039F
  8
01
 10
722.20540783352271
 20
764.1807154757056
 30
0.0
 11
721.80996105617896
 21
764.10716811242446
 31
0.0
  0
LINE
  5
203A0
  8
01
 10
721.80996105617896
 20
764.10716811242446
 30
0.0
 11
721.45095226711635
 21
763.90630141320571
 31
0.0
  0
LINE
  5
203A1
  8
01
 10
721.45095226711635
 20
763.90630141320571
 30
0.0
 11
721.14501354641334
 21
763.61418715539321
 31
0.0
  0
LINE
  5
203A2
  8
01
 10
721.14501354641334
 20
763.61418715539321
 30
0.0
 11
720.89269421047584
 21
763.26274672570571
 31
0.0
  0
LINE
  5
203A3
  8
01
 10
720.89269421047584
 20
763.26274672570571
 30
0.0
 11
720.68840954250709
 21
762.87291518273696
 31
0.0
  0
LINE
  5
203A4
  8
01
 10
720.68840954250709
 20
762.87291518273696
 30
0.0
 11
720.52593395656959
 21
762.45781508508071
 31
0.0
  0
LINE
  5
203A5
  8
01
 10
720.52593395656959
 20
762.45781508508071
 30
0.0
 11
720.39977428860084
 21
762.02580824914321
 31
0.0
  0
LINE
  5
203A6
  8
01
 10
720.39977428860084
 20
762.02580824914321
 30
0.0
 11
720.30547497219447
 21
761.58220473351821
 31
0.0
  0
LINE
  5
203A7
  8
01
 10
720.30547497219447
 20
761.58220473351821
 30
0.0
 11
720.23974010891334
 21
761.13060561242435
 31
0.0
  0
LINE
  5
203A8
  8
01
 10
720.23974010891334
 20
761.13060561242435
 30
0.0
 11
720.19970104641334
 21
760.67381850304935
 31
0.0
  0
LINE
  5
203A9
  8
01
 10
720.19970104641334
 20
760.67381850304935
 30
0.0
 11
720.18319103664771
 21
760.19322768273685
 31
0.0
  0
LINE
  5
203AA
  8
01
 10
742.88350841946021
 20
764.1807154757056
 30
0.0
 11
743.27898571438209
 21
764.10716811242446
 31
0.0
  0
LINE
  5
203AB
  8
01
 10
743.27898571438209
 20
764.10716811242446
 30
0.0
 11
743.63799450344447
 21
763.90630141320571
 31
0.0
  0
LINE
  5
203AC
  8
01
 10
743.63799450344447
 20
763.90630141320571
 30
0.0
 11
743.94393322414771
 21
763.61418715539321
 31
0.0
  0
LINE
  5
203AD
  8
01
 10
743.94393322414771
 20
763.61418715539321
 30
0.0
 11
744.1962525600851
 21
763.26274672570571
 31
0.0
  0
LINE
  5
203AE
  8
01
 10
744.1962525600851
 20
763.26274672570571
 30
0.0
 11
744.40053722805385
 21
762.87291518273696
 31
0.0
  0
LINE
  5
203AF
  8
01
 10
744.40053722805385
 20
762.87291518273696
 30
0.0
 11
744.56301281399146
 21
762.45781508508071
 31
0.0
  0
LINE
  5
203B0
  8
01
 10
744.56301281399146
 20
762.45781508508071
 30
0.0
 11
744.68917248196021
 21
762.02580824914321
 31
0.0
  0
LINE
  5
203B1
  8
01
 10
744.68917248196021
 20
762.02580824914321
 30
0.0
 11
744.78344128078834
 21
761.58220473351821
 31
0.0
  0
LINE
  5
203B2
  8
01
 10
744.78344128078834
 20
761.58220473351821
 30
0.0
 11
744.84920666164771
 21
761.13060561242435
 31
0.0
  0
LINE
  5
203B3
  8
01
 10
744.84920666164771
 20
761.13060561242435
 30
0.0
 11
744.88924572414771
 21
760.67381850304935
 31
0.0
  0
LINE
  5
203B4
  8
01
 10
744.88924572414771
 20
760.67381850304935
 30
0.0
 11
744.90572521633521
 21
760.19322768273685
 31
0.0
  0
LINE
  5
203B5
  8
01
 10
745.04015514797584
 20
744.79112807336185
 30
0.0
 11
745.03978893703834
 21
744.83281508508071
 31
0.0
  0
LINE
  5
203B6
  8
01
 10
745.03978893703834
 20
744.83281508508071
 30
0.0
 11
745.03875133938197
 21
744.95104018273685
 31
0.0
  0
LINE
  5
203B7
  8
01
 10
745.03875133938197
 20
744.95104018273685
 30
0.0
 11
745.03658459133521
 21
745.19933119836196
 31
0.0
  0
LINE
  5
203B8
  8
1DIM
 10
465.54446571726839
 20
773.29547774845514
 30
0.0
 11
294.60027758611392
 21
773.29547774845514
 31
0.0
  0
LINE
  5
203B9
  8
1DIM
 10
472.2859399529188
 20
436.4383670294277
 30
0.0
 11
294.6002775861138
 21
436.43836702942781
 31
0.0
  0
LINE
  5
203BA
  8
1DIM
 10
297.60027758611392
 20
767.29547774845514
 30
0.0
 11
297.60027758611392
 21
442.43836702942781
 31
0.0
  0
LINE
  5
203BE
  8
1DIM
 10
1142.9693816309441
 20
255.9384451279596
 30
0.0
 11
1142.9693816309441
 21
216.40451483048329
 31
0.0
  0
LINE
  5
203BF
  8
1DIM
 10
1136.9693816309441
 20
219.40451483048329
 30
0.0
 11
1105.9693816321101
 21
219.40451483048329
 31
0.0
  0
LINE
  5
203C3
  8
1DIM
 10
1192.997998082602
 20
32.459241031900319
 30
0.0
 11
1233.7362544698251
 21
32.459241031900312
 31
0.0
  0
LINE
  5
203C4
  8
1DIM
 10
1149.490177539617
 20
-197.54075896651261
 30
0.0
 11
1233.7362544698251
 21
-197.54075896651261
 31
0.0
  0
LINE
  5
203C5
  8
1DIM
 10
1230.7362544698251
 20
26.459241031900309
 30
0.0
 11
1230.7362544698251
 21
-191.54075896651261
 31
0.0
  0
LINE
  5
203C9
  8
1DIM
 10
1192.997998082602
 20
32.459241031900319
 30
0.0
 11
1233.7362544698251
 21
32.459241031900312
 31
0.0
  0
LINE
  5
203CA
  8
1DIM
 10
1149.490177539617
 20
262.4592410303141
 30
0.0
 11
1233.7362544698251
 21
262.4592410303141
 31
0.0
  0
LINE
  5
203CB
  8
1DIM
 10
1230.7362544698251
 20
38.459241031900312
 30
0.0
 11
1230.7362544698251
 21
256.4592410303141
 31
0.0
  0
TEXT
  5
203CF
  8
1DIM
 10
557.26467216477897
 20
575.42015729755849
 30
0.0
 40
10.5
  1
フリー範囲
  0
SOLID
  5
203D0
  8
1DIM
 10
547.19019575266384
 20
547.06882559589951
 30
0.0
 11
545.21460809476912
 21
541.31582173652532
 31
0.0
 12
545.21756814108869
 22
547.3985835466018
 32
0.0
 13
545.21756814108869
 23
547.3985835466018
 33
0.0
1001
ACAD
1000
DSTYLE
1002
{
1070
    40
1040
3.0
1002
}
  0
ARC
  5
203D2
  8
1DIM
 10
481.84899889101979
 20
736.29549317026908
 30
0.0
 40
223.4343766886509
 50
341.53863470279862
 51
358.4613552601711
  0
ARC
  5
203D6
  8
1DIM
 10
485.5326212254123
 20
734.95476655961704
 30
0.0
 40
219.51434845572521
 50
236.5661130132444
 51
338.43388196824048
  0
LINE
  5
203DA
  8
1DIM
 10
478.65325937337769
 20
773.29547945798504
 30
0.0
 11
478.65325937337769
 21
894.33317162520962
 31
0.0
  0
LINE
  5
203DB
  8
1DIM
 10
753.16979115591903
 20
773.29548160578577
 30
0.0
 11
753.16979115591903
 21
894.33317162520962
 31
0.0
  0
LINE
  5
203DC
  8
1DIM
 10
484.65325937337769
 20
891.33317162520973
 30
0.0
 11
747.16979115591903
 21
891.33317162520973
 31
0.0
  0
TEXT
  5
203E0
  8
1DIM
 10
749.05746074366925
 20
658.72109044966237
 30
0.0
 40
10.5
  1
自動閉止範囲
  0
SOLID
  5
203E1
  8
1DIM
 10
707.8186340316837
 20
679.58366710519056
 30
0.0
 11
703.47721440232044
 21
683.84419237817974
 31
0.0
 12
708.96575468079573
 22
681.221993756497
 32
0.0
 13
708.96575468079573
 23
681.221993756497
 33
0.0
1001
ACAD
1000
DSTYLE
1002
{
1070
    40
1040
3.0
1002
}
  0
LINE
  5
203E4
  8
1CENTER
 10
797.6251785410476
 20
817.17182594992198
 30
0.0
 11
744.80009223573904
 21
816.24976063862255
 31
0.0
  0
LINE
  5
203E5
  8
0
 10
788.94582616405137
 20
818.5205092397257
 30
0.0
 11
789.03708589356825
 21
819.02217834825171
 31
0.0
  0
LINE
  5
203E6
  8
0
 10
789.03708589356825
 20
819.02217834825171
 30
0.0
 11
789.90676436968283
 21
815.03674933034324
 31
0.0
  0
LINE
  5
203E7
  8
0
 10
789.90676436968283
 20
815.03674933034324
 30
0.0
 11
789.99802409919982
 21
815.53841843886937
 31
0.0
  0
LINE
  5
203E8
  8
0
 10
787.34606985180119
 20
818.49258538942593
 30
0.0
 11
787.43732958131818
 21
818.99425449795206
 31
0.0
  0
LINE
  5
203E9
  8
0
 10
788.30700805743265
 20
815.00882548004358
 30
0.0
 11
788.39826778694953
 21
815.5104945885696
 31
0.0
  0
LINE
  5
203EA
  8
0
 10
787.43732958131818
 20
818.99425449795206
 30
0.0
 11
788.30700805743265
 21
815.00882548004358
 31
0.0
  0
LINE
  5
203EB
  8
0
 10
785.74631353955101
 20
818.46466153912615
 30
0.0
 11
785.83757326906789
 21
818.96633064765228
 31
0.0
  0
LINE
  5
203EC
  8
0
 10
785.83757326906789
 20
818.96633064765228
 30
0.0
 11
786.70725174518225
 21
814.98090162974393
 31
0.0
  0
LINE
  5
203ED
  8
0
 10
786.70725174518225
 20
814.98090162974393
 30
0.0
 11
786.79851147469924
 21
815.48257073826983
 31
0.0
  0
LINE
  5
203EE
  8
0
 10
777.74753197829978
 20
818.32504228762775
 30
0.0
 11
777.83879170781665
 21
818.82671139615377
 31
0.0
  0
LINE
  5
203EF
  8
0
 10
778.70847018393113
 20
814.84128237824541
 30
0.0
 11
778.79972991344812
 21
815.34295148677131
 31
0.0
  0
LINE
  5
203F0
  8
0
 10
780.30822649618153
 20
814.86920622854507
 30
0.0
 11
780.39948622569841
 21
815.37087533707108
 31
0.0
  0
LINE
  5
203F1
  8
0
 10
779.34728829055007
 20
818.35296613792741
 30
0.0
 11
779.43854802006695
 21
818.85463524645365
 31
0.0
  0
LINE
  5
203F2
  8
0
 10
780.94704460280025
 20
818.38088998822718
 30
0.0
 11
781.03830433231713
 21
818.8825590967532
 31
0.0
  0
LINE
  5
203F3
  8
0
 10
779.43854802006695
 20
818.85463524645365
 30
0.0
 11
780.30822649618153
 21
814.86920622854507
 31
0.0
  0
LINE
  5
203F4
  8
0
 10
777.83879170781665
 20
818.82671139615377
 30
0.0
 11
778.70847018393113
 21
814.84128237824541
 31
0.0
  0
LINE
  5
203F5
  8
0
 10
782.54680091505043
 20
818.40881383852695
 30
0.0
 11
782.63806064456742
 21
818.91048294705286
 31
0.0
  0
LINE
  5
203F6
  8
0
 10
790.74555201533281
 20
818.55192357131284
 30
0.0
 11
790.8368117448498
 21
819.05359267983874
 31
0.0
  0
LINE
  5
203F7
  8
0
 10
790.8368117448498
 20
819.05359267983874
 30
0.0
 11
791.70253939979136
 21
815.29453624043765
 31
0.0
  0
LINE
  5
203F8
  8
0
 10
791.70253939979136
 20
815.29453624043765
 30
0.0
 11
791.82242555690823
 21
815.83330433463948
 31
0.0
  0
LINE
  5
203F9
  8
0
 10
783.50773912068189
 20
814.9250539291445
 30
0.0
 11
783.59899885019865
 21
815.42672303767051
 31
0.0
  0
LINE
  5
203FA
  8
0
 10
785.10749543293207
 20
814.95297777944427
 30
0.0
 11
785.19875516244895
 21
815.45464688797017
 31
0.0
  0
LINE
  5
203FB
  8
0
 10
784.14655722730072
 20
818.43673768882661
 30
0.0
 11
784.2378169568176
 21
818.93840679735251
 31
0.0
  0
LINE
  5
203FC
  8
0
 10
784.2378169568176
 20
818.93840679735251
 30
0.0
 11
785.10749543293207
 21
814.95297777944427
 31
0.0
  0
LINE
  5
203FD
  8
0
 10
782.63806064456742
 20
818.91048294705286
 30
0.0
 11
783.50773912068189
 21
814.9250539291445
 31
0.0
  0
LINE
  5
203FE
  8
0
 10
792.44446973500283
 20
818.62876933578355
 30
0.0
 11
793.29439406969607
 21
815.77520524775082
 31
0.0
  0
LINE
  5
203FF
  8
0
 10
794.05212767919204
 20
818.20394862533738
 30
0.0
 11
794.88624873960077
 21
816.25587425506399
 31
0.0
  0
LINE
  5
20400
  8
0
 10
793.29439406969607
 20
815.77520524775082
 30
0.0
 11
793.46750102056603
 21
816.33006035153767
 31
0.0
  0
LINE
  5
20401
  8
0
 10
793.90869369593133
 20
817.74420349512354
 30
0.0
 11
794.05212767919204
 21
818.20394862533738
 31
0.0
  0
LINE
  5
20402
  8
0
 10
794.88624873960077
 20
816.25587425506399
 30
0.0
 11
795.18770426990852
 21
816.84950236698091
 31
0.0
  0
LINE
  5
20403
  8
0
 10
792.33988684248754
 20
818.15877407493213
 30
0.0
 11
792.44446973500283
 21
818.62876933578355
 31
0.0
  0
LINE
  5
20404
  8
0
 10
781.9079828084316
 20
814.89713007884473
 30
0.0
 11
781.9992425379487
 21
815.39879918737086
 31
0.0
  0
LINE
  5
20405
  8
0
 10
781.03830433231713
 20
818.8825590967532
 30
0.0
 11
781.9079828084316
 21
814.89713007884473
 31
0.0
  0
LINE
  5
20406
  8
0
 10
757.04195964855489
 20
818.46370134225754
 30
0.0
 11
757.91163812466505
 21
814.47827232434906
 31
0.0
  0
LINE
  5
20407
  8
0
 10
758.64171596080519
 20
818.49162519255708
 30
0.0
 11
759.51139443691545
 21
814.50619617464884
 31
0.0
  0
LINE
  5
20408
  8
0
 10
760.24147227305536
 20
818.51954904285685
 30
0.0
 11
761.11115074916995
 21
814.53412002494861
 31
0.0
  0
LINE
  5
20409
  8
0
 10
760.15021254353792
 20
818.01787993433095
 30
0.0
 11
760.24147227305536
 21
818.51954904285685
 31
0.0
  0
LINE
  5
2040A
  8
0
 10
759.51139443691545
 20
814.50619617464884
 30
0.0
 11
759.6026541664329
 21
815.00786528317485
 31
0.0
  0
LINE
  5
2040B
  8
0
 10
761.11115074916995
 20
814.53412002494861
 30
0.0
 11
761.20241047868694
 21
815.03578913347462
 31
0.0
  0
LINE
  5
2040C
  8
0
 10
757.91163812466505
 20
814.47827232434906
 30
0.0
 11
758.00289785418238
 21
814.97994143287497
 31
0.0
  0
LINE
  5
2040D
  8
0
 10
758.55045623128785
 20
817.98995608403106
 30
0.0
 11
758.64171596080519
 21
818.49162519255708
 31
0.0
  0
LINE
  5
2040E
  8
0
 10
765.04074120980613
 20
818.60332059375605
 30
0.0
 11
765.9104196859206
 21
814.61789157584769
 31
0.0
  0
LINE
  5
2040F
  8
0
 10
765.9104196859206
 20
814.61789157584769
 30
0.0
 11
766.00167941543748
 21
815.11956068437371
 31
0.0
  0
LINE
  5
20410
  8
0
 10
766.64049752205642
 20
818.6312444440556
 30
0.0
 11
767.51017599817089
 21
814.64581542614735
 31
0.0
  0
LINE
  5
20411
  8
0
 10
768.24025383430649
 20
818.65916829435537
 30
0.0
 11
769.10993231042107
 21
814.67373927644712
 31
0.0
  0
LINE
  5
20412
  8
0
 10
768.14899410478972
 20
818.15749918582935
 30
0.0
 11
768.24025383430649
 21
818.65916829435537
 31
0.0
  0
LINE
  5
20413
  8
0
 10
769.10993231042107
 20
814.67373927644712
 30
0.0
 11
769.20119203993795
 21
815.17540838497314
 31
0.0
  0
LINE
  5
20414
  8
0
 10
767.51017599817089
 20
814.64581542614735
 30
0.0
 11
767.60143572768754
 21
815.14748453467325
 31
0.0
  0
LINE
  5
20415
  8
0
 10
766.54923779253943
 20
818.12957533552958
 30
0.0
 11
766.64049752205642
 21
818.6312444440556
 31
0.0
  0
LINE
  5
20416
  8
0
 10
761.84122858530554
 20
818.54747289315662
 30
0.0
 11
762.71090706142013
 21
814.56204387524815
 31
0.0
  0
LINE
  5
20417
  8
0
 10
763.44098489755595
 20
818.57539674345617
 30
0.0
 11
764.31066337367054
 21
814.58996772554804
 31
0.0
  0
LINE
  5
20418
  8
0
 10
764.94948148028925
 20
818.10165148523004
 30
0.0
 11
765.04074120980613
 21
818.60332059375605
 31
0.0
  0
LINE
  5
20419
  8
0
 10
763.34972516803896
 20
818.07372763493026
 30
0.0
 11
763.44098489755595
 21
818.57539674345617
 31
0.0
  0
LINE
  5
2041A
  8
0
 10
764.31066337367054
 20
814.58996772554804
 30
0.0
 11
764.40192310318741
 21
815.09163683407394
 31
0.0
  0
LINE
  5
2041B
  8
0
 10
762.71090706142013
 20
814.56204387524815
 30
0.0
 11
762.80216679093712
 21
815.06371298377428
 31
0.0
  0
LINE
  5
2041C
  8
0
 10
761.74996885578867
 20
818.04580378463049
 30
0.0
 11
761.84122858530554
 21
818.54747289315662
 31
0.0
  0
LINE
  5
2041D
  8
0
 10
769.74875041704365
 20
818.18542303612924
 30
0.0
 11
769.84001014656121
 21
818.68709214465514
 31
0.0
  0
LINE
  5
2041E
  8
0
 10
771.34850672929826
 20
818.21334688642889
 30
0.0
 11
771.43976645881582
 21
818.71501599495491
 31
0.0
  0
LINE
  5
2041F
  8
0
 10
770.70968862267137
 20
814.70166312674667
 30
0.0
 11
770.8009483521887
 21
815.2033322352728
 31
0.0
  0
LINE
  5
20420
  8
0
 10
774.54801935379885
 20
818.26919458702855
 30
0.0
 11
774.6392790833163
 21
818.77086369555445
 31
0.0
  0
LINE
  5
20421
  8
0
 10
773.03952277106578
 20
818.74293984525468
 30
0.0
 11
773.90920124717604
 21
814.75751082734621
 31
0.0
  0
LINE
  5
20422
  8
0
 10
773.90920124717604
 20
814.75751082734621
 30
0.0
 11
774.00046097669349
 21
815.25917993587245
 31
0.0
  0
LINE
  5
20423
  8
0
 10
772.94826304154844
 20
818.24127073672867
 30
0.0
 11
773.03952277106578
 21
818.74293984525468
 31
0.0
  0
LINE
  5
20424
  8
0
 10
772.30944493492586
 20
814.72958697704655
 30
0.0
 11
772.40070466444342
 21
815.23125608557257
 31
0.0
  0
LINE
  5
20425
  8
0
 10
777.10871387168095
 20
814.81335852794575
 30
0.0
 11
777.19997360119794
 21
815.31502763647165
 31
0.0
  0
LINE
  5
20426
  8
0
 10
775.50895755942645
 20
814.78543467764598
 30
0.0
 11
775.6002172889439
 21
815.287103786172
 31
0.0
  0
LINE
  5
20427
  8
0
 10
776.14777566604891
 20
818.29711843732809
 30
0.0
 11
776.23903539556659
 21
818.798787545854
 31
0.0
  0
LINE
  5
20428
  8
0
 10
776.23903539556659
 20
818.798787545854
 30
0.0
 11
777.10871387168095
 21
814.81335852794575
 31
0.0
  0
LINE
  5
20429
  8
0
 10
774.6392790833163
 20
818.77086369555445
 30
0.0
 11
775.50895755942645
 21
814.78543467764598
 31
0.0
  0
LINE
  5
2042A
  8
0
 10
771.43976645881582
 20
818.71501599495491
 30
0.0
 11
772.30944493492586
 21
814.72958697704655
 31
0.0
  0
LINE
  5
2042B
  8
0
 10
769.84001014656121
 20
818.68709214465514
 30
0.0
 11
770.70968862267137
 21
814.70166312674667
 31
0.0
  0
LINE
  5
2042C
  8
0
 10
748.95191835777337
 20
817.82241298223266
 30
0.0
 11
749.04317808729093
 21
818.32408209075879
 31
0.0
  0
LINE
  5
2042D
  8
0
 10
749.04317808729093
 20
818.32408209075879
 30
0.0
 11
749.91285656340096
 21
814.33865307285021
 31
0.0
  0
LINE
  5
2042E
  8
0
 10
749.91285656340096
 20
814.33865307285021
 30
0.0
 11
750.00411629291852
 21
814.84032218137634
 31
0.0
  0
LINE
  5
2042F
  8
0
 10
750.55167467002809
 20
817.85033683253243
 30
0.0
 11
750.64293439954554
 21
818.35200594105856
 31
0.0
  0
LINE
  5
20430
  8
0
 10
752.15143098228248
 20
817.87826068283221
 30
0.0
 11
752.24269071180004
 21
818.37992979135845
 31
0.0
  0
LINE
  5
20431
  8
0
 10
751.51261287565558
 20
814.36657692314998
 30
0.0
 11
751.60387260517314
 21
814.86824603167611
 31
0.0
  0
LINE
  5
20432
  8
0
 10
753.11236918791019
 20
814.39450077344975
 30
0.0
 11
753.20362891742775
 21
814.89616988197588
 31
0.0
  0
LINE
  5
20433
  8
0
 10
752.24269071180004
 20
818.37992979135845
 30
0.0
 11
753.11236918791019
 21
814.39450077344975
 31
0.0
  0
LINE
  5
20434
  8
0
 10
750.64293439954554
 20
818.35200594105856
 30
0.0
 11
751.51261287565558
 21
814.36657692314998
 31
0.0
  0
LINE
  5
20435
  8
0
 10
753.84244702405022
 20
818.40785364165799
 30
0.0
 11
754.71212550016025
 21
814.42242462374952
 31
0.0
  0
LINE
  5
20436
  8
0
 10
755.44220333630483
 20
818.43577749195788
 30
0.0
 11
756.31188181241487
 21
814.45034847404929
 31
0.0
  0
LINE
  5
20437
  8
0
 10
756.31188181241487
 20
814.45034847404929
 30
0.0
 11
756.40314154193243
 21
814.95201758257542
 31
0.0
  0
LINE
  5
20438
  8
0
 10
756.95069991903745
 20
817.96203223373152
 30
0.0
 11
757.04195964855489
 21
818.46370134225754
 31
0.0
  0
LINE
  5
20439
  8
0
 10
754.71212550016025
 20
814.42242462374952
 30
0.0
 11
754.80338522967782
 21
814.92409373227565
 31
0.0
  0
LINE
  5
2043A
  8
0
 10
755.35094360678715
 20
817.93410838343175
 30
0.0
 11
755.44220333630483
 21
818.43577749195788
 31
0.0
  0
LINE
  5
2043B
  8
0
 10
753.75118729453266
 20
817.90618453313198
 30
0.0
 11
753.84244702405022
 21
818.40785364165799
 31
0.0
  0
LINE
  5
2043C
  8
0
 10
746.40867310796546
 20
820.27844783436535
 30
0.0
 11
746.54827374794013
 21
812.27966594824886
 31
0.0
  0
LINE
  5
2043E
  8
1CENTER
 10
447.46375297072427
 20
817.17182594992198
 30
0.0
 11
500.288839276033
 21
816.24976063862255
 31
0.0
  0
LINE
  5
2043F
  8
0
 10
456.09074975273529
 20
815.52105921187717
 30
0.0
 11
455.9820376167811
 21
815.02288062524667
 31
0.0
  0
LINE
  5
20440
  8
0
 10
455.9820376167811
 20
815.02288062524667
 30
0.0
 11
455.2519783921652
 21
819.03623316858955
 31
0.0
  0
LINE
  5
20441
  8
0
 10
455.2519783921652
 20
819.03623316858955
 30
0.0
 11
455.14326625621089
 21
818.53805458195916
 31
0.0
  0
LINE
  5
20442
  8
0
 10
457.69050606498553
 20
815.4931353615774
 30
0.0
 11
457.58179392903128
 21
814.9949567749469
 31
0.0
  0
LINE
  5
20443
  8
0
 10
456.85173470441538
 20
819.00830931828966
 30
0.0
 11
456.74302256846119
 21
818.51013073165939
 31
0.0
  0
LINE
  5
20444
  8
0
 10
457.58179392903128
 20
814.9949567749469
 30
0.0
 11
456.85173470441538
 21
819.00830931828966
 31
0.0
  0
LINE
  5
20445
  8
0
 10
459.29026237723582
 20
815.46521151127774
 30
0.0
 11
459.18155024128163
 21
814.96703292464736
 31
0.0
  0
LINE
  5
20446
  8
0
 10
459.18155024128163
 20
814.96703292464736
 30
0.0
 11
458.45149101666573
 21
818.98038546799012
 31
0.0
  0
LINE
  5
20447
  8
0
 10
458.45149101666573
 20
818.98038546799012
 30
0.0
 11
458.34277888071148
 21
818.48220688135973
 31
0.0
  0
LINE
  5
20448
  8
0
 10
467.28904393848711
 20
815.32559225977911
 30
0.0
 11
467.18033180253281
 21
814.82741367314895
 31
0.0
  0
LINE
  5
20449
  8
0
 10
466.45027257791679
 20
818.8407662164916
 30
0.0
 11
466.34156044196249
 21
818.34258762986121
 31
0.0
  0
LINE
  5
2044A
  8
0
 10
464.85051626566661
 20
818.86869006679115
 30
0.0
 11
464.74180412971231
 21
818.37051148016076
 31
0.0
  0
LINE
  5
2044B
  8
0
 10
465.68928762623671
 20
815.35351611007889
 30
0.0
 11
465.58057549028251
 21
814.85533752344838
 31
0.0
  0
LINE
  5
2044C
  8
0
 10
464.08953131398653
 20
815.38143996037866
 30
0.0
 11
463.98081917803239
 21
814.88326137374816
 31
0.0
  0
LINE
  5
2044D
  8
0
 10
465.58057549028251
 20
814.85533752344838
 30
0.0
 11
464.85051626566661
 21
818.86869006679115
 31
0.0
  0
LINE
  5
2044E
  8
0
 10
467.18033180253281
 20
814.82741367314895
 30
0.0
 11
466.45027257791679
 21
818.8407662164916
 31
0.0
  0
LINE
  5
2044F
  8
0
 10
462.4897750017364
 20
815.40936381067831
 30
0.0
 11
462.3810628657821
 21
814.91118522404781
 31
0.0
  0
LINE
  5
20450
  8
0
 10
454.29102390145403
 20
815.5524735434642
 30
0.0
 11
454.18231176549972
 21
815.05429495683404
 31
0.0
  0
LINE
  5
20451
  8
0
 10
454.18231176549972
 20
815.05429495683404
 30
0.0
 11
453.44830066626599
 21
818.84127494005725
 31
0.0
  0
LINE
  5
20452
  8
0
 10
453.44830066626599
 20
818.84127494005725
 30
0.0
 11
453.30968480522978
 21
818.30701901536668
 31
0.0
  0
LINE
  5
20453
  8
0
 10
461.6510036411662
 20
818.92453776739069
 30
0.0
 11
461.54229150521201
 21
818.4263591807603
 31
0.0
  0
LINE
  5
20454
  8
0
 10
460.05124732891591
 20
818.95246161769046
 30
0.0
 11
459.94253519296171
 21
818.45428303106007
 31
0.0
  0
LINE
  5
20455
  8
0
 10
460.89001868948611
 20
815.43728766097797
 30
0.0
 11
460.78130655353181
 21
814.93910907434758
 31
0.0
  0
LINE
  5
20456
  8
0
 10
460.78130655353181
 20
814.93910907434758
 30
0.0
 11
460.05124732891591
 21
818.95246161769046
 31
0.0
  0
LINE
  5
20457
  8
0
 10
462.3810628657821
 20
814.91118522404781
 30
0.0
 11
461.6510036411662
 21
818.92453776739069
 31
0.0
  0
LINE
  5
20458
  8
0
 10
452.59045923805178
 20
815.53496596471246
 30
0.0
 11
451.84064060477999
 21
818.41645367011961
 31
0.0
  0
LINE
  5
20459
  8
0
 10
450.99860666462808
 20
816.01563433898218
 30
0.0
 11
450.23298054329388
 21
817.99163240018186
 31
0.0
  0
LINE
  5
2045A
  8
0
 10
451.84064060477999
 20
818.41645367011961
 30
0.0
 11
451.64827494212221
 21
817.86797791453137
 31
0.0
  0
LINE
  5
2045B
  8
0
 10
451.1579981454376
 20
816.47009363105894
 30
0.0
 11
450.99860666462808
 21
816.01563433898218
 31
0.0
  0
LINE
  5
2045C
  8
0
 10
450.23298054329388
 20
817.99163240018186
 30
0.0
 11
449.91099132921579
 21
817.40888655675735
 31
0.0
  0
LINE
  5
2045D
  8
0
 10
452.7113810195508
 20
816.00102502683717
 30
0.0
 11
452.59045923805178
 21
815.53496596471246
 31
0.0
  0
LINE
  5
2045E
  8
0
 10
463.25075995341638
 20
818.89661391709103
 30
0.0
 11
463.14204781746213
 21
818.39843533046053
 31
0.0
  0
LINE
  5
2045F
  8
0
 10
463.98081917803239
 20
814.88326137374816
 30
0.0
 11
463.25075995341638
 21
818.89661391709103
 31
0.0
  0
LINE
  5
20460
  8
0
 10
487.97716386179451
 20
814.46440361925249
 30
0.0
 11
487.24710463718287
 21
818.47775616259526
 31
0.0
  0
LINE
  5
20461
  8
0
 10
486.37740754954427
 20
814.49232746955227
 30
0.0
 11
485.64734832493258
 21
818.50568001289491
 31
0.0
  0
LINE
  5
20462
  8
0
 10
484.77765123729398
 20
814.52025131985192
 30
0.0
 11
484.04759201267802
 21
818.53360386319457
 31
0.0
  0
LINE
  5
20463
  8
0
 10
484.88636337324891
 20
815.01842990648231
 30
0.0
 11
484.77765123729398
 21
814.52025131985192
 31
0.0
  0
LINE
  5
20464
  8
0
 10
485.64734832493258
 20
818.50568001289491
 30
0.0
 11
485.5386361889777
 21
818.00750142626441
 31
0.0
  0
LINE
  5
20465
  8
0
 10
484.04759201267802
 20
818.53360386319457
 30
0.0
 11
483.93887987672377
 21
818.03542527656418
 31
0.0
  0
LINE
  5
20466
  8
0
 10
487.24710463718287
 20
818.47775616259526
 30
0.0
 11
487.13839250122822
 21
817.97957757596475
 31
0.0
  0
LINE
  5
20467
  8
0
 10
486.48611968549898
 20
814.99050605618265
 30
0.0
 11
486.37740754954427
 21
814.49232746955227
 31
0.0
  0
LINE
  5
20468
  8
0
 10
479.97838230054339
 20
814.60402287075101
 30
0.0
 11
479.24832307592737
 21
818.61737541409377
 31
0.0
  0
LINE
  5
20469
  8
0
 10
479.24832307592737
 20
818.61737541409377
 30
0.0
 11
479.13961093997301
 21
818.11919682746327
 31
0.0
  0
LINE
  5
2046A
  8
0
 10
478.37862598829309
 20
814.63194672105078
 30
0.0
 11
477.64856676367708
 21
818.64529926439354
 31
0.0
  0
LINE
  5
2046B
  8
0
 10
476.7788696760428
 20
814.65987057135044
 30
0.0
 11
476.04881045142679
 21
818.67322311469309
 31
0.0
  0
LINE
  5
2046C
  8
0
 10
476.88758181199711
 20
815.15804915798083
 30
0.0
 11
476.7788696760428
 21
814.65987057135044
 31
0.0
  0
LINE
  5
2046D
  8
0
 10
476.04881045142679
 20
818.67322311469309
 30
0.0
 11
475.9400983154726
 21
818.1750445280627
 31
0.0
  0
LINE
  5
2046E
  8
0
 10
477.64856676367708
 20
818.64529926439354
 30
0.0
 11
477.539854627723
 21
818.14712067776316
 31
0.0
  0
LINE
  5
2046F
  8
0
 10
478.48733812424751
 20
815.13012530768106
 30
0.0
 11
478.37862598829309
 21
814.63194672105078
 31
0.0
  0
LINE
  5
20470
  8
0
 10
483.17789492504392
 20
814.54817517015169
 30
0.0
 11
482.4478357004279
 21
818.56152771349446
 31
0.0
  0
LINE
  5
20471
  8
0
 10
481.57813861279351
 20
814.57609902045135
 30
0.0
 11
480.8480793881775
 21
818.589451563794
 31
0.0
  0
LINE
  5
20472
  8
0
 10
480.08709443649758
 20
815.10220145738128
 30
0.0
 11
479.97838230054339
 21
814.60402287075101
 31
0.0
  0
LINE
  5
20473
  8
0
 10
481.6868507487477
 20
815.07427760708174
 30
0.0
 11
481.57813861279351
 21
814.57609902045135
 31
0.0
  0
LINE
  5
20474
  8
0
 10
480.8480793881775
 20
818.589451563794
 30
0.0
 11
480.7393672522233
 21
818.09127297716373
 31
0.0
  0
LINE
  5
20475
  8
0
 10
482.4478357004279
 20
818.56152771349446
 30
0.0
 11
482.33912356447348
 21
818.06334912686395
 31
0.0
  0
LINE
  5
20476
  8
0
 10
483.28660706099811
 20
815.04635375678208
 30
0.0
 11
483.17789492504392
 21
814.54817517015169
 31
0.0
  0
LINE
  5
20477
  8
0
 10
475.28782549974312
 20
815.1859730082806
 30
0.0
 11
475.17911336378819
 21
814.68779442165021
 31
0.0
  0
LINE
  5
20478
  8
0
 10
473.68806918748851
 20
815.21389685858037
 30
0.0
 11
473.57935705153369
 21
814.71571827194987
 31
0.0
  0
LINE
  5
20479
  8
0
 10
474.44905413917661
 20
818.70114696499286
 30
0.0
 11
474.34034200322191
 21
818.20296837836247
 31
0.0
  0
LINE
  5
2047A
  8
0
 10
470.48855656298798
 20
815.26974455917968
 30
0.0
 11
470.37984442703322
 21
814.7715659725493
 31
0.0
  0
LINE
  5
2047B
  8
0
 10
471.97960073928363
 20
814.74364212224975
 30
0.0
 11
471.24954151467199
 21
818.75699466559229
 31
0.0
  0
LINE
  5
2047C
  8
0
 10
471.24954151467199
 20
818.75699466559229
 30
0.0
 11
471.14082937871711
 21
818.25881607896201
 31
0.0
  0
LINE
  5
2047D
  8
0
 10
472.08831287523827
 20
815.24182070888025
 30
0.0
 11
471.97960073928363
 21
814.74364212224975
 31
0.0
  0
LINE
  5
2047E
  8
0
 10
472.84929782692211
 20
818.72907081529274
 30
0.0
 11
472.74058569096729
 21
818.23089222866224
 31
0.0
  0
LINE
  5
2047F
  8
0
 10
468.05002889016703
 20
818.81284236619183
 30
0.0
 11
467.94131675421278
 21
818.31466377956156
 31
0.0
  0
LINE
  5
20480
  8
0
 10
469.64978520242158
 20
818.78491851589206
 30
0.0
 11
469.54107306646682
 21
818.28673992926178
 31
0.0
  0
LINE
  5
20481
  8
0
 10
468.88880025073792
 20
815.29766840947934
 30
0.0
 11
468.78008811478293
 21
814.79948982284907
 31
0.0
  0
LINE
  5
20482
  8
0
 10
468.78008811478293
 20
814.79948982284907
 30
0.0
 11
468.05002889016703
 21
818.81284236619183
 31
0.0
  0
LINE
  5
20483
  8
0
 10
470.37984442703322
 20
814.7715659725493
 30
0.0
 11
469.64978520242158
 21
818.78491851589206
 31
0.0
  0
LINE
  5
20484
  8
0
 10
473.57935705153369
 20
814.71571827194987
 30
0.0
 11
472.84929782692211
 21
818.72907081529274
 31
0.0
  0
LINE
  5
20485
  8
0
 10
475.17911336378819
 20
814.68779442165021
 30
0.0
 11
474.44905413917661
 21
818.70114696499286
 31
0.0
  0
LINE
  5
20486
  8
0
 10
496.08465755901329
 20
814.82296295438414
 30
0.0
 11
495.97594542305848
 21
814.32478436775375
 31
0.0
  0
LINE
  5
20487
  8
0
 10
495.97594542305848
 20
814.32478436775375
 30
0.0
 11
495.2458861984469
 21
818.3381369110964
 31
0.0
  0
LINE
  5
20488
  8
0
 10
495.2458861984469
 20
818.3381369110964
 30
0.0
 11
495.13717406249219
 21
817.83995832446624
 31
0.0
  0
LINE
  5
20489
  8
0
 10
494.4849012467588
 20
814.85088680468391
 30
0.0
 11
494.37618911080398
 21
814.35270821805352
 31
0.0
  0
LINE
  5
2048A
  8
0
 10
492.88514493450418
 20
814.87881065498368
 30
0.0
 11
492.77643279854942
 21
814.38063206835318
 31
0.0
  0
LINE
  5
2048B
  8
0
 10
493.6461298861924
 20
818.36606076139617
 30
0.0
 11
493.53741775023752
 21
817.8678821747659
 31
0.0
  0
LINE
  5
2048C
  8
0
 10
492.04637357393779
 20
818.39398461169606
 30
0.0
 11
491.93766143798302
 21
817.89580602506567
 31
0.0
  0
LINE
  5
2048D
  8
0
 10
492.77643279854942
 20
814.38063206835318
 30
0.0
 11
492.04637357393779
 21
818.39398461169606
 31
0.0
  0
LINE
  5
2048E
  8
0
 10
494.37618911080398
 20
814.35270821805352
 30
0.0
 11
493.6461298861924
 21
818.36606076139617
 31
0.0
  0
LINE
  5
2048F
  8
0
 10
491.1766764862993
 20
814.40855591865295
 30
0.0
 11
490.44661726168761
 21
818.42190846199571
 31
0.0
  0
LINE
  5
20490
  8
0
 10
489.57692017404469
 20
814.43647976895284
 30
0.0
 11
488.84686094943311
 21
818.44983231229548
 31
0.0
  0
LINE
  5
20491
  8
0
 10
488.84686094943311
 20
818.44983231229548
 30
0.0
 11
488.73814881347829
 21
817.9516537256651
 31
0.0
  0
LINE
  5
20492
  8
0
 10
488.08587599774938
 20
814.96258220588277
 30
0.0
 11
487.97716386179451
 21
814.46440361925249
 31
0.0
  0
LINE
  5
20493
  8
0
 10
490.44661726168761
 20
818.42190846199571
 30
0.0
 11
490.3379051257329
 21
817.92372987536532
 31
0.0
  0
LINE
  5
20494
  8
0
 10
489.68563230999951
 20
814.93465835558322
 30
0.0
 11
489.57692017404469
 21
814.43647976895284
 31
0.0
  0
LINE
  5
20495
  8
0
 10
491.28538862225412
 20
814.90673450528345
 30
0.0
 11
491.1766764862993
 21
814.40855591865295
 31
0.0
  0
LINE
  5
20496
  8
0
 10
498.5406391523079
 20
812.27966627311423
 30
0.0
 11
498.68027701533038
 21
820.27844750949987
 31
0.0
  0
TEXT
  5
20497
  8
1DIM
 10
317.7442893947358
 20
685.26378225044425
 30
0.0
 40
10.5
  1
材質：ABS樹脂
  0
SOLID
  5
20498
  8
1DIM
 10
463.87132855228413
 20
753.688112894097
 30
0.0
 11
468.05396135656201
 21
758.10462541242839
 31
0.0
 12
465.52979925035248
 22
752.57031374234919
 32
0.0
 13
465.52979925035248
 23
752.57031374234919
 33
0.0
1001
ACAD
1000
DSTYLE
1002
{
1070
    40
1040
3.0
1002
}
  0
TEXT
  5
2049A
  8
1DIM
 10
310.30973968715529
 20
798.9211071691152
 30
0.0
 40
10.5
  1
皿タッピン\U+03C64x50
  0
SOLID
  5
2049B
  8
1DIM
 10
454.33184870557579
 20
813.34374918909714
 30
0.0
 11
459.90692565492373
 21
815.7765494293244
 31
0.0
 12
455.42222051047912
 22
811.66711884013171
 32
0.0
 13
455.42222051047912
 23
811.66711884013171
 33
0.0
1001
ACAD
1000
DSTYLE
1002
{
1070
    40
1040
3.0
1002
}
  0
LINE
  5
2049D
  8
1DIM
 10
806.04446575588554
 20
773.2954777471308
 30
0.0
 11
910.20784213195907
 21
773.2954777471308
 31
0.0
  0
LINE
  5
2049E
  8
1DIM
 10
805.74921034981935
 20
873.29547774845503
 30
0.0
 11
910.20784213195907
 21
873.29547774845503
 31
0.0
  0
LINE
  5
2049F
  8
1DIM
 10
907.20784213195896
 20
779.29547774713092
 30
0.0
 11
907.20784213195896
 21
867.29547774845526
 31
0.0
  0
LINE
  5
204A3
  8
1DIM
 10
806.04446575588554
 20
773.2954777471308
 30
0.0
 11
840.78785389930533
 21
773.2954777471308
 31
0.0
  0
LINE
  5
204A4
  8
1DIM
 10
776.04446575588554
 20
843.29547774713092
 30
0.0
 11
840.78785389930533
 21
843.29547774713092
 31
0.0
  0
LINE
  5
204A5
  8
1DIM
 10
837.78785389930511
 20
779.29547774713092
 30
0.0
 11
837.78785389930511
 21
837.2954777471308
 31
0.0
  0
TEXT
  5
204A9
  8
1DIM
 10
380.33981968953151
 20
715.44631565405905
 30
0.0
 40
10.5
  1
壁面
  0
SOLID
  5
204AA
  8
1DIM
 10
447.76557199540969
 20
768.91442838206626
 30
0.0
 11
451.98533578610522
 21
773.29547774845514
 31
0.0
 12
449.41454821103292
 22
767.78266982110495
 32
0.0
 13
449.41454821103292
 23
767.78266982110495
 33
0.0
1001
ACAD
1000
DSTYLE
1002
{
1070
    40
1040
3.0
1002
}
  0
LINE
  5
204AC
  8
1DIM
 10
471.84450142660938
 20
736.29549238224115
 30
0.0
 11
402.62120892961002
 21
736.29549238224115
 31
0.0
  0
LINE
  5
204AD
  8
1DIM
 10
426.04446575588599
 20
773.29547774845514
 30
0.0
 11
402.62120892961002
 21
773.29547774845514
 31
0.0
  0
LINE
  5
204AE
  8
1DIM
 10
405.62120892961002
 20
742.29549238224126
 30
0.0
 11
405.62120892961002
 21
767.29547774845514
 31
0.0
  0
LINE
  5
204B2
  8
1DIM
 10
756.04446575588554
 20
773.29547774845651
 30
0.0
 11
756.04446575588554
 21
702.56494088379532
 31
0.0
  0
LINE
  5
204B3
  8
1DIM
 10
776.04446575588554
 20
782.79547774713092
 30
0.0
 11
776.04446575588554
 21
702.56494088379532
 31
0.0
  0
LINE
  5
204B4
  8
1DIM
 10
762.04446575588554
 20
705.56494088379532
 30
0.0
 11
770.04446575588554
 21
705.56494088379532
 31
0.0
  0
LINE
  5
204B5
  8
1DIM
 10
776.04446575588554
 20
705.56494088379532
 30
0.0
 11
876.94446575588574
 21
705.56494088379532
 31
0.0
  0
LINE
  5
204B9
  8
1DIM
 10
771.04446574008978
 20
773.29547774845651
 30
0.0
 11
866.72678874201176
 21
773.29547774845651
 31
0.0
  0
LINE
  5
204BA
  8
1DIM
 10
739.07173874672162
 20
869.29547781808049
 30
0.0
 11
866.72678874201176
 21
869.29547781808049
 31
0.0
  0
LINE
  5
204BB
  8
1DIM
 10
863.72678874201188
 20
779.29547774845651
 30
0.0
 11
863.72678874201188
 21
863.29547781808037
 31
0.0
  0
LINE
  5
204BF
  8
1DIM
 10
476.04446575588548
 20
773.29547774845514
 30
0.0
 11
476.04446575588548
 21
702.56494088379532
 31
0.0
  0
LINE
  5
204C0
  8
1DIM
 10
756.04446575588554
 20
773.2954777471308
 30
0.0
 11
756.04446575588554
 21
702.56494088379532
 31
0.0
  0
LINE
  5
204C1
  8
1DIM
 10
482.04446575588548
 20
705.56494088379532
 30
0.0
 11
750.04446575588554
 21
705.56494088379532
 31
0.0
  0
LINE
  5
204C5
  8
1DIM
 10
219.7242406691507
 20
119.7511261643337
 30
0.0
 11
219.7242406691507
 21
169.1778979416506
 31
0.0
  0
LINE
  5
204C6
  8
1DIM
 10
224.7242406691507
 20
119.7511261643328
 30
0.0
 11
224.7242406691507
 21
169.1778979416506
 31
0.0
  0
LINE
  5
204C7
  8
1DIM
 10
213.7242406691507
 20
166.1778979416506
 30
0.0
 11
207.7242406691507
 21
166.1778979416506
 31
0.0
  0
LINE
  5
204C8
  8
1DIM
 10
230.7242406691507
 20
166.1778979416506
 30
0.0
 11
254.42424066915069
 21
166.1778979416506
 31
0.0
  0
LINE
  5
204C9
  8
1DIM
 10
219.7242406691507
 20
166.1778979416506
 30
0.0
 11
224.7242406691507
 21
166.1778979416506
 31
0.0
  0
LINE
  5
204CD
  8
1DIM
 10
167.01978016141899
 20
120.7511261643337
 30
0.0
 11
200.50820793931459
 21
120.7511261643337
 31
0.0
  0
LINE
  5
204CE
  8
1DIM
 10
167.0197801614199
 20
5.7511261643337539
 30
0.0
 11
200.50820793931459
 21
5.751126164333745
 31
0.0
  0
LINE
  5
204CF
  8
1DIM
 10
197.50820793931459
 20
114.7511261643337
 30
0.0
 11
197.50820793931459
 21
11.751126164333741
 31
0.0
  0
LINE
  5
204D3
  8
1DIM
 10
-72.980219838580055
 20
117.7511261643337
 30
0.0
 11
-72.980219838580055
 21
169.64816892797691
 31
0.0
  0
LINE
  5
204D4
  8
1DIM
 10
175.0197801614199
 20
117.7511261643337
 30
0.0
 11
175.0197801614199
 21
169.64816892797691
 31
0.0
  0
LINE
  5
204D5
  8
1DIM
 10
-66.980219838580069
 20
166.64816892797691
 30
0.0
 11
169.0197801614199
 21
166.64816892797691
 31
0.0
  0
TEXT
  5
204D9
  8
1DIM
 10
842.55164909040741
 20
176.33854119537429
 30
0.0
 40
10.5
  1
可動棚取付位置
  0
SOLID
  5
204DA
  8
1DIM
 10
818.27349232075539
 20
164.5273788173414
 30
0.0
 11
812.50421042243477
 21
162.59984506206979
 31
0.0
 12
817.33649316237961
 22
166.29430625705231
 32
0.0
 13
817.33649316237961
 23
166.29430625705231
 33
0.0
1001
ACAD
1000
DSTYLE
1002
{
1070
    40
1040
3.0
1002
}
  0
LINE
  5
204DC
  8
1DIM
 10
745.53711038335177
 20
100.4584521814956
 30
0.0
 11
806.77294196990943
 21
100.4584521814956
 31
0.0
  0
LINE
  5
204DD
  8
1DIM
 10
745.53711038335177
 20
230.42431834828969
 30
0.0
 11
806.77294196990943
 21
230.42431834828969
 31
0.0
  0
LINE
  5
204DE
  8
1DIM
 10
803.77294196990931
 20
106.4584521814956
 30
0.0
 11
803.77294196990931
 21
224.42431834828969
 31
0.0
  0
LINE
  5
204E2
  8
1DIM
 10
745.53711038334723
 20
-297.53344171380718
 30
0.0
 11
808.94921011907161
 21
-297.53344171380718
 31
0.0
  0
LINE
  5
204E3
  8
1DIM
 10
745.53711038335177
 20
-159.57568165171071
 30
0.0
 11
808.94921011907172
 21
-159.57568165171071
 31
0.0
  0
LINE
  5
204E4
  8
1DIM
 10
805.94921011907161
 20
-291.53344171380718
 30
0.0
 11
805.94921011907161
 21
-165.57568165171071
 31
0.0
  0
SOLID
  5
204E8
  8
1DIM
 10
534.25636202944258
 20
-23.82648592489295
 30
0.0
 11
536.33916484107704
 21
-29.541547818507748
 31
0.0
 12
532.51541237808829
 22
-24.810911803996781
 32
0.0
 13
532.51541237808829
 23
-24.810911803996781
 33
0.0
1001
ACAD
1000
DSTYLE
1002
{
1070
    40
1040
3.0
1002
}
  0
LINE
  5
204EA
  8
1DIM
 10
745.53711038335177
 20
-35.540000542590633
 30
0.0
 11
835.55685998753097
 21
-35.540000542590661
 31
0.0
  0
LINE
  5
204EB
  8
1DIM
 10
745.53711038334723
 20
-297.53344171380718
 30
0.0
 11
835.55685998753097
 21
-297.53344171380718
 31
0.0
  0
LINE
  5
204EC
  8
1DIM
 10
832.55685998753097
 20
-41.540000542590661
 30
0.0
 11
832.55685998753086
 21
-291.53344171380718
 31
0.0
  0
LINE
  5
204F0
  8
1DIM
 10
745.53711038335177
 20
100.4584521814956
 30
0.0
 11
835.40540389921057
 21
100.4584521814956
 31
0.0
  0
LINE
  5
204F1
  8
1DIM
 10
745.53711038335177
 20
362.4518933527138
 30
0.0
 11
835.4054038992108
 21
362.4518933527138
 31
0.0
  0
LINE
  5
204F2
  8
1DIM
 10
832.40540389921068
 20
106.4584521814956
 30
0.0
 11
832.40540389921068
 21
356.4518933527138
 31
0.0
  0
LINE
  5
204F6
  8
1DIM
 10
499.5517753492154
 20
-297.53344171380809
 30
0.0
 11
499.5517753492154
 21
-378.1097955079606
 31
0.0
  0
LINE
  5
204F7
  8
1DIM
 10
745.53711038335177
 20
-297.53344171380718
 30
0.0
 11
745.53711038335177
 21
-378.1097955079606
 31
0.0
  0
LINE
  5
204F8
  8
1DIM
 10
505.5517753492154
 20
-375.1097955079606
 30
0.0
 11
739.53711038335166
 21
-375.1097955079606
 31
0.0
  0
LINE
  5
204FC
  8
1HATCH
 10
1191.504286391129
 20
-299.5677273686465
 30
0.0
 11
1191.504286391129
 21
-378.1097955079606
 31
0.0
  0
LINE
  5
204FD
  8
1HATCH
 10
1070.969381573608
 20
-323.71056796007161
 30
0.0
 11
1070.969381573608
 21
-378.1097955079606
 31
0.0
  0
LINE
  5
204FE
  8
1HATCH
 10
1185.504286391129
 20
-375.1097955079606
 30
0.0
 11
1076.969381573608
 21
-375.1097955079606
 31
0.0
  0
TEXT
  5
20502
  8
1DIM
 10
345.65751918667331
 20
144.42345056419501
 30
0.0
 40
10.5
  1
一体成形固定棚
  0
SOLID
  5
20503
  8
1DIM
 10
530.12615372620598
 20
103.77214864877941
 30
0.0
 11
535.22707675274876
 21
100.4584521814961
 31
0.0
 12
529.32716692744089
 22
101.9386765068043
 32
0.0
 13
529.32716692744089
 23
101.9386765068043
 33
0.0
1001
ACAD
1000
DSTYLE
1002
{
1070
    40
1040
3.0
1002
}
  0
TEXT
  5
20505
  8
1DIM
 10
773.57201022734569
 20
457.24221240550418
 30
0.0
 40
10.5
  1
材質：ステンレス
  0
TEXT
  5
20506
  8
1DIM
 10
773.57201022734569
 20
439.74221240550418
 30
0.0
 40
10.5
  1
仕上げ：鏡面
  0
SOLID
  5
20507
  8
1DIM
 10
736.80039330697218
 20
394.85513031066131
 30
0.0
 11
732.54444286631895
 21
390.50922581945321
 31
0.0
 12
735.16085939411266
 22
396.00052480540251
 32
0.0
 13
735.16085939411266
 23
396.00052480540251
 33
0.0
1001
ACAD
1000
DSTYLE
1002
{
1070
    40
1040
3.0
1002
}
  0
LINE
  5
20509
  8
1DIM
 10
745.53711038335177
 20
-29.541547818507748
 30
0.0
 11
835.55685998753097
 21
-29.54154781850778
 31
0.0
  0
LINE
  5
2050A
  8
1DIM
 10
745.53711038334541
 20
94.459999457413005
 30
0.0
 11
835.55685998753097
 21
94.459999457412991
 31
0.0
  0
LINE
  5
2050B
  8
1DIM
 10
832.55685998753086
 20
-23.54154781850777
 30
0.0
 11
832.55685998753086
 21
88.459999457412991
 31
0.0
  0
TEXT
  5
2050F
  8
1DIM
 10
307.05511893602761
 20
-160.19694999777761
 30
0.0
 40
10.5
  1
材質：ガラス
  0
TEXT
  5
20510
  8
1DIM
 10
307.05511893602761
 20
-177.69694999777761
 30
0.0
 40
10.5
  1
仕上げ：各種仕上げ
  0
SOLID
  5
20511
  8
1DIM
 10
561.67028422910516
 20
-112.0529415060054
 30
0.0
 11
567.49791173993515
 21
-110.30973824906231
 31
0.0
 12
562.55065434005053
 22
-113.8487556577912
 32
0.0
 13
562.55065434005053
 23
-113.8487556577912
 33
0.0
1001
ACAD
1000
DSTYLE
1002
{
1070
    40
1040
3.0
1002
}
  0
TEXT
  5
20513
  8
1DIM
 10
1234.9122912211001
 20
294.12489634650427
 30
0.0
 40
10.5
  1
取付けねじ位置（6ヶ所）
  0
SOLID
  5
20514
  8
1DIM
 10
1153.482674429986
 20
266.96243881118397
 30
0.0
 11
1147.469381632103
 21
266.04575471787962
 31
0.0
 12
1152.8603286268669
 22
268.86314544329213
 32
0.0
 13
1152.8603286268669
 23
268.86314544329213
 33
0.0
1001
ACAD
1000
DSTYLE
1002
{
1070
    40
1040
3.0
1002
}
  0
LINE
  5
20516
  8
1DIM
 10
1195.9693817332859
 20
360.40865171977612
 30
0.0
 11
1195.9693817332859
 21
465.4877287473405
 31
0.0
  0
LINE
  5
20517
  8
1DIM
 10
1060.8693840652579
 20
389.37166312456162
 30
0.0
 11
1060.8693840652579
 21
465.4877287473405
 31
0.0
  0
LINE
  5
20518
  8
1DIM
 10
1189.9693817332859
 20
462.48772874734038
 30
0.0
 11
1066.8693840652579
 21
462.48772874734038
 31
0.0
  0
LINE
  5
2051C
  8
1DIM
 10
1099.969366060687
 20
422.45924102942303
 30
0.0
 11
1099.969366060687
 21
445.39233859256768
 31
0.0
  0
LINE
  5
2051D
  8
1DIM
 10
1060.8693840652579
 20
389.37166312456162
 30
0.0
 11
1060.8693840652579
 21
445.39233859256768
 31
0.0
  0
LINE
  5
2051E
  8
1DIM
 10
1093.969366060687
 20
442.39233859256768
 30
0.0
 11
1066.8693840652579
 21
442.39233859256768
 31
0.0
  0
LINE
  5
20522
  8
1DIM
 10
1099.969366060687
 20
372.45924102942308
 30
0.0
 11
1013.57153953741
 21
372.45924102942308
 31
0.0
  0
LINE
  5
20523
  8
1DIM
 10
1099.9693809224241
 20
-307.54075897057669
 30
0.0
 11
1013.571539537409
 21
-307.54075897057669
 31
0.0
  0
LINE
  5
20524
  8
1DIM
 10
1016.571539537409
 20
366.45924102942308
 30
0.0
 11
1016.571539537409
 21
-301.54075897057669
 31
0.0
  0
LINE
  5
20528
  8
1DIM
 10
491.54444288247981
 20
394.45922581945302
 30
0.0
 11
441.8577636566248
 21
394.45922581945302
 31
0.0
  0
LINE
  5
20529
  8
1DIM
 10
491.54444288247981
 20
-329.54077418054732
 30
0.0
 11
441.85776365662463
 21
-329.54077418054732
 31
0.0
  0
LINE
  5
2052A
  8
1DIM
 10
444.8577636566248
 20
388.45922581945302
 30
0.0
 11
444.85776365662468
 21
-323.5407741805472
 31
0.0
  0
LINE
  5
2052E
  8
1DIM
 10
465.54444288247981
 20
368.45922580400338
 30
0.0
 11
465.54444288247981
 21
420.46169855878031
 31
0.0
  0
LINE
  5
2052F
  8
1DIM
 10
779.54444285008719
 20
368.45922580400338
 30
0.0
 11
779.54444285008719
 21
420.46169855878031
 31
0.0
  0
LINE
  5
20530
  8
1DIM
 10
471.54444288247981
 20
417.46169855878043
 30
0.0
 11
773.54444285008731
 21
417.46169855878043
 31
0.0
  0
TEXT
  5
20534
  8
1DIM
 10
610.29444286628348
 20
419.56169855878039
 30
0.0
 40
10.5
  1
314
  0
LINE
  5
20535
  8
0
  6
BYBLOCK
 10
773.54444285008731
 20
419.0693936987804
 30
0.0
 11
779.54444285008719
 21
417.46169855878043
 31
0.0
  0
LINE
  5
20536
  8
0
  6
BYBLOCK
 10
779.54444285008719
 20
417.46169855878043
 30
0.0
 11
773.54444285008731
 21
415.85400341878039
 31
0.0
  0
LINE
  5
20537
  8
0
  6
BYBLOCK
 10
779.54444285008719
 20
417.46169855878043
 30
0.0
 11
773.54444285008731
 21
417.46169855878043
 31
0.0
  0
LINE
  5
20538
  8
0
  6
BYBLOCK
 10
471.54444288247981
 20
415.85400341878039
 30
0.0
 11
465.54444288247981
 21
417.46169855878043
 31
0.0
  0
LINE
  5
20539
  8
0
  6
BYBLOCK
 10
465.54444288247981
 20
417.46169855878043
 30
0.0
 11
471.54444288247981
 21
419.0693936987804
 31
0.0
  0
LINE
  5
2053A
  8
0
  6
BYBLOCK
 10
465.54444288247981
 20
417.46169855878043
 30
0.0
 11
471.54444288247981
 21
417.46169855878043
 31
0.0
  0
TEXT
  5
2053B
  8
1DIM
 10
442.75776365662472
 20
18.459225819452939
 30
0.0
 40
10.5
  1
724
 50
90.0
  0
LINE
  5
2053C
  8
0
  6
BYBLOCK
 10
446.4654587966246
 20
-323.5407741805472
 30
0.0
 11
444.85776365662468
 21
-329.54077418054732
 31
0.0
  0
LINE
  5
2053D
  8
0
  6
BYBLOCK
 10
444.85776365662468
 20
-329.54077418054732
 30
0.0
 11
443.25006851662471
 21
-323.5407741805472
 31
0.0
  0
LINE
  5
2053E
  8
0
  6
BYBLOCK
 10
444.85776365662468
 20
-329.54077418054732
 30
0.0
 11
444.85776365662468
 21
-323.5407741805472
 31
0.0
  0
LINE
  5
2053F
  8
0
  6
BYBLOCK
 10
443.25006851662488
 20
388.45922581945302
 30
0.0
 11
444.8577636566248
 21
394.45922581945302
 31
0.0
  0
LINE
  5
20540
  8
0
  6
BYBLOCK
 10
444.8577636566248
 20
394.45922581945302
 30
0.0
 11
446.46545879662477
 21
388.45922581945302
 31
0.0
  0
LINE
  5
20541
  8
0
  6
BYBLOCK
 10
444.8577636566248
 20
394.45922581945302
 30
0.0
 11
444.8577636566248
 21
388.45922581945302
 31
0.0
  0
TEXT
  5
20542
  8
1DIM
 10
1011.173489537409
 20
-23.521508970576679
 30
0.0
 40
10.5
  1
開口高さ　680 
 50
90.0
  0
TEXT
  5
20543
  8
1DIM
 10
1004.702339537409
 20
75.528491029423307
 30
0.0
 40
7.3269000000000011
  1
+3
 50
90.0
  0
TEXT
  5
20544
  8
1DIM
 10
1014.4715395374089
 20
75.528491029423307
 30
0.0
 40
7.3269000000000011
  1
-2
 50
90.0
  0
LINE
  5
20545
  8
0
  6
BYBLOCK
 10
1018.179234677409
 20
-301.54075897057669
 30
0.0
 11
1016.571539537409
 21
-307.54075897057669
 31
0.0
  0
LINE
  5
20546
  8
0
  6
BYBLOCK
 10
1016.571539537409
 20
-307.54075897057669
 30
0.0
 11
1014.963844397409
 21
-301.54075897057669
 31
0.0
  0
LINE
  5
20547
  8
0
  6
BYBLOCK
 10
1016.571539537409
 20
-307.54075897057669
 30
0.0
 11
1016.571539537409
 21
-301.54075897057669
 31
0.0
  0
LINE
  5
20548
  8
0
  6
BYBLOCK
 10
1014.963844397409
 20
366.45924102942308
 30
0.0
 11
1016.571539537409
 21
372.45924102942308
 31
0.0
  0
LINE
  5
20549
  8
0
  6
BYBLOCK
 10
1016.571539537409
 20
372.45924102942308
 30
0.0
 11
1018.179234677409
 21
366.45924102942308
 31
0.0
  0
LINE
  5
2054A
  8
0
  6
BYBLOCK
 10
1016.571539537409
 20
372.45924102942308
 30
0.0
 11
1016.571539537409
 21
366.45924102942308
 31
0.0
  0
TEXT
  5
2054B
  8
1DIM
 10
1071.669375062972
 20
444.49233859256771
 30
0.0
 40
10.5
  1
39
  0
LINE
  5
2054C
  8
0
  6
BYBLOCK
 10
1066.8693840652579
 20
440.78464345256771
 30
0.0
 11
1060.8693840652579
 21
442.39233859256768
 31
0.0
  0
LINE
  5
2054D
  8
0
  6
BYBLOCK
 10
1060.8693840652579
 20
442.39233859256768
 30
0.0
 11
1066.8693840652579
 21
444.00003373256772
 31
0.0
  0
LINE
  5
2054E
  8
0
  6
BYBLOCK
 10
1060.8693840652579
 20
442.39233859256768
 30
0.0
 11
1066.8693840652579
 21
442.39233859256768
 31
0.0
  0
LINE
  5
2054F
  8
0
  6
BYBLOCK
 10
1093.969366060687
 20
444.00003373256772
 30
0.0
 11
1099.969366060687
 21
442.39233859256768
 31
0.0
  0
LINE
  5
20550
  8
0
  6
BYBLOCK
 10
1099.969366060687
 20
442.39233859256768
 30
0.0
 11
1093.969366060687
 21
440.78464345256771
 31
0.0
  0
LINE
  5
20551
  8
0
  6
BYBLOCK
 10
1099.969366060687
 20
442.39233859256768
 30
0.0
 11
1093.969366060687
 21
442.39233859256768
 31
0.0
  0
TEXT
  5
20552
  8
1DIM
 10
1117.7193815763469
 20
464.58772874734052
 30
0.0
 40
10.5
  1
135
  0
LINE
  5
20553
  8
0
  6
BYBLOCK
 10
1066.8693840652579
 20
460.88003360734052
 30
0.0
 11
1060.8693840652579
 21
462.48772874734038
 31
0.0
  0
LINE
  5
20554
  8
0
  6
BYBLOCK
 10
1060.8693840652579
 20
462.48772874734038
 30
0.0
 11
1066.8693840652579
 21
464.09542388734042
 31
0.0
  0
LINE
  5
20555
  8
0
  6
BYBLOCK
 10
1060.8693840652579
 20
462.48772874734038
 30
0.0
 11
1066.8693840652579
 21
462.48772874734038
 31
0.0
  0
LINE
  5
20556
  8
0
  6
BYBLOCK
 10
1189.9693817332859
 20
464.09542388734042
 30
0.0
 11
1195.9693817332859
 21
462.48772874734038
 31
0.0
  0
LINE
  5
20557
  8
0
  6
BYBLOCK
 10
1195.9693817332859
 20
462.48772874734038
 30
0.0
 11
1189.9693817332859
 21
460.88003360734052
 31
0.0
  0
LINE
  5
20558
  8
0
  6
BYBLOCK
 10
1195.9693817332859
 20
462.48772874734038
 30
0.0
 11
1189.9693817332859
 21
462.48772874734038
 31
0.0
  0
LINE
  5
20559
  8
1DIM
 10
1153.1715015284269
 20
267.91279212723811
 30
0.0
 11
1226.8122912210999
 21
292.02489634650419
 31
0.0
1001
ACAD
1000
DSTYLE
1002
{
1070
    40
1040
3.0
1002
}
  0
LINE
  5
2055A
  8
1DIM
 10
1226.8122912210999
 20
292.02489634650419
 30
0.0
 11
1234.9122912210989
 21
292.02489634650419
 31
0.0
1001
ACAD
1000
DSTYLE
1002
{
1070
    40
1040
3.0
1002
}
  0
LINE
  5
2055B
  8
1DIM
 10
562.11046928457779
 20
-112.9508485818983
 30
0.0
 11
425.75511893602737
 21
-179.79694999777749
 31
0.0
1001
ACAD
1000
DSTYLE
1002
{
1070
    40
1040
3.0
1002
}
  0
LINE
  5
2055C
  8
1DIM
 10
425.75511893602737
 20
-179.79694999777749
 30
0.0
 11
417.65511893602741
 21
-179.79694999777749
 31
0.0
1001
ACAD
1000
DSTYLE
1002
{
1070
    40
1040
3.0
1002
}
  0
TEXT
  5
2055D
  8
1DIM
 10
830.45685998753095
 20
20.209225819452751
 30
0.0
 40
10.5
  1
124
 50
90.0
  0
LINE
  5
2055E
  8
0
  6
BYBLOCK
 10
830.94916484753105
 20
88.459999457412991
 30
0.0
 11
832.55685998753086
 21
94.459999457412991
 31
0.0
  0
LINE
  5
2055F
  8
0
  6
BYBLOCK
 10
832.55685998753086
 20
94.459999457412991
 30
0.0
 11
834.16455512753089
 21
88.459999457412991
 31
0.0
  0
LINE
  5
20560
  8
0
  6
BYBLOCK
 10
832.55685998753086
 20
94.459999457412991
 30
0.0
 11
832.55685998753086
 21
88.459999457412991
 31
0.0
  0
LINE
  5
20561
  8
0
  6
BYBLOCK
 10
834.16455512753089
 20
-23.54154781850777
 30
0.0
 11
832.55685998753086
 21
-29.54154781850777
 31
0.0
  0
LINE
  5
20562
  8
0
  6
BYBLOCK
 10
832.55685998753086
 20
-29.54154781850777
 30
0.0
 11
830.94916484753105
 21
-23.54154781850777
 31
0.0
  0
LINE
  5
20563
  8
0
  6
BYBLOCK
 10
832.55685998753086
 20
-29.54154781850777
 30
0.0
 11
832.55685998753086
 21
-23.54154781850777
 31
0.0
  0
LINE
  5
20564
  8
1DIM
 10
735.98062635054248
 20
395.42782755803188
 30
0.0
 11
765.47201022734589
 21
437.64221240550432
 31
0.0
1001
ACAD
1000
DSTYLE
1002
{
1070
    40
1040
3.0
1002
}
  0
LINE
  5
20565
  8
1DIM
 10
765.47201022734589
 20
437.64221240550432
 30
0.0
 11
773.57201022734591
 21
437.64221240550432
 31
0.0
1001
ACAD
1000
DSTYLE
1002
{
1070
    40
1040
3.0
1002
}
  0
LINE
  5
20566
  8
1DIM
 10
529.72666032682343
 20
102.8554125777918
 30
0.0
 11
439.15751918667308
 21
142.3234505641951
 31
0.0
1001
ACAD
1000
DSTYLE
1002
{
1070
    40
1040
3.0
1002
}
  0
LINE
  5
20567
  8
1DIM
 10
439.15751918667308
 20
142.3234505641951
 30
0.0
 11
431.05751918667312
 21
142.3234505641951
 31
0.0
1001
ACAD
1000
DSTYLE
1002
{
1070
    40
1040
3.0
1002
}
  0
TEXT
  5
20568
  8
1HATCH
 10
1087.661833982369
 20
-373.00979550796058
 30
0.0
 40
10.5
  1
有効内寸120.5
  0
LINE
  5
20569
  8
0
  6
BYBLOCK
 10
1076.969381573608
 20
-376.71749064796057
 30
0.0
 11
1070.969381573608
 21
-375.1097955079606
 31
0.0
  0
LINE
  5
2056A
  8
0
  6
BYBLOCK
 10
1070.969381573608
 20
-375.1097955079606
 30
0.0
 11
1076.969381573608
 21
-373.50210036796062
 31
0.0
  0
LINE
  5
2056B
  8
0
  6
BYBLOCK
 10
1070.969381573608
 20
-375.1097955079606
 30
0.0
 11
1076.969381573608
 21
-375.1097955079606
 31
0.0
  0
LINE
  5
2056C
  8
0
  6
BYBLOCK
 10
1185.504286391129
 20
-373.50210036796062
 30
0.0
 11
1191.504286391129
 21
-375.1097955079606
 31
0.0
  0
LINE
  5
2056D
  8
0
  6
BYBLOCK
 10
1191.504286391129
 20
-375.1097955079606
 30
0.0
 11
1185.504286391129
 21
-376.71749064796057
 31
0.0
  0
LINE
  5
2056E
  8
0
  6
BYBLOCK
 10
1191.504286391129
 20
-375.1097955079606
 30
0.0
 11
1185.504286391129
 21
-375.1097955079606
 31
0.0
  0
TEXT
  5
2056F
  8
1DIM
 10
583.34444286628354
 20
-373.00979550796058
 30
0.0
 40
10.5
  1
有効内寸246
  0
LINE
  5
20570
  8
0
  6
BYBLOCK
 10
739.53711038335166
 20
-373.50210036796062
 30
0.0
 11
745.53711038335177
 21
-375.1097955079606
 31
0.0
  0
LINE
  5
20571
  8
0
  6
BYBLOCK
 10
745.53711038335177
 20
-375.1097955079606
 30
0.0
 11
739.53711038335166
 21
-376.71749064796057
 31
0.0
  0
LINE
  5
20572
  8
0
  6
BYBLOCK
 10
745.53711038335177
 20
-375.1097955079606
 30
0.0
 11
739.53711038335166
 21
-375.1097955079606
 31
0.0
  0
LINE
  5
20573
  8
0
  6
BYBLOCK
 10
505.5517753492154
 20
-376.71749064796057
 30
0.0
 11
499.5517753492154
 21
-375.1097955079606
 31
0.0
  0
LINE
  5
20574
  8
0
  6
BYBLOCK
 10
499.5517753492154
 20
-375.1097955079606
 30
0.0
 11
505.5517753492154
 21
-373.50210036796062
 31
0.0
  0
LINE
  5
20575
  8
0
  6
BYBLOCK
 10
499.5517753492154
 20
-375.1097955079606
 30
0.0
 11
505.5517753492154
 21
-375.1097955079606
 31
0.0
  0
TEXT
  5
20576
  8
1DIM
 10
830.30540389921055
 20
217.45517276710481
 30
0.0
 40
10.5
  1
262
 50
90.0
  0
LINE
  5
20577
  8
0
  6
BYBLOCK
 10
830.79770875921065
 20
356.4518933527138
 30
0.0
 11
832.40540389921068
 21
362.4518933527138
 31
0.0
  0
LINE
  5
20578
  8
0
  6
BYBLOCK
 10
832.40540389921068
 20
362.4518933527138
 30
0.0
 11
834.01309903921083
 21
356.4518933527138
 31
0.0
  0
LINE
  5
20579
  8
0
  6
BYBLOCK
 10
832.40540389921068
 20
362.4518933527138
 30
0.0
 11
832.40540389921068
 21
356.4518933527138
 31
0.0
  0
LINE
  5
2057A
  8
0
  6
BYBLOCK
 10
834.01309903921083
 20
106.4584521814956
 30
0.0
 11
832.40540389921068
 21
100.4584521814956
 31
0.0
  0
LINE
  5
2057B
  8
0
  6
BYBLOCK
 10
832.40540389921068
 20
100.4584521814956
 30
0.0
 11
830.79770875921065
 21
106.4584521814956
 31
0.0
  0
LINE
  5
2057C
  8
0
  6
BYBLOCK
 10
832.40540389921068
 20
100.4584521814956
 30
0.0
 11
832.40540389921068
 21
106.4584521814956
 31
0.0
  0
TEXT
  5
2057D
  8
1DIM
 10
830.45685998753095
 20
-180.53672112819879
 30
0.0
 40
10.5
  1
262
 50
90.0
  0
LINE
  5
2057E
  8
0
  6
BYBLOCK
 10
834.16455512753089
 20
-291.53344171380718
 30
0.0
 11
832.55685998753086
 21
-297.53344171380718
 31
0.0
  0
LINE
  5
2057F
  8
0
  6
BYBLOCK
 10
832.55685998753086
 20
-297.53344171380718
 30
0.0
 11
830.94916484753105
 21
-291.53344171380718
 31
0.0
  0
LINE
  5
20580
  8
0
  6
BYBLOCK
 10
832.55685998753086
 20
-297.53344171380718
 30
0.0
 11
832.55685998753086
 21
-291.53344171380718
 31
0.0
  0
LINE
  5
20581
  8
0
  6
BYBLOCK
 10
830.94916484753105
 20
-41.540000542590661
 30
0.0
 11
832.55685998753097
 21
-35.540000542590661
 31
0.0
  0
LINE
  5
20582
  8
0
  6
BYBLOCK
 10
832.55685998753097
 20
-35.540000542590661
 30
0.0
 11
834.16455512753112
 21
-41.540000542590661
 31
0.0
  0
LINE
  5
20583
  8
0
  6
BYBLOCK
 10
832.55685998753097
 20
-35.540000542590661
 30
0.0
 11
832.55685998753097
 21
-41.540000542590661
 31
0.0
  0
LINE
  5
20584
  8
1DIM
 10
533.38588720376538
 20
-24.318698864444858
 30
0.0
 11
439.15751918667308
 21
142.3234505641951
 31
0.0
1001
ACAD
1000
DSTYLE
1002
{
1070
    40
1040
3.0
1002
}
  0
TEXT
  5
20585
  8
1DIM
 10
803.8492101190717
 20
-242.79216858159799
 30
0.0
 40
10.5
  1
138
 50
90.0
  0
LINE
  5
20586
  8
0
  6
BYBLOCK
 10
804.34151497907158
 20
-165.57568165171071
 30
0.0
 11
805.94921011907161
 21
-159.57568165171071
 31
0.0
  0
LINE
  5
20587
  8
0
  6
BYBLOCK
 10
805.94921011907161
 20
-159.57568165171071
 30
0.0
 11
807.55690525907175
 21
-165.57568165171071
 31
0.0
  0
LINE
  5
20588
  8
0
  6
BYBLOCK
 10
805.94921011907161
 20
-159.57568165171071
 30
0.0
 11
805.94921011907161
 21
-165.57568165171071
 31
0.0
  0
LINE
  5
20589
  8
0
  6
BYBLOCK
 10
807.55690525907175
 20
-291.53344171380718
 30
0.0
 11
805.94921011907161
 21
-297.53344171380718
 31
0.0
  0
LINE
  5
2058A
  8
0
  6
BYBLOCK
 10
805.94921011907161
 20
-297.53344171380718
 30
0.0
 11
804.34151497907158
 21
-291.53344171380718
 31
0.0
  0
LINE
  5
2058B
  8
0
  6
BYBLOCK
 10
805.94921011907161
 20
-297.53344171380718
 30
0.0
 11
805.94921011907161
 21
-291.53344171380718
 31
0.0
  0
TEXT
  5
2058C
  8
1DIM
 10
801.6729419699094
 20
150.0828314184011
 30
0.0
 40
10.5
  1
130
 50
90.0
  0
LINE
  5
2058D
  8
0
  6
BYBLOCK
 10
802.16524682990928
 20
224.42431834828969
 30
0.0
 11
803.77294196990931
 21
230.42431834828969
 31
0.0
  0
LINE
  5
2058E
  8
0
  6
BYBLOCK
 10
803.77294196990931
 20
230.42431834828969
 30
0.0
 11
805.38063710990934
 21
224.42431834828969
 31
0.0
  0
LINE
  5
2058F
  8
0
  6
BYBLOCK
 10
803.77294196990931
 20
230.42431834828969
 30
0.0
 11
803.77294196990931
 21
224.42431834828969
 31
0.0
  0
LINE
  5
20590
  8
0
  6
BYBLOCK
 10
805.38063710990934
 20
106.4584521814956
 30
0.0
 11
803.77294196990931
 21
100.4584521814956
 31
0.0
  0
LINE
  5
20591
  8
0
  6
BYBLOCK
 10
803.77294196990931
 20
100.4584521814956
 30
0.0
 11
802.16524682990928
 21
106.4584521814956
 31
0.0
  0
LINE
  5
20592
  8
0
  6
BYBLOCK
 10
803.77294196990931
 20
100.4584521814956
 30
0.0
 11
803.77294196990931
 21
106.4584521814956
 31
0.0
  0
LINE
  5
20593
  8
1DIM
 10
817.80499274156739
 20
165.41084253719691
 30
0.0
 11
834.45164909040727
 21
174.2385411953743
 31
0.0
1001
ACAD
1000
DSTYLE
1002
{
1070
    40
1040
3.0
1002
}
  0
LINE
  5
20594
  8
1DIM
 10
834.45164909040727
 20
174.2385411953743
 30
0.0
 11
842.55164909040741
 21
174.2385411953743
 31
0.0
1001
ACAD
1000
DSTYLE
1002
{
1070
    40
1040
3.0
1002
}
  0
TEXT
  5
20595
  8
1DIM
 10
37.019780161419483
 20
168.74816892797691
 30
0.0
 40
10.5
  1
248
  0
LINE
  5
20596
  8
0
  6
BYBLOCK
 10
169.0197801614199
 20
168.25586406797689
 30
0.0
 11
175.0197801614199
 21
166.64816892797691
 31
0.0
  0
LINE
  5
20597
  8
0
  6
BYBLOCK
 10
175.0197801614199
 20
166.64816892797691
 30
0.0
 11
169.0197801614199
 21
165.04047378797691
 31
0.0
  0
LINE
  5
20598
  8
0
  6
BYBLOCK
 10
175.0197801614199
 20
166.64816892797691
 30
0.0
 11
169.0197801614199
 21
166.64816892797691
 31
0.0
  0
LINE
  5
20599
  8
0
  6
BYBLOCK
 10
-66.980219838580069
 20
165.04047378797691
 30
0.0
 11
-72.980219838580055
 21
166.64816892797691
 31
0.0
  0
LINE
  5
2059A
  8
0
  6
BYBLOCK
 10
-72.980219838580055
 20
166.64816892797691
 30
0.0
 11
-66.980219838580069
 21
168.25586406797689
 31
0.0
  0
LINE
  5
2059B
  8
0
  6
BYBLOCK
 10
-72.980219838580055
 20
166.64816892797691
 30
0.0
 11
-66.980219838580069
 21
166.64816892797691
 31
0.0
  0
TEXT
  5
2059C
  8
1DIM
 10
195.40820793931459
 20
58.059266087320573
 30
0.0
 40
10.5
  1
115
 50
90.0
  0
LINE
  5
2059D
  8
0
  6
BYBLOCK
 10
199.11590307931459
 20
11.751126164333741
 30
0.0
 11
197.50820793931459
 21
5.7511261643337459
 31
0.0
  0
LINE
  5
2059E
  8
0
  6
BYBLOCK
 10
197.50820793931459
 20
5.7511261643337459
 30
0.0
 11
195.90051279931461
 21
11.751126164333741
 31
0.0
  0
LINE
  5
2059F
  8
0
  6
BYBLOCK
 10
197.50820793931459
 20
5.7511261643337459
 30
0.0
 11
197.50820793931459
 21
11.751126164333741
 31
0.0
  0
LINE
  5
205A0
  8
0
  6
BYBLOCK
 10
195.90051279931461
 20
114.7511261643337
 30
0.0
 11
197.50820793931459
 21
120.7511261643337
 31
0.0
  0
LINE
  5
205A1
  8
0
  6
BYBLOCK
 10
197.50820793931459
 20
120.7511261643337
 30
0.0
 11
199.11590307931459
 21
114.7511261643337
 31
0.0
  0
LINE
  5
205A2
  8
0
  6
BYBLOCK
 10
197.50820793931459
 20
120.7511261643337
 30
0.0
 11
197.50820793931459
 21
114.7511261643337
 31
0.0
  0
TEXT
  5
205A3
  8
1DIM
 10
236.8242406691507
 20
168.27789794165059
 30
0.0
 40
10.5
  1
t5
  0
LINE
  5
205A4
  8
0
  6
BYBLOCK
 10
230.7242406691507
 20
164.57020280165059
 30
0.0
 11
224.7242406691507
 21
166.1778979416506
 31
0.0
  0
LINE
  5
205A5
  8
0
  6
BYBLOCK
 10
224.7242406691507
 20
166.1778979416506
 30
0.0
 11
230.7242406691507
 21
167.7855930816506
 31
0.0
  0
LINE
  5
205A6
  8
0
  6
BYBLOCK
 10
224.7242406691507
 20
166.1778979416506
 30
0.0
 11
230.7242406691507
 21
166.1778979416506
 31
0.0
  0
LINE
  5
205A7
  8
0
  6
BYBLOCK
 10
213.7242406691507
 20
167.7855930816506
 30
0.0
 11
219.7242406691507
 21
166.1778979416506
 31
0.0
  0
LINE
  5
205A8
  8
0
  6
BYBLOCK
 10
219.7242406691507
 20
166.1778979416506
 30
0.0
 11
213.7242406691507
 21
164.57020280165059
 31
0.0
  0
LINE
  5
205A9
  8
0
  6
BYBLOCK
 10
219.7242406691507
 20
166.1778979416506
 30
0.0
 11
213.7242406691507
 21
166.1778979416506
 31
0.0
  0
TEXT
  5
205AA
  8
1DIM
 10
592.43330380791463
 20
710.98136588379532
 30
0.0
 40
10.5
  1
開口巾　280 
  0
TEXT
  5
205AB
  8
1DIM
 10
678.88330380791467
 20
717.45514088379525
 30
0.0
 40
7.3426499999999999
  1
+3
  0
TEXT
  5
205AC
  8
1DIM
 10
678.88330380791467
 20
707.66494088379534
 30
0.0
 40
7.3426499999999999
  1
  0
  0
LINE
  5
205AD
  8
0
  6
BYBLOCK
 10
750.04446575588554
 20
707.17263602379535
 30
0.0
 11
756.04446575588554
 21
705.56494088379532
 31
0.0
  0
LINE
  5
205AE
  8
0
  6
BYBLOCK
 10
756.04446575588554
 20
705.56494088379532
 30
0.0
 11
750.04446575588554
 21
703.95724574379528
 31
0.0
  0
LINE
  5
205AF
  8
0
  6
BYBLOCK
 10
756.04446575588554
 20
705.56494088379532
 30
0.0
 11
750.04446575588554
 21
705.56494088379532
 31
0.0
  0
LINE
  5
205B0
  8
0
  6
BYBLOCK
 10
482.04446575588548
 20
703.95724574379528
 30
0.0
 11
476.04446575588548
 21
705.56494088379532
 31
0.0
  0
LINE
  5
205B1
  8
0
  6
BYBLOCK
 10
476.04446575588548
 20
705.56494088379532
 30
0.0
 11
482.04446575588548
 21
707.17263602379535
 31
0.0
  0
LINE
  5
205B2
  8
0
  6
BYBLOCK
 10
476.04446575588548
 20
705.56494088379532
 30
0.0
 11
482.04446575588548
 21
705.56494088379532
 31
0.0
  0
TEXT
  5
205B3
  8
1DIM
 10
861.62678874201163
 20
812.54547774848061
 30
0.0
 40
10.5
  1
96
 50
90.0
  0
LINE
  5
205B4
  8
0
  6
BYBLOCK
 10
862.11909360201184
 20
863.29547781808037
 30
0.0
 11
863.72678874201188
 21
869.29547781808049
 31
0.0
  0
LINE
  5
205B5
  8
0
  6
BYBLOCK
 10
863.72678874201188
 20
869.29547781808049
 30
0.0
 11
865.33448388201191
 21
863.29547781808037
 31
0.0
  0
LINE
  5
205B6
  8
0
  6
BYBLOCK
 10
863.72678874201188
 20
869.29547781808049
 30
0.0
 11
863.72678874201188
 21
863.29547781808037
 31
0.0
  0
LINE
  5
205B7
  8
0
  6
BYBLOCK
 10
865.33448388201191
 20
779.29547774845651
 30
0.0
 11
863.72678874201188
 21
773.29547774845651
 31
0.0
  0
LINE
  5
205B8
  8
0
  6
BYBLOCK
 10
863.72678874201188
 20
773.29547774845651
 30
0.0
 11
862.11909360201184
 21
779.29547774845651
 31
0.0
  0
LINE
  5
205B9
  8
0
  6
BYBLOCK
 10
863.72678874201188
 20
773.29547774845651
 30
0.0
 11
863.72678874201188
 21
779.29547774845651
 31
0.0
  0
TEXT
  5
205BA
  8
1DIM
 10
786.61946575588559
 20
707.66494088379534
 30
0.0
 40
10.5
  1
縦桟　20 以上
  0
LINE
  5
205BB
  8
0
  6
BYBLOCK
 10
770.04446575588554
 20
707.17263602379535
 30
0.0
 11
776.04446575588554
 21
705.56494088379532
 31
0.0
  0
LINE
  5
205BC
  8
0
  6
BYBLOCK
 10
776.04446575588554
 20
705.56494088379532
 30
0.0
 11
770.04446575588554
 21
703.95724574379528
 31
0.0
  0
LINE
  5
205BD
  8
0
  6
BYBLOCK
 10
776.04446575588554
 20
705.56494088379532
 30
0.0
 11
770.04446575588554
 21
705.56494088379532
 31
0.0
  0
LINE
  5
205BE
  8
0
  6
BYBLOCK
 10
762.04446575588554
 20
703.95724574379528
 30
0.0
 11
756.04446575588554
 21
705.56494088379532
 31
0.0
  0
LINE
  5
205BF
  8
0
  6
BYBLOCK
 10
756.04446575588554
 20
705.56494088379532
 30
0.0
 11
762.04446575588554
 21
707.17263602379535
 31
0.0
  0
LINE
  5
205C0
  8
0
  6
BYBLOCK
 10
756.04446575588554
 20
705.56494088379532
 30
0.0
 11
762.04446575588554
 21
705.56494088379532
 31
0.0
  0
TEXT
  5
205C1
  8
1DIM
 10
403.52120892960983
 20
746.04548506534832
 30
0.0
 40
10.5
  1
37
 50
90.0
  0
LINE
  5
205C2
  8
0
  6
BYBLOCK
 10
404.01351378960999
 20
767.29547774845514
 30
0.0
 11
405.62120892961002
 21
773.29547774845514
 31
0.0
  0
LINE
  5
205C3
  8
0
  6
BYBLOCK
 10
405.62120892961002
 20
773.29547774845514
 30
0.0
 11
407.22890406961
 21
767.29547774845514
 31
0.0
  0
LINE
  5
205C4
  8
0
  6
BYBLOCK
 10
405.62120892961002
 20
773.29547774845514
 30
0.0
 11
405.62120892961002
 21
767.29547774845514
 31
0.0
  0
LINE
  5
205C5
  8
0
  6
BYBLOCK
 10
407.22890406961
 20
742.29549238224126
 30
0.0
 11
405.62120892961002
 21
736.29549238224115
 31
0.0
  0
LINE
  5
205C6
  8
0
  6
BYBLOCK
 10
405.62120892961002
 20
736.29549238224115
 30
0.0
 11
404.01351378960999
 21
742.29549238224126
 31
0.0
  0
LINE
  5
205C7
  8
0
  6
BYBLOCK
 10
405.62120892961002
 20
736.29549238224115
 30
0.0
 11
405.62120892961002
 21
742.29549238224126
 31
0.0
  0
LINE
  5
205C8
  8
1DIM
 10
448.59006010322128
 20
768.34854910158572
 30
0.0
 11
410.83981968953151
 21
713.34631565405914
 31
0.0
1001
ACAD
1000
DSTYLE
1002
{
1070
    40
1040
3.0
1002
}
  0
LINE
  5
205C9
  8
1DIM
 10
410.83981968953151
 20
713.34631565405914
 30
0.0
 11
402.73981968953137
 21
713.34631565405914
 31
0.0
1001
ACAD
1000
DSTYLE
1002
{
1070
    40
1040
3.0
1002
}
  0
TEXT
  5
205CA
  8
1DIM
 10
835.68785389930486
 20
784.32047774713078
 30
0.0
 40
10.5
  1
70 以上
 50
90.0
  0
LINE
  5
205CB
  8
0
  6
BYBLOCK
 10
836.18015875930507
 20
837.2954777471308
 30
0.0
 11
837.78785389930511
 21
843.29547774713092
 31
0.0
  0
LINE
  5
205CC
  8
0
  6
BYBLOCK
 10
837.78785389930511
 20
843.29547774713092
 30
0.0
 11
839.39554903930525
 21
837.2954777471308
 31
0.0
  0
LINE
  5
205CD
  8
0
  6
BYBLOCK
 10
837.78785389930511
 20
843.29547774713092
 30
0.0
 11
837.78785389930511
 21
837.2954777471308
 31
0.0
  0
LINE
  5
205CE
  8
0
  6
BYBLOCK
 10
839.39554903930525
 20
779.29547774713092
 30
0.0
 11
837.78785389930511
 21
773.2954777471308
 31
0.0
  0
LINE
  5
205CF
  8
0
  6
BYBLOCK
 10
837.78785389930511
 20
773.2954777471308
 30
0.0
 11
836.18015875930507
 21
779.29547774713092
 31
0.0
  0
LINE
  5
205D0
  8
0
  6
BYBLOCK
 10
837.78785389930511
 20
773.2954777471308
 30
0.0
 11
837.78785389930511
 21
779.29547774713092
 31
0.0
  0
TEXT
  5
205D1
  8
1DIM
 10
887.60784213195882
 20
774.89547774779317
 30
0.0
 40
10.5
  1
推奨掘り込み深さ
 50
90.0
  0
TEXT
  5
205D2
  8
1DIM
 10
905.10784213195871
 20
790.39547774779328
 30
0.0
 40
10.5
  1
　100 以上
 50
90.0
  0
LINE
  5
205D3
  8
0
  6
BYBLOCK
 10
905.60014699195915
 20
867.29547774845526
 30
0.0
 11
907.20784213195896
 21
873.29547774845503
 31
0.0
  0
LINE
  5
205D4
  8
0
  6
BYBLOCK
 10
907.20784213195896
 20
873.29547774845503
 30
0.0
 11
908.81553727195899
 21
867.29547774845526
 31
0.0
  0
LINE
  5
205D5
  8
0
  6
BYBLOCK
 10
907.20784213195896
 20
873.29547774845503
 30
0.0
 11
907.20784213195896
 21
867.29547774845526
 31
0.0
  0
LINE
  5
205D6
  8
0
  6
BYBLOCK
 10
908.81553727195899
 20
779.29547774713092
 30
0.0
 11
907.20784213195896
 21
773.2954777471308
 31
0.0
  0
LINE
  5
205D7
  8
0
  6
BYBLOCK
 10
907.20784213195896
 20
773.2954777471308
 30
0.0
 11
905.60014699195915
 21
779.29547774713092
 31
0.0
  0
LINE
  5
205D8
  8
0
  6
BYBLOCK
 10
907.20784213195896
 20
773.2954777471308
 30
0.0
 11
907.20784213195896
 21
779.29547774713092
 31
0.0
  0
LINE
  5
205D9
  8
1DIM
 10
454.87703460802737
 20
812.50543401461437
 30
0.0
 11
430.75973968715522
 21
796.82110716911507
 31
0.0
1001
ACAD
1000
DSTYLE
1002
{
1070
    40
1040
3.0
1002
}
  0
LINE
  5
205DA
  8
1DIM
 10
430.75973968715522
 20
796.82110716911507
 30
0.0
 11
422.6597396871552
 21
796.82110716911507
 31
0.0
1001
ACAD
1000
DSTYLE
1002
{
1070
    40
1040
3.0
1002
}
  0
LINE
  5
205DB
  8
1DIM
 10
464.70056390131822
 20
753.12921331822315
 30
0.0
 11
417.5442893947357
 21
683.16378225044434
 31
0.0
1001
ACAD
1000
DSTYLE
1002
{
1070
    40
1040
3.0
1002
}
  0
LINE
  5
205DC
  8
1DIM
 10
417.5442893947357
 20
683.16378225044434
 30
0.0
 11
409.44428939473568
 21
683.16378225044434
 31
0.0
1001
ACAD
1000
DSTYLE
1002
{
1070
    40
1040
3.0
1002
}
  0
LINE
  5
205DD
  8
0
 10
454.24340333057199
 20
818.55376174775256
 30
0.0
 11
496.13704502218559
 21
817.82250551194466
 31
0.0
  0
LINE
  5
205DE
  8
0
 10
448.91802844687339
 20
817.14648802004899
 30
0.0
 11
454.24340333057199
 21
818.55376174775256
 31
0.0
  0
LINE
  5
205DF
  8
0
 10
498.68027701533038
 20
820.27844750949987
 30
0.0
 11
496.13704502218559
 21
817.82250551194466
 31
0.0
  0
LINE
  5
205E0
  8
0
 10
448.91802844687339
 20
817.14648802004899
 30
0.0
 11
454.19103913193891
 21
815.554218784108
 31
0.0
  0
LINE
  5
205E1
  8
0
 10
498.68027701533038
 20
820.27844750949987
 30
0.0
 11
498.9802313238784
 21
820.27321178756881
 31
0.0
  0
LINE
  5
205E2
  8
0
 10
454.19103913193891
 20
815.554218784108
 30
0.0
 11
496.08462266243117
 21
814.82296356350628
 31
0.0
  0
LINE
  5
205E3
  8
0
 10
498.8405934608557
 20
812.27443055118295
 30
0.0
 11
498.9802313238784
 21
820.27321178756881
 31
0.0
  0
LINE
  5
205E4
  8
0
 10
498.5406391523079
 20
812.27966627311423
 30
0.0
 11
496.08462266243117
 21
814.82296356350628
 31
0.0
  0
LINE
  5
205E5
  8
0
 10
498.5406391523079
 20
812.27966627311423
 30
0.0
 11
498.8405934608557
 21
812.27443055118295
 31
0.0
  0
LINE
  5
205E6
  8
0
 10
790.89788702483872
 20
815.55412560466277
 30
0.0
 11
749.00424533322496
 21
814.82286936885509
 31
0.0
  0
LINE
  5
205E7
  8
0
 10
796.17090468922527
 20
817.14639496242842
 30
0.0
 11
790.89788702483872
 21
815.55412560466277
 31
0.0
  0
LINE
  5
205E8
  8
0
 10
746.54827374794013
 20
812.27966594824886
 30
0.0
 11
749.00424533322496
 21
814.82286936885509
 31
0.0
  0
LINE
  5
205E9
  8
0
 10
796.17090468922527
 20
817.14639496242842
 30
0.0
 11
790.84553678484792
 21
818.55366881195653
 31
0.0
  0
LINE
  5
205EA
  8
0
 10
746.54827374794013
 20
812.27966594824886
 30
0.0
 11
746.24831943939205
 21
812.27443022631769
 31
0.0
  0
LINE
  5
205EB
  8
0
 10
790.84553678484792
 20
818.55366881195653
 30
0.0
 11
748.95195325435554
 21
817.82241359135492
 31
0.0
  0
LINE
  5
205EC
  8
0
 10
746.10871879941772
 20
820.27321211243395
 30
0.0
 11
746.24831943939205
 21
812.27443022631769
 31
0.0
  0
LINE
  5
205ED
  8
0
 10
746.40867310796546
 20
820.27844783436535
 30
0.0
 11
748.95195325435554
 21
817.82241359135492
 31
0.0
  0
LINE
  5
205EE
  8
0
 10
746.40867310796546
 20
820.27844783436535
 30
0.0
 11
746.10871879941772
 21
820.27321211243395
 31
0.0
  0
LINE
  5
205EF
  8
1DIM
 10
708.39219435623977
 20
680.40283043084366
 30
0.0
 11
742.35746074366921
 21
656.62109044966235
 31
0.0
1001
ACAD
1000
DSTYLE
1002
{
1070
    40
1040
3.0
1002
}
  0
LINE
  5
205F0
  8
1DIM
 10
742.35746074366921
 20
656.62109044966235
 30
0.0
 11
750.45746074366923
 21
656.62109044966235
 31
0.0
1001
ACAD
1000
DSTYLE
1002
{
1070
    40
1040
3.0
1002
}
  0
TEXT
  5
205F1
  8
1DIM
 10
554.66152526464839
 20
893.43317162520964
 30
0.0
 40
10.5
  1
製品埋め込み巾 275
  0
LINE
  5
205F2
  8
0
  6
BYBLOCK
 10
747.16979115591903
 20
892.94086676520953
 30
0.0
 11
753.16979115591903
 21
891.33317162520973
 31
0.0
  0
LINE
  5
205F3
  8
0
  6
BYBLOCK
 10
753.16979115591903
 20
891.33317162520973
 30
0.0
 11
747.16979115591903
 21
889.72547648520958
 31
0.0
  0
LINE
  5
205F4
  8
0
  6
BYBLOCK
 10
753.16979115591903
 20
891.33317162520973
 30
0.0
 11
747.16979115591903
 21
891.33317162520973
 31
0.0
  0
LINE
  5
205F5
  8
0
  6
BYBLOCK
 10
484.65325937337769
 20
889.72547648520958
 30
0.0
 11
478.65325937337769
 21
891.33317162520973
 31
0.0
  0
LINE
  5
205F6
  8
0
  6
BYBLOCK
 10
478.65325937337769
 20
891.33317162520973
 30
0.0
 11
484.65325937337769
 21
892.94086676520953
 31
0.0
  0
LINE
  5
205F7
  8
0
  6
BYBLOCK
 10
478.65325937337769
 20
891.33317162520973
 30
0.0
 11
484.65325937337769
 21
891.33317162520973
 31
0.0
  0
TEXT
  5
205F8
  8
1DIM
 10
530.71541090960704
 20
521.2355698182356
 30
0.0
 40
10.5
  1
約105\U+00B0
 50
17.499997490742381
  0
LINE
  5
205F9
  8
0
  6
BYBLOCK
 10
688.17656794387653
 20
654.83731318298953
 30
0.0
 11
691.80863462588377
 21
659.87643763874894
 31
0.0
  0
LINE
  5
205FA
  8
0
  6
BYBLOCK
 10
691.80863462588377
 20
659.87643763874894
 30
0.0
 11
691.18273481087022
 21
653.69639450906561
 31
0.0
  0
LINE
  5
205FB
  8
0
  6
BYBLOCK
 10
691.80863462588377
 20
659.87643763874894
 30
0.0
 11
689.67965137737326
 21
654.26685384602752
 31
0.0
  0
LINE
  5
205FC
  8
0
  6
BYBLOCK
 10
363.68178157611459
 20
550.43575636614469
 30
0.0
 11
359.6243477602751
 21
555.13915029959981
 31
0.0
  0
LINE
  5
205FD
  8
0
  6
BYBLOCK
 10
359.6243477602751
 20
555.13915029959981
 30
0.0
 11
365.48988547641852
 21
553.09460855053271
 31
0.0
  0
LINE
  5
205FE
  8
0
  6
BYBLOCK
 10
359.6243477602751
 20
555.13915029959981
 30
0.0
 11
364.58583352626658
 21
551.7651824583387
 31
0.0
  0
TEXT
  5
205FF
  8
1DIM
 10
692.6055524431265
 20
666.41711980631931
 30
0.0
 40
10.5
  1
約20\U+00B0
 50
76.222315295295033
  0
LINE
  5
20600
  8
0
  6
BYBLOCK
 10
703.59526427189337
 20
730.3176007443044
 30
0.0
 11
705.28337557966984
 21
736.29547359973844
 31
0.0
  0
LINE
  5
20601
  8
0
  6
BYBLOCK
 10
705.28337557966984
 20
736.29547359973844
 30
0.0
 11
706.8103647031221
 21
730.27442818552356
 31
0.0
  0
LINE
  5
20602
  8
0
  6
BYBLOCK
 10
705.28337557966984
 20
736.29547359973844
 30
0.0
 11
705.20281448750768
 21
730.29601446491404
 31
0.0
  0
LINE
  5
20603
  8
0
  6
BYBLOCK
 10
695.30284732825874
 20
665.01208753523201
 30
0.0
 11
691.8086272017274
 21
659.87641724105185
 31
0.0
  0
LINE
  5
20604
  8
0
  6
BYBLOCK
 10
691.8086272017274
 20
659.87641724105185
 30
0.0
 11
692.26687547873098
 21
666.0711482424598
 31
0.0
  0
LINE
  5
20605
  8
0
  6
BYBLOCK
 10
691.8086272017274
 20
659.87641724105185
 30
0.0
 11
693.7848614034948
 21
665.54161788884585
 31
0.0
  0
LINE
  5
20606
  8
1DIM
 10
546.20388194687609
 20
547.23370457125066
 30
0.0
 11
550.56467216477893
 21
573.32015729755835
 31
0.0
1001
ACAD
1000
DSTYLE
1002
{
1070
    40
1040
3.0
1002
}
  0
LINE
  5
20607
  8
1DIM
 10
550.56467216477893
 20
573.32015729755835
 30
0.0
 11
558.66467216477895
 21
573.32015729755835
 31
0.0
1001
ACAD
1000
DSTYLE
1002
{
1070
    40
1040
3.0
1002
}
  0
TEXT
  5
20608
  8
1DIM
 10
1228.636254469825
 20
129.08424103110741
 30
0.0
 40
10.5
  1
P230
 50
90.0
  0
LINE
  5
20609
  8
0
  6
BYBLOCK
 10
1229.1285593298251
 20
256.4592410303141
 30
0.0
 11
1230.7362544698251
 21
262.4592410303141
 31
0.0
  0
LINE
  5
2060A
  8
0
  6
BYBLOCK
 10
1230.7362544698251
 20
262.4592410303141
 30
0.0
 11
1232.3439496098249
 21
256.4592410303141
 31
0.0
  0
LINE
  5
2060B
  8
0
  6
BYBLOCK
 10
1230.7362544698251
 20
262.4592410303141
 30
0.0
 11
1230.7362544698251
 21
256.4592410303141
 31
0.0
  0
LINE
  5
2060C
  8
0
  6
BYBLOCK
 10
1232.3439496098249
 20
38.459241031900312
 30
0.0
 11
1230.7362544698251
 21
32.459241031900312
 31
0.0
  0
LINE
  5
2060D
  8
0
  6
BYBLOCK
 10
1230.7362544698251
 20
32.459241031900312
 30
0.0
 11
1229.1285593298251
 21
38.459241031900312
 31
0.0
  0
LINE
  5
2060E
  8
0
  6
BYBLOCK
 10
1230.7362544698251
 20
32.459241031900312
 30
0.0
 11
1230.7362544698251
 21
38.459241031900312
 31
0.0
  0
TEXT
  5
2060F
  8
1DIM
 10
1228.636254469825
 20
-100.91575896730591
 30
0.0
 40
10.5
  1
P230
 50
90.0
  0
LINE
  5
20610
  8
0
  6
BYBLOCK
 10
1232.3439496098249
 20
-191.54075896651261
 30
0.0
 11
1230.7362544698251
 21
-197.54075896651261
 31
0.0
  0
LINE
  5
20611
  8
0
  6
BYBLOCK
 10
1230.7362544698251
 20
-197.54075896651261
 30
0.0
 11
1229.1285593298251
 21
-191.54075896651261
 31
0.0
  0
LINE
  5
20612
  8
0
  6
BYBLOCK
 10
1230.7362544698251
 20
-197.54075896651261
 30
0.0
 11
1230.7362544698251
 21
-191.54075896651261
 31
0.0
  0
LINE
  5
20613
  8
0
  6
BYBLOCK
 10
1229.1285593298251
 20
26.459241031900319
 30
0.0
 11
1230.7362544698251
 21
32.459241031900312
 31
0.0
  0
LINE
  5
20614
  8
0
  6
BYBLOCK
 10
1230.7362544698251
 20
32.459241031900312
 30
0.0
 11
1232.3439496098249
 21
26.459241031900319
 31
0.0
  0
LINE
  5
20615
  8
0
  6
BYBLOCK
 10
1230.7362544698251
 20
32.459241031900312
 30
0.0
 11
1230.7362544698251
 21
26.459241031900319
 31
0.0
  0
TEXT
  5
20616
  8
1DIM
 10
1112.7193816315271
 20
221.50451483048329
 30
0.0
 40
10.5
  1
43
  0
LINE
  5
20617
  8
0
  6
BYBLOCK
 10
1105.9693816321101
 20
217.79681969048329
 30
0.0
 11
1099.9693816321101
 21
219.40451483048329
 31
0.0
  0
LINE
  5
20618
  8
0
  6
BYBLOCK
 10
1099.9693816321101
 20
219.40451483048329
 30
0.0
 11
1105.9693816321101
 21
221.0122099704833
 31
0.0
  0
LINE
  5
20619
  8
0
  6
BYBLOCK
 10
1099.9693816321101
 20
219.40451483048329
 30
0.0
 11
1105.9693816321101
 21
219.40451483048329
 31
0.0
  0
LINE
  5
2061A
  8
0
  6
BYBLOCK
 10
1136.9693816309441
 20
221.0122099704833
 30
0.0
 11
1142.9693816309441
 21
219.40451483048329
 31
0.0
  0
LINE
  5
2061B
  8
0
  6
BYBLOCK
 10
1142.9693816309441
 20
219.40451483048329
 30
0.0
 11
1136.9693816309441
 21
217.79681969048329
 31
0.0
  0
LINE
  5
2061C
  8
0
  6
BYBLOCK
 10
1142.9693816309441
 20
219.40451483048329
 30
0.0
 11
1136.9693816309441
 21
219.40451483048329
 31
0.0
  0
TEXT
  5
2061D
  8
1DIM
 10
295.50027758611378
 20
553.06692238894163
 30
0.0
 40
10.5
  1
扉最大出巾　337
 50
90.0
  0
LINE
  5
2061E
  8
0
  6
BYBLOCK
 10
299.20797272611378
 20
442.43836702942781
 30
0.0
 11
297.60027758611392
 21
436.43836702942781
 31
0.0
  0
LINE
  5
2061F
  8
0
  6
BYBLOCK
 10
297.60027758611392
 20
436.43836702942781
 30
0.0
 11
295.99258244611389
 21
442.43836702942781
 31
0.0
  0
LINE
  5
20620
  8
0
  6
BYBLOCK
 10
297.60027758611392
 20
436.43836702942781
 30
0.0
 11
297.60027758611392
 21
442.43836702942781
 31
0.0
  0
LINE
  5
20621
  8
0
  6
BYBLOCK
 10
295.99258244611389
 20
767.29547774845514
 30
0.0
 11
297.60027758611392
 21
773.29547774845514
 31
0.0
  0
LINE
  5
20622
  8
0
  6
BYBLOCK
 10
297.60027758611392
 20
773.29547774845514
 30
0.0
 11
299.20797272611389
 21
767.29547774845514
 31
0.0
  0
LINE
  5
20623
  8
0
  6
BYBLOCK
 10
297.60027758611392
 20
773.29547774845514
 30
0.0
 11
297.60027758611392
 21
767.29547774845514
 31
0.0
  0
VIEWPORT
  5
57
 67
     1
  8
0
 10
84.057467303265412
 20
14.892708135758591
 30
0.0
 40
621.34594476934387
 41
285.39788310591899
 68
     1
 69
     1
1001
ACAD
1000
MVIEW
1002
{
1070
    16
1010
0.0
1020
0.0
1030
0.0
1010
0.0
1020
0.0
1030
1.0
1040
0.0
1040
285.39788310591899
1040
84.057467303265412
1040
14.892708135758591
1040
50.0
1040
0.0
1040
0.0
1070
     0
1070
   100
1070
     1
1070
     1
1070
     0
1070
     0
1070
     0
1070
     0
1040
0.0
1040
0.0
1040
0.0
1040
10.0
1040
10.0
1040
10.0
1040
10.0
1070
     0
1002
{
1002
}
1002
}
  0
ENDSEC
  0
EOF
