  0
SECTION
  2
HEADER
  9
$ACADVER
  1
AC1009
  9
$INSBASE
 10
0.0
 20
0.0
 30
0.0
  9
$EXTMIN
 10
5315.8363922149256
 20
-368.46620152473128
 30
0.0
  9
$EXTMAX
 10
5614.2720935973584
 20
-168.2898775912108
 30
0.0
  9
$LIMMIN
 10
0.0
 20
0.0
  9
$LIMMAX
 10
420.0
 20
297.0
  9
$ORTHOMODE
 70
     0
  9
$REGENMODE
 70
     1
  9
$FILLMODE
 70
     1
  9
$QTEXTMODE
 70
     0
  9
$MIRRTEXT
 70
     0
  9
$DRAGMODE
 70
     2
  9
$LTSCALE
 40
0.5
  9
$OSMODE
 70
   127
  9
$ATTMODE
 70
     1
  9
$TEXTSIZE
 40
4.0
  9
$TRACEWID
 40
1.0
  9
$TEXTSTYLE
  7
STANDARD
  9
$CLAYER
  8
1TEXT
  9
$CELTYPE
  6
BYLAYER
  9
$CECOLOR
 62
   256
  9
$DIMSCALE
 40
1.0
  9
$DIMASZ
 40
2.0
  9
$DIMEXO
 40
0.0
  9
$DIMDLI
 40
7.0
  9
$DIMRND
 40
0.0
  9
$DIMDLE
 40
0.0
  9
$DIMEXE
 40
1.0
  9
$DIMTP
 40
0.0
  9
$DIMTM
 40
0.0
  9
$DIMTXT
 40
3.5
  9
$DIMCEN
 40
0.0
  9
$DIMTSZ
 40
0.0
  9
$DIMTOL
 70
     0
  9
$DIMLIM
 70
     0
  9
$DIMTIH
 70
     0
  9
$DIMTOH
 70
     0
  9
$DIMSE1
 70
     0
  9
$DIMSE2
 70
     0
  9
$DIMTAD
 70
     1
  9
$DIMZIN
 70
     8
  9
$DIMBLK
  1

  9
$DIMASO
 70
     1
  9
$DIMSHO
 70
     1
  9
$DIMPOST
  1
 
  9
$DIMAPOST
  1

  9
$DIMALT
 70
     0
  9
$DIMALTD
 70
     2
  9
$DIMALTF
 40
25.399999999999999
  9
$DIMLFAC
 40
1.0
  9
$DIMTOFL
 70
     1
  9
$DIMTVP
 40
0.0
  9
$DIMTIX
 70
     0
  9
$DIMSOXD
 70
     0
  9
$DIMSAH
 70
     1
  9
$DIMBLK1
  1
OPEN30
  9
$DIMBLK2
  1
OPEN30
  9
$DIMSTYLE
  2
NEWX10
  9
$DIMCLRD
 70
   256
  9
$DIMCLRE
 70
   256
  9
$DIMCLRT
 70
   201
  9
$DIMTFAC
 40
0.7
  9
$DIMGAP
 40
0.7
  9
$LUNITS
 70
     2
  9
$LUPREC
 70
     4
  9
$SKETCHINC
 40
1.0
  9
$FILLETRAD
 40
0.5
  9
$AUNITS
 70
     0
  9
$AUPREC
 70
     2
  9
$MENU
  1
acad
  9
$ELEVATION
 40
0.0
  9
$PELEVATION
 40
0.0
  9
$THICKNESS
 40
0.0
  9
$LIMCHECK
 70
     0
  9
$BLIPMODE
 70
     0
  9
$CHAMFERA
 40
10.0
  9
$CHAMFERB
 40
10.0
  9
$SKPOLY
 70
     0
  9
$TDCREATE
 40
2451318.621352917
  9
$TDUPDATE
 40
2454917.4325893288
  9
$TDINDWG
 40
0.754608912
  9
$TDUSRTIMER
 40
0.754608912
  9
$USRTIMER
 70
     1
  9
$ANGBASE
 50
0.0
  9
$ANGDIR
 70
     0
  9
$PDMODE
 70
     0
  9
$PDSIZE
 40
0.0
  9
$PLINEWID
 40
0.0
  9
$COORDS
 70
     2
  9
$SPLFRAME
 70
     0
  9
$SPLINETYPE
 70
     6
  9
$SPLINESEGS
 70
     8
  9
$ATTDIA
 70
     0
  9
$ATTREQ
 70
     1
  9
$HANDLING
 70
     1
  9
$HANDSEED
  5
982F
  9
$SURFTAB1
 70
     6
  9
$SURFTAB2
 70
     6
  9
$SURFTYPE
 70
     6
  9
$SURFU
 70
     6
  9
$SURFV
 70
     6
  9
$UCSNAME
  2

  9
$UCSORG
 10
0.0
 20
0.0
 30
0.0
  9
$UCSXDIR
 10
1.0
 20
0.0
 30
0.0
  9
$UCSYDIR
 10
0.0
 20
1.0
 30
0.0
  9
$PUCSNAME
  2

  9
$PUCSORG
 10
0.0
 20
0.0
 30
0.0
  9
$PUCSXDIR
 10
1.0
 20
0.0
 30
0.0
  9
$PUCSYDIR
 10
0.0
 20
1.0
 30
0.0
  9
$USERI1
 70
     0
  9
$USERI2
 70
     0
  9
$USERI3
 70
     0
  9
$USERI4
 70
     0
  9
$USERI5
 70
     0
  9
$USERR1
 40
0.0
  9
$USERR2
 40
0.0
  9
$USERR3
 40
0.0
  9
$USERR4
 40
0.0
  9
$USERR5
 40
0.0
  9
$WORLDVIEW
 70
     1
  9
$SHADEDGE
 70
     3
  9
$SHADEDIF
 70
    70
  9
$TILEMODE
 70
     1
  9
$MAXACTVP
 70
    48
  9
$PLIMCHECK
 70
     0
  9
$PEXTMIN
 10
1.0000000000000000E+020
 20
1.0000000000000000E+020
 30
1.0000000000000000E+020
  9
$PEXTMAX
 10
-1.0000000000000000E+020
 20
-1.0000000000000000E+020
 30
-1.0000000000000000E+020
  9
$PLIMMIN
 10
0.0
 20
0.0
  9
$PLIMMAX
 10
420.0
 20
297.0
  9
$UNITMODE
 70
     0
  9
$VISRETAIN
 70
     1
  9
$PLINEGEN
 70
     0
  9
$PSLTSCALE
 70
     1
  0
ENDSEC
  0
SECTION
  2
TABLES
  0
TABLE
  2
VPORT
 70
     4
  0
VPORT
  2
*ACTIVE
 70
     0
 10
0.0
 20
0.0
 11
1.0
 21
1.0
 12
5464.9545398910786
 22
-268.36601386566753
 13
0.0
 23
0.0
 14
10.0
 24
10.0
 15
10.0
 25
10.0
 16
0.0
 26
0.0
 36
1.0
 17
0.0
 27
0.0
 37
0.0
 40
212.48211489786229
 41
1.508086253369272
 42
50.0
 43
0.0
 44
0.0
 50
0.0
 51
0.0
 71
     0
 72
   100
 73
     1
 74
     1
 75
     0
 76
     0
 77
     0
 78
     0
  0
ENDTAB
  0
TABLE
  2
LTYPE
 70
    15
  0
LTYPE
  2
CONTINUOUS
 70
     0
  3
Solid line
 72
    65
 73
     0
 40
0.0
  0
LTYPE
  2
XREF1|CENTER2
 70
    48
  3
Center (.5x) ___ _ ___ _ ___ _ ___ _ ___ _ ___
 72
    65
 73
     4
 40
28.574999999999999
 49
19.050000000000001
 49
-3.1749999999999989
 49
3.1749999999999989
 49
-3.1749999999999989
  0
LTYPE
  2
A3WAKUDAKE|CENTER2
 70
    48
  3
Center (.5x) ___ _ ___ _ ___ _ ___ _ ___ _ ___
 72
    65
 73
     4
 40
28.574999999999999
 49
19.050000000000001
 49
-3.1749999999999989
 49
3.1749999999999989
 49
-3.1749999999999989
  0
LTYPE
  2
CENTER2
 70
     0
  3
Center (.5x) ___ _ ___ _ ___ _ ___ _ ___ _ ___
 72
    65
 73
     4
 40
28.574999999999999
 49
19.050000000000001
 49
-3.1749999999999989
 49
3.1749999999999989
 49
-3.1749999999999989
  0
ENDTAB
  0
TABLE
  2
LAYER
 70
    42
  0
LAYER
  2
0
 70
     0
 62
     7
  6
CONTINUOUS
  0
LAYER
  2
1CENTER
 70
     0
 62
     7
  6
CENTER2
  0
LAYER
  2
1TEXT
 70
     0
 62
     7
  6
CONTINUOUS
  0
LAYER
  2
01
 70
     0
 62
     1
  6
CONTINUOUS
  0
LAYER
  2
1DIM
 70
     0
 62
     7
  6
CONTINUOUS
  0
LAYER
  2
A3WAKUDAKE|THICK
 70
    48
 62
     7
  6
CONTINUOUS
  0
LAYER
  2
A3WAKUDAKE|POINT
 70
    48
 62
     7
  6
CONTINUOUS
  0
LAYER
  2
A3WAKUDAKE|1CENTER
 70
    48
 62
     7
  6
A3WAKUDAKE|CENTER2
  0
LAYER
  2
A3WAKUDAKE|0-6
 70
    48
 62
     7
  6
CONTINUOUS
  0
LAYER
  2
A3WAKUDAKE|1DIM
 70
    48
 62
     7
  6
CONTINUOUS
  0
LAYER
  2
XREF1|1CENTER
 70
    48
 62
     7
  6
XREF1|CENTER2
  0
ENDTAB
  0
TABLE
  2
STYLE
 70
    21
  0
STYLE
  2
STANDARD
 70
     0
 40
0.0
 41
1.0
 50
0.0
 71
     0
 42
4.0
  3
txt.shx
  4
extfont.shx
  0
ENDTAB
  0
TABLE
  2
VIEW
 70
     0
  0
ENDTAB
  0
TABLE
  2
UCS
 70
     0
  0
ENDTAB
  0
TABLE
  2
APPID
 70
     9
  0
APPID
  2
ACAD
 70
     0
  0
APPID
  2
DRAWINGVARIABLESXDATA
 70
     0
  0
APPID
  2
CONTENTTABDATA
 70
     0
  0
APPID
  2
CONTENTCURRENTTAB
 70
     0
  0
APPID
  2
CONTENTBLOCKDESCRIPTION
 70
     0
  0
APPID
  2
CONTENTBLOCKICON
 70
     0
  0
APPID
  2
CONTENTLONGBLOCKNAME
 70
     0
  0
APPID
  2
ACAD_PSEXT
 70
     0
  0
APPID
  2
ACAD_MLEADERVER
 70
     0
  0
ENDTAB
  0
TABLE
  2
DIMSTYLE
 70
     7
  0
DIMSTYLE
  2
NEWX10
 70
     0
  3
 
  4

  5

  6
OPEN30
  7
OPEN30
 40
1.0
 41
2.0
 42
0.0
 43
7.0
 44
1.0
 45
0.0
 46
0.0
 47
0.0
 48
0.0
140
3.5
141
0.0
142
0.0
143
25.399999999999999
144
1.0
145
0.0
146
0.7
147
0.7
 71
     0
 72
     0
 73
     0
 74
     0
 75
     0
 76
     0
 77
     1
 78
     8
170
     0
171
     2
172
     1
173
     1
174
     0
175
     0
176
   256
177
   256
178
   201
  0
ENDTAB
  0
ENDSEC
  0
SECTION
  2
BLOCKS
  0
BLOCK
  8
0
  2
$MODEL_SPACE
 70
     0
 10
0.0
 20
0.0
 30
0.0
  3
$MODEL_SPACE
  1

  0
ENDBLK
  5
1A
  8
0
  0
BLOCK
 67
     1
  8
0
  2
$PAPER_SPACE
 70
     0
 10
0.0
 20
0.0
 30
0.0
  3
$PAPER_SPACE
  1

  0
ENDBLK
  5
17
 67
     1
  8
0
  0
BLOCK
  8
0
  2
_OPEN30
 70
     0
 10
0.0
 20
0.0
 30
0.0
  3
_OPEN30
  1

  0
LINE
  5
44
  8
0
  6
BYBLOCK
 62
     0
 10
-1.0
 20
0.26794919
 30
0.0
 11
0.0
 21
0.0
 31
0.0
  0
LINE
  5
45
  8
0
  6
BYBLOCK
 62
     0
 10
0.0
 20
0.0
 30
0.0
 11
-1.0
 21
-0.26794919
 31
0.0
  0
LINE
  5
46
  8
0
  6
BYBLOCK
 62
     0
 10
0.0
 20
0.0
 30
0.0
 11
-1.0
 21
0.0
 31
0.0
  0
ENDBLK
  5
47
  8
0
  0
BLOCK
  8
0
  2
XREF1
 70
    36
 10
0.0
 20
0.0
 30
0.0
  3
XREF1
  1
D:\ACLT\FORMAT\KAWAJUN(9)図面用.dwg
  0
ENDBLK
  5
5D
  8
0
  0
BLOCK
  8
0
  2
A3WAKUDAKE
 70
    36
 10
0.0
 20
0.0
 30
0.0
  3
A3WAKUDAKE
  1
D:\ACLT\FORMAT\A3WAKUdake.dwg
  0
ENDBLK
  5
6A0
  8
0
  0
BLOCK
  8
0
  2
*U16
 70
     1
 10
0.0
 20
0.0
 30
0.0
  3
*U16
  1

  0
CIRCLE
  5
964F
  8
0
 10
0.0
 20
0.0
 30
0.0
 40
3.0
  0
ENDBLK
  5
9651
  8
0
  0
BLOCK
  8
0
  2
*U17
 70
     1
 10
0.0
 20
0.0
 30
0.0
  3
*U17
  1

  0
TEXT
  5
9656
  8
1DIM
 62
   201
 10
5432.0546775973571
 20
-336.22712355336552
 30
0.0
 40
4.5499999999999989
  1
φ50
 50
90.0
  0
ENDBLK
  5
9658
  8
0
  0
BLOCK
  8
0
  2
*U18
 70
     1
 10
0.0
 20
0.0
 30
0.0
  3
*U18
  1

  0
TEXT
  5
965A
  8
1DIM
 62
   201
 10
5523.0392189306913
 20
-255.37987759121171
 30
0.0
 40
4.5499999999999989
  1
120 
  0
ENDBLK
  5
965C
  8
0
  0
BLOCK
  8
0
  2
*U19
 70
     1
 10
0.0
 20
0.0
 30
0.0
  3
*U19
  1

  0
TEXT
  5
965E
  8
1DIM
 62
   201
 10
5515.1613442640246
 20
-265.3798775912116
 30
0.0
 40
4.5499999999999989
  1
135 
  0
ENDBLK
  5
9660
  8
0
  0
BLOCK
  8
0
  2
*U20
 70
     1
 10
0.0
 20
0.0
 30
0.0
  3
*U20
  1

  0
TEXT
  5
9662
  8
1DIM
 62
   201
 10
5602.0620935973566
 20
-201.581544257877
 30
0.0
 40
4.5499999999999989
  1
39 
 50
90.0
  0
ENDBLK
  5
9664
  8
0
  0
BLOCK
  8
0
  2
*U21
 70
     1
 10
0.0
 20
0.0
 30
0.0
  3
*U21
  1

  0
TEXT
  5
9666
  8
1DIM
 62
   201
 10
5612.0620935973584
 20
-213.581544257877
 30
0.0
 40
4.5499999999999989
  1
63 
 50
90.0
  0
ENDBLK
  5
9668
  8
0
  0
BLOCK
  8
0
  2
*U22
 70
     1
 10
0.0
 20
0.0
 30
0.0
  3
*U22
  1

  0
TEXT
  5
966A
  8
1DIM
 62
   201
 10
5602.0620935973566
 20
-320.80705142454292
 30
0.0
 40
4.5499999999999989
  1
17 
 50
90.0
  0
ENDBLK
  5
966C
  8
0
  0
ENDSEC
  0
SECTION
  2
ENTITIES
  0
LINE
  5
71B4
  8
01
 10
5443.4646775973588
 20
-186.78987759121071
 30
0.0
 11
5492.464677597357
 21
-186.78987759121071
 31
0.0
  0
LINE
  5
71B5
  8
01
 10
5442.9646775973579
 20
-178.2898775912108
 30
0.0
 11
5442.9646775973588
 21
-186.28987759121071
 31
0.0
  0
LINE
  5
71B7
  8
01
 10
5492.9646775973579
 20
-178.2898775912108
 30
0.0
 11
5492.9646775973579
 21
-186.28987759121071
 31
0.0
  0
ARC
  5
71B9
  8
01
 10
5467.9646775973579
 20
-328.28987759121082
 30
0.0
 40
25.0
 50
39.264833742984493
 51
16.622039471338841
  0
LINE
  5
71BC
  8
1CENTER
 10
5467.9646775973579
 20
-334.28987759121082
 30
0.0
 11
5467.9646775973579
 21
-322.28987759121082
 31
0.0
  0
LINE
  5
71BD
  8
1CENTER
 10
5461.964677597357
 20
-328.28987759121082
 30
0.0
 11
5473.9646775973579
 21
-328.28987759121082
 31
0.0
  0
LINE
  5
71C0
  8
1CENTER
 10
5467.9646775973579
 20
-175.45280209562671
 30
0.0
 11
5467.9646775973579
 21
-198.08108747805809
 31
0.0
  0
LINE
  5
7206
  8
01
 10
5317.9646775973579
 20
-303.28987759121082
 30
0.0
 11
5317.9646775973579
 21
-353.28987759121082
 31
0.0
  0
LINE
  5
7207
  8
01
 10
5326.4646775973579
 20
-352.78987759121082
 30
0.0
 11
5326.4646775973579
 21
-303.78987759121082
 31
0.0
  0
LINE
  5
7208
  8
01
 10
5317.9646775973579
 20
-353.28987759121082
 30
0.0
 11
5325.9646775973579
 21
-353.28987759121082
 31
0.0
  0
LINE
  5
720A
  8
01
 10
5317.9646775973579
 20
-303.28987759121082
 30
0.0
 11
5325.9646775973579
 21
-303.28987759121082
 31
0.0
  0
LINE
  5
78AF
  8
1CENTER
 10
5332.464677597357
 20
-334.28987759121082
 30
0.0
 11
5332.464677597357
 21
-322.28987759121082
 31
0.0
  0
LINE
  5
78B0
  8
1CENTER
 10
5315.8363922149256
 20
-328.28987759121082
 30
0.0
 11
5338.464677597357
 21
-328.28987759121082
 31
0.0
  0
TEXT
  5
78D2
  8
1TEXT
 10
5317.9646775973579
 20
-178.2898775912108
 30
0.0
 40
10.0
  1
DGC
 41
1.017187499999999
  0
LINE
  5
79A8
  8
01
 10
5442.9646775973579
 20
-178.2898775912108
 30
0.0
 11
5492.9646775973579
 21
-178.2898775912108
 31
0.0
  0
LINE
  5
8262
  8
01
 10
5427.9646775973579
 20
-178.2898775912108
 30
0.0
 11
5570.7198255947051
 21
-178.2898775912108
 31
0.0
  0
LINE
  5
88CA
  8
01
 10
5317.9646775973579
 20
-288.11355365769032
 30
0.0
 11
5317.9646775973579
 21
-368.46620152473128
 31
0.0
  0
LINE
  5
906B
  8
1CENTER
 10
5451.8810028334156
 20
-192.78986955795739
 30
0.0
 11
5460.0146751952643
 21
-192.7898775912081
 31
0.0
  0
ARC
  5
9250
  8
01
 10
5521.7016245973582
 20
-489.15320059121041
 30
0.0
 40
180.0
 50
68.618038999996244
 51
112.2348740000031
  0
ARC
  5
9251
  8
01
 10
5529.1046785973576
 20
-496.89793659121091
 30
0.0
 40
180.0
 50
71.357984999994542
 51
99.662848650679265
  0
ARC
  5
9252
  8
01
 10
5529.1046785973576
 20
-496.89793659121091
 30
0.0
 40
180.0
 50
101.56363989057461
 51
114.5271160000148
  0
ARC
  5
9253
  8
01
 10
5496.1282685973592
 20
-340.88480359121058
 30
0.0
 40
20.0
 50
112.4207240000201
 51
148.69876500002059
  0
ARC
  5
9254
  8
01
 10
5487.2922335973581
 20
-261.53139159121019
 30
0.0
 40
80.0
 50
245.04950099998689
 51
253.85349799997681
  0
LINE
  5
9255
  8
01
 10
5452.9672615973577
 20
-323.46356359121091
 30
0.0
 11
5452.9672615973577
 21
-333.15852459121021
 31
0.0
  0
ARC
  5
9256
  8
01
 10
5453.9672615973577
 20
-333.15852459121021
 30
0.0
 40
1.0
 50
180.0
 51
245.04950099998689
  0
ARC
  5
9257
  8
01
 10
5453.9672615973577
 20
-323.46356359121091
 30
0.0
 40
1.0
 50
112.2348740000031
 51
180.0
  0
ARC
  5
9258
  8
01
 10
5467.9646775973579
 20
-328.28987759121082
 30
0.0
 40
10.5
 50
253.85349799997681
 51
325.506406999994
  0
ARC
  5
9259
  8
01
 10
5410.6835055973579
 20
-288.93105059121081
 30
0.0
 40
80.0
 50
325.506406999994
 51
328.69876500002073
  0
ARC
  5
925A
  8
01
 10
5506.4261965973592
 20
-365.84382259121048
 30
0.0
 40
47.0
 50
99.224870617418034
 51
112.4207240000201
  0
ARC
  5
925B
  8
01
 10
5586.962093597358
 20
-322.47365459121102
 30
0.0
 40
1.0
 50
0.0
 51
68.618038999996244
  0
ARC
  5
925C
  8
01
 10
5586.962093597358
 20
-325.39423559121042
 30
0.0
 40
1.0
 50
251.3579849999945
 51
0.0
  0
LINE
  5
925D
  8
01
 10
5587.962093597358
 20
-322.47365459121102
 30
0.0
 11
5587.962093597358
 21
-325.39423559121042
 31
0.0
  0
LINE
  5
925F
  8
01
 10
5496.466636597358
 20
-217.28987759121171
 30
0.0
 11
5501.1281985973583
 21
-217.28987759121171
 31
0.0
  0
LINE
  5
9260
  8
01
 10
5467.9672615973577
 20
-241.28987759121171
 30
0.0
 11
5584.9720935973583
 21
-241.28987759121171
 31
0.0
  0
ARC
  5
9261
  8
01
 10
5503.1281985973592
 20
-197.28987759121171
 30
0.0
 40
20.0
 50
180.0
 51
270.0
  0
ARC
  5
9262
  8
01
 10
5496.466636597358
 20
-197.28987759121171
 30
0.0
 40
20.0
 50
180.0
 51
270.0
  0
LINE
  5
9263
  8
01
 10
5467.9646775973579
 20
-187.28987759121071
 30
0.0
 11
5483.1281985973583
 21
-187.28987759121071
 31
0.0
  0
LINE
  5
9264
  8
01
 10
5467.9646775973579
 20
-187.28987759121071
 30
0.0
 11
5452.9672615973577
 21
-187.28987759121071
 31
0.0
  0
ARC
  5
9265
  8
01
 10
5467.9672615973577
 20
-226.28987759121171
 30
0.0
 40
15.0
 50
180.0
 51
270.0
  0
LINE
  5
9266
  8
01
 10
5452.9672615973577
 20
-226.28987759121171
 30
0.0
 11
5452.9672615973577
 21
-187.28987759121071
 31
0.0
  0
LINE
  5
9267
  8
01
 10
5476.466636597358
 20
-187.28987759121071
 30
0.0
 11
5476.466636597358
 21
-197.28987759121171
 31
0.0
  0
LINE
  5
9268
  8
01
 10
5483.1281985973583
 20
-187.28987759121071
 30
0.0
 11
5483.1281985973583
 21
-197.28987759121171
 31
0.0
  0
LINE
  5
9269
  8
01
 10
5587.9720935973583
 20
-238.28987759121171
 30
0.0
 11
5587.9720935973583
 21
-220.28987759121171
 31
0.0
  0
ARC
  5
926A
  8
01
 10
5584.9720935973583
 20
-220.28987759121171
 30
0.0
 40
3.0
 50
0.0
 51
90.0
  0
ARC
  5
926B
  8
01
 10
5584.9720935973583
 20
-238.28987759121171
 30
0.0
 40
3.0
 50
270.0
 51
0.0
  0
POLYLINE
  8
01
  5
966D
  66
     1
 10
0.000000
 20
0.000000
 30
0.000000
  70
     8
  0
VERTEX
  8
01
  5
966E
 10
5356.96
 20
-310.958
 30
0.000000
  70
    32
  0
VERTEX
  8
01
  5
966F
 10
5356.96
 20
-310.972
 30
0.000000
  70
    32
  0
VERTEX
  8
01
  5
9670
 10
5356.96
 20
-310.985
 30
0.000000
  70
    32
  0
VERTEX
  8
01
  5
9671
 10
5356.96
 20
-310.998
 30
0.000000
  70
    32
  0
VERTEX
  8
01
  5
9672
 10
5356.95
 20
-311.011
 30
0.000000
  70
    32
  0
VERTEX
  8
01
  5
9673
 10
5356.95
 20
-311.025
 30
0.000000
  70
    32
  0
VERTEX
  8
01
  5
9674
 10
5356.95
 20
-311.038
 30
0.000000
  70
    32
  0
VERTEX
  8
01
  5
9675
 10
5356.94
 20
-311.052
 30
0.000000
  70
    32
  0
VERTEX
  8
01
  5
9676
 10
5356.94
 20
-311.065
 30
0.000000
  70
    32
  0
VERTEX
  8
01
  5
9677
 10
5356.93
 20
-311.079
 30
0.000000
  70
    32
  0
VERTEX
  8
01
  5
9678
 10
5356.93
 20
-311.092
 30
0.000000
  70
    32
  0
VERTEX
  8
01
  5
9679
 10
5356.92
 20
-311.106
 30
0.000000
  70
    32
  0
VERTEX
  8
01
  5
967A
 10
5356.92
 20
-311.120
 30
0.000000
  70
    32
  0
VERTEX
  8
01
  5
967B
 10
5356.91
 20
-311.134
 30
0.000000
  70
    32
  0
VERTEX
  8
01
  5
967C
 10
5356.91
 20
-311.147
 30
0.000000
  70
    32
  0
VERTEX
  8
01
  5
967D
 10
5356.90
 20
-311.161
 30
0.000000
  70
    32
  0
VERTEX
  8
01
  5
967E
 10
5356.89
 20
-311.175
 30
0.000000
  70
    32
  0
VERTEX
  8
01
  5
967F
 10
5356.88
 20
-311.189
 30
0.000000
  70
    32
  0
VERTEX
  8
01
  5
9680
 10
5356.88
 20
-311.203
 30
0.000000
  70
    32
  0
VERTEX
  8
01
  5
9681
 10
5356.87
 20
-311.217
 30
0.000000
  70
    32
  0
VERTEX
  8
01
  5
9682
 10
5356.86
 20
-311.231
 30
0.000000
  70
    32
  0
VERTEX
  8
01
  5
9683
 10
5356.85
 20
-311.245
 30
0.000000
  70
    32
  0
VERTEX
  8
01
  5
9684
 10
5356.84
 20
-311.259
 30
0.000000
  70
    32
  0
VERTEX
  8
01
  5
9685
 10
5356.83
 20
-311.273
 30
0.000000
  70
    32
  0
VERTEX
  8
01
  5
9686
 10
5356.82
 20
-311.288
 30
0.000000
  70
    32
  0
VERTEX
  8
01
  5
9687
 10
5356.80
 20
-311.302
 30
0.000000
  70
    32
  0
VERTEX
  8
01
  5
9688
 10
5356.79
 20
-311.316
 30
0.000000
  70
    32
  0
VERTEX
  8
01
  5
9689
 10
5356.78
 20
-311.330
 30
0.000000
  70
    32
  0
VERTEX
  8
01
  5
968A
 10
5356.77
 20
-311.345
 30
0.000000
  70
    32
  0
VERTEX
  8
01
  5
968B
 10
5356.76
 20
-311.359
 30
0.000000
  70
    32
  0
VERTEX
  8
01
  5
968C
 10
5356.74
 20
-311.374
 30
0.000000
  70
    32
  0
VERTEX
  8
01
  5
968D
 10
5356.73
 20
-311.388
 30
0.000000
  70
    32
  0
VERTEX
  8
01
  5
968E
 10
5356.71
 20
-311.403
 30
0.000000
  70
    32
  0
VERTEX
  8
01
  5
968F
 10
5356.70
 20
-311.417
 30
0.000000
  70
    32
  0
VERTEX
  8
01
  5
9690
 10
5356.68
 20
-311.432
 30
0.000000
  70
    32
  0
VERTEX
  8
01
  5
9691
 10
5356.67
 20
-311.446
 30
0.000000
  70
    32
  0
VERTEX
  8
01
  5
9692
 10
5356.65
 20
-311.461
 30
0.000000
  70
    32
  0
VERTEX
  8
01
  5
9693
 10
5356.64
 20
-311.476
 30
0.000000
  70
    32
  0
VERTEX
  8
01
  5
9694
 10
5356.62
 20
-311.490
 30
0.000000
  70
    32
  0
VERTEX
  8
01
  5
9695
 10
5356.60
 20
-311.505
 30
0.000000
  70
    32
  0
VERTEX
  8
01
  5
9696
 10
5356.58
 20
-311.520
 30
0.000000
  70
    32
  0
VERTEX
  8
01
  5
9697
 10
5356.57
 20
-311.535
 30
0.000000
  70
    32
  0
VERTEX
  8
01
  5
9698
 10
5356.55
 20
-311.549
 30
0.000000
  70
    32
  0
VERTEX
  8
01
  5
9699
 10
5356.53
 20
-311.564
 30
0.000000
  70
    32
  0
VERTEX
  8
01
  5
969A
 10
5356.51
 20
-311.579
 30
0.000000
  70
    32
  0
VERTEX
  8
01
  5
969B
 10
5356.49
 20
-311.594
 30
0.000000
  70
    32
  0
VERTEX
  8
01
  5
969C
 10
5356.47
 20
-311.609
 30
0.000000
  70
    32
  0
VERTEX
  8
01
  5
969D
 10
5356.45
 20
-311.624
 30
0.000000
  70
    32
  0
VERTEX
  8
01
  5
969E
 10
5356.43
 20
-311.639
 30
0.000000
  70
    32
  0
VERTEX
  8
01
  5
969F
 10
5356.41
 20
-311.654
 30
0.000000
  70
    32
  0
VERTEX
  8
01
  5
96A0
 10
5356.38
 20
-311.669
 30
0.000000
  70
    32
  0
VERTEX
  8
01
  5
96A1
 10
5356.36
 20
-311.684
 30
0.000000
  70
    32
  0
VERTEX
  8
01
  5
96A2
 10
5356.34
 20
-311.699
 30
0.000000
  70
    32
  0
VERTEX
  8
01
  5
96A3
 10
5356.32
 20
-311.714
 30
0.000000
  70
    32
  0
VERTEX
  8
01
  5
96A4
 10
5356.29
 20
-311.730
 30
0.000000
  70
    32
  0
VERTEX
  8
01
  5
96A5
 10
5356.27
 20
-311.745
 30
0.000000
  70
    32
  0
VERTEX
  8
01
  5
96A6
 10
5356.24
 20
-311.760
 30
0.000000
  70
    32
  0
VERTEX
  8
01
  5
96A7
 10
5356.22
 20
-311.775
 30
0.000000
  70
    32
  0
VERTEX
  8
01
  5
96A8
 10
5356.19
 20
-311.790
 30
0.000000
  70
    32
  0
VERTEX
  8
01
  5
96A9
 10
5356.17
 20
-311.806
 30
0.000000
  70
    32
  0
VERTEX
  8
01
  5
96AA
 10
5356.14
 20
-311.821
 30
0.000000
  70
    32
  0
VERTEX
  8
01
  5
96AB
 10
5356.12
 20
-311.836
 30
0.000000
  70
    32
  0
VERTEX
  8
01
  5
96AC
 10
5356.09
 20
-311.852
 30
0.000000
  70
    32
  0
VERTEX
  8
01
  5
96AD
 10
5356.06
 20
-311.867
 30
0.000000
  70
    32
  0
VERTEX
  8
01
  5
96AE
 10
5356.04
 20
-311.882
 30
0.000000
  70
    32
  0
VERTEX
  8
01
  5
96AF
 10
5356.01
 20
-311.898
 30
0.000000
  70
    32
  0
VERTEX
  8
01
  5
96B0
 10
5355.98
 20
-311.913
 30
0.000000
  70
    32
  0
VERTEX
  8
01
  5
96B1
 10
5355.95
 20
-311.929
 30
0.000000
  70
    32
  0
VERTEX
  8
01
  5
96B2
 10
5355.92
 20
-311.944
 30
0.000000
  70
    32
  0
VERTEX
  8
01
  5
96B3
 10
5355.89
 20
-311.960
 30
0.000000
  70
    32
  0
VERTEX
  8
01
  5
96B4
 10
5355.86
 20
-311.975
 30
0.000000
  70
    32
  0
VERTEX
  8
01
  5
96B5
 10
5355.83
 20
-311.991
 30
0.000000
  70
    32
  0
VERTEX
  8
01
  5
96B6
 10
5355.80
 20
-312.006
 30
0.000000
  70
    32
  0
VERTEX
  8
01
  5
96B7
 10
5355.77
 20
-312.022
 30
0.000000
  70
    32
  0
VERTEX
  8
01
  5
96B8
 10
5355.74
 20
-312.037
 30
0.000000
  70
    32
  0
VERTEX
  8
01
  5
96B9
 10
5355.71
 20
-312.053
 30
0.000000
  70
    32
  0
VERTEX
  8
01
  5
96BA
 10
5355.67
 20
-312.068
 30
0.000000
  70
    32
  0
VERTEX
  8
01
  5
96BB
 10
5355.64
 20
-312.084
 30
0.000000
  70
    32
  0
VERTEX
  8
01
  5
96BC
 10
5355.61
 20
-312.100
 30
0.000000
  70
    32
  0
VERTEX
  8
01
  5
96BD
 10
5355.58
 20
-312.115
 30
0.000000
  70
    32
  0
VERTEX
  8
01
  5
96BE
 10
5355.54
 20
-312.131
 30
0.000000
  70
    32
  0
VERTEX
  8
01
  5
96BF
 10
5355.51
 20
-312.147
 30
0.000000
  70
    32
  0
VERTEX
  8
01
  5
96C0
 10
5355.47
 20
-312.162
 30
0.000000
  70
    32
  0
VERTEX
  8
01
  5
96C1
 10
5355.44
 20
-312.178
 30
0.000000
  70
    32
  0
VERTEX
  8
01
  5
96C2
 10
5355.40
 20
-312.194
 30
0.000000
  70
    32
  0
VERTEX
  8
01
  5
96C3
 10
5355.37
 20
-312.210
 30
0.000000
  70
    32
  0
VERTEX
  8
01
  5
96C4
 10
5355.33
 20
-312.225
 30
0.000000
  70
    32
  0
VERTEX
  8
01
  5
96C5
 10
5355.29
 20
-312.241
 30
0.000000
  70
    32
  0
VERTEX
  8
01
  5
96C6
 10
5355.26
 20
-312.257
 30
0.000000
  70
    32
  0
VERTEX
  8
01
  5
96C7
 10
5355.22
 20
-312.273
 30
0.000000
  70
    32
  0
VERTEX
  8
01
  5
96C8
 10
5355.18
 20
-312.288
 30
0.000000
  70
    32
  0
VERTEX
  8
01
  5
96C9
 10
5355.14
 20
-312.304
 30
0.000000
  70
    32
  0
VERTEX
  8
01
  5
96CA
 10
5355.10
 20
-312.320
 30
0.000000
  70
    32
  0
VERTEX
  8
01
  5
96CB
 10
5355.07
 20
-312.336
 30
0.000000
  70
    32
  0
VERTEX
  8
01
  5
96CC
 10
5355.03
 20
-312.352
 30
0.000000
  70
    32
  0
VERTEX
  8
01
  5
96CD
 10
5354.99
 20
-312.367
 30
0.000000
  70
    32
  0
VERTEX
  8
01
  5
96CE
 10
5354.95
 20
-312.383
 30
0.000000
  70
    32
  0
VERTEX
  8
01
  5
96CF
 10
5354.91
 20
-312.399
 30
0.000000
  70
    32
  0
VERTEX
  8
01
  5
96D0
 10
5354.87
 20
-312.415
 30
0.000000
  70
    32
  0
VERTEX
  8
01
  5
96D1
 10
5354.83
 20
-312.431
 30
0.000000
  70
    32
  0
VERTEX
  8
01
  5
96D2
 10
5354.78
 20
-312.447
 30
0.000000
  70
    32
  0
VERTEX
  8
01
  5
96D3
 10
5354.74
 20
-312.463
 30
0.000000
  70
    32
  0
VERTEX
  8
01
  5
96D4
 10
5354.70
 20
-312.478
 30
0.000000
  70
    32
  0
VERTEX
  8
01
  5
96D5
 10
5354.66
 20
-312.494
 30
0.000000
  70
    32
  0
VERTEX
  8
01
  5
96D6
 10
5354.61
 20
-312.510
 30
0.000000
  70
    32
  0
VERTEX
  8
01
  5
96D7
 10
5354.57
 20
-312.526
 30
0.000000
  70
    32
  0
VERTEX
  8
01
  5
96D8
 10
5354.53
 20
-312.542
 30
0.000000
  70
    32
  0
VERTEX
  8
01
  5
96D9
 10
5354.48
 20
-312.558
 30
0.000000
  70
    32
  0
VERTEX
  8
01
  5
96DA
 10
5354.44
 20
-312.573
 30
0.000000
  70
    32
  0
VERTEX
  8
01
  5
96DB
 10
5354.39
 20
-312.589
 30
0.000000
  70
    32
  0
VERTEX
  8
01
  5
96DC
 10
5354.35
 20
-312.605
 30
0.000000
  70
    32
  0
VERTEX
  8
01
  5
96DD
 10
5354.30
 20
-312.621
 30
0.000000
  70
    32
  0
VERTEX
  8
01
  5
96DE
 10
5354.26
 20
-312.637
 30
0.000000
  70
    32
  0
VERTEX
  8
01
  5
96DF
 10
5354.21
 20
-312.652
 30
0.000000
  70
    32
  0
VERTEX
  8
01
  5
96E0
 10
5354.17
 20
-312.668
 30
0.000000
  70
    32
  0
VERTEX
  8
01
  5
96E1
 10
5354.12
 20
-312.684
 30
0.000000
  70
    32
  0
VERTEX
  8
01
  5
96E2
 10
5354.07
 20
-312.700
 30
0.000000
  70
    32
  0
VERTEX
  8
01
  5
96E3
 10
5354.02
 20
-312.715
 30
0.000000
  70
    32
  0
VERTEX
  8
01
  5
96E4
 10
5353.98
 20
-312.731
 30
0.000000
  70
    32
  0
VERTEX
  8
01
  5
96E5
 10
5353.93
 20
-312.747
 30
0.000000
  70
    32
  0
VERTEX
  8
01
  5
96E6
 10
5353.88
 20
-312.763
 30
0.000000
  70
    32
  0
VERTEX
  8
01
  5
96E7
 10
5353.83
 20
-312.778
 30
0.000000
  70
    32
  0
VERTEX
  8
01
  5
96E8
 10
5353.78
 20
-312.794
 30
0.000000
  70
    32
  0
VERTEX
  8
01
  5
96E9
 10
5353.73
 20
-312.810
 30
0.000000
  70
    32
  0
VERTEX
  8
01
  5
96EA
 10
5353.68
 20
-312.825
 30
0.000000
  70
    32
  0
VERTEX
  8
01
  5
96EB
 10
5353.63
 20
-312.841
 30
0.000000
  70
    32
  0
VERTEX
  8
01
  5
96EC
 10
5353.58
 20
-312.856
 30
0.000000
  70
    32
  0
VERTEX
  8
01
  5
96ED
 10
5353.53
 20
-312.872
 30
0.000000
  70
    32
  0
VERTEX
  8
01
  5
96EE
 10
5353.48
 20
-312.888
 30
0.000000
  70
    32
  0
VERTEX
  8
01
  5
96EF
 10
5353.43
 20
-312.903
 30
0.000000
  70
    32
  0
VERTEX
  8
01
  5
96F0
 10
5353.38
 20
-312.919
 30
0.000000
  70
    32
  0
VERTEX
  8
01
  5
96F1
 10
5353.32
 20
-312.934
 30
0.000000
  70
    32
  0
VERTEX
  8
01
  5
96F2
 10
5353.27
 20
-312.950
 30
0.000000
  70
    32
  0
VERTEX
  8
01
  5
96F3
 10
5353.22
 20
-312.965
 30
0.000000
  70
    32
  0
VERTEX
  8
01
  5
96F4
 10
5353.17
 20
-312.981
 30
0.000000
  70
    32
  0
VERTEX
  8
01
  5
96F5
 10
5353.11
 20
-312.996
 30
0.000000
  70
    32
  0
VERTEX
  8
01
  5
96F6
 10
5353.06
 20
-313.012
 30
0.000000
  70
    32
  0
VERTEX
  8
01
  5
96F7
 10
5353.00
 20
-313.027
 30
0.000000
  70
    32
  0
VERTEX
  8
01
  5
96F8
 10
5352.95
 20
-313.042
 30
0.000000
  70
    32
  0
VERTEX
  8
01
  5
96F9
 10
5352.90
 20
-313.058
 30
0.000000
  70
    32
  0
VERTEX
  8
01
  5
96FA
 10
5352.84
 20
-313.073
 30
0.000000
  70
    32
  0
VERTEX
  8
01
  5
96FB
 10
5352.78
 20
-313.088
 30
0.000000
  70
    32
  0
VERTEX
  8
01
  5
96FC
 10
5352.73
 20
-313.104
 30
0.000000
  70
    32
  0
VERTEX
  8
01
  5
96FD
 10
5352.67
 20
-313.119
 30
0.000000
  70
    32
  0
VERTEX
  8
01
  5
96FE
 10
5352.62
 20
-313.134
 30
0.000000
  70
    32
  0
VERTEX
  8
01
  5
96FF
 10
5352.56
 20
-313.149
 30
0.000000
  70
    32
  0
VERTEX
  8
01
  5
9700
 10
5352.50
 20
-313.164
 30
0.000000
  70
    32
  0
VERTEX
  8
01
  5
9701
 10
5352.45
 20
-313.180
 30
0.000000
  70
    32
  0
VERTEX
  8
01
  5
9702
 10
5352.39
 20
-313.195
 30
0.000000
  70
    32
  0
VERTEX
  8
01
  5
9703
 10
5352.33
 20
-313.210
 30
0.000000
  70
    32
  0
VERTEX
  8
01
  5
9704
 10
5352.27
 20
-313.225
 30
0.000000
  70
    32
  0
VERTEX
  8
01
  5
9705
 10
5352.21
 20
-313.240
 30
0.000000
  70
    32
  0
VERTEX
  8
01
  5
9706
 10
5352.15
 20
-313.255
 30
0.000000
  70
    32
  0
VERTEX
  8
01
  5
9707
 10
5352.10
 20
-313.270
 30
0.000000
  70
    32
  0
VERTEX
  8
01
  5
9708
 10
5352.04
 20
-313.285
 30
0.000000
  70
    32
  0
VERTEX
  8
01
  5
9709
 10
5351.98
 20
-313.300
 30
0.000000
  70
    32
  0
VERTEX
  8
01
  5
970A
 10
5351.92
 20
-313.315
 30
0.000000
  70
    32
  0
VERTEX
  8
01
  5
970B
 10
5351.86
 20
-313.329
 30
0.000000
  70
    32
  0
VERTEX
  8
01
  5
970C
 10
5351.79
 20
-313.344
 30
0.000000
  70
    32
  0
VERTEX
  8
01
  5
970D
 10
5351.73
 20
-313.359
 30
0.000000
  70
    32
  0
VERTEX
  8
01
  5
970E
 10
5351.67
 20
-313.374
 30
0.000000
  70
    32
  0
VERTEX
  8
01
  5
970F
 10
5351.61
 20
-313.389
 30
0.000000
  70
    32
  0
VERTEX
  8
01
  5
9710
 10
5351.55
 20
-313.403
 30
0.000000
  70
    32
  0
VERTEX
  8
01
  5
9711
 10
5351.49
 20
-313.418
 30
0.000000
  70
    32
  0
VERTEX
  8
01
  5
9712
 10
5351.42
 20
-313.432
 30
0.000000
  70
    32
  0
VERTEX
  8
01
  5
9713
 10
5351.36
 20
-313.447
 30
0.000000
  70
    32
  0
VERTEX
  8
01
  5
9714
 10
5351.30
 20
-313.461
 30
0.000000
  70
    32
  0
VERTEX
  8
01
  5
9715
 10
5351.24
 20
-313.476
 30
0.000000
  70
    32
  0
VERTEX
  8
01
  5
9716
 10
5351.17
 20
-313.490
 30
0.000000
  70
    32
  0
VERTEX
  8
01
  5
9717
 10
5351.11
 20
-313.505
 30
0.000000
  70
    32
  0
VERTEX
  8
01
  5
9718
 10
5351.04
 20
-313.519
 30
0.000000
  70
    32
  0
VERTEX
  8
01
  5
9719
 10
5350.98
 20
-313.534
 30
0.000000
  70
    32
  0
VERTEX
  8
01
  5
971A
 10
5350.91
 20
-313.548
 30
0.000000
  70
    32
  0
VERTEX
  8
01
  5
971B
 10
5350.85
 20
-313.562
 30
0.000000
  70
    32
  0
VERTEX
  8
01
  5
971C
 10
5350.78
 20
-313.576
 30
0.000000
  70
    32
  0
VERTEX
  8
01
  5
971D
 10
5350.72
 20
-313.590
 30
0.000000
  70
    32
  0
VERTEX
  8
01
  5
971E
 10
5350.65
 20
-313.604
 30
0.000000
  70
    32
  0
VERTEX
  8
01
  5
971F
 10
5350.59
 20
-313.619
 30
0.000000
  70
    32
  0
VERTEX
  8
01
  5
9720
 10
5350.52
 20
-313.633
 30
0.000000
  70
    32
  0
VERTEX
  8
01
  5
9721
 10
5350.45
 20
-313.647
 30
0.000000
  70
    32
  0
VERTEX
  8
01
  5
9722
 10
5350.39
 20
-313.660
 30
0.000000
  70
    32
  0
VERTEX
  8
01
  5
9723
 10
5350.32
 20
-313.674
 30
0.000000
  70
    32
  0
VERTEX
  8
01
  5
9724
 10
5350.25
 20
-313.688
 30
0.000000
  70
    32
  0
VERTEX
  8
01
  5
9725
 10
5350.18
 20
-313.702
 30
0.000000
  70
    32
  0
VERTEX
  8
01
  5
9726
 10
5350.11
 20
-313.716
 30
0.000000
  70
    32
  0
VERTEX
  8
01
  5
9727
 10
5350.05
 20
-313.729
 30
0.000000
  70
    32
  0
VERTEX
  8
01
  5
9728
 10
5349.98
 20
-313.743
 30
0.000000
  70
    32
  0
VERTEX
  8
01
  5
9729
 10
5349.91
 20
-313.757
 30
0.000000
  70
    32
  0
VERTEX
  8
01
  5
972A
 10
5349.84
 20
-313.770
 30
0.000000
  70
    32
  0
VERTEX
  8
01
  5
972B
 10
5349.77
 20
-313.784
 30
0.000000
  70
    32
  0
VERTEX
  8
01
  5
972C
 10
5349.70
 20
-313.797
 30
0.000000
  70
    32
  0
VERTEX
  8
01
  5
972D
 10
5349.63
 20
-313.810
 30
0.000000
  70
    32
  0
VERTEX
  8
01
  5
972E
 10
5349.56
 20
-313.824
 30
0.000000
  70
    32
  0
VERTEX
  8
01
  5
972F
 10
5349.49
 20
-313.837
 30
0.000000
  70
    32
  0
VERTEX
  8
01
  5
9730
 10
5349.42
 20
-313.850
 30
0.000000
  70
    32
  0
VERTEX
  8
01
  5
9731
 10
5349.35
 20
-313.864
 30
0.000000
  70
    32
  0
VERTEX
  8
01
  5
9732
 10
5349.28
 20
-313.877
 30
0.000000
  70
    32
  0
VERTEX
  8
01
  5
9733
 10
5349.20
 20
-313.890
 30
0.000000
  70
    32
  0
VERTEX
  8
01
  5
9734
 10
5349.13
 20
-313.903
 30
0.000000
  70
    32
  0
VERTEX
  8
01
  5
9735
 10
5349.06
 20
-313.916
 30
0.000000
  70
    32
  0
VERTEX
  8
01
  5
9736
 10
5348.99
 20
-313.929
 30
0.000000
  70
    32
  0
VERTEX
  8
01
  5
9737
 10
5348.91
 20
-313.941
 30
0.000000
  70
    32
  0
VERTEX
  8
01
  5
9738
 10
5348.84
 20
-313.954
 30
0.000000
  70
    32
  0
VERTEX
  8
01
  5
9739
 10
5348.77
 20
-313.967
 30
0.000000
  70
    32
  0
VERTEX
  8
01
  5
973A
 10
5348.70
 20
-313.980
 30
0.000000
  70
    32
  0
VERTEX
  8
01
  5
973B
 10
5348.62
 20
-313.992
 30
0.000000
  70
    32
  0
VERTEX
  8
01
  5
973C
 10
5348.55
 20
-314.005
 30
0.000000
  70
    32
  0
VERTEX
  8
01
  5
973D
 10
5348.47
 20
-314.017
 30
0.000000
  70
    32
  0
VERTEX
  8
01
  5
973E
 10
5348.40
 20
-314.030
 30
0.000000
  70
    32
  0
VERTEX
  8
01
  5
973F
 10
5348.32
 20
-314.042
 30
0.000000
  70
    32
  0
VERTEX
  8
01
  5
9740
 10
5348.25
 20
-314.054
 30
0.000000
  70
    32
  0
VERTEX
  8
01
  5
9741
 10
5348.17
 20
-314.067
 30
0.000000
  70
    32
  0
VERTEX
  8
01
  5
9742
 10
5348.10
 20
-314.079
 30
0.000000
  70
    32
  0
VERTEX
  8
01
  5
9743
 10
5348.02
 20
-314.091
 30
0.000000
  70
    32
  0
VERTEX
  8
01
  5
9744
 10
5347.95
 20
-314.103
 30
0.000000
  70
    32
  0
VERTEX
  8
01
  5
9745
 10
5347.87
 20
-314.115
 30
0.000000
  70
    32
  0
VERTEX
  8
01
  5
9746
 10
5347.79
 20
-314.127
 30
0.000000
  70
    32
  0
VERTEX
  8
01
  5
9747
 10
5347.72
 20
-314.139
 30
0.000000
  70
    32
  0
VERTEX
  8
01
  5
9748
 10
5347.64
 20
-314.150
 30
0.000000
  70
    32
  0
VERTEX
  8
01
  5
9749
 10
5347.56
 20
-314.162
 30
0.000000
  70
    32
  0
VERTEX
  8
01
  5
974A
 10
5347.49
 20
-314.174
 30
0.000000
  70
    32
  0
VERTEX
  8
01
  5
974B
 10
5347.41
 20
-314.185
 30
0.000000
  70
    32
  0
VERTEX
  8
01
  5
974C
 10
5347.33
 20
-314.197
 30
0.000000
  70
    32
  0
VERTEX
  8
01
  5
974D
 10
5347.25
 20
-314.208
 30
0.000000
  70
    32
  0
VERTEX
  8
01
  5
974E
 10
5347.17
 20
-314.220
 30
0.000000
  70
    32
  0
VERTEX
  8
01
  5
974F
 10
5347.10
 20
-314.231
 30
0.000000
  70
    32
  0
VERTEX
  8
01
  5
9750
 10
5347.02
 20
-314.242
 30
0.000000
  70
    32
  0
VERTEX
  8
01
  5
9751
 10
5346.94
 20
-314.253
 30
0.000000
  70
    32
  0
VERTEX
  8
01
  5
9752
 10
5346.86
 20
-314.264
 30
0.000000
  70
    32
  0
VERTEX
  8
01
  5
9753
 10
5346.78
 20
-314.275
 30
0.000000
  70
    32
  0
VERTEX
  8
01
  5
9754
 10
5346.70
 20
-314.286
 30
0.000000
  70
    32
  0
VERTEX
  8
01
  5
9755
 10
5346.62
 20
-314.297
 30
0.000000
  70
    32
  0
VERTEX
  8
01
  5
9756
 10
5346.54
 20
-314.308
 30
0.000000
  70
    32
  0
VERTEX
  8
01
  5
9757
 10
5346.46
 20
-314.319
 30
0.000000
  70
    32
  0
VERTEX
  8
01
  5
9758
 10
5346.38
 20
-314.329
 30
0.000000
  70
    32
  0
VERTEX
  8
01
  5
9759
 10
5346.30
 20
-314.340
 30
0.000000
  70
    32
  0
VERTEX
  8
01
  5
975A
 10
5346.22
 20
-314.350
 30
0.000000
  70
    32
  0
VERTEX
  8
01
  5
975B
 10
5346.13
 20
-314.361
 30
0.000000
  70
    32
  0
VERTEX
  8
01
  5
975C
 10
5346.05
 20
-314.371
 30
0.000000
  70
    32
  0
VERTEX
  8
01
  5
975D
 10
5345.97
 20
-314.381
 30
0.000000
  70
    32
  0
VERTEX
  8
01
  5
975E
 10
5345.89
 20
-314.391
 30
0.000000
  70
    32
  0
VERTEX
  8
01
  5
975F
 10
5345.81
 20
-314.401
 30
0.000000
  70
    32
  0
VERTEX
  8
01
  5
9760
 10
5345.72
 20
-314.412
 30
0.000000
  70
    32
  0
VERTEX
  8
01
  5
9761
 10
5345.64
 20
-314.421
 30
0.000000
  70
    32
  0
VERTEX
  8
01
  5
9762
 10
5345.56
 20
-314.431
 30
0.000000
  70
    32
  0
VERTEX
  8
01
  5
9763
 10
5345.48
 20
-314.441
 30
0.000000
  70
    32
  0
VERTEX
  8
01
  5
9764
 10
5345.39
 20
-314.451
 30
0.000000
  70
    32
  0
VERTEX
  8
01
  5
9765
 10
5345.31
 20
-314.460
 30
0.000000
  70
    32
  0
VERTEX
  8
01
  5
9766
 10
5345.23
 20
-314.470
 30
0.000000
  70
    32
  0
VERTEX
  8
01
  5
9767
 10
5345.14
 20
-314.479
 30
0.000000
  70
    32
  0
VERTEX
  8
01
  5
9768
 10
5345.06
 20
-314.489
 30
0.000000
  70
    32
  0
VERTEX
  8
01
  5
9769
 10
5344.97
 20
-314.498
 30
0.000000
  70
    32
  0
VERTEX
  8
01
  5
976A
 10
5344.89
 20
-314.507
 30
0.000000
  70
    32
  0
VERTEX
  8
01
  5
976B
 10
5344.80
 20
-314.516
 30
0.000000
  70
    32
  0
VERTEX
  8
01
  5
976C
 10
5344.72
 20
-314.525
 30
0.000000
  70
    32
  0
VERTEX
  8
01
  5
976D
 10
5344.63
 20
-314.534
 30
0.000000
  70
    32
  0
VERTEX
  8
01
  5
976E
 10
5344.55
 20
-314.543
 30
0.000000
  70
    32
  0
VERTEX
  8
01
  5
976F
 10
5344.46
 20
-314.552
 30
0.000000
  70
    32
  0
VERTEX
  8
01
  5
9770
 10
5344.38
 20
-314.560
 30
0.000000
  70
    32
  0
VERTEX
  8
01
  5
9771
 10
5344.29
 20
-314.569
 30
0.000000
  70
    32
  0
VERTEX
  8
01
  5
9772
 10
5344.21
 20
-314.577
 30
0.000000
  70
    32
  0
VERTEX
  8
01
  5
9773
 10
5344.12
 20
-314.586
 30
0.000000
  70
    32
  0
VERTEX
  8
01
  5
9774
 10
5344.03
 20
-314.594
 30
0.000000
  70
    32
  0
VERTEX
  8
01
  5
9775
 10
5343.95
 20
-314.602
 30
0.000000
  70
    32
  0
VERTEX
  8
01
  5
9776
 10
5343.86
 20
-314.610
 30
0.000000
  70
    32
  0
VERTEX
  8
01
  5
9777
 10
5343.77
 20
-314.618
 30
0.000000
  70
    32
  0
VERTEX
  8
01
  5
9778
 10
5343.68
 20
-314.626
 30
0.000000
  70
    32
  0
VERTEX
  8
01
  5
9779
 10
5343.60
 20
-314.634
 30
0.000000
  70
    32
  0
VERTEX
  8
01
  5
977A
 10
5343.51
 20
-314.642
 30
0.000000
  70
    32
  0
VERTEX
  8
01
  5
977B
 10
5343.42
 20
-314.649
 30
0.000000
  70
    32
  0
VERTEX
  8
01
  5
977C
 10
5343.33
 20
-314.657
 30
0.000000
  70
    32
  0
VERTEX
  8
01
  5
977D
 10
5343.25
 20
-314.664
 30
0.000000
  70
    32
  0
VERTEX
  8
01
  5
977E
 10
5343.16
 20
-314.672
 30
0.000000
  70
    32
  0
VERTEX
  8
01
  5
977F
 10
5343.07
 20
-314.679
 30
0.000000
  70
    32
  0
VERTEX
  8
01
  5
9780
 10
5342.98
 20
-314.686
 30
0.000000
  70
    32
  0
VERTEX
  8
01
  5
9781
 10
5342.89
 20
-314.693
 30
0.000000
  70
    32
  0
VERTEX
  8
01
  5
9782
 10
5342.80
 20
-314.700
 30
0.000000
  70
    32
  0
VERTEX
  8
01
  5
9783
 10
5342.71
 20
-314.707
 30
0.000000
  70
    32
  0
VERTEX
  8
01
  5
9784
 10
5342.62
 20
-314.714
 30
0.000000
  70
    32
  0
VERTEX
  8
01
  5
9785
 10
5342.53
 20
-314.720
 30
0.000000
  70
    32
  0
VERTEX
  8
01
  5
9786
 10
5342.44
 20
-314.727
 30
0.000000
  70
    32
  0
VERTEX
  8
01
  5
9787
 10
5342.35
 20
-314.733
 30
0.000000
  70
    32
  0
VERTEX
  8
01
  5
9788
 10
5342.26
 20
-314.740
 30
0.000000
  70
    32
  0
VERTEX
  8
01
  5
9789
 10
5342.17
 20
-314.746
 30
0.000000
  70
    32
  0
VERTEX
  8
01
  5
978A
 10
5342.08
 20
-314.752
 30
0.000000
  70
    32
  0
VERTEX
  8
01
  5
978B
 10
5342.00
 20
-314.758
 30
0.000000
  70
    32
  0
VERTEX
  8
01
  5
978C
 10
5341.91
 20
-314.764
 30
0.000000
  70
    32
  0
VERTEX
  8
01
  5
978D
 10
5341.82
 20
-314.770
 30
0.000000
  70
    32
  0
VERTEX
  8
01
  5
978E
 10
5341.73
 20
-314.776
 30
0.000000
  70
    32
  0
VERTEX
  8
01
  5
978F
 10
5341.64
 20
-314.781
 30
0.000000
  70
    32
  0
VERTEX
  8
01
  5
9790
 10
5341.55
 20
-314.787
 30
0.000000
  70
    32
  0
VERTEX
  8
01
  5
9791
 10
5341.46
 20
-314.792
 30
0.000000
  70
    32
  0
VERTEX
  8
01
  5
9792
 10
5341.37
 20
-314.797
 30
0.000000
  70
    32
  0
VERTEX
  8
01
  5
9793
 10
5341.28
 20
-314.802
 30
0.000000
  70
    32
  0
VERTEX
  8
01
  5
9794
 10
5341.19
 20
-314.807
 30
0.000000
  70
    32
  0
VERTEX
  8
01
  5
9795
 10
5341.09
 20
-314.812
 30
0.000000
  70
    32
  0
VERTEX
  8
01
  5
9796
 10
5341.00
 20
-314.817
 30
0.000000
  70
    32
  0
VERTEX
  8
01
  5
9797
 10
5340.91
 20
-314.822
 30
0.000000
  70
    32
  0
VERTEX
  8
01
  5
9798
 10
5340.82
 20
-314.827
 30
0.000000
  70
    32
  0
VERTEX
  8
01
  5
9799
 10
5340.73
 20
-314.831
 30
0.000000
  70
    32
  0
VERTEX
  8
01
  5
979A
 10
5340.64
 20
-314.836
 30
0.000000
  70
    32
  0
VERTEX
  8
01
  5
979B
 10
5340.55
 20
-314.840
 30
0.000000
  70
    32
  0
VERTEX
  8
01
  5
979C
 10
5340.46
 20
-314.844
 30
0.000000
  70
    32
  0
VERTEX
  8
01
  5
979D
 10
5340.37
 20
-314.848
 30
0.000000
  70
    32
  0
VERTEX
  8
01
  5
979E
 10
5340.28
 20
-314.852
 30
0.000000
  70
    32
  0
VERTEX
  8
01
  5
979F
 10
5340.19
 20
-314.856
 30
0.000000
  70
    32
  0
VERTEX
  8
01
  5
97A0
 10
5340.10
 20
-314.860
 30
0.000000
  70
    32
  0
VERTEX
  8
01
  5
97A1
 10
5340.00
 20
-314.863
 30
0.000000
  70
    32
  0
VERTEX
  8
01
  5
97A2
 10
5339.91
 20
-314.867
 30
0.000000
  70
    32
  0
VERTEX
  8
01
  5
97A3
 10
5339.82
 20
-314.870
 30
0.000000
  70
    32
  0
VERTEX
  8
01
  5
97A4
 10
5339.73
 20
-314.874
 30
0.000000
  70
    32
  0
VERTEX
  8
01
  5
97A5
 10
5339.64
 20
-314.877
 30
0.000000
  70
    32
  0
VERTEX
  8
01
  5
97A6
 10
5339.55
 20
-314.880
 30
0.000000
  70
    32
  0
VERTEX
  8
01
  5
97A7
 10
5339.45
 20
-314.883
 30
0.000000
  70
    32
  0
VERTEX
  8
01
  5
97A8
 10
5339.36
 20
-314.886
 30
0.000000
  70
    32
  0
VERTEX
  8
01
  5
97A9
 10
5339.27
 20
-314.889
 30
0.000000
  70
    32
  0
VERTEX
  8
01
  5
97AA
 10
5339.18
 20
-314.891
 30
0.000000
  70
    32
  0
VERTEX
  8
01
  5
97AB
 10
5339.08
 20
-314.894
 30
0.000000
  70
    32
  0
VERTEX
  8
01
  5
97AC
 10
5338.99
 20
-314.896
 30
0.000000
  70
    32
  0
VERTEX
  8
01
  5
97AD
 10
5338.90
 20
-314.899
 30
0.000000
  70
    32
  0
VERTEX
  8
01
  5
97AE
 10
5338.80
 20
-314.901
 30
0.000000
  70
    32
  0
VERTEX
  8
01
  5
97AF
 10
5338.71
 20
-314.903
 30
0.000000
  70
    32
  0
VERTEX
  8
01
  5
97B0
 10
5338.62
 20
-314.905
 30
0.000000
  70
    32
  0
VERTEX
  8
01
  5
97B1
 10
5338.52
 20
-314.907
 30
0.000000
  70
    32
  0
VERTEX
  8
01
  5
97B2
 10
5338.43
 20
-314.908
 30
0.000000
  70
    32
  0
VERTEX
  8
01
  5
97B3
 10
5338.34
 20
-314.910
 30
0.000000
  70
    32
  0
VERTEX
  8
01
  5
97B4
 10
5338.25
 20
-314.912
 30
0.000000
  70
    32
  0
VERTEX
  8
01
  5
97B5
 10
5338.15
 20
-314.913
 30
0.000000
  70
    32
  0
VERTEX
  8
01
  5
97B6
 10
5338.06
 20
-314.914
 30
0.000000
  70
    32
  0
VERTEX
  8
01
  5
97B7
 10
5337.97
 20
-314.915
 30
0.000000
  70
    32
  0
VERTEX
  8
01
  5
97B8
 10
5337.87
 20
-314.916
 30
0.000000
  70
    32
  0
VERTEX
  8
01
  5
97B9
 10
5337.78
 20
-314.917
 30
0.000000
  70
    32
  0
VERTEX
  8
01
  5
97BA
 10
5337.69
 20
-314.918
 30
0.000000
  70
    32
  0
VERTEX
  8
01
  5
97BB
 10
5337.59
 20
-314.919
 30
0.000000
  70
    32
  0
VERTEX
  8
01
  5
97BC
 10
5337.50
 20
-314.919
 30
0.000000
  70
    32
  0
VERTEX
  8
01
  5
97BD
 10
5337.41
 20
-314.920
 30
0.000000
  70
    32
  0
VERTEX
  8
01
  5
97BE
 10
5337.31
 20
-314.920
 30
0.000000
  70
    32
  0
VERTEX
  8
01
  5
97BF
 10
5337.22
 20
-314.921
 30
0.000000
  70
    32
  0
VERTEX
  8
01
  5
97C0
 10
5337.13
 20
-314.921
 30
0.000000
  70
    32
  0
VERTEX
  8
01
  5
97C1
 10
5337.03
 20
-314.921
 30
0.000000
  70
    32
  0
VERTEX
  8
01
  5
97C2
 10
5336.94
 20
-314.922
 30
0.000000
  70
    32
  0
VERTEX
  8
01
  5
97C3
 10
5336.85
 20
-314.922
 30
0.000000
  70
    32
  0
VERTEX
  8
01
  5
97C4
 10
5336.75
 20
-314.922
 30
0.000000
  70
    32
  0
VERTEX
  8
01
  5
97C5
 10
5336.66
 20
-314.922
 30
0.000000
  70
    32
  0
VERTEX
  8
01
  5
97C6
 10
5336.57
 20
-314.922
 30
0.000000
  70
    32
  0
VERTEX
  8
01
  5
97C7
 10
5336.48
 20
-314.922
 30
0.000000
  70
    32
  0
VERTEX
  8
01
  5
97C8
 10
5336.38
 20
-314.922
 30
0.000000
  70
    32
  0
VERTEX
  8
01
  5
97C9
 10
5336.29
 20
-314.922
 30
0.000000
  70
    32
  0
VERTEX
  8
01
  5
97CA
 10
5336.20
 20
-314.922
 30
0.000000
  70
    32
  0
VERTEX
  8
01
  5
97CB
 10
5336.10
 20
-314.922
 30
0.000000
  70
    32
  0
VERTEX
  8
01
  5
97CC
 10
5336.01
 20
-314.922
 30
0.000000
  70
    32
  0
VERTEX
  8
01
  5
97CD
 10
5335.92
 20
-314.922
 30
0.000000
  70
    32
  0
VERTEX
  8
01
  5
97CE
 10
5335.82
 20
-314.922
 30
0.000000
  70
    32
  0
VERTEX
  8
01
  5
97CF
 10
5335.73
 20
-314.922
 30
0.000000
  70
    32
  0
VERTEX
  8
01
  5
97D0
 10
5335.64
 20
-314.922
 30
0.000000
  70
    32
  0
VERTEX
  8
01
  5
97D1
 10
5335.54
 20
-314.922
 30
0.000000
  70
    32
  0
VERTEX
  8
01
  5
97D2
 10
5335.45
 20
-314.922
 30
0.000000
  70
    32
  0
VERTEX
  8
01
  5
97D3
 10
5335.36
 20
-314.922
 30
0.000000
  70
    32
  0
VERTEX
  8
01
  5
97D4
 10
5335.26
 20
-314.922
 30
0.000000
  70
    32
  0
VERTEX
  8
01
  5
97D5
 10
5335.17
 20
-314.922
 30
0.000000
  70
    32
  0
VERTEX
  8
01
  5
97D6
 10
5335.08
 20
-314.922
 30
0.000000
  70
    32
  0
VERTEX
  8
01
  5
97D7
 10
5334.98
 20
-314.922
 30
0.000000
  70
    32
  0
VERTEX
  8
01
  5
97D8
 10
5334.89
 20
-314.922
 30
0.000000
  70
    32
  0
VERTEX
  8
01
  5
97D9
 10
5334.80
 20
-314.922
 30
0.000000
  70
    32
  0
VERTEX
  8
01
  5
97DA
 10
5334.70
 20
-314.922
 30
0.000000
  70
    32
  0
VERTEX
  8
01
  5
97DB
 10
5334.61
 20
-314.922
 30
0.000000
  70
    32
  0
VERTEX
  8
01
  5
97DC
 10
5334.52
 20
-314.922
 30
0.000000
  70
    32
  0
VERTEX
  8
01
  5
97DD
 10
5334.42
 20
-314.922
 30
0.000000
  70
    32
  0
VERTEX
  8
01
  5
97DE
 10
5334.33
 20
-314.922
 30
0.000000
  70
    32
  0
VERTEX
  8
01
  5
97DF
 10
5334.24
 20
-314.922
 30
0.000000
  70
    32
  0
VERTEX
  8
01
  5
97E0
 10
5334.14
 20
-314.922
 30
0.000000
  70
    32
  0
VERTEX
  8
01
  5
97E1
 10
5334.05
 20
-314.922
 30
0.000000
  70
    32
  0
VERTEX
  8
01
  5
97E2
 10
5333.96
 20
-314.922
 30
0.000000
  70
    32
  0
VERTEX
  8
01
  5
97E3
 10
5333.87
 20
-314.922
 30
0.000000
  70
    32
  0
VERTEX
  8
01
  5
97E4
 10
5333.77
 20
-314.922
 30
0.000000
  70
    32
  0
VERTEX
  8
01
  5
97E5
 10
5333.68
 20
-314.922
 30
0.000000
  70
    32
  0
VERTEX
  8
01
  5
97E6
 10
5333.59
 20
-314.922
 30
0.000000
  70
    32
  0
VERTEX
  8
01
  5
97E7
 10
5333.49
 20
-314.922
 30
0.000000
  70
    32
  0
VERTEX
  8
01
  5
97E8
 10
5333.40
 20
-314.922
 30
0.000000
  70
    32
  0
VERTEX
  8
01
  5
97E9
 10
5333.31
 20
-314.922
 30
0.000000
  70
    32
  0
VERTEX
  8
01
  5
97EA
 10
5333.21
 20
-314.922
 30
0.000000
  70
    32
  0
VERTEX
  8
01
  5
97EB
 10
5333.12
 20
-314.922
 30
0.000000
  70
    32
  0
VERTEX
  8
01
  5
97EC
 10
5333.03
 20
-314.922
 30
0.000000
  70
    32
  0
VERTEX
  8
01
  5
97ED
 10
5332.93
 20
-314.922
 30
0.000000
  70
    32
  0
VERTEX
  8
01
  5
97EE
 10
5332.84
 20
-314.922
 30
0.000000
  70
    32
  0
VERTEX
  8
01
  5
97EF
 10
5332.75
 20
-314.922
 30
0.000000
  70
    32
  0
VERTEX
  8
01
  5
97F0
 10
5332.65
 20
-314.922
 30
0.000000
  70
    32
  0
VERTEX
  8
01
  5
97F1
 10
5332.56
 20
-314.922
 30
0.000000
  70
    32
  0
VERTEX
  8
01
  5
97F2
 10
5332.47
 20
-314.922
 30
0.000000
  70
    32
  0
VERTEX
  8
01
  5
97F3
 10
5332.37
 20
-314.922
 30
0.000000
  70
    32
  0
VERTEX
  8
01
  5
97F4
 10
5332.28
 20
-314.922
 30
0.000000
  70
    32
  0
VERTEX
  8
01
  5
97F5
 10
5332.19
 20
-314.922
 30
0.000000
  70
    32
  0
VERTEX
  8
01
  5
97F6
 10
5332.09
 20
-314.922
 30
0.000000
  70
    32
  0
VERTEX
  8
01
  5
97F7
 10
5332.00
 20
-314.922
 30
0.000000
  70
    32
  0
VERTEX
  8
01
  5
97F8
 10
5331.91
 20
-314.922
 30
0.000000
  70
    32
  0
VERTEX
  8
01
  5
97F9
 10
5331.81
 20
-314.922
 30
0.000000
  70
    32
  0
VERTEX
  8
01
  5
97FA
 10
5331.72
 20
-314.922
 30
0.000000
  70
    32
  0
VERTEX
  8
01
  5
97FB
 10
5331.63
 20
-314.922
 30
0.000000
  70
    32
  0
VERTEX
  8
01
  5
97FC
 10
5331.53
 20
-314.922
 30
0.000000
  70
    32
  0
VERTEX
  8
01
  5
97FD
 10
5331.44
 20
-314.922
 30
0.000000
  70
    32
  0
VERTEX
  8
01
  5
97FE
 10
5331.35
 20
-314.922
 30
0.000000
  70
    32
  0
VERTEX
  8
01
  5
97FF
 10
5331.25
 20
-314.922
 30
0.000000
  70
    32
  0
VERTEX
  8
01
  5
9800
 10
5331.16
 20
-314.922
 30
0.000000
  70
    32
  0
VERTEX
  8
01
  5
9801
 10
5331.07
 20
-314.922
 30
0.000000
  70
    32
  0
VERTEX
  8
01
  5
9802
 10
5330.97
 20
-314.922
 30
0.000000
  70
    32
  0
VERTEX
  8
01
  5
9803
 10
5330.88
 20
-314.922
 30
0.000000
  70
    32
  0
VERTEX
  8
01
  5
9804
 10
5330.79
 20
-314.922
 30
0.000000
  70
    32
  0
VERTEX
  8
01
  5
9805
 10
5330.69
 20
-314.922
 30
0.000000
  70
    32
  0
VERTEX
  8
01
  5
9806
 10
5330.60
 20
-314.922
 30
0.000000
  70
    32
  0
VERTEX
  8
01
  5
9807
 10
5330.51
 20
-314.922
 30
0.000000
  70
    32
  0
VERTEX
  8
01
  5
9808
 10
5330.41
 20
-314.922
 30
0.000000
  70
    32
  0
VERTEX
  8
01
  5
9809
 10
5330.32
 20
-314.922
 30
0.000000
  70
    32
  0
VERTEX
  8
01
  5
980A
 10
5330.23
 20
-314.922
 30
0.000000
  70
    32
  0
VERTEX
  8
01
  5
980B
 10
5330.14
 20
-314.922
 30
0.000000
  70
    32
  0
VERTEX
  8
01
  5
980C
 10
5330.04
 20
-314.922
 30
0.000000
  70
    32
  0
VERTEX
  8
01
  5
980D
 10
5329.95
 20
-314.922
 30
0.000000
  70
    32
  0
VERTEX
  8
01
  5
980E
 10
5329.86
 20
-314.922
 30
0.000000
  70
    32
  0
VERTEX
  8
01
  5
980F
 10
5329.76
 20
-314.922
 30
0.000000
  70
    32
  0
VERTEX
  8
01
  5
9810
 10
5329.67
 20
-314.922
 30
0.000000
  70
    32
  0
VERTEX
  8
01
  5
9811
 10
5329.58
 20
-314.922
 30
0.000000
  70
    32
  0
VERTEX
  8
01
  5
9812
 10
5329.48
 20
-314.922
 30
0.000000
  70
    32
  0
VERTEX
  8
01
  5
9813
 10
5329.39
 20
-314.921
 30
0.000000
  70
    32
  0
VERTEX
  8
01
  5
9814
 10
5329.30
 20
-314.921
 30
0.000000
  70
    32
  0
VERTEX
  8
01
  5
9815
 10
5329.20
 20
-314.921
 30
0.000000
  70
    32
  0
VERTEX
  8
01
  5
9816
 10
5329.11
 20
-314.921
 30
0.000000
  70
    32
  0
VERTEX
  8
01
  5
9817
 10
5329.02
 20
-314.921
 30
0.000000
  70
    32
  0
VERTEX
  8
01
  5
9818
 10
5328.92
 20
-314.921
 30
0.000000
  70
    32
  0
VERTEX
  8
01
  5
9819
 10
5328.83
 20
-314.921
 30
0.000000
  70
    32
  0
VERTEX
  8
01
  5
981A
 10
5328.74
 20
-314.921
 30
0.000000
  70
    32
  0
VERTEX
  8
01
  5
981B
 10
5328.64
 20
-314.921
 30
0.000000
  70
    32
  0
VERTEX
  8
01
  5
981C
 10
5328.55
 20
-314.921
 30
0.000000
  70
    32
  0
VERTEX
  8
01
  5
981D
 10
5328.46
 20
-314.921
 30
0.000000
  70
    32
  0
VERTEX
  8
01
  5
981E
 10
5328.36
 20
-314.921
 30
0.000000
  70
    32
  0
VERTEX
  8
01
  5
981F
 10
5328.27
 20
-314.921
 30
0.000000
  70
    32
  0
VERTEX
  8
01
  5
9820
 10
5328.18
 20
-314.921
 30
0.000000
  70
    32
  0
VERTEX
  8
01
  5
9821
 10
5328.08
 20
-314.921
 30
0.000000
  70
    32
  0
VERTEX
  8
01
  5
9822
 10
5327.99
 20
-314.921
 30
0.000000
  70
    32
  0
VERTEX
  8
01
  5
9823
 10
5327.90
 20
-314.921
 30
0.000000
  70
    32
  0
VERTEX
  8
01
  5
9824
 10
5327.80
 20
-314.921
 30
0.000000
  70
    32
  0
VERTEX
  8
01
  5
9825
 10
5327.71
 20
-314.921
 30
0.000000
  70
    32
  0
VERTEX
  8
01
  5
9826
 10
5327.62
 20
-314.921
 30
0.000000
  70
    32
  0
VERTEX
  8
01
  5
9827
 10
5327.52
 20
-314.921
 30
0.000000
  70
    32
  0
VERTEX
  8
01
  5
9828
 10
5327.43
 20
-314.921
 30
0.000000
  70
    32
  0
VERTEX
  8
01
  5
9829
 10
5327.34
 20
-314.921
 30
0.000000
  70
    32
  0
VERTEX
  8
01
  5
982A
 10
5327.24
 20
-314.921
 30
0.000000
  70
    32
  0
VERTEX
  8
01
  5
982B
 10
5327.15
 20
-314.921
 30
0.000000
  70
    32
  0
VERTEX
  8
01
  5
982C
 10
5327.06
 20
-314.921
 30
0.000000
  70
    32
  0
VERTEX
  8
01
  5
982D
 10
5326.96
 20
-314.921
 30
0.000000
  70
    32
  0
SEQEND
  8
01
  5
982E
  0
LINE
  5
926E
  8
01
 10
5379.964677597357
 20
-322.78987759121082
 30
0.0
 11
5326.9646775973588
 21
-322.78987759121082
 31
0.0
  0
LINE
  5
926F
  8
01
 10
5379.964677597357
 20
-333.78987759121082
 30
0.0
 11
5326.9646775973579
 21
-333.78987759121082
 31
0.0
  0
ARC
  5
9270
  8
01
 10
5326.4184273488372
 20
-38.790374907179292
 30
0.0
 40
300.0
 50
270.10432617030438
 51
280.31643609873032
  0
LINE
  5
9271
  8
01
 10
5326.9646775973579
 20
-338.78987759121082
 30
0.0
 11
5326.9646775973579
 21
-328.28987759121082
 31
0.0
  0
LINE
  5
9272
  8
01
 10
5326.9646775973588
 20
-314.92110821610731
 30
0.0
 11
5326.9646775973579
 21
-328.28987759121082
 31
0.0
  0
LINE
  5
9273
  8
01
 10
5379.964677597357
 20
-309.1498775912105
 30
0.0
 11
5357.9646775973606
 21
-309.1498775912105
 31
0.0
  0
ARC
  5
9274
  8
01
 10
5357.9646775973606
 20
-310.1498775912105
 30
0.0
 40
1.0
 50
90.0
 51
180.0
  0
LINE
  5
9275
  8
01
 10
5356.9646775973597
 20
-310.1498775912105
 30
0.0
 11
5356.9646775973597
 21
-310.95854979292648
 31
0.0
  0
LINE
  5
9276
  8
01
 10
5380.9646775973579
 20
-332.9566528595015
 30
0.0
 11
5380.9646775973579
 21
-310.1498775912105
 31
0.0
  0
ARC
  5
9277
  8
01
 10
5379.964677597357
 20
-332.9566528595015
 30
0.0
 40
1.0
 50
280.31643609873032
 51
0.0
  0
ARC
  5
9278
  8
01
 10
5379.964677597357
 20
-310.1498775912105
 30
0.0
 40
1.0
 50
0.0
 51
90.0
  0
LINE
  5
9392
  8
01
 10
5503.1281985973592
 20
-217.28987759121171
 30
0.0
 11
5584.9720935973583
 21
-217.28987759121171
 31
0.0
  0
ARC
  5
9539
  8
01
 10
5325.9646775973579
 20
-352.78987759121082
 30
0.0
 40
0.5
 50
270.0
 51
0.0
  0
ARC
  5
953A
  8
01
 10
5325.9646775973579
 20
-303.78987759121082
 30
0.0
 40
0.5
 50
0.0
 51
90.0
  0
ARC
  5
953B
  8
01
 10
5443.4646775973588
 20
-186.28987759121071
 30
0.0
 40
0.5
 50
180.0
 51
270.0
  0
ARC
  5
953C
  8
01
 10
5492.464677597357
 20
-186.28987759121071
 30
0.0
 40
0.5
 50
270.0
 51
0.0
  0
POINT
  5
95E0
  8
01
 10
5332.464677597357
 20
-328.28987759121082
 30
0.0
  0
LINE
  5
95E1
  8
01
 10
5332.0646775873574
 20
-330.03987759121082
 30
0.0
 11
5332.0646775873574
 21
-329.18987757121067
 31
0.0
  0
LINE
  5
95E2
  8
01
 10
5332.8646776073583
 20
-330.03987759121082
 30
0.0
 11
5332.8646776073583
 21
-329.18987757121067
 31
0.0
  0
LINE
  5
95E3
  8
01
 10
5331.5646776173571
 20
-328.68987760121081
 30
0.0
 11
5330.7146775973579
 21
-328.68987760121081
 31
0.0
  0
LINE
  5
95E4
  8
01
 10
5331.5646776173571
 20
-327.8898775812109
 30
0.0
 11
5330.7146775973579
 21
-327.8898775812109
 31
0.0
  0
LINE
  5
95E5
  8
01
 10
5330.7146775973579
 20
-328.68987760121081
 30
0.0
 11
5330.7146775973579
 21
-327.8898775812109
 31
0.0
  0
LINE
  5
95E6
  8
01
 10
5332.8646776073583
 20
-330.03987759121082
 30
0.0
 11
5332.0646775873574
 21
-330.03987759121082
 31
0.0
  0
LINE
  5
95E7
  8
01
 10
5332.8646776073583
 20
-326.53987759121082
 30
0.0
 11
5332.8646776073583
 21
-327.38987761121098
 31
0.0
  0
LINE
  5
95E8
  8
01
 10
5332.0646775873574
 20
-326.53987759121082
 30
0.0
 11
5332.0646775873574
 21
-327.38987761121098
 31
0.0
  0
LINE
  5
95E9
  8
01
 10
5333.3646775773577
 20
-327.8898775812109
 30
0.0
 11
5334.2146775973579
 21
-327.8898775812109
 31
0.0
  0
LINE
  5
95EA
  8
01
 10
5333.3646775773577
 20
-328.68987760121081
 30
0.0
 11
5334.2146775973579
 21
-328.68987760121081
 31
0.0
  0
LINE
  5
95EB
  8
01
 10
5334.2146775973579
 20
-327.8898775812109
 30
0.0
 11
5334.2146775973579
 21
-328.68987760121081
 31
0.0
  0
LINE
  5
95EC
  8
01
 10
5332.0646775873574
 20
-326.53987759121082
 30
0.0
 11
5332.8646776073583
 21
-326.53987759121082
 31
0.0
  0
CIRCLE
  5
95ED
  8
01
 10
5332.464677597357
 20
-328.28987759121082
 30
0.0
 40
2.5
  0
ARC
  5
95EE
  8
01
 10
5333.3646775773577
 20
-327.38987761121098
 30
0.0
 40
0.5
 50
179.999989999999
 51
270.0
  0
ARC
  5
95EF
  8
01
 10
5333.3646775773577
 20
-329.18987757121067
 30
0.0
 40
0.5
 50
90.000002999984659
 51
180.000010000001
  0
ARC
  5
95F0
  8
01
 10
5331.5646776173571
 20
-329.18987757121067
 30
0.0
 40
0.5
 50
0.0
 51
90.000002999984659
  0
ARC
  5
95F1
  8
01
 10
5331.5646776173571
 20
-327.38987761121098
 30
0.0
 40
0.5
 50
270.0
 51
0.0
  0
CIRCLE
  5
95F3
  8
01
 10
5332.464677597357
 20
-328.28987759121082
 30
0.0
 40
3.0
  0
LINE
  5
95F4
  8
1DIM
 10
5521.7016245973582
 20
-309.15320059121041
 30
0.0
 11
5604.2720935973593
 21
-309.15320059121041
 31
0.0
  0
LINE
  5
95F5
  8
1DIM
 10
5586.962093597358
 20
-326.39423559121042
 30
0.0
 11
5604.2720935973593
 21
-326.39423559121042
 31
0.0
  0
LINE
  5
95F6
  8
1DIM
 10
5602.9720935973583
 20
-311.75320059121037
 30
0.0
 11
5602.9720935973583
 21
-323.79423559121039
 31
0.0
  0
LINE
  5
95FA
  8
1DIM
 10
5570.7198255947051
 20
-178.2898775912108
 30
0.0
 11
5614.2720935973584
 21
-178.2898775912108
 31
0.0
  0
LINE
  5
95FB
  8
1DIM
 10
5584.9720935973583
 20
-241.28987759121171
 30
0.0
 11
5614.2720935973584
 21
-241.28987759121171
 31
0.0
  0
LINE
  5
95FC
  8
1DIM
 10
5612.9720935973583
 20
-180.88987759121079
 30
0.0
 11
5612.9720935973583
 21
-238.68987759121171
 31
0.0
  0
LINE
  5
9600
  8
1DIM
 10
5570.7198255947051
 20
-178.2898775912108
 30
0.0
 11
5604.2720935973593
 21
-178.2898775912108
 31
0.0
  0
LINE
  5
9601
  8
1DIM
 10
5584.9720935973583
 20
-217.28987759121171
 30
0.0
 11
5604.2720935973593
 21
-217.28987759121171
 31
0.0
  0
LINE
  5
9602
  8
1DIM
 10
5602.9720935973583
 20
-180.88987759121079
 30
0.0
 11
5602.9720935973583
 21
-214.68987759121171
 31
0.0
  0
LINE
  5
9606
  8
1DIM
 10
5452.9672615973577
 20
-226.28987759121171
 30
0.0
 11
5452.9672615973577
 21
-267.58987759121169
 31
0.0
  0
LINE
  5
9607
  8
1DIM
 10
5587.9720935973583
 20
-238.28987759121171
 30
0.0
 11
5587.9720935973583
 21
-267.58987759121169
 31
0.0
  0
LINE
  5
9608
  8
1DIM
 10
5455.567261597359
 20
-266.28987759121168
 30
0.0
 11
5585.372093597357
 21
-266.28987759121168
 31
0.0
  0
LINE
  5
960C
  8
1DIM
 10
5467.9646775973579
 20
-198.08108747805809
 30
0.0
 11
5467.9646775973579
 21
-257.58987759121169
 31
0.0
  0
LINE
  5
960D
  8
1DIM
 10
5587.9720935973583
 20
-238.28987759121171
 30
0.0
 11
5587.9720935973583
 21
-257.58987759121169
 31
0.0
  0
LINE
  5
960E
  8
1DIM
 10
5470.5646775973592
 20
-256.28987759121168
 30
0.0
 11
5585.372093597357
 21
-256.28987759121168
 31
0.0
  0
LINE
  5
9612
  8
1DIM
 10
5467.9646775973579
 20
-303.28987759121082
 30
0.0
 11
5431.6646775973577
 21
-303.28987759121082
 31
0.0
  0
LINE
  5
9613
  8
1DIM
 10
5467.9646775973579
 20
-353.28987759120992
 30
0.0
 11
5431.6646775973577
 21
-353.28987759120992
 31
0.0
  0
LINE
  5
9614
  8
1DIM
 10
5432.964677597357
 20
-305.88987759121079
 30
0.0
 11
5432.964677597357
 21
-350.68987759120989
 31
0.0
  0
TEXT
  5
9618
  8
1DIM
 10
5432.0546775973571
 20
-336.22712355336552
 30
0.0
 40
4.5499999999999989
  1
φ50
 50
90.0
  0
LINE
  5
9619
  8
0
  6
BYBLOCK
 10
5433.6613454913577
 20
-350.68987759120989
 30
0.0
 11
5432.964677597357
 21
-353.28987759120992
 31
0.0
  0
LINE
  5
961A
  8
0
  6
BYBLOCK
 10
5432.964677597357
 20
-353.28987759120992
 30
0.0
 11
5432.2680097033581
 21
-350.68987759120989
 31
0.0
  0
LINE
  5
961B
  8
0
  6
BYBLOCK
 10
5432.964677597357
 20
-353.28987759120992
 30
0.0
 11
5432.964677597357
 21
-350.68987759120989
 31
0.0
  0
LINE
  5
961C
  8
0
  6
BYBLOCK
 10
5432.2680097033581
 20
-305.88987759121079
 30
0.0
 11
5432.964677597357
 21
-303.28987759121082
 31
0.0
  0
LINE
  5
961D
  8
0
  6
BYBLOCK
 10
5432.964677597357
 20
-303.28987759121082
 30
0.0
 11
5433.6613454913577
 21
-305.88987759121079
 31
0.0
  0
LINE
  5
961E
  8
0
  6
BYBLOCK
 10
5432.964677597357
 20
-303.28987759121082
 30
0.0
 11
5432.964677597357
 21
-305.88987759121079
 31
0.0
  0
TEXT
  5
961F
  8
1DIM
 10
5523.0392189306913
 20
-255.37987759121171
 30
0.0
 40
4.5499999999999989
  1
120 
  0
LINE
  5
9620
  8
0
  6
BYBLOCK
 10
5585.372093597357
 20
-255.59320969721171
 30
0.0
 11
5587.9720935973583
 21
-256.28987759121168
 31
0.0
  0
LINE
  5
9621
  8
0
  6
BYBLOCK
 10
5587.9720935973583
 20
-256.28987759121168
 30
0.0
 11
5585.372093597357
 21
-256.98654548521159
 31
0.0
  0
LINE
  5
9622
  8
0
  6
BYBLOCK
 10
5587.9720935973583
 20
-256.28987759121168
 30
0.0
 11
5585.372093597357
 21
-256.28987759121168
 31
0.0
  0
LINE
  5
9623
  8
0
  6
BYBLOCK
 10
5470.5646775973592
 20
-256.98654548521159
 30
0.0
 11
5467.9646775973579
 21
-256.28987759121168
 31
0.0
  0
LINE
  5
9624
  8
0
  6
BYBLOCK
 10
5467.9646775973579
 20
-256.28987759121168
 30
0.0
 11
5470.5646775973592
 21
-255.59320969721171
 31
0.0
  0
LINE
  5
9625
  8
0
  6
BYBLOCK
 10
5467.9646775973579
 20
-256.28987759121168
 30
0.0
 11
5470.5646775973592
 21
-256.28987759121168
 31
0.0
  0
TEXT
  5
9626
  8
1DIM
 10
5515.1613442640246
 20
-265.3798775912116
 30
0.0
 40
4.5499999999999989
  1
135 
  0
LINE
  5
9627
  8
0
  6
BYBLOCK
 10
5585.372093597357
 20
-265.59320969721171
 30
0.0
 11
5587.9720935973583
 21
-266.28987759121168
 31
0.0
  0
LINE
  5
9628
  8
0
  6
BYBLOCK
 10
5587.9720935973583
 20
-266.28987759121168
 30
0.0
 11
5585.372093597357
 21
-266.98654548521171
 31
0.0
  0
LINE
  5
9629
  8
0
  6
BYBLOCK
 10
5587.9720935973583
 20
-266.28987759121168
 30
0.0
 11
5585.372093597357
 21
-266.28987759121168
 31
0.0
  0
LINE
  5
962A
  8
0
  6
BYBLOCK
 10
5455.567261597359
 20
-266.98654548521171
 30
0.0
 11
5452.9672615973577
 21
-266.28987759121168
 31
0.0
  0
LINE
  5
962B
  8
0
  6
BYBLOCK
 10
5452.9672615973577
 20
-266.28987759121168
 30
0.0
 11
5455.567261597359
 21
-265.59320969721171
 31
0.0
  0
LINE
  5
962C
  8
0
  6
BYBLOCK
 10
5452.9672615973577
 20
-266.28987759121168
 30
0.0
 11
5455.567261597359
 21
-266.28987759121168
 31
0.0
  0
TEXT
  5
962D
  8
1DIM
 10
5602.0620935973566
 20
-201.581544257877
 30
0.0
 40
4.5499999999999989
  1
39 
 50
90.0
  0
LINE
  5
962E
  8
0
  6
BYBLOCK
 10
5603.6687614913581
 20
-214.68987759121171
 30
0.0
 11
5602.9720935973583
 21
-217.28987759121171
 31
0.0
  0
LINE
  5
962F
  8
0
  6
BYBLOCK
 10
5602.9720935973583
 20
-217.28987759121171
 30
0.0
 11
5602.2754257033585
 21
-214.68987759121171
 31
0.0
  0
LINE
  5
9630
  8
0
  6
BYBLOCK
 10
5602.9720935973583
 20
-217.28987759121171
 30
0.0
 11
5602.9720935973583
 21
-214.68987759121171
 31
0.0
  0
LINE
  5
9631
  8
0
  6
BYBLOCK
 10
5602.2754257033585
 20
-180.88987759121079
 30
0.0
 11
5602.9720935973583
 21
-178.2898775912108
 31
0.0
  0
LINE
  5
9632
  8
0
  6
BYBLOCK
 10
5602.9720935973583
 20
-178.2898775912108
 30
0.0
 11
5603.6687614913581
 21
-180.88987759121079
 31
0.0
  0
LINE
  5
9633
  8
0
  6
BYBLOCK
 10
5602.9720935973583
 20
-178.2898775912108
 30
0.0
 11
5602.9720935973583
 21
-180.88987759121079
 31
0.0
  0
TEXT
  5
9634
  8
1DIM
 10
5612.0620935973584
 20
-213.581544257877
 30
0.0
 40
4.5499999999999989
  1
63 
 50
90.0
  0
LINE
  5
9635
  8
0
  6
BYBLOCK
 10
5613.6687614913581
 20
-238.68987759121171
 30
0.0
 11
5612.9720935973583
 21
-241.28987759121171
 31
0.0
  0
LINE
  5
9636
  8
0
  6
BYBLOCK
 10
5612.9720935973583
 20
-241.28987759121171
 30
0.0
 11
5612.2754257033594
 21
-238.68987759121171
 31
0.0
  0
LINE
  5
9637
  8
0
  6
BYBLOCK
 10
5612.9720935973583
 20
-241.28987759121171
 30
0.0
 11
5612.9720935973583
 21
-238.68987759121171
 31
0.0
  0
LINE
  5
9638
  8
0
  6
BYBLOCK
 10
5612.2754257033594
 20
-180.88987759121079
 30
0.0
 11
5612.9720935973583
 21
-178.2898775912108
 31
0.0
  0
LINE
  5
9639
  8
0
  6
BYBLOCK
 10
5612.9720935973583
 20
-178.2898775912108
 30
0.0
 11
5613.6687614913581
 21
-180.88987759121079
 31
0.0
  0
LINE
  5
963A
  8
0
  6
BYBLOCK
 10
5612.9720935973583
 20
-178.2898775912108
 30
0.0
 11
5612.9720935973583
 21
-180.88987759121079
 31
0.0
  0
TEXT
  5
963B
  8
1DIM
 10
5602.0620935973566
 20
-320.80705142454292
 30
0.0
 40
4.5499999999999989
  1
17 
 50
90.0
  0
LINE
  5
963C
  8
0
  6
BYBLOCK
 10
5603.6687614913581
 20
-323.79423559121039
 30
0.0
 11
5602.9720935973583
 21
-326.39423559121042
 31
0.0
  0
LINE
  5
963D
  8
0
  6
BYBLOCK
 10
5602.9720935973583
 20
-326.39423559121042
 30
0.0
 11
5602.2754257033585
 21
-323.79423559121039
 31
0.0
  0
LINE
  5
963E
  8
0
  6
BYBLOCK
 10
5602.9720935973583
 20
-326.39423559121042
 30
0.0
 11
5602.9720935973583
 21
-323.79423559121039
 31
0.0
  0
LINE
  5
963F
  8
0
  6
BYBLOCK
 10
5602.2754257033585
 20
-311.75320059121037
 30
0.0
 11
5602.9720935973583
 21
-309.15320059121041
 31
0.0
  0
LINE
  5
9640
  8
0
  6
BYBLOCK
 10
5602.9720935973583
 20
-309.15320059121041
 30
0.0
 11
5603.6687614913581
 21
-311.75320059121037
 31
0.0
  0
LINE
  5
9641
  8
0
  6
BYBLOCK
 10
5602.9720935973583
 20
-309.15320059121041
 30
0.0
 11
5602.9720935973583
 21
-311.75320059121037
 31
0.0
  0
VIEWPORT
  5
57
 67
     1
  8
0
 10
-4.9662016484006983
 20
10.09248672500371
 30
0.0
 40
426.3831282856633
 41
282.73126111524778
 68
     1
 69
     1
1001
ACAD
1000
MVIEW
1002
{
1070
    16
1010
0.0
1020
0.0
1030
0.0
1010
0.0
1020
0.0
1030
1.0
1040
0.0
1040
282.73126111524778
1040
-4.9662016484006983
1040
10.09248672500371
1040
50.0
1040
0.0
1040
0.0
1070
     0
1070
   100
1070
     1
1070
     1
1070
     0
1070
     0
1070
     0
1070
     0
1040
0.0
1040
0.0
1040
0.0
1040
10.0
1040
10.0
1040
10.0
1040
10.0
1070
     0
1002
{
1002
}
1002
}
  0
ENDSEC
  0
EOF
