  0
SECTION
  2
HEADER
  9
$ACADVER
  1
AC1009
  9
$INSBASE
 10
0.0
 20
0.0
 30
0.0
  9
$EXTMIN
 10
1039.122614408124
 20
-798.37196341279423
 30
0.0
  9
$EXTMAX
 10
1748.476150212123
 20
-493.07196341279399
 30
0.0
  9
$LIMMIN
 10
0.0
 20
0.0
  9
$LIMMAX
 10
420.0
 20
297.0
  9
$ORTHOMODE
 70
     0
  9
$REGENMODE
 70
     1
  9
$FILLMODE
 70
     1
  9
$QTEXTMODE
 70
     0
  9
$MIRRTEXT
 70
     0
  9
$DRAGMODE
 70
     2
  9
$LTSCALE
 40
0.5
  9
$OSMODE
 70
    63
  9
$ATTMODE
 70
     1
  9
$TEXTSIZE
 40
4.0
  9
$TRACEWID
 40
1.0
  9
$TEXTSTYLE
  7
STANDARD
  9
$CLAYER
  8
1TEXT
  9
$CELTYPE
  6
BYLAYER
  9
$CECOLOR
 62
   256
  9
$DIMSCALE
 40
5.0
  9
$DIMASZ
 40
2.0
  9
$DIMEXO
 40
0.0
  9
$DIMDLI
 40
7.0
  9
$DIMRND
 40
0.0
  9
$DIMDLE
 40
0.0
  9
$DIMEXE
 40
1.0
  9
$DIMTP
 40
0.0
  9
$DIMTM
 40
0.0
  9
$DIMTXT
 40
3.5
  9
$DIMCEN
 40
0.0
  9
$DIMTSZ
 40
0.0
  9
$DIMTOL
 70
     0
  9
$DIMLIM
 70
     0
  9
$DIMTIH
 70
     0
  9
$DIMTOH
 70
     0
  9
$DIMSE1
 70
     0
  9
$DIMSE2
 70
     0
  9
$DIMTAD
 70
     1
  9
$DIMZIN
 70
     8
  9
$DIMBLK
  1

  9
$DIMASO
 70
     1
  9
$DIMSHO
 70
     1
  9
$DIMPOST
  1
 
  9
$DIMAPOST
  1

  9
$DIMALT
 70
     0
  9
$DIMALTD
 70
     2
  9
$DIMALTF
 40
25.399999999999999
  9
$DIMLFAC
 40
1.0
  9
$DIMTOFL
 70
     1
  9
$DIMTVP
 40
0.0
  9
$DIMTIX
 70
     0
  9
$DIMSOXD
 70
     0
  9
$DIMSAH
 70
     1
  9
$DIMBLK1
  1
OPEN30
  9
$DIMBLK2
  1
OPEN30
  9
$DIMSTYLE
  2
NEWX10
  9
$DIMCLRD
 70
   256
  9
$DIMCLRE
 70
   256
  9
$DIMCLRT
 70
   201
  9
$DIMTFAC
 40
0.7
  9
$DIMGAP
 40
0.7
  9
$LUNITS
 70
     2
  9
$LUPREC
 70
     4
  9
$SKETCHINC
 40
1.0
  9
$FILLETRAD
 40
0.0
  9
$AUNITS
 70
     0
  9
$AUPREC
 70
     2
  9
$MENU
  1
acad
  9
$ELEVATION
 40
0.0
  9
$PELEVATION
 40
0.0
  9
$THICKNESS
 40
0.0
  9
$LIMCHECK
 70
     0
  9
$BLIPMODE
 70
     0
  9
$CHAMFERA
 40
1.0
  9
$CHAMFERB
 40
1.0
  9
$SKPOLY
 70
     0
  9
$TDCREATE
 40
2453033.7326634838
  9
$TDUPDATE
 40
2456693.734399769
  9
$TDINDWG
 40
2.7279536806000002
  9
$TDUSRTIMER
 40
2.7279536806000002
  9
$USRTIMER
 70
     1
  9
$ANGBASE
 50
0.0
  9
$ANGDIR
 70
     0
  9
$PDMODE
 70
     0
  9
$PDSIZE
 40
0.0
  9
$PLINEWID
 40
0.0
  9
$COORDS
 70
     0
  9
$SPLFRAME
 70
     0
  9
$SPLINETYPE
 70
     6
  9
$SPLINESEGS
 70
     8
  9
$ATTDIA
 70
     0
  9
$ATTREQ
 70
     1
  9
$HANDLING
 70
     1
  9
$HANDSEED
  5
22659
  9
$SURFTAB1
 70
     6
  9
$SURFTAB2
 70
     6
  9
$SURFTYPE
 70
     6
  9
$SURFU
 70
     6
  9
$SURFV
 70
     6
  9
$UCSNAME
  2

  9
$UCSORG
 10
0.0
 20
0.0
 30
0.0
  9
$UCSXDIR
 10
1.0
 20
0.0
 30
0.0
  9
$UCSYDIR
 10
0.0
 20
1.0
 30
0.0
  9
$PUCSNAME
  2

  9
$PUCSORG
 10
0.0
 20
0.0
 30
0.0
  9
$PUCSXDIR
 10
1.0
 20
0.0
 30
0.0
  9
$PUCSYDIR
 10
0.0
 20
1.0
 30
0.0
  9
$USERI1
 70
     0
  9
$USERI2
 70
     0
  9
$USERI3
 70
     0
  9
$USERI4
 70
     0
  9
$USERI5
 70
     0
  9
$USERR1
 40
0.0
  9
$USERR2
 40
0.0
  9
$USERR3
 40
0.0
  9
$USERR4
 40
0.0
  9
$USERR5
 40
0.0
  9
$WORLDVIEW
 70
     1
  9
$SHADEDGE
 70
     3
  9
$SHADEDIF
 70
    70
  9
$TILEMODE
 70
     1
  9
$MAXACTVP
 70
    48
  9
$PLIMCHECK
 70
     0
  9
$PEXTMIN
 10
1.0000000000000000E+020
 20
1.0000000000000000E+020
 30
1.0000000000000000E+020
  9
$PEXTMAX
 10
-1.0000000000000000E+020
 20
-1.0000000000000000E+020
 30
-1.0000000000000000E+020
  9
$PLIMMIN
 10
0.0
 20
0.0
  9
$PLIMMAX
 10
420.0
 20
297.0
  9
$UNITMODE
 70
     0
  9
$VISRETAIN
 70
     1
  9
$PLINEGEN
 70
     0
  9
$PSLTSCALE
 70
     1
  0
ENDSEC
  0
SECTION
  2
TABLES
  0
TABLE
  2
VPORT
 70
     1
  0
VPORT
  2
*ACTIVE
 70
     0
 10
0.0
 20
0.0
 11
1.0
 21
1.0
 12
1393.8238498225321
 22
-645.72254509537106
 13
0.0
 23
0.0
 14
10.0
 24
10.0
 15
10.0
 25
10.0
 16
0.0
 26
0.0
 36
1.0
 17
0.0
 27
0.0
 37
0.0
 40
344.15943913087767
 41
2.1771217712177111
 42
50.0
 43
0.0
 44
0.0
 50
0.0
 51
0.0
 71
     0
 72
   100
 73
     1
 74
     1
 75
     0
 76
     0
 77
     0
 78
     0
  0
ENDTAB
  0
TABLE
  2
LTYPE
 70
    18
  0
LTYPE
  2
CONTINUOUS
 70
     0
  3
Solid line
 72
    65
 73
     0
 40
0.0
  0
LTYPE
  2
CENTER2
 70
     0
  3
Center (.5x) ___ _ ___ _ ___ _ ___ _ ___ _ ___
 72
    65
 73
     4
 40
28.574999999999999
 49
19.050000000000001
 49
-3.1749999999999989
 49
3.1749999999999989
 49
-3.1749999999999989
  0
LTYPE
  2
PHANTOM2
 70
     0
  3
Phantom (.5x) ___ _ _ ___ _ _ ___ _ _ ___ _ _
 72
    65
 73
     6
 40
31.75
 49
15.875
 49
-3.1749999999999989
 49
3.1749999999999989
 49
-3.1749999999999989
 49
3.1749999999999989
 49
-3.1749999999999989
  0
ENDTAB
  0
TABLE
  2
LAYER
 70
    44
  0
LAYER
  2
0
 70
     0
 62
     7
  6
CONTINUOUS
  0
LAYER
  2
1CENTER
 70
     0
 62
     7
  6
CENTER2
  0
LAYER
  2
1TEXT
 70
     0
 62
     7
  6
CONTINUOUS
  0
LAYER
  2
1DIM
 70
     0
 62
     7
  6
CONTINUOUS
  0
LAYER
  2
1PHANTOM
 70
     0
 62
     7
  6
PHANTOM2
  0
LAYER
  2
01
 70
     0
 62
     1
  6
CONTINUOUS
  0
LAYER
  2
1DIM1
 70
     0
 62
     7
  6
CONTINUOUS
  0
ENDTAB
  0
TABLE
  2
STYLE
 70
    24
  0
STYLE
  2
STANDARD
 70
     0
 40
0.0
 41
1.0
 50
0.0
 71
     0
 42
4.0
  3
txt.shx
  4
extfont.shx
  0
ENDTAB
  0
TABLE
  2
VIEW
 70
     5
  0
ENDTAB
  0
TABLE
  2
UCS
 70
     0
  0
ENDTAB
  0
TABLE
  2
APPID
 70
    14
  0
APPID
  2
ACAD
 70
     0
  0
APPID
  2
DRAWINGVARIABLESXDATA
 70
     0
  0
APPID
  2
CONTENTTABDATA
 70
     0
  0
APPID
  2
CONTENTCURRENTTAB
 70
     0
  0
APPID
  2
CONTENTBLOCKDESCRIPTION
 70
     0
  0
APPID
  2
CONTENTBLOCKICON
 70
     0
  0
APPID
  2
CONTENTLONGBLOCKNAME
 70
     0
  0
APPID
  2
ACAD_PSEXT
 70
     0
  0
APPID
  2
ACAD_DSTYLE_DIMTEXT_FILL
 70
     0
  0
APPID
  2
ACAD_MLEADERVER
 70
     0
  0
APPID
  2
ACAD_DSTYLE_DIMRADIAL_EXTENSION
 70
     0
  0
APPID
  2
ACADANNOTATIVE
 70
     0
  0
APPID
  2
ACAD_EXEMPT_FROM_CAD_STANDARDS
 70
     0
  0
APPID
  2
ACLAYERTOOLS
 70
     0
  0
ENDTAB
  0
TABLE
  2
DIMSTYLE
 70
    10
  0
DIMSTYLE
  2
NEWX10
 70
     0
  3
 
  4

  5

  6
OPEN30
  7
OPEN30
 40
1.0
 41
2.0
 42
0.0
 43
7.0
 44
1.0
 45
0.0
 46
0.0
 47
0.0
 48
0.0
140
3.5
141
0.0
142
0.0
143
25.399999999999999
144
1.0
145
0.0
146
0.7
147
0.7
 71
     0
 72
     0
 73
     0
 74
     0
 75
     0
 76
     0
 77
     1
 78
     8
170
     0
171
     2
172
     1
173
     1
174
     0
175
     0
176
   256
177
   256
178
   201
  0
ENDTAB
  0
ENDSEC
  0
SECTION
  2
BLOCKS
  0
BLOCK
  8
0
  2
$MODEL_SPACE
 70
     0
 10
0.0
 20
0.0
 30
0.0
  3
$MODEL_SPACE
  1

  0
ENDBLK
  5
1A
  8
0
  0
BLOCK
 67
     1
  8
0
  2
$PAPER_SPACE
 70
     0
 10
0.0
 20
0.0
 30
0.0
  3
$PAPER_SPACE
  1

  0
ENDBLK
  5
17
 67
     1
  8
0
  0
BLOCK
  8
0
  2
_OPEN30
 70
     0
 10
0.0
 20
0.0
 30
0.0
  3
_OPEN30
  1

  0
LINE
  5
44
  8
0
  6
BYBLOCK
 62
     0
 10
-1.0
 20
0.26794919
 30
0.0
 11
0.0
 21
0.0
 31
0.0
  0
LINE
  5
45
  8
0
  6
BYBLOCK
 62
     0
 10
0.0
 20
0.0
 30
0.0
 11
-1.0
 21
-0.26794919
 31
0.0
  0
LINE
  5
46
  8
0
  6
BYBLOCK
 62
     0
 10
0.0
 20
0.0
 30
0.0
 11
-1.0
 21
0.0
 31
0.0
  0
ENDBLK
  5
47
  8
0
  0
ENDSEC
  0
SECTION
  2
ENTITIES
  0
TEXT
  5
201C5
  8
1TEXT
 10
1630.5362365982151
 20
-583.37195639274478
 30
0.0
 40
8.0
  1
DH-081-X
  0
TEXT
  5
201C6
  8
1TEXT
 10
1668.6562365982149
 20
-593.87195639274466
 30
0.0
 40
4.0
  1
表面処理：握り
 41
0.9
 72
     1
 11
1682.936236598214
 21
-593.87195639274466
 31
0.0
  0
LINE
  5
201C7
  8
1DIM
 10
1630.5362365982151
 20
-588.37195639274466
 30
0.0
 11
1735.5362365982151
 21
-588.37195639274466
 31
0.0
  0
LINE
  5
201C8
  8
1DIM
 10
1630.5362365982151
 20
-602.37195639274466
 30
0.0
 11
1735.5362365982151
 21
-602.37195639274466
 31
0.0
  0
LINE
  5
201C9
  8
1DIM
 10
1630.5362365982151
 20
-595.37195639274478
 30
0.0
 11
1735.5362365982151
 21
-595.37195639274478
 31
0.0
  0
LINE
  5
201CA
  8
1DIM
 10
1630.5362365982151
 20
-609.37195639274466
 30
0.0
 11
1735.5362365982151
 21
-609.37195639274466
 31
0.0
  0
LINE
  5
201CB
  8
1DIM
 10
1630.5362365982151
 20
-609.37195639274466
 30
0.0
 11
1735.5362365982151
 21
-609.37195639274466
 31
0.0
  0
LINE
  5
201CC
  8
1DIM
 10
1700.5362365982151
 20
-588.37195639274466
 30
0.0
 11
1700.5362365982151
 21
-616.37195639274478
 31
0.0
  0
TEXT
  5
201CD
  8
1TEXT
 10
1711.136236598215
 20
-593.87195639274466
 30
0.0
 40
4.0
  1
コード
 72
     1
 11
1717.936236598214
 21
-593.87195639274466
 31
0.0
  0
LINE
  5
201CE
  8
1DIM
 10
1665.5362365982151
 20
-616.37195639274478
 30
0.0
 11
1665.5362365982151
 21
-588.37195639274466
 31
0.0
  0
LINE
  5
201CF
  8
1DIM
 10
1735.5362365982151
 20
-616.37195639274478
 30
0.0
 11
1735.5362365982151
 21
-588.37195639274466
 31
0.0
  0
TEXT
  5
201D0
  8
1TEXT
 10
1671.0695699315479
 20
-607.70724505226917
 30
0.0
 40
4.0
  1
ミディアム
 72
     1
 11
1682.936236598214
 21
-607.70724505226917
 31
0.0
  0
TEXT
  5
201D1
  8
1TEXT
 10
1631.669569931548
 20
-593.87195639274466
 30
0.0
 40
4.0
  1
表面処理：脚部
 72
     1
 11
1647.9362365982149
 21
-593.87195639274466
 31
0.0
  0
TEXT
  5
201D2
  8
1TEXT
 10
1638.602903264881
 20
-600.70724505226917
 30
0.0
 40
4.0
  1
クローム
 72
     1
 11
1647.9362365982149
 21
-600.70724505226917
 31
0.0
  0
LINE
  5
201D4
  8
1DIM
 10
1630.5362365982151
 20
-616.37195639274478
 30
0.0
 11
1630.5362365982151
 21
-588.37195639274466
 31
0.0
  0
TEXT
  5
201D5
  8
1TEXT
 10
1703.2362365982151
 20
-601.08631337639395
 30
0.0
 40
4.0
  1
DH-081-LC
 41
0.9
 72
     1
 11
1717.9362365982161
 21
-601.08631337639395
 31
0.0
  0
TEXT
  5
201D6
  8
1TEXT
 10
1666.669569931548
 20
-600.70724505226917
 30
0.0
 40
4.0
  1
ライトブラウン
 72
     1
 11
1682.936236598214
 21
-600.70724505226917
 31
0.0
  0
LINE
  5
20236
  8
1CENTER
 10
1532.599707288495
 20
-703.37196341279423
 30
0.0
 11
1514.599707288495
 21
-703.37196341279423
 31
0.0
  0
LINE
  5
20237
  8
1CENTER
 10
1523.599707288495
 20
-694.37196341279423
 30
0.0
 11
1523.599707288495
 21
-712.37196341279423
 31
0.0
  0
LINE
  5
20391
  8
01
 10
1681.1761489882049
 20
-678.37196341279378
 30
0.0
 11
1681.1761489882049
 21
-728.37196341279378
 31
0.0
  0
LINE
  5
20D36
  8
1CENTER
 10
1064.5996798044871
 20
-703.37196341279423
 30
0.0
 11
1082.5996798044871
 21
-703.37196341279423
 31
0.0
  0
LINE
  5
20D37
  8
1CENTER
 10
1073.5996798044871
 20
-694.37196341279423
 30
0.0
 11
1073.5996798044871
 21
-712.37196341279423
 31
0.0
  0
LINE
  5
2181C
  8
01
 10
1468.5996935464909
 20
-719.0719634008733
 30
0.0
 11
1468.5996935464909
 21
-687.67196342471516
 31
0.0
  0
LINE
  5
2181D
  8
01
 10
1468.29969353457
 20
-719.37196341279423
 30
0.0
 11
1468.5996935464909
 21
-719.0719634008733
 31
0.0
  0
LINE
  5
2181E
  8
01
 10
1468.29969353457
 20
-687.37196341279423
 30
0.0
 11
1468.5996935464909
 21
-687.67196342471516
 31
0.0
  0
LINE
  5
2181F
  8
01
 10
1468.29969353457
 20
-719.37196341279423
 30
0.0
 11
1128.8996935584121
 21
-719.37196341279423
 31
0.0
  0
LINE
  5
21820
  8
01
 10
1468.29969353457
 20
-687.37196341279423
 30
0.0
 11
1128.8996935584121
 21
-687.37196341279423
 31
0.0
  0
ARC
  5
21821
  8
01
 10
1539.2430179974619
 20
-683.36875912642654
 30
0.0
 40
1.9911827845248651
 50
24.63782239080356
 51
31.990875333542832
  0
ARC
  5
21822
  8
01
 10
1539.243018009136
 20
-723.37516770513525
 30
0.0
 40
1.991182771424153
 50
328.00912892684511
 51
335.36217762539201
  0
ARC
  5
21823
  8
01
 10
1495.5992972854849
 20
-703.37189937913365
 30
0.0
 40
50.000393138502233
 50
335.37597542802371
 51
359.6849532168543
  0
ARC
  5
21824
  8
01
 10
1495.599297285489
 20
-703.37202744645367
 30
0.0
 40
50.000393138498417
 50
0.3150467835365256
 51
24.624024571976339
  0
ARC
  5
21827
  8
01
 10
1468.899712835052
 20
-719.07171501269431
 30
0.0
 40
0.3000192889715203
 50
180.0029107032347
 51
270.05387228927282
  0
ARC
  5
21828
  8
01
 10
1468.899712834914
 20
-687.67221181275715
 30
0.0
 40
0.3000192888345585
 50
89.946127684489753
 51
179.9970893228724
  0
ARC
  5
2182F
  8
01
 10
1541.9202246647999
 20
-687.1029023978067
 30
0.0
 40
0.2998191837905439
 50
18.917474862446429
 51
93.1864306154514
  0
ARC
  5
21830
  8
01
 10
1541.920224664804
 20
-719.64102442778562
 30
0.0
 40
0.2998191837864515
 50
266.81356938413091
 51
341.0825251381591
  0
ARC
  5
21831
  8
01
 10
1501.4369271103651
 20
-703.363088827826
 30
0.0
 40
8.7429013712164547
 50
180.05815876449219
 51
264.17044558094022
  0
ARC
  5
21834
  8
01
 10
1501.4369271103781
 20
-703.38083799777439
 30
0.0
 40
8.7429013712294719
 50
95.829554419190714
 51
179.94184123542959
  0
LINE
  5
21835
  8
01
 10
1681.1761489882049
 20
-723.35788573118271
 30
0.0
 11
1681.1761489882049
 21
-683.38604109436926
 31
0.0
  0
LINE
  5
21836
  8
01
 10
1681.476157328023
 20
-683.38604109436926
 30
0.0
 11
1681.1761489882049
 21
-683.38604109436926
 31
0.0
  0
LINE
  5
21837
  8
01
 10
1681.4761450194901
 20
-723.35788573118271
 30
0.0
 11
1681.1761489882049
 21
-723.35788573118271
 31
0.0
  0
LINE
  5
21838
  8
01
 10
1653.1762812786901
 20
-723.35788573098489
 30
0.0
 11
1653.1762812786901
 21
-683.38604109417145
 31
0.0
  0
LINE
  5
21839
  8
01
 10
1652.8762750312189
 20
-683.38604109417145
 30
0.0
 11
1653.1762812786901
 21
-683.38604109417145
 31
0.0
  0
LINE
  5
2183A
  8
01
 10
1652.876288102437
 20
-723.35788573098489
 30
0.0
 11
1653.1762812786901
 21
-723.35788573098489
 31
0.0
  0
ARC
  5
2183F
  8
01
 10
1601.8764799208179
 20
-703.37109986369524
 30
0.0
 40
16.000748781346129
 50
225.10197825197619
 51
274.4376176376781
  0
ARC
  5
21840
  8
01
 10
1601.8764799208179
 20
-703.37282696146121
 30
0.0
 40
16.00074878134626
 50
85.562382362321955
 51
134.898021747987
  0
ARC
  5
21841
  8
01
 10
1601.8776982512741
 20
-703.37223985162109
 30
0.0
 40
16.001197132651061
 50
134.97037507963691
 51
178.95067073508989
  0
ARC
  5
21842
  8
01
 10
1601.8775823498829
 20
-703.37175820101265
 30
0.0
 40
16.001064828941121
 50
181.60736138778651
 51
225.0297382784031
  0
LINE
  5
21843
  8
01
 10
1652.876288102437
 20
-723.35788573098489
 30
0.0
 11
1652.8762750312189
 21
-683.38604109417145
 31
0.0
  0
LINE
  5
21844
  8
01
 10
1647.8762816616329
 20
-719.31317568375016
 30
0.0
 11
1647.876281426737
 21
-687.43075102962393
 31
0.0
  0
LINE
  5
21845
  8
01
 10
1647.8762816592041
 20
-687.76039435191115
 30
0.0
 11
1647.8762814291661
 21
-718.98353746566215
 31
0.0
  0
LINE
  5
21846
  8
01
 10
1590.5824589135379
 20
-692.03853072344145
 30
0.0
 11
1590.568992166166
 21
-692.05183611410985
 31
0.0
  0
LINE
  5
21848
  8
01
 10
1590.5824589135279
 20
-714.70539610170454
 30
0.0
 11
1590.568992166166
 21
-714.6920907110466
 31
0.0
  0
LINE
  5
21849
  8
01
 10
1681.4761450194901
 20
-723.35788573118271
 30
0.0
 11
1681.476157328023
 21
-683.38604109436926
 31
0.0
  0
ARC
  5
2184A
  8
01
 10
1732.4747277692641
 20
-703.37168696740582
 30
0.0
 40
16.00119714753076
 50
314.97037510090678
 51
358.95067074569619
  0
ARC
  5
2184B
  8
01
 10
1732.4747277840011
 20
-703.37223985186517
 30
0.0
 40
16.00119713267156
 50
1.0493292418995179
 51
45.029624920510457
  0
LINE
  5
2184C
  8
01
 10
1743.7683478476779
 20
-692.03679500909448
 30
0.0
 11
1743.7700284540149
 21
-692.03846920876231
 31
0.0
  0
ARC
  5
2184D
  8
01
 10
1732.475945969313
 20
-703.37282688717949
 30
0.0
 40
16.00074869585951
 50
45.110663057384983
 51
94.437617140149456
  0
LINE
  5
2184E
  8
01
 10
1743.7683478476779
 20
-714.70713181645669
 30
0.0
 11
1743.7700284540199
 21
-714.70545761678432
 31
0.0
  0
ARC
  5
2184F
  8
01
 10
1732.4759459693139
 20
-703.37109993837248
 30
0.0
 40
16.000748695859201
 50
265.56238285985057
 51
314.88933694261499
  0
LINE
  5
21854
  8
01
 10
1686.476151325701
 20
-719.31317568394695
 30
0.0
 11
1686.4761510337009
 21
-687.43075102982084
 31
0.0
  0
ARC
  5
21855
  8
01
 10
1685.9761511429861
 20
-699.36321750579225
 30
0.0
 40
0.4999999999999993
 50
270.49999999999147
 51
359.99999999976552
  0
LINE
  5
21856
  8
01
 10
1685.471787875704
 20
-699.86763805654073
 30
0.0
 11
1685.9805144107349
 21
-699.8631984673242
 31
0.0
  0
ARC
  5
21857
  8
01
 10
1685.4761633002479
 20
-700.36763106530043
 30
0.0
 40
0.5000121530001591
 50
90.501380932634106
 51
179.99861952302649
  0
LINE
  5
21858
  8
01
 10
1684.9761511564429
 20
-706.37639165219252
 30
0.0
 11
1684.976151147393
 21
-700.36761901807347
 31
0.0
  0
ARC
  5
21859
  8
01
 10
1685.4761633002461
 20
-706.37629576025336
 30
0.0
 40
0.5000121529982691
 50
180.001380476739
 51
269.49861906757428
  0
LINE
  5
2185A
  8
01
 10
1685.9805144107349
 20
-706.88072835822675
 30
0.0
 11
1685.471787875704
 21
-706.87628876901044
 31
0.0
  0
ARC
  5
2185B
  8
01
 10
1685.9761511429861
 20
-707.38070931975972
 30
0.0
 40
0.4999999999999993
 50
0.0000000002084408
 51
89.500000000008455
  0
LINE
  5
2185C
  8
01
 10
1686.476151322682
 20
-687.76038385339189
 30
0.0
 11
1686.47615103672
 21
-718.98354533785414
 31
0.0
  0
LINE
  5
2185D
  8
01
 10
1743.769967207367
 20
-692.03853072363154
 30
0.0
 11
1743.783433869093
 21
-692.05183611430721
 31
0.0
  0
LINE
  5
2185F
  8
01
 10
1743.769967207372
 20
-714.70539610191508
 30
0.0
 11
1743.783433869093
 21
-714.69209071124385
 31
0.0
  0
LINE
  5
2186C
  8
01
 10
1128.5996895685601
 20
-655.37183300783624
 30
0.0
 11
1128.5996895685601
 21
-623.97183303167822
 31
0.0
  0
LINE
  5
2186D
  8
01
 10
1128.899689580481
 20
-623.67183301975729
 30
0.0
 11
1128.5996895685601
 21
-623.97183303167822
 31
0.0
  0
LINE
  5
2186E
  8
01
 10
1468.5996895685601
 20
-655.37183300783624
 30
0.0
 11
1468.5996895685601
 21
-623.97183303167822
 31
0.0
  0
LINE
  5
2186F
  8
01
 10
1468.2996895566389
 20
-623.67183301975729
 30
0.0
 11
1128.899689580481
 21
-623.67183301975729
 31
0.0
  0
LINE
  5
21870
  8
01
 10
1468.2996895566389
 20
-623.67183301975729
 30
0.0
 11
1468.5996895685601
 21
-623.97183303167822
 31
0.0
  0
LINE
  5
21871
  8
01
 10
1468.2996895566389
 20
-655.67183301975729
 30
0.0
 11
1468.5996895685601
 21
-655.37183300783624
 31
0.0
  0
LINE
  5
21872
  8
01
 10
1468.2996895566389
 20
-655.67183301975729
 30
0.0
 11
1128.899689580481
 21
-655.67183301975729
 31
0.0
  0
LINE
  5
21873
  8
01
 10
1128.899689580481
 20
-655.67183301975729
 30
0.0
 11
1128.5996895685601
 21
-655.37183300783624
 31
0.0
  0
LINE
  5
21874
  8
01
 10
1128.5996895687581
 20
-493.37196342471492
 30
0.0
 11
1128.5996895687581
 21
-524.78943522629731
 31
0.0
  0
LINE
  5
21875
  8
01
 10
1128.8996895806779
 20
-525.07196341279405
 30
0.0
 11
1128.5996895687581
 21
-524.77196340087301
 31
0.0
  0
LINE
  5
21876
  8
01
 10
1468.5996895687581
 20
-493.37196342471492
 30
0.0
 11
1468.5996895687581
 21
-524.78943522629731
 31
0.0
  0
LINE
  5
21877
  8
01
 10
1468.299689556836
 20
-525.07196341279405
 30
0.0
 11
1128.8996895806779
 21
-525.07196341279405
 31
0.0
  0
LINE
  5
21878
  8
01
 10
1468.299689556836
 20
-525.07196341279405
 30
0.0
 11
1468.5996895687581
 21
-524.77196340087301
 31
0.0
  0
LINE
  5
21879
  8
01
 10
1468.299689556836
 20
-493.07196341279399
 30
0.0
 11
1468.599689568757
 21
-493.37196342471469
 31
0.0
  0
LINE
  5
2187A
  8
01
 10
1468.299689556836
 20
-493.07196341279399
 30
0.0
 11
1128.8996895806779
 21
-493.07196341279399
 31
0.0
  0
LINE
  5
2187B
  8
01
 10
1128.8996895806779
 20
-493.07196341279399
 30
0.0
 11
1128.5996895687581
 21
-493.37196342471492
 31
0.0
  0
LINE
  5
2187C
  8
01
 10
1053.39968956856
 20
-588.37183301975733
 30
0.0
 11
1093.7996895685601
 21
-588.37183301975733
 31
0.0
  0
LINE
  5
2187D
  8
01
 10
1093.7996895685601
 20
-588.67183354697647
 30
0.0
 11
1093.7996895685601
 21
-588.37183301975733
 31
0.0
  0
LINE
  5
2187E
  8
01
 10
1053.39968956856
 20
-588.67185467191575
 30
0.0
 11
1053.39968956856
 21
-588.37183301975733
 31
0.0
  0
LINE
  5
2187F
  8
01
 10
1053.3996895687569
 20
-560.371963412794
 30
0.0
 11
1093.7996895687579
 21
-560.371963412794
 31
0.0
  0
LINE
  5
21880
  8
01
 10
1093.7996895687579
 20
-560.07196341279382
 30
0.0
 11
1093.7996895687579
 21
-560.371963412794
 31
0.0
  0
LINE
  5
21881
  8
01
 10
1053.3996895687569
 20
-560.07194176063535
 30
0.0
 11
1053.3996895687569
 21
-560.371963412794
 31
0.0
  0
LINE
  5
21882
  8
01
 10
1503.39968956856
 20
-588.37183301975733
 30
0.0
 11
1543.7996895685601
 21
-588.37183301975733
 31
0.0
  0
LINE
  5
21883
  8
01
 10
1503.39968956856
 20
-588.67183309843745
 30
0.0
 11
1503.39968956856
 21
-588.37183301975733
 31
0.0
  0
LINE
  5
21884
  8
01
 10
1543.7996895685601
 20
-588.67185467191575
 30
0.0
 11
1543.7996895685601
 21
-588.37183301975733
 31
0.0
  0
LINE
  5
21885
  8
01
 10
1503.3996895687569
 20
-560.371963412794
 30
0.0
 11
1543.7996895687579
 21
-560.371963412794
 31
0.0
  0
LINE
  5
21886
  8
01
 10
1503.3996895687569
 20
-560.07196394001289
 30
0.0
 11
1503.3996895687569
 21
-560.371963412794
 31
0.0
  0
LINE
  5
21887
  8
01
 10
1543.7996895687579
 20
-560.07196442982899
 30
0.0
 11
1543.7996895687579
 21
-560.371963412794
 31
0.0
  0
ARC
  5
21888
  8
01
 10
1128.299689556836
 20
-524.78943522629731
 30
0.0
 40
0.3000000119209289
 50
273.41281429517318
 51
0.0
  0
LINE
  5
21889
  8
01
 10
1128.5996895687581
 20
-493.37196342471492
 30
0.0
 11
1128.5996895687581
 21
-524.78943522629731
 31
0.0
  0
ARC
  5
2188A
  8
01
 10
1128.2996895568369
 20
-493.37217649443568
 30
0.0
 40
0.3000000119117884
 50
0.0000000002344959
 51
90.080358026313291
  0
LINE
  5
2188B
  8
01
 10
1053.3996895687569
 20
-560.07196442982899
 30
0.0
 11
1093.7996895687579
 21
-560.07196394001289
 31
0.0
  0
LINE
  5
2188C
  8
01
 10
1095.59968269865
 20
-560.07196341279382
 30
0.0
 11
1051.5997048279251
 21
-560.07196533609499
 31
0.0
  0
LINE
  5
2188D
  8
01
 10
1052.1172957424919
 20
-555.07196341279382
 30
0.0
 11
1054.645881578366
 21
-555.07196408857681
 31
0.0
  0
ARC
  5
2188F
  8
01
 10
1052.1172957424919
 20
-555.57196341279382
 30
0.0
 40
0.5000000000036941
 50
90.000000000208416
 51
178.6555479026986
  0
ARC
  5
21891
  8
01
 10
1105.2596411783229
 20
-494.41895254652172
 30
0.0
 40
0.5000000000000028
 50
99.351127497776105
 51
131.07696627585781
  0
LINE
  5
21896
  8
01
 10
1053.39968956856
 20
-588.67183403679257
 30
0.0
 11
1093.7996895685601
 21
-588.67183354697647
 31
0.0
  0
LINE
  5
21897
  8
01
 10
1128.5996895685601
 20
-655.3716199381156
 30
0.0
 11
1128.5996895685601
 21
-623.95436120625391
 31
0.0
  0
ARC
  5
21898
  8
01
 10
1128.2996895566389
 20
-655.3716199381156
 30
0.0
 40
0.3000000119117884
 50
269.91964197368662
 51
359.99999999976552
  0
ARC
  5
21899
  8
01
 10
1128.2996895566389
 20
-623.95436120625391
 30
0.0
 40
0.3000000119209289
 50
0.0
 51
86.587185704826766
  0
LINE
  5
2189A
  8
01
 10
1095.5996826984531
 20
-588.67183301975729
 30
0.0
 11
1051.5997048273489
 21
-588.67183494305857
 31
0.0
  0
LINE
  5
2189B
  8
01
 10
1052.304031244385
 20
-593.67183319498497
 30
0.0
 11
1054.6458817803741
 21
-593.67183369554004
 31
0.0
  0
LINE
  5
2189C
  8
01
 10
1051.795450237581
 20
-592.6716047729193
 30
0.0
 11
1051.8062189353659
 21
-593.18351844407675
 31
0.0
  0
ARC
  5
2189F
  8
01
 10
1105.2596411781251
 20
-654.32484388602597
 30
0.0
 40
0.4999999999999957
 50
228.923033740243
 51
260.6488725280509
  0
POLYLINE
  5
218A0
  8
01
 10
1052.304031244385
 20
-593.67183319498497
 30
0.0
 66
     1
 70
     8
  0
VERTEX
  8
01
  5
22555
 10
1052.30
 20
-593.672
 30
0.000000
  70
    32
  0
VERTEX
  8
01
  5
22556
 10
1052.30
 20
-593.672
 30
0.000000
  70
    32
  0
VERTEX
  8
01
  5
22557
 10
1052.29
 20
-593.672
 30
0.000000
  70
    32
  0
VERTEX
  8
01
  5
22558
 10
1052.29
 20
-593.672
 30
0.000000
  70
    32
  0
VERTEX
  8
01
  5
22559
 10
1052.28
 20
-593.671
 30
0.000000
  70
    32
  0
VERTEX
  8
01
  5
2255A
 10
1052.27
 20
-593.671
 30
0.000000
  70
    32
  0
VERTEX
  8
01
  5
2255B
 10
1052.27
 20
-593.671
 30
0.000000
  70
    32
  0
VERTEX
  8
01
  5
2255C
 10
1052.26
 20
-593.670
 30
0.000000
  70
    32
  0
VERTEX
  8
01
  5
2255D
 10
1052.26
 20
-593.669
 30
0.000000
  70
    32
  0
VERTEX
  8
01
  5
2255E
 10
1052.25
 20
-593.669
 30
0.000000
  70
    32
  0
VERTEX
  8
01
  5
2255F
 10
1052.24
 20
-593.668
 30
0.000000
  70
    32
  0
VERTEX
  8
01
  5
22560
 10
1052.24
 20
-593.667
 30
0.000000
  70
    32
  0
VERTEX
  8
01
  5
22561
 10
1052.23
 20
-593.667
 30
0.000000
  70
    32
  0
VERTEX
  8
01
  5
22562
 10
1052.23
 20
-593.666
 30
0.000000
  70
    32
  0
VERTEX
  8
01
  5
22563
 10
1052.22
 20
-593.665
 30
0.000000
  70
    32
  0
VERTEX
  8
01
  5
22564
 10
1052.21
 20
-593.664
 30
0.000000
  70
    32
  0
VERTEX
  8
01
  5
22565
 10
1052.21
 20
-593.663
 30
0.000000
  70
    32
  0
VERTEX
  8
01
  5
22566
 10
1052.20
 20
-593.661
 30
0.000000
  70
    32
  0
VERTEX
  8
01
  5
22567
 10
1052.20
 20
-593.660
 30
0.000000
  70
    32
  0
VERTEX
  8
01
  5
22568
 10
1052.19
 20
-593.659
 30
0.000000
  70
    32
  0
VERTEX
  8
01
  5
22569
 10
1052.18
 20
-593.657
 30
0.000000
  70
    32
  0
VERTEX
  8
01
  5
2256A
 10
1052.18
 20
-593.656
 30
0.000000
  70
    32
  0
VERTEX
  8
01
  5
2256B
 10
1052.17
 20
-593.654
 30
0.000000
  70
    32
  0
VERTEX
  8
01
  5
2256C
 10
1052.17
 20
-593.653
 30
0.000000
  70
    32
  0
VERTEX
  8
01
  5
2256D
 10
1052.16
 20
-593.651
 30
0.000000
  70
    32
  0
VERTEX
  8
01
  5
2256E
 10
1052.16
 20
-593.649
 30
0.000000
  70
    32
  0
VERTEX
  8
01
  5
2256F
 10
1052.15
 20
-593.647
 30
0.000000
  70
    32
  0
VERTEX
  8
01
  5
22570
 10
1052.14
 20
-593.645
 30
0.000000
  70
    32
  0
VERTEX
  8
01
  5
22571
 10
1052.14
 20
-593.643
 30
0.000000
  70
    32
  0
VERTEX
  8
01
  5
22572
 10
1052.13
 20
-593.641
 30
0.000000
  70
    32
  0
VERTEX
  8
01
  5
22573
 10
1052.13
 20
-593.639
 30
0.000000
  70
    32
  0
VERTEX
  8
01
  5
22574
 10
1052.12
 20
-593.637
 30
0.000000
  70
    32
  0
VERTEX
  8
01
  5
22575
 10
1052.12
 20
-593.635
 30
0.000000
  70
    32
  0
VERTEX
  8
01
  5
22576
 10
1052.11
 20
-593.633
 30
0.000000
  70
    32
  0
VERTEX
  8
01
  5
22577
 10
1052.11
 20
-593.630
 30
0.000000
  70
    32
  0
VERTEX
  8
01
  5
22578
 10
1052.10
 20
-593.628
 30
0.000000
  70
    32
  0
VERTEX
  8
01
  5
22579
 10
1052.09
 20
-593.625
 30
0.000000
  70
    32
  0
VERTEX
  8
01
  5
2257A
 10
1052.09
 20
-593.623
 30
0.000000
  70
    32
  0
VERTEX
  8
01
  5
2257B
 10
1052.08
 20
-593.620
 30
0.000000
  70
    32
  0
VERTEX
  8
01
  5
2257C
 10
1052.08
 20
-593.617
 30
0.000000
  70
    32
  0
VERTEX
  8
01
  5
2257D
 10
1052.07
 20
-593.615
 30
0.000000
  70
    32
  0
VERTEX
  8
01
  5
2257E
 10
1052.07
 20
-593.612
 30
0.000000
  70
    32
  0
VERTEX
  8
01
  5
2257F
 10
1052.06
 20
-593.609
 30
0.000000
  70
    32
  0
VERTEX
  8
01
  5
22580
 10
1052.06
 20
-593.606
 30
0.000000
  70
    32
  0
VERTEX
  8
01
  5
22581
 10
1052.05
 20
-593.603
 30
0.000000
  70
    32
  0
VERTEX
  8
01
  5
22582
 10
1052.05
 20
-593.600
 30
0.000000
  70
    32
  0
VERTEX
  8
01
  5
22583
 10
1052.04
 20
-593.596
 30
0.000000
  70
    32
  0
VERTEX
  8
01
  5
22584
 10
1052.04
 20
-593.593
 30
0.000000
  70
    32
  0
VERTEX
  8
01
  5
22585
 10
1052.03
 20
-593.590
 30
0.000000
  70
    32
  0
VERTEX
  8
01
  5
22586
 10
1052.03
 20
-593.587
 30
0.000000
  70
    32
  0
VERTEX
  8
01
  5
22587
 10
1052.02
 20
-593.583
 30
0.000000
  70
    32
  0
VERTEX
  8
01
  5
22588
 10
1052.02
 20
-593.580
 30
0.000000
  70
    32
  0
VERTEX
  8
01
  5
22589
 10
1052.01
 20
-593.576
 30
0.000000
  70
    32
  0
VERTEX
  8
01
  5
2258A
 10
1052.01
 20
-593.573
 30
0.000000
  70
    32
  0
VERTEX
  8
01
  5
2258B
 10
1052.00
 20
-593.569
 30
0.000000
  70
    32
  0
VERTEX
  8
01
  5
2258C
 10
1052.00
 20
-593.565
 30
0.000000
  70
    32
  0
VERTEX
  8
01
  5
2258D
 10
1051.99
 20
-593.562
 30
0.000000
  70
    32
  0
VERTEX
  8
01
  5
2258E
 10
1051.99
 20
-593.558
 30
0.000000
  70
    32
  0
VERTEX
  8
01
  5
2258F
 10
1051.98
 20
-593.554
 30
0.000000
  70
    32
  0
VERTEX
  8
01
  5
22590
 10
1051.98
 20
-593.550
 30
0.000000
  70
    32
  0
VERTEX
  8
01
  5
22591
 10
1051.97
 20
-593.546
 30
0.000000
  70
    32
  0
VERTEX
  8
01
  5
22592
 10
1051.97
 20
-593.542
 30
0.000000
  70
    32
  0
VERTEX
  8
01
  5
22593
 10
1051.96
 20
-593.538
 30
0.000000
  70
    32
  0
VERTEX
  8
01
  5
22594
 10
1051.96
 20
-593.534
 30
0.000000
  70
    32
  0
VERTEX
  8
01
  5
22595
 10
1051.96
 20
-593.529
 30
0.000000
  70
    32
  0
VERTEX
  8
01
  5
22596
 10
1051.95
 20
-593.525
 30
0.000000
  70
    32
  0
VERTEX
  8
01
  5
22597
 10
1051.95
 20
-593.521
 30
0.000000
  70
    32
  0
VERTEX
  8
01
  5
22598
 10
1051.94
 20
-593.517
 30
0.000000
  70
    32
  0
VERTEX
  8
01
  5
22599
 10
1051.94
 20
-593.512
 30
0.000000
  70
    32
  0
VERTEX
  8
01
  5
2259A
 10
1051.94
 20
-593.508
 30
0.000000
  70
    32
  0
VERTEX
  8
01
  5
2259B
 10
1051.93
 20
-593.503
 30
0.000000
  70
    32
  0
VERTEX
  8
01
  5
2259C
 10
1051.93
 20
-593.499
 30
0.000000
  70
    32
  0
VERTEX
  8
01
  5
2259D
 10
1051.92
 20
-593.494
 30
0.000000
  70
    32
  0
VERTEX
  8
01
  5
2259E
 10
1051.92
 20
-593.489
 30
0.000000
  70
    32
  0
VERTEX
  8
01
  5
2259F
 10
1051.92
 20
-593.485
 30
0.000000
  70
    32
  0
VERTEX
  8
01
  5
225A0
 10
1051.91
 20
-593.480
 30
0.000000
  70
    32
  0
VERTEX
  8
01
  5
225A1
 10
1051.91
 20
-593.475
 30
0.000000
  70
    32
  0
VERTEX
  8
01
  5
225A2
 10
1051.90
 20
-593.470
 30
0.000000
  70
    32
  0
VERTEX
  8
01
  5
225A3
 10
1051.90
 20
-593.466
 30
0.000000
  70
    32
  0
VERTEX
  8
01
  5
225A4
 10
1051.90
 20
-593.461
 30
0.000000
  70
    32
  0
VERTEX
  8
01
  5
225A5
 10
1051.89
 20
-593.456
 30
0.000000
  70
    32
  0
VERTEX
  8
01
  5
225A6
 10
1051.89
 20
-593.451
 30
0.000000
  70
    32
  0
VERTEX
  8
01
  5
225A7
 10
1051.89
 20
-593.446
 30
0.000000
  70
    32
  0
VERTEX
  8
01
  5
225A8
 10
1051.88
 20
-593.441
 30
0.000000
  70
    32
  0
VERTEX
  8
01
  5
225A9
 10
1051.88
 20
-593.435
 30
0.000000
  70
    32
  0
VERTEX
  8
01
  5
225AA
 10
1051.88
 20
-593.430
 30
0.000000
  70
    32
  0
VERTEX
  8
01
  5
225AB
 10
1051.87
 20
-593.425
 30
0.000000
  70
    32
  0
VERTEX
  8
01
  5
225AC
 10
1051.87
 20
-593.420
 30
0.000000
  70
    32
  0
VERTEX
  8
01
  5
225AD
 10
1051.87
 20
-593.415
 30
0.000000
  70
    32
  0
VERTEX
  8
01
  5
225AE
 10
1051.87
 20
-593.409
 30
0.000000
  70
    32
  0
VERTEX
  8
01
  5
225AF
 10
1051.86
 20
-593.404
 30
0.000000
  70
    32
  0
VERTEX
  8
01
  5
225B0
 10
1051.86
 20
-593.399
 30
0.000000
  70
    32
  0
VERTEX
  8
01
  5
225B1
 10
1051.86
 20
-593.393
 30
0.000000
  70
    32
  0
VERTEX
  8
01
  5
225B2
 10
1051.85
 20
-593.388
 30
0.000000
  70
    32
  0
VERTEX
  8
01
  5
225B3
 10
1051.85
 20
-593.382
 30
0.000000
  70
    32
  0
VERTEX
  8
01
  5
225B4
 10
1051.85
 20
-593.377
 30
0.000000
  70
    32
  0
VERTEX
  8
01
  5
225B5
 10
1051.85
 20
-593.371
 30
0.000000
  70
    32
  0
VERTEX
  8
01
  5
225B6
 10
1051.85
 20
-593.366
 30
0.000000
  70
    32
  0
VERTEX
  8
01
  5
225B7
 10
1051.84
 20
-593.360
 30
0.000000
  70
    32
  0
VERTEX
  8
01
  5
225B8
 10
1051.84
 20
-593.354
 30
0.000000
  70
    32
  0
VERTEX
  8
01
  5
225B9
 10
1051.84
 20
-593.349
 30
0.000000
  70
    32
  0
VERTEX
  8
01
  5
225BA
 10
1051.84
 20
-593.343
 30
0.000000
  70
    32
  0
VERTEX
  8
01
  5
225BB
 10
1051.83
 20
-593.337
 30
0.000000
  70
    32
  0
VERTEX
  8
01
  5
225BC
 10
1051.83
 20
-593.332
 30
0.000000
  70
    32
  0
VERTEX
  8
01
  5
225BD
 10
1051.83
 20
-593.326
 30
0.000000
  70
    32
  0
VERTEX
  8
01
  5
225BE
 10
1051.83
 20
-593.320
 30
0.000000
  70
    32
  0
VERTEX
  8
01
  5
225BF
 10
1051.83
 20
-593.314
 30
0.000000
  70
    32
  0
VERTEX
  8
01
  5
225C0
 10
1051.83
 20
-593.309
 30
0.000000
  70
    32
  0
VERTEX
  8
01
  5
225C1
 10
1051.82
 20
-593.303
 30
0.000000
  70
    32
  0
VERTEX
  8
01
  5
225C2
 10
1051.82
 20
-593.297
 30
0.000000
  70
    32
  0
VERTEX
  8
01
  5
225C3
 10
1051.82
 20
-593.291
 30
0.000000
  70
    32
  0
VERTEX
  8
01
  5
225C4
 10
1051.82
 20
-593.285
 30
0.000000
  70
    32
  0
VERTEX
  8
01
  5
225C5
 10
1051.82
 20
-593.279
 30
0.000000
  70
    32
  0
VERTEX
  8
01
  5
225C6
 10
1051.82
 20
-593.273
 30
0.000000
  70
    32
  0
VERTEX
  8
01
  5
225C7
 10
1051.82
 20
-593.268
 30
0.000000
  70
    32
  0
VERTEX
  8
01
  5
225C8
 10
1051.81
 20
-593.262
 30
0.000000
  70
    32
  0
VERTEX
  8
01
  5
225C9
 10
1051.81
 20
-593.256
 30
0.000000
  70
    32
  0
VERTEX
  8
01
  5
225CA
 10
1051.81
 20
-593.250
 30
0.000000
  70
    32
  0
VERTEX
  8
01
  5
225CB
 10
1051.81
 20
-593.244
 30
0.000000
  70
    32
  0
VERTEX
  8
01
  5
225CC
 10
1051.81
 20
-593.238
 30
0.000000
  70
    32
  0
VERTEX
  8
01
  5
225CD
 10
1051.81
 20
-593.232
 30
0.000000
  70
    32
  0
VERTEX
  8
01
  5
225CE
 10
1051.81
 20
-593.226
 30
0.000000
  70
    32
  0
VERTEX
  8
01
  5
225CF
 10
1051.81
 20
-593.220
 30
0.000000
  70
    32
  0
VERTEX
  8
01
  5
225D0
 10
1051.81
 20
-593.214
 30
0.000000
  70
    32
  0
VERTEX
  8
01
  5
225D1
 10
1051.81
 20
-593.208
 30
0.000000
  70
    32
  0
VERTEX
  8
01
  5
225D2
 10
1051.81
 20
-593.202
 30
0.000000
  70
    32
  0
VERTEX
  8
01
  5
225D3
 10
1051.81
 20
-593.196
 30
0.000000
  70
    32
  0
VERTEX
  8
01
  5
225D4
 10
1051.81
 20
-593.190
 30
0.000000
  70
    32
  0
VERTEX
  8
01
  5
225D5
 10
1051.81
 20
-593.184
 30
0.000000
  70
    32
  0
SEQEND
  8
01
  5
225D6
  0
POLYLINE
  5
218A1
  8
01
 10
1051.7954502375815
 20
-592.67160477291918
 30
0.0
 66
     1
 70
     8
  0
VERTEX
  8
01
  5
225D7
 10
1051.80
 20
-592.672
 30
0.000000
  70
    32
  0
VERTEX
  8
01
  5
225D8
 10
1051.80
 20
-592.672
 30
0.000000
  70
    32
  0
VERTEX
  8
01
  5
225D9
 10
1051.80
 20
-592.672
 30
0.000000
  70
    32
  0
VERTEX
  8
01
  5
225DA
 10
1051.80
 20
-592.672
 30
0.000000
  70
    32
  0
VERTEX
  8
01
  5
225DB
 10
1051.80
 20
-592.672
 30
0.000000
  70
    32
  0
VERTEX
  8
01
  5
225DC
 10
1051.80
 20
-592.672
 30
0.000000
  70
    32
  0
VERTEX
  8
01
  5
225DD
 10
1051.80
 20
-592.672
 30
0.000000
  70
    32
  0
VERTEX
  8
01
  5
225DE
 10
1051.80
 20
-592.672
 30
0.000000
  70
    32
  0
VERTEX
  8
01
  5
225DF
 10
1051.79
 20
-592.672
 30
0.000000
  70
    32
  0
VERTEX
  8
01
  5
225E0
 10
1051.79
 20
-592.672
 30
0.000000
  70
    32
  0
VERTEX
  8
01
  5
225E1
 10
1051.79
 20
-592.672
 30
0.000000
  70
    32
  0
VERTEX
  8
01
  5
225E2
 10
1051.79
 20
-592.672
 30
0.000000
  70
    32
  0
VERTEX
  8
01
  5
225E3
 10
1051.79
 20
-592.672
 30
0.000000
  70
    32
  0
VERTEX
  8
01
  5
225E4
 10
1051.79
 20
-592.672
 30
0.000000
  70
    32
  0
VERTEX
  8
01
  5
225E5
 10
1051.79
 20
-592.672
 30
0.000000
  70
    32
  0
VERTEX
  8
01
  5
225E6
 10
1051.79
 20
-592.672
 30
0.000000
  70
    32
  0
VERTEX
  8
01
  5
225E7
 10
1051.79
 20
-592.672
 30
0.000000
  70
    32
  0
VERTEX
  8
01
  5
225E8
 10
1051.79
 20
-592.672
 30
0.000000
  70
    32
  0
VERTEX
  8
01
  5
225E9
 10
1051.79
 20
-592.672
 30
0.000000
  70
    32
  0
VERTEX
  8
01
  5
225EA
 10
1051.79
 20
-592.672
 30
0.000000
  70
    32
  0
VERTEX
  8
01
  5
225EB
 10
1051.79
 20
-592.672
 30
0.000000
  70
    32
  0
VERTEX
  8
01
  5
225EC
 10
1051.79
 20
-592.672
 30
0.000000
  70
    32
  0
VERTEX
  8
01
  5
225ED
 10
1051.79
 20
-592.672
 30
0.000000
  70
    32
  0
VERTEX
  8
01
  5
225EE
 10
1051.79
 20
-592.672
 30
0.000000
  70
    32
  0
VERTEX
  8
01
  5
225EF
 10
1051.79
 20
-592.672
 30
0.000000
  70
    32
  0
VERTEX
  8
01
  5
225F0
 10
1051.79
 20
-592.672
 30
0.000000
  70
    32
  0
VERTEX
  8
01
  5
225F1
 10
1051.79
 20
-592.672
 30
0.000000
  70
    32
  0
VERTEX
  8
01
  5
225F2
 10
1051.79
 20
-592.672
 30
0.000000
  70
    32
  0
VERTEX
  8
01
  5
225F3
 10
1051.79
 20
-592.672
 30
0.000000
  70
    32
  0
VERTEX
  8
01
  5
225F4
 10
1051.79
 20
-592.672
 30
0.000000
  70
    32
  0
VERTEX
  8
01
  5
225F5
 10
1051.79
 20
-592.672
 30
0.000000
  70
    32
  0
VERTEX
  8
01
  5
225F6
 10
1051.79
 20
-592.672
 30
0.000000
  70
    32
  0
VERTEX
  8
01
  5
225F7
 10
1051.79
 20
-592.672
 30
0.000000
  70
    32
  0
VERTEX
  8
01
  5
225F8
 10
1051.79
 20
-592.672
 30
0.000000
  70
    32
  0
VERTEX
  8
01
  5
225F9
 10
1051.79
 20
-592.672
 30
0.000000
  70
    32
  0
VERTEX
  8
01
  5
225FA
 10
1051.79
 20
-592.672
 30
0.000000
  70
    32
  0
VERTEX
  8
01
  5
225FB
 10
1051.79
 20
-592.672
 30
0.000000
  70
    32
  0
VERTEX
  8
01
  5
225FC
 10
1051.79
 20
-592.672
 30
0.000000
  70
    32
  0
VERTEX
  8
01
  5
225FD
 10
1051.79
 20
-592.672
 30
0.000000
  70
    32
  0
VERTEX
  8
01
  5
225FE
 10
1051.79
 20
-592.672
 30
0.000000
  70
    32
  0
VERTEX
  8
01
  5
225FF
 10
1051.79
 20
-592.672
 30
0.000000
  70
    32
  0
VERTEX
  8
01
  5
22600
 10
1051.79
 20
-592.672
 30
0.000000
  70
    32
  0
VERTEX
  8
01
  5
22601
 10
1051.79
 20
-592.672
 30
0.000000
  70
    32
  0
VERTEX
  8
01
  5
22602
 10
1051.79
 20
-592.672
 30
0.000000
  70
    32
  0
VERTEX
  8
01
  5
22603
 10
1051.79
 20
-592.672
 30
0.000000
  70
    32
  0
VERTEX
  8
01
  5
22604
 10
1051.79
 20
-592.672
 30
0.000000
  70
    32
  0
VERTEX
  8
01
  5
22605
 10
1051.79
 20
-592.672
 30
0.000000
  70
    32
  0
VERTEX
  8
01
  5
22606
 10
1051.79
 20
-592.672
 30
0.000000
  70
    32
  0
VERTEX
  8
01
  5
22607
 10
1051.79
 20
-592.672
 30
0.000000
  70
    32
  0
VERTEX
  8
01
  5
22608
 10
1051.79
 20
-592.672
 30
0.000000
  70
    32
  0
VERTEX
  8
01
  5
22609
 10
1051.79
 20
-592.672
 30
0.000000
  70
    32
  0
VERTEX
  8
01
  5
2260A
 10
1051.79
 20
-592.672
 30
0.000000
  70
    32
  0
VERTEX
  8
01
  5
2260B
 10
1051.79
 20
-592.672
 30
0.000000
  70
    32
  0
VERTEX
  8
01
  5
2260C
 10
1051.79
 20
-592.672
 30
0.000000
  70
    32
  0
VERTEX
  8
01
  5
2260D
 10
1051.79
 20
-592.672
 30
0.000000
  70
    32
  0
VERTEX
  8
01
  5
2260E
 10
1051.79
 20
-592.672
 30
0.000000
  70
    32
  0
VERTEX
  8
01
  5
2260F
 10
1051.79
 20
-592.672
 30
0.000000
  70
    32
  0
VERTEX
  8
01
  5
22610
 10
1051.79
 20
-592.672
 30
0.000000
  70
    32
  0
VERTEX
  8
01
  5
22611
 10
1051.79
 20
-592.672
 30
0.000000
  70
    32
  0
VERTEX
  8
01
  5
22612
 10
1051.79
 20
-592.672
 30
0.000000
  70
    32
  0
VERTEX
  8
01
  5
22613
 10
1051.79
 20
-592.672
 30
0.000000
  70
    32
  0
VERTEX
  8
01
  5
22614
 10
1051.79
 20
-592.672
 30
0.000000
  70
    32
  0
VERTEX
  8
01
  5
22615
 10
1051.79
 20
-592.672
 30
0.000000
  70
    32
  0
VERTEX
  8
01
  5
22616
 10
1051.79
 20
-592.672
 30
0.000000
  70
    32
  0
VERTEX
  8
01
  5
22617
 10
1051.79
 20
-592.672
 30
0.000000
  70
    32
  0
VERTEX
  8
01
  5
22618
 10
1051.79
 20
-592.672
 30
0.000000
  70
    32
  0
VERTEX
  8
01
  5
22619
 10
1051.79
 20
-592.672
 30
0.000000
  70
    32
  0
VERTEX
  8
01
  5
2261A
 10
1051.79
 20
-592.672
 30
0.000000
  70
    32
  0
VERTEX
  8
01
  5
2261B
 10
1051.79
 20
-592.672
 30
0.000000
  70
    32
  0
VERTEX
  8
01
  5
2261C
 10
1051.79
 20
-592.672
 30
0.000000
  70
    32
  0
VERTEX
  8
01
  5
2261D
 10
1051.79
 20
-592.672
 30
0.000000
  70
    32
  0
VERTEX
  8
01
  5
2261E
 10
1051.79
 20
-592.672
 30
0.000000
  70
    32
  0
VERTEX
  8
01
  5
2261F
 10
1051.79
 20
-592.672
 30
0.000000
  70
    32
  0
VERTEX
  8
01
  5
22620
 10
1051.79
 20
-592.672
 30
0.000000
  70
    32
  0
VERTEX
  8
01
  5
22621
 10
1051.79
 20
-592.672
 30
0.000000
  70
    32
  0
VERTEX
  8
01
  5
22622
 10
1051.79
 20
-592.672
 30
0.000000
  70
    32
  0
VERTEX
  8
01
  5
22623
 10
1051.79
 20
-592.672
 30
0.000000
  70
    32
  0
VERTEX
  8
01
  5
22624
 10
1051.79
 20
-592.672
 30
0.000000
  70
    32
  0
VERTEX
  8
01
  5
22625
 10
1051.79
 20
-592.672
 30
0.000000
  70
    32
  0
VERTEX
  8
01
  5
22626
 10
1051.79
 20
-592.672
 30
0.000000
  70
    32
  0
VERTEX
  8
01
  5
22627
 10
1051.79
 20
-592.672
 30
0.000000
  70
    32
  0
VERTEX
  8
01
  5
22628
 10
1051.79
 20
-592.672
 30
0.000000
  70
    32
  0
VERTEX
  8
01
  5
22629
 10
1051.79
 20
-592.672
 30
0.000000
  70
    32
  0
VERTEX
  8
01
  5
2262A
 10
1051.79
 20
-592.672
 30
0.000000
  70
    32
  0
VERTEX
  8
01
  5
2262B
 10
1051.79
 20
-592.672
 30
0.000000
  70
    32
  0
VERTEX
  8
01
  5
2262C
 10
1051.79
 20
-592.672
 30
0.000000
  70
    32
  0
VERTEX
  8
01
  5
2262D
 10
1051.79
 20
-592.672
 30
0.000000
  70
    32
  0
VERTEX
  8
01
  5
2262E
 10
1051.79
 20
-592.672
 30
0.000000
  70
    32
  0
VERTEX
  8
01
  5
2262F
 10
1051.79
 20
-592.672
 30
0.000000
  70
    32
  0
VERTEX
  8
01
  5
22630
 10
1051.79
 20
-592.672
 30
0.000000
  70
    32
  0
VERTEX
  8
01
  5
22631
 10
1051.79
 20
-592.672
 30
0.000000
  70
    32
  0
VERTEX
  8
01
  5
22632
 10
1051.79
 20
-592.672
 30
0.000000
  70
    32
  0
VERTEX
  8
01
  5
22633
 10
1051.79
 20
-592.672
 30
0.000000
  70
    32
  0
VERTEX
  8
01
  5
22634
 10
1051.79
 20
-592.672
 30
0.000000
  70
    32
  0
VERTEX
  8
01
  5
22635
 10
1051.79
 20
-592.672
 30
0.000000
  70
    32
  0
VERTEX
  8
01
  5
22636
 10
1051.79
 20
-592.672
 30
0.000000
  70
    32
  0
VERTEX
  8
01
  5
22637
 10
1051.79
 20
-592.672
 30
0.000000
  70
    32
  0
VERTEX
  8
01
  5
22638
 10
1051.79
 20
-592.672
 30
0.000000
  70
    32
  0
VERTEX
  8
01
  5
22639
 10
1051.79
 20
-592.672
 30
0.000000
  70
    32
  0
VERTEX
  8
01
  5
2263A
 10
1051.79
 20
-592.672
 30
0.000000
  70
    32
  0
VERTEX
  8
01
  5
2263B
 10
1051.79
 20
-592.672
 30
0.000000
  70
    32
  0
VERTEX
  8
01
  5
2263C
 10
1051.79
 20
-592.672
 30
0.000000
  70
    32
  0
VERTEX
  8
01
  5
2263D
 10
1051.79
 20
-592.672
 30
0.000000
  70
    32
  0
VERTEX
  8
01
  5
2263E
 10
1051.79
 20
-592.672
 30
0.000000
  70
    32
  0
VERTEX
  8
01
  5
2263F
 10
1051.79
 20
-592.672
 30
0.000000
  70
    32
  0
VERTEX
  8
01
  5
22640
 10
1051.79
 20
-592.672
 30
0.000000
  70
    32
  0
VERTEX
  8
01
  5
22641
 10
1051.79
 20
-592.672
 30
0.000000
  70
    32
  0
VERTEX
  8
01
  5
22642
 10
1051.79
 20
-592.672
 30
0.000000
  70
    32
  0
VERTEX
  8
01
  5
22643
 10
1051.79
 20
-592.672
 30
0.000000
  70
    32
  0
VERTEX
  8
01
  5
22644
 10
1051.79
 20
-592.672
 30
0.000000
  70
    32
  0
VERTEX
  8
01
  5
22645
 10
1051.79
 20
-592.672
 30
0.000000
  70
    32
  0
VERTEX
  8
01
  5
22646
 10
1051.79
 20
-592.672
 30
0.000000
  70
    32
  0
VERTEX
  8
01
  5
22647
 10
1051.79
 20
-592.672
 30
0.000000
  70
    32
  0
VERTEX
  8
01
  5
22648
 10
1051.79
 20
-592.672
 30
0.000000
  70
    32
  0
VERTEX
  8
01
  5
22649
 10
1051.79
 20
-592.672
 30
0.000000
  70
    32
  0
VERTEX
  8
01
  5
2264A
 10
1051.79
 20
-592.672
 30
0.000000
  70
    32
  0
VERTEX
  8
01
  5
2264B
 10
1051.79
 20
-592.672
 30
0.000000
  70
    32
  0
VERTEX
  8
01
  5
2264C
 10
1051.79
 20
-592.672
 30
0.000000
  70
    32
  0
VERTEX
  8
01
  5
2264D
 10
1051.79
 20
-592.672
 30
0.000000
  70
    32
  0
VERTEX
  8
01
  5
2264E
 10
1051.79
 20
-592.672
 30
0.000000
  70
    32
  0
VERTEX
  8
01
  5
2264F
 10
1051.79
 20
-592.672
 30
0.000000
  70
    32
  0
VERTEX
  8
01
  5
22650
 10
1051.80
 20
-592.672
 30
0.000000
  70
    32
  0
VERTEX
  8
01
  5
22651
 10
1051.80
 20
-592.672
 30
0.000000
  70
    32
  0
VERTEX
  8
01
  5
22652
 10
1051.80
 20
-592.672
 30
0.000000
  70
    32
  0
VERTEX
  8
01
  5
22653
 10
1051.80
 20
-592.672
 30
0.000000
  70
    32
  0
VERTEX
  8
01
  5
22654
 10
1051.80
 20
-592.672
 30
0.000000
  70
    32
  0
VERTEX
  8
01
  5
22655
 10
1051.80
 20
-592.672
 30
0.000000
  70
    32
  0
VERTEX
  8
01
  5
22656
 10
1051.80
 20
-592.672
 30
0.000000
  70
    32
  0
VERTEX
  8
01
  5
22657
 10
1051.80
 20
-592.672
 30
0.000000
  70
    32
  0
SEQEND
  8
01
  5
22658
  0
ARC
  5
218A3
  8
01
 10
1052.0996901256519
 20
-591.67183301975695
 30
0.0
 40
0.5
 50
180.08577984106989
 51
227.782146519451
  0
LINE
  5
218A5
  8
01
 10
1051.7934249445309
 20
-592.67203397799358
 30
0.0
 11
1051.8041783915619
 21
-593.18396272597499
 31
0.0
  0
LINE
  5
218AA
  8
01
 10
1468.599689568561
 20
-655.3716199381156
 30
0.0
 11
1468.5996895685589
 21
-623.95436120625391
 31
0.0
  0
ARC
  5
218AB
  8
01
 10
1468.899689580481
 20
-623.95436120625391
 30
0.0
 40
0.3000000119209289
 50
93.412814295173249
 51
180.0
  0
ARC
  5
218AC
  8
01
 10
1468.899689580481
 20
-655.3716199381156
 30
0.0
 40
0.3000000119117884
 50
180.00000000023451
 51
270.08035802631332
  0
LINE
  5
218AD
  8
01
 10
1503.39968956856
 20
-588.67183309843745
 30
0.0
 11
1543.7996895685601
 21
-588.67183486437875
 31
0.0
  0
LINE
  5
218AF
  8
01
 10
1544.8953478927319
 20
-593.67183319498497
 30
0.0
 11
1542.553497472858
 21
-593.67183369554004
 31
0.0
  0
ARC
  5
218B0
  8
01
 10
1491.939737958995
 20
-654.32484388602597
 30
0.0
 40
0.4999999999999957
 50
279.3511274719491
 51
311.07696625833279
  0
ARC
  5
218B1
  8
01
 10
1545.099689011467
 20
-591.67183301975695
 30
0.0
 40
0.5
 50
312.21785348082352
 51
359.91422015892999
  0
ARC
  5
218B3
  8
01
 10
1544.8952866309969
 20
-593.17177042865228
 30
0.0
 40
0.5000627700986714
 50
270.00701919684587
 51
358.60290175256671
  0
LINE
  5
218B4
  8
01
 10
1545.3952007455571
 20
-593.18396272596067
 30
0.0
 11
1545.4059541925899
 21
-592.67203397808862
 31
0.0
  0
LINE
  5
218B9
  8
01
 10
1468.599689568757
 20
-493.37196342471469
 30
0.0
 11
1468.599689568757
 21
-524.7894352262972
 31
0.0
  0
ARC
  5
218BA
  8
01
 10
1468.8996895806779
 20
-524.78943522629731
 30
0.0
 40
0.3000000119209289
 50
180.0
 51
266.58718570482671
  0
ARC
  5
218BB
  8
01
 10
1468.8996895806779
 20
-493.37217649443568
 30
0.0
 40
0.3000000119117884
 50
89.919641973686709
 51
179.99999999976549
  0
LINE
  5
218BC
  8
01
 10
1543.7996895687579
 20
-560.07196442982899
 30
0.0
 11
1503.3996895687569
 21
-560.07196394001289
 31
0.0
  0
LINE
  5
218BF
  8
01
 10
1545.0820833950229
 20
-555.07196341279382
 30
0.0
 11
1542.5534976520501
 21
-555.07196408857681
 31
0.0
  0
ARC
  5
218C0
  8
01
 10
1545.0820833950229
 20
-555.57196341279382
 30
0.0
 40
0.5000000000036941
 50
1.344452097301392
 51
89.999999999765507
  0
ARC
  5
218C1
  8
01
 10
1491.9397379591919
 20
-494.41895254652172
 30
0.0
 40
0.5000000000000028
 50
48.923033717223923
 51
80.648872502223895
  0
ARC
  5
218C6
  8
01
 10
1115.6023671854589
 20
-591.67030291437345
 30
0.0
 40
63.502714480511671
 50
182.08698952226831
 51
259.61132612395699
  0
ARC
  5
218C7
  8
01
 10
1052.4415717672589
 20
-593.9718330316781
 30
0.0
 40
0.3000000119206699
 50
90.000000000208416
 51
182.1079205477867
  0
ARC
  5
218C8
  8
01
 10
1104.205352859854
 20
-653.83694333079745
 30
0.0
 40
0.3000000119209233
 50
259.61192734655322
 51
279.95464329748501
  0
ARC
  5
218C9
  8
01
 10
1115.602367185656
 20
-557.07349351817777
 30
0.0
 40
63.502714480511663
 50
100.388673876043
 51
177.9130104777316
  0
ARC
  5
218CA
  8
01
 10
1104.205352860052
 20
-494.90685310175371
 30
0.0
 40
0.3000000119209233
 50
80.045356702065206
 51
100.3880726534468
  0
ARC
  5
218CB
  8
01
 10
1052.4415717674569
 20
-554.77196340087312
 30
0.0
 40
0.3000000119206699
 50
177.8920794522133
 51
269.99999999976552
  0
ARC
  5
218CC
  8
01
 10
1481.597011951661
 20
-591.67030291437391
 30
0.0
 40
63.502714480511258
 50
280.38867387604301
 51
357.91301047773158
  0
ARC
  5
218CD
  8
01
 10
1492.9940262772659
 20
-653.83694333079745
 30
0.0
 40
0.3000000119209233
 50
260.04535670267569
 51
280.38807265344678
  0
ARC
  5
218CE
  8
01
 10
1544.7578073698601
 20
-593.9718330316781
 30
0.0
 40
0.3000000119206699
 50
357.8920794522133
 51
89.999999999765507
  0
ARC
  5
218CF
  8
01
 10
1481.5970119518579
 20
-557.07349351817766
 30
0.0
 40
63.502714480511713
 50
2.0869895222683659
 51
79.611326123956985
  0
ARC
  5
218D0
  8
01
 10
1492.994026277463
 20
-494.90685310175371
 30
0.0
 40
0.3000000119209233
 50
79.611927346553216
 51
99.954643301318725
  0
ARC
  5
218D1
  8
01
 10
1544.7578073700579
 20
-554.77196340087312
 30
0.0
 40
0.3000000119206699
 50
270.00000000020839
 51
2.1079205477866889
  0
LINE
  5
218D2
  8
01
 10
1585.87628060516
 20
-703.37196150522948
 30
0.0
 11
1585.879184538587
 21
-703.07920629906175
 31
0.0
  0
LINE
  5
218D3
  8
01
 10
1585.8828136294489
 20
-703.82058917121094
 30
0.0
 11
1585.87628060516
 21
-703.37196150522948
 31
0.0
  0
LINE
  5
218D4
  8
01
 10
1748.4732414968821
 20
-703.66472051727624
 30
0.0
 11
1748.476150212123
 21
-703.37196150542729
 31
0.0
  0
LINE
  5
218D5
  8
01
 10
1748.476150212123
 20
-703.37196150542729
 30
0.0
 11
1748.4732414968271
 21
-703.07920630573051
 31
0.0
  0
LINE
  5
218DC
  8
1CENTER
 10
1614.706595621933
 20
-703.37196341279423
 30
0.0
 11
1699.632913859894
 21
-703.37196341277058
 31
0.0
  0
LINE
  5
218DD
  8
1CENTER
 10
1523.5997185695501
 20
-541.91520043852006
 30
0.0
 11
1523.5997185695501
 21
-626.84151867648086
 31
0.0
  0
LINE
  5
218DE
  8
1CENTER
 10
1073.5996605679641
 20
-541.91520043852006
 30
0.0
 11
1073.5996605679641
 21
-626.84151867648086
 31
0.0
  0
LINE
  5
218DF
  8
01
 10
1531.42475152989
 20
-683.6330699038831
 30
0.0
 11
1531.7674639322331
 21
-683.52941694978153
 31
0.0
  0
LINE
  5
218E0
  8
01
 10
1531.42475152989
 20
-723.1108531070081
 30
0.0
 11
1531.7674639322331
 21
-723.21451369050419
 31
0.0
  0
LINE
  5
218E1
  8
01
 10
1545.5989345538901
 20
-703.09709648662601
 30
0.0
 11
1545.5989345538919
 21
-703.64683033862059
 31
0.0
  0
LINE
  5
218E2
  8
01
 10
1468.5996935464909
 20
-687.67196342471516
 30
0.0
 11
1468.5996935464909
 21
-719.0719634008733
 31
0.0
  0
LINE
  5
218E3
  8
01
 10
1128.599663028913
 20
-719.0719634008733
 30
0.0
 11
1128.599663028913
 21
-687.67196342471516
 31
0.0
  0
LINE
  5
218E4
  8
01
 10
1128.899663040834
 20
-719.37196341279423
 30
0.0
 11
1128.599663028913
 21
-719.0719634008733
 31
0.0
  0
LINE
  5
218E5
  8
01
 10
1128.899663040834
 20
-687.37196341279423
 30
0.0
 11
1128.599663028913
 21
-687.67196342471516
 31
0.0
  0
ARC
  5
218E6
  8
01
 10
1057.956338577942
 20
-683.36875912642654
 30
0.0
 40
1.9911827845248651
 50
148.0091246664644
 51
155.36217760918191
  0
ARC
  5
218E7
  8
01
 10
1057.9563385662691
 20
-723.37516770513525
 30
0.0
 40
1.991182771424153
 50
204.63782237460069
 51
211.99087107315501
  0
ARC
  5
218E8
  8
01
 10
1101.60005928992
 20
-703.37189937913365
 30
0.0
 40
50.000393138502233
 50
180.3150467831457
 51
204.6240245719836
  0
ARC
  5
218E9
  8
01
 10
1101.6000592899161
 20
-703.37202744645367
 30
0.0
 40
50.000393138498417
 50
155.3759754280164
 51
179.68495321646341
  0
ARC
  5
218EC
  8
01
 10
1128.2996437403531
 20
-719.07171501269431
 30
0.0
 40
0.3000192889715203
 50
269.9461277107273
 51
359.99708929676518
  0
ARC
  5
218ED
  8
01
 10
1128.29964374049
 20
-687.67221181275715
 30
0.0
 40
0.3000192888345585
 50
0.002910677127558
 51
90.053872315510233
  0
ARC
  5
218F4
  8
01
 10
1055.2791319106041
 20
-687.1029023978067
 30
0.0
 40
0.2998191837905439
 50
86.813569384548586
 51
161.08252513754019
  0
ARC
  5
218F5
  8
01
 10
1055.2791319106011
 20
-719.64102442778562
 30
0.0
 40
0.2998191837864515
 50
198.91747486184079
 51
273.18643061586909
  0
ARC
  5
218F6
  8
01
 10
1095.76242946504
 20
-703.363088827826
 30
0.0
 40
8.7429013712164547
 50
275.82955441905978
 51
359.94184123550781
  0
ARC
  5
218F9
  8
01
 10
1095.7624294650259
 20
-703.38083799777439
 30
0.0
 40
8.7429013712294719
 50
0.0581587645703972
 51
84.170445580809286
  0
LINE
  5
21900
  8
01
 10
1065.774605045515
 20
-683.6330699038831
 30
0.0
 11
1065.431892643172
 21
-683.52941694978153
 31
0.0
  0
LINE
  5
21901
  8
01
 10
1065.774605045515
 20
-723.1108531070081
 30
0.0
 11
1065.431892643172
 21
-723.21451369050419
 31
0.0
  0
LINE
  5
21902
  8
01
 10
1051.600422021515
 20
-703.09709648662601
 30
0.0
 11
1051.6004220215129
 21
-703.64683033862059
 31
0.0
  0
LINE
  5
21903
  8
01
 10
1128.599663028913
 20
-687.67196342471516
 30
0.0
 11
1128.599663028913
 21
-719.0719634008733
 31
0.0
  0
ARC
  5
21904
  8
1PHANTOM
 10
1507.330918410511
 20
-554.07196429972316
 30
0.0
 40
1.00000685697502
 50
185.37389230955171
 51
270.0003915664721
  0
LINE
  5
21905
  8
1PHANTOM
 10
1505.0996877765899
 20
-519.07197125420987
 30
0.0
 11
1504.0996877765899
 21
-519.07197129792155
 31
0.0
  0
ARC
  5
21906
  8
1PHANTOM
 10
1506.369990214843
 20
-550.03516370147315
 30
0.0
 40
0.5000703556273325
 50
180.50062996821029
 51
188.00323267817581
  0
ARC
  5
21907
  8
1PHANTOM
 10
1503.099688279271
 20
-530.57197134163289
 30
0.0
 40
0.5
 50
270.00000250446868
 51
0.0000025042602611
  0
LINE
  5
21908
  8
1PHANTOM
 10
1505.604051066194
 20
-519.57195219369578
 30
0.0
 11
1505.0996877765899
 21
-519.07197125420987
 31
0.0
  0
LINE
  5
21909
  8
1PHANTOM
 10
1504.0996877765899
 20
-519.07197129792155
 30
0.0
 11
1503.599687798446
 21
-519.57197131977728
 31
0.0
  0
LINE
  5
2190A
  8
1PHANTOM
 10
1505.8699389483861
 20
-550.03953308125665
 30
0.0
 11
1505.604051066194
 21
-519.57195219369578
 31
0.0
  0
LINE
  5
2190C
  8
1PHANTOM
 10
1503.599688279271
 20
-530.57197131977716
 30
0.0
 11
1503.599687798446
 21
-519.57197131977728
 31
0.0
  0
LINE
  5
2190E
  8
1PHANTOM
 10
1503.0996883011269
 20
-531.07197134163289
 30
0.0
 11
1498.636764107622
 21
-531.07197153671348
 31
0.0
  0
LINE
  5
2190F
  8
1PHANTOM
 10
1507.3309252446829
 20
-555.07197115667975
 30
0.0
 11
1542.554267385897
 21
-555.07196961701743
 31
0.0
  0
LINE
  5
21910
  8
1PHANTOM
 10
1492.707709917574
 20
-525.12349928869435
 30
0.0
 11
1492.439716050749
 21
-494.41459767357719
 31
0.0
  0
ARC
  5
21911
  8
1PHANTOM
 10
1481.5773344882559
 20
-557.13921716054676
 30
0.0
 40
60.57091631838265
 50
69.954186857511942
 51
79.40185078905418
  0
ARC
  5
21912
  8
1PHANTOM
 10
1481.608464210974
 20
-557.07006043611159
 30
0.0
 40
60.491208906828369
 50
1.8928863648673351
 51
27.57088251486805
  0
ARC
  5
21913
  8
1PHANTOM
 10
1481.6088687059739
 20
-557.05649165907948
 30
0.0
 40
60.482089637352331
 50
53.706251868845918
 51
68.679043302520398
  0
ARC
  5
21914
  8
1PHANTOM
 10
1481.6019718259849
 20
-557.07015912008069
 30
0.0
 40
60.497142935648618
 50
31.87196339826151
 51
52.080698721262301
  0
LINE
  5
21915
  8
1PHANTOM
 10
1518.780550587174
 20
-509.34534812334249
 30
0.0
 11
1518.5996729986259
 21
-530.07197066410265
 31
0.0
  0
LINE
  5
21916
  8
1PHANTOM
 10
1517.409743879296
 20
-508.30835832327938
 30
0.0
 11
1517.5996729986259
 21
-530.07197070781388
 31
0.0
  0
LINE
  5
21917
  8
1PHANTOM
 10
1534.0996733920281
 20
-539.07196998657605
 30
0.0
 11
1533.0996733920281
 21
-539.07197003028728
 31
0.0
  0
LINE
  5
21918
  8
1PHANTOM
 10
1534.0996733920281
 20
-539.07196998657605
 30
0.0
 11
1534.186941632822
 21
-529.07196998276163
 31
0.0
  0
LINE
  5
21919
  8
1PHANTOM
 10
1535.230225497068
 20
-529.07196993717412
 30
0.0
 11
1534.186941632822
 21
-529.07196998276163
 31
0.0
  0
LINE
  5
2191A
  8
1PHANTOM
 10
1532.9779706389641
 20
-525.1262856958208
 30
0.0
 11
1533.0996733920281
 21
-539.07197003028728
 31
0.0
  0
LINE
  5
2191B
  8
1PHANTOM
 10
1518.5996729986259
 20
-530.07197066410265
 30
0.0
 11
1517.5996729986259
 21
-530.07197070781388
 31
0.0
  0
LINE
  5
2191C
  8
1PHANTOM
 10
1502.339312449714
 20
-500.23775694398972
 30
0.0
 11
1502.5996729986259
 21
-530.07197136348498
 31
0.0
  0
LINE
  5
2191D
  8
1PHANTOM
 10
1503.0996729986259
 20
-530.07197134162902
 30
0.0
 11
1503.5996729767701
 21
-529.57197131977318
 31
0.0
  0
LINE
  5
2191E
  8
1PHANTOM
 10
1502.5996729986259
 20
-530.07197136348498
 30
0.0
 11
1503.0996729986259
 21
-530.07197134162902
 31
0.0
  0
LINE
  5
2191F
  8
1PHANTOM
 10
1503.5996717155199
 20
-500.7138989791535
 30
0.0
 11
1503.5996729767701
 21
-529.57197131977318
 31
0.0
  0
ARC
  5
21920
  8
1PHANTOM
 10
1507.330918410511
 20
-594.67165785484565
 30
0.0
 40
1.00000685697502
 50
89.999608433527897
 51
174.62610769044809
  0
LINE
  5
21921
  8
1PHANTOM
 10
1505.0996877765899
 20
-629.67165090035905
 30
0.0
 11
1504.0996877765899
 21
-629.67165085664737
 31
0.0
  0
ARC
  5
21922
  8
1PHANTOM
 10
1506.369990214843
 20
-598.70845845309577
 30
0.0
 40
0.5000703556273325
 50
171.99676732182411
 51
179.49937003178971
  0
ARC
  5
21923
  8
1PHANTOM
 10
1503.099688279271
 20
-618.17165081293615
 30
0.0
 40
0.5
 50
359.99999749573982
 51
89.999997495531304
  0
LINE
  5
21924
  8
1PHANTOM
 10
1505.604051066194
 20
-629.17166996087315
 30
0.0
 11
1505.0996877765899
 21
-629.67165090035905
 31
0.0
  0
LINE
  5
21925
  8
1PHANTOM
 10
1504.0996877765899
 20
-629.67165085664737
 30
0.0
 11
1503.599687798446
 21
-629.17165083479165
 31
0.0
  0
LINE
  5
21926
  8
1PHANTOM
 10
1505.8699389483861
 20
-598.70408907331239
 30
0.0
 11
1505.604051066194
 21
-629.17166996087315
 31
0.0
  0
LINE
  5
21928
  8
1PHANTOM
 10
1503.599688279271
 20
-618.17165083479176
 30
0.0
 11
1503.599687798446
 21
-629.17165083479165
 31
0.0
  0
LINE
  5
2192A
  8
1PHANTOM
 10
1503.0996883011269
 20
-617.67165081293615
 30
0.0
 11
1498.636764107622
 21
-617.67165061785545
 31
0.0
  0
LINE
  5
2192B
  8
1PHANTOM
 10
1507.3309252446829
 20
-593.67165099788906
 30
0.0
 11
1542.554267385897
 21
-593.67165253755161
 31
0.0
  0
LINE
  5
2192C
  8
1PHANTOM
 10
1492.707709917574
 20
-623.62012286587469
 30
0.0
 11
1492.439716050749
 21
-654.32902448099185
 31
0.0
  0
ARC
  5
2192D
  8
1PHANTOM
 10
1481.5773344882559
 20
-591.60440499402216
 30
0.0
 40
60.57091631838265
 50
280.59814921094591
 51
290.04581314248799
  0
ARC
  5
2192E
  8
1PHANTOM
 10
1481.608464210974
 20
-591.67356171845745
 30
0.0
 40
60.491208906828369
 50
332.4291174851304
 51
358.10711363513269
  0
ARC
  5
2192F
  8
1PHANTOM
 10
1481.6088687059739
 20
-591.68713049548955
 30
0.0
 40
60.482089637352331
 50
291.32095669747957
 51
306.29374813115408
  0
ARC
  5
21930
  8
1PHANTOM
 10
1481.6019718259849
 20
-591.67346303448835
 30
0.0
 40
60.497142935648618
 50
307.91930127873769
 51
328.12803660173847
  0
LINE
  5
21931
  8
1PHANTOM
 10
1518.780550587174
 20
-639.39827403122649
 30
0.0
 11
1518.5996729986259
 21
-618.67165149046616
 31
0.0
  0
LINE
  5
21932
  8
1PHANTOM
 10
1517.409743879296
 20
-640.4352638312896
 30
0.0
 11
1517.5996729986259
 21
-618.67165144675505
 31
0.0
  0
LINE
  5
21933
  8
1PHANTOM
 10
1534.0996733920281
 20
-609.67165216799299
 30
0.0
 11
1533.0996733920281
 21
-609.67165212428165
 31
0.0
  0
LINE
  5
21934
  8
1PHANTOM
 10
1534.0996733920281
 20
-609.67165216799299
 30
0.0
 11
1534.186941632822
 21
-619.67165217180741
 31
0.0
  0
LINE
  5
21935
  8
1PHANTOM
 10
1535.230225497068
 20
-619.67165221739492
 30
0.0
 11
1534.186941632822
 21
-619.67165217180741
 31
0.0
  0
LINE
  5
21936
  8
1PHANTOM
 10
1532.9779706389641
 20
-623.61733645874824
 30
0.0
 11
1533.0996733920281
 21
-609.67165212428165
 31
0.0
  0
LINE
  5
21937
  8
1PHANTOM
 10
1518.5996729986259
 20
-618.67165149046616
 30
0.0
 11
1517.5996729986259
 21
-618.67165144675505
 31
0.0
  0
LINE
  5
21938
  8
1PHANTOM
 10
1502.339312449714
 20
-648.50586521057915
 30
0.0
 11
1502.5996729986259
 21
-618.67165079108395
 31
0.0
  0
LINE
  5
21939
  8
1PHANTOM
 10
1503.0996729986259
 20
-618.67165081294002
 30
0.0
 11
1503.5996729767701
 21
-619.17165083479586
 31
0.0
  0
LINE
  5
2193A
  8
1PHANTOM
 10
1502.5996729986259
 20
-618.67165079108395
 30
0.0
 11
1503.0996729986259
 21
-618.67165081294002
 31
0.0
  0
LINE
  5
2193B
  8
1PHANTOM
 10
1503.5996717155199
 20
-648.02972317541537
 30
0.0
 11
1503.5996729767701
 21
-619.17165083479586
 31
0.0
  0
ARC
  5
2193C
  8
1PHANTOM
 10
1089.8684607270029
 20
-554.07196429972316
 30
0.0
 40
1.00000685697502
 50
269.9996084335279
 51
354.62610769044812
  0
LINE
  5
2193D
  8
1PHANTOM
 10
1092.0996913609249
 20
-519.07197125420987
 30
0.0
 11
1093.0996913609249
 21
-519.07197129792155
 31
0.0
  0
ARC
  5
2193E
  8
1PHANTOM
 10
1090.829388922672
 20
-550.03516370147315
 30
0.0
 40
0.5000703556273325
 50
351.99676732182422
 51
359.49937003178968
  0
ARC
  5
2193F
  8
1PHANTOM
 10
1094.099690858244
 20
-530.57197134163289
 30
0.0
 40
0.5
 50
179.99999749573971
 51
269.99999749553132
  0
LINE
  5
21940
  8
1PHANTOM
 10
1091.5953280713211
 20
-519.57195219369578
 30
0.0
 11
1092.0996913609249
 21
-519.07197125420987
 31
0.0
  0
LINE
  5
21941
  8
1PHANTOM
 10
1093.0996913609249
 20
-519.07197129792155
 30
0.0
 11
1093.5996913390691
 21
-519.57197131977728
 31
0.0
  0
LINE
  5
21942
  8
1PHANTOM
 10
1091.3294401891289
 20
-550.03953308125665
 30
0.0
 11
1091.5953280713211
 21
-519.57195219369578
 31
0.0
  0
LINE
  5
21944
  8
1PHANTOM
 10
1093.599690858244
 20
-530.57197131977716
 30
0.0
 11
1093.5996913390691
 21
-519.57197131977728
 31
0.0
  0
LINE
  5
21946
  8
1PHANTOM
 10
1094.0996908363879
 20
-531.07197134163289
 30
0.0
 11
1098.5626150298931
 21
-531.07197153671348
 31
0.0
  0
LINE
  5
21947
  8
1PHANTOM
 10
1089.8684538928319
 20
-555.07197115667975
 30
0.0
 11
1054.6451117516181
 21
-555.07196961701743
 31
0.0
  0
LINE
  5
21948
  8
1PHANTOM
 10
1104.4916692199411
 20
-525.12349928869435
 30
0.0
 11
1104.7596630867661
 21
-494.41459767357719
 31
0.0
  0
ARC
  5
21949
  8
1PHANTOM
 10
1115.6220446492589
 20
-557.13921716054676
 30
0.0
 40
60.57091631838265
 50
100.59814921094581
 51
110.045813142488
  0
ARC
  5
2194A
  8
1PHANTOM
 10
1115.590914926541
 20
-557.07006043611159
 30
0.0
 40
60.491208906828369
 50
152.42911748514641
 51
178.10711363513261
  0
ARC
  5
2194B
  8
1PHANTOM
 10
1115.5905104315409
 20
-557.05649165907948
 30
0.0
 40
60.482089637352331
 50
111.3209566974796
 51
126.2937481311541
  0
ARC
  5
2194C
  8
1PHANTOM
 10
1115.5974073115301
 20
-557.07015912008069
 30
0.0
 40
60.497142935648618
 50
127.91930127873771
 51
148.1280366017385
  0
LINE
  5
2194D
  8
1PHANTOM
 10
1078.418828550341
 20
-509.34534812334249
 30
0.0
 11
1078.5997061388889
 21
-530.07197066410265
 31
0.0
  0
LINE
  5
2194E
  8
1PHANTOM
 10
1079.7896352582191
 20
-508.30835832327938
 30
0.0
 11
1079.5997061388889
 21
-530.07197070781388
 31
0.0
  0
LINE
  5
2194F
  8
1PHANTOM
 10
1063.099705745487
 20
-539.07196998657605
 30
0.0
 11
1064.099705745487
 21
-539.07197003028728
 31
0.0
  0
LINE
  5
21950
  8
1PHANTOM
 10
1063.099705745487
 20
-539.07196998657605
 30
0.0
 11
1063.012437504693
 21
-529.07196998276163
 31
0.0
  0
LINE
  5
21951
  8
1PHANTOM
 10
1061.9691536404471
 20
-529.07196993717412
 30
0.0
 11
1063.012437504693
 21
-529.07196998276163
 31
0.0
  0
LINE
  5
21952
  8
1PHANTOM
 10
1064.221408498551
 20
-525.1262856958208
 30
0.0
 11
1064.099705745487
 21
-539.07197003028728
 31
0.0
  0
LINE
  5
21953
  8
1PHANTOM
 10
1078.5997061388889
 20
-530.07197066410265
 30
0.0
 11
1079.5997061388889
 21
-530.07197070781388
 31
0.0
  0
LINE
  5
21954
  8
1PHANTOM
 10
1094.860066687801
 20
-500.23775694398972
 30
0.0
 11
1094.5997061388889
 21
-530.07197136348498
 31
0.0
  0
LINE
  5
21955
  8
1PHANTOM
 10
1094.0997061388889
 20
-530.07197134162902
 30
0.0
 11
1093.599706160745
 21
-529.57197131977318
 31
0.0
  0
LINE
  5
21956
  8
1PHANTOM
 10
1094.5997061388889
 20
-530.07197136348498
 30
0.0
 11
1094.0997061388889
 21
-530.07197134162902
 31
0.0
  0
LINE
  5
21957
  8
1PHANTOM
 10
1093.5997074219949
 20
-500.7138989791535
 30
0.0
 11
1093.599706160745
 21
-529.57197131977318
 31
0.0
  0
ARC
  5
21958
  8
1PHANTOM
 10
1089.8684607270029
 20
-594.67165785484565
 30
0.0
 40
1.00000685697502
 50
5.3738923095518958
 51
90.000391566472103
  0
LINE
  5
21959
  8
1PHANTOM
 10
1092.0996913609249
 20
-629.67165090035905
 30
0.0
 11
1093.0996913609249
 21
-629.67165085664737
 31
0.0
  0
ARC
  5
2195A
  8
1PHANTOM
 10
1090.829388922672
 20
-598.70845845309577
 30
0.0
 40
0.5000703556273325
 50
0.5006299682103054
 51
8.0032326781758147
  0
ARC
  5
2195B
  8
1PHANTOM
 10
1094.099690858244
 20
-618.17165081293615
 30
0.0
 40
0.5
 50
90.000002504468682
 51
180.00000250426029
  0
LINE
  5
2195C
  8
1PHANTOM
 10
1091.5953280713211
 20
-629.17166996087315
 30
0.0
 11
1092.0996913609249
 21
-629.67165090035905
 31
0.0
  0
LINE
  5
2195D
  8
1PHANTOM
 10
1093.0996913609249
 20
-629.67165085664737
 30
0.0
 11
1093.5996913390691
 21
-629.17165083479165
 31
0.0
  0
LINE
  5
2195E
  8
1PHANTOM
 10
1091.3294401891289
 20
-598.70408907331239
 30
0.0
 11
1091.5953280713211
 21
-629.17166996087315
 31
0.0
  0
LINE
  5
21960
  8
1PHANTOM
 10
1093.599690858244
 20
-618.17165083479176
 30
0.0
 11
1093.5996913390691
 21
-629.17165083479165
 31
0.0
  0
LINE
  5
21962
  8
1PHANTOM
 10
1094.0996908363879
 20
-617.67165081293615
 30
0.0
 11
1098.5626150298931
 21
-617.67165061785545
 31
0.0
  0
LINE
  5
21963
  8
1PHANTOM
 10
1089.8684538928319
 20
-593.67165099788906
 30
0.0
 11
1054.6451117516181
 21
-593.67165253755161
 31
0.0
  0
LINE
  5
21964
  8
1PHANTOM
 10
1104.4916692199411
 20
-623.62012286587469
 30
0.0
 11
1104.7596630867661
 21
-654.32902448099185
 31
0.0
  0
ARC
  5
21965
  8
1PHANTOM
 10
1115.6220446492589
 20
-591.60440499402216
 30
0.0
 40
60.57091631838265
 50
249.9541868575119
 51
259.40185078905421
  0
ARC
  5
21966
  8
1PHANTOM
 10
1115.590914926541
 20
-591.67356171845745
 30
0.0
 40
60.491208906828369
 50
181.89288636486731
 51
207.57088251486809
  0
ARC
  5
21967
  8
1PHANTOM
 10
1115.5905104315409
 20
-591.68713049548955
 30
0.0
 40
60.482089637352331
 50
233.70625186884601
 51
248.6790433025204
  0
ARC
  5
21968
  8
1PHANTOM
 10
1115.5974073115301
 20
-591.67346303448835
 30
0.0
 40
60.497142935648618
 50
211.8719633982615
 51
232.08069872126231
  0
LINE
  5
21969
  8
1PHANTOM
 10
1078.418828550341
 20
-639.39827403122649
 30
0.0
 11
1078.5997061388889
 21
-618.67165149046616
 31
0.0
  0
LINE
  5
2196A
  8
1PHANTOM
 10
1079.7896352582191
 20
-640.4352638312896
 30
0.0
 11
1079.5997061388889
 21
-618.67165144675505
 31
0.0
  0
LINE
  5
2196B
  8
1PHANTOM
 10
1063.099705745487
 20
-609.67165216799299
 30
0.0
 11
1064.099705745487
 21
-609.67165212428165
 31
0.0
  0
LINE
  5
2196C
  8
1PHANTOM
 10
1063.099705745487
 20
-609.67165216799299
 30
0.0
 11
1063.012437504693
 21
-619.67165217180741
 31
0.0
  0
LINE
  5
2196D
  8
1PHANTOM
 10
1061.9691536404471
 20
-619.67165221739492
 30
0.0
 11
1063.012437504693
 21
-619.67165217180741
 31
0.0
  0
LINE
  5
2196E
  8
1PHANTOM
 10
1064.221408498551
 20
-623.61733645874824
 30
0.0
 11
1064.099705745487
 21
-609.67165212428165
 31
0.0
  0
LINE
  5
2196F
  8
1PHANTOM
 10
1078.5997061388889
 20
-618.67165149046616
 30
0.0
 11
1079.5997061388889
 21
-618.67165144675505
 31
0.0
  0
LINE
  5
21970
  8
1PHANTOM
 10
1094.860066687801
 20
-648.50586521057915
 30
0.0
 11
1094.5997061388889
 21
-618.67165079108395
 31
0.0
  0
LINE
  5
21971
  8
1PHANTOM
 10
1094.0997061388889
 20
-618.67165081294002
 30
0.0
 11
1093.599706160745
 21
-619.17165083479586
 31
0.0
  0
LINE
  5
21972
  8
1PHANTOM
 10
1094.5997061388889
 20
-618.67165079108395
 30
0.0
 11
1094.0997061388889
 21
-618.67165081294002
 31
0.0
  0
LINE
  5
21973
  8
1PHANTOM
 10
1093.5997074219949
 20
-648.02972317541537
 30
0.0
 11
1093.599706160745
 21
-619.17165083479586
 31
0.0
  0
ARC
  5
21974
  8
1PHANTOM
 10
1520.5997185695501
 20
-551.87214310018953
 30
0.0
 40
4.0
 50
89.999866684474966
 51
180.0
  0
LINE
  5
21975
  8
1PHANTOM
 10
1516.5997185695501
 20
-551.87214310018953
 30
0.0
 11
1516.5997185695501
 21
-553.07213379301299
 31
0.0
  0
LINE
  5
21976
  8
1PHANTOM
 10
1526.59972787673
 20
-547.87215706096947
 30
0.0
 11
1520.59972787673
 21
-547.87214310020045
 31
0.0
  0
LINE
  5
21977
  8
1PHANTOM
 10
1530.5997185695501
 20
-553.07216636814178
 30
0.0
 11
1516.5997185695501
 21
-553.07213379301299
 31
0.0
  0
ARC
  5
21978
  8
1PHANTOM
 10
1526.5997185695501
 20
-551.8721570609589
 30
0.0
 40
4.0
 50
0.0
 51
89.999866684474966
  0
LINE
  5
21979
  8
1PHANTOM
 10
1519.5993893744669
 20
-622.44214663714251
 30
0.0
 11
1519.599661564785
 21
-555.07215025542473
 31
0.0
  0
LINE
  5
2197A
  8
1PHANTOM
 10
1530.5997185695501
 20
-551.8721570609589
 30
0.0
 11
1530.5997185695501
 21
-553.07216636814178
 31
0.0
  0
LINE
  5
2197B
  8
1PHANTOM
 10
1520.229383511012
 20
-623.07214223955611
 30
0.0
 11
1519.5993893744669
 21
-622.44214663714251
 31
0.0
  0
LINE
  5
2197C
  8
1PHANTOM
 10
1526.969383511158
 20
-623.07215792215345
 30
0.0
 11
1520.229383511012
 21
-623.07214223955611
 31
0.0
  0
LINE
  5
2197D
  8
1PHANTOM
 10
1527.599389374667
 20
-622.4421623198217
 30
0.0
 11
1527.5996615650531
 21
-555.07214990573357
 31
0.0
  0
LINE
  5
2197E
  8
1PHANTOM
 10
1526.969383511158
 20
-623.07215792215345
 30
0.0
 11
1527.599389374667
 21
-622.4421623198217
 31
0.0
  0
LINE
  5
2197F
  8
1PHANTOM
 10
1520.229383511012
 20
-623.07214223955611
 30
0.0
 11
1520.2296615893499
 21
-555.07215022788648
 31
0.0
  0
LINE
  5
21980
  8
1PHANTOM
 10
1526.969383511158
 20
-623.07215792215345
 30
0.0
 11
1526.969661589583
 21
-555.07214993327159
 31
0.0
  0
LINE
  5
21981
  8
1PHANTOM
 10
1519.5993893744669
 20
-622.44214663714251
 30
0.0
 11
1527.599389374667
 21
-622.4421623198217
 31
0.0
  0
LINE
  5
21982
  8
1PHANTOM
 10
1515.799718569551
 20
-555.07215008057665
 30
0.0
 11
1515.799718569549
 21
-553.07215008057744
 31
0.0
  0
LINE
  5
21983
  8
1PHANTOM
 10
1531.39971856955
 20
-553.07215008057744
 30
0.0
 11
1531.39971856955
 21
-555.07215008057665
 31
0.0
  0
LINE
  5
21984
  8
1PHANTOM
 10
1515.799718569551
 20
-555.07215008057665
 30
0.0
 11
1531.39971856955
 21
-555.07215008057665
 31
0.0
  0
LINE
  5
21985
  8
1PHANTOM
 10
1531.3997185695509
 20
-553.07215008057744
 30
0.0
 11
1515.799718569549
 21
-553.07215008057744
 31
0.0
  0
LINE
  5
21986
  8
1PHANTOM
 10
1523.6992732924541
 20
-553.07215008057744
 30
0.0
 11
1523.9672224848839
 21
-555.07215008057665
 31
0.0
  0
LINE
  5
21987
  8
1PHANTOM
 10
1523.248962642218
 20
-553.07215008057744
 30
0.0
 11
1523.516911834648
 21
-555.07215008057665
 31
0.0
  0
LINE
  5
2198C
  8
1PHANTOM
 10
1607.023504515229
 20
-708.81539108313098
 30
0.0
 11
1622.876148744215
 21
-708.95373570644495
 31
0.0
  0
LINE
  5
2198D
  8
1PHANTOM
 10
1607.517225998331
 20
-710.52411371223604
 30
0.0
 11
1622.876148681431
 21
-710.39007909598286
 31
0.0
  0
LINE
  5
2198E
  8
1PHANTOM
 10
1607.0235049911159
 20
-697.9284223334148
 30
0.0
 11
1622.8761492321951
 21
-697.79007909598295
 31
0.0
  0
LINE
  5
2198F
  8
1PHANTOM
 10
1607.5172266235909
 20
-696.21969974747253
 30
0.0
 11
1622.8761492949791
 21
-696.35373570644515
 31
0.0
  0
LINE
  5
21990
  8
1PHANTOM
 10
1622.876148681431
 20
-710.39007909598286
 30
0.0
 11
1622.876148744215
 21
-708.95373570644495
 31
0.0
  0
LINE
  5
21991
  8
1PHANTOM
 10
1622.8761492321951
 20
-697.79007909598295
 30
0.0
 11
1622.8761492949791
 21
-696.35373570644515
 31
0.0
  0
LINE
  5
21993
  8
1PHANTOM
 10
1609.696145294758
 20
-691.15511001295863
 30
0.0
 11
1605.7844018624021
 21
-691.12020152963623
 31
0.0
  0
LINE
  5
21995
  8
1PHANTOM
 10
1605.784400791294
 20
-715.62361177858429
 30
0.0
 11
1609.6961442267341
 21
-715.5887036372369
 31
0.0
  0
LINE
  5
21998
  8
1PHANTOM
 10
1637.8761492286169
 20
-697.87190805688351
 30
0.0
 11
1638.3761302121959
 21
-697.36754481098933
 31
0.0
  0
LINE
  5
21999
  8
1PHANTOM
 10
1646.884875789407
 20
-697.29329048522914
 30
0.0
 11
1638.3761302121959
 21
-697.36754481098933
 31
0.0
  0
ARC
  5
2199A
  8
1PHANTOM
 10
1646.8761492976189
 20
-696.29332856178326
 30
0.0
 40
1.0000000000000071
 50
270.49999749574022
 51
359.99999749550523
  0
LINE
  5
2199B
  8
1PHANTOM
 10
1651.80114916305
 20
-699.37190866556455
 30
0.0
 11
1652.1761491794409
 21
-698.99690868195603
 31
0.0
  0
LINE
  5
219A0
  8
1PHANTOM
 10
1652.8761497073681
 20
-686.91935564055302
 30
0.0
 11
1652.8761496410791
 21
-688.43588765042784
 31
0.0
  0
LINE
  5
219A1
  8
1PHANTOM
 10
1652.8761483353301
 20
-718.30792977468354
 30
0.0
 11
1652.8761482690411
 21
-719.82446178455803
 31
0.0
  0
LINE
  5
219A2
  8
1PHANTOM
 10
1652.1761496410791
 20
-688.43588761982983
 30
0.0
 11
1652.8761496410791
 21
-688.43588765042784
 31
0.0
  0
LINE
  5
219A3
  8
1PHANTOM
 10
1652.8761483353301
 20
-718.30792977468354
 30
0.0
 11
1652.17614833533
 21
-718.30792974408575
 31
0.0
  0
LINE
  5
219A6
  8
1PHANTOM
 10
1637.8761492286169
 20
-697.87190805688351
 30
0.0
 11
1637.8761491630501
 21
-699.37190805688351
 31
0.0
  0
LINE
  5
219A7
  8
1PHANTOM
 10
1637.8761488133589
 20
-707.37190805688351
 30
0.0
 11
1637.8761487477921
 21
-708.87190805688351
 31
0.0
  0
LINE
  5
219A8
  8
1PHANTOM
 10
1637.8761487477921
 20
-708.87190805688476
 30
0.0
 11
1638.3761296872769
 21
-709.37627134648892
 31
0.0
  0
LINE
  5
219A9
  8
1PHANTOM
 10
1638.3761296872769
 20
-709.37627134648756
 30
0.0
 11
1646.8848752579979
 21
-709.45052641610573
 31
0.0
  0
ARC
  5
219AA
  8
1PHANTOM
 10
1646.8761142197959
 20
-710.45052249837306
 30
0.0
 40
1.0000344595752251
 50
0.0019546281302516
 51
89.498040362705297
  0
LINE
  5
219AB
  8
1PHANTOM
 10
1646.884876054384
 20
-691.23132279878564
 30
0.0
 11
1605.755459034066
 21
-690.86426426005926
 31
0.0
  0
ARC
  5
219AC
  8
1PHANTOM
 10
1643.011702501766
 20
-710.48011675381565
 30
0.0
 40
42.870664616226392
 50
146.15520478481369
 51
151.80017800092321
  0
ARC
  5
219AD
  8
1PHANTOM
 10
1643.011703120992
 20
-696.263699810253
 30
0.0
 40
42.870664613661297
 50
208.19981698992029
 51
213.84479020640839
  0
LINE
  5
219AE
  8
1PHANTOM
 10
1605.7554579406089
 20
-715.87954904563048
 30
0.0
 11
1646.8848749930189
 21
-715.5125322059888
 31
0.0
  0
LINE
  5
219AF
  8
1PHANTOM
 10
1647.876149474193
 20
-692.25377675166919
 30
0.0
 11
1647.8761492976189
 21
-696.29332860549493
 31
0.0
  0
LINE
  5
219B0
  8
1PHANTOM
 10
1647.8761486787901
 20
-710.45048838249966
 30
0.0
 11
1647.8761485022169
 21
-714.49000097729959
 31
0.0
  0
LINE
  5
219B3
  8
1PHANTOM
 10
1652.1761496410791
 20
-688.43588761982983
 30
0.0
 11
1652.1761491794409
 21
-698.99690868195648
 31
0.0
  0
LINE
  5
219B4
  8
1PHANTOM
 10
1652.176148796967
 20
-707.74690868195637
 30
0.0
 11
1652.17614833533
 21
-718.30792974408575
 31
0.0
  0
LINE
  5
219B5
  8
1PHANTOM
 10
1652.176148796967
 20
-707.74690868195785
 30
0.0
 11
1651.8011488133579
 21
-707.37190866556455
 31
0.0
  0
LINE
  5
219B6
  8
1PHANTOM
 10
1651.80114916305
 20
-699.37190866556455
 30
0.0
 11
1637.8761491630501
 21
-699.37190805688351
 31
0.0
  0
LINE
  5
219B7
  8
1PHANTOM
 10
1651.8011488133579
 20
-707.37190866556455
 30
0.0
 11
1637.8761488133589
 21
-707.37190805688351
 31
0.0
  0
ARC
  5
219B8
  8
1PHANTOM
 10
1070.5997185695501
 20
-551.87214310018953
 30
0.0
 40
4.0
 50
89.999866684474966
 51
180.0
  0
LINE
  5
219B9
  8
1PHANTOM
 10
1066.5997185695501
 20
-551.87214310018953
 30
0.0
 11
1066.5997185695501
 21
-553.07213379301299
 31
0.0
  0
LINE
  5
219BA
  8
1PHANTOM
 10
1076.59972787673
 20
-547.87215706096947
 30
0.0
 11
1070.59972787673
 21
-547.87214310020045
 31
0.0
  0
LINE
  5
219BB
  8
1PHANTOM
 10
1080.5997185695501
 20
-553.07216636814178
 30
0.0
 11
1066.5997185695501
 21
-553.07213379301299
 31
0.0
  0
ARC
  5
219BC
  8
1PHANTOM
 10
1076.5997185695501
 20
-551.8721570609589
 30
0.0
 40
4.0
 50
0.0
 51
89.999866684474966
  0
LINE
  5
219BD
  8
1PHANTOM
 10
1069.5993893744669
 20
-622.44214663714251
 30
0.0
 11
1069.599661564785
 21
-555.07215025542473
 31
0.0
  0
LINE
  5
219BE
  8
1PHANTOM
 10
1080.5997185695501
 20
-551.8721570609589
 30
0.0
 11
1080.5997185695501
 21
-553.07216636814178
 31
0.0
  0
LINE
  5
219BF
  8
1PHANTOM
 10
1070.229383511012
 20
-623.07214223955611
 30
0.0
 11
1069.5993893744669
 21
-622.44214663714251
 31
0.0
  0
LINE
  5
219C0
  8
1PHANTOM
 10
1076.969383511158
 20
-623.07215792215345
 30
0.0
 11
1070.229383511012
 21
-623.07214223955611
 31
0.0
  0
LINE
  5
219C1
  8
1PHANTOM
 10
1077.599389374667
 20
-622.4421623198217
 30
0.0
 11
1077.5996615650531
 21
-555.07214990573357
 31
0.0
  0
LINE
  5
219C2
  8
1PHANTOM
 10
1076.969383511158
 20
-623.07215792215345
 30
0.0
 11
1077.599389374667
 21
-622.4421623198217
 31
0.0
  0
LINE
  5
219C3
  8
1PHANTOM
 10
1070.229383511012
 20
-623.07214223955611
 30
0.0
 11
1070.2296615893499
 21
-555.07215022788648
 31
0.0
  0
LINE
  5
219C4
  8
1PHANTOM
 10
1076.969383511158
 20
-623.07215792215345
 30
0.0
 11
1076.969661589583
 21
-555.07214993327159
 31
0.0
  0
LINE
  5
219C5
  8
1PHANTOM
 10
1069.5993893744669
 20
-622.44214663714251
 30
0.0
 11
1077.599389374667
 21
-622.4421623198217
 31
0.0
  0
LINE
  5
219C6
  8
1PHANTOM
 10
1065.7997185695499
 20
-555.07215008057665
 30
0.0
 11
1065.7997185695481
 21
-553.07215008057744
 31
0.0
  0
LINE
  5
219C7
  8
1PHANTOM
 10
1081.39971856955
 20
-553.07215008057744
 30
0.0
 11
1081.39971856955
 21
-555.07215008057665
 31
0.0
  0
LINE
  5
219C8
  8
1PHANTOM
 10
1065.7997185695499
 20
-555.07215008057665
 30
0.0
 11
1081.39971856955
 21
-555.07215008057665
 31
0.0
  0
LINE
  5
219C9
  8
1PHANTOM
 10
1081.3997185695521
 20
-553.07215008057744
 30
0.0
 11
1065.7997185695481
 21
-553.07215008057744
 31
0.0
  0
LINE
  5
219CA
  8
1PHANTOM
 10
1073.6992732924541
 20
-553.07215008057744
 30
0.0
 11
1073.9672224848839
 21
-555.07215008057665
 31
0.0
  0
LINE
  5
219CB
  8
1PHANTOM
 10
1073.248962642218
 20
-553.07215008057744
 30
0.0
 11
1073.516911834648
 21
-555.07215008057665
 31
0.0
  0
ARC
  5
219CC
  8
1PHANTOM
 10
1689.6759912432819
 20
-706.37196341277604
 30
0.0
 40
4.0
 50
270.0
 51
0.0001333155250614
  0
LINE
  5
219CD
  8
1PHANTOM
 10
1689.6759912432819
 20
-710.37196341277604
 30
0.0
 11
1688.4760005504579
 21
-710.37196341277604
 31
0.0
  0
LINE
  5
219CE
  8
1PHANTOM
 10
1693.6759772825019
 20
-700.37195410559661
 30
0.0
 11
1693.675991243271
 21
-706.37195410559661
 31
0.0
  0
LINE
  5
219CF
  8
1PHANTOM
 10
1688.4759679753299
 20
-696.37196341277604
 30
0.0
 11
1688.4760005504579
 21
-710.37196341277604
 31
0.0
  0
ARC
  5
219D0
  8
1PHANTOM
 10
1689.675977282513
 20
-700.37196341277604
 30
0.0
 40
4.0
 50
0.0001333155250614
 51
90.0
  0
LINE
  5
219D1
  8
1PHANTOM
 10
1619.105987706329
 20
-707.37229260785944
 30
0.0
 11
1686.475984088047
 21
-707.37202041754153
 31
0.0
  0
LINE
  5
219D2
  8
1PHANTOM
 10
1689.675977282513
 20
-696.37196341277604
 30
0.0
 11
1688.4759679753299
 21
-696.37196341277604
 31
0.0
  0
LINE
  5
219D3
  8
1PHANTOM
 10
1618.4759921039149
 20
-706.74229847131426
 30
0.0
 11
1619.105987706329
 21
-707.37229260785944
 31
0.0
  0
LINE
  5
219D4
  8
1PHANTOM
 10
1618.4759764213179
 20
-700.00229847116805
 30
0.0
 11
1618.4759921039149
 21
-706.74229847131426
 31
0.0
  0
LINE
  5
219D5
  8
1PHANTOM
 10
1619.105972023649
 20
-699.37229260765844
 30
0.0
 11
1686.4759844377379
 21
-699.37202041727278
 31
0.0
  0
LINE
  5
219D6
  8
1PHANTOM
 10
1618.4759764213179
 20
-700.00229847116805
 30
0.0
 11
1619.105972023649
 21
-699.37229260765844
 31
0.0
  0
LINE
  5
219D7
  8
1PHANTOM
 10
1618.4759921039149
 20
-706.74229847131426
 30
0.0
 11
1686.4759841155851
 21
-706.74202039297552
 31
0.0
  0
LINE
  5
219D8
  8
1PHANTOM
 10
1618.4759764213179
 20
-700.00229847116805
 30
0.0
 11
1686.4759844102
 21
-700.00202039274336
 31
0.0
  0
LINE
  5
219D9
  8
1PHANTOM
 10
1619.105987706329
 20
-707.37229260785944
 30
0.0
 11
1619.105972023649
 21
-699.37229260765844
 31
0.0
  0
LINE
  5
219DA
  8
1PHANTOM
 10
1686.4759842628951
 20
-711.17196341277577
 30
0.0
 11
1688.475984262893
 21
-711.17196341277747
 31
0.0
  0
LINE
  5
219DB
  8
1PHANTOM
 10
1688.475984262893
 20
-695.5719634127762
 30
0.0
 11
1686.4759842628951
 21
-695.5719634127762
 31
0.0
  0
LINE
  5
219DC
  8
1PHANTOM
 10
1686.4759842628951
 20
-711.17196341277577
 30
0.0
 11
1686.4759842628951
 21
-695.5719634127762
 31
0.0
  0
LINE
  5
219DD
  8
1PHANTOM
 10
1688.475984262893
 20
-695.57196341277449
 30
0.0
 11
1688.475984262893
 21
-711.17196341277747
 31
0.0
  0
LINE
  5
219DE
  8
1PHANTOM
 10
1688.475984262893
 20
-703.27240868987201
 30
0.0
 11
1686.4759842628951
 21
-703.00445949744199
 31
0.0
  0
LINE
  5
219DF
  8
1PHANTOM
 10
1688.475984262893
 20
-703.72271934010814
 30
0.0
 11
1686.4759842628951
 21
-703.45477014767812
 31
0.0
  0
LINE
  5
219E0
  8
1PHANTOM
 10
1682.176180926403
 20
-698.87194246253921
 30
0.0
 11
1685.9761809264021
 21
-698.87194262864205
 31
0.0
  0
LINE
  5
219E1
  8
1PHANTOM
 10
1686.4761809482591
 20
-698.37194265049811
 30
0.0
 11
1685.9761809264021
 21
-698.87194262864205
 31
0.0
  0
LINE
  5
219E6
  8
1PHANTOM
 10
1681.476181448865
 20
-686.91938935993994
 30
0.0
 11
1681.4761813825751
 21
-688.43592136981476
 31
0.0
  0
LINE
  5
219E7
  8
1PHANTOM
 10
1681.4761800768269
 20
-718.30796349407001
 30
0.0
 11
1681.476180010538
 21
-719.82449550394495
 31
0.0
  0
LINE
  5
219E8
  8
1PHANTOM
 10
1682.176181382576
 20
-688.43592140041289
 30
0.0
 11
1681.4761813825751
 21
-688.43592136981476
 31
0.0
  0
LINE
  5
219E9
  8
1PHANTOM
 10
1681.4761800768269
 20
-718.30796349407001
 30
0.0
 11
1682.176180076827
 21
-718.30796352466814
 31
0.0
  0
LINE
  5
219EC
  8
1PHANTOM
 10
1682.176181382576
 20
-688.43592140041289
 30
0.0
 11
1682.176180926403
 21
-698.87194246253921
 31
0.0
  0
LINE
  5
219ED
  8
1PHANTOM
 10
1682.176180533
 20
-707.87194246253921
 30
0.0
 11
1682.176180076827
 21
-718.30796352466814
 31
0.0
  0
LINE
  5
219EE
  8
1PHANTOM
 10
1685.9761805329999
 20
-707.87194262854018
 30
0.0
 11
1682.176180533
 21
-707.87194246243644
 31
0.0
  0
LINE
  5
219EF
  8
1PHANTOM
 10
1685.9761805329999
 20
-707.87194262864375
 30
0.0
 11
1686.4761805111441
 21
-708.37194265049902
 31
0.0
  0
ARC
  5
219F0
  8
1PHANTOM
 10
1691.3406272166251
 20
-696.26373439108045
 30
0.0
 40
42.870664615601513
 50
326.1552047849076
 51
331.80017800110102
  0
LINE
  5
219F1
  8
1PHANTOM
 10
1686.476181215691
 20
-692.25381090816916
 30
0.0
 11
1686.4761809482591
 21
-698.37194265049811
 31
0.0
  0
LINE
  5
219F2
  8
1PHANTOM
 10
1686.4761805111441
 20
-708.371942650498
 30
0.0
 11
1686.476180243714
 21
-714.49003513380046
 31
0.0
  0
ARC
  5
219F3
  8
1PHANTOM
 10
1691.3406265844251
 20
-710.48015134181014
 30
0.0
 40
42.87066462824729
 50
28.199816990954709
 51
33.844790205497787
  0
LINE
  5
219F4
  8
1PHANTOM
 10
1687.4674547248851
 20
-691.23135704194601
 30
0.0
 11
1728.596871777288
 21
-690.86430209886794
 31
0.0
  0
LINE
  5
219F5
  8
1PHANTOM
 10
1728.5968706838289
 20
-715.8795868844386
 30
0.0
 11
1687.46745366352
 21
-715.51256644914918
 31
0.0
  0
LINE
  5
219FC
  8
1PHANTOM
 10
1727.328824726791
 20
-708.81542881108305
 30
0.0
 11
1711.4761804857119
 21
-708.95377204851548
 31
0.0
  0
LINE
  5
219FD
  8
1PHANTOM
 10
1726.8351030942849
 20
-710.52415139702543
 30
0.0
 11
1711.476180422927
 21
-710.39011543805316
 31
0.0
  0
LINE
  5
219FE
  8
1PHANTOM
 10
1727.32882520268
 20
-697.92846006136676
 30
0.0
 11
1711.476180973691
 21
-697.79011543805279
 31
0.0
  0
LINE
  5
219FF
  8
1PHANTOM
 10
1726.8351037195739
 20
-696.2197374322617
 30
0.0
 11
1711.4761810364751
 21
-696.35377204851511
 31
0.0
  0
LINE
  5
21A00
  8
1PHANTOM
 10
1711.476180422927
 20
-710.39011543805316
 30
0.0
 11
1711.4761804857119
 21
-708.95377204851548
 31
0.0
  0
LINE
  5
21A01
  8
1PHANTOM
 10
1711.476180973691
 20
-697.79011543805279
 30
0.0
 11
1711.4761810364751
 21
-696.35377204851511
 31
0.0
  0
LINE
  5
21A03
  8
1PHANTOM
 10
1724.6561854911829
 20
-691.15514750726152
 30
0.0
 11
1728.5679289265829
 21
-691.12023936591356
 31
0.0
  0
LINE
  5
21A05
  8
1PHANTOM
 10
1728.5679278555349
 20
-715.62364961486264
 30
0.0
 11
1724.656184423151
 21
-715.58874113153934
 31
0.0
  0
LINE
  5
21A19
  8
01
 10
1561.2569463791281
 20
-588.37183301975733
 30
0.0
 11
1039.122614408124
 21
-588.37183301975733
 31
0.0
  0
LINE
  5
21A1B
  8
01
 10
1653.1762812786901
 20
-673.79411050363467
 30
0.0
 11
1653.1762812786901
 21
-731.03593941753343
 31
0.0
  0
LINE
  5
21A1C
  8
01
 10
1681.1762812786901
 20
-673.79411050363467
 30
0.0
 11
1681.1762812786901
 21
-731.03593941753343
 31
0.0
  0
LINE
  5
21A1D
  8
01
 10
1681.1762812786931
 20
-698.37196341278332
 30
0.0
 11
1653.1762812786901
 21
-698.37196341278423
 31
0.0
  0
LINE
  5
21A1E
  8
01
 10
1681.1762812786931
 20
-708.37196341278332
 30
0.0
 11
1653.1762812786901
 21
-708.37196341278423
 31
0.0
  0
TEXT
  5
21B8F
  8
1TEXT
 10
1703.2362365982151
 20
-608.08631337639406
 30
0.0
 40
4.0
  1
DH-081-FC
 41
0.9
 72
     1
 11
1717.9362365982161
 21
-608.08631337639406
 31
0.0
  0
TEXT
  5
21B90
  8
1TEXT
 10
1638.602903264881
 20
-607.70724505226917
 30
0.0
 40
4.0
  1
クローム
 72
     1
 11
1647.9362365982149
 21
-607.70724505226917
 31
0.0
  0
TEXT
  5
21B91
  8
1TEXT
 10
1638.602903264881
 20
-614.70724505226906
 30
0.0
 40
4.0
  1
クローム
 72
     1
 11
1647.9362365982149
 21
-614.70724505226906
 31
0.0
  0
TEXT
  5
21B92
  8
1TEXT
 10
1703.2362365982151
 20
-615.08631337639395
 30
0.0
 40
4.0
  1
DH-081-DC
 41
0.9
 72
     1
 11
1717.9362365982161
 21
-615.08631337639395
 31
0.0
  0
TEXT
  5
21B93
  8
1TEXT
 10
1666.5362365982151
 20
-614.70724505226906
 30
0.0
 40
4.0
  1
ダークブラウン
 72
     1
 11
1682.936236598214
 21
-614.70724505226906
 31
0.0
  0
LINE
  5
21B94
  8
1DIM
 10
1630.5362365982151
 20
-616.37195639274478
 30
0.0
 11
1735.5362365982151
 21
-616.37195639274478
 31
0.0
  0
LINE
  5
21BC6
  8
01
 10
1561.2569463791281
 20
-560.371963412794
 30
0.0
 11
1039.122614408124
 21
-560.371963412794
 31
0.0
  0
LINE
  5
21FB5
  8
01
 10
1055.2957995035231
 20
-686.80354872468388
 30
0.0
 11
1055.485946903425
 21
-686.82723036530876
 31
0.0
  0
LINE
  5
21FB6
  8
01
 10
1055.485946903425
 20
-686.82723036530876
 30
0.0
 11
1055.7678606607501
 21
-686.88277998689091
 31
0.0
  0
LINE
  5
21FB7
  8
01
 10
1055.7678606607501
 20
-686.88277998689091
 30
0.0
 11
1056.175293216902
 21
-686.97617903474247
 31
0.0
  0
LINE
  5
21FB8
  8
01
 10
1056.175293216902
 20
-686.97617903474247
 30
0.0
 11
1056.724876651961
 21
-687.11089888337528
 31
0.0
  0
LINE
  5
21FB9
  8
01
 10
1056.724876651961
 20
-687.11089888337528
 30
0.0
 11
1057.4234163858471
 21
-687.28779402497685
 31
0.0
  0
LINE
  5
21FBA
  8
01
 10
1057.4234163858471
 20
-687.28779402497685
 30
0.0
 11
1058.2728426553781
 21
-687.50601759675419
 31
0.0
  0
LINE
  5
21FBB
  8
01
 10
1058.2728426553781
 20
-687.50601759675419
 30
0.0
 11
1059.2719881631911
 21
-687.76355543855095
 31
0.0
  0
LINE
  5
21FBC
  8
01
 10
1059.2719881631911
 20
-687.76355543855095
 30
0.0
 11
1060.4164049722731
 21
-688.05714979890263
 31
0.0
  0
LINE
  5
21FBD
  8
01
 10
1060.4164049722731
 20
-688.05714979890263
 30
0.0
 11
1061.701164493757
 21
-688.38325300935185
 31
0.0
  0
LINE
  5
21FBE
  8
01
 10
1061.701164493757
 20
-688.38325300935185
 30
0.0
 11
1063.120628605086
 21
-688.73795119050419
 31
0.0
  0
LINE
  5
21FBF
  8
01
 10
1063.120628605086
 20
-688.73795119050419
 30
0.0
 11
1064.668388614851
 21
-689.11694899323845
 31
0.0
  0
LINE
  5
21FC0
  8
01
 10
1064.668388614851
 20
-689.11694899323845
 30
0.0
 11
1066.3381273843829
 21
-689.51592055085575
 31
0.0
  0
LINE
  5
21FC1
  8
01
 10
1066.3381273843829
 20
-689.51592055085575
 30
0.0
 11
1068.123726139265
 21
-689.9305552554456
 31
0.0
  0
LINE
  5
21FC2
  8
01
 10
1068.123726139265
 20
-689.9305552554456
 30
0.0
 11
1070.0194933511791
 21
-690.35664168122685
 31
0.0
  0
LINE
  5
21FC3
  8
01
 10
1070.0194933511791
 20
-690.35664168122685
 30
0.0
 11
1072.0198290445389
 21
-690.78999129060185
 31
0.0
  0
LINE
  5
21FC4
  8
01
 10
1072.0198290445389
 20
-690.78999129060185
 30
0.0
 11
1074.119163761336
 21
-691.22645369294548
 31
0.0
  0
LINE
  5
21FC5
  8
01
 10
1074.119163761336
 20
-691.22645369294548
 30
0.0
 11
1076.3123552896559
 21
-691.66206160310185
 31
0.0
  0
LINE
  5
21FC6
  8
01
 10
1076.3123552896559
 20
-691.66206160310185
 30
0.0
 11
1078.5943987466869
 21
-692.09295454743767
 31
0.0
  0
LINE
  5
21FC7
  8
01
 10
1078.5943987466869
 20
-692.09295454743767
 30
0.0
 11
1080.960335025984
 21
-692.51533308747685
 31
0.0
  0
LINE
  5
21FC8
  8
01
 10
1080.960335025984
 20
-692.51533308747685
 30
0.0
 11
1083.4050676920001
 21
-692.92557326081669
 31
0.0
  0
LINE
  5
21FC9
  8
01
 10
1083.4050676920001
 20
-692.92557326081669
 30
0.0
 11
1085.9234850503981
 21
-693.320180804762
 31
0.0
  0
LINE
  5
21FCA
  8
01
 10
1085.9234850503981
 20
-693.320180804762
 30
0.0
 11
1088.5103075601639
 21
-693.69598189118767
 31
0.0
  0
LINE
  5
21FCB
  8
01
 10
1088.5103075601639
 20
-693.69598189118767
 30
0.0
 11
1091.1602404214921
 21
-694.04994765046513
 31
0.0
  0
LINE
  5
21FCC
  8
01
 10
1091.1602404214921
 20
-694.04994765046513
 30
0.0
 11
1093.86779047032
 21
-694.37906447175419
 31
0.0
  0
LINE
  5
21FCD
  8
01
 10
1093.86779047032
 20
-694.37906447175419
 30
0.0
 11
1096.6504442789139
 21
-694.68314924958622
 31
0.0
  0
LINE
  5
21FCE
  8
01
 10
1055.2957995035231
 20
-719.94038191560185
 30
0.0
 11
1055.485946903425
 21
-719.91669646027947
 31
0.0
  0
LINE
  5
21FCF
  8
01
 10
1055.485946903425
 20
-719.91669646027947
 30
0.0
 11
1055.7678606607501
 21
-719.86114302400028
 31
0.0
  0
LINE
  5
21FD0
  8
01
 10
1055.7678606607501
 20
-719.86114302400028
 30
0.0
 11
1056.175293216902
 21
-719.76774779084599
 31
0.0
  0
LINE
  5
21FD1
  8
01
 10
1056.175293216902
 20
-719.76774779084599
 30
0.0
 11
1056.724876651961
 21
-719.63302794221318
 31
0.0
  0
LINE
  5
21FD2
  8
01
 10
1056.724876651961
 20
-719.63302794221318
 30
0.0
 11
1057.4234163858471
 21
-719.45613661530876
 31
0.0
  0
LINE
  5
21FD3
  8
01
 10
1057.4234163858471
 20
-719.45613661530876
 30
0.0
 11
1058.2728426553781
 21
-719.23791304353153
 31
0.0
  0
LINE
  5
21FD4
  8
01
 10
1058.2728426553781
 20
-719.23791304353153
 30
0.0
 11
1059.2719881631911
 21
-718.98037138703728
 31
0.0
  0
LINE
  5
21FD5
  8
01
 10
1059.2719881631911
 20
-718.98037138703728
 30
0.0
 11
1060.4164049722731
 21
-718.6867808413831
 31
0.0
  0
LINE
  5
21FD6
  8
01
 10
1060.4164049722731
 20
-718.6867808413831
 30
0.0
 11
1061.701164493757
 21
-718.36067381623661
 31
0.0
  0
LINE
  5
21FD7
  8
01
 10
1061.701164493757
 20
-718.36067381623661
 30
0.0
 11
1063.120628605086
 21
-718.00597944978153
 31
0.0
  0
LINE
  5
21FD8
  8
01
 10
1063.120628605086
 20
-718.00597944978153
 30
0.0
 11
1064.668388614851
 21
-717.62697783234989
 31
0.0
  0
LINE
  5
21FD9
  8
01
 10
1064.668388614851
 20
-717.62697783234989
 30
0.0
 11
1066.3381273843829
 21
-717.22800246003544
 31
0.0
  0
LINE
  5
21FDA
  8
01
 10
1066.3381273843829
 20
-717.22800246003544
 30
0.0
 11
1068.123726139265
 21
-716.81337157014275
 31
0.0
  0
LINE
  5
21FDB
  8
01
 10
1068.123726139265
 20
-716.81337157014275
 30
0.0
 11
1070.0194933511791
 21
-716.38728895905888
 31
0.0
  0
LINE
  5
21FDC
  8
01
 10
1070.0194933511791
 20
-716.38728895905888
 30
0.0
 11
1072.0198290445389
 21
-715.95393553498661
 31
0.0
  0
LINE
  5
21FDD
  8
01
 10
1072.0198290445389
 20
-715.95393553498661
 30
0.0
 11
1074.119163761336
 21
-715.51747313264275
 31
0.0
  0
LINE
  5
21FDE
  8
01
 10
1074.119163761336
 20
-715.51747313264275
 30
0.0
 11
1076.3123552896559
 21
-715.08186522248661
 31
0.0
  0
LINE
  5
21FDF
  8
01
 10
1076.3123552896559
 20
-715.08186522248661
 30
0.0
 11
1078.5943987466869
 21
-714.65097227815056
 31
0.0
  0
LINE
  5
21FE0
  8
01
 10
1078.5943987466869
 20
-714.65097227815056
 30
0.0
 11
1080.960335025984
 21
-714.22859373811161
 31
0.0
  0
LINE
  5
21FE1
  8
01
 10
1080.960335025984
 20
-714.22859373811161
 30
0.0
 11
1083.4050676920001
 21
-713.81835356477166
 31
0.0
  0
LINE
  5
21FE2
  8
01
 10
1083.4050676920001
 20
-713.81835356477166
 30
0.0
 11
1085.9234850503981
 21
-713.42374983552372
 31
0.0
  0
LINE
  5
21FE3
  8
01
 10
1085.9234850503981
 20
-713.42374983552372
 30
0.0
 11
1088.5103075601639
 21
-713.0479411197033
 31
0.0
  0
LINE
  5
21FE4
  8
01
 10
1088.5103075601639
 20
-713.0479411197033
 30
0.0
 11
1091.1602404214921
 21
-712.69397917512333
 31
0.0
  0
LINE
  5
21FE5
  8
01
 10
1091.1602404214921
 20
-712.69397917512333
 30
0.0
 11
1093.86779047032
 21
-712.364858539137
 31
0.0
  0
LINE
  5
21FE6
  8
01
 10
1093.86779047032
 20
-712.364858539137
 30
0.0
 11
1096.6504442789139
 21
-712.06077757600224
 31
0.0
  0
LINE
  5
21FE7
  8
01
 10
1054.9955065347731
 20
-687.00569716218376
 30
0.0
 11
1054.971634159285
 21
-687.048452289137
 31
0.0
  0
LINE
  5
21FE8
  8
01
 10
1054.971634159285
 20
-687.048452289137
 30
0.0
 11
1054.921882877547
 21
-687.17229262116825
 31
0.0
  0
LINE
  5
21FE9
  8
01
 10
1054.921882877547
 20
-687.17229262116825
 30
0.0
 11
1054.8529436685619
 21
-687.36124983552372
 31
0.0
  0
LINE
  5
21FEA
  8
01
 10
1054.8529436685619
 20
-687.36124983552372
 30
0.0
 11
1054.74897027989
 21
-687.66678419831669
 31
0.0
  0
LINE
  5
21FEB
  8
01
 10
1052.1417467691481
 20
-703.37196150544548
 30
0.0
 11
1052.200615177351
 21
-701.13854017976189
 31
0.0
  0
LINE
  5
21FEC
  8
01
 10
1052.200615177351
 20
-701.13854017976189
 30
0.0
 11
1052.3705675699291
 21
-698.91170302155876
 31
0.0
  0
LINE
  5
21FED
  8
01
 10
1052.3705675699291
 20
-698.91170302155876
 30
0.0
 11
1052.64154840489
 21
-696.69628706696903
 31
0.0
  0
LINE
  5
21FEE
  8
01
 10
1052.64154840489
 20
-696.69628706696903
 30
0.0
 11
1053.005188236433
 21
-694.49504652741825
 31
0.0
  0
LINE
  5
21FEF
  8
01
 10
1053.005188236433
 20
-694.49504652741825
 30
0.0
 11
1053.45893121739
 21
-692.31046095612919
 31
0.0
  0
LINE
  5
21FF0
  8
01
 10
1053.45893121739
 20
-692.31046095612919
 30
0.0
 11
1054.002952823836
 21
-690.14632216218376
 31
0.0
  0
LINE
  5
21FF1
  8
01
 10
1054.002952823836
 20
-690.14632216218376
 30
0.0
 11
1054.74897027989
 21
-687.66678419831669
 31
0.0
  0
LINE
  5
21FF2
  8
01
 10
1054.9955065347731
 20
-719.73822584870732
 30
0.0
 11
1054.971634159285
 21
-719.69547072175419
 31
0.0
  0
LINE
  5
21FF3
  8
01
 10
1054.971634159285
 20
-719.69547072175419
 30
0.0
 11
1054.921882877547
 21
-719.57163420442009
 31
0.0
  0
LINE
  5
21FF4
  8
01
 10
1054.921882877547
 20
-719.57163420442009
 30
0.0
 11
1054.8529436685619
 21
-719.382680804762
 31
0.0
  0
LINE
  5
21FF5
  8
01
 10
1054.8529436685619
 20
-719.382680804762
 30
0.0
 11
1054.74897027989
 21
-719.07714262727177
 31
0.0
  0
LINE
  5
21FF6
  8
01
 10
1052.1417467691481
 20
-703.37196150544548
 30
0.0
 11
1052.200615177351
 21
-705.60538283112908
 31
0.0
  0
LINE
  5
21FF7
  8
01
 10
1052.200615177351
 20
-705.60538283112908
 30
0.0
 11
1052.3705675699291
 21
-707.83221998933232
 31
0.0
  0
LINE
  5
21FF8
  8
01
 10
1052.3705675699291
 20
-707.83221998933232
 30
0.0
 11
1052.64154840489
 21
-710.04764357331669
 31
0.0
  0
LINE
  5
21FF9
  8
01
 10
1052.64154840489
 20
-710.04764357331669
 30
0.0
 11
1053.005188236433
 21
-712.24888029817021
 31
0.0
  0
LINE
  5
21FFA
  8
01
 10
1053.005188236433
 20
-712.24888029817021
 30
0.0
 11
1053.45893121739
 21
-714.43346586945916
 31
0.0
  0
LINE
  5
21FFB
  8
01
 10
1053.45893121739
 20
-714.43346586945916
 30
0.0
 11
1054.002952823836
 21
-716.59760847810185
 31
0.0
  0
LINE
  5
21FFC
  8
01
 10
1054.002952823836
 20
-716.59760847810185
 30
0.0
 11
1054.74897027989
 21
-719.07714262727177
 31
0.0
  0
LINE
  5
21FFD
  8
01
 10
1056.274063358504
 20
-682.30359450105095
 30
0.0
 11
1056.2738421060619
 21
-682.30361738923455
 31
0.0
  0
LINE
  5
21FFE
  8
01
 10
1056.2738421060619
 20
-682.30361738923455
 30
0.0
 11
1056.3597872354569
 21
-682.17437544587517
 31
0.0
  0
LINE
  5
21FFF
  8
01
 10
1056.3597872354569
 20
-682.17437544587517
 30
0.0
 11
1056.5351717569411
 21
-681.96064558747685
 31
0.0
  0
LINE
  5
22000
  8
01
 10
1056.5351717569411
 20
-681.96064558747685
 30
0.0
 11
1056.8090441324291
 21
-681.71677199128544
 31
0.0
  0
LINE
  5
22001
  8
01
 10
1056.8090441324291
 20
-681.71677199128544
 30
0.0
 11
1057.1565706827221
 21
-681.51003065827763
 31
0.0
  0
LINE
  5
22002
  8
01
 10
1057.1565706827221
 20
-681.51003065827763
 30
0.0
 11
1057.5240023233471
 21
-681.38084212067986
 31
0.0
  0
LINE
  5
22003
  8
01
 10
1057.5240023233471
 20
-681.38084212067986
 30
0.0
 11
1057.8433611490309
 21
-681.3292368960706
 31
0.0
  0
LINE
  5
22004
  8
01
 10
1057.8433611490309
 20
-681.3292368960706
 30
0.0
 11
1058.0864641763751
 21
-681.32399550202763
 31
0.0
  0
LINE
  5
22005
  8
01
 10
1058.0864641763751
 20
-681.32399550202763
 30
0.0
 11
1058.264961490828
 21
-681.33762923005486
 31
0.0
  0
LINE
  5
22006
  8
01
 10
1058.264961490828
 20
-681.33762923005486
 30
0.0
 11
1058.4027254678781
 21
-681.35754194978153
 31
0.0
  0
LINE
  5
22007
  8
01
 10
1058.4027254678781
 20
-681.35754194978153
 30
0.0
 11
1058.5182116128981
 21
-681.37969008210575
 31
0.0
  0
LINE
  5
22008
  8
01
 10
1058.5182116128981
 20
-681.37969008210575
 30
0.0
 11
1058.6233980753
 21
-681.40348616364861
 31
0.0
  0
LINE
  5
22009
  8
01
 10
1058.6233980753
 20
-681.40348616364861
 30
0.0
 11
1058.7259905435619
 21
-681.42913618806267
 31
0.0
  0
LINE
  5
2200A
  8
01
 10
1058.7259905435619
 20
-681.42913618806267
 30
0.0
 11
1058.8308413126049
 21
-681.45729628327763
 31
0.0
  0
LINE
  5
2200B
  8
01
 10
1058.8308413126049
 20
-681.45729628327763
 30
0.0
 11
1058.9414904214921
 21
-681.4885157656995
 31
0.0
  0
LINE
  5
2200C
  8
01
 10
1058.9414904214921
 20
-681.4885157656995
 30
0.0
 11
1059.060188541609
 21
-681.52326002839482
 31
0.0
  0
LINE
  5
2200D
  8
01
 10
1059.060188541609
 20
-681.52326002839482
 30
0.0
 11
1059.1884844400461
 21
-681.56184950593388
 31
0.0
  0
LINE
  5
2200E
  8
01
 10
1059.1884844400461
 20
-681.56184950593388
 30
0.0
 11
1059.3276903726639
 21
-681.60458174470341
 31
0.0
  0
LINE
  5
2200F
  8
01
 10
1059.3276903726639
 20
-681.60458174470341
 30
0.0
 11
1059.478691349226
 21
-681.65166273835575
 31
0.0
  0
LINE
  5
22010
  8
01
 10
1059.478691349226
 20
-681.65166273835575
 30
0.0
 11
1059.6422503091869
 21
-681.70324507478153
 31
0.0
  0
LINE
  5
22011
  8
01
 10
1059.6422503091869
 20
-681.70324507478153
 30
0.0
 11
1059.8190081216869
 21
-681.75947371247685
 31
0.0
  0
LINE
  5
22012
  8
01
 10
1059.8190081216869
 20
-681.75947371247685
 30
0.0
 11
1060.009338627058
 21
-681.82037916901982
 31
0.0
  0
LINE
  5
22013
  8
01
 10
1060.009338627058
 20
-681.82037916901982
 30
0.0
 11
1060.213516483504
 21
-681.88598433259403
 31
0.0
  0
LINE
  5
22014
  8
01
 10
1060.213516483504
 20
-681.88598433259403
 30
0.0
 11
1060.431823978621
 21
-681.95629683259403
 31
0.0
  0
LINE
  5
22015
  8
01
 10
1060.431823978621
 20
-681.95629683259403
 30
0.0
 11
1060.664505253035
 21
-682.03132429841435
 31
0.0
  0
LINE
  5
22016
  8
01
 10
1060.664505253035
 20
-682.03132429841435
 30
0.0
 11
1060.911644230086
 21
-682.11100569489872
 31
0.0
  0
LINE
  5
22017
  8
01
 10
1060.911644230086
 20
-682.11100569489872
 30
0.0
 11
1061.1733172037179
 21
-682.19528761628544
 31
0.0
  0
LINE
  5
22018
  8
01
 10
1061.1733172037179
 20
-682.19528761628544
 30
0.0
 11
1061.449470768172
 21
-682.28407850984013
 31
0.0
  0
LINE
  5
22019
  8
01
 10
1061.449470768172
 20
-682.28407850984013
 30
0.0
 11
1061.740104923445
 21
-682.3772868228283
 31
0.0
  0
LINE
  5
2201A
  8
01
 10
1061.740104923445
 20
-682.3772868228283
 30
0.0
 11
1062.0451433755929
 21
-682.47479811433232
 31
0.0
  0
LINE
  5
2201B
  8
01
 10
1062.0451433755929
 20
-682.47479811433232
 30
0.0
 11
1062.3645098306711
 21
-682.57651320222294
 31
0.0
  0
LINE
  5
2201C
  8
01
 10
1062.3645098306711
 20
-682.57651320222294
 30
0.0
 11
1062.698127994734
 21
-682.68231001618767
 31
0.0
  0
LINE
  5
2201D
  8
01
 10
1062.698127994734
 20
-682.68231001618767
 30
0.0
 11
1063.045906315047
 21
-682.79206648591435
 31
0.0
  0
LINE
  5
2201E
  8
01
 10
1063.045906315047
 20
-682.79206648591435
 30
0.0
 11
1063.407737980086
 21
-682.90566054109013
 31
0.0
  0
LINE
  5
2201F
  8
01
 10
1063.407737980086
 20
-682.90566054109013
 30
0.0
 11
1063.7834093668041
 21
-683.02293959382439
 31
0.0
  0
LINE
  5
22020
  8
01
 10
1063.7834093668041
 20
-683.02293959382439
 30
0.0
 11
1064.172737369734
 21
-683.1437663150158
 31
0.0
  0
LINE
  5
22021
  8
01
 10
1064.172737369734
 20
-683.1437663150158
 30
0.0
 11
1064.5754931070389
 21
-683.26797285798455
 31
0.0
  0
LINE
  5
22022
  8
01
 10
1064.5754931070389
 20
-683.26797285798455
 30
0.0
 11
1064.9914782144599
 21
-683.39542189362908
 31
0.0
  0
LINE
  5
22023
  8
01
 10
1064.9914782144599
 20
-683.39542189362908
 30
0.0
 11
1065.431892643172
 21
-683.52941694978153
 31
0.0
  0
LINE
  5
22024
  8
01
 10
1056.274063358504
 20
-724.44033232453728
 30
0.0
 11
1056.2738421060619
 21
-724.44031325105107
 31
0.0
  0
LINE
  5
22025
  8
01
 10
1056.2738421060619
 20
-724.44031325105107
 30
0.0
 11
1056.3597872354569
 21
-724.5695475650158
 31
0.0
  0
LINE
  5
22026
  8
01
 10
1056.3597872354569
 20
-724.5695475650158
 30
0.0
 11
1056.5351717569411
 21
-724.7832812381115
 31
0.0
  0
LINE
  5
22027
  8
01
 10
1056.5351717569411
 20
-724.7832812381115
 30
0.0
 11
1056.8090441324291
 21
-725.02715483430302
 31
0.0
  0
LINE
  5
22028
  8
01
 10
1056.8090441324291
 20
-725.02715483430302
 30
0.0
 11
1057.1565706827221
 21
-725.23389235261345
 31
0.0
  0
LINE
  5
22029
  8
01
 10
1057.1565706827221
 20
-725.23389235261345
 30
0.0
 11
1057.5240023233471
 21
-725.36308470490849
 31
0.0
  0
LINE
  5
2202A
  8
01
 10
1057.5240023233471
 20
-725.36308470490849
 30
0.0
 11
1057.8433611490309
 21
-725.41469374421501
 31
0.0
  0
LINE
  5
2202B
  8
01
 10
1057.8433611490309
 20
-725.41469374421501
 30
0.0
 11
1058.0864641763751
 21
-725.41993132356083
 31
0.0
  0
LINE
  5
2202C
  8
01
 10
1058.0864641763751
 20
-725.41993132356083
 30
0.0
 11
1058.264961490828
 21
-725.40629759553349
 31
0.0
  0
LINE
  5
2202D
  8
01
 10
1058.264961490828
 20
-725.40629759553349
 30
0.0
 11
1058.4027254678781
 21
-725.38638106110955
 31
0.0
  0
LINE
  5
2202E
  8
01
 10
1058.4027254678781
 20
-725.38638106110955
 30
0.0
 11
1058.5182116128981
 21
-725.36423292878544
 31
0.0
  0
LINE
  5
2202F
  8
01
 10
1058.5182116128981
 20
-725.36423292878544
 30
0.0
 11
1058.6233980753
 21
-725.34044066193974
 31
0.0
  0
LINE
  5
22030
  8
01
 10
1058.6233980753
 20
-725.34044066193974
 30
0.0
 11
1058.7259905435619
 21
-725.31479063752556
 31
0.0
  0
LINE
  5
22031
  8
01
 10
1058.7259905435619
 20
-725.31479063752556
 30
0.0
 11
1058.8308413126049
 21
-725.28663054231083
 31
0.0
  0
LINE
  5
22032
  8
01
 10
1058.8308413126049
 20
-725.28663054231083
 30
0.0
 11
1058.9414904214921
 21
-725.25540724519169
 31
0.0
  0
LINE
  5
22033
  8
01
 10
1058.9414904214921
 20
-725.25540724519169
 30
0.0
 11
1059.060188541609
 21
-725.22067061189091
 31
0.0
  0
LINE
  5
22034
  8
01
 10
1059.060188541609
 20
-725.22067061189091
 30
0.0
 11
1059.1884844400461
 21
-725.18208113435185
 31
0.0
  0
LINE
  5
22035
  8
01
 10
1059.1884844400461
 20
-725.18208113435185
 30
0.0
 11
1059.3276903726639
 21
-725.13934508088505
 31
0.0
  0
LINE
  5
22036
  8
01
 10
1059.3276903726639
 20
-725.13934508088505
 30
0.0
 11
1059.478691349226
 21
-725.09226408723259
 31
0.0
  0
LINE
  5
22037
  8
01
 10
1059.478691349226
 20
-725.09226408723259
 30
0.0
 11
1059.6422503091869
 21
-725.04067793610955
 31
0.0
  0
LINE
  5
22038
  8
01
 10
1059.6422503091869
 20
-725.04067793610955
 30
0.0
 11
1059.8190081216869
 21
-724.98445311311161
 31
0.0
  0
LINE
  5
22039
  8
01
 10
1059.8190081216869
 20
-724.98445311311161
 30
0.0
 11
1060.009338627058
 21
-724.92354384187138
 31
0.0
  0
LINE
  5
2203A
  8
01
 10
1060.009338627058
 20
-724.92354384187138
 30
0.0
 11
1060.213516483504
 21
-724.85794249299443
 31
0.0
  0
LINE
  5
2203B
  8
01
 10
1060.213516483504
 20
-724.85794249299443
 30
0.0
 11
1060.431823978621
 21
-724.78762617829705
 31
0.0
  0
LINE
  5
2203C
  8
01
 10
1060.431823978621
 20
-724.78762617829705
 30
0.0
 11
1060.664505253035
 21
-724.71260634187126
 31
0.0
  0
LINE
  5
2203D
  8
01
 10
1060.664505253035
 20
-724.71260634187126
 30
0.0
 11
1060.911644230086
 21
-724.63291731599236
 31
0.0
  0
LINE
  5
2203E
  8
01
 10
1060.911644230086
 20
-724.63291731599236
 30
0.0
 11
1061.1733172037179
 21
-724.54863539460575
 31
0.0
  0
LINE
  5
2203F
  8
01
 10
1061.1733172037179
 20
-724.54863539460575
 30
0.0
 11
1061.449470768172
 21
-724.45984450105095
 31
0.0
  0
LINE
  5
22040
  8
01
 10
1061.449470768172
 20
-724.45984450105095
 30
0.0
 11
1061.740104923445
 21
-724.36664000276005
 31
0.0
  0
LINE
  5
22041
  8
01
 10
1061.740104923445
 20
-724.36664000276005
 30
0.0
 11
1062.0451433755929
 21
-724.26912489655888
 31
0.0
  0
LINE
  5
22042
  8
01
 10
1062.0451433755929
 20
-724.26912489655888
 30
0.0
 11
1062.3645098306711
 21
-724.16740980866825
 31
0.0
  0
LINE
  5
22043
  8
01
 10
1062.3645098306711
 20
-724.16740980866825
 30
0.0
 11
1062.698127994734
 21
-724.06161680940068
 31
0.0
  0
LINE
  5
22044
  8
01
 10
1062.698127994734
 20
-724.06161680940068
 30
0.0
 11
1063.045906315047
 21
-723.951860339674
 31
0.0
  0
LINE
  5
22045
  8
01
 10
1063.045906315047
 20
-723.951860339674
 30
0.0
 11
1063.407737980086
 21
-723.83826628449833
 31
0.0
  0
LINE
  5
22046
  8
01
 10
1063.407737980086
 20
-723.83826628449833
 30
0.0
 11
1063.7834093668041
 21
-723.72098341706658
 31
0.0
  0
LINE
  5
22047
  8
01
 10
1063.7834093668041
 20
-723.72098341706658
 30
0.0
 11
1064.172737369734
 21
-723.60016051057255
 31
0.0
  0
LINE
  5
22048
  8
01
 10
1064.172737369734
 20
-723.60016051057255
 30
0.0
 11
1064.5754931070389
 21
-723.4759539676038
 31
0.0
  0
LINE
  5
22049
  8
01
 10
1064.5754931070389
 20
-723.4759539676038
 30
0.0
 11
1064.9914782144599
 21
-723.34850493195916
 31
0.0
  0
LINE
  5
2204A
  8
01
 10
1064.9914782144599
 20
-723.34850493195916
 30
0.0
 11
1065.431892643172
 21
-723.21451369050419
 31
0.0
  0
LINE
  5
2204B
  8
01
 10
1128.2993548013751
 20
-719.37180128816044
 30
0.0
 11
1124.813850650984
 21
-719.35132399323857
 31
0.0
  0
LINE
  5
2204C
  8
01
 10
1124.813850650984
 20
-719.35132399323857
 30
0.0
 11
1121.329475650984
 21
-719.31048765901005
 31
0.0
  0
LINE
  5
2204D
  8
01
 10
1121.329475650984
 20
-719.31048765901005
 30
0.0
 11
1117.848808536726
 21
-719.26535979035771
 31
0.0
  0
LINE
  5
2204E
  8
01
 10
1117.848808536726
 20
-719.26535979035771
 30
0.0
 11
1114.3758776285231
 21
-719.22743788484013
 31
0.0
  0
LINE
  5
2204F
  8
01
 10
1114.3758776285231
 20
-719.22743788484013
 30
0.0
 11
1110.9152605630941
 21
-719.20308485749626
 31
0.0
  0
LINE
  5
22050
  8
01
 10
1110.9152605630941
 20
-719.20308485749626
 30
0.0
 11
1107.4711992837961
 21
-719.19547072175419
 31
0.0
  0
LINE
  5
22051
  8
01
 10
1107.4711992837961
 20
-719.19547072175419
 30
0.0
 11
1104.0459520914139
 21
-719.20578184846318
 31
0.0
  0
LINE
  5
22052
  8
01
 10
1104.0459520914139
 20
-719.20578184846318
 30
0.0
 11
1100.6398089029369
 21
-719.23572722199833
 31
0.0
  0
LINE
  5
22053
  8
01
 10
1100.6398089029369
 20
-719.23572722199833
 30
0.0
 11
1097.2523424722731
 21
-719.28859511140263
 31
0.0
  0
LINE
  5
22054
  8
01
 10
1097.2523424722731
 20
-719.28859511140263
 30
0.0
 11
1093.883552799422
 21
-719.37147322419548
 31
0.0
  0
LINE
  5
22055
  8
01
 10
1093.883552799422
 20
-719.37147322419548
 30
0.0
 11
1090.5365221597731
 21
-719.49457731965447
 31
0.0
  0
LINE
  5
22056
  8
01
 10
1090.5365221597731
 20
-719.49457731965447
 30
0.0
 11
1087.2185900308671
 21
-719.67043486359978
 31
0.0
  0
LINE
  5
22057
  8
01
 10
1087.2185900308671
 20
-719.67043486359978
 30
0.0
 11
1083.9419939615309
 21
-719.91134825471306
 31
0.0
  0
LINE
  5
22058
  8
01
 10
1083.9419939615309
 20
-719.91134825471306
 30
0.0
 11
1080.7219622232501
 21
-720.22714033845341
 31
0.0
  0
LINE
  5
22059
  8
01
 10
1080.7219622232501
 20
-720.22714033845341
 30
0.0
 11
1077.573494205672
 21
-720.62392988923455
 31
0.0
  0
LINE
  5
2205A
  8
01
 10
1077.573494205672
 20
-720.62392988923455
 30
0.0
 11
1074.5088274576251
 21
-721.10491743806278
 31
0.0
  0
LINE
  5
2205B
  8
01
 10
1074.5088274576251
 20
-721.10491743806278
 30
0.0
 11
1071.5352556802809
 21
-721.67210188630486
 31
0.0
  0
LINE
  5
2205C
  8
01
 10
1071.5352556802809
 20
-721.67210188630486
 30
0.0
 11
1068.6553118326251
 21
-722.32911864045525
 31
0.0
  0
LINE
  5
2205D
  8
01
 10
1068.6553118326251
 20
-722.32911864045525
 30
0.0
 11
1065.774605045515
 21
-723.1108531070081
 31
0.0
  0
LINE
  5
2205E
  8
01
 10
1128.2993548013751
 20
-687.37212935212528
 30
0.0
 11
1124.813850650984
 21
-687.39260664704705
 31
0.0
  0
LINE
  5
2205F
  8
01
 10
1124.813850650984
 20
-687.39260664704705
 30
0.0
 11
1121.329475650984
 21
-687.43343916657841
 31
0.0
  0
LINE
  5
22060
  8
01
 10
1121.329475650984
 20
-687.43343916657841
 30
0.0
 11
1117.848808536726
 21
-687.47856703523075
 31
0.0
  0
LINE
  5
22061
  8
01
 10
1117.848808536726
 20
-687.47856703523075
 30
0.0
 11
1114.3758776285231
 21
-687.5164927554456
 31
0.0
  0
LINE
  5
22062
  8
01
 10
1114.3758776285231
 20
-687.5164927554456
 30
0.0
 11
1110.9152605630941
 21
-687.54084578278935
 31
0.0
  0
LINE
  5
22063
  8
01
 10
1110.9152605630941
 20
-687.54084578278935
 30
0.0
 11
1107.4711992837961
 21
-687.54845991853153
 31
0.0
  0
LINE
  5
22064
  8
01
 10
1107.4711992837961
 20
-687.54845991853153
 30
0.0
 11
1104.0459520914139
 21
-687.53814497712528
 31
0.0
  0
LINE
  5
22065
  8
01
 10
1104.0459520914139
 20
-687.53814497712528
 30
0.0
 11
1100.6398089029369
 21
-687.50819960359013
 31
0.0
  0
LINE
  5
22066
  8
01
 10
1100.6398089029369
 20
-687.50819960359013
 30
0.0
 11
1097.2523424722731
 21
-687.45533552888298
 31
0.0
  0
LINE
  5
22067
  8
01
 10
1097.2523424722731
 20
-687.45533552888298
 30
0.0
 11
1093.883552799422
 21
-687.37244978669548
 31
0.0
  0
LINE
  5
22068
  8
01
 10
1093.883552799422
 20
-687.37244978669548
 30
0.0
 11
1090.5365221597731
 21
-687.24934950593376
 31
0.0
  0
LINE
  5
22069
  8
01
 10
1090.5365221597731
 20
-687.24934950593376
 30
0.0
 11
1087.2185900308671
 21
-687.07349196198845
 31
0.0
  0
LINE
  5
2206A
  8
01
 10
1087.2185900308671
 20
-687.07349196198845
 30
0.0
 11
1083.9419939615309
 21
-686.83257857087517
 31
0.0
  0
LINE
  5
2206B
  8
01
 10
1083.9419939615309
 20
-686.83257857087517
 30
0.0
 11
1080.7219622232501
 21
-686.51678267243778
 31
0.0
  0
LINE
  5
2206C
  8
01
 10
1080.7219622232501
 20
-686.51678267243778
 30
0.0
 11
1077.573494205672
 21
-686.12000075105095
 31
0.0
  0
LINE
  5
2206D
  8
01
 10
1077.573494205672
 20
-686.12000075105095
 30
0.0
 11
1074.5088274576251
 21
-685.63901320222294
 31
0.0
  0
LINE
  5
2206E
  8
01
 10
1074.5088274576251
 20
-685.63901320222294
 30
0.0
 11
1071.5352556802809
 21
-685.07182875398075
 31
0.0
  0
LINE
  5
2206F
  8
01
 10
1071.5352556802809
 20
-685.07182875398075
 30
0.0
 11
1068.6553118326251
 21
-684.41480818513298
 31
0.0
  0
LINE
  5
22070
  8
01
 10
1068.6553118326251
 20
-684.41480818513298
 30
0.0
 11
1065.774605045515
 21
-683.6330699038831
 31
0.0
  0
LINE
  5
22071
  8
01
 10
1468.881824578523
 20
-525.08891211274511
 30
0.0
 11
1470.723423089265
 21
-525.20234595063584
 31
0.0
  0
LINE
  5
22072
  8
01
 10
1470.723423089265
 20
-525.20234595063584
 30
0.0
 11
1472.563404168367
 21
-525.33903418305772
 31
0.0
  0
LINE
  5
22073
  8
01
 10
1472.563404168367
 20
-525.33903418305772
 30
0.0
 11
1474.399829949617
 21
-525.51695166352636
 31
0.0
  0
LINE
  5
22074
  8
01
 10
1474.399829949617
 20
-525.51695166352636
 30
0.0
 11
1476.2298012630929
 21
-525.75202856782334
 31
0.0
  0
LINE
  5
22075
  8
01
 10
1476.2298012630929
 20
-525.75202856782334
 30
0.0
 11
1478.0495797054759
 21
-526.05580054047959
 31
0.0
  0
LINE
  5
22076
  8
01
 10
1478.0495797054759
 20
-526.05580054047959
 30
0.0
 11
1479.854969109773
 21
-526.43577490571386
 31
0.0
  0
LINE
  5
22077
  8
01
 10
1479.854969109773
 20
-526.43577490571386
 30
0.0
 11
1481.6406746761791
 21
-526.89952002290147
 31
0.0
  0
LINE
  5
22078
  8
01
 10
1481.6406746761791
 20
-526.89952002290147
 30
0.0
 11
1483.400562371492
 21
-527.45323096040147
 31
0.0
  0
LINE
  5
22079
  8
01
 10
1483.400562371492
 20
-527.45323096040147
 30
0.0
 11
1485.1278878109449
 21
-528.10099707368261
 31
0.0
  0
LINE
  5
2207A
  8
01
 10
1485.1278878109449
 20
-528.10099707368261
 30
0.0
 11
1486.8153725521561
 21
-528.84657202485448
 31
0.0
  0
LINE
  5
2207B
  8
01
 10
1486.8153725521561
 20
-528.84657202485448
 30
0.0
 11
1488.4543648617259
 21
-529.69328222993272
 31
0.0
  0
LINE
  5
2207C
  8
01
 10
1488.4543648617259
 20
-529.69328222993272
 30
0.0
 11
1490.035434808015
 21
-530.64381323579209
 31
0.0
  0
LINE
  5
2207D
  8
01
 10
1490.035434808015
 20
-530.64381323579209
 30
0.0
 11
1491.5479164974679
 21
-531.69987402680761
 31
0.0
  0
LINE
  5
2207E
  8
01
 10
1491.5479164974679
 20
-531.69987402680761
 30
0.0
 11
1492.980457391023
 21
-532.86210547212022
 31
0.0
  0
LINE
  5
2207F
  8
01
 10
1492.980457391023
 20
-532.86210547212022
 30
0.0
 11
1494.3209267513751
 21
-534.12928686860448
 31
0.0
  0
LINE
  5
22080
  8
01
 10
1494.3209267513751
 20
-534.12928686860448
 30
0.0
 11
1495.5575142757889
 21
-535.49803076508886
 31
0.0
  0
LINE
  5
22081
  8
01
 10
1495.5575142757889
 20
-535.49803076508886
 30
0.0
 11
1496.679172600984
 21
-536.96238623383886
 31
0.0
  0
LINE
  5
22082
  8
01
 10
1496.679172600984
 20
-536.96238623383886
 30
0.0
 11
1497.676746453523
 21
-538.51393042329209
 31
0.0
  0
LINE
  5
22083
  8
01
 10
1497.676746453523
 20
-538.51393042329209
 30
0.0
 11
1498.545383538484
 21
-540.14118872407334
 31
0.0
  0
LINE
  5
22084
  8
01
 10
1498.545383538484
 20
-540.14118872407334
 30
0.0
 11
1499.2837563412179
 21
-541.83164892915136
 31
0.0
  0
LINE
  5
22085
  8
01
 10
1499.2837563412179
 20
-541.83164892915136
 30
0.0
 11
1499.8948403255929
 21
-543.57215796235448
 31
0.0
  0
LINE
  5
22086
  8
01
 10
1499.8948403255929
 20
-543.57215796235448
 30
0.0
 11
1500.386310662507
 21
-545.35029516938584
 31
0.0
  0
LINE
  5
22087
  8
01
 10
1500.386310662507
 20
-545.35029516938584
 30
0.0
 11
1500.769504632234
 21
-547.15486059907334
 31
0.0
  0
LINE
  5
22088
  8
01
 10
1500.769504632234
 20
-547.15486059907334
 30
0.0
 11
1501.0582314388751
 21
-548.97706518891709
 31
0.0
  0
LINE
  5
22089
  8
01
 10
1501.0582314388751
 20
-548.97706518891709
 30
0.0
 11
1501.265064324617
 21
-550.81040869477636
 31
0.0
  0
LINE
  5
2208A
  8
01
 10
1501.265064324617
 20
-550.81040869477636
 30
0.0
 11
1501.4064980404371
 21
-552.64997778657334
 31
0.0
  0
LINE
  5
2208B
  8
01
 10
1501.4064980404371
 20
-552.64997778657334
 30
0.0
 11
1501.4973183529371
 21
-554.49272070649522
 31
0.0
  0
LINE
  5
2208C
  8
01
 10
1501.4973183529371
 20
-554.49272070649522
 30
0.0
 11
1501.5511208431719
 21
-556.33702002290136
 31
0.0
  0
LINE
  5
2208D
  8
01
 10
1501.5511208431719
 20
-556.33702002290136
 30
0.0
 11
1501.5811501400469
 21
-558.18189917329198
 31
0.0
  0
LINE
  5
2208E
  8
01
 10
1501.5811501400469
 20
-558.18189917329198
 30
0.0
 11
1501.5997048275469
 21
-560.07197485688584
 31
0.0
  0
LINE
  5
2208F
  8
01
 10
1542.5955315487381
 20
-555.14259253266709
 30
0.0
 11
1542.5573311703199
 21
-555.07963476899522
 31
0.0
  0
LINE
  5
22090
  8
01
 10
1542.5573311703199
 20
-555.07963476899522
 30
0.0
 11
1542.489559258699
 21
-554.91007910493272
 31
0.0
  0
LINE
  5
22091
  8
01
 10
1542.489559258699
 20
-554.91007910493272
 30
0.0
 11
1542.426593865632
 21
-554.66819678071386
 31
0.0
  0
LINE
  5
22092
  8
01
 10
1542.426593865632
 20
-554.66819678071386
 30
0.0
 11
1542.38040551114
 21
-554.38066015962022
 31
0.0
  0
LINE
  5
22093
  8
01
 10
1542.38040551114
 20
-554.38066015962022
 30
0.0
 11
1542.3564034359449
 21
-554.06669531587022
 31
0.0
  0
LINE
  5
22094
  8
01
 10
1500.625217522859
 20
-498.98802099946391
 30
0.0
 11
1503.302799309969
 21
-499.93247900727653
 31
0.0
  0
LINE
  5
22095
  8
01
 10
1503.302799309969
 20
-499.93247900727653
 30
0.0
 11
1505.934436883211
 21
-500.99253760102641
 31
0.0
  0
LINE
  5
22096
  8
01
 10
1505.934436883211
 20
-500.99253760102641
 30
0.0
 11
1508.5139809505929
 21
-502.16673193696391
 31
0.0
  0
LINE
  5
22097
  8
01
 10
1508.5139809505929
 20
-502.16673193696391
 30
0.0
 11
1511.0363198177811
 21
-503.45320044282329
 31
0.0
  0
LINE
  5
22098
  8
01
 10
1511.0363198177811
 20
-503.45320044282329
 30
0.0
 11
1513.4965248959061
 21
-504.84986792329198
 31
0.0
  0
LINE
  5
22099
  8
01
 10
1513.4965248959061
 20
-504.84986792329198
 30
0.0
 11
1515.8896981136791
 21
-506.35475073579198
 31
0.0
  0
LINE
  5
2209A
  8
01
 10
1515.8896981136791
 20
-506.35475073579198
 30
0.0
 11
1518.211017693757
 21
-507.96525488618272
 31
0.0
  0
LINE
  5
2209B
  8
01
 10
1518.211017693757
 20
-507.96525488618272
 30
0.0
 11
1520.4557686703199
 21
-509.67878638032329
 31
0.0
  0
LINE
  5
2209C
  8
01
 10
1520.4557686703199
 20
-509.67878638032329
 30
0.0
 11
1522.6192513363351
 21
-511.49244604829209
 31
0.0
  0
LINE
  5
2209D
  8
01
 10
1522.6192513363351
 20
-511.49244604829209
 30
0.0
 11
1524.6968422787179
 21
-513.40336523774522
 31
0.0
  0
LINE
  5
2209E
  8
01
 10
1524.6968422787179
 20
-513.40336523774522
 30
0.0
 11
1526.6838417904371
 21
-515.40870581391709
 31
0.0
  0
LINE
  5
2209F
  8
01
 10
1526.6838417904371
 20
-515.40870581391709
 30
0.0
 11
1528.575290765046
 21
-517.50535498383897
 31
0.0
  0
LINE
  5
220A0
  8
01
 10
1528.575290765046
 20
-517.50535498383897
 30
0.0
 11
1530.366046990632
 21
-519.69026098969834
 31
0.0
  0
LINE
  5
220A1
  8
01
 10
1530.366046990632
 20
-519.69026098969834
 30
0.0
 11
1532.0508919613351
 21
-521.96012793305772
 31
0.0
  0
LINE
  5
220A2
  8
01
 10
1532.0508919613351
 20
-521.96012793305772
 30
0.0
 11
1533.624256219148
 21
-524.31132422212022
 31
0.0
  0
LINE
  5
220A3
  8
01
 10
1533.624256219148
 20
-524.31132422212022
 30
0.0
 11
1535.080463494538
 21
-526.73991308930761
 31
0.0
  0
LINE
  5
220A4
  8
01
 10
1535.080463494538
 20
-526.73991308930761
 30
0.0
 11
1536.4137764828199
 21
-529.24143896821386
 31
0.0
  0
LINE
  5
220A5
  8
01
 10
1536.4137764828199
 20
-529.24143896821386
 30
0.0
 11
1537.618442620515
 21
-531.81086645844834
 31
0.0
  0
LINE
  5
220A6
  8
01
 10
1537.618442620515
 20
-531.81086645844834
 30
0.0
 11
1538.6893883602611
 21
-534.44233618501084
 31
0.0
  0
LINE
  5
220A7
  8
01
 10
1538.6893883602611
 20
-534.44233618501084
 30
0.0
 11
1539.6223336117259
 21
-537.12913428071386
 31
0.0
  0
LINE
  5
220A8
  8
01
 10
1539.6223336117259
 20
-537.12913428071386
 30
0.0
 11
1540.414142693757
 21
-539.86384497407334
 31
0.0
  0
LINE
  5
220A9
  8
01
 10
1540.414142693757
 20
-539.86384497407334
 30
0.0
 11
1541.063686455964
 21
-542.63841162446397
 31
0.0
  0
LINE
  5
220AA
  8
01
 10
1541.063686455964
 20
-542.63841162446397
 30
0.0
 11
1541.573078240632
 21
-545.44410620454209
 31
0.0
  0
LINE
  5
220AB
  8
01
 10
1541.573078240632
 20
-545.44410620454209
 30
0.0
 11
1541.9487954037179
 21
-548.27226172212022
 31
0.0
  0
LINE
  5
220AC
  8
01
 10
1541.9487954037179
 20
-548.27226172212022
 30
0.0
 11
1542.2020760433661
 21
-551.11494360688584
 31
0.0
  0
LINE
  5
220AD
  8
01
 10
1542.2020760433661
 20
-551.11494360688584
 30
0.0
 11
1542.3564034359449
 21
-554.06669531587022
 31
0.0
  0
LINE
  5
220AE
  8
01
 10
1492.2682686703199
 20
-494.04203711274511
 30
0.0
 11
1492.324924554109
 21
-494.09101782563579
 31
0.0
  0
LINE
  5
220AF
  8
01
 10
1492.324924554109
 20
-494.09101782563579
 30
0.0
 11
1492.4953041927811
 21
-494.23698340180772
 31
0.0
  0
LINE
  5
220B0
  8
01
 10
1492.4953041927811
 20
-494.23698340180772
 30
0.0
 11
1492.771701897859
 21
-494.47004614594829
 31
0.0
  0
LINE
  5
220B1
  8
01
 10
1492.771701897859
 20
-494.47004614594829
 30
0.0
 11
1493.144123162507
 21
-494.77650366547959
 31
0.0
  0
LINE
  5
220B2
  8
01
 10
1493.144123162507
 20
-494.77650366547959
 30
0.0
 11
1493.6027413265699
 21
-495.14182959321391
 31
0.0
  0
LINE
  5
220B3
  8
01
 10
1493.6027413265699
 20
-495.14182959321391
 30
0.0
 11
1494.138599480867
 21
-495.55122290376079
 31
0.0
  0
LINE
  5
220B4
  8
01
 10
1494.138599480867
 20
-495.55122290376079
 30
0.0
 11
1494.7451363461009
 21
-495.99137793305772
 31
0.0
  0
LINE
  5
220B5
  8
01
 10
1494.7451363461009
 20
-495.99137793305772
 30
0.0
 11
1495.4166909115311
 21
-496.44956885102653
 31
0.0
  0
LINE
  5
220B6
  8
01
 10
1495.4166909115311
 20
-496.44956885102653
 30
0.0
 11
1496.1494637386791
 21
-496.91435156587022
 31
0.0
  0
LINE
  5
220B7
  8
01
 10
1496.1494637386791
 20
-496.91435156587022
 30
0.0
 11
1496.9403725521561
 21
-497.37480078462022
 31
0.0
  0
LINE
  5
220B8
  8
01
 10
1496.9403725521561
 20
-497.37480078462022
 30
0.0
 11
1497.786487664461
 21
-497.82066260102653
 31
0.0
  0
LINE
  5
220B9
  8
01
 10
1497.786487664461
 20
-497.82066260102653
 30
0.0
 11
1498.6837349789139
 21
-498.24269018891698
 31
0.0
  0
LINE
  5
220BA
  8
01
 10
1498.6837349789139
 20
-498.24269018891698
 30
0.0
 11
1499.6267281429759
 21
-498.63230810883891
 31
0.0
  0
LINE
  5
220BB
  8
01
 10
1499.6267281429759
 20
-498.63230810883891
 30
0.0
 11
1500.625217522859
 21
-498.98802099946391
 31
0.0
  0
LINE
  5
220BC
  8
01
 10
1545.581943597078
 20
-555.56022558930761
 30
0.0
 11
1545.5995598690499
 21
-557.00367651704209
 31
0.0
  0
LINE
  5
220BD
  8
01
 10
1545.5995598690499
 20
-557.00367651704209
 30
0.0
 11
1545.599689568757
 21
-560.07197485688584
 31
0.0
  0
LINE
  5
220BE
  8
01
 10
1545.599689568757
 20
-560.07197485688584
 30
0.0
 11
1501.5996964388639
 21
-560.07196341279382
 31
0.0
  0
LINE
  5
220BF
  8
01
 10
1468.9001046078199
 20
-493.07218847993272
 30
0.0
 11
1471.753162469148
 21
-493.09449682954198
 31
0.0
  0
LINE
  5
220C0
  8
01
 10
1471.753162469148
 20
-493.09449682954198
 30
0.0
 11
1474.6060982601639
 21
-493.12934790376079
 31
0.0
  0
LINE
  5
220C1
  8
01
 10
1474.6060982601639
 20
-493.12934790376079
 30
0.0
 11
1477.4591866390699
 21
-493.12535010102653
 31
0.0
  0
LINE
  5
220C2
  8
01
 10
1477.4591866390699
 20
-493.12535010102653
 30
0.0
 11
1480.3120766537179
 21
-493.08116064790141
 31
0.0
  0
LINE
  5
220C3
  8
01
 10
1480.3120766537179
 20
-493.08116064790141
 30
0.0
 11
1483.1650887386791
 21
-493.09120093110459
 31
0.0
  0
LINE
  5
220C4
  8
01
 10
1483.1650887386791
 20
-493.09120093110459
 30
0.0
 11
1486.0152626888751
 21
-493.22459326508891
 31
0.0
  0
LINE
  5
220C5
  8
01
 10
1486.0152626888751
 20
-493.22459326508891
 30
0.0
 11
1488.856601800203
 21
-493.48475561860459
 31
0.0
  0
LINE
  5
220C6
  8
01
 10
1488.856601800203
 20
-493.48475561860459
 30
0.0
 11
1492.020984734773
 21
-493.92558203462022
 31
0.0
  0
LINE
  5
220C7
  8
01
 10
1468.881824578325
 20
-623.6549072079896
 30
0.0
 11
1470.7234230890681
 21
-623.54144285252085
 31
0.0
  0
LINE
  5
220C8
  8
01
 10
1470.7234230890681
 20
-623.54144285252085
 30
0.0
 11
1472.563404168169
 21
-623.40475462009897
 31
0.0
  0
LINE
  5
220C9
  8
01
 10
1472.563404168169
 20
-623.40475462009897
 30
0.0
 11
1474.399829949419
 21
-623.22683713963033
 31
0.0
  0
LINE
  5
220CA
  8
01
 10
1474.399829949419
 20
-623.22683713963033
 30
0.0
 11
1476.229801262896
 21
-622.99179075291158
 31
0.0
  0
LINE
  5
220CB
  8
01
 10
1476.229801262896
 20
-622.99179075291158
 30
0.0
 11
1478.049579705279
 21
-622.6879882626771
 31
0.0
  0
LINE
  5
220CC
  8
01
 10
1478.049579705279
 20
-622.6879882626771
 30
0.0
 11
1479.854969109575
 21
-622.30804441502085
 31
0.0
  0
LINE
  5
220CD
  8
01
 10
1479.854969109575
 20
-622.30804441502085
 30
0.0
 11
1481.6406746759819
 21
-621.84426878025533
 31
0.0
  0
LINE
  5
220CE
  8
01
 10
1481.6406746759819
 20
-621.84426878025533
 30
0.0
 11
1483.400562371294
 21
-621.29055784275533
 31
0.0
  0
LINE
  5
220CF
  8
01
 10
1483.400562371294
 20
-621.29055784275533
 30
0.0
 11
1485.1278878107471
 21
-620.6428222470521
 31
0.0
  0
LINE
  5
220D0
  8
01
 10
1485.1278878107471
 20
-620.6428222470521
 30
0.0
 11
1486.815372551958
 21
-619.89721677830221
 31
0.0
  0
LINE
  5
220D1
  8
01
 10
1486.815372551958
 20
-619.89721677830221
 30
0.0
 11
1488.4543648615279
 21
-619.05050657322397
 31
0.0
  0
LINE
  5
220D2
  8
01
 10
1488.4543648615279
 20
-619.05050657322397
 30
0.0
 11
1490.035434807817
 21
-618.09997556736471
 31
0.0
  0
LINE
  5
220D3
  8
01
 10
1490.035434807817
 20
-618.09997556736471
 30
0.0
 11
1491.547916497271
 21
-617.04391477634908
 31
0.0
  0
LINE
  5
220D4
  8
01
 10
1491.547916497271
 20
-617.04391477634908
 30
0.0
 11
1492.980457390825
 21
-615.88168333103658
 31
0.0
  0
LINE
  5
220D5
  8
01
 10
1492.980457390825
 20
-615.88168333103658
 30
0.0
 11
1494.320926751177
 21
-614.61450193455221
 31
0.0
  0
LINE
  5
220D6
  8
01
 10
1494.320926751177
 20
-614.61450193455221
 30
0.0
 11
1495.5575142755911
 21
-613.24575803806783
 31
0.0
  0
LINE
  5
220D7
  8
01
 10
1495.5575142755911
 20
-613.24575803806783
 30
0.0
 11
1496.6791726007859
 21
-611.78140256931783
 31
0.0
  0
LINE
  5
220D8
  8
01
 10
1496.6791726007859
 20
-611.78140256931783
 30
0.0
 11
1497.676746453325
 21
-610.22988889744283
 31
0.0
  0
LINE
  5
220D9
  8
01
 10
1497.676746453325
 20
-610.22988889744283
 30
0.0
 11
1498.5453835382859
 21
-608.60260007908335
 31
0.0
  0
LINE
  5
220DA
  8
01
 10
1498.5453835382859
 20
-608.60260007908335
 30
0.0
 11
1499.283756341021
 21
-606.91213987400533
 31
0.0
  0
LINE
  5
220DB
  8
01
 10
1499.283756341021
 20
-606.91213987400533
 30
0.0
 11
1499.894840325396
 21
-605.17163084080221
 31
0.0
  0
LINE
  5
220DC
  8
01
 10
1499.894840325396
 20
-605.17163084080221
 30
0.0
 11
1500.3863106623101
 21
-603.39352415134897
 31
0.0
  0
LINE
  5
220DD
  8
01
 10
1500.3863106623101
 20
-603.39352415134897
 30
0.0
 11
1500.7695046320371
 21
-601.58892820408335
 31
0.0
  0
LINE
  5
220DE
  8
01
 10
1500.7695046320371
 20
-601.58892820408335
 30
0.0
 11
1501.058231438677
 21
-599.76672361423971
 31
0.0
  0
LINE
  5
220DF
  8
01
 10
1501.058231438677
 20
-599.76672361423971
 30
0.0
 11
1501.265064324419
 21
-597.93341062595835
 31
0.0
  0
LINE
  5
220E0
  8
01
 10
1501.265064324419
 20
-597.93341062595835
 30
0.0
 11
1501.40649804024
 21
-596.09381101658335
 31
0.0
  0
LINE
  5
220E1
  8
01
 10
1501.40649804024
 20
-596.09381101658335
 30
0.0
 11
1501.49731835274
 21
-594.25109861423971
 31
0.0
  0
LINE
  5
220E2
  8
01
 10
1501.49731835274
 20
-594.25109861423971
 30
0.0
 11
1501.5511208429739
 21
-592.40676878025533
 31
0.0
  0
LINE
  5
220E3
  8
01
 10
1501.5511208429739
 20
-592.40676878025533
 30
0.0
 11
1501.5811501398489
 21
-590.56188962986471
 31
0.0
  0
LINE
  5
220E4
  8
01
 10
1501.5811501398489
 20
-590.56188962986471
 30
0.0
 11
1501.5997048273489
 21
-588.67184446384897
 31
0.0
  0
LINE
  5
220E5
  8
01
 10
1501.5997048273489
 20
-588.67184446384897
 30
0.0
 11
1545.5996895685601
 21
-588.67183184851751
 31
0.0
  0
LINE
  5
220E6
  8
01
 10
1545.5996895685601
 20
-588.67183184851751
 30
0.0
 11
1545.5996895685601
 21
-591.67257688572397
 31
0.0
  0
LINE
  5
220E7
  8
01
 10
1500.6252175226609
 20
-649.75576780369283
 30
0.0
 11
1503.302799309771
 21
-648.81132505466928
 31
0.0
  0
LINE
  5
220E8
  8
01
 10
1503.302799309771
 20
-648.81132505466928
 30
0.0
 11
1505.9344368830129
 21
-647.7512664609194
 31
0.0
  0
LINE
  5
220E9
  8
01
 10
1505.9344368830129
 20
-647.7512664609194
 30
0.0
 11
1508.513980950396
 21
-646.57705686619283
 31
0.0
  0
LINE
  5
220EA
  8
01
 10
1508.513980950396
 20
-646.57705686619283
 30
0.0
 11
1511.036319817583
 21
-645.29060361912252
 31
0.0
  0
LINE
  5
220EB
  8
01
 10
1511.036319817583
 20
-645.29060361912252
 30
0.0
 11
1513.496524895708
 21
-643.89392087986471
 31
0.0
  0
LINE
  5
220EC
  8
01
 10
1513.496524895708
 20
-643.89392087986471
 30
0.0
 11
1515.889698113481
 21
-642.38905332615377
 31
0.0
  0
LINE
  5
220ED
  8
01
 10
1515.889698113481
 20
-642.38905332615377
 30
0.0
 11
1518.2110176935601
 21
-640.77853391697397
 31
0.0
  0
LINE
  5
220EE
  8
01
 10
1518.2110176935601
 20
-640.77853391697397
 30
0.0
 11
1520.4557686701221
 21
-639.06501768162252
 31
0.0
  0
LINE
  5
220EF
  8
01
 10
1520.4557686701221
 20
-639.06501768162252
 30
0.0
 11
1522.6192513361379
 21
-637.25135801365366
 31
0.0
  0
LINE
  5
220F0
  8
01
 10
1522.6192513361379
 20
-637.25135801365366
 30
0.0
 11
1524.696842278521
 21
-635.34042356541158
 31
0.0
  0
LINE
  5
220F1
  8
01
 10
1524.696842278521
 20
-635.34042356541158
 30
0.0
 11
1526.6838417902391
 21
-633.33511350681783
 31
0.0
  0
LINE
  5
220F2
  8
01
 10
1526.6838417902391
 20
-633.33511350681783
 30
0.0
 11
1528.5752907648489
 21
-631.23843381931783
 31
0.0
  0
LINE
  5
220F3
  8
01
 10
1528.5752907648489
 20
-631.23843381931783
 30
0.0
 11
1530.3660469904351
 21
-629.05355833103647
 31
0.0
  0
LINE
  5
220F4
  8
01
 10
1530.3660469904351
 20
-629.05355833103647
 30
0.0
 11
1532.0508919611379
 21
-626.78366087009897
 31
0.0
  0
LINE
  5
220F5
  8
01
 10
1532.0508919611379
 20
-626.78366087009897
 30
0.0
 11
1533.62425621895
 21
-624.43249509861471
 31
0.0
  0
LINE
  5
220F6
  8
01
 10
1533.62425621895
 20
-624.43249509861471
 30
0.0
 11
1535.0804634943411
 21
-622.0039062314271
 31
0.0
  0
LINE
  5
220F7
  8
01
 10
1535.0804634943411
 20
-622.0039062314271
 30
0.0
 11
1536.4137764826221
 21
-619.50234983494283
 31
0.0
  0
LINE
  5
220F8
  8
01
 10
1536.4137764826221
 20
-619.50234983494283
 30
0.0
 11
1537.618442620317
 21
-616.93292234470846
 31
0.0
  0
LINE
  5
220F9
  8
01
 10
1537.618442620317
 20
-616.93292234470846
 30
0.0
 11
1538.689388360064
 21
-614.30145261814596
 31
0.0
  0
LINE
  5
220FA
  8
01
 10
1538.689388360064
 20
-614.30145261814596
 30
0.0
 11
1539.6223336115279
 21
-611.61465452244283
 31
0.0
  0
LINE
  5
220FB
  8
01
 10
1539.6223336115279
 20
-611.61465452244283
 30
0.0
 11
1540.4141426935601
 21
-608.87994382908335
 31
0.0
  0
LINE
  5
220FC
  8
01
 10
1540.4141426935601
 20
-608.87994382908335
 30
0.0
 11
1541.0636864557671
 21
-606.10537717869283
 31
0.0
  0
LINE
  5
220FD
  8
01
 10
1541.0636864557671
 20
-606.10537717869283
 30
0.0
 11
1541.5730782404351
 21
-603.2996825986146
 31
0.0
  0
LINE
  5
220FE
  8
01
 10
1541.5730782404351
 20
-603.2996825986146
 30
0.0
 11
1541.948795403521
 21
-600.47152708103658
 31
0.0
  0
LINE
  5
220FF
  8
01
 10
1541.948795403521
 20
-600.47152708103658
 30
0.0
 11
1542.202076043169
 21
-597.62884519627085
 31
0.0
  0
LINE
  5
22100
  8
01
 10
1542.202076043169
 20
-597.62884519627085
 30
0.0
 11
1542.3564034357471
 21
-594.67709348728658
 31
0.0
  0
LINE
  5
22101
  8
01
 10
1492.2682686701221
 20
-654.70175169041158
 30
0.0
 11
1492.3249245539109
 21
-654.65277097752085
 31
0.0
  0
LINE
  5
22102
  8
01
 10
1492.3249245539109
 20
-654.65277097752085
 30
0.0
 11
1492.495304192583
 21
-654.50680540134908
 31
0.0
  0
LINE
  5
22103
  8
01
 10
1492.495304192583
 20
-654.50680540134908
 30
0.0
 11
1492.7717018976609
 21
-654.27375791599752
 31
0.0
  0
LINE
  5
22104
  8
01
 10
1492.7717018976609
 20
-654.27375791599752
 30
0.0
 11
1493.1441231623101
 21
-653.96728513767721
 31
0.0
  0
LINE
  5
22105
  8
01
 10
1493.1441231623101
 20
-653.96728513767721
 30
0.0
 11
1493.6027413263721
 21
-653.60195920994283
 31
0.0
  0
LINE
  5
22106
  8
01
 10
1493.6027413263721
 20
-653.60195920994283
 30
0.0
 11
1494.138599480669
 21
-653.19256589939596
 31
0.0
  0
LINE
  5
22107
  8
01
 10
1494.138599480669
 20
-653.19256589939596
 30
0.0
 11
1494.7451363459029
 21
-652.75241087009897
 31
0.0
  0
LINE
  5
22108
  8
01
 10
1494.7451363459029
 20
-652.75241087009897
 30
0.0
 11
1495.416690911333
 21
-652.29421995213033
 31
0.0
  0
LINE
  5
22109
  8
01
 10
1495.416690911333
 20
-652.29421995213033
 30
0.0
 11
1496.1494637384819
 21
-651.82945249607565
 31
0.0
  0
LINE
  5
2210A
  8
01
 10
1496.1494637384819
 20
-651.82945249607565
 30
0.0
 11
1496.940372551958
 21
-651.36900327732565
 31
0.0
  0
LINE
  5
2210B
  8
01
 10
1496.940372551958
 20
-651.36900327732565
 30
0.0
 11
1497.7864876642629
 21
-650.92312620213033
 31
0.0
  0
LINE
  5
2210C
  8
01
 10
1497.7864876642629
 20
-650.92312620213033
 30
0.0
 11
1498.6837349787161
 21
-650.50109861423971
 31
0.0
  0
LINE
  5
2210D
  8
01
 10
1498.6837349787161
 20
-650.50109861423971
 30
0.0
 11
1499.6267281427779
 21
-650.1114959531069
 31
0.0
  0
LINE
  5
2210E
  8
01
 10
1499.6267281427779
 20
-650.1114959531069
 30
0.0
 11
1500.6252175226609
 21
-649.75576780369283
 31
0.0
  0
LINE
  5
2210F
  8
01
 10
1545.460575188677
 20
-591.83535764744283
 30
0.0
 11
1545.4510765924861
 21
-591.89535520603647
 31
0.0
  0
LINE
  5
22110
  8
01
 10
1545.4510765924861
 20
-591.89535520603647
 30
0.0
 11
1545.4366646662161
 21
-592.03060911228647
 31
0.0
  0
LINE
  5
22111
  8
01
 10
1545.4366646662161
 20
-592.03060911228647
 30
0.0
 11
1545.423328484575
 21
-592.21292112400533
 31
0.0
  0
LINE
  5
22112
  8
01
 10
1545.423328484575
 20
-592.21292112400533
 30
0.0
 11
1545.4128609552779
 21
-592.42636106541147
 31
0.0
  0
LINE
  5
22113
  8
01
 10
1545.4128609552779
 20
-592.42636106541147
 30
0.0
 11
1545.405956353228
 21
-592.67202756931783
 31
0.0
  0
LINE
  5
22114
  8
01
 10
1542.5955315485401
 20
-593.60122678806783
 30
0.0
 11
1542.5573311701221
 21
-593.66418455173971
 31
0.0
  0
LINE
  5
22115
  8
01
 10
1542.5573311701221
 20
-593.66418455173971
 30
0.0
 11
1542.489559258501
 21
-593.83374021580221
 31
0.0
  0
LINE
  5
22116
  8
01
 10
1542.489559258501
 20
-593.83374021580221
 30
0.0
 11
1542.4265938654351
 21
-594.07559202244283
 31
0.0
  0
LINE
  5
22117
  8
01
 10
1542.4265938654351
 20
-594.07559202244283
 30
0.0
 11
1542.380405510942
 21
-594.36312864353647
 31
0.0
  0
LINE
  5
22118
  8
01
 10
1542.380405510942
 20
-594.36312864353647
 30
0.0
 11
1542.356395806353
 21
-594.67709348728658
 31
0.0
  0
LINE
  5
22119
  8
01
 10
1468.9001046076221
 20
-655.67161558201315
 30
0.0
 11
1471.75316246895
 21
-655.64930723240366
 31
0.0
  0
LINE
  5
2211A
  8
01
 10
1471.75316246895
 20
-655.64930723240366
 30
0.0
 11
1474.6060982599661
 21
-655.61444089939585
 31
0.0
  0
LINE
  5
2211B
  8
01
 10
1474.6060982599661
 20
-655.61444089939585
 30
0.0
 11
1477.4591866388721
 21
-655.61845396091928
 31
0.0
  0
LINE
  5
2211C
  8
01
 10
1477.4591866388721
 20
-655.61845396091928
 30
0.0
 11
1480.312076653521
 21
-655.6626434140444
 31
0.0
  0
LINE
  5
2211D
  8
01
 10
1480.312076653521
 20
-655.6626434140444
 30
0.0
 11
1483.1650887384819
 21
-655.6525878720521
 31
0.0
  0
LINE
  5
2211E
  8
01
 10
1483.1650887384819
 20
-655.6525878720521
 30
0.0
 11
1486.015262688677
 21
-655.51919553806783
 31
0.0
  0
LINE
  5
2211F
  8
01
 10
1486.015262688677
 20
-655.51919553806783
 30
0.0
 11
1488.8566018000049
 21
-655.25903318455221
 31
0.0
  0
LINE
  5
22120
  8
01
 10
1488.8566018000049
 20
-655.25903318455221
 30
0.0
 11
1492.020984734575
 21
-654.81820676853658
 31
0.0
  0
LINE
  5
22121
  8
01
 10
1128.3175393000049
 20
-623.6549072079896
 30
0.0
 11
1126.4759865656299
 21
-623.54144285252085
 31
0.0
  0
LINE
  5
22122
  8
01
 10
1126.4759865656299
 20
-623.54144285252085
 30
0.0
 11
1124.6359597101621
 21
-623.40475462009897
 31
0.0
  0
LINE
  5
22123
  8
01
 10
1124.6359597101621
 20
-623.40475462009897
 30
0.0
 11
1122.7995339289121
 21
-623.22683713963033
 31
0.0
  0
LINE
  5
22124
  8
01
 10
1122.7995339289121
 20
-623.22683713963033
 30
0.0
 11
1120.9695778742239
 21
-622.99179075291158
 31
0.0
  0
LINE
  5
22125
  8
01
 10
1120.9695778742239
 20
-622.99179075291158
 30
0.0
 11
1119.1498146906299
 21
-622.6879882626771
 31
0.0
  0
LINE
  5
22126
  8
01
 10
1119.1498146906299
 20
-622.6879882626771
 30
0.0
 11
1117.3443947687549
 21
-622.30804441502085
 31
0.0
  0
LINE
  5
22127
  8
01
 10
1117.3443947687549
 20
-622.30804441502085
 30
0.0
 11
1115.5586892023489
 21
-621.84426878025533
 31
0.0
  0
LINE
  5
22128
  8
01
 10
1115.5586892023489
 20
-621.84426878025533
 30
0.0
 11
1113.7988015070371
 21
-621.29055784275533
 31
0.0
  0
LINE
  5
22129
  8
01
 10
1113.7988015070371
 20
-621.29055784275533
 30
0.0
 11
1112.0715065851621
 21
-620.6428222470521
 31
0.0
  0
LINE
  5
2212A
  8
01
 10
1112.0715065851621
 20
-620.6428222470521
 30
0.0
 11
1110.3840065851621
 21
-619.89721677830221
 31
0.0
  0
LINE
  5
2212B
  8
01
 10
1110.3840065851621
 20
-619.89721677830221
 30
0.0
 11
1108.745029534381
 21
-619.05050657322397
 31
0.0
  0
LINE
  5
2212C
  8
01
 10
1108.745029534381
 20
-619.05050657322397
 30
0.0
 11
1107.1639138117239
 21
-618.09997556736471
 31
0.0
  0
LINE
  5
2212D
  8
01
 10
1107.1639138117239
 20
-618.09997556736471
 30
0.0
 11
1105.6514626398489
 21
-617.04391477634908
 31
0.0
  0
LINE
  5
2212E
  8
01
 10
1105.6514626398489
 20
-617.04391477634908
 30
0.0
 11
1104.2189064875049
 21
-615.88168333103658
 31
0.0
  0
LINE
  5
2212F
  8
01
 10
1104.2189064875049
 20
-615.88168333103658
 30
0.0
 11
1102.8784523859431
 21
-614.61450193455221
 31
0.0
  0
LINE
  5
22130
  8
01
 10
1102.8784523859431
 20
-614.61450193455221
 30
0.0
 11
1101.6418801203181
 21
-613.24575803806783
 31
0.0
  0
LINE
  5
22131
  8
01
 10
1101.6418801203181
 20
-613.24575803806783
 30
0.0
 11
1100.5201760187549
 21
-611.78140256931783
 31
0.0
  0
LINE
  5
22132
  8
01
 10
1100.5201760187549
 20
-611.78140256931783
 30
0.0
 11
1099.5226174250049
 21
-610.22988889744283
 31
0.0
  0
LINE
  5
22133
  8
01
 10
1099.5226174250049
 20
-610.22988889744283
 30
0.0
 11
1098.6540261164121
 21
-608.60260007908335
 31
0.0
  0
LINE
  5
22134
  8
01
 10
1098.6540261164121
 20
-608.60260007908335
 30
0.0
 11
1097.9156227960989
 21
-606.91213987400533
 31
0.0
  0
LINE
  5
22135
  8
01
 10
1097.9156227960989
 20
-606.91213987400533
 30
0.0
 11
1097.3045388117239
 21
-605.17163084080221
 31
0.0
  0
LINE
  5
22136
  8
01
 10
1097.3045388117239
 20
-605.17163084080221
 30
0.0
 11
1096.8130837335989
 21
-603.39352415134897
 31
0.0
  0
LINE
  5
22137
  8
01
 10
1096.8130837335989
 20
-603.39352415134897
 30
0.0
 11
1096.4299050226621
 21
-601.58892820408335
 31
0.0
  0
LINE
  5
22138
  8
01
 10
1096.4299050226621
 20
-601.58892820408335
 30
0.0
 11
1096.1411476984431
 21
-599.76672361423971
 31
0.0
  0
LINE
  5
22139
  8
01
 10
1096.1411476984431
 20
-599.76672361423971
 30
0.0
 11
1095.9342995539121
 21
-597.93341062595835
 31
0.0
  0
LINE
  5
2213A
  8
01
 10
1095.9342995539121
 20
-597.93341062595835
 30
0.0
 11
1095.7928810968799
 21
-596.09381101658335
 31
0.0
  0
LINE
  5
2213B
  8
01
 10
1095.7928810968799
 20
-596.09381101658335
 30
0.0
 11
1095.7020607843799
 21
-594.25109861423971
 31
0.0
  0
LINE
  5
2213C
  8
01
 10
1095.7020607843799
 20
-594.25109861423971
 30
0.0
 11
1095.6482888117239
 21
-592.40676878025533
 31
0.0
  0
LINE
  5
2213D
  8
01
 10
1095.6482888117239
 20
-592.40676878025533
 30
0.0
 11
1095.6181984796931
 21
-590.56188962986471
 31
0.0
  0
LINE
  5
2213E
  8
01
 10
1095.6181984796931
 20
-590.56188962986471
 30
0.0
 11
1095.5996437921931
 21
-588.67184446384897
 31
0.0
  0
LINE
  5
2213F
  8
01
 10
1104.9311257257871
 20
-654.70175169041158
 30
0.0
 11
1104.8744240656299
 21
-654.65277097752085
 31
0.0
  0
LINE
  5
22140
  8
01
 10
1104.8744240656299
 20
-654.65277097752085
 30
0.0
 11
1104.7040749445371
 21
-654.50680540134908
 31
0.0
  0
LINE
  5
22141
  8
01
 10
1104.7040749445371
 20
-654.50680540134908
 30
0.0
 11
1104.4277077570371
 21
-654.27375791599752
 31
0.0
  0
LINE
  5
22142
  8
01
 10
1104.4277077570371
 20
-654.27375791599752
 30
0.0
 11
1104.0552712335989
 21
-653.96728513767721
 31
0.0
  0
LINE
  5
22143
  8
01
 10
1104.0552712335989
 20
-653.96728513767721
 30
0.0
 11
1103.5966530695371
 21
-653.60195920994283
 31
0.0
  0
LINE
  5
22144
  8
01
 10
1103.5966530695371
 20
-653.60195920994283
 30
0.0
 11
1103.0607643976621
 21
-653.19256589939596
 31
0.0
  0
LINE
  5
22145
  8
01
 10
1103.0607643976621
 20
-653.19256589939596
 30
0.0
 11
1102.4542580500049
 21
-652.75241087009897
 31
0.0
  0
LINE
  5
22146
  8
01
 10
1102.4542580500049
 20
-652.75241087009897
 30
0.0
 11
1101.7826882257871
 21
-652.29421995213033
 31
0.0
  0
LINE
  5
22147
  8
01
 10
1101.7826882257871
 20
-652.29421995213033
 30
0.0
 11
1101.0499001398489
 21
-651.82945249607565
 31
0.0
  0
LINE
  5
22148
  8
01
 10
1101.0499001398489
 20
-651.82945249607565
 30
0.0
 11
1100.2590065851621
 21
-651.36900327732565
 31
0.0
  0
LINE
  5
22149
  8
01
 10
1100.2590065851621
 20
-651.36900327732565
 30
0.0
 11
1099.4128762140681
 21
-650.92312620213033
 31
0.0
  0
LINE
  5
2214A
  8
01
 10
1099.4128762140681
 20
-650.92312620213033
 30
0.0
 11
1098.5156594171931
 21
-650.50109861423971
 31
0.0
  0
LINE
  5
2214B
  8
01
 10
1098.5156594171931
 20
-650.50109861423971
 30
0.0
 11
1097.5726662531299
 21
-650.1114959531069
 31
0.0
  0
LINE
  5
2214C
  8
01
 10
1097.5726662531299
 20
-650.1114959531069
 30
0.0
 11
1096.5741921320371
 21
-649.75576780369283
 31
0.0
  0
LINE
  5
2214D
  8
01
 10
1096.5741921320371
 20
-649.75576780369283
 30
0.0
 11
1093.8965798273489
 21
-648.81132505466928
 31
0.0
  0
LINE
  5
2214E
  8
01
 10
1093.8965798273489
 20
-648.81132505466928
 30
0.0
 11
1091.2649269953181
 21
-647.7512664609194
 31
0.0
  0
LINE
  5
2214F
  8
01
 10
1091.2649269953181
 20
-647.7512664609194
 30
0.0
 11
1088.6853981867239
 21
-646.57705686619283
 31
0.0
  0
LINE
  5
22150
  8
01
 10
1088.6853981867239
 20
-646.57705686619283
 30
0.0
 11
1086.1630593195371
 21
-645.29060361912252
 31
0.0
  0
LINE
  5
22151
  8
01
 10
1086.1630593195371
 20
-645.29060361912252
 30
0.0
 11
1083.7028542414121
 21
-643.89392087986471
 31
0.0
  0
LINE
  5
22152
  8
01
 10
1083.7028542414121
 20
-643.89392087986471
 30
0.0
 11
1081.3096657648489
 21
-642.38905332615377
 31
0.0
  0
LINE
  5
22153
  8
01
 10
1081.3096657648489
 20
-642.38905332615377
 30
0.0
 11
1078.9883767023489
 21
-640.77853391697397
 31
0.0
  0
LINE
  5
22154
  8
01
 10
1078.9883767023489
 20
-640.77853391697397
 30
0.0
 11
1076.7436257257871
 21
-639.06501768162252
 31
0.0
  0
LINE
  5
22155
  8
01
 10
1076.7436257257871
 20
-639.06501768162252
 30
0.0
 11
1074.5801125421931
 21
-637.25135801365366
 31
0.0
  0
LINE
  5
22156
  8
01
 10
1074.5801125421931
 20
-637.25135801365366
 30
0.0
 11
1072.5025368585989
 21
-635.34042356541158
 31
0.0
  0
LINE
  5
22157
  8
01
 10
1072.5025368585989
 20
-635.34042356541158
 30
0.0
 11
1070.5155373468799
 21
-633.33511350681783
 31
0.0
  0
LINE
  5
22158
  8
01
 10
1070.5155373468799
 20
-633.33511350681783
 30
0.0
 11
1068.6240578546931
 21
-631.23843381931783
 31
0.0
  0
LINE
  5
22159
  8
01
 10
1068.6240578546931
 20
-631.23843381931783
 30
0.0
 11
1066.8333474054739
 21
-629.05355833103647
 31
0.0
  0
LINE
  5
2215A
  8
01
 10
1066.8333474054739
 20
-629.05355833103647
 30
0.0
 11
1065.1484719171931
 21
-626.78366087009897
 31
0.0
  0
LINE
  5
2215B
  8
01
 10
1065.1484719171931
 20
-626.78366087009897
 30
0.0
 11
1063.5751076593799
 21
-624.43249509861471
 31
0.0
  0
LINE
  5
2215C
  8
01
 10
1063.5751076593799
 20
-624.43249509861471
 30
0.0
 11
1062.1189309015681
 21
-622.0039062314271
 31
0.0
  0
LINE
  5
2215D
  8
01
 10
1062.1189309015681
 20
-622.0039062314271
 30
0.0
 11
1060.7856179132871
 21
-619.50234983494283
 31
0.0
  0
LINE
  5
2215E
  8
01
 10
1060.7856179132871
 20
-619.50234983494283
 30
0.0
 11
1059.5809059992239
 21
-616.93292234470846
 31
0.0
  0
LINE
  5
2215F
  8
01
 10
1059.5809059992239
 20
-616.93292234470846
 30
0.0
 11
1058.5099831476621
 21
-614.30145261814596
 31
0.0
  0
LINE
  5
22160
  8
01
 10
1058.5099831476621
 20
-614.30145261814596
 30
0.0
 11
1057.5770607843799
 21
-611.61465452244283
 31
0.0
  0
LINE
  5
22161
  8
01
 10
1057.5770607843799
 20
-611.61465452244283
 30
0.0
 11
1056.7852517023489
 21
-608.87994382908335
 31
0.0
  0
LINE
  5
22162
  8
01
 10
1056.7852517023489
 20
-608.87994382908335
 30
0.0
 11
1056.1357155695371
 21
-606.10537717869283
 31
0.0
  0
LINE
  5
22163
  8
01
 10
1056.1357155695371
 20
-606.10537717869283
 30
0.0
 11
1055.6263161554739
 21
-603.2996825986146
 31
0.0
  0
LINE
  5
22164
  8
01
 10
1055.6263161554739
 20
-603.2996825986146
 30
0.0
 11
1055.2505837335989
 21
-600.47152708103658
 31
0.0
  0
LINE
  5
22165
  8
01
 10
1055.2505837335989
 20
-600.47152708103658
 30
0.0
 11
1054.9972878351621
 21
-597.62884519627085
 31
0.0
  0
LINE
  5
22166
  8
01
 10
1054.9972878351621
 20
-597.62884519627085
 30
0.0
 11
1054.8429909601621
 21
-594.67709348728658
 31
0.0
  0
LINE
  5
22167
  8
01
 10
1054.6038552179739
 20
-593.60122678806783
 30
0.0
 11
1054.6420632257871
 21
-593.66418455173971
 31
0.0
  0
LINE
  5
22168
  8
01
 10
1054.6420632257871
 20
-593.66418455173971
 30
0.0
 11
1054.7098122492239
 21
-593.83374021580221
 31
0.0
  0
LINE
  5
22169
  8
01
 10
1054.7098122492239
 20
-593.83374021580221
 30
0.0
 11
1054.7728005304739
 21
-594.07559202244283
 31
0.0
  0
LINE
  5
2216A
  8
01
 10
1054.7728005304739
 20
-594.07559202244283
 30
0.0
 11
1054.8190041437549
 21
-594.36312864353647
 31
0.0
  0
LINE
  5
2216B
  8
01
 10
1054.8190041437549
 20
-594.36312864353647
 30
0.0
 11
1054.8429909601621
 21
-594.67709348728658
 31
0.0
  0
LINE
  5
2216C
  8
01
 10
1051.7388039484431
 20
-591.83535764744283
 30
0.0
 11
1051.7483254328181
 21
-591.89535520603647
 31
0.0
  0
LINE
  5
2216D
  8
01
 10
1051.7483254328181
 20
-591.89535520603647
 30
0.0
 11
1051.7627297296931
 21
-592.03060911228647
 31
0.0
  0
LINE
  5
2216E
  8
01
 10
1051.7627297296931
 20
-592.03060911228647
 30
0.0
 11
1051.7760353937549
 21
-592.21292112400533
 31
0.0
  0
LINE
  5
2216F
  8
01
 10
1051.7760353937549
 20
-592.21292112400533
 30
0.0
 11
1051.7865334406299
 21
-592.42636106541147
 31
0.0
  0
LINE
  5
22170
  8
01
 10
1051.7865334406299
 20
-592.42636106541147
 30
0.0
 11
1051.7934304132871
 21
-592.67202756931783
 31
0.0
  0
LINE
  5
22171
  8
01
 10
1051.5997048273489
 20
-591.67257688572397
 30
0.0
 11
1051.5997048273489
 21
-588.67184446384897
 31
0.0
  0
LINE
  5
22172
  8
01
 10
1128.2992897882871
 20
-655.67161558201315
 30
0.0
 11
1125.4462014093799
 21
-655.64930723240366
 31
0.0
  0
LINE
  5
22173
  8
01
 10
1125.4462014093799
 20
-655.64930723240366
 30
0.0
 11
1122.5932961359431
 21
-655.61444089939585
 31
0.0
  0
LINE
  5
22174
  8
01
 10
1122.5932961359431
 20
-655.61444089939585
 30
0.0
 11
1119.7402077570371
 21
-655.61845396091928
 31
0.0
  0
LINE
  5
22175
  8
01
 10
1119.7402077570371
 20
-655.61845396091928
 30
0.0
 11
1116.8873024835989
 21
-655.6626434140444
 31
0.0
  0
LINE
  5
22176
  8
01
 10
1116.8873024835989
 20
-655.6626434140444
 30
0.0
 11
1114.0342751398489
 21
-655.6525878720521
 31
0.0
  0
LINE
  5
22177
  8
01
 10
1114.0342751398489
 20
-655.6525878720521
 30
0.0
 11
1111.1841164484431
 21
-655.51919553806783
 31
0.0
  0
LINE
  5
22178
  8
01
 10
1111.1841164484431
 20
-655.51919553806783
 30
0.0
 11
1108.3428078546931
 21
-655.25903318455221
 31
0.0
  0
LINE
  5
22179
  8
01
 10
1108.3428078546931
 20
-655.25903318455221
 30
0.0
 11
1105.1783791437549
 21
-654.81820676853658
 31
0.0
  0
LINE
  5
2217A
  8
01
 10
1051.7043801203181
 20
-591.67440794041147
 30
0.0
 11
1051.7322731867239
 21
-591.74932859470846
 31
0.0
  0
LINE
  5
2217B
  8
01
 10
1051.7322731867239
 20
-591.74932859470846
 30
0.0
 11
1051.7598610773489
 21
-591.96221921970835
 31
0.0
  0
LINE
  5
2217C
  8
01
 10
1051.7598610773489
 20
-591.96221921970835
 30
0.0
 11
1051.7822609796931
 21
-592.28189085056783
 31
0.0
  0
LINE
  5
2217D
  8
01
 10
1051.7822609796931
 20
-592.28189085056783
 30
0.0
 11
1051.7954445734431
 21
-592.67160032322408
 31
0.0
  0
LINE
  5
2217E
  8
01
 10
1128.317539300203
 20
-525.08891211274511
 30
0.0
 11
1126.475986565828
 21
-525.20234595063584
 31
0.0
  0
LINE
  5
2217F
  8
01
 10
1126.475986565828
 20
-525.20234595063584
 30
0.0
 11
1124.635959710359
 21
-525.33903418305772
 31
0.0
  0
LINE
  5
22180
  8
01
 10
1124.635959710359
 20
-525.33903418305772
 30
0.0
 11
1122.799533929109
 21
-525.51695166352636
 31
0.0
  0
LINE
  5
22181
  8
01
 10
1122.799533929109
 20
-525.51695166352636
 30
0.0
 11
1120.969577874421
 21
-525.75202856782334
 31
0.0
  0
LINE
  5
22182
  8
01
 10
1120.969577874421
 20
-525.75202856782334
 30
0.0
 11
1119.149814690828
 21
-526.05580054047959
 31
0.0
  0
LINE
  5
22183
  8
01
 10
1119.149814690828
 20
-526.05580054047959
 30
0.0
 11
1117.344394768953
 21
-526.43577490571386
 31
0.0
  0
LINE
  5
22184
  8
01
 10
1117.344394768953
 20
-526.43577490571386
 30
0.0
 11
1115.558689202546
 21
-526.89952002290147
 31
0.0
  0
LINE
  5
22185
  8
01
 10
1115.558689202546
 20
-526.89952002290147
 30
0.0
 11
1113.798801507234
 21
-527.45323096040147
 31
0.0
  0
LINE
  5
22186
  8
01
 10
1113.798801507234
 20
-527.45323096040147
 30
0.0
 11
1112.071506585359
 21
-528.10099707368261
 31
0.0
  0
LINE
  5
22187
  8
01
 10
1112.071506585359
 20
-528.10099707368261
 30
0.0
 11
1110.384006585359
 21
-528.84657202485448
 31
0.0
  0
LINE
  5
22188
  8
01
 10
1110.384006585359
 20
-528.84657202485448
 30
0.0
 11
1108.745029534578
 21
-529.69328222993272
 31
0.0
  0
LINE
  5
22189
  8
01
 10
1108.745029534578
 20
-529.69328222993272
 30
0.0
 11
1107.1639138119219
 21
-530.64381323579209
 31
0.0
  0
LINE
  5
2218A
  8
01
 10
1107.1639138119219
 20
-530.64381323579209
 30
0.0
 11
1105.6514626400469
 21
-531.69987402680761
 31
0.0
  0
LINE
  5
2218B
  8
01
 10
1105.6514626400469
 20
-531.69987402680761
 30
0.0
 11
1104.218906487703
 21
-532.86210547212022
 31
0.0
  0
LINE
  5
2218C
  8
01
 10
1104.218906487703
 20
-532.86210547212022
 30
0.0
 11
1102.87845238614
 21
-534.12928686860448
 31
0.0
  0
LINE
  5
2218D
  8
01
 10
1102.87845238614
 20
-534.12928686860448
 30
0.0
 11
1101.641880120515
 21
-535.49803076508886
 31
0.0
  0
LINE
  5
2218E
  8
01
 10
1101.641880120515
 20
-535.49803076508886
 30
0.0
 11
1100.520176018953
 21
-536.96238623383886
 31
0.0
  0
LINE
  5
2218F
  8
01
 10
1100.520176018953
 20
-536.96238623383886
 30
0.0
 11
1099.522617425203
 21
-538.51393042329209
 31
0.0
  0
LINE
  5
22190
  8
01
 10
1099.522617425203
 20
-538.51393042329209
 30
0.0
 11
1098.654026116609
 21
-540.14118872407334
 31
0.0
  0
LINE
  5
22191
  8
01
 10
1098.654026116609
 20
-540.14118872407334
 30
0.0
 11
1097.915622796296
 21
-541.83164892915136
 31
0.0
  0
LINE
  5
22192
  8
01
 10
1097.915622796296
 20
-541.83164892915136
 30
0.0
 11
1097.3045388119219
 21
-543.57215796235448
 31
0.0
  0
LINE
  5
22193
  8
01
 10
1097.3045388119219
 20
-543.57215796235448
 30
0.0
 11
1096.813083733796
 21
-545.35029516938584
 31
0.0
  0
LINE
  5
22194
  8
01
 10
1096.813083733796
 20
-545.35029516938584
 30
0.0
 11
1096.429905022859
 21
-547.15486059907334
 31
0.0
  0
LINE
  5
22195
  8
01
 10
1096.429905022859
 20
-547.15486059907334
 30
0.0
 11
1096.14114769864
 21
-548.97706518891709
 31
0.0
  0
LINE
  5
22196
  8
01
 10
1096.14114769864
 20
-548.97706518891709
 30
0.0
 11
1095.934299554109
 21
-550.81040869477636
 31
0.0
  0
LINE
  5
22197
  8
01
 10
1095.934299554109
 20
-550.81040869477636
 30
0.0
 11
1095.792881097078
 21
-552.64997778657334
 31
0.0
  0
LINE
  5
22198
  8
01
 10
1095.792881097078
 20
-552.64997778657334
 30
0.0
 11
1095.702060784578
 21
-554.49272070649522
 31
0.0
  0
LINE
  5
22199
  8
01
 10
1095.702060784578
 20
-554.49272070649522
 30
0.0
 11
1095.648288811921
 21
-556.33702002290136
 31
0.0
  0
LINE
  5
2219A
  8
01
 10
1095.648288811921
 20
-556.33702002290136
 30
0.0
 11
1095.61819847989
 21
-558.18189917329198
 31
0.0
  0
LINE
  5
2219B
  8
01
 10
1095.61819847989
 20
-558.18189917329198
 30
0.0
 11
1095.59964379239
 21
-560.07197485688584
 31
0.0
  0
LINE
  5
2219C
  8
01
 10
1054.6038552181719
 20
-555.14259253266709
 30
0.0
 11
1054.642063225984
 21
-555.07963476899522
 31
0.0
  0
LINE
  5
2219D
  8
01
 10
1054.642063225984
 20
-555.07963476899522
 30
0.0
 11
1054.7098122494219
 21
-554.91007910493272
 31
0.0
  0
LINE
  5
2219E
  8
01
 10
1054.7098122494219
 20
-554.91007910493272
 30
0.0
 11
1054.7728005306719
 21
-554.66819678071386
 31
0.0
  0
LINE
  5
2219F
  8
01
 10
1054.7728005306719
 20
-554.66819678071386
 30
0.0
 11
1054.819004143953
 21
-554.38066015962022
 31
0.0
  0
LINE
  5
221A0
  8
01
 10
1054.819004143953
 20
-554.38066015962022
 30
0.0
 11
1054.842990960359
 21
-554.06669531587022
 31
0.0
  0
LINE
  5
221A1
  8
01
 10
1104.931125725984
 20
-494.04203711274511
 30
0.0
 11
1104.874424065828
 21
-494.09101782563579
 31
0.0
  0
LINE
  5
221A2
  8
01
 10
1104.874424065828
 20
-494.09101782563579
 30
0.0
 11
1104.704074944734
 21
-494.23698340180772
 31
0.0
  0
LINE
  5
221A3
  8
01
 10
1104.704074944734
 20
-494.23698340180772
 30
0.0
 11
1104.427707757234
 21
-494.47004614594829
 31
0.0
  0
LINE
  5
221A4
  8
01
 10
1104.427707757234
 20
-494.47004614594829
 30
0.0
 11
1104.055271233796
 21
-494.77650366547959
 31
0.0
  0
LINE
  5
221A5
  8
01
 10
1104.055271233796
 20
-494.77650366547959
 30
0.0
 11
1103.596653069734
 21
-495.14182959321391
 31
0.0
  0
LINE
  5
221A6
  8
01
 10
1103.596653069734
 20
-495.14182959321391
 30
0.0
 11
1103.060764397859
 21
-495.55122290376079
 31
0.0
  0
LINE
  5
221A7
  8
01
 10
1103.060764397859
 20
-495.55122290376079
 30
0.0
 11
1102.454258050203
 21
-495.99137793305772
 31
0.0
  0
LINE
  5
221A8
  8
01
 10
1102.454258050203
 20
-495.99137793305772
 30
0.0
 11
1101.782688225984
 21
-496.44956885102653
 31
0.0
  0
LINE
  5
221A9
  8
01
 10
1101.782688225984
 20
-496.44956885102653
 30
0.0
 11
1101.049900140046
 21
-496.91435156587022
 31
0.0
  0
LINE
  5
221AA
  8
01
 10
1101.049900140046
 20
-496.91435156587022
 30
0.0
 11
1100.259006585359
 21
-497.37480078462022
 31
0.0
  0
LINE
  5
221AB
  8
01
 10
1100.259006585359
 20
-497.37480078462022
 30
0.0
 11
1099.412876214265
 21
-497.82066260102653
 31
0.0
  0
LINE
  5
221AC
  8
01
 10
1099.412876214265
 20
-497.82066260102653
 30
0.0
 11
1098.51565941739
 21
-498.24269018891698
 31
0.0
  0
LINE
  5
221AD
  8
01
 10
1098.51565941739
 20
-498.24269018891698
 30
0.0
 11
1097.572666253328
 21
-498.63230810883891
 31
0.0
  0
LINE
  5
221AE
  8
01
 10
1097.572666253328
 20
-498.63230810883891
 30
0.0
 11
1096.574192132234
 21
-498.98802099946391
 31
0.0
  0
LINE
  5
221AF
  8
01
 10
1096.574192132234
 20
-498.98802099946391
 30
0.0
 11
1093.896579827546
 21
-499.93247900727653
 31
0.0
  0
LINE
  5
221B0
  8
01
 10
1093.896579827546
 20
-499.93247900727653
 30
0.0
 11
1091.264926995515
 21
-500.99253760102641
 31
0.0
  0
LINE
  5
221B1
  8
01
 10
1091.264926995515
 20
-500.99253760102641
 30
0.0
 11
1088.6853981869219
 21
-502.16673193696391
 31
0.0
  0
LINE
  5
221B2
  8
01
 10
1088.6853981869219
 20
-502.16673193696391
 30
0.0
 11
1086.163059319734
 21
-503.45320044282329
 31
0.0
  0
LINE
  5
221B3
  8
01
 10
1086.163059319734
 20
-503.45320044282329
 30
0.0
 11
1083.702854241609
 21
-504.84986792329198
 31
0.0
  0
LINE
  5
221B4
  8
01
 10
1083.702854241609
 20
-504.84986792329198
 30
0.0
 11
1081.309665765046
 21
-506.35475073579198
 31
0.0
  0
LINE
  5
221B5
  8
01
 10
1081.309665765046
 20
-506.35475073579198
 30
0.0
 11
1078.988376702546
 21
-507.96525488618272
 31
0.0
  0
LINE
  5
221B6
  8
01
 10
1078.988376702546
 20
-507.96525488618272
 30
0.0
 11
1076.743625725984
 21
-509.67878638032329
 31
0.0
  0
LINE
  5
221B7
  8
01
 10
1076.743625725984
 20
-509.67878638032329
 30
0.0
 11
1074.58011254239
 21
-511.49244604829209
 31
0.0
  0
LINE
  5
221B8
  8
01
 10
1074.58011254239
 20
-511.49244604829209
 30
0.0
 11
1072.5025368587969
 21
-513.40336523774522
 31
0.0
  0
LINE
  5
221B9
  8
01
 10
1072.5025368587969
 20
-513.40336523774522
 30
0.0
 11
1070.515537347078
 21
-515.40870581391709
 31
0.0
  0
LINE
  5
221BA
  8
01
 10
1070.515537347078
 20
-515.40870581391709
 30
0.0
 11
1068.62405785489
 21
-517.50535498383897
 31
0.0
  0
LINE
  5
221BB
  8
01
 10
1068.62405785489
 20
-517.50535498383897
 30
0.0
 11
1066.8333474056719
 21
-519.69026098969834
 31
0.0
  0
LINE
  5
221BC
  8
01
 10
1066.8333474056719
 20
-519.69026098969834
 30
0.0
 11
1065.14847191739
 21
-521.96012793305772
 31
0.0
  0
LINE
  5
221BD
  8
01
 10
1065.14847191739
 20
-521.96012793305772
 30
0.0
 11
1063.575107659578
 21
-524.31132422212022
 31
0.0
  0
LINE
  5
221BE
  8
01
 10
1063.575107659578
 20
-524.31132422212022
 30
0.0
 11
1062.118930901765
 21
-526.73991308930761
 31
0.0
  0
LINE
  5
221BF
  8
01
 10
1062.118930901765
 20
-526.73991308930761
 30
0.0
 11
1060.785617913484
 21
-529.24143896821386
 31
0.0
  0
LINE
  5
221C0
  8
01
 10
1060.785617913484
 20
-529.24143896821386
 30
0.0
 11
1059.580905999421
 21
-531.81086645844834
 31
0.0
  0
LINE
  5
221C1
  8
01
 10
1059.580905999421
 20
-531.81086645844834
 30
0.0
 11
1058.509983147859
 21
-534.44233618501084
 31
0.0
  0
LINE
  5
221C2
  8
01
 10
1058.509983147859
 20
-534.44233618501084
 30
0.0
 11
1057.577060784578
 21
-537.12913428071386
 31
0.0
  0
LINE
  5
221C3
  8
01
 10
1057.577060784578
 20
-537.12913428071386
 30
0.0
 11
1056.7852517025469
 21
-539.86384497407334
 31
0.0
  0
LINE
  5
221C4
  8
01
 10
1056.7852517025469
 20
-539.86384497407334
 30
0.0
 11
1056.135715569734
 21
-542.63841162446397
 31
0.0
  0
LINE
  5
221C5
  8
01
 10
1056.135715569734
 20
-542.63841162446397
 30
0.0
 11
1055.6263161556719
 21
-545.44410620454209
 31
0.0
  0
LINE
  5
221C6
  8
01
 10
1055.6263161556719
 20
-545.44410620454209
 30
0.0
 11
1055.2505837337969
 21
-548.27226172212022
 31
0.0
  0
LINE
  5
221C7
  8
01
 10
1055.2505837337969
 20
-548.27226172212022
 30
0.0
 11
1054.997287835359
 21
-551.11494360688584
 31
0.0
  0
LINE
  5
221C8
  8
01
 10
1054.997287835359
 20
-551.11494360688584
 30
0.0
 11
1054.842990960359
 21
-554.06669531587022
 31
0.0
  0
LINE
  5
221C9
  8
01
 10
1128.299289788484
 20
-493.07218847993272
 30
0.0
 11
1125.446201409578
 21
-493.09449682954198
 31
0.0
  0
LINE
  5
221CA
  8
01
 10
1125.446201409578
 20
-493.09449682954198
 30
0.0
 11
1122.59329613614
 21
-493.12934790376079
 31
0.0
  0
LINE
  5
221CB
  8
01
 10
1122.59329613614
 20
-493.12934790376079
 30
0.0
 11
1119.740207757234
 21
-493.12535010102653
 31
0.0
  0
LINE
  5
221CC
  8
01
 10
1119.740207757234
 20
-493.12535010102653
 30
0.0
 11
1116.8873024837969
 21
-493.08116064790141
 31
0.0
  0
LINE
  5
221CD
  8
01
 10
1116.8873024837969
 20
-493.08116064790141
 30
0.0
 11
1114.034275140046
 21
-493.09120093110459
 31
0.0
  0
LINE
  5
221CE
  8
01
 10
1114.034275140046
 20
-493.09120093110459
 30
0.0
 11
1111.18411644864
 21
-493.22459326508891
 31
0.0
  0
LINE
  5
221CF
  8
01
 10
1111.18411644864
 20
-493.22459326508891
 30
0.0
 11
1108.34280785489
 21
-493.48475561860459
 31
0.0
  0
LINE
  5
221D0
  8
01
 10
1108.34280785489
 20
-493.48475561860459
 30
0.0
 11
1105.178379143953
 21
-493.92558203462022
 31
0.0
  0
LINE
  5
221D1
  8
01
 10
1051.617405022859
 20
-555.56022558930761
 30
0.0
 11
1051.599826897859
 21
-557.00367651704209
 31
0.0
  0
LINE
  5
221D2
  8
01
 10
1051.599826897859
 20
-557.00367651704209
 30
0.0
 11
1051.599704827546
 21
-560.07197485688584
 31
0.0
  0
LINE
  5
221D3
  8
01
 10
1591.9362171285979
 20
-712.04910078745615
 30
0.0
 11
1591.4647815817229
 21
-711.83060255747569
 31
0.0
  0
LINE
  5
221D4
  8
01
 10
1591.4647815817229
 20
-711.83060255747569
 30
0.0
 11
1590.973570644222
 21
-711.47471419077647
 31
0.0
  0
LINE
  5
221D5
  8
01
 10
1590.973570644222
 20
-711.47471419077647
 30
0.0
 11
1590.4596546285979
 21
-710.99326124888194
 31
0.0
  0
LINE
  5
221D6
  8
01
 10
1590.4596546285979
 20
-710.99326124888194
 30
0.0
 11
1589.9306018942229
 21
-710.39302626353026
 31
0.0
  0
LINE
  5
221D7
  8
01
 10
1589.9306018942229
 20
-710.39302626353026
 30
0.0
 11
1589.401854335629
 21
-709.68025007944834
 31
0.0
  0
LINE
  5
221D8
  8
01
 10
1589.401854335629
 20
-709.68025007944834
 30
0.0
 11
1588.891356288754
 21
-708.85920515757334
 31
0.0
  0
LINE
  5
221D9
  8
01
 10
1588.891356288754
 20
-708.85920515757334
 30
0.0
 11
1588.420042812191
 21
-707.93454542856944
 31
0.0
  0
LINE
  5
221DA
  8
01
 10
1588.420042812191
 20
-707.93454542856944
 30
0.0
 11
1588.011717616879
 21
-706.91193953257334
 31
0.0
  0
LINE
  5
221DB
  8
01
 10
1588.011717616879
 20
-706.91193953257334
 30
0.0
 11
1587.692076503597
 21
-705.80216780405772
 31
0.0
  0
LINE
  5
221DC
  8
01
 10
1587.692076503597
 20
-705.80216780405772
 30
0.0
 11
1587.485411464535
 21
-704.62486067515147
 31
0.0
  0
LINE
  5
221DD
  8
01
 10
1587.485411464535
 20
-704.62486067515147
 30
0.0
 11
1587.411192714535
 21
-703.37196150522948
 31
0.0
  0
LINE
  5
221DE
  8
01
 10
1646.881773769222
 20
-719.94084730845225
 30
0.0
 11
1643.679076015316
 21
-719.91769591074717
 31
0.0
  0
LINE
  5
221DF
  8
01
 10
1643.679076015316
 20
-719.91769591074717
 30
0.0
 11
1640.487242519222
 21
-719.85471907358885
 31
0.0
  0
LINE
  5
221E0
  8
01
 10
1640.487242519222
 20
-719.85471907358885
 30
0.0
 11
1637.3162830465669
 21
-719.74493208628417
 31
0.0
  0
LINE
  5
221E1
  8
01
 10
1637.3162830465669
 20
-719.74493208628417
 30
0.0
 11
1634.17803841766
 21
-719.58523359995615
 31
0.0
  0
LINE
  5
221E2
  8
01
 10
1634.17803841766
 20
-719.58523359995615
 30
0.0
 11
1631.084837734066
 21
-719.37538710337412
 31
0.0
  0
LINE
  5
221E3
  8
01
 10
1631.084837734066
 20
-719.37538710337412
 30
0.0
 11
1628.048338710629
 21
-719.11740294199706
 31
0.0
  0
LINE
  5
221E4
  8
01
 10
1628.048338710629
 20
-719.11740294199706
 30
0.0
 11
1625.079100429379
 21
-718.81479445200694
 31
0.0
  0
LINE
  5
221E5
  8
01
 10
1625.079100429379
 20
-718.81479445200694
 30
0.0
 11
1622.1867054098479
 21
-718.4719142029835
 31
0.0
  0
LINE
  5
221E6
  8
01
 10
1622.1867054098479
 20
-718.4719142029835
 30
0.0
 11
1619.3793323629729
 21
-718.09367552500498
 31
0.0
  0
LINE
  5
221E7
  8
01
 10
1619.3793323629729
 20
-718.09367552500498
 30
0.0
 11
1616.6640003317229
 21
-717.68553343516123
 31
0.0
  0
LINE
  5
221E8
  8
01
 10
1616.6640003317229
 20
-717.68553343516123
 30
0.0
 11
1614.04669076141
 21
-717.2530192444874
 31
0.0
  0
LINE
  5
221E9
  8
01
 10
1614.04669076141
 20
-717.2530192444874
 30
0.0
 11
1611.532835780941
 21
-716.80167189341319
 31
0.0
  0
LINE
  5
221EA
  8
01
 10
1611.532835780941
 20
-716.80167189341319
 30
0.0
 11
1609.127318202816
 21
-716.33695402842295
 31
0.0
  0
LINE
  5
221EB
  8
01
 10
1609.127318202816
 20
-716.33695402842295
 30
0.0
 11
1606.834715663754
 21
-715.86424818735838
 31
0.0
  0
LINE
  5
221EC
  8
01
 10
1606.834715663754
 20
-715.86424818735838
 30
0.0
 11
1604.6593616598479
 21
-715.38884535532725
 31
0.0
  0
LINE
  5
221ED
  8
01
 10
1604.6593616598479
 20
-715.38884535532725
 30
0.0
 11
1602.605467616879
 21
-714.9157389710499
 31
0.0
  0
LINE
  5
221EE
  8
01
 10
1602.605467616879
 20
-714.9157389710499
 30
0.0
 11
1600.6771839254729
 21
-714.44985380869628
 31
0.0
  0
LINE
  5
221EF
  8
01
 10
1600.6771839254729
 20
-714.44985380869628
 30
0.0
 11
1598.87872201141
 21
-713.99604216318858
 31
0.0
  0
LINE
  5
221F0
  8
01
 10
1598.87872201141
 20
-713.99604216318858
 30
0.0
 11
1597.2140491598479
 21
-713.55885878306162
 31
0.0
  0
LINE
  5
221F1
  8
01
 10
1597.2140491598479
 20
-713.55885878306162
 30
0.0
 11
1595.687010585629
 21
-713.14257612925303
 31
0.0
  0
LINE
  5
221F2
  8
01
 10
1595.687010585629
 20
-713.14257612925303
 30
0.0
 11
1594.300780116879
 21
-712.7511004517628
 31
0.0
  0
LINE
  5
221F3
  8
01
 10
1594.300780116879
 20
-712.7511004517628
 30
0.0
 11
1593.058653652035
 21
-712.38826552134276
 31
0.0
  0
LINE
  5
221F4
  8
01
 10
1593.058653652035
 20
-712.38826552134276
 30
0.0
 11
1591.9362171285979
 21
-712.04910078745615
 31
0.0
  0
LINE
  5
221F5
  8
01
 10
1646.881773769222
 20
-719.94084730845225
 30
0.0
 11
1647.259642421566
 21
-719.87001982432139
 31
0.0
  0
LINE
  5
221F6
  8
01
 10
1647.259642421566
 20
-719.87001982432139
 30
0.0
 11
1647.58135873016
 21
-719.66564360361826
 31
0.0
  0
LINE
  5
221F7
  8
01
 10
1647.58135873016
 20
-719.66564360361826
 30
0.0
 11
1647.79815560516
 21
-719.35658446055174
 31
0.0
  0
LINE
  5
221F8
  8
01
 10
1647.79815560516
 20
-719.35658446055174
 30
0.0
 11
1647.87628060516
 21
-718.98354140024912
 31
0.0
  0
LINE
  5
221F9
  8
01
 10
1647.87628060516
 20
-687.76038923960448
 30
0.0
 11
1647.800352870785
 21
-687.39212599497569
 31
0.0
  0
LINE
  5
221FA
  8
01
 10
1647.800352870785
 20
-687.39212599497569
 30
0.0
 11
1647.585020839535
 21
-687.08179274302245
 31
0.0
  0
LINE
  5
221FB
  8
01
 10
1647.585020839535
 20
-687.08179274302245
 30
0.0
 11
1647.2643421285979
 21
-686.87583723765147
 31
0.0
  0
LINE
  5
221FC
  8
01
 10
1647.2643421285979
 20
-686.87583723765147
 30
0.0
 11
1646.881773769222
 21
-686.80308333140147
 31
0.0
  0
LINE
  5
221FD
  8
01
 10
1646.881773769222
 20
-686.80308333140147
 30
0.0
 11
1643.679076015316
 21
-686.82623091440928
 31
0.0
  0
LINE
  5
221FE
  8
01
 10
1643.679076015316
 20
-686.82623091440928
 30
0.0
 11
1640.487242519222
 21
-686.88920393687022
 31
0.0
  0
LINE
  5
221FF
  8
01
 10
1640.487242519222
 20
-686.88920393687022
 30
0.0
 11
1637.3162830465669
 21
-686.99899855356944
 31
0.0
  0
LINE
  5
22200
  8
01
 10
1637.3162830465669
 20
-686.99899855356944
 30
0.0
 11
1634.17803841766
 21
-687.15868941050303
 31
0.0
  0
LINE
  5
22201
  8
01
 10
1634.17803841766
 20
-687.15868941050303
 30
0.0
 11
1631.084837734066
 21
-687.36853590708495
 31
0.0
  0
LINE
  5
22202
  8
01
 10
1631.084837734066
 20
-687.36853590708495
 30
0.0
 11
1628.048338710629
 21
-687.62652388315917
 31
0.0
  0
LINE
  5
22203
  8
01
 10
1628.048338710629
 20
-687.62652388315917
 30
0.0
 11
1625.079100429379
 21
-687.92913618784667
 31
0.0
  0
LINE
  5
22204
  8
01
 10
1625.079100429379
 20
-687.92913618784667
 30
0.0
 11
1622.1867054098479
 21
-688.27201643687022
 31
0.0
  0
LINE
  5
22205
  8
01
 10
1622.1867054098479
 20
-688.27201643687022
 30
0.0
 11
1619.3793323629729
 21
-688.65025130015147
 31
0.0
  0
LINE
  5
22206
  8
01
 10
1619.3793323629729
 20
-688.65025130015147
 30
0.0
 11
1616.6640003317229
 21
-689.05839338999522
 31
0.0
  0
LINE
  5
22207
  8
01
 10
1616.6640003317229
 20
-689.05839338999522
 30
0.0
 11
1614.04669076141
 21
-689.49091139536631
 31
0.0
  0
LINE
  5
22208
  8
01
 10
1614.04669076141
 20
-689.49091139536631
 30
0.0
 11
1611.532835780941
 21
-689.94225874644053
 31
0.0
  0
LINE
  5
22209
  8
01
 10
1611.532835780941
 20
-689.94225874644053
 30
0.0
 11
1609.127318202816
 21
-690.4069727967335
 31
0.0
  0
LINE
  5
2220A
  8
01
 10
1609.127318202816
 20
-690.4069727967335
 30
0.0
 11
1606.834715663754
 21
-690.87967482310057
 31
0.0
  0
LINE
  5
2220B
  8
01
 10
1606.834715663754
 20
-690.87967482310057
 30
0.0
 11
1604.6593616598479
 21
-691.35507765513194
 31
0.0
  0
LINE
  5
2220C
  8
01
 10
1604.6593616598479
 20
-691.35507765513194
 30
0.0
 11
1602.605467616879
 21
-691.8281916688037
 31
0.0
  0
LINE
  5
2220D
  8
01
 10
1602.605467616879
 20
-691.8281916688037
 30
0.0
 11
1600.6771839254729
 21
-692.29407301645995
 31
0.0
  0
LINE
  5
2220E
  8
01
 10
1600.6771839254729
 20
-692.29407301645995
 30
0.0
 11
1598.87872201141
 21
-692.74788466196787
 31
0.0
  0
LINE
  5
2220F
  8
01
 10
1598.87872201141
 20
-692.74788466196787
 30
0.0
 11
1597.2140491598479
 21
-693.18506422739756
 31
0.0
  0
LINE
  5
22210
  8
01
 10
1597.2140491598479
 20
-693.18506422739756
 30
0.0
 11
1595.687010585629
 21
-693.60134688120615
 31
0.0
  0
LINE
  5
22211
  8
01
 10
1595.687010585629
 20
-693.60134688120615
 30
0.0
 11
1594.300780116879
 21
-693.99282637339365
 31
0.0
  0
LINE
  5
22212
  8
01
 10
1594.300780116879
 20
-693.99282637339365
 30
0.0
 11
1593.058653652035
 21
-694.35565748911631
 31
0.0
  0
LINE
  5
22213
  8
01
 10
1593.058653652035
 20
-694.35565748911631
 30
0.0
 11
1591.9362171285979
 21
-694.69482985239756
 31
0.0
  0
LINE
  5
22214
  8
01
 10
1591.9362171285979
 20
-694.69482985239756
 30
0.0
 11
1591.4647815817229
 21
-694.9133204529835
 31
0.0
  0
LINE
  5
22215
  8
01
 10
1591.4647815817229
 20
-694.9133204529835
 30
0.0
 11
1590.973570644222
 21
-695.26921644907725
 31
0.0
  0
LINE
  5
22216
  8
01
 10
1590.973570644222
 20
-695.26921644907725
 30
0.0
 11
1590.4596546285979
 21
-695.75066939097167
 31
0.0
  0
LINE
  5
22217
  8
01
 10
1590.4596546285979
 20
-695.75066939097167
 30
0.0
 11
1589.9306018942229
 21
-696.35090437632334
 31
0.0
  0
LINE
  5
22218
  8
01
 10
1589.9306018942229
 20
-696.35090437632334
 30
0.0
 11
1589.401854335629
 21
-697.06367293101084
 31
0.0
  0
LINE
  5
22219
  8
01
 10
1589.401854335629
 20
-697.06367293101084
 30
0.0
 11
1588.891356288754
 21
-697.88472548228026
 31
0.0
  0
LINE
  5
2221A
  8
01
 10
1588.891356288754
 20
-697.88472548228026
 30
0.0
 11
1588.420042812191
 21
-698.80938521128417
 31
0.0
  0
LINE
  5
2221B
  8
01
 10
1588.420042812191
 20
-698.80938521128417
 30
0.0
 11
1588.011717616879
 21
-699.83198347788584
 31
0.0
  0
LINE
  5
2221C
  8
01
 10
1588.011717616879
 20
-699.83198347788584
 30
0.0
 11
1587.692076503597
 21
-700.941762835796
 31
0.0
  0
LINE
  5
2221D
  8
01
 10
1587.692076503597
 20
-700.941762835796
 30
0.0
 11
1587.485411464535
 21
-702.11906996470225
 31
0.0
  0
LINE
  5
2221E
  8
01
 10
1587.485411464535
 20
-702.11906996470225
 30
0.0
 11
1587.411192714535
 21
-703.37196150522948
 31
0.0
  0
LINE
  5
2221F
  8
01
 10
1742.416213688686
 20
-712.04910078765386
 30
0.0
 11
1742.887649235561
 21
-711.83060255767339
 31
0.0
  0
LINE
  5
22220
  8
01
 10
1742.887649235561
 20
-711.83060255767339
 30
0.0
 11
1743.378860173061
 21
-711.47471419097428
 31
0.0
  0
LINE
  5
22221
  8
01
 10
1743.378860173061
 20
-711.47471419097428
 30
0.0
 11
1743.892776188686
 21
-710.99326124907975
 31
0.0
  0
LINE
  5
22222
  8
01
 10
1743.892776188686
 20
-710.99326124907975
 30
0.0
 11
1744.421828923061
 21
-710.39302626372807
 31
0.0
  0
LINE
  5
22223
  8
01
 10
1744.421828923061
 20
-710.39302626372807
 30
0.0
 11
1744.950576481654
 21
-709.68025007964604
 31
0.0
  0
LINE
  5
22224
  8
01
 10
1744.950576481654
 20
-709.68025007964604
 30
0.0
 11
1745.461074528529
 21
-708.85920515777116
 31
0.0
  0
LINE
  5
22225
  8
01
 10
1745.461074528529
 20
-708.85920515777116
 30
0.0
 11
1745.932388005092
 21
-707.93454542876725
 31
0.0
  0
LINE
  5
22226
  8
01
 10
1745.932388005092
 20
-707.93454542876725
 30
0.0
 11
1746.340713200404
 21
-706.91193953277104
 31
0.0
  0
LINE
  5
22227
  8
01
 10
1746.340713200404
 20
-706.91193953277104
 30
0.0
 11
1746.660354313686
 21
-705.80216780425553
 31
0.0
  0
LINE
  5
22228
  8
01
 10
1746.660354313686
 20
-705.80216780425553
 30
0.0
 11
1746.867019352748
 21
-704.62486067534928
 31
0.0
  0
LINE
  5
22229
  8
01
 10
1746.867019352748
 20
-704.62486067534928
 30
0.0
 11
1746.941238102748
 21
-703.37196150542729
 31
0.0
  0
LINE
  5
2222A
  8
01
 10
1687.470657048061
 20
-719.94084730864995
 30
0.0
 11
1690.673354801967
 21
-719.91769591094499
 31
0.0
  0
LINE
  5
2222B
  8
01
 10
1690.673354801967
 20
-719.91769591094499
 30
0.0
 11
1693.865188298061
 21
-719.85471907378667
 31
0.0
  0
LINE
  5
2222C
  8
01
 10
1693.865188298061
 20
-719.85471907378667
 30
0.0
 11
1697.036147770717
 21
-719.74493208648198
 31
0.0
  0
LINE
  5
2222D
  8
01
 10
1697.036147770717
 20
-719.74493208648198
 30
0.0
 11
1700.174392399623
 21
-719.58523360015386
 31
0.0
  0
LINE
  5
2222E
  8
01
 10
1700.174392399623
 20
-719.58523360015386
 30
0.0
 11
1703.267593083217
 21
-719.37538710357194
 31
0.0
  0
LINE
  5
2222F
  8
01
 10
1703.267593083217
 20
-719.37538710357194
 30
0.0
 11
1706.3040921066549
 21
-719.11740294219499
 31
0.0
  0
LINE
  5
22230
  8
01
 10
1706.3040921066549
 20
-719.11740294219499
 30
0.0
 11
1709.2733303879049
 21
-718.81479445220475
 31
0.0
  0
LINE
  5
22231
  8
01
 10
1709.2733303879049
 20
-718.81479445220475
 30
0.0
 11
1712.165725407436
 21
-718.47191420318131
 31
0.0
  0
LINE
  5
22232
  8
01
 10
1712.165725407436
 20
-718.47191420318131
 30
0.0
 11
1714.973098454311
 21
-718.0936755252028
 31
0.0
  0
LINE
  5
22233
  8
01
 10
1714.973098454311
 20
-718.0936755252028
 30
0.0
 11
1717.688430485561
 21
-717.68553343535905
 31
0.0
  0
LINE
  5
22234
  8
01
 10
1717.688430485561
 20
-717.68553343535905
 30
0.0
 11
1720.305740055873
 21
-717.25301924468522
 31
0.0
  0
LINE
  5
22235
  8
01
 10
1720.305740055873
 20
-717.25301924468522
 30
0.0
 11
1722.819595036342
 21
-716.801671893611
 31
0.0
  0
LINE
  5
22236
  8
01
 10
1722.819595036342
 20
-716.801671893611
 30
0.0
 11
1725.225112614467
 21
-716.33695402862077
 31
0.0
  0
LINE
  5
22237
  8
01
 10
1725.225112614467
 20
-716.33695402862077
 30
0.0
 11
1727.5177151535299
 21
-715.8642481875562
 31
0.0
  0
LINE
  5
22238
  8
01
 10
1727.5177151535299
 20
-715.8642481875562
 30
0.0
 11
1729.693069157436
 21
-715.38884535552495
 31
0.0
  0
LINE
  5
22239
  8
01
 10
1729.693069157436
 20
-715.38884535552495
 30
0.0
 11
1731.7469632004049
 21
-714.91573897124772
 31
0.0
  0
LINE
  5
2223A
  8
01
 10
1731.7469632004049
 20
-714.91573897124772
 30
0.0
 11
1733.675246891811
 21
-714.44985380889409
 31
0.0
  0
LINE
  5
2223B
  8
01
 10
1733.675246891811
 20
-714.44985380889409
 30
0.0
 11
1735.473708805873
 21
-713.99604216338639
 31
0.0
  0
LINE
  5
2223C
  8
01
 10
1735.473708805873
 20
-713.99604216338639
 30
0.0
 11
1737.138381657436
 21
-713.55885878325944
 31
0.0
  0
LINE
  5
2223D
  8
01
 10
1737.138381657436
 20
-713.55885878325944
 30
0.0
 11
1738.665420231654
 21
-713.14257612945084
 31
0.0
  0
LINE
  5
2223E
  8
01
 10
1738.665420231654
 20
-713.14257612945084
 30
0.0
 11
1740.0516507004049
 21
-712.75110045196061
 31
0.0
  0
LINE
  5
2223F
  8
01
 10
1740.0516507004049
 20
-712.75110045196061
 30
0.0
 11
1741.293777165248
 21
-712.38826552154069
 31
0.0
  0
LINE
  5
22240
  8
01
 10
1741.293777165248
 20
-712.38826552154069
 30
0.0
 11
1742.416213688686
 21
-712.04910078765386
 31
0.0
  0
LINE
  5
22241
  8
01
 10
1687.470657048061
 20
-719.94084730864995
 30
0.0
 11
1687.092788395717
 21
-719.8700198245192
 31
0.0
  0
LINE
  5
22242
  8
01
 10
1687.092788395717
 20
-719.8700198245192
 30
0.0
 11
1686.771072087123
 21
-719.66564360381608
 31
0.0
  0
LINE
  5
22243
  8
01
 10
1686.771072087123
 20
-719.66564360381608
 30
0.0
 11
1686.554275212123
 21
-719.35658446074967
 31
0.0
  0
LINE
  5
22244
  8
01
 10
1686.554275212123
 20
-719.35658446074967
 30
0.0
 11
1686.476150212123
 21
-718.98354140044694
 31
0.0
  0
LINE
  5
22245
  8
01
 10
1686.476150212123
 20
-687.76038923980241
 30
0.0
 11
1686.552077946498
 21
-687.39212599517339
 31
0.0
  0
LINE
  5
22246
  8
01
 10
1686.552077946498
 20
-687.39212599517339
 30
0.0
 11
1686.767409977748
 21
-687.08179274322026
 31
0.0
  0
LINE
  5
22247
  8
01
 10
1686.767409977748
 20
-687.08179274322026
 30
0.0
 11
1687.088088688686
 21
-686.87583723784928
 31
0.0
  0
LINE
  5
22248
  8
01
 10
1687.088088688686
 20
-686.87583723784928
 30
0.0
 11
1687.470657048061
 21
-686.80308333159928
 31
0.0
  0
LINE
  5
22249
  8
01
 10
1687.470657048061
 20
-686.80308333159928
 30
0.0
 11
1690.673354801967
 21
-686.82623091460709
 31
0.0
  0
LINE
  5
2224A
  8
01
 10
1690.673354801967
 20
-686.82623091460709
 30
0.0
 11
1693.865188298061
 21
-686.88920393706803
 31
0.0
  0
LINE
  5
2224B
  8
01
 10
1693.865188298061
 20
-686.88920393706803
 30
0.0
 11
1697.036147770717
 21
-686.99899855376725
 31
0.0
  0
LINE
  5
2224C
  8
01
 10
1697.036147770717
 20
-686.99899855376725
 30
0.0
 11
1700.174392399623
 21
-687.15868941070084
 31
0.0
  0
LINE
  5
2224D
  8
01
 10
1700.174392399623
 20
-687.15868941070084
 30
0.0
 11
1703.267593083217
 21
-687.36853590728288
 31
0.0
  0
LINE
  5
2224E
  8
01
 10
1703.267593083217
 20
-687.36853590728288
 30
0.0
 11
1706.3040921066549
 21
-687.62652388335698
 31
0.0
  0
LINE
  5
2224F
  8
01
 10
1706.3040921066549
 20
-687.62652388335698
 30
0.0
 11
1709.2733303879049
 21
-687.92913618804448
 31
0.0
  0
LINE
  5
22250
  8
01
 10
1709.2733303879049
 20
-687.92913618804448
 30
0.0
 11
1712.165725407436
 21
-688.27201643706803
 31
0.0
  0
LINE
  5
22251
  8
01
 10
1712.165725407436
 20
-688.27201643706803
 30
0.0
 11
1714.973098454311
 21
-688.65025130034928
 31
0.0
  0
LINE
  5
22252
  8
01
 10
1714.973098454311
 20
-688.65025130034928
 30
0.0
 11
1717.688430485561
 21
-689.05839339019303
 31
0.0
  0
LINE
  5
22253
  8
01
 10
1717.688430485561
 20
-689.05839339019303
 30
0.0
 11
1720.305740055873
 21
-689.49091139556413
 31
0.0
  0
LINE
  5
22254
  8
01
 10
1720.305740055873
 20
-689.49091139556413
 30
0.0
 11
1722.819595036342
 21
-689.94225874663834
 31
0.0
  0
LINE
  5
22255
  8
01
 10
1722.819595036342
 20
-689.94225874663834
 30
0.0
 11
1725.225112614467
 21
-690.40697279693131
 31
0.0
  0
LINE
  5
22256
  8
01
 10
1725.225112614467
 20
-690.40697279693131
 30
0.0
 11
1727.5177151535299
 21
-690.8796748232985
 31
0.0
  0
LINE
  5
22257
  8
01
 10
1727.5177151535299
 20
-690.8796748232985
 30
0.0
 11
1729.693069157436
 21
-691.35507765532975
 31
0.0
  0
LINE
  5
22258
  8
01
 10
1729.693069157436
 20
-691.35507765532975
 30
0.0
 11
1731.7469632004049
 21
-691.82819166900163
 31
0.0
  0
LINE
  5
22259
  8
01
 10
1731.7469632004049
 20
-691.82819166900163
 30
0.0
 11
1733.675246891811
 21
-692.29407301665788
 31
0.0
  0
LINE
  5
2225A
  8
01
 10
1733.675246891811
 20
-692.29407301665788
 30
0.0
 11
1735.473708805873
 21
-692.74788466216569
 31
0.0
  0
LINE
  5
2225B
  8
01
 10
1735.473708805873
 20
-692.74788466216569
 30
0.0
 11
1737.138381657436
 21
-693.18506422759538
 31
0.0
  0
LINE
  5
2225C
  8
01
 10
1737.138381657436
 20
-693.18506422759538
 30
0.0
 11
1738.665420231654
 21
-693.60134688140397
 31
0.0
  0
LINE
  5
2225D
  8
01
 10
1738.665420231654
 20
-693.60134688140397
 30
0.0
 11
1740.0516507004049
 21
-693.99282637359136
 31
0.0
  0
LINE
  5
2225E
  8
01
 10
1740.0516507004049
 20
-693.99282637359136
 30
0.0
 11
1741.293777165248
 21
-694.35565748931413
 31
0.0
  0
LINE
  5
2225F
  8
01
 10
1741.293777165248
 20
-694.35565748931413
 30
0.0
 11
1742.416213688686
 21
-694.69482985259538
 31
0.0
  0
LINE
  5
22260
  8
01
 10
1742.416213688686
 20
-694.69482985259538
 30
0.0
 11
1742.887649235561
 21
-694.91332045318131
 31
0.0
  0
LINE
  5
22261
  8
01
 10
1742.887649235561
 20
-694.91332045318131
 30
0.0
 11
1743.378860173061
 21
-695.26921644927495
 31
0.0
  0
LINE
  5
22262
  8
01
 10
1743.378860173061
 20
-695.26921644927495
 30
0.0
 11
1743.892776188686
 21
-695.75066939116959
 31
0.0
  0
LINE
  5
22263
  8
01
 10
1743.892776188686
 20
-695.75066939116959
 30
0.0
 11
1744.421828923061
 21
-696.35090437652116
 31
0.0
  0
LINE
  5
22264
  8
01
 10
1744.421828923061
 20
-696.35090437652116
 30
0.0
 11
1744.950576481654
 21
-697.06367293120854
 31
0.0
  0
LINE
  5
22265
  8
01
 10
1744.950576481654
 20
-697.06367293120854
 30
0.0
 11
1745.461074528529
 21
-697.88472548247807
 31
0.0
  0
LINE
  5
22266
  8
01
 10
1745.461074528529
 20
-697.88472548247807
 30
0.0
 11
1745.932388005092
 21
-698.80938521148209
 31
0.0
  0
LINE
  5
22267
  8
01
 10
1745.932388005092
 20
-698.80938521148209
 30
0.0
 11
1746.340713200404
 21
-699.83198347808354
 31
0.0
  0
LINE
  5
22268
  8
01
 10
1746.340713200404
 20
-699.83198347808354
 30
0.0
 11
1746.660354313686
 21
-700.94176283599381
 31
0.0
  0
LINE
  5
22269
  8
01
 10
1746.660354313686
 20
-700.94176283599381
 30
0.0
 11
1746.867019352748
 21
-702.11906996489995
 31
0.0
  0
LINE
  5
2226A
  8
01
 10
1746.867019352748
 20
-702.11906996489995
 30
0.0
 11
1746.941238102748
 21
-703.37196150542729
 31
0.0
  0
LINE
  5
2226B
  8
01
 10
1731.511794743373
 20
-687.50390425445084
 30
0.0
 11
1729.417007145717
 21
-686.87898817779069
 31
0.0
  0
LINE
  5
2226C
  8
01
 10
1729.417007145717
 20
-686.87898817779069
 30
0.0
 11
1727.212478337123
 21
-686.2615107607985
 31
0.0
  0
LINE
  5
2226D
  8
01
 10
1727.212478337123
 20
-686.2615107607985
 30
0.0
 11
1724.863357243373
 21
-685.64748945952886
 31
0.0
  0
LINE
  5
2226E
  8
01
 10
1724.863357243373
 20
-685.64748945952886
 30
0.0
 11
1722.375075993373
 21
-685.04501143218511
 31
0.0
  0
LINE
  5
2226F
  8
01
 10
1722.375075993373
 20
-685.04501143218511
 30
0.0
 11
1719.7530667160299
 21
-684.46215620757584
 31
0.0
  0
LINE
  5
22270
  8
01
 10
1719.7530667160299
 20
-684.46215620757584
 30
0.0
 11
1717.003493962123
 21
-683.90700331450944
 31
0.0
  0
LINE
  5
22271
  8
01
 10
1717.003493962123
 20
-683.90700331450944
 30
0.0
 11
1714.133620915248
 21
-683.38766279937272
 31
0.0
  0
LINE
  5
22272
  8
01
 10
1714.133620915248
 20
-683.38766279937272
 30
0.0
 11
1711.152602848842
 21
-682.9122218203687
 31
0.0
  0
LINE
  5
22273
  8
01
 10
1711.152602848842
 20
-682.9122218203687
 30
0.0
 11
1708.070510563686
 21
-682.48869887114995
 31
0.0
  0
LINE
  5
22274
  8
01
 10
1708.070510563686
 20
-682.48869887114995
 30
0.0
 11
1704.899673161342
 21
-682.12457838775163
 31
0.0
  0
LINE
  5
22275
  8
01
 10
1704.899673161342
 20
-682.12457838775163
 30
0.0
 11
1701.6546780441549
 21
-681.82623091460709
 31
0.0
  0
LINE
  5
22276
  8
01
 10
1701.6546780441549
 20
-681.82623091460709
 30
0.0
 11
1698.351394352748
 21
-681.59800520659928
 31
0.0
  0
LINE
  5
22277
  8
01
 10
1698.351394352748
 20
-681.59800520659928
 30
0.0
 11
1695.006545719936
 21
-681.44111433745854
 31
0.0
  0
LINE
  5
22278
  8
01
 10
1695.006545719936
 20
-681.44111433745854
 30
0.0
 11
1691.6358792160299
 21
-681.35241499663834
 31
0.0
  0
LINE
  5
22279
  8
01
 10
1691.6358792160299
 20
-681.35241499663834
 30
0.0
 11
1688.252395329311
 21
-681.32280531646256
 31
0.0
  0
LINE
  5
2227A
  8
01
 10
1688.252395329311
 20
-681.32280531646256
 30
0.0
 11
1684.864516911342
 21
-681.33679762603276
 31
0.0
  0
LINE
  5
2227B
  8
01
 10
1684.864516911342
 20
-681.33679762603276
 30
0.0
 11
1681.4759690299211
 21
-681.37173637970079
 31
0.0
  0
LINE
  5
2227C
  8
01
 10
1681.4759690299211
 20
-681.37173637970079
 30
0.0
 11
1681.476333317592
 21
-725.37219038726334
 31
0.0
  0
LINE
  5
2227D
  8
01
 10
1681.476333317592
 20
-725.37219038726334
 30
0.0
 11
1684.864516911342
 21
-725.4071291995192
 31
0.0
  0
LINE
  5
2227E
  8
01
 10
1684.864516911342
 20
-725.4071291995192
 30
0.0
 11
1688.252395329311
 21
-725.42112150908952
 31
0.0
  0
LINE
  5
2227F
  8
01
 10
1688.252395329311
 20
-725.42112150908952
 30
0.0
 11
1691.6358792160299
 21
-725.391515643611
 31
0.0
  0
LINE
  5
22280
  8
01
 10
1691.6358792160299
 20
-725.391515643611
 30
0.0
 11
1695.006545719936
 21
-725.30281248809342
 31
0.0
  0
LINE
  5
22281
  8
01
 10
1695.006545719936
 20
-725.30281248809342
 30
0.0
 11
1698.351394352748
 21
-725.14591780425553
 31
0.0
  0
LINE
  5
22282
  8
01
 10
1698.351394352748
 20
-725.14591780425553
 30
0.0
 11
1701.6546780441549
 21
-724.91769972564225
 31
0.0
  0
LINE
  5
22283
  8
01
 10
1701.6546780441549
 20
-724.91769972564225
 30
0.0
 11
1704.899673161342
 21
-724.61934843780045
 31
0.0
  0
LINE
  5
22284
  8
01
 10
1704.899673161342
 20
-724.61934843780045
 30
0.0
 11
1708.070510563686
 21
-724.25522795440202
 31
0.0
  0
LINE
  5
22285
  8
01
 10
1708.070510563686
 20
-724.25522795440202
 30
0.0
 11
1711.152602848842
 21
-723.83170500518327
 31
0.0
  0
LINE
  5
22286
  8
01
 10
1711.152602848842
 20
-723.83170500518327
 30
0.0
 11
1714.133620915248
 21
-723.35626402617925
 31
0.0
  0
LINE
  5
22287
  8
01
 10
1714.133620915248
 20
-723.35626402617925
 30
0.0
 11
1717.003493962123
 21
-722.83692732573991
 31
0.0
  0
LINE
  5
22288
  8
01
 10
1717.003493962123
 20
-722.83692732573991
 30
0.0
 11
1719.7530667160299
 21
-722.28177061797624
 31
0.0
  0
LINE
  5
22289
  8
01
 10
1719.7530667160299
 20
-722.28177061797624
 30
0.0
 11
1722.375075993373
 21
-721.69891157866948
 31
0.0
  0
LINE
  5
2228A
  8
01
 10
1722.375075993373
 20
-721.69891157866948
 30
0.0
 11
1724.863357243373
 21
-721.09643736602311
 31
0.0
  0
LINE
  5
2228B
  8
01
 10
1724.863357243373
 20
-721.09643736602311
 30
0.0
 11
1727.212478337123
 21
-720.4824122500562
 31
0.0
  0
LINE
  5
2228C
  8
01
 10
1727.212478337123
 20
-720.4824122500562
 30
0.0
 11
1729.417007145717
 21
-719.86493483306413
 31
0.0
  0
LINE
  5
2228D
  8
01
 10
1729.417007145717
 20
-719.86493483306413
 30
0.0
 11
1731.511794743373
 21
-719.24001875640386
 31
0.0
  0
LINE
  5
2228E
  8
01
 10
1731.511794743373
 20
-719.24001875640386
 30
0.0
 11
1733.313735661342
 21
-718.67069807769303
 31
0.0
  0
LINE
  5
2228F
  8
01
 10
1733.313735661342
 20
-718.67069807769303
 30
0.0
 11
1734.971938786342
 21
-718.11911192656987
 31
0.0
  0
LINE
  5
22290
  8
01
 10
1734.971938786342
 20
-718.11911192656987
 30
0.0
 11
1736.482680973842
 21
-717.59299269439225
 31
0.0
  0
LINE
  5
22291
  8
01
 10
1736.482680973842
 20
-717.59299269439225
 30
0.0
 11
1737.842788395717
 21
-717.09967222930425
 31
0.0
  0
LINE
  5
22292
  8
01
 10
1737.842788395717
 20
-717.09967222930425
 30
0.0
 11
1739.051162419154
 21
-716.64522734405045
 31
0.0
  0
LINE
  5
22293
  8
01
 10
1739.051162419154
 20
-716.64522734405045
 30
0.0
 11
1740.107497868373
 21
-716.23485747100347
 31
0.0
  0
LINE
  5
22294
  8
01
 10
1740.107497868373
 20
-716.23485747100347
 30
0.0
 11
1741.012466130092
 21
-715.87301054717545
 31
0.0
  0
LINE
  5
22295
  8
01
 10
1741.012466130092
 20
-715.87301054717545
 30
0.0
 11
1741.770278630092
 21
-715.56191054107194
 31
0.0
  0
LINE
  5
22296
  8
01
 10
1741.770278630092
 20
-715.56191054107194
 30
0.0
 11
1742.387405094936
 21
-715.30247298003667
 31
0.0
  0
LINE
  5
22297
  8
01
 10
1742.387405094936
 20
-715.30247298003667
 30
0.0
 11
1742.871291813686
 21
-715.09498015166764
 31
0.0
  0
LINE
  5
22298
  8
01
 10
1742.871291813686
 20
-715.09498015166764
 30
0.0
 11
1743.233474430873
 21
-714.93671980620854
 31
0.0
  0
LINE
  5
22299
  8
01
 10
1743.233474430873
 20
-714.93671980620854
 30
0.0
 11
1743.488845524623
 21
-714.82280531646256
 31
0.0
  0
LINE
  5
2229A
  8
01
 10
1743.488845524623
 20
-714.82280531646256
 30
0.0
 11
1743.652053532436
 21
-714.74923506499772
 31
0.0
  0
LINE
  5
2229B
  8
01
 10
1743.652053532436
 20
-714.74923506499772
 30
0.0
 11
1743.741531071498
 21
-714.70882216216569
 31
0.0
  0
LINE
  5
2229C
  8
01
 10
1743.741531071498
 20
-714.70882216216569
 30
0.0
 11
1743.778640446498
 21
-714.69245711089604
 31
0.0
  0
LINE
  5
2229D
  8
01
 10
1731.511794743373
 20
-687.50390425445084
 30
0.0
 11
1733.313735661342
 21
-688.07323256255631
 31
0.0
  0
LINE
  5
2229E
  8
01
 10
1733.313735661342
 20
-688.07323256255631
 30
0.0
 11
1734.971938786342
 21
-688.62481489898209
 31
0.0
  0
LINE
  5
2229F
  8
01
 10
1734.971938786342
 20
-688.62481489898209
 30
0.0
 11
1736.482680973842
 21
-689.15093031646245
 31
0.0
  0
LINE
  5
222A0
  8
01
 10
1736.482680973842
 20
-689.15093031646245
 30
0.0
 11
1737.842788395717
 21
-689.64425459624772
 31
0.0
  0
LINE
  5
222A1
  8
01
 10
1737.842788395717
 20
-689.64425459624772
 30
0.0
 11
1739.051162419154
 21
-690.09869948150163
 31
0.0
  0
LINE
  5
222A2
  8
01
 10
1739.051162419154
 20
-690.09869948150163
 30
0.0
 11
1740.107497868373
 21
-690.5090693545485
 31
0.0
  0
LINE
  5
222A3
  8
01
 10
1740.107497868373
 20
-690.5090693545485
 30
0.0
 11
1741.012466130092
 21
-690.87091627837663
 31
0.0
  0
LINE
  5
222A4
  8
01
 10
1741.012466130092
 20
-690.87091627837663
 30
0.0
 11
1741.770278630092
 21
-691.18201246978276
 31
0.0
  0
LINE
  5
222A5
  8
01
 10
1741.770278630092
 20
-691.18201246978276
 30
0.0
 11
1742.387405094936
 21
-691.44145003081803
 31
0.0
  0
LINE
  5
222A6
  8
01
 10
1742.387405094936
 20
-691.44145003081803
 30
0.0
 11
1742.871291813686
 21
-691.64894667388444
 31
0.0
  0
LINE
  5
222A7
  8
01
 10
1742.871291813686
 20
-691.64894667388444
 30
0.0
 11
1743.233474430873
 21
-691.80720320464604
 31
0.0
  0
LINE
  5
222A8
  8
01
 10
1743.233474430873
 20
-691.80720320464604
 30
0.0
 11
1743.488845524623
 21
-691.92112532378667
 31
0.0
  0
LINE
  5
222A9
  8
01
 10
1743.488845524623
 20
-691.92112532378667
 30
0.0
 11
1743.652053532436
 21
-691.99468794585709
 31
0.0
  0
LINE
  5
222AA
  8
01
 10
1743.652053532436
 20
-691.99468794585709
 30
0.0
 11
1743.741531071498
 21
-692.03510084868913
 31
0.0
  0
LINE
  5
222AB
  8
01
 10
1743.741531071498
 20
-692.03510084868913
 30
0.0
 11
1743.778640446498
 21
-692.05146589995854
 31
0.0
  0
LINE
  5
222AC
  8
01
 10
1743.778884587123
 20
-692.0517939639235
 30
0.0
 11
1743.775344548061
 21
-692.04537764312272
 31
0.0
  0
LINE
  5
222AD
  8
01
 10
1743.775344548061
 20
-692.04537764312272
 30
0.0
 11
1743.783401188686
 21
-692.05183211089616
 31
0.0
  0
LINE
  5
222AE
  8
01
 10
1743.778884587123
 20
-714.69213667632584
 30
0.0
 11
1743.775344548061
 21
-714.69854536773209
 31
0.0
  0
LINE
  5
222AF
  8
01
 10
1743.775344548061
 20
-714.69854536773209
 30
0.0
 11
1743.783401188686
 21
-714.69209089995854
 31
0.0
  0
LINE
  5
222B0
  8
01
 10
1602.84063607391
 20
-687.50390425425303
 30
0.0
 11
1604.935423671566
 21
-686.87898817759287
 31
0.0
  0
LINE
  5
222B1
  8
01
 10
1604.935423671566
 20
-686.87898817759287
 30
0.0
 11
1607.13995248016
 21
-686.26151076060057
 31
0.0
  0
LINE
  5
222B2
  8
01
 10
1607.13995248016
 20
-686.26151076060057
 30
0.0
 11
1609.48907357391
 21
-685.64748945933115
 31
0.0
  0
LINE
  5
222B3
  8
01
 10
1609.48907357391
 20
-685.64748945933115
 30
0.0
 11
1611.97735482391
 21
-685.04501143198729
 31
0.0
  0
LINE
  5
222B4
  8
01
 10
1611.97735482391
 20
-685.04501143198729
 30
0.0
 11
1614.599364101254
 21
-684.46215620737803
 31
0.0
  0
LINE
  5
222B5
  8
01
 10
1614.599364101254
 20
-684.46215620737803
 30
0.0
 11
1617.34893685516
 21
-683.90700331431162
 31
0.0
  0
LINE
  5
222B6
  8
01
 10
1617.34893685516
 20
-683.90700331431162
 30
0.0
 11
1620.218809902035
 21
-683.3876627991749
 31
0.0
  0
LINE
  5
222B7
  8
01
 10
1620.218809902035
 20
-683.3876627991749
 30
0.0
 11
1623.199827968441
 21
-682.91222182017088
 31
0.0
  0
LINE
  5
222B8
  8
01
 10
1623.199827968441
 20
-682.91222182017088
 30
0.0
 11
1626.281920253597
 21
-682.48869887095225
 31
0.0
  0
LINE
  5
222B9
  8
01
 10
1626.281920253597
 20
-682.48869887095225
 30
0.0
 11
1629.452757655941
 21
-682.12457838755381
 31
0.0
  0
LINE
  5
222BA
  8
01
 10
1629.452757655941
 20
-682.12457838755381
 30
0.0
 11
1632.697752773129
 21
-681.82623091440928
 31
0.0
  0
LINE
  5
222BB
  8
01
 10
1632.697752773129
 20
-681.82623091440928
 30
0.0
 11
1636.001036464535
 21
-681.59800520640147
 31
0.0
  0
LINE
  5
222BC
  8
01
 10
1636.001036464535
 20
-681.59800520640147
 30
0.0
 11
1639.3458850973479
 21
-681.44111433726084
 31
0.0
  0
LINE
  5
222BD
  8
01
 10
1639.3458850973479
 20
-681.44111433726084
 30
0.0
 11
1642.716551601254
 21
-681.35241499644053
 31
0.0
  0
LINE
  5
222BE
  8
01
 10
1642.716551601254
 20
-681.35241499644053
 30
0.0
 11
1646.100035487972
 21
-681.32280531626475
 31
0.0
  0
LINE
  5
222BF
  8
01
 10
1646.100035487972
 20
-681.32280531626475
 30
0.0
 11
1649.487913905941
 21
-681.33679762583495
 31
0.0
  0
LINE
  5
222C0
  8
01
 10
1649.487913905941
 20
-681.33679762583495
 30
0.0
 11
1652.876404598815
 21
-681.37173516047233
 31
0.0
  0
LINE
  5
222C1
  8
01
 10
1652.876404598815
 20
-681.37173516047233
 30
0.0
 11
1652.876158534847
 21
-725.37219038706553
 31
0.0
  0
LINE
  5
222C2
  8
01
 10
1652.876158534847
 20
-725.37219038706553
 30
0.0
 11
1649.487913905941
 21
-725.40712919932139
 31
0.0
  0
LINE
  5
222C3
  8
01
 10
1649.487913905941
 20
-725.40712919932139
 30
0.0
 11
1646.100035487972
 21
-725.4211215088917
 31
0.0
  0
LINE
  5
222C4
  8
01
 10
1646.100035487972
 20
-725.4211215088917
 30
0.0
 11
1642.716551601254
 21
-725.39151564341319
 31
0.0
  0
LINE
  5
222C5
  8
01
 10
1642.716551601254
 20
-725.39151564341319
 30
0.0
 11
1639.3458850973479
 21
-725.30281248789561
 31
0.0
  0
LINE
  5
222C6
  8
01
 10
1639.3458850973479
 20
-725.30281248789561
 30
0.0
 11
1636.001036464535
 21
-725.14591780405772
 31
0.0
  0
LINE
  5
222C7
  8
01
 10
1636.001036464535
 20
-725.14591780405772
 30
0.0
 11
1632.697752773129
 21
-724.91769972544444
 31
0.0
  0
LINE
  5
222C8
  8
01
 10
1632.697752773129
 20
-724.91769972544444
 30
0.0
 11
1629.452757655941
 21
-724.61934843760264
 31
0.0
  0
LINE
  5
222C9
  8
01
 10
1629.452757655941
 20
-724.61934843760264
 30
0.0
 11
1626.281920253597
 21
-724.25522795420409
 31
0.0
  0
LINE
  5
222CA
  8
01
 10
1626.281920253597
 20
-724.25522795420409
 30
0.0
 11
1623.199827968441
 21
-723.83170500498545
 31
0.0
  0
LINE
  5
222CB
  8
01
 10
1623.199827968441
 20
-723.83170500498545
 30
0.0
 11
1620.218809902035
 21
-723.35626402598155
 31
0.0
  0
LINE
  5
222CC
  8
01
 10
1620.218809902035
 20
-723.35626402598155
 30
0.0
 11
1617.34893685516
 21
-722.83692732554198
 31
0.0
  0
LINE
  5
222CD
  8
01
 10
1617.34893685516
 20
-722.83692732554198
 30
0.0
 11
1614.599364101254
 21
-722.28177061777842
 31
0.0
  0
LINE
  5
222CE
  8
01
 10
1614.599364101254
 20
-722.28177061777842
 30
0.0
 11
1611.97735482391
 21
-721.69891157847167
 31
0.0
  0
LINE
  5
222CF
  8
01
 10
1611.97735482391
 20
-721.69891157847167
 30
0.0
 11
1609.48907357391
 21
-721.0964373658253
 31
0.0
  0
LINE
  5
222D0
  8
01
 10
1609.48907357391
 20
-721.0964373658253
 30
0.0
 11
1607.13995248016
 21
-720.48241224985838
 31
0.0
  0
LINE
  5
222D1
  8
01
 10
1607.13995248016
 20
-720.48241224985838
 30
0.0
 11
1604.935423671566
 21
-719.86493483286631
 31
0.0
  0
LINE
  5
222D2
  8
01
 10
1604.935423671566
 20
-719.86493483286631
 30
0.0
 11
1602.84063607391
 21
-719.24001875620615
 31
0.0
  0
LINE
  5
222D3
  8
01
 10
1590.57354623016
 20
-692.05179396372569
 30
0.0
 11
1590.5770862692229
 21
-692.0453776429249
 31
0.0
  0
LINE
  5
222D4
  8
01
 10
1590.5770862692229
 20
-692.0453776429249
 30
0.0
 11
1590.568968593441
 21
-692.05183211069834
 31
0.0
  0
LINE
  5
222D5
  8
01
 10
1602.84063607391
 20
-687.50390425425303
 30
0.0
 11
1601.038695155941
 21
-688.0732325623585
 31
0.0
  0
LINE
  5
222D6
  8
01
 10
1601.038695155941
 20
-688.0732325623585
 30
0.0
 11
1599.380492030941
 21
-688.62481489878417
 31
0.0
  0
LINE
  5
222D7
  8
01
 10
1599.380492030941
 20
-688.62481489878417
 30
0.0
 11
1597.869749843441
 21
-689.15093031626475
 31
0.0
  0
LINE
  5
222D8
  8
01
 10
1597.869749843441
 20
-689.15093031626475
 30
0.0
 11
1596.509642421566
 21
-689.6442545960499
 31
0.0
  0
LINE
  5
222D9
  8
01
 10
1596.509642421566
 20
-689.6442545960499
 30
0.0
 11
1595.301268398129
 21
-690.09869948130381
 31
0.0
  0
LINE
  5
222DA
  8
01
 10
1595.301268398129
 20
-690.09869948130381
 30
0.0
 11
1594.24493294891
 21
-690.50906935435057
 31
0.0
  0
LINE
  5
222DB
  8
01
 10
1594.24493294891
 20
-690.50906935435057
 30
0.0
 11
1593.339964687191
 21
-690.87091627817881
 31
0.0
  0
LINE
  5
222DC
  8
01
 10
1593.339964687191
 20
-690.87091627817881
 30
0.0
 11
1592.582152187191
 21
-691.18201246958495
 31
0.0
  0
LINE
  5
222DD
  8
01
 10
1592.582152187191
 20
-691.18201246958495
 30
0.0
 11
1591.9650257223479
 21
-691.44145003062022
 31
0.0
  0
LINE
  5
222DE
  8
01
 10
1591.9650257223479
 20
-691.44145003062022
 30
0.0
 11
1591.4811390035979
 21
-691.64894667368662
 31
0.0
  0
LINE
  5
222DF
  8
01
 10
1591.4811390035979
 20
-691.64894667368662
 30
0.0
 11
1591.11895638641
 21
-691.80720320444834
 31
0.0
  0
LINE
  5
222E0
  8
01
 10
1591.11895638641
 20
-691.80720320444834
 30
0.0
 11
1590.86358529266
 21
-691.92112532358885
 31
0.0
  0
LINE
  5
222E1
  8
01
 10
1590.86358529266
 20
-691.92112532358885
 30
0.0
 11
1590.700377284847
 21
-691.99468794565928
 31
0.0
  0
LINE
  5
222E2
  8
01
 10
1590.700377284847
 20
-691.99468794565928
 30
0.0
 11
1590.610899745785
 21
-692.03510084849131
 31
0.0
  0
LINE
  5
222E3
  8
01
 10
1590.610899745785
 20
-692.03510084849131
 30
0.0
 11
1590.573790370785
 21
-692.05146589976084
 31
0.0
  0
LINE
  5
222E4
  8
01
 10
1590.57354623016
 20
-714.69213667612803
 30
0.0
 11
1590.5770862692229
 21
-714.69854536753417
 31
0.0
  0
LINE
  5
222E5
  8
01
 10
1590.5770862692229
 20
-714.69854536753417
 30
0.0
 11
1590.568968593441
 21
-714.69209089976084
 31
0.0
  0
LINE
  5
222E6
  8
01
 10
1602.84063607391
 20
-719.24001875620615
 30
0.0
 11
1601.038695155941
 21
-718.6706980774951
 31
0.0
  0
LINE
  5
222E7
  8
01
 10
1601.038695155941
 20
-718.6706980774951
 30
0.0
 11
1599.380492030941
 21
-718.11911192637206
 31
0.0
  0
LINE
  5
222E8
  8
01
 10
1599.380492030941
 20
-718.11911192637206
 30
0.0
 11
1597.869749843441
 21
-717.59299269419444
 31
0.0
  0
LINE
  5
222E9
  8
01
 10
1597.869749843441
 20
-717.59299269419444
 30
0.0
 11
1596.509642421566
 21
-717.09967222910655
 31
0.0
  0
LINE
  5
222EA
  8
01
 10
1596.509642421566
 20
-717.09967222910655
 30
0.0
 11
1595.301268398129
 21
-716.64522734385264
 31
0.0
  0
LINE
  5
222EB
  8
01
 10
1595.301268398129
 20
-716.64522734385264
 30
0.0
 11
1594.24493294891
 21
-716.23485747080565
 31
0.0
  0
LINE
  5
222EC
  8
01
 10
1594.24493294891
 20
-716.23485747080565
 30
0.0
 11
1593.339964687191
 21
-715.87301054697764
 31
0.0
  0
LINE
  5
222ED
  8
01
 10
1593.339964687191
 20
-715.87301054697764
 30
0.0
 11
1592.582152187191
 21
-715.56191054087412
 31
0.0
  0
LINE
  5
222EE
  8
01
 10
1592.582152187191
 20
-715.56191054087412
 30
0.0
 11
1591.9650257223479
 21
-715.30247297983885
 31
0.0
  0
LINE
  5
222EF
  8
01
 10
1591.9650257223479
 20
-715.30247297983885
 30
0.0
 11
1591.4811390035979
 21
-715.09498015146983
 31
0.0
  0
LINE
  5
222F0
  8
01
 10
1591.4811390035979
 20
-715.09498015146983
 30
0.0
 11
1591.11895638641
 21
-714.93671980601084
 31
0.0
  0
LINE
  5
222F1
  8
01
 10
1591.11895638641
 20
-714.93671980601084
 30
0.0
 11
1590.86358529266
 21
-714.82280531626475
 31
0.0
  0
LINE
  5
222F2
  8
01
 10
1590.86358529266
 20
-714.82280531626475
 30
0.0
 11
1590.700377284847
 21
-714.7492350647999
 31
0.0
  0
LINE
  5
222F3
  8
01
 10
1590.700377284847
 20
-714.7492350647999
 30
0.0
 11
1590.610899745785
 21
-714.70882216196787
 31
0.0
  0
LINE
  5
222F4
  8
01
 10
1590.610899745785
 20
-714.70882216196787
 30
0.0
 11
1590.573790370785
 21
-714.69245711069834
 31
0.0
  0
LINE
  5
222F5
  8
01
 10
1541.903557071882
 20
-686.80354872468388
 30
0.0
 11
1541.713409671979
 21
-686.82723036530876
 31
0.0
  0
LINE
  5
222F6
  8
01
 10
1541.713409671979
 20
-686.82723036530876
 30
0.0
 11
1541.431495914655
 21
-686.88277998689091
 31
0.0
  0
LINE
  5
222F7
  8
01
 10
1541.431495914655
 20
-686.88277998689091
 30
0.0
 11
1541.0240633585031
 21
-686.97617903474247
 31
0.0
  0
LINE
  5
222F8
  8
01
 10
1541.0240633585031
 20
-686.97617903474247
 30
0.0
 11
1540.4744799234441
 21
-687.11089888337528
 31
0.0
  0
LINE
  5
222F9
  8
01
 10
1540.4744799234441
 20
-687.11089888337528
 30
0.0
 11
1539.7759401895571
 21
-687.28779402497685
 31
0.0
  0
LINE
  5
222FA
  8
01
 10
1539.7759401895571
 20
-687.28779402497685
 30
0.0
 11
1538.9265139200261
 21
-687.50601759675419
 31
0.0
  0
LINE
  5
222FB
  8
01
 10
1538.9265139200261
 20
-687.50601759675419
 30
0.0
 11
1537.927368412214
 21
-687.76355543855095
 31
0.0
  0
LINE
  5
222FC
  8
01
 10
1537.927368412214
 20
-687.76355543855095
 30
0.0
 11
1536.782951603132
 21
-688.05714979890263
 31
0.0
  0
LINE
  5
222FD
  8
01
 10
1536.782951603132
 20
-688.05714979890263
 30
0.0
 11
1535.4981920816469
 21
-688.38325300935185
 31
0.0
  0
LINE
  5
222FE
  8
01
 10
1535.4981920816469
 20
-688.38325300935185
 30
0.0
 11
1534.0787279703191
 21
-688.73795119050419
 31
0.0
  0
LINE
  5
222FF
  8
01
 10
1534.0787279703191
 20
-688.73795119050419
 30
0.0
 11
1532.5309679605541
 21
-689.11694899323845
 31
0.0
  0
LINE
  5
22300
  8
01
 10
1532.5309679605541
 20
-689.11694899323845
 30
0.0
 11
1530.8612291910219
 21
-689.51592055085575
 31
0.0
  0
LINE
  5
22301
  8
01
 10
1530.8612291910219
 20
-689.51592055085575
 30
0.0
 11
1529.0756304361389
 21
-689.9305552554456
 31
0.0
  0
LINE
  5
22302
  8
01
 10
1529.0756304361389
 20
-689.9305552554456
 30
0.0
 11
1527.1798632242251
 21
-690.35664168122685
 31
0.0
  0
LINE
  5
22303
  8
01
 10
1527.1798632242251
 20
-690.35664168122685
 30
0.0
 11
1525.1795275308659
 21
-690.78999129060185
 31
0.0
  0
LINE
  5
22304
  8
01
 10
1525.1795275308659
 20
-690.78999129060185
 30
0.0
 11
1523.0801928140691
 21
-691.22645369294548
 31
0.0
  0
LINE
  5
22305
  8
01
 10
1523.0801928140691
 20
-691.22645369294548
 30
0.0
 11
1520.887001285749
 21
-691.66206160310185
 31
0.0
  0
LINE
  5
22306
  8
01
 10
1520.887001285749
 20
-691.66206160310185
 30
0.0
 11
1518.604957828717
 21
-692.09295454743767
 31
0.0
  0
LINE
  5
22307
  8
01
 10
1518.604957828717
 20
-692.09295454743767
 30
0.0
 11
1516.2390215494211
 21
-692.51533308747685
 31
0.0
  0
LINE
  5
22308
  8
01
 10
1516.2390215494211
 20
-692.51533308747685
 30
0.0
 11
1513.794288883405
 21
-692.92557326081669
 31
0.0
  0
LINE
  5
22309
  8
01
 10
1513.794288883405
 20
-692.92557326081669
 30
0.0
 11
1511.275871525007
 21
-693.320180804762
 31
0.0
  0
LINE
  5
2230A
  8
01
 10
1511.275871525007
 20
-693.320180804762
 30
0.0
 11
1508.6890490152409
 21
-693.69598189118767
 31
0.0
  0
LINE
  5
2230B
  8
01
 10
1508.6890490152409
 20
-693.69598189118767
 30
0.0
 11
1506.039116153913
 21
-694.04994765046513
 31
0.0
  0
LINE
  5
2230C
  8
01
 10
1506.039116153913
 20
-694.04994765046513
 30
0.0
 11
1503.3315661050849
 21
-694.37906447175419
 31
0.0
  0
LINE
  5
2230D
  8
01
 10
1503.3315661050849
 20
-694.37906447175419
 30
0.0
 11
1500.5489122964909
 21
-694.68314924958622
 31
0.0
  0
LINE
  5
2230E
  8
01
 10
1541.903557071882
 20
-719.94038191560185
 30
0.0
 11
1541.713409671979
 21
-719.91669646027947
 31
0.0
  0
LINE
  5
2230F
  8
01
 10
1541.713409671979
 20
-719.91669646027947
 30
0.0
 11
1541.431495914655
 21
-719.86114302400028
 31
0.0
  0
LINE
  5
22310
  8
01
 10
1541.431495914655
 20
-719.86114302400028
 30
0.0
 11
1541.0240633585031
 21
-719.76774779084599
 31
0.0
  0
LINE
  5
22311
  8
01
 10
1541.0240633585031
 20
-719.76774779084599
 30
0.0
 11
1540.4744799234441
 21
-719.63302794221318
 31
0.0
  0
LINE
  5
22312
  8
01
 10
1540.4744799234441
 20
-719.63302794221318
 30
0.0
 11
1539.7759401895571
 21
-719.45613661530876
 31
0.0
  0
LINE
  5
22313
  8
01
 10
1539.7759401895571
 20
-719.45613661530876
 30
0.0
 11
1538.9265139200261
 21
-719.23791304353153
 31
0.0
  0
LINE
  5
22314
  8
01
 10
1538.9265139200261
 20
-719.23791304353153
 30
0.0
 11
1537.927368412214
 21
-718.98037138703728
 31
0.0
  0
LINE
  5
22315
  8
01
 10
1537.927368412214
 20
-718.98037138703728
 30
0.0
 11
1536.782951603132
 21
-718.6867808413831
 31
0.0
  0
LINE
  5
22316
  8
01
 10
1536.782951603132
 20
-718.6867808413831
 30
0.0
 11
1535.4981920816469
 21
-718.36067381623661
 31
0.0
  0
LINE
  5
22317
  8
01
 10
1535.4981920816469
 20
-718.36067381623661
 30
0.0
 11
1534.0787279703191
 21
-718.00597944978153
 31
0.0
  0
LINE
  5
22318
  8
01
 10
1534.0787279703191
 20
-718.00597944978153
 30
0.0
 11
1532.5309679605541
 21
-717.62697783234989
 31
0.0
  0
LINE
  5
22319
  8
01
 10
1532.5309679605541
 20
-717.62697783234989
 30
0.0
 11
1530.8612291910219
 21
-717.22800246003544
 31
0.0
  0
LINE
  5
2231A
  8
01
 10
1530.8612291910219
 20
-717.22800246003544
 30
0.0
 11
1529.0756304361389
 21
-716.81337157014275
 31
0.0
  0
LINE
  5
2231B
  8
01
 10
1529.0756304361389
 20
-716.81337157014275
 30
0.0
 11
1527.1798632242251
 21
-716.38728895905888
 31
0.0
  0
LINE
  5
2231C
  8
01
 10
1527.1798632242251
 20
-716.38728895905888
 30
0.0
 11
1525.1795275308659
 21
-715.95393553498661
 31
0.0
  0
LINE
  5
2231D
  8
01
 10
1525.1795275308659
 20
-715.95393553498661
 30
0.0
 11
1523.0801928140691
 21
-715.51747313264275
 31
0.0
  0
LINE
  5
2231E
  8
01
 10
1523.0801928140691
 20
-715.51747313264275
 30
0.0
 11
1520.887001285749
 21
-715.08186522248661
 31
0.0
  0
LINE
  5
2231F
  8
01
 10
1520.887001285749
 20
-715.08186522248661
 30
0.0
 11
1518.604957828717
 21
-714.65097227815056
 31
0.0
  0
LINE
  5
22320
  8
01
 10
1518.604957828717
 20
-714.65097227815056
 30
0.0
 11
1516.2390215494211
 21
-714.22859373811161
 31
0.0
  0
LINE
  5
22321
  8
01
 10
1516.2390215494211
 20
-714.22859373811161
 30
0.0
 11
1513.794288883405
 21
-713.81835356477166
 31
0.0
  0
LINE
  5
22322
  8
01
 10
1513.794288883405
 20
-713.81835356477166
 30
0.0
 11
1511.275871525007
 21
-713.42374983552372
 31
0.0
  0
LINE
  5
22323
  8
01
 10
1511.275871525007
 20
-713.42374983552372
 30
0.0
 11
1508.6890490152409
 21
-713.0479411197033
 31
0.0
  0
LINE
  5
22324
  8
01
 10
1508.6890490152409
 20
-713.0479411197033
 30
0.0
 11
1506.039116153913
 21
-712.69397917512333
 31
0.0
  0
LINE
  5
22325
  8
01
 10
1506.039116153913
 20
-712.69397917512333
 30
0.0
 11
1503.3315661050849
 21
-712.364858539137
 31
0.0
  0
LINE
  5
22326
  8
01
 10
1503.3315661050849
 20
-712.364858539137
 30
0.0
 11
1500.5489122964909
 21
-712.06077757600224
 31
0.0
  0
LINE
  5
22327
  8
01
 10
1542.203850040632
 20
-687.00569716218376
 30
0.0
 11
1542.2277224161201
 21
-687.048452289137
 31
0.0
  0
LINE
  5
22328
  8
01
 10
1542.2277224161201
 20
-687.048452289137
 30
0.0
 11
1542.2774736978581
 21
-687.17229262116825
 31
0.0
  0
LINE
  5
22329
  8
01
 10
1542.2774736978581
 20
-687.17229262116825
 30
0.0
 11
1542.3464129068429
 21
-687.36124983552372
 31
0.0
  0
LINE
  5
2232A
  8
01
 10
1542.3464129068429
 20
-687.36124983552372
 30
0.0
 11
1542.450386295515
 21
-687.66678419831669
 31
0.0
  0
LINE
  5
2232B
  8
01
 10
1545.057609806257
 20
-703.37196150544548
 30
0.0
 11
1544.998741398053
 21
-701.13854017976189
 31
0.0
  0
LINE
  5
2232C
  8
01
 10
1544.998741398053
 20
-701.13854017976189
 30
0.0
 11
1544.8287890054751
 21
-698.91170302155876
 31
0.0
  0
LINE
  5
2232D
  8
01
 10
1544.8287890054751
 20
-698.91170302155876
 30
0.0
 11
1544.5578081705139
 21
-696.69628706696903
 31
0.0
  0
LINE
  5
2232E
  8
01
 10
1544.5578081705139
 20
-696.69628706696903
 30
0.0
 11
1544.1941683389709
 21
-694.49504652741825
 31
0.0
  0
LINE
  5
2232F
  8
01
 10
1544.1941683389709
 20
-694.49504652741825
 30
0.0
 11
1543.7404253580139
 21
-692.31046095612919
 31
0.0
  0
LINE
  5
22330
  8
01
 10
1543.7404253580139
 20
-692.31046095612919
 30
0.0
 11
1543.1964037515691
 21
-690.14632216218376
 31
0.0
  0
LINE
  5
22331
  8
01
 10
1543.1964037515691
 20
-690.14632216218376
 30
0.0
 11
1542.450386295515
 21
-687.66678419831669
 31
0.0
  0
LINE
  5
22332
  8
01
 10
1542.203850040632
 20
-719.73822584870732
 30
0.0
 11
1542.2277224161201
 21
-719.69547072175419
 31
0.0
  0
LINE
  5
22333
  8
01
 10
1542.2277224161201
 20
-719.69547072175419
 30
0.0
 11
1542.2774736978581
 21
-719.57163420442009
 31
0.0
  0
LINE
  5
22334
  8
01
 10
1542.2774736978581
 20
-719.57163420442009
 30
0.0
 11
1542.3464129068429
 21
-719.382680804762
 31
0.0
  0
LINE
  5
22335
  8
01
 10
1542.3464129068429
 20
-719.382680804762
 30
0.0
 11
1542.450386295515
 21
-719.07714262727177
 31
0.0
  0
LINE
  5
22336
  8
01
 10
1545.057609806257
 20
-703.37196150544548
 30
0.0
 11
1544.998741398053
 21
-705.60538283112908
 31
0.0
  0
LINE
  5
22337
  8
01
 10
1544.998741398053
 20
-705.60538283112908
 30
0.0
 11
1544.8287890054751
 21
-707.83221998933232
 31
0.0
  0
LINE
  5
22338
  8
01
 10
1544.8287890054751
 20
-707.83221998933232
 30
0.0
 11
1544.5578081705139
 21
-710.04764357331669
 31
0.0
  0
LINE
  5
22339
  8
01
 10
1544.5578081705139
 20
-710.04764357331669
 30
0.0
 11
1544.1941683389709
 21
-712.24888029817021
 31
0.0
  0
LINE
  5
2233A
  8
01
 10
1544.1941683389709
 20
-712.24888029817021
 30
0.0
 11
1543.7404253580139
 21
-714.43346586945916
 31
0.0
  0
LINE
  5
2233B
  8
01
 10
1543.7404253580139
 20
-714.43346586945916
 30
0.0
 11
1543.1964037515691
 21
-716.59760847810185
 31
0.0
  0
LINE
  5
2233C
  8
01
 10
1543.1964037515691
 20
-716.59760847810185
 30
0.0
 11
1542.450386295515
 21
-719.07714262727177
 31
0.0
  0
LINE
  5
2233D
  8
01
 10
1540.9252932169011
 20
-682.30359450105095
 30
0.0
 11
1540.9255144693429
 21
-682.30361738923455
 31
0.0
  0
LINE
  5
2233E
  8
01
 10
1540.9255144693429
 20
-682.30361738923455
 30
0.0
 11
1540.839569339948
 21
-682.17437544587517
 31
0.0
  0
LINE
  5
2233F
  8
01
 10
1540.839569339948
 20
-682.17437544587517
 30
0.0
 11
1540.664184818464
 21
-681.96064558747685
 31
0.0
  0
LINE
  5
22340
  8
01
 10
1540.664184818464
 20
-681.96064558747685
 30
0.0
 11
1540.3903124429751
 21
-681.71677199128544
 31
0.0
  0
LINE
  5
22341
  8
01
 10
1540.3903124429751
 20
-681.71677199128544
 30
0.0
 11
1540.0427858926821
 21
-681.51003065827763
 31
0.0
  0
LINE
  5
22342
  8
01
 10
1540.0427858926821
 20
-681.51003065827763
 30
0.0
 11
1539.6753542520571
 21
-681.38084212067986
 31
0.0
  0
LINE
  5
22343
  8
01
 10
1539.6753542520571
 20
-681.38084212067986
 30
0.0
 11
1539.355995426374
 21
-681.3292368960706
 31
0.0
  0
LINE
  5
22344
  8
01
 10
1539.355995426374
 20
-681.3292368960706
 30
0.0
 11
1539.11289239903
 21
-681.32399550202763
 31
0.0
  0
LINE
  5
22345
  8
01
 10
1539.11289239903
 20
-681.32399550202763
 30
0.0
 11
1538.9343950845771
 21
-681.33762923005486
 31
0.0
  0
LINE
  5
22346
  8
01
 10
1538.9343950845771
 20
-681.33762923005486
 30
0.0
 11
1538.7966311075261
 21
-681.35754194978153
 31
0.0
  0
LINE
  5
22347
  8
01
 10
1538.7966311075261
 20
-681.35754194978153
 30
0.0
 11
1538.681144962507
 21
-681.37969008210575
 31
0.0
  0
LINE
  5
22348
  8
01
 10
1538.681144962507
 20
-681.37969008210575
 30
0.0
 11
1538.575958500104
 21
-681.40348616364861
 31
0.0
  0
LINE
  5
22349
  8
01
 10
1538.575958500104
 20
-681.40348616364861
 30
0.0
 11
1538.473366031842
 21
-681.42913618806267
 31
0.0
  0
LINE
  5
2234A
  8
01
 10
1538.473366031842
 20
-681.42913618806267
 30
0.0
 11
1538.3685152627991
 21
-681.45729628327763
 31
0.0
  0
LINE
  5
2234B
  8
01
 10
1538.3685152627991
 20
-681.45729628327763
 30
0.0
 11
1538.257866153913
 21
-681.4885157656995
 31
0.0
  0
LINE
  5
2234C
  8
01
 10
1538.257866153913
 20
-681.4885157656995
 30
0.0
 11
1538.1391680337961
 21
-681.52326002839482
 31
0.0
  0
LINE
  5
2234D
  8
01
 10
1538.1391680337961
 20
-681.52326002839482
 30
0.0
 11
1538.0108721353581
 21
-681.56184950593388
 31
0.0
  0
LINE
  5
2234E
  8
01
 10
1538.0108721353581
 20
-681.56184950593388
 30
0.0
 11
1537.8716662027409
 21
-681.60458174470341
 31
0.0
  0
LINE
  5
2234F
  8
01
 10
1537.8716662027409
 20
-681.60458174470341
 30
0.0
 11
1537.7206652261791
 21
-681.65166273835575
 31
0.0
  0
LINE
  5
22350
  8
01
 10
1537.7206652261791
 20
-681.65166273835575
 30
0.0
 11
1537.557106266217
 21
-681.70324507478153
 31
0.0
  0
LINE
  5
22351
  8
01
 10
1537.557106266217
 20
-681.70324507478153
 30
0.0
 11
1537.3803484537179
 21
-681.75947371247685
 31
0.0
  0
LINE
  5
22352
  8
01
 10
1537.3803484537179
 20
-681.75947371247685
 30
0.0
 11
1537.1900179483459
 21
-681.82037916901982
 31
0.0
  0
LINE
  5
22353
  8
01
 10
1537.1900179483459
 20
-681.82037916901982
 30
0.0
 11
1536.9858400919011
 21
-681.88598433259403
 31
0.0
  0
LINE
  5
22354
  8
01
 10
1536.9858400919011
 20
-681.88598433259403
 30
0.0
 11
1536.7675325967839
 21
-681.95629683259403
 31
0.0
  0
LINE
  5
22355
  8
01
 10
1536.7675325967839
 20
-681.95629683259403
 30
0.0
 11
1536.5348513223701
 21
-682.03132429841435
 31
0.0
  0
LINE
  5
22356
  8
01
 10
1536.5348513223701
 20
-682.03132429841435
 30
0.0
 11
1536.2877123453191
 21
-682.11100569489872
 31
0.0
  0
LINE
  5
22357
  8
01
 10
1536.2877123453191
 20
-682.11100569489872
 30
0.0
 11
1536.026039371686
 21
-682.19528761628544
 31
0.0
  0
LINE
  5
22358
  8
01
 10
1536.026039371686
 20
-682.19528761628544
 30
0.0
 11
1535.7498858072331
 21
-682.28407850984013
 31
0.0
  0
LINE
  5
22359
  8
01
 10
1535.7498858072331
 20
-682.28407850984013
 30
0.0
 11
1535.4592516519599
 21
-682.3772868228283
 31
0.0
  0
LINE
  5
2235A
  8
01
 10
1535.4592516519599
 20
-682.3772868228283
 30
0.0
 11
1535.154213199811
 21
-682.47479811433232
 31
0.0
  0
LINE
  5
2235B
  8
01
 10
1535.154213199811
 20
-682.47479811433232
 30
0.0
 11
1534.8348467447331
 21
-682.57651320222294
 31
0.0
  0
LINE
  5
2235C
  8
01
 10
1534.8348467447331
 20
-682.57651320222294
 30
0.0
 11
1534.5012285806711
 21
-682.68231001618767
 31
0.0
  0
LINE
  5
2235D
  8
01
 10
1534.5012285806711
 20
-682.68231001618767
 30
0.0
 11
1534.1534502603581
 21
-682.79206648591435
 31
0.0
  0
LINE
  5
2235E
  8
01
 10
1534.1534502603581
 20
-682.79206648591435
 30
0.0
 11
1533.7916185953191
 21
-682.90566054109013
 31
0.0
  0
LINE
  5
2235F
  8
01
 10
1533.7916185953191
 20
-682.90566054109013
 30
0.0
 11
1533.4159472086001
 21
-683.02293959382439
 31
0.0
  0
LINE
  5
22360
  8
01
 10
1533.4159472086001
 20
-683.02293959382439
 30
0.0
 11
1533.0266192056711
 21
-683.1437663150158
 31
0.0
  0
LINE
  5
22361
  8
01
 10
1533.0266192056711
 20
-683.1437663150158
 30
0.0
 11
1532.6238634683659
 21
-683.26797285798455
 31
0.0
  0
LINE
  5
22362
  8
01
 10
1532.6238634683659
 20
-683.26797285798455
 30
0.0
 11
1532.2078783609441
 21
-683.39542189362908
 31
0.0
  0
LINE
  5
22363
  8
01
 10
1532.2078783609441
 20
-683.39542189362908
 30
0.0
 11
1531.7674639322331
 21
-683.52941694978153
 31
0.0
  0
LINE
  5
22364
  8
01
 10
1540.9252932169011
 20
-724.44033232453728
 30
0.0
 11
1540.9255144693429
 21
-724.44031325105107
 31
0.0
  0
LINE
  5
22365
  8
01
 10
1540.9255144693429
 20
-724.44031325105107
 30
0.0
 11
1540.839569339948
 21
-724.5695475650158
 31
0.0
  0
LINE
  5
22366
  8
01
 10
1540.839569339948
 20
-724.5695475650158
 30
0.0
 11
1540.664184818464
 21
-724.7832812381115
 31
0.0
  0
LINE
  5
22367
  8
01
 10
1540.664184818464
 20
-724.7832812381115
 30
0.0
 11
1540.3903124429751
 21
-725.02715483430302
 31
0.0
  0
LINE
  5
22368
  8
01
 10
1540.3903124429751
 20
-725.02715483430302
 30
0.0
 11
1540.0427858926821
 21
-725.23389235261345
 31
0.0
  0
LINE
  5
22369
  8
01
 10
1540.0427858926821
 20
-725.23389235261345
 30
0.0
 11
1539.6753542520571
 21
-725.36308470490849
 31
0.0
  0
LINE
  5
2236A
  8
01
 10
1539.6753542520571
 20
-725.36308470490849
 30
0.0
 11
1539.355995426374
 21
-725.41469374421501
 31
0.0
  0
LINE
  5
2236B
  8
01
 10
1539.355995426374
 20
-725.41469374421501
 30
0.0
 11
1539.11289239903
 21
-725.41993132356083
 31
0.0
  0
LINE
  5
2236C
  8
01
 10
1539.11289239903
 20
-725.41993132356083
 30
0.0
 11
1538.9343950845771
 21
-725.40629759553349
 31
0.0
  0
LINE
  5
2236D
  8
01
 10
1538.9343950845771
 20
-725.40629759553349
 30
0.0
 11
1538.7966311075261
 21
-725.38638106110955
 31
0.0
  0
LINE
  5
2236E
  8
01
 10
1538.7966311075261
 20
-725.38638106110955
 30
0.0
 11
1538.681144962507
 21
-725.36423292878544
 31
0.0
  0
LINE
  5
2236F
  8
01
 10
1538.681144962507
 20
-725.36423292878544
 30
0.0
 11
1538.575958500104
 21
-725.34044066193974
 31
0.0
  0
LINE
  5
22370
  8
01
 10
1538.575958500104
 20
-725.34044066193974
 30
0.0
 11
1538.473366031842
 21
-725.31479063752556
 31
0.0
  0
LINE
  5
22371
  8
01
 10
1538.473366031842
 20
-725.31479063752556
 30
0.0
 11
1538.3685152627991
 21
-725.28663054231083
 31
0.0
  0
LINE
  5
22372
  8
01
 10
1538.3685152627991
 20
-725.28663054231083
 30
0.0
 11
1538.257866153913
 21
-725.25540724519169
 31
0.0
  0
LINE
  5
22373
  8
01
 10
1538.257866153913
 20
-725.25540724519169
 30
0.0
 11
1538.1391680337961
 21
-725.22067061189091
 31
0.0
  0
LINE
  5
22374
  8
01
 10
1538.1391680337961
 20
-725.22067061189091
 30
0.0
 11
1538.0108721353581
 21
-725.18208113435185
 31
0.0
  0
LINE
  5
22375
  8
01
 10
1538.0108721353581
 20
-725.18208113435185
 30
0.0
 11
1537.8716662027409
 21
-725.13934508088505
 31
0.0
  0
LINE
  5
22376
  8
01
 10
1537.8716662027409
 20
-725.13934508088505
 30
0.0
 11
1537.7206652261791
 21
-725.09226408723259
 31
0.0
  0
LINE
  5
22377
  8
01
 10
1537.7206652261791
 20
-725.09226408723259
 30
0.0
 11
1537.557106266217
 21
-725.04067793610955
 31
0.0
  0
LINE
  5
22378
  8
01
 10
1537.557106266217
 20
-725.04067793610955
 30
0.0
 11
1537.3803484537179
 21
-724.98445311311161
 31
0.0
  0
LINE
  5
22379
  8
01
 10
1537.3803484537179
 20
-724.98445311311161
 30
0.0
 11
1537.1900179483459
 21
-724.92354384187138
 31
0.0
  0
LINE
  5
2237A
  8
01
 10
1537.1900179483459
 20
-724.92354384187138
 30
0.0
 11
1536.9858400919011
 21
-724.85794249299443
 31
0.0
  0
LINE
  5
2237B
  8
01
 10
1536.9858400919011
 20
-724.85794249299443
 30
0.0
 11
1536.7675325967839
 21
-724.78762617829705
 31
0.0
  0
LINE
  5
2237C
  8
01
 10
1536.7675325967839
 20
-724.78762617829705
 30
0.0
 11
1536.5348513223701
 21
-724.71260634187126
 31
0.0
  0
LINE
  5
2237D
  8
01
 10
1536.5348513223701
 20
-724.71260634187126
 30
0.0
 11
1536.2877123453191
 21
-724.63291731599236
 31
0.0
  0
LINE
  5
2237E
  8
01
 10
1536.2877123453191
 20
-724.63291731599236
 30
0.0
 11
1536.026039371686
 21
-724.54863539460575
 31
0.0
  0
LINE
  5
2237F
  8
01
 10
1536.026039371686
 20
-724.54863539460575
 30
0.0
 11
1535.7498858072331
 21
-724.45984450105095
 31
0.0
  0
LINE
  5
22380
  8
01
 10
1535.7498858072331
 20
-724.45984450105095
 30
0.0
 11
1535.4592516519599
 21
-724.36664000276005
 31
0.0
  0
LINE
  5
22381
  8
01
 10
1535.4592516519599
 20
-724.36664000276005
 30
0.0
 11
1535.154213199811
 21
-724.26912489655888
 31
0.0
  0
LINE
  5
22382
  8
01
 10
1535.154213199811
 20
-724.26912489655888
 30
0.0
 11
1534.8348467447331
 21
-724.16740980866825
 31
0.0
  0
LINE
  5
22383
  8
01
 10
1534.8348467447331
 20
-724.16740980866825
 30
0.0
 11
1534.5012285806711
 21
-724.06161680940068
 31
0.0
  0
LINE
  5
22384
  8
01
 10
1534.5012285806711
 20
-724.06161680940068
 30
0.0
 11
1534.1534502603581
 21
-723.951860339674
 31
0.0
  0
LINE
  5
22385
  8
01
 10
1534.1534502603581
 20
-723.951860339674
 30
0.0
 11
1533.7916185953191
 21
-723.83826628449833
 31
0.0
  0
LINE
  5
22386
  8
01
 10
1533.7916185953191
 20
-723.83826628449833
 30
0.0
 11
1533.4159472086001
 21
-723.72098341706658
 31
0.0
  0
LINE
  5
22387
  8
01
 10
1533.4159472086001
 20
-723.72098341706658
 30
0.0
 11
1533.0266192056711
 21
-723.60016051057255
 31
0.0
  0
LINE
  5
22388
  8
01
 10
1533.0266192056711
 20
-723.60016051057255
 30
0.0
 11
1532.6238634683659
 21
-723.4759539676038
 31
0.0
  0
LINE
  5
22389
  8
01
 10
1532.6238634683659
 20
-723.4759539676038
 30
0.0
 11
1532.2078783609441
 21
-723.34850493195916
 31
0.0
  0
LINE
  5
2238A
  8
01
 10
1532.2078783609441
 20
-723.34850493195916
 30
0.0
 11
1531.7674639322331
 21
-723.21451369050419
 31
0.0
  0
LINE
  5
2238B
  8
01
 10
1468.90000177403
 20
-719.37180128816044
 30
0.0
 11
1472.3855059244211
 21
-719.35132399323857
 31
0.0
  0
LINE
  5
2238C
  8
01
 10
1472.3855059244211
 20
-719.35132399323857
 30
0.0
 11
1475.8698809244211
 21
-719.31048765901005
 31
0.0
  0
LINE
  5
2238D
  8
01
 10
1475.8698809244211
 20
-719.31048765901005
 30
0.0
 11
1479.350548038678
 21
-719.26535979035771
 31
0.0
  0
LINE
  5
2238E
  8
01
 10
1479.350548038678
 20
-719.26535979035771
 30
0.0
 11
1482.823478946882
 21
-719.22743788484013
 31
0.0
  0
LINE
  5
2238F
  8
01
 10
1482.823478946882
 20
-719.22743788484013
 30
0.0
 11
1486.284096012311
 21
-719.20308485749626
 31
0.0
  0
LINE
  5
22390
  8
01
 10
1486.284096012311
 20
-719.20308485749626
 30
0.0
 11
1489.7281572916081
 21
-719.19547072175419
 31
0.0
  0
LINE
  5
22391
  8
01
 10
1489.7281572916081
 20
-719.19547072175419
 30
0.0
 11
1493.1534044839909
 21
-719.20578184846318
 31
0.0
  0
LINE
  5
22392
  8
01
 10
1493.1534044839909
 20
-719.20578184846318
 30
0.0
 11
1496.559547672467
 21
-719.23572722199833
 31
0.0
  0
LINE
  5
22393
  8
01
 10
1496.559547672467
 20
-719.23572722199833
 30
0.0
 11
1499.947014103132
 21
-719.28859511140263
 31
0.0
  0
LINE
  5
22394
  8
01
 10
1499.947014103132
 20
-719.28859511140263
 30
0.0
 11
1503.3158037759831
 21
-719.37147322419548
 31
0.0
  0
LINE
  5
22395
  8
01
 10
1503.3158037759831
 20
-719.37147322419548
 30
0.0
 11
1506.662834415632
 21
-719.49457731965447
 31
0.0
  0
LINE
  5
22396
  8
01
 10
1506.662834415632
 20
-719.49457731965447
 30
0.0
 11
1509.980766544538
 21
-719.67043486359978
 31
0.0
  0
LINE
  5
22397
  8
01
 10
1509.980766544538
 20
-719.67043486359978
 30
0.0
 11
1513.257362613874
 21
-719.91134825471306
 31
0.0
  0
LINE
  5
22398
  8
01
 10
1513.257362613874
 20
-719.91134825471306
 30
0.0
 11
1516.477394352155
 21
-720.22714033845341
 31
0.0
  0
LINE
  5
22399
  8
01
 10
1516.477394352155
 20
-720.22714033845341
 30
0.0
 11
1519.6258623697331
 21
-720.62392988923455
 31
0.0
  0
LINE
  5
2239A
  8
01
 10
1519.6258623697331
 20
-720.62392988923455
 30
0.0
 11
1522.69052911778
 21
-721.10491743806278
 31
0.0
  0
LINE
  5
2239B
  8
01
 10
1522.69052911778
 20
-721.10491743806278
 30
0.0
 11
1525.664100895124
 21
-721.67210188630486
 31
0.0
  0
LINE
  5
2239C
  8
01
 10
1525.664100895124
 20
-721.67210188630486
 30
0.0
 11
1528.54404474278
 21
-722.32911864045525
 31
0.0
  0
LINE
  5
2239D
  8
01
 10
1528.54404474278
 20
-722.32911864045525
 30
0.0
 11
1531.42475152989
 21
-723.1108531070081
 31
0.0
  0
LINE
  5
2239E
  8
01
 10
1468.90000177403
 20
-687.37212935212528
 30
0.0
 11
1472.3855059244211
 21
-687.39260664704705
 31
0.0
  0
LINE
  5
2239F
  8
01
 10
1472.3855059244211
 20
-687.39260664704705
 30
0.0
 11
1475.8698809244211
 21
-687.43343916657841
 31
0.0
  0
LINE
  5
223A0
  8
01
 10
1475.8698809244211
 20
-687.43343916657841
 30
0.0
 11
1479.350548038678
 21
-687.47856703523075
 31
0.0
  0
LINE
  5
223A1
  8
01
 10
1479.350548038678
 20
-687.47856703523075
 30
0.0
 11
1482.823478946882
 21
-687.5164927554456
 31
0.0
  0
LINE
  5
223A2
  8
01
 10
1482.823478946882
 20
-687.5164927554456
 30
0.0
 11
1486.284096012311
 21
-687.54084578278935
 31
0.0
  0
LINE
  5
223A3
  8
01
 10
1486.284096012311
 20
-687.54084578278935
 30
0.0
 11
1489.7281572916081
 21
-687.54845991853153
 31
0.0
  0
LINE
  5
223A4
  8
01
 10
1489.7281572916081
 20
-687.54845991853153
 30
0.0
 11
1493.1534044839909
 21
-687.53814497712528
 31
0.0
  0
LINE
  5
223A5
  8
01
 10
1493.1534044839909
 20
-687.53814497712528
 30
0.0
 11
1496.559547672467
 21
-687.50819960359013
 31
0.0
  0
LINE
  5
223A6
  8
01
 10
1496.559547672467
 20
-687.50819960359013
 30
0.0
 11
1499.947014103132
 21
-687.45533552888298
 31
0.0
  0
LINE
  5
223A7
  8
01
 10
1499.947014103132
 20
-687.45533552888298
 30
0.0
 11
1503.3158037759831
 21
-687.37244978669548
 31
0.0
  0
LINE
  5
223A8
  8
01
 10
1503.3158037759831
 20
-687.37244978669548
 30
0.0
 11
1506.662834415632
 21
-687.24934950593376
 31
0.0
  0
LINE
  5
223A9
  8
01
 10
1506.662834415632
 20
-687.24934950593376
 30
0.0
 11
1509.980766544538
 21
-687.07349196198845
 31
0.0
  0
LINE
  5
223AA
  8
01
 10
1509.980766544538
 20
-687.07349196198845
 30
0.0
 11
1513.257362613874
 21
-686.83257857087517
 31
0.0
  0
LINE
  5
223AB
  8
01
 10
1513.257362613874
 20
-686.83257857087517
 30
0.0
 11
1516.477394352155
 21
-686.51678267243778
 31
0.0
  0
LINE
  5
223AC
  8
01
 10
1516.477394352155
 20
-686.51678267243778
 30
0.0
 11
1519.6258623697331
 21
-686.12000075105095
 31
0.0
  0
LINE
  5
223AD
  8
01
 10
1519.6258623697331
 20
-686.12000075105095
 30
0.0
 11
1522.69052911778
 21
-685.63901320222294
 31
0.0
  0
LINE
  5
223AE
  8
01
 10
1522.69052911778
 20
-685.63901320222294
 30
0.0
 11
1525.664100895124
 21
-685.07182875398075
 31
0.0
  0
LINE
  5
223AF
  8
01
 10
1525.664100895124
 20
-685.07182875398075
 30
0.0
 11
1528.54404474278
 21
-684.41480818513298
 31
0.0
  0
LINE
  5
223B0
  8
01
 10
1528.54404474278
 20
-684.41480818513298
 30
0.0
 11
1531.42475152989
 21
-683.6330699038831
 31
0.0
  0
TEXT
  5
223B1
  8
1DIM
 10
1414.755603546874
 20
-673.24593651086332
 30
0.0
 40
3.5
  1
材質：天然木（ビーチ）
  0
TEXT
  5
223B2
  8
1DIM
 10
1414.755603546874
 20
-679.07926984419669
 30
0.0
 40
3.5
  1
仕上げ:各種仕上げ
  0
SOLID
  5
223B3
  8
1DIM
 10
1405.3891201818019
 20
-695.69661672962934
 30
0.0
 11
1404.276107129522
 21
-697.39140670380459
 31
0.0
 12
1404.7792957008651
 22
-695.42724979235879
 32
0.0
 13
1404.7792957008651
 23
-695.42724979235879
 33
0.0
  0
TEXT
  5
223B5
  8
1DIM
 10
1487.839366757514
 20
-669.75421042720461
 30
0.0
 40
3.5
  1
材質：亜鉛ダイキャスト
  0
TEXT
  5
223B6
  8
1DIM
 10
1487.839366757514
 20
-675.58754376053798
 30
0.0
 40
3.5
  1
仕上げ：クローム
  0
SOLID
  5
223B7
  8
1DIM
 10
1478.4449696263259
 20
-692.99770876800756
 30
0.0
 11
1477.3598703401619
 21
-694.71050491766357
 31
0.0
 12
1477.830814156915
 22
-692.73836825085459
 32
0.0
 13
1477.830814156915
 23
-692.73836825085459
 33
0.0
  0
TEXT
  5
223B9
  8
1DIM
 10
1551.4849500859459
 20
-671.71190791358845
 30
0.0
 40
3.5
  1
材質：ABS樹脂
  0
TEXT
  5
223BA
  8
1DIM
 10
1551.4849500859459
 20
-677.54524124692193
 30
0.0
 40
3.5
  1
仕上げ：各種仕上げ
  0
SOLID
  5
223BB
  8
1DIM
 10
1542.0905529547581
 20
-694.95540625439162
 30
0.0
 11
1541.0054536685941
 21
-696.66820240404763
 31
0.0
 12
1541.476397485347
 22
-694.69606573723854
 32
0.0
 13
1541.476397485347
 23
-694.69606573723854
 33
0.0
  0
LINE
  5
223BD
  8
1PHANTOM
 10
1728.5679318283339
 20
-691.12023726226334
 30
0.0
 11
1728.7183987472799
 21
-691.13940230132584
 31
0.0
  0
LINE
  5
223BE
  8
1PHANTOM
 10
1728.7183987472799
 20
-691.13940230132584
 30
0.0
 11
1728.8583218429831
 21
-691.19793501616948
 31
0.0
  0
LINE
  5
223BF
  8
1PHANTOM
 10
1728.8583218429831
 20
-691.19793501616948
 30
0.0
 11
1729.0121456955219
 21
-691.35583296538834
 31
0.0
  0
LINE
  5
223C0
  8
1PHANTOM
 10
1728.5679318283339
 20
-715.62365523101334
 30
0.0
 11
1728.7183987472799
 21
-715.60449019195084
 31
0.0
  0
LINE
  5
223C1
  8
1PHANTOM
 10
1728.7183987472799
 20
-715.60449019195084
 30
0.0
 11
1728.8583218429831
 21
-715.54595747710709
 31
0.0
  0
LINE
  5
223C2
  8
1PHANTOM
 10
1728.8583218429831
 20
-715.54595747710709
 30
0.0
 11
1729.0121456955219
 21
-715.38805952788834
 31
0.0
  0
LINE
  5
223C3
  8
1PHANTOM
 10
1729.0121456955219
 20
-715.38805952788834
 30
0.0
 11
1729.76184051974
 21
-713.78326216460709
 31
0.0
  0
LINE
  5
223C4
  8
1PHANTOM
 10
1729.76184051974
 20
-713.78326216460709
 30
0.0
 11
1730.4272305343891
 21
-712.14135542632584
 31
0.0
  0
LINE
  5
223C5
  8
1PHANTOM
 10
1730.4272305343891
 20
-712.14135542632584
 30
0.0
 11
1730.9976803634911
 21
-710.46429243804459
 31
0.0
  0
LINE
  5
223C6
  8
1PHANTOM
 10
1730.9976803634911
 20
-710.46429243804459
 30
0.0
 11
1731.461379704311
 21
-708.75488081695084
 31
0.0
  0
LINE
  5
223C7
  8
1PHANTOM
 10
1731.461379704311
 20
-708.75488081695084
 30
0.0
 11
1731.8066861007951
 21
-707.01763716460709
 31
0.0
  0
LINE
  5
223C8
  8
1PHANTOM
 10
1731.8066861007951
 20
-707.01763716460709
 30
0.0
 11
1732.0227047775529
 21
-705.25939741851334
 31
0.0
  0
LINE
  5
223C9
  8
1PHANTOM
 10
1732.0227047775529
 20
-705.25939741851334
 30
0.0
 11
1732.1023556564589
 21
-703.37194624663834
 31
0.0
  0
LINE
  5
223CA
  8
1PHANTOM
 10
1729.0121456955219
 20
-691.35583296538834
 30
0.0
 11
1729.7618557785299
 21
-692.96063032866948
 31
0.0
  0
LINE
  5
223CB
  8
1PHANTOM
 10
1729.7618557785299
 20
-692.96063032866948
 30
0.0
 11
1730.4272305343891
 21
-694.60253706695084
 31
0.0
  0
LINE
  5
223CC
  8
1PHANTOM
 10
1730.4272305343891
 20
-694.60253706695084
 30
0.0
 11
1730.9976803634911
 21
-696.27960005523198
 31
0.0
  0
LINE
  5
223CD
  8
1PHANTOM
 10
1730.9976803634911
 20
-696.27960005523198
 30
0.0
 11
1731.461379704311
 21
-697.98901167632584
 31
0.0
  0
LINE
  5
223CE
  8
1PHANTOM
 10
1731.461379704311
 20
-697.98901167632584
 30
0.0
 11
1731.8066861007951
 21
-699.72625532866948
 31
0.0
  0
LINE
  5
223CF
  8
1PHANTOM
 10
1731.8066861007951
 20
-699.72625532866948
 30
0.0
 11
1732.0227047775529
 21
-701.48449507476334
 31
0.0
  0
LINE
  5
223D0
  8
1PHANTOM
 10
1732.0227047775529
 20
-701.48449507476334
 30
0.0
 11
1732.1023556564589
 21
-703.37194624663834
 31
0.0
  0
LINE
  5
223D1
  8
1PHANTOM
 10
1727.328826603725
 20
-697.92846480132584
 30
0.0
 11
1727.5973965500141
 21
-699.12158003570084
 31
0.0
  0
LINE
  5
223D2
  8
1PHANTOM
 10
1727.5973965500141
 20
-699.12158003570084
 30
0.0
 11
1727.8034054611469
 21
-700.32751265288834
 31
0.0
  0
LINE
  5
223D3
  8
1PHANTOM
 10
1727.8034054611469
 20
-700.32751265288834
 30
0.0
 11
1727.942886051967
 21
-701.54314985991959
 31
0.0
  0
LINE
  5
223D4
  8
1PHANTOM
 10
1727.942886051967
 20
-701.54314985991959
 30
0.0
 11
1728.022170719936
 21
-703.37194624663834
 31
0.0
  0
LINE
  5
223D5
  8
1PHANTOM
 10
1724.6561734054831
 20
-691.15514937163834
 30
0.0
 11
1725.4224087570451
 21
-692.68157759429448
 31
0.0
  0
LINE
  5
223D6
  8
1PHANTOM
 10
1725.4224087570451
 20
-692.68157759429448
 30
0.0
 11
1726.1101681564589
 21
-694.24529829741948
 31
0.0
  0
LINE
  5
223D7
  8
1PHANTOM
 10
1726.1101681564589
 20
-694.24529829741948
 30
0.0
 11
1726.8350979660299
 21
-696.21972456695084
 31
0.0
  0
LINE
  5
223D8
  8
1PHANTOM
 10
1727.328826603725
 20
-708.81542769195084
 30
0.0
 11
1727.5973965500141
 21
-707.62231245757584
 31
0.0
  0
LINE
  5
223D9
  8
1PHANTOM
 10
1727.5973965500141
 20
-707.62231245757584
 30
0.0
 11
1727.8034054611469
 21
-706.41637984038834
 31
0.0
  0
LINE
  5
223DA
  8
1PHANTOM
 10
1727.8034054611469
 20
-706.41637984038834
 30
0.0
 11
1727.942886051967
 21
-705.20074263335698
 31
0.0
  0
LINE
  5
223DB
  8
1PHANTOM
 10
1727.942886051967
 20
-705.20074263335698
 30
0.0
 11
1728.022170719936
 21
-703.37194624663834
 31
0.0
  0
LINE
  5
223DC
  8
1PHANTOM
 10
1724.6561734054831
 20
-715.58874312163834
 30
0.0
 11
1725.4224087570451
 21
-714.06231489898209
 31
0.0
  0
LINE
  5
223DD
  8
1PHANTOM
 10
1725.4224087570451
 20
-714.06231489898209
 30
0.0
 11
1726.1101528976701
 21
-712.49859419585709
 31
0.0
  0
LINE
  5
223DE
  8
1PHANTOM
 10
1726.1101528976701
 20
-712.49859419585709
 30
0.0
 11
1726.8350979660299
 21
-710.52416792632584
 31
0.0
  0
LINE
  5
223DF
  8
1PHANTOM
 10
1728.596877751186
 20
-690.86431685210709
 30
0.0
 11
1728.7899472091931
 21
-690.84026900054459
 31
0.0
  0
LINE
  5
223E0
  8
1PHANTOM
 10
1728.7899472091931
 20
-690.84026900054459
 30
0.0
 11
1728.969680485561
 21
-690.76531782866959
 31
0.0
  0
LINE
  5
223E1
  8
1PHANTOM
 10
1728.969680485561
 20
-690.76531782866959
 30
0.0
 11
1729.1109768722799
 21
-690.63268843413834
 31
0.0
  0
LINE
  5
223E2
  8
1PHANTOM
 10
1729.1109768722799
 20
-690.63268843413834
 30
0.0
 11
1729.1749417160299
 21
-690.45055952788834
 31
0.0
  0
LINE
  5
223E3
  8
1PHANTOM
 10
1729.1749417160299
 20
-690.45055952788834
 30
0.0
 11
1729.122756657436
 21
-690.22167769195084
 31
0.0
  0
LINE
  5
223E4
  8
1PHANTOM
 10
1728.596877751186
 20
-715.87957564116959
 30
0.0
 11
1728.7899472091931
 21
-715.90362349273198
 31
0.0
  0
LINE
  5
223E5
  8
1PHANTOM
 10
1728.7899472091931
 20
-715.90362349273198
 30
0.0
 11
1728.969680485561
 21
-715.97857466460709
 31
0.0
  0
LINE
  5
223E6
  8
1PHANTOM
 10
1728.969680485561
 20
-715.97857466460709
 30
0.0
 11
1729.1109768722799
 21
-716.11120405913834
 31
0.0
  0
LINE
  5
223E7
  8
1PHANTOM
 10
1729.1109768722799
 20
-716.11120405913834
 30
0.0
 11
1729.1749417160299
 21
-716.29333296538834
 31
0.0
  0
LINE
  5
223E8
  8
1PHANTOM
 10
1729.1749417160299
 20
-716.29333296538834
 30
0.0
 11
1729.122756657436
 21
-716.52215376616959
 31
0.0
  0
LINE
  5
223E9
  8
1PHANTOM
 10
1686.4761807297009
 20
-714.49004927398209
 30
0.0
 11
1686.5179898117331
 21
-714.78252974273209
 31
0.0
  0
LINE
  5
223EA
  8
1PHANTOM
 10
1686.5179898117331
 20
-714.78252974273209
 30
0.0
 11
1686.6405178879049
 21
-715.05145064116948
 31
0.0
  0
LINE
  5
223EB
  8
1PHANTOM
 10
1686.6405178879049
 20
-715.05145064116948
 30
0.0
 11
1686.834335026577
 21
-715.27404585601334
 31
0.0
  0
LINE
  5
223EC
  8
1PHANTOM
 10
1686.834335026577
 20
-715.27404585601334
 30
0.0
 11
1687.084609684779
 21
-715.43090620757584
 31
0.0
  0
LINE
  5
223ED
  8
1PHANTOM
 10
1687.084609684779
 20
-715.43090620757584
 30
0.0
 11
1687.4674527023581
 21
-715.51257124663834
 31
0.0
  0
LINE
  5
223EE
  8
1PHANTOM
 10
1687.4674527023581
 20
-691.23138228179459
 30
0.0
 11
1687.175979313686
 21
-691.27850142241959
 31
0.0
  0
LINE
  5
223EF
  8
1PHANTOM
 10
1687.175979313686
 20
-691.27850142241959
 30
0.0
 11
1686.9115139816549
 21
-691.41015425445084
 31
0.0
  0
LINE
  5
223F0
  8
1PHANTOM
 10
1686.9115139816549
 20
-691.41015425445084
 30
0.0
 11
1686.6970669601701
 21
-691.61291304351334
 31
0.0
  0
LINE
  5
223F1
  8
1PHANTOM
 10
1686.6970669601701
 20
-691.61291304351334
 30
0.0
 11
1686.549819645717
 21
-691.86895552398198
 31
0.0
  0
LINE
  5
223F2
  8
1PHANTOM
 10
1686.549819645717
 20
-691.86895552398198
 30
0.0
 11
1686.4761807297009
 21
-692.25378218413834
 31
0.0
  0
LINE
  5
223F3
  8
1PHANTOM
 10
1681.476180729702
 20
-719.82452193023209
 30
0.0
 11
1683.6863247726701
 21
-719.86407271148198
 31
0.0
  0
LINE
  5
223F4
  8
1PHANTOM
 10
1683.6863247726701
 20
-719.86407271148198
 30
0.0
 11
1685.896499333217
 21
-719.90270796538834
 31
0.0
  0
LINE
  5
223F5
  8
1PHANTOM
 10
1685.896499333217
 20
-719.90270796538834
 30
0.0
 11
1688.106704411342
 21
-719.93853560210698
 31
0.0
  0
LINE
  5
223F6
  8
1PHANTOM
 10
1688.106704411342
 20
-719.93853560210698
 30
0.0
 11
1690.3169400070451
 21
-719.97234907866959
 31
0.0
  0
LINE
  5
223F7
  8
1PHANTOM
 10
1690.3169400070451
 20
-719.97234907866959
 30
0.0
 11
1692.5271450851701
 21
-720.00701704741948
 31
0.0
  0
LINE
  5
223F8
  8
1PHANTOM
 10
1692.5271450851701
 20
-720.00701704741948
 30
0.0
 11
1694.7372891281391
 21
-720.04656782866959
 31
0.0
  0
LINE
  5
223F9
  8
1PHANTOM
 10
1694.7372891281391
 20
-720.04656782866959
 30
0.0
 11
1696.9472500656391
 21
-720.09637251616948
 31
0.0
  0
LINE
  5
223FA
  8
1PHANTOM
 10
1696.9472500656391
 20
-720.09637251616948
 30
0.0
 11
1699.1567837570451
 21
-720.16131392241948
 31
0.0
  0
LINE
  5
223FB
  8
1PHANTOM
 10
1699.1567837570451
 20
-720.16131392241948
 30
0.0
 11
1701.3656155441549
 21
-720.24621382476334
 31
0.0
  0
LINE
  5
223FC
  8
1PHANTOM
 10
1701.3656155441549
 20
-720.24621382476334
 30
0.0
 11
1703.573501286342
 21
-720.35345259429459
 31
0.0
  0
LINE
  5
223FD
  8
1PHANTOM
 10
1703.573501286342
 20
-720.35345259429459
 30
0.0
 11
1705.780227360561
 21
-720.48260298491948
 31
0.0
  0
LINE
  5
223FE
  8
1PHANTOM
 10
1705.780227360561
 20
-720.48260298491948
 30
0.0
 11
1707.9858242843891
 21
-720.62957564116948
 31
0.0
  0
LINE
  5
223FF
  8
1PHANTOM
 10
1707.9858242843891
 20
-720.62957564116948
 30
0.0
 11
1710.190688786342
 21
-720.78716841460709
 31
0.0
  0
LINE
  5
22400
  8
1PHANTOM
 10
1710.190688786342
 20
-720.78716841460709
 30
0.0
 11
1712.395583805873
 21
-720.94457808257584
 31
0.0
  0
LINE
  5
22401
  8
1PHANTOM
 10
1712.395583805873
 20
-720.94457808257584
 30
0.0
 11
1714.6014248703259
 21
-721.08782759429448
 31
0.0
  0
LINE
  5
22402
  8
1PHANTOM
 10
1714.6014248703259
 20
-721.08782759429448
 30
0.0
 11
1716.8090664718891
 21
-721.20013228179459
 31
0.0
  0
LINE
  5
22403
  8
1PHANTOM
 10
1716.8090664718891
 20
-721.20013228179459
 30
0.0
 11
1719.0186611984509
 21
-721.26183882476334
 31
0.0
  0
LINE
  5
22404
  8
1PHANTOM
 10
1719.0186611984509
 20
-721.26183882476334
 30
0.0
 11
1721.2289273117331
 21
-721.24969282866959
 31
0.0
  0
LINE
  5
22405
  8
1PHANTOM
 10
1721.2289273117331
 20
-721.24969282866959
 30
0.0
 11
1723.4363247726701
 21
-721.13616743804448
 31
0.0
  0
LINE
  5
22406
  8
1PHANTOM
 10
1723.4363247726701
 20
-721.13616743804448
 30
0.0
 11
1725.66418426974
 21
-720.88043013335709
 31
0.0
  0
LINE
  5
22407
  8
1PHANTOM
 10
1681.476180729702
 20
-686.91937056304448
 30
0.0
 11
1683.6863247726701
 21
-686.87981978179448
 31
0.0
  0
LINE
  5
22408
  8
1PHANTOM
 10
1683.6863247726701
 20
-686.87981978179448
 30
0.0
 11
1685.896499333217
 21
-686.84118452788834
 31
0.0
  0
LINE
  5
22409
  8
1PHANTOM
 10
1685.896499333217
 20
-686.84118452788834
 30
0.0
 11
1688.106704411342
 21
-686.80535689116959
 31
0.0
  0
LINE
  5
2240A
  8
1PHANTOM
 10
1688.106704411342
 20
-686.80535689116959
 30
0.0
 11
1690.3169400070451
 21
-686.77154341460698
 31
0.0
  0
LINE
  5
2240B
  8
1PHANTOM
 10
1690.3169400070451
 20
-686.77154341460698
 30
0.0
 11
1692.5271450851701
 21
-686.73687544585709
 31
0.0
  0
LINE
  5
2240C
  8
1PHANTOM
 10
1692.5271450851701
 20
-686.73687544585709
 30
0.0
 11
1694.7372891281391
 21
-686.69732466460709
 31
0.0
  0
LINE
  5
2240D
  8
1PHANTOM
 10
1694.7372891281391
 20
-686.69732466460709
 30
0.0
 11
1696.9472500656391
 21
-686.64751997710709
 31
0.0
  0
LINE
  5
2240E
  8
1PHANTOM
 10
1696.9472500656391
 20
-686.64751997710709
 30
0.0
 11
1699.1567837570451
 21
-686.58257857085709
 31
0.0
  0
LINE
  5
2240F
  8
1PHANTOM
 10
1699.1567837570451
 20
-686.58257857085709
 30
0.0
 11
1701.3656155441549
 21
-686.49767866851334
 31
0.0
  0
LINE
  5
22410
  8
1PHANTOM
 10
1701.3656155441549
 20
-686.49767866851334
 30
0.0
 11
1703.573501286342
 21
-686.39037886382584
 31
0.0
  0
LINE
  5
22411
  8
1PHANTOM
 10
1703.573501286342
 20
-686.39037886382584
 30
0.0
 11
1705.780227360561
 21
-686.26128950835709
 31
0.0
  0
LINE
  5
22412
  8
1PHANTOM
 10
1705.780227360561
 20
-686.26128950835709
 30
0.0
 11
1707.9858242843891
 21
-686.11431685210709
 31
0.0
  0
LINE
  5
22413
  8
1PHANTOM
 10
1707.9858242843891
 20
-686.11431685210709
 30
0.0
 11
1710.190688786342
 21
-685.95672407866948
 31
0.0
  0
LINE
  5
22414
  8
1PHANTOM
 10
1710.190688786342
 20
-685.95672407866948
 30
0.0
 11
1712.395583805873
 21
-685.79931441070084
 31
0.0
  0
LINE
  5
22415
  8
1PHANTOM
 10
1712.395583805873
 20
-685.79931441070084
 30
0.0
 11
1714.6014248703259
 21
-685.65600386382584
 31
0.0
  0
LINE
  5
22416
  8
1PHANTOM
 10
1714.6014248703259
 20
-685.65600386382584
 30
0.0
 11
1716.8090664718891
 21
-685.54376021148209
 31
0.0
  0
LINE
  5
22417
  8
1PHANTOM
 10
1716.8090664718891
 20
-685.54376021148209
 30
0.0
 11
1719.0186611984509
 21
-685.48205366851334
 31
0.0
  0
LINE
  5
22418
  8
1PHANTOM
 10
1719.0186611984509
 20
-685.48205366851334
 30
0.0
 11
1721.2289273117331
 21
-685.49419966460698
 31
0.0
  0
LINE
  5
22419
  8
1PHANTOM
 10
1721.2289273117331
 20
-685.49419966460698
 30
0.0
 11
1723.4363247726701
 21
-685.60766402007584
 31
0.0
  0
LINE
  5
2241A
  8
1PHANTOM
 10
1723.4363247726701
 20
-685.60766402007584
 30
0.0
 11
1725.66418426974
 21
-685.86346235991948
 31
0.0
  0
LINE
  5
2241B
  8
1PHANTOM
 10
1725.66418426974
 20
-685.86346235991948
 30
0.0
 11
1726.0103909347799
 21
-685.94537153960709
 31
0.0
  0
LINE
  5
2241C
  8
1PHANTOM
 10
1726.0103909347799
 20
-685.94537153960709
 30
0.0
 11
1726.3389126632951
 21
-686.08196821929448
 31
0.0
  0
LINE
  5
2241D
  8
1PHANTOM
 10
1726.3389126632951
 20
-686.08196821929448
 30
0.0
 11
1726.6379391525529
 21
-686.27441206695084
 31
0.0
  0
LINE
  5
2241E
  8
1PHANTOM
 10
1726.6379391525529
 20
-686.27441206695084
 30
0.0
 11
1726.9468228195451
 21
-686.60357466460709
 31
0.0
  0
LINE
  5
2241F
  8
1PHANTOM
 10
1725.66418426974
 20
-720.88043013335709
 30
0.0
 11
1726.0103909347799
 21
-720.79852095366959
 31
0.0
  0
LINE
  5
22420
  8
1PHANTOM
 10
1726.0103909347799
 20
-720.79852095366959
 30
0.0
 11
1726.3389126632951
 21
-720.66192427398209
 31
0.0
  0
LINE
  5
22421
  8
1PHANTOM
 10
1726.3389126632951
 20
-720.66192427398209
 30
0.0
 11
1726.6379391525529
 21
-720.46948042632584
 31
0.0
  0
LINE
  5
22422
  8
1PHANTOM
 10
1726.6379391525529
 20
-720.46948042632584
 30
0.0
 11
1726.9468228195451
 21
-720.14031782866959
 31
0.0
  0
LINE
  5
22423
  8
1PHANTOM
 10
1605.2295730604701
 20
-690.22164550246259
 30
0.0
 11
1605.1767166151581
 21
-690.40810790480646
 31
0.0
  0
LINE
  5
22424
  8
1PHANTOM
 10
1605.1767166151581
 20
-690.40810790480646
 30
0.0
 11
1605.2196853651581
 21
-690.59597411574396
 31
0.0
  0
LINE
  5
22425
  8
1PHANTOM
 10
1605.2196853651581
 20
-690.59597411574396
 30
0.0
 11
1605.3472793592989
 21
-690.74142089308771
 31
0.0
  0
LINE
  5
22426
  8
1PHANTOM
 10
1605.3472793592989
 20
-690.74142089308771
 30
0.0
 11
1605.5214126600799
 21
-690.82845702590009
 31
0.0
  0
LINE
  5
22427
  8
1PHANTOM
 10
1605.5214126600799
 20
-690.82845702590009
 30
0.0
 11
1605.755451966721
 21
-690.86428466261896
 31
0.0
  0
LINE
  5
22428
  8
1PHANTOM
 10
1605.2295730604701
 20
-716.52212157668146
 30
0.0
 11
1605.176808167892
 21
-716.33584227980646
 31
0.0
  0
LINE
  5
22429
  8
1PHANTOM
 10
1605.176808167892
 20
-716.33584227980646
 30
0.0
 11
1605.219532777267
 21
-716.14779296340021
 31
0.0
  0
LINE
  5
2242A
  8
1PHANTOM
 10
1605.219532777267
 20
-716.14779296340021
 30
0.0
 11
1605.347218324142
 21
-716.00259032668146
 31
0.0
  0
LINE
  5
2242B
  8
1PHANTOM
 10
1605.347218324142
 20
-716.00259032668146
 30
0.0
 11
1605.5212600721891
 21
-715.91531005324396
 31
0.0
  0
LINE
  5
2242C
  8
1PHANTOM
 10
1605.5212600721891
 20
-715.91531005324396
 30
0.0
 11
1605.755451966721
 21
-715.87954345168146
 31
0.0
  0
LINE
  5
2242D
  8
1PHANTOM
 10
1647.8761489882049
 20
-714.49001708449396
 30
0.0
 11
1647.834339906173
 21
-714.78249755324396
 31
0.0
  0
LINE
  5
2242E
  8
1PHANTOM
 10
1647.834339906173
 20
-714.78249755324396
 30
0.0
 11
1647.7118118300009
 21
-715.05141845168146
 31
0.0
  0
LINE
  5
2242F
  8
1PHANTOM
 10
1647.7118118300009
 20
-715.05141845168146
 30
0.0
 11
1647.5179946913299
 21
-715.27401366652521
 31
0.0
  0
LINE
  5
22430
  8
1PHANTOM
 10
1647.5179946913299
 20
-715.27401366652521
 30
0.0
 11
1647.2677200331259
 21
-715.43087401808759
 31
0.0
  0
LINE
  5
22431
  8
1PHANTOM
 10
1647.2677200331259
 20
-715.43087401808759
 30
0.0
 11
1646.884877015548
 21
-715.51253905715021
 31
0.0
  0
LINE
  5
22432
  8
1PHANTOM
 10
1646.884877015548
 20
-691.23135009230646
 30
0.0
 11
1647.1763504042201
 21
-691.27846923293146
 31
0.0
  0
LINE
  5
22433
  8
1PHANTOM
 10
1647.1763504042201
 20
-691.27846923293146
 30
0.0
 11
1647.4408157362509
 21
-691.41012206496271
 31
0.0
  0
LINE
  5
22434
  8
1PHANTOM
 10
1647.4408157362509
 20
-691.41012206496271
 30
0.0
 11
1647.655262757736
 21
-691.61288085402521
 31
0.0
  0
LINE
  5
22435
  8
1PHANTOM
 10
1647.655262757736
 20
-691.61288085402521
 30
0.0
 11
1647.8025100721891
 21
-691.86892333449396
 31
0.0
  0
LINE
  5
22436
  8
1PHANTOM
 10
1647.8025100721891
 20
-691.86892333449396
 30
0.0
 11
1647.8761489882049
 21
-692.25374999465021
 31
0.0
  0
LINE
  5
22437
  8
1PHANTOM
 10
1652.8761489882049
 20
-719.82448974074396
 30
0.0
 11
1650.666004945236
 21
-719.86404052199396
 31
0.0
  0
LINE
  5
22438
  8
1PHANTOM
 10
1650.666004945236
 20
-719.86404052199396
 30
0.0
 11
1648.4558303846891
 21
-719.90267577590021
 31
0.0
  0
LINE
  5
22439
  8
1PHANTOM
 10
1648.4558303846891
 20
-719.90267577590021
 30
0.0
 11
1646.2456253065641
 21
-719.93850341261896
 31
0.0
  0
LINE
  5
2243A
  8
1PHANTOM
 10
1646.2456253065641
 20
-719.93850341261896
 30
0.0
 11
1644.035389710861
 21
-719.97231688918146
 31
0.0
  0
LINE
  5
2243B
  8
1PHANTOM
 10
1644.035389710861
 20
-719.97231688918146
 30
0.0
 11
1641.825184632736
 21
-720.00698485793146
 31
0.0
  0
LINE
  5
2243C
  8
1PHANTOM
 10
1641.825184632736
 20
-720.00698485793146
 30
0.0
 11
1639.615040589767
 21
-720.04653563918146
 31
0.0
  0
LINE
  5
2243D
  8
1PHANTOM
 10
1639.615040589767
 20
-720.04653563918146
 30
0.0
 11
1637.405079652267
 21
-720.09634032668146
 31
0.0
  0
LINE
  5
2243E
  8
1PHANTOM
 10
1637.405079652267
 20
-720.09634032668146
 30
0.0
 11
1635.195545960861
 21
-720.16128173293146
 31
0.0
  0
LINE
  5
2243F
  8
1PHANTOM
 10
1635.195545960861
 20
-720.16128173293146
 30
0.0
 11
1632.9867141737509
 21
-720.24618163527521
 31
0.0
  0
LINE
  5
22440
  8
1PHANTOM
 10
1632.9867141737509
 20
-720.24618163527521
 30
0.0
 11
1630.7788284315641
 21
-720.35342040480646
 31
0.0
  0
LINE
  5
22441
  8
1PHANTOM
 10
1630.7788284315641
 20
-720.35342040480646
 30
0.0
 11
1628.5721023573451
 21
-720.48257079543146
 31
0.0
  0
LINE
  5
22442
  8
1PHANTOM
 10
1628.5721023573451
 20
-720.48257079543146
 30
0.0
 11
1626.366505433517
 21
-720.62954345168146
 31
0.0
  0
LINE
  5
22443
  8
1PHANTOM
 10
1626.366505433517
 20
-720.62954345168146
 30
0.0
 11
1624.1616409315641
 21
-720.78713622511896
 31
0.0
  0
LINE
  5
22444
  8
1PHANTOM
 10
1624.1616409315641
 20
-720.78713622511896
 30
0.0
 11
1621.9567459120319
 21
-720.94454589308759
 31
0.0
  0
LINE
  5
22445
  8
1PHANTOM
 10
1621.9567459120319
 20
-720.94454589308759
 30
0.0
 11
1619.750904847579
 21
-721.08779540480646
 31
0.0
  0
LINE
  5
22446
  8
1PHANTOM
 10
1619.750904847579
 20
-721.08779540480646
 30
0.0
 11
1617.543263246017
 21
-721.20010009230646
 31
0.0
  0
LINE
  5
22447
  8
1PHANTOM
 10
1617.543263246017
 20
-721.20010009230646
 30
0.0
 11
1615.333668519454
 21
-721.26180663527521
 31
0.0
  0
LINE
  5
22448
  8
1PHANTOM
 10
1615.333668519454
 20
-721.26180663527521
 30
0.0
 11
1613.123402406173
 21
-721.24966063918146
 31
0.0
  0
LINE
  5
22449
  8
1PHANTOM
 10
1613.123402406173
 20
-721.24966063918146
 30
0.0
 11
1610.916004945236
 21
-721.13613524855646
 31
0.0
  0
LINE
  5
2244A
  8
1PHANTOM
 10
1610.916004945236
 20
-721.13613524855646
 30
0.0
 11
1608.688130189377
 21
-720.88039794386896
 31
0.0
  0
LINE
  5
2244B
  8
1PHANTOM
 10
1652.8761489882049
 20
-686.91933837355646
 30
0.0
 11
1650.666004945236
 21
-686.87978759230646
 31
0.0
  0
LINE
  5
2244C
  8
1PHANTOM
 10
1650.666004945236
 20
-686.87978759230646
 30
0.0
 11
1648.4558303846891
 21
-686.84115233840009
 31
0.0
  0
LINE
  5
2244D
  8
1PHANTOM
 10
1648.4558303846891
 20
-686.84115233840009
 30
0.0
 11
1646.2456253065641
 21
-686.80532470168146
 31
0.0
  0
LINE
  5
2244E
  8
1PHANTOM
 10
1646.2456253065641
 20
-686.80532470168146
 30
0.0
 11
1644.035389710861
 21
-686.77151122511896
 31
0.0
  0
LINE
  5
2244F
  8
1PHANTOM
 10
1644.035389710861
 20
-686.77151122511896
 30
0.0
 11
1641.825184632736
 21
-686.73684325636896
 31
0.0
  0
LINE
  5
22450
  8
1PHANTOM
 10
1641.825184632736
 20
-686.73684325636896
 30
0.0
 11
1639.615040589767
 21
-686.69729247511896
 31
0.0
  0
LINE
  5
22451
  8
1PHANTOM
 10
1639.615040589767
 20
-686.69729247511896
 30
0.0
 11
1637.405079652267
 21
-686.64748778761896
 31
0.0
  0
LINE
  5
22452
  8
1PHANTOM
 10
1637.405079652267
 20
-686.64748778761896
 30
0.0
 11
1635.195545960861
 21
-686.58254638136896
 31
0.0
  0
LINE
  5
22453
  8
1PHANTOM
 10
1635.195545960861
 20
-686.58254638136896
 30
0.0
 11
1632.9867141737509
 21
-686.49764647902521
 31
0.0
  0
LINE
  5
22454
  8
1PHANTOM
 10
1632.9867141737509
 20
-686.49764647902521
 30
0.0
 11
1630.7788284315641
 21
-686.39034667433759
 31
0.0
  0
LINE
  5
22455
  8
1PHANTOM
 10
1630.7788284315641
 20
-686.39034667433759
 30
0.0
 11
1628.5721023573451
 21
-686.26125731886896
 31
0.0
  0
LINE
  5
22456
  8
1PHANTOM
 10
1628.5721023573451
 20
-686.26125731886896
 30
0.0
 11
1626.366505433517
 21
-686.11428466261896
 31
0.0
  0
LINE
  5
22457
  8
1PHANTOM
 10
1626.366505433517
 20
-686.11428466261896
 30
0.0
 11
1624.1616409315641
 21
-685.95669188918146
 31
0.0
  0
LINE
  5
22458
  8
1PHANTOM
 10
1624.1616409315641
 20
-685.95669188918146
 30
0.0
 11
1621.9567459120319
 21
-685.79928222121271
 31
0.0
  0
LINE
  5
22459
  8
1PHANTOM
 10
1621.9567459120319
 20
-685.79928222121271
 30
0.0
 11
1619.750904847579
 21
-685.65597167433771
 31
0.0
  0
LINE
  5
2245A
  8
1PHANTOM
 10
1619.750904847579
 20
-685.65597167433771
 30
0.0
 11
1617.543263246017
 21
-685.54366698683759
 31
0.0
  0
LINE
  5
2245B
  8
1PHANTOM
 10
1617.543263246017
 20
-685.54366698683759
 30
0.0
 11
1615.333668519454
 21
-685.48202147902521
 31
0.0
  0
LINE
  5
2245C
  8
1PHANTOM
 10
1615.333668519454
 20
-685.48202147902521
 30
0.0
 11
1613.123402406173
 21
-685.49416747511896
 31
0.0
  0
LINE
  5
2245D
  8
1PHANTOM
 10
1613.123402406173
 20
-685.49416747511896
 30
0.0
 11
1610.916004945236
 21
-685.60763183058771
 31
0.0
  0
LINE
  5
2245E
  8
1PHANTOM
 10
1610.916004945236
 20
-685.60763183058771
 30
0.0
 11
1608.688130189377
 21
-685.86343017043146
 31
0.0
  0
LINE
  5
2245F
  8
1PHANTOM
 10
1608.688130189377
 20
-685.86343017043146
 30
0.0
 11
1608.341938783127
 21
-685.94527831496271
 31
0.0
  0
LINE
  5
22460
  8
1PHANTOM
 10
1608.341938783127
 20
-685.94527831496271
 30
0.0
 11
1608.013417054611
 21
-686.08193602980646
 31
0.0
  0
LINE
  5
22461
  8
1PHANTOM
 10
1608.013417054611
 20
-686.08193602980646
 30
0.0
 11
1607.714405824142
 21
-686.27437987746259
 31
0.0
  0
LINE
  5
22462
  8
1PHANTOM
 10
1607.714405824142
 20
-686.27437987746259
 30
0.0
 11
1607.405506898361
 21
-686.60348143996259
 31
0.0
  0
LINE
  5
22463
  8
1PHANTOM
 10
1608.688130189377
 20
-720.88039794386896
 30
0.0
 11
1608.341938783127
 21
-720.79848876418146
 31
0.0
  0
LINE
  5
22464
  8
1PHANTOM
 10
1608.341938783127
 20
-720.79848876418146
 30
0.0
 11
1608.013417054611
 21
-720.66189208449396
 31
0.0
  0
LINE
  5
22465
  8
1PHANTOM
 10
1608.013417054611
 20
-720.66189208449396
 30
0.0
 11
1607.714405824142
 21
-720.46944823683771
 31
0.0
  0
LINE
  5
22466
  8
1PHANTOM
 10
1607.714405824142
 20
-720.46944823683771
 30
0.0
 11
1607.405506898361
 21
-720.14028563918146
 31
0.0
  0
LINE
  5
22467
  8
1PHANTOM
 10
1605.784413148361
 20
-691.12020507277521
 30
0.0
 11
1605.633930970627
 21
-691.13937011183771
 31
0.0
  0
LINE
  5
22468
  8
1PHANTOM
 10
1605.633930970627
 20
-691.13937011183771
 30
0.0
 11
1605.4940078749239
 21
-691.19790282668146
 31
0.0
  0
LINE
  5
22469
  8
1PHANTOM
 10
1605.4940078749239
 20
-691.19790282668146
 30
0.0
 11
1605.340199281173
 21
-691.35580077590021
 31
0.0
  0
LINE
  5
2246A
  8
1PHANTOM
 10
1605.784413148361
 20
-715.62362304152521
 30
0.0
 11
1605.633930970627
 21
-715.60439696730646
 31
0.0
  0
LINE
  5
2246B
  8
1PHANTOM
 10
1605.633930970627
 20
-715.60439696730646
 30
0.0
 11
1605.4940078749239
 21
-715.54592528761896
 31
0.0
  0
LINE
  5
2246C
  8
1PHANTOM
 10
1605.4940078749239
 20
-715.54592528761896
 30
0.0
 11
1605.340199281173
 21
-715.38802733840021
 31
0.0
  0
LINE
  5
2246D
  8
1PHANTOM
 10
1605.340199281173
 20
-715.38802733840021
 30
0.0
 11
1604.590473939377
 21
-713.78322997511896
 31
0.0
  0
LINE
  5
2246E
  8
1PHANTOM
 10
1604.590473939377
 20
-713.78322997511896
 30
0.0
 11
1603.925099183517
 21
-712.14132323683771
 31
0.0
  0
LINE
  5
2246F
  8
1PHANTOM
 10
1603.925099183517
 20
-712.14132323683771
 30
0.0
 11
1603.354634095627
 21
-710.46426024855646
 31
0.0
  0
LINE
  5
22470
  8
1PHANTOM
 10
1603.354634095627
 20
-710.46426024855646
 30
0.0
 11
1602.8909500135951
 21
-708.75484862746271
 31
0.0
  0
LINE
  5
22471
  8
1PHANTOM
 10
1602.8909500135951
 20
-708.75484862746271
 30
0.0
 11
1602.545643617111
 21
-707.01760497511896
 31
0.0
  0
LINE
  5
22472
  8
1PHANTOM
 10
1602.545643617111
 20
-707.01760497511896
 30
0.0
 11
1602.3296096815641
 21
-705.25936522902509
 31
0.0
  0
LINE
  5
22473
  8
1PHANTOM
 10
1602.3296096815641
 20
-705.25936522902509
 30
0.0
 11
1602.2499588026581
 21
-703.37191405715021
 31
0.0
  0
LINE
  5
22474
  8
1PHANTOM
 10
1605.340199281173
 20
-691.35580077590021
 30
0.0
 11
1604.590473939377
 21
-692.96059813918146
 31
0.0
  0
LINE
  5
22475
  8
1PHANTOM
 10
1604.590473939377
 20
-692.96059813918146
 30
0.0
 11
1603.925099183517
 21
-694.60250487746271
 31
0.0
  0
LINE
  5
22476
  8
1PHANTOM
 10
1603.925099183517
 20
-694.60250487746271
 30
0.0
 11
1603.354634095627
 21
-696.27956786574396
 31
0.0
  0
LINE
  5
22477
  8
1PHANTOM
 10
1603.354634095627
 20
-696.27956786574396
 30
0.0
 11
1602.8909500135951
 21
-697.98897948683771
 31
0.0
  0
LINE
  5
22478
  8
1PHANTOM
 10
1602.8909500135951
 20
-697.98897948683771
 30
0.0
 11
1602.545643617111
 21
-699.72616210402521
 31
0.0
  0
LINE
  5
22479
  8
1PHANTOM
 10
1602.545643617111
 20
-699.72616210402521
 30
0.0
 11
1602.3296096815641
 21
-701.48446288527521
 31
0.0
  0
LINE
  5
2247A
  8
1PHANTOM
 10
1602.3296096815641
 20
-701.48446288527521
 30
0.0
 11
1602.2499588026581
 21
-703.37191405715021
 31
0.0
  0
LINE
  5
2247B
  8
1PHANTOM
 10
1607.023518372971
 20
-697.92843261183771
 30
0.0
 11
1606.754933167892
 21
-699.12154784621271
 31
0.0
  0
LINE
  5
2247C
  8
1PHANTOM
 10
1606.754933167892
 20
-699.12154784621271
 30
0.0
 11
1606.548908997971
 21
-700.32748046340021
 31
0.0
  0
LINE
  5
2247D
  8
1PHANTOM
 10
1606.548908997971
 20
-700.32748046340021
 30
0.0
 11
1606.4094436659391
 21
-701.54311767043146
 31
0.0
  0
LINE
  5
2247E
  8
1PHANTOM
 10
1606.4094436659391
 20
-701.54311767043146
 30
0.0
 11
1606.3301589979701
 21
-703.37191405715021
 31
0.0
  0
LINE
  5
2247F
  8
1PHANTOM
 10
1609.696156312423
 20
-691.15511718215021
 30
0.0
 11
1608.929920960861
 21
-692.68148436965021
 31
0.0
  0
LINE
  5
22480
  8
1PHANTOM
 10
1608.929920960861
 20
-692.68148436965021
 30
0.0
 11
1608.242176820236
 21
-694.24526610793146
 31
0.0
  0
LINE
  5
22481
  8
1PHANTOM
 10
1608.242176820236
 20
-694.24526610793146
 30
0.0
 11
1607.517231751877
 21
-696.21969237746271
 31
0.0
  0
LINE
  5
22482
  8
1PHANTOM
 10
1607.023518372971
 20
-708.81539550246271
 30
0.0
 11
1606.754933167892
 21
-707.62228026808759
 31
0.0
  0
LINE
  5
22483
  8
1PHANTOM
 10
1606.754933167892
 20
-707.62228026808759
 30
0.0
 11
1606.548908997971
 21
-706.41634765090009
 31
0.0
  0
LINE
  5
22484
  8
1PHANTOM
 10
1606.548908997971
 20
-706.41634765090009
 30
0.0
 11
1606.4094436659391
 21
-705.20071044386896
 31
0.0
  0
LINE
  5
22485
  8
1PHANTOM
 10
1606.4094436659391
 20
-705.20071044386896
 30
0.0
 11
1606.3301589979701
 21
-703.37191405715021
 31
0.0
  0
LINE
  5
22486
  8
1PHANTOM
 10
1609.696156312423
 20
-715.58871093215009
 30
0.0
 11
1608.929920960861
 21
-714.06228270949396
 31
0.0
  0
LINE
  5
22487
  8
1PHANTOM
 10
1608.929920960861
 20
-714.06228270949396
 30
0.0
 11
1608.242176820236
 21
-712.49856200636896
 31
0.0
  0
LINE
  5
22488
  8
1PHANTOM
 10
1608.242176820236
 20
-712.49856200636896
 30
0.0
 11
1607.517231751877
 21
-710.52413573683771
 31
0.0
  0
LINE
  5
22489
  8
1PHANTOM
 10
1098.562610711336
 20
-617.67164729768308
 30
0.0
 11
1099.541477288484
 21
-618.92929195100351
 31
0.0
  0
LINE
  5
2248A
  8
1PHANTOM
 10
1099.541477288484
 20
-618.92929195100351
 30
0.0
 11
1100.588108147859
 21
-620.13115047151132
 31
0.0
  0
LINE
  5
2248B
  8
1PHANTOM
 10
1100.588108147859
 20
-620.13115047151132
 30
0.0
 11
1101.702869500398
 21
-621.26992915803476
 31
0.0
  0
LINE
  5
2248C
  8
1PHANTOM
 10
1101.702869500398
 20
-621.26992915803476
 30
0.0
 11
1102.8836861507889
 21
-622.34018062287851
 31
0.0
  0
LINE
  5
2248D
  8
1PHANTOM
 10
1102.8836861507889
 20
-622.34018062287851
 30
0.0
 11
1104.491672600984
 21
-623.62011836701913
 31
0.0
  0
LINE
  5
2248E
  8
1PHANTOM
 10
1090.864078606844
 20
-594.57800410920663
 30
0.0
 11
1090.952549065828
 21
-595.49163936311288
 31
0.0
  0
LINE
  5
2248F
  8
1PHANTOM
 10
1090.952549065828
 20
-595.49163936311288
 30
0.0
 11
1091.3245888607501
 21
-598.63884090119882
 31
0.0
  0
LINE
  5
22490
  8
1PHANTOM
 10
1098.562610711336
 20
-531.07197485688584
 30
0.0
 11
1099.541477288484
 21
-529.81433020356553
 31
0.0
  0
LINE
  5
22491
  8
1PHANTOM
 10
1099.541477288484
 20
-529.81433020356553
 30
0.0
 11
1100.588108147859
 21
-528.61247168305772
 31
0.0
  0
LINE
  5
22492
  8
1PHANTOM
 10
1100.588108147859
 20
-528.61247168305772
 30
0.0
 11
1101.702869500398
 21
-527.47369299653417
 31
0.0
  0
LINE
  5
22493
  8
1PHANTOM
 10
1101.702869500398
 20
-527.47369299653417
 30
0.0
 11
1102.8836861507889
 21
-526.40344153169053
 31
0.0
  0
LINE
  5
22494
  8
1PHANTOM
 10
1102.8836861507889
 20
-526.40344153169053
 30
0.0
 11
1104.491672600984
 21
-525.12350378754991
 31
0.0
  0
LINE
  5
22495
  8
1PHANTOM
 10
1090.864078606844
 20
-554.16561804536241
 30
0.0
 11
1090.952549065828
 21
-553.25198279145604
 31
0.0
  0
LINE
  5
22496
  8
1PHANTOM
 10
1090.952549065828
 20
-553.25198279145604
 30
0.0
 11
1091.3245888607501
 21
-550.10478125337022
 31
0.0
  0
LINE
  5
22497
  8
1PHANTOM
 10
1498.6367684261791
 20
-617.67164729768308
 30
0.0
 11
1497.6579018490311
 21
-618.92929195100351
 31
0.0
  0
LINE
  5
22498
  8
1PHANTOM
 10
1497.6579018490311
 20
-618.92929195100351
 30
0.0
 11
1496.6112709896561
 21
-620.13115047151132
 31
0.0
  0
LINE
  5
22499
  8
1PHANTOM
 10
1496.6112709896561
 20
-620.13115047151132
 30
0.0
 11
1495.496509637117
 21
-621.26992915803476
 31
0.0
  0
LINE
  5
2249A
  8
1PHANTOM
 10
1495.496509637117
 20
-621.26992915803476
 30
0.0
 11
1494.3156929867259
 21
-622.34018062287851
 31
0.0
  0
LINE
  5
2249B
  8
1PHANTOM
 10
1494.3156929867259
 20
-622.34018062287851
 30
0.0
 11
1492.7077065365311
 21
-623.62011836701913
 31
0.0
  0
LINE
  5
2249C
  8
1PHANTOM
 10
1506.335300530671
 20
-594.57800410920663
 30
0.0
 11
1506.2468300716871
 21
-595.49163936311288
 31
0.0
  0
LINE
  5
2249D
  8
1PHANTOM
 10
1506.2468300716871
 20
-595.49163936311288
 30
0.0
 11
1505.874790276765
 21
-598.63884090119882
 31
0.0
  0
LINE
  5
2249E
  8
1PHANTOM
 10
1498.6367684261791
 20
-531.07197485688584
 30
0.0
 11
1497.6579018490311
 21
-529.81433020356553
 31
0.0
  0
LINE
  5
2249F
  8
1PHANTOM
 10
1497.6579018490311
 20
-529.81433020356553
 30
0.0
 11
1496.6112709896561
 21
-528.61247168305772
 31
0.0
  0
LINE
  5
224A0
  8
1PHANTOM
 10
1496.6112709896561
 20
-528.61247168305772
 30
0.0
 11
1495.496509637117
 21
-527.47369299653417
 31
0.0
  0
LINE
  5
224A1
  8
1PHANTOM
 10
1495.496509637117
 20
-527.47369299653417
 30
0.0
 11
1494.3156929867259
 21
-526.40344153169053
 31
0.0
  0
LINE
  5
224A2
  8
1PHANTOM
 10
1494.3156929867259
 20
-526.40344153169053
 30
0.0
 11
1492.7077065365311
 21
-525.12350378754991
 31
0.0
  0
LINE
  5
224A3
  8
1PHANTOM
 10
1506.335300530671
 20
-554.16561804536241
 30
0.0
 11
1506.2468300716871
 21
-553.25198279145604
 31
0.0
  0
LINE
  5
224A4
  8
1PHANTOM
 10
1506.2468300716871
 20
-553.25198279145604
 30
0.0
 11
1505.874790276765
 21
-550.10478125337022
 31
0.0
  0
LINE
  5
224A5
  8
1DIM
 10
1561.2569463791281
 20
-588.37183301975733
 30
0.0
 11
1574.6761489882049
 21
-588.37183301975733
 31
0.0
  0
LINE
  5
224A6
  8
1DIM
 10
1468.2996895566389
 20
-623.67183301975729
 30
0.0
 11
1574.6761489882049
 21
-623.67183301975729
 31
0.0
  0
LINE
  5
224A7
  8
1DIM
 10
1573.6761489882049
 20
-590.37183301975733
 30
0.0
 11
1573.6761489882049
 21
-621.67183301975717
 31
0.0
  0
LINE
  5
224AB
  8
1DIM1
 10
1051.6004220215141
 20
-703.37196341262324
 30
0.0
 11
1051.6004220215141
 21
-798.37196341279423
 31
0.0
  0
LINE
  5
224AC
  8
1DIM1
 10
1545.5989345538901
 20
-703.09709648662601
 30
0.0
 11
1545.5989345538901
 21
-798.37196341279423
 31
0.0
  0
LINE
  5
224AD
  8
1DIM1
 10
1061.6004220215141
 20
-793.37196341279423
 30
0.0
 11
1535.5989345538901
 21
-793.37196341279423
 31
0.0
  0
LINE
  5
224B1
  8
1DIM1
 10
1523.599707288495
 20
-712.37196341279423
 30
0.0
 11
1523.599707288495
 21
-768.37196341279423
 31
0.0
  0
LINE
  5
224B2
  8
1DIM1
 10
1073.5996798044871
 20
-712.37196341279412
 30
0.0
 11
1073.5996798044871
 21
-768.37196341279423
 31
0.0
  0
LINE
  5
224B3
  8
1DIM1
 10
1513.599707288495
 20
-763.37196341279423
 30
0.0
 11
1083.5996798044871
 21
-763.37196341279423
 31
0.0
  0
TEXT
  5
224B7
  8
1DIM
 10
1678.2984296085419
 20
-670.03615121091991
 30
0.0
 40
3.5
  1
取付穴径\U+03C610
  0
SOLID
  5
224B8
  8
1DIM
 10
1666.230009375611
 20
-696.61700569745506
 30
0.0
 11
1665.214512192691
 21
-698.37196341278377
 31
0.0
 12
1665.605942160752
 22
-696.38251783895817
 32
0.0
 13
1665.605942160752
 23
-696.38251783895817
 33
0.0
  0
TEXT
  5
224BA
  8
1DIM
 10
1620.107078470546
 20
-738.82220791103816
 30
0.0
 40
3.5
  1
扉対応厚28～45mm
  0
SOLID
  5
224BB
  8
1DIM
 10
1664.8527521316539
 20
-727.39543355932835
 30
0.0
 11
1665.4367100977549
 21
-725.45375794148254
 31
0.0
 12
1665.514050059933
 22
-727.47986989331571
 32
0.0
 13
1665.514050059933
 23
-727.47986989331571
 33
0.0
  0
LINE
  5
224BD
  8
1DIM
 10
1561.2569463791281
 20
-588.37183301975733
 30
0.0
 11
1586.6532579335949
 21
-588.37183301975733
 31
0.0
  0
LINE
  5
224BE
  8
1DIM
 10
1480.312076653521
 20
-655.6626434140444
 30
0.0
 11
1586.6532579335949
 21
-655.6626434140444
 31
0.0
  0
LINE
  5
224BF
  8
1DIM
 10
1585.6532579335949
 20
-590.37183301975733
 30
0.0
 11
1585.6532579335949
 21
-653.6626434140444
 31
0.0
  0
LINE
  5
224C3
  8
1DIM
 10
1539.2344439127021
 20
-681.326616199049
 30
0.0
 11
1574.6761489882049
 21
-681.326616199049
 31
0.0
  0
LINE
  5
224C4
  8
1DIM
 10
1539.1601729730589
 20
-725.41731253388798
 30
0.0
 11
1574.6761489882049
 21
-725.41731253388798
 31
0.0
  0
LINE
  5
224C5
  8
1DIM
 10
1573.6761489882049
 20
-683.32661619904911
 30
0.0
 11
1573.6761489882049
 21
-723.41731253388787
 31
0.0
  0
LINE
  5
224C9
  8
1DIM
 10
1458.1761465272571
 20
-687.37196341279423
 30
0.0
 11
1457.1761465272559
 21
-687.37196341279423
 31
0.0
  0
LINE
  5
224CA
  8
1DIM
 10
1458.1761465272571
 20
-719.37196341279423
 30
0.0
 11
1457.1761465272559
 21
-719.37196341279423
 31
0.0
  0
LINE
  5
224CB
  8
1DIM
 10
1458.1761465272559
 20
-689.37196341279423
 30
0.0
 11
1458.1761465272559
 21
-717.37196341279423
 31
0.0
  0
LINE
  5
224CC
  8
1DIM
 10
1458.1761465272559
 20
-719.37196341279423
 30
0.0
 11
1458.1761465272559
 21
-732.93863007946095
 31
0.0
  0
TEXT
  5
224D0
  8
1DIM
 10
1457.4761465272561
 20
-732.77196341279387
 30
0.0
 40
3.5
  1
\U+03C632
 50
90.0
  0
LINE
  5
224D1
  8
0
  6
BYBLOCK
 10
1458.7120449072561
 20
-717.37196341279423
 30
0.0
 11
1458.1761465272559
 21
-719.37196341279423
 31
0.0
  0
LINE
  5
224D2
  8
0
  6
BYBLOCK
 10
1458.1761465272559
 20
-719.37196341279423
 30
0.0
 11
1457.6402481472569
 21
-717.37196341279423
 31
0.0
  0
LINE
  5
224D3
  8
0
  6
BYBLOCK
 10
1458.1761465272559
 20
-719.37196341279423
 30
0.0
 11
1458.1761465272559
 21
-717.37196341279423
 31
0.0
  0
LINE
  5
224D4
  8
0
  6
BYBLOCK
 10
1457.6402481472569
 20
-689.37196341279423
 30
0.0
 11
1458.1761465272559
 21
-687.37196341279423
 31
0.0
  0
LINE
  5
224D5
  8
0
  6
BYBLOCK
 10
1458.1761465272559
 20
-687.37196341279423
 30
0.0
 11
1458.7120449072561
 21
-689.37196341279423
 31
0.0
  0
LINE
  5
224D6
  8
0
  6
BYBLOCK
 10
1458.1761465272559
 20
-687.37196341279423
 30
0.0
 11
1458.1761465272559
 21
-689.37196341279423
 31
0.0
  0
TEXT
  5
224D7
  8
1DIM
 10
1572.9761489882051
 20
-706.28863103313495
 30
0.0
 40
3.5
  1
44
 50
90.0
  0
LINE
  5
224D8
  8
0
  6
BYBLOCK
 10
1574.212047368205
 20
-723.41731253388787
 30
0.0
 11
1573.6761489882049
 21
-725.41731253388798
 31
0.0
  0
LINE
  5
224D9
  8
0
  6
BYBLOCK
 10
1573.6761489882049
 20
-725.41731253388798
 30
0.0
 11
1573.140250608205
 21
-723.41731253388787
 31
0.0
  0
LINE
  5
224DA
  8
0
  6
BYBLOCK
 10
1573.6761489882049
 20
-725.41731253388798
 30
0.0
 11
1573.6761489882049
 21
-723.41731253388787
 31
0.0
  0
LINE
  5
224DB
  8
0
  6
BYBLOCK
 10
1573.140250608205
 20
-683.32661619904911
 30
0.0
 11
1573.6761489882049
 21
-681.326616199049
 31
0.0
  0
LINE
  5
224DC
  8
0
  6
BYBLOCK
 10
1573.6761489882049
 20
-681.326616199049
 30
0.0
 11
1574.212047368205
 21
-683.32661619904911
 31
0.0
  0
LINE
  5
224DD
  8
0
  6
BYBLOCK
 10
1573.6761489882049
 20
-681.326616199049
 30
0.0
 11
1573.6761489882049
 21
-683.32661619904911
 31
0.0
  0
TEXT
  5
224DE
  8
1DIM
 10
1584.9532579335951
 20
-627.26723821690064
 30
0.0
 40
3.5
  1
67.5
 50
90.0
  0
LINE
  5
224DF
  8
0
  6
BYBLOCK
 10
1586.189156313595
 20
-653.6626434140444
 30
0.0
 11
1585.6532579335949
 21
-655.6626434140444
 31
0.0
  0
LINE
  5
224E0
  8
0
  6
BYBLOCK
 10
1585.6532579335949
 20
-655.6626434140444
 30
0.0
 11
1585.117359553595
 21
-653.6626434140444
 31
0.0
  0
LINE
  5
224E1
  8
0
  6
BYBLOCK
 10
1585.6532579335949
 20
-655.6626434140444
 30
0.0
 11
1585.6532579335949
 21
-653.6626434140444
 31
0.0
  0
LINE
  5
224E2
  8
0
  6
BYBLOCK
 10
1585.117359553595
 20
-590.37183301975733
 30
0.0
 11
1585.6532579335949
 21
-588.37183301975733
 31
0.0
  0
LINE
  5
224E3
  8
0
  6
BYBLOCK
 10
1585.6532579335949
 20
-588.37183301975733
 30
0.0
 11
1586.189156313595
 21
-590.37183301975733
 31
0.0
  0
LINE
  5
224E4
  8
0
  6
BYBLOCK
 10
1585.6532579335949
 20
-588.37183301975733
 30
0.0
 11
1585.6532579335949
 21
-590.37183301975733
 31
0.0
  0
LINE
  5
224E5
  8
1DIM
 10
1665.183401095793
 20
-727.43765172632197
 30
0.0
 11
1663.640411803879
 21
-739.52220791103832
 31
0.0
  0
LINE
  5
224E6
  8
1DIM
 10
1663.640411803879
 20
-739.52220791103832
 30
0.0
 11
1660.940411803879
 21
-739.52220791103832
 31
0.0
  0
LINE
  5
224E7
  8
1DIM
 10
1665.917975768182
 20
-696.49976176820655
 30
0.0
 11
1675.5984296085419
 21
-670.73615121091996
 31
0.0
  0
LINE
  5
224E8
  8
1DIM
 10
1675.5984296085419
 20
-670.73615121091996
 30
0.0
 11
1678.2984296085419
 21
-670.73615121091996
 31
0.0
  0
TEXT
  5
224E9
  8
1DIM1
 10
1267.9746935464909
 20
-759.87196341279423
 30
0.0
 40
17.5
  1
P450
  0
LINE
  5
224EA
  8
0
  6
BYBLOCK
 10
1083.5996798044871
 20
-766.05145531279425
 30
0.0
 11
1073.5996798044871
 21
-763.37196341279423
 31
0.0
  0
LINE
  5
224EB
  8
0
  6
BYBLOCK
 10
1073.5996798044871
 20
-763.37196341279423
 30
0.0
 11
1083.5996798044871
 21
-760.6924715127941
 31
0.0
  0
LINE
  5
224EC
  8
0
  6
BYBLOCK
 10
1073.5996798044871
 20
-763.37196341279423
 30
0.0
 11
1083.5996798044871
 21
-763.37196341279423
 31
0.0
  0
LINE
  5
224ED
  8
0
  6
BYBLOCK
 10
1513.599707288495
 20
-760.6924715127941
 30
0.0
 11
1523.599707288495
 21
-763.37196341279423
 31
0.0
  0
LINE
  5
224EE
  8
0
  6
BYBLOCK
 10
1523.599707288495
 20
-763.37196341279423
 30
0.0
 11
1513.599707288495
 21
-766.05145531279425
 31
0.0
  0
LINE
  5
224EF
  8
0
  6
BYBLOCK
 10
1523.599707288495
 20
-763.37196341279423
 30
0.0
 11
1513.599707288495
 21
-763.37196341279423
 31
0.0
  0
TEXT
  5
224F0
  8
1DIM1
 10
1275.2663449543691
 20
-789.87196341279423
 30
0.0
 40
17.5
  1
494
  0
LINE
  5
224F1
  8
0
  6
BYBLOCK
 10
1535.5989345538901
 20
-790.69247151279421
 30
0.0
 11
1545.5989345538901
 21
-793.37196341279423
 31
0.0
  0
LINE
  5
224F2
  8
0
  6
BYBLOCK
 10
1545.5989345538901
 20
-793.37196341279423
 30
0.0
 11
1535.5989345538901
 21
-796.05145531279425
 31
0.0
  0
LINE
  5
224F3
  8
0
  6
BYBLOCK
 10
1545.5989345538901
 20
-793.37196341279423
 30
0.0
 11
1535.5989345538901
 21
-793.37196341279423
 31
0.0
  0
LINE
  5
224F4
  8
0
  6
BYBLOCK
 10
1061.6004220215141
 20
-796.05145531279425
 30
0.0
 11
1051.6004220215141
 21
-793.37196341279423
 31
0.0
  0
LINE
  5
224F5
  8
0
  6
BYBLOCK
 10
1051.6004220215141
 20
-793.37196341279423
 30
0.0
 11
1061.6004220215141
 21
-790.69247151279421
 31
0.0
  0
LINE
  5
224F6
  8
0
  6
BYBLOCK
 10
1051.6004220215141
 20
-793.37196341279423
 30
0.0
 11
1061.6004220215141
 21
-793.37196341279423
 31
0.0
  0
TEXT
  5
224F7
  8
1DIM
 10
1572.9761489882051
 20
-611.27183301975697
 30
0.0
 40
3.5
  1
35.5
 50
90.0
  0
LINE
  5
224F8
  8
0
  6
BYBLOCK
 10
1574.212047368205
 20
-621.67183301975717
 30
0.0
 11
1573.6761489882049
 21
-623.67183301975729
 31
0.0
  0
LINE
  5
224F9
  8
0
  6
BYBLOCK
 10
1573.6761489882049
 20
-623.67183301975729
 30
0.0
 11
1573.140250608205
 21
-621.67183301975717
 31
0.0
  0
LINE
  5
224FA
  8
0
  6
BYBLOCK
 10
1573.6761489882049
 20
-623.67183301975729
 30
0.0
 11
1573.6761489882049
 21
-621.67183301975717
 31
0.0
  0
LINE
  5
224FB
  8
0
  6
BYBLOCK
 10
1573.140250608205
 20
-590.37183301975733
 30
0.0
 11
1573.6761489882049
 21
-588.37183301975733
 31
0.0
  0
LINE
  5
224FC
  8
0
  6
BYBLOCK
 10
1573.6761489882049
 20
-588.37183301975733
 30
0.0
 11
1574.212047368205
 21
-590.37183301975733
 31
0.0
  0
LINE
  5
224FD
  8
0
  6
BYBLOCK
 10
1573.6761489882049
 20
-588.37183301975733
 30
0.0
 11
1573.6761489882049
 21
-590.37183301975733
 31
0.0
  0
LINE
  5
224FE
  8
1DIM
 10
1541.7834752200531
 20
-694.82573599581508
 30
0.0
 11
1548.784950085945
 21
-678.24524124692186
 31
0.0
  0
LINE
  5
224FF
  8
1DIM
 10
1548.784950085945
 20
-678.24524124692186
 30
0.0
 11
1551.4849500859459
 21
-678.24524124692186
 31
0.0
  0
LINE
  5
22500
  8
1DIM
 10
1478.1378918916209
 20
-692.86803850943113
 30
0.0
 11
1485.1393667575139
 21
-676.28754376053803
 31
0.0
  0
LINE
  5
22501
  8
1DIM
 10
1485.1393667575139
 20
-676.28754376053803
 30
0.0
 11
1487.839366757514
 21
-676.28754376053803
 31
0.0
  0
LINE
  5
22502
  8
1DIM
 10
1405.084207941333
 20
-695.56193326099401
 30
0.0
 11
1412.055603546874
 21
-679.77926984419673
 31
0.0
  0
LINE
  5
22503
  8
1DIM
 10
1412.055603546874
 20
-679.77926984419673
 30
0.0
 11
1414.755603546874
 21
-679.77926984419673
 31
0.0
  0
VIEWPORT
  5
57
 67
     1
  8
0
 10
67.880186875014402
 20
10.08811140223832
 30
0.0
 40
615.3330119904889
 41
282.63601059224158
 68
     1
 69
     1
1001
ACAD
1000
MVIEW
1002
{
1070
    16
1010
0.0
1020
0.0
1030
0.0
1010
0.0
1020
0.0
1030
1.0
1040
0.0
1040
282.63601059224158
1040
67.880186875014402
1040
10.08811140223832
1040
50.0
1040
0.0
1040
0.0
1070
     0
1070
   100
1070
     1
1070
     1
1070
     0
1070
     0
1070
     0
1070
     0
1040
0.0
1040
0.0
1040
0.0
1040
10.0
1040
10.0
1040
10.0
1040
10.0
1070
     0
1002
{
1002
}
1002
}
  0
ENDSEC
  0
EOF
