  0
SECTION
  2
HEADER
  9
$ACADVER
  1
AC1009
  9
$INSBASE
 10
0.0
 20
0.0
 30
0.0
  9
$EXTMIN
 10
-792.08109547430786
 20
-1183.8916536583631
 30
0.0
  9
$EXTMAX
 10
-429.86274094504819
 20
-965.02367872468233
 30
0.0
  9
$LIMMIN
 10
0.0
 20
0.0
  9
$LIMMAX
 10
420.0
 20
297.0
  9
$ORTHOMODE
 70
     0
  9
$REGENMODE
 70
     1
  9
$FILLMODE
 70
     1
  9
$QTEXTMODE
 70
     0
  9
$MIRRTEXT
 70
     0
  9
$DRAGMODE
 70
     2
  9
$LTSCALE
 40
0.5
  9
$OSMODE
 70
    63
  9
$ATTMODE
 70
     1
  9
$TEXTSIZE
 40
4.0
  9
$TRACEWID
 40
1.0
  9
$TEXTSTYLE
  7
STANDARD
  9
$CLAYER
  8
1TEXT
  9
$CELTYPE
  6
BYLAYER
  9
$CECOLOR
 62
   256
  9
$DIMSCALE
 40
1.0
  9
$DIMASZ
 40
2.0
  9
$DIMEXO
 40
0.0
  9
$DIMDLI
 40
7.0
  9
$DIMRND
 40
0.0
  9
$DIMDLE
 40
0.0
  9
$DIMEXE
 40
1.0
  9
$DIMTP
 40
0.0
  9
$DIMTM
 40
0.0
  9
$DIMTXT
 40
3.5
  9
$DIMCEN
 40
0.0
  9
$DIMTSZ
 40
0.0
  9
$DIMTOL
 70
     0
  9
$DIMLIM
 70
     0
  9
$DIMTIH
 70
     0
  9
$DIMTOH
 70
     0
  9
$DIMSE1
 70
     0
  9
$DIMSE2
 70
     0
  9
$DIMTAD
 70
     1
  9
$DIMZIN
 70
     8
  9
$DIMBLK
  1

  9
$DIMASO
 70
     1
  9
$DIMSHO
 70
     1
  9
$DIMPOST
  1
 
  9
$DIMAPOST
  1

  9
$DIMALT
 70
     0
  9
$DIMALTD
 70
     2
  9
$DIMALTF
 40
25.399999999999999
  9
$DIMLFAC
 40
1.0
  9
$DIMTOFL
 70
     1
  9
$DIMTVP
 40
0.0
  9
$DIMTIX
 70
     0
  9
$DIMSOXD
 70
     0
  9
$DIMSAH
 70
     1
  9
$DIMBLK1
  1
OPEN30
  9
$DIMBLK2
  1
OPEN30
  9
$DIMSTYLE
  2
NEWX10
  9
$DIMCLRD
 70
   256
  9
$DIMCLRE
 70
   256
  9
$DIMCLRT
 70
   201
  9
$DIMTFAC
 40
0.7
  9
$DIMGAP
 40
0.7
  9
$LUNITS
 70
     2
  9
$LUPREC
 70
     4
  9
$SKETCHINC
 40
1.0
  9
$FILLETRAD
 40
0.0
  9
$AUNITS
 70
     0
  9
$AUPREC
 70
     2
  9
$MENU
  1
acad
  9
$ELEVATION
 40
0.0
  9
$PELEVATION
 40
0.0
  9
$THICKNESS
 40
0.0
  9
$LIMCHECK
 70
     0
  9
$BLIPMODE
 70
     0
  9
$CHAMFERA
 40
10.0
  9
$CHAMFERB
 40
10.0
  9
$SKPOLY
 70
     0
  9
$TDCREATE
 40
2453033.7326634838
  9
$TDUPDATE
 40
2457014.6595509602
  9
$TDINDWG
 40
1.8044153818999999
  9
$TDUSRTIMER
 40
1.8044153818999999
  9
$USRTIMER
 70
     1
  9
$ANGBASE
 50
0.0
  9
$ANGDIR
 70
     0
  9
$PDMODE
 70
     0
  9
$PDSIZE
 40
0.0
  9
$PLINEWID
 40
0.0
  9
$COORDS
 70
     0
  9
$SPLFRAME
 70
     0
  9
$SPLINETYPE
 70
     6
  9
$SPLINESEGS
 70
     8
  9
$ATTDIA
 70
     0
  9
$ATTREQ
 70
     1
  9
$HANDLING
 70
     1
  9
$HANDSEED
  5
16C95
  9
$SURFTAB1
 70
     6
  9
$SURFTAB2
 70
     6
  9
$SURFTYPE
 70
     6
  9
$SURFU
 70
     6
  9
$SURFV
 70
     6
  9
$UCSNAME
  2

  9
$UCSORG
 10
0.0
 20
0.0
 30
0.0
  9
$UCSXDIR
 10
1.0
 20
0.0
 30
0.0
  9
$UCSYDIR
 10
0.0
 20
1.0
 30
0.0
  9
$PUCSNAME
  2

  9
$PUCSORG
 10
0.0
 20
0.0
 30
0.0
  9
$PUCSXDIR
 10
1.0
 20
0.0
 30
0.0
  9
$PUCSYDIR
 10
0.0
 20
1.0
 30
0.0
  9
$USERI1
 70
     0
  9
$USERI2
 70
     0
  9
$USERI3
 70
     0
  9
$USERI4
 70
     0
  9
$USERI5
 70
     0
  9
$USERR1
 40
0.0
  9
$USERR2
 40
0.0
  9
$USERR3
 40
0.0
  9
$USERR4
 40
0.0
  9
$USERR5
 40
0.0
  9
$WORLDVIEW
 70
     1
  9
$SHADEDGE
 70
     3
  9
$SHADEDIF
 70
    70
  9
$TILEMODE
 70
     1
  9
$MAXACTVP
 70
    48
  9
$PLIMCHECK
 70
     0
  9
$PEXTMIN
 10
1.0000000000000000E+020
 20
1.0000000000000000E+020
 30
1.0000000000000000E+020
  9
$PEXTMAX
 10
-1.0000000000000000E+020
 20
-1.0000000000000000E+020
 30
-1.0000000000000000E+020
  9
$PLIMMIN
 10
0.0
 20
0.0
  9
$PLIMMAX
 10
420.0
 20
297.0
  9
$UNITMODE
 70
     0
  9
$VISRETAIN
 70
     1
  9
$PLINEGEN
 70
     0
  9
$PSLTSCALE
 70
     1
  0
ENDSEC
  0
SECTION
  2
TABLES
  0
TABLE
  2
VPORT
 70
     1
  0
VPORT
  2
*ACTIVE
 70
     0
 10
0.0
 20
0.0
 11
1.0
 21
1.0
 12
-610.96063770285423
 22
-1074.456252405749
 13
0.0
 23
0.0
 14
10.0
 24
10.0
 15
10.0
 25
10.0
 16
0.0
 26
0.0
 36
1.0
 17
0.0
 27
0.0
 37
0.0
 40
232.19910130712711
 41
2.1749379652605461
 42
50.0
 43
0.0
 44
0.0
 50
0.0
 51
0.0
 71
     0
 72
   100
 73
     1
 74
     1
 75
     0
 76
     0
 77
     0
 78
     0
  0
ENDTAB
  0
TABLE
  2
LTYPE
 70
    15
  0
LTYPE
  2
CONTINUOUS
 70
     0
  3
Solid line
 72
    65
 73
     0
 40
0.0
  0
LTYPE
  2
CENTER2
 70
     0
  3
Center (.5x) ___ _ ___ _ ___ _ ___ _ ___ _ ___
 72
    65
 73
     4
 40
28.574999999999999
 49
19.050000000000001
 49
-3.1749999999999989
 49
3.1749999999999989
 49
-3.1749999999999989
  0
LTYPE
  2
XREF1|CENTER2
 70
    48
  3
Center (.5x) ___ _ ___ _ ___ _ ___ _ ___ _ ___
 72
    65
 73
     4
 40
28.574999999999999
 49
19.050000000000001
 49
-3.1749999999999989
 49
3.1749999999999989
 49
-3.1749999999999989
  0
LTYPE
  2
PHANTOM2
 70
     0
  3
Phantom (.5x) ___ _ _ ___ _ _ ___ _ _ ___ _ _
 72
    65
 73
     6
 40
31.75
 49
15.875
 49
-3.1749999999999989
 49
3.1749999999999989
 49
-3.1749999999999989
 49
3.1749999999999989
 49
-3.1749999999999989
  0
LTYPE
  2
A3WAKUDAKE|CENTER2
 70
    48
  3
Center (.5x) ___ _ ___ _ ___ _ ___ _ ___ _ ___
 72
    65
 73
     4
 40
28.574999999999999
 49
19.050000000000001
 49
-3.1749999999999989
 49
3.1749999999999989
 49
-3.1749999999999989
  0
ENDTAB
  0
TABLE
  2
LAYER
 70
    47
  0
LAYER
  2
0
 70
     0
 62
     7
  6
CONTINUOUS
  0
LAYER
  2
1CENTER
 70
     0
 62
     7
  6
CENTER2
  0
LAYER
  2
1TEXT
 70
     0
 62
     7
  6
CONTINUOUS
  0
LAYER
  2
1DIM
 70
     0
 62
     7
  6
CONTINUOUS
  0
LAYER
  2
1PHANTOM
 70
     0
 62
     7
  6
PHANTOM2
  0
LAYER
  2
01
 70
     0
 62
     1
  6
CONTINUOUS
  0
LAYER
  2
A3WAKUDAKE|THICK
 70
    48
 62
     7
  6
CONTINUOUS
  0
LAYER
  2
A3WAKUDAKE|POINT
 70
    48
 62
     7
  6
CONTINUOUS
  0
LAYER
  2
A3WAKUDAKE|1CENTER
 70
    48
 62
     7
  6
A3WAKUDAKE|CENTER2
  0
LAYER
  2
A3WAKUDAKE|0-6
 70
    48
 62
     7
  6
CONTINUOUS
  0
LAYER
  2
A3WAKUDAKE|1DIM
 70
    48
 62
     7
  6
CONTINUOUS
  0
LAYER
  2
XREF1|1CENTER
 70
    48
 62
     7
  6
XREF1|CENTER2
  0
ENDTAB
  0
TABLE
  2
STYLE
 70
    23
  0
STYLE
  2
STANDARD
 70
     0
 40
0.0
 41
1.0
 50
0.0
 71
     0
 42
4.0
  3
txt.shx
  4
extfont.shx
  0
ENDTAB
  0
TABLE
  2
VIEW
 70
     5
  0
ENDTAB
  0
TABLE
  2
UCS
 70
     0
  0
ENDTAB
  0
TABLE
  2
APPID
 70
    13
  0
APPID
  2
ACAD
 70
     0
  0
APPID
  2
DRAWINGVARIABLESXDATA
 70
     0
  0
APPID
  2
CONTENTTABDATA
 70
     0
  0
APPID
  2
CONTENTCURRENTTAB
 70
     0
  0
APPID
  2
CONTENTBLOCKDESCRIPTION
 70
     0
  0
APPID
  2
CONTENTBLOCKICON
 70
     0
  0
APPID
  2
CONTENTLONGBLOCKNAME
 70
     0
  0
APPID
  2
ACAD_PSEXT
 70
     0
  0
APPID
  2
ACAD_DSTYLE_DIMTEXT_FILL
 70
     0
  0
APPID
  2
ACAD_NAV_VCDISPLAY
 70
     0
  0
APPID
  2
ACAD_EXEMPT_FROM_CAD_STANDARDS
 70
     0
  0
APPID
  2
ACLAYERTOOLS
 70
     0
  0
APPID
  2
ACAD_MLEADERVER
 70
     0
  0
ENDTAB
  0
TABLE
  2
DIMSTYLE
 70
     9
  0
DIMSTYLE
  2
NEWX10
 70
     0
  3
 
  4

  5

  6
OPEN30
  7
OPEN30
 40
1.0
 41
2.0
 42
0.0
 43
7.0
 44
1.0
 45
0.0
 46
0.0
 47
0.0
 48
0.0
140
3.5
141
0.0
142
0.0
143
25.399999999999999
144
1.0
145
0.0
146
0.7
147
0.7
 71
     0
 72
     0
 73
     0
 74
     0
 75
     0
 76
     0
 77
     1
 78
     8
170
     0
171
     2
172
     1
173
     1
174
     0
175
     0
176
   256
177
   256
178
   201
  0
ENDTAB
  0
ENDSEC
  0
SECTION
  2
BLOCKS
  0
BLOCK
  8
0
  2
$MODEL_SPACE
 70
     0
 10
0.0
 20
0.0
 30
0.0
  3
$MODEL_SPACE
  1

  0
ENDBLK
  5
1A
  8
0
  0
BLOCK
 67
     1
  8
0
  2
$PAPER_SPACE
 70
     0
 10
0.0
 20
0.0
 30
0.0
  3
$PAPER_SPACE
  1

  0
ENDBLK
  5
17
 67
     1
  8
0
  0
BLOCK
  8
0
  2
_OPEN30
 70
     0
 10
0.0
 20
0.0
 30
0.0
  3
_OPEN30
  1

  0
LINE
  5
44
  8
0
  6
BYBLOCK
 62
     0
 10
-1.0
 20
0.26794919
 30
0.0
 11
0.0
 21
0.0
 31
0.0
  0
LINE
  5
45
  8
0
  6
BYBLOCK
 62
     0
 10
0.0
 20
0.0
 30
0.0
 11
-1.0
 21
-0.26794919
 31
0.0
  0
LINE
  5
46
  8
0
  6
BYBLOCK
 62
     0
 10
0.0
 20
0.0
 30
0.0
 11
-1.0
 21
0.0
 31
0.0
  0
ENDBLK
  5
47
  8
0
  0
BLOCK
  8
0
  2
XREF1
 70
    36
 10
0.0
 20
0.0
 30
0.0
  3
XREF1
  1
D:\ACLT\FORMAT\KAWAJUN(9)図面用.dwg
  0
ENDBLK
  5
5D
  8
0
  0
BLOCK
  8
0
  2
A3WAKUDAKE
 70
    36
 10
0.0
 20
0.0
 30
0.0
  3
A3WAKUDAKE
  1
D:\ACLT\FORMAT\A3WAKUdake.dwg
  0
ENDBLK
  5
6DC
  8
0
  0
ENDSEC
  0
SECTION
  2
ENTITIES
  0
LINE
  5
15D70
  8
01
 10
-478.89530744682071
 20
-1173.8916536583581
 30
0.0
 11
-478.89530744681798
 21
-1139.8916536583599
 31
0.0
  0
LINE
  5
15D71
  8
1CENTER
 10
-562.70902191576829
 20
-1080.49348265036
 30
0.0
 11
-562.70902191576715
 21
-1160.246419668222
 31
0.0
  0
LINE
  5
15D72
  8
1CENTER
 10
-488.89530744682253
 20
-1080.493482650362
 30
0.0
 11
-488.89530744682531
 21
-1160.359586111821
 31
0.0
  0
LINE
  5
15D73
  8
01
 10
-572.70902191576272
 20
-1162.891653658359
 30
0.0
 11
-572.70902191576454
 21
-1139.8916536583611
 31
0.0
  0
LINE
  5
15D74
  8
01
 10
-552.70902191576454
 20
-1182.8916536583611
 30
0.0
 11
-552.70902191576454
 21
-1139.8916536583611
 31
0.0
  0
LINE
  5
15D78
  8
01
 10
-498.89530744681713
 20
-1173.891653658359
 30
0.0
 11
-498.89530744682253
 21
-1139.891653658359
 31
0.0
  0
LINE
  5
15D7C
  8
1CENTER
 10
-762.70902191576693
 20
-1160.2464196682249
 30
0.0
 11
-762.70902191576408
 21
-1080.493482650362
 31
0.0
  0
LINE
  5
15D7D
  8
01
 10
-752.70902191576454
 20
-1162.8916536583611
 30
0.0
 11
-752.70902191576454
 21
-1139.8916536583611
 31
0.0
  0
LINE
  5
15D7F
  8
01
 10
-772.70902191576454
 20
-1182.8916536583611
 30
0.0
 11
-772.70902191576454
 21
-1139.8916536583611
 31
0.0
  0
LINE
  5
15D80
  8
01
 10
-774.70902191576454
 20
-1139.8916536583611
 30
0.0
 11
-775.20902191576454
 21
-1139.391653658362
 31
0.0
  0
LINE
  5
15D81
  8
01
 10
-775.20902191576499
 20
-1102.3916536583611
 30
0.0
 11
-774.70902191576499
 21
-1101.8916536583611
 31
0.0
  0
LINE
  5
15D83
  8
01
 10
-777.20902191576454
 20
-1137.8916536583599
 30
0.0
 11
-748.20902191576454
 21
-1137.891653658359
 31
0.0
  0
LINE
  5
15D84
  8
01
 10
-777.70902191576306
 20
-1105.891653658359
 30
0.0
 11
-747.70902191576317
 21
-1105.891653658359
 31
0.0
  0
LINE
  5
15D85
  8
01
 10
-777.20902191576488
 20
-1103.8916536583581
 30
0.0
 11
-748.20902191576488
 21
-1103.8916536583581
 31
0.0
  0
LINE
  5
15D86
  8
01
 10
-747.70902191576272
 20
-1135.891653658359
 30
0.0
 11
-777.70902191576272
 21
-1135.891653658359
 31
0.0
  0
LINE
  5
15D87
  8
01
 10
-747.70902191576488
 20
-1104.391653658359
 30
0.0
 11
-777.70902191576306
 21
-1104.3916536583581
 31
0.0
  0
LINE
  5
15D88
  8
01
 10
-750.20902191576499
 20
-1102.391653658359
 30
0.0
 11
-775.20902191576306
 21
-1102.3916536583581
 31
0.0
  0
LINE
  5
15D89
  8
01
 10
-750.20902191576454
 20
-1139.3916536583611
 30
0.0
 11
-775.20902191576272
 21
-1139.3916536583631
 31
0.0
  0
LINE
  5
15D8A
  8
01
 10
-747.70902191576454
 20
-1137.3916536583581
 30
0.0
 11
-777.70902191576454
 21
-1137.3916536583611
 31
0.0
  0
LINE
  5
15D8B
  8
01
 10
-777.70902191576306
 20
-1105.891653658359
 30
0.0
 11
-777.70902191576306
 21
-1104.3916536583581
 31
0.0
  0
LINE
  5
15D8C
  8
01
 10
-777.70902191576499
 20
-1104.3916536583599
 30
0.0
 11
-777.20902191576488
 21
-1103.8916536583599
 31
0.0
  0
LINE
  5
15D8D
  8
01
 10
-775.20902191576306
 20
-1103.8916536583581
 30
0.0
 11
-775.20902191576306
 21
-1102.3916536583581
 31
0.0
  0
LINE
  5
15D8E
  8
01
 10
-775.20902191576272
 20
-1139.3916536583631
 30
0.0
 11
-775.20902191576272
 21
-1137.8916536583599
 31
0.0
  0
LINE
  5
15D8F
  8
01
 10
-777.70902191576272
 20
-1137.3916536583631
 30
0.0
 11
-777.70902191576272
 21
-1135.891653658359
 31
0.0
  0
LINE
  5
15D90
  8
01
 10
-777.20902191576454
 20
-1137.8916536583611
 30
0.0
 11
-777.70902191576454
 21
-1137.3916536583611
 31
0.0
  0
LINE
  5
15D91
  8
01
 10
-478.89530744682349
 20
-1067.8916536583599
 30
0.0
 11
-478.89530744682349
 21
-1101.8916536583581
 31
0.0
  0
LINE
  5
15D92
  8
01
 10
-552.70902191576488
 20
-1058.8916536583599
 30
0.0
 11
-552.70902191576488
 21
-1101.8916536583599
 31
0.0
  0
LINE
  5
15D93
  8
01
 10
-498.8953074468198
 20
-1067.891653658359
 30
0.0
 11
-498.89530744682531
 21
-1101.8916536583581
 31
0.0
  0
LINE
  5
15D98
  8
01
 10
-737.70902191576499
 20
-1058.3916536583599
 30
0.0
 11
-737.70902191576306
 21
-1077.3916536583631
 31
0.0
  0
LINE
  5
15D9B
  8
01
 10
-772.70902191576488
 20
-1058.8916536583599
 30
0.0
 11
-772.70902191576488
 21
-1101.8916536583599
 31
0.0
  0
LINE
  5
15D9C
  8
01
 10
-752.70902191576681
 20
-1077.891653658362
 30
0.0
 11
-771.70902191576863
 21
-1058.8916536583599
 31
0.0
  0
LINE
  5
15D9D
  8
01
 10
-588.20902191576863
 20
-1057.891653658362
 30
0.0
 11
-737.20902191576306
 21
-1057.8916536583581
 31
0.0
  0
ARC
  5
15D9E
  8
01
 10
-738.20902191576499
 20
-1058.3916536583599
 30
0.0
 40
0.5
 50
0.0
 51
90.000000000000028
  0
ARC
  5
15D9F
  8
01
 10
-737.20902191576306
 20
-1058.3916536583581
 30
0.0
 40
0.5
 50
90.000000000000028
 51
180.00000000002601
  0
ARC
  5
15DA0
  8
01
 10
-771.70902191576499
 20
-1058.8916536583599
 30
0.0
 40
1.0
 50
90.000000000000028
 51
180.0
  0
LINE
  5
15DA1
  8
01
 10
-771.70902191576499
 20
-1057.8916536583599
 30
0.0
 11
-738.20902191576499
 21
-1057.8916536583599
 31
0.0
  0
ARC
  5
15DA2
  8
01
 10
-553.70902191576499
 20
-1058.8916536583599
 30
0.0
 40
1.0
 50
0.0
 51
90.000000000000028
  0
ARC
  5
15DA3
  8
01
 10
-587.20902191576499
 20
-1058.3916536583599
 30
0.0
 40
0.5
 50
90.000000000000028
 51
180.0
  0
ARC
  5
15DA4
  8
01
 10
-588.20902191576863
 20
-1058.391653658362
 30
0.0
 40
0.5
 50
359.99999999998698
 51
90.000000000000028
  0
LINE
  5
15DA5
  8
01
 10
-553.70902191576499
 20
-1057.8916536583599
 30
0.0
 11
-587.20902191576499
 21
-1057.8916536583599
 31
0.0
  0
LINE
  5
15DAD
  8
01
 10
-587.70902191576863
 20
-1077.3916536583631
 30
0.0
 11
-587.70902191576863
 21
-1058.391653658362
 31
0.0
  0
ARC
  5
15DB5
  8
01
 10
-488.89530744682531
 20
-1067.8916536583599
 30
0.0
 40
10.0
 50
0.0
 51
180.0
  0
LINE
  5
15DB7
  8
01
 10
-588.20902191576499
 20
-1077.891653658364
 30
0.0
 11
-737.20902191576863
 21
-1077.8916536583611
 31
0.0
  0
LINE
  5
15DB8
  8
01
 10
-752.70902191576681
 20
-1078.8916536583611
 30
0.0
 11
-752.70902191576488
 21
-1101.8916536583599
 31
0.0
  0
ARC
  5
15DB9
  8
01
 10
-751.70902191576681
 20
-1078.8916536583611
 30
0.0
 40
1.0
 50
90.000000000000028
 51
180.00000000001299
  0
LINE
  5
15DBA
  8
01
 10
-751.70902191576681
 20
-1077.8916536583611
 30
0.0
 11
-738.20902191576317
 21
-1077.8916536583631
 31
0.0
  0
ARC
  5
15DBB
  8
01
 10
-738.20902191576317
 20
-1077.3916536583631
 30
0.0
 40
0.5
 50
270.0
 51
0.0
  0
ARC
  5
15DBC
  8
01
 10
-737.20902191576863
 20
-1077.3916536583611
 30
0.0
 40
0.5
 50
180.0
 51
270.0
  0
LINE
  5
15DBD
  8
01
 10
-747.70902191576488
 20
-1104.391653658359
 30
0.0
 11
-747.70902191576317
 21
-1105.891653658359
 31
0.0
  0
LINE
  5
15DBE
  8
01
 10
-774.70902191576499
 20
-1101.891653658359
 30
0.0
 11
-750.70902191576499
 21
-1101.891653658359
 31
0.0
  0
LINE
  5
15DBF
  8
01
 10
-772.70902191576488
 20
-1101.8916536583599
 30
0.0
 11
-752.70902191576488
 21
-1101.8916536583599
 31
0.0
  0
LINE
  5
15DC0
  8
01
 10
-750.20902191576499
 20
-1103.891653658359
 30
0.0
 11
-750.20902191576499
 21
-1102.391653658359
 31
0.0
  0
LINE
  5
15DC1
  8
01
 10
-747.70902191576488
 20
-1104.3916536583581
 30
0.0
 11
-748.20902191576488
 21
-1103.8916536583581
 31
0.0
  0
LINE
  5
15DC2
  8
01
 10
-750.20902191576499
 20
-1102.391653658359
 30
0.0
 11
-750.70902191576499
 21
-1101.891653658359
 31
0.0
  0
LINE
  5
15DC3
  8
01
 10
-774.70902191576624
 20
-1139.891653658359
 30
0.0
 11
-750.70902191576454
 21
-1139.8916536583599
 31
0.0
  0
LINE
  5
15DC4
  8
01
 10
-772.70902191576454
 20
-1139.8916536583611
 30
0.0
 11
-752.70902191576454
 21
-1139.8916536583611
 31
0.0
  0
LINE
  5
15DC5
  8
01
 10
-747.70902191576454
 20
-1137.3916536583581
 30
0.0
 11
-747.70902191576454
 21
-1135.891653658359
 31
0.0
  0
LINE
  5
15DC6
  8
01
 10
-750.20902191576454
 20
-1139.3916536583611
 30
0.0
 11
-750.20902191576454
 21
-1137.891653658359
 31
0.0
  0
LINE
  5
15DC7
  8
01
 10
-750.70902191576454
 20
-1139.891653658359
 30
0.0
 11
-750.20902191576454
 21
-1139.3916536583599
 31
0.0
  0
LINE
  5
15DC8
  8
01
 10
-748.20902191576454
 20
-1137.891653658359
 30
0.0
 11
-747.70902191576454
 21
-1137.391653658359
 31
0.0
  0
CIRCLE
  5
15DCA
  8
01
 10
-762.70902191576454
 20
-1146.8916678447849
 30
0.0
 40
4.25
  0
LINE
  5
15DCB
  8
1CENTER
 10
-756.45902191576454
 20
-1146.8916678447849
 30
0.0
 11
-768.95902191576454
 21
-1146.8916678447849
 31
0.0
  0
LINE
  5
15DCC
  8
01
 10
-572.70902191576135
 20
-1078.8916536583611
 30
0.0
 11
-572.70902191576488
 21
-1101.8916536583599
 31
0.0
  0
ARC
  5
15DD3
  8
01
 10
-573.70902191576135
 20
-1078.8916536583611
 30
0.0
 40
1.0
 50
359.99999999998698
 51
90.000000000000028
  0
LINE
  5
15DD7
  8
01
 10
-573.70902191576135
 20
-1077.8916536583611
 30
0.0
 11
-587.20902191576681
 21
-1077.8916536583631
 31
0.0
  0
ARC
  5
15DDD
  8
01
 10
-587.20902191576681
 20
-1077.3916536583631
 30
0.0
 40
0.5
 50
180.0
 51
270.0
  0
ARC
  5
15DDE
  8
01
 10
-588.20902191576499
 20
-1077.391653658364
 30
0.0
 40
0.5
 50
270.0
 51
0.0
  0
LINE
  5
15DEB
  8
1PHANTOM
 10
-569.95902191576624
 20
-1150.8916536583599
 30
0.0
 11
-569.95902191576454
 21
-1139.8916536583599
 31
0.0
  0
LINE
  5
15DEC
  8
1PHANTOM
 10
-555.45902191576795
 20
-1150.8916536583599
 30
0.0
 11
-555.45902191576454
 21
-1139.8916536583599
 31
0.0
  0
LINE
  5
15DF2
  8
01
 10
-577.70902191576488
 20
-1105.8916536583599
 30
0.0
 11
-577.70902191576488
 21
-1104.391653658359
 31
0.0
  0
LINE
  5
15DF3
  8
01
 10
-575.20902191576499
 20
-1103.891653658359
 30
0.0
 11
-575.20902191576499
 21
-1102.391653658359
 31
0.0
  0
LINE
  5
15DF4
  8
01
 10
-575.20902191576863
 20
-1102.391653658362
 30
0.0
 11
-574.70902191576863
 21
-1101.891653658362
 31
0.0
  0
LINE
  5
15DF5
  8
01
 10
-565.95902191576681
 20
-1101.8916536583611
 30
0.0
 11
-572.70902191576488
 21
-1101.8916536583599
 31
0.0
  0
LINE
  5
15DF6
  8
01
 10
-574.70902191576681
 20
-1101.8916536583599
 30
0.0
 11
-559.45902191576863
 21
-1101.8916536583599
 31
0.0
  0
LINE
  5
15DF8
  8
01
 10
-577.70902191576488
 20
-1104.3916536583611
 30
0.0
 11
-577.20902191576488
 21
-1103.8916536583611
 31
0.0
  0
LINE
  5
15DF9
  8
01
 10
-577.20902191576488
 20
-1103.891653658359
 30
0.0
 11
-548.20902191576772
 21
-1103.8916536583461
 31
0.0
  0
LINE
  5
15DFA
  8
01
 10
-575.20902191576454
 20
-1139.391653658364
 30
0.0
 11
-575.20902191576454
 21
-1137.8916536583611
 31
0.0
  0
LINE
  5
15DFB
  8
01
 10
-574.70902191576454
 20
-1139.891653658362
 30
0.0
 11
-575.20902191576454
 21
-1139.3916536583631
 31
0.0
  0
LINE
  5
15DFD
  8
01
 10
-577.70902191576454
 20
-1137.3916536583631
 30
0.0
 11
-577.70902191576454
 21
-1135.8916536583599
 31
0.0
  0
LINE
  5
15DFE
  8
01
 10
-577.20902191576624
 20
-1137.891653658362
 30
0.0
 11
-577.70902191576454
 21
-1137.391653658362
 31
0.0
  0
LINE
  5
15DFF
  8
01
 10
-547.70902191576522
 20
-1105.8916536583599
 30
0.0
 11
-577.70902191576488
 21
-1105.8916536583599
 31
0.0
  0
LINE
  5
15E00
  8
01
 10
-547.70902191576454
 20
-1135.8916536583581
 30
0.0
 11
-577.70902191576454
 21
-1135.8916536583599
 31
0.0
  0
LINE
  5
15E02
  8
01
 10
-547.70902191576488
 20
-1104.3916536583599
 30
0.0
 11
-547.70902191576488
 21
-1105.8916536583599
 31
0.0
  0
LINE
  5
15E04
  8
01
 10
-550.20902191576499
 20
-1103.8916536583599
 30
0.0
 11
-550.20902191576499
 21
-1102.3916536583599
 31
0.0
  0
LINE
  5
15E05
  8
01
 10
-547.70902191576681
 20
-1104.391653658359
 30
0.0
 11
-548.20902191576681
 21
-1103.891653658359
 31
0.0
  0
LINE
  5
15E06
  8
01
 10
-550.20902191576499
 20
-1102.3916536583599
 30
0.0
 11
-550.70902191576499
 21
-1101.8916536583599
 31
0.0
  0
LINE
  5
15E07
  8
01
 10
-550.70902191576567
 20
-1101.891653658359
 30
0.0
 11
-559.45902191576863
 21
-1101.891653658362
 31
0.0
  0
LINE
  5
15E0B
  8
01
 10
-547.70902191576454
 20
-1137.391653658359
 30
0.0
 11
-547.70902191576454
 21
-1135.8916536583599
 31
0.0
  0
LINE
  5
15E0C
  8
01
 10
-550.20902191576454
 20
-1139.391653658362
 30
0.0
 11
-550.20902191576454
 21
-1137.8916536583599
 31
0.0
  0
LINE
  5
15E0D
  8
01
 10
-550.70902191576454
 20
-1139.8916536583599
 30
0.0
 11
-550.20902191576454
 21
-1139.3916536583611
 31
0.0
  0
LINE
  5
15E0E
  8
01
 10
-548.20902191576454
 20
-1137.8916536583599
 30
0.0
 11
-547.70902191576636
 21
-1137.3916536583599
 31
0.0
  0
LINE
  5
15E0F
  8
01
 10
-548.20902191576454
 20
-1137.8916536583599
 30
0.0
 11
-577.20902191576624
 21
-1137.8916536583729
 31
0.0
  0
LINE
  5
15E10
  8
01
 10
-550.70902191576454
 20
-1139.8916536583611
 30
0.0
 11
-574.70902191576363
 21
-1139.8916536583699
 31
0.0
  0
LINE
  5
15E11
  8
1PHANTOM
 10
-556.45902191576818
 20
-1151.8916536583599
 30
0.0
 11
-568.95902191576658
 21
-1151.8916536583599
 31
0.0
  0
LINE
  5
15E12
  8
1PHANTOM
 10
-556.60902191576236
 20
-1151.8916536583599
 30
0.0
 11
-568.8090219157649
 21
-1151.8916536583599
 31
0.0
  0
LINE
  5
15E14
  8
1PHANTOM
 10
-496.14530744681889
 20
-1144.7419758670071
 30
0.0
 11
-496.14530744681889
 21
-1139.891653658359
 31
0.0
  0
LINE
  5
15E19
  8
1PHANTOM
 10
-481.64530744682259
 20
-1144.7419758670001
 30
0.0
 11
-481.64530744681889
 21
-1139.891653658359
 31
0.0
  0
LINE
  5
15E1E
  8
01
 10
-500.8953074468252
 20
-1101.891653658362
 30
0.0
 11
-476.89530744682531
 21
-1101.891653658359
 31
0.0
  0
LINE
  5
15E21
  8
01
 10
-503.89530744682349
 20
-1105.891653658359
 30
0.0
 11
-503.89530744682349
 21
-1104.3916536583581
 31
0.0
  0
LINE
  5
15E24
  8
01
 10
-503.39530744682531
 20
-1103.8916536583581
 30
0.0
 11
-474.39530744682531
 21
-1103.8916536583711
 31
0.0
  0
LINE
  5
15E25
  8
01
 10
-503.89530744682531
 20
-1104.3916536583599
 30
0.0
 11
-503.39530744682531
 21
-1103.8916536583599
 31
0.0
  0
LINE
  5
15E26
  8
01
 10
-501.39530744682531
 20
-1102.3916536583611
 30
0.0
 11
-500.8953074468252
 21
-1101.8916536583611
 31
0.0
  0
LINE
  5
15E27
  8
01
 10
-501.39530744682349
 20
-1103.8916536583581
 30
0.0
 11
-501.39530744682349
 21
-1102.3916536583581
 31
0.0
  0
LINE
  5
15E2A
  8
01
 10
-503.89530744681889
 20
-1135.891653658359
 30
0.0
 11
-473.89530744681889
 21
-1135.891653658359
 31
0.0
  0
LINE
  5
15E2B
  8
01
 10
-500.89530744682259
 20
-1139.891653658359
 30
0.0
 11
-476.89530744681889
 21
-1139.891653658364
 31
0.0
  0
LINE
  5
15E2C
  8
01
 10
-473.89530744682338
 20
-1105.891653658359
 30
0.0
 11
-503.89530744682349
 21
-1105.891653658359
 31
0.0
  0
LINE
  5
15E2D
  8
01
 10
-503.39530744682253
 20
-1137.8916536583599
 30
0.0
 11
-474.39530744681991
 21
-1137.8916536583599
 31
0.0
  0
LINE
  5
15E2E
  8
01
 10
-503.39530744682071
 20
-1137.8916536583611
 30
0.0
 11
-503.89530744681889
 21
-1137.3916536583611
 31
0.0
  0
LINE
  5
15E2F
  8
01
 10
-503.89530744681889
 20
-1137.3916536583631
 30
0.0
 11
-503.89530744681889
 21
-1135.891653658359
 31
0.0
  0
LINE
  5
15E30
  8
01
 10
-500.89530744681889
 20
-1139.8916536583611
 30
0.0
 11
-501.39530744681889
 21
-1139.391653658362
 31
0.0
  0
LINE
  5
15E31
  8
01
 10
-501.39530744681889
 20
-1139.3916536583631
 30
0.0
 11
-501.39530744681889
 21
-1137.8916536583599
 31
0.0
  0
LINE
  5
15E32
  8
01
 10
-473.89530744682531
 20
-1104.391653658359
 30
0.0
 11
-473.89530744682338
 21
-1105.891653658359
 31
0.0
  0
LINE
  5
15E34
  8
01
 10
-473.89530744682531
 20
-1104.3916536583581
 30
0.0
 11
-474.39530744682531
 21
-1103.8916536583581
 31
0.0
  0
LINE
  5
15E35
  8
01
 10
-476.39530744682531
 20
-1102.391653658359
 30
0.0
 11
-476.89530744682531
 21
-1101.891653658359
 31
0.0
  0
LINE
  5
15E36
  8
01
 10
-476.39530744682531
 20
-1103.891653658359
 30
0.0
 11
-476.39530744682531
 21
-1102.391653658359
 31
0.0
  0
LINE
  5
15E38
  8
01
 10
-474.39530744681889
 20
-1137.891653658359
 30
0.0
 11
-473.89530744682082
 21
-1137.391653658359
 31
0.0
  0
LINE
  5
15E39
  8
01
 10
-473.89530744681889
 20
-1137.3916536583581
 30
0.0
 11
-473.89530744681889
 21
-1135.891653658359
 31
0.0
  0
LINE
  5
15E3A
  8
01
 10
-476.89530744681889
 20
-1139.891653658359
 30
0.0
 11
-476.39530744681889
 21
-1139.3916536583599
 31
0.0
  0
LINE
  5
15E3B
  8
01
 10
-476.39530744681889
 20
-1139.3916536583611
 30
0.0
 11
-476.39530744681889
 21
-1137.891653658359
 31
0.0
  0
LINE
  5
15E3F
  8
1CENTER
 10
-477.65555620314967
 20
-1146.89227855021
 30
0.0
 11
-500.13505869049351
 21
-1146.891667844784
 31
0.0
  0
LINE
  5
15E44
  8
1PHANTOM
 10
-496.14530744682082
 20
-1150.8916536583599
 30
0.0
 11
-496.14530744682082
 21
-1149.0419758669359
 31
0.0
  0
LINE
  5
15E45
  8
1PHANTOM
 10
-481.64530744682259
 20
-1150.891653658359
 30
0.0
 11
-481.64530744682259
 21
-1149.04197586694
 31
0.0
  0
LINE
  5
15E4D
  8
1PHANTOM
 10
-495.79532990068378
 20
-1148.5417105622851
 30
0.0
 11
-496.14533071505491
 21
-1148.8917073047789
 31
0.0
  0
LINE
  5
15E4E
  8
1PHANTOM
 10
-495.79527405750548
 20
-1145.2417105626621
 30
0.0
 11
-496.14527487189099
 21
-1144.8917073051259
 31
0.0
  0
LINE
  5
15E4F
  8
1PHANTOM
 10
-492.4452967447213
 20
-1145.241918577914
 30
0.0
 11
-495.79527405750548
 21
-1145.2417105626621
 31
0.0
  0
LINE
  5
15E50
  8
1PHANTOM
 10
-492.44531815123253
 20
-1148.541918577858
 30
0.0
 11
-495.79532990068378
 21
-1148.5417105622851
 31
0.0
  0
LINE
  5
15E51
  8
1PHANTOM
 10
-492.7953214087355
 20
-1148.8919159083291
 30
0.0
 11
-492.79529348719723
 21
-1144.891915908416
 31
0.0
  0
LINE
  5
15E59
  8
1PHANTOM
 10
-481.99534083613969
 20
-1145.241710562661
 30
0.0
 11
-481.64534002175401
 21
-1144.891707305125
 31
0.0
  0
LINE
  5
15E5C
  8
1PHANTOM
 10
-485.34531814892381
 20
-1145.241918577914
 30
0.0
 11
-481.99534083613969
 21
-1145.241710562661
 31
0.0
  0
LINE
  5
15E5D
  8
1PHANTOM
 10
-481.99528499296122
 20
-1148.5417105622839
 30
0.0
 11
-481.64528417858838
 21
-1148.8917073047789
 31
0.0
  0
LINE
  5
15E5E
  8
1PHANTOM
 10
-485.34529674241082
 20
-1148.541918577858
 30
0.0
 11
-481.99528499296122
 21
-1148.5417105622839
 31
0.0
  0
LINE
  5
15E5F
  8
1PHANTOM
 10
-484.99529348490779
 20
-1148.8919159083291
 30
0.0
 11
-484.99532140644789
 21
-1144.8919159084151
 31
0.0
  0
LINE
  5
15E64
  8
1PHANTOM
 10
-482.64530744682259
 20
-1151.891653658359
 30
0.0
 11
-495.14530744682259
 21
-1151.891653658359
 31
0.0
  0
LINE
  5
15E65
  8
1PHANTOM
 10
-495.14530744682071
 20
-1151.8916536583599
 30
0.0
 11
-496.14530744682082
 21
-1150.8916536583599
 31
0.0
  0
LINE
  5
15E66
  8
1PHANTOM
 10
-494.99530744682102
 20
-1153.391653658359
 30
0.0
 11
-494.99530744682102
 21
-1151.891653658359
 31
0.0
  0
LINE
  5
15E67
  8
1PHANTOM
 10
-482.79530744682029
 20
-1151.891653658359
 30
0.0
 11
-494.99530744682102
 21
-1151.891653658359
 31
0.0
  0
LINE
  5
15E68
  8
1PHANTOM
 10
-482.79530744682029
 20
-1153.3916536583599
 30
0.0
 11
-494.99530744682102
 21
-1153.391653658359
 31
0.0
  0
LINE
  5
15E6A
  8
1PHANTOM
 10
-482.64530744682259
 20
-1151.891653658359
 30
0.0
 11
-481.64530744682259
 21
-1150.891653658359
 31
0.0
  0
LINE
  5
15E6B
  8
1PHANTOM
 10
-482.79530744681858
 20
-1153.3916536583599
 30
0.0
 11
-482.79530744682029
 21
-1151.891653658359
 31
0.0
  0
LINE
  5
15E70
  8
01
 10
-588.20902191576818
 20
-1163.8916536583599
 30
0.0
 11
-737.20902191576272
 21
-1163.8916536583561
 31
0.0
  0
LINE
  5
15E71
  8
01
 10
-588.20902191576454
 20
-1183.8916536583631
 30
0.0
 11
-737.20902191576818
 21
-1183.8916536583599
 31
0.0
  0
LINE
  5
15E74
  8
01
 10
-737.70902191576454
 20
-1183.3916536583611
 30
0.0
 11
-737.70902191576272
 21
-1164.3916536583581
 31
0.0
  0
LINE
  5
15E75
  8
01
 10
-737.70902191576818
 20
-1183.3916536583599
 30
0.0
 11
-737.70902191576624
 21
-1181.3916536583511
 31
0.0
  0
ARC
  5
15E76
  8
01
 10
-771.70902191576454
 20
-1182.8916536583611
 30
0.0
 40
1.0
 50
180.0
 51
270.0
  0
LINE
  5
15E77
  8
01
 10
-737.70902191576454
 20
-1181.3916536583581
 30
0.0
 11
-737.7090219157609
 21
-1166.3916536583581
 31
0.0
  0
LINE
  5
15E78
  8
01
 10
-752.70902191576624
 20
-1163.891653658359
 30
0.0
 11
-771.70902191576624
 21
-1182.8916536583611
 31
0.0
  0
LINE
  5
15E79
  8
01
 10
-751.70902191576454
 20
-1163.8916536583611
 30
0.0
 11
-738.20902191576261
 21
-1163.8916536583581
 31
0.0
  0
ARC
  5
15E7A
  8
01
 10
-738.20902191576261
 20
-1164.3916536583581
 30
0.0
 40
0.5
 50
0.0
 51
90.000000000000028
  0
LINE
  5
15E7B
  8
01
 10
-737.70902191576272
 20
-1166.3916536583511
 30
0.0
 11
-737.70902191576272
 21
-1164.3916536583561
 31
0.0
  0
ARC
  5
15E7C
  8
01
 10
-737.20902191576272
 20
-1164.3916536583561
 30
0.0
 40
0.5
 50
90.000000000000028
 51
180.00000000002601
  0
ARC
  5
15E7D
  8
01
 10
-751.70902191576454
 20
-1162.8916536583611
 30
0.0
 40
1.0
 50
180.0
 51
270.0
  0
LINE
  5
15E7E
  8
01
 10
-771.70902191576454
 20
-1183.8916536583611
 30
0.0
 11
-738.20902191576454
 21
-1183.8916536583611
 31
0.0
  0
ARC
  5
15E7F
  8
01
 10
-738.20902191576454
 20
-1183.3916536583611
 30
0.0
 40
0.5
 50
270.0
 51
0.0
  0
ARC
  5
15E80
  8
01
 10
-737.20902191576818
 20
-1183.3916536583599
 30
0.0
 40
0.5
 50
180.0
 51
270.0
  0
ARC
  5
15E81
  8
01
 10
-553.70902191576454
 20
-1182.8916536583611
 30
0.0
 40
1.0
 50
270.0
 51
0.0
  0
ARC
  5
15E82
  8
01
 10
-488.89530744682259
 20
-1173.8916536583581
 30
0.0
 40
10.0
 50
180.00000000001299
 51
0.0
  0
LINE
  5
15E83
  8
01
 10
-587.70902191576454
 20
-1183.391653658364
 30
0.0
 11
-587.70902191576454
 21
-1164.3916536583581
 31
0.0
  0
LINE
  5
15E88
  8
01
 10
-573.70902191576272
 20
-1163.891653658359
 30
0.0
 11
-587.20902191576624
 21
-1163.8916536583581
 31
0.0
  0
ARC
  5
15E8D
  8
01
 10
-587.20902191576624
 20
-1164.3916536583581
 30
0.0
 40
0.5
 50
90.000000000000028
 51
180.0
  0
ARC
  5
15E92
  8
01
 10
-588.20902191576818
 20
-1164.3916536583599
 30
0.0
 40
0.5
 50
359.99999999998698
 51
90.000000000000028
  0
ARC
  5
15E96
  8
01
 10
-573.70902191576272
 20
-1162.891653658359
 30
0.0
 40
1.0
 50
270.0
 51
0.0000000000130416
  0
LINE
  5
15EAC
  8
01
 10
-553.70902191576454
 20
-1183.8916536583611
 30
0.0
 11
-587.20902191576454
 21
-1183.8916536583611
 31
0.0
  0
ARC
  5
15EAD
  8
01
 10
-587.20902191576454
 20
-1183.3916536583611
 30
0.0
 40
0.5
 50
180.0
 51
270.0
  0
ARC
  5
15EAE
  8
01
 10
-588.20902191576454
 20
-1183.391653658364
 30
0.0
 40
0.5
 50
270.0
 51
0.0
  0
LINE
  5
15EAF
  8
1PHANTOM
 10
-569.95902191576624
 20
-1150.8916536583599
 30
0.0
 11
-568.95902191576658
 21
-1151.8916536583599
 31
0.0
  0
LINE
  5
15EB0
  8
1PHANTOM
 10
-556.45902191576818
 20
-1151.8916536583599
 30
0.0
 11
-555.45902191576795
 21
-1150.8916536583599
 31
0.0
  0
LINE
  5
15EB2
  8
01
 10
-458.28530186530207
 20
-1105.891653658359
 30
0.0
 11
-517.90726270836501
 21
-1105.891653658359
 31
0.0
  0
LINE
  5
15EB3
  8
01
 10
-456.49002915962978
 20
-1135.891653658359
 30
0.0
 11
-517.90726270836501
 21
-1135.891653658359
 31
0.0
  0
LINE
  5
15EB4
  8
1PHANTOM
 10
-568.80902181576732
 20
-1151.8916536583599
 30
0.0
 11
-556.60902201576721
 21
-1151.8916536583599
 31
0.0
  0
LINE
  5
15EB5
  8
1PHANTOM
 10
-568.80902181576732
 20
-1153.7916526583599
 30
0.0
 11
-556.60902201576721
 21
-1153.7916526583599
 31
0.0
  0
LINE
  5
15EB6
  8
1PHANTOM
 10
-568.80902181576732
 20
-1153.7916526583599
 30
0.0
 11
-568.80902181576732
 21
-1151.8916536583599
 31
0.0
  0
LINE
  5
15EB7
  8
1PHANTOM
 10
-556.60902201576721
 20
-1153.7916526583599
 30
0.0
 11
-556.60902201576721
 21
-1151.8916536583599
 31
0.0
  0
LINE
  5
15EBB
  8
01
 10
-533.33228025638562
 20
-1135.891653658359
 30
0.0
 11
-792.08109547430786
 21
-1135.891653658359
 31
0.0
  0
LINE
  5
15EBC
  8
01
 10
-533.33228025638562
 20
-1105.891653658359
 30
0.0
 11
-792.08109547430786
 21
-1105.891653658359
 31
0.0
  0
LINE
  5
15EBF
  8
01
 10
-485.39530744682298
 20
-1105.891653658359
 30
0.0
 11
-485.39530744682457
 21
-1135.8916536583581
 31
0.0
  0
LINE
  5
15EC0
  8
01
 10
-492.39530744682321
 20
-1105.891653658359
 30
0.0
 11
-492.39530744682457
 21
-1135.891653658359
 31
0.0
  0
LINE
  5
1612F
  8
1CENTER
 10
-562.70902191576715
 20
-1081.255265736263
 30
0.0
 11
-562.70902191576715
 21
-1160.359586111819
 31
0.0
  0
LINE
  5
16131
  8
1PHANTOM
 10
-560.20902191576715
 20
-1083.7916526583599
 30
0.0
 11
-560.20902191576715
 21
-1153.7916526583599
 31
0.0
  0
LINE
  5
16132
  8
1PHANTOM
 10
-565.20902191576715
 20
-1083.7916526583599
 30
0.0
 11
-565.20902191576715
 21
-1153.7916526583599
 31
0.0
  0
LINE
  5
16134
  8
1PHANTOM
 10
-565.70902191576715
 20
-1153.7916526583599
 30
0.0
 11
-559.70902191576727
 21
-1153.7916526583599
 31
0.0
  0
LINE
  5
16136
  8
01
 10
-577.70902191576852
 20
-1104.391653658359
 30
0.0
 11
-547.70902191577045
 21
-1104.3916536583581
 31
0.0
  0
LINE
  5
16137
  8
01
 10
-575.20902191576852
 20
-1102.391653658359
 30
0.0
 11
-550.20902191577045
 21
-1102.3916536583581
 31
0.0
  0
LINE
  5
16138
  8
01
 10
-575.20902191576897
 20
-1139.3916536583611
 30
0.0
 11
-550.20902191577079
 21
-1139.3916536583631
 31
0.0
  0
LINE
  5
16139
  8
01
 10
-577.70902191576886
 20
-1137.3916536583581
 30
0.0
 11
-547.70902191576897
 21
-1137.3916536583611
 31
0.0
  0
CIRCLE
  5
1613B
  8
01
 10
-562.70902191576897
 20
-1146.8916678447849
 30
0.0
 40
4.25
  0
LINE
  5
1613C
  8
1CENTER
 10
-568.95902191576897
 20
-1146.8916678447849
 30
0.0
 11
-556.45902191576909
 21
-1146.8916678447849
 31
0.0
  0
LINE
  5
1613D
  8
1PHANTOM
 10
-755.45902191576715
 20
-1150.8916536583599
 30
0.0
 11
-755.45902191576886
 21
-1139.8916536583599
 31
0.0
  0
LINE
  5
1613E
  8
1PHANTOM
 10
-769.95902191576556
 20
-1150.8916536583599
 30
0.0
 11
-769.95902191576886
 21
-1139.8916536583599
 31
0.0
  0
LINE
  5
1613F
  8
1PHANTOM
 10
-768.95902191576533
 20
-1151.8916536583599
 30
0.0
 11
-756.45902191576693
 21
-1151.8916536583599
 31
0.0
  0
LINE
  5
16140
  8
1PHANTOM
 10
-768.80902191577115
 20
-1151.8916536583599
 30
0.0
 11
-756.60902191576861
 21
-1151.8916536583599
 31
0.0
  0
LINE
  5
16141
  8
1PHANTOM
 10
-755.45902191576715
 20
-1150.8916536583599
 30
0.0
 11
-756.45902191576693
 21
-1151.8916536583599
 31
0.0
  0
LINE
  5
16142
  8
1PHANTOM
 10
-768.95902191576533
 20
-1151.8916536583599
 30
0.0
 11
-769.95902191576556
 21
-1150.8916536583599
 31
0.0
  0
LINE
  5
16143
  8
1PHANTOM
 10
-756.60902201576607
 20
-1151.8916536583599
 30
0.0
 11
-768.8090218157663
 21
-1151.8916536583599
 31
0.0
  0
LINE
  5
16144
  8
1PHANTOM
 10
-756.60902201576607
 20
-1153.7916526583599
 30
0.0
 11
-768.8090218157663
 21
-1153.7916526583599
 31
0.0
  0
LINE
  5
16145
  8
1PHANTOM
 10
-756.60902201576607
 20
-1153.7916526583599
 30
0.0
 11
-756.60902201576607
 21
-1151.8916536583599
 31
0.0
  0
LINE
  5
16146
  8
1PHANTOM
 10
-768.8090218157663
 20
-1153.7916526583599
 30
0.0
 11
-768.8090218157663
 21
-1151.8916536583599
 31
0.0
  0
LINE
  5
16148
  8
1PHANTOM
 10
-765.20902191576624
 20
-1083.7916526583599
 30
0.0
 11
-765.20902191576624
 21
-1153.7916526583599
 31
0.0
  0
LINE
  5
16149
  8
1PHANTOM
 10
-760.20902191576624
 20
-1083.7916526583599
 30
0.0
 11
-760.20902191576624
 21
-1153.7916526583599
 31
0.0
  0
LINE
  5
1614A
  8
1CENTER
 10
-488.89530744682509
 20
-1080.8552667362619
 30
0.0
 11
-488.89530744682509
 21
-1159.9595871118181
 31
0.0
  0
LINE
  5
1614C
  8
1PHANTOM
 10
-486.39530744682497
 20
-1083.3916536583599
 30
0.0
 11
-486.39530744682497
 21
-1153.391653658359
 31
0.0
  0
LINE
  5
1614D
  8
1PHANTOM
 10
-491.39530744682509
 20
-1083.391653658359
 30
0.0
 11
-491.39530744682509
 21
-1153.391653658359
 31
0.0
  0
LINE
  5
1614E
  8
1PHANTOM
 10
-491.89530744682509
 20
-1083.891653658359
 30
0.0
 11
-485.89530744682497
 21
-1083.891653658359
 31
0.0
  0
LINE
  5
16150
  8
01
 10
-501.39530744682349
 20
-1102.391653658359
 30
0.0
 11
-476.39530744682531
 21
-1102.391653658359
 31
0.0
  0
LINE
  5
16152
  8
01
 10
-503.89530744682349
 20
-1104.3916536583581
 30
0.0
 11
-473.89530744682531
 21
-1104.391653658359
 31
0.0
  0
LINE
  5
16153
  8
01
 10
-501.39530744681889
 20
-1139.391653658362
 30
0.0
 11
-476.39530744681889
 21
-1139.391653658362
 31
0.0
  0
LINE
  5
16154
  8
01
 10
-473.89530744681889
 20
-1137.3916536583581
 30
0.0
 11
-503.89530744681889
 21
-1137.3916536583611
 31
0.0
  0
LINE
  5
16155
  8
01
 10
-572.70902191576613
 20
-1077.891653658359
 30
0.0
 11
-553.70902191576499
 21
-1058.8916536583561
 31
0.0
  0
LINE
  5
16156
  8
01
 10
-572.70902191576363
 20
-1163.8916536583561
 30
0.0
 11
-553.70902191576295
 21
-1182.891653658357
 31
0.0
  0
TEXT
  5
1616B
  8
1TEXT
 10
-788.00649791125863
 20
-973.02367872468267
 30
0.0
 40
8.0
  1
DH-700-X
  0
ARC
  5
1616C
  8
01
 10
-762.70902191576408
 20
-1007.89165365836
 30
0.0
 40
10.000000000000909
 50
90.0
 51
270.0
  0
ARC
  5
1618B
  8
01
 10
-762.70902191576408
 20
-1007.89165365836
 30
0.0
 40
12.5
 50
53.130102354162652
 51
306.8698976458374
  0
ARC
  5
1618C
  8
01
 10
-762.70902191576408
 20
-1007.89165365836
 30
0.0
 40
15.0
 50
41.810314895783293
 51
318.18968510421672
  0
ARC
  5
1618D
  8
01
 10
-762.70902191576408
 20
-1007.89165365836
 30
0.0
 40
12.0
 50
56.442690238086847
 51
303.55730976191307
  0
ARC
  5
1618E
  8
01
 10
-762.70902191576408
 20
-1007.89165365836
 30
0.0
 40
14.5
 50
43.602818972708398
 51
316.39718102729159
  0
LINE
  5
16199
  8
01
 10
-737.70900000000086
 20
-998.39162546333716
 30
0.0
 11
-737.70899999999904
 21
-1017.39162546334
 31
0.0
  0
LINE
  5
1619A
  8
01
 10
-588.20900000000449
 20
-997.8916254633391
 30
0.0
 11
-737.20899999999904
 21
-997.89162546333534
 31
0.0
  0
ARC
  5
1619B
  8
01
 10
-738.20900000000086
 20
-998.39162546333716
 30
0.0
 40
0.5
 50
0.0
 51
90.000000000000028
  0
ARC
  5
1619C
  8
01
 10
-737.20899999999904
 20
-998.39162546333546
 30
0.0
 40
0.5
 50
90.000000000000028
 51
180.00000000002601
  0
LINE
  5
1619D
  8
01
 10
-762.70902191576408
 20
-997.89162546333728
 30
0.0
 11
-738.20900000000086
 21
-997.89162546333728
 31
0.0
  0
ARC
  5
1619E
  8
01
 10
-587.20900000000086
 20
-998.39162546333716
 30
0.0
 40
0.5
 50
90.000000000000028
 51
180.0
  0
ARC
  5
1619F
  8
01
 10
-588.20900000000449
 20
-998.39162546333898
 30
0.0
 40
0.5
 50
359.99999999998698
 51
90.000000000000028
  0
LINE
  5
161A1
  8
01
 10
-587.70900000000449
 20
-1017.39162546334
 30
0.0
 11
-587.70900000000449
 21
-998.39162546333898
 31
0.0
  0
LINE
  5
161A2
  8
01
 10
-588.20900000000086
 20
-1017.8916254633421
 30
0.0
 11
-737.20900000000449
 21
-1017.891625463338
 31
0.0
  0
LINE
  5
161A3
  8
01
 10
-762.70899999999995
 20
-1017.891625463337
 30
0.0
 11
-738.20899999999904
 21
-1017.89162546334
 31
0.0
  0
ARC
  5
161A4
  8
01
 10
-738.20899999999904
 20
-1017.39162546334
 30
0.0
 40
0.5
 50
270.0
 51
0.0
  0
ARC
  5
161A5
  8
01
 10
-737.20900000000449
 20
-1017.391625463338
 30
0.0
 40
0.5
 50
180.0
 51
270.0
  0
LINE
  5
161A6
  8
01
 10
-562.68527534416717
 20
-1017.891625463337
 30
0.0
 11
-587.20900000000256
 21
-1017.89162546334
 31
0.0
  0
ARC
  5
161A7
  8
01
 10
-587.20900000000256
 20
-1017.39162546334
 30
0.0
 40
0.5
 50
180.0
 51
270.0
  0
ARC
  5
161A8
  8
01
 10
-588.20900000000086
 20
-1017.3916254633421
 30
0.0
 40
0.5
 50
270.0
 51
0.0
  0
LINE
  5
161A9
  8
01
 10
-562.70904383152822
 20
-997.8916254633375
 30
0.0
 11
-587.20900000000086
 21
-997.89162546333728
 31
0.0
  0
ARC
  5
161B8
  8
01
 10
-562.70902191576408
 20
-1007.89165365836
 30
0.0
 40
10.000000000000909
 50
270.0
 51
90.0
  0
ARC
  5
161B9
  8
01
 10
-562.70902191576408
 20
-1007.89165365836
 30
0.0
 40
12.5
 50
233.13010235416269
 51
126.8698976458373
  0
ARC
  5
161BA
  8
01
 10
-562.70902191576408
 20
-1007.89165365836
 30
0.0
 40
12.0
 50
236.4426902380869
 51
123.5573097619131
  0
ARC
  5
161BB
  8
01
 10
-562.70902191576408
 20
-1007.89165365836
 30
0.0
 40
15.0
 50
221.81031489578331
 51
138.18968510421669
  0
ARC
  5
161BC
  8
01
 10
-562.70902191576408
 20
-1007.89165365836
 30
0.0
 40
14.5
 50
223.60281897270841
 51
136.39718102729159
  0
LINE
  5
161D1
  8
1CENTER
 10
-762.70902191576408
 20
-1013.89165365836
 30
0.0
 11
-762.70902191576408
 21
-1001.89165365836
 31
0.0
  0
LINE
  5
161D2
  8
1CENTER
 10
-768.70902191576397
 20
-1007.89165365836
 30
0.0
 11
-756.70902191576397
 21
-1007.89165365836
 31
0.0
  0
LINE
  5
161D3
  8
1CENTER
 10
-562.70902191576408
 20
-1013.89165365836
 30
0.0
 11
-562.70902191576408
 21
-1001.89165365836
 31
0.0
  0
LINE
  5
161D4
  8
1CENTER
 10
-568.70902191576397
 20
-1007.89165365836
 30
0.0
 11
-556.70902191576397
 21
-1007.89165365836
 31
0.0
  0
LINE
  5
167C8
  8
1DIM
 10
-488.11171400024699
 20
-987.73185591489744
 30
0.0
 11
-429.86274094504819
 21
-987.73185591489801
 31
0.0
  0
TEXT
  5
167CB
  8
1TEXT
 10
-448.16274094504809
 20
-991.85685591489755
 30
0.0
 40
3.0
  1
コード
 72
     1
 11
-443.06274094504801
 21
-991.85685591489755
 31
0.0
  0
TEXT
  5
167CC
  8
1TEXT
 10
-485.2426480420919
 20
-991.85685591489755
 30
0.0
 40
3.0
  1
表面処理（握り）
 72
     1
 11
-472.14264804209188
 21
-991.85685591489755
 31
0.0
  0
LINE
  5
167CD
  8
1DIM
 10
-488.11171400024722
 20
-1008.731855914897
 30
0.0
 11
-429.8627409450487
 21
-1008.731855914897
 31
0.0
  0
LINE
  5
167D0
  8
1DIM
 10
-488.11171400024699
 20
-987.73185591489744
 30
0.0
 11
-488.11171400024722
 21
-1008.731855914896
 31
0.0
  0
LINE
  5
167D1
  8
1DIM
 10
-456.11274094504819
 20
-987.73185591489778
 30
0.0
 11
-456.1127409450466
 21
-1008.731855914897
 31
0.0
  0
LINE
  5
167D2
  8
1DIM
 10
-429.8627409450483
 20
-987.73185591489801
 30
0.0
 11
-429.86274094504847
 21
-1008.731855914897
 31
0.0
  0
LINE
  5
167D4
  8
1DIM
 10
-488.11171400024688
 20
-992.98185591489732
 30
0.0
 11
-429.86274094504819
 21
-992.98185591489801
 31
0.0
  0
LINE
  5
167D5
  8
1DIM
 10
-488.11171400024699
 20
-998.23185591489732
 30
0.0
 11
-429.86274094504819
 21
-998.23185591489801
 31
0.0
  0
TEXT
  5
167DB
  8
1TEXT
 10
-451.81274094504749
 20
-997.26762365263505
 30
0.0
 40
3.0
  1
DH-700-SC
 41
0.7
 72
     1
 11
-443.06274094504761
 21
-997.26762365263505
 31
0.0
  0
TEXT
  5
167DC
  8
1TEXT
 10
-451.81274094504749
 20
-1002.5176236526351
 30
0.0
 40
3.0
  1
DH-700-LC
 41
0.7
 72
     1
 11
-443.06274094504761
 21
-1002.5176236526351
 31
0.0
  0
TEXT
  5
167E0
  8
1TEXT
 10
-478.8628407530984
 20
-996.96504112357525
 30
0.0
 40
3.0
  1
ホワイト
 72
     1
 11
-472.16284075309841
 21
-996.96504112357525
 31
0.0
  0
TEXT
  5
167E1
  8
1TEXT
 10
-484.36284075309828
 20
-1002.215041123575
 30
0.0
 40
3.0
  1
ライトブラウン
 72
     1
 11
-472.16284075309841
 21
-1002.215041123575
 31
0.0
  0
LINE
  5
167E3
  8
1DIM
 10
-488.11171400024699
 20
-1003.481855914897
 30
0.0
 11
-429.8627409450487
 21
-1003.481855914898
 31
0.0
  0
TEXT
  5
167E4
  8
1TEXT
 10
-451.81274094504749
 20
-1007.767623652634
 30
0.0
 40
3.0
  1
DH-700-DC
 41
0.7
 72
     1
 11
-443.06274094504761
 21
-1007.767623652634
 31
0.0
  0
TEXT
  5
167E5
  8
1TEXT
 10
-484.46284075309842
 20
-1007.465041123575
 30
0.0
 40
3.0
  1
ダークブラウン
 72
     1
 11
-472.16284075309841
 21
-1007.465041123575
 31
0.0
  0
CIRCLE
  5
16B70
  8
01
 10
-562.70902191576897
 20
-1146.8916678447849
 30
0.0
 40
4.0
  0
ARC
  5
16B73
  8
01
 10
-561.80902193576912
 20
-1145.9916678647851
 30
0.0
 40
0.5
 50
179.999989999999
 51
269.99999700000228
  0
ARC
  5
16B74
  8
01
 10
-561.80902193576912
 20
-1147.791667824785
 30
0.0
 40
0.5
 50
90.0
 51
180.000010000001
  0
LINE
  5
16B75
  8
01
 10
-563.60902189576882
 20
-1146.4916678347849
 30
0.0
 11
-564.70902191576886
 21
-1146.4916678347849
 31
0.0
  0
LINE
  5
16B76
  8
01
 10
-563.60902189576882
 20
-1147.2916678547849
 30
0.0
 11
-564.70902191576886
 21
-1147.2916678547849
 31
0.0
  0
LINE
  5
16B77
  8
01
 10
-564.70902191576886
 20
-1146.4916678347849
 30
0.0
 11
-564.70902191576886
 21
-1147.2916678547849
 31
0.0
  0
LINE
  5
16B78
  8
01
 10
-563.10902192576884
 20
-1144.8916678447849
 30
0.0
 11
-563.10902192576884
 21
-1145.9916678647851
 31
0.0
  0
LINE
  5
16B79
  8
01
 10
-562.30902190576887
 20
-1144.8916678447849
 30
0.0
 11
-562.30902190576887
 21
-1145.9916678647851
 31
0.0
  0
LINE
  5
16B7A
  8
01
 10
-562.30902190576887
 20
-1144.8916678447849
 30
0.0
 11
-563.10902192576884
 21
-1144.8916678447849
 31
0.0
  0
LINE
  5
16B7B
  8
01
 10
-562.30902190576887
 20
-1148.8916678447849
 30
0.0
 11
-562.30902190576887
 21
-1147.791667824785
 31
0.0
  0
LINE
  5
16B7C
  8
01
 10
-563.10902192576884
 20
-1148.8916678447849
 30
0.0
 11
-563.10902192576884
 21
-1147.791667824785
 31
0.0
  0
LINE
  5
16B7D
  8
01
 10
-563.10902192576884
 20
-1148.8916678447849
 30
0.0
 11
-562.30902190576887
 21
-1148.8916678447849
 31
0.0
  0
ARC
  5
16B7E
  8
01
 10
-563.60902189576882
 20
-1147.791667824785
 30
0.0
 40
0.5
 50
0.0
 51
90.0
  0
ARC
  5
16B7F
  8
01
 10
-563.60902189576882
 20
-1145.9916678647851
 30
0.0
 40
0.5
 50
269.99999700000228
 51
0.0
  0
POINT
  5
16B80
  8
01
 10
-562.70902191576897
 20
-1146.8916678447849
 30
0.0
 50
360.0
  0
LINE
  5
16B81
  8
01
 10
-561.80902193576912
 20
-1147.2916678547849
 30
0.0
 11
-560.70902191576886
 21
-1147.2916678547849
 31
0.0
  0
LINE
  5
16B82
  8
01
 10
-561.80902193576912
 20
-1146.4916678347849
 30
0.0
 11
-560.70902191576886
 21
-1146.4916678347849
 31
0.0
  0
LINE
  5
16B83
  8
01
 10
-560.70902191576886
 20
-1147.2916678547849
 30
0.0
 11
-560.70902191576886
 21
-1146.4916678347849
 31
0.0
  0
CIRCLE
  5
16B84
  8
01
 10
-762.70902191576454
 20
-1146.8916678447849
 30
0.0
 40
4.0
  0
ARC
  5
16B85
  8
01
 10
-763.60902189576439
 20
-1145.9916678647851
 30
0.0
 40
0.5
 50
270.00000299999772
 51
0.0000100000010064
  0
ARC
  5
16B86
  8
01
 10
-763.60902189576439
 20
-1147.791667824785
 30
0.0
 40
0.5
 50
359.999989999999
 51
90.0
  0
LINE
  5
16B87
  8
01
 10
-761.80902193576469
 20
-1146.4916678347849
 30
0.0
 11
-760.70902191576454
 21
-1146.4916678347849
 31
0.0
  0
LINE
  5
16B88
  8
01
 10
-761.80902193576469
 20
-1147.2916678547849
 30
0.0
 11
-760.70902191576454
 21
-1147.2916678547849
 31
0.0
  0
LINE
  5
16B89
  8
01
 10
-760.70902191576454
 20
-1146.4916678347849
 30
0.0
 11
-760.70902191576454
 21
-1147.2916678547849
 31
0.0
  0
LINE
  5
16B8A
  8
01
 10
-762.30902190576455
 20
-1144.8916678447849
 30
0.0
 11
-762.30902190576455
 21
-1145.9916678647851
 31
0.0
  0
LINE
  5
16B8B
  8
01
 10
-763.10902192576452
 20
-1144.8916678447849
 30
0.0
 11
-763.10902192576452
 21
-1145.9916678647851
 31
0.0
  0
LINE
  5
16B8C
  8
01
 10
-763.10902192576452
 20
-1144.8916678447849
 30
0.0
 11
-762.30902190576455
 21
-1144.8916678447849
 31
0.0
  0
LINE
  5
16B8D
  8
01
 10
-763.10902192576452
 20
-1148.8916678447849
 30
0.0
 11
-763.10902192576452
 21
-1147.791667824785
 31
0.0
  0
LINE
  5
16B8E
  8
01
 10
-762.30902190576455
 20
-1148.8916678447849
 30
0.0
 11
-762.30902190576455
 21
-1147.791667824785
 31
0.0
  0
LINE
  5
16B8F
  8
01
 10
-762.30902190576455
 20
-1148.8916678447849
 30
0.0
 11
-763.10902192576452
 21
-1148.8916678447849
 31
0.0
  0
ARC
  5
16B90
  8
01
 10
-761.80902193576469
 20
-1147.791667824785
 30
0.0
 40
0.5
 50
90.0
 51
180.0
  0
ARC
  5
16B91
  8
01
 10
-761.80902193576469
 20
-1145.9916678647851
 30
0.0
 40
0.5
 50
180.0
 51
270.00000299999772
  0
POINT
  5
16B92
  8
01
 10
-762.70902191576454
 20
-1146.8916678447849
 30
0.0
 50
180.0
  0
LINE
  5
16B93
  8
01
 10
-763.60902189576439
 20
-1147.2916678547849
 30
0.0
 11
-764.70902191576454
 21
-1147.2916678547849
 31
0.0
  0
LINE
  5
16B94
  8
01
 10
-763.60902189576439
 20
-1146.4916678347849
 30
0.0
 11
-764.70902191576454
 21
-1146.4916678347849
 31
0.0
  0
LINE
  5
16B95
  8
01
 10
-764.70902191576454
 20
-1147.2916678547849
 30
0.0
 11
-764.70902191576454
 21
-1146.4916678347849
 31
0.0
  0
LINE
  5
16B96
  8
1DIM
 10
-547.70902191576488
 20
-1105.8916536583599
 30
0.0
 11
-536.70902191576397
 21
-1105.8916536583599
 31
0.0
  0
LINE
  5
16B97
  8
1DIM
 10
-588.20902191576499
 20
-1077.891653658364
 30
0.0
 11
-536.70902191576397
 21
-1077.891653658364
 31
0.0
  0
LINE
  5
16B98
  8
1DIM
 10
-537.70902191576408
 20
-1103.8916536583599
 30
0.0
 11
-537.70902191576408
 21
-1079.891653658364
 31
0.0
  0
TEXT
  5
16B9C
  8
1DIM
 10
-721.07887811049727
 20
-980.21899095352751
 30
0.0
 40
3.5
  1
材質：天然木
  0
SOLID
  5
16B9D
  8
1DIM
 10
-671.67614685661044
 20
-996.17129624709059
 30
0.0
 11
-670.60303301231954
 21
-997.8916269677087
 31
0.0
 12
-672.17608580144383
 22
-996.61232401932648
 32
0.0
 13
-672.17608580144383
 23
-996.61232401932648
 33
0.0
1001
ACAD
1000
DSTYLE
1002
{
1070
    79
1070
     2
1070
   179
1070
     2
1070
   272
1070
     2
1070
   341
1005
0
1002
}
  0
TEXT
  5
16B9F
  8
1DIM
 10
-642.76136069478252
 20
-979.16860990465977
 30
0.0
 40
3.5
  1
材質：亜鉛ダイキャスト
  0
TEXT
  5
16BA0
  8
1DIM
 10
-630.6280273614492
 20
-985.00194323799315
 30
0.0
 40
3.5
  1
仕上げ：クローム
  0
SOLID
  5
16BA1
  8
1DIM
 10
-579.27330419823295
 20
-1003.4699687403649
 30
0.0
 11
-578.19469402811592
 21
-1005.186858722872
 31
0.0
 12
-579.77183012930982
 22
-1003.912593118917
 32
0.0
 13
-579.77183012930982
 23
-1003.912593118917
 33
0.0
  0
TEXT
  5
16BA3
  8
1DIM
 10
-533.57240835944765
 20
-973.08979223549159
 30
0.0
 40
3.5
  1
材質：亜鉛ダイキャスト
  0
TEXT
  5
16BA4
  8
1DIM
 10
-533.57240835944765
 20
-978.92312556882496
 30
0.0
 40
3.5
  1
仕上げ：クローム
  0
SOLID
  5
16BA5
  8
1DIM
 10
-551.99527225825375
 20
-997.83377544974906
 30
0.0
 11
-553.57240835944776
 21
-999.10804105370369
 31
0.0
 12
-552.49379818933062
 22
-997.3911510711971
 32
0.0
 13
-552.49379818933062
 23
-997.3911510711971
 33
0.0
  0
TEXT
  5
16BA7
  8
1DIM
 10
-468.10635004457703
 20
-1128.886072851951
 30
0.0
 40
3.5
  1
取付穴径\U+03C67
  0
SOLID
  5
16BA8
  8
1DIM
 10
-484.30678436096912
 20
-1110.128240021417
 30
0.0
 11
-485.14713778973868
 21
-1108.282998241632
 31
0.0
 12
-483.75375207718832
 22
-1109.7559501645301
 32
0.0
 13
-483.75375207718832
 23
-1109.7559501645301
 33
0.0
  0
LINE
  5
16BAA
  8
1DIM
 10
-661.74515409403682
 20
-1059.8916536583599
 30
0.0
 11
-661.74515409403682
 21
-1075.8916536583631
 31
0.0
  0
LINE
  5
16BAB
  8
1DIM
 10
-661.74515409403682
 20
-1077.8916536583631
 30
0.0
 11
-661.74515409403682
 21
-1091.866089644333
 31
0.0
  0
LINE
  5
16BAF
  8
1DIM
 10
-777.70902191576397
 20
-1007.89165365836
 30
0.0
 11
-777.70902191576397
 21
-1043.162749088649
 31
0.0
  0
LINE
  5
16BB0
  8
1DIM
 10
-547.70902191576397
 20
-1007.89165365836
 30
0.0
 11
-547.70902191576397
 21
-1043.162749088649
 31
0.0
  0
LINE
  5
16BB1
  8
1DIM
 10
-775.70902191576408
 20
-1042.162749088649
 30
0.0
 11
-549.70902191576397
 21
-1042.162749088649
 31
0.0
  0
LINE
  5
16BB5
  8
1DIM
 10
-562.70902191576408
 20
-992.89165365836016
 30
0.0
 11
-526.70902191576397
 21
-992.89165365836016
 31
0.0
  0
LINE
  5
16BB6
  8
1DIM
 10
-562.70902191576408
 20
-1022.89165365836
 30
0.0
 11
-526.70902191576397
 21
-1022.89165365836
 31
0.0
  0
LINE
  5
16BB7
  8
1DIM
 10
-527.70902191576397
 20
-994.89165365836016
 30
0.0
 11
-527.70902191576397
 21
-1020.89165365836
 31
0.0
  0
LINE
  5
16BBB
  8
1DIM
 10
-747.70902191576317
 20
-1105.891653658359
 30
0.0
 11
-747.70902191576317
 21
-1116.891653658359
 31
0.0
  0
LINE
  5
16BBC
  8
1DIM
 10
-577.70902191576488
 20
-1105.8916536583599
 30
0.0
 11
-577.70902191576488
 21
-1116.891653658359
 31
0.0
  0
LINE
  5
16BBD
  8
1DIM
 10
-745.70902191576306
 20
-1115.891653658359
 30
0.0
 11
-579.70902191576499
 21
-1115.891653658359
 31
0.0
  0
LINE
  5
16BC1
  8
1DIM
 10
-762.70902191576567
 20
-1126.6262466115661
 30
0.0
 11
-762.70902191576567
 21
-1124.891653658359
 31
0.0
  0
LINE
  5
16BC2
  8
1DIM
 10
-777.70902191576306
 20
-1105.891653658359
 30
0.0
 11
-777.70902191576306
 21
-1126.891653658359
 31
0.0
  0
LINE
  5
16BC3
  8
1DIM
 10
-764.70902191576556
 20
-1125.891653658359
 30
0.0
 11
-775.70902191576317
 21
-1125.891653658359
 31
0.0
  0
LINE
  5
16BC7
  8
1DIM
 10
-562.70902191576749
 20
-1126.6262466115661
 30
0.0
 11
-562.70902191576749
 21
-1124.891653658359
 31
0.0
  0
LINE
  5
16BC8
  8
1DIM
 10
-762.70902191576567
 20
-1125.891653658359
 30
0.0
 11
-762.70902191576567
 21
-1124.891653658359
 31
0.0
  0
LINE
  5
16BC9
  8
1DIM
 10
-564.70902191576761
 20
-1125.891653658359
 30
0.0
 11
-760.70902191576556
 21
-1125.891653658359
 31
0.0
  0
LINE
  5
16BCD
  8
1DIM
 10
-547.70902191576488
 20
-1105.8916536583599
 30
0.0
 11
-547.70902191576488
 21
-1126.891653658359
 31
0.0
  0
LINE
  5
16BCE
  8
1DIM
 10
-562.70902191576715
 20
-1120.891653658362
 30
0.0
 11
-562.70902191576715
 21
-1126.891653658359
 31
0.0
  0
LINE
  5
16BCF
  8
1DIM
 10
-549.70902191576499
 20
-1125.891653658359
 30
0.0
 11
-560.70902191576715
 21
-1125.891653658359
 31
0.0
  0
LINE
  5
16BD3
  8
1DIM
 10
-533.33228025638562
 20
-1105.891653658359
 30
0.0
 11
-526.70902191576397
 21
-1105.891653658359
 31
0.0
  0
LINE
  5
16BD4
  8
1DIM
 10
-533.33228025638562
 20
-1135.891653658359
 30
0.0
 11
-526.70902191576397
 21
-1135.891653658359
 31
0.0
  0
LINE
  5
16BD5
  8
1DIM
 10
-527.70902191576397
 20
-1107.891653658359
 30
0.0
 11
-527.70902191576397
 21
-1133.891653658359
 31
0.0
  0
LINE
  5
16BD9
  8
1DIM
 10
-533.33228025638562
 20
-1105.891653658359
 30
0.0
 11
-526.70902191576397
 21
-1105.891653658359
 31
0.0
  0
LINE
  5
16BDA
  8
1DIM
 10
-553.70902191576499
 20
-1057.8916536583599
 30
0.0
 11
-526.70902191576397
 21
-1057.8916536583599
 31
0.0
  0
LINE
  5
16BDB
  8
1DIM
 10
-527.70902191576397
 20
-1103.891653658359
 30
0.0
 11
-527.70902191576397
 21
-1059.8916536583599
 31
0.0
  0
LINE
  5
16BDF
  8
1PHANTOM
 10
-494.14530744682509
 20
-1153.391653658359
 30
0.0
 11
-494.14530744682509
 21
-1154.7916536583591
 31
0.0
  0
ARC
  5
16BE0
  8
1PHANTOM
 10
-491.64530744682497
 20
-1154.7916536583591
 30
0.0
 40
2.5
 50
180.0
 51
270.0
  0
LINE
  5
16BE1
  8
1PHANTOM
 10
-491.89530744682509
 20
-1153.391653658359
 30
0.0
 11
-494.14530744682509
 21
-1153.391653658359
 31
0.0
  0
LINE
  5
16BE2
  8
1PHANTOM
 10
-491.64530744682497
 20
-1157.2916536583591
 30
0.0
 11
-486.14530744682509
 21
-1157.29165365836
 31
0.0
  0
LINE
  5
16BE3
  8
1PHANTOM
 10
-491.89530744682509
 20
-1083.891653658359
 30
0.0
 11
-491.89530744682509
 21
-1153.391653658359
 31
0.0
  0
ARC
  5
16BE4
  8
1PHANTOM
 10
-486.14530744682509
 20
-1154.79165365836
 30
0.0
 40
2.5
 50
270.0
 51
0.0
  0
LINE
  5
16BE5
  8
1PHANTOM
 10
-491.89530744682509
 20
-1083.891653658359
 30
0.0
 11
-491.39530744682509
 21
-1083.3916536583599
 31
0.0
  0
LINE
  5
16BE6
  8
1PHANTOM
 10
-483.64530744682492
 20
-1153.391653658359
 30
0.0
 11
-483.64530744682497
 21
-1154.79165365836
 31
0.0
  0
LINE
  5
16BE7
  8
1PHANTOM
 10
-486.39530744682497
 20
-1083.3916536583599
 30
0.0
 11
-491.39530744682509
 21
-1083.3916536583599
 31
0.0
  0
LINE
  5
16BE8
  8
1PHANTOM
 10
-483.64530744682492
 20
-1153.391653658359
 30
0.0
 11
-485.89530744682497
 21
-1153.391653658359
 31
0.0
  0
LINE
  5
16BE9
  8
1PHANTOM
 10
-486.39530744682497
 20
-1083.3916536583599
 30
0.0
 11
-485.89530744682497
 21
-1083.891653658359
 31
0.0
  0
LINE
  5
16BEA
  8
1PHANTOM
 10
-485.89530744682497
 20
-1083.891653658359
 30
0.0
 11
-485.89530744682497
 21
-1153.391653658359
 31
0.0
  0
LINE
  5
16BEB
  8
1PHANTOM
 10
-757.45902191576613
 20
-1153.7916526583599
 30
0.0
 11
-757.45902191576613
 21
-1155.19165265836
 31
0.0
  0
LINE
  5
16BEC
  8
1PHANTOM
 10
-759.70902191576613
 20
-1153.7916526583599
 30
0.0
 11
-757.45902191576613
 21
-1153.7916526583599
 31
0.0
  0
ARC
  5
16BED
  8
1PHANTOM
 10
-759.95902191576613
 20
-1155.19165265836
 30
0.0
 40
2.5
 50
270.0
 51
0.0
  0
LINE
  5
16BEE
  8
1PHANTOM
 10
-759.70902191576613
 20
-1084.2916526583599
 30
0.0
 11
-759.70902191576613
 21
-1153.7916526583599
 31
0.0
  0
LINE
  5
16BEF
  8
1PHANTOM
 10
-759.95902191576613
 20
-1157.69165265836
 30
0.0
 11
-765.45902191576613
 21
-1157.69165265836
 31
0.0
  0
LINE
  5
16BF0
  8
1PHANTOM
 10
-759.70902191576613
 20
-1084.2916526583599
 30
0.0
 11
-760.20902191576613
 21
-1083.7916526583599
 31
0.0
  0
ARC
  5
16BF1
  8
1PHANTOM
 10
-765.45902191576613
 20
-1155.19165265836
 30
0.0
 40
2.5
 50
180.0
 51
270.0
  0
LINE
  5
16BF2
  8
1PHANTOM
 10
-765.20902191576613
 20
-1083.7916526583599
 30
0.0
 11
-760.20902191576613
 21
-1083.7916526583599
 31
0.0
  0
LINE
  5
16BF3
  8
1PHANTOM
 10
-767.95902191576624
 20
-1153.7916526583599
 30
0.0
 11
-767.95902191576613
 21
-1155.19165265836
 31
0.0
  0
LINE
  5
16BF4
  8
1PHANTOM
 10
-765.20902191576613
 20
-1083.7916526583599
 30
0.0
 11
-765.70902191576613
 21
-1084.2916526583599
 31
0.0
  0
LINE
  5
16BF5
  8
1PHANTOM
 10
-767.95902191576624
 20
-1153.7916526583599
 30
0.0
 11
-765.70902191576613
 21
-1153.7916526583599
 31
0.0
  0
LINE
  5
16BF6
  8
1PHANTOM
 10
-765.70902191576613
 20
-1084.2916526583599
 30
0.0
 11
-765.70902191576613
 21
-1153.7916526583599
 31
0.0
  0
LINE
  5
16BF7
  8
1PHANTOM
 10
-567.95902191576715
 20
-1153.7916526583599
 30
0.0
 11
-567.95902191576715
 21
-1155.19165265836
 31
0.0
  0
ARC
  5
16BF8
  8
1PHANTOM
 10
-565.45902191576727
 20
-1155.19165265836
 30
0.0
 40
2.5
 50
180.0
 51
270.0
  0
LINE
  5
16BF9
  8
1PHANTOM
 10
-565.70902191576715
 20
-1153.7916526583599
 30
0.0
 11
-567.95902191576715
 21
-1153.7916526583599
 31
0.0
  0
LINE
  5
16BFA
  8
1PHANTOM
 10
-565.45902191576727
 20
-1157.69165265836
 30
0.0
 11
-559.95902191576715
 21
-1157.69165265836
 31
0.0
  0
LINE
  5
16BFB
  8
1PHANTOM
 10
-565.70902191576715
 20
-1084.2916526583599
 30
0.0
 11
-565.70902191576715
 21
-1153.7916526583599
 31
0.0
  0
ARC
  5
16BFC
  8
1PHANTOM
 10
-559.95902191576715
 20
-1155.19165265836
 30
0.0
 40
2.5
 50
270.0
 51
0.0
  0
LINE
  5
16BFD
  8
1PHANTOM
 10
-565.70902191576715
 20
-1084.2916526583599
 30
0.0
 11
-565.20902191576715
 21
-1083.7916526583599
 31
0.0
  0
LINE
  5
16BFE
  8
1PHANTOM
 10
-557.45902191576715
 20
-1153.7916526583599
 30
0.0
 11
-557.45902191576727
 21
-1155.19165265836
 31
0.0
  0
LINE
  5
16BFF
  8
1PHANTOM
 10
-560.20902191576715
 20
-1083.7916526583599
 30
0.0
 11
-565.20902191576715
 21
-1083.7916526583599
 31
0.0
  0
LINE
  5
16C00
  8
1PHANTOM
 10
-557.45902191576715
 20
-1153.7916526583599
 30
0.0
 11
-559.70902191576727
 21
-1153.7916526583599
 31
0.0
  0
LINE
  5
16C01
  8
1PHANTOM
 10
-560.20902191576715
 20
-1083.7916526583599
 30
0.0
 11
-559.70902191576727
 21
-1084.2916526583599
 31
0.0
  0
LINE
  5
16C02
  8
1PHANTOM
 10
-559.70902191576727
 20
-1084.2916526583599
 30
0.0
 11
-559.70902191576727
 21
-1153.7916526583599
 31
0.0
  0
LINE
  5
16C03
  8
1PHANTOM
 10
-492.7953214087355
 20
-1148.8919159083291
 30
0.0
 11
-496.14533071505491
 21
-1148.8917073047789
 31
0.0
  0
LINE
  5
16C04
  8
1PHANTOM
 10
-492.44531896561222
 20
-1148.5419185778519
 30
0.0
 11
-492.7953214087355
 21
-1148.8919159083291
 31
0.0
  0
LINE
  5
16C05
  8
1PHANTOM
 10
-498.14533536860819
 20
-1150.891688690464
 30
0.0
 11
-496.14533071505491
 21
-1148.8917073047789
 31
0.0
  0
LINE
  5
16C06
  8
1PHANTOM
 10
-492.44531896561222
 20
-1148.5419185778519
 30
0.0
 11
-492.4452959303415
 21
-1145.241918577922
 31
0.0
  0
LINE
  5
16C07
  8
1PHANTOM
 10
-498.14533536860819
 20
-1150.891688690464
 30
0.0
 11
-498.4453353685966
 21
-1150.89168589831
 31
0.0
  0
LINE
  5
16C08
  8
1PHANTOM
 10
-492.4452959303415
 20
-1145.241918577922
 30
0.0
 11
-492.79529348719723
 21
-1144.891915908416
 31
0.0
  0
ARC
  5
16C09
  8
1PHANTOM
 10
-490.00641855853962
 20
-1146.8917448050879
 30
0.0
 40
9.3388888887435328
 50
154.63883306927829
 51
205.36036703754991
  0
LINE
  5
16C0A
  8
1PHANTOM
 10
-492.79529348719723
 20
-1144.891915908416
 30
0.0
 11
-496.14527487189099
 21
-1144.8917073051259
 31
0.0
  0
LINE
  5
16C0B
  8
1PHANTOM
 10
-498.14527952552982
 20
-1142.891688690637
 30
0.0
 11
-498.44527952551817
 21
-1142.891685898483
 31
0.0
  0
LINE
  5
16C0C
  8
1PHANTOM
 10
-498.14527952552982
 20
-1142.891688690637
 30
0.0
 11
-496.14527487189099
 21
-1144.8917073051259
 31
0.0
  0
LINE
  5
16C0D
  8
1PHANTOM
 10
-484.99529348490779
 20
-1148.8919159083291
 30
0.0
 11
-481.64528417858838
 21
-1148.8917073047789
 31
0.0
  0
LINE
  5
16C0E
  8
1PHANTOM
 10
-479.64527952503693
 20
-1150.8916886904631
 30
0.0
 11
-481.64528417858838
 21
-1148.8917073047789
 31
0.0
  0
LINE
  5
16C0F
  8
1PHANTOM
 10
-485.34529592803278
 20
-1148.541918577851
 30
0.0
 11
-484.99529348490779
 21
-1148.8919159083291
 31
0.0
  0
LINE
  5
16C10
  8
1PHANTOM
 10
-479.64527952503693
 20
-1150.8916886904631
 30
0.0
 11
-479.34527952504862
 21
-1150.8916858983091
 31
0.0
  0
LINE
  5
16C11
  8
1PHANTOM
 10
-485.34529592803278
 20
-1148.541918577851
 30
0.0
 11
-485.34531896330361
 21
-1145.2419185779211
 31
0.0
  0
ARC
  5
16C12
  8
1PHANTOM
 10
-487.78419633510549
 20
-1146.8917448050879
 30
0.0
 40
9.3388888887435328
 50
334.63963296245021
 51
25.36116693072184
  0
LINE
  5
16C13
  8
1PHANTOM
 10
-485.34531896330361
 20
-1145.2419185779211
 30
0.0
 11
-484.99532140644789
 21
-1144.8919159084151
 31
0.0
  0
LINE
  5
16C14
  8
1PHANTOM
 10
-479.64533536811342
 20
-1142.8916886906361
 30
0.0
 11
-479.34533536812688
 21
-1142.8916858984819
 31
0.0
  0
LINE
  5
16C15
  8
1PHANTOM
 10
-484.99532140644789
 20
-1144.8919159084151
 30
0.0
 11
-481.64534002175401
 21
-1144.891707305125
 31
0.0
  0
LINE
  5
16C16
  8
1PHANTOM
 10
-479.64533536811342
 20
-1142.8916886906361
 30
0.0
 11
-481.64534002175401
 21
-1144.891707305125
 31
0.0
  0
TEXT
  5
16C17
  8
1DIM
 10
-528.40902191576401
 20
-1084.808320325026
 30
0.0
 40
3.5
  1
48
 50
90.0
  0
LINE
  5
16C18
  8
0
  6
BYBLOCK
 10
-528.24492029576413
 20
-1059.8916536583599
 30
0.0
 11
-527.70902191576397
 21
-1057.8916536583599
 31
0.0
  0
LINE
  5
16C19
  8
0
  6
BYBLOCK
 10
-527.70902191576397
 20
-1057.8916536583599
 30
0.0
 11
-527.17312353576403
 21
-1059.8916536583599
 31
0.0
  0
LINE
  5
16C1A
  8
0
  6
BYBLOCK
 10
-527.70902191576397
 20
-1057.8916536583599
 30
0.0
 11
-527.70902191576397
 21
-1059.8916536583599
 31
0.0
  0
LINE
  5
16C1B
  8
0
  6
BYBLOCK
 10
-527.17312353576403
 20
-1103.891653658359
 30
0.0
 11
-527.70902191576397
 21
-1105.891653658359
 31
0.0
  0
LINE
  5
16C1C
  8
0
  6
BYBLOCK
 10
-527.70902191576397
 20
-1105.891653658359
 30
0.0
 11
-528.24492029576413
 21
-1103.891653658359
 31
0.0
  0
LINE
  5
16C1D
  8
0
  6
BYBLOCK
 10
-527.70902191576397
 20
-1105.891653658359
 30
0.0
 11
-527.70902191576397
 21
-1103.891653658359
 31
0.0
  0
TEXT
  5
16C1E
  8
1DIM
 10
-534.24235524909727
 20
-1128.8249869916931
 30
0.0
 40
3.5
  1
対応扉厚
 50
90.0
  0
TEXT
  5
16C1F
  8
1DIM
 10
-528.4090219157639
 20
-1132.3249869916931
 30
0.0
 40
3.5
  1
30～40mm
 50
90.0
  0
LINE
  5
16C20
  8
0
  6
BYBLOCK
 10
-527.17312353576403
 20
-1133.891653658359
 30
0.0
 11
-527.70902191576397
 21
-1135.891653658359
 31
0.0
  0
LINE
  5
16C21
  8
0
  6
BYBLOCK
 10
-527.70902191576397
 20
-1135.891653658359
 30
0.0
 11
-528.24492029576413
 21
-1133.891653658359
 31
0.0
  0
LINE
  5
16C22
  8
0
  6
BYBLOCK
 10
-527.70902191576397
 20
-1135.891653658359
 30
0.0
 11
-527.70902191576397
 21
-1133.891653658359
 31
0.0
  0
LINE
  5
16C23
  8
0
  6
BYBLOCK
 10
-528.24492029576413
 20
-1107.891653658359
 30
0.0
 11
-527.70902191576397
 21
-1105.891653658359
 31
0.0
  0
LINE
  5
16C24
  8
0
  6
BYBLOCK
 10
-527.70902191576397
 20
-1105.891653658359
 30
0.0
 11
-527.17312353576403
 21
-1107.891653658359
 31
0.0
  0
LINE
  5
16C25
  8
0
  6
BYBLOCK
 10
-527.70902191576397
 20
-1105.891653658359
 30
0.0
 11
-527.70902191576397
 21
-1107.891653658359
 31
0.0
  0
TEXT
  5
16C26
  8
1DIM
 10
-557.54235524909939
 20
-1125.191653658359
 30
0.0
 40
3.5
  1
15
  0
LINE
  5
16C27
  8
0
  6
BYBLOCK
 10
-560.70902191576715
 20
-1126.427552038359
 30
0.0
 11
-562.70902191576715
 21
-1125.891653658359
 31
0.0
  0
LINE
  5
16C28
  8
0
  6
BYBLOCK
 10
-562.70902191576715
 20
-1125.891653658359
 30
0.0
 11
-560.70902191576715
 21
-1125.3557552783591
 31
0.0
  0
LINE
  5
16C29
  8
0
  6
BYBLOCK
 10
-562.70902191576715
 20
-1125.891653658359
 30
0.0
 11
-560.70902191576715
 21
-1125.891653658359
 31
0.0
  0
LINE
  5
16C2A
  8
0
  6
BYBLOCK
 10
-549.70902191576499
 20
-1125.3557552783591
 30
0.0
 11
-547.70902191576488
 21
-1125.891653658359
 31
0.0
  0
LINE
  5
16C2B
  8
0
  6
BYBLOCK
 10
-547.70902191576488
 20
-1125.891653658359
 30
0.0
 11
-549.70902191576499
 21
-1126.427552038359
 31
0.0
  0
LINE
  5
16C2C
  8
0
  6
BYBLOCK
 10
-547.70902191576488
 20
-1125.891653658359
 30
0.0
 11
-549.70902191576499
 21
-1125.891653658359
 31
0.0
  0
TEXT
  5
16C2D
  8
1DIM
 10
-668.54235524909996
 20
-1125.191653658359
 30
0.0
 40
3.5
  1
P200
  0
LINE
  5
16C2E
  8
0
  6
BYBLOCK
 10
-760.70902191576556
 20
-1126.427552038359
 30
0.0
 11
-762.70902191576567
 21
-1125.891653658359
 31
0.0
  0
LINE
  5
16C2F
  8
0
  6
BYBLOCK
 10
-762.70902191576567
 20
-1125.891653658359
 30
0.0
 11
-760.70902191576556
 21
-1125.3557552783591
 31
0.0
  0
LINE
  5
16C30
  8
0
  6
BYBLOCK
 10
-762.70902191576567
 20
-1125.891653658359
 30
0.0
 11
-760.70902191576556
 21
-1125.891653658359
 31
0.0
  0
LINE
  5
16C31
  8
0
  6
BYBLOCK
 10
-564.70902191576761
 20
-1125.3557552783591
 30
0.0
 11
-562.70902191576749
 21
-1125.891653658359
 31
0.0
  0
LINE
  5
16C32
  8
0
  6
BYBLOCK
 10
-562.70902191576749
 20
-1125.891653658359
 30
0.0
 11
-564.70902191576761
 21
-1126.427552038359
 31
0.0
  0
LINE
  5
16C33
  8
0
  6
BYBLOCK
 10
-562.70902191576749
 20
-1125.891653658359
 30
0.0
 11
-564.70902191576761
 21
-1125.891653658359
 31
0.0
  0
TEXT
  5
16C34
  8
1DIM
 10
-772.5423552490978
 20
-1125.191653658359
 30
0.0
 40
3.5
  1
15
  0
LINE
  5
16C35
  8
0
  6
BYBLOCK
 10
-775.70902191576317
 20
-1126.427552038359
 30
0.0
 11
-777.70902191576306
 21
-1125.891653658359
 31
0.0
  0
LINE
  5
16C36
  8
0
  6
BYBLOCK
 10
-777.70902191576306
 20
-1125.891653658359
 30
0.0
 11
-775.70902191576317
 21
-1125.3557552783591
 31
0.0
  0
LINE
  5
16C37
  8
0
  6
BYBLOCK
 10
-777.70902191576306
 20
-1125.891653658359
 30
0.0
 11
-775.70902191576317
 21
-1125.891653658359
 31
0.0
  0
LINE
  5
16C38
  8
0
  6
BYBLOCK
 10
-764.70902191576556
 20
-1125.3557552783591
 30
0.0
 11
-762.70902191576567
 21
-1125.891653658359
 31
0.0
  0
LINE
  5
16C39
  8
0
  6
BYBLOCK
 10
-762.70902191576567
 20
-1125.891653658359
 30
0.0
 11
-764.70902191576556
 21
-1126.427552038359
 31
0.0
  0
LINE
  5
16C3A
  8
0
  6
BYBLOCK
 10
-762.70902191576567
 20
-1125.891653658359
 30
0.0
 11
-764.70902191576556
 21
-1125.891653658359
 31
0.0
  0
TEXT
  5
16C3B
  8
1DIM
 10
-666.50068858243071
 20
-1115.191653658359
 30
0.0
 40
3.5
  1
170
  0
LINE
  5
16C3C
  8
0
  6
BYBLOCK
 10
-579.70902191576499
 20
-1115.3557552783591
 30
0.0
 11
-577.70902191576488
 21
-1115.891653658359
 31
0.0
  0
LINE
  5
16C3D
  8
0
  6
BYBLOCK
 10
-577.70902191576488
 20
-1115.891653658359
 30
0.0
 11
-579.70902191576499
 21
-1116.427552038359
 31
0.0
  0
LINE
  5
16C3E
  8
0
  6
BYBLOCK
 10
-577.70902191576488
 20
-1115.891653658359
 30
0.0
 11
-579.70902191576499
 21
-1115.891653658359
 31
0.0
  0
LINE
  5
16C3F
  8
0
  6
BYBLOCK
 10
-745.70902191576306
 20
-1116.427552038359
 30
0.0
 11
-747.70902191576317
 21
-1115.891653658359
 31
0.0
  0
LINE
  5
16C40
  8
0
  6
BYBLOCK
 10
-747.70902191576317
 20
-1115.891653658359
 30
0.0
 11
-745.70902191576306
 21
-1115.3557552783591
 31
0.0
  0
LINE
  5
16C41
  8
0
  6
BYBLOCK
 10
-747.70902191576317
 20
-1115.891653658359
 30
0.0
 11
-745.70902191576306
 21
-1115.891653658359
 31
0.0
  0
TEXT
  5
16C42
  8
1DIM
 10
-528.40902191576401
 20
-1012.96665365836
 30
0.0
 40
3.5
  1
\U+03C630
 50
90.0
  0
LINE
  5
16C43
  8
0
  6
BYBLOCK
 10
-527.17312353576403
 20
-1020.89165365836
 30
0.0
 11
-527.70902191576397
 21
-1022.89165365836
 31
0.0
  0
LINE
  5
16C44
  8
0
  6
BYBLOCK
 10
-527.70902191576397
 20
-1022.89165365836
 30
0.0
 11
-528.24492029576413
 21
-1020.89165365836
 31
0.0
  0
LINE
  5
16C45
  8
0
  6
BYBLOCK
 10
-527.70902191576397
 20
-1022.89165365836
 30
0.0
 11
-527.70902191576397
 21
-1020.89165365836
 31
0.0
  0
LINE
  5
16C46
  8
0
  6
BYBLOCK
 10
-528.24492029576413
 20
-994.89165365836016
 30
0.0
 11
-527.70902191576397
 21
-992.89165365836016
 31
0.0
  0
LINE
  5
16C47
  8
0
  6
BYBLOCK
 10
-527.70902191576397
 20
-992.89165365836016
 30
0.0
 11
-527.17312353576403
 21
-994.89165365836016
 31
0.0
  0
LINE
  5
16C48
  8
0
  6
BYBLOCK
 10
-527.70902191576397
 20
-992.89165365836016
 30
0.0
 11
-527.70902191576397
 21
-994.89165365836016
 31
0.0
  0
TEXT
  5
16C49
  8
1DIM
 10
-667.08402191576397
 20
-1041.462749088648
 30
0.0
 40
3.5
  1
230
  0
LINE
  5
16C4A
  8
0
  6
BYBLOCK
 10
-549.70902191576397
 20
-1041.626850708649
 30
0.0
 11
-547.70902191576397
 21
-1042.162749088649
 31
0.0
  0
LINE
  5
16C4B
  8
0
  6
BYBLOCK
 10
-547.70902191576397
 20
-1042.162749088649
 30
0.0
 11
-549.70902191576397
 21
-1042.6986474686489
 31
0.0
  0
LINE
  5
16C4C
  8
0
  6
BYBLOCK
 10
-547.70902191576397
 20
-1042.162749088649
 30
0.0
 11
-549.70902191576397
 21
-1042.162749088649
 31
0.0
  0
LINE
  5
16C4D
  8
0
  6
BYBLOCK
 10
-775.70902191576408
 20
-1042.6986474686489
 30
0.0
 11
-777.70902191576397
 21
-1042.162749088649
 31
0.0
  0
LINE
  5
16C4E
  8
0
  6
BYBLOCK
 10
-777.70902191576397
 20
-1042.162749088649
 30
0.0
 11
-775.70902191576408
 21
-1041.626850708649
 31
0.0
  0
LINE
  5
16C4F
  8
0
  6
BYBLOCK
 10
-777.70902191576397
 20
-1042.162749088649
 30
0.0
 11
-775.70902191576408
 21
-1042.162749088649
 31
0.0
  0
TEXT
  5
16C50
  8
1DIM
 10
-662.44515409403675
 20
-1091.407756311
 30
0.0
 40
3.5
  1
\U+03C620
 50
90.0
  0
LINE
  5
16C51
  8
0
  6
BYBLOCK
 10
-661.20925571403677
 20
-1075.8916536583631
 30
0.0
 11
-661.74515409403682
 21
-1077.8916536583631
 31
0.0
  0
LINE
  5
16C52
  8
0
  6
BYBLOCK
 10
-661.74515409403682
 20
-1077.8916536583631
 30
0.0
 11
-662.28105247403676
 21
-1075.8916536583631
 31
0.0
  0
LINE
  5
16C53
  8
0
  6
BYBLOCK
 10
-661.74515409403682
 20
-1077.8916536583631
 30
0.0
 11
-661.74515409403682
 21
-1075.8916536583631
 31
0.0
  0
LINE
  5
16C54
  8
0
  6
BYBLOCK
 10
-662.28105247403676
 20
-1059.8916536583599
 30
0.0
 11
-661.74515409403682
 21
-1057.8916536583599
 31
0.0
  0
LINE
  5
16C55
  8
0
  6
BYBLOCK
 10
-661.74515409403682
 20
-1057.8916536583599
 30
0.0
 11
-661.20925571403677
 21
-1059.8916536583599
 31
0.0
  0
LINE
  5
16C56
  8
0
  6
BYBLOCK
 10
-661.74515409403682
 20
-1057.8916536583599
 30
0.0
 11
-661.74515409403682
 21
-1059.8916536583599
 31
0.0
  0
LINE
  5
16C57
  8
1DIM
 10
-484.03026821907872
 20
-1109.9420950929739
 30
0.0
 11
-470.8063500445769
 21
-1129.586072851951
 31
0.0
  0
LINE
  5
16C58
  8
1DIM
 10
-470.8063500445769
 20
-1129.586072851951
 30
0.0
 11
-468.10635004457703
 21
-1129.586072851951
 31
0.0
  0
LINE
  5
16C59
  8
1DIM
 10
-552.24453522379224
 20
-997.61246326047308
 30
0.0
 11
-536.27240835944781
 21
-979.62312556882489
 31
0.0
  0
LINE
  5
16C5A
  8
1DIM
 10
-536.27240835944781
 20
-979.62312556882489
 30
0.0
 11
-533.57240835944765
 21
-979.62312556882489
 31
0.0
  0
LINE
  5
16C5B
  8
1DIM
 10
-579.52256716377144
 20
-1003.691280929641
 30
0.0
 11
-595.49469402811587
 21
-985.70194323799319
 31
0.0
  0
LINE
  5
16C5C
  8
1DIM
 10
-595.49469402811587
 20
-985.70194323799319
 30
0.0
 11
-598.19469402811592
 21
-985.70194323799319
 31
0.0
  0
LINE
  5
16C5D
  8
1DIM
 10
-671.92611632902697
 20
-996.39181013320865
 30
0.0
 11
-685.5756690265008
 21
-980.91899095352755
 31
0.0
1001
ACAD
1000
DSTYLE
1002
{
1070
    79
1070
     2
1070
   179
1070
     2
1070
   272
1070
     2
1070
   341
1005
0
1002
}
  0
LINE
  5
16C5E
  8
1DIM
 10
-685.5756690265008
 20
-980.91899095352755
 30
0.0
 11
-688.27566902650085
 21
-980.91899095352755
 31
0.0
1001
ACAD
1000
DSTYLE
1002
{
1070
    79
1070
     2
1070
   179
1070
     2
1070
   272
1070
     2
1070
   341
1005
0
1002
}
  0
TEXT
  5
16C5F
  8
1DIM
 10
-538.40902191576401
 20
-1094.8083203250289
 30
0.0
 40
3.5
  1
28
 50
90.0
  0
LINE
  5
16C60
  8
0
  6
BYBLOCK
 10
-538.24492029576413
 20
-1079.891653658364
 30
0.0
 11
-537.70902191576408
 21
-1077.891653658364
 31
0.0
  0
LINE
  5
16C61
  8
0
  6
BYBLOCK
 10
-537.70902191576408
 20
-1077.891653658364
 30
0.0
 11
-537.17312353576403
 21
-1079.891653658364
 31
0.0
  0
LINE
  5
16C62
  8
0
  6
BYBLOCK
 10
-537.70902191576408
 20
-1077.891653658364
 30
0.0
 11
-537.70902191576408
 21
-1079.891653658364
 31
0.0
  0
LINE
  5
16C63
  8
0
  6
BYBLOCK
 10
-537.17312353576403
 20
-1103.8916536583599
 30
0.0
 11
-537.70902191576408
 21
-1105.8916536583599
 31
0.0
  0
LINE
  5
16C64
  8
0
  6
BYBLOCK
 10
-537.70902191576408
 20
-1105.8916536583599
 30
0.0
 11
-538.24492029576413
 21
-1103.8916536583599
 31
0.0
  0
LINE
  5
16C65
  8
0
  6
BYBLOCK
 10
-537.70902191576408
 20
-1105.8916536583599
 30
0.0
 11
-537.70902191576408
 21
-1103.8916536583599
 31
0.0
  0
VIEWPORT
  5
57
 67
     1
  8
0
 10
-3.7717277109752549
 20
10.09791912461025
 30
0.0
 40
584.07963025471645
 41
268.55001824603619
 68
     1
 69
     1
1001
ACAD
1000
MVIEW
1002
{
1070
    16
1010
0.0
1020
0.0
1030
0.0
1010
0.0
1020
0.0
1030
1.0
1040
0.0
1040
268.55001824603619
1040
-3.7717277109752549
1040
10.09791912461025
1040
50.0
1040
0.0
1040
0.0
1070
     0
1070
   100
1070
     1
1070
     1
1070
     0
1070
     0
1070
     0
1070
     0
1040
0.0
1040
0.0
1040
0.0
1040
10.0
1040
10.0
1040
10.0
1040
10.0
1070
     0
1002
{
1002
}
1002
}
  0
ENDSEC
  0
EOF
