  0
SECTION
  2
HEADER
  9
$ACADVER
  1
AC1009
  9
$INSBASE
 10
0.0
 20
0.0
 30
0.0
  9
$EXTMIN
 10
1066.5909545595521
 20
-798.37196341279423
 30
0.0
  9
$EXTMAX
 10
1770.5362365982151
 20
-503.371963412794
 30
0.0
  9
$LIMMIN
 10
0.0
 20
0.0
  9
$LIMMAX
 10
420.0
 20
297.0
  9
$ORTHOMODE
 70
     0
  9
$REGENMODE
 70
     1
  9
$FILLMODE
 70
     1
  9
$QTEXTMODE
 70
     0
  9
$MIRRTEXT
 70
     0
  9
$DRAGMODE
 70
     2
  9
$LTSCALE
 40
0.5
  9
$OSMODE
 70
  2175
  9
$ATTMODE
 70
     1
  9
$TEXTSIZE
 40
4.0
  9
$TRACEWID
 40
1.0
  9
$TEXTSTYLE
  7
STANDARD
  9
$CLAYER
  8
1TEXT
  9
$CELTYPE
  6
BYLAYER
  9
$CECOLOR
 62
   256
  9
$DIMSCALE
 40
5.0
  9
$DIMASZ
 40
2.0
  9
$DIMEXO
 40
0.0
  9
$DIMDLI
 40
7.0
  9
$DIMRND
 40
0.0
  9
$DIMDLE
 40
0.0
  9
$DIMEXE
 40
1.0
  9
$DIMTP
 40
0.0
  9
$DIMTM
 40
0.0
  9
$DIMTXT
 40
3.5
  9
$DIMCEN
 40
0.0
  9
$DIMTSZ
 40
0.0
  9
$DIMTOL
 70
     0
  9
$DIMLIM
 70
     0
  9
$DIMTIH
 70
     0
  9
$DIMTOH
 70
     0
  9
$DIMSE1
 70
     0
  9
$DIMSE2
 70
     0
  9
$DIMTAD
 70
     1
  9
$DIMZIN
 70
     8
  9
$DIMBLK
  1

  9
$DIMASO
 70
     1
  9
$DIMSHO
 70
     1
  9
$DIMPOST
  1
 
  9
$DIMAPOST
  1

  9
$DIMALT
 70
     0
  9
$DIMALTD
 70
     2
  9
$DIMALTF
 40
25.399999999999999
  9
$DIMLFAC
 40
1.0
  9
$DIMTOFL
 70
     1
  9
$DIMTVP
 40
0.0
  9
$DIMTIX
 70
     0
  9
$DIMSOXD
 70
     0
  9
$DIMSAH
 70
     1
  9
$DIMBLK1
  1
OPEN30
  9
$DIMBLK2
  1
OPEN30
  9
$DIMSTYLE
  2
NEWX10
  9
$DIMCLRD
 70
   256
  9
$DIMCLRE
 70
   256
  9
$DIMCLRT
 70
   201
  9
$DIMTFAC
 40
0.7
  9
$DIMGAP
 40
0.7
  9
$LUNITS
 70
     2
  9
$LUPREC
 70
     4
  9
$SKETCHINC
 40
1.0
  9
$FILLETRAD
 40
0.0
  9
$AUNITS
 70
     0
  9
$AUPREC
 70
     2
  9
$MENU
  1
acad
  9
$ELEVATION
 40
0.0
  9
$PELEVATION
 40
0.0
  9
$THICKNESS
 40
0.0
  9
$LIMCHECK
 70
     0
  9
$BLIPMODE
 70
     0
  9
$CHAMFERA
 40
1.0
  9
$CHAMFERB
 40
1.0
  9
$SKPOLY
 70
     0
  9
$TDCREATE
 40
2453033.7326634838
  9
$TDUPDATE
 40
2456652.586225579
  9
$TDINDWG
 40
2.8039461806000001
  9
$TDUSRTIMER
 40
2.8039461806000001
  9
$USRTIMER
 70
     1
  9
$ANGBASE
 50
0.0
  9
$ANGDIR
 70
     0
  9
$PDMODE
 70
     0
  9
$PDSIZE
 40
0.0
  9
$PLINEWID
 40
0.0
  9
$COORDS
 70
     0
  9
$SPLFRAME
 70
     0
  9
$SPLINETYPE
 70
     6
  9
$SPLINESEGS
 70
     8
  9
$ATTDIA
 70
     0
  9
$ATTREQ
 70
     1
  9
$HANDLING
 70
     1
  9
$HANDSEED
  5
22845
  9
$SURFTAB1
 70
     6
  9
$SURFTAB2
 70
     6
  9
$SURFTYPE
 70
     6
  9
$SURFU
 70
     6
  9
$SURFV
 70
     6
  9
$UCSNAME
  2

  9
$UCSORG
 10
0.0
 20
0.0
 30
0.0
  9
$UCSXDIR
 10
1.0
 20
0.0
 30
0.0
  9
$UCSYDIR
 10
0.0
 20
1.0
 30
0.0
  9
$PUCSNAME
  2

  9
$PUCSORG
 10
0.0
 20
0.0
 30
0.0
  9
$PUCSXDIR
 10
1.0
 20
0.0
 30
0.0
  9
$PUCSYDIR
 10
0.0
 20
1.0
 30
0.0
  9
$USERI1
 70
     0
  9
$USERI2
 70
     0
  9
$USERI3
 70
     0
  9
$USERI4
 70
     0
  9
$USERI5
 70
     0
  9
$USERR1
 40
0.0
  9
$USERR2
 40
0.0
  9
$USERR3
 40
0.0
  9
$USERR4
 40
0.0
  9
$USERR5
 40
0.0
  9
$WORLDVIEW
 70
     1
  9
$SHADEDGE
 70
     3
  9
$SHADEDIF
 70
    70
  9
$TILEMODE
 70
     1
  9
$MAXACTVP
 70
    48
  9
$PLIMCHECK
 70
     0
  9
$PEXTMIN
 10
1.0000000000000000E+020
 20
1.0000000000000000E+020
 30
1.0000000000000000E+020
  9
$PEXTMAX
 10
-1.0000000000000000E+020
 20
-1.0000000000000000E+020
 30
-1.0000000000000000E+020
  9
$PLIMMIN
 10
0.0
 20
0.0
  9
$PLIMMAX
 10
420.0
 20
297.0
  9
$UNITMODE
 70
     0
  9
$VISRETAIN
 70
     1
  9
$PLINEGEN
 70
     0
  9
$PSLTSCALE
 70
     1
  0
ENDSEC
  0
SECTION
  2
TABLES
  0
TABLE
  2
VPORT
 70
     1
  0
VPORT
  2
*ACTIVE
 70
     0
 10
0.0
 20
0.0
 11
1.0
 21
1.0
 12
1418.5686801475381
 22
-650.86211539477199
 13
0.0
 23
0.0
 14
10.0
 24
10.0
 15
10.0
 25
10.0
 16
0.0
 26
0.0
 36
1.0
 17
0.0
 27
0.0
 37
0.0
 40
341.55517212902691
 41
2.1771217712177111
 42
50.0
 43
0.0
 44
0.0
 50
0.0
 51
0.0
 71
     0
 72
   100
 73
     1
 74
     1
 75
     0
 76
     0
 77
     0
 78
     0
  0
ENDTAB
  0
TABLE
  2
LTYPE
 70
    20
  0
LTYPE
  2
CONTINUOUS
 70
     0
  3
Solid line
 72
    65
 73
     0
 40
0.0
  0
LTYPE
  2
CENTER2
 70
     0
  3
Center (.5x) ___ _ ___ _ ___ _ ___ _ ___ _ ___
 72
    65
 73
     4
 40
28.574999999999999
 49
19.050000000000001
 49
-3.1749999999999989
 49
3.1749999999999989
 49
-3.1749999999999989
  0
LTYPE
  2
PHANTOM2
 70
     0
  3
Phantom (.5x) ___ _ _ ___ _ _ ___ _ _ ___ _ _
 72
    65
 73
     6
 40
31.75
 49
15.875
 49
-3.1749999999999989
 49
3.1749999999999989
 49
-3.1749999999999989
 49
3.1749999999999989
 49
-3.1749999999999989
  0
ENDTAB
  0
TABLE
  2
LAYER
 70
    54
  0
LAYER
  2
0
 70
     0
 62
     7
  6
CONTINUOUS
  0
LAYER
  2
1CENTER
 70
     0
 62
     7
  6
CENTER2
  0
LAYER
  2
1TEXT
 70
     0
 62
     7
  6
CONTINUOUS
  0
LAYER
  2
1DIM
 70
     0
 62
     7
  6
CONTINUOUS
  0
LAYER
  2
1PHANTOM
 70
     0
 62
     7
  6
PHANTOM2
  0
LAYER
  2
01
 70
     0
 62
     1
  6
CONTINUOUS
  0
LAYER
  2
1DIM1
 70
     0
 62
     7
  6
CONTINUOUS
  0
ENDTAB
  0
TABLE
  2
STYLE
 70
    26
  0
STYLE
  2
STANDARD
 70
     0
 40
0.0
 41
1.0
 50
0.0
 71
     0
 42
4.0
  3
txt.shx
  4
extfont.shx
  0
ENDTAB
  0
TABLE
  2
VIEW
 70
     7
  0
ENDTAB
  0
TABLE
  2
UCS
 70
     0
  0
ENDTAB
  0
TABLE
  2
APPID
 70
    16
  0
APPID
  2
ACAD
 70
     0
  0
APPID
  2
DRAWINGVARIABLESXDATA
 70
     0
  0
APPID
  2
CONTENTTABDATA
 70
     0
  0
APPID
  2
CONTENTCURRENTTAB
 70
     0
  0
APPID
  2
CONTENTBLOCKDESCRIPTION
 70
     0
  0
APPID
  2
CONTENTBLOCKICON
 70
     0
  0
APPID
  2
CONTENTLONGBLOCKNAME
 70
     0
  0
APPID
  2
ACAD_PSEXT
 70
     0
  0
APPID
  2
ACAD_DSTYLE_DIMTEXT_FILL
 70
     0
  0
APPID
  2
ACAD_MLEADERVER
 70
     0
  0
APPID
  2
ACAD_DSTYLE_DIMRADIAL_EXTENSION
 70
     0
  0
APPID
  2
ACADANNOTATIVE
 70
     0
  0
APPID
  2
ACAD_EXEMPT_FROM_CAD_STANDARDS
 70
     0
  0
APPID
  2
ACAD_DSTYLE_DIMJAG
 70
     0
  0
APPID
  2
ACAD_DSTYLE_DIMTALN
 70
     0
  0
APPID
  2
ACAD_DSTYLE_DIMBREAK
 70
     0
  0
ENDTAB
  0
TABLE
  2
DIMSTYLE
 70
    13
  0
DIMSTYLE
  2
NEWX10
 70
     0
  3
 
  4

  5

  6
OPEN30
  7
OPEN30
 40
1.0
 41
2.0
 42
0.0
 43
7.0
 44
1.0
 45
0.0
 46
0.0
 47
0.0
 48
0.0
140
3.5
141
0.0
142
0.0
143
25.399999999999999
144
1.0
145
0.0
146
0.7
147
0.7
 71
     0
 72
     0
 73
     0
 74
     0
 75
     0
 76
     0
 77
     1
 78
     8
170
     0
171
     2
172
     1
173
     1
174
     0
175
     0
176
   256
177
   256
178
   201
  0
ENDTAB
  0
ENDSEC
  0
SECTION
  2
BLOCKS
  0
BLOCK
  8
0
  2
$MODEL_SPACE
 70
     0
 10
0.0
 20
0.0
 30
0.0
  3
$MODEL_SPACE
  1

  0
ENDBLK
  5
1A
  8
0
  0
BLOCK
 67
     1
  8
0
  2
$PAPER_SPACE
 70
     0
 10
0.0
 20
0.0
 30
0.0
  3
$PAPER_SPACE
  1

  0
ENDBLK
  5
17
 67
     1
  8
0
  0
BLOCK
  8
0
  2
_OPEN30
 70
     0
 10
0.0
 20
0.0
 30
0.0
  3
_OPEN30
  1

  0
LINE
  5
44
  8
0
  6
BYBLOCK
 62
     0
 10
-1.0
 20
0.26794919
 30
0.0
 11
0.0
 21
0.0
 31
0.0
  0
LINE
  5
45
  8
0
  6
BYBLOCK
 62
     0
 10
0.0
 20
0.0
 30
0.0
 11
-1.0
 21
-0.26794919
 31
0.0
  0
LINE
  5
46
  8
0
  6
BYBLOCK
 62
     0
 10
0.0
 20
0.0
 30
0.0
 11
-1.0
 21
0.0
 31
0.0
  0
ENDBLK
  5
47
  8
0
  0
BLOCK
  8
0
  2
*U40
 70
     1
 10
0.0
 20
0.0
 30
0.0
  3
*U40
  1

  0
TEXT
  5
2283A
  8
1DIM
 62
   201
 10
1598.9849651133111
 20
-639.67196341279373
 30
0.0
 40
3.5
  1
天然木：75.3
 50
90.0
  0
ENDBLK
  5
2283C
  8
0
  0
BLOCK
  8
0
  2
*U41
 70
     1
 10
0.0
 20
0.0
 30
0.0
  3
*U41
  1

  0
TEXT
  5
2283E
  8
1DIM
 62
   201
 10
1558.025601805635
 20
-624.67196341279373
 30
0.0
 40
3.5
  1
天然木：45.3
 50
90.0
  0
ENDBLK
  5
22840
  8
0
  0
BLOCK
  8
0
  2
*U42
 70
     1
 10
0.0
 20
0.0
 30
0.0
  3
*U42
  1

  0
TEXT
  5
22842
  8
1DIM
 62
   201
 10
1448.713651200047
 20
-747.78029674612731
 30
0.0
 40
3.5
  1
天然木：\U+03C630
 50
90.0
  0
ENDBLK
  5
22844
  8
0
  0
ENDSEC
  0
SECTION
  2
ENTITIES
  0
LINE
  5
1FF8B
  8
1CENTER
 10
1529.0846643792299
 20
-568.17196273160675
 30
0.0
 11
1518.114635497124
 21
-568.17196273160675
 31
0.0
  0
LINE
  5
1FFC6
  8
1CENTER
 10
1523.5996811368309
 20
-544.74932018177788
 30
0.0
 11
1523.5996811368309
 21
-629.15241686091406
 31
0.0
  0
LINE
  5
2000F
  8
1PHANTOM
 10
1519.5992872405709
 20
-625.34195996881465
 30
0.0
 11
1519.599686286846
 21
-555.97195410562665
 31
0.0
  0
LINE
  5
20011
  8
1PHANTOM
 10
1520.2293964257649
 20
-625.97195557189025
 30
0.0
 11
1519.599402289221
 21
-625.34195996947642
 31
0.0
  0
LINE
  5
20013
  8
1PHANTOM
 10
1526.969396425912
 20
-625.97197125448758
 30
0.0
 11
1520.2293964257649
 21
-625.97195557189025
 31
0.0
  0
LINE
  5
20014
  8
1PHANTOM
 10
1527.59928724012
 20
-625.34209069958376
 30
0.0
 11
1527.5996862870049
 21
-555.97197271998596
 31
0.0
  0
LINE
  5
20015
  8
1PHANTOM
 10
1526.969396425912
 20
-625.97197125448758
 30
0.0
 11
1527.5994022894211
 21
-625.34197565215595
 31
0.0
  0
LINE
  5
20016
  8
1PHANTOM
 10
1520.2292804348031
 20
-625.97183958065841
 30
0.0
 11
1520.2296864048519
 21
-555.97195557150769
 31
0.0
  0
LINE
  5
20017
  8
1PHANTOM
 10
1526.969280434281
 20
-625.97197125421781
 30
0.0
 11
1526.9696864049911
 21
-555.97197125410571
 31
0.0
  0
LINE
  5
20018
  8
1PHANTOM
 10
1519.599402289221
 20
-625.34195996947642
 30
0.0
 11
1527.5994022894211
 21
-625.34197565215595
 31
0.0
  0
LINE
  5
2001A
  8
01
 10
1669.1761489882049
 20
-678.37196341279378
 30
0.0
 11
1669.1761489882049
 21
-728.37196341279378
 31
0.0
  0
TEXT
  5
201C5
  8
1TEXT
 10
1630.5362365982151
 20
-583.37195639274478
 30
0.0
 40
8.0
  1
DH-784-XXM
  0
TEXT
  5
201C6
  8
1TEXT
 10
1672.9762365982151
 20
-593.87195639274466
 30
0.0
 40
4.0
  1
材質：握り
 41
0.9
 72
     1
 11
1682.936236598214
 21
-593.87195639274466
 31
0.0
  0
LINE
  5
201C7
  8
1DIM
 10
1630.5362365982151
 20
-588.37195639274466
 30
0.0
 11
1770.5362365982151
 21
-588.37195639274466
 31
0.0
  0
LINE
  5
201C8
  8
1DIM
 10
1630.5362365982151
 20
-602.37195639274466
 30
0.0
 11
1770.5362365982151
 21
-602.37195639274466
 31
0.0
  0
LINE
  5
201C9
  8
1DIM
 10
1630.5362365982151
 20
-595.37195639274478
 30
0.0
 11
1770.5362365982151
 21
-595.37195639274478
 31
0.0
  0
LINE
  5
201CC
  8
1DIM
 10
1735.5362365982151
 20
-588.37195639274466
 30
0.0
 11
1735.5362365982139
 21
-602.37195639274455
 31
0.0
  0
TEXT
  5
201CD
  8
1TEXT
 10
1746.1362365982141
 20
-593.87195639274466
 30
0.0
 40
4.0
  1
コード
 72
     1
 11
1752.9362365982149
 21
-593.87195639274466
 31
0.0
  0
LINE
  5
201CE
  8
1DIM
 10
1665.5362365982139
 20
-602.37195639274455
 30
0.0
 11
1665.5362365982151
 21
-588.37195639274466
 31
0.0
  0
LINE
  5
201CF
  8
1DIM
 10
1770.5362365982151
 20
-602.37195639274455
 30
0.0
 11
1770.5362365982151
 21
-588.37195639274466
 31
0.0
  0
TEXT
  5
201D1
  8
1TEXT
 10
1631.669569931548
 20
-593.87195639274466
 30
0.0
 40
4.0
  1
表面処理：脚部
 72
     1
 11
1647.9362365982149
 21
-593.87195639274466
 31
0.0
  0
LINE
  5
201D4
  8
1DIM
 10
1630.5362365982139
 20
-602.37195639274455
 30
0.0
 11
1630.5362365982151
 21
-588.37195639274466
 31
0.0
  0
LINE
  5
201F8
  8
01
 10
1066.5909545595521
 20
-576.37196341279412
 30
0.0
 11
1563.1761312684671
 21
-576.37196341279412
 31
0.0
  0
LINE
  5
201F9
  8
01
 10
1066.5909545595521
 20
-588.37196341279412
 30
0.0
 11
1563.1761312684671
 21
-588.37196341279412
 31
0.0
  0
LINE
  5
20236
  8
1CENTER
 10
1532.599707288495
 20
-703.37196341279423
 30
0.0
 11
1514.599707288495
 21
-703.37196341279423
 31
0.0
  0
LINE
  5
20237
  8
1CENTER
 10
1523.599707288495
 20
-694.37196341279423
 30
0.0
 11
1523.599707288495
 21
-712.37196341279423
 31
0.0
  0
LINE
  5
2035A
  8
01
 10
1525.725849806706
 20
-567.54484489847221
 30
0.0
 11
1524.226813434379
 21
-567.54483443462175
 31
0.0
  0
LINE
  5
2035B
  8
01
 10
1524.226802970589
 20
-566.04580681737139
 30
0.0
 11
1522.9725630748831
 21
-566.04579806229469
 31
0.0
  0
LINE
  5
2035C
  8
01
 10
1524.226802970589
 20
-566.04580681737139
 30
0.0
 11
1524.226813434379
 21
-567.54483443462175
 31
0.0
  0
LINE
  5
2035D
  8
01
 10
1525.725841051629
 20
-568.79908479417861
 30
0.0
 11
1525.725849806706
 21
-567.54484489847221
 31
0.0
  0
LINE
  5
2035E
  8
01
 10
1525.725841051629
 20
-568.79908479417861
 30
0.0
 11
1524.226822189602
 21
-568.79909525790674
 31
0.0
  0
LINE
  5
2035F
  8
01
 10
1524.226822189602
 20
-568.79909525790674
 30
0.0
 11
1524.226832653452
 21
-570.29813163050233
 31
0.0
  0
LINE
  5
20360
  8
01
 10
1522.972543855748
 20
-568.79910401325196
 30
0.0
 11
1521.473516238498
 21
-568.7991144770416
 31
0.0
  0
LINE
  5
20361
  8
01
 10
1522.972543855748
 20
-568.79910401325196
 30
0.0
 11
1522.9725333920201
 21
-570.29812287501102
 31
0.0
  0
LINE
  5
20362
  8
01
 10
1522.9725333920201
 20
-570.29812287501102
 30
0.0
 11
1524.226832653452
 21
-570.29813163050233
 31
0.0
  0
LINE
  5
20363
  8
01
 10
1522.972552611094
 20
-567.54482567939874
 30
0.0
 11
1521.4735249939899
 21
-567.54481521560922
 31
0.0
  0
LINE
  5
20364
  8
01
 10
1521.4735249939899
 20
-567.54481521560922
 30
0.0
 11
1521.473516238498
 21
-568.7991144770416
 31
0.0
  0
LINE
  5
20365
  8
01
 10
1522.9725630748831
 20
-566.04579806229469
 30
0.0
 11
1522.972552611094
 21
-567.54482567939874
 31
0.0
  0
LINE
  5
20391
  8
01
 10
1681.1761489882049
 20
-678.37196341279378
 30
0.0
 11
1681.1761489882049
 21
-728.37196341279378
 31
0.0
  0
ARC
  5
20392
  8
1PHANTOM
 10
1520.599688156879
 20
-554.7719564324068
 30
0.0
 40
4.0
 50
89.999866684474938
 51
180.0
  0
LINE
  5
20393
  8
1PHANTOM
 10
1516.599688156879
 20
-554.7719564324068
 30
0.0
 11
1516.599688156879
 21
-555.97194712523037
 31
0.0
  0
LINE
  5
20394
  8
1PHANTOM
 10
1526.5996974640591
 20
-550.77197039318685
 30
0.0
 11
1520.5996974640591
 21
-550.77195643241771
 31
0.0
  0
LINE
  5
20395
  8
1PHANTOM
 10
1519.599637809305
 20
-555.97195410549796
 30
0.0
 11
1516.599688156879
 21
-555.97194712523037
 31
0.0
  0
ARC
  5
20396
  8
1PHANTOM
 10
1526.599688156879
 20
-554.77197039317605
 30
0.0
 40
4.0
 50
0.0
 51
89.999866684474938
  0
LINE
  5
20397
  8
1PHANTOM
 10
1530.599688156879
 20
-554.77197039317605
 30
0.0
 11
1530.599688156879
 21
-555.97197970035904
 31
0.0
  0
LINE
  5
20398
  8
1PHANTOM
 10
1530.599688156879
 20
-555.97197970035904
 30
0.0
 11
1527.5996378095069
 21
-555.97197271985715
 31
0.0
  0
LINE
  5
20399
  8
1PHANTOM
 10
1519.599637809305
 20
-555.97195410549784
 30
0.0
 11
1527.5996378095069
 21
-555.97197271985726
 31
0.0
  0
LINE
  5
203BE
  8
1PHANTOM
 10
1531.3996895687569
 20
-557.97196341279414
 30
0.0
 11
1531.399689568759
 21
-555.97196341279482
 31
0.0
  0
LINE
  5
203BF
  8
1PHANTOM
 10
1515.7996895687579
 20
-555.97196341279482
 30
0.0
 11
1515.7996895687579
 21
-557.97196341279414
 31
0.0
  0
LINE
  5
203C0
  8
1PHANTOM
 10
1531.3996895687569
 20
-557.97196341279414
 30
0.0
 11
1515.7996895687579
 21
-557.97196341279414
 31
0.0
  0
LINE
  5
203C1
  8
1PHANTOM
 10
1515.7996895687561
 20
-555.97196341279482
 30
0.0
 11
1531.399689568759
 21
-555.97196341279482
 31
0.0
  0
LINE
  5
203C2
  8
1PHANTOM
 10
1523.599637809406
 20
-555.97196341267772
 30
0.0
 11
1523.063739424513
 21
-557.97196341279414
 31
0.0
  0
LINE
  5
2157A
  8
1CENTER
 10
1713.098792219221
 20
-703.37195639274478
 30
0.0
 11
1628.9751361523849
 21
-703.37195639274478
 31
0.0
  0
LINE
  5
2157B
  8
1PHANTOM
 10
1632.5061524321841
 20
-699.37156249648524
 30
0.0
 11
1701.8761582953721
 21
-699.37196154276
 31
0.0
  0
LINE
  5
2157C
  8
1PHANTOM
 10
1631.8761568291079
 20
-700.00167168167945
 30
0.0
 11
1632.506152431522
 21
-699.37167754513484
 31
0.0
  0
LINE
  5
2157D
  8
1PHANTOM
 10
1631.8761411465109
 20
-706.74167168182646
 30
0.0
 11
1631.8761568291079
 21
-700.00167168167945
 31
0.0
  0
LINE
  5
2157E
  8
1PHANTOM
 10
1632.506021701415
 20
-707.37156249603402
 30
0.0
 11
1701.876139681013
 21
-707.37196154291951
 31
0.0
  0
LINE
  5
2157F
  8
1PHANTOM
 10
1631.8761411465109
 20
-706.74167168182646
 30
0.0
 11
1632.506136748842
 21
-707.37167754533539
 31
0.0
  0
LINE
  5
21580
  8
1PHANTOM
 10
1631.8762728203401
 20
-700.00155569071728
 30
0.0
 11
1701.876156829491
 21
-700.00196166076671
 31
0.0
  0
LINE
  5
21581
  8
1PHANTOM
 10
1631.876141146781
 20
-706.7415556901949
 30
0.0
 11
1701.8761411468929
 21
-706.74196166090564
 31
0.0
  0
LINE
  5
21582
  8
1PHANTOM
 10
1632.506152431522
 20
-699.37167754513484
 30
0.0
 11
1632.506136748842
 21
-707.37167754533539
 31
0.0
  0
ARC
  5
21583
  8
1PHANTOM
 10
1703.076155968592
 20
-700.37196341279366
 30
0.0
 40
4.0
 50
359.99986668447491
 51
90.0
  0
LINE
  5
21584
  8
1PHANTOM
 10
1703.076155968592
 20
-696.37196341279366
 30
0.0
 11
1701.876165275768
 21
-696.37196341279366
 31
0.0
  0
LINE
  5
21585
  8
1PHANTOM
 10
1707.0761420078111
 20
-706.3719727199732
 30
0.0
 11
1707.0761559685809
 21
-700.37197271997309
 31
0.0
  0
LINE
  5
21586
  8
1PHANTOM
 10
1701.8761582955001
 20
-699.37191306521925
 30
0.0
 11
1701.876165275768
 21
-696.37196341279366
 31
0.0
  0
ARC
  5
21587
  8
1PHANTOM
 10
1703.076142007822
 20
-706.37196341279366
 30
0.0
 40
4.0
 50
270.0
 51
359.99986668447491
  0
LINE
  5
21588
  8
1PHANTOM
 10
1703.076142007822
 20
-710.37196341279366
 30
0.0
 11
1701.8761327006389
 21
-710.37196341279366
 31
0.0
  0
LINE
  5
21589
  8
1PHANTOM
 10
1701.8761327006389
 20
-710.37196341279366
 30
0.0
 11
1701.876139681141
 21
-707.37191306542172
 31
0.0
  0
LINE
  5
2158A
  8
1PHANTOM
 10
1701.876158295501
 20
-699.37191306521925
 30
0.0
 11
1701.876139681141
 21
-707.37191306542172
 31
0.0
  0
LINE
  5
2158B
  8
1PHANTOM
 10
1699.876148988204
 20
-711.17196482467136
 30
0.0
 11
1701.876148988204
 21
-711.1719648246733
 31
0.0
  0
LINE
  5
2158C
  8
1PHANTOM
 10
1701.876148988204
 20
-695.57196482467202
 30
0.0
 11
1699.876148988204
 21
-695.57196482467202
 31
0.0
  0
LINE
  5
2158D
  8
1PHANTOM
 10
1699.876148988204
 20
-711.17196482467136
 30
0.0
 11
1699.876148988204
 21
-695.57196482467202
 31
0.0
  0
LINE
  5
2158E
  8
1PHANTOM
 10
1701.876148988204
 20
-695.57196482467009
 30
0.0
 11
1701.876148988204
 21
-711.1719648246733
 31
0.0
  0
LINE
  5
2158F
  8
1PHANTOM
 10
1701.8761489883209
 20
-703.37191306532054
 30
0.0
 11
1699.876148988204
 21
-702.83601468042707
 31
0.0
  0
LINE
  5
218F8
  8
01
 10
1523.599707288495
 20
-716.07196341279428
 30
0.0
 11
1098.699654985166
 21
-716.07196341279439
 31
0.0
  0
LINE
  5
218F9
  8
01
 10
1523.599707288495
 20
-690.67196341279407
 30
0.0
 11
1098.699654985166
 21
-690.67196341279384
 31
0.0
  0
ARC
  5
21901
  8
01
 10
1523.599707288495
 20
-703.37196341279423
 30
0.0
 40
15.249999999999829
 50
236.3860919539799
 51
123.6139080460201
  0
ARC
  5
21904
  8
01
 10
1523.599707288495
 20
-703.371963412794
 30
0.0
 40
12.700000000000101
 50
270.0
 51
90.0
  0
LINE
  5
21999
  8
01
 10
1510.8996811368299
 20
-554.07196341279428
 30
0.0
 11
1510.8996811368299
 21
-573.37196341279412
 31
0.0
  0
LINE
  5
2199B
  8
01
 10
1536.29968113683
 20
-554.07196341279428
 30
0.0
 11
1536.29968113683
 21
-573.37196341279412
 31
0.0
  0
LINE
  5
2199F
  8
01
 10
1538.8496811368309
 20
-589.87196341279412
 30
0.0
 11
1508.34968113683
 21
-589.87196341279412
 31
0.0
  0
LINE
  5
219A1
  8
01
 10
1538.8496811368309
 20
-588.37196341279412
 30
0.0
 11
1508.34968113683
 21
-588.371963412794
 31
0.0
  0
LINE
  5
219A2
  8
01
 10
1538.8496811368309
 20
-591.37196341279412
 30
0.0
 11
1538.8496811368309
 21
-589.87196341279412
 31
0.0
  0
LINE
  5
219A3
  8
01
 10
1538.8496811368309
 20
-589.87196341279412
 30
0.0
 11
1538.8496811368309
 21
-588.37196341279412
 31
0.0
  0
LINE
  5
219A4
  8
01
 10
1538.8496811368309
 20
-574.87196341279423
 30
0.0
 11
1538.8496811368309
 21
-573.37196341279412
 31
0.0
  0
LINE
  5
219A5
  8
01
 10
1538.8496811368309
 20
-576.37196341279412
 30
0.0
 11
1538.8496811368309
 21
-574.87196341279423
 31
0.0
  0
LINE
  5
219A6
  8
01
 10
1508.34968113683
 20
-591.37196341279412
 30
0.0
 11
1508.34968113683
 21
-589.87196341279412
 31
0.0
  0
LINE
  5
219AB
  8
01
 10
1536.29968113683
 20
-610.67196341279384
 30
0.0
 11
1536.29968113683
 21
-591.37196341279412
 31
0.0
  0
LINE
  5
219B1
  8
01
 10
1510.8996811368299
 20
-610.67196341279384
 30
0.0
 11
1510.8996811368299
 21
-591.37196341279412
 31
0.0
  0
LINE
  5
219B8
  8
01
 10
1527.59968113683
 20
-576.37196341279412
 30
0.0
 11
1527.59968113683
 21
-577.37196341279412
 31
0.0
  0
LINE
  5
219B9
  8
01
 10
1527.59968113683
 20
-587.37196341279412
 30
0.0
 11
1527.59968113683
 21
-588.37196341279412
 31
0.0
  0
LINE
  5
219BA
  8
01
 10
1529.59968113683
 20
-577.37196341279412
 30
0.0
 11
1529.59968113683
 21
-587.37196341279412
 31
0.0
  0
LINE
  5
219BF
  8
01
 10
1527.59968113683
 20
-576.37196341279412
 30
0.0
 11
1527.59968113683
 21
-577.37196341279412
 31
0.0
  0
LINE
  5
219C0
  8
01
 10
1527.59968113683
 20
-587.37196341279412
 30
0.0
 11
1527.59968113683
 21
-588.37196341279412
 31
0.0
  0
LINE
  5
219C7
  8
01
 10
1519.59968113683
 20
-576.37196341279412
 30
0.0
 11
1519.59968113683
 21
-577.37196341279412
 31
0.0
  0
LINE
  5
219C8
  8
01
 10
1519.59968113683
 20
-587.37196341279412
 30
0.0
 11
1519.59968113683
 21
-588.37196341279412
 31
0.0
  0
LINE
  5
219C9
  8
01
 10
1517.59968113683
 20
-577.37196341279412
 30
0.0
 11
1517.59968113683
 21
-587.37196341279412
 31
0.0
  0
LINE
  5
219CA
  8
01
 10
1519.59968113683
 20
-576.37196341279412
 30
0.0
 11
1519.59968113683
 21
-577.37196341279412
 31
0.0
  0
LINE
  5
219CB
  8
01
 10
1519.59968113683
 20
-587.37196341279412
 30
0.0
 11
1519.59968113683
 21
-588.37196341279412
 31
0.0
  0
LINE
  5
219CC
  8
01
 10
1508.34968113683
 20
-589.87196341279412
 30
0.0
 11
1508.34968113683
 21
-588.37196341279412
 31
0.0
  0
LINE
  5
219D0
  8
01
 10
1508.34968113683
 20
-574.87196341279423
 30
0.0
 11
1508.34968113683
 21
-573.37196341279412
 31
0.0
  0
LINE
  5
219D1
  8
01
 10
1508.34968113683
 20
-576.37196341279412
 30
0.0
 11
1508.34968113683
 21
-574.87196341279423
 31
0.0
  0
ARC
  5
219D6
  8
01
 10
1485.59968113683
 20
-610.67196341279384
 30
0.0
 40
25.300000000000001
 50
270.0
 51
0.0
  0
ARC
  5
219D7
  8
01
 10
1485.59968113683
 20
-610.67196341279384
 30
0.0
 40
50.700000000000003
 50
270.0
 51
0.0
  0
LINE
  5
219E1
  8
01
 10
1485.59968113683
 20
-661.371963412794
 30
0.0
 11
1136.699681136831
 21
-661.371963412794
 31
0.0
  0
ARC
  5
21A0B
  8
01
 10
1485.59968113683
 20
-554.07196341279428
 30
0.0
 40
50.700000000000003
 50
0.0
 51
90.0
  0
ARC
  5
21A0C
  8
01
 10
1485.59968113683
 20
-554.07196341279428
 30
0.0
 40
25.300000000000001
 50
0.0
 51
90.0
  0
LINE
  5
21A20
  8
01
 10
1485.59968113683
 20
-635.97196341279368
 30
0.0
 11
1136.699681136831
 21
-635.97196341279368
 31
0.0
  0
LINE
  5
21A21
  8
01
 10
1485.59968113683
 20
-503.371963412794
 30
0.0
 11
1136.699681136831
 21
-503.371963412794
 31
0.0
  0
LINE
  5
21A22
  8
01
 10
1485.59968113683
 20
-528.77196341279455
 30
0.0
 11
1136.699681136831
 21
-528.77196341279296
 31
0.0
  0
LINE
  5
21A97
  8
01
 10
1517.59968113683
 20
-577.37196341279412
 30
0.0
 11
1529.59968113683
 21
-577.37196341279412
 31
0.0
  0
LINE
  5
21A98
  8
01
 10
1517.59968113683
 20
-587.37196341279412
 30
0.0
 11
1529.59968113683
 21
-587.37196341279412
 31
0.0
  0
LINE
  5
21FB9
  8
01
 10
1508.34968113683
 20
-591.37196341279412
 30
0.0
 11
1538.8496811368309
 21
-591.37196341279412
 31
0.0
  0
LINE
  5
21FD2
  8
01
 10
1538.8496811368309
 20
-574.87196341279412
 30
0.0
 11
1508.34968113683
 21
-574.87196341279412
 31
0.0
  0
LINE
  5
21FD3
  8
01
 10
1538.8496811368309
 20
-576.37196341279412
 30
0.0
 11
1508.34968113683
 21
-576.37196341279423
 31
0.0
  0
LINE
  5
21FD4
  8
01
 10
1508.34968113683
 20
-573.37196341279412
 30
0.0
 11
1538.8496811368309
 21
-573.37196341279412
 31
0.0
  0
LINE
  5
220E1
  8
1PHANTOM
 10
1533.84968113683
 20
-557.97196341279414
 30
0.0
 11
1513.3496811368309
 21
-557.97196341279414
 31
0.0
  0
LINE
  5
220E2
  8
1PHANTOM
 10
1534.8496811368309
 20
-558.97196341279414
 30
0.0
 11
1534.8496811368309
 21
-572.371963412794
 31
0.0
  0
LINE
  5
220E3
  8
1PHANTOM
 10
1533.84968113683
 20
-557.97196341279414
 30
0.0
 11
1534.8496811368309
 21
-558.97196341279414
 31
0.0
  0
LINE
  5
220E4
  8
1PHANTOM
 10
1534.8496811368309
 20
-572.37196341279412
 30
0.0
 11
1533.84968113683
 21
-573.37196341279412
 31
0.0
  0
LINE
  5
220E5
  8
1PHANTOM
 10
1512.3496811368309
 20
-558.97196341279414
 30
0.0
 11
1513.3496811368309
 21
-557.97196341279414
 31
0.0
  0
LINE
  5
220E6
  8
1PHANTOM
 10
1512.3496811368309
 20
-572.37196341279412
 30
0.0
 11
1513.3496811368309
 21
-573.37196341279412
 31
0.0
  0
LINE
  5
220E7
  8
1PHANTOM
 10
1512.3496811368309
 20
-558.97196341279391
 30
0.0
 11
1512.3496811368309
 21
-572.37196341279412
 31
0.0
  0
LINE
  5
220EC
  8
1CENTER
 10
1093.2146978944311
 20
-568.17196273160675
 30
0.0
 11
1104.184726776537
 21
-568.17196273160675
 31
0.0
  0
LINE
  5
220ED
  8
1CENTER
 10
1098.699681136831
 20
-544.74932018177788
 30
0.0
 11
1098.699681136831
 21
-629.15241686091406
 31
0.0
  0
LINE
  5
220EE
  8
1PHANTOM
 10
1102.7000750330899
 20
-625.34195996881465
 30
0.0
 11
1102.699675986815
 21
-555.97195410562665
 31
0.0
  0
LINE
  5
220EF
  8
1PHANTOM
 10
1102.0699658478959
 20
-625.97195557189025
 30
0.0
 11
1102.6999599844401
 21
-625.34195996947642
 31
0.0
  0
LINE
  5
220F0
  8
1PHANTOM
 10
1095.329965847749
 20
-625.97197125448758
 30
0.0
 11
1102.0699658478959
 21
-625.97195557189025
 31
0.0
  0
LINE
  5
220F1
  8
1PHANTOM
 10
1094.700075033541
 20
-625.34209069958376
 30
0.0
 11
1094.6996759866561
 21
-555.97197271998596
 31
0.0
  0
LINE
  5
220F2
  8
1PHANTOM
 10
1095.329965847749
 20
-625.97197125448758
 30
0.0
 11
1094.69995998424
 21
-625.34197565215595
 31
0.0
  0
LINE
  5
220F3
  8
1PHANTOM
 10
1102.070081838858
 20
-625.97183958065841
 30
0.0
 11
1102.0696758688091
 21
-555.97195557150769
 31
0.0
  0
LINE
  5
220F4
  8
1PHANTOM
 10
1095.33008183938
 20
-625.97197125421781
 30
0.0
 11
1095.329675868669
 21
-555.97197125410571
 31
0.0
  0
LINE
  5
220F5
  8
1PHANTOM
 10
1102.6999599844401
 20
-625.34195996947642
 30
0.0
 11
1094.69995998424
 21
-625.34197565215595
 31
0.0
  0
LINE
  5
220F7
  8
01
 10
1096.573512466955
 20
-567.54484489847221
 30
0.0
 11
1098.0725488392829
 21
-567.54483443462175
 31
0.0
  0
LINE
  5
220F8
  8
01
 10
1098.072559303072
 20
-566.04580681737139
 30
0.0
 11
1099.326799198778
 21
-566.04579806229469
 31
0.0
  0
LINE
  5
220F9
  8
01
 10
1098.072559303072
 20
-566.04580681737139
 30
0.0
 11
1098.0725488392829
 21
-567.54483443462175
 31
0.0
  0
LINE
  5
220FA
  8
01
 10
1096.573521222032
 20
-568.79908479417861
 30
0.0
 11
1096.573512466955
 21
-567.54484489847221
 31
0.0
  0
LINE
  5
220FB
  8
01
 10
1096.573521222032
 20
-568.79908479417861
 30
0.0
 11
1098.072540084059
 21
-568.79909525790674
 31
0.0
  0
LINE
  5
220FC
  8
01
 10
1098.072540084059
 20
-568.79909525790674
 30
0.0
 11
1098.072529620209
 21
-570.29813163050233
 31
0.0
  0
LINE
  5
220FD
  8
01
 10
1099.326818417913
 20
-568.79910401325196
 30
0.0
 11
1100.8258460351631
 21
-568.7991144770416
 31
0.0
  0
LINE
  5
220FE
  8
01
 10
1099.326818417913
 20
-568.79910401325196
 30
0.0
 11
1099.3268288816409
 21
-570.29812287501102
 31
0.0
  0
LINE
  5
220FF
  8
01
 10
1099.3268288816409
 20
-570.29812287501102
 30
0.0
 11
1098.072529620209
 21
-570.29813163050233
 31
0.0
  0
LINE
  5
22100
  8
01
 10
1099.326809662567
 20
-567.54482567939874
 30
0.0
 11
1100.8258372796711
 21
-567.54481521560922
 31
0.0
  0
LINE
  5
22101
  8
01
 10
1100.8258372796711
 20
-567.54481521560922
 30
0.0
 11
1100.8258460351631
 21
-568.7991144770416
 31
0.0
  0
LINE
  5
22102
  8
01
 10
1099.326799198778
 20
-566.04579806229469
 30
0.0
 11
1099.326809662567
 21
-567.54482567939874
 31
0.0
  0
ARC
  5
22103
  8
1PHANTOM
 10
1101.6996741167809
 20
-554.7719564324068
 30
0.0
 40
4.0
 50
0.000000000000007
 51
90.000133315525076
  0
LINE
  5
22104
  8
1PHANTOM
 10
1105.699674116782
 20
-554.7719564324068
 30
0.0
 11
1105.699674116782
 21
-555.97194712523037
 31
0.0
  0
LINE
  5
22105
  8
1PHANTOM
 10
1095.6996648096019
 20
-550.77197039318685
 30
0.0
 11
1101.6996648096019
 21
-550.77195643241771
 31
0.0
  0
LINE
  5
22106
  8
1PHANTOM
 10
1102.699724464356
 20
-555.97195410549796
 30
0.0
 11
1105.699674116782
 21
-555.97194712523037
 31
0.0
  0
ARC
  5
22107
  8
1PHANTOM
 10
1095.699674116782
 20
-554.77197039317605
 30
0.0
 40
4.0
 50
90.000133315525076
 51
180.0
  0
LINE
  5
22108
  8
1PHANTOM
 10
1091.699674116782
 20
-554.77197039317605
 30
0.0
 11
1091.699674116782
 21
-555.97197970035904
 31
0.0
  0
LINE
  5
22109
  8
1PHANTOM
 10
1091.699674116782
 20
-555.97197970035904
 30
0.0
 11
1094.6997244641541
 21
-555.97197271985715
 31
0.0
  0
LINE
  5
2210A
  8
1PHANTOM
 10
1102.699724464356
 20
-555.97195410549784
 30
0.0
 11
1094.6997244641541
 21
-555.97197271985726
 31
0.0
  0
LINE
  5
2210B
  8
1PHANTOM
 10
1090.8996727049041
 20
-557.97196341279414
 30
0.0
 11
1090.8996727049021
 21
-555.97196341279482
 31
0.0
  0
LINE
  5
2210C
  8
1PHANTOM
 10
1106.4996727049031
 20
-555.97196341279482
 30
0.0
 11
1106.4996727049031
 21
-557.97196341279414
 31
0.0
  0
LINE
  5
2210D
  8
1PHANTOM
 10
1090.8996727049041
 20
-557.97196341279414
 30
0.0
 11
1106.4996727049031
 21
-557.97196341279414
 31
0.0
  0
LINE
  5
2210E
  8
1PHANTOM
 10
1106.4996727049049
 20
-555.97196341279482
 30
0.0
 11
1090.8996727049021
 21
-555.97196341279482
 31
0.0
  0
LINE
  5
2210F
  8
1PHANTOM
 10
1098.699724464255
 20
-555.97196341267772
 30
0.0
 11
1099.2356228491481
 21
-557.97196341279414
 31
0.0
  0
LINE
  5
22111
  8
01
 10
1111.3996811368311
 20
-554.07196341279428
 30
0.0
 11
1111.3996811368311
 21
-573.37196341279412
 31
0.0
  0
LINE
  5
22112
  8
01
 10
1085.999681136831
 20
-554.07196341279428
 30
0.0
 11
1085.999681136831
 21
-573.37196341279412
 31
0.0
  0
LINE
  5
22113
  8
01
 10
1083.449681136831
 20
-589.87196341279412
 30
0.0
 11
1113.949681136831
 21
-589.87196341279412
 31
0.0
  0
LINE
  5
22114
  8
01
 10
1083.449681136831
 20
-588.37196341279412
 30
0.0
 11
1113.949681136831
 21
-588.371963412794
 31
0.0
  0
LINE
  5
22115
  8
01
 10
1083.449681136831
 20
-591.37196341279412
 30
0.0
 11
1083.449681136831
 21
-589.87196341279412
 31
0.0
  0
LINE
  5
22116
  8
01
 10
1083.449681136831
 20
-589.87196341279412
 30
0.0
 11
1083.449681136831
 21
-588.37196341279412
 31
0.0
  0
LINE
  5
22117
  8
01
 10
1083.449681136831
 20
-574.87196341279423
 30
0.0
 11
1083.449681136831
 21
-573.37196341279412
 31
0.0
  0
LINE
  5
22118
  8
01
 10
1083.449681136831
 20
-576.37196341279412
 30
0.0
 11
1083.449681136831
 21
-574.87196341279423
 31
0.0
  0
LINE
  5
22119
  8
01
 10
1113.949681136831
 20
-591.37196341279412
 30
0.0
 11
1113.949681136831
 21
-589.87196341279412
 31
0.0
  0
LINE
  5
2211A
  8
01
 10
1085.999681136831
 20
-610.67196341279384
 30
0.0
 11
1085.999681136831
 21
-591.37196341279412
 31
0.0
  0
LINE
  5
2211B
  8
01
 10
1111.3996811368311
 20
-610.67196341279384
 30
0.0
 11
1111.3996811368311
 21
-591.37196341279412
 31
0.0
  0
LINE
  5
2211C
  8
01
 10
1094.699681136831
 20
-576.37196341279412
 30
0.0
 11
1094.699681136831
 21
-577.37196341279412
 31
0.0
  0
LINE
  5
2211D
  8
01
 10
1094.699681136831
 20
-587.37196341279412
 30
0.0
 11
1094.699681136831
 21
-588.37196341279412
 31
0.0
  0
LINE
  5
2211E
  8
01
 10
1092.699681136831
 20
-577.37196341279412
 30
0.0
 11
1092.699681136831
 21
-587.37196341279412
 31
0.0
  0
LINE
  5
22123
  8
01
 10
1094.699681136831
 20
-576.37196341279412
 30
0.0
 11
1094.699681136831
 21
-577.37196341279412
 31
0.0
  0
LINE
  5
22124
  8
01
 10
1094.699681136831
 20
-587.37196341279412
 30
0.0
 11
1094.699681136831
 21
-588.37196341279412
 31
0.0
  0
LINE
  5
22129
  8
01
 10
1102.699681136831
 20
-576.37196341279412
 30
0.0
 11
1102.699681136831
 21
-577.37196341279412
 31
0.0
  0
LINE
  5
2212A
  8
01
 10
1102.699681136831
 20
-587.37196341279412
 30
0.0
 11
1102.699681136831
 21
-588.37196341279412
 31
0.0
  0
LINE
  5
2212B
  8
01
 10
1104.699681136831
 20
-577.37196341279412
 30
0.0
 11
1104.699681136831
 21
-587.37196341279412
 31
0.0
  0
LINE
  5
2212C
  8
01
 10
1102.699681136831
 20
-576.37196341279412
 30
0.0
 11
1102.699681136831
 21
-577.37196341279412
 31
0.0
  0
LINE
  5
2212D
  8
01
 10
1102.699681136831
 20
-587.37196341279412
 30
0.0
 11
1102.699681136831
 21
-588.37196341279412
 31
0.0
  0
LINE
  5
2212E
  8
01
 10
1113.949681136831
 20
-589.87196341279412
 30
0.0
 11
1113.949681136831
 21
-588.37196341279412
 31
0.0
  0
LINE
  5
2212F
  8
01
 10
1113.949681136831
 20
-574.87196341279423
 30
0.0
 11
1113.949681136831
 21
-573.37196341279412
 31
0.0
  0
LINE
  5
22130
  8
01
 10
1113.949681136831
 20
-576.37196341279412
 30
0.0
 11
1113.949681136831
 21
-574.87196341279423
 31
0.0
  0
ARC
  5
22131
  8
01
 10
1136.699681136831
 20
-610.67196341279384
 30
0.0
 40
25.300000000000001
 50
180.0
 51
270.0
  0
ARC
  5
22132
  8
01
 10
1136.699681136831
 20
-610.67196341279384
 30
0.0
 40
50.700000000000003
 50
180.0
 51
270.0
  0
ARC
  5
22136
  8
01
 10
1136.699681136831
 20
-554.07196341279428
 30
0.0
 40
50.700000000000003
 50
90.0
 51
180.0
  0
ARC
  5
22137
  8
01
 10
1136.699681136831
 20
-554.07196341279428
 30
0.0
 40
25.300000000000001
 50
90.0
 51
180.0
  0
LINE
  5
2213F
  8
01
 10
1104.699681136831
 20
-577.37196341279412
 30
0.0
 11
1092.699681136831
 21
-577.37196341279412
 31
0.0
  0
LINE
  5
22140
  8
01
 10
1104.699681136831
 20
-587.37196341279412
 30
0.0
 11
1092.699681136831
 21
-587.37196341279412
 31
0.0
  0
LINE
  5
22141
  8
01
 10
1113.949681136831
 20
-591.37196341279412
 30
0.0
 11
1083.449681136831
 21
-591.37196341279412
 31
0.0
  0
LINE
  5
22142
  8
01
 10
1083.449681136831
 20
-574.87196341279412
 30
0.0
 11
1113.949681136831
 21
-574.87196341279412
 31
0.0
  0
LINE
  5
22143
  8
01
 10
1083.449681136831
 20
-576.37196341279412
 30
0.0
 11
1113.949681136831
 21
-576.37196341279423
 31
0.0
  0
LINE
  5
22144
  8
01
 10
1113.949681136831
 20
-573.37196341279412
 30
0.0
 11
1083.449681136831
 21
-573.37196341279412
 31
0.0
  0
LINE
  5
22145
  8
1PHANTOM
 10
1088.449681136831
 20
-557.97196341279414
 30
0.0
 11
1108.949681136831
 21
-557.97196341279414
 31
0.0
  0
LINE
  5
22146
  8
1PHANTOM
 10
1087.449681136831
 20
-558.97196341279414
 30
0.0
 11
1087.449681136831
 21
-572.371963412794
 31
0.0
  0
LINE
  5
22147
  8
1PHANTOM
 10
1088.449681136831
 20
-557.97196341279414
 30
0.0
 11
1087.449681136831
 21
-558.97196341279414
 31
0.0
  0
LINE
  5
22148
  8
1PHANTOM
 10
1087.449681136831
 20
-572.37196341279412
 30
0.0
 11
1088.449681136831
 21
-573.37196341279412
 31
0.0
  0
LINE
  5
22149
  8
1PHANTOM
 10
1109.949681136831
 20
-558.97196341279414
 30
0.0
 11
1108.949681136831
 21
-557.97196341279414
 31
0.0
  0
LINE
  5
2214A
  8
1PHANTOM
 10
1109.949681136831
 20
-572.37196341279412
 30
0.0
 11
1108.949681136831
 21
-573.37196341279412
 31
0.0
  0
LINE
  5
2214B
  8
1PHANTOM
 10
1109.949681136831
 20
-558.97196341279391
 30
0.0
 11
1109.949681136831
 21
-572.37196341279412
 31
0.0
  0
LINE
  5
22163
  8
1CENTER
 10
1089.699654985166
 20
-703.37196341279423
 30
0.0
 11
1107.699654985166
 21
-703.37196341279423
 31
0.0
  0
LINE
  5
22164
  8
1CENTER
 10
1098.699654985166
 20
-694.37196341279423
 30
0.0
 11
1098.699654985166
 21
-712.37196341279423
 31
0.0
  0
ARC
  5
22167
  8
01
 10
1098.699654985166
 20
-703.37196341279423
 30
0.0
 40
15.249999999999829
 50
56.38609195397833
 51
303.61390804602172
  0
ARC
  5
22168
  8
01
 10
1098.699654985166
 20
-703.371963412794
 30
0.0
 40
12.700000000000101
 50
90.0
 51
270.0
  0
LINE
  5
22177
  8
01
 10
1741.4761489882039
 20
-716.07196341279405
 30
0.0
 11
1684.176148988204
 21
-716.07196341279405
 31
0.0
  0
LINE
  5
22178
  8
01
 10
1741.4761489882039
 20
-690.67196341279384
 30
0.0
 11
1684.176148988204
 21
-690.67196341279384
 31
0.0
  0
ARC
  5
22179
  8
01
 10
1741.4761489882039
 20
-703.37196341279378
 30
0.0
 40
12.70000000000012
 50
270.0
 51
90.0
  0
LINE
  5
2217A
  8
01
 10
1613.875372859716
 20
-690.67196341279384
 30
0.0
 11
1665.9761489882051
 21
-690.67196341279384
 31
0.0
  0
LINE
  5
2217B
  8
01
 10
1613.875372859716
 20
-716.07196341279405
 30
0.0
 11
1665.9761489882051
 21
-716.07196341279405
 31
0.0
  0
LINE
  5
2217C
  8
01
 10
1684.176148988204
 20
-718.62196341279378
 30
0.0
 11
1682.676148988204
 21
-718.62196341279378
 31
0.0
  0
LINE
  5
2217D
  8
01
 10
1684.176148988204
 20
-688.12196341279366
 30
0.0
 11
1682.676148988204
 21
-688.12196341279366
 31
0.0
  0
LINE
  5
2217E
  8
1CENTER
 10
1692.176148988204
 20
-719.04563460548809
 30
0.0
 11
1692.176148988204
 21
-688.1245284881071
 31
0.0
  0
LINE
  5
22180
  8
1PHANTOM
 10
1694.1761489882049
 20
-692.17196341279373
 30
0.0
 11
1694.1761489882049
 21
-699.12196341279366
 31
0.0
  0
LINE
  5
22181
  8
1PHANTOM
 10
1693.6761489882049
 20
-692.17196341279373
 30
0.0
 11
1693.6761489882049
 21
-699.62196341279366
 31
0.0
  0
LINE
  5
22182
  8
1PHANTOM
 10
1690.1761489882049
 20
-692.17196341279373
 30
0.0
 11
1690.1761489882049
 21
-699.12196341279366
 31
0.0
  0
LINE
  5
22183
  8
1PHANTOM
 10
1690.676148988204
 20
-692.17196341279373
 30
0.0
 11
1690.676148988204
 21
-699.62196341279366
 31
0.0
  0
LINE
  5
22184
  8
1PHANTOM
 10
1692.176148988204
 20
-690.67196341279373
 30
0.0
 11
1695.6761489882049
 21
-690.67196341279373
 31
0.0
  0
LINE
  5
22185
  8
1PHANTOM
 10
1695.6761489882049
 20
-690.67196341279373
 30
0.0
 11
1694.1761489882049
 21
-692.17196341279373
 31
0.0
  0
ARC
  5
22186
  8
1PHANTOM
 10
1692.176148988204
 20
-695.27548693845995
 30
0.0
 40
5.7829429230595411
 50
52.754736930788482
 51
127.2452630692204
  0
LINE
  5
22187
  8
1PHANTOM
 10
1698.8761489882049
 20
-692.12196341279366
 30
0.0
 11
1685.1761489882049
 21
-692.12196341279366
 31
0.0
  0
LINE
  5
22189
  8
1PHANTOM
 10
1690.1761489882049
 20
-692.17196341279373
 30
0.0
 11
1692.176148988204
 21
-692.17196341279373
 31
0.0
  0
LINE
  5
2218A
  8
1PHANTOM
 10
1692.176148988204
 20
-690.67196341279373
 30
0.0
 11
1690.1761489882049
 21
-690.67196341279373
 31
0.0
  0
LINE
  5
2218B
  8
1PHANTOM
 10
1692.176148988204
 20
-690.67196341279373
 30
0.0
 11
1694.1761489882049
 21
-690.67196341279373
 31
0.0
  0
LINE
  5
2218C
  8
1PHANTOM
 10
1694.1761489882049
 20
-692.17196341279373
 30
0.0
 11
1692.176148988204
 21
-692.17196341279373
 31
0.0
  0
LINE
  5
2218D
  8
1PHANTOM
 10
1692.176148988204
 20
-690.67196341279373
 30
0.0
 11
1688.6761489882049
 21
-690.67196341279373
 31
0.0
  0
LINE
  5
2218E
  8
1PHANTOM
 10
1688.6761489882049
 20
-690.67196341279373
 30
0.0
 11
1690.1761489882049
 21
-692.17196341279373
 31
0.0
  0
LINE
  5
2218F
  8
1PHANTOM
 10
1685.1761489882049
 20
-692.12196341279366
 30
0.0
 11
1684.176148988204
 21
-693.12196341279378
 31
0.0
  0
LINE
  5
22190
  8
1PHANTOM
 10
1690.1761489882049
 20
-699.12196341279366
 30
0.0
 11
1690.676148988204
 21
-699.62196341279366
 31
0.0
  0
LINE
  5
22191
  8
1PHANTOM
 10
1690.1761489882049
 20
-699.12196341279366
 30
0.0
 11
1692.176148988204
 21
-699.12196341279366
 31
0.0
  0
LINE
  5
22192
  8
1PHANTOM
 10
1694.1761489882049
 20
-699.12196341279366
 30
0.0
 11
1693.6761489882049
 21
-699.62196341279366
 31
0.0
  0
LINE
  5
22193
  8
1PHANTOM
 10
1690.676148988204
 20
-699.62196341279366
 30
0.0
 11
1692.176148988204
 21
-699.62196341279366
 31
0.0
  0
LINE
  5
22194
  8
1PHANTOM
 10
1693.6761489882049
 20
-699.62196341279366
 30
0.0
 11
1692.176148988204
 21
-699.62196341279366
 31
0.0
  0
LINE
  5
22195
  8
1PHANTOM
 10
1694.1761489882049
 20
-699.12196341279366
 30
0.0
 11
1692.176148988204
 21
-699.12196341279366
 31
0.0
  0
LINE
  5
22196
  8
1PHANTOM
 10
1690.676148988204
 20
-714.57196341279405
 30
0.0
 11
1690.676148988204
 21
-707.12196341279366
 31
0.0
  0
LINE
  5
22197
  8
1PHANTOM
 10
1693.6761489882049
 20
-714.57196341279405
 30
0.0
 11
1693.6761489882049
 21
-707.12196341279366
 31
0.0
  0
LINE
  5
22198
  8
1PHANTOM
 10
1694.1761489882049
 20
-714.57196341279405
 30
0.0
 11
1694.1761489882049
 21
-707.62196341279366
 31
0.0
  0
LINE
  5
22199
  8
1PHANTOM
 10
1690.1761489882049
 20
-714.57196341279405
 30
0.0
 11
1690.1761489882049
 21
-707.62196341279366
 31
0.0
  0
LINE
  5
2219A
  8
01
 10
1684.176148988204
 20
-713.62196341279378
 30
0.0
 11
1684.176148988204
 21
-707.37196341279378
 31
0.0
  0
LINE
  5
2219B
  8
01
 10
1684.176148988204
 20
-716.07196341279405
 30
0.0
 11
1684.176148988204
 21
-707.37196341279378
 31
0.0
  0
LINE
  5
2219C
  8
01
 10
1684.176148988204
 20
-688.12196341279366
 30
0.0
 11
1684.176148988204
 21
-718.62196341279378
 31
0.0
  0
LINE
  5
2219D
  8
1PHANTOM
 10
1699.876148988204
 20
-693.12196341279332
 30
0.0
 11
1699.876148988204
 21
-713.62196341279378
 31
0.0
  0
LINE
  5
2219E
  8
01
 10
1692.176148988204
 20
-704.20849037313042
 30
0.0
 11
1692.176148988204
 21
-703.69125003572708
 31
0.0
  0
LINE
  5
2219F
  8
1PHANTOM
 10
1690.1761489882049
 20
-707.62196341279366
 30
0.0
 11
1692.176148988204
 21
-707.62196341279366
 31
0.0
  0
LINE
  5
221A0
  8
1PHANTOM
 10
1690.676148988204
 20
-707.12196341279366
 30
0.0
 11
1692.176148988204
 21
-707.12196341279366
 31
0.0
  0
LINE
  5
221A1
  8
1PHANTOM
 10
1690.1761489882049
 20
-707.62196341279366
 30
0.0
 11
1690.676148988204
 21
-707.12196341279366
 31
0.0
  0
LINE
  5
221A2
  8
1PHANTOM
 10
1694.1761489882049
 20
-707.62196341279366
 30
0.0
 11
1693.6761489882049
 21
-707.12196341279366
 31
0.0
  0
LINE
  5
221A3
  8
1PHANTOM
 10
1694.1761489882049
 20
-707.62196341279366
 30
0.0
 11
1692.176148988204
 21
-707.62196341279366
 31
0.0
  0
LINE
  5
221A4
  8
1PHANTOM
 10
1693.6761489882049
 20
-707.12196341279366
 30
0.0
 11
1692.176148988204
 21
-707.12196341279366
 31
0.0
  0
LINE
  5
221A5
  8
1PHANTOM
 10
1695.6761489882049
 20
-716.07196341279405
 30
0.0
 11
1694.1761489882049
 21
-714.57196341279405
 31
0.0
  0
ARC
  5
221A6
  8
1PHANTOM
 10
1692.176148988204
 20
-711.46843988712749
 30
0.0
 40
5.7829429230595411
 50
232.75473693078851
 51
307.24526306921138
  0
LINE
  5
221A7
  8
1PHANTOM
 10
1692.176148988204
 20
-716.07196341279405
 30
0.0
 11
1695.6761489882049
 21
-716.07196341279405
 31
0.0
  0
LINE
  5
221A8
  8
1PHANTOM
 10
1698.8761489882049
 20
-714.62196341279378
 30
0.0
 11
1685.1761489882049
 21
-714.62196341279378
 31
0.0
  0
LINE
  5
221A9
  8
1PHANTOM
 10
1698.8761489882049
 20
-714.62196341279378
 30
0.0
 11
1699.876148988204
 21
-713.62196341279378
 31
0.0
  0
LINE
  5
221AA
  8
1PHANTOM
 10
1692.176148988204
 20
-716.07196341279405
 30
0.0
 11
1690.1761489882049
 21
-716.07196341279405
 31
0.0
  0
LINE
  5
221AB
  8
1PHANTOM
 10
1692.176148988204
 20
-716.07196341279405
 30
0.0
 11
1688.6761489882049
 21
-716.07196341279405
 31
0.0
  0
LINE
  5
221AC
  8
1PHANTOM
 10
1690.1761489882049
 20
-714.57196341279405
 30
0.0
 11
1692.176148988204
 21
-714.57196341279405
 31
0.0
  0
LINE
  5
221AD
  8
1PHANTOM
 10
1688.6761489882049
 20
-716.07196341279405
 30
0.0
 11
1690.1761489882049
 21
-714.57196341279405
 31
0.0
  0
LINE
  5
221AE
  8
1PHANTOM
 10
1694.1761489882049
 20
-714.57196341279405
 30
0.0
 11
1692.176148988204
 21
-714.57196341279405
 31
0.0
  0
LINE
  5
221AF
  8
1PHANTOM
 10
1692.176148988204
 20
-716.07196341279405
 30
0.0
 11
1694.1761489882049
 21
-716.07196341279405
 31
0.0
  0
LINE
  5
221B0
  8
1PHANTOM
 10
1685.1761489882049
 20
-714.62196341279378
 30
0.0
 11
1684.176148988204
 21
-713.62196341279378
 31
0.0
  0
LINE
  5
221B1
  8
01
 10
1682.676148988204
 20
-688.12196341279366
 30
0.0
 11
1681.1761489882049
 21
-688.12196341279366
 31
0.0
  0
LINE
  5
221B2
  8
01
 10
1669.176148988204
 20
-718.62196341279378
 30
0.0
 11
1669.1761489882049
 21
-688.12196341279366
 31
0.0
  0
LINE
  5
221B3
  8
01
 10
1665.9761489882051
 20
-718.62196341279378
 30
0.0
 11
1665.9761489882051
 21
-690.67196341279384
 31
0.0
  0
LINE
  5
221B4
  8
01
 10
1665.9761489882051
 20
-688.12196341279366
 30
0.0
 11
1665.9761489882051
 21
-718.62196341279378
 31
0.0
  0
LINE
  5
221B5
  8
01
 10
1667.6761489882049
 20
-718.62196341279378
 30
0.0
 11
1667.6761489882049
 21
-688.12196341279366
 31
0.0
  0
LINE
  5
221B6
  8
01
 10
1669.1761489882049
 20
-688.12196341279366
 30
0.0
 11
1667.6761489882049
 21
-688.12196341279366
 31
0.0
  0
LINE
  5
221B7
  8
01
 10
1667.6761489882049
 20
-688.12196341279366
 30
0.0
 11
1665.9761489882051
 21
-688.12196341279366
 31
0.0
  0
LINE
  5
221B8
  8
01
 10
1681.1761489882049
 20
-718.62196341279378
 30
0.0
 11
1681.1761489882049
 21
-688.12196341279366
 31
0.0
  0
LINE
  5
221B9
  8
01
 10
1682.676148988204
 20
-718.62196341279378
 30
0.0
 11
1682.676148988204
 21
-688.12196341279366
 31
0.0
  0
LINE
  5
221BA
  8
01
 10
1682.676148988204
 20
-718.62196341279378
 30
0.0
 11
1681.1761489882049
 21
-718.62196341279378
 31
0.0
  0
LINE
  5
221BB
  8
01
 10
1669.1761489882049
 20
-718.62196341279378
 30
0.0
 11
1667.6761489882049
 21
-718.62196341279378
 31
0.0
  0
LINE
  5
221BC
  8
01
 10
1667.6761489882049
 20
-718.62196341279378
 30
0.0
 11
1665.9761489882051
 21
-718.62196341279378
 31
0.0
  0
ARC
  5
221BD
  8
01
 10
1613.875372859716
 20
-703.37196341279378
 30
0.0
 40
12.70000000000012
 50
90.0
 51
270.0
  0
LINE
  5
221BE
  8
01
 10
1669.9761489882051
 20
-697.37196341279366
 30
0.0
 11
1679.9761489882039
 21
-697.37196341279366
 31
0.0
  0
LINE
  5
221BF
  8
01
 10
1669.9761489882051
 20
-709.37196341279366
 30
0.0
 11
1679.9761489882039
 21
-709.37196341279366
 31
0.0
  0
LINE
  5
221C0
  8
01
 10
1669.9761489882051
 20
-709.37196341279366
 30
0.0
 11
1669.9761489882051
 21
-697.37196341279366
 31
0.0
  0
LINE
  5
221C1
  8
01
 10
1679.9761489882039
 20
-709.37196341279366
 30
0.0
 11
1679.9761489882039
 21
-697.37196341279366
 31
0.0
  0
ARC
  5
221C2
  8
01
 10
1741.4761489882039
 20
-703.37196341279378
 30
0.0
 40
15.0
 50
237.8509475739682
 51
122.1490524260318
  0
ARC
  5
221C3
  8
01
 10
1613.875372859716
 20
-703.37196341279378
 30
0.0
 40
15.00000000000003
 50
57.850947573968163
 51
302.14905242603191
  0
LINE
  5
221C4
  8
1PHANTOM
 10
1698.8761489882049
 20
-692.12196341279366
 30
0.0
 11
1699.876148988204
 21
-693.12196341279332
 31
0.0
  0
TEXT
  5
22246
  8
1TEXT
 10
1737.4695699315489
 20
-601.08631337639395
 30
0.0
 40
4.0
  1
DH-784-XPM
 41
0.8
 72
     1
 11
1752.9362365982149
 21
-601.08631337639395
 31
0.0
  0
TEXT
  5
22248
  8
1TEXT
 10
1643.669569931548
 20
-600.70724505226917
 30
0.0
 40
4.0
  1
鏡面
 72
     1
 11
1647.9362365982149
 21
-600.70724505226917
 31
0.0
  0
TEXT
  5
2224A
  8
1TEXT
 10
1671.469569931548
 20
-600.70724505226917
 30
0.0
 40
4.0
  1
ステンレス
 72
     1
 11
1682.936236598214
 21
-600.70724505226917
 31
0.0
  0
TEXT
  5
222FF
  8
1TEXT
 10
1703.656236598214
 20
-593.87195639274466
 30
0.0
 40
4.0
  1
表面処理：握り
 41
0.9
 72
     1
 11
1717.936236598214
 21
-593.87195639274466
 31
0.0
  0
LINE
  5
22300
  8
1DIM
 10
1700.5362365982151
 20
-602.37195639274455
 30
0.0
 11
1700.5362365982151
 21
-588.37195639274466
 31
0.0
  0
TEXT
  5
22304
  8
1TEXT
 10
1713.669569931548
 20
-600.70724505226917
 30
0.0
 40
4.0
  1
鏡面
 72
     1
 11
1717.936236598214
 21
-600.70724505226917
 31
0.0
  0
CIRCLE
  5
22772
  8
01
 10
1098.699712335484
 20
-568.17196273160675
 30
0.0
 40
4.0
  0
CIRCLE
  5
22773
  8
01
 10
1523.599649938177
 20
-568.17196273160675
 30
0.0
 40
4.0
  0
LINE
  5
22774
  8
1DIM
 10
1548.225584085897
 20
-588.37196341279412
 30
0.0
 11
1571.611973190636
 21
-588.37196341279412
 31
0.0
  0
LINE
  5
22775
  8
1DIM
 10
1485.59968113683
 20
-635.97196341279391
 30
0.0
 11
1571.611973190636
 21
-635.97196341279391
 31
0.0
  0
LINE
  5
22776
  8
1DIM
 10
1570.611973190636
 20
-590.371963412794
 30
0.0
 11
1570.611973190636
 21
-633.97196341279391
 31
0.0
  0
LINE
  5
2277A
  8
1DIM1
 10
1083.449654985166
 20
-703.37196341279423
 30
0.0
 11
1083.449654985166
 21
-798.37196341279423
 31
0.0
  0
LINE
  5
2277B
  8
1DIM1
 10
1538.849707288495
 20
-703.37196341279423
 30
0.0
 11
1538.849707288495
 21
-798.37196341279423
 31
0.0
  0
LINE
  5
2277C
  8
1DIM1
 10
1093.449654985166
 20
-793.37196341279423
 30
0.0
 11
1528.849707288495
 21
-793.37196341279423
 31
0.0
  0
LINE
  5
22780
  8
1DIM1
 10
1523.599707288495
 20
-712.37196341279423
 30
0.0
 11
1523.599707288495
 21
-768.37196341279423
 31
0.0
  0
LINE
  5
22781
  8
1DIM1
 10
1098.699654985166
 20
-712.37196341279423
 30
0.0
 11
1098.699654985166
 21
-768.37196341279423
 31
0.0
  0
LINE
  5
22782
  8
1DIM1
 10
1513.599707288495
 20
-763.37196341279423
 30
0.0
 11
1108.699654985166
 21
-763.37196341279423
 31
0.0
  0
TEXT
  5
22786
  8
1DIM
 10
1534.8120933216289
 20
-678.15832334923255
 30
0.0
 40
3.5
  1
材質：ステンレス
  0
TEXT
  5
22787
  8
1DIM
 10
1534.8120933216289
 20
-683.9916566825658
 30
0.0
 40
3.5
  1
仕上げ：鏡面
  0
SOLID
  5
22788
  8
1DIM
 10
1529.18650059687
 20
-701.40937536285492
 30
0.0
 11
1528.4759628268789
 21
-703.30838752409227
 31
0.0
 12
1528.5321973137659
 22
-701.28157998670861
 32
0.0
 13
1528.5321973137659
 23
-701.28157998670861
 33
0.0
1001
ACAD
1000
DSTYLE
1002
{
1070
    45
1040
0.5
1002
}
  0
TEXT
  5
2278A
  8
1DIM
 10
1457.8817873698019
 20
-678.15832334923255
 30
0.0
 40
3.5
  1
材質：各種材質
  0
TEXT
  5
2278B
  8
1DIM
 10
1457.8817873698019
 20
-683.9916566825658
 30
0.0
 40
3.5
  1
仕上げ：各種仕上げ
  0
SOLID
  5
2278C
  8
1DIM
 10
1452.2561946450439
 20
-701.40937536285492
 30
0.0
 11
1451.5456568750531
 21
-703.30838752409227
 31
0.0
 12
1451.60189136194
 22
-701.28157998670861
 32
0.0
 13
1451.60189136194
 23
-701.28157998670861
 33
0.0
1001
ACAD
1000
DSTYLE
1002
{
1070
    45
1040
0.5
1002
}
  0
TEXT
  5
2278E
  8
1DIM
 10
1692.575696490821
 20
-664.20281787758654
 30
0.0
 40
3.5
  1
材質：ゴム
  0
TEXT
  5
2278F
  8
1DIM
 10
1691.8756964908209
 20
-670.03615121091991
 30
0.0
 40
3.5
  1
※ガラス扉に取付ける場合使用
  0
SOLID
  5
22790
  8
1DIM
 10
1678.3755642188239
 20
-694.23717377243463
 30
0.0
 11
1677.1761489882049
 21
-695.87195639274478
 31
0.0
 12
1677.7805311943659
 22
-693.93654086630443
 32
0.0
 13
1677.7805311943659
 23
-693.93654086630443
 33
0.0
  0
TEXT
  5
22792
  8
1DIM
 10
1594.1757039092031
 20
-735.01218555615606
 30
0.0
 40
3.5
  1
扉対応厚21～56mm　加工穴径\U+03C610
  0
TEXT
  5
22793
  8
1DIM
 10
1592.19237057587
 20
-740.84551888948954
 30
0.0
 40
3.5
  1
ガラス扉対応厚12mm　加工穴径\U+03C612
  0
SOLID
  5
22794
  8
1DIM
 10
1673.5830959533801
 20
-728.90214849119945
 30
0.0
 11
1674.8406970259871
 21
-727.31169237634185
 31
0.0
 12
1674.1668979945559
 22
-729.22404850853934
 32
0.0
 13
1674.1668979945559
 23
-729.22404850853934
 33
0.0
  0
LINE
  5
22796
  8
1DIM
 10
1563.1761312684671
 20
-576.37196341279412
 30
0.0
 11
1574.6761489882049
 21
-576.37196341279412
 31
0.0
  0
LINE
  5
22797
  8
1DIM
 10
1529.0846643792299
 20
-568.17196273160675
 30
0.0
 11
1574.6761489882049
 21
-568.17196273160675
 31
0.0
  0
LINE
  5
22798
  8
1DIM
 10
1573.6761489882049
 20
-574.371963412794
 30
0.0
 11
1573.6761489882049
 21
-570.17196273160687
 31
0.0
  0
LINE
  5
2279C
  8
1DIM
 10
1563.1761312684671
 20
-588.37196341279412
 30
0.0
 11
1586.6532579335949
 21
-588.37196341279412
 31
0.0
  0
LINE
  5
2279D
  8
1DIM
 10
1485.59968113683
 20
-661.371963412794
 30
0.0
 11
1586.6532579335949
 21
-661.371963412794
 31
0.0
  0
LINE
  5
2279E
  8
1DIM
 10
1585.6532579335949
 20
-590.371963412794
 30
0.0
 11
1585.6532579335949
 21
-659.37196341279412
 31
0.0
  0
LINE
  5
227A2
  8
1DIM
 10
1523.599707288495
 20
-688.12196341279434
 30
0.0
 11
1574.6761489882049
 21
-688.12196341279434
 31
0.0
  0
LINE
  5
227A3
  8
1DIM
 10
1523.599707288495
 20
-718.62196341279412
 30
0.0
 11
1574.6761489882049
 21
-718.62196341279412
 31
0.0
  0
LINE
  5
227A4
  8
1DIM
 10
1573.6761489882049
 20
-690.12196341279434
 30
0.0
 11
1573.6761489882049
 21
-716.62196341279412
 31
0.0
  0
LINE
  5
227A8
  8
1DIM
 10
1439.6965437893509
 20
-690.67196341279407
 30
0.0
 11
1440.7501336310229
 21
-690.67196341279407
 31
0.0
  0
LINE
  5
227A9
  8
1DIM
 10
1439.750133630537
 20
-716.07196341279428
 30
0.0
 11
1440.7501336310229
 21
-716.07196341279428
 31
0.0
  0
LINE
  5
227AA
  8
1DIM
 10
1439.7501336310229
 20
-692.67196341279407
 30
0.0
 11
1439.7501336310229
 21
-714.07196341279416
 31
0.0
  0
LINE
  5
227AB
  8
1DIM
 10
1439.7501336310229
 20
-716.07196341279428
 30
0.0
 11
1439.7501336310229
 21
-747.25529674612756
 31
0.0
  0
TEXT
  5
227AF
  8
1DIM
 10
1439.0501336310231
 20
-746.83863007946081
 30
0.0
 40
3.5
  1
\U+03C625.4
 50
90.0
  0
LINE
  5
227B0
  8
0
  6
BYBLOCK
 10
1440.2860320110231
 20
-714.07196341279416
 30
0.0
 11
1439.7501336310229
 21
-716.07196341279428
 31
0.0
  0
LINE
  5
227B1
  8
0
  6
BYBLOCK
 10
1439.7501336310229
 20
-716.07196341279428
 30
0.0
 11
1439.214235251023
 21
-714.07196341279416
 31
0.0
  0
LINE
  5
227B2
  8
0
  6
BYBLOCK
 10
1439.7501336310229
 20
-716.07196341279428
 30
0.0
 11
1439.7501336310229
 21
-714.07196341279416
 31
0.0
  0
LINE
  5
227B3
  8
0
  6
BYBLOCK
 10
1439.214235251023
 20
-692.67196341279407
 30
0.0
 11
1439.7501336310229
 21
-690.67196341279407
 31
0.0
  0
LINE
  5
227B4
  8
0
  6
BYBLOCK
 10
1439.7501336310229
 20
-690.67196341279407
 30
0.0
 11
1440.2860320110231
 21
-692.67196341279407
 31
0.0
  0
LINE
  5
227B5
  8
0
  6
BYBLOCK
 10
1439.7501336310229
 20
-690.67196341279407
 30
0.0
 11
1439.7501336310229
 21
-692.67196341279407
 31
0.0
  0
TEXT
  5
227B6
  8
1DIM
 10
1572.9761489882051
 20
-708.33029674612726
 30
0.0
 40
3.5
  1
30.5
 50
90.0
  0
LINE
  5
227B7
  8
0
  6
BYBLOCK
 10
1574.212047368205
 20
-716.62196341279412
 30
0.0
 11
1573.6761489882049
 21
-718.62196341279412
 31
0.0
  0
LINE
  5
227B8
  8
0
  6
BYBLOCK
 10
1573.6761489882049
 20
-718.62196341279412
 30
0.0
 11
1573.140250608205
 21
-716.62196341279412
 31
0.0
  0
LINE
  5
227B9
  8
0
  6
BYBLOCK
 10
1573.6761489882049
 20
-718.62196341279412
 30
0.0
 11
1573.6761489882049
 21
-716.62196341279412
 31
0.0
  0
LINE
  5
227BA
  8
0
  6
BYBLOCK
 10
1573.140250608205
 20
-690.12196341279434
 30
0.0
 11
1573.6761489882049
 21
-688.12196341279434
 31
0.0
  0
LINE
  5
227BB
  8
0
  6
BYBLOCK
 10
1573.6761489882049
 20
-688.12196341279434
 30
0.0
 11
1574.212047368205
 21
-690.12196341279434
 31
0.0
  0
LINE
  5
227BC
  8
0
  6
BYBLOCK
 10
1573.6761489882049
 20
-688.12196341279434
 30
0.0
 11
1573.6761489882049
 21
-690.12196341279434
 31
0.0
  0
TEXT
  5
227BD
  8
1DIM
 10
1584.9532579335951
 20
-627.78863007946052
 30
0.0
 40
3.5
  1
73
 50
90.0
  0
LINE
  5
227BE
  8
0
  6
BYBLOCK
 10
1586.189156313595
 20
-659.37196341279412
 30
0.0
 11
1585.6532579335949
 21
-661.371963412794
 31
0.0
  0
LINE
  5
227BF
  8
0
  6
BYBLOCK
 10
1585.6532579335949
 20
-661.371963412794
 30
0.0
 11
1585.117359553595
 21
-659.37196341279412
 31
0.0
  0
LINE
  5
227C0
  8
0
  6
BYBLOCK
 10
1585.6532579335949
 20
-661.371963412794
 30
0.0
 11
1585.6532579335949
 21
-659.37196341279412
 31
0.0
  0
LINE
  5
227C1
  8
0
  6
BYBLOCK
 10
1585.117359553595
 20
-590.371963412794
 30
0.0
 11
1585.6532579335949
 21
-588.37196341279412
 31
0.0
  0
LINE
  5
227C2
  8
0
  6
BYBLOCK
 10
1585.6532579335949
 20
-588.37196341279412
 30
0.0
 11
1586.189156313595
 21
-590.371963412794
 31
0.0
  0
LINE
  5
227C3
  8
0
  6
BYBLOCK
 10
1585.6532579335949
 20
-588.37196341279412
 30
0.0
 11
1585.6532579335949
 21
-590.371963412794
 31
0.0
  0
TEXT
  5
227C4
  8
1DIM
 10
1572.9761489882051
 20
-573.43862973886689
 30
0.0
 40
3.5
  1
8
 50
90.0
  0
LINE
  5
227C5
  8
0
  6
BYBLOCK
 10
1573.140250608205
 20
-570.17196273160687
 30
0.0
 11
1573.6761489882049
 21
-568.17196273160675
 31
0.0
  0
LINE
  5
227C6
  8
0
  6
BYBLOCK
 10
1573.6761489882049
 20
-568.17196273160675
 30
0.0
 11
1574.212047368205
 21
-570.17196273160687
 31
0.0
  0
LINE
  5
227C7
  8
0
  6
BYBLOCK
 10
1573.6761489882049
 20
-568.17196273160675
 30
0.0
 11
1573.6761489882049
 21
-570.17196273160687
 31
0.0
  0
LINE
  5
227C8
  8
0
  6
BYBLOCK
 10
1574.212047368205
 20
-574.371963412794
 30
0.0
 11
1573.6761489882049
 21
-576.37196341279412
 31
0.0
  0
LINE
  5
227C9
  8
0
  6
BYBLOCK
 10
1573.6761489882049
 20
-576.37196341279412
 30
0.0
 11
1573.140250608205
 21
-574.371963412794
 31
0.0
  0
LINE
  5
227CA
  8
0
  6
BYBLOCK
 10
1573.6761489882049
 20
-576.37196341279412
 30
0.0
 11
1573.6761489882049
 21
-574.371963412794
 31
0.0
  0
LINE
  5
227CB
  8
1DIM
 10
1673.8749969739681
 20
-729.06309849986951
 30
0.0
 11
1666.9923705758699
 21
-741.54551888948947
 31
0.0
  0
LINE
  5
227CC
  8
1DIM
 10
1666.9923705758699
 20
-741.54551888948947
 30
0.0
 11
1664.2923705758701
 21
-741.54551888948947
 31
0.0
  0
LINE
  5
227CD
  8
1DIM
 10
1678.078047706596
 20
-694.08685731936953
 30
0.0
 11
1689.8756964908209
 21
-670.73615121091996
 31
0.0
  0
LINE
  5
227CE
  8
1DIM
 10
1689.8756964908209
 20
-670.73615121091996
 30
0.0
 11
1692.575696490821
 21
-670.73615121091996
 31
0.0
  0
LINE
  5
227CF
  8
1DIM
 10
1451.9290430034921
 20
-701.34547767478182
 30
0.0
 11
1455.1817873698019
 21
-684.69165668256585
 31
0.0
1001
ACAD
1000
DSTYLE
1002
{
1070
    45
1040
0.5
1002
}
  0
LINE
  5
227D0
  8
1DIM
 10
1455.1817873698019
 20
-684.69165668256585
 30
0.0
 11
1457.8817873698019
 21
-684.69165668256585
 31
0.0
1001
ACAD
1000
DSTYLE
1002
{
1070
    45
1040
0.5
1002
}
  0
LINE
  5
227D1
  8
1DIM
 10
1528.859348955318
 20
-701.34547767478182
 30
0.0
 11
1532.1120933216289
 21
-684.69165668256585
 31
0.0
1001
ACAD
1000
DSTYLE
1002
{
1070
    45
1040
0.5
1002
}
  0
LINE
  5
227D2
  8
1DIM
 10
1532.1120933216289
 20
-684.69165668256585
 30
0.0
 11
1534.8120933216289
 21
-684.69165668256585
 31
0.0
1001
ACAD
1000
DSTYLE
1002
{
1070
    45
1040
0.5
1002
}
  0
TEXT
  5
227D3
  8
1DIM1
 10
1279.0663478034969
 20
-759.87196341279423
 30
0.0
 40
17.5
  1
P425
  0
LINE
  5
227D4
  8
0
  6
BYBLOCK
 10
1108.699654985166
 20
-766.05145531279425
 30
0.0
 11
1098.699654985166
 21
-763.37196341279423
 31
0.0
  0
LINE
  5
227D5
  8
0
  6
BYBLOCK
 10
1098.699654985166
 20
-763.37196341279423
 30
0.0
 11
1108.699654985166
 21
-760.6924715127941
 31
0.0
  0
LINE
  5
227D6
  8
0
  6
BYBLOCK
 10
1098.699654985166
 20
-763.37196341279423
 30
0.0
 11
1108.699654985166
 21
-763.37196341279423
 31
0.0
  0
LINE
  5
227D7
  8
0
  6
BYBLOCK
 10
1513.599707288495
 20
-760.6924715127941
 30
0.0
 11
1523.599707288495
 21
-763.37196341279423
 31
0.0
  0
LINE
  5
227D8
  8
0
  6
BYBLOCK
 10
1523.599707288495
 20
-763.37196341279423
 30
0.0
 11
1513.599707288495
 21
-766.05145531279425
 31
0.0
  0
LINE
  5
227D9
  8
0
  6
BYBLOCK
 10
1523.599707288495
 20
-763.37196341279423
 30
0.0
 11
1513.599707288495
 21
-763.37196341279423
 31
0.0
  0
TEXT
  5
227DA
  8
1DIM1
 10
1276.1496811368299
 20
-789.87196341279423
 30
0.0
 40
17.5
  1
455.5
  0
LINE
  5
227DB
  8
0
  6
BYBLOCK
 10
1528.849707288495
 20
-790.69247151279421
 30
0.0
 11
1538.849707288495
 21
-793.37196341279423
 31
0.0
  0
LINE
  5
227DC
  8
0
  6
BYBLOCK
 10
1538.849707288495
 20
-793.37196341279423
 30
0.0
 11
1528.849707288495
 21
-796.05145531279425
 31
0.0
  0
LINE
  5
227DD
  8
0
  6
BYBLOCK
 10
1538.849707288495
 20
-793.37196341279423
 30
0.0
 11
1528.849707288495
 21
-793.37196341279423
 31
0.0
  0
LINE
  5
227DE
  8
0
  6
BYBLOCK
 10
1093.449654985166
 20
-796.05145531279425
 30
0.0
 11
1083.449654985166
 21
-793.37196341279423
 31
0.0
  0
LINE
  5
227DF
  8
0
  6
BYBLOCK
 10
1083.449654985166
 20
-793.37196341279423
 30
0.0
 11
1093.449654985166
 21
-790.69247151279421
 31
0.0
  0
LINE
  5
227E0
  8
0
  6
BYBLOCK
 10
1083.449654985166
 20
-793.37196341279423
 30
0.0
 11
1093.449654985166
 21
-793.37196341279423
 31
0.0
  0
TEXT
  5
227E1
  8
1DIM
 10
1569.911973190636
 20
-617.42196341279384
 30
0.0
 40
3.5
  1
47.6
 50
90.0
  0
LINE
  5
227E2
  8
0
  6
BYBLOCK
 10
1571.147871570636
 20
-633.97196341279391
 30
0.0
 11
1570.611973190636
 21
-635.97196341279391
 31
0.0
  0
LINE
  5
227E3
  8
0
  6
BYBLOCK
 10
1570.611973190636
 20
-635.97196341279391
 30
0.0
 11
1570.0760748106361
 21
-633.97196341279391
 31
0.0
  0
LINE
  5
227E4
  8
0
  6
BYBLOCK
 10
1570.611973190636
 20
-635.97196341279391
 30
0.0
 11
1570.611973190636
 21
-633.97196341279391
 31
0.0
  0
LINE
  5
227E5
  8
0
  6
BYBLOCK
 10
1570.0760748106361
 20
-590.371963412794
 30
0.0
 11
1570.611973190636
 21
-588.37196341279412
 31
0.0
  0
LINE
  5
227E6
  8
0
  6
BYBLOCK
 10
1570.611973190636
 20
-588.37196341279412
 30
0.0
 11
1571.147871570636
 21
-590.371963412794
 31
0.0
  0
LINE
  5
227E7
  8
0
  6
BYBLOCK
 10
1570.611973190636
 20
-588.37196341279412
 30
0.0
 11
1570.611973190636
 21
-590.371963412794
 31
0.0
  0
VIEWPORT
  5
57
 67
     1
  8
0
 10
-12.71820606546885
 20
10.09248672500371
 30
0.0
 40
615.37975018523878
 41
282.6574784749148
 68
     1
 69
     1
1001
ACAD
1000
MVIEW
1002
{
1070
    16
1010
0.0
1020
0.0
1030
0.0
1010
0.0
1020
0.0
1030
1.0
1040
0.0
1040
282.6574784749148
1040
-12.71820606546885
1040
10.09248672500371
1040
50.0
1040
0.0
1040
0.0
1070
     0
1070
   100
1070
     1
1070
     1
1070
     0
1070
     0
1070
     0
1070
     0
1040
0.0
1040
0.0
1040
0.0
1040
10.0
1040
10.0
1040
10.0
1040
10.0
1070
     0
1002
{
1002
}
1002
}
  0
ENDSEC
  0
EOF
